  0
SECTION
  2
HEADER
  9
$ACADVER
  1
AC1015
  9
$ACADMAINTVER
 70
    10
  9
$DWGCODEPAGE
  3
ANSI_932
  9
$INSBASE
 10
0.0
 20
0.0
 30
0.0
  9
$EXTMIN
 10
-241.1707076761158
 20
176.9529225947302
 30
0.0
  9
$EXTMAX
 10
335.3703291351257
 20
675.889350427465
 30
1.004996417558615E+99
  9
$LIMMIN
 10
0.0
 20
0.0
  9
$LIMMAX
 10
420.0
 20
297.0
  9
$ORTHOMODE
 70
     0
  9
$REGENMODE
 70
     1
  9
$FILLMODE
 70
     1
  9
$QTEXTMODE
 70
     0
  9
$MIRRTEXT
 70
     1
  9
$LTSCALE
 40
1.0
  9
$ATTMODE
 70
     1
  9
$TEXTSIZE
 40
3.0
  9
$TRACEWID
 40
1.0
  9
$TEXTSTYLE
  7
STANDARD
  9
$CLAYER
  8
0
  9
$CELTYPE
  6
BYLAYER
  9
$CECOLOR
 62
   256
  9
$CELTSCALE
 40
1.0
  9
$DISPSILH
 70
     0
  9
$DIMSCALE
 40
1.0
  9
$DIMASZ
 40
3.0
  9
$DIMEXO
 40
1.5
  9
$DIMDLI
 40
5.0
  9
$DIMRND
 40
0.0
  9
$DIMDLE
 40
0.0
  9
$DIMEXE
 40
0.75
  9
$DIMTP
 40
0.0
  9
$DIMTM
 40
0.0
  9
$DIMTXT
 40
6.0
  9
$DIMCEN
 40
2.5
  9
$DIMTSZ
 40
0.0
  9
$DIMTOL
 70
     0
  9
$DIMLIM
 70
     0
  9
$DIMTIH
 70
     0
  9
$DIMTOH
 70
     0
  9
$DIMSE1
 70
     0
  9
$DIMSE2
 70
     0
  9
$DIMTAD
 70
     1
  9
$DIMZIN
 70
     9
  9
$DIMBLK
  1

  9
$DIMASO
 70
     1
  9
$DIMSHO
 70
     1
  9
$DIMPOST
  1

  9
$DIMAPOST
  1

  9
$DIMALT
 70
     0
  9
$DIMALTD
 70
     4
  9
$DIMALTF
 40
0.0394
  9
$DIMLFAC
 40
1.0
  9
$DIMTOFL
 70
     1
  9
$DIMTVP
 40
0.0
  9
$DIMTIX
 70
     0
  9
$DIMSOXD
 70
     0
  9
$DIMSAH
 70
     1
  9
$DIMBLK1
  1
OPEN
  9
$DIMBLK2
  1
OPEN
  9
$DIMSTYLE
  2
STANDARD
  9
$DIMCLRD
 70
     0
  9
$DIMCLRE
 70
     0
  9
$DIMCLRT
 70
     7
  9
$DIMTFAC
 40
1.0
  9
$DIMGAP
 40
1.5
  9
$DIMJUST
 70
     0
  9
$DIMSD1
 70
     0
  9
$DIMSD2
 70
     0
  9
$DIMTOLJ
 70
     1
  9
$DIMTZIN
 70
     9
  9
$DIMALTZ
 70
     0
  9
$DIMALTTZ
 70
     0
  9
$DIMUPT
 70
     0
  9
$DIMDEC
 70
     4
  9
$DIMTDEC
 70
     4
  9
$DIMALTU
 70
     8
  9
$DIMALTTD
 70
     4
  9
$DIMTXSTY
  7
STANDARD
  9
$DIMAUNIT
 70
     0
  9
$DIMADEC
 70
     0
  9
$DIMALTRND
 40
0.0
  9
$DIMAZIN
 70
     2
  9
$DIMDSEP
 70
    46
  9
$DIMATFIT
 70
     3
  9
$DIMFRAC
 70
     0
  9
$DIMLDRBLK
  1
OPEN
  9
$DIMLUNIT
 70
     2
  9
$DIMLWD
 70
    -2
  9
$DIMLWE
 70
    -2
  9
$DIMTMOVE
 70
     2
  9
$LUNITS
 70
     2
  9
$LUPREC
 70
     4
  9
$SKETCHINC
 40
1.0
  9
$FILLETRAD
 40
10.0
  9
$AUNITS
 70
     0
  9
$AUPREC
 70
     0
  9
$MENU
  1
.
  9
$ELEVATION
 40
0.0
  9
$PELEVATION
 40
0.0
  9
$THICKNESS
 40
0.0
  9
$LIMCHECK
 70
     0
  9
$CHAMFERA
 40
0.0
  9
$CHAMFERB
 40
0.0
  9
$CHAMFERC
 40
20.0
  9
$CHAMFERD
 40
0.0
  9
$SKPOLY
 70
     0
  9
$TDCREATE
 40
2451224.660162384
  9
$TDUCREATE
 40
2451224.285162384
  9
$TDUPDATE
 40
2457366.484994027
  9
$TDUUPDATE
 40
2457366.109994028
  9
$TDINDWG
 40
0.8736594097
  9
$TDUSRTIMER
 40
2457317.273382963
  9
$USRTIMER
 70
     1
  9
$ANGBASE
 50
0.0
  9
$ANGDIR
 70
     0
  9
$PDMODE
 70
     0
  9
$PDSIZE
 40
0.0
  9
$PLINEWID
 40
0.0
  9
$SPLFRAME
 70
     0
  9
$SPLINETYPE
 70
     6
  9
$SPLINESEGS
 70
     8
  9
$HANDSEED
  5
8881
  9
$SURFTAB1
 70
     6
  9
$SURFTAB2
 70
     6
  9
$SURFTYPE
 70
     6
  9
$SURFU
 70
     6
  9
$SURFV
 70
     6
  9
$UCSBASE
  2

  9
$UCSNAME
  2

  9
$UCSORG
 10
0.0
 20
0.0
 30
0.0
  9
$UCSXDIR
 10
1.0
 20
0.0
 30
0.0
  9
$UCSYDIR
 10
0.0
 20
1.0
 30
0.0
  9
$UCSORTHOREF
  2

  9
$UCSORTHOVIEW
 70
     0
  9
$UCSORGTOP
 10
0.0
 20
0.0
 30
0.0
  9
$UCSORGBOTTOM
 10
0.0
 20
0.0
 30
0.0
  9
$UCSORGLEFT
 10
0.0
 20
0.0
 30
0.0
  9
$UCSORGRIGHT
 10
0.0
 20
0.0
 30
0.0
  9
$UCSORGFRONT
 10
0.0
 20
0.0
 30
0.0
  9
$UCSORGBACK
 10
0.0
 20
0.0
 30
0.0
  9
$PUCSBASE
  2

  9
$PUCSNAME
  2

  9
$PUCSORG
 10
0.0
 20
0.0
 30
0.0
  9
$PUCSXDIR
 10
1.0
 20
0.0
 30
0.0
  9
$PUCSYDIR
 10
0.0
 20
1.0
 30
0.0
  9
$PUCSORTHOREF
  2

  9
$PUCSORTHOVIEW
 70
     0
  9
$PUCSORGTOP
 10
0.0
 20
0.0
 30
0.0
  9
$PUCSORGBOTTOM
 10
0.0
 20
0.0
 30
0.0
  9
$PUCSORGLEFT
 10
0.0
 20
0.0
 30
0.0
  9
$PUCSORGRIGHT
 10
0.0
 20
0.0
 30
0.0
  9
$PUCSORGFRONT
 10
0.0
 20
0.0
 30
0.0
  9
$PUCSORGBACK
 10
0.0
 20
0.0
 30
0.0
  9
$USERI1
 70
     0
  9
$USERI2
 70
     0
  9
$USERI3
 70
     0
  9
$USERI4
 70
     0
  9
$USERI5
 70
     0
  9
$USERR1
 40
0.0
  9
$USERR2
 40
0.0
  9
$USERR3
 40
0.0
  9
$USERR4
 40
0.0
  9
$USERR5
 40
0.0
  9
$WORLDVIEW
 70
     1
  9
$SHADEDGE
 70
     3
  9
$SHADEDIF
 70
    70
  9
$TILEMODE
 70
     1
  9
$MAXACTVP
 70
    48
  9
$PINSBASE
 10
0.0
 20
0.0
 30
0.0
  9
$PLIMCHECK
 70
     0
  9
$PEXTMIN
 10
40.49999999999999
 20
25.69999999999998
 30
0.0
  9
$PEXTMAX
 10
364.5
 20
231.3
 30
0.0
  9
$PLIMMIN
 10
0.0
 20
0.0
  9
$PLIMMAX
 10
0.0
 20
0.0
  9
$UNITMODE
 70
     0
  9
$VISRETAIN
 70
     1
  9
$PLINEGEN
 70
     0
  9
$PSLTSCALE
 70
     1
  9
$TREEDEPTH
 70
  3020
  9
$CMLSTYLE
  2
STANDARD
  9
$CMLJUST
 70
     0
  9
$CMLSCALE
 40
20.0
  9
$PROXYGRAPHICS
 70
     1
  9
$MEASUREMENT
 70
     1
  9
$CELWEIGHT
370
    -1
  9
$ENDCAPS
280
     0
  9
$JOINSTYLE
280
     0
  9
$LWDISPLAY
290
     1
  9
$INSUNITS
 70
     0
  9
$HYPERLINKBASE
  1

  9
$STYLESHEET
  1

  9
$XEDIT
290
     1
  9
$CEPSNTYPE
380
     0
  9
$PSTYLEMODE
290
     1
  9
$FINGERPRINTGUID
  2
{6B368F64-F7EB-11D4-BFBA-00004C030E53}
  9
$VERSIONGUID
  2
{DDBEC1FE-6F8D-4894-831C-0CCDDCA364C0}
  9
$EXTNAMES
290
     1
  9
$PSVPSCALE
 40
0.0
  9
$OLESTARTUP
290
     0
  0
ENDSEC
  0
SECTION
  2
CLASSES
  0
CLASS
  1
HATCH
  2
AcDbHatch
  3
AutoCAD 2000
 90
    32768
280
     0
281
     1
  0
CLASS
  1
LWPOLYLINE
  2
AcDbPolyline
  3
AutoCAD 2000
 90
    32768
280
     0
281
     1
  0
CLASS
  1
ACDBDICTIONARYWDFLT
  2
AcDbDictionaryWithDefault
  3
AutoCAD 2000
 90
        0
280
     0
281
     0
  0
CLASS
  1
ACDBPLACEHOLDER
  2
AcDbPlaceHolder
  3
AutoCAD 2000
 90
        0
280
     0
281
     0
  0
CLASS
  1
LAYOUT
  2
AcDbLayout
  3
AutoCAD 2000
 90
        0
280
     0
281
     0
  0
CLASS
  1
VISUALSTYLE
  2
AcDbVisualStyle
  3
ObjectDBX Classes
 90
    36863
280
     0
281
     0
  0
CLASS
  1
SCALE
  2
AcDbScale
  3
ObjectDBX Classes
 90
     1153
280
     0
281
     0
  0
CLASS
  1
MATERIAL
  2
AcDbMaterial
  3
ObjectDBX Classes
 90
    33921
280
     0
281
     0
  0
CLASS
  1
TABLESTYLE
  2
AcDbTableStyle
  3
ObjectDBX Classes
 90
    36863
280
     0
281
     0
  0
CLASS
  1
MLEADERSTYLE
  2
AcDbMLeaderStyle
  3
ACDB_MLEADERSTYLE_CLASS
 90
    36863
280
     0
281
     0
  0
CLASS
  1
SUN
  2
AcDbSun
  3
SCENEOE
 90
     1153
280
     0
281
     0
  0
CLASS
  1
RASTERVARIABLES
  2
AcDbRasterVariables
  3
ISM
 90
        0
280
     0
281
     0
  0
ENDSEC
  0
SECTION
  2
TABLES
  0
TABLE
  2
VPORT
  5
8
330
0
100
AcDbSymbolTable
 70
     2
  0
VPORT
  5
8880
330
8
100
AcDbSymbolTableRecord
100
AcDbViewportTableRecord
  2
*Active
 70
     0
 10
0.0
 20
0.0
 11
1.0
 21
1.0
 12
211.057036617839
 22
452.0791525906193
 13
0.0
 23
0.0
 14
10.0
 24
10.0
 15
10.0
 25
10.0
 16
0.0
 26
0.0
 36
1.0
 17
0.0
 27
0.0
 37
0.0
 40
581.5323158950386
 41
1.562182741116751
 42
50.0
 43
0.0
 44
0.0
 50
0.0
 51
0.0
 71
     0
 72
   100
 73
     1
 74
     0
 75
     0
 76
     0
 77
     0
 78
     0
281
     0
 65
     1
110
0.0
120
0.0
130
0.0
111
1.0
121
0.0
131
0.0
112
0.0
122
1.0
132
0.0
 79
     0
146
0.0
  0
ENDTAB
  0
TABLE
  2
LTYPE
  5
5
330
0
100
AcDbSymbolTable
 70
     1
  0
LTYPE
  5
12
330
5
100
AcDbSymbolTableRecord
100
AcDbLinetypeTableRecord
  2
BYBLOCK
 70
     0
  3

 72
    65
 73
     0
 40
0.0
  0
LTYPE
  5
13
330
5
100
AcDbSymbolTableRecord
100
AcDbLinetypeTableRecord
  2
BYLAYER
 70
     0
  3

 72
    65
 73
     0
 40
0.0
  0
LTYPE
  5
14
330
5
100
AcDbSymbolTableRecord
100
AcDbLinetypeTableRecord
  2
CONTINUOUS
 70
     0
  3
Solid line
 72
    65
 73
     0
 40
0.0
  0
ENDTAB
  0
TABLE
  2
LAYER
  5
2
330
0
100
AcDbSymbolTable
 70
     1
  0
LAYER
  5
E
330
2
100
AcDbSymbolTableRecord
100
AcDbLayerTableRecord
  2
0
 70
     0
 62
     7
  6
CONTINUOUS
370
    -3
390
73E
  0
ENDTAB
  0
TABLE
  2
STYLE
  5
3
330
0
100
AcDbSymbolTable
 70
     3
  0
STYLE
  5
F
330
3
100
AcDbSymbolTableRecord
100
AcDbTextStyleTableRecord
  2
STANDARD
 70
     0
 40
0.0
 41
1.0
 50
0.0
 71
     0
 42
3.0
  3
isocp.shx
  4
bigfont.shx
  0
STYLE
  5
35
330
3
100
AcDbSymbolTableRecord
100
AcDbTextStyleTableRecord
  2
MSｺﾞｼｯｸ
 70
     0
 40
0.0
 41
1.0
 50
0.0
 71
     0
 42
5.0
  3
MS Gothic.ttf
  4

1001
ACAD
1000
MS Gothic
1071
    32817
  0
STYLE
  5
6A24
330
3
100
AcDbSymbolTableRecord
100
AcDbTextStyleTableRecord
  2
STYLE4
 70
     0
 40
5.0
 41
1.0
 50
0.0
 71
     0
 42
3.0
  3

  4

1001
ACAD
1000
@ＨＧｺﾞｼｯｸE-PRO
1071
 33587250
  0
ENDTAB
  0
TABLE
  2
VIEW
  5
6
330
0
100
AcDbSymbolTable
 70
     0
  0
ENDTAB
  0
TABLE
  2
UCS
  5
7
330
0
100
AcDbSymbolTable
 70
     0
  0
ENDTAB
  0
TABLE
  2
APPID
  5
9
330
0
100
AcDbSymbolTable
 70
     1
  0
APPID
  5
10
330
9
100
AcDbSymbolTableRecord
100
AcDbRegAppTableRecord
  2
ACAD
 70
     0
  0
ENDTAB
  0
TABLE
  2
DIMSTYLE
  5
A
330
0
100
AcDbSymbolTable
 70
     1
100
AcDbDimStyleTable
 71
     0
  0
DIMSTYLE
105
1D
330
A
100
AcDbSymbolTableRecord
100
AcDbDimStyleTableRecord
  2
STANDARD
 70
     0
 78
     8
 79
     2
140
3.0
340
F
341
89E
342
89E
  0
ENDTAB
  0
TABLE
  2
BLOCK_RECORD
  5
1
330
0
100
AcDbSymbolTable
 70
     4
  0
BLOCK_RECORD
  5
18
330
1
100
AcDbSymbolTableRecord
100
AcDbBlockTableRecord
  2
*MODEL_SPACE
340
741
  0
BLOCK_RECORD
  5
8872
330
1
100
AcDbSymbolTableRecord
100
AcDbBlockTableRecord
  2
*Paper_Space
340
8873
  0
BLOCK_RECORD
  5
24
330
1
100
AcDbSymbolTableRecord
100
AcDbBlockTableRecord
  2
_OPEN
340
0
  0
BLOCK_RECORD
  5
89E
330
1
100
AcDbSymbolTableRecord
100
AcDbBlockTableRecord
  2
_Open30
340
0
  0
BLOCK_RECORD
  5
84FC
330
1
100
AcDbSymbolTableRecord
100
AcDbBlockTableRecord
  2
MC_1_5-2-STF-3_81__6
340
0
102
{BLKREFS
331
85BE
102
}
  0
BLOCK_RECORD
  5
85BD
330
1
100
AcDbSymbolTableRecord
100
AcDbBlockTableRecord
  2
VORDANS1
340
0
102
{BLKREFS
331
85F2
102
}
  0
ENDTAB
  0
ENDSEC
  0
SECTION
  2
BLOCKS
  0
BLOCK
  5
19
330
18
100
AcDbEntity
  8
0
100
AcDbBlockBegin
  2
*MODEL_SPACE
 70
     0
 10
0.0
 20
0.0
 30
0.0
  3
*MODEL_SPACE
  1

  0
ENDBLK
  5
1A
330
18
100
AcDbEntity
  8
0
100
AcDbBlockEnd
  0
BLOCK
  5
8874
330
8872
100
AcDbEntity
 67
     1
  8
0
100
AcDbBlockBegin
  2
*Paper_Space
 70
     0
 10
0.0
 20
0.0
 30
0.0
  3
*Paper_Space
  1

  0
ENDBLK
  5
8875
330
8872
100
AcDbEntity
 67
     1
  8
0
100
AcDbBlockEnd
  0
BLOCK
  5
25
330
24
100
AcDbEntity
  8
0
100
AcDbBlockBegin
  2
_OPEN
 70
     0
 10
0.0
 20
0.0
 30
0.0
  3
_OPEN
  1

  0
LINE
  5
26
330
24
100
AcDbEntity
  8
0
  6
ByBlock
 62
     0
100
AcDbLine
 10
-1.0
 20
0.1666666666666666
 30
0.0
 11
0.0
 21
0.0
 31
0.0
  0
LINE
  5
27
330
24
100
AcDbEntity
  8
0
  6
ByBlock
 62
     0
100
AcDbLine
 10
0.0
 20
0.0
 30
0.0
 11
-1.0
 21
-0.1666666666666666
 31
0.0
  0
LINE
  5
28
330
24
100
AcDbEntity
  8
0
  6
ByBlock
 62
     0
100
AcDbLine
 10
0.0
 20
0.0
 30
0.0
 11
-1.0
 21
0.0
 31
0.0
  0
ENDBLK
  5
29
330
24
100
AcDbEntity
  8
0
100
AcDbBlockEnd
  0
BLOCK
  5
8A2
330
89E
100
AcDbEntity
  8
0
100
AcDbBlockBegin
  2
_Open30
 70
     0
 10
0.0
 20
0.0
 30
0.0
  3
_Open30
  1

  0
LINE
  5
89F
330
89E
100
AcDbEntity
  8
0
  6
ByBlock
 62
     0
370
    -2
100
AcDbLine
 10
-1.0
 20
0.26794919
 30
0.0
 11
0.0
 21
0.0
 31
0.0
  0
LINE
  5
8A0
330
89E
100
AcDbEntity
  8
0
  6
ByBlock
 62
     0
370
    -2
100
AcDbLine
 10
0.0
 20
0.0
 30
0.0
 11
-1.0
 21
-0.26794919
 31
0.0
  0
LINE
  5
8A1
330
89E
100
AcDbEntity
  8
0
  6
ByBlock
 62
     0
370
    -2
100
AcDbLine
 10
0.0
 20
0.0
 30
0.0
 11
-1.0
 21
0.0
 31
0.0
  0
ENDBLK
  5
8A3
330
89E
100
AcDbEntity
  8
0
100
AcDbBlockEnd
  0
BLOCK
  5
85BB
330
84FC
100
AcDbEntity
  8
0
100
AcDbBlockBegin
  2
MC_1_5-2-STF-3_81__6
 70
     0
 10
11.65200479999999
 20
-9.005000000000009
 30
0.0
  3
MC_1_5-2-STF-3_81__6
  1

  0
LINE
  5
84FD
330
84FC
100
AcDbEntity
  8
0
 62
     7
100
AcDbLine
 10
22.45200479999998
 20
4.204999999999998
 30
0.0
 11
22.2520048
 21
4.204999999999998
 31
0.0
  0
LINE
  5
84FE
330
84FC
100
AcDbEntity
  8
0
 62
     7
100
AcDbLine
 10
22.75200479999999
 20
3.405000000000001
 30
0.0
 11
22.7520048
 21
4.204999999999998
 31
0.0
  0
LINE
  5
84FF
330
84FC
100
AcDbEntity
  8
0
 62
     7
100
AcDbLine
 10
22.7520048
 20
-4.204999999999998
 30
0.0
 11
22.75200479999999
 21
-3.405000000000001
 31
0.0
  0
LINE
  5
8500
330
84FC
100
AcDbEntity
  8
0
 62
     7
100
AcDbLine
 10
22.45200479999998
 20
-4.204999999999998
 30
0.0
 11
22.2520048
 21
-4.204999999999998
 31
0.0
  0
LINE
  5
8501
330
84FC
100
AcDbEntity
  8
0
 62
     7
100
AcDbLine
 10
22.7520048
 20
4.204999999999998
 30
0.0
 11
22.45200479999998
 21
4.204999999999998
 31
0.0
  0
LINE
  5
8502
330
84FC
100
AcDbEntity
  8
0
 62
     7
100
AcDbLine
 10
22.7520048
 20
-4.204999999999998
 30
0.0
 11
22.45200479999998
 21
-4.204999999999998
 31
0.0
  0
LINE
  5
8503
330
84FC
100
AcDbEntity
  8
0
 62
     7
100
AcDbLine
 10
16.22700479999998
 20
5.718068416798288
 30
0.0
 11
16.22700479999998
 21
7.091931583201727
 31
0.0
  0
LINE
  5
8504
330
84FC
100
AcDbEntity
  8
0
 62
     7
100
AcDbLine
 10
19.12502869120912
 20
4.837001361960294
 30
0.0
 11
16.48400616196027
 21
7.478023891209136
 31
0.0
  0
LINE
  5
8505
330
84FC
100
AcDbEntity
  8
0
 62
     7
100
AcDbLine
 10
16.97898090879087
 20
7.972998638039726
 30
0.0
 11
19.6200034380397
 21
5.331976108790883
 31
0.0
  0
LINE
  5
8506
330
84FC
100
AcDbEntity
  8
0
 62
     7
100
AcDbLine
 10
20.85200480000001
 20
4.204999999999998
 30
0.0
 11
20.85200480000001
 21
8.005000000000009
 31
0.0
  0
LINE
  5
8507
330
84FC
100
AcDbEntity
  8
0
 62
     7
100
AcDbLine
 10
17.35200480000009
 20
3.268050143491976
 30
0.0
 11
17.35200480000001
 21
4.204999999999998
 31
0.0
  0
LINE
  5
8508
330
84FC
100
AcDbEntity
  8
0
 62
     7
100
AcDbLine
 10
18.35200480000003
 20
4.204999999999998
 30
0.0
 11
18.35200480000001
 21
-4.204999999999998
 31
0.0
  0
LINE
  5
8509
330
84FC
100
AcDbEntity
  8
0
 62
     7
100
AcDbLine
 10
17.35200480000002
 20
-0.5419498565080297
 30
0.0
 11
17.35200480000009
 21
0.5419498565080261
 31
0.0
  0
LINE
  5
850A
330
84FC
100
AcDbEntity
  8
0
 62
     7
100
AcDbLine
 10
17.35200480000001
 20
-3.268050143491976
 30
0.0
 11
17.35200480000002
 21
-0.5419498565080297
 31
0.0
  0
LINE
  5
850B
330
84FC
100
AcDbEntity
  8
0
 62
     7
100
AcDbLine
 10
17.35200480000001
 20
-4.204999999999998
 30
0.0
 11
17.35200480000001
 21
-3.268050143491976
 31
0.0
  0
LINE
  5
850C
330
84FC
100
AcDbEntity
  8
0
 62
     7
100
AcDbLine
 10
17.35200480000001
 20
-4.204999999999998
 30
0.0
 11
17.65200480000006
 21
-4.204999999999998
 31
0.0
  0
LINE
  5
850D
330
84FC
100
AcDbEntity
  8
0
 62
     7
100
AcDbLine
 10
17.85200480000012
 20
-4.204999999999998
 30
0.0
 11
18.35200480000001
 21
-4.204999999999998
 31
0.0
  0
LINE
  5
850E
330
84FC
100
AcDbEntity
  8
0
 62
     7
100
AcDbLine
 10
18.35200480000001
 20
-4.204999999999998
 30
0.0
 11
20.85200480000001
 21
-4.204999999999998
 31
0.0
  0
LINE
  5
850F
330
84FC
100
AcDbEntity
  8
0
 62
     7
100
AcDbLine
 10
17.65200480000006
 20
-4.204999999999998
 30
0.0
 11
17.85200480000012
 21
-4.204999999999998
 31
0.0
  0
LINE
  5
8510
330
84FC
100
AcDbEntity
  8
0
 62
     7
100
AcDbLine
 10
18.7389363832017
 20
4.580000000000012
 30
0.0
 11
17.36507321679829
 21
4.580000000000012
 31
0.0
  0
LINE
  5
8511
330
84FC
100
AcDbEntity
  8
0
 62
     7
100
AcDbLine
 10
19.87700479999998
 20
5.718068416798288
 30
0.0
 11
19.87700479999998
 21
7.091931583201727
 31
0.0
  0
LINE
  5
8512
330
84FC
100
AcDbEntity
  8
0
 62
     7
100
AcDbLine
 10
17.35200480000001
 20
4.204999999999998
 30
0.0
 11
17.65200480000006
 21
4.204999999999998
 31
0.0
  0
LINE
  5
8513
330
84FC
100
AcDbEntity
  8
0
 62
     7
100
AcDbLine
 10
17.35200480000009
 20
0.5419498565080261
 30
0.0
 11
17.35200480000009
 21
3.268050143491976
 31
0.0
  0
LINE
  5
8514
330
84FC
100
AcDbEntity
  8
0
 62
     7
100
AcDbLine
 10
17.85200480000012
 20
4.204999999999998
 30
0.0
 11
18.35200480000003
 21
4.204999999999998
 31
0.0
  0
LINE
  5
8515
330
84FC
100
AcDbEntity
  8
0
 62
     7
100
AcDbLine
 10
17.65200480000006
 20
4.204999999999998
 30
0.0
 11
17.85200480000012
 21
4.204999999999998
 31
0.0
  0
LINE
  5
8516
330
84FC
100
AcDbEntity
  8
0
 62
     7
100
AcDbLine
 10
18.7389363832017
 20
8.230000000000003
 30
0.0
 11
17.36507321679828
 21
8.230000000000003
 31
0.0
  0
LINE
  5
8517
330
84FC
100
AcDbEntity
  8
0
 62
     7
100
AcDbLine
 10
22.15200480000001
 20
4.204999999999998
 30
0.0
 11
22.15200480000001
 21
-4.204999999999998
 31
0.0
  0
LINE
  5
8518
330
84FC
100
AcDbEntity
  8
0
 62
     7
100
AcDbLine
 10
15.25200480000002
 20
-4.204999999999998
 30
0.0
 11
12.7520048
 21
-4.204999999999998
 31
0.0
  0
LINE
  5
8519
330
84FC
100
AcDbEntity
  8
0
 62
     7
100
AcDbLine
 10
15.25200480000002
 20
4.204999999999998
 30
0.0
 11
17.35200480000001
 21
4.204999999999998
 31
0.0
  0
LINE
  5
851A
330
84FC
100
AcDbEntity
  8
0
 62
     7
100
AcDbLine
 10
15.25200480000002
 20
-4.204999999999998
 30
0.0
 11
17.35200480000001
 21
-4.204999999999998
 31
0.0
  0
LINE
  5
851B
330
84FC
100
AcDbEntity
  8
0
 62
     7
100
AcDbLine
 10
20.85200480000001
 20
4.204999999999998
 30
0.0
 11
18.35200480000003
 21
4.204999999999998
 31
0.0
  0
LINE
  5
851C
330
84FC
100
AcDbEntity
  8
0
 62
     7
100
AcDbLine
 10
22.15200480000001
 20
4.204999999999998
 30
0.0
 11
20.85200480000001
 21
4.204999999999998
 31
0.0
  0
LINE
  5
851D
330
84FC
100
AcDbEntity
  8
0
 62
     7
100
AcDbLine
 10
20.85200480000001
 20
-4.204999999999998
 30
0.0
 11
22.15200480000001
 21
-4.204999999999998
 31
0.0
  0
LINE
  5
851E
330
84FC
100
AcDbEntity
  8
0
 62
     7
100
AcDbLine
 10
22.2520048
 20
4.204999999999998
 30
0.0
 11
22.15200480000001
 21
4.204999999999998
 31
0.0
  0
LINE
  5
851F
330
84FC
100
AcDbEntity
  8
0
 62
     7
100
AcDbLine
 10
22.2520048
 20
-4.204999999999998
 30
0.0
 11
22.15200480000001
 21
-4.204999999999998
 31
0.0
  0
LINE
  5
8520
330
84FC
100
AcDbEntity
  8
0
 62
     7
100
AcDbLine
 10
22.75200479999999
 20
-3.355000000000017
 30
0.0
 11
22.75200479999999
 21
-3.405000000000001
 31
0.0
  0
LINE
  5
8521
330
84FC
100
AcDbEntity
  8
0
 62
     7
100
AcDbLine
 10
22.75200479999999
 20
-3.057345434320807
 30
0.0
 11
22.75200479999999
 21
-3.355000000000017
 31
0.0
  0
LINE
  5
8522
330
84FC
100
AcDbEntity
  8
0
 62
     7
100
AcDbLine
 10
15.25200480000002
 20
4.204999999999998
 30
0.0
 11
12.7520048
 21
4.204999999999998
 31
0.0
  0
LINE
  5
8523
330
84FC
100
AcDbEntity
  8
0
 62
     7
100
AcDbLine
 10
12.51610641513737
 20
-3.268549682463004
 30
0.0
 11
12.51610641513737
 21
-0.5414503175369987
 31
0.0
  0
LINE
  5
8524
330
84FC
100
AcDbEntity
  8
0
 62
     7
100
AcDbLine
 10
22.75200479999999
 20
-3.057345434320807
 30
0.0
 11
22.75200479999999
 21
-0.7526545656791513
 31
0.0
  0
LINE
  5
8525
330
84FC
100
AcDbEntity
  8
0
 62
     7
100
AcDbLine
 10
22.75200479999999
 20
-0.4549999999999841
 30
0.0
 11
22.75200479999999
 21
-0.7526545656791513
 31
0.0
  0
LINE
  5
8526
330
84FC
100
AcDbEntity
  8
0
 62
     7
100
AcDbLine
 10
22.75200479999999
 20
0.4549999999999841
 30
0.0
 11
22.75200479999999
 21
-0.4549999999999841
 31
0.0
  0
LINE
  5
8527
330
84FC
100
AcDbEntity
  8
0
 62
     7
100
AcDbLine
 10
12.51610641513737
 20
0.5414503175369987
 30
0.0
 11
12.51610641513737
 21
3.268549682463004
 31
0.0
  0
LINE
  5
8528
330
84FC
100
AcDbEntity
  8
0
 62
     7
100
AcDbLine
 10
13.05200480000026
 20
2.765000000000071
 30
0.0
 11
13.01578513557523
 21
2.765000000000128
 31
0.0
  0
LINE
  5
8529
330
84FC
100
AcDbEntity
  8
0
 62
     7
100
AcDbLine
 10
15.80200480000035
 20
2.765000000000071
 30
0.0
 11
13.05200480000026
 21
2.765000000000071
 31
0.0
  0
LINE
  5
852A
330
84FC
100
AcDbEntity
  8
0
 62
     7
100
AcDbLine
 10
15.97876816497175
 20
2.76500000000008
 30
0.0
 11
15.80200480000035
 21
2.765000000000071
 31
0.0
  0
LINE
  5
852B
330
84FC
100
AcDbEntity
  8
0
 62
     7
100
AcDbLine
 10
13.05200480000026
 20
2.765000000000071
 30
0.0
 11
13.05200480000026
 21
1.045000000000044
 31
0.0
  0
LINE
  5
852C
330
84FC
100
AcDbEntity
  8
0
 62
     7
100
AcDbLine
 10
15.80200480000035
 20
1.045000000000045
 30
0.0
 11
15.80200480000035
 21
2.765000000000071
 31
0.0
  0
LINE
  5
852D
330
84FC
100
AcDbEntity
  8
0
 62
     7
100
AcDbLine
 10
13.05200480000026
 20
1.045000000000044
 30
0.0
 11
13.01578513557525
 21
1.044999999999945
 31
0.0
  0
LINE
  5
852E
330
84FC
100
AcDbEntity
  8
0
 62
     7
100
AcDbLine
 10
13.05200480000026
 20
1.045000000000044
 30
0.0
 11
15.80200480000035
 21
1.045000000000045
 31
0.0
  0
LINE
  5
852F
330
84FC
100
AcDbEntity
  8
0
 62
     7
100
AcDbLine
 10
15.97876816497182
 20
1.044999999999959
 30
0.0
 11
15.80200480000035
 21
1.045000000000045
 31
0.0
  0
LINE
  5
8530
330
84FC
100
AcDbEntity
  8
0
 62
     7
100
AcDbLine
 10
22.75200479999999
 20
3.355000000000017
 30
0.0
 11
22.75200479999999
 21
3.405000000000001
 31
0.0
  0
LINE
  5
8531
330
84FC
100
AcDbEntity
  8
0
 62
     7
100
AcDbLine
 10
22.75200479999999
 20
3.057345434320807
 30
0.0
 11
22.75200479999999
 21
3.355000000000017
 31
0.0
  0
LINE
  5
8532
330
84FC
100
AcDbEntity
  8
0
 62
     7
100
AcDbLine
 10
22.75200479999999
 20
0.7526545656791939
 30
0.0
 11
22.75200479999999
 21
3.057345434320807
 31
0.0
  0
LINE
  5
8533
330
84FC
100
AcDbEntity
  8
0
 62
     7
100
AcDbLine
 10
22.75200479999999
 20
0.7526545656791939
 30
0.0
 11
22.75200479999999
 21
0.4549999999999841
 31
0.0
  0
LINE
  5
8534
330
84FC
100
AcDbEntity
  8
0
 62
     7
100
AcDbLine
 10
15.80200480000034
 20
-1.044999999999922
 30
0.0
 11
15.80200480000034
 21
-2.764999999999958
 31
0.0
  0
LINE
  5
8535
330
84FC
100
AcDbEntity
  8
0
 62
     7
100
AcDbLine
 10
15.97876816497185
 20
-1.044999999999945
 30
0.0
 11
15.80200480000034
 21
-1.044999999999922
 31
0.0
  0
LINE
  5
8536
330
84FC
100
AcDbEntity
  8
0
 62
     7
100
AcDbLine
 10
15.97876816497185
 20
-2.764999999999949
 30
0.0
 11
15.80200480000034
 21
-2.764999999999958
 31
0.0
  0
LINE
  5
8537
330
84FC
100
AcDbEntity
  8
0
 62
     7
100
AcDbLine
 10
13.01578513557523
 20
-1.044999999999874
 30
0.0
 11
13.05200480000026
 21
-1.04499999999993
 31
0.0
  0
LINE
  5
8538
330
84FC
100
AcDbEntity
  8
0
 62
     7
100
AcDbLine
 10
13.05200480000026
 20
-1.04499999999993
 30
0.0
 11
13.05200480000026
 21
-2.764999999999958
 31
0.0
  0
LINE
  5
8539
330
84FC
100
AcDbEntity
  8
0
 62
     7
100
AcDbLine
 10
13.05200480000026
 20
-2.764999999999958
 30
0.0
 11
13.01578513557525
 21
-2.764999999999949
 31
0.0
  0
LINE
  5
853A
330
84FC
100
AcDbEntity
  8
0
 62
     7
100
AcDbLine
 10
15.80200480000034
 20
-2.764999999999958
 30
0.0
 11
13.05200480000026
 21
-2.764999999999958
 31
0.0
  0
LINE
  5
853B
330
84FC
100
AcDbEntity
  8
0
 62
     7
100
AcDbLine
 10
15.80200480000034
 20
-1.044999999999922
 30
0.0
 11
13.05200480000026
 21
-1.04499999999993
 31
0.0
  0
LINE
  5
853C
330
84FC
100
AcDbEntity
  8
0
 62
     7
100
AcDbLine
 10
17.86491036107106
 20
9.005000000000009
 30
0.0
 11
17.72267493613536
 21
9.005000000000009
 31
0.0
  0
LINE
  5
853D
330
84FC
100
AcDbEntity
  8
0
 62
     7
100
AcDbLine
 10
17.48272598516249
 20
9.005000000000009
 30
0.0
 11
17.72267493613536
 21
9.005000000000009
 31
0.0
  0
LINE
  5
853E
330
84FC
100
AcDbEntity
  8
0
 62
     7
100
AcDbLine
 10
18.82895046341312
 20
9.005000000000009
 30
0.0
 11
19.06889941438586
 21
9.005000000000009
 31
0.0
  0
LINE
  5
853F
330
84FC
100
AcDbEntity
  8
0
 62
     7
100
AcDbLine
 10
19.06889941438586
 20
9.005000000000009
 30
0.0
 11
19.22699627381939
 21
9.005000000000009
 31
0.0
  0
LINE
  5
8540
330
84FC
100
AcDbEntity
  8
0
 62
     7
100
AcDbLine
 10
17.324629125729
 20
9.005000000000009
 30
0.0
 11
17.48272598516249
 21
9.005000000000009
 31
0.0
  0
LINE
  5
8541
330
84FC
100
AcDbEntity
  8
0
 62
     7
100
AcDbLine
 10
18.68671503847739
 20
9.005000000000009
 30
0.0
 11
18.82895046341312
 21
9.005000000000009
 31
0.0
  0
LINE
  5
8542
330
84FC
100
AcDbEntity
  8
0
 62
     7
100
AcDbLine
 10
18.50417483006699
 20
9.005000000000009
 30
0.0
 11
18.68671503847739
 21
9.005000000000009
 31
0.0
  0
LINE
  5
8543
330
84FC
100
AcDbEntity
  8
0
 62
     7
100
AcDbLine
 10
18.0474505694814
 20
9.005000000000009
 30
0.0
 11
18.2758126997742
 21
9.005000000000009
 31
0.0
  0
LINE
  5
8544
330
84FC
100
AcDbEntity
  8
0
 62
     7
100
AcDbLine
 10
17.86491036107106
 20
9.005000000000009
 30
0.0
 11
18.0474505694814
 21
9.005000000000009
 31
0.0
  0
LINE
  5
8545
330
84FC
100
AcDbEntity
  8
0
 62
     7
100
AcDbLine
 10
18.2758126997742
 20
9.005000000000009
 30
0.0
 11
18.50417483006699
 21
9.005000000000009
 31
0.0
  0
LINE
  5
8546
330
84FC
100
AcDbEntity
  8
0
 62
     7
100
AcDbLine
 10
17.324629125729
 20
9.005000000000009
 30
0.0
 11
17.03511018562189
 21
9.005000000000009
 31
0.0
  0
LINE
  5
8547
330
84FC
100
AcDbEntity
  8
0
 62
     7
100
AcDbLine
 10
17.03511018562189
 20
9.005000000000009
 30
0.0
 11
16.8770133261884
 21
9.005000000000009
 31
0.0
  0
LINE
  5
8548
330
84FC
100
AcDbEntity
  8
0
 62
     7
100
AcDbLine
 10
16.76280061257794
 20
9.005000000000009
 30
0.0
 11
16.8770133261884
 21
9.005000000000009
 31
0.0
  0
LINE
  5
8549
330
84FC
100
AcDbEntity
  8
0
 62
     7
100
AcDbLine
 10
19.22699627381939
 20
9.005000000000009
 30
0.0
 11
19.3412089874221
 21
9.005000000000009
 31
0.0
  0
LINE
  5
854A
330
84FC
100
AcDbEntity
  8
0
 62
     7
100
AcDbLine
 10
19.3412089874221
 20
9.005000000000009
 30
0.0
 11
19.55200480000002
 21
9.005000000000009
 31
0.0
  0
LINE
  5
854B
330
84FC
100
AcDbEntity
  8
0
 62
     7
100
AcDbLine
 10
16.55200479999994
 20
9.005000000000009
 30
0.0
 11
16.76280061257794
 21
9.005000000000009
 31
0.0
  0
LINE
  5
854C
330
84FC
100
AcDbEntity
  8
0
 62
     7
100
AcDbLine
 10
19.55200480000002
 20
9.005000000000009
 30
0.0
 11
19.85200480000001
 21
9.005000000000009
 31
0.0
  0
LINE
  5
854D
330
84FC
100
AcDbEntity
  8
0
 62
     7
100
AcDbLine
 10
16.25200480000001
 20
9.005000000000009
 30
0.0
 11
16.55200479999994
 21
9.005000000000009
 31
0.0
  0
LINE
  5
854E
330
84FC
100
AcDbEntity
  8
0
 62
     7
100
AcDbLine
 10
15.25200480000002
 20
4.204999999999998
 30
0.0
 11
15.25200480000002
 21
8.005000000000009
 31
0.0
  0
LINE
  5
854F
330
84FC
100
AcDbEntity
  8
0
 62
     7
100
AcDbLine
 10
11.65200479999999
 20
4.204999999999998
 30
0.0
 11
12.4520048
 21
4.204999999999998
 31
0.0
  0
LINE
  5
8550
330
84FC
100
AcDbEntity
  8
0
 62
     7
100
AcDbLine
 10
12.4520048
 20
-4.204999999999998
 30
0.0
 11
11.65200479999999
 21
-4.204999999999998
 31
0.0
  0
LINE
  5
8551
330
84FC
100
AcDbEntity
  8
0
 62
     7
100
AcDbLine
 10
11.65200479999999
 20
-4.204999999999998
 30
0.0
 11
11.65200479999999
 21
4.204999999999998
 31
0.0
  0
LINE
  5
8552
330
84FC
100
AcDbEntity
  8
0
 62
     7
100
AcDbLine
 10
12.7520048
 20
-4.204999999999998
 30
0.0
 11
12.4520048
 21
-4.204999999999998
 31
0.0
  0
LINE
  5
8553
330
84FC
100
AcDbEntity
  8
0
 62
     7
100
AcDbLine
 10
12.7520048
 20
4.204999999999998
 30
0.0
 11
12.4520048
 21
4.204999999999998
 31
0.0
  0
LINE
  5
8554
330
84FC
100
AcDbEntity
  8
0
 62
     7
100
AcDbLine
 10
20.85200480000001
 20
-4.204999999999998
 30
0.0
 11
20.85200480000001
 21
-8.005000000000009
 31
0.0
  0
LINE
  5
8555
330
84FC
100
AcDbEntity
  8
0
 62
     7
100
AcDbLine
 10
15.25200480000002
 20
-4.204999999999998
 30
0.0
 11
15.25200480000002
 21
-8.005000000000009
 31
0.0
  0
LINE
  5
8556
330
84FC
100
AcDbEntity
  8
0
 62
     7
100
AcDbLine
 10
18.73893638320173
 20
-4.579999999999998
 30
0.0
 11
17.36507321679825
 21
-4.579999999999998
 31
0.0
  0
LINE
  5
8557
330
84FC
100
AcDbEntity
  8
0
 62
     7
100
AcDbLine
 10
19.87700479999998
 20
-5.718068416798275
 30
0.0
 11
19.87700479999998
 21
-7.091931583201699
 31
0.0
  0
LINE
  5
8558
330
84FC
100
AcDbEntity
  8
0
 62
     7
100
AcDbLine
 10
19.12502869120912
 20
-7.972998638039709
 30
0.0
 11
16.48400616196028
 21
-5.331976108790865
 31
0.0
  0
LINE
  5
8559
330
84FC
100
AcDbEntity
  8
0
 62
     7
100
AcDbLine
 10
16.97898090879085
 20
-4.837001361960271
 30
0.0
 11
19.6200034380397
 21
-7.478023891209117
 31
0.0
  0
LINE
  5
855A
330
84FC
100
AcDbEntity
  8
0
 62
     7
100
AcDbLine
 10
16.22700479999998
 20
-5.718068416798261
 30
0.0
 11
16.22700479999998
 21
-7.091931583201699
 31
0.0
  0
LINE
  5
855B
330
84FC
100
AcDbEntity
  8
0
 62
     7
100
AcDbLine
 10
18.73893638320166
 20
-8.229999999999989
 30
0.0
 11
17.36507321679831
 21
-8.229999999999989
 31
0.0
  0
LINE
  5
855C
330
84FC
100
AcDbEntity
  8
0
 62
     7
100
AcDbLine
 10
16.25200480000001
 20
-9.005000000000009
 30
0.0
 11
19.85200480000001
 21
-9.005000000000009
 31
0.0
  0
ARC
  5
855D
330
84FC
100
AcDbEntity
  8
0
 62
     7
100
AcDbCircle
 10
14.9320048000011
 20
20.39499999999989
 30
0.0
 40
20.00000000000011
100
AcDbArc
 50
263.6465784957678
 51
276.8921252520984
  0
ARC
  5
855E
330
84FC
100
AcDbEntity
  8
0
 62
     7
100
AcDbCircle
 10
18.05200479999998
 20
6.405000000000014
 30
0.0
 40
1.949999999999999
100
AcDbArc
 50
9.617477116202456
 51
15.00000000000011
  0
ARC
  5
855F
330
84FC
100
AcDbEntity
  8
0
 62
     7
100
AcDbCircle
 10
18.05200479999998
 20
6.405000000000014
 30
0.0
 40
1.949999999999996
100
AcDbArc
 50
339.3736189501979
 51
350.3825228837971
  0
ARC
  5
8560
330
84FC
100
AcDbEntity
  8
0
 62
     7
100
AcDbCircle
 10
18.05200479999998
 20
6.405000000000014
 30
0.0
 40
1.950000000000004
100
AcDbArc
 50
290.6263810498014
 51
339.3736189501979
  0
ARC
  5
8561
330
84FC
100
AcDbEntity
  8
0
 62
     7
100
AcDbCircle
 10
18.05200479999998
 20
6.405000000000014
 30
0.0
 40
1.950000000000006
100
AcDbArc
 50
159.3736189501985
 51
170.3825228837962
  0
ARC
  5
8562
330
84FC
100
AcDbEntity
  8
0
 62
     7
100
AcDbCircle
 10
18.05200479999998
 20
6.405000000000014
 30
0.0
 40
1.95
100
AcDbArc
 50
189.6174771162041
 51
200.6263810498018
  0
ARC
  5
8563
330
84FC
100
AcDbEntity
  8
0
 62
     7
100
AcDbCircle
 10
18.05200479999998
 20
6.405000000000014
 30
0.0
 40
1.899999999999996
100
AcDbArc
 50
45.00000000000003
 51
73.84784348690004
  0
ARC
  5
8564
330
84FC
100
AcDbEntity
  8
0
 62
     7
100
AcDbCircle
 10
18.05200479999998
 20
6.405000000000014
 30
0.0
 40
1.899999999999988
100
AcDbArc
 50
124.3848921492918
 51
145.6151078507083
  0
ARC
  5
8565
330
84FC
100
AcDbEntity
  8
0
 62
     7
100
AcDbCircle
 10
18.05200479999998
 20
6.405000000000014
 30
0.0
 40
1.899999999999995
100
AcDbArc
 50
145.6151078507083
 51
163.8478434869018
  0
ARC
  5
8566
330
84FC
100
AcDbEntity
  8
0
 62
     7
100
AcDbCircle
 10
18.05200479999998
 20
6.405000000000014
 30
0.0
 40
1.899999999999997
100
AcDbArc
 50
196.1521565130981
 51
253.8478434869018
  0
ARC
  5
8567
330
84FC
100
AcDbEntity
  8
0
 62
     7
100
AcDbCircle
 10
18.05200479999998
 20
6.405000000000014
 30
0.0
 40
1.95
100
AcDbArc
 50
249.3736189501989
 51
260.382522883796
  0
ARC
  5
8568
330
84FC
100
AcDbEntity
  8
0
 62
     7
100
AcDbCircle
 10
18.05200479999998
 20
6.405000000000014
 30
0.0
 40
1.95000000000001
100
AcDbArc
 50
200.6263810498018
 51
249.3736189501989
  0
ARC
  5
8569
330
84FC
100
AcDbEntity
  8
0
 62
     7
100
AcDbCircle
 10
18.05200479999998
 20
6.405000000000014
 30
0.0
 40
1.949999999999992
100
AcDbArc
 50
110.6263810498015
 51
159.3736189501985
  0
ARC
  5
856A
330
84FC
100
AcDbEntity
  8
0
 62
     7
100
AcDbCircle
 10
18.05200479999998
 20
6.405000000000014
 30
0.0
 40
1.899999999999997
100
AcDbArc
 50
106.1521565130997
 51
124.3848921492918
  0
ARC
  5
856B
330
84FC
100
AcDbEntity
  8
0
 62
     7
100
AcDbCircle
 10
19.85200480000001
 20
8.005000000000009
 30
0.0
 40
1.0
100
AcDbArc
 50
0.0
 51
45.57299599919454
  0
ARC
  5
856C
330
84FC
100
AcDbEntity
  8
0
 62
     7
100
AcDbCircle
 10
18.05200479999998
 20
6.405000000000014
 30
0.0
 40
1.949999999999991
100
AcDbArc
 50
69.37361895019858
 51
80.3825228837967
  0
ARC
  5
856D
330
84FC
100
AcDbEntity
  8
0
 62
     7
100
AcDbCircle
 10
18.05200479999998
 20
6.405000000000014
 30
0.0
 40
1.949999999999996
100
AcDbArc
 50
99.61747711620342
 51
110.6263810498015
  0
ARC
  5
856E
330
84FC
100
AcDbEntity
  8
0
 62
     7
100
AcDbCircle
 10
18.05200479999998
 20
6.405000000000014
 30
0.0
 40
1.949999999999992
100
AcDbArc
 50
20.62638104980153
 51
69.37361895019858
  0
ARC
  5
856F
330
84FC
100
AcDbEntity
  8
0
 62
     7
100
AcDbCircle
 10
18.05200479999998
 20
6.405000000000014
 30
0.0
 40
1.899999999999998
100
AcDbArc
 50
325.6151078507081
 51
343.8478434869001
  0
ARC
  5
8570
330
84FC
100
AcDbEntity
  8
0
 62
     7
100
AcDbCircle
 10
14.93200480000109
 20
-16.58499999999989
 30
0.0
 40
19.99999999999993
100
AcDbArc
 50
83.05018107851344
 51
83.10787474790149
  0
ARC
  5
8571
330
84FC
100
AcDbEntity
  8
0
 62
     7
100
AcDbCircle
 10
18.05200479999998
 20
6.405000000000014
 30
0.0
 40
1.950000000000011
100
AcDbArc
 50
279.6174771162034
 51
290.6263810498014
  0
ARC
  5
8572
330
84FC
100
AcDbEntity
  8
0
 62
     7
100
AcDbCircle
 10
18.05200479999998
 20
6.405000000000014
 30
0.0
 40
1.899999999999998
100
AcDbArc
 50
286.1521565130983
 51
304.3848921492918
  0
ARC
  5
8573
330
84FC
100
AcDbEntity
  8
0
 62
     7
100
AcDbCircle
 10
18.05200479999998
 20
6.405000000000014
 30
0.0
 40
1.949999999999995
100
AcDbArc
 50
15.00000000000011
 51
20.62638104980153
  0
ARC
  5
8574
330
84FC
100
AcDbEntity
  8
0
 62
     7
100
AcDbCircle
 10
18.05200479999998
 20
6.405000000000014
 30
0.0
 40
1.949999999999999
100
AcDbArc
 50
0.0
 51
9.617477116202456
  0
ARC
  5
8575
330
84FC
100
AcDbEntity
  8
0
 62
     7
100
AcDbCircle
 10
18.05200479999998
 20
6.405000000000014
 30
0.0
 40
1.95
100
AcDbArc
 50
350.3825228837971
 51
0.0
  0
ARC
  5
8576
330
84FC
100
AcDbEntity
  8
0
 62
     7
100
AcDbCircle
 10
18.05200479999998
 20
6.405000000000014
 30
0.0
 40
1.950000000000014
100
AcDbArc
 50
260.382522883796
 51
279.6174771162034
  0
ARC
  5
8577
330
84FC
100
AcDbEntity
  8
0
 62
     7
100
AcDbCircle
 10
18.05200479999998
 20
6.405000000000014
 30
0.0
 40
1.899999999999998
100
AcDbArc
 50
304.3848921492918
 51
325.6151078507081
  0
ARC
  5
8578
330
84FC
100
AcDbEntity
  8
0
 62
     7
100
AcDbCircle
 10
14.9320048000011
 20
20.39499999999989
 30
0.0
 40
19.99999999999987
100
AcDbArc
 50
276.8921252520984
 51
276.9498189214866
  0
ARC
  5
8579
330
84FC
100
AcDbEntity
  8
0
 62
     7
100
AcDbCircle
 10
14.93200480000002
 20
-20.39499999999989
 30
0.0
 40
20.00000000000006
100
AcDbArc
 50
83.05018107851052
 51
83.10787474789842
  0
ARC
  5
857A
330
84FC
100
AcDbEntity
  8
0
 62
     7
100
AcDbCircle
 10
14.93200480000002
 20
16.58499999999989
 30
0.0
 40
20.00000000000001
100
AcDbArc
 50
276.8921252521029
 51
276.9498189214893
  0
ARC
  5
857B
330
84FC
100
AcDbEntity
  8
0
 62
     7
100
AcDbCircle
 10
18.05200479999998
 20
6.405000000000014
 30
0.0
 40
1.899999999999998
100
AcDbArc
 50
16.15215651309982
 51
45.00000000000003
  0
ARC
  5
857C
330
84FC
100
AcDbEntity
  8
0
 62
     7
100
AcDbCircle
 10
18.05200479999998
 20
6.405000000000014
 30
0.0
 40
1.949999999999995
100
AcDbArc
 50
80.3825228837967
 51
99.61747711620342
  0
ARC
  5
857D
330
84FC
100
AcDbEntity
  8
0
 62
     7
100
AcDbCircle
 10
18.05200479999998
 20
6.405000000000014
 30
0.0
 40
1.949999999999997
100
AcDbArc
 50
170.3825228837962
 51
189.6174771162041
  0
ARC
  5
857E
330
84FC
100
AcDbEntity
  8
0
 62
     7
100
AcDbCircle
 10
14.93200480000002
 20
16.58499999999989
 30
0.0
 40
19.99999999999999
100
AcDbArc
 50
263.6465784957709
 51
276.8921252521029
  0
ARC
  5
857F
330
84FC
100
AcDbEntity
  8
0
 62
     7
100
AcDbCircle
 10
14.93200480000109
 20
-16.58499999999989
 30
0.0
 40
19.99999999999987
100
AcDbArc
 50
83.10787474790149
 51
90.00000000000277
  0
ARC
  5
8580
330
84FC
100
AcDbEntity
  8
0
 62
     7
100
AcDbCircle
 10
14.93200480000109
 20
-16.58499999999989
 30
0.0
 40
20.0
100
AcDbArc
 50
90.00000000000277
 51
96.35342150423221
  0
ARC
  5
8581
330
84FC
100
AcDbEntity
  8
0
 62
     7
100
AcDbCircle
 10
14.93200480000002
 20
-20.39499999999989
 30
0.0
 40
19.99999999999999
100
AcDbArc
 50
96.35342150422914
 51
96.93798183461964
  0
ARC
  5
8582
330
84FC
100
AcDbEntity
  8
0
 62
     7
100
AcDbCircle
 10
14.93200480000002
 20
-20.39499999999989
 30
0.0
 40
20.0
100
AcDbArc
 50
89.99999999999968
 51
96.35342150422914
  0
ARC
  5
8583
330
84FC
100
AcDbEntity
  8
0
 62
     7
100
AcDbCircle
 10
14.93200480000002
 20
-20.39499999999989
 30
0.0
 40
20.0
100
AcDbArc
 50
83.10787474789842
 51
89.99999999999968
  0
ARC
  5
8584
330
84FC
100
AcDbEntity
  8
0
 62
     7
100
AcDbCircle
 10
14.93200480000109
 20
-16.58499999999989
 30
0.0
 40
20.0000000000001
100
AcDbArc
 50
96.35342150423221
 51
96.93798183462273
  0
ARC
  5
8585
330
84FC
100
AcDbEntity
  8
0
 62
     7
100
AcDbCircle
 10
14.9320048000011
 20
20.39499999999989
 30
0.0
 40
20.00000000000024
100
AcDbArc
 50
263.0620181653773
 51
263.6465784957678
  0
ARC
  5
8586
330
84FC
100
AcDbEntity
  8
0
 62
     7
100
AcDbCircle
 10
14.93200480000002
 20
16.58499999999989
 30
0.0
 40
20.00000000000011
100
AcDbArc
 50
263.0620181653803
 51
263.6465784957709
  0
ARC
  5
8587
330
84FC
100
AcDbEntity
  8
0
 62
     7
100
AcDbCircle
 10
19.85200480000001
 20
8.005000000000009
 30
0.0
 40
0.9999999999999779
100
AcDbArc
 50
45.57299599919454
 51
90.0
  0
ARC
  5
8588
330
84FC
100
AcDbEntity
  8
0
 62
     7
100
AcDbCircle
 10
19.85200480000001
 20
-8.005000000000009
 30
0.0
 40
1.000000000000001
100
AcDbArc
 50
314.4270040008046
 51
0.0
  0
ARC
  5
8589
330
84FC
100
AcDbEntity
  8
0
 62
     7
100
AcDbCircle
 10
16.25200480000001
 20
8.005000000000009
 30
0.0
 40
1.0
100
AcDbArc
 50
90.0
 51
180.0
  0
ARC
  5
858A
330
84FC
100
AcDbEntity
  8
0
 62
     7
100
AcDbCircle
 10
18.05200479999998
 20
-6.404999999999986
 30
0.0
 40
1.95
100
AcDbArc
 50
350.3825228837971
 51
0.0
  0
ARC
  5
858B
330
84FC
100
AcDbEntity
  8
0
 62
     7
100
AcDbCircle
 10
18.05200479999998
 20
-6.404999999999986
 30
0.0
 40
1.949999999999992
100
AcDbArc
 50
339.3736189501986
 51
345.0000000000001
  0
ARC
  5
858C
330
84FC
100
AcDbEntity
  8
0
 62
     7
100
AcDbCircle
 10
18.05200479999998
 20
-6.404999999999986
 30
0.0
 40
1.950000000000006
100
AcDbArc
 50
200.6263810498014
 51
249.3736189501996
  0
ARC
  5
858D
330
84FC
100
AcDbEntity
  8
0
 62
     7
100
AcDbCircle
 10
18.05200479999998
 20
-6.404999999999986
 30
0.0
 40
1.95000000000001
100
AcDbArc
 50
99.61747711620569
 51
110.6263810498023
  0
ARC
  5
858E
330
84FC
100
AcDbEntity
  8
0
 62
     7
100
AcDbCircle
 10
18.05200479999998
 20
-6.404999999999986
 30
0.0
 40
1.899999999999996
100
AcDbArc
 50
45.00000000000002
 51
73.84784348690004
  0
ARC
  5
858F
330
84FC
100
AcDbEntity
  8
0
 62
     7
100
AcDbCircle
 10
18.05200479999998
 20
-6.404999999999986
 30
0.0
 40
1.899999999999997
100
AcDbArc
 50
325.6151078507081
 51
343.8478434869003
  0
ARC
  5
8590
330
84FC
100
AcDbEntity
  8
0
 62
     7
100
AcDbCircle
 10
18.05200479999998
 20
-6.404999999999986
 30
0.0
 40
1.899999999999997
100
AcDbArc
 50
16.15215651309974
 51
45.00000000000002
  0
ARC
  5
8591
330
84FC
100
AcDbEntity
  8
0
 62
     7
100
AcDbCircle
 10
18.05200479999998
 20
-6.404999999999986
 30
0.0
 40
1.950000000000002
100
AcDbArc
 50
110.6263810498023
 51
159.3736189501982
  0
ARC
  5
8592
330
84FC
100
AcDbEntity
  8
0
 62
     7
100
AcDbCircle
 10
18.05200479999998
 20
-6.404999999999986
 30
0.0
 40
1.949999999999991
100
AcDbArc
 50
290.6263810498001
 51
339.3736189501986
  0
ARC
  5
8593
330
84FC
100
AcDbEntity
  8
0
 62
     7
100
AcDbCircle
 10
18.05200479999998
 20
-6.404999999999986
 30
0.0
 40
1.899999999999996
100
AcDbArc
 50
124.384892149292
 51
145.6151078507081
  0
ARC
  5
8594
330
84FC
100
AcDbEntity
  8
0
 62
     7
100
AcDbCircle
 10
18.05200479999998
 20
-6.404999999999986
 30
0.0
 40
1.899999999999988
100
AcDbArc
 50
145.6151078507081
 51
163.8478434869015
  0
ARC
  5
8595
330
84FC
100
AcDbEntity
  8
0
 62
     7
100
AcDbCircle
 10
18.05200479999998
 20
-6.404999999999986
 30
0.0
 40
1.9
100
AcDbArc
 50
304.3848921492918
 51
325.6151078507081
  0
ARC
  5
8596
330
84FC
100
AcDbEntity
  8
0
 62
     7
100
AcDbCircle
 10
18.05200479999998
 20
-6.404999999999986
 30
0.0
 40
1.9
100
AcDbArc
 50
286.1521565130983
 51
304.3848921492918
  0
ARC
  5
8597
330
84FC
100
AcDbEntity
  8
0
 62
     7
100
AcDbCircle
 10
18.05200479999998
 20
-6.404999999999986
 30
0.0
 40
1.9
100
AcDbArc
 50
196.1521565130984
 51
253.8478434869018
  0
ARC
  5
8598
330
84FC
100
AcDbEntity
  8
0
 62
     7
100
AcDbCircle
 10
18.05200479999998
 20
-6.404999999999986
 30
0.0
 40
1.899999999999997
100
AcDbArc
 50
106.1521565130997
 51
124.384892149292
  0
ARC
  5
8599
330
84FC
100
AcDbEntity
  8
0
 62
     7
100
AcDbCircle
 10
18.05200479999998
 20
-6.404999999999986
 30
0.0
 40
1.950000000000003
100
AcDbArc
 50
9.617477116203307
 51
20.62638104980153
  0
ARC
  5
859A
330
84FC
100
AcDbEntity
  8
0
 62
     7
100
AcDbCircle
 10
18.05200479999998
 20
-6.404999999999986
 30
0.0
 40
1.949999999999999
100
AcDbArc
 50
0.0
 51
9.617477116203307
  0
ARC
  5
859B
330
84FC
100
AcDbEntity
  8
0
 62
     7
100
AcDbCircle
 10
18.05200479999998
 20
-6.404999999999986
 30
0.0
 40
1.949999999999992
100
AcDbArc
 50
345.0000000000001
 51
350.3825228837971
  0
ARC
  5
859C
330
84FC
100
AcDbEntity
  8
0
 62
     7
100
AcDbCircle
 10
18.05200479999998
 20
-6.404999999999986
 30
0.0
 40
1.950000000000004
100
AcDbArc
 50
69.37361895019749
 51
80.38252288379444
  0
ARC
  5
859D
330
84FC
100
AcDbEntity
  8
0
 62
     7
100
AcDbCircle
 10
18.05200479999998
 20
-6.404999999999986
 30
0.0
 40
1.949999999999992
100
AcDbArc
 50
20.62638104980153
 51
69.37361895019749
  0
ARC
  5
859E
330
84FC
100
AcDbEntity
  8
0
 62
     7
100
AcDbCircle
 10
18.05200479999998
 20
-6.404999999999986
 30
0.0
 40
1.95
100
AcDbArc
 50
189.6174771162041
 51
200.6263810498014
  0
ARC
  5
859F
330
84FC
100
AcDbEntity
  8
0
 62
     7
100
AcDbCircle
 10
18.05200479999998
 20
-6.404999999999986
 30
0.0
 40
1.95000000000001
100
AcDbArc
 50
159.3736189501982
 51
170.3825228837958
  0
ARC
  5
85A0
330
84FC
100
AcDbEntity
  8
0
 62
     7
100
AcDbCircle
 10
18.05200479999998
 20
-6.404999999999986
 30
0.0
 40
1.950000000000008
100
AcDbArc
 50
80.38252288379444
 51
99.61747711620569
  0
ARC
  5
85A1
330
84FC
100
AcDbEntity
  8
0
 62
     7
100
AcDbCircle
 10
18.05200479999998
 20
-6.404999999999986
 30
0.0
 40
1.95
100
AcDbArc
 50
170.3825228837958
 51
189.6174771162041
  0
ARC
  5
85A2
330
84FC
100
AcDbEntity
  8
0
 62
     7
100
AcDbCircle
 10
18.05200479999998
 20
-6.404999999999986
 30
0.0
 40
1.949999999999995
100
AcDbArc
 50
279.6174771162005
 51
290.6263810498001
  0
ARC
  5
85A3
330
84FC
100
AcDbEntity
  8
0
 62
     7
100
AcDbCircle
 10
18.05200479999998
 20
-6.404999999999986
 30
0.0
 40
1.949999999999992
100
AcDbArc
 50
249.3736189501996
 51
260.3825228837994
  0
ARC
  5
85A4
330
84FC
100
AcDbEntity
  8
0
 62
     7
100
AcDbCircle
 10
18.05200479999998
 20
-6.404999999999986
 30
0.0
 40
1.949999999999995
100
AcDbArc
 50
260.3825228837994
 51
279.6174771162005
  0
ARC
  5
85A5
330
84FC
100
AcDbEntity
  8
0
 62
     7
100
AcDbCircle
 10
19.85200480000001
 20
-8.005000000000009
 30
0.0
 40
1.0
100
AcDbArc
 50
270.0
 51
314.4270040008046
  0
ARC
  5
85A6
330
84FC
100
AcDbEntity
  8
0
 62
     7
100
AcDbCircle
 10
16.25200480000001
 20
-8.005000000000009
 30
0.0
 40
1.0
100
AcDbArc
 50
180.0
 51
270.0
  0
LWPOLYLINE
  5
85A7
330
84FC
100
AcDbEntity
  8
0
 62
     7
100
AcDbPolyline
 90
        8
 70
     0
 43
0.0
 10
17.33201265709492
 20
3.270476883869775
 42
0.0335310637653838
 10
17.31329089504755
 20
3.271318850572598
 42
0.0156165892135584
 10
17.28941606510463
 20
3.270301414414703
 42
0.0071889415064502
 10
17.26096723987685
 20
3.267894183712745
 10
17.24520853922197
 20
3.266316148006695
 42
0.0004735704562555
 10
17.20263031056757
 20
3.261820140191021
 42
-0.0032656780077607
 10
17.15475467428841
 20
3.257047853800718
 42
-0.0060397432882063
 10
17.10200480000014
 20
3.252767990508274
  0
LWPOLYLINE
  5
85A8
330
84FC
100
AcDbEntity
  8
0
 62
     7
100
AcDbPolyline
 90
        8
 70
     0
 43
0.0
 38
1.004996417558615E+99
 10
17.10200480000016
 20
-3.252767990508261
 42
-0.0057841437119752
 10
17.15475467428849
 20
-3.257047853800721
 42
-0.0030986770794639
 10
17.20263031056765
 20
-3.261820140191028
 42
0.0004438508909904
 10
17.24520853922196
 20
-3.266316148006695
 10
17.26096723987798
 20
-3.26789418371285
 42
0.0066594803953065
 10
17.28941606510647
 20
-3.270301414414806
 42
0.0140857367880889
 10
17.31329089504882
 20
-3.271318850572584
 42
0.029075955183634
 10
17.33201265709538
 20
-3.27047688386973
  0
LWPOLYLINE
  5
85A9
330
84FC
100
AcDbEntity
  8
0
 62
     7
100
AcDbPolyline
 90
        8
 70
     0
 43
0.0
 38
1.004996417558615E+99
 10
17.33201265709492
 20
-0.5395231161302263
 42
0.0335310637654514
 10
17.31329089504755
 20
-0.5386811494274043
 42
0.0156165892136423
 10
17.28941606510463
 20
-0.5396985855852991
 42
0.0071889415065424
 10
17.26096723987685
 20
-0.5421058162872582
 10
17.24520853922197
 20
-0.5436838519933076
 42
0.000473570456253
 10
17.20263031056757
 20
-0.5481798598089815
 42
-0.0032656780077582
 10
17.15475467428841
 20
-0.5529521461992828
 42
-0.0060397432882149
 10
17.10200480000014
 20
-0.5572320094917274
  0
LWPOLYLINE
  5
85AA
330
84FC
100
AcDbEntity
  8
0
 62
     7
100
AcDbPolyline
 90
        7
 70
     0
 43
0.0
 38
1.004996417558615E+99
 10
16.616100821069
 20
-3.162470935450638
 42
0.0142366455524767
 10
16.71847418368156
 20
-3.191985082742943
 42
0.0120695717613071
 10
16.81329986998719
 20
-3.21388240731759
 10
16.85709152197306
 20
-3.222370470715873
 42
0.0109464766023359
 10
16.94590726101023
 20
-3.23663611128645
 42
0.0117619100328867
 10
17.04699139911177
 20
-3.248331995093447
 10
17.10200480000016
 20
-3.252767990508261
  0
LWPOLYLINE
  5
85AB
330
84FC
100
AcDbEntity
  8
0
 62
     7
100
AcDbPolyline
 90
        7
 70
     0
 43
0.0
 38
1.004996417558615E+99
 10
17.10200480000014
 20
-0.5572320094917274
 42
0.0114955886726863
 10
16.99494164454427
 20
-0.5671050695806743
 42
0.010693155915218
 10
16.89993997955839
 20
-0.580265146700024
 10
16.85709152380381
 20
-0.587629528949833
 42
0.0132133522827158
 10
16.74997761891906
 20
-0.6101877167674827
 42
0.012315081278624
 10
16.65713327402092
 20
-0.6349225981987328
 10
16.61610082105868
 20
-0.6475290645263101
  0
LWPOLYLINE
  5
85AC
330
84FC
100
AcDbEntity
  8
0
 62
     7
100
AcDbPolyline
 90
       10
 70
     0
 43
0.0
 38
1.004996417558615E+99
 10
12.71878452584433
 20
-3.292164184512589
 42
0.0713896900981334
 10
12.73912646990165
 20
-3.291515258092779
 42
0.0666714301192336
 10
12.75931935202005
 20
-3.285058393107493
 42
0.0553520163103628
 10
12.77927648011357
 20
-3.272838617559158
 42
0.0432324602286106
 10
12.79891116209622
 20
-3.254900959450196
 10
12.80956552699472
 20
-3.242584230898982
 42
0.0279507230419066
 10
12.82857928705096
 20
-3.215784155475322
 10
12.83691288690262
 20
-3.201967815856306
 42
0.0205298851605054
 10
12.85509923991141
 20
-3.167032021894308
 42
0.016567694174159
 10
12.87247386876198
 20
-3.126852274657494
  0
LWPOLYLINE
  5
85AD
330
84FC
100
AcDbEntity
  8
0
 62
     7
100
AcDbPolyline
 90
        8
 70
     0
 43
0.0
 38
1.004996417558615E+99
 10
16.55200479999989
 20
-3.141833507019384
 42
-0.0172357152741053
 10
16.45363200812228
 20
-3.106123295177748
 42
-0.0156206511984958
 10
16.37121760425574
 20
-3.069661539308611
 10
16.2907379072175
 20
-3.027361546687111
 10
16.21532243007297
 20
-2.980605332479683
 42
-0.0289969906790955
 10
16.11019173680183
 20
-2.900816274056373
 42
-0.0309858041169319
 10
16.01892463016775
 20
-2.812265826742595
 10
15.97876816497185
 20
-2.764999999999949
  0
LWPOLYLINE
  5
85AE
330
84FC
100
AcDbEntity
  8
0
 62
     7
100
AcDbPolyline
 90
        4
 70
     0
 43
0.0
 38
1.004996417558615E+99
 10
12.87247386876198
 20
-3.126852274657494
 42
0.0000672453982348
 10
12.94413775952127
 20
-2.945977117000836
 10
12.97994661263786
 20
-2.855544234353944
 10
13.01578513557525
 20
-2.764999999999949
  0
LWPOLYLINE
  5
85AF
330
84FC
100
AcDbEntity
  8
0
 62
     7
100
AcDbPolyline
 90
       13
 70
     0
 43
0.0
 38
1.004996417558615E+99
 10
12.71878452584433
 20
-0.5178358154874161
 42
-0.0540737045845098
 10
12.73373645593272
 20
-0.5177442886678304
 42
-0.0584544106834491
 10
12.75038643120335
 20
-0.5213637008600364
 10
12.75928426185442
 20
-0.5249252922323393
 42
-0.0430322370880051
 10
12.77401265121024
 20
-0.533362369981703
 42
-0.0397710223195412
 10
12.7902793546071
 20
-0.5464696695280157
 10
12.79891116277707
 20
-0.5550990412774582
 42
-0.0259639365893202
 10
12.81314111282177
 20
-0.5719740014074884
 42
-0.0236660583852533
 10
12.82871446065355
 20
-0.5944295456982303
 10
12.83691288664194
 20
-0.6080321836908241
 42
-0.0132121325114661
 10
12.84801734031893
 20
-0.6285501157737668
 42
-0.0126137944452103
 10
12.8599357948471
 20
-0.6534447134590642
 42
-0.0118616736523889
 10
12.87247386876198
 20
-0.6831477253424936
  0
LWPOLYLINE
  5
85B0
330
84FC
100
AcDbEntity
  8
0
 62
     7
100
AcDbPolyline
 90
        6
 70
     0
 43
0.0
 38
1.004996417558615E+99
 10
15.97876816497175
 20
2.76500000000008
 42
-0.0325977349406635
 10
16.06276956961641
 20
2.857577224051703
 42
-0.030522221758657
 10
16.16107974477825
 20
2.941864930859147
 10
16.21532237832621
 20
2.980605297711776
 42
-0.0365061160130735
 10
16.37398103609807
 20
3.070990548300478
 42
-0.0339342447692767
 10
16.55200480000024
 20
3.141833507019082
  0
LWPOLYLINE
  5
85B1
330
84FC
100
AcDbEntity
  8
0
 62
     7
100
AcDbPolyline
 90
        4
 70
     0
 43
0.0
 38
1.004996417558615E+99
 10
13.01578513557523
 20
2.765000000000128
 42
0.0000688030150836
 10
12.94413775952126
 20
2.945977117000865
 10
12.90847227567684
 20
3.036012270361933
 10
12.87247386876221
 20
3.126852274657494
  0
LWPOLYLINE
  5
85B2
330
84FC
100
AcDbEntity
  8
0
 62
     7
100
AcDbPolyline
 90
        7
 70
     0
 43
0.0
 38
1.004996417558615E+99
 10
17.10200480000014
 20
3.252767990508274
 42
0.0103287961059071
 10
17.01053164590373
 20
3.244652098382688
 42
0.0118254457483567
 10
16.91010503245275
 20
3.231348856690711
 10
16.85709152380381
 20
3.222370471050168
 42
0.0117303694242514
 10
16.76698865005261
 20
3.203806706214678
 42
0.0137357288488717
 10
16.66807279980443
 20
3.178259253991158
 10
16.61610082105868
 20
3.162470935473691
  0
LWPOLYLINE
  5
85B3
330
84FC
100
AcDbEntity
  8
0
 62
     7
100
AcDbPolyline
 90
       13
 70
     0
 43
0.0
 38
1.004996417558615E+99
 10
12.71878452584433
 20
3.292164184512586
 42
-0.0601256924076704
 10
12.73631142739282
 20
3.291953258094934
 42
-0.0520112694679805
 10
12.75209506241659
 20
3.288040995659616
 10
12.75928426185442
 20
3.285074707767662
 42
-0.0430322370962311
 10
12.77401265121556
 20
3.276637630014683
 42
-0.0397710223088454
 10
12.79027935461039
 20
3.263530330468931
 10
12.79891116277707
 20
3.254900958722543
 42
-0.0259639365891621
 10
12.8131411128218
 20
3.238025998592486
 42
-0.0236660583851113
 10
12.82871446065356
 20
3.21557045430175
 10
12.83691288664194
 20
3.201967816309178
 42
-0.0132121325112643
 10
12.84801734031893
 20
3.181449884226243
 42
-0.0126137944444185
 10
12.85993579484715
 20
3.156555286540943
 42
-0.0118616736517415
 10
12.87247386876221
 20
3.126852274657494
  0
LWPOLYLINE
  5
85B4
330
84FC
100
AcDbEntity
  8
0
 62
     7
100
AcDbPolyline
 90
        8
 70
     0
 43
0.0
 38
1.004996417558615E+99
 10
17.10200480000016
 20
0.5572320094917416
 42
-0.0057841437119978
 10
17.15475467428849
 20
0.552952146199281
 42
-0.0030986770794661
 10
17.20263031056765
 20
0.5481798598089736
 42
0.0004438508909754
 10
17.24520853922196
 20
0.5436838519933076
 10
17.26096723987798
 20
0.5421058162871527
 42
0.0066594803952394
 10
17.28941606510644
 20
0.5396985855851913
 42
0.014085736787834
 10
17.31329089504864
 20
0.5386811494274003
 42
0.0290759551837512
 10
17.33201265709493
 20
0.5395231161302263
  0
LWPOLYLINE
  5
85B5
330
84FC
100
AcDbEntity
  8
0
 62
     7
100
AcDbPolyline
 90
        7
 70
     0
 43
0.0
 38
1.004996417558615E+99
 10
16.61610082105863
 20
0.6475290645263101
 42
0.012718828706105
 10
16.70176402404458
 20
0.6223985178213073
 42
0.0136497241492148
 10
16.80175860193109
 20
0.5985210895394429
 10
16.85709152197306
 20
0.5876295292841292
 42
0.0121332295909498
 10
16.96132605154292
 20
0.5712748021562968
 42
0.010540646941768
 10
17.05749887415354
 20
0.560717838625227
 10
17.10200480000016
 20
0.5572320094917416
  0
LWPOLYLINE
  5
85B6
330
84FC
100
AcDbEntity
  8
0
 62
     7
100
AcDbPolyline
 90
       12
 70
     0
 43
0.0
 38
1.004996417558615E+99
 10
12.71878452584433
 20
0.5178358154874161
 42
0.0601256927789293
 10
12.73631142750432
 20
0.5180467419202018
 42
0.052011269696002
 10
12.7520950626132
 20
0.5219590044113075
 10
12.75928426208257
 20
0.5249252923383665
 42
0.0430322361030259
 10
12.77401265113331
 20
0.5333623699292321
 42
0.0397710214533923
 10
12.79027935414378
 20
0.5464696690965148
 10
12.79891116209622
 20
0.5550990405498056
 42
0.0333357694253342
 10
12.81820299616752
 20
0.5788021820716362
 42
0.0257926327426025
 10
12.83691288690262
 20
0.6080321841436956
 10
12.84610256449348
 20
0.6248338765137564
 42
0.0183835902305781
 10
12.86389298428892
 20
0.6624130680145124
 10
12.87247386876198
 20
0.6831477253425078
  0
LWPOLYLINE
  5
85B7
330
84FC
100
AcDbEntity
  8
0
 62
     7
100
AcDbPolyline
 90
        4
 70
     0
 43
0.0
 38
1.004996417558615E+99
 10
12.87247386876198
 20
0.6831477253425078
 42
0.0000672453982339
 10
12.94413775952127
 20
0.8640228829991656
 10
12.97994661263786
 20
0.9544557656460435
 10
13.01578513557525
 20
1.044999999999945
  0
LWPOLYLINE
  5
85B8
330
84FC
100
AcDbEntity
  8
0
 62
     7
100
AcDbPolyline
 90
        8
 70
     0
 43
0.0
 38
1.004996417558615E+99
 10
16.55200479999989
 20
0.6681664929806175
 42
-0.0331237740553586
 10
16.37398106560044
 20
0.7390094375523257
 42
-0.0356503627170927
 10
16.21532243007297
 20
0.8293946675203187
 10
16.16929927013764
 20
0.861954730083339
 42
-0.0251001891186864
 10
16.08441178188682
 20
0.9320250238870215
 10
16.05334326000975
 20
0.961688945321976
 42
-0.0191265343849438
 10
16.00068070039764
 20
1.018430545385189
 10
15.97876816497182
 20
1.044999999999959
  0
LWPOLYLINE
  5
85B9
330
84FC
100
AcDbEntity
  8
0
 62
     7
100
AcDbPolyline
 90
       10
 70
     0
 43
0.0
 38
1.004996417558615E+99
 10
15.97876816497185
 20
-1.044999999999945
 42
-0.0269308923277117
 10
16.0498429944254
 20
-0.9651923061939241
 10
16.08441180061221
 20
-0.9320250067404174
 42
-0.0255080698581152
 10
16.17328480058137
 20
-0.8589996628881911
 10
16.21532237832621
 20
-0.8293947022882264
 42
-0.0177011673951069
 10
16.28585099047542
 20
-0.7854453872855803
 42
-0.0191866721761406
 10
16.37121763347848
 20
-0.7403384465963683
 10
16.41043714169405
 20
-0.7221855390639375
 42
-0.0177512161237768
 10
16.50081650472401
 20
-0.6857557426047415
 10
16.55200479999993
 20
-0.6681664929806317
  0
LWPOLYLINE
  5
85BA
330
84FC
100
AcDbEntity
  8
0
 62
     7
100
AcDbPolyline
 90
        4
 70
     0
 43
0.0
 38
1.004996417558615E+99
 10
13.01578513557523
 20
-1.044999999999874
 42
0.0000688030150844
 10
12.94413775952126
 20
-0.8640228829991372
 10
12.90847226417216
 20
-0.7739877006010056
 10
12.87247386876198
 20
-0.6831477253424936
  0
ENDBLK
  5
85BC
330
84FC
100
AcDbEntity
  8
0
100
AcDbBlockEnd
  0
BLOCK
  5
85BF
330
85BD
100
AcDbEntity
  8
0
100
AcDbBlockBegin
  2
VORDANS1
 70
     0
 10
11.65200479999999
 20
-9.005000000000009
 30
0.0
  3
VORDANS1
  1

  0
INSERT
  5
85BE
330
85BD
100
AcDbEntity
  8
0
100
AcDbBlockReference
  2
MC_1_5-2-STF-3_81__6
 10
11.65200479999999
 20
-9.005000000000009
 30
0.0
  0
ENDBLK
  5
85C0
330
85BD
100
AcDbEntity
  8
0
100
AcDbBlockEnd
  0
ENDSEC
  0
SECTION
  2
ENTITIES
  0
LINE
  5
7749
330
18
100
AcDbEntity
  8
0
100
AcDbLine
 10
-115.3707076761156
 20
253.9182125074963
 30
0.0
 11
-115.3707076761156
 21
394.9182125074961
 31
0.0
  0
LINE
  5
774A
330
18
100
AcDbEntity
  8
0
100
AcDbLine
 10
-130.3707076761161
 20
332.4182125074959
 30
0.0
 11
-130.3707076761156
 21
253.9182125074963
 31
0.0
  0
LINE
  5
774E
330
18
100
AcDbEntity
  8
0
100
AcDbLine
 10
-162.5707076761157
 20
311.9182125074961
 30
0.0
 11
-162.5707076761157
 21
313.9182125074963
 31
0.0
  0
LINE
  5
774F
330
18
100
AcDbEntity
  8
0
100
AcDbLine
 10
-183.5707076761156
 20
311.9182125074962
 30
0.0
 11
-183.5707076761156
 21
313.9182125074964
 31
0.0
  0
LINE
  5
7750
330
18
100
AcDbEntity
  8
0
100
AcDbLine
 10
-184.5707076761157
 20
404.4182125074966
 30
0.0
 11
-184.5707076761157
 21
309.4182125074966
 31
0.0
  0
LINE
  5
7751
330
18
100
AcDbEntity
  8
0
100
AcDbLine
 10
-160.5707076761157
 20
404.4182125074962
 30
0.0
 11
-160.5707076761157
 21
309.4182125074961
 31
0.0
  0
LINE
  5
7754
330
18
100
AcDbEntity
  8
0
100
AcDbLine
 10
-111.1707076761158
 20
478.4182125074966
 30
0.0
 11
-111.1707076761158
 21
243.4182125074966
 31
0.0
  0
LINE
  5
7755
330
18
100
AcDbEntity
  8
0
100
AcDbLine
 10
-241.1707076761158
 20
477.4182125074964
 30
0.0
 11
-241.1707076761156
 21
244.4182125074962
 31
0.0
  0
LINE
  5
7758
330
18
100
AcDbEntity
  8
0
100
AcDbLine
 10
-160.9707076761158
 20
404.4182125074962
 30
0.0
 11
-160.9707076761156
 21
309.4182125074961
 31
0.0
  0
LINE
  5
7759
330
18
100
AcDbEntity
  8
0
100
AcDbLine
 10
-162.5707076761157
 20
404.4182125074962
 30
0.0
 11
-162.5707076761157
 21
309.4182125074962
 31
0.0
  0
LINE
  5
775B
330
18
100
AcDbEntity
  8
0
100
AcDbLine
 10
-111.1707076761158
 20
493.4182125074971
 30
0.0
 11
-111.1707076761156
 21
228.4182125074966
 31
0.0
  0
LINE
  5
775C
330
18
100
AcDbEntity
  8
0
100
AcDbLine
 10
-236.1707076761156
 20
493.4182125074971
 30
0.0
 11
-228.9207076761154
 21
493.4182125074971
 31
0.0
  0
LINE
  5
775E
330
18
100
AcDbEntity
  8
0
100
AcDbLine
 10
-88.17070767611586
 20
478.4182125074966
 30
0.0
 11
-239.5707076761158
 21
478.4182125074966
 31
0.0
  0
LINE
  5
7761
330
18
100
AcDbEntity
  8
0
100
AcDbLine
 10
-236.1707076761155
 20
478.4182125074967
 30
0.0
 11
-236.1707076761156
 21
493.4182125074971
 31
0.0
  0
LINE
  5
7762
330
18
100
AcDbEntity
  8
0
100
AcDbLine
 10
-239.5707076761158
 20
477.4182125074966
 30
0.0
 11
-239.5707076761158
 21
478.4182125074966
 31
0.0
  0
LINE
  5
7768
330
18
100
AcDbEntity
  8
0
100
AcDbLine
 10
-223.4207076761156
 20
493.4182125074971
 30
0.0
 11
-128.9207076761155
 21
493.4182125074975
 31
0.0
  0
ARC
  5
7773
330
18
100
AcDbEntity
  8
0
100
AcDbCircle
 10
-226.1707076761156
 20
488.418212507497
 30
0.0
 40
2.75
100
AcDbArc
 50
180.0
 51
0.0
  0
LINE
  5
7774
330
18
100
AcDbEntity
  8
0
100
AcDbLine
 10
-223.4207076761156
 20
488.418212507497
 30
0.0
 11
-223.4207076761156
 21
493.4182125074971
 31
0.0
  0
LINE
  5
7775
330
18
100
AcDbEntity
  8
0
100
AcDbLine
 10
-228.9207076761156
 20
488.418212507497
 30
0.0
 11
-228.9207076761154
 21
493.4182125074971
 31
0.0
  0
LINE
  5
7788
330
18
100
AcDbEntity
  8
0
100
AcDbLine
 10
-128.9207076761156
 20
488.4182125074976
 30
0.0
 11
-128.9207076761155
 21
493.4182125074975
 31
0.0
  0
LINE
  5
7789
330
18
100
AcDbEntity
  8
0
100
AcDbLine
 10
-123.4207076761156
 20
488.4182125074973
 30
0.0
 11
-123.4207076761156
 21
493.4182125074973
 31
0.0
  0
ARC
  5
778A
330
18
100
AcDbEntity
  8
0
100
AcDbCircle
 10
-126.1707076761156
 20
488.4182125074973
 30
0.0
 40
2.75
100
AcDbArc
 50
180.0
 51
0.0
  0
LINE
  5
778B
330
18
100
AcDbEntity
  8
0
100
AcDbLine
 10
-123.4207076761156
 20
493.4182125074975
 30
0.0
 11
-111.1707076761158
 21
493.4182125074971
 31
0.0
  0
CIRCLE
  5
779A
330
18
100
AcDbEntity
  8
0
100
AcDbCircle
 10
-173.0707076761157
 20
318.4182125074964
 30
0.0
 40
4.0
  0
LINE
  5
779B
330
18
100
AcDbEntity
  8
0
100
AcDbLine
 10
-183.5707076761157
 20
313.9182125074966
 30
0.0
 11
-162.5707076761157
 21
313.9182125074963
 31
0.0
  0
LINE
  5
779C
330
18
100
AcDbEntity
  8
0
100
AcDbLine
 10
-183.5707076761157
 20
322.9182125074964
 30
0.0
 11
-162.5707076761157
 21
322.9182125074961
 31
0.0
  0
CIRCLE
  5
779D
330
18
100
AcDbEntity
  8
0
100
AcDbCircle
 10
-173.0707076761157
 20
340.4182125074964
 30
0.0
 40
4.0
  0
CIRCLE
  5
779E
330
18
100
AcDbEntity
  8
0
100
AcDbCircle
 10
-173.0707076761157
 20
329.4182125074964
 30
0.0
 40
4.0
  0
CIRCLE
  5
779F
330
18
100
AcDbEntity
  8
0
100
AcDbCircle
 10
-173.0707076761157
 20
351.4182125074964
 30
0.0
 40
4.0
  0
CIRCLE
  5
77A0
330
18
100
AcDbEntity
  8
0
100
AcDbCircle
 10
-173.0707076761157
 20
362.4182125074964
 30
0.0
 40
4.0
  0
LINE
  5
77A1
330
18
100
AcDbEntity
  8
0
100
AcDbLine
 10
-183.5707076761157
 20
344.9182125074964
 30
0.0
 11
-162.5707076761157
 21
344.9182125074962
 31
0.0
  0
LINE
  5
77A2
330
18
100
AcDbEntity
  8
0
100
AcDbLine
 10
-183.5707076761157
 20
346.9182125074966
 30
0.0
 11
-162.5707076761157
 21
346.9182125074964
 31
0.0
  0
LINE
  5
77A3
330
18
100
AcDbEntity
  8
0
100
AcDbLine
 10
-183.5707076761157
 20
335.9182125074966
 30
0.0
 11
-162.5707076761157
 21
335.9182125074963
 31
0.0
  0
LINE
  5
77A4
330
18
100
AcDbEntity
  8
0
100
AcDbLine
 10
-183.5707076761157
 20
333.9182125074964
 30
0.0
 11
-162.5707076761157
 21
333.9182125074961
 31
0.0
  0
LINE
  5
77A5
330
18
100
AcDbEntity
  8
0
100
AcDbLine
 10
-183.5707076761157
 20
355.9182125074964
 30
0.0
 11
-162.5707076761157
 21
355.9182125074962
 31
0.0
  0
LINE
  5
77A6
330
18
100
AcDbEntity
  8
0
100
AcDbLine
 10
-183.5707076761157
 20
357.9182125074966
 30
0.0
 11
-162.5707076761157
 21
357.9182125074964
 31
0.0
  0
LINE
  5
77A7
330
18
100
AcDbEntity
  8
0
100
AcDbLine
 10
-183.5707076761157
 20
366.9182125074964
 30
0.0
 11
-162.5707076761157
 21
366.9182125074962
 31
0.0
  0
LINE
  5
77A8
330
18
100
AcDbEntity
  8
0
100
AcDbLine
 10
-183.5707076761157
 20
324.9182125074966
 30
0.0
 11
-162.5707076761157
 21
324.9182125074963
 31
0.0
  0
CIRCLE
  5
77A9
330
18
100
AcDbEntity
  8
0
100
AcDbCircle
 10
-173.0707076761157
 20
384.4182125074964
 30
0.0
 40
4.0
  0
CIRCLE
  5
77AA
330
18
100
AcDbEntity
  8
0
100
AcDbCircle
 10
-173.0707076761157
 20
373.4182125074964
 30
0.0
 40
4.0
  0
LINE
  5
77AB
330
18
100
AcDbEntity
  8
0
100
AcDbLine
 10
-181.0707076761157
 20
402.2182125074966
 30
0.0
 11
-165.0707076761157
 21
402.2182125074959
 31
0.0
  0
CIRCLE
  5
77AC
330
18
100
AcDbEntity
  8
0
100
AcDbCircle
 10
-173.0707076761157
 20
395.4182125074964
 30
0.0
 40
4.0
  0
LINE
  5
77AD
330
18
100
AcDbEntity
  8
0
100
AcDbLine
 10
-183.5707076761157
 20
377.9182125074964
 30
0.0
 11
-162.5707076761157
 21
377.9182125074961
 31
0.0
  0
LINE
  5
77AE
330
18
100
AcDbEntity
  8
0
100
AcDbLine
 10
-183.5707076761157
 20
379.9182125074966
 30
0.0
 11
-162.5707076761157
 21
379.9182125074964
 31
0.0
  0
LINE
  5
77AF
330
18
100
AcDbEntity
  8
0
100
AcDbLine
 10
-183.5707076761157
 20
390.9182125074966
 30
0.0
 11
-162.5707076761157
 21
390.9182125074964
 31
0.0
  0
LINE
  5
77B0
330
18
100
AcDbEntity
  8
0
100
AcDbLine
 10
-183.5707076761157
 20
388.9182125074964
 30
0.0
 11
-162.5707076761157
 21
388.9182125074962
 31
0.0
  0
LINE
  5
77B1
330
18
100
AcDbEntity
  8
0
100
AcDbLine
 10
-183.5707076761157
 20
399.9182125074964
 30
0.0
 11
-162.5707076761157
 21
399.9182125074962
 31
0.0
  0
LINE
  5
77B2
330
18
100
AcDbEntity
  8
0
100
AcDbLine
 10
-183.5707076761157
 20
401.9182125074967
 30
0.0
 11
-162.5707076761157
 21
401.9182125074964
 31
0.0
  0
LINE
  5
77B3
330
18
100
AcDbEntity
  8
0
100
AcDbLine
 10
-183.5707076761157
 20
368.9182125074966
 30
0.0
 11
-162.5707076761157
 21
368.9182125074964
 31
0.0
  0
LINE
  5
77B4
330
18
100
AcDbEntity
  8
0
100
AcDbLine
 10
-160.5707076761157
 20
404.4182125074962
 30
0.0
 11
-184.5707076761157
 21
404.4182125074966
 31
0.0
  0
LINE
  5
77B6
330
18
100
AcDbEntity
  8
0
100
AcDbLine
 10
-181.0707076761156
 20
357.9182125074966
 30
0.0
 11
-181.0707076761154
 21
366.9182125074964
 31
0.0
  0
LINE
  5
77B7
330
18
100
AcDbEntity
  8
0
100
AcDbLine
 10
-181.0707076761156
 20
379.9182125074966
 30
0.0
 11
-181.0707076761157
 21
388.9182125074962
 31
0.0
  0
LINE
  5
77B8
330
18
100
AcDbEntity
  8
0
100
AcDbLine
 10
-181.0707076761157
 20
401.9182125074967
 30
0.0
 11
-181.0707076761157
 21
402.2182125074963
 31
0.0
  0
LINE
  5
77B9
330
18
100
AcDbEntity
  8
0
100
AcDbLine
 10
-181.0707076761157
 20
390.9182125074964
 30
0.0
 11
-181.0707076761157
 21
399.9182125074964
 31
0.0
  0
LINE
  5
77BA
330
18
100
AcDbEntity
  8
0
100
AcDbLine
 10
-183.5707076761156
 20
399.9182125074962
 30
0.0
 11
-183.5707076761156
 21
401.9182125074964
 31
0.0
  0
LINE
  5
77BB
330
18
100
AcDbEntity
  8
0
100
AcDbLine
 10
-183.5707076761156
 20
388.9182125074962
 30
0.0
 11
-183.5707076761156
 21
390.9182125074964
 31
0.0
  0
LINE
  5
77BC
330
18
100
AcDbEntity
  8
0
100
AcDbLine
 10
-181.0707076761154
 20
368.9182125074964
 30
0.0
 11
-181.0707076761156
 21
377.9182125074964
 31
0.0
  0
LINE
  5
77BD
330
18
100
AcDbEntity
  8
0
100
AcDbLine
 10
-183.5707076761156
 20
377.9182125074961
 30
0.0
 11
-183.5707076761156
 21
379.9182125074964
 31
0.0
  0
LINE
  5
77BE
330
18
100
AcDbEntity
  8
0
100
AcDbLine
 10
-183.5707076761156
 20
366.9182125074962
 30
0.0
 11
-183.5707076761156
 21
368.9182125074964
 31
0.0
  0
LINE
  5
77BF
330
18
100
AcDbEntity
  8
0
100
AcDbLine
 10
-181.0707076761156
 20
335.9182125074969
 30
0.0
 11
-181.0707076761156
 21
344.9182125074966
 31
0.0
  0
LINE
  5
77C0
330
18
100
AcDbEntity
  8
0
100
AcDbLine
 10
-181.0707076761156
 20
346.9182125074966
 30
0.0
 11
-181.0707076761156
 21
355.9182125074964
 31
0.0
  0
LINE
  5
77C1
330
18
100
AcDbEntity
  8
0
100
AcDbLine
 10
-183.5707076761156
 20
355.9182125074962
 30
0.0
 11
-183.5707076761156
 21
357.9182125074964
 31
0.0
  0
LINE
  5
77C2
330
18
100
AcDbEntity
  8
0
100
AcDbLine
 10
-183.5707076761156
 20
344.9182125074962
 30
0.0
 11
-183.5707076761156
 21
346.9182125074964
 31
0.0
  0
LINE
  5
77C3
330
18
100
AcDbEntity
  8
0
100
AcDbLine
 10
-181.0707076761157
 20
313.9182125074966
 30
0.0
 11
-181.0707076761156
 21
322.9182125074964
 31
0.0
  0
LINE
  5
77C4
330
18
100
AcDbEntity
  8
0
100
AcDbLine
 10
-181.0707076761156
 20
324.9182125074964
 30
0.0
 11
-181.0707076761156
 21
333.9182125074964
 31
0.0
  0
LINE
  5
77C5
330
18
100
AcDbEntity
  8
0
100
AcDbLine
 10
-183.5707076761156
 20
333.9182125074962
 30
0.0
 11
-183.5707076761156
 21
335.9182125074964
 31
0.0
  0
LINE
  5
77C6
330
18
100
AcDbEntity
  8
0
100
AcDbLine
 10
-183.5707076761156
 20
322.9182125074962
 30
0.0
 11
-183.5707076761156
 21
324.9182125074964
 31
0.0
  0
LINE
  5
77C7
330
18
100
AcDbEntity
  8
0
100
AcDbLine
 10
-130.3707076761156
 20
348.9182125074959
 30
0.0
 11
-130.3707076761156
 21
394.9182125074962
 31
0.0
  0
LINE
  5
77C9
330
18
100
AcDbEntity
  8
0
100
AcDbLine
 10
-165.0707076761156
 20
357.9182125074964
 30
0.0
 11
-165.0707076761156
 21
366.9182125074962
 31
0.0
  0
LINE
  5
77CB
330
18
100
AcDbEntity
  8
0
100
AcDbLine
 10
-165.0707076761157
 20
379.9182125074964
 30
0.0
 11
-165.0707076761157
 21
388.9182125074962
 31
0.0
  0
LINE
  5
77CE
330
18
100
AcDbEntity
  8
0
100
AcDbLine
 10
-162.5707076761156
 20
386.4182125074966
 30
0.0
 11
-165.0707076761157
 21
386.4182125074968
 31
0.0
  0
LINE
  5
77D1
330
18
100
AcDbEntity
  8
0
100
AcDbLine
 10
-165.0707076761157
 20
401.9182125074964
 30
0.0
 11
-165.0707076761157
 21
402.2182125074959
 31
0.0
  0
LINE
  5
77D6
330
18
100
AcDbEntity
  8
0
100
AcDbLine
 10
-162.5707076761156
 20
393.4182125074966
 30
0.0
 11
-165.0707076761157
 21
393.4182125074966
 31
0.0
  0
LINE
  5
77D7
330
18
100
AcDbEntity
  8
0
100
AcDbLine
 10
-162.5707076761156
 20
397.4182125074966
 30
0.0
 11
-165.0707076761157
 21
397.4182125074968
 31
0.0
  0
LINE
  5
77D8
330
18
100
AcDbEntity
  8
0
100
AcDbLine
 10
-162.5707076761157
 20
399.9182125074962
 30
0.0
 11
-162.5707076761157
 21
401.9182125074964
 31
0.0
  0
LINE
  5
77D9
330
18
100
AcDbEntity
  8
0
100
AcDbLine
 10
-165.0707076761157
 20
390.9182125074962
 30
0.0
 11
-165.0707076761157
 21
399.9182125074962
 31
0.0
  0
LINE
  5
77DA
330
18
100
AcDbEntity
  8
0
100
AcDbLine
 10
-162.5707076761157
 20
388.9182125074962
 30
0.0
 11
-162.5707076761157
 21
390.9182125074964
 31
0.0
  0
LINE
  5
77DE
330
18
100
AcDbEntity
  8
0
100
AcDbLine
 10
-162.5707076761156
 20
364.4182125074966
 30
0.0
 11
-165.0707076761157
 21
364.4182125074968
 31
0.0
  0
LINE
  5
77E3
330
18
100
AcDbEntity
  8
0
100
AcDbLine
 10
-162.5707076761156
 20
371.4182125074966
 30
0.0
 11
-165.0707076761157
 21
371.4182125074966
 31
0.0
  0
LINE
  5
77E4
330
18
100
AcDbEntity
  8
0
100
AcDbLine
 10
-162.5707076761156
 20
375.4182125074966
 30
0.0
 11
-165.0707076761157
 21
375.4182125074969
 31
0.0
  0
LINE
  5
77E5
330
18
100
AcDbEntity
  8
0
100
AcDbLine
 10
-162.5707076761156
 20
382.4182125074966
 30
0.0
 11
-165.0707076761157
 21
382.4182125074966
 31
0.0
  0
LINE
  5
77E8
330
18
100
AcDbEntity
  8
0
100
AcDbLine
 10
-162.5707076761157
 20
377.9182125074961
 30
0.0
 11
-162.5707076761157
 21
379.9182125074964
 31
0.0
  0
LINE
  5
77E9
330
18
100
AcDbEntity
  8
0
100
AcDbLine
 10
-165.0707076761156
 20
368.9182125074964
 30
0.0
 11
-165.0707076761157
 21
377.9182125074964
 31
0.0
  0
LINE
  5
77EA
330
18
100
AcDbEntity
  8
0
100
AcDbLine
 10
-162.5707076761157
 20
366.9182125074962
 30
0.0
 11
-162.5707076761157
 21
368.9182125074964
 31
0.0
  0
LINE
  5
77ED
330
18
100
AcDbEntity
  8
0
100
AcDbLine
 10
-130.3707076761156
 20
394.9182125074962
 30
0.0
 11
-115.3707076761156
 21
394.9182125074961
 31
0.0
  0
LINE
  5
77F2
330
18
100
AcDbEntity
  8
0
100
AcDbLine
 10
-165.0707076761154
 20
335.9182125074964
 30
0.0
 11
-165.0707076761156
 21
344.9182125074962
 31
0.0
  0
LINE
  5
77F7
330
18
100
AcDbEntity
  8
0
100
AcDbLine
 10
-162.5707076761156
 20
338.4182125074965
 30
0.0
 11
-165.0707076761157
 21
338.4182125074966
 31
0.0
  0
LINE
  5
77F8
330
18
100
AcDbEntity
  8
0
100
AcDbLine
 10
-162.5707076761156
 20
342.4182125074965
 30
0.0
 11
-165.0707076761157
 21
342.4182125074969
 31
0.0
  0
LINE
  5
77FD
330
18
100
AcDbEntity
  8
0
100
AcDbLine
 10
-162.5707076761156
 20
349.4182125074966
 30
0.0
 11
-165.0707076761157
 21
349.4182125074966
 31
0.0
  0
LINE
  5
77FE
330
18
100
AcDbEntity
  8
0
100
AcDbLine
 10
-162.5707076761156
 20
353.4182125074966
 30
0.0
 11
-165.0707076761157
 21
353.4182125074968
 31
0.0
  0
LINE
  5
7801
330
18
100
AcDbEntity
  8
0
100
AcDbLine
 10
-162.5707076761156
 20
360.4182125074966
 30
0.0
 11
-165.0707076761157
 21
360.4182125074966
 31
0.0
  0
LINE
  5
7802
330
18
100
AcDbEntity
  8
0
100
AcDbLine
 10
-162.5707076761157
 20
355.9182125074962
 30
0.0
 11
-162.5707076761157
 21
357.9182125074964
 31
0.0
  0
LINE
  5
7803
330
18
100
AcDbEntity
  8
0
100
AcDbLine
 10
-165.0707076761156
 20
346.9182125074961
 30
0.0
 11
-165.0707076761156
 21
355.9182125074962
 31
0.0
  0
LINE
  5
7804
330
18
100
AcDbEntity
  8
0
100
AcDbLine
 10
-162.5707076761157
 20
344.9182125074962
 30
0.0
 11
-162.5707076761157
 21
346.9182125074964
 31
0.0
  0
LINE
  5
7807
330
18
100
AcDbEntity
  8
0
100
AcDbLine
 10
-165.0707076761157
 20
313.9182125074962
 30
0.0
 11
-165.0707076761157
 21
322.9182125074962
 31
0.0
  0
LINE
  5
780C
330
18
100
AcDbEntity
  8
0
100
AcDbLine
 10
-162.5707076761156
 20
316.4182125074966
 30
0.0
 11
-165.0707076761157
 21
316.4182125074966
 31
0.0
  0
LINE
  5
780D
330
18
100
AcDbEntity
  8
0
100
AcDbLine
 10
-162.5707076761156
 20
320.4182125074966
 30
0.0
 11
-165.0707076761157
 21
320.4182125074968
 31
0.0
  0
LINE
  5
7812
330
18
100
AcDbEntity
  8
0
100
AcDbLine
 10
-162.5707076761156
 20
327.4182125074966
 30
0.0
 11
-165.0707076761157
 21
327.4182125074966
 31
0.0
  0
LINE
  5
7813
330
18
100
AcDbEntity
  8
0
100
AcDbLine
 10
-162.5707076761156
 20
331.4182125074966
 30
0.0
 11
-165.0707076761157
 21
331.4182125074968
 31
0.0
  0
LINE
  5
7814
330
18
100
AcDbEntity
  8
0
100
AcDbLine
 10
-162.5707076761157
 20
333.9182125074961
 30
0.0
 11
-162.5707076761157
 21
335.9182125074963
 31
0.0
  0
LINE
  5
7815
330
18
100
AcDbEntity
  8
0
100
AcDbLine
 10
-165.0707076761157
 20
324.9182125074964
 30
0.0
 11
-165.0707076761154
 21
333.9182125074964
 31
0.0
  0
LINE
  5
7816
330
18
100
AcDbEntity
  8
0
100
AcDbLine
 10
-162.5707076761157
 20
322.9182125074961
 30
0.0
 11
-162.5707076761157
 21
324.9182125074963
 31
0.0
  0
LINE
  5
7819
330
18
100
AcDbEntity
  8
0
100
AcDbLine
 10
-135.3707076761156
 20
332.4182125074959
 30
0.0
 11
-135.3707076761156
 21
348.9182125074959
 31
0.0
  0
LINE
  5
781D
330
18
100
AcDbEntity
  8
0
100
AcDbLine
 10
-135.3707076761156
 20
348.9182125074959
 30
0.0
 11
-130.3707076761156
 21
348.9182125074959
 31
0.0
  0
LINE
  5
7820
330
18
100
AcDbEntity
  8
0
100
AcDbLine
 10
-135.3707076761161
 20
332.4182125074959
 30
0.0
 11
-130.3707076761161
 21
332.4182125074959
 31
0.0
  0
LINE
  5
7821
330
18
100
AcDbEntity
  8
0
100
AcDbLine
 10
-236.1707076761156
 20
228.4182125074966
 30
0.0
 11
-228.9207076761156
 21
228.4182125074966
 31
0.0
  0
LINE
  5
7823
330
18
100
AcDbEntity
  8
0
100
AcDbLine
 10
-88.17070767611586
 20
243.4182125074966
 30
0.0
 11
-239.5707076761155
 21
243.4182125074966
 31
0.0
  0
LINE
  5
7826
330
18
100
AcDbEntity
  8
0
100
AcDbLine
 10
-236.1707076761155
 20
243.4182125074966
 30
0.0
 11
-236.1707076761156
 21
228.4182125074966
 31
0.0
  0
LINE
  5
7828
330
18
100
AcDbEntity
  8
0
100
AcDbLine
 10
-239.5707076761155
 20
244.4182125074966
 30
0.0
 11
-239.5707076761155
 21
243.4182125074966
 31
0.0
  0
LINE
  5
782A
330
18
100
AcDbEntity
  8
0
100
AcDbLine
 10
-223.4207076761156
 20
228.4182125074966
 30
0.0
 11
-128.9207076761156
 21
228.4182125074961
 31
0.0
  0
LINE
  5
782B
330
18
100
AcDbEntity
  8
0
100
AcDbLine
 10
-181.0707076761195
 20
311.6182125074967
 30
0.0
 11
-165.0707076761195
 21
311.618212507496
 31
0.0
  0
LINE
  5
782C
330
18
100
AcDbEntity
  8
0
100
AcDbLine
 10
-183.5707076761157
 20
311.9182125074964
 30
0.0
 11
-162.5707076761157
 21
311.9182125074961
 31
0.0
  0
LINE
  5
782D
330
18
100
AcDbEntity
  8
0
100
AcDbLine
 10
-160.5707076761157
 20
309.4182125074961
 30
0.0
 11
-184.5707076761157
 21
309.4182125074966
 31
0.0
  0
LINE
  5
782E
330
18
100
AcDbEntity
  8
0
100
AcDbLine
 10
-181.0707076761157
 20
311.6182125074967
 30
0.0
 11
-181.0707076761157
 21
311.9182125074964
 31
0.0
  0
ARC
  5
782F
330
18
100
AcDbEntity
  8
0
100
AcDbCircle
 10
-226.1707076761156
 20
233.4182125074967
 30
0.0
 40
2.75
100
AcDbArc
 50
0.0
 51
180.0
  0
LINE
  5
7830
330
18
100
AcDbEntity
  8
0
100
AcDbLine
 10
-228.9207076761156
 20
233.4182125074966
 30
0.0
 11
-228.9207076761156
 21
228.4182125074966
 31
0.0
  0
LINE
  5
7831
330
18
100
AcDbEntity
  8
0
100
AcDbLine
 10
-223.4207076761156
 20
233.4182125074966
 30
0.0
 11
-223.4207076761156
 21
228.4182125074966
 31
0.0
  0
LINE
  5
7849
330
18
100
AcDbEntity
  8
0
100
AcDbLine
 10
-165.0707076761157
 20
311.6182125074962
 30
0.0
 11
-165.0707076761157
 21
311.9182125074962
 31
0.0
  0
LINE
  5
7869
330
18
100
AcDbEntity
  8
0
100
AcDbLine
 10
-130.3707076761156
 20
253.9182125074963
 30
0.0
 11
-115.3707076761156
 21
253.9182125074963
 31
0.0
  0
LINE
  5
786C
330
18
100
AcDbEntity
  8
0
100
AcDbLine
 10
-128.9207076761156
 20
233.4182125074963
 30
0.0
 11
-128.9207076761156
 21
228.4182125074964
 31
0.0
  0
LINE
  5
786D
330
18
100
AcDbEntity
  8
0
100
AcDbLine
 10
-123.4207076761156
 20
233.4182125074963
 30
0.0
 11
-123.4207076761156
 21
228.4182125074964
 31
0.0
  0
ARC
  5
786E
330
18
100
AcDbEntity
  8
0
100
AcDbCircle
 10
-126.1707076761156
 20
233.4182125074964
 30
0.0
 40
2.75
100
AcDbArc
 50
0.0
 51
180.0
  0
LINE
  5
786F
330
18
100
AcDbEntity
  8
0
100
AcDbLine
 10
-123.4207076761157
 20
228.4182125074961
 30
0.0
 11
-111.1707076761156
 21
228.4182125074966
 31
0.0
  0
LINE
  5
7870
330
18
100
AcDbEntity
  8
0
100
AcDbLine
 10
172.3563198071535
 20
612.2893504274651
 30
0.0
 11
49.35631980715368
 21
612.2893504274649
 31
0.0
  0
LINE
  5
7871
330
18
100
AcDbEntity
  8
0
100
AcDbLine
 10
125.3563198071536
 20
551.8893504274648
 30
0.0
 11
120.3563198071536
 21
551.889350427465
 31
0.0
  0
LINE
  5
7872
330
18
100
AcDbEntity
  8
0
100
AcDbLine
 10
125.3563198071536
 20
601.8893504274646
 30
0.0
 11
120.3563198071536
 21
601.8893504274646
 31
0.0
  0
LINE
  5
7873
330
18
100
AcDbEntity
  8
0
100
AcDbLine
 10
49.35631980715368
 20
614.2893504274651
 30
0.0
 11
172.3563198071535
 21
614.2893504274651
 31
0.0
  0
LINE
  5
7879
330
18
100
AcDbEntity
  8
0
100
AcDbLine
 10
32.35631980715368
 20
522.8893504274648
 30
0.0
 11
239.1563198071536
 21
522.889350427465
 31
0.0
  0
LINE
  5
787A
330
18
100
AcDbEntity
  8
0
100
AcDbLine
 10
172.7563198071536
 20
674.2893504274649
 30
0.0
 11
48.75631980715354
 21
674.2893504274649
 31
0.0
  0
LINE
  5
787B
330
18
100
AcDbEntity
  8
0
100
AcDbLine
 10
239.1563198071535
 20
674.2893504274651
 30
0.0
 11
32.35631980715368
 21
674.2893504274649
 31
0.0
  0
LINE
  5
787C
330
18
100
AcDbEntity
  8
0
100
AcDbLine
 10
240.7563198071537
 20
675.889350427465
 30
0.0
 11
30.75631980715366
 21
675.889350427465
 31
0.0
  0
LINE
  5
787D
330
18
100
AcDbEntity
  8
0
100
AcDbLine
 10
49.35631980715368
 20
612.2893504274649
 30
0.0
 11
49.35631980715368
 21
674.2893504274651
 31
0.0
  0
LINE
  5
787E
330
18
100
AcDbEntity
  8
0
100
AcDbLine
 10
85.25631980715354
 20
620.2893504274651
 30
0.0
 11
85.25631980715354
 21
670.2893504274649
 31
0.0
  0
LINE
  5
787F
330
18
100
AcDbEntity
  8
0
100
AcDbLine
 10
88.25631980715355
 20
620.2893504274651
 30
0.0
 11
88.25631980715355
 21
670.2893504274649
 31
0.0
  0
LINE
  5
7880
330
18
100
AcDbEntity
  8
0
100
AcDbLine
 10
109.2563198071535
 20
620.2893504274651
 30
0.0
 11
109.2563198071535
 21
670.2893504274649
 31
0.0
  0
LINE
  5
7881
330
18
100
AcDbEntity
  8
0
100
AcDbLine
 10
112.2563198071535
 20
620.2893504274651
 30
0.0
 11
112.2563198071535
 21
670.2893504274649
 31
0.0
  0
LINE
  5
7882
330
18
100
AcDbEntity
  8
0
100
AcDbLine
 10
97.25631980715355
 20
620.2893504274651
 30
0.0
 11
97.25631980715355
 21
670.2893504274649
 31
0.0
  0
LINE
  5
7883
330
18
100
AcDbEntity
  8
0
100
AcDbLine
 10
100.2563198071535
 20
620.2893504274651
 30
0.0
 11
100.2563198071535
 21
670.2893504274649
 31
0.0
  0
LINE
  5
7884
330
18
100
AcDbEntity
  8
0
100
AcDbLine
 10
121.2563198071535
 20
620.2893504274651
 30
0.0
 11
121.2563198071536
 21
670.2893504274649
 31
0.0
  0
LINE
  5
7885
330
18
100
AcDbEntity
  8
0
100
AcDbLine
 10
73.25631980715354
 20
620.2893504274651
 30
0.0
 11
73.25631980715354
 21
670.2893504274649
 31
0.0
  0
LINE
  5
7886
330
18
100
AcDbEntity
  8
0
100
AcDbLine
 10
76.25631980715354
 20
620.2893504274651
 30
0.0
 11
76.25631980715354
 21
670.2893504274649
 31
0.0
  0
LINE
  5
7887
330
18
100
AcDbEntity
  8
0
100
AcDbLine
 10
52.25631980715355
 20
620.2893504274651
 30
0.0
 11
52.25631980715355
 21
670.2893504274649
 31
0.0
  0
LINE
  5
7888
330
18
100
AcDbEntity
  8
0
100
AcDbLine
 10
61.25631980715354
 20
620.2893504274651
 30
0.0
 11
61.25631980715354
 21
670.2893504274649
 31
0.0
  0
LINE
  5
7889
330
18
100
AcDbEntity
  8
0
100
AcDbLine
 10
64.25631980715355
 20
620.2893504274651
 30
0.0
 11
64.25631980715355
 21
670.2893504274649
 31
0.0
  0
LINE
  5
788A
330
18
100
AcDbEntity
  8
0
100
AcDbLine
 10
32.35631980715368
 20
522.8893504274648
 30
0.0
 11
32.35631980715368
 21
674.2893504274649
 31
0.0
  0
LINE
  5
788D
330
18
100
AcDbEntity
  8
0
100
AcDbLine
 10
32.35631980715368
 20
674.2893504274649
 30
0.0
 11
32.35631980715368
 21
545.889350427465
 31
0.0
  0
LINE
  5
788E
330
18
100
AcDbEntity
  8
0
100
AcDbLine
 10
30.75631980715366
 20
675.889350427465
 30
0.0
 11
30.75631980715366
 21
545.889350427465
 31
0.0
  0
LINE
  5
788F
330
18
100
AcDbEntity
  8
0
100
AcDbLine
 10
52.25631980715355
 20
670.2893504274649
 30
0.0
 11
61.25631980715354
 21
670.2893504274649
 31
0.0
  0
LINE
  5
7890
330
18
100
AcDbEntity
  8
0
100
AcDbLine
 10
49.35631980715368
 20
674.2893504274651
 30
0.0
 11
32.35631980715368
 21
674.2893504274649
 31
0.0
  0
LINE
  5
7894
330
18
100
AcDbEntity
  8
0
100
AcDbLine
 10
88.25631980715355
 20
670.2893504274649
 30
0.0
 11
97.25631980715355
 21
670.2893504274649
 31
0.0
  0
LINE
  5
7895
330
18
100
AcDbEntity
  8
0
100
AcDbLine
 10
64.25631980715355
 20
670.2893504274649
 30
0.0
 11
73.25631980715354
 21
670.2893504274649
 31
0.0
  0
LINE
  5
7896
330
18
100
AcDbEntity
  8
0
100
AcDbLine
 10
76.25631980715354
 20
670.2893504274649
 30
0.0
 11
85.25631980715354
 21
670.2893504274649
 31
0.0
  0
LINE
  5
7897
330
18
100
AcDbEntity
  8
0
100
AcDbLine
 10
112.2563198071535
 20
670.2893504274649
 30
0.0
 11
121.2563198071536
 21
670.2893504274649
 31
0.0
  0
LINE
  5
7898
330
18
100
AcDbEntity
  8
0
100
AcDbLine
 10
100.2563198071535
 20
670.2893504274649
 30
0.0
 11
109.2563198071535
 21
670.2893504274649
 31
0.0
  0
LINE
  5
7899
330
18
100
AcDbEntity
  8
0
100
AcDbLine
 10
52.25631980715355
 20
620.2893504274651
 30
0.0
 11
61.25631980715354
 21
620.2893504274651
 31
0.0
  0
LINE
  5
789A
330
18
100
AcDbEntity
  8
0
100
AcDbLine
 10
55.35631980715368
 20
601.8893504274646
 30
0.0
 11
55.35631980715368
 21
551.8893504274648
 31
0.0
  0
LINE
  5
789B
330
18
100
AcDbEntity
  8
0
100
AcDbLine
 10
50.35631980715368
 20
601.8893504274646
 30
0.0
 11
50.35631980715368
 21
551.889350427465
 31
0.0
  0
LINE
  5
78AB
330
18
100
AcDbEntity
  8
0
100
AcDbLine
 10
55.35631980715368
 20
601.8893504274646
 30
0.0
 11
50.35631980715368
 21
601.8893504274646
 31
0.0
  0
LINE
  5
78BB
330
18
100
AcDbEntity
  8
0
100
AcDbLine
 10
55.35631980715368
 20
551.8893504274648
 30
0.0
 11
50.35631980715368
 21
551.889350427465
 31
0.0
  0
LINE
  5
78BD
330
18
100
AcDbEntity
  8
0
100
AcDbLine
 10
32.35631980715368
 20
545.8893504274648
 30
0.0
 11
30.75631980715366
 21
545.889350427465
 31
0.0
  0
LINE
  5
78BE
330
18
100
AcDbEntity
  8
0
100
AcDbLine
 10
80.35631980715368
 20
601.8893504274646
 30
0.0
 11
80.35631980715368
 21
551.889350427465
 31
0.0
  0
LINE
  5
78BF
330
18
100
AcDbEntity
  8
0
100
AcDbLine
 10
85.35631980715368
 20
601.8893504274646
 30
0.0
 11
85.35631980715368
 21
551.8893504274648
 31
0.0
  0
LINE
  5
78C0
330
18
100
AcDbEntity
  8
0
100
AcDbLine
 10
65.35631980715368
 20
601.8893504274646
 30
0.0
 11
65.35631980715368
 21
551.8893504274648
 31
0.0
  0
LINE
  5
78C1
330
18
100
AcDbEntity
  8
0
100
AcDbLine
 10
60.35631980715368
 20
601.8893504274646
 30
0.0
 11
60.35631980715368
 21
551.889350427465
 31
0.0
  0
LINE
  5
78C2
330
18
100
AcDbEntity
  8
0
100
AcDbLine
 10
70.35631980715368
 20
601.8893504274646
 30
0.0
 11
70.35631980715368
 21
551.889350427465
 31
0.0
  0
LINE
  5
78C3
330
18
100
AcDbEntity
  8
0
100
AcDbLine
 10
75.35631980715368
 20
601.8893504274646
 30
0.0
 11
75.35631980715368
 21
551.8893504274648
 31
0.0
  0
LINE
  5
78C4
330
18
100
AcDbEntity
  8
0
100
AcDbLine
 10
105.3563198071536
 20
601.8893504274646
 30
0.0
 11
105.3563198071536
 21
551.8893504274648
 31
0.0
  0
LINE
  5
78C5
330
18
100
AcDbEntity
  8
0
100
AcDbLine
 10
100.3563198071536
 20
601.8893504274646
 30
0.0
 11
100.3563198071536
 21
551.889350427465
 31
0.0
  0
LINE
  5
78C6
330
18
100
AcDbEntity
  8
0
100
AcDbLine
 10
90.35631980715368
 20
601.8893504274646
 30
0.0
 11
90.35631980715368
 21
551.889350427465
 31
0.0
  0
LINE
  5
78C7
330
18
100
AcDbEntity
  8
0
100
AcDbLine
 10
95.35631980715368
 20
601.8893504274646
 30
0.0
 11
95.35631980715368
 21
551.8893504274648
 31
0.0
  0
LINE
  5
78C8
330
18
100
AcDbEntity
  8
0
100
AcDbLine
 10
115.3563198071536
 20
601.8893504274646
 30
0.0
 11
115.3563198071536
 21
551.8893504274648
 31
0.0
  0
LINE
  5
78C9
330
18
100
AcDbEntity
  8
0
100
AcDbLine
 10
110.3563198071536
 20
601.8893504274646
 30
0.0
 11
110.3563198071536
 21
551.889350427465
 31
0.0
  0
LINE
  5
78CA
330
18
100
AcDbEntity
  8
0
100
AcDbLine
 10
120.3563198071536
 20
601.8893504274646
 30
0.0
 11
120.3563198071536
 21
551.889350427465
 31
0.0
  0
LINE
  5
78CB
330
18
100
AcDbEntity
  8
0
100
AcDbLine
 10
88.25631980715355
 20
620.2893504274651
 30
0.0
 11
97.25631980715355
 21
620.2893504274651
 31
0.0
  0
LINE
  5
78CC
330
18
100
AcDbEntity
  8
0
100
AcDbLine
 10
64.25631980715355
 20
620.2893504274651
 30
0.0
 11
73.25631980715354
 21
620.2893504274651
 31
0.0
  0
LINE
  5
78CD
330
18
100
AcDbEntity
  8
0
100
AcDbLine
 10
76.25631980715354
 20
620.2893504274651
 30
0.0
 11
85.25631980715354
 21
620.2893504274651
 31
0.0
  0
LINE
  5
78CE
330
18
100
AcDbEntity
  8
0
100
AcDbLine
 10
85.35631980715368
 20
601.8893504274646
 30
0.0
 11
80.35631980715368
 21
601.8893504274646
 31
0.0
  0
LINE
  5
78CF
330
18
100
AcDbEntity
  8
0
100
AcDbLine
 10
65.35631980715368
 20
601.8893504274646
 30
0.0
 11
60.35631980715368
 21
601.8893504274646
 31
0.0
  0
LINE
  5
78D0
330
18
100
AcDbEntity
  8
0
100
AcDbLine
 10
75.35631980715368
 20
601.8893504274646
 30
0.0
 11
70.35631980715368
 21
601.8893504274646
 31
0.0
  0
LINE
  5
78D1
330
18
100
AcDbEntity
  8
0
100
AcDbLine
 10
112.2563198071535
 20
620.2893504274651
 30
0.0
 11
121.2563198071535
 21
620.2893504274651
 31
0.0
  0
LINE
  5
78D2
330
18
100
AcDbEntity
  8
0
100
AcDbLine
 10
100.2563198071535
 20
620.2893504274651
 30
0.0
 11
109.2563198071535
 21
620.2893504274651
 31
0.0
  0
LINE
  5
78D3
330
18
100
AcDbEntity
  8
0
100
AcDbLine
 10
105.3563198071536
 20
601.8893504274646
 30
0.0
 11
100.3563198071536
 21
601.8893504274646
 31
0.0
  0
LINE
  5
78D4
330
18
100
AcDbEntity
  8
0
100
AcDbLine
 10
95.35631980715368
 20
601.8893504274646
 30
0.0
 11
90.35631980715368
 21
601.8893504274646
 31
0.0
  0
LINE
  5
78D5
330
18
100
AcDbEntity
  8
0
100
AcDbLine
 10
115.3563198071536
 20
601.8893504274646
 30
0.0
 11
110.3563198071536
 21
601.8893504274646
 31
0.0
  0
LINE
  5
78D9
330
18
100
AcDbEntity
  8
0
100
AcDbLine
 10
85.35631980715368
 20
551.8893504274648
 30
0.0
 11
80.35631980715368
 21
551.889350427465
 31
0.0
  0
LINE
  5
78DA
330
18
100
AcDbEntity
  8
0
100
AcDbLine
 10
65.35631980715368
 20
551.8893504274648
 30
0.0
 11
60.35631980715368
 21
551.889350427465
 31
0.0
  0
LINE
  5
78DB
330
18
100
AcDbEntity
  8
0
100
AcDbLine
 10
75.35631980715368
 20
551.8893504274648
 30
0.0
 11
70.35631980715368
 21
551.889350427465
 31
0.0
  0
LINE
  5
78DD
330
18
100
AcDbEntity
  8
0
100
AcDbLine
 10
105.3563198071536
 20
551.8893504274648
 30
0.0
 11
100.3563198071536
 21
551.889350427465
 31
0.0
  0
LINE
  5
78DE
330
18
100
AcDbEntity
  8
0
100
AcDbLine
 10
95.35631980715368
 20
551.8893504274648
 30
0.0
 11
90.35631980715368
 21
551.889350427465
 31
0.0
  0
LINE
  5
78DF
330
18
100
AcDbEntity
  8
0
100
AcDbLine
 10
115.3563198071536
 20
551.8893504274648
 30
0.0
 11
110.3563198071536
 21
551.889350427465
 31
0.0
  0
LINE
  5
78E0
330
18
100
AcDbEntity
  8
0
100
AcDbLine
 10
172.3563198071535
 20
612.2893504274651
 30
0.0
 11
172.3563198071536
 21
674.2893504274651
 31
0.0
  0
LINE
  5
78E1
330
18
100
AcDbEntity
  8
0
100
AcDbLine
 10
220.3563198071538
 20
666.889350427465
 30
0.0
 11
220.3563198071538
 21
616.8893504274655
 31
0.0
  0
LINE
  5
78E2
330
18
100
AcDbEntity
  8
0
100
AcDbLine
 10
225.3563198071538
 20
666.889350427465
 30
0.0
 11
225.3563198071536
 21
616.8893504274652
 31
0.0
  0
LINE
  5
78E3
330
18
100
AcDbEntity
  8
0
100
AcDbLine
 10
215.3563198071538
 20
666.889350427465
 30
0.0
 11
215.3563198071537
 21
616.8893504274652
 31
0.0
  0
LINE
  5
78E4
330
18
100
AcDbEntity
  8
0
100
AcDbLine
 10
210.3563198071538
 20
666.889350427465
 30
0.0
 11
210.3563198071538
 21
616.8893504274655
 31
0.0
  0
LINE
  5
78E5
330
18
100
AcDbEntity
  8
0
100
AcDbLine
 10
200.3563198071538
 20
666.889350427465
 30
0.0
 11
200.3563198071538
 21
616.8893504274655
 31
0.0
  0
LINE
  5
78E6
330
18
100
AcDbEntity
  8
0
100
AcDbLine
 10
205.3563198071538
 20
666.889350427465
 30
0.0
 11
205.3563198071536
 21
616.8893504274652
 31
0.0
  0
LINE
  5
78E7
330
18
100
AcDbEntity
  8
0
100
AcDbLine
 10
195.3563198071538
 20
666.889350427465
 30
0.0
 11
195.3563198071536
 21
616.8893504274652
 31
0.0
  0
LINE
  5
78E8
330
18
100
AcDbEntity
  8
0
100
AcDbLine
 10
190.3563198071538
 20
666.889350427465
 30
0.0
 11
190.3563198071537
 21
616.8893504274655
 31
0.0
  0
LINE
  5
78E9
330
18
100
AcDbEntity
  8
0
100
AcDbLine
 10
180.3563198071538
 20
666.8893504274648
 30
0.0
 11
180.3563198071538
 21
616.8893504274652
 31
0.0
  0
LINE
  5
78EA
330
18
100
AcDbEntity
  8
0
100
AcDbLine
 10
185.3563198071538
 20
666.8893504274648
 30
0.0
 11
185.3563198071536
 21
616.889350427465
 31
0.0
  0
LINE
  5
78EB
330
18
100
AcDbEntity
  8
0
100
AcDbLine
 10
133.2563198071535
 20
620.2893504274651
 30
0.0
 11
133.2563198071536
 21
670.2893504274649
 31
0.0
  0
LINE
  5
78EC
330
18
100
AcDbEntity
  8
0
100
AcDbLine
 10
136.2563198071535
 20
620.2893504274651
 30
0.0
 11
136.2563198071536
 21
670.2893504274649
 31
0.0
  0
LINE
  5
78ED
330
18
100
AcDbEntity
  8
0
100
AcDbLine
 10
157.2563198071535
 20
620.2893504274651
 30
0.0
 11
157.2563198071535
 21
670.2893504274649
 31
0.0
  0
LINE
  5
78EE
330
18
100
AcDbEntity
  8
0
100
AcDbLine
 10
160.2563198071535
 20
620.2893504274651
 30
0.0
 11
160.2563198071536
 21
670.2893504274649
 31
0.0
  0
LINE
  5
78EF
330
18
100
AcDbEntity
  8
0
100
AcDbLine
 10
169.2563198071535
 20
620.2893504274651
 30
0.0
 11
169.2563198071536
 21
670.2893504274649
 31
0.0
  0
LINE
  5
78F0
330
18
100
AcDbEntity
  8
0
100
AcDbLine
 10
145.2563198071535
 20
620.2893504274651
 30
0.0
 11
145.2563198071536
 21
670.2893504274649
 31
0.0
  0
LINE
  5
78F1
330
18
100
AcDbEntity
  8
0
100
AcDbLine
 10
148.2563198071535
 20
620.2893504274651
 30
0.0
 11
148.2563198071536
 21
670.2893504274649
 31
0.0
  0
LINE
  5
78F2
330
18
100
AcDbEntity
  8
0
100
AcDbLine
 10
124.2563198071535
 20
620.2893504274651
 30
0.0
 11
124.2563198071536
 21
670.2893504274649
 31
0.0
  0
LINE
  5
78F3
330
18
100
AcDbEntity
  8
0
100
AcDbLine
 10
239.1563198071536
 20
522.889350427465
 30
0.0
 11
239.1563198071537
 21
674.2893504274649
 31
0.0
  0
LINE
  5
78F5
330
18
100
AcDbEntity
  8
0
100
AcDbLine
 10
239.1563198071535
 20
674.2893504274651
 30
0.0
 11
239.1563198071536
 21
545.889350427465
 31
0.0
  0
LINE
  5
78F6
330
18
100
AcDbEntity
  8
0
100
AcDbLine
 10
240.7563198071537
 20
675.889350427465
 30
0.0
 11
240.7563198071536
 21
545.889350427465
 31
0.0
  0
LINE
  5
78F8
330
18
100
AcDbEntity
  8
0
100
AcDbLine
 10
239.1563198071537
 20
674.2893504274649
 30
0.0
 11
172.3563198071536
 21
674.2893504274651
 31
0.0
  0
LINE
  5
78FA
330
18
100
AcDbEntity
  8
0
100
AcDbLine
 10
148.2563198071536
 20
670.2893504274649
 30
0.0
 11
157.2563198071535
 21
670.2893504274649
 31
0.0
  0
LINE
  5
78FB
330
18
100
AcDbEntity
  8
0
100
AcDbLine
 10
136.2563198071536
 20
670.2893504274649
 30
0.0
 11
145.2563198071536
 21
670.2893504274649
 31
0.0
  0
LINE
  5
78FC
330
18
100
AcDbEntity
  8
0
100
AcDbLine
 10
124.2563198071536
 20
670.2893504274649
 30
0.0
 11
133.2563198071536
 21
670.2893504274649
 31
0.0
  0
LINE
  5
78FD
330
18
100
AcDbEntity
  8
0
100
AcDbLine
 10
185.3563198071538
 20
666.8893504274648
 30
0.0
 11
180.3563198071537
 21
666.8893504274648
 31
0.0
  0
LINE
  5
78FE
330
18
100
AcDbEntity
  8
0
100
AcDbLine
 10
160.2563198071536
 20
670.2893504274649
 30
0.0
 11
169.2563198071536
 21
670.2893504274649
 31
0.0
  0
LINE
  5
7900
330
18
100
AcDbEntity
  8
0
100
AcDbLine
 10
215.3563198071538
 20
666.889350427465
 30
0.0
 11
210.3563198071537
 21
666.889350427465
 31
0.0
  0
LINE
  5
7901
330
18
100
AcDbEntity
  8
0
100
AcDbLine
 10
205.3563198071538
 20
666.889350427465
 30
0.0
 11
200.3563198071537
 21
666.889350427465
 31
0.0
  0
LINE
  5
7902
330
18
100
AcDbEntity
  8
0
100
AcDbLine
 10
195.3563198071538
 20
666.889350427465
 30
0.0
 11
190.3563198071537
 21
666.889350427465
 31
0.0
  0
LINE
  5
7903
330
18
100
AcDbEntity
  8
0
100
AcDbLine
 10
225.3563198071538
 20
666.889350427465
 30
0.0
 11
220.3563198071537
 21
666.889350427465
 31
0.0
  0
LINE
  5
7904
330
18
100
AcDbEntity
  8
0
100
AcDbLine
 10
175.3563198071538
 20
601.8893504274648
 30
0.0
 11
175.3563198071536
 21
551.889350427465
 31
0.0
  0
LINE
  5
7905
330
18
100
AcDbEntity
  8
0
100
AcDbLine
 10
170.3563198071537
 20
601.8893504274648
 30
0.0
 11
170.3563198071537
 21
551.8893504274652
 31
0.0
  0
LINE
  5
7906
330
18
100
AcDbEntity
  8
0
100
AcDbLine
 10
180.3563198071538
 20
601.8893504274648
 30
0.0
 11
180.3563198071538
 21
551.8893504274652
 31
0.0
  0
LINE
  5
7907
330
18
100
AcDbEntity
  8
0
100
AcDbLine
 10
185.3563198071537
 20
601.8893504274648
 30
0.0
 11
185.3563198071536
 21
551.889350427465
 31
0.0
  0
LINE
  5
7908
330
18
100
AcDbEntity
  8
0
100
AcDbLine
 10
160.3563198071536
 20
601.8893504274648
 30
0.0
 11
160.3563198071536
 21
551.8893504274652
 31
0.0
  0
LINE
  5
7909
330
18
100
AcDbEntity
  8
0
100
AcDbLine
 10
165.3563198071536
 20
601.8893504274648
 30
0.0
 11
165.3563198071536
 21
551.889350427465
 31
0.0
  0
LINE
  5
790A
330
18
100
AcDbEntity
  8
0
100
AcDbLine
 10
155.3563198071536
 20
601.8893504274648
 30
0.0
 11
155.3563198071536
 21
551.889350427465
 31
0.0
  0
LINE
  5
790B
330
18
100
AcDbEntity
  8
0
100
AcDbLine
 10
150.3563198071536
 20
601.8893504274648
 30
0.0
 11
150.3563198071536
 21
551.8893504274652
 31
0.0
  0
LINE
  5
790C
330
18
100
AcDbEntity
  8
0
100
AcDbLine
 10
140.3563198071536
 20
601.8893504274648
 30
0.0
 11
140.3563198071536
 21
551.8893504274652
 31
0.0
  0
LINE
  5
790D
330
18
100
AcDbEntity
  8
0
100
AcDbLine
 10
145.3563198071536
 20
601.8893504274648
 30
0.0
 11
145.3563198071536
 21
551.889350427465
 31
0.0
  0
LINE
  5
790E
330
18
100
AcDbEntity
  8
0
100
AcDbLine
 10
125.3563198071536
 20
601.8893504274646
 30
0.0
 11
125.3563198071536
 21
551.8893504274648
 31
0.0
  0
LINE
  5
790F
330
18
100
AcDbEntity
  8
0
100
AcDbLine
 10
135.3563198071536
 20
601.8893504274646
 30
0.0
 11
135.3563198071536
 21
551.8893504274648
 31
0.0
  0
LINE
  5
7910
330
18
100
AcDbEntity
  8
0
100
AcDbLine
 10
130.3563198071536
 20
601.8893504274646
 30
0.0
 11
130.3563198071536
 21
551.889350427465
 31
0.0
  0
LINE
  5
7911
330
18
100
AcDbEntity
  8
0
100
AcDbLine
 10
155.3563198071536
 20
601.8893504274648
 30
0.0
 11
150.3563198071536
 21
601.8893504274648
 31
0.0
  0
LINE
  5
7912
330
18
100
AcDbEntity
  8
0
100
AcDbLine
 10
148.2563198071535
 20
620.2893504274651
 30
0.0
 11
157.2563198071535
 21
620.2893504274651
 31
0.0
  0
LINE
  5
7913
330
18
100
AcDbEntity
  8
0
100
AcDbLine
 10
136.2563198071535
 20
620.2893504274651
 30
0.0
 11
145.2563198071535
 21
620.2893504274651
 31
0.0
  0
LINE
  5
7914
330
18
100
AcDbEntity
  8
0
100
AcDbLine
 10
124.2563198071535
 20
620.2893504274651
 30
0.0
 11
133.2563198071535
 21
620.2893504274651
 31
0.0
  0
LINE
  5
7915
330
18
100
AcDbEntity
  8
0
100
AcDbLine
 10
145.3563198071536
 20
601.8893504274648
 30
0.0
 11
140.3563198071536
 21
601.8893504274648
 31
0.0
  0
LINE
  5
7916
330
18
100
AcDbEntity
  8
0
100
AcDbLine
 10
135.3563198071536
 20
601.8893504274646
 30
0.0
 11
130.3563198071536
 21
601.8893504274646
 31
0.0
  0
LINE
  5
7917
330
18
100
AcDbEntity
  8
0
100
AcDbLine
 10
185.3563198071536
 20
616.889350427465
 30
0.0
 11
180.3563198071538
 21
616.8893504274652
 31
0.0
  0
LINE
  5
7918
330
18
100
AcDbEntity
  8
0
100
AcDbLine
 10
160.2563198071535
 20
620.2893504274651
 30
0.0
 11
169.2563198071535
 21
620.2893504274651
 31
0.0
  0
LINE
  5
7919
330
18
100
AcDbEntity
  8
0
100
AcDbLine
 10
175.3563198071538
 20
601.8893504274648
 30
0.0
 11
170.3563198071536
 21
601.8893504274648
 31
0.0
  0
LINE
  5
791A
330
18
100
AcDbEntity
  8
0
100
AcDbLine
 10
185.3563198071537
 20
601.8893504274648
 30
0.0
 11
180.3563198071536
 21
601.8893504274648
 31
0.0
  0
LINE
  5
791B
330
18
100
AcDbEntity
  8
0
100
AcDbLine
 10
165.3563198071536
 20
601.8893504274648
 30
0.0
 11
160.3563198071536
 21
601.8893504274648
 31
0.0
  0
LINE
  5
791D
330
18
100
AcDbEntity
  8
0
100
AcDbLine
 10
155.3563198071536
 20
551.889350427465
 30
0.0
 11
150.3563198071536
 21
551.8893504274652
 31
0.0
  0
LINE
  5
791E
330
18
100
AcDbEntity
  8
0
100
AcDbLine
 10
145.3563198071536
 20
551.889350427465
 30
0.0
 11
140.3563198071536
 21
551.8893504274652
 31
0.0
  0
LINE
  5
791F
330
18
100
AcDbEntity
  8
0
100
AcDbLine
 10
135.3563198071536
 20
551.8893504274648
 30
0.0
 11
130.3563198071536
 21
551.889350427465
 31
0.0
  0
LINE
  5
7920
330
18
100
AcDbEntity
  8
0
100
AcDbLine
 10
175.3563198071536
 20
551.889350427465
 30
0.0
 11
170.3563198071537
 21
551.8893504274652
 31
0.0
  0
LINE
  5
7921
330
18
100
AcDbEntity
  8
0
100
AcDbLine
 10
185.3563198071536
 20
551.889350427465
 30
0.0
 11
180.3563198071538
 21
551.8893504274652
 31
0.0
  0
LINE
  5
7922
330
18
100
AcDbEntity
  8
0
100
AcDbLine
 10
165.3563198071536
 20
551.889350427465
 30
0.0
 11
160.3563198071536
 21
551.8893504274652
 31
0.0
  0
LINE
  5
7924
330
18
100
AcDbEntity
  8
0
100
AcDbLine
 10
220.3563198071538
 20
601.8893504274648
 30
0.0
 11
220.3563198071538
 21
551.8893504274652
 31
0.0
  0
LINE
  5
7925
330
18
100
AcDbEntity
  8
0
100
AcDbLine
 10
225.3563198071538
 20
601.8893504274648
 30
0.0
 11
225.3563198071536
 21
551.889350427465
 31
0.0
  0
LINE
  5
7926
330
18
100
AcDbEntity
  8
0
100
AcDbLine
 10
215.3563198071537
 20
601.8893504274648
 30
0.0
 11
215.3563198071537
 21
551.889350427465
 31
0.0
  0
LINE
  5
7927
330
18
100
AcDbEntity
  8
0
100
AcDbLine
 10
210.3563198071538
 20
601.8893504274648
 30
0.0
 11
210.3563198071538
 21
551.8893504274652
 31
0.0
  0
LINE
  5
7928
330
18
100
AcDbEntity
  8
0
100
AcDbLine
 10
200.3563198071538
 20
601.8893504274648
 30
0.0
 11
200.3563198071538
 21
551.8893504274652
 31
0.0
  0
LINE
  5
7929
330
18
100
AcDbEntity
  8
0
100
AcDbLine
 10
205.3563198071537
 20
601.8893504274648
 30
0.0
 11
205.3563198071536
 21
551.889350427465
 31
0.0
  0
LINE
  5
792A
330
18
100
AcDbEntity
  8
0
100
AcDbLine
 10
195.3563198071537
 20
601.8893504274648
 30
0.0
 11
195.3563198071536
 21
551.889350427465
 31
0.0
  0
LINE
  5
792B
330
18
100
AcDbEntity
  8
0
100
AcDbLine
 10
190.3563198071537
 20
601.8893504274648
 30
0.0
 11
190.3563198071537
 21
551.8893504274652
 31
0.0
  0
LINE
  5
792C
330
18
100
AcDbEntity
  8
0
100
AcDbLine
 10
215.3563198071537
 20
616.8893504274652
 30
0.0
 11
210.3563198071538
 21
616.8893504274655
 31
0.0
  0
LINE
  5
792D
330
18
100
AcDbEntity
  8
0
100
AcDbLine
 10
205.3563198071536
 20
616.8893504274652
 30
0.0
 11
200.3563198071538
 21
616.8893504274655
 31
0.0
  0
LINE
  5
792E
330
18
100
AcDbEntity
  8
0
100
AcDbLine
 10
195.3563198071536
 20
616.8893504274652
 30
0.0
 11
190.3563198071537
 21
616.8893504274655
 31
0.0
  0
LINE
  5
792F
330
18
100
AcDbEntity
  8
0
100
AcDbLine
 10
215.3563198071537
 20
601.8893504274648
 30
0.0
 11
210.3563198071536
 21
601.8893504274648
 31
0.0
  0
LINE
  5
7930
330
18
100
AcDbEntity
  8
0
100
AcDbLine
 10
205.3563198071537
 20
601.8893504274648
 30
0.0
 11
200.3563198071536
 21
601.8893504274648
 31
0.0
  0
LINE
  5
7931
330
18
100
AcDbEntity
  8
0
100
AcDbLine
 10
195.3563198071537
 20
601.8893504274648
 30
0.0
 11
190.3563198071536
 21
601.8893504274648
 31
0.0
  0
LINE
  5
7932
330
18
100
AcDbEntity
  8
0
100
AcDbLine
 10
225.3563198071536
 20
616.8893504274652
 30
0.0
 11
220.3563198071538
 21
616.8893504274655
 31
0.0
  0
LINE
  5
7933
330
18
100
AcDbEntity
  8
0
100
AcDbLine
 10
225.3563198071538
 20
601.8893504274648
 30
0.0
 11
220.3563198071536
 21
601.8893504274648
 31
0.0
  0
LINE
  5
7934
330
18
100
AcDbEntity
  8
0
100
AcDbLine
 10
215.3563198071537
 20
551.889350427465
 30
0.0
 11
210.3563198071538
 21
551.8893504274652
 31
0.0
  0
LINE
  5
7935
330
18
100
AcDbEntity
  8
0
100
AcDbLine
 10
205.3563198071536
 20
551.889350427465
 30
0.0
 11
200.3563198071538
 21
551.8893504274652
 31
0.0
  0
LINE
  5
7936
330
18
100
AcDbEntity
  8
0
100
AcDbLine
 10
195.3563198071536
 20
551.889350427465
 30
0.0
 11
190.3563198071537
 21
551.8893504274652
 31
0.0
  0
LINE
  5
7937
330
18
100
AcDbEntity
  8
0
100
AcDbLine
 10
225.3563198071536
 20
551.889350427465
 30
0.0
 11
220.3563198071538
 21
551.8893504274652
 31
0.0
  0
LINE
  5
7938
330
18
100
AcDbEntity
  8
0
100
AcDbLine
 10
240.7563198071536
 20
545.889350427465
 30
0.0
 11
239.1563198071535
 21
545.8893504274652
 31
0.0
  0
LINE
  5
7987
330
18
100
AcDbEntity
  8
0
100
AcDbLine
 10
239.1563198071534
 20
243.4182125074964
 30
0.0
 11
239.1563198071533
 21
478.4182125074965
 31
0.0
  0
LINE
  5
7989
330
18
100
AcDbEntity
  8
0
100
AcDbLine
 10
239.1563198071533
 20
493.4182125074973
 30
0.0
 11
239.1563198071537
 21
228.4182125074963
 31
0.0
  0
LINE
  5
798A
330
18
100
AcDbEntity
  8
0
100
AcDbLine
 10
240.7563198071534
 20
493.4182125074973
 30
0.0
 11
240.7563198071536
 21
228.4182125074963
 31
0.0
  0
LINE
  5
7994
330
18
100
AcDbEntity
  8
0
100
AcDbLine
 10
9.256319807154341
 20
311.9182125074956
 30
0.0
 11
9.256319807154341
 21
313.9182125074959
 31
0.0
  0
LINE
  5
7996
330
18
100
AcDbEntity
  8
0
100
AcDbLine
 10
30.75631980715479
 20
311.6182125074957
 30
0.0
 11
30.75631980715423
 21
402.2182125074956
 31
0.0
  0
LINE
  5
7997
330
18
100
AcDbEntity
  8
0
100
AcDbLine
 10
32.35631980715368
 20
243.4182125074961
 30
0.0
 11
32.35631980715368
 21
478.4182125074965
 31
0.0
  0
LINE
  5
7999
330
18
100
AcDbEntity
  8
0
100
AcDbLine
 10
30.75631980715343
 20
477.4182125074966
 30
0.0
 11
30.75631980715366
 21
244.4182125074964
 31
0.0
  0
LINE
  5
799D
330
18
100
AcDbEntity
  8
0
100
AcDbLine
 10
239.1563198071533
 20
478.4182125074965
 30
0.0
 11
32.35631980715368
 21
478.4182125074965
 31
0.0
  0
LINE
  5
799F
330
18
100
AcDbEntity
  8
0
100
AcDbLine
 10
32.35631980715368
 20
477.4182125074964
 30
0.0
 11
30.75631980715366
 21
477.4182125074964
 31
0.0
  0
LINE
  5
79D6
330
18
100
AcDbEntity
  8
0
100
AcDbLine
 10
21.25631980715457
 20
357.9182125074959
 30
0.0
 11
21.25631980715434
 21
366.9182125074959
 31
0.0
  0
LINE
  5
79D7
330
18
100
AcDbEntity
  8
0
100
AcDbLine
 10
20.25631980715411
 20
358.4182125074959
 30
0.0
 11
20.25631980715411
 21
366.4182125074959
 31
0.0
  0
LINE
  5
79D8
330
18
100
AcDbEntity
  8
0
100
AcDbLine
 10
17.25631980715411
 20
360.4182125074961
 30
0.0
 11
17.25631980715411
 21
364.4182125074959
 31
0.0
  0
LINE
  5
79D9
330
18
100
AcDbEntity
  8
0
100
AcDbLine
 10
9.256319807154341
 20
366.9182125074961
 30
0.0
 11
30.75631980715434
 21
366.9182125074959
 31
0.0
  0
LINE
  5
79DA
330
18
100
AcDbEntity
  8
0
100
AcDbLine
 10
9.256319807154341
 20
366.9182125074961
 30
0.0
 11
30.75631980715434
 21
366.9182125074959
 31
0.0
  0
LINE
  5
79DB
330
18
100
AcDbEntity
  8
0
100
AcDbLine
 10
9.256319807154341
 20
377.9182125074961
 30
0.0
 11
30.75631980715434
 21
377.9182125074959
 31
0.0
  0
LINE
  5
79DC
330
18
100
AcDbEntity
  8
0
100
AcDbLine
 10
9.256319807154341
 20
379.9182125074963
 30
0.0
 11
30.75631980715434
 21
379.9182125074961
 31
0.0
  0
LINE
  5
79DD
330
18
100
AcDbEntity
  8
0
100
AcDbLine
 10
9.256319807154341
 20
388.9182125074961
 30
0.0
 11
30.75631980715434
 21
388.9182125074959
 31
0.0
  0
LINE
  5
79DE
330
18
100
AcDbEntity
  8
0
100
AcDbLine
 10
9.256319807154341
 20
368.9182125074963
 30
0.0
 11
30.75631980715434
 21
368.9182125074961
 31
0.0
  0
LINE
  5
79DF
330
18
100
AcDbEntity
  8
0
100
AcDbLine
 10
9.256319807154341
 20
368.9182125074963
 30
0.0
 11
30.75631980715434
 21
368.9182125074961
 31
0.0
  0
LINE
  5
79E0
330
18
100
AcDbEntity
  8
0
100
AcDbLine
 10
21.25631980715411
 20
402.2182125074956
 30
0.0
 11
30.75631980715423
 21
402.2182125074956
 31
0.0
  0
LINE
  5
79E1
330
18
100
AcDbEntity
  8
0
100
AcDbLine
 10
9.256319807154341
 20
399.9182125074961
 30
0.0
 11
30.75631980715434
 21
399.9182125074959
 31
0.0
  0
LINE
  5
79E2
330
18
100
AcDbEntity
  8
0
100
AcDbLine
 10
9.256319807154341
 20
401.9182125074963
 30
0.0
 11
30.75631980715434
 21
401.9182125074961
 31
0.0
  0
LINE
  5
79E3
330
18
100
AcDbEntity
  8
0
100
AcDbLine
 10
9.256319807154341
 20
390.9182125074963
 30
0.0
 11
30.75631980715434
 21
390.9182125074961
 31
0.0
  0
LINE
  5
79E4
330
18
100
AcDbEntity
  8
0
100
AcDbLine
 10
21.25631980715434
 20
379.9182125074961
 30
0.0
 11
21.25631980715434
 21
388.9182125074956
 31
0.0
  0
LINE
  5
79E5
330
18
100
AcDbEntity
  8
0
100
AcDbLine
 10
17.25631980715411
 20
382.4182125074961
 30
0.0
 11
17.25631980715411
 21
386.4182125074959
 31
0.0
  0
LINE
  5
79E6
330
18
100
AcDbEntity
  8
0
100
AcDbLine
 10
20.25631980715411
 20
380.4182125074959
 30
0.0
 11
20.25631980715411
 21
388.4182125074959
 31
0.0
  0
LINE
  5
79E7
330
18
100
AcDbEntity
  8
0
100
AcDbLine
 10
20.25631980715434
 20
388.4182125074959
 30
0.0
 11
21.25631980715411
 21
388.4182125074959
 31
0.0
  0
ARC
  5
79E8
330
18
100
AcDbEntity
  8
0
100
AcDbCircle
 10
21.6220390242961
 20
383.1196336817835
 30
0.0
 40
5.471757172276427
100
AcDbArc
 50
104.4535042664253
 51
142.9266307855393
  0
LINE
  5
79E9
330
18
100
AcDbEntity
  8
0
100
AcDbLine
 10
21.25631980715434
 20
401.9182125074961
 30
0.0
 11
21.25631980715411
 21
402.2182125074956
 31
0.0
  0
LINE
  5
79EA
330
18
100
AcDbEntity
  8
0
100
AcDbLine
 10
17.25631980715411
 20
393.4182125074961
 30
0.0
 11
17.25631980715411
 21
397.4182125074959
 31
0.0
  0
ARC
  5
79EB
330
18
100
AcDbEntity
  8
0
100
AcDbCircle
 10
21.6220390242961
 20
394.1196336817835
 30
0.0
 40
5.471757172276427
100
AcDbArc
 50
104.4535042664253
 51
142.9266307855393
  0
LINE
  5
79EC
330
18
100
AcDbEntity
  8
0
100
AcDbLine
 10
20.25631980715434
 20
399.4182125074959
 30
0.0
 11
21.25631980715411
 21
399.4182125074959
 31
0.0
  0
LINE
  5
79ED
330
18
100
AcDbEntity
  8
0
100
AcDbLine
 10
9.256319807154454
 20
399.9182125074959
 30
0.0
 11
9.256319807154454
 21
401.9182125074961
 31
0.0
  0
LINE
  5
79EE
330
18
100
AcDbEntity
  8
0
100
AcDbLine
 10
20.25631980715434
 20
391.4182125074963
 30
0.0
 11
21.25631980715411
 21
391.4182125074963
 31
0.0
  0
LINE
  5
79EF
330
18
100
AcDbEntity
  8
0
100
AcDbLine
 10
21.25631980715434
 20
390.9182125074961
 30
0.0
 11
21.25631980715434
 21
399.9182125074961
 31
0.0
  0
ARC
  5
79F0
330
18
100
AcDbEntity
  8
0
100
AcDbCircle
 10
21.6220390242961
 20
396.7167913332083
 30
0.0
 40
5.471757172276427
100
AcDbArc
 50
217.0733692144606
 51
255.5464957335746
  0
LINE
  5
79F1
330
18
100
AcDbEntity
  8
0
100
AcDbLine
 10
20.25631980715411
 20
391.4182125074959
 30
0.0
 11
20.25631980715411
 21
399.4182125074959
 31
0.0
  0
LINE
  5
79F2
330
18
100
AcDbEntity
  8
0
100
AcDbLine
 10
9.256319807154341
 20
388.9182125074959
 30
0.0
 11
9.256319807154341
 21
390.9182125074961
 31
0.0
  0
ARC
  5
79F3
330
18
100
AcDbEntity
  8
0
100
AcDbCircle
 10
21.6220390242961
 20
361.1196336817835
 30
0.0
 40
5.471757172276427
100
AcDbArc
 50
104.4535042664253
 51
142.9266307855393
  0
LINE
  5
79F4
330
18
100
AcDbEntity
  8
0
100
AcDbLine
 10
20.25631980715434
 20
366.4182125074959
 30
0.0
 11
21.25631980715411
 21
366.4182125074959
 31
0.0
  0
LINE
  5
79F5
330
18
100
AcDbEntity
  8
0
100
AcDbLine
 10
17.25631980715411
 20
371.4182125074961
 30
0.0
 11
17.25631980715411
 21
375.4182125074959
 31
0.0
  0
ARC
  5
79F6
330
18
100
AcDbEntity
  8
0
100
AcDbCircle
 10
21.6220390242961
 20
372.1196336817835
 30
0.0
 40
5.471757172276427
100
AcDbArc
 50
104.4535042664253
 51
142.9266307855393
  0
LINE
  5
79F7
330
18
100
AcDbEntity
  8
0
100
AcDbLine
 10
20.25631980715434
 20
377.4182125074959
 30
0.0
 11
21.25631980715411
 21
377.4182125074959
 31
0.0
  0
LINE
  5
79F8
330
18
100
AcDbEntity
  8
0
100
AcDbLine
 10
9.256319807154341
 20
377.9182125074959
 30
0.0
 11
9.256319807154341
 21
379.9182125074961
 31
0.0
  0
LINE
  5
79F9
330
18
100
AcDbEntity
  8
0
100
AcDbLine
 10
20.25631980715434
 20
380.4182125074963
 30
0.0
 11
21.25631980715411
 21
380.4182125074963
 31
0.0
  0
ARC
  5
79FA
330
18
100
AcDbEntity
  8
0
100
AcDbCircle
 10
21.6220390242961
 20
385.7167913332084
 30
0.0
 40
5.471757172276427
100
AcDbArc
 50
217.0733692144606
 51
255.5464957335746
  0
LINE
  5
79FB
330
18
100
AcDbEntity
  8
0
100
AcDbLine
 10
20.25631980715434
 20
369.4182125074963
 30
0.0
 11
21.25631980715411
 21
369.4182125074963
 31
0.0
  0
LINE
  5
79FC
330
18
100
AcDbEntity
  8
0
100
AcDbLine
 10
21.25631980715434
 20
368.9182125074961
 30
0.0
 11
21.25631980715434
 21
377.9182125074959
 31
0.0
  0
ARC
  5
79FD
330
18
100
AcDbEntity
  8
0
100
AcDbCircle
 10
21.6220390242961
 20
374.7167913332083
 30
0.0
 40
5.471757172276427
100
AcDbArc
 50
217.0733692144606
 51
255.5464957335746
  0
LINE
  5
79FE
330
18
100
AcDbEntity
  8
0
100
AcDbLine
 10
20.25631980715411
 20
369.4182125074959
 30
0.0
 11
20.25631980715411
 21
377.4182125074959
 31
0.0
  0
LINE
  5
79FF
330
18
100
AcDbEntity
  8
0
100
AcDbLine
 10
9.256319807154341
 20
366.9182125074959
 30
0.0
 11
9.256319807154341
 21
368.9182125074961
 31
0.0
  0
LINE
  5
7A00
330
18
100
AcDbEntity
  8
0
100
AcDbLine
 10
9.256319807154341
 20
366.9182125074959
 30
0.0
 11
9.256319807154341
 21
368.9182125074961
 31
0.0
  0
LINE
  5
7A22
330
18
100
AcDbEntity
  8
0
100
AcDbLine
 10
9.256319807154341
 20
313.9182125074961
 30
0.0
 11
30.75631980715434
 21
313.9182125074959
 31
0.0
  0
LINE
  5
7A23
330
18
100
AcDbEntity
  8
0
100
AcDbLine
 10
9.256319807154341
 20
322.9182125074961
 30
0.0
 11
30.75631980715434
 21
322.9182125074959
 31
0.0
  0
LINE
  5
7A24
330
18
100
AcDbEntity
  8
0
100
AcDbLine
 10
9.256319807154341
 20
333.9182125074961
 30
0.0
 11
30.75631980715434
 21
333.9182125074959
 31
0.0
  0
LINE
  5
7A25
330
18
100
AcDbEntity
  8
0
100
AcDbLine
 10
9.256319807154341
 20
335.9182125074963
 30
0.0
 11
30.75631980715434
 21
335.9182125074961
 31
0.0
  0
LINE
  5
7A26
330
18
100
AcDbEntity
  8
0
100
AcDbLine
 10
9.256319807154341
 20
344.9182125074961
 30
0.0
 11
30.75631980715434
 21
344.9182125074959
 31
0.0
  0
LINE
  5
7A27
330
18
100
AcDbEntity
  8
0
100
AcDbLine
 10
9.256319807154341
 20
324.9182125074963
 30
0.0
 11
30.75631980715434
 21
324.9182125074961
 31
0.0
  0
LINE
  5
7A28
330
18
100
AcDbEntity
  8
0
100
AcDbLine
 10
9.256319807154341
 20
357.9182125074964
 30
0.0
 11
30.75631980715434
 21
357.9182125074961
 31
0.0
  0
LINE
  5
7A29
330
18
100
AcDbEntity
  8
0
100
AcDbLine
 10
9.256319807154341
 20
355.9182125074961
 30
0.0
 11
30.75631980715434
 21
355.9182125074959
 31
0.0
  0
LINE
  5
7A2A
330
18
100
AcDbEntity
  8
0
100
AcDbLine
 10
9.256319807154341
 20
346.9182125074963
 30
0.0
 11
30.75631980715434
 21
346.9182125074961
 31
0.0
  0
LINE
  5
7A2B
330
18
100
AcDbEntity
  8
0
100
AcDbLine
 10
21.25631980715457
 20
335.9182125074961
 30
0.0
 11
21.25631980715457
 21
344.9182125074959
 31
0.0
  0
LINE
  5
7A2C
330
18
100
AcDbEntity
  8
0
100
AcDbLine
 10
20.25631980715411
 20
336.4182125074959
 30
0.0
 11
20.25631980715411
 21
344.4182125074959
 31
0.0
  0
ARC
  5
7A2D
330
18
100
AcDbEntity
  8
0
100
AcDbCircle
 10
21.6220390242961
 20
341.7167913332083
 30
0.0
 40
5.471757172276427
100
AcDbArc
 50
217.0733692144606
 51
255.5464957335746
  0
LINE
  5
7A2E
330
18
100
AcDbEntity
  8
0
100
AcDbLine
 10
20.25631980715434
 20
344.4182125074959
 30
0.0
 11
21.25631980715411
 21
344.4182125074959
 31
0.0
  0
ARC
  5
7A2F
330
18
100
AcDbEntity
  8
0
100
AcDbCircle
 10
21.6220390242961
 20
339.1196336817835
 30
0.0
 40
5.471757172276427
100
AcDbArc
 50
104.4535042664253
 51
142.9266307855393
  0
LINE
  5
7A30
330
18
100
AcDbEntity
  8
0
100
AcDbLine
 10
17.25631980715411
 20
338.4182125074961
 30
0.0
 11
17.25631980715411
 21
342.4182125074959
 31
0.0
  0
ARC
  5
7A31
330
18
100
AcDbEntity
  8
0
100
AcDbCircle
 10
21.6220390242961
 20
363.7167913332084
 30
0.0
 40
5.471757172276427
100
AcDbArc
 50
217.0733692144606
 51
255.5464957335746
  0
LINE
  5
7A32
330
18
100
AcDbEntity
  8
0
100
AcDbLine
 10
20.25631980715434
 20
358.4182125074963
 30
0.0
 11
21.25631980715411
 21
358.4182125074963
 31
0.0
  0
LINE
  5
7A33
330
18
100
AcDbEntity
  8
0
100
AcDbLine
 10
9.256319807154341
 20
355.9182125074959
 30
0.0
 11
9.256319807154341
 21
357.9182125074961
 31
0.0
  0
LINE
  5
7A34
330
18
100
AcDbEntity
  8
0
100
AcDbLine
 10
20.25631980715434
 20
355.4182125074959
 30
0.0
 11
21.25631980715411
 21
355.4182125074959
 31
0.0
  0
ARC
  5
7A35
330
18
100
AcDbEntity
  8
0
100
AcDbCircle
 10
21.6220390242961
 20
350.1196336817835
 30
0.0
 40
5.471757172276427
100
AcDbArc
 50
104.4535042664253
 51
142.9266307855393
  0
LINE
  5
7A36
330
18
100
AcDbEntity
  8
0
100
AcDbLine
 10
17.25631980715411
 20
349.4182125074961
 30
0.0
 11
17.25631980715411
 21
353.4182125074959
 31
0.0
  0
LINE
  5
7A37
330
18
100
AcDbEntity
  8
0
100
AcDbLine
 10
20.25631980715434
 20
347.4182125074964
 30
0.0
 11
21.25631980715411
 21
347.4182125074964
 31
0.0
  0
LINE
  5
7A38
330
18
100
AcDbEntity
  8
0
100
AcDbLine
 10
21.25631980715457
 20
346.9182125074961
 30
0.0
 11
21.25631980715457
 21
355.9182125074956
 31
0.0
  0
LINE
  5
7A39
330
18
100
AcDbEntity
  8
0
100
AcDbLine
 10
20.25631980715411
 20
347.4182125074959
 30
0.0
 11
20.25631980715411
 21
355.4182125074959
 31
0.0
  0
ARC
  5
7A3A
330
18
100
AcDbEntity
  8
0
100
AcDbCircle
 10
21.6220390242961
 20
352.7167913332084
 30
0.0
 40
5.471757172276427
100
AcDbArc
 50
217.0733692144606
 51
255.5464957335746
  0
LINE
  5
7A3B
330
18
100
AcDbEntity
  8
0
100
AcDbLine
 10
9.256319807154341
 20
344.9182125074959
 30
0.0
 11
9.256319807154341
 21
346.9182125074961
 31
0.0
  0
LINE
  5
7A3C
330
18
100
AcDbEntity
  8
0
100
AcDbLine
 10
21.25631980715457
 20
313.9182125074959
 30
0.0
 11
21.25631980715434
 21
322.9182125074959
 31
0.0
  0
LINE
  5
7A3D
330
18
100
AcDbEntity
  8
0
100
AcDbLine
 10
20.25631980715434
 20
322.4182125074956
 30
0.0
 11
21.25631980715411
 21
322.4182125074956
 31
0.0
  0
ARC
  5
7A3E
330
18
100
AcDbEntity
  8
0
100
AcDbCircle
 10
21.62203902429604
 20
317.1196336817833
 30
0.0
 40
5.471757172276427
100
AcDbArc
 50
104.4535042664253
 51
142.9266307855393
  0
LINE
  5
7A3F
330
18
100
AcDbEntity
  8
0
100
AcDbLine
 10
17.25631980715411
 20
316.4182125074959
 30
0.0
 11
17.25631980715411
 21
320.4182125074956
 31
0.0
  0
LINE
  5
7A40
330
18
100
AcDbEntity
  8
0
100
AcDbLine
 10
20.25631980715434
 20
314.4182125074961
 30
0.0
 11
21.25631980715411
 21
314.4182125074961
 31
0.0
  0
LINE
  5
7A41
330
18
100
AcDbEntity
  8
0
100
AcDbLine
 10
20.25631980715411
 20
314.4182125074956
 30
0.0
 11
20.25631980715411
 21
322.4182125074956
 31
0.0
  0
ARC
  5
7A42
330
18
100
AcDbEntity
  8
0
100
AcDbCircle
 10
21.62203902429604
 20
319.7167913332081
 30
0.0
 40
5.471757172276427
100
AcDbArc
 50
217.0733692144606
 51
255.5464957335746
  0
LINE
  5
7A43
330
18
100
AcDbEntity
  8
0
100
AcDbLine
 10
17.25631980715411
 20
327.4182125074961
 30
0.0
 11
17.25631980715411
 21
331.4182125074959
 31
0.0
  0
ARC
  5
7A44
330
18
100
AcDbEntity
  8
0
100
AcDbCircle
 10
21.62203902429604
 20
328.1196336817835
 30
0.0
 40
5.471757172276427
100
AcDbArc
 50
104.4535042664253
 51
142.9266307855393
  0
LINE
  5
7A45
330
18
100
AcDbEntity
  8
0
100
AcDbLine
 10
20.25631980715434
 20
333.4182125074959
 30
0.0
 11
21.25631980715411
 21
333.4182125074959
 31
0.0
  0
LINE
  5
7A46
330
18
100
AcDbEntity
  8
0
100
AcDbLine
 10
9.256319807154341
 20
333.9182125074959
 30
0.0
 11
9.256319807154341
 21
335.9182125074961
 31
0.0
  0
LINE
  5
7A47
330
18
100
AcDbEntity
  8
0
100
AcDbLine
 10
20.25631980715434
 20
336.4182125074963
 30
0.0
 11
21.25631980715411
 21
336.4182125074963
 31
0.0
  0
LINE
  5
7A48
330
18
100
AcDbEntity
  8
0
100
AcDbLine
 10
20.25631980715434
 20
325.4182125074963
 30
0.0
 11
21.25631980715411
 21
325.4182125074963
 31
0.0
  0
LINE
  5
7A49
330
18
100
AcDbEntity
  8
0
100
AcDbLine
 10
21.25631980715434
 20
324.9182125074961
 30
0.0
 11
21.25631980715457
 21
333.9182125074959
 31
0.0
  0
ARC
  5
7A4A
330
18
100
AcDbEntity
  8
0
100
AcDbCircle
 10
21.62203902429604
 20
330.7167913332083
 30
0.0
 40
5.471757172276427
100
AcDbArc
 50
217.0733692144606
 51
255.5464957335746
  0
LINE
  5
7A4B
330
18
100
AcDbEntity
  8
0
100
AcDbLine
 10
20.25631980715411
 20
325.4182125074959
 30
0.0
 11
20.25631980715411
 21
333.4182125074959
 31
0.0
  0
LINE
  5
7A4C
330
18
100
AcDbEntity
  8
0
100
AcDbLine
 10
9.256319807154341
 20
322.9182125074959
 30
0.0
 11
9.256319807154341
 21
324.9182125074961
 31
0.0
  0
LINE
  5
7A7D
330
18
100
AcDbEntity
  8
0
100
AcDbLine
 10
240.7563198071533
 20
493.4182125074973
 30
0.0
 11
239.1563198071533
 21
493.418212507497
 31
0.0
  0
LINE
  5
7AA0
330
18
100
AcDbEntity
  8
0
100
AcDbLine
 10
239.1563198071534
 20
243.4182125074964
 30
0.0
 11
32.35631980715368
 21
243.4182125074961
 31
0.0
  0
LINE
  5
7AA5
330
18
100
AcDbEntity
  8
0
100
AcDbLine
 10
32.35631980715362
 20
244.4182125074963
 30
0.0
 11
30.75631980715366
 21
244.4182125074964
 31
0.0
  0
LINE
  5
7AA8
330
18
100
AcDbEntity
  8
0
100
AcDbLine
 10
21.25631980715479
 20
311.6182125074957
 30
0.0
 11
30.75631980715479
 21
311.6182125074957
 31
0.0
  0
LINE
  5
7AA9
330
18
100
AcDbEntity
  8
0
100
AcDbLine
 10
9.256319807154341
 20
311.9182125074959
 30
0.0
 11
30.75631980715434
 21
311.9182125074956
 31
0.0
  0
LINE
  5
7AAA
330
18
100
AcDbEntity
  8
0
100
AcDbLine
 10
21.25631980715479
 20
311.6182125074957
 30
0.0
 11
21.25631980715479
 21
311.9182125074956
 31
0.0
  0
LINE
  5
7B74
330
18
100
AcDbEntity
  8
0
100
AcDbLine
 10
240.7563198071536
 20
228.4182125074963
 30
0.0
 11
239.1563198071535
 21
228.4182125074963
 31
0.0
  0
LINE
  5
7C83
330
18
100
AcDbEntity
  8
0
100
AcDbLine
 10
-111.1707076761158
 20
477.4182125074964
 30
0.0
 11
-241.1707076761158
 21
477.4182125074964
 31
0.0
  0
LINE
  5
7C84
330
18
100
AcDbEntity
  8
0
100
AcDbLine
 10
-111.1707076761156
 20
244.4182125075331
 30
0.0
 11
-241.1707076761156
 21
244.4182125074962
 31
0.0
  0
LINE
  5
7C8A
330
18
100
AcDbEntity
  8
0
100
AcDbLine
 10
9.256319807153715
 20
618.2893504274654
 30
0.0
 11
30.75631980715371
 21
618.2893504274655
 31
0.0
  0
LINE
  5
7C8B
330
18
100
AcDbEntity
  8
0
100
AcDbLine
 10
9.256319807153488
 20
597.2893504274654
 30
0.0
 11
30.75631980715348
 21
597.2893504274655
 31
0.0
  0
LINE
  5
7C8C
330
18
100
AcDbEntity
  8
0
100
AcDbLine
 10
9.256319807153715
 20
618.2893504274654
 30
0.0
 11
9.256319807153488
 21
597.2893504274654
 31
0.0
  0
LINE
  5
7C8D
330
18
100
AcDbEntity
  8
0
100
AcDbLine
 10
30.75631980715371
 20
618.2893504274655
 30
0.0
 11
30.75631980715348
 21
597.2893504274655
 31
0.0
  0
ARC
  5
7CB1
330
18
100
AcDbEntity
  8
0
100
AcDbCircle
 10
-141.9707076761157
 20
395.4182125074964
 30
0.0
 40
2.0
100
AcDbArc
 50
345.5224878140701
 51
14.47751218592986
  0
ARC
  5
7CB2
330
18
100
AcDbEntity
  8
0
100
AcDbCircle
 10
-141.9707076761157
 20
395.4182125074964
 30
0.0
 40
2.0
100
AcDbArc
 50
165.5224878140701
 51
194.4775121859298
  0
CIRCLE
  5
7CB3
330
18
100
AcDbEntity
  8
0
100
AcDbCircle
 10
-141.9707076761157
 20
395.4182125074964
 30
0.0
 40
2.5
  0
CIRCLE
  5
7CB4
330
18
100
AcDbEntity
  8
0
100
AcDbCircle
 10
-141.9707076761157
 20
395.4182125074964
 30
0.0
 40
3.0
  0
LINE
  5
7CB5
330
18
100
AcDbEntity
  8
0
100
AcDbLine
 10
-143.907199349219
 20
394.9182125074964
 30
0.0
 11
-142.4707076761156
 21
394.9182125074964
 31
0.0
  0
LINE
  5
7CB6
330
18
100
AcDbEntity
  8
0
100
AcDbLine
 10
-141.4707076761156
 20
393.4817208343926
 30
0.0
 11
-141.4707076761156
 21
394.9182125074964
 31
0.0
  0
LINE
  5
7CB7
330
18
100
AcDbEntity
  8
0
100
AcDbLine
 10
-142.4707076761156
 20
393.4817208343926
 30
0.0
 11
-142.4707076761156
 21
394.9182125074964
 31
0.0
  0
ARC
  5
7CB8
330
18
100
AcDbEntity
  8
0
100
AcDbCircle
 10
-141.9707076761157
 20
395.4182125074964
 30
0.0
 40
2.0
100
AcDbArc
 50
255.5224878140713
 51
284.4775121859278
  0
LINE
  5
7CB9
330
18
100
AcDbEntity
  8
0
100
AcDbLine
 10
-141.4707076761156
 20
394.9182125074964
 30
0.0
 11
-140.0342160030119
 21
394.9182125074964
 31
0.0
  0
LINE
  5
7CBA
330
18
100
AcDbEntity
  8
0
100
AcDbLine
 10
-143.907199349219
 20
395.9182125074964
 30
0.0
 11
-142.4707076761156
 21
395.9182125074964
 31
0.0
  0
ARC
  5
7CBB
330
18
100
AcDbEntity
  8
0
100
AcDbCircle
 10
-141.9707076761157
 20
395.4182125074964
 30
0.0
 40
2.0
100
AcDbArc
 50
75.52248781407134
 51
104.4775121859278
  0
LINE
  5
7CBC
330
18
100
AcDbEntity
  8
0
100
AcDbLine
 10
-142.4707076761156
 20
395.9182125074964
 30
0.0
 11
-142.4707076761156
 21
397.3547041806002
 31
0.0
  0
LINE
  5
7CBD
330
18
100
AcDbEntity
  8
0
100
AcDbLine
 10
-141.4707076761156
 20
395.9182125074964
 30
0.0
 11
-141.4707076761156
 21
397.3547041806002
 31
0.0
  0
LINE
  5
7CBE
330
18
100
AcDbEntity
  8
0
100
AcDbLine
 10
-141.4707076761156
 20
395.9182125074964
 30
0.0
 11
-140.0342160030119
 21
395.9182125074964
 31
0.0
  0
ARC
  5
7CBF
330
18
100
AcDbEntity
  8
0
100
AcDbCircle
 10
-141.9707076761155
 20
255.4182125074964
 30
0.0
 40
2.0
100
AcDbArc
 50
345.5224878140701
 51
14.47751218592986
  0
ARC
  5
7CC0
330
18
100
AcDbEntity
  8
0
100
AcDbCircle
 10
-141.9707076761155
 20
255.4182125074964
 30
0.0
 40
2.0
100
AcDbArc
 50
165.5224878140701
 51
194.4775121859298
  0
CIRCLE
  5
7CC1
330
18
100
AcDbEntity
  8
0
100
AcDbCircle
 10
-141.9707076761155
 20
255.4182125074964
 30
0.0
 40
2.5
  0
CIRCLE
  5
7CC2
330
18
100
AcDbEntity
  8
0
100
AcDbCircle
 10
-141.9707076761155
 20
255.4182125074964
 30
0.0
 40
3.0
  0
LINE
  5
7CC3
330
18
100
AcDbEntity
  8
0
100
AcDbLine
 10
-143.9071993492188
 20
254.9182125074964
 30
0.0
 11
-142.4707076761155
 21
254.9182125074964
 31
0.0
  0
LINE
  5
7CC4
330
18
100
AcDbEntity
  8
0
100
AcDbLine
 10
-141.4707076761155
 20
253.4817208343926
 30
0.0
 11
-141.4707076761155
 21
254.9182125074964
 31
0.0
  0
LINE
  5
7CC5
330
18
100
AcDbEntity
  8
0
100
AcDbLine
 10
-142.4707076761155
 20
253.4817208343926
 30
0.0
 11
-142.4707076761155
 21
254.9182125074964
 31
0.0
  0
ARC
  5
7CC6
330
18
100
AcDbEntity
  8
0
100
AcDbCircle
 10
-141.9707076761155
 20
255.4182125074964
 30
0.0
 40
2.0
100
AcDbArc
 50
255.5224878140713
 51
284.4775121859278
  0
LINE
  5
7CC7
330
18
100
AcDbEntity
  8
0
100
AcDbLine
 10
-141.4707076761155
 20
254.9182125074964
 30
0.0
 11
-140.0342160030118
 21
254.9182125074964
 31
0.0
  0
LINE
  5
7CC8
330
18
100
AcDbEntity
  8
0
100
AcDbLine
 10
-143.9071993492188
 20
255.9182125074964
 30
0.0
 11
-142.4707076761155
 21
255.9182125074964
 31
0.0
  0
ARC
  5
7CC9
330
18
100
AcDbEntity
  8
0
100
AcDbCircle
 10
-141.9707076761155
 20
255.4182125074964
 30
0.0
 40
2.0
100
AcDbArc
 50
75.52248781407134
 51
104.4775121859278
  0
LINE
  5
7CCA
330
18
100
AcDbEntity
  8
0
100
AcDbLine
 10
-142.4707076761155
 20
255.9182125074964
 30
0.0
 11
-142.4707076761155
 21
257.3547041806002
 31
0.0
  0
LINE
  5
7CCB
330
18
100
AcDbEntity
  8
0
100
AcDbLine
 10
-141.4707076761155
 20
255.9182125074964
 30
0.0
 11
-141.4707076761155
 21
257.3547041806002
 31
0.0
  0
LINE
  5
7CCC
330
18
100
AcDbEntity
  8
0
100
AcDbLine
 10
-141.4707076761155
 20
255.9182125074964
 30
0.0
 11
-140.0342160030118
 21
255.9182125074964
 31
0.0
  0
CIRCLE
  5
7CE9
330
18
100
AcDbEntity
  8
0
100
AcDbCircle
 10
-156.4707076761155
 20
256.4182125074959
 30
0.0
 40
3.333333333333333
  0
CIRCLE
  5
7CEA
330
18
100
AcDbEntity
  8
0
100
AcDbCircle
 10
-156.4707076761155
 20
256.4182125074959
 30
0.0
 40
4.0
  0
LINE
  5
7CEB
330
18
100
AcDbEntity
  8
0
100
AcDbLine
 10
-159.0526965735866
 20
255.7515458408293
 30
0.0
 11
-157.1373743427822
 21
255.7515458408293
 31
0.0
  0
LINE
  5
7CEC
330
18
100
AcDbEntity
  8
0
100
AcDbLine
 10
-159.0526965735866
 20
257.0848791741626
 30
0.0
 11
-157.1373743427822
 21
257.0848791741626
 31
0.0
  0
ARC
  5
7CED
330
18
100
AcDbEntity
  8
0
100
AcDbCircle
 10
-156.4707076761155
 20
256.4182125074959
 30
0.0
 40
2.666666666666666
100
AcDbArc
 50
165.5224878140701
 51
194.4775121859298
  0
ARC
  5
7CEE
330
18
100
AcDbEntity
  8
0
100
AcDbCircle
 10
-156.4707076761155
 20
256.4182125074959
 30
0.0
 40
2.666666666666666
100
AcDbArc
 50
345.5224878140701
 51
14.47751218592986
  0
LINE
  5
7CEF
330
18
100
AcDbEntity
  8
0
100
AcDbLine
 10
-155.8040410094488
 20
253.8362236100242
 30
0.0
 11
-155.8040410094488
 21
255.7515458408293
 31
0.0
  0
LINE
  5
7CF0
330
18
100
AcDbEntity
  8
0
100
AcDbLine
 10
-157.1373743427822
 20
253.8362236100242
 30
0.0
 11
-157.1373743427822
 21
255.7515458408293
 31
0.0
  0
ARC
  5
7CF1
330
18
100
AcDbEntity
  8
0
100
AcDbCircle
 10
-156.4707076761155
 20
256.4182125074959
 30
0.0
 40
2.666666666666666
100
AcDbArc
 50
255.5224878140713
 51
284.4775121859278
  0
LINE
  5
7CF2
330
18
100
AcDbEntity
  8
0
100
AcDbLine
 10
-155.8040410094488
 20
255.7515458408293
 30
0.0
 11
-153.8887187786438
 21
255.7515458408293
 31
0.0
  0
ARC
  5
7CF3
330
18
100
AcDbEntity
  8
0
100
AcDbCircle
 10
-156.4707076761155
 20
256.4182125074959
 30
0.0
 40
2.666666666666666
100
AcDbArc
 50
75.52248781407134
 51
104.4775121859278
  0
LINE
  5
7CF4
330
18
100
AcDbEntity
  8
0
100
AcDbLine
 10
-157.1373743427822
 20
257.0848791741626
 30
0.0
 11
-157.1373743427822
 21
259.0002014049677
 31
0.0
  0
LINE
  5
7CF5
330
18
100
AcDbEntity
  8
0
100
AcDbLine
 10
-155.8040410094488
 20
257.0848791741626
 30
0.0
 11
-155.8040410094488
 21
259.0002014049677
 31
0.0
  0
LINE
  5
7CF6
330
18
100
AcDbEntity
  8
0
100
AcDbLine
 10
-155.8040410094488
 20
257.0848791741626
 30
0.0
 11
-153.8887187786438
 21
257.0848791741626
 31
0.0
  0
ELLIPSE
  5
7D5B
330
18
100
AcDbEntity
  8
0
100
AcDbEllipse
 10
-119.4707076761155
 20
383.893212507496
 30
0.0
 11
0.5
 21
0.0
 31
0.0
210
0.0
220
0.0
230
1.0
 40
0.95
 41
0.0
 42
6.283184999999999
  0
ELLIPSE
  5
7D5C
330
18
100
AcDbEntity
  8
0
100
AcDbEllipse
 10
-122.5707076761155
 20
375.0432125074961
 30
0.0
 11
0.0
 21
0.775
 31
0.0
210
0.0
220
0.0
230
1.0
 40
0.9677419999999999
 41
0.0
 42
6.283184999999999
  0
ELLIPSE
  5
7D5D
330
18
100
AcDbEntity
  8
0
100
AcDbEllipse
 10
-122.5707076761155
 20
352.0432125074961
 30
0.0
 11
0.0
 21
0.775
 31
0.0
210
0.0
220
0.0
230
1.0
 40
0.9677419999999999
 41
0.0
 42
6.283184999999999
  0
ELLIPSE
  5
7D5E
330
18
100
AcDbEntity
  8
0
100
AcDbEllipse
 10
-120.7457076761155
 20
358.6682125074961
 30
0.0
 11
0.0
 21
1.25
 31
0.0
210
0.0
220
0.0
230
1.0
 40
0.98
 41
3.380894
 42
4.528311
  0
ELLIPSE
  5
7D5F
330
18
100
AcDbEntity
  8
0
100
AcDbEllipse
 10
-120.7457076761155
 20
368.018212507496
 30
0.0
 11
0.0
 21
1.25
 31
0.0
210
0.0
220
0.0
230
1.0
 40
0.98
 41
4.509903999999999
 42
6.059223999999999
  0
ELLIPSE
  5
7D60
330
18
100
AcDbEntity
  8
0
100
AcDbEllipse
 10
-124.4207076761155
 20
357.6932125074961
 30
0.0
 11
0.0
 21
1.25
 31
0.0
210
0.0
220
0.0
230
1.0
 40
0.98
 41
1.708854999999999
 42
3.380894
  0
ELLIPSE
  5
7D61
330
18
100
AcDbEntity
  8
0
100
AcDbEllipse
 10
-124.4207076761155
 20
368.9432125074961
 30
0.0
 11
0.0
 21
1.25
 31
0.0
210
0.0
220
0.0
230
1.0
 40
0.98
 41
6.03468
 42
8.053399307179585
  0
ELLIPSE
  5
7D62
330
18
100
AcDbEntity
  8
0
100
AcDbEllipse
 10
-120.7457076761155
 20
310.4932125074961
 30
0.0
 11
0.0
 21
1.25
 31
0.0
210
0.0
220
0.0
230
1.0
 40
0.98
 41
3.380894
 42
4.528311
  0
ELLIPSE
  5
7D63
330
18
100
AcDbEntity
  8
0
100
AcDbEllipse
 10
-124.4207076761155
 20
309.518212507496
 30
0.0
 11
0.0
 21
1.25
 31
0.0
210
0.0
220
0.0
230
1.0
 40
0.98
 41
1.708854999999999
 42
3.380894
  0
ELLIPSE
  5
7D64
330
18
100
AcDbEntity
  8
0
100
AcDbEllipse
 10
-122.5707076761155
 20
303.8682125074961
 30
0.0
 11
0.0
 21
0.775
 31
0.0
210
0.0
220
0.0
230
1.0
 40
0.9677419999999999
 41
0.0
 42
6.283184999999999
  0
ELLIPSE
  5
7D65
330
18
100
AcDbEntity
  8
0
100
AcDbEllipse
 10
-120.7457076761155
 20
324.5182125074959
 30
0.0
 11
0.0
 21
1.25
 31
0.0
210
0.0
220
0.0
230
1.0
 40
0.98
 41
4.509903999999999
 42
6.059223999999999
  0
ELLIPSE
  5
7D66
330
18
100
AcDbEntity
  8
0
100
AcDbEllipse
 10
-124.4207076761155
 20
325.4432125074961
 30
0.0
 11
0.0
 21
1.25
 31
0.0
210
0.0
220
0.0
230
1.0
 40
0.98
 41
6.03468
 42
8.053399307179585
  0
ELLIPSE
  5
7D67
330
18
100
AcDbEntity
  8
0
100
AcDbEllipse
 10
-122.5707076761155
 20
331.543212507496
 30
0.0
 11
0.0
 21
0.775
 31
0.0
210
0.0
220
0.0
230
1.0
 40
0.9677419999999999
 41
0.0
 42
6.283184999999999
  0
ELLIPSE
  5
7D68
330
18
100
AcDbEntity
  8
0
100
AcDbEllipse
 10
-120.7457076761155
 20
266.5682125074962
 30
0.0
 11
0.0
 21
1.25
 31
0.0
210
0.0
220
0.0
230
1.0
 40
0.98
 41
3.380894
 42
4.528311
  0
ELLIPSE
  5
7D69
330
18
100
AcDbEntity
  8
0
100
AcDbEllipse
 10
-124.4207076761155
 20
265.5932125074961
 30
0.0
 11
0.0
 21
1.25
 31
0.0
210
0.0
220
0.0
230
1.0
 40
0.98
 41
1.708854999999999
 42
3.380894
  0
ELLIPSE
  5
7D6A
330
18
100
AcDbEntity
  8
0
100
AcDbEllipse
 10
-122.5707076761155
 20
259.9932125074961
 30
0.0
 11
0.0
 21
0.775
 31
0.0
210
0.0
220
0.0
230
1.0
 40
0.9677419999999999
 41
0.0
 42
6.283184999999999
  0
ELLIPSE
  5
7D6B
330
18
100
AcDbEntity
  8
0
100
AcDbEllipse
 10
-120.7457076761155
 20
290.518212507496
 30
0.0
 11
0.0
 21
1.25
 31
0.0
210
0.0
220
0.0
230
1.0
 40
0.98
 41
4.509903999999999
 42
6.059223999999999
  0
ELLIPSE
  5
7D6C
330
18
100
AcDbEntity
  8
0
100
AcDbEllipse
 10
-124.4207076761155
 20
291.4432125074962
 30
0.0
 11
0.0
 21
1.25
 31
0.0
210
0.0
220
0.0
230
1.0
 40
0.98
 41
6.03468
 42
8.053399307179585
  0
ELLIPSE
  5
7D6D
330
18
100
AcDbEntity
  8
0
100
AcDbEllipse
 10
-122.5707076761155
 20
297.5432125074961
 30
0.0
 11
0.0
 21
0.775
 31
0.0
210
0.0
220
0.0
230
1.0
 40
0.9677419999999999
 41
0.0
 42
6.283184999999999
  0
LINE
  5
7D6E
330
18
100
AcDbEntity
  8
0
100
AcDbLine
 10
-121.3957076761155
 20
366.218212507496
 30
0.0
 11
-121.3957076761155
 21
365.2432125074961
 31
0.0
  0
LINE
  5
7D6F
330
18
100
AcDbEntity
  8
0
100
AcDbLine
 10
-121.0457076761156
 20
365.2432125074961
 30
0.0
 11
-121.0457076761156
 21
366.218212507496
 31
0.0
  0
LINE
  5
7D70
330
18
100
AcDbEntity
  8
0
100
AcDbLine
 10
-124.1707076761156
 20
366.218212507496
 30
0.0
 11
-124.1707076761156
 21
365.2432125074961
 31
0.0
  0
LINE
  5
7D71
330
18
100
AcDbEntity
  8
0
100
AcDbLine
 10
-123.8207076761156
 20
365.2432125074961
 30
0.0
 11
-123.8207076761156
 21
366.218212507496
 31
0.0
  0
LWPOLYLINE
  5
7D72
330
18
100
AcDbEntity
  8
0
100
AcDbPolyline
 90
        4
 70
     1
 43
0.0
 10
-120.6957076761155
 20
368.343212507496
 10
-124.3957076761155
 20
368.343212507496
 10
-124.3957076761155
 20
358.1182125074961
 10
-120.6957076761155
 20
358.1182125074961
  0
LINE
  5
7D73
330
18
100
AcDbEntity
  8
0
100
AcDbLine
 10
-119.5207076761155
 20
358.6682125074961
 30
0.0
 11
-119.5207076761155
 21
368.018212507496
 31
0.0
  0
LINE
  5
7D74
330
18
100
AcDbEntity
  8
0
100
AcDbLine
 10
-125.6457076761155
 20
368.9432125074961
 30
0.0
 11
-125.6457076761155
 21
357.593212507496
 31
0.0
  0
LINE
  5
7D75
330
18
100
AcDbEntity
  8
0
100
AcDbLine
 10
-127.1957076761156
 20
377.4182125074961
 30
0.0
 11
-127.1957076761156
 21
348.7432125074961
 31
0.0
  0
LINE
  5
7D76
330
18
100
AcDbEntity
  8
0
100
AcDbLine
 10
-117.9707076761155
 20
348.7432125074961
 30
0.0
 11
-117.9707076761155
 21
377.4182125074961
 31
0.0
  0
LINE
  5
7D79
330
18
100
AcDbEntity
  8
0
100
AcDbLine
 10
-121.3957076761155
 20
288.2932125074961
 30
0.0
 11
-121.3957076761155
 21
287.3182125074962
 31
0.0
  0
LINE
  5
7D7A
330
18
100
AcDbEntity
  8
0
100
AcDbLine
 10
-121.0457076761156
 20
287.3182125074962
 30
0.0
 11
-121.0457076761156
 21
288.2932125074961
 31
0.0
  0
LINE
  5
7D7B
330
18
100
AcDbEntity
  8
0
100
AcDbLine
 10
-124.1707076761156
 20
288.2932125074961
 30
0.0
 11
-124.1707076761156
 21
287.3182125074962
 31
0.0
  0
LINE
  5
7D7C
330
18
100
AcDbEntity
  8
0
100
AcDbLine
 10
-123.8207076761156
 20
287.3182125074962
 30
0.0
 11
-123.8207076761156
 21
288.2932125074961
 31
0.0
  0
LWPOLYLINE
  5
7D7D
330
18
100
AcDbEntity
  8
0
100
AcDbPolyline
 90
        4
 70
     1
 43
0.0
 10
-120.6957076761155
 20
290.5932125074961
 10
-124.3957076761155
 20
290.5932125074961
 10
-124.3957076761155
 20
266.7932125074961
 10
-120.6957076761155
 20
266.7932125074961
  0
LINE
  5
7D7E
330
18
100
AcDbEntity
  8
0
100
AcDbLine
 10
-119.5207076761155
 20
266.3432125074961
 30
0.0
 11
-119.5207076761155
 21
290.518212507496
 31
0.0
  0
LINE
  5
7D7F
330
18
100
AcDbEntity
  8
0
100
AcDbLine
 10
-125.6457076761155
 20
291.4432125074962
 30
0.0
 11
-125.6457076761155
 21
265.4182125074961
 31
0.0
  0
LINE
  5
7D80
330
18
100
AcDbEntity
  8
0
100
AcDbLine
 10
-127.1957076761156
 20
299.9182125074961
 30
0.0
 11
-127.1957076761156
 21
256.6182125074961
 31
0.0
  0
LINE
  5
7D81
330
18
100
AcDbEntity
  8
0
100
AcDbLine
 10
-117.9707076761155
 20
256.6182125074961
 30
0.0
 11
-117.9707076761155
 21
299.9182125074961
 31
0.0
  0
LINE
  5
7D83
330
18
100
AcDbEntity
  8
0
100
AcDbLine
 10
-124.2707076761155
 20
260.8932125074961
 30
0.0
 11
-126.3957076761155
 21
260.8932125074961
 31
0.0
  0
LINE
  5
7D84
330
18
100
AcDbEntity
  8
0
100
AcDbLine
 10
-118.7707076761155
 20
262.968212507496
 30
0.0
 11
-126.3957076761155
 21
262.968212507496
 31
0.0
  0
LINE
  5
7D85
330
18
100
AcDbEntity
  8
0
100
AcDbLine
 10
-127.1957076761156
 20
256.6182125074961
 30
0.0
 11
-117.9707076761155
 21
256.6182125074961
 31
0.0
  0
LINE
  5
7D86
330
18
100
AcDbEntity
  8
0
100
AcDbLine
 10
-126.3957076761155
 20
260.8932125074961
 30
0.0
 11
-126.3957076761155
 21
262.968212507496
 31
0.0
  0
LINE
  5
7D87
330
18
100
AcDbEntity
  8
0
100
AcDbLine
 10
-121.4207076761156
 20
268.8182125074962
 30
0.0
 11
-121.4207076761156
 21
267.843212507496
 31
0.0
  0
LINE
  5
7D88
330
18
100
AcDbEntity
  8
0
100
AcDbLine
 10
-121.0707076761156
 20
267.843212507496
 30
0.0
 11
-121.0707076761156
 21
268.8182125074962
 31
0.0
  0
LINE
  5
7D89
330
18
100
AcDbEntity
  8
0
100
AcDbLine
 10
-124.1957076761156
 20
268.8182125074962
 30
0.0
 11
-124.1957076761156
 21
267.843212507496
 31
0.0
  0
LINE
  5
7D8A
330
18
100
AcDbEntity
  8
0
100
AcDbLine
 10
-123.8457076761155
 20
267.843212507496
 30
0.0
 11
-123.8457076761155
 21
268.8182125074962
 31
0.0
  0
LINE
  5
7D8B
330
18
100
AcDbEntity
  8
0
100
AcDbLine
 10
-121.4207076761156
 20
267.843212507496
 30
0.0
 11
-121.0707076761156
 21
267.843212507496
 31
0.0
  0
LINE
  5
7D8C
330
18
100
AcDbEntity
  8
0
100
AcDbLine
 10
-124.1957076761156
 20
267.843212507496
 30
0.0
 11
-123.8457076761155
 21
267.843212507496
 31
0.0
  0
LINE
  5
7D8D
330
18
100
AcDbEntity
  8
0
100
AcDbLine
 10
-118.7707076761155
 20
260.8932125074961
 30
0.0
 11
-118.7707076761155
 21
262.968212507496
 31
0.0
  0
LINE
  5
7D8E
330
18
100
AcDbEntity
  8
0
100
AcDbLine
 10
-120.6957076761156
 20
260.8682125074961
 30
0.0
 11
-120.6957076761156
 21
261.843212507496
 31
0.0
  0
LINE
  5
7D8F
330
18
100
AcDbEntity
  8
0
100
AcDbLine
 10
-118.7707076761155
 20
260.8932125074961
 30
0.0
 11
-120.6957076761156
 21
260.8932125074961
 31
0.0
  0
LINE
  5
7D90
330
18
100
AcDbEntity
  8
0
100
AcDbLine
 10
-124.2707076761155
 20
260.8932125074961
 30
0.0
 11
-124.2707076761155
 21
261.8682125074962
 31
0.0
  0
LINE
  5
7D91
330
18
100
AcDbEntity
  8
0
100
AcDbLine
 10
-120.6957076761156
 20
261.8682125074962
 30
0.0
 11
-124.2707076761155
 21
261.8682125074962
 31
0.0
  0
LINE
  5
7D92
330
18
100
AcDbEntity
  8
0
100
AcDbLine
 10
-124.1457076761155
 20
264.3432125074961
 30
0.0
 11
-120.4457076761155
 21
265.3182125074962
 31
0.0
  0
LINE
  5
7D93
330
18
100
AcDbEntity
  8
0
100
AcDbLine
 10
-121.3957076761155
 20
287.3182125074962
 30
0.0
 11
-121.0457076761156
 21
287.3182125074962
 31
0.0
  0
LINE
  5
7D94
330
18
100
AcDbEntity
  8
0
100
AcDbLine
 10
-121.0457076761156
 20
287.0682125074962
 30
0.0
 11
-121.3957076761155
 21
287.0682125074962
 31
0.0
  0
LINE
  5
7D95
330
18
100
AcDbEntity
  8
0
100
AcDbLine
 10
-121.3957076761155
 20
287.0682125074962
 30
0.0
 11
-121.3957076761155
 21
286.0932125074961
 31
0.0
  0
LINE
  5
7D96
330
18
100
AcDbEntity
  8
0
100
AcDbLine
 10
-121.3957076761155
 20
286.0932125074961
 30
0.0
 11
-121.0457076761156
 21
286.0932125074961
 31
0.0
  0
LINE
  5
7D97
330
18
100
AcDbEntity
  8
0
100
AcDbLine
 10
-121.0457076761156
 20
286.0932125074961
 30
0.0
 11
-121.0457076761156
 21
287.0682125074962
 31
0.0
  0
LINE
  5
7D98
330
18
100
AcDbEntity
  8
0
100
AcDbLine
 10
-121.0457076761156
 20
285.7932125074961
 30
0.0
 11
-121.3957076761155
 21
285.7932125074961
 31
0.0
  0
LINE
  5
7D99
330
18
100
AcDbEntity
  8
0
100
AcDbLine
 10
-121.3957076761155
 20
285.7932125074961
 30
0.0
 11
-121.3957076761155
 21
284.843212507496
 31
0.0
  0
LINE
  5
7D9A
330
18
100
AcDbEntity
  8
0
100
AcDbLine
 10
-121.3957076761155
 20
284.843212507496
 30
0.0
 11
-121.0457076761156
 21
284.843212507496
 31
0.0
  0
LINE
  5
7D9B
330
18
100
AcDbEntity
  8
0
100
AcDbLine
 10
-121.0457076761156
 20
284.843212507496
 30
0.0
 11
-121.0457076761156
 21
285.7932125074961
 31
0.0
  0
LINE
  5
7D9C
330
18
100
AcDbEntity
  8
0
100
AcDbLine
 10
-121.0457076761156
 20
284.4682125074961
 30
0.0
 11
-121.3957076761155
 21
284.4682125074961
 31
0.0
  0
LINE
  5
7D9D
330
18
100
AcDbEntity
  8
0
100
AcDbLine
 10
-121.3957076761155
 20
284.4682125074961
 30
0.0
 11
-121.3957076761155
 21
283.4932125074962
 31
0.0
  0
LINE
  5
7D9E
330
18
100
AcDbEntity
  8
0
100
AcDbLine
 10
-121.3957076761155
 20
283.4932125074962
 30
0.0
 11
-121.0457076761156
 21
283.4932125074962
 31
0.0
  0
LINE
  5
7D9F
330
18
100
AcDbEntity
  8
0
100
AcDbLine
 10
-121.0457076761156
 20
283.4932125074962
 30
0.0
 11
-121.0457076761156
 21
284.4682125074961
 31
0.0
  0
LINE
  5
7DA0
330
18
100
AcDbEntity
  8
0
100
AcDbLine
 10
-124.1707076761156
 20
287.3182125074962
 30
0.0
 11
-123.8207076761156
 21
287.3182125074962
 31
0.0
  0
LINE
  5
7DA1
330
18
100
AcDbEntity
  8
0
100
AcDbLine
 10
-123.8207076761156
 20
287.0682125074962
 30
0.0
 11
-124.1707076761156
 21
287.0682125074962
 31
0.0
  0
LINE
  5
7DA2
330
18
100
AcDbEntity
  8
0
100
AcDbLine
 10
-124.1707076761156
 20
287.0682125074962
 30
0.0
 11
-124.1707076761156
 21
286.0932125074961
 31
0.0
  0
LINE
  5
7DA3
330
18
100
AcDbEntity
  8
0
100
AcDbLine
 10
-124.1707076761156
 20
286.0932125074961
 30
0.0
 11
-123.8207076761156
 21
286.0932125074961
 31
0.0
  0
LINE
  5
7DA4
330
18
100
AcDbEntity
  8
0
100
AcDbLine
 10
-123.8207076761156
 20
286.0932125074961
 30
0.0
 11
-123.8207076761156
 21
287.0682125074962
 31
0.0
  0
LINE
  5
7DA5
330
18
100
AcDbEntity
  8
0
100
AcDbLine
 10
-123.8207076761156
 20
285.7932125074961
 30
0.0
 11
-124.1707076761156
 21
285.7932125074961
 31
0.0
  0
LINE
  5
7DA6
330
18
100
AcDbEntity
  8
0
100
AcDbLine
 10
-124.1707076761156
 20
285.7932125074961
 30
0.0
 11
-124.1707076761156
 21
284.843212507496
 31
0.0
  0
LINE
  5
7DA7
330
18
100
AcDbEntity
  8
0
100
AcDbLine
 10
-124.1707076761156
 20
284.843212507496
 30
0.0
 11
-123.8207076761156
 21
284.843212507496
 31
0.0
  0
LINE
  5
7DA8
330
18
100
AcDbEntity
  8
0
100
AcDbLine
 10
-123.8207076761156
 20
284.843212507496
 30
0.0
 11
-123.8207076761156
 21
285.7932125074961
 31
0.0
  0
LINE
  5
7DA9
330
18
100
AcDbEntity
  8
0
100
AcDbLine
 10
-123.8207076761156
 20
284.4682125074961
 30
0.0
 11
-124.1707076761156
 21
284.4682125074961
 31
0.0
  0
LINE
  5
7DAA
330
18
100
AcDbEntity
  8
0
100
AcDbLine
 10
-124.1707076761156
 20
284.4682125074961
 30
0.0
 11
-124.1707076761156
 21
283.4932125074962
 31
0.0
  0
LINE
  5
7DAB
330
18
100
AcDbEntity
  8
0
100
AcDbLine
 10
-124.1707076761156
 20
283.4932125074962
 30
0.0
 11
-123.8207076761156
 21
283.4932125074962
 31
0.0
  0
LINE
  5
7DAC
330
18
100
AcDbEntity
  8
0
100
AcDbLine
 10
-123.8207076761156
 20
283.4932125074962
 30
0.0
 11
-123.8207076761156
 21
284.4682125074961
 31
0.0
  0
LINE
  5
7DAD
330
18
100
AcDbEntity
  8
0
100
AcDbLine
 10
-121.0707076761156
 20
278.3682125074962
 30
0.0
 11
-121.4207076761156
 21
278.3682125074962
 31
0.0
  0
LINE
  5
7DAE
330
18
100
AcDbEntity
  8
0
100
AcDbLine
 10
-121.0457076761156
 20
283.1932125074962
 30
0.0
 11
-121.3957076761155
 21
283.1932125074962
 31
0.0
  0
LINE
  5
7DAF
330
18
100
AcDbEntity
  8
0
100
AcDbLine
 10
-121.3957076761155
 20
283.1932125074962
 30
0.0
 11
-121.3957076761155
 21
282.2182125074961
 31
0.0
  0
LINE
  5
7DB0
330
18
100
AcDbEntity
  8
0
100
AcDbLine
 10
-121.3957076761155
 20
282.2182125074961
 30
0.0
 11
-121.0457076761156
 21
282.2182125074961
 31
0.0
  0
LINE
  5
7DB1
330
18
100
AcDbEntity
  8
0
100
AcDbLine
 10
-121.0457076761156
 20
282.2182125074961
 30
0.0
 11
-121.0457076761156
 21
283.1932125074962
 31
0.0
  0
LINE
  5
7DB2
330
18
100
AcDbEntity
  8
0
100
AcDbLine
 10
-121.0457076761156
 20
282.018212507496
 30
0.0
 11
-121.3957076761155
 21
282.018212507496
 31
0.0
  0
LINE
  5
7DB3
330
18
100
AcDbEntity
  8
0
100
AcDbLine
 10
-121.3957076761155
 20
282.018212507496
 30
0.0
 11
-121.3957076761155
 21
281.0432125074961
 31
0.0
  0
LINE
  5
7DB4
330
18
100
AcDbEntity
  8
0
100
AcDbLine
 10
-121.3957076761155
 20
281.0432125074961
 30
0.0
 11
-121.0457076761156
 21
281.0432125074961
 31
0.0
  0
LINE
  5
7DB5
330
18
100
AcDbEntity
  8
0
100
AcDbLine
 10
-121.0457076761156
 20
281.0432125074961
 30
0.0
 11
-121.0457076761156
 21
282.018212507496
 31
0.0
  0
LINE
  5
7DB6
330
18
100
AcDbEntity
  8
0
100
AcDbLine
 10
-121.0457076761156
 20
280.768212507496
 30
0.0
 11
-121.3957076761155
 21
280.768212507496
 31
0.0
  0
LINE
  5
7DB7
330
18
100
AcDbEntity
  8
0
100
AcDbLine
 10
-121.3957076761155
 20
280.768212507496
 30
0.0
 11
-121.3957076761155
 21
279.7932125074961
 31
0.0
  0
LINE
  5
7DB8
330
18
100
AcDbEntity
  8
0
100
AcDbLine
 10
-121.3957076761155
 20
279.7932125074961
 30
0.0
 11
-121.0457076761156
 21
279.7932125074961
 31
0.0
  0
LINE
  5
7DB9
330
18
100
AcDbEntity
  8
0
100
AcDbLine
 10
-121.0457076761156
 20
279.7932125074961
 30
0.0
 11
-121.0457076761156
 21
280.768212507496
 31
0.0
  0
LINE
  5
7DBA
330
18
100
AcDbEntity
  8
0
100
AcDbLine
 10
-121.0707076761156
 20
279.5682125074962
 30
0.0
 11
-121.4207076761156
 21
279.5682125074962
 31
0.0
  0
LINE
  5
7DBB
330
18
100
AcDbEntity
  8
0
100
AcDbLine
 10
-121.4207076761156
 20
279.5682125074962
 30
0.0
 11
-121.4207076761156
 21
278.593212507496
 31
0.0
  0
LINE
  5
7DBC
330
18
100
AcDbEntity
  8
0
100
AcDbLine
 10
-121.4207076761156
 20
278.593212507496
 30
0.0
 11
-121.0707076761156
 21
278.593212507496
 31
0.0
  0
LINE
  5
7DBD
330
18
100
AcDbEntity
  8
0
100
AcDbLine
 10
-121.0707076761156
 20
278.593212507496
 30
0.0
 11
-121.0707076761156
 21
279.5682125074962
 31
0.0
  0
LINE
  5
7DBE
330
18
100
AcDbEntity
  8
0
100
AcDbLine
 10
-121.4207076761156
 20
277.393212507496
 30
0.0
 11
-121.0707076761156
 21
277.393212507496
 31
0.0
  0
LINE
  5
7DBF
330
18
100
AcDbEntity
  8
0
100
AcDbLine
 10
-121.0707076761156
 20
277.1932125074962
 30
0.0
 11
-121.4207076761156
 21
277.1932125074962
 31
0.0
  0
LINE
  5
7DC0
330
18
100
AcDbEntity
  8
0
100
AcDbLine
 10
-121.4207076761156
 20
278.3682125074962
 30
0.0
 11
-121.4207076761156
 21
277.393212507496
 31
0.0
  0
LINE
  5
7DC1
330
18
100
AcDbEntity
  8
0
100
AcDbLine
 10
-121.0707076761156
 20
277.393212507496
 30
0.0
 11
-121.0707076761156
 21
278.3682125074962
 31
0.0
  0
LINE
  5
7DC2
330
18
100
AcDbEntity
  8
0
100
AcDbLine
 10
-123.8457076761155
 20
278.3682125074962
 30
0.0
 11
-124.1957076761156
 21
278.3682125074962
 31
0.0
  0
LINE
  5
7DC3
330
18
100
AcDbEntity
  8
0
100
AcDbLine
 10
-123.8207076761156
 20
283.1932125074962
 30
0.0
 11
-124.1707076761156
 21
283.1932125074962
 31
0.0
  0
LINE
  5
7DC4
330
18
100
AcDbEntity
  8
0
100
AcDbLine
 10
-124.1707076761156
 20
283.1932125074962
 30
0.0
 11
-124.1707076761156
 21
282.2182125074961
 31
0.0
  0
LINE
  5
7DC5
330
18
100
AcDbEntity
  8
0
100
AcDbLine
 10
-124.1707076761156
 20
282.2182125074961
 30
0.0
 11
-123.8207076761156
 21
282.2182125074961
 31
0.0
  0
LINE
  5
7DC6
330
18
100
AcDbEntity
  8
0
100
AcDbLine
 10
-123.8207076761156
 20
282.2182125074961
 30
0.0
 11
-123.8207076761156
 21
283.1932125074962
 31
0.0
  0
LINE
  5
7DC7
330
18
100
AcDbEntity
  8
0
100
AcDbLine
 10
-123.8207076761156
 20
282.018212507496
 30
0.0
 11
-124.1707076761156
 21
282.018212507496
 31
0.0
  0
LINE
  5
7DC8
330
18
100
AcDbEntity
  8
0
100
AcDbLine
 10
-124.1707076761156
 20
282.018212507496
 30
0.0
 11
-124.1707076761156
 21
281.0432125074961
 31
0.0
  0
LINE
  5
7DC9
330
18
100
AcDbEntity
  8
0
100
AcDbLine
 10
-124.1707076761156
 20
281.0432125074961
 30
0.0
 11
-123.8207076761156
 21
281.0432125074961
 31
0.0
  0
LINE
  5
7DCA
330
18
100
AcDbEntity
  8
0
100
AcDbLine
 10
-123.8207076761156
 20
281.0432125074961
 30
0.0
 11
-123.8207076761156
 21
282.018212507496
 31
0.0
  0
LINE
  5
7DCB
330
18
100
AcDbEntity
  8
0
100
AcDbLine
 10
-123.8207076761156
 20
280.768212507496
 30
0.0
 11
-124.1707076761156
 21
280.768212507496
 31
0.0
  0
LINE
  5
7DCC
330
18
100
AcDbEntity
  8
0
100
AcDbLine
 10
-124.1707076761156
 20
280.768212507496
 30
0.0
 11
-124.1707076761156
 21
279.7932125074961
 31
0.0
  0
LINE
  5
7DCD
330
18
100
AcDbEntity
  8
0
100
AcDbLine
 10
-124.1707076761156
 20
279.7932125074961
 30
0.0
 11
-123.8207076761156
 21
279.7932125074961
 31
0.0
  0
LINE
  5
7DCE
330
18
100
AcDbEntity
  8
0
100
AcDbLine
 10
-123.8207076761156
 20
279.7932125074961
 30
0.0
 11
-123.8207076761156
 21
280.768212507496
 31
0.0
  0
LINE
  5
7DCF
330
18
100
AcDbEntity
  8
0
100
AcDbLine
 10
-123.8457076761155
 20
279.5682125074962
 30
0.0
 11
-124.1957076761156
 21
279.5682125074962
 31
0.0
  0
LINE
  5
7DD0
330
18
100
AcDbEntity
  8
0
100
AcDbLine
 10
-124.1957076761156
 20
279.5682125074962
 30
0.0
 11
-124.1957076761156
 21
278.593212507496
 31
0.0
  0
LINE
  5
7DD1
330
18
100
AcDbEntity
  8
0
100
AcDbLine
 10
-124.1957076761156
 20
278.593212507496
 30
0.0
 11
-123.8457076761155
 21
278.593212507496
 31
0.0
  0
LINE
  5
7DD2
330
18
100
AcDbEntity
  8
0
100
AcDbLine
 10
-123.8457076761155
 20
278.593212507496
 30
0.0
 11
-123.8457076761155
 21
279.5682125074962
 31
0.0
  0
LINE
  5
7DD3
330
18
100
AcDbEntity
  8
0
100
AcDbLine
 10
-124.1957076761156
 20
277.393212507496
 30
0.0
 11
-123.8457076761155
 21
277.393212507496
 31
0.0
  0
LINE
  5
7DD4
330
18
100
AcDbEntity
  8
0
100
AcDbLine
 10
-123.8457076761155
 20
277.1932125074962
 30
0.0
 11
-124.1957076761156
 21
277.1932125074962
 31
0.0
  0
LINE
  5
7DD5
330
18
100
AcDbEntity
  8
0
100
AcDbLine
 10
-124.1957076761156
 20
278.3682125074962
 30
0.0
 11
-124.1957076761156
 21
277.393212507496
 31
0.0
  0
LINE
  5
7DD6
330
18
100
AcDbEntity
  8
0
100
AcDbLine
 10
-123.8457076761155
 20
277.393212507496
 30
0.0
 11
-123.8457076761155
 21
278.3682125074962
 31
0.0
  0
LINE
  5
7DD7
330
18
100
AcDbEntity
  8
0
100
AcDbLine
 10
-121.0707076761156
 20
272.4682125074961
 30
0.0
 11
-121.4207076761156
 21
272.4682125074961
 31
0.0
  0
LINE
  5
7DD8
330
18
100
AcDbEntity
  8
0
100
AcDbLine
 10
-121.4207076761156
 20
276.2182125074961
 30
0.0
 11
-121.0707076761156
 21
276.2182125074961
 31
0.0
  0
LINE
  5
7DD9
330
18
100
AcDbEntity
  8
0
100
AcDbLine
 10
-121.0707076761156
 20
275.9932125074961
 30
0.0
 11
-121.4207076761156
 21
275.9932125074961
 31
0.0
  0
LINE
  5
7DDA
330
18
100
AcDbEntity
  8
0
100
AcDbLine
 10
-121.4207076761156
 20
275.9932125074961
 30
0.0
 11
-121.4207076761156
 21
275.018212507496
 31
0.0
  0
LINE
  5
7DDB
330
18
100
AcDbEntity
  8
0
100
AcDbLine
 10
-121.4207076761156
 20
275.018212507496
 30
0.0
 11
-121.0707076761156
 21
275.018212507496
 31
0.0
  0
LINE
  5
7DDC
330
18
100
AcDbEntity
  8
0
100
AcDbLine
 10
-121.0707076761156
 20
275.018212507496
 30
0.0
 11
-121.0707076761156
 21
275.9932125074961
 31
0.0
  0
LINE
  5
7DDD
330
18
100
AcDbEntity
  8
0
100
AcDbLine
 10
-121.0707076761156
 20
274.8182125074962
 30
0.0
 11
-121.4207076761156
 21
274.8182125074962
 31
0.0
  0
LINE
  5
7DDE
330
18
100
AcDbEntity
  8
0
100
AcDbLine
 10
-121.4207076761156
 20
274.8182125074962
 30
0.0
 11
-121.4207076761156
 21
273.8432125074961
 31
0.0
  0
LINE
  5
7DDF
330
18
100
AcDbEntity
  8
0
100
AcDbLine
 10
-121.4207076761156
 20
273.8432125074961
 30
0.0
 11
-121.0707076761156
 21
273.8432125074961
 31
0.0
  0
LINE
  5
7DE0
330
18
100
AcDbEntity
  8
0
100
AcDbLine
 10
-121.0707076761156
 20
273.8432125074961
 30
0.0
 11
-121.0707076761156
 21
274.8182125074962
 31
0.0
  0
LINE
  5
7DE1
330
18
100
AcDbEntity
  8
0
100
AcDbLine
 10
-121.0707076761156
 20
273.643212507496
 30
0.0
 11
-121.4207076761156
 21
273.643212507496
 31
0.0
  0
LINE
  5
7DE2
330
18
100
AcDbEntity
  8
0
100
AcDbLine
 10
-121.4207076761156
 20
273.643212507496
 30
0.0
 11
-121.4207076761156
 21
272.6682125074961
 31
0.0
  0
LINE
  5
7DE3
330
18
100
AcDbEntity
  8
0
100
AcDbLine
 10
-121.4207076761156
 20
272.6682125074961
 30
0.0
 11
-121.0707076761156
 21
272.6682125074961
 31
0.0
  0
LINE
  5
7DE4
330
18
100
AcDbEntity
  8
0
100
AcDbLine
 10
-121.0707076761156
 20
272.6682125074961
 30
0.0
 11
-121.0707076761156
 21
273.643212507496
 31
0.0
  0
LINE
  5
7DE5
330
18
100
AcDbEntity
  8
0
100
AcDbLine
 10
-123.8457076761155
 20
272.4682125074961
 30
0.0
 11
-124.1957076761156
 21
272.4682125074961
 31
0.0
  0
LINE
  5
7DE6
330
18
100
AcDbEntity
  8
0
100
AcDbLine
 10
-124.1957076761156
 20
276.2182125074961
 30
0.0
 11
-123.8457076761155
 21
276.2182125074961
 31
0.0
  0
LINE
  5
7DE7
330
18
100
AcDbEntity
  8
0
100
AcDbLine
 10
-123.8457076761155
 20
275.9932125074961
 30
0.0
 11
-124.1957076761156
 21
275.9932125074961
 31
0.0
  0
LINE
  5
7DE8
330
18
100
AcDbEntity
  8
0
100
AcDbLine
 10
-124.1957076761156
 20
275.9932125074961
 30
0.0
 11
-124.1957076761156
 21
275.018212507496
 31
0.0
  0
LINE
  5
7DE9
330
18
100
AcDbEntity
  8
0
100
AcDbLine
 10
-124.1957076761156
 20
275.018212507496
 30
0.0
 11
-123.8457076761155
 21
275.018212507496
 31
0.0
  0
LINE
  5
7DEA
330
18
100
AcDbEntity
  8
0
100
AcDbLine
 10
-123.8457076761155
 20
275.018212507496
 30
0.0
 11
-123.8457076761155
 21
275.9932125074961
 31
0.0
  0
LINE
  5
7DEB
330
18
100
AcDbEntity
  8
0
100
AcDbLine
 10
-123.8457076761155
 20
274.8182125074962
 30
0.0
 11
-124.1957076761156
 21
274.8182125074962
 31
0.0
  0
LINE
  5
7DEC
330
18
100
AcDbEntity
  8
0
100
AcDbLine
 10
-124.1957076761156
 20
274.8182125074962
 30
0.0
 11
-124.1957076761156
 21
273.8432125074961
 31
0.0
  0
LINE
  5
7DED
330
18
100
AcDbEntity
  8
0
100
AcDbLine
 10
-124.1957076761156
 20
273.8432125074961
 30
0.0
 11
-123.8457076761155
 21
273.8432125074961
 31
0.0
  0
LINE
  5
7DEE
330
18
100
AcDbEntity
  8
0
100
AcDbLine
 10
-123.8457076761155
 20
273.8432125074961
 30
0.0
 11
-123.8457076761155
 21
274.8182125074962
 31
0.0
  0
LINE
  5
7DEF
330
18
100
AcDbEntity
  8
0
100
AcDbLine
 10
-123.8457076761155
 20
273.643212507496
 30
0.0
 11
-124.1957076761156
 21
273.643212507496
 31
0.0
  0
LINE
  5
7DF0
330
18
100
AcDbEntity
  8
0
100
AcDbLine
 10
-124.1957076761156
 20
273.643212507496
 30
0.0
 11
-124.1957076761156
 21
272.6682125074961
 31
0.0
  0
LINE
  5
7DF1
330
18
100
AcDbEntity
  8
0
100
AcDbLine
 10
-124.1957076761156
 20
272.6682125074961
 30
0.0
 11
-123.8457076761155
 21
272.6682125074961
 31
0.0
  0
LINE
  5
7DF2
330
18
100
AcDbEntity
  8
0
100
AcDbLine
 10
-123.8457076761155
 20
272.6682125074961
 30
0.0
 11
-123.8457076761155
 21
273.643212507496
 31
0.0
  0
LINE
  5
7DF3
330
18
100
AcDbEntity
  8
0
100
AcDbLine
 10
-121.4207076761156
 20
277.1932125074962
 30
0.0
 11
-121.4207076761156
 21
276.2182125074961
 31
0.0
  0
LINE
  5
7DF4
330
18
100
AcDbEntity
  8
0
100
AcDbLine
 10
-121.0707076761156
 20
276.2182125074961
 30
0.0
 11
-121.0707076761156
 21
277.1932125074962
 31
0.0
  0
LINE
  5
7DF5
330
18
100
AcDbEntity
  8
0
100
AcDbLine
 10
-124.1957076761156
 20
277.1932125074962
 30
0.0
 11
-124.1957076761156
 21
276.2182125074961
 31
0.0
  0
LINE
  5
7DF6
330
18
100
AcDbEntity
  8
0
100
AcDbLine
 10
-123.8457076761155
 20
276.2182125074961
 30
0.0
 11
-123.8457076761155
 21
277.1932125074962
 31
0.0
  0
LINE
  5
7DF7
330
18
100
AcDbEntity
  8
0
100
AcDbLine
 10
-121.4207076761156
 20
271.4932125074962
 30
0.0
 11
-121.0707076761156
 21
271.4932125074962
 31
0.0
  0
LINE
  5
7DF8
330
18
100
AcDbEntity
  8
0
100
AcDbLine
 10
-121.0707076761156
 20
271.268212507496
 30
0.0
 11
-121.4207076761156
 21
271.268212507496
 31
0.0
  0
LINE
  5
7DF9
330
18
100
AcDbEntity
  8
0
100
AcDbLine
 10
-124.1957076761156
 20
271.4932125074962
 30
0.0
 11
-123.8457076761155
 21
271.4932125074962
 31
0.0
  0
LINE
  5
7DFA
330
18
100
AcDbEntity
  8
0
100
AcDbLine
 10
-123.8457076761155
 20
271.268212507496
 30
0.0
 11
-124.1957076761156
 21
271.268212507496
 31
0.0
  0
LINE
  5
7DFB
330
18
100
AcDbEntity
  8
0
100
AcDbLine
 10
-121.4207076761156
 20
270.2932125074961
 30
0.0
 11
-121.0707076761156
 21
270.2932125074961
 31
0.0
  0
LINE
  5
7DFC
330
18
100
AcDbEntity
  8
0
100
AcDbLine
 10
-121.0707076761156
 20
270.0432125074961
 30
0.0
 11
-121.4207076761156
 21
270.0432125074961
 31
0.0
  0
LINE
  5
7DFD
330
18
100
AcDbEntity
  8
0
100
AcDbLine
 10
-124.1957076761156
 20
270.2932125074961
 30
0.0
 11
-123.8457076761155
 21
270.2932125074961
 31
0.0
  0
LINE
  5
7DFE
330
18
100
AcDbEntity
  8
0
100
AcDbLine
 10
-123.8457076761155
 20
270.0432125074961
 30
0.0
 11
-124.1957076761156
 21
270.0432125074961
 31
0.0
  0
LINE
  5
7DFF
330
18
100
AcDbEntity
  8
0
100
AcDbLine
 10
-121.4207076761156
 20
271.268212507496
 30
0.0
 11
-121.4207076761156
 21
270.2932125074961
 31
0.0
  0
LINE
  5
7E00
330
18
100
AcDbEntity
  8
0
100
AcDbLine
 10
-121.0707076761156
 20
270.2932125074961
 30
0.0
 11
-121.0707076761156
 21
271.268212507496
 31
0.0
  0
LINE
  5
7E01
330
18
100
AcDbEntity
  8
0
100
AcDbLine
 10
-124.1957076761156
 20
271.268212507496
 30
0.0
 11
-124.1957076761156
 21
270.2932125074961
 31
0.0
  0
LINE
  5
7E02
330
18
100
AcDbEntity
  8
0
100
AcDbLine
 10
-123.8457076761155
 20
270.2932125074961
 30
0.0
 11
-123.8457076761155
 21
271.268212507496
 31
0.0
  0
LINE
  5
7E03
330
18
100
AcDbEntity
  8
0
100
AcDbLine
 10
-121.4207076761156
 20
269.0682125074962
 30
0.0
 11
-121.0707076761156
 21
269.0682125074962
 31
0.0
  0
LINE
  5
7E04
330
18
100
AcDbEntity
  8
0
100
AcDbLine
 10
-121.0707076761156
 20
268.8182125074962
 30
0.0
 11
-121.4207076761156
 21
268.8182125074962
 31
0.0
  0
LINE
  5
7E05
330
18
100
AcDbEntity
  8
0
100
AcDbLine
 10
-124.1957076761156
 20
269.0682125074962
 30
0.0
 11
-123.8457076761155
 21
269.0682125074962
 31
0.0
  0
LINE
  5
7E06
330
18
100
AcDbEntity
  8
0
100
AcDbLine
 10
-123.8457076761155
 20
268.8182125074962
 30
0.0
 11
-124.1957076761156
 21
268.8182125074962
 31
0.0
  0
LINE
  5
7E07
330
18
100
AcDbEntity
  8
0
100
AcDbLine
 10
-121.4207076761156
 20
270.0432125074961
 30
0.0
 11
-121.4207076761156
 21
269.0682125074962
 31
0.0
  0
LINE
  5
7E08
330
18
100
AcDbEntity
  8
0
100
AcDbLine
 10
-121.0707076761156
 20
269.0682125074962
 30
0.0
 11
-121.0707076761156
 21
270.0432125074961
 31
0.0
  0
LINE
  5
7E09
330
18
100
AcDbEntity
  8
0
100
AcDbLine
 10
-124.1957076761156
 20
270.0432125074961
 30
0.0
 11
-124.1957076761156
 21
269.0682125074962
 31
0.0
  0
LINE
  5
7E0A
330
18
100
AcDbEntity
  8
0
100
AcDbLine
 10
-123.8457076761155
 20
269.0682125074962
 30
0.0
 11
-123.8457076761155
 21
270.0432125074961
 31
0.0
  0
LINE
  5
7E0B
330
18
100
AcDbEntity
  8
0
100
AcDbLine
 10
-121.4207076761156
 20
272.4682125074961
 30
0.0
 11
-121.4207076761156
 21
271.4932125074962
 31
0.0
  0
LINE
  5
7E0C
330
18
100
AcDbEntity
  8
0
100
AcDbLine
 10
-121.0707076761156
 20
271.4932125074962
 30
0.0
 11
-121.0707076761156
 21
272.4682125074961
 31
0.0
  0
LINE
  5
7E0D
330
18
100
AcDbEntity
  8
0
100
AcDbLine
 10
-124.1957076761156
 20
272.4682125074961
 30
0.0
 11
-124.1957076761156
 21
271.4932125074962
 31
0.0
  0
LINE
  5
7E0E
330
18
100
AcDbEntity
  8
0
100
AcDbLine
 10
-123.8457076761155
 20
271.4932125074962
 30
0.0
 11
-123.8457076761155
 21
272.4682125074961
 31
0.0
  0
LINE
  5
7E0F
330
18
100
AcDbEntity
  8
0
100
AcDbLine
 10
-127.1957076761156
 20
333.9182125074961
 30
0.0
 11
-127.1957076761156
 21
300.593212507496
 31
0.0
  0
LINE
  5
7E10
330
18
100
AcDbEntity
  8
0
100
AcDbLine
 10
-117.9707076761155
 20
300.593212507496
 30
0.0
 11
-117.9707076761155
 21
333.9182125074961
 31
0.0
  0
LINE
  5
7E11
330
18
100
AcDbEntity
  8
0
100
AcDbLine
 10
-124.2707076761155
 20
304.768212507496
 30
0.0
 11
-126.3957076761155
 21
304.768212507496
 31
0.0
  0
LINE
  5
7E12
330
18
100
AcDbEntity
  8
0
100
AcDbLine
 10
-118.7707076761155
 20
306.843212507496
 30
0.0
 11
-126.3957076761155
 21
306.843212507496
 31
0.0
  0
LINE
  5
7E13
330
18
100
AcDbEntity
  8
0
100
AcDbLine
 10
-124.2707076761155
 20
296.3182125074962
 30
0.0
 11
-126.3957076761155
 21
296.3182125074962
 31
0.0
  0
LINE
  5
7E14
330
18
100
AcDbEntity
  8
0
100
AcDbLine
 10
-127.1957076761156
 20
300.593212507496
 30
0.0
 11
-117.9707076761155
 21
300.593212507496
 31
0.0
  0
LINE
  5
7E15
330
18
100
AcDbEntity
  8
0
100
AcDbLine
 10
-117.9707076761155
 20
299.9182125074961
 30
0.0
 11
-127.1957076761156
 21
299.9182125074961
 31
0.0
  0
LINE
  5
7E16
330
18
100
AcDbEntity
  8
0
100
AcDbLine
 10
-118.7707076761155
 20
294.2432125074962
 30
0.0
 11
-126.3957076761155
 21
294.2432125074962
 31
0.0
  0
LINE
  5
7E17
330
18
100
AcDbEntity
  8
0
100
AcDbLine
 10
-126.3957076761155
 20
304.768212507496
 30
0.0
 11
-126.3957076761155
 21
306.843212507496
 31
0.0
  0
LINE
  5
7E18
330
18
100
AcDbEntity
  8
0
100
AcDbLine
 10
-126.3957076761155
 20
296.3182125074962
 30
0.0
 11
-126.3957076761155
 21
294.2432125074962
 31
0.0
  0
LINE
  5
7E19
330
18
100
AcDbEntity
  8
0
100
AcDbLine
 10
-125.6457076761155
 20
325.4432125074961
 30
0.0
 11
-125.6457076761155
 21
309.343212507496
 31
0.0
  0
LINE
  5
7E1A
330
18
100
AcDbEntity
  8
0
100
AcDbLine
 10
-118.7707076761155
 20
304.768212507496
 30
0.0
 11
-118.7707076761155
 21
306.843212507496
 31
0.0
  0
LINE
  5
7E1B
330
18
100
AcDbEntity
  8
0
100
AcDbLine
 10
-120.6957076761156
 20
304.7432125074961
 30
0.0
 11
-120.6957076761156
 21
305.718212507496
 31
0.0
  0
LINE
  5
7E1C
330
18
100
AcDbEntity
  8
0
100
AcDbLine
 10
-118.7707076761155
 20
304.768212507496
 30
0.0
 11
-120.6957076761156
 21
304.768212507496
 31
0.0
  0
LINE
  5
7E1D
330
18
100
AcDbEntity
  8
0
100
AcDbLine
 10
-124.2707076761155
 20
304.768212507496
 30
0.0
 11
-124.2707076761155
 21
305.7432125074961
 31
0.0
  0
LINE
  5
7E1E
330
18
100
AcDbEntity
  8
0
100
AcDbLine
 10
-120.6957076761156
 20
305.7432125074961
 30
0.0
 11
-124.2707076761155
 21
305.7432125074961
 31
0.0
  0
LINE
  5
7E1F
330
18
100
AcDbEntity
  8
0
100
AcDbLine
 10
-118.7707076761155
 20
296.3182125074962
 30
0.0
 11
-120.6957076761156
 21
296.3182125074962
 31
0.0
  0
LINE
  5
7E20
330
18
100
AcDbEntity
  8
0
100
AcDbLine
 10
-120.6957076761156
 20
295.343212507496
 30
0.0
 11
-124.2707076761155
 21
295.343212507496
 31
0.0
  0
LINE
  5
7E21
330
18
100
AcDbEntity
  8
0
100
AcDbLine
 10
-120.6957076761156
 20
296.3432125074961
 30
0.0
 11
-120.6957076761156
 21
295.3682125074962
 31
0.0
  0
LINE
  5
7E22
330
18
100
AcDbEntity
  8
0
100
AcDbLine
 10
-124.2707076761155
 20
296.3182125074962
 30
0.0
 11
-124.2707076761155
 21
295.343212507496
 31
0.0
  0
LINE
  5
7E23
330
18
100
AcDbEntity
  8
0
100
AcDbLine
 10
-118.7707076761155
 20
296.3182125074962
 30
0.0
 11
-118.7707076761155
 21
294.2432125074962
 31
0.0
  0
LINE
  5
7E24
330
18
100
AcDbEntity
  8
0
100
AcDbLine
 10
-121.0457076761156
 20
289.5682125074962
 30
0.0
 11
-121.3957076761155
 21
289.5682125074962
 31
0.0
  0
LINE
  5
7E25
330
18
100
AcDbEntity
  8
0
100
AcDbLine
 10
-121.3957076761155
 20
289.5682125074962
 30
0.0
 11
-121.3957076761155
 21
288.5682125074962
 31
0.0
  0
LINE
  5
7E26
330
18
100
AcDbEntity
  8
0
100
AcDbLine
 10
-121.3957076761155
 20
288.5682125074962
 30
0.0
 11
-121.0457076761156
 21
288.5682125074962
 31
0.0
  0
LINE
  5
7E27
330
18
100
AcDbEntity
  8
0
100
AcDbLine
 10
-121.0457076761156
 20
288.5682125074962
 30
0.0
 11
-121.0457076761156
 21
289.5682125074962
 31
0.0
  0
LINE
  5
7E28
330
18
100
AcDbEntity
  8
0
100
AcDbLine
 10
-121.0457076761156
 20
288.2932125074961
 30
0.0
 11
-121.3957076761155
 21
288.2932125074961
 31
0.0
  0
LINE
  5
7E29
330
18
100
AcDbEntity
  8
0
100
AcDbLine
 10
-123.8207076761156
 20
289.5682125074962
 30
0.0
 11
-124.1707076761156
 21
289.5682125074962
 31
0.0
  0
LINE
  5
7E2A
330
18
100
AcDbEntity
  8
0
100
AcDbLine
 10
-124.1707076761156
 20
289.5682125074962
 30
0.0
 11
-124.1707076761156
 21
288.5682125074962
 31
0.0
  0
LINE
  5
7E2B
330
18
100
AcDbEntity
  8
0
100
AcDbLine
 10
-124.1707076761156
 20
288.5682125074962
 30
0.0
 11
-123.8207076761156
 21
288.5682125074962
 31
0.0
  0
LINE
  5
7E2C
330
18
100
AcDbEntity
  8
0
100
AcDbLine
 10
-123.8207076761156
 20
288.5682125074962
 30
0.0
 11
-123.8207076761156
 21
289.5682125074962
 31
0.0
  0
LINE
  5
7E2D
330
18
100
AcDbEntity
  8
0
100
AcDbLine
 10
-123.8207076761156
 20
288.2932125074961
 30
0.0
 11
-124.1707076761156
 21
288.2932125074961
 31
0.0
  0
LINE
  5
7E2E
330
18
100
AcDbEntity
  8
0
100
AcDbLine
 10
-120.4457076761155
 20
291.6932125074962
 30
0.0
 11
-124.1457076761155
 21
292.6182125074962
 31
0.0
  0
LINE
  5
7E2F
330
18
100
AcDbEntity
  8
0
100
AcDbLine
 10
-121.0457076761156
 20
323.5682125074962
 30
0.0
 11
-121.3957076761155
 21
323.5682125074962
 31
0.0
  0
LINE
  5
7E30
330
18
100
AcDbEntity
  8
0
100
AcDbLine
 10
-121.3957076761155
 20
322.5682125074961
 30
0.0
 11
-121.0457076761156
 21
322.5682125074961
 31
0.0
  0
LINE
  5
7E31
330
18
100
AcDbEntity
  8
0
100
AcDbLine
 10
-121.0457076761156
 20
322.2932125074961
 30
0.0
 11
-121.3957076761155
 21
322.2932125074961
 31
0.0
  0
LINE
  5
7E32
330
18
100
AcDbEntity
  8
0
100
AcDbLine
 10
-121.3957076761155
 20
323.5682125074962
 30
0.0
 11
-121.3957076761155
 21
322.5682125074961
 31
0.0
  0
LINE
  5
7E33
330
18
100
AcDbEntity
  8
0
100
AcDbLine
 10
-121.0457076761156
 20
322.5682125074961
 30
0.0
 11
-121.0457076761156
 21
323.5682125074962
 31
0.0
  0
LINE
  5
7E34
330
18
100
AcDbEntity
  8
0
100
AcDbLine
 10
-123.8207076761156
 20
323.5682125074962
 30
0.0
 11
-124.1707076761156
 21
323.5682125074962
 31
0.0
  0
LINE
  5
7E35
330
18
100
AcDbEntity
  8
0
100
AcDbLine
 10
-124.1707076761156
 20
322.5682125074961
 30
0.0
 11
-123.8207076761156
 21
322.5682125074961
 31
0.0
  0
LINE
  5
7E36
330
18
100
AcDbEntity
  8
0
100
AcDbLine
 10
-123.8207076761156
 20
322.2932125074961
 30
0.0
 11
-124.1707076761156
 21
322.2932125074961
 31
0.0
  0
LINE
  5
7E37
330
18
100
AcDbEntity
  8
0
100
AcDbLine
 10
-124.1707076761156
 20
323.5682125074962
 30
0.0
 11
-124.1707076761156
 21
322.5682125074961
 31
0.0
  0
LINE
  5
7E38
330
18
100
AcDbEntity
  8
0
100
AcDbLine
 10
-123.8207076761156
 20
322.5682125074961
 30
0.0
 11
-123.8207076761156
 21
323.5682125074962
 31
0.0
  0
LINE
  5
7E39
330
18
100
AcDbEntity
  8
0
100
AcDbLine
 10
-120.4457076761155
 20
325.6932125074961
 30
0.0
 11
-124.1457076761155
 21
326.6182125074961
 31
0.0
  0
LINE
  5
7E3A
330
18
100
AcDbEntity
  8
0
100
AcDbLine
 10
-121.3957076761155
 20
321.3182125074961
 30
0.0
 11
-121.0457076761156
 21
321.3182125074961
 31
0.0
  0
LINE
  5
7E3B
330
18
100
AcDbEntity
  8
0
100
AcDbLine
 10
-121.0457076761156
 20
321.0682125074961
 30
0.0
 11
-121.3957076761155
 21
321.0682125074961
 31
0.0
  0
LINE
  5
7E3C
330
18
100
AcDbEntity
  8
0
100
AcDbLine
 10
-124.1707076761156
 20
321.3182125074961
 30
0.0
 11
-123.8207076761156
 21
321.3182125074961
 31
0.0
  0
LINE
  5
7E3D
330
18
100
AcDbEntity
  8
0
100
AcDbLine
 10
-123.8207076761156
 20
321.0682125074961
 30
0.0
 11
-124.1707076761156
 21
321.0682125074961
 31
0.0
  0
LINE
  5
7E3E
330
18
100
AcDbEntity
  8
0
100
AcDbLine
 10
-121.3957076761155
 20
322.2932125074961
 30
0.0
 11
-121.3957076761155
 21
321.3182125074961
 31
0.0
  0
LINE
  5
7E3F
330
18
100
AcDbEntity
  8
0
100
AcDbLine
 10
-121.0457076761156
 20
321.3182125074961
 30
0.0
 11
-121.0457076761156
 21
322.2932125074961
 31
0.0
  0
LINE
  5
7E40
330
18
100
AcDbEntity
  8
0
100
AcDbLine
 10
-124.1707076761156
 20
322.2932125074961
 30
0.0
 11
-124.1707076761156
 21
321.3182125074961
 31
0.0
  0
LINE
  5
7E41
330
18
100
AcDbEntity
  8
0
100
AcDbLine
 10
-123.8207076761156
 20
321.3182125074961
 30
0.0
 11
-123.8207076761156
 21
322.2932125074961
 31
0.0
  0
LINE
  5
7E42
330
18
100
AcDbEntity
  8
0
100
AcDbLine
 10
-121.0457076761156
 20
317.1932125074961
 30
0.0
 11
-121.3957076761155
 21
317.1932125074961
 31
0.0
  0
LINE
  5
7E43
330
18
100
AcDbEntity
  8
0
100
AcDbLine
 10
-121.3957076761155
 20
320.093212507496
 30
0.0
 11
-121.0457076761156
 21
320.093212507496
 31
0.0
  0
LINE
  5
7E44
330
18
100
AcDbEntity
  8
0
100
AcDbLine
 10
-121.0457076761156
 20
319.793212507496
 30
0.0
 11
-121.3957076761155
 21
319.793212507496
 31
0.0
  0
LINE
  5
7E45
330
18
100
AcDbEntity
  8
0
100
AcDbLine
 10
-121.3957076761155
 20
319.793212507496
 30
0.0
 11
-121.3957076761155
 21
318.843212507496
 31
0.0
  0
LINE
  5
7E46
330
18
100
AcDbEntity
  8
0
100
AcDbLine
 10
-121.3957076761155
 20
318.843212507496
 30
0.0
 11
-121.0457076761156
 21
318.843212507496
 31
0.0
  0
LINE
  5
7E47
330
18
100
AcDbEntity
  8
0
100
AcDbLine
 10
-121.0457076761156
 20
318.843212507496
 30
0.0
 11
-121.0457076761156
 21
319.793212507496
 31
0.0
  0
LINE
  5
7E48
330
18
100
AcDbEntity
  8
0
100
AcDbLine
 10
-121.0457076761156
 20
318.468212507496
 30
0.0
 11
-121.3957076761155
 21
318.468212507496
 31
0.0
  0
LINE
  5
7E49
330
18
100
AcDbEntity
  8
0
100
AcDbLine
 10
-121.3957076761155
 20
318.468212507496
 30
0.0
 11
-121.3957076761155
 21
317.4932125074961
 31
0.0
  0
LINE
  5
7E4A
330
18
100
AcDbEntity
  8
0
100
AcDbLine
 10
-121.3957076761155
 20
317.4932125074961
 30
0.0
 11
-121.0457076761156
 21
317.4932125074961
 31
0.0
  0
LINE
  5
7E4B
330
18
100
AcDbEntity
  8
0
100
AcDbLine
 10
-121.0457076761156
 20
317.4932125074961
 30
0.0
 11
-121.0457076761156
 21
318.468212507496
 31
0.0
  0
LINE
  5
7E4C
330
18
100
AcDbEntity
  8
0
100
AcDbLine
 10
-121.3957076761155
 20
316.218212507496
 30
0.0
 11
-121.0457076761156
 21
316.218212507496
 31
0.0
  0
LINE
  5
7E4D
330
18
100
AcDbEntity
  8
0
100
AcDbLine
 10
-121.0457076761156
 20
316.0182125074959
 30
0.0
 11
-121.3957076761155
 21
316.0182125074959
 31
0.0
  0
LINE
  5
7E4E
330
18
100
AcDbEntity
  8
0
100
AcDbLine
 10
-121.3957076761155
 20
317.1932125074961
 30
0.0
 11
-121.3957076761155
 21
316.218212507496
 31
0.0
  0
LINE
  5
7E4F
330
18
100
AcDbEntity
  8
0
100
AcDbLine
 10
-121.0457076761156
 20
316.218212507496
 30
0.0
 11
-121.0457076761156
 21
317.1932125074961
 31
0.0
  0
LINE
  5
7E50
330
18
100
AcDbEntity
  8
0
100
AcDbLine
 10
-123.8207076761156
 20
317.1932125074961
 30
0.0
 11
-124.1707076761156
 21
317.1932125074961
 31
0.0
  0
LINE
  5
7E51
330
18
100
AcDbEntity
  8
0
100
AcDbLine
 10
-124.1707076761156
 20
320.093212507496
 30
0.0
 11
-123.8207076761156
 21
320.093212507496
 31
0.0
  0
LINE
  5
7E52
330
18
100
AcDbEntity
  8
0
100
AcDbLine
 10
-123.8207076761156
 20
319.793212507496
 30
0.0
 11
-124.1707076761156
 21
319.793212507496
 31
0.0
  0
LINE
  5
7E53
330
18
100
AcDbEntity
  8
0
100
AcDbLine
 10
-124.1707076761156
 20
319.793212507496
 30
0.0
 11
-124.1707076761156
 21
318.843212507496
 31
0.0
  0
LINE
  5
7E54
330
18
100
AcDbEntity
  8
0
100
AcDbLine
 10
-124.1707076761156
 20
318.843212507496
 30
0.0
 11
-123.8207076761156
 21
318.843212507496
 31
0.0
  0
LINE
  5
7E55
330
18
100
AcDbEntity
  8
0
100
AcDbLine
 10
-123.8207076761156
 20
318.843212507496
 30
0.0
 11
-123.8207076761156
 21
319.793212507496
 31
0.0
  0
LINE
  5
7E56
330
18
100
AcDbEntity
  8
0
100
AcDbLine
 10
-123.8207076761156
 20
318.468212507496
 30
0.0
 11
-124.1707076761156
 21
318.468212507496
 31
0.0
  0
LINE
  5
7E57
330
18
100
AcDbEntity
  8
0
100
AcDbLine
 10
-124.1707076761156
 20
318.468212507496
 30
0.0
 11
-124.1707076761156
 21
317.4932125074961
 31
0.0
  0
LINE
  5
7E58
330
18
100
AcDbEntity
  8
0
100
AcDbLine
 10
-124.1707076761156
 20
317.4932125074961
 30
0.0
 11
-123.8207076761156
 21
317.4932125074961
 31
0.0
  0
LINE
  5
7E59
330
18
100
AcDbEntity
  8
0
100
AcDbLine
 10
-123.8207076761156
 20
317.4932125074961
 30
0.0
 11
-123.8207076761156
 21
318.468212507496
 31
0.0
  0
LINE
  5
7E5A
330
18
100
AcDbEntity
  8
0
100
AcDbLine
 10
-124.1707076761156
 20
316.218212507496
 30
0.0
 11
-123.8207076761156
 21
316.218212507496
 31
0.0
  0
LINE
  5
7E5B
330
18
100
AcDbEntity
  8
0
100
AcDbLine
 10
-123.8207076761156
 20
316.0182125074959
 30
0.0
 11
-124.1707076761156
 21
316.0182125074959
 31
0.0
  0
LINE
  5
7E5C
330
18
100
AcDbEntity
  8
0
100
AcDbLine
 10
-124.1707076761156
 20
317.1932125074961
 30
0.0
 11
-124.1707076761156
 21
316.218212507496
 31
0.0
  0
LINE
  5
7E5D
330
18
100
AcDbEntity
  8
0
100
AcDbLine
 10
-123.8207076761156
 20
316.218212507496
 30
0.0
 11
-123.8207076761156
 21
317.1932125074961
 31
0.0
  0
LINE
  5
7E5E
330
18
100
AcDbEntity
  8
0
100
AcDbLine
 10
-121.3957076761155
 20
315.043212507496
 30
0.0
 11
-121.0457076761156
 21
315.043212507496
 31
0.0
  0
LINE
  5
7E5F
330
18
100
AcDbEntity
  8
0
100
AcDbLine
 10
-121.0457076761156
 20
314.768212507496
 30
0.0
 11
-121.3957076761155
 21
314.768212507496
 31
0.0
  0
LINE
  5
7E60
330
18
100
AcDbEntity
  8
0
100
AcDbLine
 10
-121.3957076761155
 20
314.768212507496
 30
0.0
 11
-121.3957076761155
 21
313.7932125074961
 31
0.0
  0
LINE
  5
7E61
330
18
100
AcDbEntity
  8
0
100
AcDbLine
 10
-121.3957076761155
 20
313.7932125074961
 30
0.0
 11
-121.0457076761156
 21
313.7932125074961
 31
0.0
  0
LINE
  5
7E62
330
18
100
AcDbEntity
  8
0
100
AcDbLine
 10
-121.0457076761156
 20
313.7932125074961
 30
0.0
 11
-121.0457076761156
 21
314.768212507496
 31
0.0
  0
LINE
  5
7E63
330
18
100
AcDbEntity
  8
0
100
AcDbLine
 10
-121.0707076761156
 20
313.5682125074962
 30
0.0
 11
-121.4207076761156
 21
313.5682125074962
 31
0.0
  0
LINE
  5
7E64
330
18
100
AcDbEntity
  8
0
100
AcDbLine
 10
-121.4207076761156
 20
313.5682125074962
 30
0.0
 11
-121.4207076761156
 21
312.593212507496
 31
0.0
  0
LINE
  5
7E65
330
18
100
AcDbEntity
  8
0
100
AcDbLine
 10
-121.4207076761156
 20
312.593212507496
 30
0.0
 11
-121.0707076761156
 21
312.593212507496
 31
0.0
  0
LINE
  5
7E66
330
18
100
AcDbEntity
  8
0
100
AcDbLine
 10
-121.0707076761156
 20
312.593212507496
 30
0.0
 11
-121.0707076761156
 21
313.5682125074962
 31
0.0
  0
LINE
  5
7E67
330
18
100
AcDbEntity
  8
0
100
AcDbLine
 10
-121.0707076761156
 20
312.3682125074961
 30
0.0
 11
-121.4207076761156
 21
312.3682125074961
 31
0.0
  0
LINE
  5
7E68
330
18
100
AcDbEntity
  8
0
100
AcDbLine
 10
-124.1707076761156
 20
315.043212507496
 30
0.0
 11
-123.8207076761156
 21
315.043212507496
 31
0.0
  0
LINE
  5
7E69
330
18
100
AcDbEntity
  8
0
100
AcDbLine
 10
-123.8207076761156
 20
314.768212507496
 30
0.0
 11
-124.1707076761156
 21
314.768212507496
 31
0.0
  0
LINE
  5
7E6A
330
18
100
AcDbEntity
  8
0
100
AcDbLine
 10
-124.1707076761156
 20
314.768212507496
 30
0.0
 11
-124.1707076761156
 21
313.7932125074961
 31
0.0
  0
LINE
  5
7E6B
330
18
100
AcDbEntity
  8
0
100
AcDbLine
 10
-124.1707076761156
 20
313.7932125074961
 30
0.0
 11
-123.8207076761156
 21
313.7932125074961
 31
0.0
  0
LINE
  5
7E6C
330
18
100
AcDbEntity
  8
0
100
AcDbLine
 10
-123.8207076761156
 20
313.7932125074961
 30
0.0
 11
-123.8207076761156
 21
314.768212507496
 31
0.0
  0
LINE
  5
7E6D
330
18
100
AcDbEntity
  8
0
100
AcDbLine
 10
-123.8457076761155
 20
313.5682125074962
 30
0.0
 11
-124.1957076761156
 21
313.5682125074962
 31
0.0
  0
LINE
  5
7E6E
330
18
100
AcDbEntity
  8
0
100
AcDbLine
 10
-124.1957076761156
 20
313.5682125074962
 30
0.0
 11
-124.1957076761156
 21
312.593212507496
 31
0.0
  0
LINE
  5
7E6F
330
18
100
AcDbEntity
  8
0
100
AcDbLine
 10
-124.1957076761156
 20
312.593212507496
 30
0.0
 11
-123.8457076761155
 21
312.593212507496
 31
0.0
  0
LINE
  5
7E70
330
18
100
AcDbEntity
  8
0
100
AcDbLine
 10
-123.8457076761155
 20
312.593212507496
 30
0.0
 11
-123.8457076761155
 21
313.5682125074962
 31
0.0
  0
LINE
  5
7E71
330
18
100
AcDbEntity
  8
0
100
AcDbLine
 10
-123.8457076761155
 20
312.3682125074961
 30
0.0
 11
-124.1957076761156
 21
312.3682125074961
 31
0.0
  0
LINE
  5
7E72
330
18
100
AcDbEntity
  8
0
100
AcDbLine
 10
-121.3957076761155
 20
316.0182125074959
 30
0.0
 11
-121.3957076761155
 21
315.043212507496
 31
0.0
  0
LINE
  5
7E73
330
18
100
AcDbEntity
  8
0
100
AcDbLine
 10
-121.0457076761156
 20
315.043212507496
 30
0.0
 11
-121.0457076761156
 21
316.0182125074959
 31
0.0
  0
LINE
  5
7E74
330
18
100
AcDbEntity
  8
0
100
AcDbLine
 10
-124.1707076761156
 20
316.0182125074959
 30
0.0
 11
-124.1707076761156
 21
315.043212507496
 31
0.0
  0
LINE
  5
7E75
330
18
100
AcDbEntity
  8
0
100
AcDbLine
 10
-123.8207076761156
 20
315.043212507496
 30
0.0
 11
-123.8207076761156
 21
316.0182125074959
 31
0.0
  0
LINE
  5
7E76
330
18
100
AcDbEntity
  8
0
100
AcDbLine
 10
-121.3957076761155
 20
321.0682125074961
 30
0.0
 11
-121.3957076761155
 21
320.093212507496
 31
0.0
  0
LINE
  5
7E77
330
18
100
AcDbEntity
  8
0
100
AcDbLine
 10
-121.0457076761156
 20
320.093212507496
 30
0.0
 11
-121.0457076761156
 21
321.0682125074961
 31
0.0
  0
LINE
  5
7E78
330
18
100
AcDbEntity
  8
0
100
AcDbLine
 10
-124.1707076761156
 20
321.0682125074961
 30
0.0
 11
-124.1707076761156
 21
320.093212507496
 31
0.0
  0
LINE
  5
7E79
330
18
100
AcDbEntity
  8
0
100
AcDbLine
 10
-123.8207076761156
 20
320.093212507496
 30
0.0
 11
-123.8207076761156
 21
321.0682125074961
 31
0.0
  0
LINE
  5
7E7A
330
18
100
AcDbEntity
  8
0
100
AcDbLine
 10
-121.4207076761156
 20
311.393212507496
 30
0.0
 11
-121.0707076761156
 21
311.393212507496
 31
0.0
  0
LINE
  5
7E7B
330
18
100
AcDbEntity
  8
0
100
AcDbLine
 10
-124.1957076761156
 20
311.393212507496
 30
0.0
 11
-123.8457076761155
 21
311.393212507496
 31
0.0
  0
LINE
  5
7E7C
330
18
100
AcDbEntity
  8
0
100
AcDbLine
 10
-124.1457076761155
 20
308.268212507496
 30
0.0
 11
-120.4457076761155
 21
309.2432125074961
 31
0.0
  0
LINE
  5
7E7D
330
18
100
AcDbEntity
  8
0
100
AcDbLine
 10
-121.4207076761156
 20
312.3682125074961
 30
0.0
 11
-121.4207076761156
 21
311.393212507496
 31
0.0
  0
LINE
  5
7E7E
330
18
100
AcDbEntity
  8
0
100
AcDbLine
 10
-121.0707076761156
 20
311.393212507496
 30
0.0
 11
-121.0707076761156
 21
312.3682125074961
 31
0.0
  0
LINE
  5
7E7F
330
18
100
AcDbEntity
  8
0
100
AcDbLine
 10
-124.1957076761156
 20
312.3682125074961
 30
0.0
 11
-124.1957076761156
 21
311.393212507496
 31
0.0
  0
LINE
  5
7E80
330
18
100
AcDbEntity
  8
0
100
AcDbLine
 10
-123.8457076761155
 20
311.393212507496
 30
0.0
 11
-123.8457076761155
 21
312.3682125074961
 31
0.0
  0
LWPOLYLINE
  5
7E81
330
18
100
AcDbEntity
  8
0
100
AcDbPolyline
 90
        4
 70
     1
 43
0.0
 10
-120.6957076761155
 20
324.593212507496
 10
-124.3957076761155
 20
324.593212507496
 10
-124.3957076761155
 20
310.4432125074962
 10
-120.6957076761155
 20
310.4432125074962
  0
LINE
  5
7E82
330
18
100
AcDbEntity
  8
0
100
AcDbLine
 10
-119.5207076761155
 20
310.393212507496
 30
0.0
 11
-119.5207076761155
 21
324.5182125074959
 31
0.0
  0
LINE
  5
7E83
330
18
100
AcDbEntity
  8
0
100
AcDbLine
 10
-118.7707076761155
 20
355.018212507496
 30
0.0
 11
-126.3957076761155
 21
355.018212507496
 31
0.0
  0
LINE
  5
7E84
330
18
100
AcDbEntity
  8
0
100
AcDbLine
 10
-124.2707076761155
 20
352.9432125074961
 30
0.0
 11
-126.3957076761155
 21
352.9432125074961
 31
0.0
  0
LINE
  5
7E85
330
18
100
AcDbEntity
  8
0
100
AcDbLine
 10
-127.1957076761156
 20
348.7432125074961
 30
0.0
 11
-117.9707076761155
 21
348.7432125074961
 31
0.0
  0
LINE
  5
7E86
330
18
100
AcDbEntity
  8
0
100
AcDbLine
 10
-133.9707076761155
 20
347.418212507496
 30
0.0
 11
-118.9707076761155
 21
347.418212507496
 31
0.0
  0
LINE
  5
7E87
330
18
100
AcDbEntity
  8
0
100
AcDbLine
 10
-117.9707076761155
 20
333.9182125074961
 30
0.0
 11
-127.1957076761156
 21
333.9182125074961
 31
0.0
  0
LINE
  5
7E88
330
18
100
AcDbEntity
  8
0
100
AcDbLine
 10
-118.9707076761155
 20
334.4182125074961
 30
0.0
 11
-133.9707076761155
 21
334.4182125074961
 31
0.0
  0
LINE
  5
7E89
330
18
100
AcDbEntity
  8
0
100
AcDbLine
 10
-124.2707076761155
 20
330.3182125074962
 30
0.0
 11
-126.3957076761155
 21
330.3182125074962
 31
0.0
  0
LINE
  5
7E8A
330
18
100
AcDbEntity
  8
0
100
AcDbLine
 10
-118.7707076761155
 20
328.2432125074961
 30
0.0
 11
-126.3957076761155
 21
328.2432125074961
 31
0.0
  0
LINE
  5
7E8B
330
18
100
AcDbEntity
  8
0
100
AcDbLine
 10
-124.9707076761155
 20
347.418212507496
 30
0.0
 11
-124.9707076761155
 21
334.4182125074961
 31
0.0
  0
LINE
  5
7E8C
330
18
100
AcDbEntity
  8
0
100
AcDbLine
 10
-127.9707076761155
 20
347.418212507496
 30
0.0
 11
-127.9707076761155
 21
334.4182125074961
 31
0.0
  0
LINE
  5
7E8D
330
18
100
AcDbEntity
  8
0
100
AcDbLine
 10
-130.9707076761155
 20
346.4182125074961
 30
0.0
 11
-130.9707076761155
 21
335.418212507496
 31
0.0
  0
LINE
  5
7E8E
330
18
100
AcDbEntity
  8
0
100
AcDbLine
 10
-134.3707076761155
 20
346.4182125074961
 30
0.0
 11
-134.3707076761155
 21
342.4182125074961
 31
0.0
  0
LINE
  5
7E90
330
18
100
AcDbEntity
  8
0
100
AcDbLine
 10
-133.9707076761155
 20
334.4182125074961
 30
0.0
 11
-133.9707076761155
 21
347.418212507496
 31
0.0
  0
LINE
  5
7E91
330
18
100
AcDbEntity
  8
0
100
AcDbLine
 10
-132.9707076761155
 20
335.418212507496
 30
0.0
 11
-132.9707076761155
 21
346.4182125074961
 31
0.0
  0
LINE
  5
7E92
330
18
100
AcDbEntity
  8
0
100
AcDbLine
 10
-130.9707076761155
 20
335.418212507496
 30
0.0
 11
-132.9707076761155
 21
335.418212507496
 31
0.0
  0
LINE
  5
7E93
330
18
100
AcDbEntity
  8
0
100
AcDbLine
 10
-132.9707076761155
 20
334.068212507496
 30
0.0
 11
-128.9707076761155
 21
334.068212507496
 31
0.0
  0
LINE
  5
7E95
330
18
100
AcDbEntity
  8
0
100
AcDbLine
 10
-134.3707076761155
 20
335.418212507496
 30
0.0
 11
-134.3707076761155
 21
339.418212507496
 31
0.0
  0
LINE
  5
7E96
330
18
100
AcDbEntity
  8
0
100
AcDbLine
 10
-130.4207076761156
 20
345.418212507496
 30
0.0
 11
-130.4207076761156
 21
344.4182125074961
 31
0.0
  0
LINE
  5
7E97
330
18
100
AcDbEntity
  8
0
100
AcDbLine
 10
-130.4207076761156
 20
344.4182125074961
 30
0.0
 11
-130.9707076761155
 21
344.4182125074961
 31
0.0
  0
LINE
  5
7E98
330
18
100
AcDbEntity
  8
0
100
AcDbLine
 10
-130.9707076761155
 20
344.4182125074961
 30
0.0
 11
-130.9707076761155
 21
345.418212507496
 31
0.0
  0
LINE
  5
7E99
330
18
100
AcDbEntity
  8
0
100
AcDbLine
 10
-130.9707076761155
 20
345.418212507496
 30
0.0
 11
-130.4207076761156
 21
345.418212507496
 31
0.0
  0
LINE
  5
7E9A
330
18
100
AcDbEntity
  8
0
100
AcDbLine
 10
-130.4207076761156
 20
343.0182125074961
 30
0.0
 11
-130.4207076761156
 21
342.0182125074961
 31
0.0
  0
LINE
  5
7E9B
330
18
100
AcDbEntity
  8
0
100
AcDbLine
 10
-130.4207076761156
 20
342.0182125074961
 30
0.0
 11
-130.9707076761155
 21
342.0182125074961
 31
0.0
  0
LINE
  5
7E9C
330
18
100
AcDbEntity
  8
0
100
AcDbLine
 10
-130.9707076761155
 20
342.0182125074961
 30
0.0
 11
-130.9707076761155
 21
343.0182125074961
 31
0.0
  0
LINE
  5
7E9D
330
18
100
AcDbEntity
  8
0
100
AcDbLine
 10
-130.9707076761155
 20
343.0182125074961
 30
0.0
 11
-130.4207076761156
 21
343.0182125074961
 31
0.0
  0
LINE
  5
7E9E
330
18
100
AcDbEntity
  8
0
100
AcDbLine
 10
-130.4207076761156
 20
339.818212507496
 30
0.0
 11
-130.4207076761156
 21
338.818212507496
 31
0.0
  0
LINE
  5
7E9F
330
18
100
AcDbEntity
  8
0
100
AcDbLine
 10
-130.4207076761156
 20
338.818212507496
 30
0.0
 11
-130.9707076761155
 21
338.818212507496
 31
0.0
  0
LINE
  5
7EA0
330
18
100
AcDbEntity
  8
0
100
AcDbLine
 10
-130.9707076761155
 20
338.818212507496
 30
0.0
 11
-130.9707076761155
 21
339.818212507496
 31
0.0
  0
LINE
  5
7EA1
330
18
100
AcDbEntity
  8
0
100
AcDbLine
 10
-130.9707076761155
 20
339.818212507496
 30
0.0
 11
-130.4207076761156
 21
339.818212507496
 31
0.0
  0
LINE
  5
7EA2
330
18
100
AcDbEntity
  8
0
100
AcDbLine
 10
-130.4207076761156
 20
337.418212507496
 30
0.0
 11
-130.4207076761156
 21
336.4182125074961
 31
0.0
  0
LINE
  5
7EA3
330
18
100
AcDbEntity
  8
0
100
AcDbLine
 10
-130.4207076761156
 20
336.4182125074961
 30
0.0
 11
-130.9707076761155
 21
336.4182125074961
 31
0.0
  0
LINE
  5
7EA4
330
18
100
AcDbEntity
  8
0
100
AcDbLine
 10
-130.9707076761155
 20
336.4182125074961
 30
0.0
 11
-130.9707076761155
 21
337.418212507496
 31
0.0
  0
LINE
  5
7EA5
330
18
100
AcDbEntity
  8
0
100
AcDbLine
 10
-130.9707076761155
 20
337.418212507496
 30
0.0
 11
-130.4207076761156
 21
337.418212507496
 31
0.0
  0
LINE
  5
7EA6
330
18
100
AcDbEntity
  8
0
100
AcDbLine
 10
-126.3957076761155
 20
330.3182125074962
 30
0.0
 11
-126.3957076761155
 21
328.2432125074961
 31
0.0
  0
LINE
  5
7EA7
330
18
100
AcDbEntity
  8
0
100
AcDbLine
 10
-132.9707076761155
 20
347.843212507496
 30
0.0
 11
-128.9707076761155
 21
347.843212507496
 31
0.0
  0
LINE
  5
7EA9
330
18
100
AcDbEntity
  8
0
100
AcDbLine
 10
-132.9707076761155
 20
346.4182125074961
 30
0.0
 11
-130.9707076761155
 21
346.4182125074961
 31
0.0
  0
LINE
  5
7EAA
330
18
100
AcDbEntity
  8
0
100
AcDbLine
 10
-126.3957076761155
 20
352.9432125074961
 30
0.0
 11
-126.3957076761155
 21
355.018212507496
 31
0.0
  0
LINE
  5
7EAB
330
18
100
AcDbEntity
  8
0
100
AcDbLine
 10
-118.5707076761156
 20
346.4182125074961
 30
0.0
 11
-118.5707076761156
 21
342.4182125074961
 31
0.0
  0
LINE
  5
7EAC
330
18
100
AcDbEntity
  8
0
100
AcDbLine
 10
-118.9707076761155
 20
347.418212507496
 30
0.0
 11
-118.9707076761155
 21
334.4182125074961
 31
0.0
  0
LINE
  5
7EAD
330
18
100
AcDbEntity
  8
0
100
AcDbLine
 10
-121.9707076761155
 20
346.4182125074961
 30
0.0
 11
-121.9707076761155
 21
335.418212507496
 31
0.0
  0
LINE
  5
7EAE
330
18
100
AcDbEntity
  8
0
100
AcDbLine
 10
-123.9707076761155
 20
335.418212507496
 30
0.0
 11
-123.9707076761155
 21
346.4182125074961
 31
0.0
  0
LINE
  5
7EAF
330
18
100
AcDbEntity
  8
0
100
AcDbLine
 10
-121.4207076761156
 20
345.418212507496
 30
0.0
 11
-121.4207076761156
 21
344.4182125074961
 31
0.0
  0
LINE
  5
7EB0
330
18
100
AcDbEntity
  8
0
100
AcDbLine
 10
-121.4207076761156
 20
344.4182125074961
 30
0.0
 11
-121.9707076761155
 21
344.4182125074961
 31
0.0
  0
LINE
  5
7EB1
330
18
100
AcDbEntity
  8
0
100
AcDbLine
 10
-121.9707076761155
 20
344.4182125074961
 30
0.0
 11
-121.9707076761155
 21
345.418212507496
 31
0.0
  0
LINE
  5
7EB2
330
18
100
AcDbEntity
  8
0
100
AcDbLine
 10
-121.9707076761155
 20
345.418212507496
 30
0.0
 11
-121.4207076761156
 21
345.418212507496
 31
0.0
  0
LINE
  5
7EB3
330
18
100
AcDbEntity
  8
0
100
AcDbLine
 10
-121.4207076761156
 20
343.0182125074961
 30
0.0
 11
-121.4207076761156
 21
342.0182125074961
 31
0.0
  0
LINE
  5
7EB4
330
18
100
AcDbEntity
  8
0
100
AcDbLine
 10
-121.4207076761156
 20
342.0182125074961
 30
0.0
 11
-121.9707076761155
 21
342.0182125074961
 31
0.0
  0
LINE
  5
7EB5
330
18
100
AcDbEntity
  8
0
100
AcDbLine
 10
-121.9707076761155
 20
342.0182125074961
 30
0.0
 11
-121.9707076761155
 21
343.0182125074961
 31
0.0
  0
LINE
  5
7EB6
330
18
100
AcDbEntity
  8
0
100
AcDbLine
 10
-121.9707076761155
 20
343.0182125074961
 30
0.0
 11
-121.4207076761156
 21
343.0182125074961
 31
0.0
  0
LINE
  5
7EB7
330
18
100
AcDbEntity
  8
0
100
AcDbLine
 10
-121.4207076761156
 20
339.818212507496
 30
0.0
 11
-121.4207076761156
 21
338.818212507496
 31
0.0
  0
LINE
  5
7EB8
330
18
100
AcDbEntity
  8
0
100
AcDbLine
 10
-121.4207076761156
 20
338.818212507496
 30
0.0
 11
-121.9707076761155
 21
338.818212507496
 31
0.0
  0
LINE
  5
7EB9
330
18
100
AcDbEntity
  8
0
100
AcDbLine
 10
-121.9707076761155
 20
338.818212507496
 30
0.0
 11
-121.9707076761155
 21
339.818212507496
 31
0.0
  0
LINE
  5
7EBA
330
18
100
AcDbEntity
  8
0
100
AcDbLine
 10
-121.9707076761155
 20
339.818212507496
 30
0.0
 11
-121.4207076761156
 21
339.818212507496
 31
0.0
  0
LINE
  5
7EBB
330
18
100
AcDbEntity
  8
0
100
AcDbLine
 10
-121.4207076761156
 20
337.418212507496
 30
0.0
 11
-121.4207076761156
 21
336.4182125074961
 31
0.0
  0
LINE
  5
7EBC
330
18
100
AcDbEntity
  8
0
100
AcDbLine
 10
-121.4207076761156
 20
336.4182125074961
 30
0.0
 11
-121.9707076761155
 21
336.4182125074961
 31
0.0
  0
LINE
  5
7EBD
330
18
100
AcDbEntity
  8
0
100
AcDbLine
 10
-121.9707076761155
 20
336.4182125074961
 30
0.0
 11
-121.9707076761155
 21
337.418212507496
 31
0.0
  0
LINE
  5
7EBE
330
18
100
AcDbEntity
  8
0
100
AcDbLine
 10
-121.9707076761155
 20
337.418212507496
 30
0.0
 11
-121.4207076761156
 21
337.418212507496
 31
0.0
  0
LINE
  5
7EBF
330
18
100
AcDbEntity
  8
0
100
AcDbLine
 10
-118.5707076761156
 20
335.418212507496
 30
0.0
 11
-118.5707076761156
 21
339.418212507496
 31
0.0
  0
LINE
  5
7EC0
330
18
100
AcDbEntity
  8
0
100
AcDbLine
 10
-121.9707076761155
 20
335.418212507496
 30
0.0
 11
-123.9707076761155
 21
335.418212507496
 31
0.0
  0
LINE
  5
7EC1
330
18
100
AcDbEntity
  8
0
100
AcDbLine
 10
-119.9707076761155
 20
334.068212507496
 30
0.0
 11
-123.9707076761155
 21
334.068212507496
 31
0.0
  0
LINE
  5
7EC2
330
18
100
AcDbEntity
  8
0
100
AcDbLine
 10
-120.6957076761156
 20
330.343212507496
 30
0.0
 11
-120.6957076761156
 21
329.3682125074961
 31
0.0
  0
LINE
  5
7EC3
330
18
100
AcDbEntity
  8
0
100
AcDbLine
 10
-118.7707076761155
 20
330.3182125074962
 30
0.0
 11
-120.6957076761156
 21
330.3182125074962
 31
0.0
  0
LINE
  5
7EC4
330
18
100
AcDbEntity
  8
0
100
AcDbLine
 10
-118.7707076761155
 20
330.3182125074962
 30
0.0
 11
-118.7707076761155
 21
328.2432125074961
 31
0.0
  0
LINE
  5
7EC5
330
18
100
AcDbEntity
  8
0
100
AcDbLine
 10
-124.2707076761155
 20
330.3182125074962
 30
0.0
 11
-124.2707076761155
 21
329.343212507496
 31
0.0
  0
LINE
  5
7EC6
330
18
100
AcDbEntity
  8
0
100
AcDbLine
 10
-120.6957076761156
 20
329.343212507496
 30
0.0
 11
-124.2707076761155
 21
329.343212507496
 31
0.0
  0
LINE
  5
7EC7
330
18
100
AcDbEntity
  8
0
100
AcDbLine
 10
-121.0457076761156
 20
361.1182125074961
 30
0.0
 11
-121.3957076761155
 21
361.1182125074961
 31
0.0
  0
LINE
  5
7EC8
330
18
100
AcDbEntity
  8
0
100
AcDbLine
 10
-121.3957076761155
 20
365.2432125074961
 30
0.0
 11
-121.0457076761156
 21
365.2432125074961
 31
0.0
  0
LINE
  5
7EC9
330
18
100
AcDbEntity
  8
0
100
AcDbLine
 10
-121.0457076761156
 20
364.9932125074961
 30
0.0
 11
-121.3957076761155
 21
364.9932125074961
 31
0.0
  0
LINE
  5
7ECA
330
18
100
AcDbEntity
  8
0
100
AcDbLine
 10
-121.3957076761155
 20
364.9932125074961
 30
0.0
 11
-121.3957076761155
 21
364.0182125074959
 31
0.0
  0
LINE
  5
7ECB
330
18
100
AcDbEntity
  8
0
100
AcDbLine
 10
-121.3957076761155
 20
364.0182125074959
 30
0.0
 11
-121.0457076761156
 21
364.0182125074959
 31
0.0
  0
LINE
  5
7ECC
330
18
100
AcDbEntity
  8
0
100
AcDbLine
 10
-121.0457076761156
 20
364.0182125074959
 30
0.0
 11
-121.0457076761156
 21
364.9932125074961
 31
0.0
  0
LINE
  5
7ECD
330
18
100
AcDbEntity
  8
0
100
AcDbLine
 10
-121.0457076761156
 20
363.718212507496
 30
0.0
 11
-121.3957076761155
 21
363.718212507496
 31
0.0
  0
LINE
  5
7ECE
330
18
100
AcDbEntity
  8
0
100
AcDbLine
 10
-121.3957076761155
 20
363.718212507496
 30
0.0
 11
-121.3957076761155
 21
362.768212507496
 31
0.0
  0
LINE
  5
7ECF
330
18
100
AcDbEntity
  8
0
100
AcDbLine
 10
-121.3957076761155
 20
362.768212507496
 30
0.0
 11
-121.0457076761156
 21
362.768212507496
 31
0.0
  0
LINE
  5
7ED0
330
18
100
AcDbEntity
  8
0
100
AcDbLine
 10
-121.0457076761156
 20
362.768212507496
 30
0.0
 11
-121.0457076761156
 21
363.718212507496
 31
0.0
  0
LINE
  5
7ED1
330
18
100
AcDbEntity
  8
0
100
AcDbLine
 10
-121.0457076761156
 20
362.393212507496
 30
0.0
 11
-121.3957076761155
 21
362.393212507496
 31
0.0
  0
LINE
  5
7ED2
330
18
100
AcDbEntity
  8
0
100
AcDbLine
 10
-121.3957076761155
 20
362.393212507496
 30
0.0
 11
-121.3957076761155
 21
361.4182125074961
 31
0.0
  0
LINE
  5
7ED3
330
18
100
AcDbEntity
  8
0
100
AcDbLine
 10
-121.3957076761155
 20
361.4182125074961
 30
0.0
 11
-121.0457076761156
 21
361.4182125074961
 31
0.0
  0
LINE
  5
7ED4
330
18
100
AcDbEntity
  8
0
100
AcDbLine
 10
-121.0457076761156
 20
361.4182125074961
 30
0.0
 11
-121.0457076761156
 21
362.393212507496
 31
0.0
  0
LINE
  5
7ED5
330
18
100
AcDbEntity
  8
0
100
AcDbLine
 10
-121.3957076761155
 20
360.143212507496
 30
0.0
 11
-121.0457076761156
 21
360.143212507496
 31
0.0
  0
LINE
  5
7ED6
330
18
100
AcDbEntity
  8
0
100
AcDbLine
 10
-121.0457076761156
 20
359.9432125074962
 30
0.0
 11
-121.3957076761155
 21
359.9432125074962
 31
0.0
  0
LINE
  5
7ED7
330
18
100
AcDbEntity
  8
0
100
AcDbLine
 10
-121.3957076761155
 20
361.1182125074961
 30
0.0
 11
-121.3957076761155
 21
360.143212507496
 31
0.0
  0
LINE
  5
7ED8
330
18
100
AcDbEntity
  8
0
100
AcDbLine
 10
-121.0457076761156
 20
360.143212507496
 30
0.0
 11
-121.0457076761156
 21
361.1182125074961
 31
0.0
  0
LINE
  5
7ED9
330
18
100
AcDbEntity
  8
0
100
AcDbLine
 10
-123.8207076761156
 20
361.1182125074961
 30
0.0
 11
-124.1707076761156
 21
361.1182125074961
 31
0.0
  0
LINE
  5
7EDA
330
18
100
AcDbEntity
  8
0
100
AcDbLine
 10
-124.1707076761156
 20
365.2432125074961
 30
0.0
 11
-123.8207076761156
 21
365.2432125074961
 31
0.0
  0
LINE
  5
7EDB
330
18
100
AcDbEntity
  8
0
100
AcDbLine
 10
-123.8207076761156
 20
364.9932125074961
 30
0.0
 11
-124.1707076761156
 21
364.9932125074961
 31
0.0
  0
LINE
  5
7EDC
330
18
100
AcDbEntity
  8
0
100
AcDbLine
 10
-124.1707076761156
 20
364.9932125074961
 30
0.0
 11
-124.1707076761156
 21
364.0182125074959
 31
0.0
  0
LINE
  5
7EDD
330
18
100
AcDbEntity
  8
0
100
AcDbLine
 10
-124.1707076761156
 20
364.0182125074959
 30
0.0
 11
-123.8207076761156
 21
364.0182125074959
 31
0.0
  0
LINE
  5
7EDE
330
18
100
AcDbEntity
  8
0
100
AcDbLine
 10
-123.8207076761156
 20
364.0182125074959
 30
0.0
 11
-123.8207076761156
 21
364.9932125074961
 31
0.0
  0
LINE
  5
7EDF
330
18
100
AcDbEntity
  8
0
100
AcDbLine
 10
-123.8207076761156
 20
363.718212507496
 30
0.0
 11
-124.1707076761156
 21
363.718212507496
 31
0.0
  0
LINE
  5
7EE0
330
18
100
AcDbEntity
  8
0
100
AcDbLine
 10
-124.1707076761156
 20
363.718212507496
 30
0.0
 11
-124.1707076761156
 21
362.768212507496
 31
0.0
  0
LINE
  5
7EE1
330
18
100
AcDbEntity
  8
0
100
AcDbLine
 10
-124.1707076761156
 20
362.768212507496
 30
0.0
 11
-123.8207076761156
 21
362.768212507496
 31
0.0
  0
LINE
  5
7EE2
330
18
100
AcDbEntity
  8
0
100
AcDbLine
 10
-123.8207076761156
 20
362.768212507496
 30
0.0
 11
-123.8207076761156
 21
363.718212507496
 31
0.0
  0
LINE
  5
7EE3
330
18
100
AcDbEntity
  8
0
100
AcDbLine
 10
-123.8207076761156
 20
362.393212507496
 30
0.0
 11
-124.1707076761156
 21
362.393212507496
 31
0.0
  0
LINE
  5
7EE4
330
18
100
AcDbEntity
  8
0
100
AcDbLine
 10
-124.1707076761156
 20
362.393212507496
 30
0.0
 11
-124.1707076761156
 21
361.4182125074961
 31
0.0
  0
LINE
  5
7EE5
330
18
100
AcDbEntity
  8
0
100
AcDbLine
 10
-124.1707076761156
 20
361.4182125074961
 30
0.0
 11
-123.8207076761156
 21
361.4182125074961
 31
0.0
  0
LINE
  5
7EE6
330
18
100
AcDbEntity
  8
0
100
AcDbLine
 10
-123.8207076761156
 20
361.4182125074961
 30
0.0
 11
-123.8207076761156
 21
362.393212507496
 31
0.0
  0
LINE
  5
7EE7
330
18
100
AcDbEntity
  8
0
100
AcDbLine
 10
-124.1707076761156
 20
360.143212507496
 30
0.0
 11
-123.8207076761156
 21
360.143212507496
 31
0.0
  0
LINE
  5
7EE8
330
18
100
AcDbEntity
  8
0
100
AcDbLine
 10
-123.8207076761156
 20
359.9432125074962
 30
0.0
 11
-124.1707076761156
 21
359.9432125074962
 31
0.0
  0
LINE
  5
7EE9
330
18
100
AcDbEntity
  8
0
100
AcDbLine
 10
-124.1707076761156
 20
361.1182125074961
 30
0.0
 11
-124.1707076761156
 21
360.143212507496
 31
0.0
  0
LINE
  5
7EEA
330
18
100
AcDbEntity
  8
0
100
AcDbLine
 10
-123.8207076761156
 20
360.143212507496
 30
0.0
 11
-123.8207076761156
 21
361.1182125074961
 31
0.0
  0
LINE
  5
7EEB
330
18
100
AcDbEntity
  8
0
100
AcDbLine
 10
-121.3957076761155
 20
358.968212507496
 30
0.0
 11
-121.0457076761156
 21
358.968212507496
 31
0.0
  0
LINE
  5
7EEC
330
18
100
AcDbEntity
  8
0
100
AcDbLine
 10
-124.1707076761156
 20
358.968212507496
 30
0.0
 11
-123.8207076761156
 21
358.968212507496
 31
0.0
  0
LINE
  5
7EED
330
18
100
AcDbEntity
  8
0
100
AcDbLine
 10
-124.1457076761155
 20
356.4432125074961
 30
0.0
 11
-120.4457076761155
 21
357.4182125074961
 31
0.0
  0
LINE
  5
7EEE
330
18
100
AcDbEntity
  8
0
100
AcDbLine
 10
-120.6957076761156
 20
353.918212507496
 30
0.0
 11
-124.2707076761155
 21
353.918212507496
 31
0.0
  0
LINE
  5
7EEF
330
18
100
AcDbEntity
  8
0
100
AcDbLine
 10
-121.3957076761155
 20
359.9432125074962
 30
0.0
 11
-121.3957076761155
 21
358.968212507496
 31
0.0
  0
LINE
  5
7EF0
330
18
100
AcDbEntity
  8
0
100
AcDbLine
 10
-121.0457076761156
 20
358.968212507496
 30
0.0
 11
-121.0457076761156
 21
359.9432125074962
 31
0.0
  0
LINE
  5
7EF1
330
18
100
AcDbEntity
  8
0
100
AcDbLine
 10
-124.1707076761156
 20
359.9432125074962
 30
0.0
 11
-124.1707076761156
 21
358.968212507496
 31
0.0
  0
LINE
  5
7EF2
330
18
100
AcDbEntity
  8
0
100
AcDbLine
 10
-123.8207076761156
 20
358.968212507496
 30
0.0
 11
-123.8207076761156
 21
359.9432125074962
 31
0.0
  0
LINE
  5
7EF3
330
18
100
AcDbEntity
  8
0
100
AcDbLine
 10
-118.7707076761155
 20
352.9432125074961
 30
0.0
 11
-120.6957076761156
 21
352.9432125074961
 31
0.0
  0
LINE
  5
7EF4
330
18
100
AcDbEntity
  8
0
100
AcDbLine
 10
-120.6957076761156
 20
352.9182125074961
 30
0.0
 11
-120.6957076761156
 21
353.893212507496
 31
0.0
  0
LINE
  5
7EF5
330
18
100
AcDbEntity
  8
0
100
AcDbLine
 10
-124.2707076761155
 20
352.9432125074961
 30
0.0
 11
-124.2707076761155
 21
353.918212507496
 31
0.0
  0
LINE
  5
7EF6
330
18
100
AcDbEntity
  8
0
100
AcDbLine
 10
-118.7707076761155
 20
352.9432125074961
 30
0.0
 11
-118.7707076761155
 21
355.018212507496
 31
0.0
  0
LINE
  5
7EF7
330
18
100
AcDbEntity
  8
0
100
AcDbLine
 10
-119.9707076761155
 20
347.843212507496
 30
0.0
 11
-123.9707076761155
 21
347.843212507496
 31
0.0
  0
LINE
  5
7EF8
330
18
100
AcDbEntity
  8
0
100
AcDbLine
 10
-123.9707076761155
 20
346.4182125074961
 30
0.0
 11
-121.9707076761155
 21
346.4182125074961
 31
0.0
  0
LINE
  5
7EF9
330
18
100
AcDbEntity
  8
0
100
AcDbLine
 10
-125.4957076761155
 20
393.9182125074961
 30
0.0
 11
-117.9707076761155
 21
393.9182125074961
 31
0.0
  0
LINE
  5
7EFB
330
18
100
AcDbEntity
  8
0
100
AcDbLine
 10
-117.9707076761155
 20
380.9182125074961
 30
0.0
 11
-125.4957076761155
 21
380.9182125074961
 31
0.0
  0
LINE
  5
7EFC
330
18
100
AcDbEntity
  8
0
100
AcDbLine
 10
-124.2707076761155
 20
373.8182125074962
 30
0.0
 11
-126.3957076761155
 21
373.8182125074962
 31
0.0
  0
LINE
  5
7EFD
330
18
100
AcDbEntity
  8
0
100
AcDbLine
 10
-117.9707076761155
 20
377.4182125074961
 30
0.0
 11
-127.1957076761156
 21
377.4182125074961
 31
0.0
  0
LINE
  5
7EFE
330
18
100
AcDbEntity
  8
0
100
AcDbLine
 10
-118.7707076761155
 20
371.7432125074961
 30
0.0
 11
-126.3957076761155
 21
371.7432125074961
 31
0.0
  0
LINE
  5
7EFF
330
18
100
AcDbEntity
  8
0
100
AcDbLine
 10
-125.4957076761155
 20
380.9182125074961
 30
0.0
 11
-125.4957076761155
 21
393.9182125074961
 31
0.0
  0
LINE
  5
7F00
330
18
100
AcDbEntity
  8
0
100
AcDbLine
 10
-126.3957076761155
 20
373.8182125074962
 30
0.0
 11
-126.3957076761155
 21
371.7432125074961
 31
0.0
  0
LINE
  5
7F01
330
18
100
AcDbEntity
  8
0
100
AcDbLine
 10
-124.1457076761155
 20
387.0932125074961
 30
0.0
 11
-124.5457076761156
 21
384.3182125074962
 31
0.0
  0
LINE
  5
7F02
330
18
100
AcDbEntity
  8
0
100
AcDbLine
 10
-123.7207076761155
 20
384.3182125074962
 30
0.0
 11
-123.2957076761156
 21
387.0932125074961
 31
0.0
  0
LINE
  5
7F03
330
18
100
AcDbEntity
  8
0
100
AcDbLine
 10
-120.4707076761155
 20
387.0932125074961
 30
0.0
 11
-120.8957076761155
 21
384.3182125074962
 31
0.0
  0
LINE
  5
7F04
330
18
100
AcDbEntity
  8
0
100
AcDbLine
 10
-120.0707076761156
 20
384.3182125074962
 30
0.0
 11
-119.6207076761155
 21
387.0932125074961
 31
0.0
  0
LINE
  5
7F05
330
18
100
AcDbEntity
  8
0
100
AcDbLine
 10
-117.9707076761155
 20
393.9182125074961
 30
0.0
 11
-117.9707076761155
 21
380.9182125074961
 31
0.0
  0
LINE
  5
7F06
330
18
100
AcDbEntity
  8
0
100
AcDbLine
 10
-121.3207076761156
 20
383.518212507496
 30
0.0
 11
-120.8957076761155
 21
383.9182125074961
 31
0.0
  0
LINE
  5
7F07
330
18
100
AcDbEntity
  8
0
100
AcDbLine
 10
-120.8957076761155
 20
383.9182125074961
 30
0.0
 11
-121.3207076761156
 21
384.3432125074961
 31
0.0
  0
LINE
  5
7F08
330
18
100
AcDbEntity
  8
0
100
AcDbLine
 10
-120.8957076761155
 20
384.3182125074962
 30
0.0
 11
-120.4707076761155
 21
383.9182125074961
 31
0.0
  0
LINE
  5
7F09
330
18
100
AcDbEntity
  8
0
100
AcDbLine
 10
-120.4707076761155
 20
383.9182125074961
 30
0.0
 11
-120.0707076761156
 21
384.3182125074962
 31
0.0
  0
LINE
  5
7F0A
330
18
100
AcDbEntity
  8
0
100
AcDbLine
 10
-123.4207076761156
 20
384.3432125074961
 30
0.0
 11
-123.8707076761155
 21
383.9182125074961
 31
0.0
  0
LINE
  5
7F0B
330
18
100
AcDbEntity
  8
0
100
AcDbLine
 10
-123.8707076761155
 20
383.9182125074961
 30
0.0
 11
-123.4207076761156
 21
383.518212507496
 31
0.0
  0
LINE
  5
7F0C
330
18
100
AcDbEntity
  8
0
100
AcDbLine
 10
-124.5457076761156
 20
384.3182125074962
 30
0.0
 11
-124.1457076761155
 21
383.9182125074961
 31
0.0
  0
LINE
  5
7F0D
330
18
100
AcDbEntity
  8
0
100
AcDbLine
 10
-124.1457076761155
 20
383.9182125074961
 30
0.0
 11
-123.7207076761155
 21
384.3182125074962
 31
0.0
  0
LINE
  5
7F0E
330
18
100
AcDbEntity
  8
0
100
AcDbLine
 10
-123.4207076761156
 20
383.518212507496
 30
0.0
 11
-121.3207076761156
 21
383.518212507496
 31
0.0
  0
LINE
  5
7F0F
330
18
100
AcDbEntity
  8
0
100
AcDbLine
 10
-121.3207076761156
 20
384.3432125074961
 30
0.0
 11
-123.4207076761156
 21
384.3432125074961
 31
0.0
  0
LINE
  5
7F10
330
18
100
AcDbEntity
  8
0
100
AcDbLine
 10
-118.7707076761155
 20
373.8182125074962
 30
0.0
 11
-120.6957076761156
 21
373.8182125074962
 31
0.0
  0
LINE
  5
7F11
330
18
100
AcDbEntity
  8
0
100
AcDbLine
 10
-120.6957076761156
 20
373.843212507496
 30
0.0
 11
-120.6957076761156
 21
372.8682125074961
 31
0.0
  0
LINE
  5
7F12
330
18
100
AcDbEntity
  8
0
100
AcDbLine
 10
-124.2707076761155
 20
373.8182125074962
 30
0.0
 11
-124.2707076761155
 21
372.843212507496
 31
0.0
  0
LINE
  5
7F13
330
18
100
AcDbEntity
  8
0
100
AcDbLine
 10
-120.6957076761156
 20
372.843212507496
 30
0.0
 11
-124.2707076761155
 21
372.843212507496
 31
0.0
  0
LINE
  5
7F14
330
18
100
AcDbEntity
  8
0
100
AcDbLine
 10
-121.0457076761156
 20
367.4932125074961
 30
0.0
 11
-121.3957076761155
 21
367.4932125074961
 31
0.0
  0
LINE
  5
7F15
330
18
100
AcDbEntity
  8
0
100
AcDbLine
 10
-121.3957076761155
 20
366.4932125074961
 30
0.0
 11
-121.0457076761156
 21
366.4932125074961
 31
0.0
  0
LINE
  5
7F16
330
18
100
AcDbEntity
  8
0
100
AcDbLine
 10
-121.3957076761155
 20
367.4932125074961
 30
0.0
 11
-121.3957076761155
 21
366.4932125074961
 31
0.0
  0
LINE
  5
7F17
330
18
100
AcDbEntity
  8
0
100
AcDbLine
 10
-121.0457076761156
 20
366.4932125074961
 30
0.0
 11
-121.0457076761156
 21
367.4932125074961
 31
0.0
  0
LINE
  5
7F18
330
18
100
AcDbEntity
  8
0
100
AcDbLine
 10
-123.8207076761156
 20
367.4932125074961
 30
0.0
 11
-124.1707076761156
 21
367.4932125074961
 31
0.0
  0
LINE
  5
7F19
330
18
100
AcDbEntity
  8
0
100
AcDbLine
 10
-124.1707076761156
 20
366.4932125074961
 30
0.0
 11
-123.8207076761156
 21
366.4932125074961
 31
0.0
  0
LINE
  5
7F1A
330
18
100
AcDbEntity
  8
0
100
AcDbLine
 10
-124.1707076761156
 20
367.4932125074961
 30
0.0
 11
-124.1707076761156
 21
366.4932125074961
 31
0.0
  0
LINE
  5
7F1B
330
18
100
AcDbEntity
  8
0
100
AcDbLine
 10
-123.8207076761156
 20
366.4932125074961
 30
0.0
 11
-123.8207076761156
 21
367.4932125074961
 31
0.0
  0
LINE
  5
7F1C
330
18
100
AcDbEntity
  8
0
100
AcDbLine
 10
-120.4457076761155
 20
369.1932125074961
 30
0.0
 11
-124.1457076761155
 21
370.1182125074961
 31
0.0
  0
LINE
  5
7F1D
330
18
100
AcDbEntity
  8
0
100
AcDbLine
 10
-121.0457076761156
 20
366.218212507496
 30
0.0
 11
-121.3957076761155
 21
366.218212507496
 31
0.0
  0
LINE
  5
7F1E
330
18
100
AcDbEntity
  8
0
100
AcDbLine
 10
-123.8207076761156
 20
366.218212507496
 30
0.0
 11
-124.1707076761156
 21
366.218212507496
 31
0.0
  0
LINE
  5
7F1F
330
18
100
AcDbEntity
  8
0
100
AcDbLine
 10
-118.7707076761155
 20
373.8182125074962
 30
0.0
 11
-118.7707076761155
 21
371.7432125074961
 31
0.0
  0
LINE
  5
7F20
330
18
100
AcDbEntity
  8
0
100
AcDbLine
 10
-122.8707076761155
 20
387.2432125074962
 30
0.0
 11
-120.7707076761155
 21
387.2432125074962
 31
0.0
  0
LINE
  5
7F21
330
18
100
AcDbEntity
  8
0
100
AcDbLine
 10
-120.7707076761155
 20
387.2432125074962
 30
0.0
 11
-120.3707076761155
 21
387.643212507496
 31
0.0
  0
LINE
  5
7F22
330
18
100
AcDbEntity
  8
0
100
AcDbLine
 10
-120.3707076761155
 20
387.643212507496
 30
0.0
 11
-120.7707076761155
 21
388.0432125074961
 31
0.0
  0
LINE
  5
7F23
330
18
100
AcDbEntity
  8
0
100
AcDbLine
 10
-120.7707076761155
 20
388.0432125074961
 30
0.0
 11
-122.8707076761155
 21
388.0432125074961
 31
0.0
  0
LINE
  5
7F24
330
18
100
AcDbEntity
  8
0
100
AcDbLine
 10
-122.3457076761155
 20
391.6182125074961
 30
0.0
 11
-122.7707076761155
 21
391.2432125074961
 31
0.0
  0
LINE
  5
7F25
330
18
100
AcDbEntity
  8
0
100
AcDbLine
 10
-122.7707076761155
 20
391.2432125074961
 30
0.0
 11
-122.3457076761155
 21
390.8182125074962
 31
0.0
  0
LINE
  5
7F26
330
18
100
AcDbEntity
  8
0
100
AcDbLine
 10
-122.3457076761155
 20
390.8182125074962
 30
0.0
 11
-120.2207076761155
 21
390.8182125074962
 31
0.0
  0
LINE
  5
7F27
330
18
100
AcDbEntity
  8
0
100
AcDbLine
 10
-120.2207076761155
 20
390.8182125074962
 30
0.0
 11
-119.8207076761156
 21
391.2432125074961
 31
0.0
  0
LINE
  5
7F28
330
18
100
AcDbEntity
  8
0
100
AcDbLine
 10
-119.8207076761156
 20
391.2432125074961
 30
0.0
 11
-120.2207076761155
 21
391.6182125074961
 31
0.0
  0
LINE
  5
7F29
330
18
100
AcDbEntity
  8
0
100
AcDbLine
 10
-120.2207076761155
 20
391.6182125074961
 30
0.0
 11
-122.3457076761155
 21
391.6182125074961
 31
0.0
  0
LINE
  5
7F2A
330
18
100
AcDbEntity
  8
0
100
AcDbLine
 10
-120.0707076761156
 20
387.518212507496
 30
0.0
 11
-120.4707076761155
 21
387.0932125074961
 31
0.0
  0
LINE
  5
7F2B
330
18
100
AcDbEntity
  8
0
100
AcDbLine
 10
-119.6207076761155
 20
387.0932125074961
 30
0.0
 11
-120.0707076761156
 21
387.518212507496
 31
0.0
  0
LINE
  5
7F2C
330
18
100
AcDbEntity
  8
0
100
AcDbLine
 10
-119.4957076761155
 20
391.2432125074961
 30
0.0
 11
-119.9207076761156
 21
390.8432125074961
 31
0.0
  0
LINE
  5
7F2D
330
18
100
AcDbEntity
  8
0
100
AcDbLine
 10
-119.9207076761156
 20
390.8432125074961
 30
0.0
 11
-120.3207076761156
 21
388.0432125074961
 31
0.0
  0
LINE
  5
7F2E
330
18
100
AcDbEntity
  8
0
100
AcDbLine
 10
-120.3207076761156
 20
388.0432125074961
 30
0.0
 11
-119.9207076761156
 21
387.643212507496
 31
0.0
  0
LINE
  5
7F2F
330
18
100
AcDbEntity
  8
0
100
AcDbLine
 10
-119.9207076761156
 20
387.643212507496
 30
0.0
 11
-119.4957076761155
 21
388.0432125074961
 31
0.0
  0
LINE
  5
7F30
330
18
100
AcDbEntity
  8
0
100
AcDbLine
 10
-119.4957076761155
 20
388.0432125074961
 30
0.0
 11
-119.0707076761156
 21
390.8432125074961
 31
0.0
  0
LINE
  5
7F31
330
18
100
AcDbEntity
  8
0
100
AcDbLine
 10
-119.0707076761156
 20
390.8432125074961
 30
0.0
 11
-119.4957076761155
 21
391.2432125074961
 31
0.0
  0
LINE
  5
7F32
330
18
100
AcDbEntity
  8
0
100
AcDbLine
 10
-123.7207076761155
 20
387.518212507496
 30
0.0
 11
-124.1457076761155
 21
387.0932125074961
 31
0.0
  0
LINE
  5
7F33
330
18
100
AcDbEntity
  8
0
100
AcDbLine
 10
-123.2957076761156
 20
387.0932125074961
 30
0.0
 11
-123.7207076761155
 21
387.518212507496
 31
0.0
  0
LINE
  5
7F34
330
18
100
AcDbEntity
  8
0
100
AcDbLine
 10
-123.1707076761156
 20
391.2432125074961
 30
0.0
 11
-123.5707076761155
 21
390.8432125074961
 31
0.0
  0
LINE
  5
7F35
330
18
100
AcDbEntity
  8
0
100
AcDbLine
 10
-123.5707076761155
 20
390.8432125074961
 30
0.0
 11
-123.9957076761155
 21
388.0432125074961
 31
0.0
  0
LINE
  5
7F36
330
18
100
AcDbEntity
  8
0
100
AcDbLine
 10
-123.9957076761155
 20
388.0432125074961
 30
0.0
 11
-123.5707076761155
 21
387.643212507496
 31
0.0
  0
LINE
  5
7F37
330
18
100
AcDbEntity
  8
0
100
AcDbLine
 10
-123.5707076761155
 20
387.643212507496
 30
0.0
 11
-123.1707076761156
 21
388.0432125074961
 31
0.0
  0
LINE
  5
7F38
330
18
100
AcDbEntity
  8
0
100
AcDbLine
 10
-122.8707076761155
 20
388.0432125074961
 30
0.0
 11
-123.3207076761156
 21
387.643212507496
 31
0.0
  0
LINE
  5
7F39
330
18
100
AcDbEntity
  8
0
100
AcDbLine
 10
-123.3207076761156
 20
387.643212507496
 30
0.0
 11
-122.8707076761155
 21
387.2432125074962
 31
0.0
  0
LINE
  5
7F3A
330
18
100
AcDbEntity
  8
0
100
AcDbLine
 10
-123.1707076761156
 20
388.0432125074961
 30
0.0
 11
-122.7207076761155
 21
390.8432125074961
 31
0.0
  0
LINE
  5
7F3B
330
18
100
AcDbEntity
  8
0
100
AcDbLine
 10
-122.7207076761155
 20
390.8432125074961
 30
0.0
 11
-123.1707076761156
 21
391.2432125074961
 31
0.0
  0
MTEXT
  5
7F46
330
18
100
AcDbEntity
  8
0
100
AcDbMText
 10
-200.2185562306633
 20
398.9263045576989
 30
0.0
 40
5.5
 41
0.0
 71
     1
 72
     5
  1
Ｒ\PＳ\PＴ\PＢ１\PＢ２\PＵ\PＶ\PＷ
  7
MSｺﾞｼｯｸ
 73
     1
 44
1.219999999999999
  0
MTEXT
  5
7F47
330
18
100
AcDbEntity
  8
0
100
AcDbMText
 10
-158.9904100890637
 20
273.01633146858
 30
0.0
 40
5.5
 41
0.0
 71
     1
 72
     5
  1
Ｅ
  7
MSｺﾞｼｯｸ
 73
     1
 44
1.0
  0
LINE
  5
7F48
330
18
100
AcDbEntity
  8
0
100
AcDbLine
 10
-128.1707076761157
 20
469.4182125074966
 30
0.0
 11
-128.1707076761158
 21
409.4182125074966
 31
0.0
  0
LINE
  5
7F49
330
18
100
AcDbEntity
  8
0
100
AcDbLine
 10
-184.1707076761157
 20
469.4182125074966
 30
0.0
 11
-184.1707076761158
 21
409.4182125074967
 31
0.0
  0
LWPOLYLINE
  5
7F4A
330
18
100
AcDbEntity
  8
0
100
AcDbPolyline
 90
        8
 70
     1
 43
0.0
 10
-136.1707076761157
 20
454.4182125074966
 10
-136.1707076761157
 20
429.4182125074966
 42
-0.4142135623730951
 10
-137.1707076761157
 20
428.4182125074966
 10
-175.1707076761157
 20
428.4182125074966
 42
-0.4142135623730951
 10
-176.1707076761157
 20
429.4182125074966
 10
-176.1707076761157
 20
454.4182125074967
 42
-0.4142135623730951
 10
-175.1707076761157
 20
455.4182125074967
 10
-137.1707076761157
 20
455.4182125074966
 42
-0.4142135623730951
  0
HATCH
  5
7F4B
330
18
100
AcDbEntity
  8
0
100
AcDbHatch
 10
0.0
 20
0.0
 30
0.0
210
0.0
220
0.0
230
1.0
  2
SOLID
 70
     1
 71
     0
 91
        2
 92
        7
 72
     1
 73
     1
 93
        8
 10
-136.7746489221495
 20
455.3364376778153
 42
0.0
 10
-175.5667664300817
 20
455.3364376778154
 42
0.1885055804394898
 10
-176.0844889312449
 20
454.8244191270566
 42
0.0
 10
-176.0844889312449
 20
429.0120058879367
 42
0.2963712537857847
 10
-175.1707076761157
 20
428.4182125074966
 42
0.0
 10
-137.1707076761157
 20
428.4182125074966
 42
0.4142135623730951
 10
-136.1707076761157
 20
429.4182125074966
 42
0.0
 10
-136.1707076761157
 20
454.4182125074966
 42
0.299386580726798
 97
        0
 92
       22
 72
     1
 73
     1
 93
        8
 10
-138.1707076761157
 20
454.4182125074966
 42
-0.4142135623730953
 10
-137.1707076761157
 20
453.4182125074966
 42
0.0
 10
-137.1707076761157
 20
430.4182125074966
 42
-0.4142135623730951
 10
-138.1707076761157
 20
429.4182125074966
 42
0.0
 10
-174.1707076761157
 20
429.4182125074966
 42
-0.4142135623730951
 10
-175.1707076761157
 20
430.4182125074966
 42
0.0
 10
-175.1707076761157
 20
453.4182125074967
 42
-0.4142135623730949
 10
-174.1707076761157
 20
454.4182125074967
 42
0.0
 97
        0
 75
     0
 76
     1
 47
0.1122686005965
 98
        2
 10
-166.3382280694814
 20
455.0384809031597
 10
-166.3382280694814
 20
455.0384809031597
  0
LINE
  5
7F4C
330
18
100
AcDbEntity
  8
0
100
AcDbLine
 10
-182.1707076761158
 20
407.4182125074967
 30
0.0
 11
-130.1707076761158
 21
407.4182125074966
 31
0.0
  0
HATCH
  5
7F4D
330
18
100
AcDbEntity
  8
0
100
AcDbHatch
 10
0.0
 20
0.0
 30
0.0
210
0.0
220
0.0
230
1.0
  2
SOLID
 70
     1
 71
     0
 91
        5
 92
        7
 72
     1
 73
     1
 93
        8
 10
-146.6707076761157
 20
422.1682376778153
 42
0.4142135623730951
 10
-147.6707076761157
 20
423.1682376778152
 42
0.0
 10
-153.6707076761157
 20
423.1682376778152
 42
0.4142135623730951
 10
-154.6707076761157
 20
422.1682376778153
 42
0.0
 10
-154.6707076761157
 20
416.1682376778152
 42
0.4142135623730951
 10
-153.6707076761157
 20
415.1682376778152
 42
0.0
 10
-147.6707076761157
 20
415.1682376778152
 42
0.4142135623730951
 10
-146.6707076761157
 20
416.1682376778152
 42
0.0
 97
        0
 92
       22
 72
     1
 73
     1
 93
        8
 10
-147.1707076761157
 20
416.1682376778152
 42
-0.4142135623730951
 10
-147.6707076761157
 20
415.6682376778152
 42
0.0
 10
-153.6707076761157
 20
415.6682376778152
 42
-0.4142135623730951
 10
-154.1707076761157
 20
416.1682376778152
 42
0.0
 10
-154.1707076761157
 20
422.1682376778153
 42
-0.4142135623730951
 10
-153.6707076761157
 20
422.6682376778152
 42
0.0
 10
-147.6707076761157
 20
422.6682376778152
 42
-0.4142135623730951
 10
-147.1707076761157
 20
422.1682376778153
 42
0.0
 97
        0
 92
        6
 72
     0
 73
     1
 93
        3
 10
-147.9299880512371
 20
417.3856143446989
 10
-149.6620388588056
 20
416.3856143446991
 10
-149.6620388588056
 20
418.3856143446988
 97
        0
 92
        6
 72
     0
 73
     1
 93
        4
 10
-148.7384780401078
 20
419.9826518305262
 10
-152.5381791085317
 20
417.7508090862392
 10
-152.6647960572179
 20
417.9663738057678
 10
-148.8650949887938
 20
420.1982165500545
 97
        0
 92
      136
 93
        4
 72
     1
 10
-153.836110656901
 20
419.7995971682409
 11
-148.554860656901
 21
419.7995971682409
 72
     1
 10
-148.554860656901
 20
419.7995971682409
 11
-148.554860656901
 21
422.119909668241
 72
     1
 10
-148.554860656901
 20
422.119909668241
 11
-153.836110656901
 21
422.119909668241
 72
     1
 10
-153.836110656901
 20
422.119909668241
 11
-153.836110656901
 21
419.7995971682409
 97
        0
 75
     0
 76
     1
 47
0.0316320572239519
 98
        4
 10
-147.029594342193
 20
419.0361754168024
 10
-147.029594342193
 20
419.0361754168024
 10
-147.029594342193
 20
419.0361754168024
 10
-147.029594342193
 20
419.0361754168024
  0
LWPOLYLINE
  5
7F4E
330
18
100
AcDbEntity
  8
0
100
AcDbPolyline
 90
        8
 70
     1
 43
0.0
 10
-146.6707076761157
 20
422.1682376778153
 10
-146.6707076761157
 20
416.1682376778152
 42
-0.4142135623730951
 10
-147.6707076761157
 20
415.1682376778152
 10
-153.6707076761157
 20
415.1682376778152
 42
-0.4142135623730951
 10
-154.6707076761157
 20
416.1682376778152
 10
-154.6707076761157
 20
422.1682376778153
 42
-0.4142135623730951
 10
-153.6707076761157
 20
423.1682376778152
 10
-147.6707076761157
 20
423.1682376778152
 42
-0.4142135623730951
  0
LWPOLYLINE
  5
7F4F
330
18
100
AcDbEntity
  8
0
100
AcDbPolyline
 90
        8
 70
     1
 43
0.0
 10
-147.1707076761157
 20
422.1682376778153
 10
-147.1707076761157
 20
416.1682376778152
 42
-0.4142135623730951
 10
-147.6707076761157
 20
415.6682376778152
 10
-153.6707076761157
 20
415.6682376778152
 42
-0.4142135623730951
 10
-154.1707076761157
 20
416.1682376778152
 10
-154.1707076761157
 20
422.1682376778153
 42
-0.4142135623730951
 10
-153.6707076761157
 20
422.6682376778152
 10
-147.6707076761157
 20
422.6682376778152
 42
-0.4142135623730951
  0
LWPOLYLINE
  5
7F50
330
18
100
AcDbEntity
  8
0
100
AcDbPolyline
 90
        4
 70
     1
 43
0.0
 10
-148.7384780401075
 20
419.9826518305264
 10
-152.5381791085317
 20
417.7508090862392
 10
-152.664796057218
 20
417.9663738057676
 10
-148.8650949887938
 20
420.1982165500548
  0
TEXT
  5
7F51
330
18
100
AcDbEntity
  8
0
100
AcDbText
 10
-153.566579406901
 20
420.2019409182409
 30
0.0
 40
1.5
  1
MOD
  7
STYLE4
100
AcDbText
  0
LWPOLYLINE
  5
7F52
330
18
100
AcDbEntity
  8
0
100
AcDbPolyline
 90
        8
 70
     1
 43
0.0
 10
-168.6707076761157
 20
422.1682376778153
 10
-168.6707076761157
 20
416.1682376778153
 42
-0.4142135623730951
 10
-169.6707076761157
 20
415.1682376778153
 10
-175.6707076761157
 20
415.1682376778153
 42
-0.4142135623730951
 10
-176.6707076761157
 20
416.1682376778153
 10
-176.6707076761157
 20
422.1682376778153
 42
-0.4142135623730951
 10
-175.6707076761157
 20
423.1682376778152
 10
-169.6707076761157
 20
423.1682376778152
 42
-0.4142135623730951
  0
LWPOLYLINE
  5
7F53
330
18
100
AcDbEntity
  8
0
100
AcDbPolyline
 90
        8
 70
     1
 43
0.0
 10
-169.1707076761157
 20
422.1682376778153
 10
-169.1707076761157
 20
416.1682376778153
 42
-0.4142135623730951
 10
-169.6707076761157
 20
415.6682376778153
 10
-175.6707076761157
 20
415.6682376778153
 42
-0.4142135623730951
 10
-176.1707076761157
 20
416.1682376778153
 10
-176.1707076761157
 20
422.1682376778153
 42
-0.4142135623730951
 10
-175.6707076761157
 20
422.6682376778152
 10
-169.6707076761157
 20
422.6682376778152
 42
-0.4142135623730951
  0
HATCH
  5
7F54
330
18
100
AcDbEntity
  8
0
100
AcDbHatch
 10
0.0
 20
0.0
 30
0.0
210
0.0
220
0.0
230
1.0
  2
SOLID
 70
     1
 71
     0
 91
        6
 92
        7
 72
     1
 73
     1
 93
        8
 10
-158.6707076761157
 20
423.1682376778152
 42
0.0
 10
-164.6707076761157
 20
423.1682376778152
 42
0.4142135623730951
 10
-165.6707076761157
 20
422.1682376778153
 42
0.0
 10
-165.6707076761157
 20
416.1682376778153
 42
0.4142135623730951
 10
-164.6707076761157
 20
415.1682376778153
 42
0.0
 10
-158.6707076761157
 20
415.1682376778152
 42
0.4142135623730951
 10
-157.6707076761157
 20
416.1682376778152
 42
0.0
 10
-157.6707076761157
 20
422.1682376778153
 42
0.4142135623730951
 97
        0
 92
       22
 72
     1
 73
     1
 93
        8
 10
-158.6707076761157
 20
422.6682376778152
 42
-0.4142135623730951
 10
-158.1707076761157
 20
422.1682376778153
 42
0.0
 10
-158.1707076761157
 20
416.1682376778152
 42
-0.4142135623730951
 10
-158.6707076761157
 20
415.6682376778152
 42
0.0
 10
-164.6707076761157
 20
415.6682376778153
 42
-0.4142135623730951
 10
-165.1707076761157
 20
416.1682376778153
 42
0.0
 10
-165.1707076761157
 20
422.1682376778153
 42
-0.4142135623730951
 10
-164.6707076761157
 20
422.6682376778152
 42
0.0
 97
        0
 92
        6
 72
     0
 73
     1
 93
        3
 10
-163.670706743615
 20
420.9002887545736
 10
-159.6707086086155
 20
420.9002887545734
 10
-161.6707076761152
 20
417.4361887545733
 97
        0
 92
        7
 72
     1
 73
     1
 93
        8
 10
-169.6707076761157
 20
423.1682376778152
 42
0.0
 10
-175.6707076761157
 20
423.1682376778152
 42
0.4142135623730951
 10
-176.6707076761157
 20
422.1682376778153
 42
0.0
 10
-176.6707076761157
 20
416.1682376778153
 42
0.4142135623730951
 10
-175.6707076761157
 20
415.1682376778153
 42
0.0
 10
-169.6707076761157
 20
415.1682376778153
 42
0.4142135623730951
 10
-168.6707076761157
 20
416.1682376778153
 42
0.0
 10
-168.6707076761157
 20
422.1682376778153
 42
0.4142135623730951
 97
        0
 92
       22
 72
     1
 73
     1
 93
        8
 10
-169.6707076761157
 20
422.6682376778152
 42
-0.4142135623730951
 10
-169.1707076761157
 20
422.1682376778153
 42
0.0
 10
-169.1707076761157
 20
416.1682376778153
 42
-0.4142135623730951
 10
-169.6707076761157
 20
415.6682376778153
 42
0.0
 10
-175.6707076761157
 20
415.6682376778153
 42
-0.4142135623730951
 10
-176.1707076761157
 20
416.1682376778153
 42
0.0
 10
-176.1707076761157
 20
422.1682376778153
 42
-0.4142135623730951
 10
-175.6707076761157
 20
422.6682376778152
 42
0.0
 97
        0
 92
        6
 72
     0
 73
     1
 93
        3
 10
-172.6707076761153
 20
420.9002876778151
 10
-170.6707086086154
 20
417.4361876778149
 10
-174.6707067436151
 20
417.4361876778152
 97
        0
 75
     0
 76
     1
 47
0.0188367729183999
 98
        6
 10
-163.9992805821449
 20
422.8827074480913
 10
-163.9992805821449
 20
422.8827074480913
 10
-163.9992805821449
 20
422.8827074480913
 10
-171.423588953845
 20
422.8827074480913
 10
-171.423588953845
 20
422.8827074480913
 10
-171.423588953845
 20
422.8827074480913
  0
ARC
  5
7F55
330
18
100
AcDbEntity
  8
0
100
AcDbCircle
 10
-182.1707076761159
 20
409.4182125074967
 30
0.0
 40
2.0
100
AcDbArc
 50
180.0
 51
270.0
  0
LWPOLYLINE
  5
7F56
330
18
100
AcDbEntity
  8
0
100
AcDbPolyline
 90
        3
 70
     1
 43
0.0
 10
-161.6707076761152
 20
417.4361887545733
 10
-163.670706743615
 20
420.9002887545734
 10
-159.6707086086155
 20
420.9002887545734
  0
LWPOLYLINE
  5
7F57
330
18
100
AcDbEntity
  8
0
100
AcDbPolyline
 90
        8
 70
     1
 43
0.0
 10
-158.1707076761157
 20
422.1682376778153
 10
-158.1707076761157
 20
416.1682376778152
 42
-0.4142135623730951
 10
-158.6707076761157
 20
415.6682376778152
 10
-164.6707076761157
 20
415.6682376778153
 42
-0.4142135623730951
 10
-165.1707076761157
 20
416.1682376778153
 10
-165.1707076761157
 20
422.1682376778153
 42
-0.4142135623730951
 10
-164.6707076761157
 20
422.6682376778152
 10
-158.6707076761157
 20
422.6682376778152
 42
-0.4142135623730951
  0
LWPOLYLINE
  5
7F58
330
18
100
AcDbEntity
  8
0
100
AcDbPolyline
 90
        8
 70
     1
 43
0.0
 10
-157.6707076761157
 20
422.1682376778153
 10
-157.6707076761157
 20
416.1682376778152
 42
-0.4142135623730951
 10
-158.6707076761157
 20
415.1682376778152
 10
-164.6707076761157
 20
415.1682376778153
 42
-0.4142135623730951
 10
-165.6707076761157
 20
416.1682376778153
 10
-165.6707076761157
 20
422.1682376778153
 42
-0.4142135623730951
 10
-164.6707076761157
 20
423.1682376778152
 10
-158.6707076761157
 20
423.1682376778152
 42
-0.4142135623730951
  0
HATCH
  5
7F59
330
18
100
AcDbEntity
  8
0
100
AcDbHatch
 10
0.0
 20
0.0
 30
0.0
210
0.0
220
0.0
230
1.0
  2
SOLID
 70
     1
 71
     0
 91
        2
 92
        7
 72
     0
 73
     1
 93
        3
 10
-172.6707076761153
 20
420.9002876778153
 10
-174.670706743615
 20
417.4361876778152
 10
-170.6707086086155
 20
417.4361876778152
 97
        0
 92
        7
 72
     0
 73
     1
 93
        3
 10
-161.6707076761152
 20
417.4361887545733
 10
-159.6707086086155
 20
420.9002887545734
 10
-163.670706743615
 20
420.9002887545734
 97
        0
 75
     0
 76
     1
 47
0.0188367729183999
 98
        2
 10
-172.3092303392614
 20
419.0023279543856
 10
-161.9830340765548
 20
419.3790633332654
  0
LWPOLYLINE
  5
7F5A
330
18
100
AcDbEntity
  8
0
100
AcDbPolyline
 90
        3
 70
     1
 43
0.0
 10
-172.6707076761153
 20
420.9002876778153
 10
-174.670706743615
 20
417.4361876778152
 10
-170.6707086086155
 20
417.4361876778152
  0
TEXT
  5
7F5B
330
18
100
AcDbEntity
  8
0
100
AcDbText
 10
-142.9445171999252
 20
417.9182376778152
 30
0.0
 40
2.5
  1
ENT
  7
STYLE4
 72
     1
 11
-139.6707076761157
 21
419.1682376778152
 31
0.0
100
AcDbText
 73
     2
  0
HATCH
  5
7F5C
330
18
100
AcDbEntity
  8
0
100
AcDbHatch
 10
0.0
 20
0.0
 30
0.0
210
0.0
220
0.0
230
1.0
  2
SOLID
 70
     1
 71
     0
 91
        2
 92
        7
 72
     1
 73
     1
 93
        8
 10
-142.6707076761157
 20
423.1682376778152
 42
0.4142135623730951
 10
-143.6707076761157
 20
422.1682376778153
 42
0.0
 10
-143.6707076761157
 20
416.1682376778152
 42
0.4142135623730951
 10
-142.6707076761157
 20
415.1682376778152
 42
0.0
 10
-136.6707076761157
 20
415.1682376778152
 42
0.4142135623730951
 10
-135.6707076761157
 20
416.1682376778152
 42
0.0
 10
-135.6707076761157
 20
422.1682376778153
 42
0.4142135623730951
 10
-136.6707076761157
 20
423.1682376778152
 42
0.0
 97
        0
 92
       22
 72
     1
 73
     1
 93
        8
 10
-136.6707076761157
 20
422.6682376778152
 42
-0.4142135623730951
 10
-136.1707076761157
 20
422.1682376778153
 42
0.0
 10
-136.1707076761157
 20
416.1682376778152
 42
-0.4142135623730951
 10
-136.6707076761157
 20
415.6682376778152
 42
0.0
 10
-142.6707076761157
 20
415.6682376778152
 42
-0.4142135623730951
 10
-143.1707076761157
 20
416.1682376778152
 42
0.0
 10
-143.1707076761157
 20
422.1682376778153
 42
-0.4142135623730951
 10
-142.6707076761157
 20
422.6682376778152
 42
0.0
 97
        0
 75
     0
 76
     1
 47
0.0112091961687951
 98
        2
 10
-138.3382841334806
 20
422.8992285477506
 10
-138.3382841334806
 20
422.8992285477506
  0
LWPOLYLINE
  5
7F5D
330
18
100
AcDbEntity
  8
0
100
AcDbPolyline
 90
        8
 70
     1
 43
0.0
 10
-135.6707076761157
 20
422.1682376778153
 10
-135.6707076761157
 20
416.1682376778152
 42
-0.4142135623730951
 10
-136.6707076761157
 20
415.1682376778152
 10
-142.6707076761157
 20
415.1682376778152
 42
-0.4142135623730951
 10
-143.6707076761157
 20
416.1682376778152
 10
-143.6707076761157
 20
422.1682376778153
 42
-0.4142135623730951
 10
-142.6707076761157
 20
423.1682376778152
 10
-136.6707076761157
 20
423.1682376778152
 42
-0.4142135623730951
  0
LWPOLYLINE
  5
7F5E
330
18
100
AcDbEntity
  8
0
100
AcDbPolyline
 90
        8
 70
     1
 43
0.0
 10
-136.1707076761157
 20
422.1682376778153
 10
-136.1707076761157
 20
416.1682376778152
 42
-0.4142135623730951
 10
-136.6707076761157
 20
415.6682376778152
 10
-142.6707076761157
 20
415.6682376778152
 42
-0.4142135623730951
 10
-143.1707076761157
 20
416.1682376778152
 10
-143.1707076761157
 20
422.1682376778153
 42
-0.4142135623730951
 10
-142.6707076761157
 20
422.6682376778152
 10
-136.6707076761157
 20
422.6682376778152
 42
-0.4142135623730951
  0
LWPOLYLINE
  5
7F5F
330
18
100
AcDbEntity
  8
0
100
AcDbPolyline
 90
        3
 70
     1
 43
0.0
 10
-149.6620388588056
 20
416.3856143446989
 10
-147.9299880512368
 20
417.3856143446989
 10
-149.6620388588056
 20
418.3856143446988
  0
ARC
  5
7F60
330
18
100
AcDbEntity
  8
0
100
AcDbCircle
 10
-130.1707076761159
 20
409.4182125074966
 30
0.0
 40
2.0
100
AcDbArc
 50
270.0
 51
0.0
  0
TEXT
  5
7F61
330
18
100
AcDbEntity
  8
0
100
AcDbText
 10
-177.6469962143054
 20
466.4558831608967
 30
0.0
 40
2.0
  1
AC   SERVO  DRIVER
  7
MSｺﾞｼｯｸ
100
AcDbText
  0
LINE
  5
7F62
330
18
100
AcDbEntity
  8
0
100
AcDbLine
 10
-182.1707076761157
 20
471.4182125074967
 30
0.0
 11
-130.1707076761157
 21
471.4182125074966
 31
0.0
  0
TEXT
  5
7F63
330
18
100
AcDbEntity
  8
0
100
AcDbText
 10
-177.7252527863664
 20
458.8909484769025
 30
0.0
 40
6.5
  1
ACTUS POWER
 41
0.9300774284514796
  7
MSｺﾞｼｯｸ
 72
     5
 11
-134.5167826077474
 21
458.8909484769025
 31
0.0
100
AcDbText
  0
LWPOLYLINE
  5
7F64
330
18
100
AcDbEntity
  8
0
100
AcDbPolyline
 90
        8
 70
     1
 43
0.0
 10
-137.1707076761157
 20
453.4182125074966
 10
-137.1707076761157
 20
430.4182125074966
 42
-0.4142135623730951
 10
-138.1707076761157
 20
429.4182125074966
 10
-174.1707076761157
 20
429.4182125074966
 42
-0.4142135623730951
 10
-175.1707076761157
 20
430.4182125074966
 10
-175.1707076761157
 20
453.4182125074967
 42
-0.4142135623730949
 10
-174.1707076761157
 20
454.4182125074967
 10
-138.1707076761157
 20
454.4182125074966
 42
-0.4142135623730953
  0
ARC
  5
7F65
330
18
100
AcDbEntity
  8
0
100
AcDbCircle
 10
-182.1707076761157
 20
469.4182125074966
 30
0.0
 40
2.0
100
AcDbArc
 50
90.0
 51
180.0
  0
ARC
  5
7F66
330
18
100
AcDbEntity
  8
0
100
AcDbCircle
 10
-130.1707076761157
 20
469.4182125074966
 30
0.0
 40
2.0
100
AcDbArc
 50
0.0
 51
90.0
  0
LINE
  5
7F69
330
18
100
AcDbEntity
  8
0
 48
0.2
100
AcDbLine
 10
-5.243680192846341
 20
265.2682125074961
 30
0.0
 11
-5.243680192846454
 21
291.2682125074961
 31
0.0
  0
LINE
  5
7F6A
330
18
100
AcDbEntity
  8
0
 48
0.2
100
AcDbLine
 10
15.75631980715354
 20
287.2682125074961
 30
0.0
 11
-5.243680192846454
 21
287.2682125074961
 31
0.0
  0
LINE
  5
7F6B
330
18
100
AcDbEntity
  8
0
 48
0.2
100
AcDbLine
 10
15.75631980715366
 20
269.2682125074961
 30
0.0
 11
-5.243680192846341
 21
269.268212507496
 31
0.0
  0
LINE
  5
7F6C
330
18
100
AcDbEntity
  8
0
 48
0.2
100
AcDbLine
 10
5.95631980715359
 20
265.2682125074961
 30
0.0
 11
9.95631980715359
 21
262.1682125074961
 31
0.0
  0
ARC
  5
7F6D
330
18
100
AcDbEntity
  8
0
 48
0.2
100
AcDbCircle
 10
-2.143680192846431
 20
265.2682125074961
 30
0.0
 40
3.100000000000022
100
AcDbArc
 50
180.0
 51
319.1213648534839
  0
LINE
  5
7F6E
330
18
100
AcDbEntity
  8
0
 48
0.2
100
AcDbLine
 10
1.95631980715359
 20
265.2682125074961
 30
0.0
 11
0.2002222461781002
 21
263.2393898547402
 31
0.0
  0
LINE
  5
7F6F
330
18
100
AcDbEntity
  8
0
 48
0.2
100
AcDbLine
 10
5.95631980715359
 20
265.268212507496
 30
0.0
 11
1.956319807153477
 21
265.2682125074961
 31
0.0
  0
LINE
  5
7F70
330
18
100
AcDbEntity
  8
0
 48
0.2
100
AcDbLine
 10
17.86198223985616
 20
265.6832760169572
 30
0.0
 11
20.65065737445115
 21
265.6832760169572
 31
0.0
  0
LINE
  5
7F71
330
18
100
AcDbEntity
  8
0
 48
0.2
100
AcDbLine
 10
18.00631980715365
 20
265.4332760169572
 30
0.0
 11
20.50631980715365
 21
265.4332760169572
 31
0.0
  0
LINE
  5
7F72
330
18
100
AcDbEntity
  8
0
 48
0.2
100
AcDbLine
 10
17.86198223985616
 20
260.8531489980352
 30
0.0
 11
20.65065737445115
 21
260.8531489980352
 31
0.0
  0
LINE
  5
7F73
330
18
100
AcDbEntity
  8
0
 48
0.2
100
AcDbLine
 10
18.00631980715365
 20
261.103148998035
 30
0.0
 11
20.50631980715365
 21
261.103148998035
 31
0.0
  0
LINE
  5
7F74
330
18
100
AcDbEntity
  8
0
 48
0.2
100
AcDbLine
 10
30.7563198071536
 20
256.518212507496
 30
0.0
 11
9.956319807153477
 21
256.5182125074961
 31
0.0
  0
CIRCLE
  5
7F75
330
18
100
AcDbEntity
  8
0
 48
0.2
100
AcDbCircle
 10
19.25631980715365
 20
263.2682125074961
 30
0.0
 40
1.5
  0
LINE
  5
7F76
330
18
100
AcDbEntity
  8
0
 48
0.2
100
AcDbLine
 10
9.956319807153477
 20
256.5182125074961
 30
0.0
 11
9.956319807153477
 21
262.1682125074961
 31
0.0
  0
ARC
  5
7F77
330
18
100
AcDbEntity
  8
0
 48
0.2
100
AcDbCircle
 10
11.12631980715332
 20
259.1182125074961
 30
0.0
 40
2.669999999999886
100
AcDbArc
 50
115.9892335838293
 51
244.0107664161702
  0
LINE
  5
7F78
330
18
100
AcDbEntity
  8
0
 48
0.2
100
AcDbLine
 10
16.46764467255889
 20
263.2682125074961
 30
0.0
 11
17.86198223985616
 21
260.8531489980352
 31
0.0
  0
LINE
  5
7F79
330
18
100
AcDbEntity
  8
0
 48
0.2
100
AcDbLine
 10
16.75631980715365
 20
263.2682125074961
 30
0.0
 11
18.00631980715365
 21
261.103148998035
 31
0.0
  0
LINE
  5
7F7A
330
18
100
AcDbEntity
  8
0
 48
0.2
100
AcDbLine
 10
16.46764467255889
 20
263.2682125074961
 30
0.0
 11
17.86198223985616
 21
265.6832760169572
 31
0.0
  0
LINE
  5
7F7B
330
18
100
AcDbEntity
  8
0
 48
0.2
100
AcDbLine
 10
16.75631980715365
 20
263.2682125074961
 30
0.0
 11
18.00631980715365
 21
265.4332760169572
 31
0.0
  0
LINE
  5
7F7C
330
18
100
AcDbEntity
  8
0
 48
0.2
100
AcDbLine
 10
10.75631980715366
 20
269.2682125074961
 30
0.0
 11
10.75631980715354
 21
287.2682125074961
 31
0.0
  0
LINE
  5
7F7D
330
18
100
AcDbEntity
  8
0
 48
0.2
100
AcDbLine
 10
15.75631980715366
 20
269.2682125074961
 30
0.0
 11
15.75631980715354
 21
287.2682125074961
 31
0.0
  0
LINE
  5
7F7E
330
18
100
AcDbEntity
  8
0
 48
0.2
100
AcDbLine
 10
20.65065737445115
 20
260.8531489980352
 30
0.0
 11
22.04499494174843
 21
263.2682125074962
 31
0.0
  0
LINE
  5
7F7F
330
18
100
AcDbEntity
  8
0
 48
0.2
100
AcDbLine
 10
20.50631980715365
 20
261.103148998035
 30
0.0
 11
21.75631980715365
 21
263.2682125074961
 31
0.0
  0
LINE
  5
7F80
330
18
100
AcDbEntity
  8
0
 48
0.2
100
AcDbLine
 10
22.04499494174843
 20
263.2682125074962
 30
0.0
 11
20.65065737445115
 21
265.6832760169572
 31
0.0
  0
LINE
  5
7F81
330
18
100
AcDbEntity
  8
0
 48
0.2
100
AcDbLine
 10
21.75631980715365
 20
263.2682125074961
 30
0.0
 11
20.50631980715365
 21
265.4332760169572
 31
0.0
  0
LINE
  5
7F82
330
18
100
AcDbEntity
  8
0
 48
0.2
100
AcDbLine
 10
5.95631980715359
 20
291.2682125074961
 30
0.0
 11
9.95631980715359
 21
294.3682125074961
 31
0.0
  0
ARC
  5
7F83
330
18
100
AcDbEntity
  8
0
 48
0.2
100
AcDbCircle
 10
-2.143680192846431
 20
291.2682125074961
 30
0.0
 40
3.100000000000022
100
AcDbArc
 50
40.87863514651606
 51
180.0
  0
LINE
  5
7F84
330
18
100
AcDbEntity
  8
0
 48
0.2
100
AcDbLine
 10
1.95631980715359
 20
291.2682125074961
 30
0.0
 11
0.2002222461781002
 21
293.297035160252
 31
0.0
  0
LINE
  5
7F85
330
18
100
AcDbEntity
  8
0
 48
0.2
100
AcDbLine
 10
5.95631980715359
 20
291.2682125074963
 30
0.0
 11
1.956319807153477
 21
291.2682125074961
 31
0.0
  0
LINE
  5
7F86
330
18
100
AcDbEntity
  8
0
 48
0.2
100
AcDbLine
 10
18.00631980715365
 20
295.4332760169572
 30
0.0
 11
20.50631980715365
 21
295.4332760169572
 31
0.0
  0
LINE
  5
7F87
330
18
100
AcDbEntity
  8
0
 48
0.2
100
AcDbLine
 10
17.86198223985616
 20
295.6832760169571
 30
0.0
 11
20.65065737445115
 21
295.6832760169571
 31
0.0
  0
LINE
  5
7F88
330
18
100
AcDbEntity
  8
0
 48
0.2
100
AcDbLine
 10
30.7563198071536
 20
300.0182125074961
 30
0.0
 11
9.95631980715359
 21
300.0182125074961
 31
0.0
  0
LINE
  5
7F89
330
18
100
AcDbEntity
  8
0
 48
0.2
100
AcDbLine
 10
18.00631980715365
 20
291.103148998035
 30
0.0
 11
20.50631980715365
 21
291.103148998035
 31
0.0
  0
LINE
  5
7F8A
330
18
100
AcDbEntity
  8
0
 48
0.2
100
AcDbLine
 10
17.86198223985616
 20
290.8531489980351
 30
0.0
 11
20.65065737445115
 21
290.8531489980351
 31
0.0
  0
CIRCLE
  5
7F8B
330
18
100
AcDbEntity
  8
0
 48
0.2
100
AcDbCircle
 10
19.25631980715365
 20
293.2682125074961
 30
0.0
 40
1.5
  0
ARC
  5
7F8C
330
18
100
AcDbEntity
  8
0
 48
0.2
100
AcDbCircle
 10
11.12631980715332
 20
297.4182125074961
 30
0.0
 40
2.669999999999886
100
AcDbArc
 50
115.9892335838297
 51
244.0107664161706
  0
LINE
  5
7F8D
330
18
100
AcDbEntity
  8
0
 48
0.2
100
AcDbLine
 10
9.95631980715359
 20
294.3682125074963
 30
0.0
 11
9.95631980715359
 21
300.0182125074961
 31
0.0
  0
LINE
  5
7F8E
330
18
100
AcDbEntity
  8
0
 48
0.2
100
AcDbLine
 10
16.75631980715365
 20
293.2682125074961
 30
0.0
 11
18.00631980715365
 21
295.4332760169572
 31
0.0
  0
LINE
  5
7F8F
330
18
100
AcDbEntity
  8
0
 48
0.2
100
AcDbLine
 10
16.46764467255889
 20
293.2682125074961
 30
0.0
 11
17.86198223985616
 21
295.6832760169571
 31
0.0
  0
LINE
  5
7F90
330
18
100
AcDbEntity
  8
0
 48
0.2
100
AcDbLine
 10
16.75631980715365
 20
293.2682125074961
 30
0.0
 11
18.00631980715365
 21
291.103148998035
 31
0.0
  0
LINE
  5
7F91
330
18
100
AcDbEntity
  8
0
 48
0.2
100
AcDbLine
 10
16.46764467255889
 20
293.2682125074961
 30
0.0
 11
17.86198223985616
 21
290.8531489980351
 31
0.0
  0
LINE
  5
7F92
330
18
100
AcDbEntity
  8
0
 48
0.2
100
AcDbLine
 10
20.50631980715365
 20
295.4332760169572
 30
0.0
 11
21.75631980715365
 21
293.2682125074961
 31
0.0
  0
LINE
  5
7F93
330
18
100
AcDbEntity
  8
0
 48
0.2
100
AcDbLine
 10
20.65065737445115
 20
295.6832760169571
 30
0.0
 11
22.04499494174843
 21
293.268212507496
 31
0.0
  0
LINE
  5
7F94
330
18
100
AcDbEntity
  8
0
 48
0.2
100
AcDbLine
 10
21.75631980715365
 20
293.2682125074961
 30
0.0
 11
20.50631980715365
 21
291.103148998035
 31
0.0
  0
LINE
  5
7F95
330
18
100
AcDbEntity
  8
0
 48
0.2
100
AcDbLine
 10
22.04499494174843
 20
293.268212507496
 30
0.0
 11
20.65065737445115
 21
290.8531489980351
 31
0.0
  0
LINE
  5
7FF1
330
18
100
AcDbEntity
  8
0
 48
0.2
100
AcDbLine
 10
5.956319807153477
 20
325.1557125074959
 30
0.0
 11
9.956319807153477
 21
328.2557125074958
 31
0.0
  0
LINE
  5
7FF2
330
18
100
AcDbEntity
  8
0
 48
0.2
100
AcDbLine
 10
15.75631980715343
 20
325.1557125074959
 30
0.0
 11
-5.243680192846568
 21
325.1557125074959
 31
0.0
  0
LINE
  5
7FF3
330
18
100
AcDbEntity
  8
0
 48
0.2
100
AcDbLine
 10
5.956319807153704
 20
309.3557125074962
 30
0.0
 11
9.956319807153704
 21
306.255712507496
 31
0.0
  0
LINE
  5
7FF4
330
18
100
AcDbEntity
  8
0
 48
0.2
100
AcDbLine
 10
15.75631980715366
 20
309.3557125074962
 30
0.0
 11
-5.243680192846341
 21
309.3557125074959
 31
0.0
  0
LINE
  5
7FF5
330
18
100
AcDbEntity
  8
0
 48
0.2
100
AcDbLine
 10
-5.243680192846341
 20
309.3557125074962
 30
0.0
 11
-5.243680192846568
 21
325.1557125074959
 31
0.0
  0
ARC
  5
7FF6
330
18
100
AcDbEntity
  8
0
 48
0.2
100
AcDbCircle
 10
-2.143680192846204
 20
309.3557125074963
 30
0.0
 40
3.100000000000022
100
AcDbArc
 50
180.0
 51
319.1213648534882
  0
LINE
  5
7FF7
330
18
100
AcDbEntity
  8
0
 48
0.2
100
AcDbLine
 10
1.956319807153704
 20
309.3557125074962
 30
0.0
 11
0.2002222461781002
 21
307.3268898547402
 31
0.0
  0
ARC
  5
7FF8
330
18
100
AcDbEntity
  8
0
 48
0.2
100
AcDbCircle
 10
-2.143680192846431
 20
325.155712507496
 30
0.0
 40
3.100000000000022
100
AcDbArc
 50
40.87863514651173
 51
180.0
  0
LINE
  5
7FF9
330
18
100
AcDbEntity
  8
0
 48
0.2
100
AcDbLine
 10
1.956319807153477
 20
325.1557125074959
 30
0.0
 11
0.2002222461781002
 21
327.1845351602518
 31
0.0
  0
LINE
  5
7FFC
330
18
100
AcDbEntity
  8
0
 48
0.2
100
AcDbLine
 10
30.7563198071536
 20
300.605712507496
 30
0.0
 11
9.956319807153477
 21
300.6057125074962
 31
0.0
  0
LINE
  5
7FFD
330
18
100
AcDbEntity
  8
0
 48
0.2
100
AcDbLine
 10
30.75631980715462
 20
333.9057125074959
 30
0.0
 11
9.956319807153477
 21
333.9057125074959
 31
0.0
  0
LINE
  5
7FFE
330
18
100
AcDbEntity
  8
0
 48
0.2
100
AcDbLine
 10
10.75631980715366
 20
309.3557125074962
 30
0.0
 11
10.75631980715343
 21
325.1557125074959
 31
0.0
  0
LINE
  5
7FFF
330
18
100
AcDbEntity
  8
0
 48
0.2
100
AcDbLine
 10
15.75631980715366
 20
309.3557125074962
 30
0.0
 11
15.75631980715343
 21
325.1557125074959
 31
0.0
  0
LINE
  5
8000
330
18
100
AcDbEntity
  8
0
 48
0.2
100
AcDbLine
 10
16.75631980715365
 20
307.3557125074962
 30
0.0
 11
18.00631980715365
 21
305.1906489980351
 31
0.0
  0
LINE
  5
8001
330
18
100
AcDbEntity
  8
0
 48
0.2
100
AcDbLine
 10
16.75631980715365
 20
307.3557125074962
 30
0.0
 11
18.00631980715365
 21
309.5207760169573
 31
0.0
  0
LINE
  5
8002
330
18
100
AcDbEntity
  8
0
 48
0.2
100
AcDbLine
 10
16.46764467255889
 20
307.3557125074962
 30
0.0
 11
17.86198223985616
 21
309.7707760169573
 31
0.0
  0
LINE
  5
8003
330
18
100
AcDbEntity
  8
0
 48
0.2
100
AcDbLine
 10
16.46764467255889
 20
307.3557125074962
 30
0.0
 11
17.86198223985616
 21
304.9406489980351
 31
0.0
  0
ARC
  5
8004
330
18
100
AcDbEntity
  8
0
 48
0.2
100
AcDbCircle
 10
11.12631980715355
 20
303.2057125074962
 30
0.0
 40
2.669999999999886
100
AcDbArc
 50
115.9892335838293
 51
244.0107664161706
  0
LINE
  5
8005
330
18
100
AcDbEntity
  8
0
 48
0.2
100
AcDbLine
 10
9.956319807153477
 20
300.6057125074962
 30
0.0
 11
9.956319807153477
 21
306.255712507496
 31
0.0
  0
LINE
  5
8006
330
18
100
AcDbEntity
  8
0
 48
0.2
100
AcDbLine
 10
20.65065737445115
 20
304.9406489980351
 30
0.0
 11
22.04499494174843
 21
307.3557125074962
 31
0.0
  0
LINE
  5
8007
330
18
100
AcDbEntity
  8
0
 48
0.2
100
AcDbLine
 10
20.50631980715365
 20
305.1906489980351
 30
0.0
 11
21.75631980715365
 21
307.3557125074962
 31
0.0
  0
LINE
  5
8008
330
18
100
AcDbEntity
  8
0
 48
0.2
100
AcDbLine
 10
21.75631980715365
 20
307.3557125074962
 30
0.0
 11
20.50631980715365
 21
309.5207760169573
 31
0.0
  0
LINE
  5
8009
330
18
100
AcDbEntity
  8
0
 48
0.2
100
AcDbLine
 10
22.04499494174843
 20
307.3557125074962
 30
0.0
 11
20.65065737445115
 21
309.7707760169573
 31
0.0
  0
LINE
  5
800A
330
18
100
AcDbEntity
  8
0
 48
0.2
100
AcDbLine
 10
18.00631980715365
 20
309.5207760169573
 30
0.0
 11
20.50631980715365
 21
309.5207760169573
 31
0.0
  0
LINE
  5
800B
330
18
100
AcDbEntity
  8
0
 48
0.2
100
AcDbLine
 10
17.86198223985616
 20
309.7707760169573
 30
0.0
 11
20.65065737445115
 21
309.7707760169573
 31
0.0
  0
LINE
  5
800C
330
18
100
AcDbEntity
  8
0
 48
0.2
100
AcDbLine
 10
18.00631980715365
 20
305.1906489980351
 30
0.0
 11
20.50631980715365
 21
305.1906489980351
 31
0.0
  0
CIRCLE
  5
800D
330
18
100
AcDbEntity
  8
0
 48
0.2
100
AcDbCircle
 10
19.25631980715365
 20
307.3557125074963
 30
0.0
 40
1.5
  0
LINE
  5
800E
330
18
100
AcDbEntity
  8
0
 48
0.2
100
AcDbLine
 10
17.86198223985616
 20
304.9406489980351
 30
0.0
 11
20.65065737445115
 21
304.9406489980351
 31
0.0
  0
LINE
  5
800F
330
18
100
AcDbEntity
  8
0
 48
0.2
100
AcDbLine
 10
16.75631980715365
 20
327.1557125074959
 30
0.0
 11
18.00631980715365
 21
329.320776016957
 31
0.0
  0
LINE
  5
8010
330
18
100
AcDbEntity
  8
0
 48
0.2
100
AcDbLine
 10
16.75631980715365
 20
327.1557125074959
 30
0.0
 11
18.00631980715365
 21
324.9906489980348
 31
0.0
  0
LINE
  5
8011
330
18
100
AcDbEntity
  8
0
 48
0.2
100
AcDbLine
 10
16.46764467255889
 20
327.1557125074959
 30
0.0
 11
17.86198223985616
 21
329.570776016957
 31
0.0
  0
LINE
  5
8012
330
18
100
AcDbEntity
  8
0
 48
0.2
100
AcDbLine
 10
16.46764467255889
 20
327.1557125074959
 30
0.0
 11
17.86198223985616
 21
324.7406489980348
 31
0.0
  0
LINE
  5
8013
330
18
100
AcDbEntity
  8
0
 48
0.2
100
AcDbLine
 10
9.956319807153477
 20
328.255712507496
 30
0.0
 11
9.956319807153477
 21
333.9057125074959
 31
0.0
  0
ARC
  5
8014
330
18
100
AcDbEntity
  8
0
 48
0.2
100
AcDbCircle
 10
11.12631980715332
 20
331.3057125074961
 30
0.0
 40
2.669999999999886
100
AcDbArc
 50
115.9892335838293
 51
244.0107664161706
  0
LINE
  5
8015
330
18
100
AcDbEntity
  8
0
 48
0.2
100
AcDbLine
 10
20.65065737445115
 20
329.570776016957
 30
0.0
 11
22.04499494174843
 21
327.1557125074959
 31
0.0
  0
LINE
  5
8016
330
18
100
AcDbEntity
  8
0
 48
0.2
100
AcDbLine
 10
22.04499494174843
 20
327.1557125074959
 30
0.0
 11
20.65065737445115
 21
324.7406489980348
 31
0.0
  0
LINE
  5
8017
330
18
100
AcDbEntity
  8
0
 48
0.2
100
AcDbLine
 10
20.50631980715365
 20
329.320776016957
 30
0.0
 11
21.75631980715365
 21
327.1557125074959
 31
0.0
  0
LINE
  5
8018
330
18
100
AcDbEntity
  8
0
 48
0.2
100
AcDbLine
 10
21.75631980715365
 20
327.1557125074959
 30
0.0
 11
20.50631980715365
 21
324.9906489980348
 31
0.0
  0
LINE
  5
8019
330
18
100
AcDbEntity
  8
0
 48
0.2
100
AcDbLine
 10
18.00631980715365
 20
324.9906489980348
 30
0.0
 11
20.50631980715365
 21
324.9906489980348
 31
0.0
  0
LINE
  5
801A
330
18
100
AcDbEntity
  8
0
 48
0.2
100
AcDbLine
 10
18.00631980715365
 20
329.320776016957
 30
0.0
 11
20.50631980715365
 21
329.320776016957
 31
0.0
  0
CIRCLE
  5
801B
330
18
100
AcDbEntity
  8
0
 48
0.2
100
AcDbCircle
 10
19.25631980715365
 20
327.155712507496
 30
0.0
 40
1.5
  0
LINE
  5
801C
330
18
100
AcDbEntity
  8
0
 48
0.2
100
AcDbLine
 10
17.86198223985616
 20
324.7406489980348
 30
0.0
 11
20.65065737445115
 21
324.7406489980348
 31
0.0
  0
LINE
  5
801D
330
18
100
AcDbEntity
  8
0
 48
0.2
100
AcDbLine
 10
17.86198223985616
 20
329.570776016957
 30
0.0
 11
20.65065737445115
 21
329.570776016957
 31
0.0
  0
LINE
  5
819D
330
18
100
AcDbEntity
  8
0
100
AcDbLine
 10
35.81982813405033
 20
566.3893504274649
 30
0.0
 11
37.25631980715366
 21
566.3893504274649
 31
0.0
  0
LINE
  5
819E
330
18
100
AcDbEntity
  8
0
100
AcDbLine
 10
35.81982813405033
 20
565.3893504274649
 30
0.0
 11
37.25631980715366
 21
565.3893504274649
 31
0.0
  0
CIRCLE
  5
819F
330
18
100
AcDbEntity
  8
0
100
AcDbCircle
 10
37.75631980715365
 20
565.8893504274649
 30
0.0
 40
3.0
  0
CIRCLE
  5
81A0
330
18
100
AcDbEntity
  8
0
100
AcDbCircle
 10
37.75631980715365
 20
565.8893504274649
 30
0.0
 40
2.5
  0
ARC
  5
81A1
330
18
100
AcDbEntity
  8
0
100
AcDbCircle
 10
37.75631980715365
 20
565.8893504274649
 30
0.0
 40
2.0
100
AcDbArc
 50
165.5224878140701
 51
194.4775121859298
  0
LINE
  5
81A2
330
18
100
AcDbEntity
  8
0
100
AcDbLine
 10
38.25631980715366
 20
566.3893504274649
 30
0.0
 11
39.69281148025743
 21
566.3893504274649
 31
0.0
  0
LINE
  5
81A3
330
18
100
AcDbEntity
  8
0
100
AcDbLine
 10
38.25631980715366
 20
566.3893504274649
 30
0.0
 11
38.25631980715366
 21
567.8258421005686
 31
0.0
  0
LINE
  5
81A4
330
18
100
AcDbEntity
  8
0
100
AcDbLine
 10
37.25631980715366
 20
566.3893504274649
 30
0.0
 11
37.25631980715366
 21
567.8258421005686
 31
0.0
  0
ARC
  5
81A5
330
18
100
AcDbEntity
  8
0
100
AcDbCircle
 10
37.75631980715365
 20
565.8893504274649
 30
0.0
 40
2.0
100
AcDbArc
 50
75.52248781407134
 51
104.4775121859278
  0
LINE
  5
81A6
330
18
100
AcDbEntity
  8
0
100
AcDbLine
 10
38.25631980715366
 20
565.3893504274649
 30
0.0
 11
39.69281148025743
 21
565.3893504274649
 31
0.0
  0
ARC
  5
81A7
330
18
100
AcDbEntity
  8
0
100
AcDbCircle
 10
37.75631980715365
 20
565.8893504274649
 30
0.0
 40
2.0
100
AcDbArc
 50
255.5224878140713
 51
284.4775121859278
  0
LINE
  5
81A8
330
18
100
AcDbEntity
  8
0
100
AcDbLine
 10
37.25631980715366
 20
563.9528587543611
 30
0.0
 11
37.25631980715366
 21
565.3893504274649
 31
0.0
  0
LINE
  5
81A9
330
18
100
AcDbEntity
  8
0
100
AcDbLine
 10
38.25631980715366
 20
563.9528587543611
 30
0.0
 11
38.25631980715366
 21
565.3893504274649
 31
0.0
  0
ARC
  5
81AA
330
18
100
AcDbEntity
  8
0
100
AcDbCircle
 10
37.75631980715365
 20
565.8893504274649
 30
0.0
 40
2.0
100
AcDbArc
 50
345.5224878140701
 51
14.47751218592986
  0
CIRCLE
  5
81AB
330
18
100
AcDbEntity
  8
0
100
AcDbCircle
 10
37.75631980715365
 20
655.8893504274649
 30
0.0
 40
3.0
  0
LINE
  5
81AC
330
18
100
AcDbEntity
  8
0
100
AcDbLine
 10
38.25631980715366
 20
656.3893504274649
 30
0.0
 11
39.69281148025743
 21
656.3893504274649
 31
0.0
  0
LINE
  5
81AD
330
18
100
AcDbEntity
  8
0
100
AcDbLine
 10
38.25631980715366
 20
655.3893504274649
 30
0.0
 11
39.69281148025743
 21
655.3893504274649
 31
0.0
  0
CIRCLE
  5
81AE
330
18
100
AcDbEntity
  8
0
100
AcDbCircle
 10
37.75631980715365
 20
655.8893504274649
 30
0.0
 40
2.5
  0
LINE
  5
81AF
330
18
100
AcDbEntity
  8
0
100
AcDbLine
 10
38.25631980715366
 20
656.3893504274649
 30
0.0
 11
38.25631980715366
 21
657.8258421005687
 31
0.0
  0
LINE
  5
81B0
330
18
100
AcDbEntity
  8
0
100
AcDbLine
 10
37.25631980715366
 20
656.3893504274649
 30
0.0
 11
37.25631980715366
 21
657.8258421005687
 31
0.0
  0
ARC
  5
81B1
330
18
100
AcDbEntity
  8
0
100
AcDbCircle
 10
37.75631980715365
 20
655.8893504274649
 30
0.0
 40
2.0
100
AcDbArc
 50
75.52248781407134
 51
104.4775121859278
  0
ARC
  5
81B2
330
18
100
AcDbEntity
  8
0
100
AcDbCircle
 10
37.75631980715365
 20
655.8893504274649
 30
0.0
 40
2.0
100
AcDbArc
 50
255.5224878140713
 51
284.4775121859278
  0
LINE
  5
81B3
330
18
100
AcDbEntity
  8
0
100
AcDbLine
 10
37.25631980715366
 20
653.9528587543611
 30
0.0
 11
37.25631980715366
 21
655.3893504274649
 31
0.0
  0
LINE
  5
81B4
330
18
100
AcDbEntity
  8
0
100
AcDbLine
 10
38.25631980715366
 20
653.9528587543611
 30
0.0
 11
38.25631980715366
 21
655.3893504274649
 31
0.0
  0
ARC
  5
81B5
330
18
100
AcDbEntity
  8
0
100
AcDbCircle
 10
37.75631980715365
 20
655.8893504274649
 30
0.0
 40
2.0
100
AcDbArc
 50
165.5224878140701
 51
194.4775121859298
  0
LINE
  5
81B6
330
18
100
AcDbEntity
  8
0
100
AcDbLine
 10
35.81982813405033
 20
656.3893504274649
 30
0.0
 11
37.25631980715366
 21
656.3893504274649
 31
0.0
  0
LINE
  5
81B7
330
18
100
AcDbEntity
  8
0
100
AcDbLine
 10
35.81982813405033
 20
655.3893504274649
 30
0.0
 11
37.25631980715366
 21
655.3893504274649
 31
0.0
  0
ARC
  5
81B8
330
18
100
AcDbEntity
  8
0
100
AcDbCircle
 10
37.75631980715365
 20
655.8893504274649
 30
0.0
 40
2.0
100
AcDbArc
 50
345.5224878140701
 51
14.47751218592986
  0
TEXT
  5
81BA
330
18
100
AcDbEntity
  8
0
100
AcDbText
 10
-203.8085620304082
 20
405.4851120011059
 30
0.0
 40
3.0
  1
ＴＢ２
  7
MSｺﾞｼｯｸ
100
AcDbText
  0
LINE
  5
8281
330
18
100
AcDbEntity
  8
0
100
AcDbLine
 10
-107.3707076761149
 20
358.9182125074957
 30
0.0
 11
-107.3707076761149
 21
386.418212507496
 31
0.0
  0
LINE
  5
8282
330
18
100
AcDbEntity
  8
0
100
AcDbLine
 10
-105.7707076761155
 20
358.9182125074957
 30
0.0
 11
-105.7707076761155
 21
386.418212507496
 31
0.0
  0
LINE
  5
8283
330
18
100
AcDbEntity
  8
0
100
AcDbLine
 10
-93.17070767611573
 20
386.4182125074961
 30
0.0
 11
-93.17070767611584
 21
358.9182125074954
 31
0.0
  0
LINE
  5
8284
330
18
100
AcDbEntity
  8
0
100
AcDbLine
 10
-98.77070767611554
 20
367.6936125074961
 30
0.0
 11
-105.7707076761155
 21
367.6936125074961
 31
0.0
  0
LINE
  5
8285
330
18
100
AcDbEntity
  8
0
100
AcDbLine
 10
-98.77070767611554
 20
378.1936125074961
 30
0.0
 11
-105.7707076761155
 21
378.1936125074961
 31
0.0
  0
CIRCLE
  5
8286
330
18
100
AcDbEntity
  8
0
100
AcDbCircle
 10
-101.7707076761155
 20
369.1936125074961
 30
0.0
 40
0.5
  0
CIRCLE
  5
8287
330
18
100
AcDbEntity
  8
0
100
AcDbCircle
 10
-101.7707076761155
 20
371.6936125074961
 30
0.0
 40
0.5
  0
CIRCLE
  5
8288
330
18
100
AcDbEntity
  8
0
100
AcDbCircle
 10
-101.7707076761155
 20
376.6936125074961
 30
0.0
 40
0.5
  0
CIRCLE
  5
8289
330
18
100
AcDbEntity
  8
0
100
AcDbCircle
 10
-101.7707076761155
 20
374.1936125074961
 30
0.0
 40
0.5
  0
LINE
  5
828A
330
18
100
AcDbEntity
  8
0
100
AcDbLine
 10
-93.17070767611584
 20
358.9182125074954
 30
0.0
 11
-111.1707076761158
 21
358.9182125074959
 31
0.0
  0
LINE
  5
828B
330
18
100
AcDbEntity
  8
0
100
AcDbLine
 10
-105.7707076761155
 20
378.1936125074961
 30
0.0
 11
-105.7707076761155
 21
367.6936125074961
 31
0.0
  0
LINE
  5
828C
330
18
100
AcDbEntity
  8
0
100
AcDbLine
 10
-98.77070767611554
 20
378.1936125074961
 30
0.0
 11
-98.77070767611554
 21
367.6936125074961
 31
0.0
  0
LINE
  5
828D
330
18
100
AcDbEntity
  8
0
100
AcDbLine
 10
-99.27070767611553
 20
378.1936125074961
 30
0.0
 11
-99.27070767611553
 21
367.6936125074961
 31
0.0
  0
MTEXT
  5
828E
330
18
100
AcDbEntity
  8
0
100
AcDbMText
 10
-104.2752385640535
 20
391.7312124127015
 30
0.0
 40
4.0
 41
0.0
 71
     1
 72
     5
  1
P1
  7
MSｺﾞｼｯｸ
 73
     1
 44
1.0
  0
LINE
  5
828F
330
18
100
AcDbEntity
  8
0
100
AcDbLine
 10
-111.1707076761158
 20
386.418212507496
 30
0.0
 11
-93.17070767611573
 21
386.4182125074961
 31
0.0
  0
LINE
  5
8290
330
18
100
AcDbEntity
  8
0
370
    15
100
AcDbLine
 10
-98.07070767611572
 20
326.6936125074961
 30
0.0
 11
-98.07070767611572
 21
279.6936125074962
 31
0.0
  0
LINE
  5
8291
330
18
100
AcDbEntity
  8
0
370
    15
100
AcDbLine
 10
-104.5707076761157
 20
325.1936125074961
 30
0.0
 11
-104.5707076761157
 21
281.1936125074962
 31
0.0
  0
LINE
  5
8292
330
18
100
AcDbEntity
  8
0
370
    15
100
AcDbLine
 10
-96.07070767611572
 20
335.1936125074961
 30
0.0
 11
-96.07070767611572
 21
271.1936125074962
 31
0.0
  0
LINE
  5
8293
330
18
100
AcDbEntity
  8
0
370
    15
100
AcDbLine
 10
-106.5707076761157
 20
335.1936125074961
 30
0.0
 11
-106.5707076761157
 21
271.1936125074962
 31
0.0
  0
LINE
  5
8294
330
18
100
AcDbEntity
  8
0
100
AcDbLine
 10
-107.370707676115
 20
268.918212507496
 30
0.0
 11
-107.370707676115
 21
337.918212507496
 31
0.0
  0
LINE
  5
8295
330
18
100
AcDbEntity
  8
0
100
AcDbLine
 10
-93.17070767611584
 20
337.9182125074963
 30
0.0
 11
-93.17070767611573
 21
268.9182125074961
 31
0.0
  0
CIRCLE
  5
8296
330
18
100
AcDbEntity
  8
0
370
    15
100
AcDbCircle
 10
-101.3207076761157
 20
274.1936125074962
 30
0.0
 40
1.5
  0
LINE
  5
8297
330
18
100
AcDbEntity
  8
0
370
    15
100
AcDbLine
 10
-96.07070767611572
 20
271.1936125074962
 30
0.0
 11
-106.5707076761157
 21
271.1936125074962
 31
0.0
  0
LINE
  5
8298
330
18
100
AcDbEntity
  8
0
370
    15
100
AcDbLine
 10
-99.95813587662111
 20
271.8335689218111
 30
0.0
 11
-102.6832794756103
 21
271.8335689218111
 31
0.0
  0
LINE
  5
8299
330
18
100
AcDbEntity
  8
0
370
    15
100
AcDbLine
 10
-104.5707076761157
 20
281.1936125074962
 30
0.0
 11
-98.07070767611572
 21
279.6936125074962
 31
0.0
  0
LINE
  5
829A
330
18
100
AcDbEntity
  8
0
370
    15
100
AcDbLine
 10
-99.95813587662111
 20
276.5536560931814
 30
0.0
 11
-102.6832794756103
 21
276.5536560931814
 31
0.0
  0
LINE
  5
829B
330
18
100
AcDbEntity
  8
0
100
AcDbLine
 10
-93.17070767611584
 20
268.9182125074961
 30
0.0
 11
-111.1707076761158
 21
268.918212507496
 31
0.0
  0
LINE
  5
829C
330
18
100
AcDbEntity
  8
0
370
    15
100
AcDbLine
 10
-104.0458512751049
 20
274.1936125074962
 30
0.0
 11
-102.6832794756103
 21
271.8335689218111
 31
0.0
  0
LINE
  5
829D
330
18
100
AcDbEntity
  8
0
100
AcDbLine
 10
-105.7707076761154
 20
268.918212507496
 30
0.0
 11
-105.7707076761155
 21
271.1936125074962
 31
0.0
  0
LINE
  5
829E
330
18
100
AcDbEntity
  8
0
370
    15
100
AcDbLine
 10
-102.6832794756103
 20
276.5536560931814
 30
0.0
 11
-104.0458512751049
 21
274.1936125074962
 31
0.0
  0
LINE
  5
829F
330
18
100
AcDbEntity
  8
0
370
    15
100
AcDbLine
 10
-99.95813587662111
 20
271.8335689218111
 30
0.0
 11
-98.59556407712648
 21
274.1936125074962
 31
0.0
  0
LINE
  5
82A0
330
18
100
AcDbEntity
  8
0
370
    15
100
AcDbLine
 10
-98.59556407712648
 20
274.1936125074962
 30
0.0
 11
-99.95813587662111
 21
276.5536560931814
 31
0.0
  0
LINE
  5
82A1
330
18
100
AcDbEntity
  8
0
370
    15
100
AcDbLine
 10
-96.07070767611572
 20
335.1936125074961
 30
0.0
 11
-106.5707076761157
 21
335.1936125074961
 31
0.0
  0
LINE
  5
82A2
330
18
100
AcDbEntity
  8
0
370
    15
100
AcDbLine
 10
-99.95813587662111
 20
329.8335689218109
 30
0.0
 11
-102.6832794756103
 21
329.8335689218109
 31
0.0
  0
LINE
  5
82A3
330
18
100
AcDbEntity
  8
0
370
    15
100
AcDbLine
 10
-99.95813587662111
 20
334.5536560931813
 30
0.0
 11
-102.6832794756103
 21
334.5536560931813
 31
0.0
  0
CIRCLE
  5
82A4
330
18
100
AcDbEntity
  8
0
370
    15
100
AcDbCircle
 10
-101.3207076761157
 20
332.1936125074961
 30
0.0
 40
1.5
  0
MTEXT
  5
82A5
330
18
100
AcDbEntity
  8
0
100
AcDbMText
 10
-101.5996599251777
 20
341.255496027031
 30
0.0
 40
4.0
 41
0.0
 71
     5
 72
     5
  1
CN3
  7
MSｺﾞｼｯｸ
 73
     1
 44
1.0
  0
LINE
  5
82A6
330
18
100
AcDbEntity
  8
0
370
    15
100
AcDbLine
 10
-104.5707076761157
 20
325.1936125074961
 30
0.0
 11
-98.07070767611572
 21
326.6936125074961
 31
0.0
  0
LINE
  5
82A7
330
18
100
AcDbEntity
  8
0
100
AcDbLine
 10
-93.17070767611584
 20
337.9182125074961
 30
0.0
 11
-110.8707076761156
 21
337.918212507496
 31
0.0
  0
LINE
  5
82A8
330
18
100
AcDbEntity
  8
0
100
AcDbLine
 10
-105.7707076761155
 20
335.1936125074961
 30
0.0
 11
-105.7707076761154
 21
337.918212507496
 31
0.0
  0
LINE
  5
82A9
330
18
100
AcDbEntity
  8
0
100
AcDbLine
 10
-107.3707076761149
 20
332.9436125074961
 30
0.0
 11
-107.3707076761149
 21
327.4436125074961
 31
0.0
  0
LINE
  5
82AA
330
18
100
AcDbEntity
  8
0
370
    15
100
AcDbLine
 10
-104.0458512751049
 20
332.1936125074961
 30
0.0
 11
-102.6832794756103
 21
334.5536560931813
 31
0.0
  0
LINE
  5
82AB
330
18
100
AcDbEntity
  8
0
370
    15
100
AcDbLine
 10
-102.6832794756103
 20
329.8335689218109
 30
0.0
 11
-104.0458512751049
 21
332.1936125074961
 31
0.0
  0
LINE
  5
82AC
330
18
100
AcDbEntity
  8
0
370
    15
100
AcDbLine
 10
-99.95813587662111
 20
334.5536560931813
 30
0.0
 11
-98.59556407712648
 21
332.1936125074961
 31
0.0
  0
LINE
  5
82AD
330
18
100
AcDbEntity
  8
0
370
    15
100
AcDbLine
 10
-98.59556407712648
 20
332.1936125074961
 30
0.0
 11
-99.95813587662111
 21
329.8335689218109
 31
0.0
  0
LINE
  5
82B8
330
18
100
AcDbEntity
  8
0
100
AcDbLine
 10
-88.17070767611586
 20
478.4182125074966
 30
0.0
 11
-88.17070767611586
 21
243.4182125074966
 31
0.0
  0
HATCH
  5
8318
330
18
100
AcDbEntity
  8
0
100
AcDbHatch
 10
0.0
 20
0.0
 30
0.0
210
0.0
220
0.0
230
1.0
  2
SOLID
 70
     1
 71
     1
 91
        2
 92
       17
 93
        1
 72
     2
 10
-218.1497214489455
 20
256.6949497855305
 40
0.6007500000000002
 50
0.0
 51
360.0
 73
     1
 97
        1
330
8321
 92
        1
 93
        8
 72
     2
 10
-218.1487900535968
 20
256.6968125762289
 40
1.00311322310025
 50
113.589777272614
 51
269.9468005913759
 73
     1
 72
     2
 10
-218.1497214489455
 20
256.4946997855306
 40
0.8009999999999999
 50
270.0
 51
450.0
 73
     1
 72
     1
 10
-218.1497214489455
 20
257.295699785531
 11
-215.9069214489455
 21
257.295699785531
 72
     1
 10
-215.9069214489455
 20
257.295699785531
 11
-216.147221448945
 21
255.2931997855314
 72
     1
 10
-216.147221448945
 20
255.2931997855314
 11
-220.5527214489458
 21
255.2931997855314
 72
     1
 10
-220.5527214489458
 20
255.2931997855314
 11
-220.1522214489442
 21
258.4971997855311
 72
     1
 10
-220.1522214489442
 20
258.4971997855311
 11
-215.7467214489453
 21
258.4971997855311
 72
     1
 10
-215.7467214489453
 20
258.4971997855311
 11
-218.5502214489452
 21
257.6160997855306
 97
        8
330
8323
330
8320
330
8319
330
8326
330
831B
330
8322
330
831C
330
831A
 75
     0
 76
     1
 98
        1
 10
-419.6274315431812
 20
259.1744246012906
  0
LINE
  5
8319
102
{ACAD_REACTORS
330
8318
102
}
330
18
100
AcDbEntity
  8
0
100
AcDbLine
 10
-218.1497214489455
 20
257.295699785531
 30
0.0
 11
-215.9069214489455
 21
257.295699785531
 31
0.0
  0
LINE
  5
831A
102
{ACAD_REACTORS
330
8318
102
}
330
18
100
AcDbEntity
  8
0
100
AcDbLine
 10
-215.7467214489453
 20
258.4971997855311
 30
0.0
 11
-218.5502214489452
 21
257.6160997855306
 31
0.0
  0
LINE
  5
831B
102
{ACAD_REACTORS
330
8318
102
}
330
18
100
AcDbEntity
  8
0
100
AcDbLine
 10
-220.5527214489458
 20
255.2931997855314
 30
0.0
 11
-216.147221448945
 21
255.2931997855314
 31
0.0
  0
LINE
  5
831C
102
{ACAD_REACTORS
330
8318
102
}
330
18
100
AcDbEntity
  8
0
100
AcDbLine
 10
-220.1522214489442
 20
258.4971997855311
 30
0.0
 11
-215.7467214489453
 21
258.4971997855311
 31
0.0
  0
LINE
  5
831D
330
18
100
AcDbEntity
  8
0
100
AcDbLine
 10
-221.8097948505629
 20
259.9947057049182
 30
0.0
 11
-206.8097948505629
 21
259.9947057049182
 31
0.0
  0
TEXT
  5
831E
330
18
100
AcDbEntity
  8
0
100
AcDbText
 10
-220.5950763713564
 20
260.6799586366444
 30
0.0
 40
2.0
  1
Certificate
  7
MSｺﾞｼｯｸ
 11
-220.5950763713564
 21
260.3144764031419
 31
0.0
100
AcDbText
 73
     1
  0
LWPOLYLINE
  5
831F
330
18
100
AcDbEntity
  8
0
100
AcDbPolyline
 90
        8
 70
     1
 43
0.0
 10
-221.3097948505629
 20
253.9947057049182
 10
-207.3097948505629
 20
253.9947057049178
 42
0.4142135623730951
 10
-206.8097948505629
 20
254.4947057049177
 10
-206.8097948505629
 20
263.4947057049178
 42
0.4142135623730951
 10
-207.3097948505629
 20
263.9947057049178
 10
-221.3097948505629
 20
263.9947057049178
 42
0.4142135623730996
 10
-221.8097948505629
 20
263.4947057049178
 10
-221.8097948505629
 20
254.4947057049182
 42
0.4142135623730904
  0
ARC
  5
8320
102
{ACAD_REACTORS
330
8318
102
}
330
18
100
AcDbEntity
  8
0
100
AcDbCircle
 10
-218.1497214489455
 20
256.4946997855306
 30
0.0
 40
0.8009999999999999
100
AcDbArc
 50
270.0
 51
90.0
  0
CIRCLE
  5
8321
102
{ACAD_REACTORS
330
8318
102
}
330
18
100
AcDbEntity
  8
0
100
AcDbCircle
 10
-218.1497214489455
 20
256.6949497855305
 30
0.0
 40
0.6007500000000002
  0
LINE
  5
8322
102
{ACAD_REACTORS
330
8318
102
}
330
18
100
AcDbEntity
  8
0
100
AcDbLine
 10
-220.5527214489458
 20
255.2931997855314
 30
0.0
 11
-220.1522214489442
 21
258.4971997855311
 31
0.0
  0
ARC
  5
8323
102
{ACAD_REACTORS
330
8318
102
}
330
18
100
AcDbEntity
  8
0
100
AcDbCircle
 10
-218.1487900535968
 20
256.6968125762289
 30
0.0
 40
1.00311322310025
100
AcDbArc
 50
113.589777272614
 51
269.9468005913759
  0
TEXT
  5
8324
330
18
100
AcDbEntity
  8
0
100
AcDbText
 10
-214.8092091144182
 20
257.0376963331002
 30
0.0
 40
1.44
  1
NIKKI
  7
MSｺﾞｼｯｸ
100
AcDbText
  0
TEXT
  5
8325
330
18
100
AcDbEntity
  8
0
100
AcDbText
 10
-214.9306222245569
 20
255.3409339241145
 30
0.0
 40
1.44
  1
DENSO
  7
MSｺﾞｼｯｸ
100
AcDbText
  0
LINE
  5
8326
102
{ACAD_REACTORS
330
8318
102
}
330
18
100
AcDbEntity
  8
0
100
AcDbLine
 10
-216.147221448945
 20
255.2931997855314
 30
0.0
 11
-215.9069214489455
 21
257.295699785531
 31
0.0
  0
TEXT
  5
8327
330
18
100
AcDbEntity
  8
0
100
AcDbText
 10
131.6019054897642
 20
259.3469054646559
 30
0.0
 40
2.7
  1
MADE IN JAPAN
 41
0.8
  7
MSｺﾞｼｯｸ
100
AcDbText
  0
LINE
  5
8328
330
18
100
AcDbEntity
  8
0
100
AcDbLine
 10
153.5591821401521
 20
296.9548984961427
 30
0.0
 11
153.5591821401521
 21
258.9548984961427
 31
0.0
  0
LINE
  5
8329
330
18
100
AcDbEntity
  8
0
100
AcDbLine
 10
123.5591821401522
 20
296.9548984961427
 30
0.0
 11
123.5591821401522
 21
258.9548984961427
 31
0.0
  0
LINE
  5
832A
330
18
100
AcDbEntity
  8
0
100
AcDbLine
 10
152.5591821401521
 20
257.9548984961427
 30
0.0
 11
124.5591821401521
 21
257.9548984961427
 31
0.0
  0
ARC
  5
832B
330
18
100
AcDbEntity
  8
0
100
AcDbCircle
 10
124.5591821401521
 20
258.9548984961427
 30
0.0
 40
1.0
100
AcDbArc
 50
180.0
 51
270.0
  0
ARC
  5
832C
330
18
100
AcDbEntity
  8
0
100
AcDbCircle
 10
152.5591821401521
 20
258.9548984961427
 30
0.0
 40
1.0
100
AcDbArc
 50
270.0
 51
0.0
  0
LINE
  5
832D
330
18
100
AcDbEntity
  8
0
100
AcDbLine
 10
155.5591821401521
 20
311.4548984961427
 30
0.0
 11
121.5591821401521
 21
311.4548984961427
 31
0.0
  0
LINE
  5
832E
330
18
100
AcDbEntity
  8
0
100
AcDbLine
 10
121.0591821401521
 20
304.4548984961427
 30
0.0
 11
156.0591821401521
 21
304.4548984961427
 31
0.0
  0
LINE
  5
832F
330
18
100
AcDbEntity
  8
0
100
AcDbLine
 10
121.5591821401521
 20
299.4548984961427
 30
0.0
 11
155.5591821401521
 21
299.4548984961427
 31
0.0
  0
TEXT
  5
8330
330
18
100
AcDbEntity
  8
0
100
AcDbText
 10
129.160399455357
 20
292.2966190428435
 30
0.0
 40
3.299999999999999
  1
NCR-*A**
  7
MSｺﾞｼｯｸ
100
AcDbText
  0
LINE
  5
8331
330
18
100
AcDbEntity
  8
0
100
AcDbLine
 10
142.0591821401521
 20
291.4548984961427
 30
0.0
 11
151.5591821401521
 21
291.4548984961427
 31
0.0
  0
LINE
  5
8332
330
18
100
AcDbEntity
  8
0
100
AcDbLine
 10
151.5591821401521
 20
285.9548984961427
 30
0.0
 11
142.0591821401521
 21
285.9548984961427
 31
0.0
  0
TEXT
  5
8333
330
18
100
AcDbEntity
  8
0
100
AcDbText
 10
126.2029646741502
 20
281.5920365030135
 30
0.0
 40
2.5
  1
ＣＯＮＴ.ＡＭＰＳ    *** Ａ
 41
0.6
  7
MSｺﾞｼｯｸ
100
AcDbText
  0
LINE
  5
8334
330
18
100
AcDbEntity
  8
0
100
AcDbLine
 10
125.5591821401521
 20
284.9548984961427
 30
0.0
 11
151.5591821401521
 21
284.9548984961427
 31
0.0
  0
LINE
  5
8335
330
18
100
AcDbEntity
  8
0
100
AcDbLine
 10
124.5591821401521
 20
297.9548984961427
 30
0.0
 11
152.5591821401521
 21
297.9548984961427
 31
0.0
  0
LINE
  5
8336
330
18
100
AcDbEntity
  8
0
100
AcDbLine
 10
151.5591821401521
 20
276.9548984961427
 30
0.0
 11
125.5591821401521
 21
276.9548984961427
 31
0.0
  0
LINE
  5
8337
330
18
100
AcDbEntity
  8
0
100
AcDbLine
 10
151.5591821401521
 20
265.9548984961427
 30
0.0
 11
125.5591821401521
 21
265.9548984961427
 31
0.0
  0
TEXT
  5
8338
330
18
100
AcDbEntity
  8
0
100
AcDbText
 10
125.2227286555244
 20
262.5117009901812
 30
0.0
 40
2.7
  1
NIKKI DENSO CO.,LTD
 41
0.8
  7
MSｺﾞｼｯｸ
100
AcDbText
  0
TEXT
  5
8339
330
18
100
AcDbEntity
  8
0
100
AcDbText
 10
126.2029646741502
 20
277.5920365030135
 30
0.0
 40
2.5
  1
ＰＥＡＫ.ＡＭＰＳ    *** Ａ
 41
0.6
  7
MSｺﾞｼｯｸ
100
AcDbText
  0
LINE
  5
833A
330
18
100
AcDbEntity
  8
0
100
AcDbLine
 10
125.5591821401521
 20
280.9548984961427
 30
0.0
 11
151.5591821401521
 21
280.9548984961427
 31
0.0
  0
TEXT
  5
833B
330
18
100
AcDbEntity
  8
0
100
AcDbText
 10
122.1821054881984
 20
307.7281659737703
 30
0.0
 40
2.0
  1
MODEL:NCR-*A**
 41
1.199999999999999
  7
MSｺﾞｼｯｸ
 11
122.1821054881984
 21
307.3626837402678
 31
0.0
100
AcDbText
 73
     1
  0
TEXT
  5
833C
330
18
100
AcDbEntity
  8
0
100
AcDbText
 10
122.1549789153868
 20
305.0137772953897
 30
0.0
 40
2.0
  1
SER No.******
 41
1.199999999999999
  7
MSｺﾞｼｯｸ
 11
122.1549789153868
 21
304.6482950618872
 31
0.0
100
AcDbText
 73
     1
  0
LINE
  5
833D
102
{ACAD_REACTORS
330
8341
102
}
330
18
100
AcDbEntity
  8
0
100
AcDbLine
 10
126.0082286412289
 20
302.310921914144
 30
0.0
 11
128.2510286412289
 21
302.310921914144
 31
0.0
  0
LINE
  5
833E
102
{ACAD_REACTORS
330
8341
102
}
330
18
100
AcDbEntity
  8
0
100
AcDbLine
 10
128.4112286412291
 20
303.5124219141441
 30
0.0
 11
125.6077286412291
 21
302.6313219141436
 31
0.0
  0
LINE
  5
833F
102
{ACAD_REACTORS
330
8341
102
}
330
18
100
AcDbEntity
  8
0
100
AcDbLine
 10
123.6052286412286
 20
300.3084219141444
 30
0.0
 11
128.0107286412294
 21
300.3084219141444
 31
0.0
  0
LINE
  5
8340
102
{ACAD_REACTORS
330
8341
102
}
330
18
100
AcDbEntity
  8
0
100
AcDbLine
 10
124.0057286412302
 20
303.5124219141441
 30
0.0
 11
128.4112286412291
 21
303.5124219141441
 31
0.0
  0
HATCH
  5
8341
330
18
100
AcDbEntity
  8
0
100
AcDbHatch
 10
0.0
 20
0.0
 30
0.0
210
0.0
220
0.0
230
1.0
  2
SOLID
 70
     1
 71
     1
 91
        2
 92
       17
 93
        1
 72
     2
 10
126.0082286412289
 20
301.7101719141435
 40
0.6007500000000002
 50
0.0
 51
360.0
 73
     1
 97
        1
330
834A
 92
        1
 93
        8
 72
     2
 10
126.0091600365776
 20
301.7120347048419
 40
1.00311322310025
 50
113.589777272614
 51
269.9468005913759
 73
     1
 72
     2
 10
126.0082286412289
 20
301.5099219141436
 40
0.8009999999999999
 50
270.0
 51
450.0
 73
     1
 72
     1
 10
126.0082286412289
 20
302.310921914144
 11
128.2510286412289
 21
302.310921914144
 72
     1
 10
128.2510286412289
 20
302.310921914144
 11
128.0107286412294
 21
300.3084219141444
 72
     1
 10
128.0107286412294
 20
300.3084219141444
 11
123.6052286412286
 21
300.3084219141444
 72
     1
 10
123.6052286412286
 20
300.3084219141444
 11
124.0057286412302
 21
303.5124219141441
 72
     1
 10
124.0057286412302
 20
303.5124219141441
 11
128.4112286412291
 21
303.5124219141441
 72
     1
 10
128.4112286412291
 20
303.5124219141441
 11
125.6077286412291
 21
302.6313219141436
 97
        8
330
834C
330
8349
330
833D
330
8356
330
833F
330
834B
330
8340
330
833E
 75
     0
 76
     1
 98
        1
 10
-75.46948145300667
 20
304.1896467299036
  0
LINE
  5
8342
330
18
100
AcDbEntity
  8
0
100
AcDbLine
 10
140.0591821401521
 20
285.9548984961427
 30
0.0
 11
125.5591821401521
 21
285.9548984961427
 31
0.0
  0
LINE
  5
8343
330
18
100
AcDbEntity
  8
0
100
AcDbLine
 10
125.5591821401521
 20
291.4548984961427
 30
0.0
 11
140.0591821401521
 21
291.4548984961427
 31
0.0
  0
TEXT
  5
8344
330
18
100
AcDbEntity
  8
0
100
AcDbText
 10
126.2029646741502
 20
273.5920365030135
 30
0.0
 40
2.5
  1
ＳＯＵＲＣＥ
 41
0.6
  7
MSｺﾞｼｯｸ
100
AcDbText
  0
LINE
  5
8345
330
18
100
AcDbEntity
  8
0
100
AcDbLine
 10
125.5591821401521
 20
285.9548984961427
 30
0.0
 11
125.5591821401521
 21
291.4548984961427
 31
0.0
  0
LINE
  5
8346
330
18
100
AcDbEntity
  8
0
100
AcDbLine
 10
125.5591821401521
 20
265.9548984961427
 30
0.0
 11
125.5591821401521
 21
284.9548984961427
 31
0.0
  0
LINE
  5
8347
330
18
100
AcDbEntity
  8
0
100
AcDbLine
 10
121.0591821401521
 20
310.9548984961427
 30
0.0
 11
121.0591821401521
 21
299.9548984961427
 31
0.0
  0
ARC
  5
8348
330
18
100
AcDbEntity
  8
0
100
AcDbCircle
 10
121.5591821401521
 20
299.9548984961427
 30
0.0
 40
0.5
100
AcDbArc
 50
180.0
 51
270.0
  0
ARC
  5
8349
102
{ACAD_REACTORS
330
8341
102
}
330
18
100
AcDbEntity
  8
0
100
AcDbCircle
 10
126.0082286412289
 20
301.5099219141436
 30
0.0
 40
0.8009999999999999
100
AcDbArc
 50
270.0
 51
90.0
  0
CIRCLE
  5
834A
102
{ACAD_REACTORS
330
8341
102
}
330
18
100
AcDbEntity
  8
0
100
AcDbCircle
 10
126.0082286412289
 20
301.7101719141435
 30
0.0
 40
0.6007500000000002
  0
LINE
  5
834B
102
{ACAD_REACTORS
330
8341
102
}
330
18
100
AcDbEntity
  8
0
100
AcDbLine
 10
123.6052286412286
 20
300.3084219141444
 30
0.0
 11
124.0057286412302
 21
303.5124219141441
 31
0.0
  0
ARC
  5
834C
102
{ACAD_REACTORS
330
8341
102
}
330
18
100
AcDbEntity
  8
0
100
AcDbCircle
 10
126.0091600365776
 20
301.7120347048419
 30
0.0
 40
1.00311322310025
100
AcDbArc
 50
113.589777272614
 51
269.9468005913759
  0
ARC
  5
834D
330
18
100
AcDbEntity
  8
0
100
AcDbCircle
 10
124.5591821401521
 20
296.9548984961427
 30
0.0
 40
1.0
100
AcDbArc
 50
90.0
 51
180.0
  0
ARC
  5
834E
330
18
100
AcDbEntity
  8
0
100
AcDbCircle
 10
121.5591821401521
 20
310.9548984961427
 30
0.0
 40
0.5
100
AcDbArc
 50
90.0
 51
180.0
  0
LINE
  5
834F
330
18
100
AcDbEntity
  8
0
100
AcDbLine
 10
140.0591821401521
 20
291.4548984961427
 30
0.0
 11
140.0591821401521
 21
285.9548984961427
 31
0.0
  0
LINE
  5
8350
330
18
100
AcDbEntity
  8
0
100
AcDbLine
 10
142.0591821401521
 20
285.9548984961427
 30
0.0
 11
142.0591821401521
 21
291.4548984961427
 31
0.0
  0
TEXT
  5
8351
330
18
100
AcDbEntity
  8
0
100
AcDbText
 10
128.6307572192208
 20
286.9249236599569
 30
0.0
 40
3.299999999999999
  1
＊＊＊
 41
0.8
  7
MSｺﾞｼｯｸ
100
AcDbText
  0
TEXT
  5
8352
330
18
100
AcDbEntity
  8
0
100
AcDbText
 10
134.5441793863192
 20
268.0489400333556
 30
0.0
 40
5.0
  1
＊＊＊
 41
0.45
  7
MSｺﾞｼｯｸ
100
AcDbText
  0
LINE
  5
8353
330
18
100
AcDbEntity
  8
0
100
AcDbLine
 10
140.3091821401521
 20
288.7048984961427
 30
0.0
 11
141.8091821401521
 21
288.7048984961427
 31
0.0
  0
TEXT
  5
8354
330
18
100
AcDbEntity
  8
0
100
AcDbText
 10
129.2273278656175
 20
300.3561560527275
 30
0.0
 40
1.44
  1
DENSO
 41
1.3
  7
MSｺﾞｼｯｸ
100
AcDbText
  0
TEXT
  5
8355
330
18
100
AcDbEntity
  8
0
100
AcDbText
 10
129.3487409757563
 20
302.0529184617132
 30
0.0
 40
1.44
  1
NIKKI
 41
1.25
  7
MSｺﾞｼｯｸ
100
AcDbText
  0
LINE
  5
8356
102
{ACAD_REACTORS
330
8341
102
}
330
18
100
AcDbEntity
  8
0
100
AcDbLine
 10
128.0107286412294
 20
300.3084219141444
 30
0.0
 11
128.2510286412289
 21
302.310921914144
 31
0.0
  0
LINE
  5
8357
330
18
100
AcDbEntity
  8
0
100
AcDbLine
 10
151.5591821401521
 20
291.4548984961427
 30
0.0
 11
151.5591821401521
 21
285.9548984961427
 31
0.0
  0
LINE
  5
8358
330
18
100
AcDbEntity
  8
0
100
AcDbLine
 10
151.5591821401521
 20
284.9548984961427
 30
0.0
 11
151.5591821401521
 21
265.9548984961427
 31
0.0
  0
LINE
  5
8359
330
18
100
AcDbEntity
  8
0
100
AcDbLine
 10
156.0591821401521
 20
299.9548984961427
 30
0.0
 11
156.0591821401521
 21
310.9548984961427
 31
0.0
  0
ARC
  5
835A
330
18
100
AcDbEntity
  8
0
100
AcDbCircle
 10
152.5591821401521
 20
296.9548984961427
 30
0.0
 40
1.0
100
AcDbArc
 50
0.0
 51
90.0
  0
ARC
  5
835B
330
18
100
AcDbEntity
  8
0
100
AcDbCircle
 10
155.5591821401521
 20
299.9548984961427
 30
0.0
 40
0.5
100
AcDbArc
 50
270.0
 51
0.0
  0
ARC
  5
835C
330
18
100
AcDbEntity
  8
0
100
AcDbCircle
 10
155.5591821401521
 20
310.9548984961427
 30
0.0
 40
0.5
100
AcDbArc
 50
0.0
 51
90.0
  0
TEXT
  5
835D
330
18
100
AcDbEntity
  8
0
100
AcDbText
 10
140.6808425347026
 20
301.9594937725796
 30
137.5
 40
1.5
  1
SN-16140
  7
MSｺﾞｼｯｸ
 11
140.6808425347026
 21
301.6853820974527
 31
137.5
100
AcDbText
 73
     1
  0
TEXT
  5
835E
330
18
100
AcDbEntity
  8
0
100
AcDbText
 10
140.6808425347026
 20
300.0897077221943
 30
137.5
 40
1.5
  1
MADE IN JAPAN
  7
MSｺﾞｼｯｸ
 11
140.6808425347026
 21
299.8155960470674
 31
137.5
100
AcDbText
 73
     1
  0
MTEXT
  5
843F
330
18
100
AcDbEntity
  8
0
100
AcDbMText
 10
-171.0444169014837
 20
288.215410072366
 30
0.0
 40
2.5
 41
0.0
 71
     1
 72
     5
  1
０Ｖ
  7
MSｺﾞｼｯｸ
 73
     1
 44
1.0
  0
MTEXT
  5
8440
330
18
100
AcDbEntity
  8
0
100
AcDbMText
 10
-173.7195321551754
 20
294.1607800719914
 30
0.0
 40
2.5
 41
0.0
 71
     1
 72
     5
  1
２４Ｖ
  7
MSｺﾞｼｯｸ
 73
     1
 44
1.0
  0
MTEXT
  5
8441
330
18
100
AcDbEntity
  8
0
100
AcDbMText
 10
-162.7774265261382
 20
305.0558907264278
 30
0.0
 40
3.0
 41
0.0
 71
     1
 72
     5
  1
ＴＢ１
  7
MSｺﾞｼｯｸ
 73
     1
 44
1.0
  0
MTEXT
  5
8442
330
18
100
AcDbEntity
  8
0
100
AcDbMText
 10
-131.3620350308489
 20
399.775317282387
 30
0.0
 40
2.0
 41
0.0
 71
     1
 72
     5
  1
ＳＴＡＴＵＳ
  7
MSｺﾞｼｯｸ
 73
     1
 44
1.0
  0
MTEXT
  5
8443
330
18
100
AcDbEntity
  8
0
100
AcDbMText
 10
-138.793860153121
 20
370.0627911480357
 30
0.0
 40
2.0
 41
0.0
 71
     1
 72
     5
  1
Ｊ１
  7
MSｺﾞｼｯｸ
 73
     1
 44
1.0
  0
MTEXT
  5
8444
330
18
100
AcDbEntity
  8
0
100
AcDbMText
 10
-138.6335455628541
 20
353.0847535650598
 30
0.0
 40
2.0
 41
0.0
 71
     1
 72
     5
  1
Ｊ２
  7
MSｺﾞｼｯｸ
 73
     1
 44
1.0
  0
MTEXT
  5
8445
330
18
100
AcDbEntity
  8
0
100
AcDbMText
 10
-139.6941134839297
 20
318.8960159220398
 30
0.0
 40
2.0
 41
0.0
 71
     1
 72
     5
  1
ＣＮ２
  7
MSｺﾞｼｯｸ
 73
     1
 44
1.0
  0
MTEXT
  5
8446
330
18
100
AcDbEntity
  8
0
100
AcDbMText
 10
-139.214752831698
 20
280.1093477838043
 30
0.0
 40
2.0
 41
0.0
 71
     1
 72
     5
  1
ＣＮ１
  7
MSｺﾞｼｯｸ
 73
     1
 44
1.0
  0
LINE
  5
85DC
330
18
100
AcDbEntity
  8
0
100
AcDbLine
 10
-169.0071993492188
 20
301.9182125074955
 30
0.0
 11
-167.5707076761154
 21
301.9182125074955
 31
0.0
  0
LINE
  5
85DD
330
18
100
AcDbEntity
  8
0
100
AcDbLine
 10
-169.0071993492188
 20
302.9182125074955
 30
0.0
 11
-167.5707076761154
 21
302.9182125074955
 31
0.0
  0
CIRCLE
  5
85DE
330
18
100
AcDbEntity
  8
0
100
AcDbCircle
 10
-167.0707076761154
 20
302.4182125074955
 30
0.0
 40
2.5
  0
CIRCLE
  5
85DF
330
18
100
AcDbEntity
  8
0
100
AcDbCircle
 10
-167.0707076761154
 20
302.4182125074955
 30
0.0
 40
3.0
  0
CIRCLE
  5
85E0
330
18
100
AcDbEntity
  8
0
100
AcDbCircle
 10
-167.0707076761154
 20
302.4182125074955
 30
0.0
 40
3.0
  0
ARC
  5
85E1
330
18
100
AcDbEntity
  8
0
100
AcDbCircle
 10
-167.0707076761154
 20
302.4182125074955
 30
0.0
 40
2.0
100
AcDbArc
 50
165.5224878140701
 51
194.4775121859298
  0
ARC
  5
85E2
330
18
100
AcDbEntity
  8
0
100
AcDbCircle
 10
-167.0707076761154
 20
302.4182125074955
 30
0.0
 40
2.0
100
AcDbArc
 50
345.5224878140701
 51
14.47751218592986
  0
LINE
  5
85E3
330
18
100
AcDbEntity
  8
0
100
AcDbLine
 10
-166.5707076761155
 20
301.9182125074955
 30
0.0
 11
-165.1342160030117
 21
301.9182125074955
 31
0.0
  0
ARC
  5
85E4
330
18
100
AcDbEntity
  8
0
100
AcDbCircle
 10
-167.0707076761154
 20
302.4182125074955
 30
0.0
 40
2.0
100
AcDbArc
 50
75.52248781407212
 51
104.4775121859278
  0
LINE
  5
85E5
330
18
100
AcDbEntity
  8
0
100
AcDbLine
 10
-167.5707076761154
 20
302.9182125074955
 30
0.0
 11
-167.5707076761154
 21
304.3547041805993
 31
0.0
  0
LINE
  5
85E6
330
18
100
AcDbEntity
  8
0
100
AcDbLine
 10
-166.5707076761155
 20
302.9182125074955
 30
0.0
 11
-166.5707076761155
 21
304.3547041805993
 31
0.0
  0
LINE
  5
85E7
330
18
100
AcDbEntity
  8
0
100
AcDbLine
 10
-166.5707076761155
 20
302.9182125074955
 30
0.0
 11
-165.1342160030117
 21
302.9182125074955
 31
0.0
  0
ARC
  5
85E8
330
18
100
AcDbEntity
  8
0
100
AcDbCircle
 10
-167.0707076761154
 20
302.4182125074955
 30
0.0
 40
2.0
100
AcDbArc
 50
255.5224878140716
 51
284.4775121859282
  0
LINE
  5
85E9
330
18
100
AcDbEntity
  8
0
100
AcDbLine
 10
-166.5707076761155
 20
300.4817208343917
 30
0.0
 11
-166.5707076761155
 21
301.9182125074955
 31
0.0
  0
LINE
  5
85EA
330
18
100
AcDbEntity
  8
0
100
AcDbLine
 10
-167.5707076761154
 20
300.4817208343917
 30
0.0
 11
-167.5707076761154
 21
301.9182125074955
 31
0.0
  0
LINE
  5
85EC
330
18
100
AcDbEntity
  8
0
100
AcDbLine
 10
-160.9707076761154
 20
285.8082125074957
 30
0.0
 11
-160.9707076761154
 21
279.5132125074951
 31
0.0
  0
LINE
  5
85F1
330
18
100
AcDbEntity
  8
0
100
AcDbLine
 10
-160.9707076761154
 20
300.5132125074957
 30
0.0
 11
-160.9707076761154
 21
294.2182125074956
 31
0.0
  0
INSERT
  5
85F2
330
18
100
AcDbEntity
  8
0
100
AcDbBlockReference
  2
VORDANS1
 10
-164.3707076761152
 20
281.0082125074956
 30
0.0
  0
LWPOLYLINE
  5
8676
330
18
100
AcDbEntity
  8
0
100
AcDbPolyline
 90
        8
 70
     0
 43
0.0
 38
1.004996417558615E+99
 10
30.45631994112809
 20
282.0082122754448
 42
-0.0034483591116001
 10
30.55962992797224
 20
281.8175236593036
 42
-0.0115542971442169
 10
30.65114233767944
 20
281.6359611620868
 10
30.67979159940594
 20
281.5726339955702
 42
-0.0214451454493749
 10
30.7247549068575
 20
281.4563723003726
 42
-0.0361324550867008
 10
30.75084129850048
 20
281.3548803850719
 10
30.75494364446218
 20
281.323382815302
 10
30.75631994112809
 20
281.2940694325905
  0
LWPOLYLINE
  5
8677
330
18
100
AcDbEntity
  8
0
100
AcDbPolyline
 90
        8
 70
     0
 43
0.0
 38
1.004996417558615E+99
 10
30.75631994112809
 20
298.7323551182991
 42
-0.0426465887263262
 10
30.75091394891515
 20
298.6719798506005
 10
30.74046390629066
 20
298.6231938068364
 42
-0.0303643048025655
 10
30.70466963948552
 20
298.5142645342345
 42
-0.0178342398264282
 10
30.65144099224876
 20
298.391099511273
 10
30.6078281641388
 20
298.3018519780919
 42
-0.007436110675559
 10
30.50882930798273
 20
298.1143416031345
 10
30.45631994112809
 20
298.0182122754448
  0
LWPOLYLINE
  5
8678
330
18
100
AcDbEntity
  8
0
100
AcDbPolyline
 90
        7
 70
     0
 43
0.0
 38
1.004996417558615E+99
 10
28.76631994112808
 20
289.4565074953429
 42
0.0010354907219746
 10
28.71955178247919
 20
289.4394024213383
 10
28.66589297365672
 20
289.419502316541
 10
28.61296430270572
 20
289.3995725947771
 42
0.0054090623159217
 10
28.40667695936894
 20
289.3187699477083
 10
28.33556396762977
 20
289.2896347849526
 10
28.26631994112808
 20
289.2605577097656
  0
LWPOLYLINE
  5
8679
330
18
100
AcDbEntity
  8
0
100
AcDbPolyline
 90
        7
 70
     0
 43
0.0
 38
1.004996417558615E+99
 10
28.26631994112808
 20
293.0705577097656
 42
-0.0043862742691308
 10
28.40615641372276
 20
293.1285592270016
 10
28.50782493190035
 20
293.1690419564793
 10
28.61288454909018
 20
293.2095423323253
 42
-0.0025025260483379
 10
28.71934617057093
 20
293.2493267351567
 10
28.74282412055245
 20
293.2579415451696
 10
28.76631994112808
 20
293.2665074953429
  0
LWPOLYLINE
  5
867A
330
18
100
AcDbEntity
  8
0
100
AcDbPolyline
 90
        7
 70
     0
 43
0.0
 38
1.004996417558615E+99
 10
28.26631994112808
 20
290.765866841124
 42
0.0044011835197963
 10
28.40667683231344
 20
290.7076546546099
 10
28.50820567072104
 20
290.667233452682
 10
28.61296428320526
 20
290.6268519635118
 42
0.0025073429045212
 10
28.71955173331969
 20
290.5870221476465
 10
28.74292698112687
 20
290.5784453875268
 10
28.76631994113575
 20
290.569917055555
  0
LINE
  5
867B
330
18
100
AcDbEntity
  8
0
100
AcDbLine
 10
30.75631994112809
 20
284.8582122754448
 30
0.0
 11
30.75631994112809
 21
282.3582122754448
 31
0.0
  0
LINE
  5
867C
330
18
100
AcDbEntity
  8
0
100
AcDbLine
 10
23.85631994112808
 20
285.5582122754448
 30
0.0
 11
23.85631994112808
 21
282.0082122754448
 31
0.0
  0
LINE
  5
867D
330
18
100
AcDbEntity
  8
0
100
AcDbLine
 10
30.75631994112809
 20
281.0082122754448
 30
0.0
 11
23.85631994112808
 21
281.0082122754448
 31
0.0
  0
LINE
  5
867E
330
18
100
AcDbEntity
  8
0
100
AcDbLine
 10
23.85631994112808
 20
281.6582122754448
 30
0.0
 11
23.85631994112808
 21
281.0082122754448
 31
0.0
  0
LINE
  5
867F
330
18
100
AcDbEntity
  8
0
100
AcDbLine
 10
23.85631994112808
 20
282.0082122754448
 30
0.0
 11
23.85631994112808
 21
281.6582122754448
 31
0.0
  0
LINE
  5
8680
330
18
100
AcDbEntity
  8
0
100
AcDbLine
 10
30.75631994112809
 20
282.3582122754448
 30
0.0
 11
30.75631994112809
 21
282.0082122754448
 31
0.0
  0
LINE
  5
8681
330
18
100
AcDbEntity
  8
0
100
AcDbLine
 10
30.75631994112809
 20
282.0082122754448
 30
0.0
 11
30.75631994112809
 21
281.2940694325905
 31
0.0
  0
LINE
  5
8682
330
18
100
AcDbEntity
  8
0
100
AcDbLine
 10
30.75631994112809
 20
281.2940694325905
 30
0.0
 11
30.75631994112809
 21
281.0082122754448
 31
0.0
  0
LINE
  5
8683
330
18
100
AcDbEntity
  8
0
100
AcDbLine
 10
24.67923157074027
 20
299.0182122754448
 30
0.0
 11
25.45475196763722
 21
299.0182122754448
 31
0.0
  0
LINE
  5
8684
330
18
100
AcDbEntity
  8
0
100
AcDbLine
 10
29.3563199411281
 20
294.2182122754448
 30
0.0
 11
23.85631994112808
 21
294.2182122754448
 31
0.0
  0
LINE
  5
8685
330
18
100
AcDbEntity
  8
0
100
AcDbLine
 10
29.3563199411281
 20
285.8082122754448
 30
0.0
 11
23.85631994112808
 21
285.8082122754448
 31
0.0
  0
LINE
  5
8686
330
18
100
AcDbEntity
  8
0
100
AcDbLine
 10
23.85631994112808
 20
294.4682122754448
 30
0.0
 11
23.85631994112808
 21
298.0182122754448
 31
0.0
  0
LINE
  5
8687
330
18
100
AcDbEntity
  8
0
100
AcDbLine
 10
23.85631994112808
 20
294.2182122754448
 30
0.0
 11
23.85631994112808
 21
294.4682122754448
 31
0.0
  0
LINE
  5
8688
330
18
100
AcDbEntity
  8
0
100
AcDbLine
 10
23.47452687236649
 20
291.1459224419682
 30
0.0
 11
23.25631994112808
 21
291.1459224419682
 31
0.0
  0
LINE
  5
8689
330
18
100
AcDbEntity
  8
0
100
AcDbLine
 10
23.47452687236649
 20
294.2182122754448
 30
0.0
 11
23.55631994112809
 21
294.2182122754448
 31
0.0
  0
LINE
  5
868A
330
18
100
AcDbEntity
  8
0
100
AcDbLine
 10
23.55631994112809
 20
294.2182122754448
 30
0.0
 11
23.85631994112808
 21
294.2182122754448
 31
0.0
  0
LINE
  5
868B
330
18
100
AcDbEntity
  8
0
100
AcDbLine
 10
23.55631994112809
 20
285.8082122754448
 30
0.0
 11
23.47452687236649
 21
285.8082122754448
 31
0.0
  0
LINE
  5
868C
330
18
100
AcDbEntity
  8
0
100
AcDbLine
 10
23.55631994112809
 20
285.8082122754448
 30
0.0
 11
23.85631994112808
 21
285.8082122754448
 31
0.0
  0
LINE
  5
868D
330
18
100
AcDbEntity
  8
0
100
AcDbLine
 10
23.25631994112808
 20
285.8082122754448
 30
0.0
 11
23.47452687236649
 21
285.8082122754448
 31
0.0
  0
LINE
  5
868E
330
18
100
AcDbEntity
  8
0
100
AcDbLine
 10
23.25631994112808
 20
294.2182122754448
 30
0.0
 11
23.25631994112808
 21
285.8082122754448
 31
0.0
  0
LINE
  5
868F
330
18
100
AcDbEntity
  8
0
100
AcDbLine
 10
23.85631994112808
 20
285.8082122754448
 30
0.0
 11
23.85631994112808
 21
285.5582122754448
 31
0.0
  0
LINE
  5
8690
330
18
100
AcDbEntity
  8
0
100
AcDbLine
 10
23.85631994112808
 20
299.0182122754448
 30
0.0
 11
23.85631994112808
 21
298.3682122754448
 31
0.0
  0
LINE
  5
8691
330
18
100
AcDbEntity
  8
0
100
AcDbLine
 10
23.85631994112808
 20
298.3682122754448
 30
0.0
 11
23.85631994112808
 21
298.0182122754448
 31
0.0
  0
LINE
  5
8692
330
18
100
AcDbEntity
  8
0
100
AcDbLine
 10
24.56711575370607
 20
299.0182122754448
 30
0.0
 11
24.67923157074027
 21
299.0182122754448
 31
0.0
  0
LINE
  5
8693
330
18
100
AcDbEntity
  8
0
100
AcDbLine
 10
23.85631994112808
 20
299.0182122754448
 30
0.0
 11
24.35631994112807
 21
299.0182122754448
 31
0.0
  0
LINE
  5
8694
330
18
100
AcDbEntity
  8
0
100
AcDbLine
 10
24.35631994112807
 20
299.0182122754448
 30
0.0
 11
24.56711575370607
 21
299.0182122754448
 31
0.0
  0
LINE
  5
8695
330
18
100
AcDbEntity
  8
0
100
AcDbLine
 10
30.75631994112809
 20
297.6682122754449
 30
0.0
 11
30.75631994112809
 21
298.0182122754448
 31
0.0
  0
LINE
  5
8696
330
18
100
AcDbEntity
  8
0
100
AcDbLine
 10
30.75631994112809
 20
285.8082122754448
 30
0.0
 11
30.75631994112809
 21
284.8582122754448
 31
0.0
  0
LINE
  5
8697
330
18
100
AcDbEntity
  8
0
100
AcDbLine
 10
30.75631994112813
 20
290.2882122754448
 30
0.0
 11
30.7563199411281
 21
290.4432122754448
 31
0.0
  0
LINE
  5
8698
330
18
100
AcDbEntity
  8
0
100
AcDbLine
 10
30.75631994112809
 20
295.1682122754448
 30
0.0
 11
30.75631994112809
 21
297.6682122754449
 31
0.0
  0
LINE
  5
8699
330
18
100
AcDbEntity
  8
0
100
AcDbLine
 10
30.7563199411281
 20
293.3932122754448
 30
0.0
 11
30.75631994112809
 21
294.2182122754448
 31
0.0
  0
LINE
  5
869A
330
18
100
AcDbEntity
  8
0
100
AcDbLine
 10
30.75631994112809
 20
292.8668955734953
 30
0.0
 11
30.7563199411281
 21
293.3932122754448
 31
0.0
  0
LINE
  5
869B
330
18
100
AcDbEntity
  8
0
100
AcDbLine
 10
30.75631994112809
 20
294.2182122754448
 30
0.0
 11
30.75631994112809
 21
295.1682122754448
 31
0.0
  0
LINE
  5
869C
330
18
100
AcDbEntity
  8
0
100
AcDbLine
 10
27.95358123277035
 20
293.0690269576804
 30
0.0
 11
26.00550525889252
 21
291.1209509838025
 31
0.0
  0
LINE
  5
869D
330
18
100
AcDbEntity
  8
0
100
AcDbLine
 10
26.35905864948579
 20
290.7673975932092
 30
0.0
 11
28.30713462336362
 21
292.7154735670871
 31
0.0
  0
LINE
  5
869E
330
18
100
AcDbEntity
  8
0
100
AcDbLine
 10
29.8563199411281
 20
294.2182122754448
 30
0.0
 11
29.3563199411281
 21
294.2182122754448
 31
0.0
  0
LINE
  5
869F
330
18
100
AcDbEntity
  8
0
100
AcDbLine
 10
29.8563199411281
 20
293.4182122754448
 30
0.0
 11
29.8563199411281
 21
294.2182122754448
 31
0.0
  0
LINE
  5
86A0
330
18
100
AcDbEntity
  8
0
100
AcDbLine
 10
27.95358123277036
 20
289.2590269576804
 30
0.0
 11
26.00550525889252
 21
287.3109509838025
 31
0.0
  0
LINE
  5
86A1
330
18
100
AcDbEntity
  8
0
100
AcDbLine
 10
28.76631994112808
 20
289.4565074953429
 30
0.0
 11
28.76631994113575
 21
290.569917055555
 31
0.0
  0
LINE
  5
86A2
330
18
100
AcDbEntity
  8
0
100
AcDbLine
 10
28.26631994112808
 20
293.4182122754448
 30
0.0
 11
28.76631994112808
 21
293.4182122754448
 31
0.0
  0
LINE
  5
86A3
330
18
100
AcDbEntity
  8
0
100
AcDbLine
 10
28.76631994112808
 20
293.2665074953429
 30
0.0
 11
28.76631994112808
 21
293.4182122754448
 31
0.0
  0
LINE
  5
86A4
330
18
100
AcDbEntity
  8
0
100
AcDbLine
 10
26.3590586494858
 20
286.9573975932092
 30
0.0
 11
28.30713462336363
 21
288.9054735670871
 31
0.0
  0
LINE
  5
86A5
330
18
100
AcDbEntity
  8
0
100
AcDbLine
 10
28.76631994112808
 20
293.4182122754448
 30
0.0
 11
29.3563199411281
 21
293.4182122754448
 31
0.0
  0
LINE
  5
86A6
330
18
100
AcDbEntity
  8
0
100
AcDbLine
 10
29.3563199411281
 20
293.4182122754448
 30
0.0
 11
29.8563199411281
 21
293.4182122754448
 31
0.0
  0
LINE
  5
86A7
330
18
100
AcDbEntity
  8
0
100
AcDbLine
 10
30.0063189411281
 20
290.2141741697682
 30
0.0
 11
30.00631894112811
 21
289.8122503811215
 31
0.0
  0
LINE
  5
86A8
330
18
100
AcDbEntity
  8
0
100
AcDbLine
 10
30.75631980715348
 20
290.0132125074956
 30
0.0
 11
30.0063189411281
 21
290.2141741697682
 31
0.0
  0
LINE
  5
86A9
330
18
100
AcDbEntity
  8
0
100
AcDbLine
 10
30.75631980715348
 20
290.0132125074956
 30
0.0
 11
30.00631894112811
 21
289.8122503811215
 31
0.0
  0
LINE
  5
86AA
330
18
100
AcDbEntity
  8
0
100
AcDbLine
 10
29.8563199411281
 20
285.8082122754448
 30
0.0
 11
29.3563199411281
 21
285.8082122754448
 31
0.0
  0
LINE
  5
86AB
330
18
100
AcDbEntity
  8
0
100
AcDbLine
 10
28.76631994112808
 20
286.6082122754448
 30
0.0
 11
29.3563199411281
 21
286.6082122754448
 31
0.0
  0
LINE
  5
86AC
330
18
100
AcDbEntity
  8
0
100
AcDbLine
 10
29.3563199411281
 20
286.6082122754448
 30
0.0
 11
29.8563199411281
 21
286.6082122754448
 31
0.0
  0
LINE
  5
86AD
330
18
100
AcDbEntity
  8
0
100
AcDbLine
 10
29.8563199411281
 20
285.8082122754448
 30
0.0
 11
29.8563199411281
 21
286.6082122754448
 31
0.0
  0
LINE
  5
86AE
330
18
100
AcDbEntity
  8
0
100
AcDbLine
 10
28.76631994112808
 20
286.6082122754448
 30
0.0
 11
28.26631994112808
 21
286.6082122754448
 31
0.0
  0
LINE
  5
86AF
330
18
100
AcDbEntity
  8
0
100
AcDbLine
 10
28.76631994112949
 20
286.7599170555482
 30
0.0
 11
28.76631994112808
 21
286.6082122754448
 31
0.0
  0
LINE
  5
86B0
330
18
100
AcDbEntity
  8
0
100
AcDbLine
 10
30.75631980715348
 20
290.0132125074956
 30
0.0
 11
30.75631980715348
 21
290.0132125074956
 31
0.0
  0
LINE
  5
86B1
330
18
100
AcDbEntity
  8
0
100
AcDbLine
 10
30.7563199411281
 20
286.6332122754448
 30
0.0
 11
30.75631994112809
 21
285.8082122754448
 31
0.0
  0
LINE
  5
86B2
330
18
100
AcDbEntity
  8
0
100
AcDbLine
 10
30.75631994112809
 20
287.1595289773943
 30
0.0
 11
30.7563199411281
 21
286.6332122754448
 31
0.0
  0
LINE
  5
86B3
330
18
100
AcDbEntity
  8
0
100
AcDbLine
 10
30.75631994112809
 20
289.7382122754448
 30
0.0
 11
30.7563199411281
 21
289.5832122754448
 31
0.0
  0
LINE
  5
86B4
330
18
100
AcDbEntity
  8
0
100
AcDbLine
 10
30.75631980715348
 20
290.0132125074956
 30
0.0
 11
30.75631994112809
 21
289.8122503811215
 31
0.0
  0
LINE
  5
86B5
330
18
100
AcDbEntity
  8
0
100
AcDbLine
 10
30.75631994112813
 20
290.2882122754448
 30
0.0
 11
30.75631994112809
 21
290.2141741697682
 31
0.0
  0
LINE
  5
86B6
330
18
100
AcDbEntity
  8
0
100
AcDbLine
 10
30.75631994112809
 20
289.0568955734953
 30
0.0
 11
30.75631994112809
 21
287.1595289773943
 31
0.0
  0
LINE
  5
86B7
330
18
100
AcDbEntity
  8
0
100
AcDbLine
 10
30.7563199411281
 20
289.5832122754448
 30
0.0
 11
30.75631994112809
 21
289.0568955734953
 31
0.0
  0
LINE
  5
86B8
330
18
100
AcDbEntity
  8
0
100
AcDbLine
 10
30.75631994112809
 20
290.2141741697682
 30
0.0
 11
30.75631980715348
 21
290.0132125074956
 31
0.0
  0
LINE
  5
86B9
330
18
100
AcDbEntity
  8
0
100
AcDbLine
 10
30.75631994112809
 20
289.8122503811215
 30
0.0
 11
30.75631994112809
 21
289.7382122754448
 31
0.0
  0
LINE
  5
86BA
330
18
100
AcDbEntity
  8
0
100
AcDbLine
 10
30.75631994112809
 20
289.7382122754448
 30
0.0
 11
30.4563199411281
 21
289.7382122754448
 31
0.0
  0
LINE
  5
86BB
330
18
100
AcDbEntity
  8
0
100
AcDbLine
 10
30.75631994112809
 20
290.9695289773943
 30
0.0
 11
30.75631994112809
 21
292.8668955734953
 31
0.0
  0
LINE
  5
86BC
330
18
100
AcDbEntity
  8
0
100
AcDbLine
 10
30.7563199411281
 20
290.4432122754448
 30
0.0
 11
30.75631994112809
 21
290.9695289773943
 31
0.0
  0
LINE
  5
86BD
330
18
100
AcDbEntity
  8
0
100
AcDbLine
 10
30.4563199411281
 20
290.2882122754448
 30
0.0
 11
30.75631994112813
 21
290.2882122754448
 31
0.0
  0
LWPOLYLINE
  5
86BE
330
18
100
AcDbEntity
  8
0
100
AcDbPolyline
 90
        7
 70
     0
 43
0.0
 10
28.76631994112949
 20
286.7599170555482
 42
-0.0010357402252054
 10
28.71954077536917
 20
286.7770261811829
 10
28.66581085351867
 20
286.7969529211816
 10
28.61295998115161
 20
286.8168535959049
 42
-0.0054101641983534
 10
28.40664856664776
 20
286.8976660958179
 10
28.33575957262123
 20
286.926708640722
 10
28.26631994112808
 20
286.955866841124
  0
ARC
  5
86BF
330
18
100
AcDbEntity
  8
0
100
AcDbCircle
 10
27.15631994112807
 20
291.9182122754448
 30
0.0
 40
1.400000000000012
100
AcDbArc
 50
34.71343938852387
 51
55.28656061147495
  0
ARC
  5
86C0
330
18
100
AcDbEntity
  8
0
100
AcDbCircle
 10
27.15631994112807
 20
291.9182122754448
 30
0.0
 40
1.400000000000008
100
AcDbArc
 50
214.7134393885238
 51
235.2865606114749
  0
ARC
  5
86C1
330
18
100
AcDbEntity
  8
0
100
AcDbCircle
 10
27.15631994112807
 20
291.9182122754448
 30
0.0
 40
1.400000000000011
100
AcDbArc
 50
235.2865606114749
 51
34.71343938852387
  0
ARC
  5
86C2
330
18
100
AcDbEntity
  8
0
100
AcDbCircle
 10
29.25631994112808
 20
291.9182122754448
 30
0.0
 40
0.4999999999999998
100
AcDbArc
 50
263.1628588318638
 51
0.0
  0
ARC
  5
86C3
330
18
100
AcDbEntity
  8
0
100
AcDbCircle
 10
29.25631994112808
 20
291.9182122754448
 30
0.0
 40
0.5
100
AcDbArc
 50
0.0
 51
96.83714116813618
  0
ARC
  5
86C4
330
18
100
AcDbEntity
  8
0
100
AcDbCircle
 10
27.15631994112808
 20
288.1082122754449
 30
0.0
 40
1.400000000000024
100
AcDbArc
 50
214.7134393885238
 51
235.2865606114749
  0
ARC
  5
86C5
330
18
100
AcDbEntity
  8
0
100
AcDbCircle
 10
27.15631994112808
 20
288.1082122754449
 30
0.0
 40
1.400000000000012
100
AcDbArc
 50
180.0
 51
214.7134393885238
  0
ARC
  5
86C6
330
18
100
AcDbEntity
  8
0
100
AcDbCircle
 10
27.15631994112808
 20
288.1082122754449
 30
0.0
 40
1.400000000000023
100
AcDbArc
 50
55.28656061147495
 51
180.0
  0
ARC
  5
86C7
330
18
100
AcDbEntity
  8
0
100
AcDbCircle
 10
27.15631994112808
 20
288.1082122754449
 30
0.0
 40
2.1
100
AcDbArc
 50
13.67428233627323
 51
39.94450518981537
  0
ARC
  5
86C8
330
18
100
AcDbEntity
  8
0
100
AcDbCircle
 10
27.15631994112807
 20
291.9182122754448
 30
0.0
 40
2.100000000000624
100
AcDbArc
 50
320.0554948104904
 51
346.3257176637267
  0
ARC
  5
86C9
330
18
100
AcDbEntity
  8
0
100
AcDbCircle
 10
27.15631994112808
 20
288.1082122754449
 30
0.0
 40
1.400000000000012
100
AcDbArc
 50
34.71343938852387
 51
55.28656061147495
  0
ARC
  5
86CA
330
18
100
AcDbEntity
  8
0
100
AcDbCircle
 10
27.15631994112807
 20
291.9182122754448
 30
0.0
 40
1.400000000000012
100
AcDbArc
 50
180.0
 51
214.7134393885238
  0
ARC
  5
86CB
330
18
100
AcDbEntity
  8
0
100
AcDbCircle
 10
27.15631994112807
 20
291.9182122754448
 30
0.0
 40
1.400000000000012
100
AcDbArc
 50
55.28656061147495
 51
180.0
  0
ARC
  5
86CC
330
18
100
AcDbEntity
  8
0
100
AcDbCircle
 10
27.15631994112807
 20
291.9182122754448
 30
0.0
 40
1.450000000000014
100
AcDbArc
 50
180.0
 51
0.0
  0
ARC
  5
86CD
330
18
100
AcDbEntity
  8
0
100
AcDbCircle
 10
27.15631994112807
 20
291.9182122754448
 30
0.0
 40
1.450000000000028
100
AcDbArc
 50
0.0
 51
180.0
  0
ARC
  5
86CE
330
18
100
AcDbEntity
  8
0
100
AcDbCircle
 10
27.15631994112808
 20
288.1082122754449
 30
0.0
 40
2.1
100
AcDbArc
 50
0.0
 51
13.67428233627323
  0
ARC
  5
86CF
330
18
100
AcDbEntity
  8
0
100
AcDbCircle
 10
27.15631994112808
 20
288.1082122754449
 30
0.0
 40
1.45000000000002
100
AcDbArc
 50
0.0
 51
180.0
  0
ARC
  5
86D0
330
18
100
AcDbEntity
  8
0
100
AcDbCircle
 10
27.15631994112808
 20
288.1082122754449
 30
0.0
 40
1.400000000000012
100
AcDbArc
 50
235.2865606114749
 51
34.71343938852387
  0
ARC
  5
86D1
330
18
100
AcDbEntity
  8
0
100
AcDbCircle
 10
27.15631994112807
 20
291.9182122754448
 30
0.0
 40
2.100000000000008
100
AcDbArc
 50
346.3257176637267
 51
0.0
  0
ARC
  5
86D2
330
18
100
AcDbEntity
  8
0
100
AcDbCircle
 10
27.15631994112807
 20
291.9182122754448
 30
0.0
 40
2.100000000000008
100
AcDbArc
 50
0.0
 51
13.67428233627323
  0
ARC
  5
86D3
330
18
100
AcDbEntity
  8
0
100
AcDbCircle
 10
27.15631994112807
 20
291.9182122754448
 30
0.0
 40
2.100000000000006
100
AcDbArc
 50
13.67428233627323
 51
39.94450518981537
  0
ARC
  5
86D4
330
18
100
AcDbEntity
  8
0
100
AcDbCircle
 10
29.25631994112808
 20
288.1082122754449
 30
0.0
 40
0.5000000000000011
100
AcDbArc
 50
263.162858831864
 51
96.83714116813618
  0
ARC
  5
86D5
330
18
100
AcDbEntity
  8
0
100
AcDbCircle
 10
27.15631994112808
 20
288.1082122754449
 30
0.0
 40
2.1
100
AcDbArc
 50
346.3257176637267
 51
0.0
  0
ARC
  5
86D6
330
18
100
AcDbEntity
  8
0
100
AcDbCircle
 10
27.15631994112808
 20
288.1082122754449
 30
0.0
 40
2.100000000000111
100
AcDbArc
 50
320.0554948102398
 51
346.3257176637267
  0
ARC
  5
86D7
330
18
100
AcDbEntity
  8
0
100
AcDbCircle
 10
27.15631994112808
 20
288.1082122754449
 30
0.0
 40
1.45000000000002
100
AcDbArc
 50
180.0
 51
0.0
  0
LINE
  5
86D8
330
18
100
AcDbEntity
  8
0
100
AcDbLine
 10
30.75631994112809
 20
298.0182122754448
 30
0.0
 11
30.75631994112809
 21
298.7323551182991
 31
0.0
  0
LINE
  5
86D9
330
18
100
AcDbEntity
  8
0
100
AcDbLine
 10
27.14552412855008
 20
299.0182122754448
 30
0.0
 11
27.35631994112807
 21
299.0182122754448
 31
0.0
  0
LINE
  5
86DA
330
18
100
AcDbEntity
  8
0
100
AcDbLine
 10
26.85650511068689
 20
299.0182122754448
 30
0.0
 11
27.01460197012034
 21
299.0182122754448
 31
0.0
  0
LINE
  5
86DB
330
18
100
AcDbEntity
  8
0
100
AcDbLine
 10
26.17988566184578
 20
299.0182122754448
 30
0.0
 11
26.36820048880819
 21
299.0182122754448
 31
0.0
  0
LINE
  5
86DC
330
18
100
AcDbEntity
  8
0
100
AcDbLine
 10
26.36820048880819
 20
299.0182122754448
 30
0.0
 11
26.85650511068689
 21
299.0182122754448
 31
0.0
  0
LINE
  5
86DD
330
18
100
AcDbEntity
  8
0
100
AcDbLine
 10
26.13983835851547
 20
299.0182122754448
 30
0.0
 11
26.17988566184578
 21
299.0182122754448
 31
0.0
  0
LINE
  5
86DE
330
18
100
AcDbEntity
  8
0
100
AcDbLine
 10
26.02178880241249
 20
299.0182122754448
 30
0.0
 11
26.11086609319988
 21
299.0182122754448
 31
0.0
  0
LINE
  5
86DF
330
18
100
AcDbEntity
  8
0
100
AcDbLine
 10
25.80116365403293
 20
299.0182122754448
 30
0.0
 11
26.02178880241249
 21
299.0182122754448
 31
0.0
  0
LINE
  5
86E0
330
18
100
AcDbEntity
  8
0
100
AcDbLine
 10
26.11086609319988
 20
299.0182122754448
 30
0.0
 11
26.13983835851547
 21
299.0182122754448
 31
0.0
  0
LINE
  5
86E1
330
18
100
AcDbEntity
  8
0
100
AcDbLine
 10
25.71208636324547
 20
299.0182122754448
 30
0.0
 11
25.80116365403293
 21
299.0182122754448
 31
0.0
  0
LINE
  5
86E2
330
18
100
AcDbEntity
  8
0
100
AcDbLine
 10
25.64306679459949
 20
299.0182122754448
 30
0.0
 11
25.68311409792988
 21
299.0182122754448
 31
0.0
  0
LINE
  5
86E3
330
18
100
AcDbEntity
  8
0
100
AcDbLine
 10
25.45475196763722
 20
299.0182122754448
 30
0.0
 11
25.63041514478547
 21
299.0182122754448
 31
0.0
  0
LINE
  5
86E4
330
18
100
AcDbEntity
  8
0
100
AcDbLine
 10
25.63041514478547
 20
299.0182122754448
 30
0.0
 11
25.64306679459949
 21
299.0182122754448
 31
0.0
  0
LINE
  5
86E5
330
18
100
AcDbEntity
  8
0
100
AcDbLine
 10
25.68311409792988
 20
299.0182122754448
 30
0.0
 11
25.71208636324547
 21
299.0182122754448
 31
0.0
  0
LINE
  5
86E6
330
18
100
AcDbEntity
  8
0
100
AcDbLine
 10
27.01460197012034
 20
299.0182122754448
 30
0.0
 11
27.14552412855008
 21
299.0182122754448
 31
0.0
  0
LINE
  5
86E7
330
18
100
AcDbEntity
  8
0
100
AcDbLine
 10
27.35631994112807
 20
299.0182122754448
 30
0.0
 11
30.75631994112809
 21
299.0182122754448
 31
0.0
  0
LINE
  5
86E8
330
18
100
AcDbEntity
  8
0
100
AcDbLine
 10
30.75631994112809
 20
299.0182122754448
 30
0.0
 11
30.75631994112809
 21
298.7323551182991
 31
0.0
  0
LINE
  5
86E9
330
18
100
AcDbEntity
  8
0
100
AcDbLine
 10
22.4563199411281
 20
294.2182122754448
 30
0.0
 11
22.45631994112809
 21
285.8082122754448
 31
0.0
  0
LINE
  5
86EA
330
18
100
AcDbEntity
  8
0
100
AcDbLine
 10
21.25631994112814
 20
285.8082122754448
 30
0.0
 11
21.25631994112814
 21
294.2182122754448
 31
0.0
  0
LINE
  5
86EB
330
18
100
AcDbEntity
  8
0
100
AcDbLine
 10
21.55631994112813
 20
294.2182122754448
 30
0.0
 11
21.75631994112819
 21
294.2182122754448
 31
0.0
  0
LINE
  5
86EC
330
18
100
AcDbEntity
  8
0
100
AcDbLine
 10
23.25631994112808
 20
294.2182122754448
 30
0.0
 11
22.4563199411281
 21
294.2182122754448
 31
0.0
  0
LINE
  5
86ED
330
18
100
AcDbEntity
  8
0
100
AcDbLine
 10
22.4563199411281
 20
294.2182122754448
 30
0.0
 11
21.85631994112825
 21
294.2182122754448
 31
0.0
  0
LINE
  5
86EE
330
18
100
AcDbEntity
  8
0
100
AcDbLine
 10
21.85631994112825
 20
294.2182122754448
 30
0.0
 11
21.75631994112819
 21
294.2182122754448
 31
0.0
  0
LINE
  5
86EF
330
18
100
AcDbEntity
  8
0
100
AcDbLine
 10
21.55631994112813
 20
294.2182122754448
 30
0.0
 11
21.25631994112814
 21
294.2182122754448
 31
0.0
  0
LINE
  5
86F0
330
18
100
AcDbEntity
  8
0
100
AcDbLine
 10
21.55631994112813
 20
285.8082122754448
 30
0.0
 11
21.75631994112819
 21
285.8082122754448
 31
0.0
  0
LINE
  5
86F1
330
18
100
AcDbEntity
  8
0
100
AcDbLine
 10
21.55631994112813
 20
285.8082122754448
 30
0.0
 11
21.25631994112814
 21
285.8082122754448
 31
0.0
  0
LINE
  5
86F2
330
18
100
AcDbEntity
  8
0
100
AcDbLine
 10
21.75631994112819
 20
285.8082122754448
 30
0.0
 11
21.85631994112825
 21
285.8082122754448
 31
0.0
  0
LINE
  5
86F3
330
18
100
AcDbEntity
  8
0
100
AcDbLine
 10
21.85631994112825
 20
285.8082122754448
 30
0.0
 11
22.45631994112809
 21
285.8082122754448
 31
0.0
  0
LINE
  5
86F4
330
18
100
AcDbEntity
  8
0
100
AcDbLine
 10
22.45631994112809
 20
285.8082122754448
 30
0.0
 11
23.25631994112808
 21
285.8082122754448
 31
0.0
  0
LINE
  5
8744
330
18
100
AcDbEntity
  8
0
100
AcDbLine
 10
21.85631980715313
 20
593.389350427465
 30
0.0
 11
21.85631980715361
 21
597.2893504274655
 31
0.0
  0
LINE
  5
8745
330
18
100
AcDbEntity
  8
0
100
AcDbLine
 10
23.85631980715365
 20
594.489350427465
 30
0.0
 11
23.85631980715365
 21
594.639350427465
 31
0.0
  0
LINE
  5
8746
330
18
100
AcDbEntity
  8
0
100
AcDbLine
 10
30.75631980715366
 20
594.489350427465
 30
0.0
 11
30.75631980715366
 21
594.5893504274651
 31
0.0
  0
ARC
  5
8747
330
18
100
AcDbEntity
  8
0
100
AcDbCircle
 10
25.63041501081104
 20
592.4655425276909
 30
0.0
 40
0.951183574045199
100
AcDbArc
 50
90.0
 51
270.0
  0
LINE
  5
8748
330
18
100
AcDbEntity
  8
0
100
AcDbLine
 10
23.55631980715366
 20
587.989350427465
 30
0.0
 11
25.70631980715363
 21
587.989350427465
 31
0.0
  0
LINE
  5
8749
330
18
100
AcDbEntity
  8
0
100
AcDbLine
 10
23.85631980715365
 20
589.889350427465
 30
0.0
 11
28.76631980715366
 21
589.889350427465
 31
0.0
  0
LINE
  5
874A
330
18
100
AcDbEntity
  8
0
100
AcDbLine
 10
24.56711561973166
 20
594.1893504274651
 30
0.0
 11
27.14552399457565
 21
594.1893504274651
 31
0.0
  0
LINE
  5
874B
330
18
100
AcDbEntity
  8
0
100
AcDbLine
 10
27.14552399457565
 20
591.1893504274651
 30
0.0
 11
24.56711561973166
 21
591.1893504274651
 31
0.0
  0
ARC
  5
874C
330
18
100
AcDbEntity
  8
0
100
AcDbCircle
 10
21.55631980715371
 20
593.089350427465
 30
0.0
 40
0.300000000000022
100
AcDbArc
 50
90.0
 51
180.0
  0
ARC
  5
874D
330
18
100
AcDbEntity
  8
0
100
AcDbCircle
 10
21.75631980715369
 20
592.889350427465
 30
0.0
 40
0.5000000000000107
100
AcDbArc
 50
180.000000000013
 51
270.0
  0
ARC
  5
874E
330
18
100
AcDbEntity
  8
0
100
AcDbCircle
 10
23.55631980715366
 20
588.2893504274651
 30
0.0
 40
0.3000000000000007
100
AcDbArc
 50
180.0
 51
270.0
  0
ARC
  5
874F
330
18
100
AcDbEntity
  8
0
100
AcDbCircle
 10
24.56711561973166
 20
591.4001462400429
 30
0.0
 40
0.2107958125779987
100
AcDbArc
 50
180.0
 51
270.0
  0
ARC
  5
8750
330
18
100
AcDbEntity
  8
0
100
AcDbCircle
 10
24.56711561973166
 20
593.9785546148871
 30
0.0
 40
0.2107958125779206
100
AcDbArc
 50
90.0
 51
180.0
  0
LINE
  5
8751
330
18
100
AcDbEntity
  8
0
100
AcDbLine
 10
21.25631980715371
 20
593.0893504274649
 30
0.0
 11
21.25631980715368
 21
592.8893504274649
 31
0.0
  0
LINE
  5
8752
330
18
100
AcDbEntity
  8
0
100
AcDbLine
 10
23.25631980715366
 20
588.2893504274651
 30
0.0
 11
23.25631980715366
 21
588.589350427465
 31
0.0
  0
LINE
  5
8753
330
18
100
AcDbEntity
  8
0
100
AcDbLine
 10
23.25631980715366
 20
588.589350427465
 30
0.0
 11
23.47452673839206
 21
588.589350427465
 31
0.0
  0
LINE
  5
8754
330
18
100
AcDbEntity
  8
0
100
AcDbLine
 10
23.47452673839206
 20
588.589350427465
 30
0.0
 11
22.45631980715367
 21
592.3893504274651
 31
0.0
  0
LINE
  5
8755
330
18
100
AcDbEntity
  8
0
100
AcDbLine
 10
22.45631980715367
 20
592.3893504274651
 30
0.0
 11
21.75631980715376
 21
592.3893504274651
 31
0.0
  0
LINE
  5
8756
330
18
100
AcDbEntity
  8
0
100
AcDbLine
 10
21.85631980715313
 20
593.389350427465
 30
0.0
 11
21.55631980715371
 21
593.389350427465
 31
0.0
  0
LINE
  5
8757
330
18
100
AcDbEntity
  8
0
100
AcDbLine
 10
23.85631980715365
 20
590.889350427465
 30
0.0
 11
23.85631980715365
 21
590.739350427465
 31
0.0
  0
LINE
  5
8758
330
18
100
AcDbEntity
  8
0
100
AcDbLine
 10
23.85631980715365
 20
590.739350427465
 30
0.0
 11
23.85631980715365
 21
589.889350427465
 31
0.0
  0
LINE
  5
8759
330
18
100
AcDbEntity
  8
0
100
AcDbLine
 10
24.35631980715365
 20
593.9785546148871
 30
0.0
 11
24.35631980715365
 21
591.4001462400429
 31
0.0
  0
LINE
  5
875A
330
18
100
AcDbEntity
  8
0
100
AcDbLine
 10
23.85631980715365
 20
594.489350427465
 30
0.0
 11
23.85631980715365
 21
590.889350427465
 31
0.0
  0
CIRCLE
  5
875B
330
18
100
AcDbEntity
  8
0
100
AcDbCircle
 10
25.91147609424825
 20
592.4655425276909
 30
0.0
 40
0.2283621302927905
  0
ARC
  5
875C
330
18
100
AcDbEntity
  8
0
100
AcDbCircle
 10
29.35631980715367
 20
588.489350427465
 30
0.0
 40
0.4999999999999893
100
AcDbArc
 50
270.0
 51
0.0
  0
ARC
  5
875D
330
18
100
AcDbEntity
  8
0
100
AcDbCircle
 10
30.45631980715366
 20
590.1893504274651
 30
0.0
 40
0.2999999999999901
100
AcDbArc
 50
270.0
 51
0.0
  0
ARC
  5
875E
330
18
100
AcDbEntity
  8
0
100
AcDbCircle
 10
26.17988552787137
 20
593.0186802913296
 30
0.0
 40
0.1580968594333001
100
AcDbArc
 50
180.0
 51
244.1150755424424
  0
ARC
  5
875F
330
18
100
AcDbEntity
  8
0
100
AcDbCircle
 10
25.64306666062506
 20
593.2586292423025
 30
0.0
 40
0.1580968594333889
100
AcDbArc
 50
0.0
 51
90.0
  0
ARC
  5
8760
330
18
100
AcDbEntity
  8
0
100
AcDbCircle
 10
25.64306666062506
 20
593.0186802913296
 30
0.0
 40
0.1580968594334404
100
AcDbArc
 50
295.8849244575846
 51
0.0
  0
ARC
  5
8761
330
18
100
AcDbEntity
  8
0
100
AcDbCircle
 10
25.64306666062506
 20
591.6724558130791
 30
0.0
 40
0.1580968594334315
100
AcDbArc
 50
270.0
 51
0.0
  0
ARC
  5
8762
330
18
100
AcDbEntity
  8
0
100
AcDbCircle
 10
26.17988552787137
 20
591.912404764052
 30
0.0
 40
0.1580968594334207
100
AcDbArc
 50
115.8849244575549
 51
180.0
  0
ARC
  5
8763
330
18
100
AcDbEntity
  8
0
100
AcDbCircle
 10
26.17988552787137
 20
591.6724558130791
 30
0.0
 40
0.1580968594336198
100
AcDbArc
 50
180.0
 51
270.0
  0
ARC
  5
8764
330
18
100
AcDbEntity
  8
0
100
AcDbCircle
 10
27.14552399457565
 20
591.4001462400429
 30
0.0
 40
0.2107958125779206
100
AcDbArc
 50
270.0
 51
0.0
  0
ARC
  5
8765
330
18
100
AcDbEntity
  8
0
100
AcDbCircle
 10
26.85650497671248
 20
591.672455813079
 30
0.0
 40
0.1580968594334387
100
AcDbArc
 50
270.0
 51
0.0
  0
ARC
  5
8766
330
18
100
AcDbEntity
  8
0
100
AcDbCircle
 10
25.64306666062506
 20
591.912404764052
 30
0.0
 40
0.1580968594335808
100
AcDbArc
 50
0.0
 51
64.11507554241618
  0
ARC
  5
8767
330
18
100
AcDbEntity
  8
0
100
AcDbCircle
 10
25.91147609424825
 20
592.4655425276909
 30
0.0
 40
0.4567242605854639
100
AcDbArc
 50
115.8849244575734
 51
244.1150755424286
  0
ARC
  5
8768
330
18
100
AcDbEntity
  8
0
100
AcDbCircle
 10
25.91147609424825
 20
592.4655425276909
 30
0.0
 40
0.4567242605855182
100
AcDbArc
 50
295.8849244575717
 51
64.115075542427
  0
ARC
  5
8769
330
18
100
AcDbEntity
  8
0
100
AcDbCircle
 10
26.17988552787137
 20
593.7062450418432
 30
0.0
 40
0.1580968594334387
100
AcDbArc
 50
90.0
 51
180.0
  0
ARC
  5
876A
330
18
100
AcDbEntity
  8
0
100
AcDbCircle
 10
26.85650497671248
 20
593.7062450418432
 30
0.0
 40
0.1580968594334919
100
AcDbArc
 50
0.0
 51
90.0
  0
ARC
  5
876B
330
18
100
AcDbEntity
  8
0
100
AcDbCircle
 10
27.14552399457565
 20
593.9785546148871
 30
0.0
 40
0.2107958125779987
100
AcDbArc
 50
0.0
 51
90.0
  0
LINE
  5
876C
330
18
100
AcDbEntity
  8
0
100
AcDbLine
 10
25.70631980715363
 20
587.989350427465
 30
0.0
 11
28.2663198071536
 21
587.989350427465
 31
0.0
  0
LINE
  5
876D
330
18
100
AcDbEntity
  8
0
100
AcDbLine
 10
28.60631980715367
 20
587.989350427465
 30
0.0
 11
28.2663198071536
 21
587.989350427465
 31
0.0
  0
LINE
  5
876E
330
18
100
AcDbEntity
  8
0
100
AcDbLine
 10
28.75631980715366
 20
587.989350427465
 30
0.0
 11
28.60631980715367
 21
587.989350427465
 31
0.0
  0
LINE
  5
876F
330
18
100
AcDbEntity
  8
0
100
AcDbLine
 10
28.75631980715366
 20
587.989350427465
 30
0.0
 11
29.35631980715367
 21
587.989350427465
 31
0.0
  0
LINE
  5
8770
330
18
100
AcDbEntity
  8
0
100
AcDbLine
 10
29.85631980715367
 20
588.489350427465
 30
0.0
 11
29.85631980715367
 21
589.889350427465
 31
0.0
  0
LINE
  5
8771
330
18
100
AcDbEntity
  8
0
100
AcDbLine
 10
30.75631980715366
 20
590.1893504274651
 30
0.0
 11
30.7563188071537
 21
589.989350427465
 31
0.0
  0
LINE
  5
8772
330
18
100
AcDbEntity
  8
0
100
AcDbLine
 10
30.75631980715366
 20
590.889350427465
 30
0.0
 11
30.75631980715368
 21
590.7893504274651
 31
0.0
  0
LINE
  5
8773
330
18
100
AcDbEntity
  8
0
100
AcDbLine
 10
28.76631980715366
 20
589.889350427465
 30
0.0
 11
29.19679599762984
 21
589.889350427465
 31
0.0
  0
LINE
  5
8774
330
18
100
AcDbEntity
  8
0
100
AcDbLine
 10
29.75631980715366
 20
589.889350427465
 30
0.0
 11
29.85631980715367
 21
589.889350427465
 31
0.0
  0
LINE
  5
8775
330
18
100
AcDbEntity
  8
0
100
AcDbLine
 10
29.85631980715367
 20
589.889350427465
 30
0.0
 11
30.00631880715369
 21
589.889350427465
 31
0.0
  0
LINE
  5
8776
330
18
100
AcDbEntity
  8
0
100
AcDbLine
 10
30.00631880715369
 20
589.889350427465
 30
0.0
 11
30.45631980715366
 21
589.889350427465
 31
0.0
  0
LINE
  5
8777
330
18
100
AcDbEntity
  8
0
100
AcDbLine
 10
30.45631980715366
 20
589.889350427465
 30
0.0
 11
30.7563188071537
 21
589.889350427465
 31
0.0
  0
LINE
  5
8778
330
18
100
AcDbEntity
  8
0
100
AcDbLine
 10
30.7563188071537
 20
589.989350427465
 30
0.0
 11
30.7563188071537
 21
589.889350427465
 31
0.0
  0
LINE
  5
8779
330
18
100
AcDbEntity
  8
0
100
AcDbLine
 10
29.75631980715366
 20
589.889350427465
 30
0.0
 11
29.19679599762984
 21
589.889350427465
 31
0.0
  0
LINE
  5
877A
330
18
100
AcDbEntity
  8
0
100
AcDbLine
 10
30.75631980715368
 20
590.7893504274651
 30
0.0
 11
30.75631980715366
 21
590.1893504274651
 31
0.0
  0
LINE
  5
877B
330
18
100
AcDbEntity
  8
0
100
AcDbLine
 10
26.17988552787137
 20
593.8643419012765
 30
0.0
 11
26.85650497671248
 21
593.8643419012765
 31
0.0
  0
LINE
  5
877C
330
18
100
AcDbEntity
  8
0
100
AcDbLine
 10
25.63041501081104
 20
593.4167261017361
 30
0.0
 11
25.64306666062506
 21
593.4167261017361
 31
0.0
  0
LINE
  5
877D
330
18
100
AcDbEntity
  8
0
100
AcDbLine
 10
25.80116352005846
 20
593.2586292423025
 30
0.0
 11
25.80116352005846
 21
593.0186802913296
 31
0.0
  0
LINE
  5
877E
330
18
100
AcDbEntity
  8
0
100
AcDbLine
 10
25.64306666062506
 20
591.5143589536456
 30
0.0
 11
25.63041501081104
 21
591.5143589536456
 31
0.0
  0
LINE
  5
877F
330
18
100
AcDbEntity
  8
0
100
AcDbLine
 10
26.85650497671248
 20
591.5143589536456
 30
0.0
 11
26.17988552787137
 21
591.5143589536456
 31
0.0
  0
LINE
  5
8780
330
18
100
AcDbEntity
  8
0
100
AcDbLine
 10
26.02178866843774
 20
591.6724558130791
 30
0.0
 11
26.02178866843774
 21
591.912404764052
 31
0.0
  0
LINE
  5
8781
330
18
100
AcDbEntity
  8
0
100
AcDbLine
 10
25.80116352005864
 20
591.912404764052
 30
0.0
 11
25.80116352005864
 21
591.6724558130791
 31
0.0
  0
LINE
  5
8782
330
18
100
AcDbEntity
  8
0
100
AcDbLine
 10
27.01460183614596
 20
593.7062450418432
 30
0.0
 11
27.01460183614596
 21
591.672455813079
 31
0.0
  0
LINE
  5
8783
330
18
100
AcDbEntity
  8
0
100
AcDbLine
 10
26.02178866843806
 20
593.0186802913296
 30
0.0
 11
26.02178866843806
 21
593.7062450418432
 31
0.0
  0
LINE
  5
8784
330
18
100
AcDbEntity
  8
0
100
AcDbLine
 10
27.35631980715365
 20
593.9785546148871
 30
0.0
 11
27.35631980715365
 21
591.4001462400429
 31
0.0
  0
LINE
  5
8785
330
18
100
AcDbEntity
  8
0
100
AcDbLine
 10
30.75631980715366
 20
593.9393504274651
 30
0.0
 11
30.75631980715366
 21
592.6893504274651
 31
0.0
  0
LINE
  5
8786
330
18
100
AcDbEntity
  8
0
100
AcDbLine
 10
30.75631980715366
 20
592.6893504274651
 30
0.0
 11
30.75631980715366
 21
591.939350427465
 31
0.0
  0
LINE
  5
8787
330
18
100
AcDbEntity
  8
0
100
AcDbLine
 10
30.75631980715366
 20
594.489350427465
 30
0.0
 11
30.75631980715366
 21
593.9393504274651
 31
0.0
  0
LINE
  5
8788
330
18
100
AcDbEntity
  8
0
100
AcDbLine
 10
30.75631980715366
 20
591.939350427465
 30
0.0
 11
30.75631980715366
 21
591.439350427465
 31
0.0
  0
LINE
  5
8789
330
18
100
AcDbEntity
  8
0
100
AcDbLine
 10
30.75631980715366
 20
591.439350427465
 30
0.0
 11
30.75631980715366
 21
590.889350427465
 31
0.0
  0
LINE
  5
878A
330
18
100
AcDbEntity
  8
0
100
AcDbLine
 10
30.75631980715366
 20
595.489350427465
 30
0.0
 11
23.85631980715365
 21
595.489350427465
 31
0.0
  0
LINE
  5
878B
330
18
100
AcDbEntity
  8
0
100
AcDbLine
 10
23.85631980715365
 20
594.639350427465
 30
0.0
 11
23.85631980715365
 21
595.489350427465
 31
0.0
  0
LINE
  5
878C
330
18
100
AcDbEntity
  8
0
100
AcDbLine
 10
30.75631980715366
 20
595.489350427465
 30
0.0
 11
30.75631980715366
 21
597.9893504274651
 31
0.0
  0
LINE
  5
878D
330
18
100
AcDbEntity
  8
0
100
AcDbLine
 10
30.75631980715366
 20
594.889350427465
 30
0.0
 11
30.75631980715366
 21
595.489350427465
 31
0.0
  0
LINE
  5
878E
330
18
100
AcDbEntity
  8
0
100
AcDbLine
 10
30.75631980715366
 20
594.5893504274651
 30
0.0
 11
30.75631980715366
 21
594.889350427465
 31
0.0
  0
LINE
  5
87C1
330
18
100
AcDbEntity
  8
0
100
AcDbLine
 10
-163.070707676115
 20
300.5132125074956
 30
0.0
 11
-163.0707076761151
 21
294.2182125074956
 31
0.0
  0
LINE
  5
87C2
330
18
100
AcDbEntity
  8
0
100
AcDbLine
 10
-163.0707076761153
 20
285.8082125074957
 30
0.0
 11
-163.0707076761155
 21
279.5132125074952
 31
0.0
  0
LINE
  5
87C3
330
18
100
AcDbEntity
  8
0
100
AcDbLine
 10
-162.5707076761155
 20
300.5132125074957
 30
0.0
 11
-162.5707076761155
 21
294.2182125074956
 31
0.0
  0
LINE
  5
87C4
330
18
100
AcDbEntity
  8
0
100
AcDbLine
 10
-162.5707076761155
 20
285.8082125074957
 30
0.0
 11
-162.5707076761155
 21
279.5132125074951
 31
0.0
  0
LINE
  5
87D9
330
18
100
AcDbEntity
  8
0
100
AcDbLine
 10
-163.070707676115
 20
300.5132125074956
 30
0.0
 11
-151.0707076761154
 21
300.5132125074961
 31
0.0
  0
LINE
  5
87DA
330
18
100
AcDbEntity
  8
0
100
AcDbLine
 10
-163.0707076761155
 20
279.5132125074952
 30
0.0
 11
-151.0707076761154
 21
279.5132125074943
 31
0.0
  0
LINE
  5
87DB
330
18
100
AcDbEntity
  8
0
100
AcDbLine
 10
-151.0707076761154
 20
300.5132125074961
 30
0.0
 11
-151.0707076761154
 21
279.5132125074943
 31
0.0
  0
TEXT
  5
8812
330
18
100
AcDbEntity
  8
0
100
AcDbText
 10
214.5175372569531
 20
190.5900171798362
 30
0.0
 40
6.0
  1
VC外形図(AC400V仕様)　拡張I/O付
  7
MSｺﾞｼｯｸ
100
AcDbText
  0
TEXT
  5
8813
330
18
100
AcDbEntity
  8
0
100
AcDbText
 10
236.7514212775097
 20
209.98711038548
 30
0.0
 40
6.0
  1
ＮＣＲ－＊Ａ＊＊Ａ３＊－４０２＊
 41
0.6
  7
MSｺﾞｼｯｸ
100
AcDbText
  0
TEXT
  5
8814
330
18
100
AcDbEntity
  8
0
100
AcDbText
 10
256.601913349963
 20
178.2321104119891
 30
0.0
 40
7.0
  1
ＳＥ－３４２６０Ｃ
 41
0.9529999999999999
  7
MSｺﾞｼｯｸ
100
AcDbText
  0
TEXT
  5
8815
330
18
100
AcDbEntity
  8
0
100
AcDbText
 10
226.0481030453895
 20
202.2904606117172
 30
0.0
 40
6.0
  1
＋　ＮＣＲ－ＸＡＡ２（３）Ｄ１＊－４０２
 41
0.6
  7
MSｺﾞｼｯｸ
100
AcDbText
  0
VIEWPORT
  5
8876
330
8872
100
AcDbEntity
 67
     1
  8
0
100
AcDbViewport
 10
202.4999999999999
 20
128.4999999999999
 30
0.0
 40
486.0
 41
308.3999999999999
 68
     1
 69
     1
 12
202.4999999999999
 22
128.4999999999999
 13
0.0
 23
0.0
 14
0.5
 24
0.5
 15
0.0
 25
0.0
 16
0.0
 26
0.0
 36
1.0
 17
0.0
 27
0.0
 37
0.0
 42
50.0
 43
0.0
 44
0.0
 45
308.3999999999999
 50
0.0
 51
0.0
 72
   100
 90
    32864
  1

281
     0
 71
     1
 74
     0
110
0.0
120
0.0
130
0.0
111
1.0
121
0.0
131
0.0
112
0.0
122
1.0
132
0.0
 79
     0
146
0.0
  0
VIEWPORT
  5
8877
330
8872
100
AcDbEntity
 67
     1
  8
0
100
AcDbViewport
 10
202.4999999999999
 20
128.4999999999999
 30
0.0
 40
324.0
 41
205.6
 68
     2
 69
     2
 12
46.89241479041863
 22
427.060730419727
 13
0.0
 23
0.0
 14
0.5
 24
0.5
 15
0.0
 25
0.0
 16
0.0
 26
0.0
 36
1.0
 17
0.0
 27
0.0
 37
0.0
 42
50.0
 43
0.0
 44
0.0
 45
507.6103848157853
 50
0.0
 51
0.0
 72
   100
 90
    32864
  1

281
     0
 71
     1
 74
     0
110
0.0
120
0.0
130
0.0
111
1.0
121
0.0
131
0.0
112
0.0
122
1.0
132
0.0
 79
     0
146
0.0
  0
ENDSEC
  0
SECTION
  2
OBJECTS
  0
DICTIONARY
  5
C
330
0
100
AcDbDictionary
281
     1
  3
ACAD_GROUP
350
D
  3
ACAD_IMAGE_VARS
350
8870
  3
ACAD_LAYOUT
350
73F
  3
ACAD_MLINESTYLE
350
1B
  3
ACAD_PLOTSETTINGS
350
740
  3
ACAD_PLOTSTYLENAME
350
73D
  3
ACAD_SCALELIST
350
8844
  3
AcadDim
350
61D4
  3
APPDATA
350
886E
  3
DWGPROPS
350
887A
  0
DICTIONARY
  5
D
102
{ACAD_REACTORS
330
C
102
}
330
C
100
AcDbDictionary
281
     1
  0
RASTERVARIABLES
  5
8870
102
{ACAD_REACTORS
330
C
102
}
330
C
100
AcDbRasterVariables
 90
        0
 70
     1
 71
     1
 72
     0
  0
DICTIONARY
  5
73F
102
{ACAD_REACTORS
330
C
102
}
330
C
100
AcDbDictionary
281
     1
  3
Model
350
741
  3
Sheet1
350
8873
  0
DICTIONARY
  5
1B
102
{ACAD_REACTORS
330
C
102
}
330
C
100
AcDbDictionary
281
     1
  3
STANDARD
350
1C
  0
DICTIONARY
  5
740
102
{ACAD_REACTORS
330
C
102
}
330
C
100
AcDbDictionary
281
     1
  0
ACDBDICTIONARYWDFLT
  5
73D
102
{ACAD_REACTORS
330
C
102
}
330
C
100
AcDbDictionary
281
     1
  3
Normal
350
73E
100
AcDbDictionaryWithDefault
340
73E
  0
DICTIONARY
  5
8844
102
{ACAD_REACTORS
330
C
102
}
330
C
100
AcDbDictionary
281
     1
  3
A0
350
8845
  3
A1
350
8846
  3
A2
350
8847
  3
A3
350
8848
  3
A4
350
8849
  3
A5
350
884A
  3
A6
350
884B
  3
A7
350
884C
  3
A8
350
884D
  3
A9
350
884E
  3
B0
350
884F
  3
B1
350
8850
  3
B2
350
8851
  3
B3
350
8852
  3
B4
350
8853
  3
B5
350
8854
  3
B6
350
8855
  3
B7
350
8856
  3
B8
350
8857
  3
B9
350
8858
  3
C0
350
8859
  3
C1
350
885A
  3
C2
350
885B
  3
C3
350
885C
  3
C4
350
885D
  3
C5
350
885E
  3
C6
350
885F
  3
C7
350
8860
  3
C8
350
8861
  3
C9
350
8862
  3
D0
350
8863
  3
D1
350
8864
  3
D2
350
8865
  0
XRECORD
  5
61D4
102
{ACAD_REACTORS
330
C
102
}
330
C
100
AcDbXrecord
280
     1
 90
   990106
  3

 60
     0
 61
     0
 62
     1
 63
     3
 64
     0
 65
     0
 66
     0
 67
     3
 68
     1
 69
     0
 70
     0
 71
     0
 72
     0
 40
0.0
170
     0
340
0
  0
DICTIONARY
  5
886E
102
{ACAD_REACTORS
330
C
102
}
330
C
100
AcDbDictionary
281
     1
  0
XRECORD
  5
887A
102
{ACAD_REACTORS
330
C
102
}
330
C
100
AcDbXrecord
280
     1
  1
DWGPROPS COOKIE
  2

  3

  4

  6

  7

  8
k-yoshida
  9

300
=
301
=
302
=
303
=
304
=
305
=
306
=
307
=
308
=
309
=
 40
0.0
 41
2451224.285162384
 42
2457317.273979606
  1

 90
        0
  0
LAYOUT
  5
741
102
{ACAD_REACTORS
330
73F
102
}
330
73F
100
AcDbPlotSettings
  1

  2
HP DesignJet 750C (D/A1) Color
  4
ISO_A3_(420.00_x_297.00_MM)
  6

 40
7.5
 41
20.0
 42
7.5
 43
20.0
 44
420.0
 45
297.0
 46
0.0
 47
0.0
 48
0.0
 49
0.0
140
0.0
141
0.0
142
1.0
143
2.243110487142923
 70
  1712
 72
     1
 73
     0
 74
     0
  7

 75
     0
147
0.4458095157290768
148
243.1728370286029
149
-161.3129946431
100
AcDbLayout
  1
Model
 70
     1
 71
     0
 10
0.0
 20
0.0
 11
12.0
 21
9.0
 12
0.0
 22
0.0
 32
0.0
 14
1.000000000000000E+20
 24
1.000000000000000E+20
 34
1.000000000000000E+20
 15
-1.000000000000000E+20
 25
-1.000000000000000E+20
 35
-1.000000000000000E+20
146
0.0
 13
0.0
 23
0.0
 33
0.0
 16
1.0
 26
0.0
 36
0.0
 17
0.0
 27
1.0
 37
0.0
 76
     0
330
18
  0
LAYOUT
  5
8873
102
{ACAD_REACTORS
330
73F
102
}
330
73F
100
AcDbPlotSettings
  1

  2
none_device
  4
ISO_A3_(420.00_x_297.00_MM)
  6

 40
7.5
 41
20.0
 42
7.5
 43
20.0
 44
420.0
 45
297.0
 46
0.0
 47
0.0
 48
0.0
 49
0.0
140
0.0
141
0.0
142
1.0
143
1.0
 70
   688
 72
     1
 73
     0
 74
     5
  7

 75
    16
147
1.0
148
0.0
149
0.0
100
AcDbLayout
  1
Sheet1
 70
     1
 71
     1
 10
0.0
 20
0.0
 11
0.0
 21
0.0
 12
0.0
 22
0.0
 32
0.0
 14
40.49999999999999
 24
25.69999999999998
 34
0.0
 15
364.5
 25
231.3
 35
0.0
146
0.0
 13
0.0
 23
0.0
 33
0.0
 16
1.0
 26
0.0
 36
0.0
 17
0.0
 27
1.0
 37
0.0
 76
     0
330
8872
331
8876
  0
MLINESTYLE
  5
1C
102
{ACAD_REACTORS
330
1B
102
}
330
1B
100
AcDbMlineStyle
  2
STANDARD
 70
     0
  3

 62
   256
 51
90.0
 52
90.0
 71
     2
 49
0.5
 62
   256
  6
BYLAYER
 49
-0.5
 62
   256
  6
BYLAYER
  0
ACDBPLACEHOLDER
  5
73E
102
{ACAD_REACTORS
330
73D
102
}
330
73D
  0
ACAD_PROXY_OBJECT
  5
8845
102
{ACAD_REACTORS
330
8844
102
}
330
8844
100
AcDbProxyObject
 90
      499
 91
      506
 95
   655383
 70
     0
 93
       41
310
903313A31581
 94
        0
  0
ACAD_PROXY_OBJECT
  5
8846
102
{ACAD_REACTORS
330
8844
102
}
330
8844
100
AcDbProxyObject
 90
      499
 91
      506
 95
   655383
 70
     0
 93
      105
310
903313A324000000000000004043
 94
        0
  0
ACAD_PROXY_OBJECT
  5
8847
102
{ACAD_REACTORS
330
8844
102
}
330
8844
100
AcDbProxyObject
 90
      499
 91
      506
 95
   655383
 70
     0
 93
      105
310
903313A344000000000000104043
 94
        0
  0
ACAD_PROXY_OBJECT
  5
8848
102
{ACAD_REACTORS
330
8844
102
}
330
8844
100
AcDbProxyObject
 90
      499
 91
      506
 95
   655383
 70
     0
 93
      105
310
903313A354000000000000144043
 94
        0
  0
ACAD_PROXY_OBJECT
  5
8849
102
{ACAD_REACTORS
330
8844
102
}
330
8844
100
AcDbProxyObject
 90
      499
 91
      506
 95
   655383
 70
     0
 93
      105
310
903313A384000000000000204043
 94
        0
  0
ACAD_PROXY_OBJECT
  5
884A
102
{ACAD_REACTORS
330
8844
102
}
330
8844
100
AcDbProxyObject
 90
      499
 91
      506
 95
   655383
 70
     0
 93
      113
310
904313A31304000000000000244000
 94
        0
  0
ACAD_PROXY_OBJECT
  5
884B
102
{ACAD_REACTORS
330
8844
102
}
330
8844
100
AcDbProxyObject
 90
      499
 91
      506
 95
   655383
 70
     0
 93
      113
310
904313A31364000000000000304000
 94
        0
  0
ACAD_PROXY_OBJECT
  5
884C
102
{ACAD_REACTORS
330
8844
102
}
330
8844
100
AcDbProxyObject
 90
      499
 91
      506
 95
   655383
 70
     0
 93
      113
310
904313A32304000000000000344000
 94
        0
  0
ACAD_PROXY_OBJECT
  5
884D
102
{ACAD_REACTORS
330
8844
102
}
330
8844
100
AcDbProxyObject
 90
      499
 91
      506
 95
   655383
 70
     0
 93
      113
310
904313A333040000000000003E4000
 94
        0
  0
ACAD_PROXY_OBJECT
  5
884E
102
{ACAD_REACTORS
330
8844
102
}
330
8844
100
AcDbProxyObject
 90
      499
 91
      506
 95
   655383
 70
     0
 93
      113
310
904313A34304000000000000444000
 94
        0
  0
ACAD_PROXY_OBJECT
  5
884F
102
{ACAD_REACTORS
330
8844
102
}
330
8844
100
AcDbProxyObject
 90
      499
 91
      506
 95
   655383
 70
     0
 93
      113
310
904313A35304000000000000494000
 94
        0
  0
ACAD_PROXY_OBJECT
  5
8850
102
{ACAD_REACTORS
330
8844
102
}
330
8844
100
AcDbProxyObject
 90
      499
 91
      506
 95
   655383
 70
     0
 93
      121
310
905313A3130304000000000000594000
 94
        0
  0
ACAD_PROXY_OBJECT
  5
8851
102
{ACAD_REACTORS
330
8844
102
}
330
8844
100
AcDbProxyObject
 90
      499
 91
      506
 95
   655383
 70
     0
 93
      105
310
903323A310000000000000010159
 94
        0
  0
ACAD_PROXY_OBJECT
  5
8852
102
{ACAD_REACTORS
330
8844
102
}
330
8844
100
AcDbProxyObject
 90
      499
 91
      506
 95
   655383
 70
     0
 93
      105
310
903343A310000000000000410159
 94
        0
  0
ACAD_PROXY_OBJECT
  5
8853
102
{ACAD_REACTORS
330
8844
102
}
330
8844
100
AcDbProxyObject
 90
      499
 91
      506
 95
   655383
 70
     0
 93
      105
310
903383A310000000000000810159
 94
        0
  0
ACAD_PROXY_OBJECT
  5
8854
102
{ACAD_REACTORS
330
8844
102
}
330
8844
100
AcDbProxyObject
 90
      499
 91
      506
 95
   655383
 70
     0
 93
      113
310
90431303A310000000000000910140
 94
        0
  0
ACAD_PROXY_OBJECT
  5
8855
102
{ACAD_REACTORS
330
8844
102
}
330
8844
100
AcDbProxyObject
 90
      499
 91
      506
 95
   655383
 70
     0
 93
      121
310
9053130303A310000000000001650100
 94
        0
  0
ACAD_PROXY_OBJECT
  5
8856
102
{ACAD_REACTORS
330
8844
102
}
330
8844
100
AcDbProxyObject
 90
      499
 91
      506
 95
   655383
 70
     0
 93
      257
310
90E312F31323822203D2031272D3022000000000000200FC000000000000284000
 94
        0
  0
ACAD_PROXY_OBJECT
  5
8857
102
{ACAD_REACTORS
330
8844
102
}
330
8844
100
AcDbProxyObject
 90
      499
 91
      506
 95
   655383
 70
     0
 93
      249
310
90D312F363422203D2031272D3022000000000000240FC000000000000284040
 94
        0
  0
ACAD_PROXY_OBJECT
  5
8858
102
{ACAD_REACTORS
330
8844
102
}
330
8844
100
AcDbProxyObject
 90
      499
 91
      506
 95
   655383
 70
     0
 93
      249
310
90D312F333222203D2031272D3022000000000000280FC000000000000284040
 94
        0
  0
ACAD_PROXY_OBJECT
  5
8859
102
{ACAD_REACTORS
330
8844
102
}
330
8844
100
AcDbProxyObject
 90
      499
 91
      506
 95
   655383
 70
     0
 93
      249
310
90D312F313622203D2031272D30220000000000002C0FC000000000000284040
 94
        0
  0
ACAD_PROXY_OBJECT
  5
885A
102
{ACAD_REACTORS
330
8844
102
}
330
8844
100
AcDbProxyObject
 90
      499
 91
      506
 95
   655383
 70
     0
 93
      249
310
90D332F333222203D2031272D30220000000000002E0FC000000000000284040
 94
        0
  0
ACAD_PROXY_OBJECT
  5
885B
102
{ACAD_REACTORS
330
8844
102
}
330
8844
100
AcDbProxyObject
 90
      499
 91
      506
 95
   655383
 70
     0
 93
      241
310
90C312F3822203D2031272D3022000000000000300FC000000000000284040
 94
        0
  0
ACAD_PROXY_OBJECT
  5
885C
102
{ACAD_REACTORS
330
8844
102
}
330
8844
100
AcDbProxyObject
 90
      499
 91
      506
 95
   655383
 70
     0
 93
      249
310
90D332F313622203D2031272D3022000000000000320FC000000000000284040
 94
        0
  0
ACAD_PROXY_OBJECT
  5
885D
102
{ACAD_REACTORS
330
8844
102
}
330
8844
100
AcDbProxyObject
 90
      499
 91
      506
 95
   655383
 70
     0
 93
      241
310
90C312F3422203D2031272D3022000000000000340FC000000000000284040
 94
        0
  0
ACAD_PROXY_OBJECT
  5
885E
102
{ACAD_REACTORS
330
8844
102
}
330
8844
100
AcDbProxyObject
 90
      499
 91
      506
 95
   655383
 70
     0
 93
      241
310
90C332F3822203D2031272D3022000000000000360FC000000000000284040
 94
        0
  0
ACAD_PROXY_OBJECT
  5
885F
102
{ACAD_REACTORS
330
8844
102
}
330
8844
100
AcDbProxyObject
 90
      499
 91
      506
 95
   655383
 70
     0
 93
      241
310
90C312F3222203D2031272D3022000000000000380FC000000000000284040
 94
        0
  0
ACAD_PROXY_OBJECT
  5
8860
102
{ACAD_REACTORS
330
8844
102
}
330
8844
100
AcDbProxyObject
 90
      499
 91
      506
 95
   655383
 70
     0
 93
      241
310
90C332F3422203D2031272D30220000000000003A0FC000000000000284040
 94
        0
  0
ACAD_PROXY_OBJECT
  5
8861
102
{ACAD_REACTORS
330
8844
102
}
330
8844
100
AcDbProxyObject
 90
      499
 91
      506
 95
   655383
 70
     0
 93
      161
310
90A3122203D2031272D30224000000000000284020
 94
        0
  0
ACAD_PROXY_OBJECT
  5
8862
102
{ACAD_REACTORS
330
8844
102
}
330
8844
100
AcDbProxyObject
 90
      499
 91
      506
 95
   655383
 70
     0
 93
      257
310
90E312D312F3222203D2031272D30220000000000003E0FC000000000000284000
 94
        0
  0
ACAD_PROXY_OBJECT
  5
8863
102
{ACAD_REACTORS
330
8844
102
}
330
8844
100
AcDbProxyObject
 90
      499
 91
      506
 95
   655383
 70
     0
 93
      225
310
90A3322203D2031272D302200000000000002100000000000000284000
 94
        0
  0
ACAD_PROXY_OBJECT
  5
8864
102
{ACAD_REACTORS
330
8844
102
}
330
8844
100
AcDbProxyObject
 90
      499
 91
      506
 95
   655383
 70
     0
 93
      225
310
90A3622203D2031272D302200000000000006100000000000000284000
 94
        0
  0
ACAD_PROXY_OBJECT
  5
8865
102
{ACAD_REACTORS
330
8844
102
}
330
8844
100
AcDbProxyObject
 90
      499
 91
      506
 95
   655383
 70
     0
 93
      249
310
90D31272D3022203D2031272D30220000000000000A100000000000000284040
 94
        0
  0
ENDSEC
  0
EOF
