  0
SECTION
  2
HEADER
  9
$ACADVER
  1
AC1015
  9
$ACADMAINTVER
 70
    10
  9
$DWGCODEPAGE
  3
ANSI_932
  9
$INSBASE
 10
0.0
 20
0.0
 30
0.0
  9
$EXTMIN
 10
-124.326039193397
 20
363.1020669851287
 30
0.0
  9
$EXTMAX
 10
433.183536978948
 20
841.1734439081664
 30
1.004996417558615E+99
  9
$LIMMIN
 10
0.0
 20
0.0
  9
$LIMMAX
 10
420.0
 20
297.0
  9
$ORTHOMODE
 70
     1
  9
$REGENMODE
 70
     1
  9
$FILLMODE
 70
     1
  9
$QTEXTMODE
 70
     0
  9
$MIRRTEXT
 70
     1
  9
$LTSCALE
 40
1.0
  9
$ATTMODE
 70
     1
  9
$TEXTSIZE
 40
3.0
  9
$TRACEWID
 40
1.0
  9
$TEXTSTYLE
  7
STANDARD
  9
$CLAYER
  8
0
  9
$CELTYPE
  6
BYLAYER
  9
$CECOLOR
 62
   256
  9
$CELTSCALE
 40
1.0
  9
$DISPSILH
 70
     0
  9
$DIMSCALE
 40
1.0
  9
$DIMASZ
 40
3.0
  9
$DIMEXO
 40
1.5
  9
$DIMDLI
 40
6.0
  9
$DIMRND
 40
0.0
  9
$DIMDLE
 40
0.0
  9
$DIMEXE
 40
0.75
  9
$DIMTP
 40
0.0
  9
$DIMTM
 40
0.0
  9
$DIMTXT
 40
6.0
  9
$DIMCEN
 40
2.5
  9
$DIMTSZ
 40
0.0
  9
$DIMTOL
 70
     0
  9
$DIMLIM
 70
     0
  9
$DIMTIH
 70
     0
  9
$DIMTOH
 70
     0
  9
$DIMSE1
 70
     0
  9
$DIMSE2
 70
     0
  9
$DIMTAD
 70
     1
  9
$DIMZIN
 70
     9
  9
$DIMBLK
  1

  9
$DIMASO
 70
     1
  9
$DIMSHO
 70
     1
  9
$DIMPOST
  1

  9
$DIMAPOST
  1

  9
$DIMALT
 70
     0
  9
$DIMALTD
 70
     4
  9
$DIMALTF
 40
0.0394
  9
$DIMLFAC
 40
1.0
  9
$DIMTOFL
 70
     1
  9
$DIMTVP
 40
0.0
  9
$DIMTIX
 70
     0
  9
$DIMSOXD
 70
     0
  9
$DIMSAH
 70
     1
  9
$DIMBLK1
  1
OPEN
  9
$DIMBLK2
  1
OPEN
  9
$DIMSTYLE
  2
STANDARD
  9
$DIMCLRD
 70
     0
  9
$DIMCLRE
 70
     0
  9
$DIMCLRT
 70
     7
  9
$DIMTFAC
 40
1.0
  9
$DIMGAP
 40
1.5
  9
$DIMJUST
 70
     0
  9
$DIMSD1
 70
     0
  9
$DIMSD2
 70
     0
  9
$DIMTOLJ
 70
     1
  9
$DIMTZIN
 70
     9
  9
$DIMALTZ
 70
     0
  9
$DIMALTTZ
 70
     0
  9
$DIMUPT
 70
     0
  9
$DIMDEC
 70
     4
  9
$DIMTDEC
 70
     4
  9
$DIMALTU
 70
     8
  9
$DIMALTTD
 70
     4
  9
$DIMTXSTY
  7
STANDARD
  9
$DIMAUNIT
 70
     0
  9
$DIMADEC
 70
     0
  9
$DIMALTRND
 40
0.0
  9
$DIMAZIN
 70
     2
  9
$DIMDSEP
 70
    46
  9
$DIMATFIT
 70
     3
  9
$DIMFRAC
 70
     0
  9
$DIMLDRBLK
  1
OPEN
  9
$DIMLUNIT
 70
     2
  9
$DIMLWD
 70
    -2
  9
$DIMLWE
 70
    -2
  9
$DIMTMOVE
 70
     2
  9
$LUNITS
 70
     2
  9
$LUPREC
 70
     4
  9
$SKETCHINC
 40
1.0
  9
$FILLETRAD
 40
10.0
  9
$AUNITS
 70
     0
  9
$AUPREC
 70
     0
  9
$MENU
  1
.
  9
$ELEVATION
 40
0.0
  9
$PELEVATION
 40
0.0
  9
$THICKNESS
 40
0.0
  9
$LIMCHECK
 70
     0
  9
$CHAMFERA
 40
0.0
  9
$CHAMFERB
 40
0.0
  9
$CHAMFERC
 40
20.0
  9
$CHAMFERD
 40
0.0
  9
$SKPOLY
 70
     0
  9
$TDCREATE
 40
2451224.660162384
  9
$TDUCREATE
 40
2451224.285162384
  9
$TDUPDATE
 40
2457366.482520787
  9
$TDUUPDATE
 40
2457366.107520787
  9
$TDINDWG
 40
0.8923336806
  9
$TDUSRTIMER
 40
2457315.090893078
  9
$USRTIMER
 70
     1
  9
$ANGBASE
 50
0.0
  9
$ANGDIR
 70
     0
  9
$PDMODE
 70
     0
  9
$PDSIZE
 40
0.0
  9
$PLINEWID
 40
0.0
  9
$SPLFRAME
 70
     0
  9
$SPLINETYPE
 70
     6
  9
$SPLINESEGS
 70
     8
  9
$HANDSEED
  5
9D40
  9
$SURFTAB1
 70
     6
  9
$SURFTAB2
 70
     6
  9
$SURFTYPE
 70
     6
  9
$SURFU
 70
     6
  9
$SURFV
 70
     6
  9
$UCSBASE
  2

  9
$UCSNAME
  2

  9
$UCSORG
 10
0.0
 20
0.0
 30
0.0
  9
$UCSXDIR
 10
1.0
 20
0.0
 30
0.0
  9
$UCSYDIR
 10
0.0
 20
1.0
 30
0.0
  9
$UCSORTHOREF
  2

  9
$UCSORTHOVIEW
 70
     0
  9
$UCSORGTOP
 10
0.0
 20
0.0
 30
0.0
  9
$UCSORGBOTTOM
 10
0.0
 20
0.0
 30
0.0
  9
$UCSORGLEFT
 10
0.0
 20
0.0
 30
0.0
  9
$UCSORGRIGHT
 10
0.0
 20
0.0
 30
0.0
  9
$UCSORGFRONT
 10
0.0
 20
0.0
 30
0.0
  9
$UCSORGBACK
 10
0.0
 20
0.0
 30
0.0
  9
$PUCSBASE
  2

  9
$PUCSNAME
  2

  9
$PUCSORG
 10
0.0
 20
0.0
 30
0.0
  9
$PUCSXDIR
 10
1.0
 20
0.0
 30
0.0
  9
$PUCSYDIR
 10
0.0
 20
1.0
 30
0.0
  9
$PUCSORTHOREF
  2

  9
$PUCSORTHOVIEW
 70
     0
  9
$PUCSORGTOP
 10
0.0
 20
0.0
 30
0.0
  9
$PUCSORGBOTTOM
 10
0.0
 20
0.0
 30
0.0
  9
$PUCSORGLEFT
 10
0.0
 20
0.0
 30
0.0
  9
$PUCSORGRIGHT
 10
0.0
 20
0.0
 30
0.0
  9
$PUCSORGFRONT
 10
0.0
 20
0.0
 30
0.0
  9
$PUCSORGBACK
 10
0.0
 20
0.0
 30
0.0
  9
$USERI1
 70
     0
  9
$USERI2
 70
     0
  9
$USERI3
 70
     0
  9
$USERI4
 70
     0
  9
$USERI5
 70
     0
  9
$USERR1
 40
0.0
  9
$USERR2
 40
0.0
  9
$USERR3
 40
0.0
  9
$USERR4
 40
0.0
  9
$USERR5
 40
0.0
  9
$WORLDVIEW
 70
     1
  9
$SHADEDGE
 70
     3
  9
$SHADEDIF
 70
    70
  9
$TILEMODE
 70
     1
  9
$MAXACTVP
 70
    48
  9
$PINSBASE
 10
0.0
 20
0.0
 30
0.0
  9
$PLIMCHECK
 70
     0
  9
$PEXTMIN
 10
40.49999999999999
 20
25.69999999999998
 30
0.0
  9
$PEXTMAX
 10
364.5
 20
231.3
 30
0.0
  9
$PLIMMIN
 10
0.0
 20
0.0
  9
$PLIMMAX
 10
0.0
 20
0.0
  9
$UNITMODE
 70
     0
  9
$VISRETAIN
 70
     1
  9
$PLINEGEN
 70
     0
  9
$PSLTSCALE
 70
     1
  9
$TREEDEPTH
 70
  3020
  9
$CMLSTYLE
  2
STANDARD
  9
$CMLJUST
 70
     0
  9
$CMLSCALE
 40
20.0
  9
$PROXYGRAPHICS
 70
     1
  9
$MEASUREMENT
 70
     1
  9
$CELWEIGHT
370
    -1
  9
$ENDCAPS
280
     0
  9
$JOINSTYLE
280
     0
  9
$LWDISPLAY
290
     0
  9
$INSUNITS
 70
     0
  9
$HYPERLINKBASE
  1

  9
$STYLESHEET
  1

  9
$XEDIT
290
     1
  9
$CEPSNTYPE
380
     0
  9
$PSTYLEMODE
290
     1
  9
$FINGERPRINTGUID
  2
{6B368F64-F7EB-11D4-BFBA-00004C030E53}
  9
$VERSIONGUID
  2
{A0D89955-9929-48FC-BB7F-56F0AC80CEEA}
  9
$EXTNAMES
290
     1
  9
$PSVPSCALE
 40
0.0
  9
$OLESTARTUP
290
     0
  0
ENDSEC
  0
SECTION
  2
CLASSES
  0
CLASS
  1
HATCH
  2
AcDbHatch
  3
AutoCAD 2000
 90
    32768
280
     0
281
     1
  0
CLASS
  1
LWPOLYLINE
  2
AcDbPolyline
  3
AutoCAD 2000
 90
    32768
280
     0
281
     1
  0
CLASS
  1
ACDBDICTIONARYWDFLT
  2
AcDbDictionaryWithDefault
  3
AutoCAD 2000
 90
        0
280
     0
281
     0
  0
CLASS
  1
ACDBPLACEHOLDER
  2
AcDbPlaceHolder
  3
AutoCAD 2000
 90
        0
280
     0
281
     0
  0
CLASS
  1
LAYOUT
  2
AcDbLayout
  3
AutoCAD 2000
 90
        0
280
     0
281
     0
  0
CLASS
  1
VISUALSTYLE
  2
AcDbVisualStyle
  3
ObjectDBX Classes
 90
    36863
280
     0
281
     0
  0
CLASS
  1
SCALE
  2
AcDbScale
  3
ObjectDBX Classes
 90
     1153
280
     0
281
     0
  0
CLASS
  1
MATERIAL
  2
AcDbMaterial
  3
ObjectDBX Classes
 90
    33921
280
     0
281
     0
  0
CLASS
  1
TABLESTYLE
  2
AcDbTableStyle
  3
ObjectDBX Classes
 90
    36863
280
     0
281
     0
  0
CLASS
  1
MLEADERSTYLE
  2
AcDbMLeaderStyle
  3
ACDB_MLEADERSTYLE_CLASS
 90
    36863
280
     0
281
     0
  0
CLASS
  1
SUN
  2
AcDbSun
  3
SCENEOE
 90
     1153
280
     0
281
     0
  0
CLASS
  1
RASTERVARIABLES
  2
AcDbRasterVariables
  3
ISM
 90
        0
280
     0
281
     0
  0
ENDSEC
  0
SECTION
  2
TABLES
  0
TABLE
  2
VPORT
  5
8
330
0
100
AcDbSymbolTable
 70
     2
  0
VPORT
  5
9D3F
330
8
100
AcDbSymbolTableRecord
100
AcDbViewportTableRecord
  2
*Active
 70
     0
 10
0.0
 20
0.0
 11
1.0
 21
1.0
 12
274.1205877075064
 22
602.1377554466477
 13
0.0
 23
0.0
 14
10.0
 24
10.0
 15
10.0
 25
10.0
 16
0.0
 26
0.0
 36
1.0
 17
0.0
 27
0.0
 37
0.0
 40
512.5933097065647
 41
1.562182741116751
 42
50.0
 43
0.0
 44
0.0
 50
0.0
 51
0.0
 71
     0
 72
   100
 73
     1
 74
     0
 75
     0
 76
     0
 77
     0
 78
     0
281
     0
 65
     1
110
0.0
120
0.0
130
0.0
111
1.0
121
0.0
131
0.0
112
0.0
122
1.0
132
0.0
 79
     0
146
0.0
  0
ENDTAB
  0
TABLE
  2
LTYPE
  5
5
330
0
100
AcDbSymbolTable
 70
     1
  0
LTYPE
  5
12
330
5
100
AcDbSymbolTableRecord
100
AcDbLinetypeTableRecord
  2
BYBLOCK
 70
     0
  3

 72
    65
 73
     0
 40
0.0
  0
LTYPE
  5
13
330
5
100
AcDbSymbolTableRecord
100
AcDbLinetypeTableRecord
  2
BYLAYER
 70
     0
  3

 72
    65
 73
     0
 40
0.0
  0
LTYPE
  5
14
330
5
100
AcDbSymbolTableRecord
100
AcDbLinetypeTableRecord
  2
CONTINUOUS
 70
     0
  3
Solid line
 72
    65
 73
     0
 40
0.0
  0
ENDTAB
  0
TABLE
  2
LAYER
  5
2
330
0
100
AcDbSymbolTable
 70
     1
  0
LAYER
  5
E
330
2
100
AcDbSymbolTableRecord
100
AcDbLayerTableRecord
  2
0
 70
     0
 62
     7
  6
CONTINUOUS
370
    -3
390
73E
  0
ENDTAB
  0
TABLE
  2
STYLE
  5
3
330
0
100
AcDbSymbolTable
 70
     2
  0
STYLE
  5
F
330
3
100
AcDbSymbolTableRecord
100
AcDbTextStyleTableRecord
  2
STANDARD
 70
     0
 40
0.0
 41
1.0
 50
0.0
 71
     0
 42
3.0
  3
isocp.shx
  4
bigfont.shx
  0
STYLE
  5
35
330
3
100
AcDbSymbolTableRecord
100
AcDbTextStyleTableRecord
  2
MSｺﾞｼｯｸ
 70
     0
 40
0.0
 41
1.0
 50
0.0
 71
     0
 42
5.0
  3
MS Gothic.ttf
  4

1001
ACAD
1000
MS Gothic
1071
    32817
  0
ENDTAB
  0
TABLE
  2
VIEW
  5
6
330
0
100
AcDbSymbolTable
 70
     0
  0
ENDTAB
  0
TABLE
  2
UCS
  5
7
330
0
100
AcDbSymbolTable
 70
     0
  0
ENDTAB
  0
TABLE
  2
APPID
  5
9
330
0
100
AcDbSymbolTable
 70
     1
  0
APPID
  5
10
330
9
100
AcDbSymbolTableRecord
100
AcDbRegAppTableRecord
  2
ACAD
 70
     0
  0
ENDTAB
  0
TABLE
  2
DIMSTYLE
  5
A
330
0
100
AcDbSymbolTable
 70
     1
100
AcDbDimStyleTable
 71
     0
  0
DIMSTYLE
105
1D
330
A
100
AcDbSymbolTableRecord
100
AcDbDimStyleTableRecord
  2
STANDARD
 70
     0
 78
     8
 79
     2
140
3.0
340
F
341
89E
342
89E
  0
ENDTAB
  0
TABLE
  2
BLOCK_RECORD
  5
1
330
0
100
AcDbSymbolTable
 70
     4
  0
BLOCK_RECORD
  5
18
330
1
100
AcDbSymbolTableRecord
100
AcDbBlockTableRecord
  2
*MODEL_SPACE
340
741
  0
BLOCK_RECORD
  5
9D2D
330
1
100
AcDbSymbolTableRecord
100
AcDbBlockTableRecord
  2
*Paper_Space
340
9D2E
  0
BLOCK_RECORD
  5
24
330
1
100
AcDbSymbolTableRecord
100
AcDbBlockTableRecord
  2
_OPEN
340
0
  0
BLOCK_RECORD
  5
89E
330
1
100
AcDbSymbolTableRecord
100
AcDbBlockTableRecord
  2
_Open30
340
0
  0
BLOCK_RECORD
  5
8078
330
1
100
AcDbSymbolTableRecord
100
AcDbBlockTableRecord
  2
MC_1_5-2-STF-3_81__6
340
0
102
{BLKREFS
331
813A
102
}
  0
BLOCK_RECORD
  5
8139
330
1
100
AcDbSymbolTableRecord
100
AcDbBlockTableRecord
  2
VORDANS1
340
0
102
{BLKREFS
331
815E
102
}
  0
ENDTAB
  0
ENDSEC
  0
SECTION
  2
BLOCKS
  0
BLOCK
  5
19
330
18
100
AcDbEntity
  8
0
100
AcDbBlockBegin
  2
*MODEL_SPACE
 70
     0
 10
0.0
 20
0.0
 30
0.0
  3
*MODEL_SPACE
  1

  0
ENDBLK
  5
1A
330
18
100
AcDbEntity
  8
0
100
AcDbBlockEnd
  0
BLOCK
  5
9D2F
330
9D2D
100
AcDbEntity
 67
     1
  8
0
100
AcDbBlockBegin
  2
*Paper_Space
 70
     0
 10
0.0
 20
0.0
 30
0.0
  3
*Paper_Space
  1

  0
ENDBLK
  5
9D30
330
9D2D
100
AcDbEntity
 67
     1
  8
0
100
AcDbBlockEnd
  0
BLOCK
  5
25
330
24
100
AcDbEntity
  8
0
100
AcDbBlockBegin
  2
_OPEN
 70
     0
 10
0.0
 20
0.0
 30
0.0
  3
_OPEN
  1

  0
LINE
  5
26
330
24
100
AcDbEntity
  8
0
  6
ByBlock
 62
     0
100
AcDbLine
 10
-1.0
 20
0.1666666666666666
 30
0.0
 11
0.0
 21
0.0
 31
0.0
  0
LINE
  5
27
330
24
100
AcDbEntity
  8
0
  6
ByBlock
 62
     0
100
AcDbLine
 10
0.0
 20
0.0
 30
0.0
 11
-1.0
 21
-0.1666666666666666
 31
0.0
  0
LINE
  5
28
330
24
100
AcDbEntity
  8
0
  6
ByBlock
 62
     0
100
AcDbLine
 10
0.0
 20
0.0
 30
0.0
 11
-1.0
 21
0.0
 31
0.0
  0
ENDBLK
  5
29
330
24
100
AcDbEntity
  8
0
100
AcDbBlockEnd
  0
BLOCK
  5
8A2
330
89E
100
AcDbEntity
  8
0
100
AcDbBlockBegin
  2
_Open30
 70
     0
 10
0.0
 20
0.0
 30
0.0
  3
_Open30
  1

  0
LINE
  5
89F
330
89E
100
AcDbEntity
  8
0
  6
ByBlock
 62
     0
370
    -2
100
AcDbLine
 10
-1.0
 20
0.26794919
 30
0.0
 11
0.0
 21
0.0
 31
0.0
  0
LINE
  5
8A0
330
89E
100
AcDbEntity
  8
0
  6
ByBlock
 62
     0
370
    -2
100
AcDbLine
 10
0.0
 20
0.0
 30
0.0
 11
-1.0
 21
-0.26794919
 31
0.0
  0
LINE
  5
8A1
330
89E
100
AcDbEntity
  8
0
  6
ByBlock
 62
     0
370
    -2
100
AcDbLine
 10
0.0
 20
0.0
 30
0.0
 11
-1.0
 21
0.0
 31
0.0
  0
ENDBLK
  5
8A3
330
89E
100
AcDbEntity
  8
0
100
AcDbBlockEnd
  0
BLOCK
  5
8137
330
8078
100
AcDbEntity
  8
0
100
AcDbBlockBegin
  2
MC_1_5-2-STF-3_81__6
 70
     0
 10
11.65200479999999
 20
-9.005000000000009
 30
0.0
  3
MC_1_5-2-STF-3_81__6
  1

  0
LINE
  5
8079
330
8078
100
AcDbEntity
  8
0
 62
     7
100
AcDbLine
 10
22.45200479999998
 20
4.204999999999998
 30
0.0
 11
22.2520048
 21
4.204999999999998
 31
0.0
  0
LINE
  5
807A
330
8078
100
AcDbEntity
  8
0
 62
     7
100
AcDbLine
 10
22.75200479999999
 20
3.405000000000001
 30
0.0
 11
22.7520048
 21
4.204999999999998
 31
0.0
  0
LINE
  5
807B
330
8078
100
AcDbEntity
  8
0
 62
     7
100
AcDbLine
 10
22.7520048
 20
-4.204999999999998
 30
0.0
 11
22.75200479999999
 21
-3.405000000000001
 31
0.0
  0
LINE
  5
807C
330
8078
100
AcDbEntity
  8
0
 62
     7
100
AcDbLine
 10
22.45200479999998
 20
-4.204999999999998
 30
0.0
 11
22.2520048
 21
-4.204999999999998
 31
0.0
  0
LINE
  5
807D
330
8078
100
AcDbEntity
  8
0
 62
     7
100
AcDbLine
 10
22.7520048
 20
4.204999999999998
 30
0.0
 11
22.45200479999998
 21
4.204999999999998
 31
0.0
  0
LINE
  5
807E
330
8078
100
AcDbEntity
  8
0
 62
     7
100
AcDbLine
 10
22.7520048
 20
-4.204999999999998
 30
0.0
 11
22.45200479999998
 21
-4.204999999999998
 31
0.0
  0
LINE
  5
807F
330
8078
100
AcDbEntity
  8
0
 62
     7
100
AcDbLine
 10
16.22700479999998
 20
5.718068416798288
 30
0.0
 11
16.22700479999998
 21
7.091931583201727
 31
0.0
  0
LINE
  5
8080
330
8078
100
AcDbEntity
  8
0
 62
     7
100
AcDbLine
 10
19.12502869120912
 20
4.837001361960294
 30
0.0
 11
16.48400616196027
 21
7.478023891209136
 31
0.0
  0
LINE
  5
8081
330
8078
100
AcDbEntity
  8
0
 62
     7
100
AcDbLine
 10
16.97898090879087
 20
7.972998638039726
 30
0.0
 11
19.6200034380397
 21
5.331976108790883
 31
0.0
  0
LINE
  5
8082
330
8078
100
AcDbEntity
  8
0
 62
     7
100
AcDbLine
 10
20.85200480000001
 20
4.204999999999998
 30
0.0
 11
20.85200480000001
 21
8.005000000000009
 31
0.0
  0
LINE
  5
8083
330
8078
100
AcDbEntity
  8
0
 62
     7
100
AcDbLine
 10
17.35200480000009
 20
3.268050143491976
 30
0.0
 11
17.35200480000001
 21
4.204999999999998
 31
0.0
  0
LINE
  5
8084
330
8078
100
AcDbEntity
  8
0
 62
     7
100
AcDbLine
 10
18.35200480000003
 20
4.204999999999998
 30
0.0
 11
18.35200480000001
 21
-4.204999999999998
 31
0.0
  0
LINE
  5
8085
330
8078
100
AcDbEntity
  8
0
 62
     7
100
AcDbLine
 10
17.35200480000002
 20
-0.5419498565080297
 30
0.0
 11
17.35200480000009
 21
0.5419498565080261
 31
0.0
  0
LINE
  5
8086
330
8078
100
AcDbEntity
  8
0
 62
     7
100
AcDbLine
 10
17.35200480000001
 20
-3.268050143491976
 30
0.0
 11
17.35200480000002
 21
-0.5419498565080297
 31
0.0
  0
LINE
  5
8087
330
8078
100
AcDbEntity
  8
0
 62
     7
100
AcDbLine
 10
17.35200480000001
 20
-4.204999999999998
 30
0.0
 11
17.35200480000001
 21
-3.268050143491976
 31
0.0
  0
LINE
  5
8088
330
8078
100
AcDbEntity
  8
0
 62
     7
100
AcDbLine
 10
17.35200480000001
 20
-4.204999999999998
 30
0.0
 11
17.65200480000006
 21
-4.204999999999998
 31
0.0
  0
LINE
  5
8089
330
8078
100
AcDbEntity
  8
0
 62
     7
100
AcDbLine
 10
17.85200480000012
 20
-4.204999999999998
 30
0.0
 11
18.35200480000001
 21
-4.204999999999998
 31
0.0
  0
LINE
  5
808A
330
8078
100
AcDbEntity
  8
0
 62
     7
100
AcDbLine
 10
18.35200480000001
 20
-4.204999999999998
 30
0.0
 11
20.85200480000001
 21
-4.204999999999998
 31
0.0
  0
LINE
  5
808B
330
8078
100
AcDbEntity
  8
0
 62
     7
100
AcDbLine
 10
17.65200480000006
 20
-4.204999999999998
 30
0.0
 11
17.85200480000012
 21
-4.204999999999998
 31
0.0
  0
LINE
  5
808C
330
8078
100
AcDbEntity
  8
0
 62
     7
100
AcDbLine
 10
18.7389363832017
 20
4.580000000000012
 30
0.0
 11
17.36507321679829
 21
4.580000000000012
 31
0.0
  0
LINE
  5
808D
330
8078
100
AcDbEntity
  8
0
 62
     7
100
AcDbLine
 10
19.87700479999998
 20
5.718068416798288
 30
0.0
 11
19.87700479999998
 21
7.091931583201727
 31
0.0
  0
LINE
  5
808E
330
8078
100
AcDbEntity
  8
0
 62
     7
100
AcDbLine
 10
17.35200480000001
 20
4.204999999999998
 30
0.0
 11
17.65200480000006
 21
4.204999999999998
 31
0.0
  0
LINE
  5
808F
330
8078
100
AcDbEntity
  8
0
 62
     7
100
AcDbLine
 10
17.35200480000009
 20
0.5419498565080261
 30
0.0
 11
17.35200480000009
 21
3.268050143491976
 31
0.0
  0
LINE
  5
8090
330
8078
100
AcDbEntity
  8
0
 62
     7
100
AcDbLine
 10
17.85200480000012
 20
4.204999999999998
 30
0.0
 11
18.35200480000003
 21
4.204999999999998
 31
0.0
  0
LINE
  5
8091
330
8078
100
AcDbEntity
  8
0
 62
     7
100
AcDbLine
 10
17.65200480000006
 20
4.204999999999998
 30
0.0
 11
17.85200480000012
 21
4.204999999999998
 31
0.0
  0
LINE
  5
8092
330
8078
100
AcDbEntity
  8
0
 62
     7
100
AcDbLine
 10
18.7389363832017
 20
8.230000000000003
 30
0.0
 11
17.36507321679828
 21
8.230000000000003
 31
0.0
  0
LINE
  5
8093
330
8078
100
AcDbEntity
  8
0
 62
     7
100
AcDbLine
 10
22.15200480000001
 20
4.204999999999998
 30
0.0
 11
22.15200480000001
 21
-4.204999999999998
 31
0.0
  0
LINE
  5
8094
330
8078
100
AcDbEntity
  8
0
 62
     7
100
AcDbLine
 10
15.25200480000002
 20
-4.204999999999998
 30
0.0
 11
12.7520048
 21
-4.204999999999998
 31
0.0
  0
LINE
  5
8095
330
8078
100
AcDbEntity
  8
0
 62
     7
100
AcDbLine
 10
15.25200480000002
 20
4.204999999999998
 30
0.0
 11
17.35200480000001
 21
4.204999999999998
 31
0.0
  0
LINE
  5
8096
330
8078
100
AcDbEntity
  8
0
 62
     7
100
AcDbLine
 10
15.25200480000002
 20
-4.204999999999998
 30
0.0
 11
17.35200480000001
 21
-4.204999999999998
 31
0.0
  0
LINE
  5
8097
330
8078
100
AcDbEntity
  8
0
 62
     7
100
AcDbLine
 10
20.85200480000001
 20
4.204999999999998
 30
0.0
 11
18.35200480000003
 21
4.204999999999998
 31
0.0
  0
LINE
  5
8098
330
8078
100
AcDbEntity
  8
0
 62
     7
100
AcDbLine
 10
22.15200480000001
 20
4.204999999999998
 30
0.0
 11
20.85200480000001
 21
4.204999999999998
 31
0.0
  0
LINE
  5
8099
330
8078
100
AcDbEntity
  8
0
 62
     7
100
AcDbLine
 10
20.85200480000001
 20
-4.204999999999998
 30
0.0
 11
22.15200480000001
 21
-4.204999999999998
 31
0.0
  0
LINE
  5
809A
330
8078
100
AcDbEntity
  8
0
 62
     7
100
AcDbLine
 10
22.2520048
 20
4.204999999999998
 30
0.0
 11
22.15200480000001
 21
4.204999999999998
 31
0.0
  0
LINE
  5
809B
330
8078
100
AcDbEntity
  8
0
 62
     7
100
AcDbLine
 10
22.2520048
 20
-4.204999999999998
 30
0.0
 11
22.15200480000001
 21
-4.204999999999998
 31
0.0
  0
LINE
  5
809C
330
8078
100
AcDbEntity
  8
0
 62
     7
100
AcDbLine
 10
22.75200479999999
 20
-3.355000000000017
 30
0.0
 11
22.75200479999999
 21
-3.405000000000001
 31
0.0
  0
LINE
  5
809D
330
8078
100
AcDbEntity
  8
0
 62
     7
100
AcDbLine
 10
22.75200479999999
 20
-3.057345434320807
 30
0.0
 11
22.75200479999999
 21
-3.355000000000017
 31
0.0
  0
LINE
  5
809E
330
8078
100
AcDbEntity
  8
0
 62
     7
100
AcDbLine
 10
15.25200480000002
 20
4.204999999999998
 30
0.0
 11
12.7520048
 21
4.204999999999998
 31
0.0
  0
LINE
  5
809F
330
8078
100
AcDbEntity
  8
0
 62
     7
100
AcDbLine
 10
12.51610641513737
 20
-3.268549682463004
 30
0.0
 11
12.51610641513737
 21
-0.5414503175369987
 31
0.0
  0
LINE
  5
80A0
330
8078
100
AcDbEntity
  8
0
 62
     7
100
AcDbLine
 10
22.75200479999999
 20
-3.057345434320807
 30
0.0
 11
22.75200479999999
 21
-0.7526545656791513
 31
0.0
  0
LINE
  5
80A1
330
8078
100
AcDbEntity
  8
0
 62
     7
100
AcDbLine
 10
22.75200479999999
 20
-0.4549999999999841
 30
0.0
 11
22.75200479999999
 21
-0.7526545656791513
 31
0.0
  0
LINE
  5
80A2
330
8078
100
AcDbEntity
  8
0
 62
     7
100
AcDbLine
 10
22.75200479999999
 20
0.4549999999999841
 30
0.0
 11
22.75200479999999
 21
-0.4549999999999841
 31
0.0
  0
LINE
  5
80A3
330
8078
100
AcDbEntity
  8
0
 62
     7
100
AcDbLine
 10
12.51610641513737
 20
0.5414503175369987
 30
0.0
 11
12.51610641513737
 21
3.268549682463004
 31
0.0
  0
LINE
  5
80A4
330
8078
100
AcDbEntity
  8
0
 62
     7
100
AcDbLine
 10
13.05200480000026
 20
2.765000000000071
 30
0.0
 11
13.01578513557523
 21
2.765000000000128
 31
0.0
  0
LINE
  5
80A5
330
8078
100
AcDbEntity
  8
0
 62
     7
100
AcDbLine
 10
15.80200480000035
 20
2.765000000000071
 30
0.0
 11
13.05200480000026
 21
2.765000000000071
 31
0.0
  0
LINE
  5
80A6
330
8078
100
AcDbEntity
  8
0
 62
     7
100
AcDbLine
 10
15.97876816497175
 20
2.76500000000008
 30
0.0
 11
15.80200480000035
 21
2.765000000000071
 31
0.0
  0
LINE
  5
80A7
330
8078
100
AcDbEntity
  8
0
 62
     7
100
AcDbLine
 10
13.05200480000026
 20
2.765000000000071
 30
0.0
 11
13.05200480000026
 21
1.045000000000044
 31
0.0
  0
LINE
  5
80A8
330
8078
100
AcDbEntity
  8
0
 62
     7
100
AcDbLine
 10
15.80200480000035
 20
1.045000000000045
 30
0.0
 11
15.80200480000035
 21
2.765000000000071
 31
0.0
  0
LINE
  5
80A9
330
8078
100
AcDbEntity
  8
0
 62
     7
100
AcDbLine
 10
13.05200480000026
 20
1.045000000000044
 30
0.0
 11
13.01578513557525
 21
1.044999999999945
 31
0.0
  0
LINE
  5
80AA
330
8078
100
AcDbEntity
  8
0
 62
     7
100
AcDbLine
 10
13.05200480000026
 20
1.045000000000044
 30
0.0
 11
15.80200480000035
 21
1.045000000000045
 31
0.0
  0
LINE
  5
80AB
330
8078
100
AcDbEntity
  8
0
 62
     7
100
AcDbLine
 10
15.97876816497182
 20
1.044999999999959
 30
0.0
 11
15.80200480000035
 21
1.045000000000045
 31
0.0
  0
LINE
  5
80AC
330
8078
100
AcDbEntity
  8
0
 62
     7
100
AcDbLine
 10
22.75200479999999
 20
3.355000000000017
 30
0.0
 11
22.75200479999999
 21
3.405000000000001
 31
0.0
  0
LINE
  5
80AD
330
8078
100
AcDbEntity
  8
0
 62
     7
100
AcDbLine
 10
22.75200479999999
 20
3.057345434320807
 30
0.0
 11
22.75200479999999
 21
3.355000000000017
 31
0.0
  0
LINE
  5
80AE
330
8078
100
AcDbEntity
  8
0
 62
     7
100
AcDbLine
 10
22.75200479999999
 20
0.7526545656791939
 30
0.0
 11
22.75200479999999
 21
3.057345434320807
 31
0.0
  0
LINE
  5
80AF
330
8078
100
AcDbEntity
  8
0
 62
     7
100
AcDbLine
 10
22.75200479999999
 20
0.7526545656791939
 30
0.0
 11
22.75200479999999
 21
0.4549999999999841
 31
0.0
  0
LINE
  5
80B0
330
8078
100
AcDbEntity
  8
0
 62
     7
100
AcDbLine
 10
15.80200480000034
 20
-1.044999999999922
 30
0.0
 11
15.80200480000034
 21
-2.764999999999958
 31
0.0
  0
LINE
  5
80B1
330
8078
100
AcDbEntity
  8
0
 62
     7
100
AcDbLine
 10
15.97876816497185
 20
-1.044999999999945
 30
0.0
 11
15.80200480000034
 21
-1.044999999999922
 31
0.0
  0
LINE
  5
80B2
330
8078
100
AcDbEntity
  8
0
 62
     7
100
AcDbLine
 10
15.97876816497185
 20
-2.764999999999949
 30
0.0
 11
15.80200480000034
 21
-2.764999999999958
 31
0.0
  0
LINE
  5
80B3
330
8078
100
AcDbEntity
  8
0
 62
     7
100
AcDbLine
 10
13.01578513557523
 20
-1.044999999999874
 30
0.0
 11
13.05200480000026
 21
-1.04499999999993
 31
0.0
  0
LINE
  5
80B4
330
8078
100
AcDbEntity
  8
0
 62
     7
100
AcDbLine
 10
13.05200480000026
 20
-1.04499999999993
 30
0.0
 11
13.05200480000026
 21
-2.764999999999958
 31
0.0
  0
LINE
  5
80B5
330
8078
100
AcDbEntity
  8
0
 62
     7
100
AcDbLine
 10
13.05200480000026
 20
-2.764999999999958
 30
0.0
 11
13.01578513557525
 21
-2.764999999999949
 31
0.0
  0
LINE
  5
80B6
330
8078
100
AcDbEntity
  8
0
 62
     7
100
AcDbLine
 10
15.80200480000034
 20
-2.764999999999958
 30
0.0
 11
13.05200480000026
 21
-2.764999999999958
 31
0.0
  0
LINE
  5
80B7
330
8078
100
AcDbEntity
  8
0
 62
     7
100
AcDbLine
 10
15.80200480000034
 20
-1.044999999999922
 30
0.0
 11
13.05200480000026
 21
-1.04499999999993
 31
0.0
  0
LINE
  5
80B8
330
8078
100
AcDbEntity
  8
0
 62
     7
100
AcDbLine
 10
17.86491036107106
 20
9.005000000000009
 30
0.0
 11
17.72267493613536
 21
9.005000000000009
 31
0.0
  0
LINE
  5
80B9
330
8078
100
AcDbEntity
  8
0
 62
     7
100
AcDbLine
 10
17.48272598516249
 20
9.005000000000009
 30
0.0
 11
17.72267493613536
 21
9.005000000000009
 31
0.0
  0
LINE
  5
80BA
330
8078
100
AcDbEntity
  8
0
 62
     7
100
AcDbLine
 10
18.82895046341312
 20
9.005000000000009
 30
0.0
 11
19.06889941438586
 21
9.005000000000009
 31
0.0
  0
LINE
  5
80BB
330
8078
100
AcDbEntity
  8
0
 62
     7
100
AcDbLine
 10
19.06889941438586
 20
9.005000000000009
 30
0.0
 11
19.22699627381939
 21
9.005000000000009
 31
0.0
  0
LINE
  5
80BC
330
8078
100
AcDbEntity
  8
0
 62
     7
100
AcDbLine
 10
17.324629125729
 20
9.005000000000009
 30
0.0
 11
17.48272598516249
 21
9.005000000000009
 31
0.0
  0
LINE
  5
80BD
330
8078
100
AcDbEntity
  8
0
 62
     7
100
AcDbLine
 10
18.68671503847739
 20
9.005000000000009
 30
0.0
 11
18.82895046341312
 21
9.005000000000009
 31
0.0
  0
LINE
  5
80BE
330
8078
100
AcDbEntity
  8
0
 62
     7
100
AcDbLine
 10
18.50417483006699
 20
9.005000000000009
 30
0.0
 11
18.68671503847739
 21
9.005000000000009
 31
0.0
  0
LINE
  5
80BF
330
8078
100
AcDbEntity
  8
0
 62
     7
100
AcDbLine
 10
18.0474505694814
 20
9.005000000000009
 30
0.0
 11
18.2758126997742
 21
9.005000000000009
 31
0.0
  0
LINE
  5
80C0
330
8078
100
AcDbEntity
  8
0
 62
     7
100
AcDbLine
 10
17.86491036107106
 20
9.005000000000009
 30
0.0
 11
18.0474505694814
 21
9.005000000000009
 31
0.0
  0
LINE
  5
80C1
330
8078
100
AcDbEntity
  8
0
 62
     7
100
AcDbLine
 10
18.2758126997742
 20
9.005000000000009
 30
0.0
 11
18.50417483006699
 21
9.005000000000009
 31
0.0
  0
LINE
  5
80C2
330
8078
100
AcDbEntity
  8
0
 62
     7
100
AcDbLine
 10
17.324629125729
 20
9.005000000000009
 30
0.0
 11
17.03511018562189
 21
9.005000000000009
 31
0.0
  0
LINE
  5
80C3
330
8078
100
AcDbEntity
  8
0
 62
     7
100
AcDbLine
 10
17.03511018562189
 20
9.005000000000009
 30
0.0
 11
16.8770133261884
 21
9.005000000000009
 31
0.0
  0
LINE
  5
80C4
330
8078
100
AcDbEntity
  8
0
 62
     7
100
AcDbLine
 10
16.76280061257794
 20
9.005000000000009
 30
0.0
 11
16.8770133261884
 21
9.005000000000009
 31
0.0
  0
LINE
  5
80C5
330
8078
100
AcDbEntity
  8
0
 62
     7
100
AcDbLine
 10
19.22699627381939
 20
9.005000000000009
 30
0.0
 11
19.3412089874221
 21
9.005000000000009
 31
0.0
  0
LINE
  5
80C6
330
8078
100
AcDbEntity
  8
0
 62
     7
100
AcDbLine
 10
19.3412089874221
 20
9.005000000000009
 30
0.0
 11
19.55200480000002
 21
9.005000000000009
 31
0.0
  0
LINE
  5
80C7
330
8078
100
AcDbEntity
  8
0
 62
     7
100
AcDbLine
 10
16.55200479999994
 20
9.005000000000009
 30
0.0
 11
16.76280061257794
 21
9.005000000000009
 31
0.0
  0
LINE
  5
80C8
330
8078
100
AcDbEntity
  8
0
 62
     7
100
AcDbLine
 10
19.55200480000002
 20
9.005000000000009
 30
0.0
 11
19.85200480000001
 21
9.005000000000009
 31
0.0
  0
LINE
  5
80C9
330
8078
100
AcDbEntity
  8
0
 62
     7
100
AcDbLine
 10
16.25200480000001
 20
9.005000000000009
 30
0.0
 11
16.55200479999994
 21
9.005000000000009
 31
0.0
  0
LINE
  5
80CA
330
8078
100
AcDbEntity
  8
0
 62
     7
100
AcDbLine
 10
15.25200480000002
 20
4.204999999999998
 30
0.0
 11
15.25200480000002
 21
8.005000000000009
 31
0.0
  0
LINE
  5
80CB
330
8078
100
AcDbEntity
  8
0
 62
     7
100
AcDbLine
 10
11.65200479999999
 20
4.204999999999998
 30
0.0
 11
12.4520048
 21
4.204999999999998
 31
0.0
  0
LINE
  5
80CC
330
8078
100
AcDbEntity
  8
0
 62
     7
100
AcDbLine
 10
12.4520048
 20
-4.204999999999998
 30
0.0
 11
11.65200479999999
 21
-4.204999999999998
 31
0.0
  0
LINE
  5
80CD
330
8078
100
AcDbEntity
  8
0
 62
     7
100
AcDbLine
 10
11.65200479999999
 20
-4.204999999999998
 30
0.0
 11
11.65200479999999
 21
4.204999999999998
 31
0.0
  0
LINE
  5
80CE
330
8078
100
AcDbEntity
  8
0
 62
     7
100
AcDbLine
 10
12.7520048
 20
-4.204999999999998
 30
0.0
 11
12.4520048
 21
-4.204999999999998
 31
0.0
  0
LINE
  5
80CF
330
8078
100
AcDbEntity
  8
0
 62
     7
100
AcDbLine
 10
12.7520048
 20
4.204999999999998
 30
0.0
 11
12.4520048
 21
4.204999999999998
 31
0.0
  0
LINE
  5
80D0
330
8078
100
AcDbEntity
  8
0
 62
     7
100
AcDbLine
 10
20.85200480000001
 20
-4.204999999999998
 30
0.0
 11
20.85200480000001
 21
-8.005000000000009
 31
0.0
  0
LINE
  5
80D1
330
8078
100
AcDbEntity
  8
0
 62
     7
100
AcDbLine
 10
15.25200480000002
 20
-4.204999999999998
 30
0.0
 11
15.25200480000002
 21
-8.005000000000009
 31
0.0
  0
LINE
  5
80D2
330
8078
100
AcDbEntity
  8
0
 62
     7
100
AcDbLine
 10
18.73893638320173
 20
-4.579999999999998
 30
0.0
 11
17.36507321679825
 21
-4.579999999999998
 31
0.0
  0
LINE
  5
80D3
330
8078
100
AcDbEntity
  8
0
 62
     7
100
AcDbLine
 10
19.87700479999998
 20
-5.718068416798275
 30
0.0
 11
19.87700479999998
 21
-7.091931583201699
 31
0.0
  0
LINE
  5
80D4
330
8078
100
AcDbEntity
  8
0
 62
     7
100
AcDbLine
 10
19.12502869120912
 20
-7.972998638039709
 30
0.0
 11
16.48400616196028
 21
-5.331976108790865
 31
0.0
  0
LINE
  5
80D5
330
8078
100
AcDbEntity
  8
0
 62
     7
100
AcDbLine
 10
16.97898090879085
 20
-4.837001361960271
 30
0.0
 11
19.6200034380397
 21
-7.478023891209117
 31
0.0
  0
LINE
  5
80D6
330
8078
100
AcDbEntity
  8
0
 62
     7
100
AcDbLine
 10
16.22700479999998
 20
-5.718068416798261
 30
0.0
 11
16.22700479999998
 21
-7.091931583201699
 31
0.0
  0
LINE
  5
80D7
330
8078
100
AcDbEntity
  8
0
 62
     7
100
AcDbLine
 10
18.73893638320166
 20
-8.229999999999989
 30
0.0
 11
17.36507321679831
 21
-8.229999999999989
 31
0.0
  0
LINE
  5
80D8
330
8078
100
AcDbEntity
  8
0
 62
     7
100
AcDbLine
 10
16.25200480000001
 20
-9.005000000000009
 30
0.0
 11
19.85200480000001
 21
-9.005000000000009
 31
0.0
  0
ARC
  5
80D9
330
8078
100
AcDbEntity
  8
0
 62
     7
100
AcDbCircle
 10
14.9320048000011
 20
20.39499999999989
 30
0.0
 40
20.00000000000011
100
AcDbArc
 50
263.6465784957678
 51
276.8921252520984
  0
ARC
  5
80DA
330
8078
100
AcDbEntity
  8
0
 62
     7
100
AcDbCircle
 10
18.05200479999998
 20
6.405000000000014
 30
0.0
 40
1.949999999999999
100
AcDbArc
 50
9.617477116202456
 51
15.00000000000011
  0
ARC
  5
80DB
330
8078
100
AcDbEntity
  8
0
 62
     7
100
AcDbCircle
 10
18.05200479999998
 20
6.405000000000014
 30
0.0
 40
1.949999999999996
100
AcDbArc
 50
339.3736189501979
 51
350.3825228837971
  0
ARC
  5
80DC
330
8078
100
AcDbEntity
  8
0
 62
     7
100
AcDbCircle
 10
18.05200479999998
 20
6.405000000000014
 30
0.0
 40
1.950000000000004
100
AcDbArc
 50
290.6263810498014
 51
339.3736189501979
  0
ARC
  5
80DD
330
8078
100
AcDbEntity
  8
0
 62
     7
100
AcDbCircle
 10
18.05200479999998
 20
6.405000000000014
 30
0.0
 40
1.950000000000006
100
AcDbArc
 50
159.3736189501985
 51
170.3825228837962
  0
ARC
  5
80DE
330
8078
100
AcDbEntity
  8
0
 62
     7
100
AcDbCircle
 10
18.05200479999998
 20
6.405000000000014
 30
0.0
 40
1.95
100
AcDbArc
 50
189.6174771162041
 51
200.6263810498018
  0
ARC
  5
80DF
330
8078
100
AcDbEntity
  8
0
 62
     7
100
AcDbCircle
 10
18.05200479999998
 20
6.405000000000014
 30
0.0
 40
1.899999999999996
100
AcDbArc
 50
45.00000000000003
 51
73.84784348690004
  0
ARC
  5
80E0
330
8078
100
AcDbEntity
  8
0
 62
     7
100
AcDbCircle
 10
18.05200479999998
 20
6.405000000000014
 30
0.0
 40
1.899999999999988
100
AcDbArc
 50
124.3848921492918
 51
145.6151078507083
  0
ARC
  5
80E1
330
8078
100
AcDbEntity
  8
0
 62
     7
100
AcDbCircle
 10
18.05200479999998
 20
6.405000000000014
 30
0.0
 40
1.899999999999995
100
AcDbArc
 50
145.6151078507083
 51
163.8478434869018
  0
ARC
  5
80E2
330
8078
100
AcDbEntity
  8
0
 62
     7
100
AcDbCircle
 10
18.05200479999998
 20
6.405000000000014
 30
0.0
 40
1.899999999999997
100
AcDbArc
 50
196.1521565130981
 51
253.8478434869018
  0
ARC
  5
80E3
330
8078
100
AcDbEntity
  8
0
 62
     7
100
AcDbCircle
 10
18.05200479999998
 20
6.405000000000014
 30
0.0
 40
1.95
100
AcDbArc
 50
249.3736189501989
 51
260.382522883796
  0
ARC
  5
80E4
330
8078
100
AcDbEntity
  8
0
 62
     7
100
AcDbCircle
 10
18.05200479999998
 20
6.405000000000014
 30
0.0
 40
1.95000000000001
100
AcDbArc
 50
200.6263810498018
 51
249.3736189501989
  0
ARC
  5
80E5
330
8078
100
AcDbEntity
  8
0
 62
     7
100
AcDbCircle
 10
18.05200479999998
 20
6.405000000000014
 30
0.0
 40
1.949999999999992
100
AcDbArc
 50
110.6263810498015
 51
159.3736189501985
  0
ARC
  5
80E6
330
8078
100
AcDbEntity
  8
0
 62
     7
100
AcDbCircle
 10
18.05200479999998
 20
6.405000000000014
 30
0.0
 40
1.899999999999997
100
AcDbArc
 50
106.1521565130997
 51
124.3848921492918
  0
ARC
  5
80E7
330
8078
100
AcDbEntity
  8
0
 62
     7
100
AcDbCircle
 10
19.85200480000001
 20
8.005000000000009
 30
0.0
 40
1.0
100
AcDbArc
 50
0.0
 51
45.57299599919454
  0
ARC
  5
80E8
330
8078
100
AcDbEntity
  8
0
 62
     7
100
AcDbCircle
 10
18.05200479999998
 20
6.405000000000014
 30
0.0
 40
1.949999999999991
100
AcDbArc
 50
69.37361895019858
 51
80.3825228837967
  0
ARC
  5
80E9
330
8078
100
AcDbEntity
  8
0
 62
     7
100
AcDbCircle
 10
18.05200479999998
 20
6.405000000000014
 30
0.0
 40
1.949999999999996
100
AcDbArc
 50
99.61747711620342
 51
110.6263810498015
  0
ARC
  5
80EA
330
8078
100
AcDbEntity
  8
0
 62
     7
100
AcDbCircle
 10
18.05200479999998
 20
6.405000000000014
 30
0.0
 40
1.949999999999992
100
AcDbArc
 50
20.62638104980153
 51
69.37361895019858
  0
ARC
  5
80EB
330
8078
100
AcDbEntity
  8
0
 62
     7
100
AcDbCircle
 10
18.05200479999998
 20
6.405000000000014
 30
0.0
 40
1.899999999999998
100
AcDbArc
 50
325.6151078507081
 51
343.8478434869001
  0
ARC
  5
80EC
330
8078
100
AcDbEntity
  8
0
 62
     7
100
AcDbCircle
 10
14.93200480000109
 20
-16.58499999999989
 30
0.0
 40
19.99999999999993
100
AcDbArc
 50
83.05018107851344
 51
83.10787474790149
  0
ARC
  5
80ED
330
8078
100
AcDbEntity
  8
0
 62
     7
100
AcDbCircle
 10
18.05200479999998
 20
6.405000000000014
 30
0.0
 40
1.950000000000011
100
AcDbArc
 50
279.6174771162034
 51
290.6263810498014
  0
ARC
  5
80EE
330
8078
100
AcDbEntity
  8
0
 62
     7
100
AcDbCircle
 10
18.05200479999998
 20
6.405000000000014
 30
0.0
 40
1.899999999999998
100
AcDbArc
 50
286.1521565130983
 51
304.3848921492918
  0
ARC
  5
80EF
330
8078
100
AcDbEntity
  8
0
 62
     7
100
AcDbCircle
 10
18.05200479999998
 20
6.405000000000014
 30
0.0
 40
1.949999999999995
100
AcDbArc
 50
15.00000000000011
 51
20.62638104980153
  0
ARC
  5
80F0
330
8078
100
AcDbEntity
  8
0
 62
     7
100
AcDbCircle
 10
18.05200479999998
 20
6.405000000000014
 30
0.0
 40
1.949999999999999
100
AcDbArc
 50
0.0
 51
9.617477116202456
  0
ARC
  5
80F1
330
8078
100
AcDbEntity
  8
0
 62
     7
100
AcDbCircle
 10
18.05200479999998
 20
6.405000000000014
 30
0.0
 40
1.95
100
AcDbArc
 50
350.3825228837971
 51
0.0
  0
ARC
  5
80F2
330
8078
100
AcDbEntity
  8
0
 62
     7
100
AcDbCircle
 10
18.05200479999998
 20
6.405000000000014
 30
0.0
 40
1.950000000000014
100
AcDbArc
 50
260.382522883796
 51
279.6174771162034
  0
ARC
  5
80F3
330
8078
100
AcDbEntity
  8
0
 62
     7
100
AcDbCircle
 10
18.05200479999998
 20
6.405000000000014
 30
0.0
 40
1.899999999999998
100
AcDbArc
 50
304.3848921492918
 51
325.6151078507081
  0
ARC
  5
80F4
330
8078
100
AcDbEntity
  8
0
 62
     7
100
AcDbCircle
 10
14.9320048000011
 20
20.39499999999989
 30
0.0
 40
19.99999999999987
100
AcDbArc
 50
276.8921252520984
 51
276.9498189214866
  0
ARC
  5
80F5
330
8078
100
AcDbEntity
  8
0
 62
     7
100
AcDbCircle
 10
14.93200480000002
 20
-20.39499999999989
 30
0.0
 40
20.00000000000006
100
AcDbArc
 50
83.05018107851052
 51
83.10787474789842
  0
ARC
  5
80F6
330
8078
100
AcDbEntity
  8
0
 62
     7
100
AcDbCircle
 10
14.93200480000002
 20
16.58499999999989
 30
0.0
 40
20.00000000000001
100
AcDbArc
 50
276.8921252521029
 51
276.9498189214893
  0
ARC
  5
80F7
330
8078
100
AcDbEntity
  8
0
 62
     7
100
AcDbCircle
 10
18.05200479999998
 20
6.405000000000014
 30
0.0
 40
1.899999999999998
100
AcDbArc
 50
16.15215651309982
 51
45.00000000000003
  0
ARC
  5
80F8
330
8078
100
AcDbEntity
  8
0
 62
     7
100
AcDbCircle
 10
18.05200479999998
 20
6.405000000000014
 30
0.0
 40
1.949999999999995
100
AcDbArc
 50
80.3825228837967
 51
99.61747711620342
  0
ARC
  5
80F9
330
8078
100
AcDbEntity
  8
0
 62
     7
100
AcDbCircle
 10
18.05200479999998
 20
6.405000000000014
 30
0.0
 40
1.949999999999997
100
AcDbArc
 50
170.3825228837962
 51
189.6174771162041
  0
ARC
  5
80FA
330
8078
100
AcDbEntity
  8
0
 62
     7
100
AcDbCircle
 10
14.93200480000002
 20
16.58499999999989
 30
0.0
 40
19.99999999999999
100
AcDbArc
 50
263.6465784957709
 51
276.8921252521029
  0
ARC
  5
80FB
330
8078
100
AcDbEntity
  8
0
 62
     7
100
AcDbCircle
 10
14.93200480000109
 20
-16.58499999999989
 30
0.0
 40
19.99999999999987
100
AcDbArc
 50
83.10787474790149
 51
90.00000000000277
  0
ARC
  5
80FC
330
8078
100
AcDbEntity
  8
0
 62
     7
100
AcDbCircle
 10
14.93200480000109
 20
-16.58499999999989
 30
0.0
 40
20.0
100
AcDbArc
 50
90.00000000000277
 51
96.35342150423221
  0
ARC
  5
80FD
330
8078
100
AcDbEntity
  8
0
 62
     7
100
AcDbCircle
 10
14.93200480000002
 20
-20.39499999999989
 30
0.0
 40
19.99999999999999
100
AcDbArc
 50
96.35342150422914
 51
96.93798183461964
  0
ARC
  5
80FE
330
8078
100
AcDbEntity
  8
0
 62
     7
100
AcDbCircle
 10
14.93200480000002
 20
-20.39499999999989
 30
0.0
 40
20.0
100
AcDbArc
 50
89.99999999999968
 51
96.35342150422914
  0
ARC
  5
80FF
330
8078
100
AcDbEntity
  8
0
 62
     7
100
AcDbCircle
 10
14.93200480000002
 20
-20.39499999999989
 30
0.0
 40
20.0
100
AcDbArc
 50
83.10787474789842
 51
89.99999999999968
  0
ARC
  5
8100
330
8078
100
AcDbEntity
  8
0
 62
     7
100
AcDbCircle
 10
14.93200480000109
 20
-16.58499999999989
 30
0.0
 40
20.0000000000001
100
AcDbArc
 50
96.35342150423221
 51
96.93798183462273
  0
ARC
  5
8101
330
8078
100
AcDbEntity
  8
0
 62
     7
100
AcDbCircle
 10
14.9320048000011
 20
20.39499999999989
 30
0.0
 40
20.00000000000024
100
AcDbArc
 50
263.0620181653773
 51
263.6465784957678
  0
ARC
  5
8102
330
8078
100
AcDbEntity
  8
0
 62
     7
100
AcDbCircle
 10
14.93200480000002
 20
16.58499999999989
 30
0.0
 40
20.00000000000011
100
AcDbArc
 50
263.0620181653803
 51
263.6465784957709
  0
ARC
  5
8103
330
8078
100
AcDbEntity
  8
0
 62
     7
100
AcDbCircle
 10
19.85200480000001
 20
8.005000000000009
 30
0.0
 40
0.9999999999999779
100
AcDbArc
 50
45.57299599919454
 51
90.0
  0
ARC
  5
8104
330
8078
100
AcDbEntity
  8
0
 62
     7
100
AcDbCircle
 10
19.85200480000001
 20
-8.005000000000009
 30
0.0
 40
1.000000000000001
100
AcDbArc
 50
314.4270040008046
 51
0.0
  0
ARC
  5
8105
330
8078
100
AcDbEntity
  8
0
 62
     7
100
AcDbCircle
 10
16.25200480000001
 20
8.005000000000009
 30
0.0
 40
1.0
100
AcDbArc
 50
90.0
 51
180.0
  0
ARC
  5
8106
330
8078
100
AcDbEntity
  8
0
 62
     7
100
AcDbCircle
 10
18.05200479999998
 20
-6.404999999999986
 30
0.0
 40
1.95
100
AcDbArc
 50
350.3825228837971
 51
0.0
  0
ARC
  5
8107
330
8078
100
AcDbEntity
  8
0
 62
     7
100
AcDbCircle
 10
18.05200479999998
 20
-6.404999999999986
 30
0.0
 40
1.949999999999992
100
AcDbArc
 50
339.3736189501986
 51
345.0000000000001
  0
ARC
  5
8108
330
8078
100
AcDbEntity
  8
0
 62
     7
100
AcDbCircle
 10
18.05200479999998
 20
-6.404999999999986
 30
0.0
 40
1.950000000000006
100
AcDbArc
 50
200.6263810498014
 51
249.3736189501996
  0
ARC
  5
8109
330
8078
100
AcDbEntity
  8
0
 62
     7
100
AcDbCircle
 10
18.05200479999998
 20
-6.404999999999986
 30
0.0
 40
1.95000000000001
100
AcDbArc
 50
99.61747711620569
 51
110.6263810498023
  0
ARC
  5
810A
330
8078
100
AcDbEntity
  8
0
 62
     7
100
AcDbCircle
 10
18.05200479999998
 20
-6.404999999999986
 30
0.0
 40
1.899999999999996
100
AcDbArc
 50
45.00000000000002
 51
73.84784348690004
  0
ARC
  5
810B
330
8078
100
AcDbEntity
  8
0
 62
     7
100
AcDbCircle
 10
18.05200479999998
 20
-6.404999999999986
 30
0.0
 40
1.899999999999997
100
AcDbArc
 50
325.6151078507081
 51
343.8478434869003
  0
ARC
  5
810C
330
8078
100
AcDbEntity
  8
0
 62
     7
100
AcDbCircle
 10
18.05200479999998
 20
-6.404999999999986
 30
0.0
 40
1.899999999999997
100
AcDbArc
 50
16.15215651309974
 51
45.00000000000002
  0
ARC
  5
810D
330
8078
100
AcDbEntity
  8
0
 62
     7
100
AcDbCircle
 10
18.05200479999998
 20
-6.404999999999986
 30
0.0
 40
1.950000000000002
100
AcDbArc
 50
110.6263810498023
 51
159.3736189501982
  0
ARC
  5
810E
330
8078
100
AcDbEntity
  8
0
 62
     7
100
AcDbCircle
 10
18.05200479999998
 20
-6.404999999999986
 30
0.0
 40
1.949999999999991
100
AcDbArc
 50
290.6263810498001
 51
339.3736189501986
  0
ARC
  5
810F
330
8078
100
AcDbEntity
  8
0
 62
     7
100
AcDbCircle
 10
18.05200479999998
 20
-6.404999999999986
 30
0.0
 40
1.899999999999996
100
AcDbArc
 50
124.384892149292
 51
145.6151078507081
  0
ARC
  5
8110
330
8078
100
AcDbEntity
  8
0
 62
     7
100
AcDbCircle
 10
18.05200479999998
 20
-6.404999999999986
 30
0.0
 40
1.899999999999988
100
AcDbArc
 50
145.6151078507081
 51
163.8478434869015
  0
ARC
  5
8111
330
8078
100
AcDbEntity
  8
0
 62
     7
100
AcDbCircle
 10
18.05200479999998
 20
-6.404999999999986
 30
0.0
 40
1.9
100
AcDbArc
 50
304.3848921492918
 51
325.6151078507081
  0
ARC
  5
8112
330
8078
100
AcDbEntity
  8
0
 62
     7
100
AcDbCircle
 10
18.05200479999998
 20
-6.404999999999986
 30
0.0
 40
1.9
100
AcDbArc
 50
286.1521565130983
 51
304.3848921492918
  0
ARC
  5
8113
330
8078
100
AcDbEntity
  8
0
 62
     7
100
AcDbCircle
 10
18.05200479999998
 20
-6.404999999999986
 30
0.0
 40
1.9
100
AcDbArc
 50
196.1521565130984
 51
253.8478434869018
  0
ARC
  5
8114
330
8078
100
AcDbEntity
  8
0
 62
     7
100
AcDbCircle
 10
18.05200479999998
 20
-6.404999999999986
 30
0.0
 40
1.899999999999997
100
AcDbArc
 50
106.1521565130997
 51
124.384892149292
  0
ARC
  5
8115
330
8078
100
AcDbEntity
  8
0
 62
     7
100
AcDbCircle
 10
18.05200479999998
 20
-6.404999999999986
 30
0.0
 40
1.950000000000003
100
AcDbArc
 50
9.617477116203307
 51
20.62638104980153
  0
ARC
  5
8116
330
8078
100
AcDbEntity
  8
0
 62
     7
100
AcDbCircle
 10
18.05200479999998
 20
-6.404999999999986
 30
0.0
 40
1.949999999999999
100
AcDbArc
 50
0.0
 51
9.617477116203307
  0
ARC
  5
8117
330
8078
100
AcDbEntity
  8
0
 62
     7
100
AcDbCircle
 10
18.05200479999998
 20
-6.404999999999986
 30
0.0
 40
1.949999999999992
100
AcDbArc
 50
345.0000000000001
 51
350.3825228837971
  0
ARC
  5
8118
330
8078
100
AcDbEntity
  8
0
 62
     7
100
AcDbCircle
 10
18.05200479999998
 20
-6.404999999999986
 30
0.0
 40
1.950000000000004
100
AcDbArc
 50
69.37361895019749
 51
80.38252288379444
  0
ARC
  5
8119
330
8078
100
AcDbEntity
  8
0
 62
     7
100
AcDbCircle
 10
18.05200479999998
 20
-6.404999999999986
 30
0.0
 40
1.949999999999992
100
AcDbArc
 50
20.62638104980153
 51
69.37361895019749
  0
ARC
  5
811A
330
8078
100
AcDbEntity
  8
0
 62
     7
100
AcDbCircle
 10
18.05200479999998
 20
-6.404999999999986
 30
0.0
 40
1.95
100
AcDbArc
 50
189.6174771162041
 51
200.6263810498014
  0
ARC
  5
811B
330
8078
100
AcDbEntity
  8
0
 62
     7
100
AcDbCircle
 10
18.05200479999998
 20
-6.404999999999986
 30
0.0
 40
1.95000000000001
100
AcDbArc
 50
159.3736189501982
 51
170.3825228837958
  0
ARC
  5
811C
330
8078
100
AcDbEntity
  8
0
 62
     7
100
AcDbCircle
 10
18.05200479999998
 20
-6.404999999999986
 30
0.0
 40
1.950000000000008
100
AcDbArc
 50
80.38252288379444
 51
99.61747711620569
  0
ARC
  5
811D
330
8078
100
AcDbEntity
  8
0
 62
     7
100
AcDbCircle
 10
18.05200479999998
 20
-6.404999999999986
 30
0.0
 40
1.95
100
AcDbArc
 50
170.3825228837958
 51
189.6174771162041
  0
ARC
  5
811E
330
8078
100
AcDbEntity
  8
0
 62
     7
100
AcDbCircle
 10
18.05200479999998
 20
-6.404999999999986
 30
0.0
 40
1.949999999999995
100
AcDbArc
 50
279.6174771162005
 51
290.6263810498001
  0
ARC
  5
811F
330
8078
100
AcDbEntity
  8
0
 62
     7
100
AcDbCircle
 10
18.05200479999998
 20
-6.404999999999986
 30
0.0
 40
1.949999999999992
100
AcDbArc
 50
249.3736189501996
 51
260.3825228837994
  0
ARC
  5
8120
330
8078
100
AcDbEntity
  8
0
 62
     7
100
AcDbCircle
 10
18.05200479999998
 20
-6.404999999999986
 30
0.0
 40
1.949999999999995
100
AcDbArc
 50
260.3825228837994
 51
279.6174771162005
  0
ARC
  5
8121
330
8078
100
AcDbEntity
  8
0
 62
     7
100
AcDbCircle
 10
19.85200480000001
 20
-8.005000000000009
 30
0.0
 40
1.0
100
AcDbArc
 50
270.0
 51
314.4270040008046
  0
ARC
  5
8122
330
8078
100
AcDbEntity
  8
0
 62
     7
100
AcDbCircle
 10
16.25200480000001
 20
-8.005000000000009
 30
0.0
 40
1.0
100
AcDbArc
 50
180.0
 51
270.0
  0
LWPOLYLINE
  5
8123
330
8078
100
AcDbEntity
  8
0
 62
     7
100
AcDbPolyline
 90
        8
 70
     0
 43
0.0
 10
17.33201265709492
 20
3.270476883869775
 42
0.0335310637653838
 10
17.31329089504755
 20
3.271318850572598
 42
0.0156165892135584
 10
17.28941606510463
 20
3.270301414414703
 42
0.0071889415064502
 10
17.26096723987685
 20
3.267894183712745
 10
17.24520853922197
 20
3.266316148006695
 42
0.0004735704562555
 10
17.20263031056757
 20
3.261820140191021
 42
-0.0032656780077607
 10
17.15475467428841
 20
3.257047853800718
 42
-0.0060397432882063
 10
17.10200480000014
 20
3.252767990508274
  0
LWPOLYLINE
  5
8124
330
8078
100
AcDbEntity
  8
0
 62
     7
100
AcDbPolyline
 90
        8
 70
     0
 43
0.0
 38
1.004996417558615E+99
 10
17.10200480000016
 20
-3.252767990508261
 42
-0.0057841437119752
 10
17.15475467428849
 20
-3.257047853800721
 42
-0.0030986770794639
 10
17.20263031056765
 20
-3.261820140191028
 42
0.0004438508909904
 10
17.24520853922196
 20
-3.266316148006695
 10
17.26096723987798
 20
-3.26789418371285
 42
0.0066594803953065
 10
17.28941606510647
 20
-3.270301414414806
 42
0.0140857367880889
 10
17.31329089504882
 20
-3.271318850572584
 42
0.029075955183634
 10
17.33201265709538
 20
-3.27047688386973
  0
LWPOLYLINE
  5
8125
330
8078
100
AcDbEntity
  8
0
 62
     7
100
AcDbPolyline
 90
        8
 70
     0
 43
0.0
 38
1.004996417558615E+99
 10
17.33201265709492
 20
-0.5395231161302263
 42
0.0335310637654514
 10
17.31329089504755
 20
-0.5386811494274043
 42
0.0156165892136423
 10
17.28941606510463
 20
-0.5396985855852991
 42
0.0071889415065424
 10
17.26096723987685
 20
-0.5421058162872582
 10
17.24520853922197
 20
-0.5436838519933076
 42
0.000473570456253
 10
17.20263031056757
 20
-0.5481798598089815
 42
-0.0032656780077582
 10
17.15475467428841
 20
-0.5529521461992828
 42
-0.0060397432882149
 10
17.10200480000014
 20
-0.5572320094917274
  0
LWPOLYLINE
  5
8126
330
8078
100
AcDbEntity
  8
0
 62
     7
100
AcDbPolyline
 90
        7
 70
     0
 43
0.0
 38
1.004996417558615E+99
 10
16.616100821069
 20
-3.162470935450638
 42
0.0142366455524767
 10
16.71847418368156
 20
-3.191985082742943
 42
0.0120695717613071
 10
16.81329986998719
 20
-3.21388240731759
 10
16.85709152197306
 20
-3.222370470715873
 42
0.0109464766023359
 10
16.94590726101023
 20
-3.23663611128645
 42
0.0117619100328867
 10
17.04699139911177
 20
-3.248331995093447
 10
17.10200480000016
 20
-3.252767990508261
  0
LWPOLYLINE
  5
8127
330
8078
100
AcDbEntity
  8
0
 62
     7
100
AcDbPolyline
 90
        7
 70
     0
 43
0.0
 38
1.004996417558615E+99
 10
17.10200480000014
 20
-0.5572320094917274
 42
0.0114955886726863
 10
16.99494164454427
 20
-0.5671050695806743
 42
0.010693155915218
 10
16.89993997955839
 20
-0.580265146700024
 10
16.85709152380381
 20
-0.587629528949833
 42
0.0132133522827158
 10
16.74997761891906
 20
-0.6101877167674827
 42
0.012315081278624
 10
16.65713327402092
 20
-0.6349225981987328
 10
16.61610082105868
 20
-0.6475290645263101
  0
LWPOLYLINE
  5
8128
330
8078
100
AcDbEntity
  8
0
 62
     7
100
AcDbPolyline
 90
       10
 70
     0
 43
0.0
 38
1.004996417558615E+99
 10
12.71878452584433
 20
-3.292164184512589
 42
0.0713896900981334
 10
12.73912646990165
 20
-3.291515258092779
 42
0.0666714301192336
 10
12.75931935202005
 20
-3.285058393107493
 42
0.0553520163103628
 10
12.77927648011357
 20
-3.272838617559158
 42
0.0432324602286106
 10
12.79891116209622
 20
-3.254900959450196
 10
12.80956552699472
 20
-3.242584230898982
 42
0.0279507230419066
 10
12.82857928705096
 20
-3.215784155475322
 10
12.83691288690262
 20
-3.201967815856306
 42
0.0205298851605054
 10
12.85509923991141
 20
-3.167032021894308
 42
0.016567694174159
 10
12.87247386876198
 20
-3.126852274657494
  0
LWPOLYLINE
  5
8129
330
8078
100
AcDbEntity
  8
0
 62
     7
100
AcDbPolyline
 90
        8
 70
     0
 43
0.0
 38
1.004996417558615E+99
 10
16.55200479999989
 20
-3.141833507019384
 42
-0.0172357152741053
 10
16.45363200812228
 20
-3.106123295177748
 42
-0.0156206511984958
 10
16.37121760425574
 20
-3.069661539308611
 10
16.2907379072175
 20
-3.027361546687111
 10
16.21532243007297
 20
-2.980605332479683
 42
-0.0289969906790955
 10
16.11019173680183
 20
-2.900816274056373
 42
-0.0309858041169319
 10
16.01892463016775
 20
-2.812265826742595
 10
15.97876816497185
 20
-2.764999999999949
  0
LWPOLYLINE
  5
812A
330
8078
100
AcDbEntity
  8
0
 62
     7
100
AcDbPolyline
 90
        4
 70
     0
 43
0.0
 38
1.004996417558615E+99
 10
12.87247386876198
 20
-3.126852274657494
 42
0.0000672453982348
 10
12.94413775952127
 20
-2.945977117000836
 10
12.97994661263786
 20
-2.855544234353944
 10
13.01578513557525
 20
-2.764999999999949
  0
LWPOLYLINE
  5
812B
330
8078
100
AcDbEntity
  8
0
 62
     7
100
AcDbPolyline
 90
       13
 70
     0
 43
0.0
 38
1.004996417558615E+99
 10
12.71878452584433
 20
-0.5178358154874161
 42
-0.0540737045845098
 10
12.73373645593272
 20
-0.5177442886678304
 42
-0.0584544106834491
 10
12.75038643120335
 20
-0.5213637008600364
 10
12.75928426185442
 20
-0.5249252922323393
 42
-0.0430322370880051
 10
12.77401265121024
 20
-0.533362369981703
 42
-0.0397710223195412
 10
12.7902793546071
 20
-0.5464696695280157
 10
12.79891116277707
 20
-0.5550990412774582
 42
-0.0259639365893202
 10
12.81314111282177
 20
-0.5719740014074884
 42
-0.0236660583852533
 10
12.82871446065355
 20
-0.5944295456982303
 10
12.83691288664194
 20
-0.6080321836908241
 42
-0.0132121325114661
 10
12.84801734031893
 20
-0.6285501157737668
 42
-0.0126137944452103
 10
12.8599357948471
 20
-0.6534447134590642
 42
-0.0118616736523889
 10
12.87247386876198
 20
-0.6831477253424936
  0
LWPOLYLINE
  5
812C
330
8078
100
AcDbEntity
  8
0
 62
     7
100
AcDbPolyline
 90
        6
 70
     0
 43
0.0
 38
1.004996417558615E+99
 10
15.97876816497175
 20
2.76500000000008
 42
-0.0325977349406635
 10
16.06276956961641
 20
2.857577224051703
 42
-0.030522221758657
 10
16.16107974477825
 20
2.941864930859147
 10
16.21532237832621
 20
2.980605297711776
 42
-0.0365061160130735
 10
16.37398103609807
 20
3.070990548300478
 42
-0.0339342447692767
 10
16.55200480000024
 20
3.141833507019082
  0
LWPOLYLINE
  5
812D
330
8078
100
AcDbEntity
  8
0
 62
     7
100
AcDbPolyline
 90
        4
 70
     0
 43
0.0
 38
1.004996417558615E+99
 10
13.01578513557523
 20
2.765000000000128
 42
0.0000688030150836
 10
12.94413775952126
 20
2.945977117000865
 10
12.90847227567684
 20
3.036012270361933
 10
12.87247386876221
 20
3.126852274657494
  0
LWPOLYLINE
  5
812E
330
8078
100
AcDbEntity
  8
0
 62
     7
100
AcDbPolyline
 90
        7
 70
     0
 43
0.0
 38
1.004996417558615E+99
 10
17.10200480000014
 20
3.252767990508274
 42
0.0103287961059071
 10
17.01053164590373
 20
3.244652098382688
 42
0.0118254457483567
 10
16.91010503245275
 20
3.231348856690711
 10
16.85709152380381
 20
3.222370471050168
 42
0.0117303694242514
 10
16.76698865005261
 20
3.203806706214678
 42
0.0137357288488717
 10
16.66807279980443
 20
3.178259253991158
 10
16.61610082105868
 20
3.162470935473691
  0
LWPOLYLINE
  5
812F
330
8078
100
AcDbEntity
  8
0
 62
     7
100
AcDbPolyline
 90
       13
 70
     0
 43
0.0
 38
1.004996417558615E+99
 10
12.71878452584433
 20
3.292164184512586
 42
-0.0601256924076704
 10
12.73631142739282
 20
3.291953258094934
 42
-0.0520112694679805
 10
12.75209506241659
 20
3.288040995659616
 10
12.75928426185442
 20
3.285074707767662
 42
-0.0430322370962311
 10
12.77401265121556
 20
3.276637630014683
 42
-0.0397710223088454
 10
12.79027935461039
 20
3.263530330468931
 10
12.79891116277707
 20
3.254900958722543
 42
-0.0259639365891621
 10
12.8131411128218
 20
3.238025998592486
 42
-0.0236660583851113
 10
12.82871446065356
 20
3.21557045430175
 10
12.83691288664194
 20
3.201967816309178
 42
-0.0132121325112643
 10
12.84801734031893
 20
3.181449884226243
 42
-0.0126137944444185
 10
12.85993579484715
 20
3.156555286540943
 42
-0.0118616736517415
 10
12.87247386876221
 20
3.126852274657494
  0
LWPOLYLINE
  5
8130
330
8078
100
AcDbEntity
  8
0
 62
     7
100
AcDbPolyline
 90
        8
 70
     0
 43
0.0
 38
1.004996417558615E+99
 10
17.10200480000016
 20
0.5572320094917416
 42
-0.0057841437119978
 10
17.15475467428849
 20
0.552952146199281
 42
-0.0030986770794661
 10
17.20263031056765
 20
0.5481798598089736
 42
0.0004438508909754
 10
17.24520853922196
 20
0.5436838519933076
 10
17.26096723987798
 20
0.5421058162871527
 42
0.0066594803952394
 10
17.28941606510644
 20
0.5396985855851913
 42
0.014085736787834
 10
17.31329089504864
 20
0.5386811494274003
 42
0.0290759551837512
 10
17.33201265709493
 20
0.5395231161302263
  0
LWPOLYLINE
  5
8131
330
8078
100
AcDbEntity
  8
0
 62
     7
100
AcDbPolyline
 90
        7
 70
     0
 43
0.0
 38
1.004996417558615E+99
 10
16.61610082105863
 20
0.6475290645263101
 42
0.012718828706105
 10
16.70176402404458
 20
0.6223985178213073
 42
0.0136497241492148
 10
16.80175860193109
 20
0.5985210895394429
 10
16.85709152197306
 20
0.5876295292841292
 42
0.0121332295909498
 10
16.96132605154292
 20
0.5712748021562968
 42
0.010540646941768
 10
17.05749887415354
 20
0.560717838625227
 10
17.10200480000016
 20
0.5572320094917416
  0
LWPOLYLINE
  5
8132
330
8078
100
AcDbEntity
  8
0
 62
     7
100
AcDbPolyline
 90
       12
 70
     0
 43
0.0
 38
1.004996417558615E+99
 10
12.71878452584433
 20
0.5178358154874161
 42
0.0601256927789293
 10
12.73631142750432
 20
0.5180467419202018
 42
0.052011269696002
 10
12.7520950626132
 20
0.5219590044113075
 10
12.75928426208257
 20
0.5249252923383665
 42
0.0430322361030259
 10
12.77401265113331
 20
0.5333623699292321
 42
0.0397710214533923
 10
12.79027935414378
 20
0.5464696690965148
 10
12.79891116209622
 20
0.5550990405498056
 42
0.0333357694253342
 10
12.81820299616752
 20
0.5788021820716362
 42
0.0257926327426025
 10
12.83691288690262
 20
0.6080321841436956
 10
12.84610256449348
 20
0.6248338765137564
 42
0.0183835902305781
 10
12.86389298428892
 20
0.6624130680145124
 10
12.87247386876198
 20
0.6831477253425078
  0
LWPOLYLINE
  5
8133
330
8078
100
AcDbEntity
  8
0
 62
     7
100
AcDbPolyline
 90
        4
 70
     0
 43
0.0
 38
1.004996417558615E+99
 10
12.87247386876198
 20
0.6831477253425078
 42
0.0000672453982339
 10
12.94413775952127
 20
0.8640228829991656
 10
12.97994661263786
 20
0.9544557656460435
 10
13.01578513557525
 20
1.044999999999945
  0
LWPOLYLINE
  5
8134
330
8078
100
AcDbEntity
  8
0
 62
     7
100
AcDbPolyline
 90
        8
 70
     0
 43
0.0
 38
1.004996417558615E+99
 10
16.55200479999989
 20
0.6681664929806175
 42
-0.0331237740553586
 10
16.37398106560044
 20
0.7390094375523257
 42
-0.0356503627170927
 10
16.21532243007297
 20
0.8293946675203187
 10
16.16929927013764
 20
0.861954730083339
 42
-0.0251001891186864
 10
16.08441178188682
 20
0.9320250238870215
 10
16.05334326000975
 20
0.961688945321976
 42
-0.0191265343849438
 10
16.00068070039764
 20
1.018430545385189
 10
15.97876816497182
 20
1.044999999999959
  0
LWPOLYLINE
  5
8135
330
8078
100
AcDbEntity
  8
0
 62
     7
100
AcDbPolyline
 90
       10
 70
     0
 43
0.0
 38
1.004996417558615E+99
 10
15.97876816497185
 20
-1.044999999999945
 42
-0.0269308923277117
 10
16.0498429944254
 20
-0.9651923061939241
 10
16.08441180061221
 20
-0.9320250067404174
 42
-0.0255080698581152
 10
16.17328480058137
 20
-0.8589996628881911
 10
16.21532237832621
 20
-0.8293947022882264
 42
-0.0177011673951069
 10
16.28585099047542
 20
-0.7854453872855803
 42
-0.0191866721761406
 10
16.37121763347848
 20
-0.7403384465963683
 10
16.41043714169405
 20
-0.7221855390639375
 42
-0.0177512161237768
 10
16.50081650472401
 20
-0.6857557426047415
 10
16.55200479999993
 20
-0.6681664929806317
  0
LWPOLYLINE
  5
8136
330
8078
100
AcDbEntity
  8
0
 62
     7
100
AcDbPolyline
 90
        4
 70
     0
 43
0.0
 38
1.004996417558615E+99
 10
13.01578513557523
 20
-1.044999999999874
 42
0.0000688030150844
 10
12.94413775952126
 20
-0.8640228829991372
 10
12.90847226417216
 20
-0.7739877006010056
 10
12.87247386876198
 20
-0.6831477253424936
  0
ENDBLK
  5
8138
330
8078
100
AcDbEntity
  8
0
100
AcDbBlockEnd
  0
BLOCK
  5
813B
330
8139
100
AcDbEntity
  8
0
100
AcDbBlockBegin
  2
VORDANS1
 70
     0
 10
11.65200479999999
 20
-9.005000000000009
 30
0.0
  3
VORDANS1
  1

  0
INSERT
  5
813A
330
8139
100
AcDbEntity
  8
0
100
AcDbBlockReference
  2
MC_1_5-2-STF-3_81__6
 10
11.65200479999999
 20
-9.005000000000009
 30
0.0
  0
ENDBLK
  5
813C
330
8139
100
AcDbEntity
  8
0
100
AcDbBlockEnd
  0
ENDSEC
  0
SECTION
  2
ENTITIES
  0
LINE
  5
75CC
330
18
100
AcDbEntity
  8
0
100
AcDbLine
 10
-124.326039193397
 20
630.9790223398927
 30
0.0
 11
-124.326039193397
 21
420.9790223398927
 31
0.0
  0
LINE
  5
75CD
330
18
100
AcDbEntity
  8
0
100
AcDbLine
 10
-24.22603919339712
 20
542.4790223398924
 30
0.0
 11
-24.22603919339712
 21
588.4790223398927
 31
0.0
  0
LINE
  5
75D6
330
18
100
AcDbEntity
  8
0
100
AcDbLine
 10
-5.726039193397127
 20
630.9790223398927
 30
0.0
 11
-5.726039193397241
 21
420.9790223398925
 31
0.0
  0
LINE
  5
75D9
330
18
100
AcDbEntity
  8
0
100
AcDbLine
 10
-9.226039193397127
 20
447.4790223398929
 30
0.0
 11
-9.226039193397127
 21
588.4790223398927
 31
0.0
  0
LINE
  5
75DA
330
18
100
AcDbEntity
  8
0
100
AcDbLine
 10
-5.726039193397127
 20
645.9790223398926
 30
0.0
 11
-5.726039193397241
 21
405.9790223398927
 31
0.0
  0
LINE
  5
75DB
330
18
100
AcDbEntity
  8
0
100
AcDbLine
 10
-47.12603919339701
 20
458.9790223398925
 30
0.0
 11
-47.12603919339704
 21
520.9790223398926
 31
0.0
  0
LINE
  5
75DC
330
18
100
AcDbEntity
  8
0
100
AcDbLine
 10
-48.72603919339712
 20
458.9790223398925
 30
0.0
 11
-48.72603919339712
 21
520.9790223398926
 31
0.0
  0
LINE
  5
75E4
330
18
100
AcDbEntity
  8
0
100
AcDbLine
 10
-18.72603919339712
 20
645.9790223398926
 30
0.0
 11
-102.7260391933971
 21
645.9790223398926
 31
0.0
  0
LINE
  5
75E6
330
18
100
AcDbEntity
  8
0
100
AcDbLine
 10
-5.726039193397127
 20
630.9790223398927
 30
0.0
 11
-120.7260391933971
 21
630.9790223398927
 31
0.0
  0
LINE
  5
75E7
330
18
100
AcDbEntity
  8
0
100
AcDbLine
 10
-5.726039193397127
 20
630.9790223398927
 30
0.0
 11
-124.326039193397
 21
630.9790223398927
 31
0.0
  0
LINE
  5
75E8
330
18
100
AcDbEntity
  8
0
100
AcDbLine
 10
-115.7260391933971
 20
630.9790223398927
 30
0.0
 11
-115.7260391933971
 21
645.9790223398926
 31
0.0
  0
ARC
  5
75E9
330
18
100
AcDbEntity
  8
0
100
AcDbCircle
 10
-105.7260391933971
 20
640.9790223398927
 30
0.0
 40
3.0
100
AcDbArc
 50
180.0
 51
0.0
  0
LINE
  5
75EA
330
18
100
AcDbEntity
  8
0
100
AcDbLine
 10
-108.7260391933971
 20
645.9790223398926
 30
0.0
 11
-115.7260391933971
 21
645.9790223398926
 31
0.0
  0
LINE
  5
75EB
330
18
100
AcDbEntity
  8
0
100
AcDbLine
 10
-108.7260391933971
 20
640.9790223398927
 30
0.0
 11
-108.7260391933971
 21
645.9790223398926
 31
0.0
  0
LINE
  5
75EC
330
18
100
AcDbEntity
  8
0
100
AcDbLine
 10
-102.7260391933971
 20
640.9790223398927
 30
0.0
 11
-102.7260391933971
 21
645.9790223398926
 31
0.0
  0
LINE
  5
7621
330
18
100
AcDbEntity
  8
0
100
AcDbLine
 10
-5.726039193397127
 20
645.9790223398926
 30
0.0
 11
-12.72603919339712
 21
645.9790223398926
 31
0.0
  0
ARC
  5
7622
330
18
100
AcDbEntity
  8
0
100
AcDbCircle
 10
-15.72603919339712
 20
640.9790223398927
 30
0.0
 40
3.0
100
AcDbArc
 50
180.0
 51
0.0
  0
LINE
  5
7623
330
18
100
AcDbEntity
  8
0
100
AcDbLine
 10
-18.72603919339712
 20
640.9790223398927
 30
0.0
 11
-18.72603919339712
 21
645.9790223398926
 31
0.0
  0
LINE
  5
7624
330
18
100
AcDbEntity
  8
0
100
AcDbLine
 10
-12.72603919339712
 20
640.9790223398927
 30
0.0
 11
-12.72603919339712
 21
645.9790223398926
 31
0.0
  0
LINE
  5
7627
330
18
100
AcDbEntity
  8
0
100
AcDbLine
 10
-24.22603919339712
 20
588.4790223398927
 30
0.0
 11
-9.226039193397127
 21
588.4790223398927
 31
0.0
  0
LINE
  5
762C
330
18
100
AcDbEntity
  8
0
100
AcDbLine
 10
-18.72603919339712
 20
405.9790223398927
 30
0.0
 11
-102.7260391933971
 21
405.9790223398927
 31
0.0
  0
LINE
  5
762D
330
18
100
AcDbEntity
  8
0
100
AcDbLine
 10
-5.726039193397241
 20
420.9790223398926
 30
0.0
 11
-120.7260391933971
 21
420.979022339893
 31
0.0
  0
LINE
  5
7633
330
18
100
AcDbEntity
  8
0
100
AcDbLine
 10
-5.726039193397241
 20
420.9790223398926
 30
0.0
 11
-124.326039193397
 21
420.9790223398928
 31
0.0
  0
LINE
  5
7643
330
18
100
AcDbEntity
  8
0
100
AcDbLine
 10
-108.7260391933971
 20
405.9790223398927
 30
0.0
 11
-115.7260391933971
 21
405.9790223398927
 31
0.0
  0
ARC
  5
7644
330
18
100
AcDbEntity
  8
0
100
AcDbCircle
 10
-105.7260391933972
 20
410.9790223398927
 30
0.0
 40
3.0
100
AcDbArc
 50
0.0
 51
180.0
  0
LINE
  5
7645
330
18
100
AcDbEntity
  8
0
100
AcDbLine
 10
-115.7260391933971
 20
420.9790223398927
 30
0.0
 11
-115.7260391933971
 21
405.9790223398927
 31
0.0
  0
LINE
  5
7646
330
18
100
AcDbEntity
  8
0
100
AcDbLine
 10
-108.7260391933971
 20
410.9790223398928
 30
0.0
 11
-108.7260391933971
 21
405.9790223398927
 31
0.0
  0
LINE
  5
7647
330
18
100
AcDbEntity
  8
0
100
AcDbLine
 10
-102.7260391933971
 20
410.9790223398928
 30
0.0
 11
-102.7260391933971
 21
405.9790223398927
 31
0.0
  0
LINE
  5
7649
330
18
100
AcDbEntity
  8
0
100
AcDbLine
 10
-24.22603919339758
 20
525.9790223398924
 30
0.0
 11
-24.22603919339712
 21
447.4790223398929
 31
0.0
  0
LINE
  5
764E
330
18
100
AcDbEntity
  8
0
100
AcDbLine
 10
-34.12603919339699
 20
520.9790223398926
 30
0.0
 11
-34.12603919339699
 21
518.9790223398928
 31
0.0
  0
LINE
  5
764F
330
18
100
AcDbEntity
  8
0
100
AcDbLine
 10
-49.12603919339699
 20
520.9790223398926
 30
0.0
 11
-49.12603919339699
 21
458.9790223398924
 31
0.0
  0
LINE
  5
7651
330
18
100
AcDbEntity
  8
0
100
AcDbLine
 10
-29.22603919339758
 20
525.9790223398924
 30
0.0
 11
-24.22603919339758
 21
525.9790223398924
 31
0.0
  0
LINE
  5
7653
330
18
100
AcDbEntity
  8
0
100
AcDbLine
 10
-29.22603919339712
 20
542.4790223398924
 30
0.0
 11
-24.22603919339712
 21
542.4790223398924
 31
0.0
  0
LINE
  5
765D
330
18
100
AcDbEntity
  8
0
100
AcDbLine
 10
-29.22603919339712
 20
525.9790223398924
 30
0.0
 11
-29.22603919339712
 21
542.4790223398924
 31
0.0
  0
LINE
  5
766E
330
18
100
AcDbEntity
  8
0
100
AcDbLine
 10
-34.12603919339699
 20
520.9790223398926
 30
0.0
 11
-49.12603919339699
 21
520.9790223398926
 31
0.0
  0
LINE
  5
769B
330
18
100
AcDbEntity
  8
0
100
AcDbLine
 10
-34.12603919339699
 20
458.9790223398924
 30
0.0
 11
-49.12603919339699
 21
458.9790223398924
 31
0.0
  0
LINE
  5
76B8
330
18
100
AcDbEntity
  8
0
100
AcDbLine
 10
-24.22603919339712
 20
447.4790223398929
 30
0.0
 11
-9.226039193397127
 21
447.4790223398929
 31
0.0
  0
LINE
  5
76BD
330
18
100
AcDbEntity
  8
0
100
AcDbLine
 10
-5.726039193397241
 20
405.9790223398927
 30
0.0
 11
-12.72603919339712
 21
405.9790223398927
 31
0.0
  0
ARC
  5
76BE
330
18
100
AcDbEntity
  8
0
100
AcDbCircle
 10
-15.72603919339724
 20
410.9790223398926
 30
0.0
 40
3.0
100
AcDbArc
 50
0.0
 51
180.0
  0
LINE
  5
76BF
330
18
100
AcDbEntity
  8
0
100
AcDbLine
 10
-12.72603919339712
 20
410.9790223398927
 30
0.0
 11
-12.72603919339712
 21
405.9790223398927
 31
0.0
  0
LINE
  5
76C0
330
18
100
AcDbEntity
  8
0
100
AcDbLine
 10
-18.72603919339712
 20
410.9790223398927
 30
0.0
 11
-18.72603919339712
 21
405.9790223398927
 31
0.0
  0
LINE
  5
76C8
330
18
100
AcDbEntity
  8
0
100
AcDbLine
 10
135.9132704270045
 20
630.9790223398927
 30
0.0
 11
135.9132704270044
 21
420.9790223398926
 31
0.0
  0
LINE
  5
76C9
330
18
100
AcDbEntity
  8
0
100
AcDbLine
 10
318.1132704270045
 20
645.9790223398926
 30
0.0
 11
318.1132704270044
 21
405.9790223398927
 31
0.0
  0
LINE
  5
76CD
330
18
100
AcDbEntity
  8
0
100
AcDbLine
 10
316.5132704270045
 20
645.9790223398926
 30
0.0
 11
316.5132704270043
 21
405.9790223398927
 31
0.0
  0
LINE
  5
76D2
330
18
100
AcDbEntity
  8
0
100
AcDbLine
 10
137.5132704270046
 20
630.9790223398927
 30
0.0
 11
137.5132704270044
 21
420.9790223398926
 31
0.0
  0
LINE
  5
76D4
330
18
100
AcDbEntity
  8
0
100
AcDbLine
 10
135.9132704270045
 20
722.5734439081663
 30
0.0
 11
135.9132704270045
 21
841.1734439081662
 31
0.0
  0
LINE
  5
76D5
330
18
100
AcDbEntity
  8
0
100
AcDbLine
 10
318.1132704270045
 20
722.5734439081663
 30
0.0
 11
318.1132704270046
 21
841.1734439081664
 31
0.0
  0
LINE
  5
76D6
330
18
100
AcDbEntity
  8
0
100
AcDbLine
 10
313.0132704270045
 20
785.5734439081664
 30
0.0
 11
313.0132704270045
 21
835.5734439081663
 31
0.0
  0
LINE
  5
76D7
330
18
100
AcDbEntity
  8
0
100
AcDbLine
 10
304.0132704270045
 20
785.5734439081664
 30
0.0
 11
304.0132704270045
 21
835.5734439081663
 31
0.0
  0
LINE
  5
76D8
330
18
100
AcDbEntity
  8
0
100
AcDbLine
 10
301.0132704270044
 20
785.5734439081664
 30
0.0
 11
301.0132704270044
 21
835.5734439081663
 31
0.0
  0
LINE
  5
76D9
330
18
100
AcDbEntity
  8
0
100
AcDbLine
 10
292.0132704270045
 20
785.5734439081664
 30
0.0
 11
292.0132704270045
 21
835.5734439081663
 31
0.0
  0
LINE
  5
76DA
330
18
100
AcDbEntity
  8
0
100
AcDbLine
 10
289.0132704270044
 20
785.5734439081664
 30
0.0
 11
289.0132704270044
 21
835.5734439081663
 31
0.0
  0
LINE
  5
76DB
330
18
100
AcDbEntity
  8
0
100
AcDbLine
 10
316.5132704270045
 20
779.5734439081663
 30
0.0
 11
316.5132704270045
 21
839.5734439081664
 31
0.0
  0
LINE
  5
76DC
330
18
100
AcDbEntity
  8
0
100
AcDbLine
 10
280.0132704270044
 20
785.5734439081664
 30
0.0
 11
280.0132704270044
 21
835.5734439081663
 31
0.0
  0
LINE
  5
76DD
330
18
100
AcDbEntity
  8
0
100
AcDbLine
 10
277.0132704270045
 20
785.5734439081664
 30
0.0
 11
277.0132704270045
 21
835.5734439081663
 31
0.0
  0
LINE
  5
76DE
330
18
100
AcDbEntity
  8
0
100
AcDbLine
 10
268.0132704270044
 20
785.5734439081664
 30
0.0
 11
268.0132704270044
 21
835.5734439081663
 31
0.0
  0
LINE
  5
76DF
330
18
100
AcDbEntity
  8
0
100
AcDbLine
 10
265.0132704270045
 20
785.5734439081664
 30
0.0
 11
265.0132704270045
 21
835.5734439081663
 31
0.0
  0
LINE
  5
76E0
330
18
100
AcDbEntity
  8
0
100
AcDbLine
 10
256.0132704270045
 20
785.5734439081664
 30
0.0
 11
256.0132704270045
 21
835.5734439081663
 31
0.0
  0
LINE
  5
76E1
330
18
100
AcDbEntity
  8
0
100
AcDbLine
 10
253.0132704270044
 20
785.5734439081664
 30
0.0
 11
253.0132704270044
 21
835.5734439081663
 31
0.0
  0
LINE
  5
76E2
330
18
100
AcDbEntity
  8
0
100
AcDbLine
 10
244.0132704270045
 20
785.5734439081664
 30
0.0
 11
244.0132704270045
 21
835.5734439081663
 31
0.0
  0
LINE
  5
76E3
330
18
100
AcDbEntity
  8
0
100
AcDbLine
 10
241.0132704270044
 20
785.5734439081664
 30
0.0
 11
241.0132704270044
 21
835.5734439081663
 31
0.0
  0
LINE
  5
76E4
330
18
100
AcDbEntity
  8
0
100
AcDbLine
 10
189.5132704270045
 20
776.5734439081663
 30
0.0
 11
189.5132704270045
 21
837.5734439081661
 31
0.0
  0
LINE
  5
76E5
330
18
100
AcDbEntity
  8
0
100
AcDbLine
 10
232.0132704270045
 20
785.5734439081664
 30
0.0
 11
232.0132704270045
 21
835.5734439081663
 31
0.0
  0
LINE
  5
76E6
330
18
100
AcDbEntity
  8
0
100
AcDbLine
 10
229.0132704270045
 20
785.5734439081664
 30
0.0
 11
229.0132704270045
 21
835.5734439081663
 31
0.0
  0
LINE
  5
76E7
330
18
100
AcDbEntity
  8
0
100
AcDbLine
 10
220.0132704270044
 20
785.5734439081664
 30
0.0
 11
220.0132704270044
 21
835.5734439081663
 31
0.0
  0
LINE
  5
76E8
330
18
100
AcDbEntity
  8
0
100
AcDbLine
 10
217.0132704270045
 20
785.5734439081664
 30
0.0
 11
217.0132704270045
 21
835.5734439081663
 31
0.0
  0
LINE
  5
76E9
330
18
100
AcDbEntity
  8
0
100
AcDbLine
 10
208.0132704270044
 20
785.5734439081664
 30
0.0
 11
208.0132704270044
 21
835.5734439081663
 31
0.0
  0
LINE
  5
76EA
330
18
100
AcDbEntity
  8
0
100
AcDbLine
 10
205.0132704270045
 20
785.5734439081664
 30
0.0
 11
205.0132704270045
 21
835.5734439081663
 31
0.0
  0
LINE
  5
76EB
330
18
100
AcDbEntity
  8
0
100
AcDbLine
 10
192.5132704270044
 20
779.5734439081663
 30
0.0
 11
192.5132704270044
 21
839.5734439081664
 31
0.0
  0
LINE
  5
76EC
330
18
100
AcDbEntity
  8
0
100
AcDbLine
 10
196.0132704270044
 20
785.5734439081664
 30
0.0
 11
196.0132704270044
 21
835.5734439081663
 31
0.0
  0
LINE
  5
76F1
330
18
100
AcDbEntity
  8
0
100
AcDbLine
 10
138.5132704270046
 20
722.5734439081663
 30
0.0
 11
138.5132704270046
 21
837.5734439081661
 31
0.0
  0
LINE
  5
76F2
330
18
100
AcDbEntity
  8
0
100
AcDbLine
 10
137.5132704270046
 20
722.5734439081663
 30
0.0
 11
137.5132704270046
 21
837.5734439081661
 31
0.0
  0
LINE
  5
76F3
330
18
100
AcDbEntity
  8
0
100
AcDbLine
 10
316.5132704270045
 20
722.5734439081663
 30
0.0
 11
316.5132704270045
 21
839.5734439081664
 31
0.0
  0
LINE
  5
76F4
330
18
100
AcDbEntity
  8
0
100
AcDbLine
 10
137.5132704270046
 20
722.5734439081663
 30
0.0
 11
137.5132704270046
 21
839.5734439081664
 31
0.0
  0
LINE
  5
76F5
330
18
100
AcDbEntity
  8
0
100
AcDbLine
 10
318.1132704270046
 20
841.1734439081664
 30
0.0
 11
135.9132704270045
 21
841.1734439081662
 31
0.0
  0
LINE
  5
76F6
330
18
100
AcDbEntity
  8
0
100
AcDbLine
 10
316.5132704270045
 20
839.5734439081664
 30
0.0
 11
192.5132704270044
 21
839.5734439081664
 31
0.0
  0
LINE
  5
76F7
330
18
100
AcDbEntity
  8
0
100
AcDbLine
 10
316.5132704270045
 20
839.5734439081664
 30
0.0
 11
137.5132704270046
 21
839.5734439081664
 31
0.0
  0
LINE
  5
76F8
330
18
100
AcDbEntity
  8
0
100
AcDbLine
 10
181.5132704270045
 20
807.5734439081664
 30
0.0
 11
176.5132704270045
 21
807.5734439081664
 31
0.0
  0
LINE
  5
76F9
330
18
100
AcDbEntity
  8
0
100
AcDbLine
 10
181.5132704270045
 20
827.5734439081663
 30
0.0
 11
176.5132704270045
 21
827.5734439081663
 31
0.0
  0
LINE
  5
76FA
330
18
100
AcDbEntity
  8
0
100
AcDbLine
 10
189.5132704270045
 20
837.5734439081661
 30
0.0
 11
137.5132704270046
 21
837.5734439081661
 31
0.0
  0
LINE
  5
76FF
330
18
100
AcDbEntity
  8
0
100
AcDbLine
 10
146.5132704270045
 20
827.5734439081663
 30
0.0
 11
146.5132704270045
 21
807.5734439081664
 31
0.0
  0
LINE
  5
7700
330
18
100
AcDbEntity
  8
0
100
AcDbLine
 10
151.5132704270045
 20
827.5734439081663
 30
0.0
 11
151.5132704270045
 21
807.5734439081664
 31
0.0
  0
LINE
  5
7701
330
18
100
AcDbEntity
  8
0
100
AcDbLine
 10
156.5132704270045
 20
827.5734439081663
 30
0.0
 11
156.5132704270045
 21
807.5734439081664
 31
0.0
  0
LINE
  5
7702
330
18
100
AcDbEntity
  8
0
100
AcDbLine
 10
176.5132704270045
 20
827.5734439081663
 30
0.0
 11
176.5132704270045
 21
807.5734439081664
 31
0.0
  0
LINE
  5
7703
330
18
100
AcDbEntity
  8
0
100
AcDbLine
 10
166.5132704270044
 20
827.5734439081663
 30
0.0
 11
166.5132704270044
 21
807.5734439081664
 31
0.0
  0
LINE
  5
7704
330
18
100
AcDbEntity
  8
0
100
AcDbLine
 10
171.5132704270045
 20
827.5734439081663
 30
0.0
 11
171.5132704270045
 21
807.5734439081664
 31
0.0
  0
LINE
  5
7705
330
18
100
AcDbEntity
  8
0
100
AcDbLine
 10
161.5132704270044
 20
827.5734439081663
 30
0.0
 11
161.5132704270044
 21
807.5734439081664
 31
0.0
  0
LINE
  5
7706
330
18
100
AcDbEntity
  8
0
100
AcDbLine
 10
171.5132704270045
 20
827.5734439081663
 30
0.0
 11
166.5132704270044
 21
827.5734439081663
 31
0.0
  0
LINE
  5
7707
330
18
100
AcDbEntity
  8
0
100
AcDbLine
 10
161.5132704270044
 20
827.5734439081663
 30
0.0
 11
156.5132704270045
 21
827.5734439081663
 31
0.0
  0
LINE
  5
7708
330
18
100
AcDbEntity
  8
0
100
AcDbLine
 10
151.5132704270045
 20
827.5734439081663
 30
0.0
 11
146.5132704270045
 21
827.5734439081663
 31
0.0
  0
LINE
  5
770C
330
18
100
AcDbEntity
  8
0
100
AcDbLine
 10
171.5132704270045
 20
807.5734439081664
 30
0.0
 11
166.5132704270044
 21
807.5734439081664
 31
0.0
  0
LINE
  5
770D
330
18
100
AcDbEntity
  8
0
100
AcDbLine
 10
161.5132704270044
 20
807.5734439081664
 30
0.0
 11
156.5132704270045
 21
807.5734439081664
 31
0.0
  0
LINE
  5
770E
330
18
100
AcDbEntity
  8
0
100
AcDbLine
 10
151.5132704270045
 20
807.5734439081664
 30
0.0
 11
146.5132704270045
 21
807.5734439081664
 31
0.0
  0
LINE
  5
7713
330
18
100
AcDbEntity
  8
0
100
AcDbLine
 10
208.0132704270044
 20
835.5734439081663
 30
0.0
 11
217.0132704270045
 21
835.5734439081663
 31
0.0
  0
LINE
  5
7714
330
18
100
AcDbEntity
  8
0
100
AcDbLine
 10
181.5132704270045
 20
827.5734439081663
 30
0.0
 11
181.5132704270045
 21
807.5734439081664
 31
0.0
  0
LINE
  5
7715
330
18
100
AcDbEntity
  8
0
100
AcDbLine
 10
196.0132704270044
 20
835.5734439081663
 30
0.0
 11
205.0132704270045
 21
835.5734439081663
 31
0.0
  0
LINE
  5
7716
330
18
100
AcDbEntity
  8
0
100
AcDbLine
 10
220.0132704270044
 20
835.5734439081663
 30
0.0
 11
229.0132704270045
 21
835.5734439081663
 31
0.0
  0
LINE
  5
7717
330
18
100
AcDbEntity
  8
0
100
AcDbLine
 10
232.0132704270045
 20
835.5734439081663
 30
0.0
 11
241.0132704270044
 21
835.5734439081663
 31
0.0
  0
LINE
  5
7718
330
18
100
AcDbEntity
  8
0
100
AcDbLine
 10
304.0132704270045
 20
835.5734439081663
 30
0.0
 11
313.0132704270045
 21
835.5734439081663
 31
0.0
  0
LINE
  5
7719
330
18
100
AcDbEntity
  8
0
100
AcDbLine
 10
268.0132704270044
 20
835.5734439081663
 30
0.0
 11
277.0132704270045
 21
835.5734439081663
 31
0.0
  0
LINE
  5
771A
330
18
100
AcDbEntity
  8
0
100
AcDbLine
 10
244.0132704270045
 20
835.5734439081663
 30
0.0
 11
253.0132704270044
 21
835.5734439081663
 31
0.0
  0
LINE
  5
771B
330
18
100
AcDbEntity
  8
0
100
AcDbLine
 10
256.0132704270045
 20
835.5734439081663
 30
0.0
 11
265.0132704270045
 21
835.5734439081663
 31
0.0
  0
LINE
  5
771C
330
18
100
AcDbEntity
  8
0
100
AcDbLine
 10
292.0132704270045
 20
835.5734439081663
 30
0.0
 11
301.0132704270044
 21
835.5734439081663
 31
0.0
  0
LINE
  5
771D
330
18
100
AcDbEntity
  8
0
100
AcDbLine
 10
280.0132704270044
 20
835.5734439081663
 30
0.0
 11
289.0132704270044
 21
835.5734439081663
 31
0.0
  0
LINE
  5
771E
330
18
100
AcDbEntity
  8
0
100
AcDbLine
 10
318.1132704270046
 20
832.5734439081664
 30
0.0
 11
316.5132704270045
 21
832.5734439081664
 31
0.0
  0
LINE
  5
7722
330
18
100
AcDbEntity
  8
0
100
AcDbLine
 10
316.5132704270045
 20
630.9790223398927
 30
0.0
 11
135.9132704270045
 21
630.9790223398927
 31
0.0
  0
LINE
  5
7723
330
18
100
AcDbEntity
  8
0
100
AcDbLine
 10
137.5132704270046
 20
723.5734439081664
 30
0.0
 11
316.5132704270045
 21
723.5734439081664
 31
0.0
  0
LINE
  5
7724
330
18
100
AcDbEntity
  8
0
100
AcDbLine
 10
137.5132704270046
 20
722.5734439081663
 30
0.0
 11
316.5132704270045
 21
722.5734439081663
 31
0.0
  0
LINE
  5
7729
330
18
100
AcDbEntity
  8
0
100
AcDbLine
 10
315.5132704270044
 20
776.5734439081663
 30
0.0
 11
189.5132704270045
 21
776.5734439081663
 31
0.0
  0
LINE
  5
772A
330
18
100
AcDbEntity
  8
0
100
AcDbLine
 10
192.5132704270044
 20
779.5734439081663
 30
0.0
 11
316.5132704270045
 21
779.5734439081663
 31
0.0
  0
LINE
  5
772B
330
18
100
AcDbEntity
  8
0
100
AcDbLine
 10
181.5132704270045
 20
727.5734439081664
 30
0.0
 11
176.5132704270045
 21
727.5734439081664
 31
0.0
  0
LINE
  5
772C
330
18
100
AcDbEntity
  8
0
100
AcDbLine
 10
181.5132704270045
 20
747.5734439081663
 30
0.0
 11
176.5132704270045
 21
747.5734439081663
 31
0.0
  0
LINE
  5
772D
330
18
100
AcDbEntity
  8
0
100
AcDbLine
 10
181.5132704270045
 20
752.5734439081664
 30
0.0
 11
176.5132704270045
 21
752.5734439081664
 31
0.0
  0
LINE
  5
772E
330
18
100
AcDbEntity
  8
0
100
AcDbLine
 10
181.5132704270045
 20
782.5734439081664
 30
0.0
 11
176.5132704270045
 21
782.5734439081664
 31
0.0
  0
LINE
  5
772F
330
18
100
AcDbEntity
  8
0
100
AcDbLine
 10
181.5132704270045
 20
772.5734439081663
 30
0.0
 11
176.5132704270045
 21
772.5734439081663
 31
0.0
  0
LINE
  5
7730
330
18
100
AcDbEntity
  8
0
100
AcDbLine
 10
181.5132704270045
 20
802.5734439081663
 30
0.0
 11
176.5132704270045
 21
802.5734439081663
 31
0.0
  0
LINE
  5
7731
330
18
100
AcDbEntity
  8
0
100
AcDbLine
 10
161.5132704270044
 20
772.5734439081663
 30
0.0
 11
161.5132704270044
 21
752.5734439081664
 31
0.0
  0
LINE
  5
7732
330
18
100
AcDbEntity
  8
0
100
AcDbLine
 10
156.5132704270045
 20
772.5734439081663
 30
0.0
 11
156.5132704270045
 21
752.5734439081664
 31
0.0
  0
LINE
  5
7733
330
18
100
AcDbEntity
  8
0
100
AcDbLine
 10
146.5132704270045
 20
772.5734439081663
 30
0.0
 11
146.5132704270045
 21
752.5734439081664
 31
0.0
  0
LINE
  5
7734
330
18
100
AcDbEntity
  8
0
100
AcDbLine
 10
151.5132704270045
 20
772.5734439081663
 30
0.0
 11
151.5132704270045
 21
752.5734439081664
 31
0.0
  0
LINE
  5
7735
330
18
100
AcDbEntity
  8
0
100
AcDbLine
 10
176.5132704270045
 20
772.5734439081663
 30
0.0
 11
176.5132704270045
 21
752.5734439081664
 31
0.0
  0
LINE
  5
7736
330
18
100
AcDbEntity
  8
0
100
AcDbLine
 10
171.5132704270045
 20
772.5734439081663
 30
0.0
 11
171.5132704270045
 21
752.5734439081664
 31
0.0
  0
LINE
  5
7737
330
18
100
AcDbEntity
  8
0
100
AcDbLine
 10
166.5132704270044
 20
772.5734439081663
 30
0.0
 11
166.5132704270044
 21
752.5734439081664
 31
0.0
  0
LINE
  5
7743
330
18
100
AcDbEntity
  8
0
100
AcDbLine
 10
171.5132704270045
 20
782.5734439081664
 30
0.0
 11
166.5132704270044
 21
782.5734439081664
 31
0.0
  0
LINE
  5
7744
330
18
100
AcDbEntity
  8
0
100
AcDbLine
 10
171.5132704270045
 20
802.5734439081663
 30
0.0
 11
166.5132704270044
 21
802.5734439081663
 31
0.0
  0
LINE
  5
7745
330
18
100
AcDbEntity
  8
0
100
AcDbLine
 10
176.5132704270045
 20
802.5734439081663
 30
0.0
 11
176.5132704270045
 21
782.5734439081664
 31
0.0
  0
LINE
  5
7746
330
18
100
AcDbEntity
  8
0
100
AcDbLine
 10
171.5132704270045
 20
802.5734439081663
 30
0.0
 11
171.5132704270045
 21
782.5734439081664
 31
0.0
  0
LINE
  5
7747
330
18
100
AcDbEntity
  8
0
100
AcDbLine
 10
166.5132704270044
 20
802.5734439081663
 30
0.0
 11
166.5132704270044
 21
782.5734439081664
 31
0.0
  0
LINE
  5
7748
330
18
100
AcDbEntity
  8
0
100
AcDbLine
 10
161.5132704270044
 20
782.5734439081664
 30
0.0
 11
156.5132704270045
 21
782.5734439081664
 31
0.0
  0
LINE
  5
774F
330
18
100
AcDbEntity
  8
0
100
AcDbLine
 10
151.5132704270045
 20
782.5734439081664
 30
0.0
 11
146.5132704270045
 21
782.5734439081664
 31
0.0
  0
LINE
  5
7753
330
18
100
AcDbEntity
  8
0
100
AcDbLine
 10
161.5132704270044
 20
802.5734439081663
 30
0.0
 11
156.5132704270045
 21
802.5734439081663
 31
0.0
  0
LINE
  5
7754
330
18
100
AcDbEntity
  8
0
100
AcDbLine
 10
151.5132704270045
 20
802.5734439081663
 30
0.0
 11
146.5132704270045
 21
802.5734439081663
 31
0.0
  0
LINE
  5
7756
330
18
100
AcDbEntity
  8
0
100
AcDbLine
 10
161.5132704270044
 20
802.5734439081663
 30
0.0
 11
161.5132704270044
 21
782.5734439081664
 31
0.0
  0
LINE
  5
7757
330
18
100
AcDbEntity
  8
0
100
AcDbLine
 10
156.5132704270045
 20
802.5734439081663
 30
0.0
 11
156.5132704270045
 21
782.5734439081664
 31
0.0
  0
LINE
  5
7758
330
18
100
AcDbEntity
  8
0
100
AcDbLine
 10
151.5132704270045
 20
802.5734439081663
 30
0.0
 11
151.5132704270045
 21
782.5734439081664
 31
0.0
  0
LINE
  5
7759
330
18
100
AcDbEntity
  8
0
100
AcDbLine
 10
146.5132704270045
 20
802.5734439081663
 30
0.0
 11
146.5132704270045
 21
782.5734439081664
 31
0.0
  0
LINE
  5
775D
330
18
100
AcDbEntity
  8
0
100
AcDbLine
 10
171.5132704270045
 20
772.5734439081663
 30
0.0
 11
166.5132704270044
 21
772.5734439081663
 31
0.0
  0
LINE
  5
775E
330
18
100
AcDbEntity
  8
0
100
AcDbLine
 10
161.5132704270044
 20
772.5734439081663
 30
0.0
 11
156.5132704270045
 21
772.5734439081663
 31
0.0
  0
LINE
  5
775F
330
18
100
AcDbEntity
  8
0
100
AcDbLine
 10
151.5132704270045
 20
772.5734439081663
 30
0.0
 11
146.5132704270045
 21
772.5734439081663
 31
0.0
  0
LINE
  5
7763
330
18
100
AcDbEntity
  8
0
100
AcDbLine
 10
137.5132704270046
 20
722.5734439081663
 30
0.0
 11
135.9132704270045
 21
722.5734439081663
 31
0.0
  0
LINE
  5
7764
330
18
100
AcDbEntity
  8
0
100
AcDbLine
 10
137.5132704270046
 20
729.5734439081663
 30
0.0
 11
138.5132704270046
 21
729.5734439081663
 31
0.0
  0
LINE
  5
7765
330
18
100
AcDbEntity
  8
0
100
AcDbLine
 10
137.5132704270046
 20
727.5734439081664
 30
0.0
 11
138.5132704270046
 21
727.5734439081664
 31
0.0
  0
LINE
  5
7767
330
18
100
AcDbEntity
  8
0
100
AcDbLine
 10
176.5132704270045
 20
747.5734439081663
 30
0.0
 11
176.5132704270045
 21
727.5734439081664
 31
0.0
  0
LINE
  5
7768
330
18
100
AcDbEntity
  8
0
100
AcDbLine
 10
171.5132704270045
 20
747.5734439081663
 30
0.0
 11
171.5132704270045
 21
727.5734439081664
 31
0.0
  0
LINE
  5
7769
330
18
100
AcDbEntity
  8
0
100
AcDbLine
 10
166.5132704270044
 20
747.5734439081663
 30
0.0
 11
166.5132704270044
 21
727.5734439081664
 31
0.0
  0
LINE
  5
776A
330
18
100
AcDbEntity
  8
0
100
AcDbLine
 10
161.5132704270044
 20
747.5734439081663
 30
0.0
 11
161.5132704270044
 21
727.5734439081664
 31
0.0
  0
LINE
  5
776B
330
18
100
AcDbEntity
  8
0
100
AcDbLine
 10
156.5132704270045
 20
747.5734439081663
 30
0.0
 11
156.5132704270045
 21
727.5734439081664
 31
0.0
  0
LINE
  5
776C
330
18
100
AcDbEntity
  8
0
100
AcDbLine
 10
146.5132704270045
 20
747.5734439081663
 30
0.0
 11
146.5132704270045
 21
727.5734439081664
 31
0.0
  0
LINE
  5
776D
330
18
100
AcDbEntity
  8
0
100
AcDbLine
 10
151.5132704270045
 20
747.5734439081663
 30
0.0
 11
151.5132704270045
 21
727.5734439081664
 31
0.0
  0
LINE
  5
776E
330
18
100
AcDbEntity
  8
0
100
AcDbLine
 10
171.5132704270045
 20
747.5734439081663
 30
0.0
 11
166.5132704270044
 21
747.5734439081663
 31
0.0
  0
LINE
  5
776F
330
18
100
AcDbEntity
  8
0
100
AcDbLine
 10
171.5132704270045
 20
752.5734439081664
 30
0.0
 11
166.5132704270044
 21
752.5734439081664
 31
0.0
  0
LINE
  5
7770
330
18
100
AcDbEntity
  8
0
100
AcDbLine
 10
161.5132704270044
 20
747.5734439081663
 30
0.0
 11
156.5132704270045
 21
747.5734439081663
 31
0.0
  0
LINE
  5
7771
330
18
100
AcDbEntity
  8
0
100
AcDbLine
 10
161.5132704270044
 20
752.5734439081664
 30
0.0
 11
156.5132704270045
 21
752.5734439081664
 31
0.0
  0
LINE
  5
7772
330
18
100
AcDbEntity
  8
0
100
AcDbLine
 10
151.5132704270045
 20
747.5734439081663
 30
0.0
 11
146.5132704270045
 21
747.5734439081663
 31
0.0
  0
LINE
  5
7773
330
18
100
AcDbEntity
  8
0
100
AcDbLine
 10
151.5132704270045
 20
752.5734439081664
 30
0.0
 11
146.5132704270045
 21
752.5734439081664
 31
0.0
  0
LINE
  5
7774
330
18
100
AcDbEntity
  8
0
100
AcDbLine
 10
171.5132704270045
 20
727.5734439081664
 30
0.0
 11
166.5132704270044
 21
727.5734439081664
 31
0.0
  0
LINE
  5
7775
330
18
100
AcDbEntity
  8
0
100
AcDbLine
 10
161.5132704270044
 20
727.5734439081664
 30
0.0
 11
156.5132704270045
 21
727.5734439081664
 31
0.0
  0
LINE
  5
7776
330
18
100
AcDbEntity
  8
0
100
AcDbLine
 10
151.5132704270045
 20
727.5734439081664
 30
0.0
 11
146.5132704270045
 21
727.5734439081664
 31
0.0
  0
LINE
  5
7777
330
18
100
AcDbEntity
  8
0
100
AcDbLine
 10
221.5132704270045
 20
772.5734439081663
 30
0.0
 11
221.5132704270045
 21
752.5734439081664
 31
0.0
  0
LINE
  5
7778
330
18
100
AcDbEntity
  8
0
100
AcDbLine
 10
211.5132704270044
 20
772.5734439081663
 30
0.0
 11
211.5132704270044
 21
752.5734439081664
 31
0.0
  0
LINE
  5
7779
330
18
100
AcDbEntity
  8
0
100
AcDbLine
 10
206.5132704270045
 20
772.5734439081663
 30
0.0
 11
206.5132704270045
 21
752.5734439081664
 31
0.0
  0
LINE
  5
777A
330
18
100
AcDbEntity
  8
0
100
AcDbLine
 10
216.5132704270045
 20
772.5734439081663
 30
0.0
 11
216.5132704270045
 21
752.5734439081664
 31
0.0
  0
LINE
  5
777B
330
18
100
AcDbEntity
  8
0
100
AcDbLine
 10
196.5132704270045
 20
772.5734439081663
 30
0.0
 11
196.5132704270045
 21
752.5734439081664
 31
0.0
  0
LINE
  5
777C
330
18
100
AcDbEntity
  8
0
100
AcDbLine
 10
201.5132704270044
 20
772.5734439081663
 30
0.0
 11
201.5132704270044
 21
752.5734439081664
 31
0.0
  0
LINE
  5
777D
330
18
100
AcDbEntity
  8
0
100
AcDbLine
 10
181.5132704270045
 20
772.5734439081663
 30
0.0
 11
181.5132704270045
 21
752.5734439081664
 31
0.0
  0
LINE
  5
777E
330
18
100
AcDbEntity
  8
0
100
AcDbLine
 10
191.5132704270044
 20
772.5734439081663
 30
0.0
 11
191.5132704270044
 21
752.5734439081664
 31
0.0
  0
LINE
  5
777F
330
18
100
AcDbEntity
  8
0
100
AcDbLine
 10
186.5132704270044
 20
772.5734439081663
 30
0.0
 11
186.5132704270044
 21
752.5734439081664
 31
0.0
  0
LINE
  5
7780
330
18
100
AcDbEntity
  8
0
100
AcDbLine
 10
226.5132704270044
 20
772.5734439081663
 30
0.0
 11
226.5132704270044
 21
752.5734439081664
 31
0.0
  0
LINE
  5
7781
330
18
100
AcDbEntity
  8
0
100
AcDbLine
 10
241.5132704270045
 20
772.5734439081663
 30
0.0
 11
241.5132704270045
 21
752.5734439081664
 31
0.0
  0
LINE
  5
7782
330
18
100
AcDbEntity
  8
0
100
AcDbLine
 10
231.5132704270045
 20
772.5734439081663
 30
0.0
 11
231.5132704270045
 21
752.5734439081664
 31
0.0
  0
LINE
  5
7783
330
18
100
AcDbEntity
  8
0
100
AcDbLine
 10
236.5132704270044
 20
772.5734439081663
 30
0.0
 11
236.5132704270044
 21
752.5734439081664
 31
0.0
  0
LINE
  5
7784
330
18
100
AcDbEntity
  8
0
100
AcDbLine
 10
211.5132704270044
 20
772.5734439081663
 30
0.0
 11
206.5132704270045
 21
772.5734439081663
 31
0.0
  0
LINE
  5
7785
330
18
100
AcDbEntity
  8
0
100
AcDbLine
 10
208.0132704270044
 20
785.5734439081664
 30
0.0
 11
217.0132704270045
 21
785.5734439081664
 31
0.0
  0
LINE
  5
7786
330
18
100
AcDbEntity
  8
0
100
AcDbLine
 10
196.0132704270044
 20
785.5734439081664
 30
0.0
 11
205.0132704270045
 21
785.5734439081664
 31
0.0
  0
LINE
  5
7787
330
18
100
AcDbEntity
  8
0
100
AcDbLine
 10
181.5132704270045
 20
802.5734439081663
 30
0.0
 11
181.5132704270045
 21
782.5734439081664
 31
0.0
  0
LINE
  5
7789
330
18
100
AcDbEntity
  8
0
100
AcDbLine
 10
201.5132704270044
 20
772.5734439081663
 30
0.0
 11
196.5132704270045
 21
772.5734439081663
 31
0.0
  0
LINE
  5
778A
330
18
100
AcDbEntity
  8
0
100
AcDbLine
 10
191.5132704270044
 20
772.5734439081663
 30
0.0
 11
186.5132704270044
 21
772.5734439081663
 31
0.0
  0
LINE
  5
778B
330
18
100
AcDbEntity
  8
0
100
AcDbLine
 10
220.0132704270044
 20
785.5734439081664
 30
0.0
 11
229.0132704270045
 21
785.5734439081664
 31
0.0
  0
LINE
  5
778C
330
18
100
AcDbEntity
  8
0
100
AcDbLine
 10
232.0132704270045
 20
785.5734439081664
 30
0.0
 11
241.0132704270044
 21
785.5734439081664
 31
0.0
  0
LINE
  5
778D
330
18
100
AcDbEntity
  8
0
100
AcDbLine
 10
241.5132704270045
 20
772.5734439081663
 30
0.0
 11
236.5132704270044
 21
772.5734439081663
 31
0.0
  0
LINE
  5
778E
330
18
100
AcDbEntity
  8
0
100
AcDbLine
 10
231.5132704270045
 20
772.5734439081663
 30
0.0
 11
226.5132704270044
 21
772.5734439081663
 31
0.0
  0
LINE
  5
778F
330
18
100
AcDbEntity
  8
0
100
AcDbLine
 10
221.5132704270045
 20
772.5734439081663
 30
0.0
 11
216.5132704270045
 21
772.5734439081663
 31
0.0
  0
LINE
  5
7790
330
18
100
AcDbEntity
  8
0
100
AcDbLine
 10
211.5132704270044
 20
747.5734439081663
 30
0.0
 11
206.5132704270045
 21
747.5734439081663
 31
0.0
  0
LINE
  5
7791
330
18
100
AcDbEntity
  8
0
100
AcDbLine
 10
211.5132704270044
 20
752.5734439081664
 30
0.0
 11
206.5132704270045
 21
752.5734439081664
 31
0.0
  0
LINE
  5
7792
330
18
100
AcDbEntity
  8
0
100
AcDbLine
 10
211.5132704270044
 20
727.5734439081664
 30
0.0
 11
206.5132704270045
 21
727.5734439081664
 31
0.0
  0
LINE
  5
7794
330
18
100
AcDbEntity
  8
0
100
AcDbLine
 10
206.5132704270045
 20
747.5734439081663
 30
0.0
 11
206.5132704270045
 21
727.5734439081664
 31
0.0
  0
LINE
  5
7795
330
18
100
AcDbEntity
  8
0
100
AcDbLine
 10
196.5132704270045
 20
747.5734439081663
 30
0.0
 11
196.5132704270045
 21
727.5734439081664
 31
0.0
  0
LINE
  5
7796
330
18
100
AcDbEntity
  8
0
100
AcDbLine
 10
201.5132704270044
 20
747.5734439081663
 30
0.0
 11
201.5132704270044
 21
727.5734439081664
 31
0.0
  0
LINE
  5
7797
330
18
100
AcDbEntity
  8
0
100
AcDbLine
 10
191.5132704270044
 20
747.5734439081663
 30
0.0
 11
191.5132704270044
 21
727.5734439081664
 31
0.0
  0
LINE
  5
7799
330
18
100
AcDbEntity
  8
0
100
AcDbLine
 10
181.5132704270045
 20
747.5734439081663
 30
0.0
 11
181.5132704270045
 21
727.5734439081664
 31
0.0
  0
LINE
  5
779A
330
18
100
AcDbEntity
  8
0
100
AcDbLine
 10
186.5132704270044
 20
747.5734439081663
 30
0.0
 11
186.5132704270044
 21
727.5734439081664
 31
0.0
  0
LINE
  5
779B
330
18
100
AcDbEntity
  8
0
100
AcDbLine
 10
201.5132704270044
 20
747.5734439081663
 30
0.0
 11
196.5132704270045
 21
747.5734439081663
 31
0.0
  0
LINE
  5
779C
330
18
100
AcDbEntity
  8
0
100
AcDbLine
 10
201.5132704270044
 20
752.5734439081664
 30
0.0
 11
196.5132704270045
 21
752.5734439081664
 31
0.0
  0
LINE
  5
779D
330
18
100
AcDbEntity
  8
0
100
AcDbLine
 10
191.5132704270044
 20
747.5734439081663
 30
0.0
 11
186.5132704270044
 21
747.5734439081663
 31
0.0
  0
LINE
  5
779E
330
18
100
AcDbEntity
  8
0
100
AcDbLine
 10
191.5132704270044
 20
752.5734439081664
 30
0.0
 11
186.5132704270044
 21
752.5734439081664
 31
0.0
  0
LINE
  5
779F
330
18
100
AcDbEntity
  8
0
100
AcDbLine
 10
201.5132704270044
 20
727.5734439081664
 30
0.0
 11
196.5132704270045
 21
727.5734439081664
 31
0.0
  0
LINE
  5
77A0
330
18
100
AcDbEntity
  8
0
100
AcDbLine
 10
191.5132704270044
 20
727.5734439081664
 30
0.0
 11
186.5132704270044
 21
727.5734439081664
 31
0.0
  0
LINE
  5
77A1
330
18
100
AcDbEntity
  8
0
100
AcDbLine
 10
241.5132704270045
 20
747.5734439081663
 30
0.0
 11
241.5132704270045
 21
727.5734439081664
 31
0.0
  0
LINE
  5
77A2
330
18
100
AcDbEntity
  8
0
100
AcDbLine
 10
236.5132704270044
 20
747.5734439081663
 30
0.0
 11
236.5132704270044
 21
727.5734439081664
 31
0.0
  0
LINE
  5
77A4
330
18
100
AcDbEntity
  8
0
100
AcDbLine
 10
221.5132704270045
 20
747.5734439081663
 30
0.0
 11
221.5132704270045
 21
727.5734439081664
 31
0.0
  0
LINE
  5
77A5
330
18
100
AcDbEntity
  8
0
100
AcDbLine
 10
211.5132704270044
 20
747.5734439081663
 30
0.0
 11
211.5132704270044
 21
727.5734439081664
 31
0.0
  0
LINE
  5
77A6
330
18
100
AcDbEntity
  8
0
100
AcDbLine
 10
216.5132704270045
 20
747.5734439081663
 30
0.0
 11
216.5132704270045
 21
727.5734439081664
 31
0.0
  0
LINE
  5
77A7
330
18
100
AcDbEntity
  8
0
100
AcDbLine
 10
226.5132704270044
 20
747.5734439081663
 30
0.0
 11
226.5132704270044
 21
727.5734439081664
 31
0.0
  0
LINE
  5
77A8
330
18
100
AcDbEntity
  8
0
100
AcDbLine
 10
231.5132704270045
 20
747.5734439081663
 30
0.0
 11
231.5132704270045
 21
727.5734439081664
 31
0.0
  0
LINE
  5
77A9
330
18
100
AcDbEntity
  8
0
100
AcDbLine
 10
241.5132704270045
 20
747.5734439081663
 30
0.0
 11
236.5132704270044
 21
747.5734439081663
 31
0.0
  0
LINE
  5
77AA
330
18
100
AcDbEntity
  8
0
100
AcDbLine
 10
241.5132704270045
 20
752.5734439081664
 30
0.0
 11
236.5132704270044
 21
752.5734439081664
 31
0.0
  0
LINE
  5
77AB
330
18
100
AcDbEntity
  8
0
100
AcDbLine
 10
231.5132704270045
 20
747.5734439081663
 30
0.0
 11
226.5132704270044
 21
747.5734439081663
 31
0.0
  0
LINE
  5
77AC
330
18
100
AcDbEntity
  8
0
100
AcDbLine
 10
231.5132704270045
 20
752.5734439081664
 30
0.0
 11
226.5132704270044
 21
752.5734439081664
 31
0.0
  0
LINE
  5
77AD
330
18
100
AcDbEntity
  8
0
100
AcDbLine
 10
221.5132704270045
 20
747.5734439081663
 30
0.0
 11
216.5132704270045
 21
747.5734439081663
 31
0.0
  0
LINE
  5
77AE
330
18
100
AcDbEntity
  8
0
100
AcDbLine
 10
221.5132704270045
 20
752.5734439081664
 30
0.0
 11
216.5132704270045
 21
752.5734439081664
 31
0.0
  0
LINE
  5
77AF
330
18
100
AcDbEntity
  8
0
100
AcDbLine
 10
241.5132704270045
 20
727.5734439081664
 30
0.0
 11
236.5132704270044
 21
727.5734439081664
 31
0.0
  0
LINE
  5
77B0
330
18
100
AcDbEntity
  8
0
100
AcDbLine
 10
231.5132704270045
 20
727.5734439081664
 30
0.0
 11
226.5132704270044
 21
727.5734439081664
 31
0.0
  0
LINE
  5
77B1
330
18
100
AcDbEntity
  8
0
100
AcDbLine
 10
221.5132704270045
 20
727.5734439081664
 30
0.0
 11
216.5132704270045
 21
727.5734439081664
 31
0.0
  0
LINE
  5
77EA
330
18
100
AcDbEntity
  8
0
100
AcDbLine
 10
311.5132704270044
 20
727.5734439081664
 30
0.0
 11
306.5132704270045
 21
727.5734439081664
 31
0.0
  0
LINE
  5
77EB
330
18
100
AcDbEntity
  8
0
100
AcDbLine
 10
311.5132704270044
 20
752.5734439081664
 30
0.0
 11
306.5132704270045
 21
752.5734439081664
 31
0.0
  0
LINE
  5
77EC
330
18
100
AcDbEntity
  8
0
100
AcDbLine
 10
311.5132704270044
 20
747.5734439081663
 30
0.0
 11
306.5132704270045
 21
747.5734439081663
 31
0.0
  0
LINE
  5
77ED
330
18
100
AcDbEntity
  8
0
100
AcDbLine
 10
311.5132704270044
 20
772.5734439081663
 30
0.0
 11
306.5132704270045
 21
772.5734439081663
 31
0.0
  0
LINE
  5
77EE
330
18
100
AcDbEntity
  8
0
100
AcDbLine
 10
304.0132704270045
 20
785.5734439081664
 30
0.0
 11
313.0132704270045
 21
785.5734439081664
 31
0.0
  0
LINE
  5
77EF
330
18
100
AcDbEntity
  8
0
100
AcDbLine
 10
261.5132704270044
 20
772.5734439081663
 30
0.0
 11
261.5132704270044
 21
752.5734439081664
 31
0.0
  0
LINE
  5
77F0
330
18
100
AcDbEntity
  8
0
100
AcDbLine
 10
256.5132704270045
 20
772.5734439081663
 30
0.0
 11
256.5132704270045
 21
752.5734439081664
 31
0.0
  0
LINE
  5
77F1
330
18
100
AcDbEntity
  8
0
100
AcDbLine
 10
246.5132704270045
 20
772.5734439081663
 30
0.0
 11
246.5132704270045
 21
752.5734439081664
 31
0.0
  0
LINE
  5
77F2
330
18
100
AcDbEntity
  8
0
100
AcDbLine
 10
251.5132704270044
 20
772.5734439081663
 30
0.0
 11
251.5132704270044
 21
752.5734439081664
 31
0.0
  0
LINE
  5
77F3
330
18
100
AcDbEntity
  8
0
100
AcDbLine
 10
281.5132704270045
 20
772.5734439081663
 30
0.0
 11
281.5132704270045
 21
752.5734439081664
 31
0.0
  0
LINE
  5
77F4
330
18
100
AcDbEntity
  8
0
100
AcDbLine
 10
276.5132704270044
 20
772.5734439081663
 30
0.0
 11
276.5132704270044
 21
752.5734439081664
 31
0.0
  0
LINE
  5
77F5
330
18
100
AcDbEntity
  8
0
100
AcDbLine
 10
266.5132704270045
 20
772.5734439081663
 30
0.0
 11
266.5132704270045
 21
752.5734439081664
 31
0.0
  0
LINE
  5
77F6
330
18
100
AcDbEntity
  8
0
100
AcDbLine
 10
271.5132704270045
 20
772.5734439081663
 30
0.0
 11
271.5132704270045
 21
752.5734439081664
 31
0.0
  0
LINE
  5
77F7
330
18
100
AcDbEntity
  8
0
100
AcDbLine
 10
291.5132704270045
 20
772.5734439081663
 30
0.0
 11
291.5132704270045
 21
752.5734439081664
 31
0.0
  0
LINE
  5
77F8
330
18
100
AcDbEntity
  8
0
100
AcDbLine
 10
286.5132704270044
 20
772.5734439081663
 30
0.0
 11
286.5132704270044
 21
752.5734439081664
 31
0.0
  0
LINE
  5
77F9
330
18
100
AcDbEntity
  8
0
100
AcDbLine
 10
296.5132704270045
 20
772.5734439081663
 30
0.0
 11
296.5132704270045
 21
752.5734439081664
 31
0.0
  0
LINE
  5
77FA
330
18
100
AcDbEntity
  8
0
100
AcDbLine
 10
301.5132704270044
 20
772.5734439081663
 30
0.0
 11
301.5132704270044
 21
752.5734439081664
 31
0.0
  0
LINE
  5
77FB
330
18
100
AcDbEntity
  8
0
100
AcDbLine
 10
306.5132704270045
 20
772.5734439081663
 30
0.0
 11
306.5132704270045
 21
752.5734439081664
 31
0.0
  0
LINE
  5
77FC
330
18
100
AcDbEntity
  8
0
100
AcDbLine
 10
268.0132704270044
 20
785.5734439081664
 30
0.0
 11
277.0132704270045
 21
785.5734439081664
 31
0.0
  0
LINE
  5
77FD
330
18
100
AcDbEntity
  8
0
100
AcDbLine
 10
244.0132704270045
 20
785.5734439081664
 30
0.0
 11
253.0132704270044
 21
785.5734439081664
 31
0.0
  0
LINE
  5
77FE
330
18
100
AcDbEntity
  8
0
100
AcDbLine
 10
256.0132704270045
 20
785.5734439081664
 30
0.0
 11
265.0132704270045
 21
785.5734439081664
 31
0.0
  0
LINE
  5
77FF
330
18
100
AcDbEntity
  8
0
100
AcDbLine
 10
271.5132704270045
 20
772.5734439081663
 30
0.0
 11
266.5132704270045
 21
772.5734439081663
 31
0.0
  0
LINE
  5
7800
330
18
100
AcDbEntity
  8
0
100
AcDbLine
 10
251.5132704270044
 20
772.5734439081663
 30
0.0
 11
246.5132704270045
 21
772.5734439081663
 31
0.0
  0
LINE
  5
7801
330
18
100
AcDbEntity
  8
0
100
AcDbLine
 10
261.5132704270044
 20
772.5734439081663
 30
0.0
 11
256.5132704270045
 21
772.5734439081663
 31
0.0
  0
LINE
  5
7802
330
18
100
AcDbEntity
  8
0
100
AcDbLine
 10
292.0132704270045
 20
785.5734439081664
 30
0.0
 11
301.0132704270044
 21
785.5734439081664
 31
0.0
  0
LINE
  5
7803
330
18
100
AcDbEntity
  8
0
100
AcDbLine
 10
280.0132704270044
 20
785.5734439081664
 30
0.0
 11
289.0132704270044
 21
785.5734439081664
 31
0.0
  0
LINE
  5
7804
330
18
100
AcDbEntity
  8
0
100
AcDbLine
 10
291.5132704270045
 20
772.5734439081663
 30
0.0
 11
286.5132704270044
 21
772.5734439081663
 31
0.0
  0
LINE
  5
7805
330
18
100
AcDbEntity
  8
0
100
AcDbLine
 10
301.5132704270044
 20
772.5734439081663
 30
0.0
 11
296.5132704270045
 21
772.5734439081663
 31
0.0
  0
LINE
  5
7806
330
18
100
AcDbEntity
  8
0
100
AcDbLine
 10
281.5132704270045
 20
772.5734439081663
 30
0.0
 11
276.5132704270044
 21
772.5734439081663
 31
0.0
  0
LINE
  5
7807
330
18
100
AcDbEntity
  8
0
100
AcDbLine
 10
261.5132704270044
 20
747.5734439081663
 30
0.0
 11
261.5132704270044
 21
727.5734439081664
 31
0.0
  0
LINE
  5
7808
330
18
100
AcDbEntity
  8
0
100
AcDbLine
 10
266.5132704270045
 20
747.5734439081663
 30
0.0
 11
266.5132704270045
 21
727.5734439081664
 31
0.0
  0
LINE
  5
7809
330
18
100
AcDbEntity
  8
0
100
AcDbLine
 10
271.5132704270045
 20
747.5734439081663
 30
0.0
 11
271.5132704270045
 21
727.5734439081664
 31
0.0
  0
LINE
  5
780A
330
18
100
AcDbEntity
  8
0
100
AcDbLine
 10
256.5132704270045
 20
747.5734439081663
 30
0.0
 11
256.5132704270045
 21
727.5734439081664
 31
0.0
  0
LINE
  5
780B
330
18
100
AcDbEntity
  8
0
100
AcDbLine
 10
246.5132704270045
 20
747.5734439081663
 30
0.0
 11
246.5132704270045
 21
727.5734439081664
 31
0.0
  0
LINE
  5
780C
330
18
100
AcDbEntity
  8
0
100
AcDbLine
 10
251.5132704270044
 20
747.5734439081663
 30
0.0
 11
251.5132704270044
 21
727.5734439081664
 31
0.0
  0
LINE
  5
780D
330
18
100
AcDbEntity
  8
0
100
AcDbLine
 10
271.5132704270045
 20
747.5734439081663
 30
0.0
 11
266.5132704270045
 21
747.5734439081663
 31
0.0
  0
LINE
  5
780E
330
18
100
AcDbEntity
  8
0
100
AcDbLine
 10
271.5132704270045
 20
752.5734439081664
 30
0.0
 11
266.5132704270045
 21
752.5734439081664
 31
0.0
  0
LINE
  5
780F
330
18
100
AcDbEntity
  8
0
100
AcDbLine
 10
251.5132704270044
 20
747.5734439081663
 30
0.0
 11
246.5132704270045
 21
747.5734439081663
 31
0.0
  0
LINE
  5
7810
330
18
100
AcDbEntity
  8
0
100
AcDbLine
 10
251.5132704270044
 20
752.5734439081664
 30
0.0
 11
246.5132704270045
 21
752.5734439081664
 31
0.0
  0
LINE
  5
7811
330
18
100
AcDbEntity
  8
0
100
AcDbLine
 10
261.5132704270044
 20
747.5734439081663
 30
0.0
 11
256.5132704270045
 21
747.5734439081663
 31
0.0
  0
LINE
  5
7812
330
18
100
AcDbEntity
  8
0
100
AcDbLine
 10
261.5132704270044
 20
752.5734439081664
 30
0.0
 11
256.5132704270045
 21
752.5734439081664
 31
0.0
  0
LINE
  5
7813
330
18
100
AcDbEntity
  8
0
100
AcDbLine
 10
271.5132704270045
 20
727.5734439081664
 30
0.0
 11
266.5132704270045
 21
727.5734439081664
 31
0.0
  0
LINE
  5
7814
330
18
100
AcDbEntity
  8
0
100
AcDbLine
 10
251.5132704270044
 20
727.5734439081664
 30
0.0
 11
246.5132704270045
 21
727.5734439081664
 31
0.0
  0
LINE
  5
7815
330
18
100
AcDbEntity
  8
0
100
AcDbLine
 10
261.5132704270044
 20
727.5734439081664
 30
0.0
 11
256.5132704270045
 21
727.5734439081664
 31
0.0
  0
LINE
  5
7816
330
18
100
AcDbEntity
  8
0
100
AcDbLine
 10
306.5132704270045
 20
747.5734439081663
 30
0.0
 11
306.5132704270045
 21
727.5734439081664
 31
0.0
  0
LINE
  5
7817
330
18
100
AcDbEntity
  8
0
100
AcDbLine
 10
291.5132704270045
 20
747.5734439081663
 30
0.0
 11
291.5132704270045
 21
727.5734439081664
 31
0.0
  0
LINE
  5
7818
330
18
100
AcDbEntity
  8
0
100
AcDbLine
 10
286.5132704270044
 20
747.5734439081663
 30
0.0
 11
286.5132704270044
 21
727.5734439081664
 31
0.0
  0
LINE
  5
7819
330
18
100
AcDbEntity
  8
0
100
AcDbLine
 10
296.5132704270045
 20
747.5734439081663
 30
0.0
 11
296.5132704270045
 21
727.5734439081664
 31
0.0
  0
LINE
  5
781A
330
18
100
AcDbEntity
  8
0
100
AcDbLine
 10
301.5132704270044
 20
747.5734439081663
 30
0.0
 11
301.5132704270044
 21
727.5734439081664
 31
0.0
  0
LINE
  5
781B
330
18
100
AcDbEntity
  8
0
100
AcDbLine
 10
276.5132704270044
 20
747.5734439081663
 30
0.0
 11
276.5132704270044
 21
727.5734439081664
 31
0.0
  0
LINE
  5
781C
330
18
100
AcDbEntity
  8
0
100
AcDbLine
 10
281.5132704270045
 20
747.5734439081663
 30
0.0
 11
281.5132704270045
 21
727.5734439081664
 31
0.0
  0
LINE
  5
781D
330
18
100
AcDbEntity
  8
0
100
AcDbLine
 10
291.5132704270045
 20
747.5734439081663
 30
0.0
 11
286.5132704270044
 21
747.5734439081663
 31
0.0
  0
LINE
  5
781E
330
18
100
AcDbEntity
  8
0
100
AcDbLine
 10
291.5132704270045
 20
752.5734439081664
 30
0.0
 11
286.5132704270044
 21
752.5734439081664
 31
0.0
  0
LINE
  5
781F
330
18
100
AcDbEntity
  8
0
100
AcDbLine
 10
301.5132704270044
 20
747.5734439081663
 30
0.0
 11
296.5132704270045
 21
747.5734439081663
 31
0.0
  0
LINE
  5
7820
330
18
100
AcDbEntity
  8
0
100
AcDbLine
 10
301.5132704270044
 20
752.5734439081664
 30
0.0
 11
296.5132704270045
 21
752.5734439081664
 31
0.0
  0
LINE
  5
7821
330
18
100
AcDbEntity
  8
0
100
AcDbLine
 10
281.5132704270045
 20
747.5734439081663
 30
0.0
 11
276.5132704270044
 21
747.5734439081663
 31
0.0
  0
LINE
  5
7822
330
18
100
AcDbEntity
  8
0
100
AcDbLine
 10
281.5132704270045
 20
752.5734439081664
 30
0.0
 11
276.5132704270044
 21
752.5734439081664
 31
0.0
  0
LINE
  5
7823
330
18
100
AcDbEntity
  8
0
100
AcDbLine
 10
291.5132704270045
 20
727.5734439081664
 30
0.0
 11
286.5132704270044
 21
727.5734439081664
 31
0.0
  0
LINE
  5
7824
330
18
100
AcDbEntity
  8
0
100
AcDbLine
 10
301.5132704270044
 20
727.5734439081664
 30
0.0
 11
296.5132704270045
 21
727.5734439081664
 31
0.0
  0
LINE
  5
7825
330
18
100
AcDbEntity
  8
0
100
AcDbLine
 10
281.5132704270045
 20
727.5734439081664
 30
0.0
 11
276.5132704270044
 21
727.5734439081664
 31
0.0
  0
LINE
  5
7827
330
18
100
AcDbEntity
  8
0
100
AcDbLine
 10
311.5132704270044
 20
772.5734439081663
 30
0.0
 11
311.5132704270044
 21
752.5734439081664
 31
0.0
  0
LINE
  5
7828
330
18
100
AcDbEntity
  8
0
100
AcDbLine
 10
315.5132704270044
 20
722.5734439081663
 30
0.0
 11
315.5132704270044
 21
776.5734439081663
 31
0.0
  0
LINE
  5
7829
330
18
100
AcDbEntity
  8
0
100
AcDbLine
 10
316.5132704270045
 20
722.5734439081663
 30
0.0
 11
316.5132704270045
 21
776.5734439081663
 31
0.0
  0
LINE
  5
782B
330
18
100
AcDbEntity
  8
0
100
AcDbLine
 10
315.5132704270044
 20
776.5734439081663
 30
0.0
 11
316.5132704270045
 21
776.5734439081663
 31
0.0
  0
LINE
  5
782C
330
18
100
AcDbEntity
  8
0
100
AcDbLine
 10
311.5132704270044
 20
747.5734439081663
 30
0.0
 11
311.5132704270044
 21
727.5734439081664
 31
0.0
  0
LINE
  5
782D
330
18
100
AcDbEntity
  8
0
100
AcDbLine
 10
316.5132704270045
 20
727.5734439081664
 30
0.0
 11
315.5132704270044
 21
727.5734439081664
 31
0.0
  0
LINE
  5
782E
330
18
100
AcDbEntity
  8
0
100
AcDbLine
 10
316.5132704270045
 20
729.5734439081663
 30
0.0
 11
315.5132704270044
 21
729.5734439081663
 31
0.0
  0
LINE
  5
782F
330
18
100
AcDbEntity
  8
0
100
AcDbLine
 10
318.1132704270046
 20
722.5734439081663
 30
0.0
 11
316.5132704270045
 21
722.5734439081663
 31
0.0
  0
LINE
  5
783B
330
18
100
AcDbEntity
  8
0
100
AcDbLine
 10
318.1132704270045
 20
645.9790223398926
 30
0.0
 11
316.5132704270045
 21
645.9790223398926
 31
0.0
  0
LINE
  5
7844
330
18
100
AcDbEntity
  8
0
100
AcDbLine
 10
316.5132704270043
 20
420.9790223398926
 30
0.0
 11
135.9132704270044
 21
420.9790223398926
 31
0.0
  0
LINE
  5
790F
330
18
100
AcDbEntity
  8
0
100
AcDbLine
 10
318.1132704270044
 20
405.9790223398928
 30
0.0
 11
316.5132704270043
 21
405.9790223398927
 31
0.0
  0
CIRCLE
  5
7956
330
18
100
AcDbEntity
  8
0
100
AcDbCircle
 10
-30.72603919339712
 20
623.9790223398927
 30
0.0
 40
3.0
  0
CIRCLE
  5
7957
330
18
100
AcDbEntity
  8
0
100
AcDbCircle
 10
-30.72603919339712
 20
623.9790223398927
 30
0.0
 40
2.5
  0
LINE
  5
7958
330
18
100
AcDbEntity
  8
0
100
AcDbLine
 10
-30.22603919339712
 20
624.4790223398926
 30
0.0
 11
-28.78954752029335
 21
624.4790223398926
 31
0.0
  0
LINE
  5
7959
330
18
100
AcDbEntity
  8
0
100
AcDbLine
 10
-30.22603919339712
 20
623.4790223398927
 30
0.0
 11
-28.78954752029335
 21
623.4790223398927
 31
0.0
  0
LINE
  5
795A
330
18
100
AcDbEntity
  8
0
100
AcDbLine
 10
-30.22603919339712
 20
624.4790223398926
 30
0.0
 11
-30.22603919339712
 21
625.9155140129965
 31
0.0
  0
LINE
  5
795B
330
18
100
AcDbEntity
  8
0
100
AcDbLine
 10
-31.22603919339713
 20
624.4790223398926
 30
0.0
 11
-31.22603919339713
 21
625.9155140129965
 31
0.0
  0
ARC
  5
795C
330
18
100
AcDbEntity
  8
0
100
AcDbCircle
 10
-30.72603919339712
 20
623.9790223398927
 30
0.0
 40
2.0
100
AcDbArc
 50
75.52248781407134
 51
104.4775121859278
  0
ARC
  5
795D
330
18
100
AcDbEntity
  8
0
100
AcDbCircle
 10
-30.72603919339712
 20
623.9790223398927
 30
0.0
 40
2.0
100
AcDbArc
 50
255.5224878140713
 51
284.4775121859278
  0
LINE
  5
795E
330
18
100
AcDbEntity
  8
0
100
AcDbLine
 10
-31.22603919339713
 20
622.0425306667889
 30
0.0
 11
-31.22603919339713
 21
623.4790223398927
 31
0.0
  0
LINE
  5
795F
330
18
100
AcDbEntity
  8
0
100
AcDbLine
 10
-30.22603919339712
 20
622.0425306667889
 30
0.0
 11
-30.22603919339712
 21
623.4790223398927
 31
0.0
  0
ARC
  5
7960
330
18
100
AcDbEntity
  8
0
100
AcDbCircle
 10
-30.72603919339712
 20
623.9790223398927
 30
0.0
 40
2.0
100
AcDbArc
 50
345.52248781407
 51
14.47751218592986
  0
ARC
  5
7961
330
18
100
AcDbEntity
  8
0
100
AcDbCircle
 10
-30.72603919339712
 20
623.9790223398927
 30
0.0
 40
2.0
100
AcDbArc
 50
165.5224878140701
 51
194.4775121859299
  0
LINE
  5
7962
330
18
100
AcDbEntity
  8
0
100
AcDbLine
 10
-32.66253086650044
 20
624.4790223398926
 30
0.0
 11
-31.22603919339713
 21
624.4790223398926
 31
0.0
  0
LINE
  5
7963
330
18
100
AcDbEntity
  8
0
100
AcDbLine
 10
-32.66253086650044
 20
623.4790223398927
 30
0.0
 11
-31.22603919339713
 21
623.4790223398927
 31
0.0
  0
CIRCLE
  5
7964
330
18
100
AcDbEntity
  8
0
100
AcDbCircle
 10
-100.7260391933971
 20
623.9790223398927
 30
0.0
 40
3.0
  0
CIRCLE
  5
7965
330
18
100
AcDbEntity
  8
0
100
AcDbCircle
 10
-100.7260391933971
 20
623.9790223398927
 30
0.0
 40
2.5
  0
LINE
  5
7966
330
18
100
AcDbEntity
  8
0
100
AcDbLine
 10
-100.2260391933971
 20
624.4790223398926
 30
0.0
 11
-98.78954752029336
 21
624.4790223398926
 31
0.0
  0
LINE
  5
7967
330
18
100
AcDbEntity
  8
0
100
AcDbLine
 10
-100.2260391933971
 20
623.4790223398927
 30
0.0
 11
-98.78954752029336
 21
623.4790223398927
 31
0.0
  0
LINE
  5
7968
330
18
100
AcDbEntity
  8
0
100
AcDbLine
 10
-100.2260391933971
 20
624.4790223398926
 30
0.0
 11
-100.2260391933971
 21
625.9155140129965
 31
0.0
  0
LINE
  5
7969
330
18
100
AcDbEntity
  8
0
100
AcDbLine
 10
-101.2260391933971
 20
624.4790223398926
 30
0.0
 11
-101.2260391933971
 21
625.9155140129965
 31
0.0
  0
ARC
  5
796A
330
18
100
AcDbEntity
  8
0
100
AcDbCircle
 10
-100.7260391933971
 20
623.9790223398927
 30
0.0
 40
2.0
100
AcDbArc
 50
75.52248781407134
 51
104.4775121859278
  0
ARC
  5
796B
330
18
100
AcDbEntity
  8
0
100
AcDbCircle
 10
-100.7260391933971
 20
623.9790223398927
 30
0.0
 40
2.0
100
AcDbArc
 50
255.5224878140713
 51
284.4775121859278
  0
LINE
  5
796C
330
18
100
AcDbEntity
  8
0
100
AcDbLine
 10
-101.2260391933971
 20
622.0425306667889
 30
0.0
 11
-101.2260391933971
 21
623.4790223398927
 31
0.0
  0
LINE
  5
796D
330
18
100
AcDbEntity
  8
0
100
AcDbLine
 10
-100.2260391933971
 20
622.0425306667889
 30
0.0
 11
-100.2260391933971
 21
623.4790223398927
 31
0.0
  0
ARC
  5
796E
330
18
100
AcDbEntity
  8
0
100
AcDbCircle
 10
-100.7260391933971
 20
623.9790223398927
 30
0.0
 40
2.0
100
AcDbArc
 50
345.52248781407
 51
14.47751218592986
  0
ARC
  5
796F
330
18
100
AcDbEntity
  8
0
100
AcDbCircle
 10
-100.7260391933971
 20
623.9790223398927
 30
0.0
 40
2.0
100
AcDbArc
 50
165.5224878140701
 51
194.4775121859299
  0
LINE
  5
7970
330
18
100
AcDbEntity
  8
0
100
AcDbLine
 10
-102.6625308665004
 20
624.4790223398926
 30
0.0
 11
-101.2260391933971
 21
624.4790223398926
 31
0.0
  0
LINE
  5
7971
330
18
100
AcDbEntity
  8
0
100
AcDbLine
 10
-102.6625308665004
 20
623.4790223398927
 30
0.0
 11
-101.2260391933971
 21
623.4790223398927
 31
0.0
  0
CIRCLE
  5
7972
330
18
100
AcDbEntity
  8
0
100
AcDbCircle
 10
-42.62603919339722
 20
541.4790223398926
 30
0.0
 40
3.0
  0
CIRCLE
  5
7973
330
18
100
AcDbEntity
  8
0
100
AcDbCircle
 10
-42.62603919339722
 20
541.4790223398926
 30
0.0
 40
2.5
  0
LINE
  5
7974
330
18
100
AcDbEntity
  8
0
100
AcDbLine
 10
-42.12603919339722
 20
541.9790223398926
 30
0.0
 11
-40.68954752029344
 21
541.9790223398926
 31
0.0
  0
LINE
  5
7975
330
18
100
AcDbEntity
  8
0
100
AcDbLine
 10
-42.12603919339722
 20
540.9790223398927
 30
0.0
 11
-40.68954752029344
 21
540.9790223398927
 31
0.0
  0
LINE
  5
7976
330
18
100
AcDbEntity
  8
0
100
AcDbLine
 10
-42.12603919339722
 20
541.9790223398926
 30
0.0
 11
-42.12603919339722
 21
543.4155140129965
 31
0.0
  0
LINE
  5
7977
330
18
100
AcDbEntity
  8
0
100
AcDbLine
 10
-43.12603919339721
 20
541.9790223398926
 30
0.0
 11
-43.12603919339721
 21
543.4155140129965
 31
0.0
  0
ARC
  5
7978
330
18
100
AcDbEntity
  8
0
100
AcDbCircle
 10
-42.62603919339722
 20
541.4790223398926
 30
0.0
 40
2.0
100
AcDbArc
 50
75.52248781407134
 51
104.4775121859278
  0
ARC
  5
7979
330
18
100
AcDbEntity
  8
0
100
AcDbCircle
 10
-42.62603919339722
 20
541.4790223398926
 30
0.0
 40
2.0
100
AcDbArc
 50
255.5224878140713
 51
284.4775121859278
  0
LINE
  5
797A
330
18
100
AcDbEntity
  8
0
100
AcDbLine
 10
-43.12603919339721
 20
539.5425306667889
 30
0.0
 11
-43.12603919339721
 21
540.9790223398927
 31
0.0
  0
LINE
  5
797B
330
18
100
AcDbEntity
  8
0
100
AcDbLine
 10
-42.12603919339722
 20
539.5425306667889
 30
0.0
 11
-42.12603919339722
 21
540.9790223398927
 31
0.0
  0
ARC
  5
797C
330
18
100
AcDbEntity
  8
0
100
AcDbCircle
 10
-42.62603919339722
 20
541.4790223398926
 30
0.0
 40
2.0
100
AcDbArc
 50
345.52248781407
 51
14.47751218592986
  0
ARC
  5
797D
330
18
100
AcDbEntity
  8
0
100
AcDbCircle
 10
-42.62603919339722
 20
541.4790223398926
 30
0.0
 40
2.0
100
AcDbArc
 50
165.5224878140701
 51
194.4775121859299
  0
LINE
  5
797E
330
18
100
AcDbEntity
  8
0
100
AcDbLine
 10
-44.56253086650053
 20
541.9790223398926
 30
0.0
 11
-43.12603919339721
 21
541.9790223398926
 31
0.0
  0
LINE
  5
797F
330
18
100
AcDbEntity
  8
0
100
AcDbLine
 10
-44.56253086650053
 20
540.9790223398927
 30
0.0
 11
-43.12603919339721
 21
540.9790223398927
 31
0.0
  0
CIRCLE
  5
7980
330
18
100
AcDbEntity
  8
0
100
AcDbCircle
 10
-42.62603919339722
 20
450.4790223398926
 30
0.0
 40
4.0
  0
CIRCLE
  5
7981
330
18
100
AcDbEntity
  8
0
100
AcDbCircle
 10
-42.62603919339722
 20
450.4790223398926
 30
0.0
 40
3.333333333333333
  0
LINE
  5
7982
330
18
100
AcDbEntity
  8
0
100
AcDbLine
 10
-41.95937252673055
 20
451.1456890065594
 30
0.0
 11
-40.04405029592552
 21
451.1456890065594
 31
0.0
  0
LINE
  5
7983
330
18
100
AcDbEntity
  8
0
100
AcDbLine
 10
-41.95937252673055
 20
449.8123556732259
 30
0.0
 11
-40.04405029592552
 21
449.8123556732259
 31
0.0
  0
LINE
  5
7984
330
18
100
AcDbEntity
  8
0
100
AcDbLine
 10
-41.95937252673055
 20
451.1456890065594
 30
0.0
 11
-41.95937252673055
 21
453.0610112373643
 31
0.0
  0
LINE
  5
7985
330
18
100
AcDbEntity
  8
0
100
AcDbLine
 10
-43.29270586006388
 20
451.1456890065594
 30
0.0
 11
-43.29270586006388
 21
453.0610112373643
 31
0.0
  0
ARC
  5
7986
330
18
100
AcDbEntity
  8
0
100
AcDbCircle
 10
-42.62603919339722
 20
450.4790223398926
 30
0.0
 40
2.666666666666666
100
AcDbArc
 50
75.52248781407134
 51
104.4775121859278
  0
ARC
  5
7987
330
18
100
AcDbEntity
  8
0
100
AcDbCircle
 10
-42.62603919339722
 20
450.4790223398926
 30
0.0
 40
2.666666666666666
100
AcDbArc
 50
255.5224878140713
 51
284.4775121859278
  0
LINE
  5
7988
330
18
100
AcDbEntity
  8
0
100
AcDbLine
 10
-43.29270586006388
 20
447.897033442421
 30
0.0
 11
-43.29270586006388
 21
449.8123556732259
 31
0.0
  0
LINE
  5
7989
330
18
100
AcDbEntity
  8
0
100
AcDbLine
 10
-41.95937252673055
 20
447.897033442421
 30
0.0
 11
-41.95937252673055
 21
449.8123556732259
 31
0.0
  0
ARC
  5
798A
330
18
100
AcDbEntity
  8
0
100
AcDbCircle
 10
-42.62603919339722
 20
450.4790223398926
 30
0.0
 40
2.666666666666666
100
AcDbArc
 50
345.52248781407
 51
14.47751218592986
  0
ARC
  5
798B
330
18
100
AcDbEntity
  8
0
100
AcDbCircle
 10
-42.62603919339722
 20
450.4790223398926
 30
0.0
 40
2.666666666666666
100
AcDbArc
 50
165.5224878140701
 51
194.4775121859299
  0
LINE
  5
798C
330
18
100
AcDbEntity
  8
0
100
AcDbLine
 10
-45.20802809086831
 20
451.1456890065594
 30
0.0
 11
-43.29270586006388
 21
451.1456890065594
 31
0.0
  0
LINE
  5
798D
330
18
100
AcDbEntity
  8
0
100
AcDbLine
 10
-45.20802809086831
 20
449.8123556732259
 30
0.0
 11
-43.29270586006388
 21
449.8123556732259
 31
0.0
  0
CIRCLE
  5
798E
330
18
100
AcDbEntity
  8
0
100
AcDbCircle
 10
-42.62603919339722
 20
437.4790223398926
 30
0.0
 40
3.0
  0
CIRCLE
  5
798F
330
18
100
AcDbEntity
  8
0
100
AcDbCircle
 10
-42.62603919339722
 20
437.4790223398926
 30
0.0
 40
2.5
  0
LINE
  5
7990
330
18
100
AcDbEntity
  8
0
100
AcDbLine
 10
-42.12603919339722
 20
437.9790223398926
 30
0.0
 11
-40.68954752029344
 21
437.9790223398926
 31
0.0
  0
LINE
  5
7991
330
18
100
AcDbEntity
  8
0
100
AcDbLine
 10
-42.12603919339722
 20
436.9790223398926
 30
0.0
 11
-40.68954752029344
 21
436.9790223398926
 31
0.0
  0
LINE
  5
7992
330
18
100
AcDbEntity
  8
0
100
AcDbLine
 10
-42.12603919339722
 20
437.9790223398926
 30
0.0
 11
-42.12603919339722
 21
439.4155140129964
 31
0.0
  0
LINE
  5
7993
330
18
100
AcDbEntity
  8
0
100
AcDbLine
 10
-43.12603919339721
 20
437.9790223398926
 30
0.0
 11
-43.12603919339721
 21
439.4155140129964
 31
0.0
  0
ARC
  5
7994
330
18
100
AcDbEntity
  8
0
100
AcDbCircle
 10
-42.62603919339722
 20
437.4790223398926
 30
0.0
 40
2.0
100
AcDbArc
 50
75.52248781407134
 51
104.4775121859278
  0
ARC
  5
7995
330
18
100
AcDbEntity
  8
0
100
AcDbCircle
 10
-42.62603919339722
 20
437.4790223398926
 30
0.0
 40
2.0
100
AcDbArc
 50
255.5224878140713
 51
284.4775121859278
  0
LINE
  5
7996
330
18
100
AcDbEntity
  8
0
100
AcDbLine
 10
-43.12603919339721
 20
435.5425306667889
 30
0.0
 11
-43.12603919339721
 21
436.9790223398926
 31
0.0
  0
LINE
  5
7997
330
18
100
AcDbEntity
  8
0
100
AcDbLine
 10
-42.12603919339722
 20
435.5425306667889
 30
0.0
 11
-42.12603919339722
 21
436.9790223398926
 31
0.0
  0
ARC
  5
7998
330
18
100
AcDbEntity
  8
0
100
AcDbCircle
 10
-42.62603919339722
 20
437.4790223398926
 30
0.0
 40
2.0
100
AcDbArc
 50
345.52248781407
 51
14.47751218592986
  0
ARC
  5
7999
330
18
100
AcDbEntity
  8
0
100
AcDbCircle
 10
-42.62603919339722
 20
437.4790223398926
 30
0.0
 40
2.0
100
AcDbArc
 50
165.5224878140701
 51
194.4775121859299
  0
LINE
  5
799A
330
18
100
AcDbEntity
  8
0
100
AcDbLine
 10
-44.56253086650053
 20
437.9790223398926
 30
0.0
 11
-43.12603919339721
 21
437.9790223398926
 31
0.0
  0
LINE
  5
799B
330
18
100
AcDbEntity
  8
0
100
AcDbLine
 10
-44.56253086650053
 20
436.9790223398926
 30
0.0
 11
-43.12603919339721
 21
436.9790223398926
 31
0.0
  0
CIRCLE
  5
799C
330
18
100
AcDbEntity
  8
0
100
AcDbCircle
 10
-30.72603919339724
 20
427.9790223398926
 30
0.0
 40
3.0
  0
CIRCLE
  5
799D
330
18
100
AcDbEntity
  8
0
100
AcDbCircle
 10
-30.72603919339724
 20
427.9790223398926
 30
0.0
 40
2.5
  0
LINE
  5
799E
330
18
100
AcDbEntity
  8
0
100
AcDbLine
 10
-30.22603919339724
 20
428.4790223398927
 30
0.0
 11
-28.78954752029347
 21
428.4790223398927
 31
0.0
  0
LINE
  5
799F
330
18
100
AcDbEntity
  8
0
100
AcDbLine
 10
-30.22603919339724
 20
427.4790223398926
 30
0.0
 11
-28.78954752029347
 21
427.4790223398926
 31
0.0
  0
LINE
  5
79A0
330
18
100
AcDbEntity
  8
0
100
AcDbLine
 10
-30.22603919339724
 20
428.4790223398927
 30
0.0
 11
-30.22603919339724
 21
429.9155140129964
 31
0.0
  0
LINE
  5
79A1
330
18
100
AcDbEntity
  8
0
100
AcDbLine
 10
-31.22603919339724
 20
428.4790223398927
 30
0.0
 11
-31.22603919339724
 21
429.9155140129964
 31
0.0
  0
ARC
  5
79A2
330
18
100
AcDbEntity
  8
0
100
AcDbCircle
 10
-30.72603919339724
 20
427.9790223398926
 30
0.0
 40
2.0
100
AcDbArc
 50
75.52248781407134
 51
104.4775121859278
  0
ARC
  5
79A3
330
18
100
AcDbEntity
  8
0
100
AcDbCircle
 10
-30.72603919339724
 20
427.9790223398926
 30
0.0
 40
2.0
100
AcDbArc
 50
255.5224878140713
 51
284.4775121859278
  0
LINE
  5
79A4
330
18
100
AcDbEntity
  8
0
100
AcDbLine
 10
-31.22603919339724
 20
426.0425306667888
 30
0.0
 11
-31.22603919339724
 21
427.4790223398926
 31
0.0
  0
LINE
  5
79A5
330
18
100
AcDbEntity
  8
0
100
AcDbLine
 10
-30.22603919339724
 20
426.0425306667888
 30
0.0
 11
-30.22603919339724
 21
427.4790223398926
 31
0.0
  0
ARC
  5
79A6
330
18
100
AcDbEntity
  8
0
100
AcDbCircle
 10
-30.72603919339724
 20
427.9790223398926
 30
0.0
 40
2.0
100
AcDbArc
 50
345.52248781407
 51
14.47751218592986
  0
ARC
  5
79A7
330
18
100
AcDbEntity
  8
0
100
AcDbCircle
 10
-30.72603919339724
 20
427.9790223398926
 30
0.0
 40
2.0
100
AcDbArc
 50
165.5224878140701
 51
194.4775121859299
  0
LINE
  5
79A8
330
18
100
AcDbEntity
  8
0
100
AcDbLine
 10
-32.66253086650056
 20
428.4790223398927
 30
0.0
 11
-31.22603919339724
 21
428.4790223398927
 31
0.0
  0
LINE
  5
79A9
330
18
100
AcDbEntity
  8
0
100
AcDbLine
 10
-32.66253086650056
 20
427.4790223398926
 30
0.0
 11
-31.22603919339724
 21
427.4790223398926
 31
0.0
  0
CIRCLE
  5
79AA
330
18
100
AcDbEntity
  8
0
100
AcDbCircle
 10
-100.7260391933972
 20
427.9790223398927
 30
0.0
 40
3.0
  0
CIRCLE
  5
79AB
330
18
100
AcDbEntity
  8
0
100
AcDbCircle
 10
-100.7260391933972
 20
427.9790223398927
 30
0.0
 40
2.5
  0
LINE
  5
79AC
330
18
100
AcDbEntity
  8
0
100
AcDbLine
 10
-100.2260391933972
 20
428.4790223398927
 30
0.0
 11
-98.78954752029347
 21
428.4790223398927
 31
0.0
  0
LINE
  5
79AD
330
18
100
AcDbEntity
  8
0
100
AcDbLine
 10
-100.2260391933972
 20
427.4790223398927
 30
0.0
 11
-98.78954752029347
 21
427.4790223398927
 31
0.0
  0
LINE
  5
79AE
330
18
100
AcDbEntity
  8
0
100
AcDbLine
 10
-100.2260391933972
 20
428.4790223398927
 30
0.0
 11
-100.2260391933972
 21
429.9155140129965
 31
0.0
  0
LINE
  5
79AF
330
18
100
AcDbEntity
  8
0
100
AcDbLine
 10
-101.2260391933972
 20
428.4790223398927
 30
0.0
 11
-101.2260391933972
 21
429.9155140129965
 31
0.0
  0
ARC
  5
79B0
330
18
100
AcDbEntity
  8
0
100
AcDbCircle
 10
-100.7260391933972
 20
427.9790223398927
 30
0.0
 40
2.0
100
AcDbArc
 50
75.52248781407134
 51
104.4775121859278
  0
ARC
  5
79B1
330
18
100
AcDbEntity
  8
0
100
AcDbCircle
 10
-100.7260391933972
 20
427.9790223398927
 30
0.0
 40
2.0
100
AcDbArc
 50
255.5224878140713
 51
284.4775121859278
  0
LINE
  5
79B2
330
18
100
AcDbEntity
  8
0
100
AcDbLine
 10
-101.2260391933972
 20
426.0425306667888
 30
0.0
 11
-101.2260391933972
 21
427.4790223398927
 31
0.0
  0
LINE
  5
79B3
330
18
100
AcDbEntity
  8
0
100
AcDbLine
 10
-100.2260391933972
 20
426.0425306667888
 30
0.0
 11
-100.2260391933972
 21
427.4790223398927
 31
0.0
  0
ARC
  5
79B4
330
18
100
AcDbEntity
  8
0
100
AcDbCircle
 10
-100.7260391933972
 20
427.9790223398927
 30
0.0
 40
2.0
100
AcDbArc
 50
345.52248781407
 51
14.47751218592986
  0
ARC
  5
79B5
330
18
100
AcDbEntity
  8
0
100
AcDbCircle
 10
-100.7260391933972
 20
427.9790223398927
 30
0.0
 40
2.0
100
AcDbArc
 50
165.5224878140701
 51
194.4775121859299
  0
LINE
  5
79B6
330
18
100
AcDbEntity
  8
0
100
AcDbLine
 10
-102.6625308665005
 20
428.4790223398927
 30
0.0
 11
-101.2260391933972
 21
428.4790223398927
 31
0.0
  0
LINE
  5
79B7
330
18
100
AcDbEntity
  8
0
100
AcDbLine
 10
-102.6625308665005
 20
427.4790223398927
 30
0.0
 11
-101.2260391933972
 21
427.4790223398927
 31
0.0
  0
ELLIPSE
  5
79DB
330
18
100
AcDbEntity
  8
0
100
AcDbEllipse
 10
-16.42603919339703
 20
491.1040223398926
 30
0.0
 11
0.0
 21
0.775
 31
0.0
210
0.0
220
0.0
230
1.0
 40
0.9677419999999999
 41
0.0
 42
6.283184999999999
  0
ELLIPSE
  5
79DC
330
18
100
AcDbEntity
  8
0
100
AcDbEllipse
 10
-18.27603919339703
 20
485.0040223398927
 30
0.0
 11
0.0
 21
1.25
 31
0.0
210
0.0
220
0.0
230
1.0
 40
0.98
 41
6.03468
 42
8.053399307179585
  0
ELLIPSE
  5
79DD
330
18
100
AcDbEntity
  8
0
100
AcDbEllipse
 10
-14.60103919339704
 20
484.0790223398926
 30
0.0
 11
0.0
 21
1.25
 31
0.0
210
0.0
220
0.0
230
1.0
 40
0.98
 41
4.509903999999999
 42
6.059223999999999
  0
ELLIPSE
  5
79DE
330
18
100
AcDbEntity
  8
0
100
AcDbEllipse
 10
-16.42603919339703
 20
453.5540223398927
 30
0.0
 11
0.0
 21
0.775
 31
0.0
210
0.0
220
0.0
230
1.0
 40
0.9677419999999999
 41
0.0
 42
6.283184999999999
  0
ELLIPSE
  5
79DF
330
18
100
AcDbEntity
  8
0
100
AcDbEllipse
 10
-18.27603919339703
 20
459.1540223398927
 30
0.0
 11
0.0
 21
1.25
 31
0.0
210
0.0
220
0.0
230
1.0
 40
0.98
 41
1.708854999999999
 42
3.380894
  0
ELLIPSE
  5
79E0
330
18
100
AcDbEntity
  8
0
100
AcDbEllipse
 10
-14.60103919339704
 20
460.1290223398928
 30
0.0
 11
0.0
 21
1.25
 31
0.0
210
0.0
220
0.0
230
1.0
 40
0.98
 41
3.380894
 42
4.528311
  0
ELLIPSE
  5
79E1
330
18
100
AcDbEntity
  8
0
100
AcDbEllipse
 10
-16.42603919339703
 20
525.1040223398927
 30
0.0
 11
0.0
 21
0.775
 31
0.0
210
0.0
220
0.0
230
1.0
 40
0.9677419999999999
 41
0.0
 42
6.283184999999999
  0
ELLIPSE
  5
79E2
330
18
100
AcDbEntity
  8
0
100
AcDbEllipse
 10
-18.27603919339703
 20
519.0040223398928
 30
0.0
 11
0.0
 21
1.25
 31
0.0
210
0.0
220
0.0
230
1.0
 40
0.98
 41
6.03468
 42
8.053399307179585
  0
ELLIPSE
  5
79E3
330
18
100
AcDbEntity
  8
0
100
AcDbEllipse
 10
-14.60103919339704
 20
518.0790223398926
 30
0.0
 11
0.0
 21
1.25
 31
0.0
210
0.0
220
0.0
230
1.0
 40
0.98
 41
4.509903999999999
 42
6.059223999999999
  0
ELLIPSE
  5
79E4
330
18
100
AcDbEntity
  8
0
100
AcDbEllipse
 10
-16.42603919339703
 20
497.4290223398926
 30
0.0
 11
0.0
 21
0.775
 31
0.0
210
0.0
220
0.0
230
1.0
 40
0.9677419999999999
 41
0.0
 42
6.283184999999999
  0
ELLIPSE
  5
79E5
330
18
100
AcDbEntity
  8
0
100
AcDbEllipse
 10
-18.27603919339703
 20
503.0790223398925
 30
0.0
 11
0.0
 21
1.25
 31
0.0
210
0.0
220
0.0
230
1.0
 40
0.98
 41
1.708854999999999
 42
3.380894
  0
ELLIPSE
  5
79E6
330
18
100
AcDbEntity
  8
0
100
AcDbEllipse
 10
-14.60103919339704
 20
504.0540223398926
 30
0.0
 11
0.0
 21
1.25
 31
0.0
210
0.0
220
0.0
230
1.0
 40
0.98
 41
3.380894
 42
4.528311
  0
ELLIPSE
  5
79E7
330
18
100
AcDbEntity
  8
0
100
AcDbEllipse
 10
-18.27603919339703
 20
562.5040223398928
 30
0.0
 11
0.0
 21
1.25
 31
0.0
210
0.0
220
0.0
230
1.0
 40
0.98
 41
6.03468
 42
8.053399307179585
  0
ELLIPSE
  5
79E8
330
18
100
AcDbEntity
  8
0
100
AcDbEllipse
 10
-18.27603919339703
 20
551.2540223398928
 30
0.0
 11
0.0
 21
1.25
 31
0.0
210
0.0
220
0.0
230
1.0
 40
0.98
 41
1.708854999999999
 42
3.380894
  0
ELLIPSE
  5
79E9
330
18
100
AcDbEntity
  8
0
100
AcDbEllipse
 10
-14.60103919339704
 20
561.5790223398926
 30
0.0
 11
0.0
 21
1.25
 31
0.0
210
0.0
220
0.0
230
1.0
 40
0.98
 41
4.509903999999999
 42
6.059223999999999
  0
ELLIPSE
  5
79EA
330
18
100
AcDbEntity
  8
0
100
AcDbEllipse
 10
-14.60103919339704
 20
552.2290223398926
 30
0.0
 11
0.0
 21
1.25
 31
0.0
210
0.0
220
0.0
230
1.0
 40
0.98
 41
3.380894
 42
4.528311
  0
ELLIPSE
  5
79EB
330
18
100
AcDbEntity
  8
0
100
AcDbEllipse
 10
-16.42603919339703
 20
545.6040223398927
 30
0.0
 11
0.0
 21
0.775
 31
0.0
210
0.0
220
0.0
230
1.0
 40
0.9677419999999999
 41
0.0
 42
6.283184999999999
  0
ELLIPSE
  5
79EC
330
18
100
AcDbEntity
  8
0
100
AcDbEllipse
 10
-16.42603919339703
 20
568.6040223398927
 30
0.0
 11
0.0
 21
0.775
 31
0.0
210
0.0
220
0.0
230
1.0
 40
0.9677419999999999
 41
0.0
 42
6.283184999999999
  0
ELLIPSE
  5
79ED
330
18
100
AcDbEntity
  8
0
100
AcDbEllipse
 10
-13.32603919339703
 20
577.4540223398926
 30
0.0
 11
0.5
 21
0.0
 31
0.0
210
0.0
220
0.0
230
1.0
 40
0.95
 41
0.0
 42
6.283184999999999
  0
LINE
  5
79EE
330
18
100
AcDbEntity
  8
0
100
AcDbLine
 10
-11.82603919339703
 20
493.4790223398927
 30
0.0
 11
-21.05103919339704
 21
493.4790223398927
 31
0.0
  0
LINE
  5
79EF
330
18
100
AcDbEntity
  8
0
100
AcDbLine
 10
-21.05103919339704
 20
450.1790223398927
 30
0.0
 11
-11.82603919339703
 21
450.1790223398927
 31
0.0
  0
LINE
  5
79F0
330
18
100
AcDbEntity
  8
0
100
AcDbLine
 10
-11.82603919339703
 20
527.4790223398927
 30
0.0
 11
-21.05103919339704
 21
527.4790223398927
 31
0.0
  0
LINE
  5
79F1
330
18
100
AcDbEntity
  8
0
100
AcDbLine
 10
-21.05103919339704
 20
494.1540223398925
 30
0.0
 11
-11.82603919339703
 21
494.1540223398925
 31
0.0
  0
LINE
  5
79F2
330
18
100
AcDbEntity
  8
0
100
AcDbLine
 10
-27.82603919339703
 20
540.9790223398927
 30
0.0
 11
-12.82603919339703
 21
540.9790223398927
 31
0.0
  0
LINE
  5
79F3
330
18
100
AcDbEntity
  8
0
100
AcDbLine
 10
-12.82603919339703
 20
527.9790223398927
 30
0.0
 11
-27.82603919339703
 21
527.9790223398927
 31
0.0
  0
LINE
  5
79F4
330
18
100
AcDbEntity
  8
0
100
AcDbLine
 10
-11.82603919339703
 20
570.9790223398926
 30
0.0
 11
-21.05103919339704
 21
570.9790223398926
 31
0.0
  0
LINE
  5
79F5
330
18
100
AcDbEntity
  8
0
100
AcDbLine
 10
-21.05103919339704
 20
542.3040223398927
 30
0.0
 11
-11.82603919339703
 21
542.3040223398927
 31
0.0
  0
LINE
  5
79F6
330
18
100
AcDbEntity
  8
0
100
AcDbLine
 10
-12.92603919339703
 20
584.4040223398926
 30
0.0
 11
-13.35103919339704
 21
584.8040223398927
 31
0.0
  0
LINE
  5
79F7
330
18
100
AcDbEntity
  8
0
100
AcDbLine
 10
-13.35103919339704
 20
581.6040223398927
 30
0.0
 11
-12.92603919339703
 21
584.4040223398926
 31
0.0
  0
LINE
  5
79F8
330
18
100
AcDbEntity
  8
0
100
AcDbLine
 10
-11.82603919339703
 20
574.4790223398926
 30
0.0
 11
-19.35103919339703
 21
574.4790223398926
 31
0.0
  0
LINE
  5
79F9
330
18
100
AcDbEntity
  8
0
100
AcDbLine
 10
-19.35103919339703
 20
587.4790223398926
 30
0.0
 11
-11.82603919339703
 21
587.4790223398926
 31
0.0
  0
LINE
  5
79FA
330
18
100
AcDbEntity
  8
0
100
AcDbLine
 10
-12.62603919339703
 20
489.8790223398927
 30
0.0
 11
-14.55103919339703
 21
489.8790223398927
 31
0.0
  0
LINE
  5
79FB
330
18
100
AcDbEntity
  8
0
100
AcDbLine
 10
-12.62603919339703
 20
487.8040223398927
 30
0.0
 11
-20.25103919339703
 21
487.8040223398927
 31
0.0
  0
LINE
  5
79FC
330
18
100
AcDbEntity
  8
0
100
AcDbLine
 10
-12.62603919339703
 20
456.5290223398926
 30
0.0
 11
-20.25103919339703
 21
456.5290223398926
 31
0.0
  0
LINE
  5
79FD
330
18
100
AcDbEntity
  8
0
100
AcDbLine
 10
-12.62603919339703
 20
454.4540223398927
 30
0.0
 11
-14.55103919339703
 21
454.4540223398927
 31
0.0
  0
LINE
  5
79FE
330
18
100
AcDbEntity
  8
0
100
AcDbLine
 10
-12.62603919339703
 20
521.8040223398928
 30
0.0
 11
-20.25103919339703
 21
521.8040223398928
 31
0.0
  0
LINE
  5
79FF
330
18
100
AcDbEntity
  8
0
100
AcDbLine
 10
-12.62603919339703
 20
523.8790223398928
 30
0.0
 11
-14.55103919339703
 21
523.8790223398928
 31
0.0
  0
LINE
  5
7A00
330
18
100
AcDbEntity
  8
0
100
AcDbLine
 10
-12.62603919339703
 20
500.4040223398925
 30
0.0
 11
-20.25103919339703
 21
500.4040223398925
 31
0.0
  0
LINE
  5
7A01
330
18
100
AcDbEntity
  8
0
100
AcDbLine
 10
-12.62603919339703
 20
498.3290223398925
 30
0.0
 11
-14.55103919339703
 21
498.3290223398925
 31
0.0
  0
LINE
  5
7A02
330
18
100
AcDbEntity
  8
0
100
AcDbLine
 10
-12.62603919339703
 20
565.3040223398927
 30
0.0
 11
-20.25103919339703
 21
565.3040223398927
 31
0.0
  0
LINE
  5
7A03
330
18
100
AcDbEntity
  8
0
100
AcDbLine
 10
-12.62603919339703
 20
567.3790223398928
 30
0.0
 11
-14.55103919339703
 21
567.3790223398928
 31
0.0
  0
LINE
  5
7A04
330
18
100
AcDbEntity
  8
0
100
AcDbLine
 10
-12.62603919339703
 20
548.5790223398926
 30
0.0
 11
-20.25103919339703
 21
548.5790223398926
 31
0.0
  0
LINE
  5
7A05
330
18
100
AcDbEntity
  8
0
100
AcDbLine
 10
-12.62603919339703
 20
546.5040223398927
 30
0.0
 11
-14.55103919339703
 21
546.5040223398927
 31
0.0
  0
LINE
  5
7A08
330
18
100
AcDbEntity
  8
0
100
AcDbLine
 10
-21.05103919339704
 20
527.4790223398927
 30
0.0
 11
-21.05103919339704
 21
494.1540223398925
 31
0.0
  0
LINE
  5
7A09
330
18
100
AcDbEntity
  8
0
100
AcDbLine
 10
-18.12603919339703
 20
498.3290223398925
 30
0.0
 11
-18.12603919339703
 21
499.3040223398927
 31
0.0
  0
LINE
  5
7A0A
330
18
100
AcDbEntity
  8
0
100
AcDbLine
 10
-14.55103919339703
 20
498.3040223398926
 30
0.0
 11
-14.55103919339703
 21
499.2790223398926
 31
0.0
  0
LINE
  5
7A0B
330
18
100
AcDbEntity
  8
0
100
AcDbLine
 10
-20.25103919339703
 20
498.3290223398925
 30
0.0
 11
-20.25103919339703
 21
500.4040223398925
 31
0.0
  0
LINE
  5
7A0D
330
18
100
AcDbEntity
  8
0
100
AcDbLine
 10
-21.05103919339704
 20
493.4790223398927
 30
0.0
 11
-21.05103919339704
 21
450.1790223398927
 31
0.0
  0
LINE
  5
7A0E
330
18
100
AcDbEntity
  8
0
100
AcDbLine
 10
-14.90103919339704
 20
475.7790223398926
 30
0.0
 11
-14.90103919339704
 21
476.7540223398928
 31
0.0
  0
LINE
  5
7A0F
330
18
100
AcDbEntity
  8
0
100
AcDbLine
 10
-15.25103919339703
 20
476.7540223398928
 30
0.0
 11
-15.25103919339703
 21
475.7790223398926
 31
0.0
  0
LINE
  5
7A10
330
18
100
AcDbEntity
  8
0
100
AcDbLine
 10
-17.67603919339703
 20
475.7790223398926
 30
0.0
 11
-17.67603919339703
 21
476.7540223398928
 31
0.0
  0
LINE
  5
7A11
330
18
100
AcDbEntity
  8
0
100
AcDbLine
 10
-18.02603919339704
 20
476.7540223398928
 30
0.0
 11
-18.02603919339704
 21
475.7790223398926
 31
0.0
  0
LINE
  5
7A12
330
18
100
AcDbEntity
  8
0
100
AcDbLine
 10
-19.50103919339703
 20
485.0040223398927
 30
0.0
 11
-19.50103919339703
 21
458.9790223398927
 31
0.0
  0
LINE
  5
7A13
330
18
100
AcDbEntity
  8
0
100
AcDbLine
 10
-13.37603919339703
 20
459.9040223398926
 30
0.0
 11
-13.37603919339703
 21
484.0790223398926
 31
0.0
  0
LWPOLYLINE
  5
7A14
330
18
100
AcDbEntity
  8
0
100
AcDbPolyline
 90
        4
 70
     1
 43
0.0
 10
-14.55103919339703
 20
484.1540223398927
 10
-18.25103919339703
 20
484.1540223398927
 10
-18.25103919339703
 20
460.3540223398927
 10
-14.55103919339703
 20
460.3540223398927
  0
LINE
  5
7A15
330
18
100
AcDbEntity
  8
0
100
AcDbLine
 10
-18.12603919339703
 20
454.4540223398927
 30
0.0
 11
-20.25103919339703
 21
454.4540223398927
 31
0.0
  0
LINE
  5
7A16
330
18
100
AcDbEntity
  8
0
100
AcDbLine
 10
-20.25103919339703
 20
454.4540223398927
 30
0.0
 11
-20.25103919339703
 21
456.5290223398926
 31
0.0
  0
LINE
  5
7A17
330
18
100
AcDbEntity
  8
0
100
AcDbLine
 10
-14.92603919339703
 20
472.1540223398926
 30
0.0
 11
-14.92603919339703
 21
473.1290223398928
 31
0.0
  0
LINE
  5
7A18
330
18
100
AcDbEntity
  8
0
100
AcDbLine
 10
-15.27603919339703
 20
472.1540223398926
 30
0.0
 11
-14.92603919339703
 21
472.1540223398926
 31
0.0
  0
LINE
  5
7A19
330
18
100
AcDbEntity
  8
0
100
AcDbLine
 10
-15.27603919339703
 20
473.1290223398928
 30
0.0
 11
-15.27603919339703
 21
472.1540223398926
 31
0.0
  0
LINE
  5
7A1A
330
18
100
AcDbEntity
  8
0
100
AcDbLine
 10
-14.92603919339703
 20
473.1290223398928
 30
0.0
 11
-15.27603919339703
 21
473.1290223398928
 31
0.0
  0
LINE
  5
7A1B
330
18
100
AcDbEntity
  8
0
100
AcDbLine
 10
-14.90103919339704
 20
473.3540223398927
 30
0.0
 11
-14.90103919339704
 21
474.3290223398926
 31
0.0
  0
LINE
  5
7A1C
330
18
100
AcDbEntity
  8
0
100
AcDbLine
 10
-15.25103919339703
 20
473.3540223398927
 30
0.0
 11
-14.90103919339704
 21
473.3540223398927
 31
0.0
  0
LINE
  5
7A1D
330
18
100
AcDbEntity
  8
0
100
AcDbLine
 10
-15.25103919339703
 20
474.3290223398926
 30
0.0
 11
-15.25103919339703
 21
473.3540223398927
 31
0.0
  0
LINE
  5
7A1E
330
18
100
AcDbEntity
  8
0
100
AcDbLine
 10
-14.90103919339704
 20
474.3290223398926
 30
0.0
 11
-15.25103919339703
 21
474.3290223398926
 31
0.0
  0
LINE
  5
7A1F
330
18
100
AcDbEntity
  8
0
100
AcDbLine
 10
-14.90103919339704
 20
474.6040223398927
 30
0.0
 11
-14.90103919339704
 21
475.5790223398926
 31
0.0
  0
LINE
  5
7A20
330
18
100
AcDbEntity
  8
0
100
AcDbLine
 10
-15.25103919339703
 20
474.6040223398927
 30
0.0
 11
-14.90103919339704
 21
474.6040223398927
 31
0.0
  0
LINE
  5
7A21
330
18
100
AcDbEntity
  8
0
100
AcDbLine
 10
-15.25103919339703
 20
475.5790223398926
 30
0.0
 11
-15.25103919339703
 21
474.6040223398927
 31
0.0
  0
LINE
  5
7A22
330
18
100
AcDbEntity
  8
0
100
AcDbLine
 10
-14.90103919339704
 20
475.5790223398926
 30
0.0
 11
-15.25103919339703
 21
475.5790223398926
 31
0.0
  0
LINE
  5
7A23
330
18
100
AcDbEntity
  8
0
100
AcDbLine
 10
-15.25103919339703
 20
475.7790223398926
 30
0.0
 11
-14.90103919339704
 21
475.7790223398926
 31
0.0
  0
LINE
  5
7A24
330
18
100
AcDbEntity
  8
0
100
AcDbLine
 10
-14.92603919339703
 20
466.2290223398927
 30
0.0
 11
-14.92603919339703
 21
467.2040223398925
 31
0.0
  0
LINE
  5
7A25
330
18
100
AcDbEntity
  8
0
100
AcDbLine
 10
-15.27603919339703
 20
466.2290223398927
 30
0.0
 11
-14.92603919339703
 21
466.2290223398927
 31
0.0
  0
LINE
  5
7A26
330
18
100
AcDbEntity
  8
0
100
AcDbLine
 10
-15.27603919339703
 20
467.2040223398925
 30
0.0
 11
-15.27603919339703
 21
466.2290223398927
 31
0.0
  0
LINE
  5
7A27
330
18
100
AcDbEntity
  8
0
100
AcDbLine
 10
-14.92603919339703
 20
467.2040223398925
 30
0.0
 11
-15.27603919339703
 21
467.2040223398925
 31
0.0
  0
LINE
  5
7A28
330
18
100
AcDbEntity
  8
0
100
AcDbLine
 10
-14.92603919339703
 20
467.4040223398926
 30
0.0
 11
-14.92603919339703
 21
468.3790223398927
 31
0.0
  0
LINE
  5
7A29
330
18
100
AcDbEntity
  8
0
100
AcDbLine
 10
-15.27603919339703
 20
467.4040223398926
 30
0.0
 11
-14.92603919339703
 21
467.4040223398926
 31
0.0
  0
LINE
  5
7A2A
330
18
100
AcDbEntity
  8
0
100
AcDbLine
 10
-15.27603919339703
 20
468.3790223398927
 30
0.0
 11
-15.27603919339703
 21
467.4040223398926
 31
0.0
  0
LINE
  5
7A2B
330
18
100
AcDbEntity
  8
0
100
AcDbLine
 10
-14.92603919339703
 20
468.3790223398927
 30
0.0
 11
-15.27603919339703
 21
468.3790223398927
 31
0.0
  0
LINE
  5
7A2C
330
18
100
AcDbEntity
  8
0
100
AcDbLine
 10
-14.92603919339703
 20
468.5790223398925
 30
0.0
 11
-14.92603919339703
 21
469.5540223398928
 31
0.0
  0
LINE
  5
7A2D
330
18
100
AcDbEntity
  8
0
100
AcDbLine
 10
-15.27603919339703
 20
468.5790223398925
 30
0.0
 11
-14.92603919339703
 21
468.5790223398925
 31
0.0
  0
LINE
  5
7A2E
330
18
100
AcDbEntity
  8
0
100
AcDbLine
 10
-15.27603919339703
 20
469.5540223398928
 30
0.0
 11
-15.27603919339703
 21
468.5790223398925
 31
0.0
  0
LINE
  5
7A2F
330
18
100
AcDbEntity
  8
0
100
AcDbLine
 10
-14.92603919339703
 20
469.5540223398928
 30
0.0
 11
-15.27603919339703
 21
469.5540223398928
 31
0.0
  0
LINE
  5
7A30
330
18
100
AcDbEntity
  8
0
100
AcDbLine
 10
-14.92603919339703
 20
469.7790223398926
 30
0.0
 11
-14.92603919339703
 21
470.7540223398928
 31
0.0
  0
LINE
  5
7A31
330
18
100
AcDbEntity
  8
0
100
AcDbLine
 10
-15.27603919339703
 20
469.7790223398926
 30
0.0
 11
-14.92603919339703
 21
469.7790223398926
 31
0.0
  0
LINE
  5
7A32
330
18
100
AcDbEntity
  8
0
100
AcDbLine
 10
-15.27603919339703
 20
470.7540223398928
 30
0.0
 11
-15.27603919339703
 21
469.7790223398926
 31
0.0
  0
LINE
  5
7A33
330
18
100
AcDbEntity
  8
0
100
AcDbLine
 10
-14.92603919339703
 20
470.7540223398928
 30
0.0
 11
-15.27603919339703
 21
470.7540223398928
 31
0.0
  0
LINE
  5
7A34
330
18
100
AcDbEntity
  8
0
100
AcDbLine
 10
-14.92603919339703
 20
461.4040223398927
 30
0.0
 11
-14.92603919339703
 21
462.3790223398928
 31
0.0
  0
LINE
  5
7A35
330
18
100
AcDbEntity
  8
0
100
AcDbLine
 10
-15.27603919339703
 20
461.4040223398927
 30
0.0
 11
-14.92603919339703
 21
461.4040223398927
 31
0.0
  0
LINE
  5
7A36
330
18
100
AcDbEntity
  8
0
100
AcDbLine
 10
-15.27603919339703
 20
462.3790223398928
 30
0.0
 11
-15.27603919339703
 21
461.4040223398927
 31
0.0
  0
LINE
  5
7A37
330
18
100
AcDbEntity
  8
0
100
AcDbLine
 10
-14.92603919339703
 20
462.3790223398928
 30
0.0
 11
-15.27603919339703
 21
462.3790223398928
 31
0.0
  0
LINE
  5
7A38
330
18
100
AcDbEntity
  8
0
100
AcDbLine
 10
-14.92603919339703
 20
462.6290223398927
 30
0.0
 11
-14.92603919339703
 21
463.6040223398927
 31
0.0
  0
LINE
  5
7A39
330
18
100
AcDbEntity
  8
0
100
AcDbLine
 10
-15.27603919339703
 20
462.6290223398927
 30
0.0
 11
-14.92603919339703
 21
462.6290223398927
 31
0.0
  0
LINE
  5
7A3A
330
18
100
AcDbEntity
  8
0
100
AcDbLine
 10
-15.27603919339703
 20
463.6040223398927
 30
0.0
 11
-15.27603919339703
 21
462.6290223398927
 31
0.0
  0
LINE
  5
7A3B
330
18
100
AcDbEntity
  8
0
100
AcDbLine
 10
-14.92603919339703
 20
463.6040223398927
 30
0.0
 11
-15.27603919339703
 21
463.6040223398927
 31
0.0
  0
LINE
  5
7A3C
330
18
100
AcDbEntity
  8
0
100
AcDbLine
 10
-14.92603919339703
 20
463.8540223398926
 30
0.0
 11
-14.92603919339703
 21
464.8290223398926
 31
0.0
  0
LINE
  5
7A3D
330
18
100
AcDbEntity
  8
0
100
AcDbLine
 10
-15.27603919339703
 20
463.8540223398926
 30
0.0
 11
-14.92603919339703
 21
463.8540223398926
 31
0.0
  0
LINE
  5
7A3E
330
18
100
AcDbEntity
  8
0
100
AcDbLine
 10
-15.27603919339703
 20
464.8290223398926
 30
0.0
 11
-15.27603919339703
 21
463.8540223398926
 31
0.0
  0
LINE
  5
7A3F
330
18
100
AcDbEntity
  8
0
100
AcDbLine
 10
-14.92603919339703
 20
464.8290223398926
 30
0.0
 11
-15.27603919339703
 21
464.8290223398926
 31
0.0
  0
LINE
  5
7A40
330
18
100
AcDbEntity
  8
0
100
AcDbLine
 10
-14.92603919339703
 20
465.0540223398927
 30
0.0
 11
-14.92603919339703
 21
466.0290223398926
 31
0.0
  0
LINE
  5
7A41
330
18
100
AcDbEntity
  8
0
100
AcDbLine
 10
-15.27603919339703
 20
465.0540223398927
 30
0.0
 11
-14.92603919339703
 21
465.0540223398927
 31
0.0
  0
LINE
  5
7A42
330
18
100
AcDbEntity
  8
0
100
AcDbLine
 10
-15.27603919339703
 20
466.0290223398926
 30
0.0
 11
-15.27603919339703
 21
465.0540223398927
 31
0.0
  0
LINE
  5
7A43
330
18
100
AcDbEntity
  8
0
100
AcDbLine
 10
-14.92603919339703
 20
466.0290223398926
 30
0.0
 11
-15.27603919339703
 21
466.0290223398926
 31
0.0
  0
LINE
  5
7A44
330
18
100
AcDbEntity
  8
0
100
AcDbLine
 10
-14.92603919339703
 20
470.9540223398926
 30
0.0
 11
-14.92603919339703
 21
471.9290223398927
 31
0.0
  0
LINE
  5
7A45
330
18
100
AcDbEntity
  8
0
100
AcDbLine
 10
-15.27603919339703
 20
470.9540223398926
 30
0.0
 11
-14.92603919339703
 21
470.9540223398926
 31
0.0
  0
LINE
  5
7A46
330
18
100
AcDbEntity
  8
0
100
AcDbLine
 10
-15.27603919339703
 20
471.9290223398927
 30
0.0
 11
-15.27603919339703
 21
470.9540223398926
 31
0.0
  0
LINE
  5
7A47
330
18
100
AcDbEntity
  8
0
100
AcDbLine
 10
-14.92603919339703
 20
471.9290223398927
 30
0.0
 11
-15.27603919339703
 21
471.9290223398927
 31
0.0
  0
LINE
  5
7A48
330
18
100
AcDbEntity
  8
0
100
AcDbLine
 10
-17.70103919339703
 20
472.1540223398926
 30
0.0
 11
-17.70103919339703
 21
473.1290223398928
 31
0.0
  0
LINE
  5
7A49
330
18
100
AcDbEntity
  8
0
100
AcDbLine
 10
-18.05103919339703
 20
472.1540223398926
 30
0.0
 11
-17.70103919339703
 21
472.1540223398926
 31
0.0
  0
LINE
  5
7A4A
330
18
100
AcDbEntity
  8
0
100
AcDbLine
 10
-18.05103919339703
 20
473.1290223398928
 30
0.0
 11
-18.05103919339703
 21
472.1540223398926
 31
0.0
  0
LINE
  5
7A4B
330
18
100
AcDbEntity
  8
0
100
AcDbLine
 10
-17.70103919339703
 20
473.1290223398928
 30
0.0
 11
-18.05103919339703
 21
473.1290223398928
 31
0.0
  0
LINE
  5
7A4C
330
18
100
AcDbEntity
  8
0
100
AcDbLine
 10
-17.67603919339703
 20
473.3540223398927
 30
0.0
 11
-17.67603919339703
 21
474.3290223398926
 31
0.0
  0
LINE
  5
7A4D
330
18
100
AcDbEntity
  8
0
100
AcDbLine
 10
-18.02603919339704
 20
473.3540223398927
 30
0.0
 11
-17.67603919339703
 21
473.3540223398927
 31
0.0
  0
LINE
  5
7A4E
330
18
100
AcDbEntity
  8
0
100
AcDbLine
 10
-18.02603919339704
 20
474.3290223398926
 30
0.0
 11
-18.02603919339704
 21
473.3540223398927
 31
0.0
  0
LINE
  5
7A4F
330
18
100
AcDbEntity
  8
0
100
AcDbLine
 10
-17.67603919339703
 20
474.3290223398926
 30
0.0
 11
-18.02603919339704
 21
474.3290223398926
 31
0.0
  0
LINE
  5
7A50
330
18
100
AcDbEntity
  8
0
100
AcDbLine
 10
-17.67603919339703
 20
474.6040223398927
 30
0.0
 11
-17.67603919339703
 21
475.5790223398926
 31
0.0
  0
LINE
  5
7A51
330
18
100
AcDbEntity
  8
0
100
AcDbLine
 10
-18.02603919339704
 20
474.6040223398927
 30
0.0
 11
-17.67603919339703
 21
474.6040223398927
 31
0.0
  0
LINE
  5
7A52
330
18
100
AcDbEntity
  8
0
100
AcDbLine
 10
-18.02603919339704
 20
475.5790223398926
 30
0.0
 11
-18.02603919339704
 21
474.6040223398927
 31
0.0
  0
LINE
  5
7A53
330
18
100
AcDbEntity
  8
0
100
AcDbLine
 10
-17.67603919339703
 20
475.5790223398926
 30
0.0
 11
-18.02603919339704
 21
475.5790223398926
 31
0.0
  0
LINE
  5
7A54
330
18
100
AcDbEntity
  8
0
100
AcDbLine
 10
-18.02603919339704
 20
475.7790223398926
 30
0.0
 11
-17.67603919339703
 21
475.7790223398926
 31
0.0
  0
LINE
  5
7A55
330
18
100
AcDbEntity
  8
0
100
AcDbLine
 10
-17.70103919339703
 20
466.2290223398927
 30
0.0
 11
-17.70103919339703
 21
467.2040223398925
 31
0.0
  0
LINE
  5
7A56
330
18
100
AcDbEntity
  8
0
100
AcDbLine
 10
-18.05103919339703
 20
466.2290223398927
 30
0.0
 11
-17.70103919339703
 21
466.2290223398927
 31
0.0
  0
LINE
  5
7A57
330
18
100
AcDbEntity
  8
0
100
AcDbLine
 10
-18.05103919339703
 20
467.2040223398925
 30
0.0
 11
-18.05103919339703
 21
466.2290223398927
 31
0.0
  0
LINE
  5
7A58
330
18
100
AcDbEntity
  8
0
100
AcDbLine
 10
-17.70103919339703
 20
467.2040223398925
 30
0.0
 11
-18.05103919339703
 21
467.2040223398925
 31
0.0
  0
LINE
  5
7A59
330
18
100
AcDbEntity
  8
0
100
AcDbLine
 10
-17.70103919339703
 20
467.4040223398926
 30
0.0
 11
-17.70103919339703
 21
468.3790223398927
 31
0.0
  0
LINE
  5
7A5A
330
18
100
AcDbEntity
  8
0
100
AcDbLine
 10
-18.05103919339703
 20
467.4040223398926
 30
0.0
 11
-17.70103919339703
 21
467.4040223398926
 31
0.0
  0
LINE
  5
7A5B
330
18
100
AcDbEntity
  8
0
100
AcDbLine
 10
-18.05103919339703
 20
468.3790223398927
 30
0.0
 11
-18.05103919339703
 21
467.4040223398926
 31
0.0
  0
LINE
  5
7A5C
330
18
100
AcDbEntity
  8
0
100
AcDbLine
 10
-17.70103919339703
 20
468.3790223398927
 30
0.0
 11
-18.05103919339703
 21
468.3790223398927
 31
0.0
  0
LINE
  5
7A5D
330
18
100
AcDbEntity
  8
0
100
AcDbLine
 10
-17.70103919339703
 20
468.5790223398925
 30
0.0
 11
-17.70103919339703
 21
469.5540223398928
 31
0.0
  0
LINE
  5
7A5E
330
18
100
AcDbEntity
  8
0
100
AcDbLine
 10
-18.05103919339703
 20
468.5790223398925
 30
0.0
 11
-17.70103919339703
 21
468.5790223398925
 31
0.0
  0
LINE
  5
7A5F
330
18
100
AcDbEntity
  8
0
100
AcDbLine
 10
-18.05103919339703
 20
469.5540223398928
 30
0.0
 11
-18.05103919339703
 21
468.5790223398925
 31
0.0
  0
LINE
  5
7A60
330
18
100
AcDbEntity
  8
0
100
AcDbLine
 10
-17.70103919339703
 20
469.5540223398928
 30
0.0
 11
-18.05103919339703
 21
469.5540223398928
 31
0.0
  0
LINE
  5
7A61
330
18
100
AcDbEntity
  8
0
100
AcDbLine
 10
-17.70103919339703
 20
469.7790223398926
 30
0.0
 11
-17.70103919339703
 21
470.7540223398928
 31
0.0
  0
LINE
  5
7A62
330
18
100
AcDbEntity
  8
0
100
AcDbLine
 10
-18.05103919339703
 20
469.7790223398926
 30
0.0
 11
-17.70103919339703
 21
469.7790223398926
 31
0.0
  0
LINE
  5
7A63
330
18
100
AcDbEntity
  8
0
100
AcDbLine
 10
-18.05103919339703
 20
470.7540223398928
 30
0.0
 11
-18.05103919339703
 21
469.7790223398926
 31
0.0
  0
LINE
  5
7A64
330
18
100
AcDbEntity
  8
0
100
AcDbLine
 10
-17.70103919339703
 20
470.7540223398928
 30
0.0
 11
-18.05103919339703
 21
470.7540223398928
 31
0.0
  0
LINE
  5
7A65
330
18
100
AcDbEntity
  8
0
100
AcDbLine
 10
-17.70103919339703
 20
461.4040223398927
 30
0.0
 11
-17.70103919339703
 21
462.3790223398928
 31
0.0
  0
LINE
  5
7A66
330
18
100
AcDbEntity
  8
0
100
AcDbLine
 10
-18.05103919339703
 20
461.4040223398927
 30
0.0
 11
-17.70103919339703
 21
461.4040223398927
 31
0.0
  0
LINE
  5
7A67
330
18
100
AcDbEntity
  8
0
100
AcDbLine
 10
-18.05103919339703
 20
462.3790223398928
 30
0.0
 11
-18.05103919339703
 21
461.4040223398927
 31
0.0
  0
LINE
  5
7A68
330
18
100
AcDbEntity
  8
0
100
AcDbLine
 10
-17.70103919339703
 20
462.3790223398928
 30
0.0
 11
-18.05103919339703
 21
462.3790223398928
 31
0.0
  0
LINE
  5
7A69
330
18
100
AcDbEntity
  8
0
100
AcDbLine
 10
-17.70103919339703
 20
462.6290223398927
 30
0.0
 11
-17.70103919339703
 21
463.6040223398927
 31
0.0
  0
LINE
  5
7A6A
330
18
100
AcDbEntity
  8
0
100
AcDbLine
 10
-18.05103919339703
 20
462.6290223398927
 30
0.0
 11
-17.70103919339703
 21
462.6290223398927
 31
0.0
  0
LINE
  5
7A6B
330
18
100
AcDbEntity
  8
0
100
AcDbLine
 10
-18.05103919339703
 20
463.6040223398927
 30
0.0
 11
-18.05103919339703
 21
462.6290223398927
 31
0.0
  0
LINE
  5
7A6C
330
18
100
AcDbEntity
  8
0
100
AcDbLine
 10
-17.70103919339703
 20
463.6040223398927
 30
0.0
 11
-18.05103919339703
 21
463.6040223398927
 31
0.0
  0
LINE
  5
7A6D
330
18
100
AcDbEntity
  8
0
100
AcDbLine
 10
-17.70103919339703
 20
463.8540223398926
 30
0.0
 11
-17.70103919339703
 21
464.8290223398926
 31
0.0
  0
LINE
  5
7A6E
330
18
100
AcDbEntity
  8
0
100
AcDbLine
 10
-18.05103919339703
 20
463.8540223398926
 30
0.0
 11
-17.70103919339703
 21
463.8540223398926
 31
0.0
  0
LINE
  5
7A6F
330
18
100
AcDbEntity
  8
0
100
AcDbLine
 10
-18.05103919339703
 20
464.8290223398926
 30
0.0
 11
-18.05103919339703
 21
463.8540223398926
 31
0.0
  0
LINE
  5
7A70
330
18
100
AcDbEntity
  8
0
100
AcDbLine
 10
-17.70103919339703
 20
464.8290223398926
 30
0.0
 11
-18.05103919339703
 21
464.8290223398926
 31
0.0
  0
LINE
  5
7A71
330
18
100
AcDbEntity
  8
0
100
AcDbLine
 10
-17.70103919339703
 20
465.0540223398927
 30
0.0
 11
-17.70103919339703
 21
466.0290223398926
 31
0.0
  0
LINE
  5
7A72
330
18
100
AcDbEntity
  8
0
100
AcDbLine
 10
-18.05103919339703
 20
465.0540223398927
 30
0.0
 11
-17.70103919339703
 21
465.0540223398927
 31
0.0
  0
LINE
  5
7A73
330
18
100
AcDbEntity
  8
0
100
AcDbLine
 10
-18.05103919339703
 20
466.0290223398926
 30
0.0
 11
-18.05103919339703
 21
465.0540223398927
 31
0.0
  0
LINE
  5
7A74
330
18
100
AcDbEntity
  8
0
100
AcDbLine
 10
-17.70103919339703
 20
466.0290223398926
 30
0.0
 11
-18.05103919339703
 21
466.0290223398926
 31
0.0
  0
LINE
  5
7A75
330
18
100
AcDbEntity
  8
0
100
AcDbLine
 10
-17.70103919339703
 20
470.9540223398926
 30
0.0
 11
-17.70103919339703
 21
471.9290223398927
 31
0.0
  0
LINE
  5
7A76
330
18
100
AcDbEntity
  8
0
100
AcDbLine
 10
-18.05103919339703
 20
470.9540223398926
 30
0.0
 11
-17.70103919339703
 21
470.9540223398926
 31
0.0
  0
LINE
  5
7A77
330
18
100
AcDbEntity
  8
0
100
AcDbLine
 10
-18.05103919339703
 20
471.9290223398927
 30
0.0
 11
-18.05103919339703
 21
470.9540223398926
 31
0.0
  0
LINE
  5
7A78
330
18
100
AcDbEntity
  8
0
100
AcDbLine
 10
-17.70103919339703
 20
471.9290223398927
 30
0.0
 11
-18.05103919339703
 21
471.9290223398927
 31
0.0
  0
LINE
  5
7A79
330
18
100
AcDbEntity
  8
0
100
AcDbLine
 10
-18.00103919339703
 20
457.9040223398926
 30
0.0
 11
-14.30103919339703
 21
458.8790223398928
 31
0.0
  0
LINE
  5
7A7A
330
18
100
AcDbEntity
  8
0
100
AcDbLine
 10
-18.12603919339703
 20
454.4540223398927
 30
0.0
 11
-18.12603919339703
 21
455.4290223398927
 31
0.0
  0
LINE
  5
7A7B
330
18
100
AcDbEntity
  8
0
100
AcDbLine
 10
-14.55103919339703
 20
455.4290223398927
 30
0.0
 11
-18.12603919339703
 21
455.4290223398927
 31
0.0
  0
LINE
  5
7A7C
330
18
100
AcDbEntity
  8
0
100
AcDbLine
 10
-14.55103919339703
 20
454.4290223398927
 30
0.0
 11
-14.55103919339703
 21
455.4040223398926
 31
0.0
  0
LINE
  5
7A7D
330
18
100
AcDbEntity
  8
0
100
AcDbLine
 10
-18.12603919339703
 20
489.8790223398927
 30
0.0
 11
-20.25103919339703
 21
489.8790223398927
 31
0.0
  0
LINE
  5
7A7E
330
18
100
AcDbEntity
  8
0
100
AcDbLine
 10
-18.12603919339703
 20
498.3290223398925
 30
0.0
 11
-20.25103919339703
 21
498.3290223398925
 31
0.0
  0
LINE
  5
7A7F
330
18
100
AcDbEntity
  8
0
100
AcDbLine
 10
-20.25103919339703
 20
489.8790223398927
 30
0.0
 11
-20.25103919339703
 21
487.8040223398927
 31
0.0
  0
LINE
  5
7A80
330
18
100
AcDbEntity
  8
0
100
AcDbLine
 10
-14.90103919339704
 20
478.4040223398926
 30
0.0
 11
-14.90103919339704
 21
479.3540223398927
 31
0.0
  0
LINE
  5
7A81
330
18
100
AcDbEntity
  8
0
100
AcDbLine
 10
-15.25103919339703
 20
478.4040223398926
 30
0.0
 11
-14.90103919339704
 21
478.4040223398926
 31
0.0
  0
LINE
  5
7A82
330
18
100
AcDbEntity
  8
0
100
AcDbLine
 10
-15.25103919339703
 20
479.3540223398927
 30
0.0
 11
-15.25103919339703
 21
478.4040223398926
 31
0.0
  0
LINE
  5
7A83
330
18
100
AcDbEntity
  8
0
100
AcDbLine
 10
-14.90103919339704
 20
479.3540223398927
 30
0.0
 11
-15.25103919339703
 21
479.3540223398927
 31
0.0
  0
LINE
  5
7A84
330
18
100
AcDbEntity
  8
0
100
AcDbLine
 10
-14.90103919339704
 20
479.6540223398927
 30
0.0
 11
-14.90103919339704
 21
480.6290223398928
 31
0.0
  0
LINE
  5
7A85
330
18
100
AcDbEntity
  8
0
100
AcDbLine
 10
-15.25103919339703
 20
479.6540223398927
 30
0.0
 11
-14.90103919339704
 21
479.6540223398927
 31
0.0
  0
LINE
  5
7A86
330
18
100
AcDbEntity
  8
0
100
AcDbLine
 10
-15.25103919339703
 20
480.6290223398928
 30
0.0
 11
-15.25103919339703
 21
479.6540223398927
 31
0.0
  0
LINE
  5
7A87
330
18
100
AcDbEntity
  8
0
100
AcDbLine
 10
-14.90103919339704
 20
480.6290223398928
 30
0.0
 11
-15.25103919339703
 21
480.6290223398928
 31
0.0
  0
LINE
  5
7A88
330
18
100
AcDbEntity
  8
0
100
AcDbLine
 10
-14.90103919339704
 20
480.8790223398927
 30
0.0
 11
-14.90103919339704
 21
481.8540223398927
 31
0.0
  0
LINE
  5
7A89
330
18
100
AcDbEntity
  8
0
100
AcDbLine
 10
-15.25103919339703
 20
480.8790223398927
 30
0.0
 11
-14.90103919339704
 21
480.8790223398927
 31
0.0
  0
LINE
  5
7A8A
330
18
100
AcDbEntity
  8
0
100
AcDbLine
 10
-15.25103919339703
 20
481.8540223398927
 30
0.0
 11
-15.25103919339703
 21
480.8790223398927
 31
0.0
  0
LINE
  5
7A8B
330
18
100
AcDbEntity
  8
0
100
AcDbLine
 10
-14.90103919339704
 20
481.8540223398927
 30
0.0
 11
-15.25103919339703
 21
481.8540223398927
 31
0.0
  0
LINE
  5
7A8C
330
18
100
AcDbEntity
  8
0
100
AcDbLine
 10
-14.90103919339704
 20
482.1290223398928
 30
0.0
 11
-14.90103919339704
 21
483.1290223398927
 31
0.0
  0
LINE
  5
7A8D
330
18
100
AcDbEntity
  8
0
100
AcDbLine
 10
-15.25103919339703
 20
482.1290223398928
 30
0.0
 11
-14.90103919339704
 21
482.1290223398928
 31
0.0
  0
LINE
  5
7A8E
330
18
100
AcDbEntity
  8
0
100
AcDbLine
 10
-15.25103919339703
 20
483.1290223398927
 30
0.0
 11
-15.25103919339703
 21
482.1290223398928
 31
0.0
  0
LINE
  5
7A8F
330
18
100
AcDbEntity
  8
0
100
AcDbLine
 10
-14.90103919339704
 20
483.1290223398927
 30
0.0
 11
-15.25103919339703
 21
483.1290223398927
 31
0.0
  0
LINE
  5
7A90
330
18
100
AcDbEntity
  8
0
100
AcDbLine
 10
-14.90103919339704
 20
476.7540223398928
 30
0.0
 11
-15.25103919339703
 21
476.7540223398928
 31
0.0
  0
LINE
  5
7A91
330
18
100
AcDbEntity
  8
0
100
AcDbLine
 10
-14.90103919339704
 20
477.0540223398927
 30
0.0
 11
-14.90103919339704
 21
478.0290223398926
 31
0.0
  0
LINE
  5
7A92
330
18
100
AcDbEntity
  8
0
100
AcDbLine
 10
-15.25103919339703
 20
477.0540223398927
 30
0.0
 11
-14.90103919339704
 21
477.0540223398927
 31
0.0
  0
LINE
  5
7A93
330
18
100
AcDbEntity
  8
0
100
AcDbLine
 10
-15.25103919339703
 20
478.0290223398926
 30
0.0
 11
-15.25103919339703
 21
477.0540223398927
 31
0.0
  0
LINE
  5
7A94
330
18
100
AcDbEntity
  8
0
100
AcDbLine
 10
-14.90103919339704
 20
478.0290223398926
 30
0.0
 11
-15.25103919339703
 21
478.0290223398926
 31
0.0
  0
LINE
  5
7A95
330
18
100
AcDbEntity
  8
0
100
AcDbLine
 10
-17.67603919339703
 20
478.4040223398926
 30
0.0
 11
-17.67603919339703
 21
479.3540223398927
 31
0.0
  0
LINE
  5
7A96
330
18
100
AcDbEntity
  8
0
100
AcDbLine
 10
-18.02603919339704
 20
478.4040223398926
 30
0.0
 11
-17.67603919339703
 21
478.4040223398926
 31
0.0
  0
LINE
  5
7A97
330
18
100
AcDbEntity
  8
0
100
AcDbLine
 10
-18.02603919339704
 20
479.3540223398927
 30
0.0
 11
-18.02603919339704
 21
478.4040223398926
 31
0.0
  0
LINE
  5
7A98
330
18
100
AcDbEntity
  8
0
100
AcDbLine
 10
-17.67603919339703
 20
479.3540223398927
 30
0.0
 11
-18.02603919339704
 21
479.3540223398927
 31
0.0
  0
LINE
  5
7A99
330
18
100
AcDbEntity
  8
0
100
AcDbLine
 10
-17.67603919339703
 20
479.6540223398927
 30
0.0
 11
-17.67603919339703
 21
480.6290223398928
 31
0.0
  0
LINE
  5
7A9A
330
18
100
AcDbEntity
  8
0
100
AcDbLine
 10
-18.02603919339704
 20
479.6540223398927
 30
0.0
 11
-17.67603919339703
 21
479.6540223398927
 31
0.0
  0
LINE
  5
7A9B
330
18
100
AcDbEntity
  8
0
100
AcDbLine
 10
-18.02603919339704
 20
480.6290223398928
 30
0.0
 11
-18.02603919339704
 21
479.6540223398927
 31
0.0
  0
LINE
  5
7A9C
330
18
100
AcDbEntity
  8
0
100
AcDbLine
 10
-17.67603919339703
 20
480.6290223398928
 30
0.0
 11
-18.02603919339704
 21
480.6290223398928
 31
0.0
  0
LINE
  5
7A9D
330
18
100
AcDbEntity
  8
0
100
AcDbLine
 10
-17.67603919339703
 20
480.8790223398927
 30
0.0
 11
-17.67603919339703
 21
481.8540223398927
 31
0.0
  0
LINE
  5
7A9E
330
18
100
AcDbEntity
  8
0
100
AcDbLine
 10
-18.02603919339704
 20
480.8790223398927
 30
0.0
 11
-17.67603919339703
 21
480.8790223398927
 31
0.0
  0
LINE
  5
7A9F
330
18
100
AcDbEntity
  8
0
100
AcDbLine
 10
-18.02603919339704
 20
481.8540223398927
 30
0.0
 11
-18.02603919339704
 21
480.8790223398927
 31
0.0
  0
LINE
  5
7AA0
330
18
100
AcDbEntity
  8
0
100
AcDbLine
 10
-17.67603919339703
 20
481.8540223398927
 30
0.0
 11
-18.02603919339704
 21
481.8540223398927
 31
0.0
  0
LINE
  5
7AA1
330
18
100
AcDbEntity
  8
0
100
AcDbLine
 10
-17.67603919339703
 20
482.1290223398928
 30
0.0
 11
-17.67603919339703
 21
483.1290223398927
 31
0.0
  0
LINE
  5
7AA2
330
18
100
AcDbEntity
  8
0
100
AcDbLine
 10
-18.02603919339704
 20
482.1290223398928
 30
0.0
 11
-17.67603919339703
 21
482.1290223398928
 31
0.0
  0
LINE
  5
7AA3
330
18
100
AcDbEntity
  8
0
100
AcDbLine
 10
-18.02603919339704
 20
483.1290223398927
 30
0.0
 11
-18.02603919339704
 21
482.1290223398928
 31
0.0
  0
LINE
  5
7AA4
330
18
100
AcDbEntity
  8
0
100
AcDbLine
 10
-17.67603919339703
 20
483.1290223398927
 30
0.0
 11
-18.02603919339704
 21
483.1290223398927
 31
0.0
  0
LINE
  5
7AA5
330
18
100
AcDbEntity
  8
0
100
AcDbLine
 10
-17.67603919339703
 20
476.7540223398928
 30
0.0
 11
-18.02603919339704
 21
476.7540223398928
 31
0.0
  0
LINE
  5
7AA6
330
18
100
AcDbEntity
  8
0
100
AcDbLine
 10
-17.67603919339703
 20
477.0540223398927
 30
0.0
 11
-17.67603919339703
 21
478.0290223398926
 31
0.0
  0
LINE
  5
7AA7
330
18
100
AcDbEntity
  8
0
100
AcDbLine
 10
-18.02603919339704
 20
477.0540223398927
 30
0.0
 11
-17.67603919339703
 21
477.0540223398927
 31
0.0
  0
LINE
  5
7AA8
330
18
100
AcDbEntity
  8
0
100
AcDbLine
 10
-18.02603919339704
 20
478.0290223398926
 30
0.0
 11
-18.02603919339704
 21
477.0540223398927
 31
0.0
  0
LINE
  5
7AA9
330
18
100
AcDbEntity
  8
0
100
AcDbLine
 10
-17.67603919339703
 20
478.0290223398926
 30
0.0
 11
-18.02603919339704
 21
478.0290223398926
 31
0.0
  0
LINE
  5
7AAA
330
18
100
AcDbEntity
  8
0
100
AcDbLine
 10
-18.12603919339703
 20
489.8790223398927
 30
0.0
 11
-18.12603919339703
 21
488.9040223398926
 31
0.0
  0
LINE
  5
7AAB
330
18
100
AcDbEntity
  8
0
100
AcDbLine
 10
-14.55103919339703
 20
488.9040223398926
 30
0.0
 11
-18.12603919339703
 21
488.9040223398926
 31
0.0
  0
LINE
  5
7AAC
330
18
100
AcDbEntity
  8
0
100
AcDbLine
 10
-14.55103919339703
 20
489.9040223398926
 30
0.0
 11
-14.55103919339703
 21
488.9290223398927
 31
0.0
  0
LINE
  5
7AAD
330
18
100
AcDbEntity
  8
0
100
AcDbLine
 10
-14.30103919339703
 20
485.2540223398928
 30
0.0
 11
-18.00103919339703
 21
486.1790223398927
 31
0.0
  0
LINE
  5
7AAE
330
18
100
AcDbEntity
  8
0
100
AcDbLine
 10
-21.05103919339704
 20
570.9790223398926
 30
0.0
 11
-21.05103919339704
 21
542.3040223398927
 31
0.0
  0
LINE
  5
7AB0
330
18
100
AcDbEntity
  8
0
100
AcDbLine
 10
-24.82603919339704
 20
528.9790223398926
 30
0.0
 11
-26.82603919339703
 21
528.9790223398926
 31
0.0
  0
LINE
  5
7AB1
330
18
100
AcDbEntity
  8
0
100
AcDbLine
 10
-26.82603919339703
 20
539.9790223398927
 30
0.0
 11
-24.82603919339704
 21
539.9790223398927
 31
0.0
  0
LINE
  5
7AB2
330
18
100
AcDbEntity
  8
0
100
AcDbLine
 10
-26.82603919339703
 20
541.4040223398926
 30
0.0
 11
-22.82603919339703
 21
541.4040223398926
 31
0.0
  0
LINE
  5
7AB3
330
18
100
AcDbEntity
  8
0
100
AcDbLine
 10
-26.82603919339703
 20
527.6290223398925
 30
0.0
 11
-22.82603919339703
 21
527.6290223398925
 31
0.0
  0
LINE
  5
7AB6
330
18
100
AcDbEntity
  8
0
100
AcDbLine
 10
-26.82603919339703
 20
528.9790223398926
 30
0.0
 11
-26.82603919339703
 21
539.9790223398927
 31
0.0
  0
LINE
  5
7AB7
330
18
100
AcDbEntity
  8
0
100
AcDbLine
 10
-27.82603919339703
 20
527.9790223398927
 30
0.0
 11
-27.82603919339703
 21
540.9790223398927
 31
0.0
  0
LINE
  5
7AB8
330
18
100
AcDbEntity
  8
0
100
AcDbLine
 10
-28.22603919339703
 20
539.9790223398927
 30
0.0
 11
-28.22603919339703
 21
535.9790223398927
 31
0.0
  0
LINE
  5
7AB9
330
18
100
AcDbEntity
  8
0
100
AcDbLine
 10
-28.22603919339703
 20
528.9790223398926
 30
0.0
 11
-28.22603919339703
 21
532.9790223398926
 31
0.0
  0
LINE
  5
7ABB
330
18
100
AcDbEntity
  8
0
100
AcDbLine
 10
-14.90103919339704
 20
511.0540223398927
 30
0.0
 11
-14.90103919339704
 21
512.0290223398926
 31
0.0
  0
LINE
  5
7ABC
330
18
100
AcDbEntity
  8
0
100
AcDbLine
 10
-15.25103919339703
 20
511.0540223398927
 30
0.0
 11
-14.90103919339704
 21
511.0540223398927
 31
0.0
  0
LINE
  5
7ABD
330
18
100
AcDbEntity
  8
0
100
AcDbLine
 10
-15.25103919339703
 20
512.0290223398926
 30
0.0
 11
-15.25103919339703
 21
511.0540223398927
 31
0.0
  0
LINE
  5
7ABE
330
18
100
AcDbEntity
  8
0
100
AcDbLine
 10
-14.90103919339704
 20
512.0290223398926
 30
0.0
 11
-15.25103919339703
 21
512.0290223398926
 31
0.0
  0
LINE
  5
7ABF
330
18
100
AcDbEntity
  8
0
100
AcDbLine
 10
-14.90103919339704
 20
512.4040223398926
 30
0.0
 11
-14.90103919339704
 21
513.3540223398926
 31
0.0
  0
LINE
  5
7AC0
330
18
100
AcDbEntity
  8
0
100
AcDbLine
 10
-15.25103919339703
 20
512.4040223398926
 30
0.0
 11
-14.90103919339704
 21
512.4040223398926
 31
0.0
  0
LINE
  5
7AC1
330
18
100
AcDbEntity
  8
0
100
AcDbLine
 10
-15.25103919339703
 20
513.3540223398926
 30
0.0
 11
-15.25103919339703
 21
512.4040223398926
 31
0.0
  0
LINE
  5
7AC2
330
18
100
AcDbEntity
  8
0
100
AcDbLine
 10
-14.90103919339704
 20
513.3540223398926
 30
0.0
 11
-15.25103919339703
 21
513.3540223398926
 31
0.0
  0
LINE
  5
7AC3
330
18
100
AcDbEntity
  8
0
100
AcDbLine
 10
-14.90103919339704
 20
513.6540223398927
 30
0.0
 11
-14.90103919339704
 21
514.6290223398928
 31
0.0
  0
LINE
  5
7AC4
330
18
100
AcDbEntity
  8
0
100
AcDbLine
 10
-15.25103919339703
 20
513.6540223398927
 30
0.0
 11
-14.90103919339704
 21
513.6540223398927
 31
0.0
  0
LINE
  5
7AC5
330
18
100
AcDbEntity
  8
0
100
AcDbLine
 10
-15.25103919339703
 20
514.6290223398928
 30
0.0
 11
-15.25103919339703
 21
513.6540223398927
 31
0.0
  0
LINE
  5
7AC6
330
18
100
AcDbEntity
  8
0
100
AcDbLine
 10
-14.90103919339704
 20
514.6290223398928
 30
0.0
 11
-15.25103919339703
 21
514.6290223398928
 31
0.0
  0
LINE
  5
7AC7
330
18
100
AcDbEntity
  8
0
100
AcDbLine
 10
-14.90103919339704
 20
514.8790223398927
 30
0.0
 11
-14.90103919339704
 21
515.8540223398927
 31
0.0
  0
LINE
  5
7AC8
330
18
100
AcDbEntity
  8
0
100
AcDbLine
 10
-15.25103919339703
 20
514.8790223398927
 30
0.0
 11
-14.90103919339704
 21
514.8790223398927
 31
0.0
  0
LINE
  5
7AC9
330
18
100
AcDbEntity
  8
0
100
AcDbLine
 10
-15.25103919339703
 20
515.8540223398927
 30
0.0
 11
-15.25103919339703
 21
514.8790223398927
 31
0.0
  0
LINE
  5
7ACA
330
18
100
AcDbEntity
  8
0
100
AcDbLine
 10
-14.90103919339704
 20
515.8540223398927
 30
0.0
 11
-15.25103919339703
 21
515.8540223398927
 31
0.0
  0
LINE
  5
7ACB
330
18
100
AcDbEntity
  8
0
100
AcDbLine
 10
-14.90103919339704
 20
516.1290223398927
 30
0.0
 11
-14.90103919339704
 21
517.1290223398927
 31
0.0
  0
LINE
  5
7ACC
330
18
100
AcDbEntity
  8
0
100
AcDbLine
 10
-15.25103919339703
 20
516.1290223398927
 30
0.0
 11
-14.90103919339704
 21
516.1290223398927
 31
0.0
  0
LINE
  5
7ACD
330
18
100
AcDbEntity
  8
0
100
AcDbLine
 10
-15.25103919339703
 20
517.1290223398927
 30
0.0
 11
-15.25103919339703
 21
516.1290223398927
 31
0.0
  0
LINE
  5
7ACE
330
18
100
AcDbEntity
  8
0
100
AcDbLine
 10
-14.90103919339704
 20
517.1290223398927
 30
0.0
 11
-15.25103919339703
 21
517.1290223398927
 31
0.0
  0
LINE
  5
7ACF
330
18
100
AcDbEntity
  8
0
100
AcDbLine
 10
-17.67603919339703
 20
511.0540223398927
 30
0.0
 11
-17.67603919339703
 21
512.0290223398926
 31
0.0
  0
LINE
  5
7AD0
330
18
100
AcDbEntity
  8
0
100
AcDbLine
 10
-18.02603919339704
 20
511.0540223398927
 30
0.0
 11
-17.67603919339703
 21
511.0540223398927
 31
0.0
  0
LINE
  5
7AD1
330
18
100
AcDbEntity
  8
0
100
AcDbLine
 10
-18.02603919339704
 20
512.0290223398926
 30
0.0
 11
-18.02603919339704
 21
511.0540223398927
 31
0.0
  0
LINE
  5
7AD2
330
18
100
AcDbEntity
  8
0
100
AcDbLine
 10
-17.67603919339703
 20
512.0290223398926
 30
0.0
 11
-18.02603919339704
 21
512.0290223398926
 31
0.0
  0
LINE
  5
7AD3
330
18
100
AcDbEntity
  8
0
100
AcDbLine
 10
-17.67603919339703
 20
512.4040223398926
 30
0.0
 11
-17.67603919339703
 21
513.3540223398926
 31
0.0
  0
LINE
  5
7AD4
330
18
100
AcDbEntity
  8
0
100
AcDbLine
 10
-18.02603919339704
 20
512.4040223398926
 30
0.0
 11
-17.67603919339703
 21
512.4040223398926
 31
0.0
  0
LINE
  5
7AD5
330
18
100
AcDbEntity
  8
0
100
AcDbLine
 10
-18.02603919339704
 20
513.3540223398926
 30
0.0
 11
-18.02603919339704
 21
512.4040223398926
 31
0.0
  0
LINE
  5
7AD6
330
18
100
AcDbEntity
  8
0
100
AcDbLine
 10
-17.67603919339703
 20
513.3540223398926
 30
0.0
 11
-18.02603919339704
 21
513.3540223398926
 31
0.0
  0
LINE
  5
7AD7
330
18
100
AcDbEntity
  8
0
100
AcDbLine
 10
-17.67603919339703
 20
513.6540223398927
 30
0.0
 11
-17.67603919339703
 21
514.6290223398928
 31
0.0
  0
LINE
  5
7AD8
330
18
100
AcDbEntity
  8
0
100
AcDbLine
 10
-18.02603919339704
 20
513.6540223398927
 30
0.0
 11
-17.67603919339703
 21
513.6540223398927
 31
0.0
  0
LINE
  5
7AD9
330
18
100
AcDbEntity
  8
0
100
AcDbLine
 10
-18.02603919339704
 20
514.6290223398928
 30
0.0
 11
-18.02603919339704
 21
513.6540223398927
 31
0.0
  0
LINE
  5
7ADA
330
18
100
AcDbEntity
  8
0
100
AcDbLine
 10
-17.67603919339703
 20
514.6290223398928
 30
0.0
 11
-18.02603919339704
 21
514.6290223398928
 31
0.0
  0
LINE
  5
7ADB
330
18
100
AcDbEntity
  8
0
100
AcDbLine
 10
-17.67603919339703
 20
514.8790223398927
 30
0.0
 11
-17.67603919339703
 21
515.8540223398927
 31
0.0
  0
LINE
  5
7ADC
330
18
100
AcDbEntity
  8
0
100
AcDbLine
 10
-18.02603919339704
 20
514.8790223398927
 30
0.0
 11
-17.67603919339703
 21
514.8790223398927
 31
0.0
  0
LINE
  5
7ADD
330
18
100
AcDbEntity
  8
0
100
AcDbLine
 10
-18.02603919339704
 20
515.8540223398927
 30
0.0
 11
-18.02603919339704
 21
514.8790223398927
 31
0.0
  0
LINE
  5
7ADE
330
18
100
AcDbEntity
  8
0
100
AcDbLine
 10
-17.67603919339703
 20
515.8540223398927
 30
0.0
 11
-18.02603919339704
 21
515.8540223398927
 31
0.0
  0
LINE
  5
7ADF
330
18
100
AcDbEntity
  8
0
100
AcDbLine
 10
-17.67603919339703
 20
516.1290223398927
 30
0.0
 11
-17.67603919339703
 21
517.1290223398927
 31
0.0
  0
LINE
  5
7AE0
330
18
100
AcDbEntity
  8
0
100
AcDbLine
 10
-18.02603919339704
 20
516.1290223398927
 30
0.0
 11
-17.67603919339703
 21
516.1290223398927
 31
0.0
  0
LINE
  5
7AE1
330
18
100
AcDbEntity
  8
0
100
AcDbLine
 10
-18.02603919339704
 20
517.1290223398927
 30
0.0
 11
-18.02603919339704
 21
516.1290223398927
 31
0.0
  0
LINE
  5
7AE2
330
18
100
AcDbEntity
  8
0
100
AcDbLine
 10
-17.67603919339703
 20
517.1290223398927
 30
0.0
 11
-18.02603919339704
 21
517.1290223398927
 31
0.0
  0
LINE
  5
7AE3
330
18
100
AcDbEntity
  8
0
100
AcDbLine
 10
-14.92603919339703
 20
504.9540223398925
 30
0.0
 11
-14.92603919339703
 21
505.9290223398926
 31
0.0
  0
LINE
  5
7AE4
330
18
100
AcDbEntity
  8
0
100
AcDbLine
 10
-15.27603919339703
 20
504.9540223398925
 30
0.0
 11
-14.92603919339703
 21
504.9540223398925
 31
0.0
  0
LINE
  5
7AE5
330
18
100
AcDbEntity
  8
0
100
AcDbLine
 10
-15.27603919339703
 20
505.9290223398926
 30
0.0
 11
-15.27603919339703
 21
504.9540223398925
 31
0.0
  0
LINE
  5
7AE6
330
18
100
AcDbEntity
  8
0
100
AcDbLine
 10
-14.92603919339703
 20
505.9290223398926
 30
0.0
 11
-15.27603919339703
 21
505.9290223398926
 31
0.0
  0
LINE
  5
7AE7
330
18
100
AcDbEntity
  8
0
100
AcDbLine
 10
-14.92603919339703
 20
506.1540223398925
 30
0.0
 11
-14.92603919339703
 21
507.1290223398927
 31
0.0
  0
LINE
  5
7AE8
330
18
100
AcDbEntity
  8
0
100
AcDbLine
 10
-15.27603919339703
 20
506.1540223398925
 30
0.0
 11
-14.92603919339703
 21
506.1540223398925
 31
0.0
  0
LINE
  5
7AE9
330
18
100
AcDbEntity
  8
0
100
AcDbLine
 10
-15.27603919339703
 20
507.1290223398927
 30
0.0
 11
-15.27603919339703
 21
506.1540223398925
 31
0.0
  0
LINE
  5
7AEA
330
18
100
AcDbEntity
  8
0
100
AcDbLine
 10
-14.92603919339703
 20
507.1290223398927
 30
0.0
 11
-15.27603919339703
 21
507.1290223398927
 31
0.0
  0
LINE
  5
7AEB
330
18
100
AcDbEntity
  8
0
100
AcDbLine
 10
-14.90103919339704
 20
507.3540223398926
 30
0.0
 11
-14.90103919339704
 21
508.3290223398925
 31
0.0
  0
LINE
  5
7AEC
330
18
100
AcDbEntity
  8
0
100
AcDbLine
 10
-15.25103919339703
 20
507.3540223398926
 30
0.0
 11
-14.90103919339704
 21
507.3540223398926
 31
0.0
  0
LINE
  5
7AED
330
18
100
AcDbEntity
  8
0
100
AcDbLine
 10
-15.25103919339703
 20
508.3290223398925
 30
0.0
 11
-15.25103919339703
 21
507.3540223398926
 31
0.0
  0
LINE
  5
7AEE
330
18
100
AcDbEntity
  8
0
100
AcDbLine
 10
-14.90103919339704
 20
508.3290223398925
 30
0.0
 11
-15.25103919339703
 21
508.3290223398925
 31
0.0
  0
LINE
  5
7AEF
330
18
100
AcDbEntity
  8
0
100
AcDbLine
 10
-14.90103919339704
 20
508.6040223398926
 30
0.0
 11
-14.90103919339704
 21
509.5790223398926
 31
0.0
  0
LINE
  5
7AF0
330
18
100
AcDbEntity
  8
0
100
AcDbLine
 10
-15.25103919339703
 20
508.6040223398926
 30
0.0
 11
-14.90103919339704
 21
508.6040223398926
 31
0.0
  0
LINE
  5
7AF1
330
18
100
AcDbEntity
  8
0
100
AcDbLine
 10
-15.25103919339703
 20
509.5790223398926
 30
0.0
 11
-15.25103919339703
 21
508.6040223398926
 31
0.0
  0
LINE
  5
7AF2
330
18
100
AcDbEntity
  8
0
100
AcDbLine
 10
-14.90103919339704
 20
509.5790223398926
 30
0.0
 11
-15.25103919339703
 21
509.5790223398926
 31
0.0
  0
LINE
  5
7AF3
330
18
100
AcDbEntity
  8
0
100
AcDbLine
 10
-17.70103919339703
 20
504.9540223398925
 30
0.0
 11
-17.70103919339703
 21
505.9290223398926
 31
0.0
  0
LINE
  5
7AF4
330
18
100
AcDbEntity
  8
0
100
AcDbLine
 10
-18.05103919339703
 20
504.9540223398925
 30
0.0
 11
-17.70103919339703
 21
504.9540223398925
 31
0.0
  0
LINE
  5
7AF5
330
18
100
AcDbEntity
  8
0
100
AcDbLine
 10
-18.05103919339703
 20
505.9290223398926
 30
0.0
 11
-18.05103919339703
 21
504.9540223398925
 31
0.0
  0
LINE
  5
7AF6
330
18
100
AcDbEntity
  8
0
100
AcDbLine
 10
-17.70103919339703
 20
505.9290223398926
 30
0.0
 11
-18.05103919339703
 21
505.9290223398926
 31
0.0
  0
LINE
  5
7AF7
330
18
100
AcDbEntity
  8
0
100
AcDbLine
 10
-17.70103919339703
 20
506.1540223398925
 30
0.0
 11
-17.70103919339703
 21
507.1290223398927
 31
0.0
  0
LINE
  5
7AF8
330
18
100
AcDbEntity
  8
0
100
AcDbLine
 10
-18.05103919339703
 20
506.1540223398925
 30
0.0
 11
-17.70103919339703
 21
506.1540223398925
 31
0.0
  0
LINE
  5
7AF9
330
18
100
AcDbEntity
  8
0
100
AcDbLine
 10
-18.05103919339703
 20
507.1290223398927
 30
0.0
 11
-18.05103919339703
 21
506.1540223398925
 31
0.0
  0
LINE
  5
7AFA
330
18
100
AcDbEntity
  8
0
100
AcDbLine
 10
-17.70103919339703
 20
507.1290223398927
 30
0.0
 11
-18.05103919339703
 21
507.1290223398927
 31
0.0
  0
LINE
  5
7AFB
330
18
100
AcDbEntity
  8
0
100
AcDbLine
 10
-17.67603919339703
 20
507.3540223398926
 30
0.0
 11
-17.67603919339703
 21
508.3290223398925
 31
0.0
  0
LINE
  5
7AFC
330
18
100
AcDbEntity
  8
0
100
AcDbLine
 10
-18.02603919339704
 20
507.3540223398926
 30
0.0
 11
-17.67603919339703
 21
507.3540223398926
 31
0.0
  0
LINE
  5
7AFD
330
18
100
AcDbEntity
  8
0
100
AcDbLine
 10
-18.02603919339704
 20
508.3290223398925
 30
0.0
 11
-18.02603919339704
 21
507.3540223398926
 31
0.0
  0
LINE
  5
7AFE
330
18
100
AcDbEntity
  8
0
100
AcDbLine
 10
-17.67603919339703
 20
508.3290223398925
 30
0.0
 11
-18.02603919339704
 21
508.3290223398925
 31
0.0
  0
LINE
  5
7AFF
330
18
100
AcDbEntity
  8
0
100
AcDbLine
 10
-17.67603919339703
 20
508.6040223398926
 30
0.0
 11
-17.67603919339703
 21
509.5790223398926
 31
0.0
  0
LINE
  5
7B00
330
18
100
AcDbEntity
  8
0
100
AcDbLine
 10
-18.02603919339704
 20
508.6040223398926
 30
0.0
 11
-17.67603919339703
 21
508.6040223398926
 31
0.0
  0
LINE
  5
7B01
330
18
100
AcDbEntity
  8
0
100
AcDbLine
 10
-18.02603919339704
 20
509.5790223398926
 30
0.0
 11
-18.02603919339704
 21
508.6040223398926
 31
0.0
  0
LINE
  5
7B02
330
18
100
AcDbEntity
  8
0
100
AcDbLine
 10
-17.67603919339703
 20
509.5790223398926
 30
0.0
 11
-18.02603919339704
 21
509.5790223398926
 31
0.0
  0
LINE
  5
7B03
330
18
100
AcDbEntity
  8
0
100
AcDbLine
 10
-17.67603919339703
 20
509.7790223398925
 30
0.0
 11
-17.67603919339703
 21
510.7540223398927
 31
0.0
  0
LINE
  5
7B04
330
18
100
AcDbEntity
  8
0
100
AcDbLine
 10
-18.02603919339704
 20
509.7790223398925
 30
0.0
 11
-17.67603919339703
 21
509.7790223398925
 31
0.0
  0
LINE
  5
7B05
330
18
100
AcDbEntity
  8
0
100
AcDbLine
 10
-18.02603919339704
 20
510.7540223398927
 30
0.0
 11
-18.02603919339704
 21
509.7790223398925
 31
0.0
  0
LINE
  5
7B06
330
18
100
AcDbEntity
  8
0
100
AcDbLine
 10
-17.67603919339703
 20
510.7540223398927
 30
0.0
 11
-18.02603919339704
 21
510.7540223398927
 31
0.0
  0
LINE
  5
7B07
330
18
100
AcDbEntity
  8
0
100
AcDbLine
 10
-14.90103919339704
 20
509.7790223398925
 30
0.0
 11
-14.90103919339704
 21
510.7540223398927
 31
0.0
  0
LINE
  5
7B08
330
18
100
AcDbEntity
  8
0
100
AcDbLine
 10
-15.25103919339703
 20
509.7790223398925
 30
0.0
 11
-14.90103919339704
 21
509.7790223398925
 31
0.0
  0
LINE
  5
7B09
330
18
100
AcDbEntity
  8
0
100
AcDbLine
 10
-15.25103919339703
 20
510.7540223398927
 30
0.0
 11
-15.25103919339703
 21
509.7790223398925
 31
0.0
  0
LINE
  5
7B0A
330
18
100
AcDbEntity
  8
0
100
AcDbLine
 10
-14.90103919339704
 20
510.7540223398927
 30
0.0
 11
-15.25103919339703
 21
510.7540223398927
 31
0.0
  0
LINE
  5
7B0B
330
18
100
AcDbEntity
  8
0
100
AcDbLine
 10
-14.30103919339703
 20
519.2540223398927
 30
0.0
 11
-18.00103919339703
 21
520.1790223398927
 31
0.0
  0
LINE
  5
7B0C
330
18
100
AcDbEntity
  8
0
100
AcDbLine
 10
-18.00103919339703
 20
501.8290223398925
 30
0.0
 11
-14.30103919339703
 21
502.8040223398926
 31
0.0
  0
LINE
  5
7B0D
330
18
100
AcDbEntity
  8
0
100
AcDbLine
 10
-14.55103919339703
 20
499.3040223398927
 30
0.0
 11
-18.12603919339703
 21
499.3040223398927
 31
0.0
  0
LINE
  5
7B0E
330
18
100
AcDbEntity
  8
0
100
AcDbLine
 10
-19.50103919339703
 20
519.0040223398928
 30
0.0
 11
-19.50103919339703
 21
502.9040223398926
 31
0.0
  0
LINE
  5
7B0F
330
18
100
AcDbEntity
  8
0
100
AcDbLine
 10
-13.37603919339703
 20
503.9540223398925
 30
0.0
 11
-13.37603919339703
 21
518.0790223398926
 31
0.0
  0
LWPOLYLINE
  5
7B10
330
18
100
AcDbEntity
  8
0
100
AcDbPolyline
 90
        4
 70
     1
 43
0.0
 10
-14.55103919339703
 20
518.1540223398926
 10
-18.25103919339703
 20
518.1540223398926
 10
-18.25103919339703
 20
504.0040223398927
 10
-14.55103919339703
 20
504.0040223398927
  0
LINE
  5
7B11
330
18
100
AcDbEntity
  8
0
100
AcDbLine
 10
-18.12603919339703
 20
523.8790223398928
 30
0.0
 11
-20.25103919339703
 21
523.8790223398928
 31
0.0
  0
LINE
  5
7B12
330
18
100
AcDbEntity
  8
0
100
AcDbLine
 10
-24.82603919339704
 20
536.5790223398926
 30
0.0
 11
-24.27603919339704
 21
536.5790223398926
 31
0.0
  0
LINE
  5
7B13
330
18
100
AcDbEntity
  8
0
100
AcDbLine
 10
-24.82603919339704
 20
535.5790223398925
 30
0.0
 11
-24.82603919339704
 21
536.5790223398926
 31
0.0
  0
LINE
  5
7B14
330
18
100
AcDbEntity
  8
0
100
AcDbLine
 10
-24.27603919339704
 20
535.5790223398925
 30
0.0
 11
-24.82603919339704
 21
535.5790223398925
 31
0.0
  0
LINE
  5
7B15
330
18
100
AcDbEntity
  8
0
100
AcDbLine
 10
-24.27603919339704
 20
536.5790223398926
 30
0.0
 11
-24.27603919339704
 21
535.5790223398925
 31
0.0
  0
LINE
  5
7B16
330
18
100
AcDbEntity
  8
0
100
AcDbLine
 10
-24.82603919339704
 20
538.9790223398927
 30
0.0
 11
-24.27603919339704
 21
538.9790223398927
 31
0.0
  0
LINE
  5
7B17
330
18
100
AcDbEntity
  8
0
100
AcDbLine
 10
-24.82603919339704
 20
537.9790223398926
 30
0.0
 11
-24.82603919339704
 21
538.9790223398927
 31
0.0
  0
LINE
  5
7B18
330
18
100
AcDbEntity
  8
0
100
AcDbLine
 10
-24.27603919339704
 20
537.9790223398926
 30
0.0
 11
-24.82603919339704
 21
537.9790223398926
 31
0.0
  0
LINE
  5
7B19
330
18
100
AcDbEntity
  8
0
100
AcDbLine
 10
-24.27603919339704
 20
538.9790223398927
 30
0.0
 11
-24.27603919339704
 21
537.9790223398926
 31
0.0
  0
LINE
  5
7B1A
330
18
100
AcDbEntity
  8
0
100
AcDbLine
 10
-24.82603919339704
 20
530.9790223398927
 30
0.0
 11
-24.27603919339704
 21
530.9790223398927
 31
0.0
  0
LINE
  5
7B1B
330
18
100
AcDbEntity
  8
0
100
AcDbLine
 10
-24.82603919339704
 20
529.9790223398927
 30
0.0
 11
-24.82603919339704
 21
530.9790223398927
 31
0.0
  0
LINE
  5
7B1C
330
18
100
AcDbEntity
  8
0
100
AcDbLine
 10
-24.27603919339704
 20
529.9790223398927
 30
0.0
 11
-24.82603919339704
 21
529.9790223398927
 31
0.0
  0
LINE
  5
7B1D
330
18
100
AcDbEntity
  8
0
100
AcDbLine
 10
-24.27603919339704
 20
530.9790223398927
 30
0.0
 11
-24.27603919339704
 21
529.9790223398927
 31
0.0
  0
LINE
  5
7B1E
330
18
100
AcDbEntity
  8
0
100
AcDbLine
 10
-24.82603919339704
 20
533.3790223398925
 30
0.0
 11
-24.27603919339704
 21
533.3790223398925
 31
0.0
  0
LINE
  5
7B1F
330
18
100
AcDbEntity
  8
0
100
AcDbLine
 10
-24.82603919339704
 20
532.3790223398925
 30
0.0
 11
-24.82603919339704
 21
533.3790223398925
 31
0.0
  0
LINE
  5
7B20
330
18
100
AcDbEntity
  8
0
100
AcDbLine
 10
-24.27603919339704
 20
532.3790223398925
 30
0.0
 11
-24.82603919339704
 21
532.3790223398925
 31
0.0
  0
LINE
  5
7B21
330
18
100
AcDbEntity
  8
0
100
AcDbLine
 10
-24.27603919339704
 20
533.3790223398925
 30
0.0
 11
-24.27603919339704
 21
532.3790223398925
 31
0.0
  0
LINE
  5
7B22
330
18
100
AcDbEntity
  8
0
100
AcDbLine
 10
-24.82603919339704
 20
539.9790223398927
 30
0.0
 11
-24.82603919339704
 21
528.9790223398926
 31
0.0
  0
LINE
  5
7B23
330
18
100
AcDbEntity
  8
0
100
AcDbLine
 10
-20.25103919339703
 20
523.8790223398928
 30
0.0
 11
-20.25103919339703
 21
521.8040223398928
 31
0.0
  0
LINE
  5
7B24
330
18
100
AcDbEntity
  8
0
100
AcDbLine
 10
-21.82603919339703
 20
540.9790223398927
 30
0.0
 11
-21.82603919339703
 21
527.9790223398927
 31
0.0
  0
LINE
  5
7B25
330
18
100
AcDbEntity
  8
0
100
AcDbLine
 10
-15.82603919339703
 20
536.5790223398926
 30
0.0
 11
-15.27603919339703
 21
536.5790223398926
 31
0.0
  0
LINE
  5
7B26
330
18
100
AcDbEntity
  8
0
100
AcDbLine
 10
-15.82603919339703
 20
535.5790223398925
 30
0.0
 11
-15.82603919339703
 21
536.5790223398926
 31
0.0
  0
LINE
  5
7B27
330
18
100
AcDbEntity
  8
0
100
AcDbLine
 10
-15.27603919339703
 20
535.5790223398925
 30
0.0
 11
-15.82603919339703
 21
535.5790223398925
 31
0.0
  0
LINE
  5
7B28
330
18
100
AcDbEntity
  8
0
100
AcDbLine
 10
-15.27603919339703
 20
536.5790223398926
 30
0.0
 11
-15.27603919339703
 21
535.5790223398925
 31
0.0
  0
LINE
  5
7B29
330
18
100
AcDbEntity
  8
0
100
AcDbLine
 10
-15.82603919339703
 20
538.9790223398927
 30
0.0
 11
-15.27603919339703
 21
538.9790223398927
 31
0.0
  0
LINE
  5
7B2A
330
18
100
AcDbEntity
  8
0
100
AcDbLine
 10
-15.82603919339703
 20
537.9790223398926
 30
0.0
 11
-15.82603919339703
 21
538.9790223398927
 31
0.0
  0
LINE
  5
7B2B
330
18
100
AcDbEntity
  8
0
100
AcDbLine
 10
-15.27603919339703
 20
537.9790223398926
 30
0.0
 11
-15.82603919339703
 21
537.9790223398926
 31
0.0
  0
LINE
  5
7B2C
330
18
100
AcDbEntity
  8
0
100
AcDbLine
 10
-15.27603919339703
 20
538.9790223398927
 30
0.0
 11
-15.27603919339703
 21
537.9790223398926
 31
0.0
  0
LINE
  5
7B2D
330
18
100
AcDbEntity
  8
0
100
AcDbLine
 10
-15.82603919339703
 20
530.9790223398927
 30
0.0
 11
-15.27603919339703
 21
530.9790223398927
 31
0.0
  0
LINE
  5
7B2E
330
18
100
AcDbEntity
  8
0
100
AcDbLine
 10
-15.82603919339703
 20
529.9790223398927
 30
0.0
 11
-15.82603919339703
 21
530.9790223398927
 31
0.0
  0
LINE
  5
7B2F
330
18
100
AcDbEntity
  8
0
100
AcDbLine
 10
-15.27603919339703
 20
529.9790223398927
 30
0.0
 11
-15.82603919339703
 21
529.9790223398927
 31
0.0
  0
LINE
  5
7B30
330
18
100
AcDbEntity
  8
0
100
AcDbLine
 10
-15.27603919339703
 20
530.9790223398927
 30
0.0
 11
-15.27603919339703
 21
529.9790223398927
 31
0.0
  0
LINE
  5
7B31
330
18
100
AcDbEntity
  8
0
100
AcDbLine
 10
-15.82603919339703
 20
533.3790223398925
 30
0.0
 11
-15.27603919339703
 21
533.3790223398925
 31
0.0
  0
LINE
  5
7B32
330
18
100
AcDbEntity
  8
0
100
AcDbLine
 10
-15.82603919339703
 20
532.3790223398925
 30
0.0
 11
-15.82603919339703
 21
533.3790223398925
 31
0.0
  0
LINE
  5
7B33
330
18
100
AcDbEntity
  8
0
100
AcDbLine
 10
-15.27603919339703
 20
532.3790223398925
 30
0.0
 11
-15.82603919339703
 21
532.3790223398925
 31
0.0
  0
LINE
  5
7B34
330
18
100
AcDbEntity
  8
0
100
AcDbLine
 10
-15.27603919339703
 20
533.3790223398925
 30
0.0
 11
-15.27603919339703
 21
532.3790223398925
 31
0.0
  0
LINE
  5
7B35
330
18
100
AcDbEntity
  8
0
100
AcDbLine
 10
-17.82603919339703
 20
528.9790223398926
 30
0.0
 11
-17.82603919339703
 21
539.9790223398927
 31
0.0
  0
LINE
  5
7B36
330
18
100
AcDbEntity
  8
0
100
AcDbLine
 10
-15.82603919339703
 20
528.9790223398926
 30
0.0
 11
-17.82603919339703
 21
528.9790223398926
 31
0.0
  0
LINE
  5
7B37
330
18
100
AcDbEntity
  8
0
100
AcDbLine
 10
-15.82603919339703
 20
539.9790223398927
 30
0.0
 11
-15.82603919339703
 21
528.9790223398926
 31
0.0
  0
LINE
  5
7B38
330
18
100
AcDbEntity
  8
0
100
AcDbLine
 10
-17.82603919339703
 20
539.9790223398927
 30
0.0
 11
-15.82603919339703
 21
539.9790223398927
 31
0.0
  0
LINE
  5
7B39
330
18
100
AcDbEntity
  8
0
100
AcDbLine
 10
-18.12603919339703
 20
523.8790223398928
 30
0.0
 11
-18.12603919339703
 21
522.9040223398926
 31
0.0
  0
LINE
  5
7B3A
330
18
100
AcDbEntity
  8
0
100
AcDbLine
 10
-14.55103919339703
 20
522.9040223398926
 30
0.0
 11
-18.12603919339703
 21
522.9040223398926
 31
0.0
  0
LINE
  5
7B3B
330
18
100
AcDbEntity
  8
0
100
AcDbLine
 10
-14.55103919339703
 20
523.9040223398927
 30
0.0
 11
-14.55103919339703
 21
522.9290223398927
 31
0.0
  0
LINE
  5
7B3C
330
18
100
AcDbEntity
  8
0
100
AcDbLine
 10
-13.82603919339703
 20
541.4040223398926
 30
0.0
 11
-17.82603919339703
 21
541.4040223398926
 31
0.0
  0
LINE
  5
7B3D
330
18
100
AcDbEntity
  8
0
100
AcDbLine
 10
-13.82603919339703
 20
527.6290223398925
 30
0.0
 11
-17.82603919339703
 21
527.6290223398925
 31
0.0
  0
LINE
  5
7B3E
330
18
100
AcDbEntity
  8
0
100
AcDbLine
 10
-18.82603919339703
 20
540.9790223398927
 30
0.0
 11
-18.82603919339703
 21
527.9790223398927
 31
0.0
  0
LINE
  5
7B3F
330
18
100
AcDbEntity
  8
0
100
AcDbLine
 10
-18.12603919339703
 20
567.3790223398928
 30
0.0
 11
-18.12603919339703
 21
566.4040223398926
 31
0.0
  0
LINE
  5
7B40
330
18
100
AcDbEntity
  8
0
100
AcDbLine
 10
-14.55103919339703
 20
567.4040223398926
 30
0.0
 11
-14.55103919339703
 21
566.4290223398928
 31
0.0
  0
LINE
  5
7B41
330
18
100
AcDbEntity
  8
0
100
AcDbLine
 10
-20.25103919339703
 20
567.3790223398928
 30
0.0
 11
-20.25103919339703
 21
565.3040223398927
 31
0.0
  0
LINE
  5
7B42
330
18
100
AcDbEntity
  8
0
100
AcDbLine
 10
-18.12603919339703
 20
546.5040223398927
 30
0.0
 11
-20.25103919339703
 21
546.5040223398927
 31
0.0
  0
LINE
  5
7B43
330
18
100
AcDbEntity
  8
0
100
AcDbLine
 10
-20.25103919339703
 20
546.5040223398927
 30
0.0
 11
-20.25103919339703
 21
548.5790223398926
 31
0.0
  0
LINE
  5
7B44
330
18
100
AcDbEntity
  8
0
100
AcDbLine
 10
-14.90103919339704
 20
554.9790223398927
 30
0.0
 11
-14.90103919339704
 21
555.9540223398926
 31
0.0
  0
LINE
  5
7B45
330
18
100
AcDbEntity
  8
0
100
AcDbLine
 10
-15.25103919339703
 20
554.9790223398927
 30
0.0
 11
-14.90103919339704
 21
554.9790223398927
 31
0.0
  0
LINE
  5
7B46
330
18
100
AcDbEntity
  8
0
100
AcDbLine
 10
-15.25103919339703
 20
555.9540223398926
 30
0.0
 11
-15.25103919339703
 21
554.9790223398927
 31
0.0
  0
LINE
  5
7B47
330
18
100
AcDbEntity
  8
0
100
AcDbLine
 10
-14.90103919339704
 20
555.9540223398926
 30
0.0
 11
-15.25103919339703
 21
555.9540223398926
 31
0.0
  0
LINE
  5
7B48
330
18
100
AcDbEntity
  8
0
100
AcDbLine
 10
-14.90103919339704
 20
556.3290223398926
 30
0.0
 11
-14.90103919339704
 21
557.2790223398926
 31
0.0
  0
LINE
  5
7B49
330
18
100
AcDbEntity
  8
0
100
AcDbLine
 10
-15.25103919339703
 20
556.3290223398926
 30
0.0
 11
-14.90103919339704
 21
556.3290223398926
 31
0.0
  0
LINE
  5
7B4A
330
18
100
AcDbEntity
  8
0
100
AcDbLine
 10
-15.25103919339703
 20
557.2790223398926
 30
0.0
 11
-15.25103919339703
 21
556.3290223398926
 31
0.0
  0
LINE
  5
7B4B
330
18
100
AcDbEntity
  8
0
100
AcDbLine
 10
-14.90103919339704
 20
557.2790223398926
 30
0.0
 11
-15.25103919339703
 21
557.2790223398926
 31
0.0
  0
LINE
  5
7B4C
330
18
100
AcDbEntity
  8
0
100
AcDbLine
 10
-14.90103919339704
 20
557.5790223398926
 30
0.0
 11
-14.90103919339704
 21
558.5540223398927
 31
0.0
  0
LINE
  5
7B4D
330
18
100
AcDbEntity
  8
0
100
AcDbLine
 10
-15.25103919339703
 20
557.5790223398926
 30
0.0
 11
-14.90103919339704
 21
557.5790223398926
 31
0.0
  0
LINE
  5
7B4E
330
18
100
AcDbEntity
  8
0
100
AcDbLine
 10
-15.25103919339703
 20
558.5540223398927
 30
0.0
 11
-15.25103919339703
 21
557.5790223398926
 31
0.0
  0
LINE
  5
7B4F
330
18
100
AcDbEntity
  8
0
100
AcDbLine
 10
-14.90103919339704
 20
558.5540223398927
 30
0.0
 11
-15.25103919339703
 21
558.5540223398927
 31
0.0
  0
LINE
  5
7B50
330
18
100
AcDbEntity
  8
0
100
AcDbLine
 10
-14.90103919339704
 20
558.8040223398927
 30
0.0
 11
-14.90103919339704
 21
559.7790223398926
 31
0.0
  0
LINE
  5
7B51
330
18
100
AcDbEntity
  8
0
100
AcDbLine
 10
-15.25103919339703
 20
558.8040223398927
 30
0.0
 11
-14.90103919339704
 21
558.8040223398927
 31
0.0
  0
LINE
  5
7B52
330
18
100
AcDbEntity
  8
0
100
AcDbLine
 10
-15.25103919339703
 20
559.7790223398926
 30
0.0
 11
-15.25103919339703
 21
558.8040223398927
 31
0.0
  0
LINE
  5
7B53
330
18
100
AcDbEntity
  8
0
100
AcDbLine
 10
-14.90103919339704
 20
559.7790223398926
 30
0.0
 11
-15.25103919339703
 21
559.7790223398926
 31
0.0
  0
LINE
  5
7B54
330
18
100
AcDbEntity
  8
0
100
AcDbLine
 10
-14.90103919339704
 20
552.5290223398926
 30
0.0
 11
-14.90103919339704
 21
553.5040223398928
 31
0.0
  0
LINE
  5
7B55
330
18
100
AcDbEntity
  8
0
100
AcDbLine
 10
-15.25103919339703
 20
552.5290223398926
 30
0.0
 11
-14.90103919339704
 21
552.5290223398926
 31
0.0
  0
LINE
  5
7B56
330
18
100
AcDbEntity
  8
0
100
AcDbLine
 10
-15.25103919339703
 20
553.5040223398928
 30
0.0
 11
-15.25103919339703
 21
552.5290223398926
 31
0.0
  0
LINE
  5
7B57
330
18
100
AcDbEntity
  8
0
100
AcDbLine
 10
-14.90103919339704
 20
553.5040223398928
 30
0.0
 11
-15.25103919339703
 21
553.5040223398928
 31
0.0
  0
LINE
  5
7B58
330
18
100
AcDbEntity
  8
0
100
AcDbLine
 10
-14.90103919339704
 20
553.7040223398926
 30
0.0
 11
-14.90103919339704
 21
554.6790223398927
 31
0.0
  0
LINE
  5
7B59
330
18
100
AcDbEntity
  8
0
100
AcDbLine
 10
-15.25103919339703
 20
553.7040223398926
 30
0.0
 11
-14.90103919339704
 21
553.7040223398926
 31
0.0
  0
LINE
  5
7B5A
330
18
100
AcDbEntity
  8
0
100
AcDbLine
 10
-15.25103919339703
 20
554.6790223398927
 30
0.0
 11
-15.25103919339703
 21
553.7040223398926
 31
0.0
  0
LINE
  5
7B5B
330
18
100
AcDbEntity
  8
0
100
AcDbLine
 10
-14.90103919339704
 20
554.6790223398927
 30
0.0
 11
-15.25103919339703
 21
554.6790223398927
 31
0.0
  0
LINE
  5
7B5C
330
18
100
AcDbEntity
  8
0
100
AcDbLine
 10
-17.67603919339703
 20
554.9790223398927
 30
0.0
 11
-17.67603919339703
 21
555.9540223398926
 31
0.0
  0
LINE
  5
7B5D
330
18
100
AcDbEntity
  8
0
100
AcDbLine
 10
-18.02603919339704
 20
554.9790223398927
 30
0.0
 11
-17.67603919339703
 21
554.9790223398927
 31
0.0
  0
LINE
  5
7B5E
330
18
100
AcDbEntity
  8
0
100
AcDbLine
 10
-18.02603919339704
 20
555.9540223398926
 30
0.0
 11
-18.02603919339704
 21
554.9790223398927
 31
0.0
  0
LINE
  5
7B5F
330
18
100
AcDbEntity
  8
0
100
AcDbLine
 10
-17.67603919339703
 20
555.9540223398926
 30
0.0
 11
-18.02603919339704
 21
555.9540223398926
 31
0.0
  0
LINE
  5
7B60
330
18
100
AcDbEntity
  8
0
100
AcDbLine
 10
-17.67603919339703
 20
556.3290223398926
 30
0.0
 11
-17.67603919339703
 21
557.2790223398926
 31
0.0
  0
LINE
  5
7B61
330
18
100
AcDbEntity
  8
0
100
AcDbLine
 10
-18.02603919339704
 20
556.3290223398926
 30
0.0
 11
-17.67603919339703
 21
556.3290223398926
 31
0.0
  0
LINE
  5
7B62
330
18
100
AcDbEntity
  8
0
100
AcDbLine
 10
-18.02603919339704
 20
557.2790223398926
 30
0.0
 11
-18.02603919339704
 21
556.3290223398926
 31
0.0
  0
LINE
  5
7B63
330
18
100
AcDbEntity
  8
0
100
AcDbLine
 10
-17.67603919339703
 20
557.2790223398926
 30
0.0
 11
-18.02603919339704
 21
557.2790223398926
 31
0.0
  0
LINE
  5
7B64
330
18
100
AcDbEntity
  8
0
100
AcDbLine
 10
-17.67603919339703
 20
557.5790223398926
 30
0.0
 11
-17.67603919339703
 21
558.5540223398927
 31
0.0
  0
LINE
  5
7B65
330
18
100
AcDbEntity
  8
0
100
AcDbLine
 10
-18.02603919339704
 20
557.5790223398926
 30
0.0
 11
-17.67603919339703
 21
557.5790223398926
 31
0.0
  0
LINE
  5
7B66
330
18
100
AcDbEntity
  8
0
100
AcDbLine
 10
-18.02603919339704
 20
558.5540223398927
 30
0.0
 11
-18.02603919339704
 21
557.5790223398926
 31
0.0
  0
LINE
  5
7B67
330
18
100
AcDbEntity
  8
0
100
AcDbLine
 10
-17.67603919339703
 20
558.5540223398927
 30
0.0
 11
-18.02603919339704
 21
558.5540223398927
 31
0.0
  0
LINE
  5
7B68
330
18
100
AcDbEntity
  8
0
100
AcDbLine
 10
-17.67603919339703
 20
558.8040223398927
 30
0.0
 11
-17.67603919339703
 21
559.7790223398926
 31
0.0
  0
LINE
  5
7B69
330
18
100
AcDbEntity
  8
0
100
AcDbLine
 10
-18.02603919339704
 20
558.8040223398927
 30
0.0
 11
-17.67603919339703
 21
558.8040223398927
 31
0.0
  0
LINE
  5
7B6A
330
18
100
AcDbEntity
  8
0
100
AcDbLine
 10
-18.02603919339704
 20
559.7790223398926
 30
0.0
 11
-18.02603919339704
 21
558.8040223398927
 31
0.0
  0
LINE
  5
7B6B
330
18
100
AcDbEntity
  8
0
100
AcDbLine
 10
-17.67603919339703
 20
559.7790223398926
 30
0.0
 11
-18.02603919339704
 21
559.7790223398926
 31
0.0
  0
LINE
  5
7B6C
330
18
100
AcDbEntity
  8
0
100
AcDbLine
 10
-17.67603919339703
 20
552.5290223398926
 30
0.0
 11
-17.67603919339703
 21
553.5040223398928
 31
0.0
  0
LINE
  5
7B6D
330
18
100
AcDbEntity
  8
0
100
AcDbLine
 10
-18.02603919339704
 20
552.5290223398926
 30
0.0
 11
-17.67603919339703
 21
552.5290223398926
 31
0.0
  0
LINE
  5
7B6E
330
18
100
AcDbEntity
  8
0
100
AcDbLine
 10
-18.02603919339704
 20
553.5040223398928
 30
0.0
 11
-18.02603919339704
 21
552.5290223398926
 31
0.0
  0
LINE
  5
7B6F
330
18
100
AcDbEntity
  8
0
100
AcDbLine
 10
-17.67603919339703
 20
553.5040223398928
 30
0.0
 11
-18.02603919339704
 21
553.5040223398928
 31
0.0
  0
LINE
  5
7B70
330
18
100
AcDbEntity
  8
0
100
AcDbLine
 10
-17.67603919339703
 20
553.7040223398926
 30
0.0
 11
-17.67603919339703
 21
554.6790223398927
 31
0.0
  0
LINE
  5
7B71
330
18
100
AcDbEntity
  8
0
100
AcDbLine
 10
-18.02603919339704
 20
553.7040223398926
 30
0.0
 11
-17.67603919339703
 21
553.7040223398926
 31
0.0
  0
LINE
  5
7B72
330
18
100
AcDbEntity
  8
0
100
AcDbLine
 10
-18.02603919339704
 20
554.6790223398927
 30
0.0
 11
-18.02603919339704
 21
553.7040223398926
 31
0.0
  0
LINE
  5
7B73
330
18
100
AcDbEntity
  8
0
100
AcDbLine
 10
-17.67603919339703
 20
554.6790223398927
 30
0.0
 11
-18.02603919339704
 21
554.6790223398927
 31
0.0
  0
LINE
  5
7B74
330
18
100
AcDbEntity
  8
0
100
AcDbLine
 10
-17.67603919339703
 20
560.0540223398927
 30
0.0
 11
-17.67603919339703
 21
561.0540223398927
 31
0.0
  0
LINE
  5
7B75
330
18
100
AcDbEntity
  8
0
100
AcDbLine
 10
-18.02603919339704
 20
560.0540223398927
 30
0.0
 11
-17.67603919339703
 21
560.0540223398927
 31
0.0
  0
LINE
  5
7B76
330
18
100
AcDbEntity
  8
0
100
AcDbLine
 10
-18.02603919339704
 20
561.0540223398927
 30
0.0
 11
-18.02603919339704
 21
560.0540223398927
 31
0.0
  0
LINE
  5
7B77
330
18
100
AcDbEntity
  8
0
100
AcDbLine
 10
-17.67603919339703
 20
561.0540223398927
 30
0.0
 11
-18.02603919339704
 21
561.0540223398927
 31
0.0
  0
LINE
  5
7B78
330
18
100
AcDbEntity
  8
0
100
AcDbLine
 10
-14.90103919339704
 20
560.0540223398927
 30
0.0
 11
-14.90103919339704
 21
561.0540223398927
 31
0.0
  0
LINE
  5
7B79
330
18
100
AcDbEntity
  8
0
100
AcDbLine
 10
-15.25103919339703
 20
560.0540223398927
 30
0.0
 11
-14.90103919339704
 21
560.0540223398927
 31
0.0
  0
LINE
  5
7B7A
330
18
100
AcDbEntity
  8
0
100
AcDbLine
 10
-15.25103919339703
 20
561.0540223398927
 30
0.0
 11
-15.25103919339703
 21
560.0540223398927
 31
0.0
  0
LINE
  5
7B7B
330
18
100
AcDbEntity
  8
0
100
AcDbLine
 10
-14.90103919339704
 20
561.0540223398927
 30
0.0
 11
-15.25103919339703
 21
561.0540223398927
 31
0.0
  0
LINE
  5
7B7C
330
18
100
AcDbEntity
  8
0
100
AcDbLine
 10
-19.50103919339703
 20
562.5040223398928
 30
0.0
 11
-19.50103919339703
 21
551.1540223398927
 31
0.0
  0
LINE
  5
7B7D
330
18
100
AcDbEntity
  8
0
100
AcDbLine
 10
-18.00103919339703
 20
550.0040223398928
 30
0.0
 11
-14.30103919339703
 21
550.9790223398927
 31
0.0
  0
LINE
  5
7B7E
330
18
100
AcDbEntity
  8
0
100
AcDbLine
 10
-13.37603919339703
 20
552.2290223398926
 30
0.0
 11
-13.37603919339703
 21
561.5790223398926
 31
0.0
  0
LINE
  5
7B7F
330
18
100
AcDbEntity
  8
0
100
AcDbLine
 10
-14.30103919339703
 20
562.7540223398928
 30
0.0
 11
-18.00103919339703
 21
563.6790223398927
 31
0.0
  0
LWPOLYLINE
  5
7B80
330
18
100
AcDbEntity
  8
0
100
AcDbPolyline
 90
        4
 70
     1
 43
0.0
 10
-14.55103919339703
 20
561.9040223398926
 10
-18.25103919339703
 20
561.9040223398926
 10
-18.25103919339703
 20
551.6790223398927
 10
-14.55103919339703
 20
551.6790223398927
  0
LINE
  5
7B81
330
18
100
AcDbEntity
  8
0
100
AcDbLine
 10
-14.55103919339703
 20
566.4040223398926
 30
0.0
 11
-18.12603919339703
 21
566.4040223398926
 31
0.0
  0
LINE
  5
7B82
330
18
100
AcDbEntity
  8
0
100
AcDbLine
 10
-18.12603919339703
 20
546.5040223398927
 30
0.0
 11
-18.12603919339703
 21
547.4790223398927
 31
0.0
  0
LINE
  5
7B83
330
18
100
AcDbEntity
  8
0
100
AcDbLine
 10
-14.55103919339703
 20
547.4790223398927
 30
0.0
 11
-18.12603919339703
 21
547.4790223398927
 31
0.0
  0
LINE
  5
7B84
330
18
100
AcDbEntity
  8
0
100
AcDbLine
 10
-14.55103919339703
 20
546.4790223398927
 30
0.0
 11
-14.55103919339703
 21
547.4540223398926
 31
0.0
  0
LINE
  5
7B85
330
18
100
AcDbEntity
  8
0
100
AcDbLine
 10
-18.12603919339703
 20
567.3790223398928
 30
0.0
 11
-20.25103919339703
 21
567.3790223398928
 31
0.0
  0
LINE
  5
7B86
330
18
100
AcDbEntity
  8
0
100
AcDbLine
 10
-13.77603919339704
 20
581.2040223398926
 30
0.0
 11
-13.35103919339704
 21
581.6040223398927
 31
0.0
  0
LINE
  5
7B87
330
18
100
AcDbEntity
  8
0
100
AcDbLine
 10
-14.17603919339703
 20
581.6040223398927
 30
0.0
 11
-13.77603919339704
 21
581.2040223398926
 31
0.0
  0
LINE
  5
7B88
330
18
100
AcDbEntity
  8
0
100
AcDbLine
 10
-13.77603919339704
 20
584.4040223398926
 30
0.0
 11
-14.17603919339703
 21
581.6040223398927
 31
0.0
  0
LINE
  5
7B89
330
18
100
AcDbEntity
  8
0
100
AcDbLine
 10
-13.35103919339704
 20
584.8040223398927
 30
0.0
 11
-13.77603919339704
 21
584.4040223398926
 31
0.0
  0
LINE
  5
7B8A
330
18
100
AcDbEntity
  8
0
100
AcDbLine
 10
-13.47603919339704
 20
580.6540223398926
 30
0.0
 11
-13.92603919339703
 21
581.0790223398925
 31
0.0
  0
LINE
  5
7B8B
330
18
100
AcDbEntity
  8
0
100
AcDbLine
 10
-13.92603919339703
 20
577.8790223398927
 30
0.0
 11
-13.47603919339704
 21
580.6540223398926
 31
0.0
  0
LINE
  5
7B8C
330
18
100
AcDbEntity
  8
0
100
AcDbLine
 10
-14.32603919339703
 20
577.4790223398927
 30
0.0
 11
-13.92603919339703
 21
577.8790223398927
 31
0.0
  0
LINE
  5
7B8D
330
18
100
AcDbEntity
  8
0
100
AcDbLine
 10
-14.75103919339703
 20
577.8790223398927
 30
0.0
 11
-14.32603919339703
 21
577.4790223398927
 31
0.0
  0
LINE
  5
7B8E
330
18
100
AcDbEntity
  8
0
100
AcDbLine
 10
-14.32603919339703
 20
580.6540223398926
 30
0.0
 11
-14.75103919339703
 21
577.8790223398927
 31
0.0
  0
LINE
  5
7B8F
330
18
100
AcDbEntity
  8
0
100
AcDbLine
 10
-13.92603919339703
 20
581.0790223398925
 30
0.0
 11
-14.32603919339703
 21
580.6540223398926
 31
0.0
  0
LINE
  5
7B90
330
18
100
AcDbEntity
  8
0
100
AcDbLine
 10
-16.57603919339703
 20
584.4040223398926
 30
0.0
 11
-17.02603919339703
 21
584.8040223398927
 31
0.0
  0
LINE
  5
7B91
330
18
100
AcDbEntity
  8
0
100
AcDbLine
 10
-17.02603919339703
 20
581.6040223398927
 30
0.0
 11
-16.57603919339703
 21
584.4040223398926
 31
0.0
  0
LINE
  5
7B92
330
18
100
AcDbEntity
  8
0
100
AcDbLine
 10
-17.42603919339703
 20
581.2040223398926
 30
0.0
 11
-17.02603919339703
 21
581.6040223398927
 31
0.0
  0
LINE
  5
7B93
330
18
100
AcDbEntity
  8
0
100
AcDbLine
 10
-17.85103919339704
 20
581.6040223398927
 30
0.0
 11
-17.42603919339703
 21
581.2040223398926
 31
0.0
  0
LINE
  5
7B94
330
18
100
AcDbEntity
  8
0
100
AcDbLine
 10
-17.42603919339703
 20
584.4040223398926
 30
0.0
 11
-17.85103919339704
 21
581.6040223398927
 31
0.0
  0
LINE
  5
7B95
330
18
100
AcDbEntity
  8
0
100
AcDbLine
 10
-17.02603919339703
 20
584.8040223398927
 30
0.0
 11
-17.42603919339703
 21
584.4040223398926
 31
0.0
  0
LINE
  5
7B96
330
18
100
AcDbEntity
  8
0
100
AcDbLine
 10
-17.15103919339703
 20
580.6540223398926
 30
0.0
 11
-17.57603919339703
 21
581.0790223398925
 31
0.0
  0
LINE
  5
7B97
330
18
100
AcDbEntity
  8
0
100
AcDbLine
 10
-17.57603919339703
 20
577.8790223398927
 30
0.0
 11
-17.15103919339703
 21
580.6540223398926
 31
0.0
  0
LINE
  5
7B98
330
18
100
AcDbEntity
  8
0
100
AcDbLine
 10
-18.00103919339703
 20
577.4790223398927
 30
0.0
 11
-17.57603919339703
 21
577.8790223398927
 31
0.0
  0
LINE
  5
7B99
330
18
100
AcDbEntity
  8
0
100
AcDbLine
 10
-18.40103919339703
 20
577.8790223398927
 30
0.0
 11
-18.00103919339703
 21
577.4790223398927
 31
0.0
  0
LINE
  5
7B9A
330
18
100
AcDbEntity
  8
0
100
AcDbLine
 10
-18.00103919339703
 20
580.6540223398926
 30
0.0
 11
-18.40103919339703
 21
577.8790223398927
 31
0.0
  0
LINE
  5
7B9B
330
18
100
AcDbEntity
  8
0
100
AcDbLine
 10
-17.57603919339703
 20
581.0790223398925
 30
0.0
 11
-18.00103919339703
 21
580.6540223398926
 31
0.0
  0
LINE
  5
7B9C
330
18
100
AcDbEntity
  8
0
100
AcDbLine
 10
-15.17603919339703
 20
577.9040223398927
 30
0.0
 11
-17.27603919339704
 21
577.9040223398927
 31
0.0
  0
LINE
  5
7B9D
330
18
100
AcDbEntity
  8
0
100
AcDbLine
 10
-14.75103919339703
 20
577.4790223398927
 30
0.0
 11
-15.17603919339703
 21
577.9040223398927
 31
0.0
  0
LINE
  5
7B9E
330
18
100
AcDbEntity
  8
0
100
AcDbLine
 10
-15.17603919339703
 20
577.0790223398925
 30
0.0
 11
-14.75103919339703
 21
577.4790223398927
 31
0.0
  0
LINE
  5
7B9F
330
18
100
AcDbEntity
  8
0
100
AcDbLine
 10
-17.27603919339704
 20
577.0790223398925
 30
0.0
 11
-15.17603919339703
 21
577.0790223398925
 31
0.0
  0
LINE
  5
7BA0
330
18
100
AcDbEntity
  8
0
100
AcDbLine
 10
-17.72603919339704
 20
577.4790223398927
 30
0.0
 11
-17.27603919339704
 21
577.0790223398925
 31
0.0
  0
LINE
  5
7BA1
330
18
100
AcDbEntity
  8
0
100
AcDbLine
 10
-17.27603919339704
 20
577.9040223398927
 30
0.0
 11
-17.72603919339704
 21
577.4790223398927
 31
0.0
  0
LINE
  5
7BA2
330
18
100
AcDbEntity
  8
0
100
AcDbLine
 10
-14.07603919339703
 20
585.1790223398928
 30
0.0
 11
-16.20103919339703
 21
585.1790223398928
 31
0.0
  0
LINE
  5
7BA3
330
18
100
AcDbEntity
  8
0
100
AcDbLine
 10
-13.67603919339703
 20
584.8040223398927
 30
0.0
 11
-14.07603919339703
 21
585.1790223398928
 31
0.0
  0
LINE
  5
7BA4
330
18
100
AcDbEntity
  8
0
100
AcDbLine
 10
-14.07603919339703
 20
584.3790223398928
 30
0.0
 11
-13.67603919339703
 21
584.8040223398927
 31
0.0
  0
LINE
  5
7BA5
330
18
100
AcDbEntity
  8
0
100
AcDbLine
 10
-16.20103919339703
 20
584.3790223398928
 30
0.0
 11
-14.07603919339703
 21
584.3790223398928
 31
0.0
  0
LINE
  5
7BA6
330
18
100
AcDbEntity
  8
0
100
AcDbLine
 10
-16.62603919339703
 20
584.8040223398927
 30
0.0
 11
-16.20103919339703
 21
584.3790223398928
 31
0.0
  0
LINE
  5
7BA7
330
18
100
AcDbEntity
  8
0
100
AcDbLine
 10
-16.20103919339703
 20
585.1790223398928
 30
0.0
 11
-16.62603919339703
 21
584.8040223398927
 31
0.0
  0
LINE
  5
7BA8
330
18
100
AcDbEntity
  8
0
100
AcDbLine
 10
-14.62603919339703
 20
581.6040223398927
 30
0.0
 11
-16.72603919339704
 21
581.6040223398927
 31
0.0
  0
LINE
  5
7BA9
330
18
100
AcDbEntity
  8
0
100
AcDbLine
 10
-14.22603919339704
 20
581.2040223398926
 30
0.0
 11
-14.62603919339703
 21
581.6040223398927
 31
0.0
  0
LINE
  5
7BAA
330
18
100
AcDbEntity
  8
0
100
AcDbLine
 10
-14.62603919339703
 20
580.8040223398927
 30
0.0
 11
-14.22603919339704
 21
581.2040223398926
 31
0.0
  0
LINE
  5
7BAB
330
18
100
AcDbEntity
  8
0
100
AcDbLine
 10
-16.72603919339704
 20
580.8040223398927
 30
0.0
 11
-14.62603919339703
 21
580.8040223398927
 31
0.0
  0
LINE
  5
7BAC
330
18
100
AcDbEntity
  8
0
100
AcDbLine
 10
-17.17603919339703
 20
581.2040223398926
 30
0.0
 11
-16.72603919339704
 21
580.8040223398927
 31
0.0
  0
LINE
  5
7BAD
330
18
100
AcDbEntity
  8
0
100
AcDbLine
 10
-16.72603919339704
 20
581.6040223398927
 30
0.0
 11
-17.17603919339703
 21
581.2040223398926
 31
0.0
  0
LINE
  5
7BAE
330
18
100
AcDbEntity
  8
0
100
AcDbLine
 10
-19.35103919339703
 20
574.4790223398926
 30
0.0
 11
-19.35103919339703
 21
587.4790223398926
 31
0.0
  0
LINE
  5
7BAF
330
18
100
AcDbEntity
  8
0
100
AcDbLine
 10
-11.82603919339703
 20
494.1540223398925
 30
0.0
 11
-11.82603919339703
 21
527.4790223398927
 31
0.0
  0
LINE
  5
7BB0
330
18
100
AcDbEntity
  8
0
100
AcDbLine
 10
-12.62603919339703
 20
498.3290223398925
 30
0.0
 11
-12.62603919339703
 21
500.4040223398925
 31
0.0
  0
LINE
  5
7BB2
330
18
100
AcDbEntity
  8
0
100
AcDbLine
 10
-11.82603919339703
 20
450.1790223398927
 30
0.0
 11
-11.82603919339703
 21
493.4790223398927
 31
0.0
  0
LINE
  5
7BB3
330
18
100
AcDbEntity
  8
0
100
AcDbLine
 10
-12.62603919339703
 20
454.4540223398927
 30
0.0
 11
-12.62603919339703
 21
456.5290223398926
 31
0.0
  0
LINE
  5
7BB4
330
18
100
AcDbEntity
  8
0
100
AcDbLine
 10
-12.62603919339703
 20
489.8790223398927
 30
0.0
 11
-12.62603919339703
 21
487.8040223398927
 31
0.0
  0
LINE
  5
7BB5
330
18
100
AcDbEntity
  8
0
100
AcDbLine
 10
-11.82603919339703
 20
542.3040223398927
 30
0.0
 11
-11.82603919339703
 21
570.9790223398926
 31
0.0
  0
LINE
  5
7BB6
330
18
100
AcDbEntity
  8
0
100
AcDbLine
 10
-12.82603919339703
 20
540.9790223398927
 30
0.0
 11
-12.82603919339703
 21
527.9790223398927
 31
0.0
  0
LINE
  5
7BB7
330
18
100
AcDbEntity
  8
0
100
AcDbLine
 10
-12.62603919339703
 20
523.8790223398928
 30
0.0
 11
-12.62603919339703
 21
521.8040223398928
 31
0.0
  0
LINE
  5
7BB8
330
18
100
AcDbEntity
  8
0
100
AcDbLine
 10
-12.42603919339703
 20
539.9790223398927
 30
0.0
 11
-12.42603919339703
 21
535.9790223398927
 31
0.0
  0
LINE
  5
7BB9
330
18
100
AcDbEntity
  8
0
100
AcDbLine
 10
-12.42603919339703
 20
528.9790223398926
 30
0.0
 11
-12.42603919339703
 21
532.9790223398926
 31
0.0
  0
LINE
  5
7BBA
330
18
100
AcDbEntity
  8
0
100
AcDbLine
 10
-12.62603919339703
 20
567.3790223398928
 30
0.0
 11
-12.62603919339703
 21
565.3040223398927
 31
0.0
  0
LINE
  5
7BBB
330
18
100
AcDbEntity
  8
0
100
AcDbLine
 10
-12.62603919339703
 20
546.5040223398927
 30
0.0
 11
-12.62603919339703
 21
548.5790223398926
 31
0.0
  0
LINE
  5
7BBC
330
18
100
AcDbEntity
  8
0
100
AcDbLine
 10
-11.82603919339703
 20
587.4790223398926
 30
0.0
 11
-11.82603919339703
 21
574.4790223398926
 31
0.0
  0
TEXT
  5
7BBD
330
18
100
AcDbEntity
  8
0
100
AcDbText
 10
-25.3402397670317
 20
590.9887124826902
 30
0.0
 40
2.0
  1
ＳＴＡＴＵＳ
  7
MSｺﾞｼｯｸ
100
AcDbText
  0
TEXT
  5
7BBE
330
18
100
AcDbEntity
  8
0
100
AcDbText
 10
-35.86645557254226
 20
534.5382380430717
 30
0.0
 40
2.0
  1
Ｊ２
  7
MSｺﾞｼｯｸ
100
AcDbText
  0
TEXT
  5
7BBF
330
18
100
AcDbEntity
  8
0
100
AcDbText
 10
-31.34813092029267
 20
556.80289688289
 30
0.0
 40
2.0
  1
Ｊ１
  7
MSｺﾞｼｯｸ
100
AcDbText
  0
TEXT
  5
7BC1
330
18
100
AcDbEntity
  8
0
100
AcDbText
 10
-57.62401887757019
 20
588.4049549315789
 30
0.0
 40
2.5
  1
０Ｖ
  7
MSｺﾞｼｯｸ
100
AcDbText
  0
TEXT
  5
7BC2
330
18
100
AcDbEntity
  8
0
100
AcDbText
 10
-48.73825738146968
 20
607.5723130931925
 30
0.0
 40
3.0
  1
ＴＢ１
  7
MSｺﾞｼｯｸ
100
AcDbText
  0
TEXT
  5
7BE5
330
18
100
AcDbEntity
  8
0
100
AcDbText
 10
-60.30421554864929
 20
601.5591096965545
 30
0.0
 40
2.5
  1
２４Ｖ
  7
MSｺﾞｼｯｸ
100
AcDbText
  0
LINE
  5
7BE6
330
18
100
AcDbEntity
  8
0
100
AcDbLine
 10
-41.32603919339698
 20
502.7290223398927
 30
0.0
 11
-41.32603919339698
 21
499.7290223398927
 31
0.0
  0
LINE
  5
7BE7
330
18
100
AcDbEntity
  8
0
100
AcDbLine
 10
-39.32603919339697
 20
503.2290223398927
 30
0.0
 11
-39.32603919339709
 21
499.2290223398928
 31
0.0
  0
LINE
  5
7BE8
330
18
100
AcDbEntity
  8
0
100
AcDbLine
 10
-44.32603919339697
 20
502.7290223398928
 30
0.0
 11
-44.32603919339697
 21
499.7290223398927
 31
0.0
  0
LINE
  5
7BE9
330
18
100
AcDbEntity
  8
0
100
AcDbLine
 10
-45.32603919339698
 20
503.2290223398928
 30
0.0
 11
-45.32603919339698
 21
499.2290223398927
 31
0.0
  0
LINE
  5
7BEA
330
18
100
AcDbEntity
  8
0
100
AcDbLine
 10
-33.12603919339704
 20
518.9790223398928
 30
0.0
 11
-33.12603919339704
 21
460.9790223398928
 31
0.0
  0
LINE
  5
7BEB
330
18
100
AcDbEntity
  8
0
100
AcDbLine
 10
-32.12603919339704
 20
518.9790223398928
 30
0.0
 11
-32.12603919339704
 21
460.9790223398928
 31
0.0
  0
LINE
  5
7BEC
330
18
100
AcDbEntity
  8
0
100
AcDbLine
 10
-47.12603919339705
 20
518.9790223398927
 30
0.0
 11
-47.12603919339705
 21
460.9790223398927
 31
0.0
  0
LINE
  5
7BED
330
18
100
AcDbEntity
  8
0
100
AcDbLine
 10
-39.12603919339705
 20
518.9790223398927
 30
0.0
 11
-39.12603919339705
 21
460.9790223398927
 31
0.0
  0
MTEXT
  5
7BEF
330
18
100
AcDbEntity
  8
0
100
AcDbMText
 10
-60.97088661385902
 20
518.0037844901861
 30
0.0
 40
4.45
 41
0.0
 71
     1
 72
     5
  1
Ｒ\PＳ\PＴ\PＢ１\PＢ２\PＵ\PＶ\PＷ
  7
MSｺﾞｼｯｸ
 73
     1
 44
1.0
  0
LINE
  5
7BF0
330
18
100
AcDbEntity
  8
0
100
AcDbLine
 10
-41.32603919339698
 20
499.7290223398927
 30
0.0
 11
-39.32603919339709
 21
499.2290223398928
 31
0.0
  0
LINE
  5
7BF1
330
18
100
AcDbEntity
  8
0
100
AcDbLine
 10
-45.32603919339698
 20
499.2290223398927
 30
0.0
 11
-39.32603919339709
 21
499.2290223398928
 31
0.0
  0
LINE
  5
7BF2
330
18
100
AcDbEntity
  8
0
100
AcDbLine
 10
-41.32603919339698
 20
480.2290223398927
 30
0.0
 11
-39.32603919339697
 21
480.7290223398926
 31
0.0
  0
LINE
  5
7BF3
330
18
100
AcDbEntity
  8
0
100
AcDbLine
 10
-41.32603919339698
 20
484.7290223398927
 30
0.0
 11
-39.32603919339709
 21
484.2290223398928
 31
0.0
  0
LINE
  5
7BF4
330
18
100
AcDbEntity
  8
0
100
AcDbLine
 10
-41.32603919339698
 20
472.7290223398926
 30
0.0
 11
-39.32603919339697
 21
473.2290223398926
 31
0.0
  0
LINE
  5
7BF5
330
18
100
AcDbEntity
  8
0
100
AcDbLine
 10
-41.32603919339698
 20
477.2290223398926
 30
0.0
 11
-39.32603919339709
 21
476.7290223398928
 31
0.0
  0
LINE
  5
7BF6
330
18
100
AcDbEntity
  8
0
100
AcDbLine
 10
-41.32603919339698
 20
495.2290223398927
 30
0.0
 11
-39.32603919339697
 21
495.7290223398927
 31
0.0
  0
LINE
  5
7BF7
330
18
100
AcDbEntity
  8
0
100
AcDbLine
 10
-41.32603919339698
 20
492.2290223398927
 30
0.0
 11
-39.32603919339709
 21
491.7290223398928
 31
0.0
  0
LINE
  5
7BF8
330
18
100
AcDbEntity
  8
0
100
AcDbLine
 10
-41.32603919339698
 20
487.7290223398927
 30
0.0
 11
-39.32603919339697
 21
488.2290223398927
 31
0.0
  0
LINE
  5
7BF9
330
18
100
AcDbEntity
  8
0
100
AcDbLine
 10
-45.32603919339698
 20
480.7290223398928
 30
0.0
 11
-39.32603919339697
 21
480.7290223398926
 31
0.0
  0
LINE
  5
7BFA
330
18
100
AcDbEntity
  8
0
100
AcDbLine
 10
-45.32603919339698
 20
495.7290223398928
 30
0.0
 11
-39.32603919339697
 21
495.7290223398927
 31
0.0
  0
LINE
  5
7BFB
330
18
100
AcDbEntity
  8
0
100
AcDbLine
 10
-45.32603919339698
 20
491.7290223398927
 30
0.0
 11
-39.32603919339709
 21
491.7290223398928
 31
0.0
  0
LINE
  5
7BFC
330
18
100
AcDbEntity
  8
0
100
AcDbLine
 10
-45.32603919339698
 20
484.2290223398927
 30
0.0
 11
-39.32603919339709
 21
484.2290223398928
 31
0.0
  0
LINE
  5
7BFD
330
18
100
AcDbEntity
  8
0
100
AcDbLine
 10
-45.32603919339698
 20
488.2290223398928
 30
0.0
 11
-39.32603919339697
 21
488.2290223398927
 31
0.0
  0
LINE
  5
7BFE
330
18
100
AcDbEntity
  8
0
100
AcDbLine
 10
-45.32603919339698
 20
473.2290223398928
 30
0.0
 11
-39.32603919339697
 21
473.2290223398926
 31
0.0
  0
LINE
  5
7BFF
330
18
100
AcDbEntity
  8
0
100
AcDbLine
 10
-45.32603919339698
 20
476.7290223398926
 30
0.0
 11
-39.32603919339709
 21
476.7290223398928
 31
0.0
  0
LINE
  5
7C00
330
18
100
AcDbEntity
  8
0
100
AcDbLine
 10
-41.32603919339709
 20
465.2290223398927
 30
0.0
 11
-39.32603919339709
 21
465.7290223398927
 31
0.0
  0
LINE
  5
7C01
330
18
100
AcDbEntity
  8
0
100
AcDbLine
 10
-41.32603919339709
 20
462.2290223398927
 30
0.0
 11
-39.32603919339709
 21
461.7290223398928
 31
0.0
  0
LINE
  5
7C02
330
18
100
AcDbEntity
  8
0
100
AcDbLine
 10
-45.32603919339709
 20
465.7290223398928
 30
0.0
 11
-39.32603919339709
 21
465.7290223398927
 31
0.0
  0
LINE
  5
7C03
330
18
100
AcDbEntity
  8
0
100
AcDbLine
 10
-45.32603919339709
 20
461.7290223398927
 30
0.0
 11
-39.32603919339709
 21
461.7290223398928
 31
0.0
  0
LINE
  5
7C04
330
18
100
AcDbEntity
  8
0
100
AcDbLine
 10
-41.32603919339698
 20
469.7290223398927
 30
0.0
 11
-39.32603919339709
 21
469.2290223398928
 31
0.0
  0
LINE
  5
7C05
330
18
100
AcDbEntity
  8
0
100
AcDbLine
 10
-45.32603919339709
 20
469.2290223398926
 30
0.0
 11
-39.32603919339709
 21
469.2290223398928
 31
0.0
  0
LINE
  5
7C07
330
18
100
AcDbEntity
  8
0
100
AcDbLine
 10
-47.12603919339705
 20
460.9790223398927
 30
0.0
 11
-32.12603919339704
 21
460.9790223398928
 31
0.0
  0
LINE
  5
7C08
330
18
100
AcDbEntity
  8
0
100
AcDbLine
 10
-41.32603919339698
 20
480.2290223398927
 30
0.0
 11
-41.32603919339698
 21
477.2290223398926
 31
0.0
  0
LINE
  5
7C09
330
18
100
AcDbEntity
  8
0
100
AcDbLine
 10
-45.32603919339698
 20
480.7290223398928
 30
0.0
 11
-45.32603919339698
 21
476.7290223398926
 31
0.0
  0
LINE
  5
7C0A
330
18
100
AcDbEntity
  8
0
100
AcDbLine
 10
-44.32603919339697
 20
480.2290223398927
 30
0.0
 11
-44.32603919339697
 21
477.2290223398926
 31
0.0
  0
LINE
  5
7C0B
330
18
100
AcDbEntity
  8
0
100
AcDbLine
 10
-44.32603919339697
 20
472.7290223398928
 30
0.0
 11
-45.32603919339698
 21
473.2290223398928
 31
0.0
  0
LINE
  5
7C0C
330
18
100
AcDbEntity
  8
0
100
AcDbLine
 10
-45.32603919339698
 20
476.7290223398926
 30
0.0
 11
-44.32603919339697
 21
477.2290223398926
 31
0.0
  0
LINE
  5
7C0D
330
18
100
AcDbEntity
  8
0
100
AcDbLine
 10
-44.32603919339697
 20
472.7290223398928
 30
0.0
 11
-41.32603919339698
 21
472.7290223398926
 31
0.0
  0
LINE
  5
7C0E
330
18
100
AcDbEntity
  8
0
100
AcDbLine
 10
-44.32603919339697
 20
477.2290223398926
 30
0.0
 11
-41.32603919339698
 21
477.2290223398926
 31
0.0
  0
LINE
  5
7C0F
330
18
100
AcDbEntity
  8
0
100
AcDbLine
 10
-41.32603919339709
 20
465.2290223398927
 30
0.0
 11
-41.32603919339709
 21
462.2290223398927
 31
0.0
  0
LINE
  5
7C10
330
18
100
AcDbEntity
  8
0
100
AcDbLine
 10
-44.32603919339709
 20
465.2290223398928
 30
0.0
 11
-44.32603919339709
 21
462.2290223398927
 31
0.0
  0
LINE
  5
7C11
330
18
100
AcDbEntity
  8
0
100
AcDbLine
 10
-45.32603919339709
 20
465.7290223398928
 30
0.0
 11
-45.32603919339709
 21
461.7290223398927
 31
0.0
  0
LINE
  5
7C12
330
18
100
AcDbEntity
  8
0
100
AcDbLine
 10
-44.32603919339709
 20
465.2290223398928
 30
0.0
 11
-45.32603919339709
 21
465.7290223398928
 31
0.0
  0
LINE
  5
7C13
330
18
100
AcDbEntity
  8
0
100
AcDbLine
 10
-45.32603919339709
 20
461.7290223398927
 30
0.0
 11
-44.32603919339709
 21
462.2290223398927
 31
0.0
  0
LINE
  5
7C14
330
18
100
AcDbEntity
  8
0
100
AcDbLine
 10
-44.32603919339709
 20
465.2290223398928
 30
0.0
 11
-41.32603919339709
 21
465.2290223398927
 31
0.0
  0
LINE
  5
7C15
330
18
100
AcDbEntity
  8
0
100
AcDbLine
 10
-44.32603919339709
 20
462.2290223398927
 30
0.0
 11
-41.32603919339709
 21
462.2290223398927
 31
0.0
  0
LINE
  5
7C16
330
18
100
AcDbEntity
  8
0
100
AcDbLine
 10
-45.32603919339709
 20
469.2290223398926
 30
0.0
 11
-44.32603919339697
 21
469.7290223398927
 31
0.0
  0
LINE
  5
7C17
330
18
100
AcDbEntity
  8
0
100
AcDbLine
 10
-44.32603919339697
 20
469.7290223398927
 30
0.0
 11
-41.32603919339698
 21
469.7290223398927
 31
0.0
  0
LINE
  5
7C18
330
18
100
AcDbEntity
  8
0
100
AcDbLine
 10
-41.32603919339698
 20
472.7290223398926
 30
0.0
 11
-41.32603919339698
 21
469.7290223398927
 31
0.0
  0
LINE
  5
7C19
330
18
100
AcDbEntity
  8
0
100
AcDbLine
 10
-44.32603919339697
 20
472.7290223398928
 30
0.0
 11
-44.32603919339697
 21
469.7290223398927
 31
0.0
  0
LINE
  5
7C1A
330
18
100
AcDbEntity
  8
0
100
AcDbLine
 10
-45.32603919339698
 20
473.2290223398928
 30
0.0
 11
-45.32603919339709
 21
469.2290223398926
 31
0.0
  0
LINE
  5
7C1B
330
18
100
AcDbEntity
  8
0
100
AcDbLine
 10
-45.32603919339698
 20
499.2290223398927
 30
0.0
 11
-44.32603919339697
 21
499.7290223398927
 31
0.0
  0
LINE
  5
7C1C
330
18
100
AcDbEntity
  8
0
100
AcDbLine
 10
-44.32603919339697
 20
499.7290223398927
 30
0.0
 11
-41.32603919339698
 21
499.7290223398927
 31
0.0
  0
LINE
  5
7C1D
330
18
100
AcDbEntity
  8
0
100
AcDbLine
 10
-41.32603919339698
 20
495.2290223398927
 30
0.0
 11
-41.32603919339698
 21
492.2290223398927
 31
0.0
  0
LINE
  5
7C1E
330
18
100
AcDbEntity
  8
0
100
AcDbLine
 10
-41.32603919339698
 20
487.7290223398927
 30
0.0
 11
-41.32603919339698
 21
484.7290223398927
 31
0.0
  0
LINE
  5
7C1F
330
18
100
AcDbEntity
  8
0
100
AcDbLine
 10
-44.32603919339697
 20
480.2290223398927
 30
0.0
 11
-45.32603919339698
 21
480.7290223398928
 31
0.0
  0
LINE
  5
7C20
330
18
100
AcDbEntity
  8
0
100
AcDbLine
 10
-45.32603919339698
 20
484.2290223398927
 30
0.0
 11
-44.32603919339697
 21
484.7290223398927
 31
0.0
  0
LINE
  5
7C21
330
18
100
AcDbEntity
  8
0
100
AcDbLine
 10
-45.32603919339698
 20
495.7290223398928
 30
0.0
 11
-45.32603919339698
 21
491.7290223398927
 31
0.0
  0
LINE
  5
7C22
330
18
100
AcDbEntity
  8
0
100
AcDbLine
 10
-44.32603919339697
 20
495.2290223398928
 30
0.0
 11
-45.32603919339698
 21
495.7290223398928
 31
0.0
  0
LINE
  5
7C23
330
18
100
AcDbEntity
  8
0
100
AcDbLine
 10
-44.32603919339697
 20
495.2290223398928
 30
0.0
 11
-44.32603919339697
 21
492.2290223398927
 31
0.0
  0
LINE
  5
7C24
330
18
100
AcDbEntity
  8
0
100
AcDbLine
 10
-45.32603919339698
 20
491.7290223398927
 30
0.0
 11
-44.32603919339697
 21
492.2290223398927
 31
0.0
  0
LINE
  5
7C25
330
18
100
AcDbEntity
  8
0
100
AcDbLine
 10
-44.32603919339697
 20
487.7290223398928
 30
0.0
 11
-45.32603919339698
 21
488.2290223398928
 31
0.0
  0
LINE
  5
7C26
330
18
100
AcDbEntity
  8
0
100
AcDbLine
 10
-45.32603919339698
 20
488.2290223398928
 30
0.0
 11
-45.32603919339698
 21
484.2290223398927
 31
0.0
  0
LINE
  5
7C27
330
18
100
AcDbEntity
  8
0
100
AcDbLine
 10
-44.32603919339697
 20
487.7290223398928
 30
0.0
 11
-44.32603919339697
 21
484.7290223398927
 31
0.0
  0
LINE
  5
7C28
330
18
100
AcDbEntity
  8
0
100
AcDbLine
 10
-44.32603919339697
 20
495.2290223398928
 30
0.0
 11
-41.32603919339698
 21
495.2290223398927
 31
0.0
  0
LINE
  5
7C29
330
18
100
AcDbEntity
  8
0
100
AcDbLine
 10
-44.32603919339697
 20
492.2290223398927
 30
0.0
 11
-41.32603919339698
 21
492.2290223398927
 31
0.0
  0
LINE
  5
7C2A
330
18
100
AcDbEntity
  8
0
100
AcDbLine
 10
-44.32603919339697
 20
484.7290223398927
 30
0.0
 11
-41.32603919339698
 21
484.7290223398927
 31
0.0
  0
LINE
  5
7C2B
330
18
100
AcDbEntity
  8
0
100
AcDbLine
 10
-44.32603919339697
 20
487.7290223398928
 30
0.0
 11
-41.32603919339698
 21
487.7290223398927
 31
0.0
  0
LINE
  5
7C2C
330
18
100
AcDbEntity
  8
0
100
AcDbLine
 10
-44.32603919339697
 20
480.2290223398927
 30
0.0
 11
-41.32603919339698
 21
480.2290223398927
 31
0.0
  0
LINE
  5
7C2D
330
18
100
AcDbEntity
  8
0
100
AcDbLine
 10
-39.32603919339697
 20
480.7290223398926
 30
0.0
 11
-39.32603919339709
 21
476.7290223398928
 31
0.0
  0
LINE
  5
7C2F
330
18
100
AcDbEntity
  8
0
100
AcDbLine
 10
-39.32603919339709
 20
465.7290223398927
 30
0.0
 11
-39.32603919339709
 21
461.7290223398928
 31
0.0
  0
LINE
  5
7C30
330
18
100
AcDbEntity
  8
0
100
AcDbLine
 10
-39.32603919339697
 20
473.2290223398926
 30
0.0
 11
-39.32603919339709
 21
469.2290223398928
 31
0.0
  0
LINE
  5
7C31
330
18
100
AcDbEntity
  8
0
100
AcDbLine
 10
-39.32603919339697
 20
495.7290223398927
 30
0.0
 11
-39.32603919339709
 21
491.7290223398928
 31
0.0
  0
LINE
  5
7C32
330
18
100
AcDbEntity
  8
0
100
AcDbLine
 10
-39.32603919339697
 20
488.2290223398927
 30
0.0
 11
-39.32603919339709
 21
484.2290223398928
 31
0.0
  0
TEXT
  5
7C33
330
18
100
AcDbEntity
  8
0
100
AcDbText
 10
-46.80085177724168
 20
523.1658817672958
 30
0.0
 40
3.0
  1
ＴＢ２
  7
MSｺﾞｼｯｸ
100
AcDbText
  0
LINE
  5
7C34
330
18
100
AcDbEntity
  8
0
100
AcDbLine
 10
-41.32603919339698
 20
517.7290223398927
 30
0.0
 11
-39.32603919339697
 21
518.2290223398926
 31
0.0
  0
LINE
  5
7C35
330
18
100
AcDbEntity
  8
0
100
AcDbLine
 10
-41.32603919339698
 20
514.7290223398926
 30
0.0
 11
-39.32603919339709
 21
514.2290223398928
 31
0.0
  0
LINE
  5
7C36
330
18
100
AcDbEntity
  8
0
100
AcDbLine
 10
-41.32603919339698
 20
510.2290223398926
 30
0.0
 11
-39.32603919339697
 21
510.7290223398926
 31
0.0
  0
LINE
  5
7C37
330
18
100
AcDbEntity
  8
0
100
AcDbLine
 10
-41.32603919339698
 20
507.2290223398927
 30
0.0
 11
-39.32603919339709
 21
506.7290223398928
 31
0.0
  0
LINE
  5
7C38
330
18
100
AcDbEntity
  8
0
100
AcDbLine
 10
-41.32603919339698
 20
502.7290223398927
 30
0.0
 11
-39.32603919339697
 21
503.2290223398927
 31
0.0
  0
LINE
  5
7C39
330
18
100
AcDbEntity
  8
0
100
AcDbLine
 10
-45.32603919339698
 20
518.2290223398928
 30
0.0
 11
-39.32603919339697
 21
518.2290223398926
 31
0.0
  0
LINE
  5
7C3A
330
18
100
AcDbEntity
  8
0
100
AcDbLine
 10
-45.32603919339698
 20
514.2290223398926
 30
0.0
 11
-39.32603919339709
 21
514.2290223398928
 31
0.0
  0
LINE
  5
7C3B
330
18
100
AcDbEntity
  8
0
100
AcDbLine
 10
-45.32603919339698
 20
506.7290223398926
 30
0.0
 11
-39.32603919339709
 21
506.7290223398928
 31
0.0
  0
LINE
  5
7C3C
330
18
100
AcDbEntity
  8
0
100
AcDbLine
 10
-45.32603919339698
 20
510.7290223398928
 30
0.0
 11
-39.32603919339697
 21
510.7290223398926
 31
0.0
  0
LINE
  5
7C3D
330
18
100
AcDbEntity
  8
0
100
AcDbLine
 10
-45.32603919339698
 20
503.2290223398928
 30
0.0
 11
-39.32603919339697
 21
503.2290223398927
 31
0.0
  0
LINE
  5
7C3F
330
18
100
AcDbEntity
  8
0
100
AcDbLine
 10
-47.12603919339727
 20
518.9790223398927
 30
0.0
 11
-32.12603919339716
 21
518.9790223398928
 31
0.0
  0
LINE
  5
7C40
330
18
100
AcDbEntity
  8
0
100
AcDbLine
 10
-41.32603919339698
 20
517.7290223398927
 30
0.0
 11
-41.32603919339698
 21
514.7290223398926
 31
0.0
  0
LINE
  5
7C41
330
18
100
AcDbEntity
  8
0
100
AcDbLine
 10
-41.32603919339698
 20
510.2290223398926
 30
0.0
 11
-41.32603919339698
 21
507.2290223398927
 31
0.0
  0
LINE
  5
7C42
330
18
100
AcDbEntity
  8
0
100
AcDbLine
 10
-44.32603919339697
 20
517.7290223398927
 30
0.0
 11
-44.32603919339697
 21
514.7290223398926
 31
0.0
  0
LINE
  5
7C43
330
18
100
AcDbEntity
  8
0
100
AcDbLine
 10
-45.32603919339698
 20
518.2290223398928
 30
0.0
 11
-45.32603919339698
 21
514.2290223398926
 31
0.0
  0
LINE
  5
7C44
330
18
100
AcDbEntity
  8
0
100
AcDbLine
 10
-44.32603919339697
 20
517.7290223398927
 30
0.0
 11
-45.32603919339698
 21
518.2290223398928
 31
0.0
  0
LINE
  5
7C45
330
18
100
AcDbEntity
  8
0
100
AcDbLine
 10
-45.32603919339698
 20
514.2290223398926
 30
0.0
 11
-44.32603919339697
 21
514.7290223398926
 31
0.0
  0
LINE
  5
7C46
330
18
100
AcDbEntity
  8
0
100
AcDbLine
 10
-45.32603919339698
 20
506.7290223398926
 30
0.0
 11
-44.32603919339697
 21
507.2290223398927
 31
0.0
  0
LINE
  5
7C47
330
18
100
AcDbEntity
  8
0
100
AcDbLine
 10
-44.32603919339697
 20
510.2290223398928
 30
0.0
 11
-45.32603919339698
 21
510.7290223398928
 31
0.0
  0
LINE
  5
7C48
330
18
100
AcDbEntity
  8
0
100
AcDbLine
 10
-45.32603919339698
 20
510.7290223398928
 30
0.0
 11
-45.32603919339698
 21
506.7290223398926
 31
0.0
  0
LINE
  5
7C49
330
18
100
AcDbEntity
  8
0
100
AcDbLine
 10
-44.32603919339697
 20
510.2290223398928
 30
0.0
 11
-44.32603919339697
 21
507.2290223398927
 31
0.0
  0
LINE
  5
7C4A
330
18
100
AcDbEntity
  8
0
100
AcDbLine
 10
-44.32603919339697
 20
502.7290223398928
 30
0.0
 11
-45.32603919339698
 21
503.2290223398928
 31
0.0
  0
LINE
  5
7C4B
330
18
100
AcDbEntity
  8
0
100
AcDbLine
 10
-44.32603919339697
 20
517.7290223398927
 30
0.0
 11
-41.32603919339698
 21
517.7290223398927
 31
0.0
  0
LINE
  5
7C4C
330
18
100
AcDbEntity
  8
0
100
AcDbLine
 10
-44.32603919339697
 20
514.7290223398926
 30
0.0
 11
-41.32603919339698
 21
514.7290223398926
 31
0.0
  0
LINE
  5
7C4D
330
18
100
AcDbEntity
  8
0
100
AcDbLine
 10
-44.32603919339697
 20
507.2290223398927
 30
0.0
 11
-41.32603919339698
 21
507.2290223398927
 31
0.0
  0
LINE
  5
7C4E
330
18
100
AcDbEntity
  8
0
100
AcDbLine
 10
-44.32603919339697
 20
510.2290223398928
 30
0.0
 11
-41.32603919339698
 21
510.2290223398926
 31
0.0
  0
LINE
  5
7C4F
330
18
100
AcDbEntity
  8
0
100
AcDbLine
 10
-44.32603919339697
 20
502.7290223398928
 30
0.0
 11
-41.32603919339698
 21
502.7290223398927
 31
0.0
  0
LINE
  5
7C51
330
18
100
AcDbEntity
  8
0
100
AcDbLine
 10
-39.32603919339697
 20
518.2290223398926
 30
0.0
 11
-39.32603919339709
 21
514.2290223398928
 31
0.0
  0
LINE
  5
7C52
330
18
100
AcDbEntity
  8
0
100
AcDbLine
 10
-39.32603919339697
 20
510.7290223398926
 30
0.0
 11
-39.32603919339709
 21
506.7290223398928
 31
0.0
  0
MTEXT
  5
7C53
330
18
100
AcDbEntity
  8
0
100
AcDbMText
 10
-60.7869482811821
 20
453.634264936891
 30
0.0
 40
4.45
 41
0.0
 71
     1
 72
     5
  1
Ｅ
  7
MSｺﾞｼｯｸ
 73
     1
 44
1.0
  0
LINE
  5
7C54
330
18
100
AcDbEntity
  8
0
100
AcDbLine
 10
-34.12603919339699
 20
460.9790223398928
 30
0.0
 11
-34.12603919339699
 21
458.9790223398924
 31
0.0
  0
LINE
  5
7C55
330
18
100
AcDbEntity
  8
0
100
AcDbLine
 10
-115.7260391933971
 20
601.9790223398929
 30
0.0
 11
-63.72603919339716
 21
601.9790223398929
 31
0.0
  0
LINE
  5
7C56
330
18
100
AcDbEntity
  8
0
100
AcDbLine
 10
-115.7260391933972
 20
537.9790223398929
 30
0.0
 11
-63.72603919339727
 21
537.9790223398929
 31
0.0
  0
TEXT
  5
7C57
330
18
100
AcDbEntity
  8
0
100
AcDbText
 10
-111.2805843036478
 20
589.4517583092988
 30
0.0
 40
6.5
  1
ACTUS POWER
 41
0.9300774284514783
  7
MSｺﾞｼｯｸ
 72
     5
 11
-68.07211412502889
 21
589.4517583092988
 31
0.0
100
AcDbText
  0
LINE
  5
7C58
330
18
100
AcDbEntity
  8
0
100
AcDbLine
 10
-117.7260391933971
 20
599.9790223398929
 30
0.0
 11
-117.7260391933972
 21
539.9790223398929
 31
0.0
  0
LWPOLYLINE
  5
7C59
330
18
100
AcDbEntity
  8
0
100
AcDbPolyline
 90
        8
 70
     1
 43
0.0
 10
-91.22603919339718
 20
552.7290475102115
 10
-91.22603919339718
 20
546.7290475102116
 42
-0.4142135623730951
 10
-92.22603919339718
 20
545.7290475102115
 10
-98.22603919339719
 20
545.7290475102115
 42
-0.4142135623730951
 10
-99.22603919339719
 20
546.7290475102116
 10
-99.22603919339719
 20
552.7290475102115
 42
-0.4142135623730951
 10
-98.22603919339719
 20
553.7290475102115
 10
-92.22603919339718
 20
553.7290475102115
 42
-0.4142135623730951
  0
LWPOLYLINE
  5
7C5A
330
18
100
AcDbEntity
  8
0
100
AcDbPolyline
 90
        8
 70
     1
 43
0.0
 10
-91.72603919339719
 20
552.7290475102115
 10
-91.72603919339719
 20
546.7290475102116
 42
-0.4142135623730951
 10
-92.22603919339718
 20
546.2290475102115
 10
-98.22603919339719
 20
546.2290475102115
 42
-0.4142135623730951
 10
-98.72603919339718
 20
546.7290475102116
 10
-98.72603919339718
 20
552.7290475102115
 42
-0.4142135623730951
 10
-98.22603919339719
 20
553.2290475102115
 10
-92.22603919339718
 20
553.2290475102115
 42
-0.4142135623730951
  0
LWPOLYLINE
  5
7C5B
330
18
100
AcDbEntity
  8
0
100
AcDbPolyline
 90
        3
 70
     1
 43
0.0
 10
-95.22603919339672
 20
547.9969985869695
 10
-97.22603826089651
 20
551.4610985869697
 10
-93.22604012589696
 20
551.4610985869697
  0
HATCH
  5
7C5C
330
18
100
AcDbEntity
  8
0
100
AcDbHatch
 10
0.0
 20
0.0
 30
0.0
210
0.0
220
0.0
230
1.0
  2
SOLID
 70
     1
 71
     0
 91
        6
 92
        7
 72
     1
 73
     1
 93
        8
 10
-92.22603919339718
 20
553.7290475102115
 42
0.0
 10
-98.22603919339719
 20
553.7290475102115
 42
0.4142135623730951
 10
-99.22603919339719
 20
552.7290475102115
 42
0.0
 10
-99.22603919339719
 20
546.7290475102116
 42
0.4142135623730951
 10
-98.22603919339719
 20
545.7290475102115
 42
0.0
 10
-92.22603919339718
 20
545.7290475102115
 42
0.4142135623730951
 10
-91.22603919339718
 20
546.7290475102116
 42
0.0
 10
-91.22603919339718
 20
552.7290475102115
 42
0.4142135623730951
 97
        0
 92
       22
 72
     1
 73
     1
 93
        8
 10
-92.22603919339718
 20
553.2290475102115
 42
-0.4142135623730951
 10
-91.72603919339719
 20
552.7290475102115
 42
0.0
 10
-91.72603919339719
 20
546.7290475102116
 42
-0.4142135623730951
 10
-92.22603919339718
 20
546.2290475102115
 42
0.0
 10
-98.22603919339719
 20
546.2290475102115
 42
-0.4142135623730951
 10
-98.72603919339718
 20
546.7290475102116
 42
0.0
 10
-98.72603919339718
 20
552.7290475102115
 42
-0.4142135623730951
 10
-98.22603919339719
 20
553.2290475102115
 42
0.0
 97
        0
 92
        6
 72
     0
 73
     1
 93
        3
 10
-97.22603826089651
 20
551.4610985869699
 10
-93.22604012589701
 20
551.4610985869697
 10
-95.22603919339672
 20
547.9969985869695
 97
        0
 92
        7
 72
     1
 73
     1
 93
        8
 10
-103.2260391933971
 20
553.7290475102115
 42
0.0
 10
-109.2260391933971
 20
553.7290475102115
 42
0.4142135623730951
 10
-110.2260391933971
 20
552.7290475102115
 42
0.0
 10
-110.2260391933971
 20
546.7290475102116
 42
0.4142135623730951
 10
-109.2260391933971
 20
545.7290475102115
 42
0.0
 10
-103.2260391933971
 20
545.7290475102115
 42
0.4142135623730951
 10
-102.2260391933971
 20
546.7290475102116
 42
0.0
 10
-102.2260391933971
 20
552.7290475102115
 42
0.4142135623730951
 97
        0
 92
       22
 72
     1
 73
     1
 93
        8
 10
-103.2260391933971
 20
553.2290475102115
 42
-0.4142135623730951
 10
-102.7260391933971
 20
552.7290475102115
 42
0.0
 10
-102.7260391933971
 20
546.7290475102116
 42
-0.4142135623730951
 10
-103.2260391933971
 20
546.2290475102115
 42
0.0
 10
-109.2260391933971
 20
546.2290475102115
 42
-0.4142135623730951
 10
-109.7260391933971
 20
546.7290475102116
 42
0.0
 10
-109.7260391933971
 20
552.7290475102115
 42
-0.4142135623730951
 10
-109.2260391933971
 20
553.2290475102115
 42
0.0
 97
        0
 92
        6
 72
     0
 73
     1
 93
        3
 10
-106.2260391933967
 20
551.4610975102113
 10
-104.2260401258968
 20
547.9969975102112
 10
-108.2260382608965
 20
547.9969975102115
 97
        0
 75
     0
 76
     1
 47
0.0188367729183999
 98
        6
 10
-97.55461209942637
 20
553.4435172804876
 10
-97.55461209942637
 20
553.4435172804876
 10
-97.55461209942637
 20
553.4435172804876
 10
-104.9789204711265
 20
553.4435172804876
 10
-104.9789204711265
 20
553.4435172804876
 10
-104.9789204711265
 20
553.4435172804876
  0
HATCH
  5
7C5D
330
18
100
AcDbEntity
  8
0
100
AcDbHatch
 10
0.0
 20
0.0
 30
0.0
210
0.0
220
0.0
230
1.0
  2
SOLID
 70
     1
 71
     0
 91
        2
 92
        7
 72
     0
 73
     1
 93
        3
 10
-106.2260391933967
 20
551.4610975102116
 10
-108.2260382608964
 20
547.9969975102115
 10
-104.2260401258969
 20
547.9969975102115
 97
        0
 92
        7
 72
     0
 73
     1
 93
        3
 10
-95.22603919339672
 20
547.9969985869695
 10
-93.22604012589698
 20
551.4610985869697
 10
-97.22603826089647
 20
551.4610985869697
 97
        0
 75
     0
 76
     1
 47
0.0188367729183999
 98
        2
 10
-105.8645618565429
 20
549.5631377867819
 10
-95.53836559383631
 20
549.9398731656618
  0
HATCH
  5
7C5E
330
18
100
AcDbEntity
  8
0
100
AcDbHatch
 10
0.0
 20
0.0
 30
0.0
210
0.0
220
0.0
230
1.0
  2
SOLID
 70
     1
 71
     0
 91
        2
 92
        7
 72
     1
 73
     1
 93
        8
 10
-70.32998043943104
 20
585.8972475102116
 42
0.0
 10
-109.1220979473632
 20
585.8972475102116
 42
0.1885055804394898
 10
-109.6398204485264
 20
585.3852289594528
 42
0.0
 10
-109.6398204485264
 20
559.5728157203329
 42
0.2963712537857847
 10
-108.7260391933971
 20
558.9790223398929
 42
0.0
 10
-70.72603919339718
 20
558.9790223398929
 42
0.4142135623730951
 10
-69.72603919339718
 20
559.9790223398929
 42
0.0
 10
-69.72603919339718
 20
584.9790223398929
 42
0.299386580726798
 97
        0
 92
       22
 72
     1
 73
     1
 93
        8
 10
-71.72603919339718
 20
584.9790223398929
 42
-0.4142135623730953
 10
-70.72603919339718
 20
583.9790223398929
 42
0.0
 10
-70.72603919339718
 20
560.9790223398929
 42
-0.4142135623730951
 10
-71.72603919339718
 20
559.9790223398929
 42
0.0
 10
-107.7260391933971
 20
559.9790223398929
 42
-0.4142135623730951
 10
-108.7260391933971
 20
560.9790223398929
 42
0.0
 10
-108.7260391933971
 20
583.9790223398929
 42
-0.4142135623730949
 10
-107.7260391933971
 20
584.9790223398929
 42
0.0
 97
        0
 75
     0
 76
     1
 47
0.1122686005965
 98
        2
 10
-99.89355958676293
 20
585.599290735556
 10
-99.89355958676293
 20
585.599290735556
  0
LWPOLYLINE
  5
7C5F
330
18
100
AcDbEntity
  8
0
100
AcDbPolyline
 90
        8
 70
     1
 43
0.0
 10
-70.72603919339718
 20
583.9790223398929
 10
-70.72603919339718
 20
560.9790223398929
 42
-0.4142135623730951
 10
-71.72603919339718
 20
559.9790223398929
 10
-107.7260391933971
 20
559.9790223398929
 42
-0.4142135623730951
 10
-108.7260391933971
 20
560.9790223398929
 10
-108.7260391933971
 20
583.9790223398929
 42
-0.4142135623730949
 10
-107.7260391933971
 20
584.9790223398929
 10
-71.72603919339718
 20
584.9790223398929
 42
-0.4142135623730953
  0
LWPOLYLINE
  5
7C60
330
18
100
AcDbEntity
  8
0
100
AcDbPolyline
 90
        8
 70
     1
 43
0.0
 10
-69.72603919339718
 20
584.9790223398929
 10
-69.72603919339718
 20
559.9790223398929
 42
-0.4142135623730951
 10
-70.72603919339718
 20
558.9790223398929
 10
-108.7260391933971
 20
558.9790223398929
 42
-0.4142135623730951
 10
-109.7260391933971
 20
559.9790223398929
 10
-109.7260391933971
 20
584.9790223398929
 42
-0.4142135623730951
 10
-108.7260391933971
 20
585.9790223398929
 10
-70.72603919339718
 20
585.9790223398929
 42
-0.4142135623730951
  0
ARC
  5
7C61
330
18
100
AcDbEntity
  8
0
100
AcDbCircle
 10
-115.7260391933973
 20
539.9790223398929
 30
0.0
 40
2.0
100
AcDbArc
 50
180.0
 51
270.0
  0
LWPOLYLINE
  5
7C62
330
18
100
AcDbEntity
  8
0
100
AcDbPolyline
 90
        8
 70
     1
 43
0.0
 10
-102.7260391933971
 20
552.7290475102115
 10
-102.7260391933971
 20
546.7290475102116
 42
-0.4142135623730951
 10
-103.2260391933971
 20
546.2290475102115
 10
-109.2260391933971
 20
546.2290475102115
 42
-0.4142135623730951
 10
-109.7260391933971
 20
546.7290475102116
 10
-109.7260391933971
 20
552.7290475102115
 42
-0.4142135623730951
 10
-109.2260391933971
 20
553.2290475102115
 10
-103.2260391933971
 20
553.2290475102115
 42
-0.4142135623730951
  0
LWPOLYLINE
  5
7C63
330
18
100
AcDbEntity
  8
0
100
AcDbPolyline
 90
        8
 70
     1
 43
0.0
 10
-102.2260391933971
 20
552.7290475102115
 10
-102.2260391933971
 20
546.7290475102116
 42
-0.4142135623730951
 10
-103.2260391933971
 20
545.7290475102115
 10
-109.2260391933971
 20
545.7290475102115
 42
-0.4142135623730951
 10
-110.2260391933971
 20
546.7290475102116
 10
-110.2260391933971
 20
552.7290475102115
 42
-0.4142135623730951
 10
-109.2260391933971
 20
553.7290475102115
 10
-103.2260391933971
 20
553.7290475102115
 42
-0.4142135623730951
  0
LWPOLYLINE
  5
7C64
330
18
100
AcDbEntity
  8
0
100
AcDbPolyline
 90
        3
 70
     1
 43
0.0
 10
-106.2260391933967
 20
551.4610975102116
 10
-108.2260382608964
 20
547.9969975102115
 10
-104.2260401258969
 20
547.9969975102115
  0
LWPOLYLINE
  5
7C65
330
18
100
AcDbEntity
  8
0
100
AcDbPolyline
 90
        8
 70
     1
 43
0.0
 10
-80.22603919339719
 20
552.7290475102115
 10
-80.22603919339719
 20
546.7290475102116
 42
-0.4142135623730951
 10
-81.22603919339718
 20
545.7290475102115
 10
-87.22603919339718
 20
545.7290475102115
 42
-0.4142135623730951
 10
-88.22603919339718
 20
546.7290475102116
 10
-88.22603919339718
 20
552.7290475102115
 42
-0.4142135623730951
 10
-87.22603919339718
 20
553.7290475102115
 10
-81.22603919339718
 20
553.7290475102115
 42
-0.4142135623730951
  0
HATCH
  5
7C66
330
18
100
AcDbEntity
  8
0
100
AcDbHatch
 10
0.0
 20
0.0
 30
0.0
210
0.0
220
0.0
230
1.0
  2
SOLID
 70
     1
 71
     0
 91
        5
 92
        7
 72
     1
 73
     1
 93
        8
 10
-80.22603919339719
 20
552.7290475102115
 42
0.4142135623730951
 10
-81.22603919339718
 20
553.7290475102115
 42
0.0
 10
-87.22603919339718
 20
553.7290475102115
 42
0.4142135623730951
 10
-88.22603919339718
 20
552.7290475102115
 42
0.0
 10
-88.22603919339718
 20
546.7290475102116
 42
0.4142135623730951
 10
-87.22603919339718
 20
545.7290475102115
 42
0.0
 10
-81.22603919339718
 20
545.7290475102115
 42
0.4142135623730951
 10
-80.22603919339719
 20
546.7290475102116
 42
0.0
 97
        0
 92
       22
 72
     1
 73
     1
 93
        8
 10
-80.72603919339718
 20
546.7290475102116
 42
-0.4142135623730951
 10
-81.22603919339718
 20
546.2290475102115
 42
0.0
 10
-87.22603919339718
 20
546.2290475102115
 42
-0.4142135623730951
 10
-87.72603919339719
 20
546.7290475102116
 42
0.0
 10
-87.72603919339719
 20
552.7290475102115
 42
-0.4142135623730951
 10
-87.22603919339718
 20
553.2290475102115
 42
0.0
 10
-81.22603919339718
 20
553.2290475102115
 42
-0.4142135623730951
 10
-80.72603919339718
 20
552.7290475102115
 42
0.0
 97
        0
 92
        6
 72
     0
 73
     1
 93
        3
 10
-81.4853195685186
 20
547.9464241770951
 10
-83.21737037608711
 20
546.9464241770954
 10
-83.21737037608711
 20
548.9464241770952
 97
        0
 92
        6
 72
     0
 73
     1
 93
        4
 10
-82.29380955738927
 20
550.5434616629225
 10
-86.09351062581319
 20
548.3116189186355
 10
-86.22012757449937
 20
548.5271836381641
 10
-82.42042650607533
 20
550.7590263824509
 97
        0
 92
      136
 93
        4
 72
     1
 10
-87.39144217418248
 20
550.3604070006372
 11
-82.11019217418249
 21
550.3604070006372
 72
     1
 10
-82.11019217418249
 20
550.3604070006372
 11
-82.11019217418249
 21
552.6807195006372
 72
     1
 10
-82.11019217418249
 20
552.6807195006372
 11
-87.39144217418248
 21
552.6807195006372
 72
     1
 10
-87.39144217418248
 20
552.6807195006372
 11
-87.39144217418248
 21
550.3604070006372
 97
        0
 75
     0
 76
     1
 47
0.0316320572239519
 98
        4
 10
-80.58492585947448
 20
549.5969852491987
 10
-80.58492585947448
 20
549.5969852491987
 10
-80.58492585947448
 20
549.5969852491987
 10
-80.58492585947448
 20
549.5969852491987
  0
TEXT
  5
7C67
330
18
100
AcDbEntity
  8
0
100
AcDbText
 10
-87.12191092418251
 20
550.7627507506372
 30
0.0
 40
1.5
  1
MOD
  7
MSｺﾞｼｯｸ
100
AcDbText
  0
LWPOLYLINE
  5
7C68
330
18
100
AcDbEntity
  8
0
100
AcDbPolyline
 90
        8
 70
     1
 43
0.0
 10
-80.72603919339718
 20
552.7290475102115
 10
-80.72603919339718
 20
546.7290475102116
 42
-0.4142135623730951
 10
-81.22603919339718
 20
546.2290475102115
 10
-87.22603919339718
 20
546.2290475102115
 42
-0.4142135623730951
 10
-87.72603919339719
 20
546.7290475102116
 10
-87.72603919339719
 20
552.7290475102115
 42
-0.4142135623730951
 10
-87.22603919339718
 20
553.2290475102115
 10
-81.22603919339718
 20
553.2290475102115
 42
-0.4142135623730951
  0
LWPOLYLINE
  5
7C69
330
18
100
AcDbEntity
  8
0
100
AcDbPolyline
 90
        3
 70
     1
 43
0.0
 10
-83.21737037608711
 20
546.9464241770952
 10
-81.48531956851826
 20
547.9464241770951
 10
-83.21737037608711
 20
548.9464241770952
  0
LWPOLYLINE
  5
7C6A
330
18
100
AcDbEntity
  8
0
100
AcDbPolyline
 90
        4
 70
     1
 43
0.0
 10
-82.29380955738902
 20
550.5434616629226
 10
-86.09351062581316
 20
548.3116189186355
 10
-86.22012757449949
 20
548.5271836381639
 10
-82.42042650607533
 20
550.7590263824511
  0
TEXT
  5
7C6B
330
18
100
AcDbEntity
  8
0
100
AcDbText
 10
-75.66258741674747
 20
548.4790475102115
 30
0.0
 40
2.5
  1
ENT
  7
MSｺﾞｼｯｸ
 72
     1
 11
-73.22603919339721
 21
549.7290475102115
 31
0.0
100
AcDbText
 73
     2
  0
LWPOLYLINE
  5
7C6C
330
18
100
AcDbEntity
  8
0
100
AcDbPolyline
 90
        8
 70
     1
 43
0.0
 10
-69.72603919339718
 20
552.7290475102115
 10
-69.72603919339718
 20
546.7290475102116
 42
-0.4142135623730951
 10
-70.22603919339719
 20
546.2290475102115
 10
-76.22603919339718
 20
546.2290475102115
 42
-0.4142135623730951
 10
-76.72603919339718
 20
546.7290475102116
 10
-76.72603919339718
 20
552.7290475102115
 42
-0.4142135623730951
 10
-76.22603919339718
 20
553.2290475102115
 10
-70.22603919339719
 20
553.2290475102115
 42
-0.4142135623730951
  0
LWPOLYLINE
  5
7C6D
330
18
100
AcDbEntity
  8
0
100
AcDbPolyline
 90
        8
 70
     1
 43
0.0
 10
-69.22603919339718
 20
552.7290475102115
 10
-69.22603919339718
 20
546.7290475102116
 42
-0.4142135623730951
 10
-70.22603919339719
 20
545.7290475102115
 10
-76.22603919339718
 20
545.7290475102115
 42
-0.4142135623730951
 10
-77.22603919339718
 20
546.7290475102116
 10
-77.22603919339718
 20
552.7290475102115
 42
-0.4142135623730951
 10
-76.22603919339718
 20
553.7290475102115
 10
-70.22603919339719
 20
553.7290475102115
 42
-0.4142135623730951
  0
HATCH
  5
7C6E
330
18
100
AcDbEntity
  8
0
100
AcDbHatch
 10
0.0
 20
0.0
 30
0.0
210
0.0
220
0.0
230
1.0
  2
SOLID
 70
     1
 71
     0
 91
        2
 92
        7
 72
     1
 73
     1
 93
        8
 10
-76.22603919339718
 20
553.7290475102115
 42
0.4142135623730951
 10
-77.22603919339718
 20
552.7290475102115
 42
0.0
 10
-77.22603919339718
 20
546.7290475102116
 42
0.4142135623730951
 10
-76.22603919339718
 20
545.7290475102115
 42
0.0
 10
-70.22603919339719
 20
545.7290475102115
 42
0.4142135623730951
 10
-69.22603919339718
 20
546.7290475102116
 42
0.0
 10
-69.22603919339718
 20
552.7290475102115
 42
0.4142135623730951
 10
-70.22603919339719
 20
553.7290475102115
 42
0.0
 97
        0
 92
       22
 72
     1
 73
     1
 93
        8
 10
-70.22603919339719
 20
553.2290475102115
 42
-0.4142135623730951
 10
-69.72603919339718
 20
552.7290475102115
 42
0.0
 10
-69.72603919339718
 20
546.7290475102116
 42
-0.4142135623730951
 10
-70.22603919339719
 20
546.2290475102115
 42
0.0
 10
-76.22603919339718
 20
546.2290475102115
 42
-0.4142135623730951
 10
-76.72603919339718
 20
546.7290475102116
 42
0.0
 10
-76.72603919339718
 20
552.7290475102115
 42
-0.4142135623730951
 10
-76.22603919339718
 20
553.2290475102115
 42
0.0
 97
        0
 75
     0
 76
     1
 47
0.0112091961687951
 98
        2
 10
-71.89361565076211
 20
553.4600383801469
 10
-71.89361565076211
 20
553.4600383801469
  0
TEXT
  5
7C6F
330
18
100
AcDbEntity
  8
0
100
AcDbText
 10
-111.2023277315868
 20
597.0166929932929
 30
0.0
 40
2.0
  1
AC   SERVO  DRIVER
  7
MSｺﾞｼｯｸ
100
AcDbText
  0
ARC
  5
7C70
330
18
100
AcDbEntity
  8
0
100
AcDbCircle
 10
-115.7260391933972
 20
599.9790223398929
 30
0.0
 40
2.0
100
AcDbArc
 50
90.0
 51
180.0
  0
LINE
  5
7C71
330
18
100
AcDbEntity
  8
0
100
AcDbLine
 10
-61.72603919339715
 20
599.9790223398929
 30
0.0
 11
-61.72603919339727
 21
539.9790223398929
 31
0.0
  0
ARC
  5
7C72
330
18
100
AcDbEntity
  8
0
100
AcDbCircle
 10
-63.72603919339733
 20
539.9790223398929
 30
0.0
 40
2.0
100
AcDbArc
 50
270.0
 51
0.0
  0
ARC
  5
7C73
330
18
100
AcDbEntity
  8
0
100
AcDbCircle
 10
-63.72603919339716
 20
599.9790223398929
 30
0.0
 40
2.0
100
AcDbArc
 50
0.0
 51
90.0
  0
LINE
  5
7CAF
330
18
100
AcDbEntity
  8
0
100
AcDbLine
 10
131.8873645062989
 20
475.2542774685012
 30
0.0
 11
130.4731509439258
 21
477.7037672112843
 31
0.0
  0
CIRCLE
  5
7CB0
330
18
100
AcDbEntity
  8
0
100
AcDbCircle
 10
131.6132704270045
 20
476.7290223398928
 30
0.0
 40
1.75
  0
CIRCLE
  5
7CB1
330
18
100
AcDbEntity
  8
0
100
AcDbCircle
 10
131.6132704270045
 20
476.7290223398928
 30
0.0
 40
1.5
  0
LINE
  5
7CB2
330
18
100
AcDbEntity
  8
0
100
AcDbLine
 10
132.7533899100832
 20
475.7542774685012
 30
0.0
 11
131.3391763477101
 21
478.2037672112843
 31
0.0
  0
LINE
  5
7CB3
330
18
100
AcDbEntity
  8
0
100
AcDbLine
 10
127.3132704270044
 20
516.9790223398928
 30
0.0
 11
127.3132704270045
 21
458.9790223398928
 31
0.0
  0
LINE
  5
7CB4
330
18
100
AcDbEntity
  8
0
100
AcDbLine
 10
126.8132704270044
 20
516.9790223398928
 30
0.0
 11
126.8132704270046
 21
458.9790223398928
 31
0.0
  0
LINE
  5
7CB5
330
18
100
AcDbEntity
  8
0
100
AcDbLine
 10
126.8132704270046
 20
458.9790223398928
 30
0.0
 11
135.9132704270045
 21
458.9790223398928
 31
0.0
  0
LINE
  5
7CB6
330
18
100
AcDbEntity
  8
0
100
AcDbLine
 10
131.8873645062989
 20
460.2542774685011
 30
0.0
 11
130.4731509439258
 21
462.7037672112843
 31
0.0
  0
CIRCLE
  5
7CB7
330
18
100
AcDbEntity
  8
0
100
AcDbCircle
 10
131.6132704270045
 20
461.7290223398928
 30
0.0
 40
1.5
  0
CIRCLE
  5
7CB8
330
18
100
AcDbEntity
  8
0
100
AcDbCircle
 10
131.6132704270045
 20
461.7290223398928
 30
0.0
 40
1.75
  0
LINE
  5
7CB9
330
18
100
AcDbEntity
  8
0
100
AcDbLine
 10
131.8873645062989
 20
467.7542774685012
 30
0.0
 11
130.4731509439258
 21
470.2037672112843
 31
0.0
  0
CIRCLE
  5
7CBA
330
18
100
AcDbEntity
  8
0
100
AcDbCircle
 10
131.6132704270045
 20
469.2290223398928
 30
0.0
 40
1.75
  0
CIRCLE
  5
7CBB
330
18
100
AcDbEntity
  8
0
100
AcDbCircle
 10
131.6132704270045
 20
469.2290223398928
 30
0.0
 40
1.5
  0
LINE
  5
7CBC
330
18
100
AcDbEntity
  8
0
100
AcDbLine
 10
132.7533899100832
 20
468.2542774685011
 30
0.0
 11
131.3391763477101
 21
470.7037672112843
 31
0.0
  0
LINE
  5
7CBD
330
18
100
AcDbEntity
  8
0
100
AcDbLine
 10
132.7533899100832
 20
460.7542774685011
 30
0.0
 11
131.3391763477101
 21
463.2037672112843
 31
0.0
  0
LINE
  5
7CBE
330
18
100
AcDbEntity
  8
0
100
AcDbLine
 10
126.8132704270044
 20
516.9790223398928
 30
0.0
 11
135.9132704270045
 21
516.9790223398926
 31
0.0
  0
LINE
  5
7CBF
330
18
100
AcDbEntity
  8
0
100
AcDbLine
 10
135.9132704270045
 20
516.9790223398926
 30
0.0
 11
135.9132704270045
 21
458.9790223398928
 31
0.0
  0
LINE
  5
7CC0
330
18
100
AcDbEntity
  8
0
100
AcDbLine
 10
132.7533899100832
 20
490.7542774685011
 30
0.0
 11
131.3391763477101
 21
493.2037672112843
 31
0.0
  0
LINE
  5
7CC1
330
18
100
AcDbEntity
  8
0
100
AcDbLine
 10
131.8873645062989
 20
482.7542774685012
 30
0.0
 11
130.4731509439258
 21
485.2037672112843
 31
0.0
  0
LINE
  5
7CC2
330
18
100
AcDbEntity
  8
0
100
AcDbLine
 10
132.7533899100832
 20
483.2542774685012
 30
0.0
 11
131.3391763477101
 21
485.7037672112843
 31
0.0
  0
CIRCLE
  5
7CC3
330
18
100
AcDbEntity
  8
0
100
AcDbCircle
 10
131.6132704270045
 20
484.2290223398928
 30
0.0
 40
1.5
  0
CIRCLE
  5
7CC4
330
18
100
AcDbEntity
  8
0
100
AcDbCircle
 10
131.6132704270045
 20
484.2290223398928
 30
0.0
 40
1.75
  0
LINE
  5
7CC5
330
18
100
AcDbEntity
  8
0
100
AcDbLine
 10
131.8873645062989
 20
490.2542774685011
 30
0.0
 11
130.4731509439258
 21
492.7037672112843
 31
0.0
  0
CIRCLE
  5
7CC6
330
18
100
AcDbEntity
  8
0
100
AcDbCircle
 10
131.6132704270045
 20
491.7290223398928
 30
0.0
 40
1.5
  0
CIRCLE
  5
7CC7
330
18
100
AcDbEntity
  8
0
100
AcDbCircle
 10
131.6132704270045
 20
491.7290223398928
 30
0.0
 40
1.75
  0
LINE
  5
7CCF
330
18
100
AcDbEntity
  8
0
100
AcDbLine
 10
131.8873645062989
 20
505.2542774685012
 30
0.0
 11
130.4731509439258
 21
507.7037672112843
 31
0.0
  0
CIRCLE
  5
7CD0
330
18
100
AcDbEntity
  8
0
100
AcDbCircle
 10
131.6132704270045
 20
506.7290223398928
 30
0.0
 40
1.75
  0
CIRCLE
  5
7CD1
330
18
100
AcDbEntity
  8
0
100
AcDbCircle
 10
131.6132704270045
 20
506.7290223398928
 30
0.0
 40
1.5
  0
LINE
  5
7CD2
330
18
100
AcDbEntity
  8
0
100
AcDbLine
 10
132.7533899100832
 20
505.7542774685011
 30
0.0
 11
131.3391763477101
 21
508.2037672112843
 31
0.0
  0
LINE
  5
7CD3
330
18
100
AcDbEntity
  8
0
100
AcDbLine
 10
132.7533899100832
 20
498.2542774685011
 30
0.0
 11
131.3391763477101
 21
500.7037672112843
 31
0.0
  0
LINE
  5
7CD4
330
18
100
AcDbEntity
  8
0
100
AcDbLine
 10
131.8873645062989
 20
497.7542774685011
 30
0.0
 11
130.4731509439258
 21
500.2037672112843
 31
0.0
  0
CIRCLE
  5
7CD5
330
18
100
AcDbEntity
  8
0
100
AcDbCircle
 10
131.6132704270045
 20
499.2290223398928
 30
0.0
 40
1.5
  0
CIRCLE
  5
7CD6
330
18
100
AcDbEntity
  8
0
100
AcDbCircle
 10
131.6132704270045
 20
499.2290223398928
 30
0.0
 40
1.75
  0
LINE
  5
7CDE
330
18
100
AcDbEntity
  8
0
100
AcDbLine
 10
131.8873645062989
 20
512.7542774685012
 30
0.0
 11
130.4731509439258
 21
515.2037672112843
 31
0.0
  0
LINE
  5
7CDF
330
18
100
AcDbEntity
  8
0
100
AcDbLine
 10
132.7533899100832
 20
513.2542774685012
 30
0.0
 11
131.3391763477101
 21
515.7037672112843
 31
0.0
  0
CIRCLE
  5
7CE0
330
18
100
AcDbEntity
  8
0
100
AcDbCircle
 10
131.6132704270045
 20
514.2290223398928
 30
0.0
 40
1.5
  0
CIRCLE
  5
7CE1
330
18
100
AcDbEntity
  8
0
100
AcDbCircle
 10
131.6132704270045
 20
514.2290223398928
 30
0.0
 40
1.75
  0
LINE
  5
7D7D
330
18
100
AcDbEntity
  8
0
 48
0.2
100
AcDbLine
 10
126.9132704270046
 20
520.9165223398924
 30
0.0
 11
125.6632704270046
 21
518.7514588304313
 31
0.0
  0
LINE
  5
7D7E
330
18
100
AcDbEntity
  8
0
 48
0.2
100
AcDbLine
 10
127.2019455615994
 20
520.9165223398924
 30
0.0
 11
125.8076079943021
 21
518.5014588304313
 31
0.0
  0
LINE
  5
7D7F
330
18
100
AcDbEntity
  8
0
 48
0.2
100
AcDbLine
 10
125.6632704270046
 20
523.0815858493535
 30
0.0
 11
126.9132704270046
 21
520.9165223398924
 31
0.0
  0
LINE
  5
7D80
330
18
100
AcDbEntity
  8
0
 48
0.2
100
AcDbLine
 10
125.8076079943021
 20
523.3315858493535
 30
0.0
 11
127.2019455615994
 21
520.9165223398924
 31
0.0
  0
LINE
  5
7D81
330
18
100
AcDbEntity
  8
0
 48
0.2
100
AcDbLine
 10
135.9132704270045
 20
527.6665223398924
 30
0.0
 11
115.1132704270044
 21
527.6665223398924
 31
0.0
  0
LINE
  5
7D82
330
18
100
AcDbEntity
  8
0
 48
0.2
100
AcDbLine
 10
125.8076079943021
 20
498.7014588304316
 30
0.0
 11
127.2019455615994
 21
501.1165223398927
 31
0.0
  0
LINE
  5
7D83
330
18
100
AcDbEntity
  8
0
 48
0.2
100
AcDbLine
 10
125.6632704270046
 20
498.9514588304316
 30
0.0
 11
126.9132704270046
 21
501.1165223398927
 31
0.0
  0
LINE
  5
7D84
330
18
100
AcDbEntity
  8
0
 48
0.2
100
AcDbLine
 10
127.2019455615994
 20
501.1165223398927
 30
0.0
 11
125.8076079943021
 21
503.5315858493539
 31
0.0
  0
LINE
  5
7D85
330
18
100
AcDbEntity
  8
0
 48
0.2
100
AcDbLine
 10
126.9132704270046
 20
501.1165223398927
 30
0.0
 11
125.6632704270046
 21
503.2815858493538
 31
0.0
  0
LINE
  5
7D86
330
18
100
AcDbEntity
  8
0
 48
0.2
100
AcDbLine
 10
135.9132704270045
 20
494.3665223398925
 30
0.0
 11
115.1132704270044
 21
494.3665223398927
 31
0.0
  0
LINE
  5
7D87
330
18
100
AcDbEntity
  8
0
 48
0.2
100
AcDbLine
 10
120.9132704270044
 20
518.9165223398925
 30
0.0
 11
99.9132704270044
 21
518.9165223398925
 31
0.0
  0
LINE
  5
7D88
330
18
100
AcDbEntity
  8
0
 48
0.2
100
AcDbLine
 10
120.9132704270046
 20
503.1165223398927
 30
0.0
 11
99.91327042700463
 21
503.1165223398925
 31
0.0
  0
ARC
  5
7D89
330
18
100
AcDbEntity
  8
0
 48
0.2
100
AcDbCircle
 10
103.0132704270045
 20
518.9165223398925
 30
0.0
 40
3.100000000000022
100
AcDbArc
 50
40.87863514651499
 51
180.0
  0
LINE
  5
7D8A
330
18
100
AcDbEntity
  8
0
 48
0.2
100
AcDbLine
 10
99.91327042700463
 20
503.1165223398927
 30
0.0
 11
99.9132704270044
 21
518.9165223398925
 31
0.0
  0
ARC
  5
7D8B
330
18
100
AcDbEntity
  8
0
 48
0.2
100
AcDbCircle
 10
103.0132704270047
 20
503.1165223398928
 30
0.0
 40
3.100000000000022
100
AcDbArc
 50
180.0
 51
319.1213648534849
  0
LINE
  5
7D8C
330
18
100
AcDbEntity
  8
0
 48
0.2
100
AcDbLine
 10
107.1132704270046
 20
503.1165223398927
 30
0.0
 11
105.357172866029
 21
501.0876996871368
 31
0.0
  0
LINE
  5
7D8D
330
18
100
AcDbEntity
  8
0
 48
0.2
100
AcDbLine
 10
107.1132704270044
 20
518.9165223398925
 30
0.0
 11
105.357172866029
 21
520.9453449926484
 31
0.0
  0
LINE
  5
7D8E
330
18
100
AcDbEntity
  8
0
 48
0.2
100
AcDbLine
 10
111.1132704270044
 20
518.9165223398925
 30
0.0
 11
115.1132704270044
 21
522.0165223398923
 31
0.0
  0
LINE
  5
7D8F
330
18
100
AcDbEntity
  8
0
 48
0.2
100
AcDbLine
 10
121.9132704270046
 20
520.9165223398924
 30
0.0
 11
123.1632704270046
 21
523.0815858493535
 31
0.0
  0
LINE
  5
7D90
330
18
100
AcDbEntity
  8
0
 48
0.2
100
AcDbLine
 10
121.6245952924098
 20
520.9165223398924
 30
0.0
 11
123.0189328597071
 21
523.3315858493535
 31
0.0
  0
CIRCLE
  5
7D91
330
18
100
AcDbEntity
  8
0
 48
0.2
100
AcDbCircle
 10
124.4132704270046
 20
520.9165223398924
 30
0.0
 40
1.5
  0
LINE
  5
7D92
330
18
100
AcDbEntity
  8
0
 48
0.2
100
AcDbLine
 10
115.9132704270046
 20
503.1165223398927
 30
0.0
 11
115.9132704270044
 21
518.9165223398925
 31
0.0
  0
LINE
  5
7D93
330
18
100
AcDbEntity
  8
0
 48
0.2
100
AcDbLine
 10
111.1132704270046
 20
503.1165223398927
 30
0.0
 11
115.1132704270046
 21
500.0165223398925
 31
0.0
  0
LINE
  5
7D94
330
18
100
AcDbEntity
  8
0
 48
0.2
100
AcDbLine
 10
115.1132704270044
 20
494.3665223398927
 30
0.0
 11
115.1132704270044
 21
500.0165223398925
 31
0.0
  0
ARC
  5
7D95
330
18
100
AcDbEntity
  8
0
 48
0.2
100
AcDbCircle
 10
116.2832704270045
 20
496.9665223398926
 30
0.0
 40
2.669999999999886
100
AcDbArc
 50
115.9892335838286
 51
244.0107664161699
  0
LINE
  5
7D96
330
18
100
AcDbEntity
  8
0
 48
0.2
100
AcDbLine
 10
120.9132704270046
 20
503.1165223398927
 30
0.0
 11
120.9132704270044
 21
518.9165223398925
 31
0.0
  0
LINE
  5
7D97
330
18
100
AcDbEntity
  8
0
 48
0.2
100
AcDbLine
 10
121.6245952924098
 20
501.1165223398927
 30
0.0
 11
123.0189328597071
 21
498.7014588304316
 31
0.0
  0
LINE
  5
7D98
330
18
100
AcDbEntity
  8
0
 48
0.2
100
AcDbLine
 10
121.9132704270046
 20
501.1165223398927
 30
0.0
 11
123.1632704270046
 21
498.9514588304316
 31
0.0
  0
LINE
  5
7D99
330
18
100
AcDbEntity
  8
0
 48
0.2
100
AcDbLine
 10
121.6245952924098
 20
501.1165223398927
 30
0.0
 11
123.0189328597071
 21
503.5315858493539
 31
0.0
  0
LINE
  5
7D9A
330
18
100
AcDbEntity
  8
0
 48
0.2
100
AcDbLine
 10
121.9132704270046
 20
501.1165223398927
 30
0.0
 11
123.1632704270046
 21
503.2815858493538
 31
0.0
  0
LINE
  5
7D9B
330
18
100
AcDbEntity
  8
0
 48
0.2
100
AcDbLine
 10
123.0189328597071
 20
498.7014588304316
 30
0.0
 11
125.8076079943021
 21
498.7014588304316
 31
0.0
  0
LINE
  5
7D9C
330
18
100
AcDbEntity
  8
0
 48
0.2
100
AcDbLine
 10
123.0189328597071
 20
503.5315858493539
 30
0.0
 11
125.8076079943021
 21
503.5315858493539
 31
0.0
  0
LINE
  5
7D9D
330
18
100
AcDbEntity
  8
0
 48
0.2
100
AcDbLine
 10
123.1632704270046
 20
503.2815858493538
 30
0.0
 11
125.6632704270046
 21
503.2815858493538
 31
0.0
  0
LINE
  5
7D9E
330
18
100
AcDbEntity
  8
0
 48
0.2
100
AcDbLine
 10
123.1632704270046
 20
498.9514588304316
 30
0.0
 11
125.6632704270046
 21
498.9514588304316
 31
0.0
  0
CIRCLE
  5
7D9F
330
18
100
AcDbEntity
  8
0
 48
0.2
100
AcDbCircle
 10
124.4132704270046
 20
501.1165223398927
 30
0.0
 40
1.5
  0
LINE
  5
7DA0
330
18
100
AcDbEntity
  8
0
 48
0.2
100
AcDbLine
 10
121.9132704270046
 20
520.9165223398924
 30
0.0
 11
123.1632704270046
 21
518.7514588304313
 31
0.0
  0
LINE
  5
7DA1
330
18
100
AcDbEntity
  8
0
 48
0.2
100
AcDbLine
 10
121.6245952924098
 20
520.9165223398924
 30
0.0
 11
123.0189328597071
 21
518.5014588304313
 31
0.0
  0
LINE
  5
7DA2
330
18
100
AcDbEntity
  8
0
 48
0.2
100
AcDbLine
 10
123.1632704270046
 20
518.7514588304313
 30
0.0
 11
125.6632704270046
 21
518.7514588304313
 31
0.0
  0
LINE
  5
7DA3
330
18
100
AcDbEntity
  8
0
 48
0.2
100
AcDbLine
 10
123.0189328597071
 20
518.5014588304313
 30
0.0
 11
125.8076079943021
 21
518.5014588304313
 31
0.0
  0
ARC
  5
7DA4
330
18
100
AcDbEntity
  8
0
 48
0.2
100
AcDbCircle
 10
116.2832704270043
 20
525.0665223398925
 30
0.0
 40
2.669999999999886
100
AcDbArc
 50
115.9892335838286
 51
244.0107664161699
  0
LINE
  5
7DA5
330
18
100
AcDbEntity
  8
0
 48
0.2
100
AcDbLine
 10
115.1132704270044
 20
522.0165223398926
 30
0.0
 11
115.1132704270044
 21
527.6665223398924
 31
0.0
  0
LINE
  5
7DA6
330
18
100
AcDbEntity
  8
0
 48
0.2
100
AcDbLine
 10
123.1632704270046
 20
523.0815858493535
 30
0.0
 11
125.6632704270046
 21
523.0815858493535
 31
0.0
  0
LINE
  5
7DA7
330
18
100
AcDbEntity
  8
0
 48
0.2
100
AcDbLine
 10
123.0189328597071
 20
523.3315858493535
 30
0.0
 11
125.8076079943021
 21
523.3315858493535
 31
0.0
  0
TEXT
  5
7FA4
330
18
100
AcDbEntity
  8
0
100
AcDbText
 10
-32.53067752787723
 20
511.591304108907
 30
0.0
 40
2.0
  1
ＣＮ２
  7
MSｺﾞｼｯｸ
100
AcDbText
  0
MTEXT
  5
7FA5
330
18
100
AcDbEntity
  8
0
100
AcDbMText
 10
-32.46645714837672
 20
473.0952222301563
 30
0.0
 40
2.0
 41
0.0
 71
     1
 72
     5
  1
ＣＮ１
  7
MSｺﾞｼｯｸ
 73
     1
 44
1.0
  0
LINE
  5
8158
330
18
100
AcDbEntity
  8
0
100
AcDbLine
 10
-48.52603919339718
 20
600.2790223398926
 30
0.0
 11
-48.52603919339719
 21
606.5740223398918
 31
0.0
  0
LINE
  5
815C
330
18
100
AcDbEntity
  8
0
100
AcDbLine
 10
-48.52603919339717
 20
585.5740223398935
 30
0.0
 11
-48.52603919339718
 21
591.8690223398928
 31
0.0
  0
INSERT
  5
815E
330
18
100
AcDbEntity
  8
0
100
AcDbBlockReference
  2
VORDANS1
 10
-51.92603919339717
 20
587.0690223398927
 30
0.0
  0
CIRCLE
  5
815F
330
18
100
AcDbEntity
  8
0
100
AcDbCircle
 10
-51.22603919339722
 20
612.4790223398926
 30
0.0
 40
2.5
  0
ARC
  5
8160
330
18
100
AcDbEntity
  8
0
100
AcDbCircle
 10
-51.22603919339722
 20
612.4790223398926
 30
0.0
 40
2.0
100
AcDbArc
 50
165.5224878140701
 51
194.4775121859299
  0
ARC
  5
8161
330
18
100
AcDbEntity
  8
0
100
AcDbCircle
 10
-51.22603919339722
 20
612.4790223398926
 30
0.0
 40
2.0
100
AcDbArc
 50
345.52248781407
 51
14.47751218592991
  0
LINE
  5
8162
330
18
100
AcDbEntity
  8
0
100
AcDbLine
 10
-49.28954752029344
 20
611.9790223398926
 30
0.0
 11
-50.72603919339722
 21
611.9790223398926
 31
0.0
  0
LINE
  5
8163
330
18
100
AcDbEntity
  8
0
100
AcDbLine
 10
-50.72603919339722
 20
611.9790223398926
 30
0.0
 11
-50.72603919339722
 21
610.5425306667889
 31
0.0
  0
LINE
  5
8164
330
18
100
AcDbEntity
  8
0
100
AcDbLine
 10
-51.72603919339722
 20
611.9790223398926
 30
0.0
 11
-51.72603919339722
 21
610.5425306667889
 31
0.0
  0
ARC
  5
8165
330
18
100
AcDbEntity
  8
0
100
AcDbCircle
 10
-51.22603919339722
 20
612.4790223398926
 30
0.0
 40
2.0
100
AcDbArc
 50
255.5224878140701
 51
284.4775121859298
  0
LINE
  5
8166
330
18
100
AcDbEntity
  8
0
100
AcDbLine
 10
-51.72603919339722
 20
611.9790223398926
 30
0.0
 11
-53.162530866501
 21
611.9790223398926
 31
0.0
  0
LINE
  5
8167
330
18
100
AcDbEntity
  8
0
100
AcDbLine
 10
-49.28954752029344
 20
612.9790223398927
 30
0.0
 11
-50.72603919339722
 21
612.9790223398927
 31
0.0
  0
LINE
  5
8168
330
18
100
AcDbEntity
  8
0
100
AcDbLine
 10
-50.72603919339722
 20
614.415514012996
 30
0.0
 11
-50.72603919339722
 21
612.9790223398927
 31
0.0
  0
LINE
  5
8169
330
18
100
AcDbEntity
  8
0
100
AcDbLine
 10
-51.72603919339722
 20
614.415514012996
 30
0.0
 11
-51.72603919339722
 21
612.9790223398927
 31
0.0
  0
ARC
  5
816A
330
18
100
AcDbEntity
  8
0
100
AcDbCircle
 10
-51.22603919339722
 20
612.4790223398926
 30
0.0
 40
2.0
100
AcDbArc
 50
75.52248781407016
 51
104.4775121859298
  0
LINE
  5
816B
330
18
100
AcDbEntity
  8
0
100
AcDbLine
 10
-51.72603919339722
 20
612.9790223398927
 30
0.0
 11
-53.162530866501
 21
612.9790223398927
 31
0.0
  0
CIRCLE
  5
816C
330
18
100
AcDbEntity
  8
0
100
AcDbCircle
 10
-51.22603919339722
 20
612.4790223398926
 30
0.0
 40
3.0
  0
LWPOLYLINE
  5
81E0
330
18
100
AcDbEntity
  8
0
100
AcDbPolyline
 90
        8
 70
     0
 43
0.0
 38
1.004996417558615E+99
 10
135.6132705609792
 20
588.0690221078419
 42
-0.0034483591116001
 10
135.7165805478233
 20
587.8783334917007
 42
-0.0115542971442169
 10
135.8080929575306
 20
587.6967709944838
 10
135.836742219257
 20
587.6334438279672
 42
-0.0214451454493749
 10
135.8817055267086
 20
587.5171821327696
 42
-0.0361324550867008
 10
135.9077919183516
 20
587.4156902174689
 10
135.9118942643133
 20
587.384192647699
 10
135.9132705609792
 20
587.3548792649876
  0
LWPOLYLINE
  5
81E1
330
18
100
AcDbEntity
  8
0
100
AcDbPolyline
 90
        8
 70
     0
 43
0.0
 38
1.004996417558615E+99
 10
135.9132705609792
 20
604.7931649506961
 42
-0.0426465887263262
 10
135.9078645687662
 20
604.7327896829975
 10
135.8974145261418
 20
604.6840036392334
 42
-0.0303643048025655
 10
135.8616202593366
 20
604.5750743666315
 42
-0.0178342398264282
 10
135.8083916120999
 20
604.4519093436701
 10
135.7647787839899
 20
604.362661810489
 42
-0.007436110675559
 10
135.6657799278338
 20
604.1751514355316
 10
135.6132705609792
 20
604.0790221078419
  0
LWPOLYLINE
  5
81E2
330
18
100
AcDbEntity
  8
0
100
AcDbPolyline
 90
        7
 70
     0
 43
0.0
 38
1.004996417558615E+99
 10
133.9232705609792
 20
595.5173173277398
 42
0.0010354907219746
 10
133.8765024023303
 20
595.5002122537353
 10
133.8228435935078
 20
595.4803121489381
 10
133.7699149225568
 20
595.4603824271742
 42
0.0054090623159217
 10
133.56362757922
 20
595.3795797801054
 10
133.4925145874809
 20
595.3504446173496
 10
133.4232705609792
 20
595.3213675421626
  0
LWPOLYLINE
  5
81E3
330
18
100
AcDbEntity
  8
0
100
AcDbPolyline
 90
        7
 70
     0
 43
0.0
 38
1.004996417558615E+99
 10
133.4232705609792
 20
599.1313675421626
 42
-0.0043862742691308
 10
133.5631070335739
 20
599.1893690593987
 10
133.6647755517514
 20
599.2298517888764
 10
133.7698351689413
 20
599.2703521647223
 42
-0.0025025260483379
 10
133.8762967904221
 20
599.3101365675537
 10
133.8997747404035
 20
599.3187513775667
 10
133.9232705609792
 20
599.3273173277399
  0
LWPOLYLINE
  5
81E4
330
18
100
AcDbEntity
  8
0
100
AcDbPolyline
 90
        7
 70
     0
 43
0.0
 38
1.004996417558615E+99
 10
133.4232705609792
 20
596.8266766735211
 42
0.0044011835197963
 10
133.5636274521645
 20
596.7684644870068
 10
133.6651562905721
 20
596.728043285079
 10
133.7699149030564
 20
596.6876617959088
 42
0.0025073429045212
 10
133.8765023531708
 20
596.6478319800435
 10
133.899877600978
 20
596.6392552199238
 10
133.9232705609869
 20
596.630726887952
  0
LINE
  5
81E5
330
18
100
AcDbEntity
  8
0
100
AcDbLine
 10
132.5132705609792
 20
605.0790221078418
 30
0.0
 11
135.9132705609792
 21
605.0790221078418
 31
0.0
  0
LINE
  5
81E6
330
18
100
AcDbEntity
  8
0
100
AcDbLine
 10
131.5160092693369
 20
596.8282074256062
 30
0.0
 11
133.4640852432147
 21
598.7762833994841
 31
0.0
  0
LINE
  5
81E7
330
18
100
AcDbEntity
  8
0
100
AcDbLine
 10
131.5160092693369
 20
593.0182074256062
 30
0.0
 11
133.4640852432147
 21
594.9662833994842
 31
0.0
  0
ARC
  5
81E8
330
18
100
AcDbEntity
  8
0
100
AcDbCircle
 10
132.3132705609792
 20
597.9790221078418
 30
0.0
 40
1.400000000000012
100
AcDbArc
 50
34.71343938852689
 51
55.28656061147445
  0
ARC
  5
81E9
330
18
100
AcDbEntity
  8
0
100
AcDbCircle
 10
132.3132705609792
 20
597.9790221078418
 30
0.0
 40
1.400000000000011
100
AcDbArc
 50
235.2865606114744
 51
34.71343938852689
  0
ARC
  5
81EA
330
18
100
AcDbEntity
  8
0
100
AcDbCircle
 10
132.3132705609792
 20
594.1690221078419
 30
0.0
 40
1.400000000000012
100
AcDbArc
 50
34.71343938852689
 51
55.28656061147445
  0
LINE
  5
81EB
330
18
100
AcDbEntity
  8
0
100
AcDbLine
 10
134.5132705609792
 20
600.2790221078419
 30
0.0
 11
129.0132705609792
 21
600.2790221078419
 31
0.0
  0
ARC
  5
81EC
330
18
100
AcDbEntity
  8
0
100
AcDbCircle
 10
132.3132705609792
 20
597.9790221078418
 30
0.0
 40
1.450000000000014
100
AcDbArc
 50
180.0
 51
0.0
  0
ARC
  5
81ED
330
18
100
AcDbEntity
  8
0
100
AcDbCircle
 10
132.3132705609792
 20
597.9790221078418
 30
0.0
 40
1.450000000000028
100
AcDbArc
 50
0.0
 51
180.0
  0
ARC
  5
81EE
330
18
100
AcDbEntity
  8
0
100
AcDbCircle
 10
132.3132705609792
 20
594.1690221078419
 30
0.0
 40
1.45000000000002
100
AcDbArc
 50
0.0
 51
180.0
  0
ARC
  5
81EF
330
18
100
AcDbEntity
  8
0
100
AcDbCircle
 10
132.3132705609792
 20
594.1690221078419
 30
0.0
 40
1.45000000000002
100
AcDbArc
 50
180.0
 51
0.0
  0
LINE
  5
81F0
330
18
100
AcDbEntity
  8
0
100
AcDbLine
 10
135.9132705609792
 20
587.0690221078418
 30
0.0
 11
129.0132705609792
 21
587.0690221078418
 31
0.0
  0
LINE
  5
81F1
330
18
100
AcDbEntity
  8
0
100
AcDbLine
 10
134.5132705609792
 20
591.8690221078418
 30
0.0
 11
129.0132705609792
 21
591.8690221078418
 31
0.0
  0
ARC
  5
81F2
330
18
100
AcDbEntity
  8
0
100
AcDbCircle
 10
132.3132705609792
 20
594.1690221078419
 30
0.0
 40
1.400000000000012
100
AcDbArc
 50
235.2865606114744
 51
34.71343938852689
  0
LINE
  5
81F3
330
18
100
AcDbEntity
  8
0
100
AcDbLine
 10
129.0132705609792
 20
600.5290221078419
 30
0.0
 11
129.0132705609792
 21
604.0790221078419
 31
0.0
  0
LINE
  5
81F4
330
18
100
AcDbEntity
  8
0
100
AcDbLine
 10
128.4132705609792
 20
600.2790221078419
 30
0.0
 11
128.4132705609792
 21
591.8690221078418
 31
0.0
  0
LINE
  5
81F5
330
18
100
AcDbEntity
  8
0
100
AcDbLine
 10
127.6132705609792
 20
600.2790221078419
 30
0.0
 11
127.6132705609792
 21
591.8690221078418
 31
0.0
  0
LINE
  5
81F6
330
18
100
AcDbEntity
  8
0
100
AcDbLine
 10
126.4132705609793
 20
591.8690221078418
 30
0.0
 11
126.4132705609793
 21
600.2790221078419
 31
0.0
  0
LINE
  5
81F7
330
18
100
AcDbEntity
  8
0
100
AcDbLine
 10
128.7132705609792
 20
591.8690221078418
 30
0.0
 11
129.0132705609792
 21
591.8690221078418
 31
0.0
  0
LINE
  5
81F8
330
18
100
AcDbEntity
  8
0
100
AcDbLine
 10
126.7132705609792
 20
591.8690221078418
 30
0.0
 11
126.9132705609793
 21
591.8690221078418
 31
0.0
  0
LINE
  5
81F9
330
18
100
AcDbEntity
  8
0
100
AcDbLine
 10
126.9132705609793
 20
591.8690221078418
 30
0.0
 11
127.0132705609794
 21
591.8690221078418
 31
0.0
  0
LINE
  5
81FA
330
18
100
AcDbEntity
  8
0
100
AcDbLine
 10
127.0132705609794
 20
591.8690221078418
 30
0.0
 11
127.6132705609792
 21
591.8690221078418
 31
0.0
  0
LINE
  5
81FB
330
18
100
AcDbEntity
  8
0
100
AcDbLine
 10
128.7132705609792
 20
591.8690221078418
 30
0.0
 11
128.6314774922176
 21
591.8690221078418
 31
0.0
  0
LINE
  5
81FC
330
18
100
AcDbEntity
  8
0
100
AcDbLine
 10
127.6132705609792
 20
591.8690221078418
 30
0.0
 11
128.4132705609792
 21
591.8690221078418
 31
0.0
  0
LINE
  5
81FD
330
18
100
AcDbEntity
  8
0
100
AcDbLine
 10
128.4132705609792
 20
591.8690221078418
 30
0.0
 11
128.6314774922176
 21
591.8690221078418
 31
0.0
  0
LINE
  5
81FE
330
18
100
AcDbEntity
  8
0
100
AcDbLine
 10
126.7132705609792
 20
591.8690221078418
 30
0.0
 11
126.4132705609793
 21
591.8690221078418
 31
0.0
  0
LINE
  5
81FF
330
18
100
AcDbEntity
  8
0
100
AcDbLine
 10
129.0132705609792
 20
591.6190221078418
 30
0.0
 11
129.0132705609792
 21
588.0690221078419
 31
0.0
  0
LINE
  5
8200
330
18
100
AcDbEntity
  8
0
100
AcDbLine
 10
129.0132705609792
 20
587.7190221078418
 30
0.0
 11
129.0132705609792
 21
587.0690221078418
 31
0.0
  0
LINE
  5
8201
330
18
100
AcDbEntity
  8
0
100
AcDbLine
 10
129.0132705609792
 20
588.0690221078419
 30
0.0
 11
129.0132705609792
 21
587.7190221078418
 31
0.0
  0
LINE
  5
8202
330
18
100
AcDbEntity
  8
0
100
AcDbLine
 10
129.0132705609792
 20
591.8690221078418
 30
0.0
 11
129.0132705609792
 21
591.6190221078418
 31
0.0
  0
LINE
  5
8203
330
18
100
AcDbEntity
  8
0
100
AcDbLine
 10
128.7132705609792
 20
600.2790221078419
 30
0.0
 11
129.0132705609792
 21
600.2790221078419
 31
0.0
  0
LINE
  5
8204
330
18
100
AcDbEntity
  8
0
100
AcDbLine
 10
126.7132705609792
 20
600.2790221078419
 30
0.0
 11
126.9132705609793
 21
600.2790221078419
 31
0.0
  0
LINE
  5
8205
330
18
100
AcDbEntity
  8
0
100
AcDbLine
 10
128.6314774922176
 20
600.2790221078419
 30
0.0
 11
128.4132705609792
 21
600.2790221078419
 31
0.0
  0
LINE
  5
8206
330
18
100
AcDbEntity
  8
0
100
AcDbLine
 10
128.4132705609792
 20
600.2790221078419
 30
0.0
 11
127.6132705609792
 21
600.2790221078419
 31
0.0
  0
LINE
  5
8207
330
18
100
AcDbEntity
  8
0
100
AcDbLine
 10
128.6314774922176
 20
600.2790221078419
 30
0.0
 11
128.7132705609792
 21
600.2790221078419
 31
0.0
  0
LINE
  5
8208
330
18
100
AcDbEntity
  8
0
100
AcDbLine
 10
127.6132705609792
 20
600.2790221078419
 30
0.0
 11
127.0132705609794
 21
600.2790221078419
 31
0.0
  0
LINE
  5
8209
330
18
100
AcDbEntity
  8
0
100
AcDbLine
 10
127.0132705609794
 20
600.2790221078419
 30
0.0
 11
126.9132705609793
 21
600.2790221078419
 31
0.0
  0
LINE
  5
820A
330
18
100
AcDbEntity
  8
0
100
AcDbLine
 10
126.7132705609792
 20
600.2790221078419
 30
0.0
 11
126.4132705609793
 21
600.2790221078419
 31
0.0
  0
LINE
  5
820B
330
18
100
AcDbEntity
  8
0
100
AcDbLine
 10
129.0132705609792
 20
600.2790221078419
 30
0.0
 11
129.0132705609792
 21
600.5290221078419
 31
0.0
  0
ARC
  5
820C
330
18
100
AcDbEntity
  8
0
100
AcDbCircle
 10
132.3132705609792
 20
594.1690221078419
 30
0.0
 40
1.400000000000012
100
AcDbArc
 50
180.0
 51
214.7134393885268
  0
ARC
  5
820D
330
18
100
AcDbEntity
  8
0
100
AcDbCircle
 10
132.3132705609792
 20
597.9790221078418
 30
0.0
 40
1.400000000000012
100
AcDbArc
 50
180.0
 51
214.7134393885268
  0
LINE
  5
820E
330
18
100
AcDbEntity
  8
0
100
AcDbLine
 10
133.1105318526215
 20
599.1298367900774
 30
0.0
 11
131.1624558787436
 21
597.1817608161996
 31
0.0
  0
LINE
  5
820F
330
18
100
AcDbEntity
  8
0
100
AcDbLine
 10
133.1105318526215
 20
595.3198367900775
 30
0.0
 11
131.1624558787436
 21
593.3717608161996
 31
0.0
  0
ARC
  5
8210
330
18
100
AcDbEntity
  8
0
100
AcDbCircle
 10
132.3132705609792
 20
597.9790221078418
 30
0.0
 40
1.400000000000008
100
AcDbArc
 50
214.7134393885268
 51
235.2865606114744
  0
ARC
  5
8211
330
18
100
AcDbEntity
  8
0
100
AcDbCircle
 10
132.3132705609792
 20
594.1690221078419
 30
0.0
 40
1.400000000000024
100
AcDbArc
 50
214.7134393885268
 51
235.2865606114744
  0
ARC
  5
8212
330
18
100
AcDbEntity
  8
0
100
AcDbCircle
 10
132.3132705609792
 20
594.1690221078419
 30
0.0
 40
1.400000000000023
100
AcDbArc
 50
55.28656061147445
 51
180.0
  0
ARC
  5
8213
330
18
100
AcDbEntity
  8
0
100
AcDbCircle
 10
132.3132705609792
 20
597.9790221078418
 30
0.0
 40
1.400000000000012
100
AcDbArc
 50
55.28656061147445
 51
180.0
  0
LINE
  5
8214
330
18
100
AcDbEntity
  8
0
100
AcDbLine
 10
132.3024747484012
 20
605.0790221078418
 30
0.0
 11
132.5132705609792
 21
605.0790221078418
 31
0.0
  0
LINE
  5
8215
330
18
100
AcDbEntity
  8
0
100
AcDbLine
 10
132.013455730538
 20
605.0790221078418
 30
0.0
 11
132.1715525899715
 21
605.0790221078418
 31
0.0
  0
LINE
  5
8216
330
18
100
AcDbEntity
  8
0
100
AcDbLine
 10
131.3368362816969
 20
605.0790221078418
 30
0.0
 11
131.5251511086593
 21
605.0790221078418
 31
0.0
  0
LINE
  5
8217
330
18
100
AcDbEntity
  8
0
100
AcDbLine
 10
131.5251511086593
 20
605.0790221078418
 30
0.0
 11
132.013455730538
 21
605.0790221078418
 31
0.0
  0
LINE
  5
8218
330
18
100
AcDbEntity
  8
0
100
AcDbLine
 10
132.1715525899715
 20
605.0790221078418
 30
0.0
 11
132.3024747484012
 21
605.0790221078418
 31
0.0
  0
LINE
  5
8219
330
18
100
AcDbEntity
  8
0
100
AcDbLine
 10
129.0132705609792
 20
605.0790221078418
 30
0.0
 11
129.0132705609792
 21
604.4290221078418
 31
0.0
  0
LINE
  5
821A
330
18
100
AcDbEntity
  8
0
100
AcDbLine
 10
129.0132705609792
 20
604.4290221078418
 30
0.0
 11
129.0132705609792
 21
604.0790221078419
 31
0.0
  0
LINE
  5
821B
330
18
100
AcDbEntity
  8
0
100
AcDbLine
 10
131.1787394222636
 20
605.0790221078418
 30
0.0
 11
131.267816713051
 21
605.0790221078418
 31
0.0
  0
LINE
  5
821C
330
18
100
AcDbEntity
  8
0
100
AcDbLine
 10
130.958114273884
 20
605.0790221078418
 30
0.0
 11
131.1787394222636
 21
605.0790221078418
 31
0.0
  0
LINE
  5
821D
330
18
100
AcDbEntity
  8
0
100
AcDbLine
 10
131.267816713051
 20
605.0790221078418
 30
0.0
 11
131.2967889783666
 21
605.0790221078418
 31
0.0
  0
LINE
  5
821E
330
18
100
AcDbEntity
  8
0
100
AcDbLine
 10
130.8690369830966
 20
605.0790221078418
 30
0.0
 11
130.958114273884
 21
605.0790221078418
 31
0.0
  0
LINE
  5
821F
330
18
100
AcDbEntity
  8
0
100
AcDbLine
 10
130.8000174144506
 20
605.0790221078418
 30
0.0
 11
130.840064717781
 21
605.0790221078418
 31
0.0
  0
LINE
  5
8220
330
18
100
AcDbEntity
  8
0
100
AcDbLine
 10
129.8361821905914
 20
605.0790221078418
 30
0.0
 11
130.6117025874883
 21
605.0790221078418
 31
0.0
  0
LINE
  5
8221
330
18
100
AcDbEntity
  8
0
100
AcDbLine
 10
129.7240663735571
 20
605.0790221078418
 30
0.0
 11
129.8361821905914
 21
605.0790221078418
 31
0.0
  0
LINE
  5
8222
330
18
100
AcDbEntity
  8
0
100
AcDbLine
 10
130.6117025874883
 20
605.0790221078418
 30
0.0
 11
130.7873657646366
 21
605.0790221078418
 31
0.0
  0
LINE
  5
8223
330
18
100
AcDbEntity
  8
0
100
AcDbLine
 10
130.7873657646366
 20
605.0790221078418
 30
0.0
 11
130.8000174144506
 21
605.0790221078418
 31
0.0
  0
LINE
  5
8224
330
18
100
AcDbEntity
  8
0
100
AcDbLine
 10
130.840064717781
 20
605.0790221078418
 30
0.0
 11
130.8690369830966
 21
605.0790221078418
 31
0.0
  0
LINE
  5
8225
330
18
100
AcDbEntity
  8
0
100
AcDbLine
 10
129.0132705609792
 20
605.0790221078418
 30
0.0
 11
129.5132705609792
 21
605.0790221078418
 31
0.0
  0
LINE
  5
8226
330
18
100
AcDbEntity
  8
0
100
AcDbLine
 10
129.5132705609792
 20
605.0790221078418
 30
0.0
 11
129.7240663735571
 21
605.0790221078418
 31
0.0
  0
LINE
  5
8227
330
18
100
AcDbEntity
  8
0
100
AcDbLine
 10
131.2967889783666
 20
605.0790221078418
 30
0.0
 11
131.3368362816969
 21
605.0790221078418
 31
0.0
  0
LINE
  5
8228
330
18
100
AcDbEntity
  8
0
100
AcDbLine
 10
135.0132705609792
 20
591.8690221078418
 30
0.0
 11
135.0132705609792
 21
592.6690221078419
 31
0.0
  0
LINE
  5
8229
330
18
100
AcDbEntity
  8
0
100
AcDbLine
 10
135.9132705609792
 20
592.6940221078418
 30
0.0
 11
135.9132705609792
 21
591.8690221078418
 31
0.0
  0
LINE
  5
822A
330
18
100
AcDbEntity
  8
0
100
AcDbLine
 10
135.9132705609792
 20
588.0690221078419
 30
0.0
 11
135.9132705609792
 21
587.3548792649876
 31
0.0
  0
LINE
  5
822B
330
18
100
AcDbEntity
  8
0
100
AcDbLine
 10
135.9132705609792
 20
587.3548792649876
 30
0.0
 11
135.9132705609792
 21
587.0690221078418
 31
0.0
  0
LINE
  5
822C
330
18
100
AcDbEntity
  8
0
100
AcDbLine
 10
135.0132705609792
 20
591.8690221078418
 30
0.0
 11
134.5132705609792
 21
591.8690221078418
 31
0.0
  0
LINE
  5
822D
330
18
100
AcDbEntity
  8
0
100
AcDbLine
 10
135.9132705609792
 20
591.8690221078418
 30
0.0
 11
135.9132705609792
 21
590.9190221078419
 31
0.0
  0
LINE
  5
822E
330
18
100
AcDbEntity
  8
0
100
AcDbLine
 10
135.9132705609792
 20
588.4190221078418
 30
0.0
 11
135.9132705609792
 21
588.0690221078419
 31
0.0
  0
LINE
  5
822F
330
18
100
AcDbEntity
  8
0
100
AcDbLine
 10
135.9132705609792
 20
599.4540221078418
 30
0.0
 11
135.9132705609792
 21
600.2790221078419
 31
0.0
  0
LINE
  5
8230
330
18
100
AcDbEntity
  8
0
100
AcDbLine
 10
135.9132705609792
 20
600.2790221078419
 30
0.0
 11
135.9132705609792
 21
601.2290221078419
 31
0.0
  0
LINE
  5
8231
330
18
100
AcDbEntity
  8
0
100
AcDbLine
 10
135.0132705609792
 20
600.2790221078419
 30
0.0
 11
134.5132705609792
 21
600.2790221078419
 31
0.0
  0
LINE
  5
8232
330
18
100
AcDbEntity
  8
0
100
AcDbLine
 10
135.0132705609792
 20
599.4790221078418
 30
0.0
 11
135.0132705609792
 21
600.2790221078419
 31
0.0
  0
LINE
  5
8233
330
18
100
AcDbEntity
  8
0
100
AcDbLine
 10
133.9232705609792
 20
595.5173173277398
 30
0.0
 11
133.9232705609869
 21
596.630726887952
 31
0.0
  0
LINE
  5
8234
330
18
100
AcDbEntity
  8
0
100
AcDbLine
 10
133.4232705609792
 20
599.4790221078418
 30
0.0
 11
133.9232705609792
 21
599.4790221078418
 31
0.0
  0
LINE
  5
8235
330
18
100
AcDbEntity
  8
0
100
AcDbLine
 10
133.9232705609792
 20
599.3273173277399
 30
0.0
 11
133.9232705609792
 21
599.4790221078418
 31
0.0
  0
LINE
  5
8236
330
18
100
AcDbEntity
  8
0
100
AcDbLine
 10
133.9232705609792
 20
599.4790221078418
 30
0.0
 11
134.5132705609792
 21
599.4790221078418
 31
0.0
  0
LINE
  5
8237
330
18
100
AcDbEntity
  8
0
100
AcDbLine
 10
134.5132705609792
 20
599.4790221078418
 30
0.0
 11
135.0132705609792
 21
599.4790221078418
 31
0.0
  0
LINE
  5
8238
330
18
100
AcDbEntity
  8
0
100
AcDbLine
 10
135.1632695609792
 20
596.2749840021651
 30
0.0
 11
135.1632695609792
 21
595.8730602135185
 31
0.0
  0
LINE
  5
8239
330
18
100
AcDbEntity
  8
0
100
AcDbLine
 10
135.9132704270046
 20
596.0740223398927
 30
0.0
 11
135.1632695609792
 21
596.2749840021651
 31
0.0
  0
LINE
  5
823A
330
18
100
AcDbEntity
  8
0
100
AcDbLine
 10
135.9132704270046
 20
596.0740223398927
 30
0.0
 11
135.1632695609792
 21
595.8730602135185
 31
0.0
  0
LINE
  5
823B
330
18
100
AcDbEntity
  8
0
100
AcDbLine
 10
133.9232705609792
 20
592.6690221078419
 30
0.0
 11
134.5132705609792
 21
592.6690221078419
 31
0.0
  0
LINE
  5
823C
330
18
100
AcDbEntity
  8
0
100
AcDbLine
 10
134.5132705609792
 20
592.6690221078419
 30
0.0
 11
135.0132705609792
 21
592.6690221078419
 31
0.0
  0
LINE
  5
823D
330
18
100
AcDbEntity
  8
0
100
AcDbLine
 10
133.9232705609792
 20
592.6690221078419
 30
0.0
 11
133.4232705609792
 21
592.6690221078419
 31
0.0
  0
LINE
  5
823E
330
18
100
AcDbEntity
  8
0
100
AcDbLine
 10
133.9232705609806
 20
592.8207268879453
 30
0.0
 11
133.9232705609792
 21
592.6690221078419
 31
0.0
  0
LINE
  5
823F
330
18
100
AcDbEntity
  8
0
100
AcDbLine
 10
135.9132705609792
 20
595.7990221078419
 30
0.0
 11
135.6132705609792
 21
595.7990221078419
 31
0.0
  0
LINE
  5
8240
330
18
100
AcDbEntity
  8
0
100
AcDbLine
 10
135.6132705609792
 20
596.3490221078418
 30
0.0
 11
135.9132705609792
 21
596.3490221078418
 31
0.0
  0
LWPOLYLINE
  5
8241
330
18
100
AcDbEntity
  8
0
100
AcDbPolyline
 90
        7
 70
     0
 43
0.0
 10
133.9232705609806
 20
592.8207268879453
 42
-0.0010357402252054
 10
133.8764913952203
 20
592.8378360135799
 10
133.8227614733698
 20
592.8577627535786
 10
133.7699106010027
 20
592.8776634283019
 42
-0.0054101641983534
 10
133.5635991864989
 20
592.9584759282149
 10
133.4927101924723
 20
592.987518473119
 10
133.4232705609792
 20
593.016676673521
  0
ARC
  5
8242
330
18
100
AcDbEntity
  8
0
100
AcDbCircle
 10
134.4132705609792
 20
597.9790221078418
 30
0.0
 40
0.4999999999999998
100
AcDbArc
 50
263.1628588318633
 51
0.0
  0
ARC
  5
8243
330
18
100
AcDbEntity
  8
0
100
AcDbCircle
 10
134.4132705609792
 20
597.9790221078418
 30
0.0
 40
0.5
100
AcDbArc
 50
0.0
 51
96.83714116813657
  0
ARC
  5
8244
330
18
100
AcDbEntity
  8
0
100
AcDbCircle
 10
132.3132705609792
 20
594.1690221078419
 30
0.0
 40
2.1
100
AcDbArc
 50
13.67428233626992
 51
39.94450518981471
  0
ARC
  5
8245
330
18
100
AcDbEntity
  8
0
100
AcDbCircle
 10
132.3132705609792
 20
597.9790221078418
 30
0.0
 40
2.100000000000624
100
AcDbArc
 50
320.0554948104905
 51
346.32571766373
  0
ARC
  5
8246
330
18
100
AcDbEntity
  8
0
100
AcDbCircle
 10
132.3132705609792
 20
594.1690221078419
 30
0.0
 40
2.1
100
AcDbArc
 50
0.0
 51
13.67428233626992
  0
ARC
  5
8247
330
18
100
AcDbEntity
  8
0
100
AcDbCircle
 10
132.3132705609792
 20
597.9790221078418
 30
0.0
 40
2.100000000000008
100
AcDbArc
 50
346.32571766373
 51
0.0
  0
ARC
  5
8248
330
18
100
AcDbEntity
  8
0
100
AcDbCircle
 10
132.3132705609792
 20
597.9790221078418
 30
0.0
 40
2.100000000000008
100
AcDbArc
 50
0.0
 51
13.67428233626992
  0
ARC
  5
8249
330
18
100
AcDbEntity
  8
0
100
AcDbCircle
 10
132.3132705609792
 20
597.9790221078418
 30
0.0
 40
2.100000000000006
100
AcDbArc
 50
13.67428233626992
 51
39.94450518981471
  0
ARC
  5
824A
330
18
100
AcDbEntity
  8
0
100
AcDbCircle
 10
134.4132705609792
 20
594.1690221078419
 30
0.0
 40
0.5000000000000011
100
AcDbArc
 50
263.1628588318633
 51
96.83714116813657
  0
ARC
  5
824B
330
18
100
AcDbEntity
  8
0
100
AcDbCircle
 10
132.3132705609792
 20
594.1690221078419
 30
0.0
 40
2.1
100
AcDbArc
 50
346.32571766373
 51
0.0
  0
ARC
  5
824C
330
18
100
AcDbEntity
  8
0
100
AcDbCircle
 10
132.3132705609792
 20
594.1690221078419
 30
0.0
 40
2.100000000000111
100
AcDbArc
 50
320.0554948102372
 51
346.32571766373
  0
LINE
  5
824D
330
18
100
AcDbEntity
  8
0
100
AcDbLine
 10
135.9132705609792
 20
604.0790221078419
 30
0.0
 11
135.9132705609792
 21
604.7931649506961
 31
0.0
  0
LINE
  5
824E
330
18
100
AcDbEntity
  8
0
100
AcDbLine
 10
135.9132705609792
 20
605.0790221078418
 30
0.0
 11
135.9132705609792
 21
604.7931649506961
 31
0.0
  0
LINE
  5
82C9
330
18
100
AcDbEntity
  8
0
100
AcDbLine
 10
135.0132704270045
 20
766.5734439081661
 30
0.0
 11
135.6132704270045
 21
766.573443908166
 31
0.0
  0
LINE
  5
82CC
330
18
100
AcDbEntity
  8
0
100
AcDbLine
 10
127.013270427004
 20
761.673443908166
 30
0.0
 11
127.0132704270046
 21
766.5093422930283
 31
0.0
  0
LINE
  5
82CF
330
18
100
AcDbEntity
  8
0
100
AcDbLine
 10
135.9132704270045
 20
763.773443908166
 30
0.0
 11
129.0132704270045
 21
763.773443908166
 31
0.0
  0
LINE
  5
82D0
330
18
100
AcDbEntity
  8
0
100
AcDbLine
 10
129.0132704270045
 20
762.9234439081661
 30
0.0
 11
129.0132704270045
 21
763.773443908166
 31
0.0
  0
LINE
  5
82D1
330
18
100
AcDbEntity
  8
0
100
AcDbLine
 10
129.0132704270045
 20
762.7734439081661
 30
0.0
 11
129.0132704270045
 21
762.9234439081661
 31
0.0
  0
LINE
  5
82D3
330
18
100
AcDbEntity
  8
0
100
AcDbLine
 10
135.9132704270045
 20
763.173443908166
 30
0.0
 11
135.9132704270045
 21
763.773443908166
 31
0.0
  0
LINE
  5
82D4
330
18
100
AcDbEntity
  8
0
100
AcDbLine
 10
135.9132704270045
 20
763.773443908166
 30
0.0
 11
135.9132704270045
 21
766.2734439081661
 31
0.0
  0
LINE
  5
82D5
330
18
100
AcDbEntity
  8
0
100
AcDbLine
 10
129.0132704270045
 20
762.7734439081661
 30
0.0
 11
129.0132704270045
 21
759.173443908166
 31
0.0
  0
LINE
  5
82DA
330
18
100
AcDbEntity
  8
0
100
AcDbLine
 10
132.3024746144265
 20
759.4734439081661
 30
0.0
 11
129.7240662395825
 21
759.4734439081661
 31
0.0
  0
LINE
  5
82DB
330
18
100
AcDbEntity
  8
0
100
AcDbLine
 10
132.5132704270045
 20
762.2626480955881
 30
0.0
 11
132.5132704270045
 21
759.6842397207439
 31
0.0
  0
LINE
  5
82DC
330
18
100
AcDbEntity
  8
0
100
AcDbLine
 10
131.1787392882889
 20
761.3027737720307
 30
0.0
 11
131.1787392882889
 21
761.9903385225442
 31
0.0
  0
LINE
  5
82DD
330
18
100
AcDbEntity
  8
0
100
AcDbLine
 10
132.1715524559968
 20
761.9903385225442
 30
0.0
 11
132.1715524559968
 21
759.95654929378
 31
0.0
  0
LINE
  5
82DE
330
18
100
AcDbEntity
  8
0
100
AcDbLine
 10
130.9581141399095
 20
760.196498244753
 30
0.0
 11
130.9581141399095
 21
759.9565492937801
 31
0.0
  0
LINE
  5
82DF
330
18
100
AcDbEntity
  8
0
100
AcDbLine
 10
131.1787392882886
 20
759.9565492937801
 30
0.0
 11
131.1787392882886
 21
760.196498244753
 31
0.0
  0
LINE
  5
82E0
330
18
100
AcDbEntity
  8
0
100
AcDbLine
 10
132.0134555965633
 20
759.7984524343466
 30
0.0
 11
131.3368361477222
 21
759.7984524343466
 31
0.0
  0
LINE
  5
82E1
330
18
100
AcDbEntity
  8
0
100
AcDbLine
 10
130.8000172804759
 20
759.7984524343466
 30
0.0
 11
130.7873656306619
 21
759.7984524343466
 31
0.0
  0
LINE
  5
82E2
330
18
100
AcDbEntity
  8
0
100
AcDbLine
 10
130.9581141399093
 20
761.5427227230036
 30
0.0
 11
130.9581141399093
 21
761.3027737720307
 31
0.0
  0
LINE
  5
82E3
330
18
100
AcDbEntity
  8
0
100
AcDbLine
 10
130.7873656306619
 20
761.7008195824371
 30
0.0
 11
130.8000172804759
 21
761.7008195824371
 31
0.0
  0
LINE
  5
82E4
330
18
100
AcDbEntity
  8
0
100
AcDbLine
 10
131.3368361477222
 20
762.1484353819775
 30
0.0
 11
132.0134555965633
 21
762.1484353819775
 31
0.0
  0
LINE
  5
82E5
330
18
100
AcDbEntity
  8
0
100
AcDbLine
 10
129.7240662395825
 20
762.4734439081661
 30
0.0
 11
132.3024746144265
 21
762.4734439081661
 31
0.0
  0
LINE
  5
82E6
330
18
100
AcDbEntity
  8
0
100
AcDbLine
 10
129.5132704270045
 20
762.2626480955881
 30
0.0
 11
129.5132704270045
 21
759.6842397207439
 31
0.0
  0
LINE
  5
82E9
330
18
100
AcDbEntity
  8
0
100
AcDbLine
 10
135.9132704270045
 20
759.0734439081662
 30
0.0
 11
135.9132704270045
 21
758.4734439081661
 31
0.0
  0
LINE
  5
82EA
330
18
100
AcDbEntity
  8
0
100
AcDbLine
 10
134.9132704270045
 20
758.173443908166
 30
0.0
 11
134.3537466174807
 21
758.173443908166
 31
0.0
  0
LINE
  5
82EB
330
18
100
AcDbEntity
  8
0
100
AcDbLine
 10
135.9132694270046
 20
758.2734439081661
 30
0.0
 11
135.9132694270046
 21
758.173443908166
 31
0.0
  0
LINE
  5
82EC
330
18
100
AcDbEntity
  8
0
100
AcDbLine
 10
135.6132704270045
 20
758.173443908166
 30
0.0
 11
135.9132694270046
 21
758.173443908166
 31
0.0
  0
LINE
  5
82ED
330
18
100
AcDbEntity
  8
0
100
AcDbLine
 10
135.1632694270046
 20
758.173443908166
 30
0.0
 11
135.6132704270045
 21
758.173443908166
 31
0.0
  0
LINE
  5
82EE
330
18
100
AcDbEntity
  8
0
100
AcDbLine
 10
135.0132704270045
 20
758.173443908166
 30
0.0
 11
135.1632694270046
 21
758.173443908166
 31
0.0
  0
LINE
  5
82EF
330
18
100
AcDbEntity
  8
0
100
AcDbLine
 10
134.9132704270045
 20
758.173443908166
 30
0.0
 11
135.0132704270045
 21
758.173443908166
 31
0.0
  0
LINE
  5
82F0
330
18
100
AcDbEntity
  8
0
100
AcDbLine
 10
129.0132704270045
 20
759.0234439081661
 30
0.0
 11
129.0132704270045
 21
758.173443908166
 31
0.0
  0
LINE
  5
82F1
330
18
100
AcDbEntity
  8
0
100
AcDbLine
 10
129.0132704270045
 20
759.173443908166
 30
0.0
 11
129.0132704270045
 21
759.0234439081661
 31
0.0
  0
LINE
  5
82F2
330
18
100
AcDbEntity
  8
0
100
AcDbLine
 10
133.9232704270045
 20
758.173443908166
 30
0.0
 11
134.3537466174807
 21
758.173443908166
 31
0.0
  0
LINE
  5
82F3
330
18
100
AcDbEntity
  8
0
100
AcDbLine
 10
129.0132704270045
 20
758.173443908166
 30
0.0
 11
133.9232704270045
 21
758.173443908166
 31
0.0
  0
LINE
  5
82F5
330
18
100
AcDbEntity
  8
0
100
AcDbLine
 10
135.9132704270045
 20
758.4734439081661
 30
0.0
 11
135.9132694270046
 21
758.2734439081661
 31
0.0
  0
LINE
  5
830D
330
18
100
AcDbEntity
  8
0
100
AcDbLine
 10
135.0132704270045
 20
756.7734439081661
 30
0.0
 11
135.0132704270045
 21
758.173443908166
 31
0.0
  0
LINE
  5
830E
330
18
100
AcDbEntity
  8
0
100
AcDbLine
 10
133.9132704270045
 20
756.273443908166
 30
0.0
 11
134.5132704270045
 21
756.273443908166
 31
0.0
  0
LINE
  5
830F
330
18
100
AcDbEntity
  8
0
100
AcDbLine
 10
127.013270427004
 20
761.673443908166
 30
0.0
 11
126.7132704270046
 21
761.673443908166
 31
0.0
  0
LINE
  5
8310
330
18
100
AcDbEntity
  8
0
100
AcDbLine
 10
127.6132704270045
 20
760.6734439081661
 30
0.0
 11
126.9132704270046
 21
760.6734439081661
 31
0.0
  0
LINE
  5
8311
330
18
100
AcDbEntity
  8
0
100
AcDbLine
 10
128.6314773582429
 20
756.873443908166
 30
0.0
 11
127.6132704270045
 21
760.6734439081661
 31
0.0
  0
LINE
  5
8312
330
18
100
AcDbEntity
  8
0
100
AcDbLine
 10
128.4132704270045
 20
756.873443908166
 30
0.0
 11
128.6314773582429
 21
756.873443908166
 31
0.0
  0
LINE
  5
8313
330
18
100
AcDbEntity
  8
0
100
AcDbLine
 10
133.9132704270045
 20
756.273443908166
 30
0.0
 11
133.7632704270045
 21
756.273443908166
 31
0.0
  0
LINE
  5
8314
330
18
100
AcDbEntity
  8
0
100
AcDbLine
 10
128.4132704270045
 20
756.5734439081661
 30
0.0
 11
128.4132704270045
 21
756.873443908166
 31
0.0
  0
LINE
  5
8315
330
18
100
AcDbEntity
  8
0
100
AcDbLine
 10
133.7632704270045
 20
756.273443908166
 30
0.0
 11
133.4232704270045
 21
756.273443908166
 31
0.0
  0
LINE
  5
8316
330
18
100
AcDbEntity
  8
0
100
AcDbLine
 10
130.8632704270045
 20
756.273443908166
 30
0.0
 11
133.4232704270045
 21
756.273443908166
 31
0.0
  0
LINE
  5
8317
330
18
100
AcDbEntity
  8
0
100
AcDbLine
 10
128.7132704270045
 20
756.273443908166
 30
0.0
 11
130.8632704270045
 21
756.273443908166
 31
0.0
  0
LINE
  5
8318
330
18
100
AcDbEntity
  8
0
100
AcDbLine
 10
126.4132704270046
 20
761.3734439081659
 30
0.0
 11
126.4132704270045
 21
761.1734439081659
 31
0.0
  0
LINE
  5
8319
330
18
100
AcDbEntity
  8
0
100
AcDbLine
 10
135.0132704270045
 20
767.3734439081661
 30
0.0
 11
135.0132704270045
 21
766.5734439081661
 31
0.0
  0
LINE
  5
831A
330
18
100
AcDbEntity
  8
0
100
AcDbLine
 10
127.0132704270047
 20
767.3734439081661
 30
0.0
 11
135.0132704270045
 21
767.3734439081661
 31
0.0
  0
LINE
  5
831B
330
18
100
AcDbEntity
  8
0
100
AcDbLine
 10
127.0132704270046
 20
766.5093422930283
 30
0.0
 11
127.0132704270047
 21
767.3734439081661
 31
0.0
  0
ARC
  5
831C
330
18
100
AcDbEntity
  8
0
100
AcDbCircle
 10
135.6132704270045
 20
766.2734439081661
 30
0.0
 40
0.2999999999999794
100
AcDbArc
 50
0.0
 51
90.0
  0
ARC
  5
831D
330
18
100
AcDbEntity
  8
0
100
AcDbCircle
 10
132.3024746144265
 20
762.2626480955881
 30
0.0
 40
0.2107958125779987
100
AcDbArc
 50
0.0
 51
90.0
  0
ARC
  5
831E
330
18
100
AcDbEntity
  8
0
100
AcDbCircle
 10
132.0134555965633
 20
761.9903385225442
 30
0.0
 40
0.1580968594334919
100
AcDbArc
 50
0.0
 51
90.0
  0
ARC
  5
831F
330
18
100
AcDbEntity
  8
0
100
AcDbCircle
 10
131.3368361477222
 20
761.9903385225442
 30
0.0
 40
0.1580968594334387
100
AcDbArc
 50
90.0
 51
180.0
  0
ARC
  5
8320
330
18
100
AcDbEntity
  8
0
100
AcDbCircle
 10
130.7873656306619
 20
760.7496360083919
 30
0.0
 40
0.951183574045199
100
AcDbArc
 50
90.0
 51
270.0
  0
ARC
  5
8321
330
18
100
AcDbEntity
  8
0
100
AcDbCircle
 10
131.0684267140991
 20
760.7496360083919
 30
0.0
 40
0.4567242605855182
100
AcDbArc
 50
295.884924457572
 51
64.11507554242508
  0
ARC
  5
8322
330
18
100
AcDbEntity
  8
0
100
AcDbCircle
 10
131.0684267140991
 20
760.7496360083919
 30
0.0
 40
0.4567242605854639
100
AcDbArc
 50
115.8849244575749
 51
244.1150755424279
  0
ARC
  5
8323
330
18
100
AcDbEntity
  8
0
100
AcDbCircle
 10
130.8000172804759
 20
760.196498244753
 30
0.0
 40
0.1580968594335808
100
AcDbArc
 50
0.0
 51
64.11507554241637
  0
ARC
  5
8324
330
18
100
AcDbEntity
  8
0
100
AcDbCircle
 10
132.0134555965633
 20
759.95654929378
 30
0.0
 40
0.1580968594334387
100
AcDbArc
 50
270.0
 51
0.0
  0
ARC
  5
8325
330
18
100
AcDbEntity
  8
0
100
AcDbCircle
 10
132.3024746144265
 20
759.6842397207439
 30
0.0
 40
0.2107958125779206
100
AcDbArc
 50
270.0
 51
0.0
  0
ARC
  5
8326
330
18
100
AcDbEntity
  8
0
100
AcDbCircle
 10
131.3368361477222
 20
759.9565492937801
 30
0.0
 40
0.1580968594336198
100
AcDbArc
 50
180.0
 51
270.0
  0
ARC
  5
8327
330
18
100
AcDbEntity
  8
0
100
AcDbCircle
 10
131.3368361477222
 20
760.196498244753
 30
0.0
 40
0.1580968594334207
100
AcDbArc
 50
115.8849244575544
 51
180.0
  0
ARC
  5
8328
330
18
100
AcDbEntity
  8
0
100
AcDbCircle
 10
130.8000172804759
 20
759.9565492937801
 30
0.0
 40
0.1580968594334315
100
AcDbArc
 50
270.0
 51
0.0
  0
ARC
  5
8329
330
18
100
AcDbEntity
  8
0
100
AcDbCircle
 10
130.8000172804759
 20
761.3027737720307
 30
0.0
 40
0.1580968594334404
100
AcDbArc
 50
295.8849244575836
 51
0.0
  0
ARC
  5
832A
330
18
100
AcDbEntity
  8
0
100
AcDbCircle
 10
130.8000172804759
 20
761.5427227230036
 30
0.0
 40
0.1580968594333889
100
AcDbArc
 50
0.0
 51
90.0
  0
ARC
  5
832B
330
18
100
AcDbEntity
  8
0
100
AcDbCircle
 10
131.3368361477222
 20
761.3027737720307
 30
0.0
 40
0.1580968594333001
100
AcDbArc
 50
180.0
 51
244.115075542441
  0
ARC
  5
832C
330
18
100
AcDbEntity
  8
0
100
AcDbCircle
 10
129.7240662395825
 20
762.2626480955881
 30
0.0
 40
0.2107958125779206
100
AcDbArc
 50
90.0
 51
180.0
  0
ARC
  5
832D
330
18
100
AcDbEntity
  8
0
100
AcDbCircle
 10
129.7240662395825
 20
759.6842397207439
 30
0.0
 40
0.2107958125779987
100
AcDbArc
 50
180.0
 51
270.0
  0
ARC
  5
832E
330
18
100
AcDbEntity
  8
0
100
AcDbCircle
 10
135.6132704270045
 20
758.4734439081661
 30
0.0
 40
0.2999999999999901
100
AcDbArc
 50
270.0
 51
0.0
  0
ARC
  5
832F
330
18
100
AcDbEntity
  8
0
100
AcDbCircle
 10
134.5132704270045
 20
756.7734439081661
 30
0.0
 40
0.4999999999999893
100
AcDbArc
 50
270.0
 51
0.0
  0
ARC
  5
8330
330
18
100
AcDbEntity
  8
0
100
AcDbCircle
 10
128.7132704270045
 20
756.5734439081661
 30
0.0
 40
0.3000000000000007
100
AcDbArc
 50
180.0
 51
270.0
  0
ARC
  5
8331
330
18
100
AcDbEntity
  8
0
100
AcDbCircle
 10
126.9132704270045
 20
761.1734439081661
 30
0.0
 40
0.5000000000000107
100
AcDbArc
 50
180.000000000013
 51
270.0
  0
ARC
  5
8332
330
18
100
AcDbEntity
  8
0
100
AcDbCircle
 10
126.7132704270046
 20
761.373443908166
 30
0.0
 40
0.300000000000022
100
AcDbArc
 50
90.0
 51
180.0
  0
CIRCLE
  5
8333
330
18
100
AcDbEntity
  8
0
100
AcDbCircle
 10
131.0684267140991
 20
760.7496360083919
 30
0.0
 40
0.2283621302927905
  0
LINE
  5
8380
330
18
100
AcDbEntity
  8
0
100
AcDbLine
 10
-50.52603919339722
 20
606.5740223398917
 30
0.0
 11
-50.52603919339722
 21
600.2790223398926
 31
0.0
  0
LINE
  5
8381
330
18
100
AcDbEntity
  8
0
100
AcDbLine
 10
-50.52603919339722
 20
591.8690223398928
 30
0.0
 11
-50.52603919339722
 21
585.5740223398936
 31
0.0
  0
LINE
  5
9C32
330
18
100
AcDbEntity
  8
0
100
AcDbLine
 10
-38.52603919339708
 20
606.5740223398927
 30
0.0
 11
-38.52603919339734
 21
585.5740223398927
 31
0.0
  0
LINE
  5
9C3D
330
18
100
AcDbEntity
  8
0
100
AcDbLine
 10
-50.5260391933973
 20
585.5740223398936
 30
0.0
 11
-38.5260391933974
 21
585.5740223398927
 31
0.0
  0
LINE
  5
9C3E
330
18
100
AcDbEntity
  8
0
100
AcDbLine
 10
-50.5260391933973
 20
606.5740223398917
 30
0.0
 11
-38.52603919339719
 21
606.5740223398927
 31
0.0
  0
TEXT
  5
9CD1
330
18
100
AcDbEntity
  8
0
100
AcDbText
 10
353.2664733896363
 20
376.7391615702347
 30
0.0
 40
6.0
  1
VC外形図(AC400V仕様)
  7
MSｺﾞｼｯｸ
100
AcDbText
  0
TEXT
  5
9CD2
330
18
100
AcDbEntity
  8
0
100
AcDbText
 10
352.3318647143899
 20
364.3812548023876
 30
0.0
 40
7.0
  1
ＳＥ－３２２２０Ｃ
 41
0.9529999999999999
  7
MSｺﾞｼｯｸ
100
AcDbText
  0
TEXT
  5
9CD3
330
18
100
AcDbEntity
  8
0
100
AcDbText
 10
313.1104405322476
 20
387.6744201740812
 30
0.0
 40
6.0
  1
ＮＣＲ－＊Ａ＊＊Ａ３＊－２６２＊（－Ｓ＊＊）
 41
0.7
  7
MSｺﾞｼｯｸ
100
AcDbText
  0
VIEWPORT
  5
9D31
330
9D2D
100
AcDbEntity
 67
     1
  8
0
100
AcDbViewport
 10
202.4999999999999
 20
128.4999999999999
 30
0.0
 40
486.0
 41
308.3999999999999
 68
     1
 69
     1
 12
202.4999999999999
 22
128.4999999999999
 13
0.0
 23
0.0
 14
0.5
 24
0.5
 15
0.0
 25
0.0
 16
0.0
 26
0.0
 36
1.0
 17
0.0
 27
0.0
 37
0.0
 42
50.0
 43
0.0
 44
0.0
 45
308.3999999999999
 50
0.0
 51
0.0
 72
   100
 90
    32864
  1

281
     0
 71
     1
 74
     0
110
0.0
120
0.0
130
0.0
111
1.0
121
0.0
131
0.0
112
0.0
122
1.0
132
0.0
 79
     0
146
0.0
  0
VIEWPORT
  5
9D32
330
9D2D
100
AcDbEntity
 67
     1
  8
0
100
AcDbViewport
 10
202.4999999999999
 20
128.4999999999999
 30
0.0
 40
324.0
 41
205.6
 68
     2
 69
     2
 12
152.5853006694253
 22
602.777349355277
 13
0.0
 23
0.0
 14
0.5
 24
0.5
 15
0.0
 25
0.0
 16
0.0
 26
0.0
 36
1.0
 17
0.0
 27
0.0
 37
0.0
 42
50.0
 43
0.0
 44
0.0
 45
486.3280328878944
 50
0.0
 51
0.0
 72
   100
 90
    32864
  1

281
     0
 71
     1
 74
     0
110
0.0
120
0.0
130
0.0
111
1.0
121
0.0
131
0.0
112
0.0
122
1.0
132
0.0
 79
     0
146
0.0
  0
ENDSEC
  0
SECTION
  2
OBJECTS
  0
DICTIONARY
  5
C
330
0
100
AcDbDictionary
281
     1
  3
ACAD_GROUP
350
D
  3
ACAD_IMAGE_VARS
350
9D2B
  3
ACAD_LAYOUT
350
73F
  3
ACAD_MLINESTYLE
350
1B
  3
ACAD_PLOTSETTINGS
350
740
  3
ACAD_PLOTSTYLENAME
350
73D
  3
ACAD_SCALELIST
350
9CFF
  3
AcadDim
350
61D4
  3
APPDATA
350
9D29
  3
DWGPROPS
350
9D39
  0
DICTIONARY
  5
D
102
{ACAD_REACTORS
330
C
102
}
330
C
100
AcDbDictionary
281
     1
  0
RASTERVARIABLES
  5
9D2B
102
{ACAD_REACTORS
330
C
102
}
330
C
100
AcDbRasterVariables
 90
        0
 70
     1
 71
     1
 72
     0
  0
DICTIONARY
  5
73F
102
{ACAD_REACTORS
330
C
102
}
330
C
100
AcDbDictionary
281
     1
  3
Model
350
741
  3
Sheet1
350
9D2E
  0
DICTIONARY
  5
1B
102
{ACAD_REACTORS
330
C
102
}
330
C
100
AcDbDictionary
281
     1
  3
STANDARD
350
1C
  0
DICTIONARY
  5
740
102
{ACAD_REACTORS
330
C
102
}
330
C
100
AcDbDictionary
281
     1
  0
ACDBDICTIONARYWDFLT
  5
73D
102
{ACAD_REACTORS
330
C
102
}
330
C
100
AcDbDictionary
281
     1
  3
Normal
350
73E
100
AcDbDictionaryWithDefault
340
73E
  0
DICTIONARY
  5
9CFF
102
{ACAD_REACTORS
330
C
102
}
330
C
100
AcDbDictionary
281
     1
  3
A0
350
9D00
  3
A1
350
9D01
  3
A2
350
9D02
  3
A3
350
9D03
  3
A4
350
9D04
  3
A5
350
9D05
  3
A6
350
9D06
  3
A7
350
9D07
  3
A8
350
9D08
  3
A9
350
9D09
  3
B0
350
9D0A
  3
B1
350
9D0B
  3
B2
350
9D0C
  3
B3
350
9D0D
  3
B4
350
9D0E
  3
B5
350
9D0F
  3
B6
350
9D10
  3
B7
350
9D11
  3
B8
350
9D12
  3
B9
350
9D13
  3
C0
350
9D14
  3
C1
350
9D15
  3
C2
350
9D16
  3
C3
350
9D17
  3
C4
350
9D18
  3
C5
350
9D19
  3
C6
350
9D1A
  3
C7
350
9D1B
  3
C8
350
9D1C
  3
C9
350
9D1D
  3
D0
350
9D1E
  3
D1
350
9D1F
  3
D2
350
9D20
  0
XRECORD
  5
61D4
102
{ACAD_REACTORS
330
C
102
}
330
C
100
AcDbXrecord
280
     1
 90
   990106
  3

 60
     0
 61
     0
 62
     1
 63
     3
 64
     0
 65
     0
 66
     0
 67
     3
 68
     1
 69
     0
 70
     0
 71
     0
 72
     0
 40
0.0
170
     0
340
0
  0
DICTIONARY
  5
9D29
102
{ACAD_REACTORS
330
C
102
}
330
C
100
AcDbDictionary
281
     1
  0
XRECORD
  5
9D39
102
{ACAD_REACTORS
330
C
102
}
330
C
100
AcDbXrecord
280
     1
  1
DWGPROPS COOKIE
  2

  3

  4

  6

  7

  8
k-yoshida
  9

300
=
301
=
302
=
303
=
304
=
305
=
306
=
307
=
308
=
309
=
 40
0.0
 41
2451224.285162384
 42
2457315.091826018
  1

 90
        0
  0
LAYOUT
  5
741
102
{ACAD_REACTORS
330
73F
102
}
330
73F
100
AcDbPlotSettings
  1

  2
HP DesignJet 750C (D/A1) Color
  4
ISO_A3_(420.00_x_297.00_MM)
  6

 40
7.5
 41
20.0
 42
7.5
 43
20.0
 44
420.0
 45
297.0
 46
0.0
 47
0.0
 48
0.0
 49
0.0
140
0.0
141
0.0
142
1.0
143
1.994526496912703
 70
  1712
 72
     1
 73
     0
 74
     0
  7

 75
     0
147
0.5013721309533289
148
126.2616231102482
149
-345.8411005933653
100
AcDbLayout
  1
Model
 70
     1
 71
     0
 10
0.0
 20
0.0
 11
12.0
 21
9.0
 12
0.0
 22
0.0
 32
0.0
 14
1.000000000000000E+20
 24
1.000000000000000E+20
 34
1.000000000000000E+20
 15
-1.000000000000000E+20
 25
-1.000000000000000E+20
 35
-1.000000000000000E+20
146
0.0
 13
0.0
 23
0.0
 33
0.0
 16
1.0
 26
0.0
 36
0.0
 17
0.0
 27
1.0
 37
0.0
 76
     0
330
18
  0
LAYOUT
  5
9D2E
102
{ACAD_REACTORS
330
73F
102
}
330
73F
100
AcDbPlotSettings
  1

  2
none_device
  4
ISO_A3_(420.00_x_297.00_MM)
  6

 40
7.5
 41
20.0
 42
7.5
 43
20.0
 44
420.0
 45
297.0
 46
0.0
 47
0.0
 48
0.0
 49
0.0
140
0.0
141
0.0
142
1.0
143
1.0
 70
   688
 72
     1
 73
     0
 74
     5
  7

 75
    16
147
1.0
148
0.0
149
0.0
100
AcDbLayout
  1
Sheet1
 70
     1
 71
     1
 10
0.0
 20
0.0
 11
0.0
 21
0.0
 12
0.0
 22
0.0
 32
0.0
 14
40.49999999999999
 24
25.69999999999998
 34
0.0
 15
364.5
 25
231.3
 35
0.0
146
0.0
 13
0.0
 23
0.0
 33
0.0
 16
1.0
 26
0.0
 36
0.0
 17
0.0
 27
1.0
 37
0.0
 76
     0
330
9D2D
331
9D31
  0
MLINESTYLE
  5
1C
102
{ACAD_REACTORS
330
1B
102
}
330
1B
100
AcDbMlineStyle
  2
STANDARD
 70
     0
  3

 62
   256
 51
90.0
 52
90.0
 71
     2
 49
0.5
 62
   256
  6
BYLAYER
 49
-0.5
 62
   256
  6
BYLAYER
  0
ACDBPLACEHOLDER
  5
73E
102
{ACAD_REACTORS
330
73D
102
}
330
73D
  0
ACAD_PROXY_OBJECT
  5
9D00
102
{ACAD_REACTORS
330
9CFF
102
}
330
9CFF
100
AcDbProxyObject
 90
      499
 91
      506
 95
   655383
 70
     0
 93
       41
310
903313A31581
 94
        0
  0
ACAD_PROXY_OBJECT
  5
9D01
102
{ACAD_REACTORS
330
9CFF
102
}
330
9CFF
100
AcDbProxyObject
 90
      499
 91
      506
 95
   655383
 70
     0
 93
      105
310
903313A324000000000000004000
 94
        0
  0
ACAD_PROXY_OBJECT
  5
9D02
102
{ACAD_REACTORS
330
9CFF
102
}
330
9CFF
100
AcDbProxyObject
 90
      499
 91
      506
 95
   655383
 70
     0
 93
      105
310
903313A344000000000000104000
 94
        0
  0
ACAD_PROXY_OBJECT
  5
9D03
102
{ACAD_REACTORS
330
9CFF
102
}
330
9CFF
100
AcDbProxyObject
 90
      499
 91
      506
 95
   655383
 70
     0
 93
      105
310
903313A354000000000000144000
 94
        0
  0
ACAD_PROXY_OBJECT
  5
9D04
102
{ACAD_REACTORS
330
9CFF
102
}
330
9CFF
100
AcDbProxyObject
 90
      499
 91
      506
 95
   655383
 70
     0
 93
      105
310
903313A384000000000000204000
 94
        0
  0
ACAD_PROXY_OBJECT
  5
9D05
102
{ACAD_REACTORS
330
9CFF
102
}
330
9CFF
100
AcDbProxyObject
 90
      499
 91
      506
 95
   655383
 70
     0
 93
      113
310
904313A3130400000000000024400D
 94
        0
  0
ACAD_PROXY_OBJECT
  5
9D06
102
{ACAD_REACTORS
330
9CFF
102
}
330
9CFF
100
AcDbProxyObject
 90
      499
 91
      506
 95
   655383
 70
     0
 93
      113
310
904313A3136400000000000030400D
 94
        0
  0
ACAD_PROXY_OBJECT
  5
9D07
102
{ACAD_REACTORS
330
9CFF
102
}
330
9CFF
100
AcDbProxyObject
 90
      499
 91
      506
 95
   655383
 70
     0
 93
      113
310
904313A3230400000000000034400D
 94
        0
  0
ACAD_PROXY_OBJECT
  5
9D08
102
{ACAD_REACTORS
330
9CFF
102
}
330
9CFF
100
AcDbProxyObject
 90
      499
 91
      506
 95
   655383
 70
     0
 93
      113
310
904313A333040000000000003E400D
 94
        0
  0
ACAD_PROXY_OBJECT
  5
9D09
102
{ACAD_REACTORS
330
9CFF
102
}
330
9CFF
100
AcDbProxyObject
 90
      499
 91
      506
 95
   655383
 70
     0
 93
      113
310
904313A3430400000000000044400D
 94
        0
  0
ACAD_PROXY_OBJECT
  5
9D0A
102
{ACAD_REACTORS
330
9CFF
102
}
330
9CFF
100
AcDbProxyObject
 90
      499
 91
      506
 95
   655383
 70
     0
 93
      113
310
904313A3530400000000000049400D
 94
        0
  0
ACAD_PROXY_OBJECT
  5
9D0B
102
{ACAD_REACTORS
330
9CFF
102
}
330
9CFF
100
AcDbProxyObject
 90
      499
 91
      506
 95
   655383
 70
     0
 93
      121
310
905313A3130304000000000000594000
 94
        0
  0
ACAD_PROXY_OBJECT
  5
9D0C
102
{ACAD_REACTORS
330
9CFF
102
}
330
9CFF
100
AcDbProxyObject
 90
      499
 91
      506
 95
   655383
 70
     0
 93
      105
310
903323A310000000000000010159
 94
        0
  0
ACAD_PROXY_OBJECT
  5
9D0D
102
{ACAD_REACTORS
330
9CFF
102
}
330
9CFF
100
AcDbProxyObject
 90
      499
 91
      506
 95
   655383
 70
     0
 93
      105
310
903343A310000000000000410159
 94
        0
  0
ACAD_PROXY_OBJECT
  5
9D0E
102
{ACAD_REACTORS
330
9CFF
102
}
330
9CFF
100
AcDbProxyObject
 90
      499
 91
      506
 95
   655383
 70
     0
 93
      105
310
903383A310000000000000810159
 94
        0
  0
ACAD_PROXY_OBJECT
  5
9D0F
102
{ACAD_REACTORS
330
9CFF
102
}
330
9CFF
100
AcDbProxyObject
 90
      499
 91
      506
 95
   655383
 70
     0
 93
      113
310
90431303A310000000000000910140
 94
        0
  0
ACAD_PROXY_OBJECT
  5
9D10
102
{ACAD_REACTORS
330
9CFF
102
}
330
9CFF
100
AcDbProxyObject
 90
      499
 91
      506
 95
   655383
 70
     0
 93
      121
310
9053130303A310000000000001650100
 94
        0
  0
ACAD_PROXY_OBJECT
  5
9D11
102
{ACAD_REACTORS
330
9CFF
102
}
330
9CFF
100
AcDbProxyObject
 90
      499
 91
      506
 95
   655383
 70
     0
 93
      257
310
90E312F31323822203D2031272D3022000000000000200FC000000000000284000
 94
        0
  0
ACAD_PROXY_OBJECT
  5
9D12
102
{ACAD_REACTORS
330
9CFF
102
}
330
9CFF
100
AcDbProxyObject
 90
      499
 91
      506
 95
   655383
 70
     0
 93
      249
310
90D312F363422203D2031272D3022000000000000240FC000000000000284040
 94
        0
  0
ACAD_PROXY_OBJECT
  5
9D13
102
{ACAD_REACTORS
330
9CFF
102
}
330
9CFF
100
AcDbProxyObject
 90
      499
 91
      506
 95
   655383
 70
     0
 93
      249
310
90D312F333222203D2031272D3022000000000000280FC000000000000284040
 94
        0
  0
ACAD_PROXY_OBJECT
  5
9D14
102
{ACAD_REACTORS
330
9CFF
102
}
330
9CFF
100
AcDbProxyObject
 90
      499
 91
      506
 95
   655383
 70
     0
 93
      249
310
90D312F313622203D2031272D30220000000000002C0FC000000000000284040
 94
        0
  0
ACAD_PROXY_OBJECT
  5
9D15
102
{ACAD_REACTORS
330
9CFF
102
}
330
9CFF
100
AcDbProxyObject
 90
      499
 91
      506
 95
   655383
 70
     0
 93
      249
310
90D332F333222203D2031272D30220000000000002E0FC000000000000284040
 94
        0
  0
ACAD_PROXY_OBJECT
  5
9D16
102
{ACAD_REACTORS
330
9CFF
102
}
330
9CFF
100
AcDbProxyObject
 90
      499
 91
      506
 95
   655383
 70
     0
 93
      241
310
90C312F3822203D2031272D3022000000000000300FC000000000000284040
 94
        0
  0
ACAD_PROXY_OBJECT
  5
9D17
102
{ACAD_REACTORS
330
9CFF
102
}
330
9CFF
100
AcDbProxyObject
 90
      499
 91
      506
 95
   655383
 70
     0
 93
      249
310
90D332F313622203D2031272D3022000000000000320FC000000000000284040
 94
        0
  0
ACAD_PROXY_OBJECT
  5
9D18
102
{ACAD_REACTORS
330
9CFF
102
}
330
9CFF
100
AcDbProxyObject
 90
      499
 91
      506
 95
   655383
 70
     0
 93
      241
310
90C312F3422203D2031272D3022000000000000340FC000000000000284040
 94
        0
  0
ACAD_PROXY_OBJECT
  5
9D19
102
{ACAD_REACTORS
330
9CFF
102
}
330
9CFF
100
AcDbProxyObject
 90
      499
 91
      506
 95
   655383
 70
     0
 93
      241
310
90C332F3822203D2031272D3022000000000000360FC000000000000284040
 94
        0
  0
ACAD_PROXY_OBJECT
  5
9D1A
102
{ACAD_REACTORS
330
9CFF
102
}
330
9CFF
100
AcDbProxyObject
 90
      499
 91
      506
 95
   655383
 70
     0
 93
      241
310
90C312F3222203D2031272D3022000000000000380FC000000000000284040
 94
        0
  0
ACAD_PROXY_OBJECT
  5
9D1B
102
{ACAD_REACTORS
330
9CFF
102
}
330
9CFF
100
AcDbProxyObject
 90
      499
 91
      506
 95
   655383
 70
     0
 93
      241
310
90C332F3422203D2031272D30220000000000003A0FC000000000000284040
 94
        0
  0
ACAD_PROXY_OBJECT
  5
9D1C
102
{ACAD_REACTORS
330
9CFF
102
}
330
9CFF
100
AcDbProxyObject
 90
      499
 91
      506
 95
   655383
 70
     0
 93
      161
310
90A3122203D2031272D30224000000000000284020
 94
        0
  0
ACAD_PROXY_OBJECT
  5
9D1D
102
{ACAD_REACTORS
330
9CFF
102
}
330
9CFF
100
AcDbProxyObject
 90
      499
 91
      506
 95
   655383
 70
     0
 93
      257
310
90E312D312F3222203D2031272D30220000000000003E0FC000000000000284000
 94
        0
  0
ACAD_PROXY_OBJECT
  5
9D1E
102
{ACAD_REACTORS
330
9CFF
102
}
330
9CFF
100
AcDbProxyObject
 90
      499
 91
      506
 95
   655383
 70
     0
 93
      225
310
90A3322203D2031272D302200000000000002100000000000000284000
 94
        0
  0
ACAD_PROXY_OBJECT
  5
9D1F
102
{ACAD_REACTORS
330
9CFF
102
}
330
9CFF
100
AcDbProxyObject
 90
      499
 91
      506
 95
   655383
 70
     0
 93
      225
310
90A3622203D2031272D302200000000000006100000000000000284000
 94
        0
  0
ACAD_PROXY_OBJECT
  5
9D20
102
{ACAD_REACTORS
330
9CFF
102
}
330
9CFF
100
AcDbProxyObject
 90
      499
 91
      506
 95
   655383
 70
     0
 93
      249
310
90D31272D3022203D2031272D30220000000000000A100000000000000284040
 94
        0
  0
ENDSEC
  0
EOF
