  0
SECTION
  2
HEADER
  9
$ACADVER
  1
AC1015
  9
$ACADMAINTVER
 70
    10
  9
$DWGCODEPAGE
  3
ANSI_932
  9
$INSBASE
 10
0.0
 20
0.0
 30
0.0
  9
$EXTMIN
 10
92.38587152255343
 20
530.4958381182451
 30
0.0
  9
$EXTMAX
 10
506.8502146483898
 20
913.98822927754
 30
0.0
  9
$LIMMIN
 10
0.0
 20
0.0
  9
$LIMMAX
 10
420.0
 20
297.0
  9
$ORTHOMODE
 70
     0
  9
$REGENMODE
 70
     1
  9
$FILLMODE
 70
     1
  9
$QTEXTMODE
 70
     0
  9
$MIRRTEXT
 70
     1
  9
$LTSCALE
 40
1.0
  9
$ATTMODE
 70
     1
  9
$TEXTSIZE
 40
3.0
  9
$TRACEWID
 40
1.0
  9
$TEXTSTYLE
  7
STANDARD
  9
$CLAYER
  8
0
  9
$CELTYPE
  6
BYLAYER
  9
$CECOLOR
 62
   256
  9
$CELTSCALE
 40
1.0
  9
$DISPSILH
 70
     0
  9
$DIMSCALE
 40
1.0
  9
$DIMASZ
 40
3.0
  9
$DIMEXO
 40
1.0
  9
$DIMDLI
 40
6.0
  9
$DIMRND
 40
0.0
  9
$DIMDLE
 40
0.0
  9
$DIMEXE
 40
0.75
  9
$DIMTP
 40
0.0
  9
$DIMTM
 40
0.0
  9
$DIMTXT
 40
6.0
  9
$DIMCEN
 40
3.0
  9
$DIMTSZ
 40
0.0
  9
$DIMTOL
 70
     0
  9
$DIMLIM
 70
     0
  9
$DIMTIH
 70
     0
  9
$DIMTOH
 70
     0
  9
$DIMSE1
 70
     0
  9
$DIMSE2
 70
     0
  9
$DIMTAD
 70
     1
  9
$DIMZIN
 70
     9
  9
$DIMBLK
  1

  9
$DIMASO
 70
     1
  9
$DIMSHO
 70
     1
  9
$DIMPOST
  1

  9
$DIMAPOST
  1

  9
$DIMALT
 70
     0
  9
$DIMALTD
 70
     4
  9
$DIMALTF
 40
0.0394
  9
$DIMLFAC
 40
1.0
  9
$DIMTOFL
 70
     1
  9
$DIMTVP
 40
0.0
  9
$DIMTIX
 70
     0
  9
$DIMSOXD
 70
     0
  9
$DIMSAH
 70
     1
  9
$DIMBLK1
  1
OPEN
  9
$DIMBLK2
  1
OPEN
  9
$DIMSTYLE
  2
STANDARD
  9
$DIMCLRD
 70
     0
  9
$DIMCLRE
 70
     0
  9
$DIMCLRT
 70
     7
  9
$DIMTFAC
 40
1.0
  9
$DIMGAP
 40
1.0
  9
$DIMJUST
 70
     0
  9
$DIMSD1
 70
     0
  9
$DIMSD2
 70
     0
  9
$DIMTOLJ
 70
     1
  9
$DIMTZIN
 70
     9
  9
$DIMALTZ
 70
     0
  9
$DIMALTTZ
 70
     0
  9
$DIMUPT
 70
     0
  9
$DIMDEC
 70
     4
  9
$DIMTDEC
 70
     4
  9
$DIMALTU
 70
     8
  9
$DIMALTTD
 70
     4
  9
$DIMTXSTY
  7
STANDARD
  9
$DIMAUNIT
 70
     0
  9
$DIMADEC
 70
     0
  9
$DIMALTRND
 40
0.0
  9
$DIMAZIN
 70
     2
  9
$DIMDSEP
 70
    46
  9
$DIMATFIT
 70
     3
  9
$DIMFRAC
 70
     0
  9
$DIMLDRBLK
  1
OPEN
  9
$DIMLUNIT
 70
     2
  9
$DIMLWD
 70
    -2
  9
$DIMLWE
 70
    -2
  9
$DIMTMOVE
 70
     2
  9
$LUNITS
 70
     2
  9
$LUPREC
 70
     4
  9
$SKETCHINC
 40
1.0
  9
$FILLETRAD
 40
10.0
  9
$AUNITS
 70
     0
  9
$AUPREC
 70
     0
  9
$MENU
  1
.
  9
$ELEVATION
 40
0.0
  9
$PELEVATION
 40
0.0
  9
$THICKNESS
 40
0.0
  9
$LIMCHECK
 70
     0
  9
$CHAMFERA
 40
10.0
  9
$CHAMFERB
 40
10.0
  9
$CHAMFERC
 40
20.0
  9
$CHAMFERD
 40
0.0
  9
$SKPOLY
 70
     0
  9
$TDCREATE
 40
2451224.660162384
  9
$TDUCREATE
 40
2451224.285162384
  9
$TDUPDATE
 40
2457366.481818206
  9
$TDUUPDATE
 40
2457366.106818206
  9
$TDINDWG
 40
1.1036003125
  9
$TDUSRTIMER
 40
2457315.081840474
  9
$USRTIMER
 70
     1
  9
$ANGBASE
 50
0.0
  9
$ANGDIR
 70
     0
  9
$PDMODE
 70
     0
  9
$PDSIZE
 40
0.0
  9
$PLINEWID
 40
0.0
  9
$SPLFRAME
 70
     0
  9
$SPLINETYPE
 70
     6
  9
$SPLINESEGS
 70
     8
  9
$HANDSEED
  5
8B05
  9
$SURFTAB1
 70
     6
  9
$SURFTAB2
 70
     6
  9
$SURFTYPE
 70
     6
  9
$SURFU
 70
     6
  9
$SURFV
 70
     6
  9
$UCSBASE
  2

  9
$UCSNAME
  2

  9
$UCSORG
 10
0.0
 20
0.0
 30
0.0
  9
$UCSXDIR
 10
1.0
 20
0.0
 30
0.0
  9
$UCSYDIR
 10
0.0
 20
1.0
 30
0.0
  9
$UCSORTHOREF
  2

  9
$UCSORTHOVIEW
 70
     0
  9
$UCSORGTOP
 10
0.0
 20
0.0
 30
0.0
  9
$UCSORGBOTTOM
 10
0.0
 20
0.0
 30
0.0
  9
$UCSORGLEFT
 10
0.0
 20
0.0
 30
0.0
  9
$UCSORGRIGHT
 10
0.0
 20
0.0
 30
0.0
  9
$UCSORGFRONT
 10
0.0
 20
0.0
 30
0.0
  9
$UCSORGBACK
 10
0.0
 20
0.0
 30
0.0
  9
$PUCSBASE
  2

  9
$PUCSNAME
  2

  9
$PUCSORG
 10
0.0
 20
0.0
 30
0.0
  9
$PUCSXDIR
 10
1.0
 20
0.0
 30
0.0
  9
$PUCSYDIR
 10
0.0
 20
1.0
 30
0.0
  9
$PUCSORTHOREF
  2

  9
$PUCSORTHOVIEW
 70
     0
  9
$PUCSORGTOP
 10
0.0
 20
0.0
 30
0.0
  9
$PUCSORGBOTTOM
 10
0.0
 20
0.0
 30
0.0
  9
$PUCSORGLEFT
 10
0.0
 20
0.0
 30
0.0
  9
$PUCSORGRIGHT
 10
0.0
 20
0.0
 30
0.0
  9
$PUCSORGFRONT
 10
0.0
 20
0.0
 30
0.0
  9
$PUCSORGBACK
 10
0.0
 20
0.0
 30
0.0
  9
$USERI1
 70
     0
  9
$USERI2
 70
     0
  9
$USERI3
 70
     0
  9
$USERI4
 70
     0
  9
$USERI5
 70
     0
  9
$USERR1
 40
0.0
  9
$USERR2
 40
0.0
  9
$USERR3
 40
0.0
  9
$USERR4
 40
0.0
  9
$USERR5
 40
0.0
  9
$WORLDVIEW
 70
     1
  9
$SHADEDGE
 70
     3
  9
$SHADEDIF
 70
    70
  9
$TILEMODE
 70
     1
  9
$MAXACTVP
 70
    48
  9
$PINSBASE
 10
0.0
 20
0.0
 30
0.0
  9
$PLIMCHECK
 70
     0
  9
$PEXTMIN
 10
40.49999999999999
 20
25.69999999999998
 30
0.0
  9
$PEXTMAX
 10
364.5
 20
231.3
 30
0.0
  9
$PLIMMIN
 10
0.0
 20
0.0
  9
$PLIMMAX
 10
0.0
 20
0.0
  9
$UNITMODE
 70
     0
  9
$VISRETAIN
 70
     1
  9
$PLINEGEN
 70
     0
  9
$PSLTSCALE
 70
     1
  9
$TREEDEPTH
 70
  3020
  9
$CMLSTYLE
  2
STANDARD
  9
$CMLJUST
 70
     0
  9
$CMLSCALE
 40
20.0
  9
$PROXYGRAPHICS
 70
     1
  9
$MEASUREMENT
 70
     1
  9
$CELWEIGHT
370
    -1
  9
$ENDCAPS
280
     0
  9
$JOINSTYLE
280
     0
  9
$LWDISPLAY
290
     0
  9
$INSUNITS
 70
     0
  9
$HYPERLINKBASE
  1

  9
$STYLESHEET
  1

  9
$XEDIT
290
     1
  9
$CEPSNTYPE
380
     0
  9
$PSTYLEMODE
290
     1
  9
$FINGERPRINTGUID
  2
{6B368F64-F7EB-11D4-BFBA-00004C030E53}
  9
$VERSIONGUID
  2
{0BA0D0DA-1382-486C-A37B-4FE76096A656}
  9
$EXTNAMES
290
     1
  9
$PSVPSCALE
 40
0.0
  9
$OLESTARTUP
290
     0
  0
ENDSEC
  0
SECTION
  2
CLASSES
  0
CLASS
  1
HATCH
  2
AcDbHatch
  3
AutoCAD 2000
 90
    32768
280
     0
281
     1
  0
CLASS
  1
LWPOLYLINE
  2
AcDbPolyline
  3
AutoCAD 2000
 90
    32768
280
     0
281
     1
  0
CLASS
  1
ACDBDICTIONARYWDFLT
  2
AcDbDictionaryWithDefault
  3
AutoCAD 2000
 90
        0
280
     0
281
     0
  0
CLASS
  1
ACDBPLACEHOLDER
  2
AcDbPlaceHolder
  3
AutoCAD 2000
 90
        0
280
     0
281
     0
  0
CLASS
  1
LAYOUT
  2
AcDbLayout
  3
AutoCAD 2000
 90
        0
280
     0
281
     0
  0
CLASS
  1
DICTIONARYVAR
  2
AcDbDictionaryVar
  3
AutoCAD 2000
 90
        0
280
     0
281
     0
  0
CLASS
  1
VISUALSTYLE
  2
AcDbVisualStyle
  3
ObjectDBX Classes
 90
    36863
280
     0
281
     0
  0
CLASS
  1
SCALE
  2
AcDbScale
  3
ObjectDBX Classes
 90
     1153
280
     0
281
     0
  0
CLASS
  1
MATERIAL
  2
AcDbMaterial
  3
ObjectDBX Classes
 90
    33921
280
     0
281
     0
  0
CLASS
  1
TABLESTYLE
  2
AcDbTableStyle
  3
ObjectDBX Classes
 90
    36863
280
     0
281
     0
  0
CLASS
  1
MLEADERSTYLE
  2
AcDbMLeaderStyle
  3
ACDB_MLEADERSTYLE_CLASS
 90
    36863
280
     0
281
     0
  0
CLASS
  1
SUN
  2
AcDbSun
  3
SCENEOE
 90
     1153
280
     0
281
     0
  0
CLASS
  1
RASTERVARIABLES
  2
AcDbRasterVariables
  3
ISM
 90
        0
280
     0
281
     0
  0
ENDSEC
  0
SECTION
  2
TABLES
  0
TABLE
  2
VPORT
  5
8
330
0
100
AcDbSymbolTable
 70
     2
  0
VPORT
  5
8B04
330
8
100
AcDbSymbolTableRecord
100
AcDbViewportTableRecord
  2
*Active
 70
     0
 10
0.0
 20
0.0
 11
1.0
 21
1.0
 12
302.8187465857843
 22
739.4252247376003
 13
0.0
 23
0.0
 14
10.0
 24
10.0
 15
10.0
 25
10.0
 16
0.0
 26
0.0
 36
1.0
 17
0.0
 27
0.0
 37
0.0
 40
417.4577518129082
 41
1.562182741116751
 42
50.0
 43
0.0
 44
0.0
 50
0.0
 51
0.0
 71
    16
 72
   100
 73
     1
 74
     0
 75
     0
 76
     0
 77
     0
 78
     0
281
     0
 65
     1
110
0.0
120
0.0
130
0.0
111
1.0
121
0.0
131
0.0
112
0.0
122
1.0
132
0.0
 79
     0
146
0.0
  0
ENDTAB
  0
TABLE
  2
LTYPE
  5
5
330
0
100
AcDbSymbolTable
 70
     1
  0
LTYPE
  5
12
330
5
100
AcDbSymbolTableRecord
100
AcDbLinetypeTableRecord
  2
BYBLOCK
 70
     0
  3

 72
    65
 73
     0
 40
0.0
  0
LTYPE
  5
13
330
5
100
AcDbSymbolTableRecord
100
AcDbLinetypeTableRecord
  2
BYLAYER
 70
     0
  3

 72
    65
 73
     0
 40
0.0
  0
LTYPE
  5
14
330
5
100
AcDbSymbolTableRecord
100
AcDbLinetypeTableRecord
  2
CONTINUOUS
 70
     0
  3
Solid line
 72
    65
 73
     0
 40
0.0
  0
ENDTAB
  0
TABLE
  2
LAYER
  5
2
330
0
100
AcDbSymbolTable
 70
     1
  0
LAYER
  5
E
330
2
100
AcDbSymbolTableRecord
100
AcDbLayerTableRecord
  2
0
 70
     0
 62
     7
  6
CONTINUOUS
370
    -3
390
73E
  0
ENDTAB
  0
TABLE
  2
STYLE
  5
3
330
0
100
AcDbSymbolTable
 70
     2
  0
STYLE
  5
F
330
3
100
AcDbSymbolTableRecord
100
AcDbTextStyleTableRecord
  2
STANDARD
 70
     0
 40
0.0
 41
1.0
 50
0.0
 71
     0
 42
3.0
  3
isocp.shx
  4
bigfont.shx
  0
STYLE
  5
35
330
3
100
AcDbSymbolTableRecord
100
AcDbTextStyleTableRecord
  2
MSｺﾞｼｯｸ
 70
     0
 40
0.0
 41
1.0
 50
0.0
 71
     0
 42
5.0
  3
MS Gothic.ttf
  4

1001
ACAD
1000
MS Gothic
1071
    32817
  0
ENDTAB
  0
TABLE
  2
VIEW
  5
6
330
0
100
AcDbSymbolTable
 70
     0
  0
ENDTAB
  0
TABLE
  2
UCS
  5
7
330
0
100
AcDbSymbolTable
 70
     0
  0
ENDTAB
  0
TABLE
  2
APPID
  5
9
330
0
100
AcDbSymbolTable
 70
     1
  0
APPID
  5
10
330
9
100
AcDbSymbolTableRecord
100
AcDbRegAppTableRecord
  2
ACAD
 70
     0
  0
ENDTAB
  0
TABLE
  2
DIMSTYLE
  5
A
330
0
100
AcDbSymbolTable
 70
     1
100
AcDbDimStyleTable
 71
     0
  0
DIMSTYLE
105
1D
330
A
100
AcDbSymbolTableRecord
100
AcDbDimStyleTableRecord
  2
STANDARD
 70
     0
 78
     8
 79
     2
140
3.0
340
F
341
89E
342
89E
  0
ENDTAB
  0
TABLE
  2
BLOCK_RECORD
  5
1
330
0
100
AcDbSymbolTable
 70
     9
  0
BLOCK_RECORD
  5
18
330
1
100
AcDbSymbolTableRecord
100
AcDbBlockTableRecord
  2
*MODEL_SPACE
340
741
  0
BLOCK_RECORD
  5
8AF6
330
1
100
AcDbSymbolTableRecord
100
AcDbBlockTableRecord
  2
*Paper_Space
340
8AF7
  0
BLOCK_RECORD
  5
24
330
1
100
AcDbSymbolTableRecord
100
AcDbBlockTableRecord
  2
_OPEN
340
0
  0
BLOCK_RECORD
  5
89E
330
1
100
AcDbSymbolTableRecord
100
AcDbBlockTableRecord
  2
_Open30
340
0
  0
BLOCK_RECORD
  5
7058
330
1
100
AcDbSymbolTableRecord
100
AcDbBlockTableRecord
  2
A$C444F17A9
340
0
102
{BLKREFS
331
89FC
102
}
  0
BLOCK_RECORD
  5
7064
330
1
100
AcDbSymbolTableRecord
100
AcDbBlockTableRecord
  2
A$C6C1277F2
340
0
102
{BLKREFS
331
89FE
102
}
  0
BLOCK_RECORD
  5
7091
330
1
100
AcDbSymbolTableRecord
100
AcDbBlockTableRecord
  2
A$C2F696F30
340
0
102
{BLKREFS
331
89FF
102
}
  0
BLOCK_RECORD
  5
70A9
330
1
100
AcDbSymbolTableRecord
100
AcDbBlockTableRecord
  2
A$C57095CDF
340
0
102
{BLKREFS
331
89E4
102
}
  0
BLOCK_RECORD
  5
70DC
330
1
100
AcDbSymbolTableRecord
100
AcDbBlockTableRecord
  2
A$C3A6E1F00
340
0
102
{BLKREFS
331
89E9
102
}
  0
BLOCK_RECORD
  5
88F5
330
1
100
AcDbSymbolTableRecord
100
AcDbBlockTableRecord
  2
A$C5A3A0BB0
340
0
102
{BLKREFS
331
89B4
102
}
  0
BLOCK_RECORD
  5
8936
330
1
100
AcDbSymbolTableRecord
100
AcDbBlockTableRecord
  2
A$C3413120B
340
0
102
{BLKREFS
331
89B6
102
}
  0
ENDTAB
  0
ENDSEC
  0
SECTION
  2
BLOCKS
  0
BLOCK
  5
19
330
18
100
AcDbEntity
  8
0
100
AcDbBlockBegin
  2
*MODEL_SPACE
 70
     0
 10
0.0
 20
0.0
 30
0.0
  3
*MODEL_SPACE
  1

  0
ENDBLK
  5
1A
330
18
100
AcDbEntity
  8
0
100
AcDbBlockEnd
  0
BLOCK
  5
8AF8
330
8AF6
100
AcDbEntity
 67
     1
  8
0
100
AcDbBlockBegin
  2
*Paper_Space
 70
     0
 10
0.0
 20
0.0
 30
0.0
  3
*Paper_Space
  1

  0
ENDBLK
  5
8AF9
330
8AF6
100
AcDbEntity
 67
     1
  8
0
100
AcDbBlockEnd
  0
BLOCK
  5
25
330
24
100
AcDbEntity
  8
0
100
AcDbBlockBegin
  2
_OPEN
 70
     0
 10
0.0
 20
0.0
 30
0.0
  3
_OPEN
  1

  0
LINE
  5
26
330
24
100
AcDbEntity
  8
0
  6
ByBlock
 62
     0
100
AcDbLine
 10
-1.0
 20
0.1666666666666666
 30
0.0
 11
0.0
 21
0.0
 31
0.0
  0
LINE
  5
27
330
24
100
AcDbEntity
  8
0
  6
ByBlock
 62
     0
100
AcDbLine
 10
0.0
 20
0.0
 30
0.0
 11
-1.0
 21
-0.1666666666666666
 31
0.0
  0
LINE
  5
28
330
24
100
AcDbEntity
  8
0
  6
ByBlock
 62
     0
100
AcDbLine
 10
0.0
 20
0.0
 30
0.0
 11
-1.0
 21
0.0
 31
0.0
  0
ENDBLK
  5
29
330
24
100
AcDbEntity
  8
0
100
AcDbBlockEnd
  0
BLOCK
  5
8A2
330
89E
100
AcDbEntity
  8
0
100
AcDbBlockBegin
  2
_Open30
 70
     0
 10
0.0
 20
0.0
 30
0.0
  3
_Open30
  1

  0
LINE
  5
89F
330
89E
100
AcDbEntity
  8
0
  6
ByBlock
 62
     0
370
    -2
100
AcDbLine
 10
-1.0
 20
0.26794919
 30
0.0
 11
0.0
 21
0.0
 31
0.0
  0
LINE
  5
8A0
330
89E
100
AcDbEntity
  8
0
  6
ByBlock
 62
     0
370
    -2
100
AcDbLine
 10
0.0
 20
0.0
 30
0.0
 11
-1.0
 21
-0.26794919
 31
0.0
  0
LINE
  5
8A1
330
89E
100
AcDbEntity
  8
0
  6
ByBlock
 62
     0
370
    -2
100
AcDbLine
 10
0.0
 20
0.0
 30
0.0
 11
-1.0
 21
0.0
 31
0.0
  0
ENDBLK
  5
8A3
330
89E
100
AcDbEntity
  8
0
100
AcDbBlockEnd
  0
BLOCK
  5
7062
330
7058
100
AcDbEntity
  8
0
100
AcDbBlockBegin
  2
A$C444F17A9
 70
     0
 10
0.0
 20
0.0
 30
0.0
  3
A$C444F17A9
  1

  0
LWPOLYLINE
  5
7059
330
7058
100
AcDbEntity
  8
0
100
AcDbPolyline
 90
        4
 70
     1
 43
0.2
 10
0.1000006076973037
 20
13.1000004860266
 10
7.625000607697302
 20
13.1000004860266
 10
7.625000607697302
 20
0.1000004860266017
 10
0.1000006076973037
 20
0.1000004860266017
  0
ELLIPSE
  5
705A
330
7058
100
AcDbEntity
  8
0
100
AcDbEllipse
 10
6.125000607697302
 20
3.07500048602651
 30
0.0
 11
0.5
 21
0.0
 31
0.0
210
0.0
220
0.0
230
1.0
 40
0.95
 41
0.0
 42
6.283184999999999
  0
LWPOLYLINE
  5
705B
330
7058
100
AcDbEntity
  8
0
100
AcDbPolyline
 90
        6
 70
     1
 43
0.2
 10
2.175000607697299
 20
3.525000486026556
 10
1.725000607697296
 20
3.100000486026601
 10
2.175000607697299
 20
2.70000048602651
 10
4.275000607697307
 20
2.70000048602651
 10
4.700000607697305
 20
3.100000486026601
 10
4.275000607697307
 20
3.525000486026556
  0
LWPOLYLINE
  5
705C
330
7058
100
AcDbEntity
  8
0
100
AcDbPolyline
 90
        6
 70
     1
 43
0.2
 10
3.250000607697302
 20
10.80000048602664
 10
2.825000607697305
 20
10.42500048602664
 10
3.250000607697302
 20
10.00000048602669
 10
5.375000607697302
 20
10.00000048602669
 10
5.775000607697307
 20
10.42500048602664
 10
5.375000607697302
 20
10.80000048602664
  0
LWPOLYLINE
  5
705D
330
7058
100
AcDbEntity
  8
0
100
AcDbPolyline
 90
        6
 70
     1
 43
0.2
 10
5.525000607697307
 20
6.70000048602651
 10
5.125000607697302
 20
6.275000486026556
 10
4.700000607697305
 20
3.500000486026692
 10
5.125000607697302
 20
3.100000486026601
 10
5.525000607697307
 20
3.500000486026692
 10
5.975000607697296
 20
6.275000486026556
  0
LWPOLYLINE
  5
705E
330
7058
100
AcDbEntity
  8
0
100
AcDbPolyline
 90
        6
 70
     1
 43
0.2
 10
6.100000607697296
 20
10.42500048602664
 10
5.675000607697299
 20
10.02500048602655
 10
5.275000607697307
 20
7.225000486026601
 10
5.675000607697299
 20
6.82500048602651
 10
6.100000607697296
 20
7.225000486026601
 10
6.525000607697307
 20
10.02500048602655
  0
LWPOLYLINE
  5
705F
330
7058
100
AcDbEntity
  8
0
100
AcDbPolyline
 90
        6
 70
     1
 43
0.2
 10
1.875000607697302
 20
6.70000048602651
 10
1.450000607697305
 20
6.275000486026556
 10
1.050000607697299
 20
3.500000486026692
 10
1.450000607697305
 20
3.100000486026601
 10
1.875000607697302
 20
3.500000486026692
 10
2.300000607697299
 20
6.275000486026556
  0
LWPOLYLINE
  5
7060
330
7058
100
AcDbEntity
  8
0
100
AcDbPolyline
 90
        6
 70
     1
 43
0.2
 10
2.725000607697296
 20
7.225000486026601
 10
2.275000607697307
 20
6.82500048602651
 10
2.725000607697296
 20
6.425000486026647
 10
4.825000607697305
 20
6.425000486026647
 10
5.225000607697296
 20
6.82500048602651
 10
4.825000607697305
 20
7.225000486026601
  0
LWPOLYLINE
  5
7061
330
7058
100
AcDbEntity
  8
0
100
AcDbPolyline
 90
        6
 70
     1
 43
0.2
 10
2.425000607697299
 20
10.42500048602664
 10
2.025000607697307
 20
10.02500048602655
 10
1.600000607697296
 20
7.225000486026601
 10
2.025000607697307
 20
6.82500048602651
 10
2.425000607697299
 20
7.225000486026601
 10
2.875000607697302
 20
10.02500048602655
  0
ENDBLK
  5
7063
330
7058
100
AcDbEntity
  8
0
100
AcDbBlockEnd
  0
BLOCK
  5
708F
330
7064
100
AcDbEntity
  8
0
100
AcDbBlockBegin
  2
A$C6C1277F2
 70
     0
 10
0.0
 20
0.0
 30
0.0
  3
A$C6C1277F2
  1

  0
ELLIPSE
  5
7065
330
7064
100
AcDbEntity
  8
0
100
AcDbEllipse
 10
4.724999973973268
 20
26.39999951743493
 30
0.0
 11
0.0
 21
0.775
 31
0.0
210
0.0
220
0.0
230
1.0
 40
0.9677419999999999
 41
0.0
 42
6.283184999999999
  0
LWPOLYLINE
  5
7066
330
7064
100
AcDbEntity
  8
0
100
AcDbPolyline
 90
        4
 70
     1
 43
0.2
 10
0.0999999739732616
 20
28.77499951743493
 10
0.0999999739732616
 20
0.0999995174349806
 10
9.324999973973262
 20
0.0999995174349806
 10
9.324999973973262
 20
28.77499951743493
  0
ELLIPSE
  5
7067
330
7064
100
AcDbEntity
  8
0
100
AcDbEllipse
 10
4.724999973973268
 20
3.399999517434935
 30
0.0
 11
0.0
 21
0.775
 31
0.0
210
0.0
220
0.0
230
1.0
 40
0.9677419999999999
 41
0.0
 42
6.283184999999999
  0
LINE
  5
7068
330
7064
100
AcDbEntity
  8
0
100
AcDbLine
 10
0.8999999739732658
 20
4.299999517435026
 30
0.0
 11
0.8999999739732658
 21
6.374999517434844
 31
0.0
  0
LINE
  5
7069
330
7064
100
AcDbEntity
  8
0
100
AcDbLine
 10
8.524999973973265
 20
4.299999517435026
 30
0.0
 11
8.524999973973265
 21
6.374999517434844
 31
0.0
  0
LINE
  5
706A
330
7064
100
AcDbEntity
  8
0
100
AcDbLine
 10
6.599999973973268
 20
4.274999517434935
 30
0.0
 11
6.599999973973268
 21
5.249999517434844
 31
0.0
  0
LINE
  5
706B
330
7064
100
AcDbEntity
  8
0
100
AcDbLine
 10
6.599999973973268
 20
5.274999517434935
 30
0.0
 11
3.024999973973265
 21
5.274999517434935
 31
0.0
  0
LINE
  5
706C
330
7064
100
AcDbEntity
  8
0
100
AcDbLine
 10
3.024999973973265
 20
4.299999517435026
 30
0.0
 11
3.024999973973265
 21
5.274999517434935
 31
0.0
  0
LINE
  5
706D
330
7064
100
AcDbEntity
  8
0
100
AcDbLine
 10
3.024999973973265
 20
4.299999517435026
 30
0.0
 11
0.8999999739732658
 21
4.299999517435026
 31
0.0
  0
LINE
  5
706E
330
7064
100
AcDbEntity
  8
0
100
AcDbLine
 10
8.524999973973265
 20
4.299999517435026
 30
0.0
 11
6.599999973973268
 21
4.299999517435026
 31
0.0
  0
LINE
  5
706F
330
7064
100
AcDbEntity
  8
0
100
AcDbLine
 10
8.524999973973265
 20
6.374999517434844
 30
0.0
 11
0.8999999739732658
 21
6.374999517434844
 31
0.0
  0
LINE
  5
7070
330
7064
100
AcDbEntity
  8
0
100
AcDbLine
 10
0.8999999739732658
 20
25.17499951743502
 30
0.0
 11
0.8999999739732658
 21
23.09999951743498
 31
0.0
  0
LINE
  5
7071
330
7064
100
AcDbEntity
  8
0
100
AcDbLine
 10
8.524999973973265
 20
25.17499951743502
 30
0.0
 11
8.524999973973265
 21
23.09999951743498
 31
0.0
  0
LINE
  5
7072
330
7064
100
AcDbEntity
  8
0
100
AcDbLine
 10
6.599999973973268
 20
25.19999951743489
 30
0.0
 11
6.599999973973268
 21
24.22499951743498
 31
0.0
  0
LINE
  5
7073
330
7064
100
AcDbEntity
  8
0
100
AcDbLine
 10
6.599999973973268
 20
24.19999951743489
 30
0.0
 11
3.024999973973265
 21
24.19999951743489
 31
0.0
  0
LINE
  5
7074
330
7064
100
AcDbEntity
  8
0
100
AcDbLine
 10
3.024999973973265
 20
25.17499951743502
 30
0.0
 11
3.024999973973265
 21
24.19999951743489
 31
0.0
  0
LINE
  5
7075
330
7064
100
AcDbEntity
  8
0
100
AcDbLine
 10
3.024999973973265
 20
25.17499951743502
 30
0.0
 11
0.8999999739732658
 21
25.17499951743502
 31
0.0
  0
LINE
  5
7076
330
7064
100
AcDbEntity
  8
0
100
AcDbLine
 10
8.524999973973265
 20
25.17499951743502
 30
0.0
 11
6.599999973973268
 21
25.17499951743502
 31
0.0
  0
LWPOLYLINE
  5
7077
330
7064
100
AcDbEntity
  8
0
100
AcDbPolyline
 90
        4
 70
     1
 43
0.0
 10
3.474999973973268
 20
11.29999951743502
 10
3.12499997397326
 20
11.29999951743502
 10
3.12499997397326
 20
10.32499951743488
 10
3.474999973973268
 20
10.32499951743488
  0
LWPOLYLINE
  5
7078
330
7064
100
AcDbEntity
  8
0
100
AcDbPolyline
 90
        4
 70
     1
 43
0.0
 10
3.474999973973268
 20
12.47499951743498
 10
3.12499997397326
 20
12.47499951743498
 10
3.12499997397326
 20
11.49999951743484
 10
3.474999973973268
 20
11.49999951743484
  0
LWPOLYLINE
  5
7079
330
7064
100
AcDbEntity
  8
0
100
AcDbPolyline
 90
        4
 70
     1
 43
0.0
 10
3.474999973973268
 20
13.74999951743484
 10
3.12499997397326
 20
13.74999951743484
 10
3.12499997397326
 20
12.77499951743493
 10
3.474999973973268
 20
12.77499951743493
  0
LWPOLYLINE
  5
707A
330
7064
100
AcDbEntity
  8
0
100
AcDbPolyline
 90
        4
 70
     1
 43
0.0
 10
3.474999973973268
 20
15.07499951743489
 10
3.12499997397326
 20
15.07499951743489
 10
3.12499997397326
 20
14.12499951743484
 10
3.474999973973268
 20
14.12499951743484
  0
LWPOLYLINE
  5
707B
330
7064
100
AcDbEntity
  8
0
100
AcDbPolyline
 90
        4
 70
     1
 43
0.0
 10
3.474999973973268
 20
16.34999951743498
 10
3.12499997397326
 20
16.34999951743498
 10
3.12499997397326
 20
15.37499951743484
 10
3.474999973973268
 20
15.37499951743484
  0
LWPOLYLINE
  5
707C
330
7064
100
AcDbEntity
  8
0
100
AcDbPolyline
 90
        4
 70
     1
 43
0.0
 10
3.474999973973268
 20
17.57499951743489
 10
3.12499997397326
 20
17.57499951743489
 10
3.12499997397326
 20
16.59999951743498
 10
3.474999973973268
 20
16.59999951743498
  0
LWPOLYLINE
  5
707D
330
7064
100
AcDbEntity
  8
0
100
AcDbPolyline
 90
        4
 70
     1
 43
0.0
 10
3.474999973973268
 20
18.84999951743498
 10
3.12499997397326
 20
18.84999951743498
 10
3.12499997397326
 20
17.84999951743498
 10
3.474999973973268
 20
17.84999951743498
  0
LWPOLYLINE
  5
707E
330
7064
100
AcDbEntity
  8
0
100
AcDbPolyline
 90
        4
 70
     1
 43
0.0
 10
6.24999997397326
 20
11.29999951743502
 10
5.899999973973265
 20
11.29999951743502
 10
5.899999973973265
 20
10.32499951743488
 10
6.24999997397326
 20
10.32499951743488
  0
LWPOLYLINE
  5
707F
330
7064
100
AcDbEntity
  8
0
100
AcDbPolyline
 90
        4
 70
     1
 43
0.0
 10
6.24999997397326
 20
12.47499951743498
 10
5.899999973973265
 20
12.47499951743498
 10
5.899999973973265
 20
11.49999951743484
 10
6.24999997397326
 20
11.49999951743484
  0
LWPOLYLINE
  5
7080
330
7064
100
AcDbEntity
  8
0
100
AcDbPolyline
 90
        4
 70
     1
 43
0.0
 10
6.24999997397326
 20
13.74999951743484
 10
5.899999973973265
 20
13.74999951743484
 10
5.899999973973265
 20
12.77499951743493
 10
6.24999997397326
 20
12.77499951743493
  0
LWPOLYLINE
  5
7081
330
7064
100
AcDbEntity
  8
0
100
AcDbPolyline
 90
        4
 70
     1
 43
0.0
 10
6.24999997397326
 20
15.07499951743489
 10
5.899999973973265
 20
15.07499951743489
 10
5.899999973973265
 20
14.12499951743484
 10
6.24999997397326
 20
14.12499951743484
  0
LWPOLYLINE
  5
7082
330
7064
100
AcDbEntity
  8
0
100
AcDbPolyline
 90
        4
 70
     1
 43
0.0
 10
6.24999997397326
 20
16.34999951743498
 10
5.899999973973265
 20
16.34999951743498
 10
5.899999973973265
 20
15.37499951743484
 10
6.24999997397326
 20
15.37499951743484
  0
LWPOLYLINE
  5
7083
330
7064
100
AcDbEntity
  8
0
100
AcDbPolyline
 90
        4
 70
     1
 43
0.0
 10
6.24999997397326
 20
17.57499951743489
 10
5.899999973973265
 20
17.57499951743489
 10
5.899999973973265
 20
16.59999951743498
 10
6.24999997397326
 20
16.59999951743498
  0
LWPOLYLINE
  5
7084
330
7064
100
AcDbEntity
  8
0
100
AcDbPolyline
 90
        4
 70
     1
 43
0.0
 10
6.24999997397326
 20
18.84999951743498
 10
5.899999973973265
 20
18.84999951743498
 10
5.899999973973265
 20
17.84999951743498
 10
6.24999997397326
 20
17.84999951743498
  0
LWPOLYLINE
  5
7085
330
7064
100
AcDbEntity
  8
0
100
AcDbPolyline
 90
        4
 70
     1
 43
0.0
 10
6.599999973973268
 20
19.69999951743488
 10
2.899999973973265
 20
19.69999951743488
 10
2.899999973973265
 20
9.47499951743498
 10
6.599999973973268
 20
9.47499951743498
  0
ELLIPSE
  5
7086
330
7064
100
AcDbEntity
  8
0
100
AcDbEllipse
 10
6.549999973973257
 20
10.02499951743493
 30
0.0
 11
0.0
 21
1.25
 31
0.0
210
0.0
220
0.0
230
1.0
 40
0.98
 41
3.380894
 42
4.528311
  0
ELLIPSE
  5
7087
330
7064
100
AcDbEntity
  8
0
100
AcDbEllipse
 10
6.549999973973257
 20
19.37499951743484
 30
0.0
 11
0.0
 21
1.25
 31
0.0
210
0.0
220
0.0
230
1.0
 40
0.98
 41
4.509903999999999
 42
6.059223999999999
  0
ELLIPSE
  5
7088
330
7064
100
AcDbEntity
  8
0
100
AcDbEllipse
 10
2.87499997397326
 20
9.049999517435026
 30
0.0
 11
0.0
 21
1.25
 31
0.0
210
0.0
220
0.0
230
1.0
 40
0.98
 41
1.708854999999999
 42
3.380894
  0
ELLIPSE
  5
7089
330
7064
100
AcDbEntity
  8
0
100
AcDbEllipse
 10
2.87499997397326
 20
20.29999951743502
 30
0.0
 11
0.0
 21
1.25
 31
0.0
210
0.0
220
0.0
230
1.0
 40
0.98
 41
6.03468
 42
8.053399307179585
  0
LINE
  5
708A
330
7064
100
AcDbEntity
  8
0
100
AcDbLine
 10
6.849999973973268
 20
20.54999951743502
 30
0.0
 11
3.149999973973265
 21
21.47499951743498
 31
0.0
  0
LINE
  5
708B
330
7064
100
AcDbEntity
  8
0
100
AcDbLine
 10
7.774999973973265
 20
10.02499951743493
 30
0.0
 11
7.774999973973265
 21
19.37499951743484
 31
0.0
  0
LINE
  5
708C
330
7064
100
AcDbEntity
  8
0
100
AcDbLine
 10
3.149999973973265
 20
7.799999517435026
 30
0.0
 11
6.849999973973268
 21
8.774999517434935
 31
0.0
  0
LINE
  5
708D
330
7064
100
AcDbEntity
  8
0
100
AcDbLine
 10
1.649999973973265
 20
20.29999951743502
 30
0.0
 11
1.649999973973265
 21
8.949999517434889
 31
0.0
  0
LINE
  5
708E
330
7064
100
AcDbEntity
  8
0
100
AcDbLine
 10
8.524999973973265
 20
23.09999951743498
 30
0.0
 11
0.8999999739732658
 21
23.09999951743498
 31
0.0
  0
ENDBLK
  5
7090
330
7064
100
AcDbEntity
  8
0
100
AcDbBlockEnd
  0
BLOCK
  5
70A7
330
7091
100
AcDbEntity
  8
0
100
AcDbBlockBegin
  2
A$C2F696F30
 70
     0
 10
0.0
 20
0.0
 30
0.0
  3
A$C2F696F30
  1

  0
LINE
  5
7092
330
7091
100
AcDbEntity
  8
0
100
AcDbLine
 10
1.400000765164122
 20
-0.0000001933823341
 30
0.0
 11
5.400000765164122
 21
-0.0000001933823341
 31
0.0
  0
LINE
  5
7093
330
7091
100
AcDbEntity
  8
0
100
AcDbLine
 10
1.400000765164122
 20
13.77499980661764
 30
0.0
 11
5.400000765164122
 21
13.77499980661764
 31
0.0
  0
LWPOLYLINE
  5
7094
330
7091
100
AcDbEntity
  8
0
100
AcDbPolyline
 90
        4
 70
     1
 43
0.2
 10
15.40000076516412
 20
13.34999980661768
 10
15.40000076516412
 20
0.3499998066176886
 10
0.4000007651641227
 20
0.3499998066176886
 10
0.4000007651641227
 20
13.34999980661768
  0
LWPOLYLINE
  5
7095
330
7091
100
AcDbEntity
  8
0
100
AcDbPolyline
 90
        4
 70
     1
 43
0.2
 10
1.400000765164122
 20
12.34999980661768
 10
3.400000765164122
 20
12.34999980661768
 10
3.400000765164122
 20
1.349999806617688
 10
1.400000765164122
 20
1.349999806617688
  0
LWPOLYLINE
  5
7096
330
7091
100
AcDbEntity
  8
0
100
AcDbPolyline
 90
        4
 70
     1
 43
0.2
 10
3.950000765164119
 20
3.349999806617688
 10
3.950000765164119
 20
2.349999806617688
 10
3.400000765164122
 20
2.349999806617688
 10
3.400000765164122
 20
3.349999806617688
  0
LWPOLYLINE
  5
7097
330
7091
100
AcDbEntity
  8
0
100
AcDbPolyline
 90
        4
 70
     1
 43
0.2
 10
3.950000765164119
 20
5.749999806617665
 10
3.950000765164119
 20
4.749999806617665
 10
3.400000765164122
 20
4.749999806617665
 10
3.400000765164122
 20
5.749999806617665
  0
LINE
  5
7098
330
7091
100
AcDbEntity
  8
0
100
AcDbLine
 10
0.0000007651641241
 20
1.349999806617688
 30
0.0
 11
0.0000007651641241
 21
5.349999806617688
 31
0.0
  0
LWPOLYLINE
  5
7099
330
7091
100
AcDbEntity
  8
0
100
AcDbPolyline
 90
        4
 70
     1
 43
0.2
 10
3.950000765164119
 20
8.949999806617711
 10
3.950000765164119
 20
7.949999806617711
 10
3.400000765164122
 20
7.949999806617711
 10
3.400000765164122
 20
8.949999806617711
  0
LWPOLYLINE
  5
709A
330
7091
100
AcDbEntity
  8
0
100
AcDbPolyline
 90
        4
 70
     1
 43
0.2
 10
3.950000765164119
 20
11.34999980661768
 10
3.950000765164119
 20
10.34999980661768
 10
3.400000765164122
 20
10.34999980661768
 10
3.400000765164122
 20
11.34999980661768
  0
LINE
  5
709B
330
7091
100
AcDbEntity
  8
0
100
AcDbLine
 10
0.0000007651641241
 20
12.34999980661768
 30
0.0
 11
0.0000007651641241
 21
8.349999806617688
 31
0.0
  0
LWPOLYLINE
  5
709C
330
7091
100
AcDbEntity
  8
0
100
AcDbPolyline
 90
        4
 70
     1
 43
0.2
 10
10.40000076516412
 20
12.34999980661768
 10
12.40000076516412
 20
12.34999980661768
 10
12.40000076516412
 20
1.349999806617688
 10
10.40000076516412
 20
1.349999806617688
  0
LINE
  5
709D
330
7091
100
AcDbEntity
  8
0
100
AcDbLine
 10
9.400000765164122
 20
13.34999980661768
 30
0.0
 11
9.400000765164122
 21
0.3499998066176886
 31
0.0
  0
LINE
  5
709E
330
7091
100
AcDbEntity
  8
0
100
AcDbLine
 10
6.400000765164122
 20
13.34999980661768
 30
0.0
 11
6.400000765164122
 21
0.3499998066176886
 31
0.0
  0
LWPOLYLINE
  5
709F
330
7091
100
AcDbEntity
  8
0
100
AcDbPolyline
 90
        4
 70
     1
 43
0.2
 10
12.95000076516412
 20
3.349999806617688
 10
12.95000076516412
 20
2.349999806617688
 10
12.40000076516412
 20
2.349999806617688
 10
12.40000076516412
 20
3.349999806617688
  0
LWPOLYLINE
  5
70A0
330
7091
100
AcDbEntity
  8
0
100
AcDbPolyline
 90
        4
 70
     1
 43
0.2
 10
12.95000076516412
 20
5.749999806617665
 10
12.95000076516412
 20
4.749999806617665
 10
12.40000076516412
 20
4.749999806617665
 10
12.40000076516412
 20
5.749999806617665
  0
LINE
  5
70A1
330
7091
100
AcDbEntity
  8
0
100
AcDbLine
 10
14.40000076516412
 20
-0.0000001933823341
 30
0.0
 11
10.40000076516412
 21
-0.0000001933823341
 31
0.0
  0
LINE
  5
70A2
330
7091
100
AcDbEntity
  8
0
100
AcDbLine
 10
15.80000076516412
 20
1.349999806617688
 30
0.0
 11
15.80000076516412
 21
5.349999806617688
 31
0.0
  0
LWPOLYLINE
  5
70A3
330
7091
100
AcDbEntity
  8
0
100
AcDbPolyline
 90
        4
 70
     1
 43
0.2
 10
12.95000076516412
 20
8.949999806617711
 10
12.95000076516412
 20
7.949999806617711
 10
12.40000076516412
 20
7.949999806617711
 10
12.40000076516412
 20
8.949999806617711
  0
LWPOLYLINE
  5
70A4
330
7091
100
AcDbEntity
  8
0
100
AcDbPolyline
 90
        4
 70
     1
 43
0.2
 10
12.95000076516412
 20
11.34999980661768
 10
12.95000076516412
 20
10.34999980661768
 10
12.40000076516412
 20
10.34999980661768
 10
12.40000076516412
 20
11.34999980661768
  0
LINE
  5
70A5
330
7091
100
AcDbEntity
  8
0
100
AcDbLine
 10
14.40000076516412
 20
13.77499980661764
 30
0.0
 11
10.40000076516412
 21
13.77499980661764
 31
0.0
  0
LINE
  5
70A6
330
7091
100
AcDbEntity
  8
0
100
AcDbLine
 10
15.80000076516412
 20
12.34999980661768
 30
0.0
 11
15.80000076516412
 21
8.349999806617688
 31
0.0
  0
ENDBLK
  5
70A8
330
7091
100
AcDbEntity
  8
0
100
AcDbBlockEnd
  0
BLOCK
  5
70DA
330
70A9
100
AcDbEntity
  8
0
100
AcDbBlockBegin
  2
A$C57095CDF
 70
     0
 10
0.0
 20
0.0
 30
0.0
  3
A$C57095CDF
  1

  0
LWPOLYLINE
  5
70AA
330
70A9
100
AcDbEntity
  8
0
100
AcDbPolyline
 90
        4
 70
     1
 43
0.0
 10
3.474999973973268
 20
16.69999991295117
 10
3.12499997397326
 20
16.69999991295117
 10
3.12499997397326
 20
15.72499991295103
 10
3.474999973973268
 20
15.72499991295103
  0
LWPOLYLINE
  5
70AB
330
70A9
100
AcDbEntity
  8
0
100
AcDbPolyline
 90
        4
 70
     1
 43
0.0
 10
6.24999997397326
 20
16.69999991295117
 10
5.899999973973265
 20
16.69999991295117
 10
5.899999973973265
 20
15.72499991295103
 10
6.24999997397326
 20
15.72499991295103
  0
LWPOLYLINE
  5
70AC
330
70A9
100
AcDbEntity
  8
0
100
AcDbPolyline
 90
        4
 70
     1
 43
0.0
 10
6.599999973973268
 20
24.09999991295103
 10
2.899999973973265
 20
24.09999991295103
 10
2.899999973973265
 20
9.94999991295117
 10
6.599999973973268
 20
9.94999991295117
  0
LINE
  5
70AD
330
70A9
100
AcDbEntity
  8
0
100
AcDbLine
 10
7.774999973973265
 20
9.899999912950988
 30
0.0
 11
7.774999973973265
 21
24.02499991295099
 31
0.0
  0
LINE
  5
70AE
330
70A9
100
AcDbEntity
  8
0
100
AcDbLine
 10
1.649999973973265
 20
24.94999991295117
 30
0.0
 11
1.649999973973265
 21
8.849999912951034
 31
0.0
  0
LWPOLYLINE
  5
70AF
330
70A9
100
AcDbEntity
  8
0
100
AcDbPolyline
 90
        4
 70
     1
 43
0.2
 10
0.0999999739732616
 20
33.42499991295108
 10
0.0999999739732616
 20
0.0999999129510343
 10
9.324999973973262
 20
0.0999999129510343
 10
9.324999973973262
 20
33.42499991295108
  0
LWPOLYLINE
  5
70B0
330
70A9
100
AcDbEntity
  8
0
100
AcDbPolyline
 90
        4
 70
     1
 43
0.0
 10
3.449999973973262
 20
11.87499991295112
 10
3.099999973973261
 20
11.87499991295112
 10
3.099999973973261
 20
10.89999991295098
 10
3.449999973973262
 20
10.89999991295098
  0
LWPOLYLINE
  5
70B1
330
70A9
100
AcDbEntity
  8
0
100
AcDbPolyline
 90
        4
 70
     1
 43
0.0
 10
6.224999973973268
 20
11.87499991295112
 10
5.87499997397326
 20
11.87499991295112
 10
5.87499997397326
 20
10.89999991295098
 10
6.224999973973268
 20
10.89999991295098
  0
LWPOLYLINE
  5
70B2
330
70A9
100
AcDbEntity
  8
0
100
AcDbPolyline
 90
        4
 70
     1
 43
0.0
 10
3.449999973973262
 20
13.07499991295117
 10
3.099999973973261
 20
13.07499991295117
 10
3.099999973973261
 20
12.09999991295103
 10
3.449999973973262
 20
12.09999991295103
  0
LWPOLYLINE
  5
70B3
330
70A9
100
AcDbEntity
  8
0
100
AcDbPolyline
 90
        4
 70
     1
 43
0.0
 10
6.224999973973268
 20
13.07499991295117
 10
5.87499997397326
 20
13.07499991295117
 10
5.87499997397326
 20
12.09999991295103
 10
6.224999973973268
 20
12.09999991295103
  0
LWPOLYLINE
  5
70B4
330
70A9
100
AcDbEntity
  8
0
100
AcDbPolyline
 90
        4
 70
     1
 43
0.0
 10
3.474999973973268
 20
14.27499991295098
 10
3.12499997397326
 20
14.27499991295098
 10
3.12499997397326
 20
13.29999991295108
 10
3.474999973973268
 20
13.29999991295108
  0
LWPOLYLINE
  5
70B5
330
70A9
100
AcDbEntity
  8
0
100
AcDbPolyline
 90
        4
 70
     1
 43
0.0
 10
6.24999997397326
 20
14.27499991295098
 10
5.899999973973265
 20
14.27499991295098
 10
5.899999973973265
 20
13.29999991295108
 10
6.24999997397326
 20
13.29999991295108
  0
LINE
  5
70B6
330
70A9
100
AcDbEntity
  8
0
100
AcDbLine
 10
0.8999999739732658
 20
4.274999912950988
 30
0.0
 11
0.8999999739732658
 21
6.349999912951034
 31
0.0
  0
LINE
  5
70B7
330
70A9
100
AcDbEntity
  8
0
100
AcDbLine
 10
8.524999973973265
 20
4.274999912950988
 30
0.0
 11
8.524999973973265
 21
6.349999912951034
 31
0.0
  0
LINE
  5
70B8
330
70A9
100
AcDbEntity
  8
0
100
AcDbLine
 10
6.599999973973268
 20
4.249999912951125
 30
0.0
 11
6.599999973973268
 21
5.224999912951034
 31
0.0
  0
LINE
  5
70B9
330
70A9
100
AcDbEntity
  8
0
100
AcDbLine
 10
6.599999973973268
 20
5.249999912951125
 30
0.0
 11
3.024999973973265
 21
5.249999912951125
 31
0.0
  0
LINE
  5
70BA
330
70A9
100
AcDbEntity
  8
0
100
AcDbLine
 10
3.024999973973265
 20
4.274999912950988
 30
0.0
 11
3.024999973973265
 21
5.249999912951125
 31
0.0
  0
LINE
  5
70BB
330
70A9
100
AcDbEntity
  8
0
100
AcDbLine
 10
3.024999973973265
 20
4.274999912950988
 30
0.0
 11
0.8999999739732658
 21
4.274999912950988
 31
0.0
  0
LINE
  5
70BC
330
70A9
100
AcDbEntity
  8
0
100
AcDbLine
 10
8.524999973973265
 20
4.274999912950988
 30
0.0
 11
6.599999973973268
 21
4.274999912950988
 31
0.0
  0
LINE
  5
70BD
330
70A9
100
AcDbEntity
  8
0
100
AcDbLine
 10
8.524999973973265
 20
6.349999912951034
 30
0.0
 11
0.8999999739732658
 21
6.349999912951034
 31
0.0
  0
LWPOLYLINE
  5
70BE
330
70A9
100
AcDbEntity
  8
0
100
AcDbPolyline
 90
        4
 70
     1
 43
0.0
 10
3.474999973973268
 20
15.52499991295098
 10
3.12499997397326
 20
15.52499991295098
 10
3.12499997397326
 20
14.54999991295108
 10
3.474999973973268
 20
14.54999991295108
  0
LWPOLYLINE
  5
70BF
330
70A9
100
AcDbEntity
  8
0
100
AcDbPolyline
 90
        4
 70
     1
 43
0.0
 10
6.24999997397326
 20
15.52499991295098
 10
5.899999973973265
 20
15.52499991295098
 10
5.899999973973265
 20
14.54999991295108
 10
6.24999997397326
 20
14.54999991295108
  0
ELLIPSE
  5
70C0
330
70A9
100
AcDbEntity
  8
0
100
AcDbEllipse
 10
6.549999973973257
 20
9.999999912951125
 30
0.0
 11
0.0
 21
1.25
 31
0.0
210
0.0
220
0.0
230
1.0
 40
0.98
 41
3.380894
 42
4.528311
  0
ELLIPSE
  5
70C1
330
70A9
100
AcDbEntity
  8
0
100
AcDbEllipse
 10
2.87499997397326
 20
9.024999912950988
 30
0.0
 11
0.0
 21
1.25
 31
0.0
210
0.0
220
0.0
230
1.0
 40
0.98
 41
1.708854999999999
 42
3.380894
  0
LINE
  5
70C2
330
70A9
100
AcDbEntity
  8
0
100
AcDbLine
 10
3.149999973973265
 20
7.774999912950988
 30
0.0
 11
6.849999973973268
 21
8.749999912951125
 31
0.0
  0
ELLIPSE
  5
70C3
330
70A9
100
AcDbEntity
  8
0
100
AcDbEllipse
 10
4.724999973973268
 20
3.374999912951125
 30
0.0
 11
0.0
 21
0.775
 31
0.0
210
0.0
220
0.0
230
1.0
 40
0.9677419999999999
 41
0.0
 42
6.283184999999999
  0
LINE
  5
70C4
330
70A9
100
AcDbEntity
  8
0
100
AcDbLine
 10
0.8999999739732658
 20
29.82499991295117
 30
0.0
 11
0.8999999739732658
 21
27.74999991295112
 31
0.0
  0
LINE
  5
70C5
330
70A9
100
AcDbEntity
  8
0
100
AcDbLine
 10
8.524999973973265
 20
29.82499991295117
 30
0.0
 11
8.524999973973265
 21
27.74999991295112
 31
0.0
  0
LINE
  5
70C6
330
70A9
100
AcDbEntity
  8
0
100
AcDbLine
 10
6.599999973973268
 20
29.84999991295103
 30
0.0
 11
6.599999973973268
 21
28.87499991295112
 31
0.0
  0
LINE
  5
70C7
330
70A9
100
AcDbEntity
  8
0
100
AcDbLine
 10
6.599999973973268
 20
28.84999991295103
 30
0.0
 11
3.024999973973265
 21
28.84999991295103
 31
0.0
  0
LINE
  5
70C8
330
70A9
100
AcDbEntity
  8
0
100
AcDbLine
 10
3.024999973973265
 20
29.82499991295117
 30
0.0
 11
3.024999973973265
 21
28.84999991295103
 31
0.0
  0
LINE
  5
70C9
330
70A9
100
AcDbEntity
  8
0
100
AcDbLine
 10
3.024999973973265
 20
29.82499991295117
 30
0.0
 11
0.8999999739732658
 21
29.82499991295117
 31
0.0
  0
LINE
  5
70CA
330
70A9
100
AcDbEntity
  8
0
100
AcDbLine
 10
8.524999973973265
 20
29.82499991295117
 30
0.0
 11
6.599999973973268
 21
29.82499991295117
 31
0.0
  0
LWPOLYLINE
  5
70CB
330
70A9
100
AcDbEntity
  8
0
100
AcDbPolyline
 90
        4
 70
     1
 43
0.0
 10
3.474999973973268
 20
17.97499991295103
 10
3.12499997397326
 20
17.97499991295103
 10
3.12499997397326
 20
16.99999991295112
 10
3.474999973973268
 20
16.99999991295112
  0
LWPOLYLINE
  5
70CC
330
70A9
100
AcDbEntity
  8
0
100
AcDbPolyline
 90
        4
 70
     1
 43
0.0
 10
3.474999973973268
 20
19.29999991295107
 10
3.12499997397326
 20
19.29999991295107
 10
3.12499997397326
 20
18.34999991295103
 10
3.474999973973268
 20
18.34999991295103
  0
LWPOLYLINE
  5
70CD
330
70A9
100
AcDbEntity
  8
0
100
AcDbPolyline
 90
        4
 70
     1
 43
0.0
 10
3.474999973973268
 20
20.57499991295117
 10
3.12499997397326
 20
20.57499991295117
 10
3.12499997397326
 20
19.59999991295103
 10
3.474999973973268
 20
19.59999991295103
  0
LWPOLYLINE
  5
70CE
330
70A9
100
AcDbEntity
  8
0
100
AcDbPolyline
 90
        4
 70
     1
 43
0.0
 10
3.474999973973268
 20
21.79999991295108
 10
3.12499997397326
 20
21.79999991295108
 10
3.12499997397326
 20
20.82499991295116
 10
3.474999973973268
 20
20.82499991295116
  0
LWPOLYLINE
  5
70CF
330
70A9
100
AcDbEntity
  8
0
100
AcDbPolyline
 90
        4
 70
     1
 43
0.0
 10
3.474999973973268
 20
23.07499991295117
 10
3.12499997397326
 20
23.07499991295117
 10
3.12499997397326
 20
22.07499991295116
 10
3.474999973973268
 20
22.07499991295116
  0
LWPOLYLINE
  5
70D0
330
70A9
100
AcDbEntity
  8
0
100
AcDbPolyline
 90
        4
 70
     1
 43
0.0
 10
6.24999997397326
 20
17.97499991295103
 10
5.899999973973265
 20
17.97499991295103
 10
5.899999973973265
 20
16.99999991295112
 10
6.24999997397326
 20
16.99999991295112
  0
LWPOLYLINE
  5
70D1
330
70A9
100
AcDbEntity
  8
0
100
AcDbPolyline
 90
        4
 70
     1
 43
0.0
 10
6.24999997397326
 20
19.29999991295107
 10
5.899999973973265
 20
19.29999991295107
 10
5.899999973973265
 20
18.34999991295103
 10
6.24999997397326
 20
18.34999991295103
  0
LWPOLYLINE
  5
70D2
330
70A9
100
AcDbEntity
  8
0
100
AcDbPolyline
 90
        4
 70
     1
 43
0.0
 10
6.24999997397326
 20
20.57499991295117
 10
5.899999973973265
 20
20.57499991295117
 10
5.899999973973265
 20
19.59999991295103
 10
6.24999997397326
 20
19.59999991295103
  0
LWPOLYLINE
  5
70D3
330
70A9
100
AcDbEntity
  8
0
100
AcDbPolyline
 90
        4
 70
     1
 43
0.0
 10
6.24999997397326
 20
21.79999991295108
 10
5.899999973973265
 20
21.79999991295108
 10
5.899999973973265
 20
20.82499991295116
 10
6.24999997397326
 20
20.82499991295116
  0
LWPOLYLINE
  5
70D4
330
70A9
100
AcDbEntity
  8
0
100
AcDbPolyline
 90
        4
 70
     1
 43
0.0
 10
6.24999997397326
 20
23.07499991295117
 10
5.899999973973265
 20
23.07499991295117
 10
5.899999973973265
 20
22.07499991295116
 10
6.24999997397326
 20
22.07499991295116
  0
ELLIPSE
  5
70D5
330
70A9
100
AcDbEntity
  8
0
100
AcDbEllipse
 10
6.549999973973257
 20
24.02499991295099
 30
0.0
 11
0.0
 21
1.25
 31
0.0
210
0.0
220
0.0
230
1.0
 40
0.98
 41
4.509903999999999
 42
6.059223999999999
  0
ELLIPSE
  5
70D6
330
70A9
100
AcDbEntity
  8
0
100
AcDbEllipse
 10
2.87499997397326
 20
24.94999991295117
 30
0.0
 11
0.0
 21
1.25
 31
0.0
210
0.0
220
0.0
230
1.0
 40
0.98
 41
6.03468
 42
8.053399307179585
  0
LINE
  5
70D7
330
70A9
100
AcDbEntity
  8
0
100
AcDbLine
 10
6.849999973973268
 20
25.19999991295117
 30
0.0
 11
3.149999973973265
 21
26.12499991295112
 31
0.0
  0
ELLIPSE
  5
70D8
330
70A9
100
AcDbEntity
  8
0
100
AcDbEllipse
 10
4.724999973973268
 20
31.04999991295108
 30
0.0
 11
0.0
 21
0.775
 31
0.0
210
0.0
220
0.0
230
1.0
 40
0.9677419999999999
 41
0.0
 42
6.283184999999999
  0
LINE
  5
70D9
330
70A9
100
AcDbEntity
  8
0
100
AcDbLine
 10
8.524999973973265
 20
27.74999991295112
 30
0.0
 11
0.8999999739732658
 21
27.74999991295112
 31
0.0
  0
ENDBLK
  5
70DB
330
70A9
100
AcDbEntity
  8
0
100
AcDbBlockEnd
  0
BLOCK
  5
711D
330
70DC
100
AcDbEntity
  8
0
100
AcDbBlockBegin
  2
A$C3A6E1F00
 70
     0
 10
0.0
 20
0.0
 30
0.0
  3
A$C3A6E1F00
  1

  0
LWPOLYLINE
  5
70DD
330
70DC
100
AcDbEntity
  8
0
100
AcDbPolyline
 90
        4
 70
     1
 43
0.0
 10
3.449999973973262
 20
15.9499995198721
 10
3.099999973973261
 20
15.9499995198721
 10
3.099999973973261
 20
14.9749995198722
 10
3.449999973973262
 20
14.9749995198722
  0
LWPOLYLINE
  5
70DE
330
70DC
100
AcDbEntity
  8
0
100
AcDbPolyline
 90
        4
 70
     1
 43
0.0
 10
6.224999973973268
 20
15.9499995198721
 10
5.87499997397326
 20
15.9499995198721
 10
5.87499997397326
 20
14.9749995198722
 10
6.224999973973268
 20
14.9749995198722
  0
LWPOLYLINE
  5
70DF
330
70DC
100
AcDbEntity
  8
0
100
AcDbPolyline
 90
        4
 70
     1
 43
0.0
 10
6.599999973973268
 20
34.0749995198721
 10
2.899999973973265
 20
34.0749995198721
 10
2.899999973973265
 20
10.27499951987215
 10
6.599999973973268
 20
10.27499951987215
  0
LINE
  5
70E0
330
70DC
100
AcDbEntity
  8
0
100
AcDbLine
 10
7.774999973973265
 20
9.824999519872108
 30
0.0
 11
7.774999973973265
 21
33.99999951987206
 31
0.0
  0
LINE
  5
70E1
330
70DC
100
AcDbEntity
  8
0
100
AcDbLine
 10
1.649999973973265
 20
34.92499951987224
 30
0.0
 11
1.649999973973265
 21
8.899999519872153
 31
0.0
  0
LWPOLYLINE
  5
70E2
330
70DC
100
AcDbEntity
  8
0
100
AcDbPolyline
 90
        4
 70
     1
 43
0.2
 10
0.0999999739732616
 20
43.39999951987215
 10
0.0999999739732616
 20
0.099999519872199
 10
9.324999973973262
 20
0.099999519872199
 10
9.324999973973262
 20
43.39999951987215
  0
LWPOLYLINE
  5
70E3
330
70DC
100
AcDbEntity
  8
0
100
AcDbPolyline
 90
        4
 70
     1
 43
0.0
 10
3.449999973973262
 20
12.29999951987224
 10
3.099999973973261
 20
12.29999951987224
 10
3.099999973973261
 20
11.3249995198721
 10
3.449999973973262
 20
11.3249995198721
  0
LWPOLYLINE
  5
70E4
330
70DC
100
AcDbEntity
  8
0
100
AcDbPolyline
 90
        4
 70
     1
 43
0.0
 10
6.224999973973268
 20
12.29999951987224
 10
5.87499997397326
 20
12.29999951987224
 10
5.87499997397326
 20
11.3249995198721
 10
6.224999973973268
 20
11.3249995198721
  0
LWPOLYLINE
  5
70E5
330
70DC
100
AcDbEntity
  8
0
100
AcDbPolyline
 90
        4
 70
     1
 43
0.0
 10
3.449999973973262
 20
13.52499951987215
 10
3.099999973973261
 20
13.52499951987215
 10
3.099999973973261
 20
12.54999951987224
 10
3.449999973973262
 20
12.54999951987224
  0
LWPOLYLINE
  5
70E6
330
70DC
100
AcDbEntity
  8
0
100
AcDbPolyline
 90
        4
 70
     1
 43
0.0
 10
6.224999973973268
 20
13.52499951987215
 10
5.87499997397326
 20
13.52499951987215
 10
5.87499997397326
 20
12.54999951987224
 10
6.224999973973268
 20
12.54999951987224
  0
LWPOLYLINE
  5
70E7
330
70DC
100
AcDbEntity
  8
0
100
AcDbPolyline
 90
        4
 70
     1
 43
0.0
 10
3.449999973973262
 20
14.74999951987206
 10
3.099999973973261
 20
14.74999951987206
 10
3.099999973973261
 20
13.77499951987215
 10
3.449999973973262
 20
13.77499951987215
  0
LWPOLYLINE
  5
70E8
330
70DC
100
AcDbEntity
  8
0
100
AcDbPolyline
 90
        4
 70
     1
 43
0.0
 10
6.224999973973268
 20
14.74999951987206
 10
5.87499997397326
 20
14.74999951987206
 10
5.87499997397326
 20
13.77499951987215
 10
6.224999973973268
 20
13.77499951987215
  0
LINE
  5
70E9
330
70DC
100
AcDbEntity
  8
0
100
AcDbLine
 10
0.8999999739732658
 20
4.374999519872176
 30
0.0
 11
0.8999999739732658
 21
6.449999519872108
 31
0.0
  0
LINE
  5
70EA
330
70DC
100
AcDbEntity
  8
0
100
AcDbLine
 10
8.524999973973265
 20
4.374999519872176
 30
0.0
 11
8.524999973973265
 21
6.449999519872108
 31
0.0
  0
LINE
  5
70EB
330
70DC
100
AcDbEntity
  8
0
100
AcDbLine
 10
6.599999973973268
 20
4.349999519872199
 30
0.0
 11
6.599999973973268
 21
5.324999519872108
 31
0.0
  0
LINE
  5
70EC
330
70DC
100
AcDbEntity
  8
0
100
AcDbLine
 10
6.599999973973268
 20
5.349999519872199
 30
0.0
 11
3.024999973973265
 21
5.349999519872199
 31
0.0
  0
LINE
  5
70ED
330
70DC
100
AcDbEntity
  8
0
100
AcDbLine
 10
3.024999973973265
 20
4.374999519872176
 30
0.0
 11
3.024999973973265
 21
5.349999519872199
 31
0.0
  0
LINE
  5
70EE
330
70DC
100
AcDbEntity
  8
0
100
AcDbLine
 10
3.024999973973265
 20
4.374999519872176
 30
0.0
 11
0.8999999739732658
 21
4.374999519872176
 31
0.0
  0
LINE
  5
70EF
330
70DC
100
AcDbEntity
  8
0
100
AcDbLine
 10
8.524999973973265
 20
4.374999519872176
 30
0.0
 11
6.599999973973268
 21
4.374999519872176
 31
0.0
  0
LINE
  5
70F0
330
70DC
100
AcDbEntity
  8
0
100
AcDbLine
 10
8.524999973973265
 20
6.449999519872108
 30
0.0
 11
0.8999999739732658
 21
6.449999519872108
 31
0.0
  0
ELLIPSE
  5
70F1
330
70DC
100
AcDbEntity
  8
0
100
AcDbEllipse
 10
6.549999973973257
 20
10.04999951987224
 30
0.0
 11
0.0
 21
1.25
 31
0.0
210
0.0
220
0.0
230
1.0
 40
0.98
 41
3.380894
 42
4.528311
  0
ELLIPSE
  5
70F2
330
70DC
100
AcDbEntity
  8
0
100
AcDbEllipse
 10
2.87499997397326
 20
9.074999519872108
 30
0.0
 11
0.0
 21
1.25
 31
0.0
210
0.0
220
0.0
230
1.0
 40
0.98
 41
1.708854999999999
 42
3.380894
  0
LINE
  5
70F3
330
70DC
100
AcDbEntity
  8
0
100
AcDbLine
 10
3.149999973973265
 20
7.824999519872108
 30
0.0
 11
6.849999973973268
 21
8.799999519872244
 31
0.0
  0
ELLIPSE
  5
70F4
330
70DC
100
AcDbEntity
  8
0
100
AcDbEllipse
 10
4.724999973973268
 20
3.474999519872199
 30
0.0
 11
0.0
 21
0.775
 31
0.0
210
0.0
220
0.0
230
1.0
 40
0.9677419999999999
 41
0.0
 42
6.283184999999999
  0
LINE
  5
70F5
330
70DC
100
AcDbEntity
  8
0
100
AcDbLine
 10
0.8999999739732658
 20
39.79999951987224
 30
0.0
 11
0.8999999739732658
 21
37.72499951987219
 31
0.0
  0
LINE
  5
70F6
330
70DC
100
AcDbEntity
  8
0
100
AcDbLine
 10
8.524999973973265
 20
39.79999951987224
 30
0.0
 11
8.524999973973265
 21
37.72499951987219
 31
0.0
  0
LWPOLYLINE
  5
70F7
330
70DC
100
AcDbEntity
  8
0
100
AcDbPolyline
 90
        4
 70
     1
 43
0.0
 10
3.449999973973262
 20
17.12499951987206
 10
3.099999973973261
 20
17.12499951987206
 10
3.099999973973261
 20
16.14999951987215
 10
3.449999973973262
 20
16.14999951987215
  0
LWPOLYLINE
  5
70F8
330
70DC
100
AcDbEntity
  8
0
100
AcDbPolyline
 90
        4
 70
     1
 43
0.0
 10
6.224999973973268
 20
17.12499951987206
 10
5.87499997397326
 20
17.12499951987206
 10
5.87499997397326
 20
16.14999951987215
 10
6.224999973973268
 20
16.14999951987215
  0
LWPOLYLINE
  5
70F9
330
70DC
100
AcDbEntity
  8
0
100
AcDbPolyline
 90
        4
 70
     1
 43
0.0
 10
3.449999973973262
 20
18.29999951987224
 10
3.099999973973261
 20
18.29999951987224
 10
3.099999973973261
 20
17.3249995198721
 10
3.449999973973262
 20
17.3249995198721
  0
LWPOLYLINE
  5
70FA
330
70DC
100
AcDbEntity
  8
0
100
AcDbPolyline
 90
        4
 70
     1
 43
0.0
 10
6.224999973973268
 20
18.29999951987224
 10
5.87499997397326
 20
18.29999951987224
 10
5.87499997397326
 20
17.3249995198721
 10
6.224999973973268
 20
17.3249995198721
  0
LWPOLYLINE
  5
70FB
330
70DC
100
AcDbEntity
  8
0
100
AcDbPolyline
 90
        4
 70
     1
 43
0.0
 10
3.449999973973262
 20
19.4749995198722
 10
3.099999973973261
 20
19.4749995198722
 10
3.099999973973261
 20
18.49999951987206
 10
3.449999973973262
 20
18.49999951987206
  0
LWPOLYLINE
  5
70FC
330
70DC
100
AcDbEntity
  8
0
100
AcDbPolyline
 90
        4
 70
     1
 43
0.0
 10
6.224999973973268
 20
19.4749995198722
 10
5.87499997397326
 20
19.4749995198722
 10
5.87499997397326
 20
18.49999951987206
 10
6.224999973973268
 20
18.49999951987206
  0
LWPOLYLINE
  5
70FD
330
70DC
100
AcDbEntity
  8
0
100
AcDbPolyline
 90
        4
 70
     1
 43
0.0
 10
3.449999973973262
 20
20.67499951987224
 10
3.099999973973261
 20
20.67499951987224
 10
3.099999973973261
 20
19.6999995198721
 10
3.449999973973262
 20
19.6999995198721
  0
LWPOLYLINE
  5
70FE
330
70DC
100
AcDbEntity
  8
0
100
AcDbPolyline
 90
        4
 70
     1
 43
0.0
 10
6.224999973973268
 20
20.67499951987224
 10
5.87499997397326
 20
20.67499951987224
 10
5.87499997397326
 20
19.6999995198721
 10
6.224999973973268
 20
19.6999995198721
  0
LWPOLYLINE
  5
70FF
330
70DC
100
AcDbEntity
  8
0
100
AcDbPolyline
 90
        4
 70
     1
 43
0.0
 10
3.449999973973262
 20
21.8499995198722
 10
3.099999973973261
 20
21.8499995198722
 10
3.099999973973261
 20
20.87499951987206
 10
3.449999973973262
 20
20.87499951987206
  0
LWPOLYLINE
  5
7100
330
70DC
100
AcDbEntity
  8
0
100
AcDbPolyline
 90
        4
 70
     1
 43
0.0
 10
6.224999973973268
 20
21.8499995198722
 10
5.87499997397326
 20
21.8499995198722
 10
5.87499997397326
 20
20.87499951987206
 10
6.224999973973268
 20
20.87499951987206
  0
LWPOLYLINE
  5
7101
330
70DC
100
AcDbEntity
  8
0
100
AcDbPolyline
 90
        4
 70
     1
 43
0.0
 10
3.449999973973262
 20
23.04999951987224
 10
3.099999973973261
 20
23.04999951987224
 10
3.099999973973261
 20
22.0749995198721
 10
3.449999973973262
 20
22.0749995198721
  0
LWPOLYLINE
  5
7102
330
70DC
100
AcDbEntity
  8
0
100
AcDbPolyline
 90
        4
 70
     1
 43
0.0
 10
6.224999973973268
 20
23.04999951987224
 10
5.87499997397326
 20
23.04999951987224
 10
5.87499997397326
 20
22.0749995198721
 10
6.224999973973268
 20
22.0749995198721
  0
LWPOLYLINE
  5
7103
330
70DC
100
AcDbEntity
  8
0
100
AcDbPolyline
 90
        4
 70
     1
 43
0.0
 10
3.474999973973268
 20
24.24999951987206
 10
3.12499997397326
 20
24.24999951987206
 10
3.12499997397326
 20
23.27499951987215
 10
3.474999973973268
 20
23.27499951987215
  0
LWPOLYLINE
  5
7104
330
70DC
100
AcDbEntity
  8
0
100
AcDbPolyline
 90
        4
 70
     1
 43
0.0
 10
6.24999997397326
 20
24.24999951987206
 10
5.899999973973265
 20
24.24999951987206
 10
5.899999973973265
 20
23.27499951987215
 10
6.24999997397326
 20
23.27499951987215
  0
LWPOLYLINE
  5
7105
330
70DC
100
AcDbEntity
  8
0
100
AcDbPolyline
 90
        4
 70
     1
 43
0.0
 10
3.474999973973268
 20
25.49999951987206
 10
3.12499997397326
 20
25.49999951987206
 10
3.12499997397326
 20
24.52499951987215
 10
3.474999973973268
 20
24.52499951987215
  0
LWPOLYLINE
  5
7106
330
70DC
100
AcDbEntity
  8
0
100
AcDbPolyline
 90
        4
 70
     1
 43
0.0
 10
3.474999973973268
 20
26.67499951987224
 10
3.12499997397326
 20
26.67499951987224
 10
3.12499997397326
 20
25.6999995198721
 10
3.474999973973268
 20
25.6999995198721
  0
LWPOLYLINE
  5
7107
330
70DC
100
AcDbEntity
  8
0
100
AcDbPolyline
 90
        4
 70
     1
 43
0.0
 10
3.474999973973268
 20
27.94999951987211
 10
3.12499997397326
 20
27.94999951987211
 10
3.12499997397326
 20
26.9749995198722
 10
3.474999973973268
 20
26.9749995198722
  0
LWPOLYLINE
  5
7108
330
70DC
100
AcDbEntity
  8
0
100
AcDbPolyline
 90
        4
 70
     1
 43
0.0
 10
3.474999973973268
 20
29.27499951987215
 10
3.12499997397326
 20
29.27499951987215
 10
3.12499997397326
 20
28.32499951987211
 10
3.474999973973268
 20
28.32499951987211
  0
LWPOLYLINE
  5
7109
330
70DC
100
AcDbEntity
  8
0
100
AcDbPolyline
 90
        4
 70
     1
 43
0.0
 10
3.474999973973268
 20
30.54999951987224
 10
3.12499997397326
 20
30.54999951987224
 10
3.12499997397326
 20
29.57499951987211
 10
3.474999973973268
 20
29.57499951987211
  0
LWPOLYLINE
  5
710A
330
70DC
100
AcDbEntity
  8
0
100
AcDbPolyline
 90
        4
 70
     1
 43
0.0
 10
3.474999973973268
 20
31.77499951987215
 10
3.12499997397326
 20
31.77499951987215
 10
3.12499997397326
 20
30.79999951987224
 10
3.474999973973268
 20
30.79999951987224
  0
LWPOLYLINE
  5
710B
330
70DC
100
AcDbEntity
  8
0
100
AcDbPolyline
 90
        4
 70
     1
 43
0.0
 10
3.474999973973268
 20
33.04999951987224
 10
3.12499997397326
 20
33.04999951987224
 10
3.12499997397326
 20
32.04999951987224
 10
3.474999973973268
 20
32.04999951987224
  0
LWPOLYLINE
  5
710C
330
70DC
100
AcDbEntity
  8
0
100
AcDbPolyline
 90
        4
 70
     1
 43
0.0
 10
6.24999997397326
 20
25.49999951987206
 10
5.899999973973265
 20
25.49999951987206
 10
5.899999973973265
 20
24.52499951987215
 10
6.24999997397326
 20
24.52499951987215
  0
LWPOLYLINE
  5
710D
330
70DC
100
AcDbEntity
  8
0
100
AcDbPolyline
 90
        4
 70
     1
 43
0.0
 10
6.24999997397326
 20
26.67499951987224
 10
5.899999973973265
 20
26.67499951987224
 10
5.899999973973265
 20
25.6999995198721
 10
6.24999997397326
 20
25.6999995198721
  0
LWPOLYLINE
  5
710E
330
70DC
100
AcDbEntity
  8
0
100
AcDbPolyline
 90
        4
 70
     1
 43
0.0
 10
6.24999997397326
 20
27.94999951987211
 10
5.899999973973265
 20
27.94999951987211
 10
5.899999973973265
 20
26.9749995198722
 10
6.24999997397326
 20
26.9749995198722
  0
LWPOLYLINE
  5
710F
330
70DC
100
AcDbEntity
  8
0
100
AcDbPolyline
 90
        4
 70
     1
 43
0.0
 10
6.24999997397326
 20
29.27499951987215
 10
5.899999973973265
 20
29.27499951987215
 10
5.899999973973265
 20
28.32499951987211
 10
6.24999997397326
 20
28.32499951987211
  0
LWPOLYLINE
  5
7110
330
70DC
100
AcDbEntity
  8
0
100
AcDbPolyline
 90
        4
 70
     1
 43
0.0
 10
6.24999997397326
 20
30.54999951987224
 10
5.899999973973265
 20
30.54999951987224
 10
5.899999973973265
 20
29.57499951987211
 10
6.24999997397326
 20
29.57499951987211
  0
LWPOLYLINE
  5
7111
330
70DC
100
AcDbEntity
  8
0
100
AcDbPolyline
 90
        4
 70
     1
 43
0.0
 10
6.24999997397326
 20
31.77499951987215
 10
5.899999973973265
 20
31.77499951987215
 10
5.899999973973265
 20
30.79999951987224
 10
6.24999997397326
 20
30.79999951987224
  0
LWPOLYLINE
  5
7112
330
70DC
100
AcDbEntity
  8
0
100
AcDbPolyline
 90
        4
 70
     1
 43
0.0
 10
6.24999997397326
 20
33.04999951987224
 10
5.899999973973265
 20
33.04999951987224
 10
5.899999973973265
 20
32.04999951987224
 10
6.24999997397326
 20
32.04999951987224
  0
ELLIPSE
  5
7113
330
70DC
100
AcDbEntity
  8
0
100
AcDbEllipse
 10
6.549999973973257
 20
33.99999951987206
 30
0.0
 11
0.0
 21
1.25
 31
0.0
210
0.0
220
0.0
230
1.0
 40
0.98
 41
4.509903999999999
 42
6.059223999999999
  0
ELLIPSE
  5
7114
330
70DC
100
AcDbEntity
  8
0
100
AcDbEllipse
 10
2.87499997397326
 20
34.92499951987224
 30
0.0
 11
0.0
 21
1.25
 31
0.0
210
0.0
220
0.0
230
1.0
 40
0.98
 41
6.03468
 42
8.053399307179585
  0
LINE
  5
7115
330
70DC
100
AcDbEntity
  8
0
100
AcDbLine
 10
6.849999973973268
 20
35.17499951987224
 30
0.0
 11
3.149999973973265
 21
36.09999951987219
 31
0.0
  0
LINE
  5
7116
330
70DC
100
AcDbEntity
  8
0
100
AcDbLine
 10
8.524999973973265
 20
37.72499951987219
 30
0.0
 11
0.8999999739732658
 21
37.72499951987219
 31
0.0
  0
LINE
  5
7117
330
70DC
100
AcDbEntity
  8
0
100
AcDbLine
 10
6.599999973973268
 20
39.82499951987211
 30
0.0
 11
6.599999973973268
 21
38.8499995198722
 31
0.0
  0
LINE
  5
7118
330
70DC
100
AcDbEntity
  8
0
100
AcDbLine
 10
6.599999973973268
 20
38.8249995198721
 30
0.0
 11
3.024999973973265
 21
38.8249995198721
 31
0.0
  0
LINE
  5
7119
330
70DC
100
AcDbEntity
  8
0
100
AcDbLine
 10
3.024999973973265
 20
39.79999951987224
 30
0.0
 11
3.024999973973265
 21
38.8249995198721
 31
0.0
  0
LINE
  5
711A
330
70DC
100
AcDbEntity
  8
0
100
AcDbLine
 10
3.024999973973265
 20
39.79999951987224
 30
0.0
 11
0.8999999739732658
 21
39.79999951987224
 31
0.0
  0
LINE
  5
711B
330
70DC
100
AcDbEntity
  8
0
100
AcDbLine
 10
8.524999973973265
 20
39.79999951987224
 30
0.0
 11
6.599999973973268
 21
39.79999951987224
 31
0.0
  0
ELLIPSE
  5
711C
330
70DC
100
AcDbEntity
  8
0
100
AcDbEllipse
 10
4.724999973973268
 20
41.02499951987215
 30
0.0
 11
0.0
 21
0.775
 31
0.0
210
0.0
220
0.0
230
1.0
 40
0.9677419999999999
 41
0.0
 42
6.283184999999999
  0
ENDBLK
  5
711E
330
70DC
100
AcDbEntity
  8
0
100
AcDbBlockEnd
  0
BLOCK
  5
8934
330
88F5
100
AcDbEntity
  8
0
100
AcDbBlockBegin
  2
A$C5A3A0BB0
 70
     0
 10
0.0
 20
0.0
 30
0.0
  3
A$C5A3A0BB0
  1

  0
LWPOLYLINE
  5
88F6
330
88F5
100
AcDbEntity
  8
0
100
AcDbPolyline
 90
        4
 70
     1
 43
0.2
 10
0.0999993794071088
 20
51.09999997583827
 10
15.0999993794071
 20
51.09999997583827
 10
15.0999993794071
 20
0.0999999758382728
 10
0.0999993794071088
 20
0.0999999758382728
  0
LINE
  5
88F7
330
88F5
100
AcDbEntity
  8
0
100
AcDbLine
 10
5.099999379407108
 20
4.099999975838272
 30
0.0
 11
7.099999379407108
 21
5.099999975838272
 31
0.0
  0
LINE
  5
88F8
330
88F5
100
AcDbEntity
  8
0
100
AcDbLine
 10
3.099999379407108
 20
4.099999975838272
 30
0.0
 11
2.099999379407108
 21
5.099999975838272
 31
0.0
  0
LWPOLYLINE
  5
88F9
330
88F5
100
AcDbEntity
  8
0
100
AcDbPolyline
 90
        4
 70
     1
 43
0.2
 10
2.099999379407108
 20
5.099999975838272
 10
7.099999379407108
 20
5.099999975838272
 10
7.099999379407108
 20
1.099999975838272
 10
2.099999379407108
 20
1.099999975838272
  0
LINE
  5
88FA
330
88F5
100
AcDbEntity
  8
0
100
AcDbLine
 10
10.0999993794071
 20
51.09999997583827
 30
0.0
 11
10.0999993794071
 21
0.0999999758382728
 31
0.0
  0
LINE
  5
88FB
330
88F5
100
AcDbEntity
  8
0
100
AcDbLine
 10
5.099999379407108
 20
2.099999975838272
 30
0.0
 11
7.099999379407108
 21
1.099999975838272
 31
0.0
  0
LINE
  5
88FC
330
88F5
100
AcDbEntity
  8
0
100
AcDbLine
 10
3.099999379407108
 20
2.099999975838272
 30
0.0
 11
2.099999379407108
 21
1.099999975838272
 31
0.0
  0
LWPOLYLINE
  5
88FD
330
88F5
100
AcDbEntity
  8
0
100
AcDbPolyline
 90
        4
 70
     1
 43
0.2
 10
3.099999379407108
 20
4.099999975838272
 10
5.099999379407108
 20
4.099999975838272
 10
5.099999379407108
 20
2.099999975838272
 10
3.099999379407108
 20
2.099999975838272
  0
LINE
  5
88FE
330
88F5
100
AcDbEntity
  8
0
100
AcDbLine
 10
5.099999379407108
 20
49.09999997583827
 30
0.0
 11
7.099999379407108
 21
50.09999997583827
 31
0.0
  0
LINE
  5
88FF
330
88F5
100
AcDbEntity
  8
0
100
AcDbLine
 10
3.099999379407108
 20
49.09999997583827
 30
0.0
 11
2.099999379407108
 21
50.09999997583827
 31
0.0
  0
LWPOLYLINE
  5
8900
330
88F5
100
AcDbEntity
  8
0
100
AcDbPolyline
 90
        4
 70
     1
 43
0.2
 10
2.099999379407108
 20
50.09999997583827
 10
7.099999379407108
 20
50.09999997583827
 10
7.099999379407108
 20
46.09999997583827
 10
2.099999379407108
 20
46.09999997583827
  0
LINE
  5
8901
330
88F5
100
AcDbEntity
  8
0
100
AcDbLine
 10
5.099999379407108
 20
27.09999997583827
 30
0.0
 11
7.099999379407108
 21
26.09999997583827
 31
0.0
  0
LINE
  5
8902
330
88F5
100
AcDbEntity
  8
0
100
AcDbLine
 10
3.099999379407108
 20
27.09999997583827
 30
0.0
 11
2.099999379407108
 21
26.09999997583827
 31
0.0
  0
LWPOLYLINE
  5
8903
330
88F5
100
AcDbEntity
  8
0
100
AcDbPolyline
 90
        4
 70
     1
 43
0.2
 10
2.099999379407108
 20
30.09999997583827
 10
7.099999379407108
 20
30.09999997583827
 10
7.099999379407108
 20
26.09999997583827
 10
2.099999379407108
 20
26.09999997583827
  0
LINE
  5
8904
330
88F5
100
AcDbEntity
  8
0
100
AcDbLine
 10
5.099999379407108
 20
9.099999975838272
 30
0.0
 11
7.099999379407108
 21
10.09999997583827
 31
0.0
  0
LINE
  5
8905
330
88F5
100
AcDbEntity
  8
0
100
AcDbLine
 10
5.099999379407108
 20
7.099999975838272
 30
0.0
 11
7.099999379407108
 21
6.099999975838272
 31
0.0
  0
LINE
  5
8906
330
88F5
100
AcDbEntity
  8
0
100
AcDbLine
 10
3.099999379407108
 20
7.099999975838272
 30
0.0
 11
2.099999379407108
 21
6.099999975838272
 31
0.0
  0
LINE
  5
8907
330
88F5
100
AcDbEntity
  8
0
100
AcDbLine
 10
3.099999379407108
 20
9.099999975838272
 30
0.0
 11
2.099999379407108
 21
10.09999997583827
 31
0.0
  0
LWPOLYLINE
  5
8908
330
88F5
100
AcDbEntity
  8
0
100
AcDbPolyline
 90
        4
 70
     1
 43
0.2
 10
3.099999379407108
 20
9.099999975838272
 10
5.099999379407108
 20
9.099999975838272
 10
5.099999379407108
 20
7.099999975838272
 10
3.099999379407108
 20
7.099999975838272
  0
LWPOLYLINE
  5
8909
330
88F5
100
AcDbEntity
  8
0
100
AcDbPolyline
 90
        4
 70
     1
 43
0.2
 10
2.099999379407108
 20
10.09999997583827
 10
7.099999379407108
 20
10.09999997583827
 10
7.099999379407108
 20
6.099999975838272
 10
2.099999379407108
 20
6.099999975838272
  0
LINE
  5
890A
330
88F5
100
AcDbEntity
  8
0
100
AcDbLine
 10
5.099999379407108
 20
14.09999997583827
 30
0.0
 11
7.099999379407108
 21
15.09999997583827
 31
0.0
  0
LINE
  5
890B
330
88F5
100
AcDbEntity
  8
0
100
AcDbLine
 10
5.099999379407108
 20
12.09999997583827
 30
0.0
 11
7.099999379407108
 21
11.09999997583827
 31
0.0
  0
LINE
  5
890C
330
88F5
100
AcDbEntity
  8
0
100
AcDbLine
 10
3.099999379407108
 20
12.09999997583827
 30
0.0
 11
2.099999379407108
 21
11.09999997583827
 31
0.0
  0
LINE
  5
890D
330
88F5
100
AcDbEntity
  8
0
100
AcDbLine
 10
3.099999379407108
 20
14.09999997583827
 30
0.0
 11
2.099999379407108
 21
15.09999997583827
 31
0.0
  0
LWPOLYLINE
  5
890E
330
88F5
100
AcDbEntity
  8
0
100
AcDbPolyline
 90
        4
 70
     1
 43
0.2
 10
3.099999379407108
 20
14.09999997583827
 10
5.099999379407108
 20
14.09999997583827
 10
5.099999379407108
 20
12.09999997583827
 10
3.099999379407108
 20
12.09999997583827
  0
LWPOLYLINE
  5
890F
330
88F5
100
AcDbEntity
  8
0
100
AcDbPolyline
 90
        4
 70
     1
 43
0.2
 10
2.099999379407108
 20
15.09999997583827
 10
7.099999379407108
 20
15.09999997583827
 10
7.099999379407108
 20
11.09999997583827
 10
2.099999379407108
 20
11.09999997583827
  0
LINE
  5
8910
330
88F5
100
AcDbEntity
  8
0
100
AcDbLine
 10
5.099999379407108
 20
19.09999997583827
 30
0.0
 11
7.099999379407108
 21
20.09999997583827
 31
0.0
  0
LINE
  5
8911
330
88F5
100
AcDbEntity
  8
0
100
AcDbLine
 10
5.099999379407108
 20
17.09999997583827
 30
0.0
 11
7.099999379407108
 21
16.09999997583827
 31
0.0
  0
LINE
  5
8912
330
88F5
100
AcDbEntity
  8
0
100
AcDbLine
 10
3.099999379407108
 20
17.09999997583827
 30
0.0
 11
2.099999379407108
 21
16.09999997583827
 31
0.0
  0
LINE
  5
8913
330
88F5
100
AcDbEntity
  8
0
100
AcDbLine
 10
3.099999379407108
 20
19.09999997583827
 30
0.0
 11
2.099999379407108
 21
20.09999997583827
 31
0.0
  0
LWPOLYLINE
  5
8914
330
88F5
100
AcDbEntity
  8
0
100
AcDbPolyline
 90
        4
 70
     1
 43
0.2
 10
3.099999379407108
 20
19.09999997583827
 10
5.099999379407108
 20
19.09999997583827
 10
5.099999379407108
 20
17.09999997583827
 10
3.099999379407108
 20
17.09999997583827
  0
LWPOLYLINE
  5
8915
330
88F5
100
AcDbEntity
  8
0
100
AcDbPolyline
 90
        4
 70
     1
 43
0.2
 10
2.099999379407108
 20
20.09999997583827
 10
7.099999379407108
 20
20.09999997583827
 10
7.099999379407108
 20
16.09999997583827
 10
2.099999379407108
 20
16.09999997583827
  0
LINE
  5
8916
330
88F5
100
AcDbEntity
  8
0
100
AcDbLine
 10
5.099999379407108
 20
24.09999997583827
 30
0.0
 11
7.099999379407108
 21
25.09999997583827
 31
0.0
  0
LINE
  5
8917
330
88F5
100
AcDbEntity
  8
0
100
AcDbLine
 10
5.099999379407108
 20
22.09999997583827
 30
0.0
 11
7.099999379407108
 21
21.09999997583827
 31
0.0
  0
LINE
  5
8918
330
88F5
100
AcDbEntity
  8
0
100
AcDbLine
 10
3.099999379407108
 20
22.09999997583827
 30
0.0
 11
2.099999379407108
 21
21.09999997583827
 31
0.0
  0
LINE
  5
8919
330
88F5
100
AcDbEntity
  8
0
100
AcDbLine
 10
3.099999379407108
 20
24.09999997583827
 30
0.0
 11
2.099999379407108
 21
25.09999997583827
 31
0.0
  0
LWPOLYLINE
  5
891A
330
88F5
100
AcDbEntity
  8
0
100
AcDbPolyline
 90
        4
 70
     1
 43
0.2
 10
3.099999379407108
 20
24.09999997583827
 10
5.099999379407108
 20
24.09999997583827
 10
5.099999379407108
 20
22.09999997583827
 10
3.099999379407108
 20
22.09999997583827
  0
LWPOLYLINE
  5
891B
330
88F5
100
AcDbEntity
  8
0
100
AcDbPolyline
 90
        4
 70
     1
 43
0.2
 10
2.099999379407108
 20
25.09999997583827
 10
7.099999379407108
 20
25.09999997583827
 10
7.099999379407108
 20
21.09999997583827
 10
2.099999379407108
 20
21.09999997583827
  0
LINE
  5
891C
330
88F5
100
AcDbEntity
  8
0
100
AcDbLine
 10
5.099999379407108
 20
29.09999997583827
 30
0.0
 11
7.099999379407108
 21
30.09999997583827
 31
0.0
  0
LINE
  5
891D
330
88F5
100
AcDbEntity
  8
0
100
AcDbLine
 10
3.099999379407108
 20
29.09999997583827
 30
0.0
 11
2.099999379407108
 21
30.09999997583827
 31
0.0
  0
LWPOLYLINE
  5
891E
330
88F5
100
AcDbEntity
  8
0
100
AcDbPolyline
 90
        4
 70
     1
 43
0.2
 10
3.099999379407108
 20
29.09999997583827
 10
5.099999379407108
 20
29.09999997583827
 10
5.099999379407108
 20
27.09999997583827
 10
3.099999379407108
 20
27.09999997583827
  0
LINE
  5
891F
330
88F5
100
AcDbEntity
  8
0
100
AcDbLine
 10
5.099999379407108
 20
34.09999997583827
 30
0.0
 11
7.099999379407108
 21
35.09999997583827
 31
0.0
  0
LINE
  5
8920
330
88F5
100
AcDbEntity
  8
0
100
AcDbLine
 10
5.099999379407108
 20
32.09999997583827
 30
0.0
 11
7.099999379407108
 21
31.09999997583827
 31
0.0
  0
LINE
  5
8921
330
88F5
100
AcDbEntity
  8
0
100
AcDbLine
 10
3.099999379407108
 20
32.09999997583827
 30
0.0
 11
2.099999379407108
 21
31.09999997583827
 31
0.0
  0
LINE
  5
8922
330
88F5
100
AcDbEntity
  8
0
100
AcDbLine
 10
3.099999379407108
 20
34.09999997583827
 30
0.0
 11
2.099999379407108
 21
35.09999997583827
 31
0.0
  0
LWPOLYLINE
  5
8923
330
88F5
100
AcDbEntity
  8
0
100
AcDbPolyline
 90
        4
 70
     1
 43
0.2
 10
3.099999379407108
 20
34.09999997583827
 10
5.099999379407108
 20
34.09999997583827
 10
5.099999379407108
 20
32.09999997583827
 10
3.099999379407108
 20
32.09999997583827
  0
LWPOLYLINE
  5
8924
330
88F5
100
AcDbEntity
  8
0
100
AcDbPolyline
 90
        4
 70
     1
 43
0.2
 10
2.099999379407108
 20
35.09999997583827
 10
7.099999379407108
 20
35.09999997583827
 10
7.099999379407108
 20
31.09999997583827
 10
2.099999379407108
 20
31.09999997583827
  0
LINE
  5
8925
330
88F5
100
AcDbEntity
  8
0
100
AcDbLine
 10
5.099999379407108
 20
39.09999997583827
 30
0.0
 11
7.099999379407108
 21
40.09999997583827
 31
0.0
  0
LINE
  5
8926
330
88F5
100
AcDbEntity
  8
0
100
AcDbLine
 10
5.099999379407108
 20
37.09999997583827
 30
0.0
 11
7.099999379407108
 21
36.09999997583827
 31
0.0
  0
LINE
  5
8927
330
88F5
100
AcDbEntity
  8
0
100
AcDbLine
 10
3.099999379407108
 20
37.09999997583827
 30
0.0
 11
2.099999379407108
 21
36.09999997583827
 31
0.0
  0
LINE
  5
8928
330
88F5
100
AcDbEntity
  8
0
100
AcDbLine
 10
3.099999379407108
 20
39.09999997583827
 30
0.0
 11
2.099999379407108
 21
40.09999997583827
 31
0.0
  0
LWPOLYLINE
  5
8929
330
88F5
100
AcDbEntity
  8
0
100
AcDbPolyline
 90
        4
 70
     1
 43
0.2
 10
3.099999379407108
 20
39.09999997583827
 10
5.099999379407108
 20
39.09999997583827
 10
5.099999379407108
 20
37.09999997583827
 10
3.099999379407108
 20
37.09999997583827
  0
LWPOLYLINE
  5
892A
330
88F5
100
AcDbEntity
  8
0
100
AcDbPolyline
 90
        4
 70
     1
 43
0.2
 10
2.099999379407108
 20
40.09999997583827
 10
7.099999379407108
 20
40.09999997583827
 10
7.099999379407108
 20
36.09999997583827
 10
2.099999379407108
 20
36.09999997583827
  0
LINE
  5
892B
330
88F5
100
AcDbEntity
  8
0
100
AcDbLine
 10
5.099999379407108
 20
44.09999997583827
 30
0.0
 11
7.099999379407108
 21
45.09999997583827
 31
0.0
  0
LINE
  5
892C
330
88F5
100
AcDbEntity
  8
0
100
AcDbLine
 10
5.099999379407108
 20
42.09999997583827
 30
0.0
 11
7.099999379407108
 21
41.09999997583827
 31
0.0
  0
LINE
  5
892D
330
88F5
100
AcDbEntity
  8
0
100
AcDbLine
 10
3.099999379407108
 20
42.09999997583827
 30
0.0
 11
2.099999379407108
 21
41.09999997583827
 31
0.0
  0
LINE
  5
892E
330
88F5
100
AcDbEntity
  8
0
100
AcDbLine
 10
3.099999379407108
 20
44.09999997583827
 30
0.0
 11
2.099999379407108
 21
45.09999997583827
 31
0.0
  0
LWPOLYLINE
  5
892F
330
88F5
100
AcDbEntity
  8
0
100
AcDbPolyline
 90
        4
 70
     1
 43
0.2
 10
3.099999379407108
 20
44.09999997583827
 10
5.099999379407108
 20
44.09999997583827
 10
5.099999379407108
 20
42.09999997583827
 10
3.099999379407108
 20
42.09999997583827
  0
LWPOLYLINE
  5
8930
330
88F5
100
AcDbEntity
  8
0
100
AcDbPolyline
 90
        4
 70
     1
 43
0.2
 10
2.099999379407108
 20
45.09999997583827
 10
7.099999379407108
 20
45.09999997583827
 10
7.099999379407108
 20
41.09999997583827
 10
2.099999379407108
 20
41.09999997583827
  0
LINE
  5
8931
330
88F5
100
AcDbEntity
  8
0
100
AcDbLine
 10
5.099999379407108
 20
47.09999997583827
 30
0.0
 11
7.099999379407108
 21
46.09999997583827
 31
0.0
  0
LINE
  5
8932
330
88F5
100
AcDbEntity
  8
0
100
AcDbLine
 10
3.099999379407108
 20
47.09999997583827
 30
0.0
 11
2.099999379407108
 21
46.09999997583827
 31
0.0
  0
LWPOLYLINE
  5
8933
330
88F5
100
AcDbEntity
  8
0
100
AcDbPolyline
 90
        4
 70
     1
 43
0.2
 10
3.099999379407108
 20
49.09999997583827
 10
5.099999379407108
 20
49.09999997583827
 10
5.099999379407108
 20
47.09999997583827
 10
3.099999379407108
 20
47.09999997583827
  0
ENDBLK
  5
8935
330
88F5
100
AcDbEntity
  8
0
100
AcDbBlockEnd
  0
BLOCK
  5
894B
330
8936
100
AcDbEntity
  8
0
100
AcDbBlockBegin
  2
A$C3413120B
 70
     0
 10
0.0
 20
0.0
 30
0.0
  3
A$C3413120B
  1

  0
LWPOLYLINE
  5
8937
330
8936
100
AcDbEntity
  8
0
100
AcDbPolyline
 90
        4
 70
     1
 43
0.0
 10
-0.0000002802582912
 20
16.02466200946787
 10
14.99999971974171
 20
16.02466200946787
 10
14.99999971974171
 20
0.0
 10
-0.0000002802582912
 20
0.0
  0
LINE
  5
8938
330
8936
100
AcDbEntity
  8
0
100
AcDbLine
 10
9.999999719741708
 20
16.02466200946787
 30
0.0
 11
9.999999719741708
 21
0.0
 31
0.0
  0
LINE
  5
8939
330
8936
100
AcDbEntity
  8
0
100
AcDbLine
 10
4.999999719741708
 20
14.02466200946787
 30
0.0
 11
6.999999719741708
 21
15.02466200946787
 31
0.0
  0
LINE
  5
893A
330
8936
100
AcDbEntity
  8
0
100
AcDbLine
 10
2.999999719741708
 20
14.02466200946787
 30
0.0
 11
1.999999719741708
 21
15.02466200946787
 31
0.0
  0
LWPOLYLINE
  5
893B
330
8936
100
AcDbEntity
  8
0
100
AcDbPolyline
 90
        4
 70
     1
 43
0.2
 10
1.999999719741708
 20
15.02466200946787
 10
6.999999719741708
 20
15.02466200946787
 10
6.999999719741708
 20
11.02466200946787
 10
1.999999719741708
 20
11.02466200946787
  0
LINE
  5
893C
330
8936
100
AcDbEntity
  8
0
100
AcDbLine
 10
4.999999719741708
 20
4.024662009467874
 30
0.0
 11
6.999999719741708
 21
5.024662009467874
 31
0.0
  0
LINE
  5
893D
330
8936
100
AcDbEntity
  8
0
100
AcDbLine
 10
4.999999719741708
 20
2.024662009467874
 30
0.0
 11
6.999999719741708
 21
1.024662009467874
 31
0.0
  0
LINE
  5
893E
330
8936
100
AcDbEntity
  8
0
100
AcDbLine
 10
2.999999719741708
 20
2.024662009467874
 30
0.0
 11
1.999999719741708
 21
1.024662009467874
 31
0.0
  0
LINE
  5
893F
330
8936
100
AcDbEntity
  8
0
100
AcDbLine
 10
2.999999719741708
 20
4.024662009467874
 30
0.0
 11
1.999999719741708
 21
5.024662009467874
 31
0.0
  0
LWPOLYLINE
  5
8940
330
8936
100
AcDbEntity
  8
0
100
AcDbPolyline
 90
        4
 70
     1
 43
0.2
 10
2.999999719741708
 20
4.024662009467874
 10
4.999999719741708
 20
4.024662009467874
 10
4.999999719741708
 20
2.024662009467874
 10
2.999999719741708
 20
2.024662009467874
  0
LWPOLYLINE
  5
8941
330
8936
100
AcDbEntity
  8
0
100
AcDbPolyline
 90
        4
 70
     1
 43
0.2
 10
1.999999719741708
 20
5.024662009467874
 10
6.999999719741708
 20
5.024662009467874
 10
6.999999719741708
 20
1.024662009467874
 10
1.999999719741708
 20
1.024662009467874
  0
LINE
  5
8942
330
8936
100
AcDbEntity
  8
0
100
AcDbLine
 10
4.999999719741708
 20
9.024662009467874
 30
0.0
 11
6.999999719741708
 21
10.02466200946787
 31
0.0
  0
LINE
  5
8943
330
8936
100
AcDbEntity
  8
0
100
AcDbLine
 10
4.999999719741708
 20
7.024662009467874
 30
0.0
 11
6.999999719741708
 21
6.024662009467874
 31
0.0
  0
LINE
  5
8944
330
8936
100
AcDbEntity
  8
0
100
AcDbLine
 10
2.999999719741708
 20
7.024662009467874
 30
0.0
 11
1.999999719741708
 21
6.024662009467874
 31
0.0
  0
LINE
  5
8945
330
8936
100
AcDbEntity
  8
0
100
AcDbLine
 10
2.999999719741708
 20
9.024662009467874
 30
0.0
 11
1.999999719741708
 21
10.02466200946787
 31
0.0
  0
LWPOLYLINE
  5
8946
330
8936
100
AcDbEntity
  8
0
100
AcDbPolyline
 90
        4
 70
     1
 43
0.2
 10
2.999999719741708
 20
9.024662009467874
 10
4.999999719741708
 20
9.024662009467874
 10
4.999999719741708
 20
7.024662009467874
 10
2.999999719741708
 20
7.024662009467874
  0
LWPOLYLINE
  5
8947
330
8936
100
AcDbEntity
  8
0
100
AcDbPolyline
 90
        4
 70
     1
 43
0.2
 10
1.999999719741708
 20
10.02466200946787
 10
6.999999719741708
 20
10.02466200946787
 10
6.999999719741708
 20
6.024662009467874
 10
1.999999719741708
 20
6.024662009467874
  0
LINE
  5
8948
330
8936
100
AcDbEntity
  8
0
100
AcDbLine
 10
4.999999719741708
 20
12.02466200946787
 30
0.0
 11
6.999999719741708
 21
11.02466200946787
 31
0.0
  0
LINE
  5
8949
330
8936
100
AcDbEntity
  8
0
100
AcDbLine
 10
2.999999719741708
 20
12.02466200946787
 30
0.0
 11
1.999999719741708
 21
11.02466200946787
 31
0.0
  0
LWPOLYLINE
  5
894A
330
8936
100
AcDbEntity
  8
0
100
AcDbPolyline
 90
        4
 70
     1
 43
0.2
 10
2.999999719741708
 20
14.02466200946787
 10
4.999999719741708
 20
14.02466200946787
 10
4.999999719741708
 20
12.02466200946787
 10
2.999999719741708
 20
12.02466200946787
  0
ENDBLK
  5
894C
330
8936
100
AcDbEntity
  8
0
100
AcDbBlockEnd
  0
ENDSEC
  0
SECTION
  2
ENTITIES
  0
LINE
  5
838D
330
18
100
AcDbEntity
  8
0
100
AcDbLine
 10
92.38587152255343
 20
772.9370673185536
 30
0.0
 11
92.38587152255343
 21
612.9370673185536
 31
0.0
  0
LINE
  5
838E
330
18
100
AcDbEntity
  8
0
100
AcDbLine
 10
132.3858715225534
 20
772.9370673185536
 30
0.0
 11
132.3858715225534
 21
612.9370673185535
 31
0.0
  0
LINE
  5
838F
330
18
100
AcDbEntity
  8
0
100
AcDbLine
 10
132.3858715225534
 20
772.9370673185536
 30
0.0
 11
132.3858715225534
 21
612.9370673185535
 31
0.0
  0
LINE
  5
8390
330
18
100
AcDbEntity
  8
0
100
AcDbLine
 10
187.3858715225534
 20
598.9370673185533
 30
0.0
 11
187.3858715225535
 21
786.9370673185537
 31
0.0
  0
LINE
  5
8391
330
18
100
AcDbEntity
  8
0
100
AcDbLine
 10
187.3858715225534
 20
772.9370673185536
 30
0.0
 11
187.3858715225534
 21
612.9370673185535
 31
0.0
  0
ARC
  5
8396
330
18
100
AcDbEntity
  8
0
100
AcDbCircle
 10
177.3858715225534
 20
602.9370673185535
 30
0.0
 40
2.75
100
AcDbArc
 50
0.0
 51
180.0
  0
LINE
  5
8397
330
18
100
AcDbEntity
  8
0
100
AcDbLine
 10
136.3858715225534
 20
612.9370673185535
 30
0.0
 11
136.3858715225534
 21
598.9370673185535
 31
0.0
  0
ARC
  5
8398
330
18
100
AcDbEntity
  8
0
100
AcDbCircle
 10
146.3858715225534
 20
602.9370673185535
 30
0.0
 40
2.75
100
AcDbArc
 50
0.0
 51
180.0
  0
LINE
  5
839A
330
18
100
AcDbEntity
  8
0
100
AcDbLine
 10
150.1358715225534
 20
597.9370673185534
 30
0.0
 11
173.6358715225534
 21
597.9370673185534
 31
0.0
  0
LINE
  5
839C
330
18
100
AcDbEntity
  8
0
100
AcDbLine
 10
137.3858715225534
 20
597.9370673185535
 30
0.0
 11
142.6358715225534
 21
597.9370673185535
 31
0.0
  0
LINE
  5
839D
330
18
100
AcDbEntity
  8
0
100
AcDbLine
 10
137.3858715225534
 20
597.9370673185535
 30
0.0
 11
136.3858715225534
 21
598.9370673185535
 31
0.0
  0
LINE
  5
839E
330
18
100
AcDbEntity
  8
0
100
AcDbLine
 10
143.6358715225534
 20
598.9370673185535
 30
0.0
 11
142.6358715225534
 21
597.9370673185535
 31
0.0
  0
LINE
  5
839F
330
18
100
AcDbEntity
  8
0
100
AcDbLine
 10
143.6358715225534
 20
602.9370673185535
 30
0.0
 11
143.6358715225534
 21
598.9370673185535
 31
0.0
  0
LINE
  5
83A0
330
18
100
AcDbEntity
  8
0
100
AcDbLine
 10
150.1358715225534
 20
597.9370673185534
 30
0.0
 11
149.1358715225534
 21
598.9370673185534
 31
0.0
  0
LINE
  5
83A1
330
18
100
AcDbEntity
  8
0
100
AcDbLine
 10
149.1358715225534
 20
602.9370673185535
 30
0.0
 11
149.1358715225534
 21
598.9370673185534
 31
0.0
  0
LINE
  5
83A2
330
18
100
AcDbEntity
  8
0
100
AcDbLine
 10
181.1358715225534
 20
597.9370673185534
 30
0.0
 11
186.3858715225534
 21
597.9370673185534
 31
0.0
  0
LINE
  5
83A4
330
18
100
AcDbEntity
  8
0
100
AcDbLine
 10
174.6358715225534
 20
598.9370673185535
 30
0.0
 11
173.6358715225534
 21
597.9370673185535
 31
0.0
  0
LINE
  5
83A5
330
18
100
AcDbEntity
  8
0
100
AcDbLine
 10
174.6358715225534
 20
602.9370673185535
 30
0.0
 11
174.6358715225534
 21
598.9370673185535
 31
0.0
  0
LINE
  5
83A6
330
18
100
AcDbEntity
  8
0
100
AcDbLine
 10
181.1358715225534
 20
597.9370673185534
 30
0.0
 11
180.1358715225534
 21
598.9370673185534
 31
0.0
  0
LINE
  5
83A7
330
18
100
AcDbEntity
  8
0
100
AcDbLine
 10
180.1358715225534
 20
602.9370673185535
 30
0.0
 11
180.1358715225534
 21
598.9370673185534
 31
0.0
  0
LINE
  5
83A8
330
18
100
AcDbEntity
  8
0
100
AcDbLine
 10
186.3858715225534
 20
597.9370673185534
 30
0.0
 11
187.3858715225534
 21
598.9370673185534
 31
0.0
  0
LINE
  5
83A9
330
18
100
AcDbEntity
  8
0
100
AcDbLine
 10
132.3858715225535
 20
612.9370673185535
 30
0.0
 11
92.38587152255343
 21
612.9370673185536
 31
0.0
  0
LINE
  5
83B6
330
18
100
AcDbEntity
  8
0
100
AcDbLine
 10
132.3858715225535
 20
612.9370673185535
 30
0.0
 11
187.3858715225534
 21
612.9370673185535
 31
0.0
  0
CIRCLE
  5
83B7
330
18
100
AcDbEntity
  8
0
370
    40
100
AcDbCircle
 10
141.3858715225534
 20
619.9370673185535
 30
0.0
 40
3.0
  0
ARC
  5
83B8
330
18
100
AcDbEntity
  8
0
100
AcDbCircle
 10
140.8858715225533
 20
614.1870673185534
 30
0.0
 40
3.249999999999876
100
AcDbArc
 50
202.6198649480385
 51
337.3801350519614
  0
LINE
  5
846B
330
18
100
AcDbEntity
  8
0
100
AcDbLine
 10
132.3858715225536
 20
772.9370673185536
 30
0.0
 11
92.38587152255343
 21
772.9370673185536
 31
0.0
  0
LINE
  5
846C
330
18
100
AcDbEntity
  8
0
100
AcDbLine
 10
174.6358715225534
 20
782.9370673185535
 30
0.0
 11
174.6358715225534
 21
786.9370673185535
 31
0.0
  0
LINE
  5
846D
330
18
100
AcDbEntity
  8
0
100
AcDbLine
 10
180.1358715225534
 20
782.9370673185535
 30
0.0
 11
180.1358715225534
 21
786.9370673185536
 31
0.0
  0
LINE
  5
846F
330
18
100
AcDbEntity
  8
0
100
AcDbLine
 10
149.1358715225534
 20
782.9370673185535
 30
0.0
 11
149.1358715225534
 21
786.9370673185536
 31
0.0
  0
LINE
  5
8470
330
18
100
AcDbEntity
  8
0
100
AcDbLine
 10
136.3858715225534
 20
772.9370673185536
 30
0.0
 11
136.3858715225534
 21
786.9370673185535
 31
0.0
  0
LINE
  5
8471
330
18
100
AcDbEntity
  8
0
100
AcDbLine
 10
143.6358715225534
 20
782.9370673185535
 30
0.0
 11
143.6358715225534
 21
786.9370673185535
 31
0.0
  0
LINE
  5
8474
330
18
100
AcDbEntity
  8
0
100
AcDbLine
 10
132.3858715225534
 20
772.9370673185536
 30
0.0
 11
187.3858715225534
 21
772.9370673185536
 31
0.0
  0
ARC
  5
84AC
330
18
100
AcDbEntity
  8
0
100
AcDbCircle
 10
146.3858715225534
 20
782.9370673185535
 30
0.0
 40
2.75
100
AcDbArc
 50
180.0
 51
0.0
  0
ARC
  5
84AD
330
18
100
AcDbEntity
  8
0
100
AcDbCircle
 10
140.8858715225534
 20
771.6870673185536
 30
0.0
 40
3.249999999999876
100
AcDbArc
 50
22.61986494803852
 51
157.3801350519614
  0
ARC
  5
84B0
330
18
100
AcDbEntity
  8
0
100
AcDbCircle
 10
177.3858715225534
 20
782.9370673185535
 30
0.0
 40
2.75
100
AcDbArc
 50
180.0
 51
0.0
  0
LINE
  5
84B1
330
18
100
AcDbEntity
  8
0
100
AcDbLine
 10
150.1358715225534
 20
787.9370673185536
 30
0.0
 11
173.6358715225534
 21
787.9370673185536
 31
0.0
  0
LINE
  5
84B3
330
18
100
AcDbEntity
  8
0
100
AcDbLine
 10
137.3858715225534
 20
787.9370673185535
 30
0.0
 11
142.6358715225534
 21
787.9370673185535
 31
0.0
  0
LINE
  5
84B4
330
18
100
AcDbEntity
  8
0
100
AcDbLine
 10
137.3858715225534
 20
787.9370673185535
 30
0.0
 11
136.3858715225534
 21
786.9370673185535
 31
0.0
  0
LINE
  5
84B5
330
18
100
AcDbEntity
  8
0
100
AcDbLine
 10
143.6358715225534
 20
786.9370673185535
 30
0.0
 11
142.6358715225534
 21
787.9370673185535
 31
0.0
  0
LINE
  5
84B6
330
18
100
AcDbEntity
  8
0
100
AcDbLine
 10
150.1358715225534
 20
787.9370673185536
 30
0.0
 11
149.1358715225534
 21
786.9370673185536
 31
0.0
  0
LINE
  5
84B7
330
18
100
AcDbEntity
  8
0
100
AcDbLine
 10
181.1358715225534
 20
787.9370673185536
 30
0.0
 11
186.3858715225535
 21
787.9370673185536
 31
0.0
  0
LINE
  5
84B8
330
18
100
AcDbEntity
  8
0
100
AcDbLine
 10
174.6358715225534
 20
786.9370673185535
 30
0.0
 11
173.6358715225534
 21
787.9370673185535
 31
0.0
  0
LINE
  5
84B9
330
18
100
AcDbEntity
  8
0
100
AcDbLine
 10
181.1358715225534
 20
787.9370673185536
 30
0.0
 11
180.1358715225534
 21
786.9370673185536
 31
0.0
  0
LINE
  5
84BA
330
18
100
AcDbEntity
  8
0
100
AcDbLine
 10
186.3858715225535
 20
787.9370673185536
 30
0.0
 11
187.3858715225535
 21
786.9370673185536
 31
0.0
  0
ARC
  5
84BC
330
18
100
AcDbEntity
  8
0
100
AcDbCircle
 10
421.7083821284105
 20
725.6870673185535
 30
0.0
 40
1.75
100
AcDbArc
 50
90.0
 51
270.0
  0
ARC
  5
84BD
330
18
100
AcDbEntity
  8
0
100
AcDbCircle
 10
433.2083821284105
 20
725.6870673185535
 30
0.0
 40
1.75
100
AcDbArc
 50
270.0
 51
90.0
  0
ARC
  5
84BE
330
18
100
AcDbEntity
  8
0
100
AcDbCircle
 10
399.7083821284105
 20
725.6870673185535
 30
0.0
 40
1.75
100
AcDbArc
 50
90.0
 51
270.0
  0
ARC
  5
84BF
330
18
100
AcDbEntity
  8
0
100
AcDbCircle
 10
411.2083821284105
 20
725.6870673185535
 30
0.0
 40
1.75
100
AcDbArc
 50
270.0
 51
90.0
  0
LINE
  5
84C0
330
18
100
AcDbEntity
  8
0
100
AcDbLine
 10
438.9583821284105
 20
787.9370673185535
 30
0.0
 11
438.9583821284105
 21
597.9370673185535
 31
0.0
  0
LINE
  5
84C1
330
18
100
AcDbEntity
  8
0
100
AcDbLine
 10
440.9583821284106
 20
787.9370673185535
 30
0.0
 11
440.9583821284106
 21
597.9370673185535
 31
0.0
  0
LINE
  5
84C2
330
18
100
AcDbEntity
  8
0
100
AcDbLine
 10
282.9583821284105
 20
772.9370673185536
 30
0.0
 11
282.9583821284105
 21
612.9370673185535
 31
0.0
  0
LINE
  5
84C3
330
18
100
AcDbEntity
  8
0
100
AcDbLine
 10
280.9583821284105
 20
772.9370673185536
 30
0.0
 11
280.9583821284105
 21
612.9370673185535
 31
0.0
  0
LINE
  5
84C4
330
18
100
AcDbEntity
  8
0
100
AcDbLine
 10
282.9583821284105
 20
612.9370673185535
 30
0.0
 11
353.9583821284105
 21
612.9370673185535
 31
0.0
  0
LINE
  5
84C5
330
18
100
AcDbEntity
  8
0
100
AcDbLine
 10
438.9583821284105
 20
612.9370673185535
 30
0.0
 11
282.9583821284105
 21
612.9370673185535
 31
0.0
  0
ARC
  5
84C6
330
18
100
AcDbEntity
  8
0
100
AcDbCircle
 10
278.5583821284102
 20
618.2037339852201
 30
0.0
 40
1.599999999999999
100
AcDbArc
 50
180.0
 51
270.0
  0
ARC
  5
84C7
330
18
100
AcDbEntity
  8
0
100
AcDbCircle
 10
278.5583821284102
 20
621.6704006518868
 30
0.0
 40
1.599999999999999
100
AcDbArc
 50
90.0
 51
180.0
  0
CIRCLE
  5
84C8
330
18
100
AcDbEntity
  8
0
100
AcDbCircle
 10
276.7583821284103
 20
703.1370673185535
 30
0.0
 40
2.0
  0
LINE
  5
84C9
330
18
100
AcDbEntity
  8
0
100
AcDbLine
 10
275.5723010173553
 20
701.5267221387866
 30
0.0
 11
278.3687273081773
 21
704.3231484296086
 31
0.0
  0
LINE
  5
84CA
330
18
100
AcDbEntity
  8
0
100
AcDbLine
 10
275.1480369486435
 20
701.9509862074985
 30
0.0
 11
277.9444632394653
 21
704.7474124983205
 31
0.0
  0
LINE
  5
84CB
330
18
100
AcDbEntity
  8
0
 48
0.2
100
AcDbLine
 10
280.9583821284105
 20
701.3370673185534
 30
0.0
 11
260.1583821284102
 21
701.3370673185534
 31
0.0
  0
CIRCLE
  5
84CC
330
18
100
AcDbEntity
  8
0
100
AcDbCircle
 10
276.7583821284103
 20
698.0570673185536
 30
0.0
 40
2.0
  0
LINE
  5
84CD
330
18
100
AcDbEntity
  8
0
100
AcDbLine
 10
275.5723010173553
 20
696.4467221387868
 30
0.0
 11
278.3687273081773
 21
699.2431484296085
 31
0.0
  0
LINE
  5
84CE
330
18
100
AcDbEntity
  8
0
100
AcDbLine
 10
275.1480369486435
 20
696.8709862074986
 30
0.0
 11
277.9444632394653
 21
699.6674124983205
 31
0.0
  0
LINE
  5
84CF
330
18
100
AcDbEntity
  8
0
100
AcDbLine
 10
280.9583821284105
 20
715.8370673185535
 30
0.0
 11
271.4583821284104
 21
715.8370673185536
 31
0.0
  0
LINE
  5
84D0
330
18
100
AcDbEntity
  8
0
100
AcDbLine
 10
275.1480369486435
 20
712.1109862074985
 30
0.0
 11
277.9444632394653
 21
714.9074124983204
 31
0.0
  0
CIRCLE
  5
84D1
330
18
100
AcDbEntity
  8
0
100
AcDbCircle
 10
276.7583821284103
 20
713.2970673185536
 30
0.0
 40
2.0
  0
LINE
  5
84D2
330
18
100
AcDbEntity
  8
0
100
AcDbLine
 10
275.5723010173553
 20
711.6867221387866
 30
0.0
 11
278.3687273081773
 21
714.4831484296084
 31
0.0
  0
CIRCLE
  5
84D3
330
18
100
AcDbEntity
  8
0
100
AcDbCircle
 10
276.7583821284103
 20
708.2170673185535
 30
0.0
 40
2.0
  0
LINE
  5
84D4
330
18
100
AcDbEntity
  8
0
100
AcDbLine
 10
275.5723010173553
 20
706.6067221387866
 30
0.0
 11
278.3687273081773
 21
709.4031484296086
 31
0.0
  0
LINE
  5
84D5
330
18
100
AcDbEntity
  8
0
100
AcDbLine
 10
275.1480369486435
 20
707.0309862074984
 30
0.0
 11
277.9444632394653
 21
709.8274124983204
 31
0.0
  0
LINE
  5
84D6
330
18
100
AcDbEntity
  8
0
100
AcDbLine
 10
280.9583821284105
 20
665.0370673185534
 30
0.0
 11
271.4583821284104
 21
665.0370673185537
 31
0.0
  0
LINE
  5
84D7
330
18
100
AcDbEntity
  8
0
 48
0.2
100
AcDbLine
 10
280.9583821284105
 20
668.0370673185534
 30
0.0
 11
260.1583821284102
 21
668.0370673185536
 31
0.0
  0
CIRCLE
  5
84D8
330
18
100
AcDbEntity
  8
0
100
AcDbCircle
 10
276.7583821284103
 20
682.8170673185536
 30
0.0
 40
2.0
  0
LINE
  5
84D9
330
18
100
AcDbEntity
  8
0
100
AcDbLine
 10
275.1480369486433
 20
681.6309862074986
 30
0.0
 11
277.9444632394652
 21
684.4274124983205
 31
0.0
  0
CIRCLE
  5
84DA
330
18
100
AcDbEntity
  8
0
100
AcDbCircle
 10
276.7583821284103
 20
672.6570673185537
 30
0.0
 40
2.0
  0
LINE
  5
84DB
330
18
100
AcDbEntity
  8
0
100
AcDbLine
 10
275.1480369486433
 20
666.3909862074985
 30
0.0
 11
277.9444632394652
 21
669.1874124983205
 31
0.0
  0
LINE
  5
84DC
330
18
100
AcDbEntity
  8
0
100
AcDbLine
 10
275.5723010173552
 20
665.9667221387867
 30
0.0
 11
278.3687273081771
 21
668.7631484296087
 31
0.0
  0
CIRCLE
  5
84DD
330
18
100
AcDbEntity
  8
0
100
AcDbCircle
 10
276.7583821284103
 20
667.5770673185536
 30
0.0
 40
2.0
  0
LINE
  5
84DE
330
18
100
AcDbEntity
  8
0
100
AcDbLine
 10
275.5723010173552
 20
671.0467221387867
 30
0.0
 11
278.3687273081771
 21
673.8431484296086
 31
0.0
  0
LINE
  5
84DF
330
18
100
AcDbEntity
  8
0
100
AcDbLine
 10
275.1480369486433
 20
671.4709862074986
 30
0.0
 11
277.9444632394652
 21
674.2674124983206
 31
0.0
  0
LINE
  5
84E0
330
18
100
AcDbEntity
  8
0
100
AcDbLine
 10
275.5723010173552
 20
681.2067221387867
 30
0.0
 11
278.3687273081771
 21
684.0031484296087
 31
0.0
  0
LINE
  5
84E1
330
18
100
AcDbEntity
  8
0
100
AcDbLine
 10
275.5723010173552
 20
676.1267221387868
 30
0.0
 11
278.3687273081771
 21
678.9231484296086
 31
0.0
  0
LINE
  5
84E2
330
18
100
AcDbEntity
  8
0
100
AcDbLine
 10
275.1480369486433
 20
676.5509862074987
 30
0.0
 11
277.9444632394652
 21
679.3474124983206
 31
0.0
  0
CIRCLE
  5
84E3
330
18
100
AcDbEntity
  8
0
100
AcDbCircle
 10
276.7583821284103
 20
677.7370673185536
 30
0.0
 40
2.0
  0
CIRCLE
  5
84E4
330
18
100
AcDbEntity
  8
0
100
AcDbCircle
 10
276.7583821284103
 20
687.8970673185535
 30
0.0
 40
2.0
  0
LINE
  5
84E5
330
18
100
AcDbEntity
  8
0
100
AcDbLine
 10
275.5723010173552
 20
686.2867221387866
 30
0.0
 11
278.3687273081771
 21
689.0831484296086
 31
0.0
  0
LINE
  5
84E6
330
18
100
AcDbEntity
  8
0
100
AcDbLine
 10
275.1480369486433
 20
686.7109862074985
 30
0.0
 11
277.9444632394652
 21
689.5074124983205
 31
0.0
  0
CIRCLE
  5
84E7
330
18
100
AcDbEntity
  8
0
100
AcDbCircle
 10
276.7583821284103
 20
692.9770673185536
 30
0.0
 40
2.0
  0
LINE
  5
84E8
330
18
100
AcDbEntity
  8
0
100
AcDbLine
 10
275.5723010173553
 20
691.3667221387867
 30
0.0
 11
278.3687273081773
 21
694.1631484296086
 31
0.0
  0
LINE
  5
84E9
330
18
100
AcDbEntity
  8
0
100
AcDbLine
 10
275.1480369486435
 20
691.7909862074985
 30
0.0
 11
277.9444632394653
 21
694.5874124983205
 31
0.0
  0
LINE
  5
84EA
330
18
100
AcDbEntity
  8
0
100
AcDbLine
 10
276.9583821284105
 20
621.6704006518869
 30
0.0
 11
276.9583821284105
 21
618.2037339852204
 31
0.0
  0
LINE
  5
84EB
330
18
100
AcDbEntity
  8
0
 48
0.2
100
AcDbLine
 10
271.9583821284104
 20
694.5870673185534
 30
0.0
 11
270.7083821284104
 21
692.4220038090923
 31
0.0
  0
LINE
  5
84EC
330
18
100
AcDbEntity
  8
0
 48
0.2
100
AcDbLine
 10
272.2470572630052
 20
694.5870673185534
 30
0.0
 11
270.8527196957079
 21
692.1720038090922
 31
0.0
  0
LINE
  5
84ED
330
18
100
AcDbEntity
  8
0
 48
0.2
100
AcDbLine
 10
266.9583821284104
 20
694.5870673185534
 30
0.0
 11
268.2083821284104
 21
692.4220038090923
 31
0.0
  0
LINE
  5
84EE
330
18
100
AcDbEntity
  8
0
 48
0.2
100
AcDbLine
 10
266.6697069938156
 20
694.5870673185534
 30
0.0
 11
268.0640445611129
 21
692.1720038090922
 31
0.0
  0
CIRCLE
  5
84EF
330
18
100
AcDbEntity
  8
0
 48
0.2
100
AcDbCircle
 10
269.4583821284104
 20
694.5870673185534
 30
0.0
 40
1.5
  0
LINE
  5
84F0
330
18
100
AcDbEntity
  8
0
 48
0.2
100
AcDbLine
 10
256.1583821284102
 20
692.5870673185534
 30
0.0
 11
260.1583821284102
 21
695.6870673185533
 31
0.0
  0
LINE
  5
84F1
330
18
100
AcDbEntity
  8
0
100
AcDbLine
 10
272.9583821284105
 20
715.8370673185536
 30
0.0
 11
272.9583821284104
 21
665.0370673185537
 31
0.0
  0
LINE
  5
84F2
330
18
100
AcDbEntity
  8
0
100
AcDbLine
 10
271.4583821284104
 20
715.8370673185536
 30
0.0
 11
271.4583821284104
 21
665.0370673185537
 31
0.0
  0
ARC
  5
84F3
330
18
100
AcDbEntity
  8
0
 48
0.2
100
AcDbCircle
 10
248.0583821284103
 20
692.5870673185534
 30
0.0
 40
3.100000000000022
100
AcDbArc
 50
40.87863514651799
 51
180.0
  0
LINE
  5
84F4
330
18
100
AcDbEntity
  8
0
 48
0.2
100
AcDbLine
 10
252.1583821284102
 20
692.5870673185534
 30
0.0
 11
250.4022845674348
 21
694.6158899713093
 31
0.0
  0
LINE
  5
84F5
330
18
100
AcDbEntity
  8
0
 48
0.2
100
AcDbLine
 10
256.1583821284104
 20
676.7870673185536
 30
0.0
 11
260.1583821284104
 21
673.6870673185535
 31
0.0
  0
ARC
  5
84F6
330
18
100
AcDbEntity
  8
0
 48
0.2
100
AcDbCircle
 10
261.3283821284103
 20
670.6370673185536
 30
0.0
 40
2.669999999999886
100
AcDbArc
 50
115.9892335838272
 51
244.0107664161727
  0
LINE
  5
84F7
330
18
100
AcDbEntity
  8
0
 48
0.2
100
AcDbLine
 10
265.9583821284104
 20
676.7870673185536
 30
0.0
 11
244.9583821284104
 21
676.7870673185534
 31
0.0
  0
LINE
  5
84F8
330
18
100
AcDbEntity
  8
0
 48
0.2
100
AcDbLine
 10
265.9583821284102
 20
692.5870673185534
 30
0.0
 11
244.9583821284102
 21
692.5870673185534
 31
0.0
  0
LINE
  5
84F9
330
18
100
AcDbEntity
  8
0
 48
0.2
100
AcDbLine
 10
244.9583821284104
 20
676.7870673185536
 30
0.0
 11
244.9583821284102
 21
692.5870673185534
 31
0.0
  0
ARC
  5
84FA
330
18
100
AcDbEntity
  8
0
 48
0.2
100
AcDbCircle
 10
248.0583821284105
 20
676.7870673185537
 30
0.0
 40
3.100000000000022
100
AcDbArc
 50
180.0
 51
319.121364853482
  0
LINE
  5
84FB
330
18
100
AcDbEntity
  8
0
 48
0.2
100
AcDbLine
 10
252.1583821284104
 20
676.7870673185536
 30
0.0
 11
250.4022845674348
 21
674.7582446657977
 31
0.0
  0
LINE
  5
84FC
330
18
100
AcDbEntity
  8
0
 48
0.2
100
AcDbLine
 10
265.9583821284104
 20
676.7870673185536
 30
0.0
 11
265.9583821284102
 21
692.5870673185534
 31
0.0
  0
LINE
  5
84FD
330
18
100
AcDbEntity
  8
0
 48
0.2
100
AcDbLine
 10
260.9583821284104
 20
676.7870673185536
 30
0.0
 11
260.9583821284102
 21
692.5870673185534
 31
0.0
  0
LINE
  5
84FE
330
18
100
AcDbEntity
  8
0
 48
0.2
100
AcDbLine
 10
266.9583821284104
 20
674.7870673185537
 30
0.0
 11
268.2083821284104
 21
672.6220038090925
 31
0.0
  0
CIRCLE
  5
84FF
330
18
100
AcDbEntity
  8
0
 48
0.2
100
AcDbCircle
 10
269.4583821284104
 20
674.7870673185537
 30
0.0
 40
1.5
  0
LINE
  5
8500
330
18
100
AcDbEntity
  8
0
 48
0.2
100
AcDbLine
 10
268.0640445611129
 20
672.3720038090926
 30
0.0
 11
270.8527196957079
 21
672.3720038090926
 31
0.0
  0
LINE
  5
8501
330
18
100
AcDbEntity
  8
0
 48
0.2
100
AcDbLine
 10
266.9583821284104
 20
674.7870673185537
 30
0.0
 11
268.2083821284104
 21
676.9521308280148
 31
0.0
  0
LINE
  5
8502
330
18
100
AcDbEntity
  8
0
 48
0.2
100
AcDbLine
 10
268.0640445611129
 20
677.2021308280147
 30
0.0
 11
270.8527196957079
 21
677.2021308280147
 31
0.0
  0
LINE
  5
8503
330
18
100
AcDbEntity
  8
0
 48
0.2
100
AcDbLine
 10
260.1583821284102
 20
668.0370673185536
 30
0.0
 11
260.1583821284102
 21
673.6870673185535
 31
0.0
  0
LINE
  5
8504
330
18
100
AcDbEntity
  8
0
 48
0.2
100
AcDbLine
 10
266.6697069938156
 20
674.7870673185537
 30
0.0
 11
268.0640445611129
 21
672.3720038090926
 31
0.0
  0
LINE
  5
8505
330
18
100
AcDbEntity
  8
0
 48
0.2
100
AcDbLine
 10
266.6697069938156
 20
674.7870673185537
 30
0.0
 11
268.0640445611129
 21
677.2021308280147
 31
0.0
  0
LINE
  5
8506
330
18
100
AcDbEntity
  8
0
 48
0.2
100
AcDbLine
 10
270.8527196957079
 20
672.3720038090926
 30
0.0
 11
272.2470572630052
 21
674.7870673185537
 31
0.0
  0
LINE
  5
8507
330
18
100
AcDbEntity
  8
0
 48
0.2
100
AcDbLine
 10
270.7083821284104
 20
672.6220038090925
 30
0.0
 11
271.9583821284104
 21
674.7870673185537
 31
0.0
  0
LINE
  5
8508
330
18
100
AcDbEntity
  8
0
 48
0.2
100
AcDbLine
 10
268.2083821284104
 20
672.6220038090925
 30
0.0
 11
270.7083821284104
 21
672.6220038090925
 31
0.0
  0
LINE
  5
8509
330
18
100
AcDbEntity
  8
0
 48
0.2
100
AcDbLine
 10
272.2470572630052
 20
674.7870673185537
 30
0.0
 11
270.8527196957079
 21
677.2021308280147
 31
0.0
  0
LINE
  5
850A
330
18
100
AcDbEntity
  8
0
 48
0.2
100
AcDbLine
 10
271.9583821284104
 20
674.7870673185537
 30
0.0
 11
270.7083821284104
 21
676.9521308280148
 31
0.0
  0
LINE
  5
850B
330
18
100
AcDbEntity
  8
0
 48
0.2
100
AcDbLine
 10
268.2083821284104
 20
676.9521308280148
 30
0.0
 11
270.7083821284104
 21
676.9521308280148
 31
0.0
  0
LINE
  5
850C
330
18
100
AcDbEntity
  8
0
 48
0.2
100
AcDbLine
 10
268.0640445611129
 20
692.1720038090922
 30
0.0
 11
270.8527196957079
 21
692.1720038090922
 31
0.0
  0
LINE
  5
850D
330
18
100
AcDbEntity
  8
0
 48
0.2
100
AcDbLine
 10
268.2083821284104
 20
692.4220038090923
 30
0.0
 11
270.7083821284104
 21
692.4220038090923
 31
0.0
  0
ARC
  5
850E
330
18
100
AcDbEntity
  8
0
 48
0.2
100
AcDbCircle
 10
261.3283821284101
 20
698.7370673185535
 30
0.0
 40
2.669999999999886
100
AcDbArc
 50
115.9892335838272
 51
244.0107664161727
  0
LINE
  5
850F
330
18
100
AcDbEntity
  8
0
 48
0.2
100
AcDbLine
 10
268.0640445611129
 20
697.0021308280145
 30
0.0
 11
270.8527196957079
 21
697.0021308280145
 31
0.0
  0
LINE
  5
8510
330
18
100
AcDbEntity
  8
0
 48
0.2
100
AcDbLine
 10
266.9583821284104
 20
694.5870673185534
 30
0.0
 11
268.2083821284104
 21
696.7521308280145
 31
0.0
  0
LINE
  5
8511
330
18
100
AcDbEntity
  8
0
 48
0.2
100
AcDbLine
 10
260.1583821284102
 20
695.6870673185535
 30
0.0
 11
260.1583821284102
 21
701.3370673185534
 31
0.0
  0
LINE
  5
8512
330
18
100
AcDbEntity
  8
0
 48
0.2
100
AcDbLine
 10
266.6697069938156
 20
694.5870673185534
 30
0.0
 11
268.0640445611129
 21
697.0021308280145
 31
0.0
  0
LINE
  5
8513
330
18
100
AcDbEntity
  8
0
 48
0.2
100
AcDbLine
 10
268.2083821284104
 20
696.7521308280145
 30
0.0
 11
270.7083821284104
 21
696.7521308280145
 31
0.0
  0
LINE
  5
8514
330
18
100
AcDbEntity
  8
0
 48
0.2
100
AcDbLine
 10
270.7083821284104
 20
696.7521308280145
 30
0.0
 11
271.9583821284104
 21
694.5870673185534
 31
0.0
  0
LINE
  5
8515
330
18
100
AcDbEntity
  8
0
 48
0.2
100
AcDbLine
 10
270.8527196957079
 20
697.0021308280145
 30
0.0
 11
272.2470572630052
 21
694.5870673185534
 31
0.0
  0
LINE
  5
8516
330
18
100
AcDbEntity
  8
0
100
AcDbLine
 10
311.7083821284105
 20
632.9370673185535
 30
0.0
 11
323.2083821284105
 21
632.9370673185535
 31
0.0
  0
LINE
  5
8517
330
18
100
AcDbEntity
  8
0
100
AcDbLine
 10
311.7083821284105
 20
636.4370673185536
 30
0.0
 11
323.2083821284105
 21
636.4370673185535
 31
0.0
  0
LINE
  5
8518
330
18
100
AcDbEntity
  8
0
100
AcDbLine
 10
311.7083821284105
 20
629.9370673185536
 30
0.0
 11
323.2083821284105
 21
629.9370673185535
 31
0.0
  0
LINE
  5
8519
330
18
100
AcDbEntity
  8
0
100
AcDbLine
 10
311.7083821284105
 20
626.4370673185535
 30
0.0
 11
323.2083821284105
 21
626.4370673185535
 31
0.0
  0
LINE
  5
851A
330
18
100
AcDbEntity
  8
0
100
AcDbLine
 10
311.7083821284105
 20
623.4370673185536
 30
0.0
 11
323.2083821284105
 21
623.4370673185535
 31
0.0
  0
LINE
  5
851B
330
18
100
AcDbEntity
  8
0
100
AcDbLine
 10
311.7083821284105
 20
619.9370673185535
 30
0.0
 11
323.2083821284105
 21
619.9370673185535
 31
0.0
  0
ARC
  5
851C
330
18
100
AcDbEntity
  8
0
100
AcDbCircle
 10
311.7083821284105
 20
634.6870673185535
 30
0.0
 40
1.75
100
AcDbArc
 50
90.0
 51
270.0
  0
ARC
  5
851D
330
18
100
AcDbEntity
  8
0
100
AcDbCircle
 10
301.2083821284105
 20
634.6870673185535
 30
0.0
 40
1.75
100
AcDbArc
 50
270.0
 51
90.0
  0
ARC
  5
851E
330
18
100
AcDbEntity
  8
0
100
AcDbCircle
 10
289.7083821284105
 20
634.6870673185535
 30
0.0
 40
1.75
100
AcDbArc
 50
90.0
 51
270.0
  0
LINE
  5
851F
330
18
100
AcDbEntity
  8
0
100
AcDbLine
 10
289.7083821284105
 20
623.4370673185536
 30
0.0
 11
301.2083821284105
 21
623.4370673185535
 31
0.0
  0
LINE
  5
8520
330
18
100
AcDbEntity
  8
0
100
AcDbLine
 10
289.7083821284105
 20
619.9370673185535
 30
0.0
 11
301.2083821284105
 21
619.9370673185535
 31
0.0
  0
LINE
  5
8521
330
18
100
AcDbEntity
  8
0
100
AcDbLine
 10
289.7083821284105
 20
632.9370673185535
 30
0.0
 11
301.2083821284105
 21
632.9370673185535
 31
0.0
  0
LINE
  5
8522
330
18
100
AcDbEntity
  8
0
100
AcDbLine
 10
289.7083821284105
 20
629.9370673185536
 30
0.0
 11
301.2083821284105
 21
629.9370673185535
 31
0.0
  0
LINE
  5
8523
330
18
100
AcDbEntity
  8
0
100
AcDbLine
 10
289.7083821284105
 20
626.4370673185535
 30
0.0
 11
301.2083821284105
 21
626.4370673185535
 31
0.0
  0
LWPOLYLINE
  5
8524
330
18
100
AcDbEntity
  8
0
100
AcDbPolyline
 90
        4
 70
     1
 43
0.0
 10
280.2917154617439
 20
623.9370673185534
 10
280.2917154617439
 20
615.9370673185534
 10
280.9583821284105
 20
615.9370673185534
 10
280.9583821284105
 20
623.9370673185534
  0
LWPOLYLINE
  5
8525
330
18
100
AcDbEntity
  8
0
100
AcDbPolyline
 90
        4
 70
     1
 43
0.0
 10
279.6250487950772
 20
623.2704006518868
 10
279.6250487950772
 20
616.60373398522
 10
280.2917154617439
 20
616.60373398522
 10
280.2917154617439
 20
623.2704006518868
  0
ARC
  5
8526
330
18
100
AcDbEntity
  8
0
100
AcDbCircle
 10
289.7083821284105
 20
621.6870673185535
 30
0.0
 40
1.75
100
AcDbArc
 50
90.0
 51
270.0
  0
LINE
  5
8527
330
18
100
AcDbEntity
  8
0
100
AcDbLine
 10
280.9583821284105
 20
612.9370673185535
 30
0.0
 11
282.9583821284105
 21
612.9370673185535
 31
0.0
  0
LINE
  5
8528
330
18
100
AcDbEntity
  8
0
100
AcDbLine
 10
278.5583821284103
 20
616.60373398522
 30
0.0
 11
279.6250487950772
 21
616.60373398522
 31
0.0
  0
LINE
  5
8529
330
18
100
AcDbEntity
  8
0
100
AcDbLine
 10
279.6250487950772
 20
623.2704006518868
 30
0.0
 11
278.5583821284103
 21
623.2704006518868
 31
0.0
  0
ARC
  5
852A
330
18
100
AcDbEntity
  8
0
100
AcDbCircle
 10
289.7083821284105
 20
628.1870673185535
 30
0.0
 40
1.75
100
AcDbArc
 50
90.0
 51
270.0
  0
ARC
  5
852B
330
18
100
AcDbEntity
  8
0
100
AcDbCircle
 10
301.2083821284105
 20
621.6870673185535
 30
0.0
 40
1.75
100
AcDbArc
 50
270.0
 51
90.0
  0
ARC
  5
852C
330
18
100
AcDbEntity
  8
0
100
AcDbCircle
 10
311.7083821284105
 20
621.6870673185535
 30
0.0
 40
1.75
100
AcDbArc
 50
90.0
 51
270.0
  0
ARC
  5
852D
330
18
100
AcDbEntity
  8
0
100
AcDbCircle
 10
301.2083821284105
 20
628.1870673185535
 30
0.0
 40
1.75
100
AcDbArc
 50
270.0
 51
90.0
  0
ARC
  5
852E
330
18
100
AcDbEntity
  8
0
100
AcDbCircle
 10
311.7083821284105
 20
628.1870673185535
 30
0.0
 40
1.75
100
AcDbArc
 50
90.0
 51
270.0
  0
LINE
  5
852F
330
18
100
AcDbEntity
  8
0
100
AcDbLine
 10
289.7083821284105
 20
636.4370673185536
 30
0.0
 11
301.2083821284105
 21
636.4370673185535
 31
0.0
  0
ARC
  5
8530
330
18
100
AcDbEntity
  8
0
100
AcDbCircle
 10
345.2083821284105
 20
634.6870673185535
 30
0.0
 40
1.75
100
AcDbArc
 50
270.0
 51
90.0
  0
ARC
  5
8531
330
18
100
AcDbEntity
  8
0
100
AcDbCircle
 10
333.7083821284105
 20
634.6870673185535
 30
0.0
 40
1.75
100
AcDbArc
 50
90.0
 51
270.0
  0
ARC
  5
8532
330
18
100
AcDbEntity
  8
0
100
AcDbCircle
 10
323.2083821284105
 20
634.6870673185535
 30
0.0
 40
1.75
100
AcDbArc
 50
270.0
 51
90.0
  0
ARC
  5
8533
330
18
100
AcDbEntity
  8
0
100
AcDbCircle
 10
333.7083821284105
 20
621.6870673185535
 30
0.0
 40
1.75
100
AcDbArc
 50
90.0
 51
270.0
  0
ARC
  5
8534
330
18
100
AcDbEntity
  8
0
100
AcDbCircle
 10
333.7083821284105
 20
628.1870673185535
 30
0.0
 40
1.75
100
AcDbArc
 50
90.0
 51
270.0
  0
ARC
  5
8535
330
18
100
AcDbEntity
  8
0
100
AcDbCircle
 10
323.2083821284105
 20
621.6870673185535
 30
0.0
 40
1.75
100
AcDbArc
 50
270.0
 51
90.0
  0
ARC
  5
8536
330
18
100
AcDbEntity
  8
0
100
AcDbCircle
 10
323.2083821284105
 20
628.1870673185535
 30
0.0
 40
1.75
100
AcDbArc
 50
270.0
 51
90.0
  0
ARC
  5
8537
330
18
100
AcDbEntity
  8
0
100
AcDbCircle
 10
345.2083821284105
 20
621.6870673185535
 30
0.0
 40
1.75
100
AcDbArc
 50
270.0
 51
90.0
  0
LINE
  5
8538
330
18
100
AcDbEntity
  8
0
100
AcDbLine
 10
333.7083821284105
 20
619.9370673185535
 30
0.0
 11
345.2083821284105
 21
619.9370673185535
 31
0.0
  0
LINE
  5
8539
330
18
100
AcDbEntity
  8
0
100
AcDbLine
 10
333.7083821284105
 20
632.9370673185535
 30
0.0
 11
345.2083821284105
 21
632.9370673185535
 31
0.0
  0
LINE
  5
853A
330
18
100
AcDbEntity
  8
0
100
AcDbLine
 10
333.7083821284105
 20
629.9370673185536
 30
0.0
 11
345.2083821284105
 21
629.9370673185535
 31
0.0
  0
LINE
  5
853B
330
18
100
AcDbEntity
  8
0
100
AcDbLine
 10
333.7083821284105
 20
623.4370673185536
 30
0.0
 11
345.2083821284105
 21
623.4370673185535
 31
0.0
  0
LINE
  5
853C
330
18
100
AcDbEntity
  8
0
100
AcDbLine
 10
333.7083821284105
 20
626.4370673185535
 30
0.0
 11
345.2083821284105
 21
626.4370673185535
 31
0.0
  0
ARC
  5
853D
330
18
100
AcDbEntity
  8
0
100
AcDbCircle
 10
345.2083821284105
 20
628.1870673185535
 30
0.0
 40
1.75
100
AcDbArc
 50
270.0
 51
90.0
  0
LINE
  5
853E
330
18
100
AcDbEntity
  8
0
100
AcDbLine
 10
333.7083821284105
 20
636.4370673185536
 30
0.0
 11
345.2083821284105
 21
636.4370673185535
 31
0.0
  0
LINE
  5
853F
330
18
100
AcDbEntity
  8
0
100
AcDbLine
 10
280.2583821284104
 20
715.8370673185535
 30
0.0
 11
280.2583821284102
 21
665.0370673185534
 31
0.0
  0
LINE
  5
8540
330
18
100
AcDbEntity
  8
0
100
AcDbLine
 10
280.9583821284105
 20
715.8370673185535
 30
0.0
 11
280.9583821284105
 21
665.0370673185534
 31
0.0
  0
LINE
  5
8541
330
18
100
AcDbEntity
  8
0
100
AcDbLine
 10
438.9583821284105
 20
597.9370673185535
 30
0.0
 11
440.9583821284106
 21
597.9370673185535
 31
0.0
  0
LINE
  5
8542
330
18
100
AcDbEntity
  8
0
100
AcDbLine
 10
421.7083821284105
 20
697.9370673185535
 30
0.0
 11
433.2083821284105
 21
697.9370673185535
 31
0.0
  0
LINE
  5
8543
330
18
100
AcDbEntity
  8
0
100
AcDbLine
 10
421.7083821284105
 20
701.4370673185537
 30
0.0
 11
433.2083821284105
 21
701.4370673185535
 31
0.0
  0
LINE
  5
8544
330
18
100
AcDbEntity
  8
0
100
AcDbLine
 10
421.7083821284105
 20
694.9370673185536
 30
0.0
 11
433.2083821284105
 21
694.9370673185535
 31
0.0
  0
LINE
  5
8545
330
18
100
AcDbEntity
  8
0
100
AcDbLine
 10
421.7083821284105
 20
720.9370673185536
 30
0.0
 11
433.2083821284105
 21
720.9370673185535
 31
0.0
  0
LINE
  5
8546
330
18
100
AcDbEntity
  8
0
100
AcDbLine
 10
421.7083821284105
 20
717.4370673185535
 30
0.0
 11
433.2083821284105
 21
717.4370673185535
 31
0.0
  0
LINE
  5
8547
330
18
100
AcDbEntity
  8
0
100
AcDbLine
 10
421.7083821284105
 20
714.4370673185536
 30
0.0
 11
433.2083821284105
 21
714.4370673185535
 31
0.0
  0
LINE
  5
8548
330
18
100
AcDbEntity
  8
0
100
AcDbLine
 10
421.7083821284105
 20
710.9370673185535
 30
0.0
 11
433.2083821284105
 21
710.9370673185535
 31
0.0
  0
LINE
  5
8549
330
18
100
AcDbEntity
  8
0
100
AcDbLine
 10
421.7083821284105
 20
704.4370673185535
 30
0.0
 11
433.2083821284105
 21
704.4370673185535
 31
0.0
  0
LINE
  5
854A
330
18
100
AcDbEntity
  8
0
100
AcDbLine
 10
421.7083821284105
 20
707.9370673185536
 30
0.0
 11
433.2083821284105
 21
707.9370673185535
 31
0.0
  0
LINE
  5
854B
330
18
100
AcDbEntity
  8
0
100
AcDbLine
 10
421.7083821284105
 20
723.9370673185535
 30
0.0
 11
433.2083821284105
 21
723.9370673185535
 31
0.0
  0
LINE
  5
854C
330
18
100
AcDbEntity
  8
0
100
AcDbLine
 10
421.7083821284105
 20
662.4370673185536
 30
0.0
 11
433.2083821284105
 21
662.4370673185535
 31
0.0
  0
LINE
  5
854D
330
18
100
AcDbEntity
  8
0
100
AcDbLine
 10
421.7083821284105
 20
681.9370673185536
 30
0.0
 11
433.2083821284105
 21
681.9370673185535
 31
0.0
  0
LINE
  5
854E
330
18
100
AcDbEntity
  8
0
100
AcDbLine
 10
421.7083821284105
 20
678.4370673185535
 30
0.0
 11
433.2083821284105
 21
678.4370673185535
 31
0.0
  0
LINE
  5
854F
330
18
100
AcDbEntity
  8
0
100
AcDbLine
 10
421.7083821284105
 20
675.4370673185536
 30
0.0
 11
433.2083821284105
 21
675.4370673185535
 31
0.0
  0
LINE
  5
8550
330
18
100
AcDbEntity
  8
0
100
AcDbLine
 10
421.7083821284105
 20
671.9370673185535
 30
0.0
 11
433.2083821284105
 21
671.9370673185535
 31
0.0
  0
LINE
  5
8551
330
18
100
AcDbEntity
  8
0
100
AcDbLine
 10
421.7083821284105
 20
665.4370673185535
 30
0.0
 11
433.2083821284105
 21
665.4370673185535
 31
0.0
  0
LINE
  5
8552
330
18
100
AcDbEntity
  8
0
100
AcDbLine
 10
421.7083821284105
 20
668.9370673185536
 30
0.0
 11
433.2083821284105
 21
668.9370673185536
 31
0.0
  0
LINE
  5
8553
330
18
100
AcDbEntity
  8
0
100
AcDbLine
 10
421.7083821284105
 20
691.4370673185535
 30
0.0
 11
433.2083821284105
 21
691.4370673185535
 31
0.0
  0
LINE
  5
8554
330
18
100
AcDbEntity
  8
0
100
AcDbLine
 10
421.7083821284105
 20
688.4370673185536
 30
0.0
 11
433.2083821284105
 21
688.4370673185535
 31
0.0
  0
LINE
  5
8555
330
18
100
AcDbEntity
  8
0
100
AcDbLine
 10
421.7083821284105
 20
684.9370673185535
 30
0.0
 11
433.2083821284105
 21
684.9370673185535
 31
0.0
  0
LINE
  5
8556
330
18
100
AcDbEntity
  8
0
100
AcDbLine
 10
421.7083821284105
 20
642.9370673185537
 30
0.0
 11
433.2083821284105
 21
642.9370673185535
 31
0.0
  0
LINE
  5
8557
330
18
100
AcDbEntity
  8
0
100
AcDbLine
 10
421.7083821284105
 20
639.4370673185535
 30
0.0
 11
433.2083821284105
 21
639.4370673185535
 31
0.0
  0
LINE
  5
8558
330
18
100
AcDbEntity
  8
0
100
AcDbLine
 10
421.7083821284105
 20
636.4370673185536
 30
0.0
 11
433.2083821284105
 21
636.4370673185535
 31
0.0
  0
LINE
  5
8559
330
18
100
AcDbEntity
  8
0
100
AcDbLine
 10
421.7083821284105
 20
632.9370673185535
 30
0.0
 11
433.2083821284105
 21
632.9370673185535
 31
0.0
  0
LINE
  5
855A
330
18
100
AcDbEntity
  8
0
100
AcDbLine
 10
421.7083821284105
 20
629.9370673185536
 30
0.0
 11
433.2083821284105
 21
629.9370673185535
 31
0.0
  0
LINE
  5
855B
330
18
100
AcDbEntity
  8
0
100
AcDbLine
 10
421.7083821284105
 20
658.9370673185535
 30
0.0
 11
433.2083821284105
 21
658.9370673185535
 31
0.0
  0
LINE
  5
855C
330
18
100
AcDbEntity
  8
0
100
AcDbLine
 10
421.7083821284105
 20
652.4370673185535
 30
0.0
 11
433.2083821284105
 21
652.4370673185535
 31
0.0
  0
LINE
  5
855D
330
18
100
AcDbEntity
  8
0
100
AcDbLine
 10
421.7083821284105
 20
655.9370673185537
 30
0.0
 11
433.2083821284105
 21
655.9370673185535
 31
0.0
  0
LINE
  5
855E
330
18
100
AcDbEntity
  8
0
100
AcDbLine
 10
421.7083821284105
 20
649.4370673185536
 30
0.0
 11
433.2083821284105
 21
649.4370673185535
 31
0.0
  0
LINE
  5
855F
330
18
100
AcDbEntity
  8
0
100
AcDbLine
 10
421.7083821284105
 20
645.9370673185535
 30
0.0
 11
433.2083821284105
 21
645.9370673185535
 31
0.0
  0
LINE
  5
8560
330
18
100
AcDbEntity
  8
0
100
AcDbLine
 10
421.7083821284105
 20
623.4370673185536
 30
0.0
 11
433.2083821284105
 21
623.4370673185535
 31
0.0
  0
LINE
  5
8561
330
18
100
AcDbEntity
  8
0
100
AcDbLine
 10
421.7083821284105
 20
619.9370673185535
 30
0.0
 11
433.2083821284105
 21
619.9370673185535
 31
0.0
  0
LINE
  5
8562
330
18
100
AcDbEntity
  8
0
100
AcDbLine
 10
421.7083821284105
 20
626.4370673185535
 30
0.0
 11
433.2083821284105
 21
626.4370673185535
 31
0.0
  0
LINE
  5
8563
330
18
100
AcDbEntity
  8
0
100
AcDbLine
 10
367.9583821284105
 20
612.9370673185534
 30
0.0
 11
438.9583821284105
 21
612.9370673185535
 31
0.0
  0
ARC
  5
8564
330
18
100
AcDbEntity
  8
0
100
AcDbCircle
 10
389.2083821284105
 20
634.6870673185535
 30
0.0
 40
1.75
100
AcDbArc
 50
270.0
 51
90.0
  0
ARC
  5
8565
330
18
100
AcDbEntity
  8
0
100
AcDbCircle
 10
389.2083821284105
 20
621.6870673185535
 30
0.0
 40
1.75
100
AcDbArc
 50
270.0
 51
90.0
  0
ARC
  5
8566
330
18
100
AcDbEntity
  8
0
100
AcDbCircle
 10
389.2083821284105
 20
628.1870673185535
 30
0.0
 40
1.75
100
AcDbArc
 50
270.0
 51
90.0
  0
ARC
  5
8567
330
18
100
AcDbEntity
  8
0
100
AcDbCircle
 10
377.7083821284105
 20
634.6870673185535
 30
0.0
 40
1.75
100
AcDbArc
 50
90.0
 51
270.0
  0
ARC
  5
8568
330
18
100
AcDbEntity
  8
0
100
AcDbCircle
 10
367.2083821284105
 20
634.6870673185535
 30
0.0
 40
1.75
100
AcDbArc
 50
270.0
 51
90.0
  0
ARC
  5
8569
330
18
100
AcDbEntity
  8
0
100
AcDbCircle
 10
355.7083821284105
 20
634.6870673185535
 30
0.0
 40
1.75
100
AcDbArc
 50
90.0
 51
270.0
  0
ARC
  5
856A
330
18
100
AcDbEntity
  8
0
100
AcDbCircle
 10
367.2083821284105
 20
621.6870673185535
 30
0.0
 40
1.75
100
AcDbArc
 50
270.0
 51
90.0
  0
ARC
  5
856B
330
18
100
AcDbEntity
  8
0
100
AcDbCircle
 10
355.7083821284105
 20
621.6870673185535
 30
0.0
 40
1.75
100
AcDbArc
 50
90.0
 51
270.0
  0
LINE
  5
856C
330
18
100
AcDbEntity
  8
0
100
AcDbLine
 10
355.7083821284105
 20
619.9370673185535
 30
0.0
 11
367.2083821284105
 21
619.9370673185535
 31
0.0
  0
ARC
  5
856D
330
18
100
AcDbEntity
  8
0
100
AcDbCircle
 10
360.9583821284105
 20
614.1870673185532
 30
0.0
 40
3.249999999999876
100
AcDbArc
 50
202.6198649480385
 51
337.3801350519614
  0
LINE
  5
856E
330
18
100
AcDbEntity
  8
0
100
AcDbLine
 10
355.7083821284105
 20
632.9370673185535
 30
0.0
 11
367.2083821284105
 21
632.9370673185535
 31
0.0
  0
LINE
  5
856F
330
18
100
AcDbEntity
  8
0
100
AcDbLine
 10
355.7083821284105
 20
629.9370673185536
 30
0.0
 11
367.2083821284105
 21
629.9370673185535
 31
0.0
  0
LINE
  5
8570
330
18
100
AcDbEntity
  8
0
100
AcDbLine
 10
355.7083821284105
 20
623.4370673185536
 30
0.0
 11
367.2083821284105
 21
623.4370673185535
 31
0.0
  0
LINE
  5
8571
330
18
100
AcDbEntity
  8
0
100
AcDbLine
 10
355.7083821284105
 20
626.4370673185535
 30
0.0
 11
367.2083821284105
 21
626.4370673185535
 31
0.0
  0
ARC
  5
8572
330
18
100
AcDbEntity
  8
0
100
AcDbCircle
 10
355.7083821284105
 20
628.1870673185535
 30
0.0
 40
1.75
100
AcDbArc
 50
90.0
 51
270.0
  0
ARC
  5
8573
330
18
100
AcDbEntity
  8
0
100
AcDbCircle
 10
367.2083821284105
 20
628.1870673185535
 30
0.0
 40
1.75
100
AcDbArc
 50
270.0
 51
90.0
  0
ARC
  5
8574
330
18
100
AcDbEntity
  8
0
100
AcDbCircle
 10
377.7083821284105
 20
621.6870673185535
 30
0.0
 40
1.75
100
AcDbArc
 50
90.0
 51
270.0
  0
LINE
  5
8575
330
18
100
AcDbEntity
  8
0
100
AcDbLine
 10
377.7083821284105
 20
619.9370673185535
 30
0.0
 11
389.2083821284105
 21
619.9370673185535
 31
0.0
  0
LINE
  5
8576
330
18
100
AcDbEntity
  8
0
100
AcDbLine
 10
377.7083821284105
 20
632.9370673185535
 30
0.0
 11
389.2083821284105
 21
632.9370673185535
 31
0.0
  0
LINE
  5
8577
330
18
100
AcDbEntity
  8
0
100
AcDbLine
 10
377.7083821284105
 20
629.9370673185536
 30
0.0
 11
389.2083821284105
 21
629.9370673185535
 31
0.0
  0
LINE
  5
8578
330
18
100
AcDbEntity
  8
0
100
AcDbLine
 10
377.7083821284105
 20
623.4370673185536
 30
0.0
 11
389.2083821284105
 21
623.4370673185535
 31
0.0
  0
LINE
  5
8579
330
18
100
AcDbEntity
  8
0
100
AcDbLine
 10
377.7083821284105
 20
626.4370673185535
 30
0.0
 11
389.2083821284105
 21
626.4370673185535
 31
0.0
  0
ARC
  5
857A
330
18
100
AcDbEntity
  8
0
100
AcDbCircle
 10
377.7083821284105
 20
628.1870673185535
 30
0.0
 40
1.75
100
AcDbArc
 50
90.0
 51
270.0
  0
LINE
  5
857B
330
18
100
AcDbEntity
  8
0
100
AcDbLine
 10
355.7083821284105
 20
636.4370673185536
 30
0.0
 11
367.2083821284105
 21
636.4370673185535
 31
0.0
  0
LINE
  5
857C
330
18
100
AcDbEntity
  8
0
100
AcDbLine
 10
377.7083821284105
 20
636.4370673185536
 30
0.0
 11
389.2083821284105
 21
636.4370673185535
 31
0.0
  0
ARC
  5
857D
330
18
100
AcDbEntity
  8
0
100
AcDbCircle
 10
421.7083821284105
 20
634.6870673185535
 30
0.0
 40
1.75
100
AcDbArc
 50
90.0
 51
270.0
  0
ARC
  5
857E
330
18
100
AcDbEntity
  8
0
100
AcDbCircle
 10
411.2083821284105
 20
634.6870673185535
 30
0.0
 40
1.75
100
AcDbArc
 50
270.0
 51
90.0
  0
ARC
  5
857F
330
18
100
AcDbEntity
  8
0
100
AcDbCircle
 10
399.7083821284105
 20
634.6870673185535
 30
0.0
 40
1.75
100
AcDbArc
 50
90.0
 51
270.0
  0
LINE
  5
8580
330
18
100
AcDbEntity
  8
0
100
AcDbLine
 10
399.7083821284105
 20
632.9370673185535
 30
0.0
 11
411.2083821284105
 21
632.9370673185535
 31
0.0
  0
LINE
  5
8581
330
18
100
AcDbEntity
  8
0
100
AcDbLine
 10
399.7083821284105
 20
629.9370673185536
 30
0.0
 11
411.2083821284105
 21
629.9370673185535
 31
0.0
  0
LINE
  5
8582
330
18
100
AcDbEntity
  8
0
100
AcDbLine
 10
399.7083821284105
 20
626.4370673185535
 30
0.0
 11
411.2083821284105
 21
626.4370673185535
 31
0.0
  0
LINE
  5
8583
330
18
100
AcDbEntity
  8
0
100
AcDbLine
 10
399.7083821284105
 20
623.4370673185536
 30
0.0
 11
411.2083821284105
 21
623.4370673185535
 31
0.0
  0
LINE
  5
8584
330
18
100
AcDbEntity
  8
0
100
AcDbLine
 10
399.7083821284105
 20
619.9370673185535
 30
0.0
 11
411.2083821284105
 21
619.9370673185535
 31
0.0
  0
ARC
  5
8585
330
18
100
AcDbEntity
  8
0
100
AcDbCircle
 10
399.7083821284105
 20
621.6870673185535
 30
0.0
 40
1.75
100
AcDbArc
 50
90.0
 51
270.0
  0
ARC
  5
8586
330
18
100
AcDbEntity
  8
0
100
AcDbCircle
 10
399.7083821284105
 20
628.1870673185535
 30
0.0
 40
1.75
100
AcDbArc
 50
90.0
 51
270.0
  0
ARC
  5
8587
330
18
100
AcDbEntity
  8
0
100
AcDbCircle
 10
421.7083821284105
 20
621.6870673185535
 30
0.0
 40
1.75
100
AcDbArc
 50
90.0
 51
270.0
  0
ARC
  5
8588
330
18
100
AcDbEntity
  8
0
100
AcDbCircle
 10
411.2083821284105
 20
621.6870673185535
 30
0.0
 40
1.75
100
AcDbArc
 50
270.0
 51
90.0
  0
ARC
  5
8589
330
18
100
AcDbEntity
  8
0
100
AcDbCircle
 10
411.2083821284105
 20
628.1870673185535
 30
0.0
 40
1.75
100
AcDbArc
 50
270.0
 51
90.0
  0
ARC
  5
858A
330
18
100
AcDbEntity
  8
0
100
AcDbCircle
 10
421.7083821284105
 20
628.1870673185535
 30
0.0
 40
1.75
100
AcDbArc
 50
90.0
 51
270.0
  0
LINE
  5
858B
330
18
100
AcDbEntity
  8
0
100
AcDbLine
 10
399.7083821284105
 20
662.4370673185536
 30
0.0
 11
411.2083821284105
 21
662.4370673185535
 31
0.0
  0
LINE
  5
858C
330
18
100
AcDbEntity
  8
0
100
AcDbLine
 10
399.7083821284105
 20
658.9370673185535
 30
0.0
 11
411.2083821284105
 21
658.9370673185535
 31
0.0
  0
LINE
  5
858D
330
18
100
AcDbEntity
  8
0
100
AcDbLine
 10
399.7083821284105
 20
649.4370673185536
 30
0.0
 11
411.2083821284105
 21
649.4370673185535
 31
0.0
  0
LINE
  5
858E
330
18
100
AcDbEntity
  8
0
100
AcDbLine
 10
399.7083821284105
 20
655.9370673185537
 30
0.0
 11
411.2083821284105
 21
655.9370673185535
 31
0.0
  0
LINE
  5
858F
330
18
100
AcDbEntity
  8
0
100
AcDbLine
 10
399.7083821284105
 20
652.4370673185535
 30
0.0
 11
411.2083821284105
 21
652.4370673185535
 31
0.0
  0
LINE
  5
8590
330
18
100
AcDbEntity
  8
0
100
AcDbLine
 10
399.7083821284105
 20
645.9370673185535
 30
0.0
 11
411.2083821284105
 21
645.9370673185535
 31
0.0
  0
LINE
  5
8591
330
18
100
AcDbEntity
  8
0
100
AcDbLine
 10
399.7083821284105
 20
642.9370673185537
 30
0.0
 11
411.2083821284105
 21
642.9370673185535
 31
0.0
  0
LINE
  5
8592
330
18
100
AcDbEntity
  8
0
100
AcDbLine
 10
399.7083821284105
 20
636.4370673185536
 30
0.0
 11
411.2083821284105
 21
636.4370673185535
 31
0.0
  0
LINE
  5
8593
330
18
100
AcDbEntity
  8
0
100
AcDbLine
 10
399.7083821284105
 20
639.4370673185535
 30
0.0
 11
411.2083821284105
 21
639.4370673185535
 31
0.0
  0
ARC
  5
8594
330
18
100
AcDbEntity
  8
0
100
AcDbCircle
 10
399.7083821284105
 20
641.1870673185535
 30
0.0
 40
1.75
100
AcDbArc
 50
90.0
 51
270.0
  0
ARC
  5
8595
330
18
100
AcDbEntity
  8
0
100
AcDbCircle
 10
399.7083821284105
 20
647.6870673185535
 30
0.0
 40
1.75
100
AcDbArc
 50
90.0
 51
270.0
  0
ARC
  5
8596
330
18
100
AcDbEntity
  8
0
100
AcDbCircle
 10
399.7083821284105
 20
654.1870673185535
 30
0.0
 40
1.75
100
AcDbArc
 50
90.0
 51
270.0
  0
ARC
  5
8597
330
18
100
AcDbEntity
  8
0
100
AcDbCircle
 10
399.7083821284105
 20
660.6870673185535
 30
0.0
 40
1.75
100
AcDbArc
 50
90.0
 51
270.0
  0
ARC
  5
8598
330
18
100
AcDbEntity
  8
0
100
AcDbCircle
 10
411.2083821284105
 20
641.1870673185535
 30
0.0
 40
1.75
100
AcDbArc
 50
270.0
 51
90.0
  0
ARC
  5
8599
330
18
100
AcDbEntity
  8
0
100
AcDbCircle
 10
411.2083821284105
 20
647.6870673185535
 30
0.0
 40
1.75
100
AcDbArc
 50
270.0
 51
90.0
  0
ARC
  5
859A
330
18
100
AcDbEntity
  8
0
100
AcDbCircle
 10
421.7083821284105
 20
641.1870673185535
 30
0.0
 40
1.75
100
AcDbArc
 50
90.0
 51
270.0
  0
ARC
  5
859B
330
18
100
AcDbEntity
  8
0
100
AcDbCircle
 10
421.7083821284105
 20
647.6870673185535
 30
0.0
 40
1.75
100
AcDbArc
 50
90.0
 51
270.0
  0
ARC
  5
859C
330
18
100
AcDbEntity
  8
0
100
AcDbCircle
 10
411.2083821284105
 20
654.1870673185535
 30
0.0
 40
1.75
100
AcDbArc
 50
270.0
 51
90.0
  0
ARC
  5
859D
330
18
100
AcDbEntity
  8
0
100
AcDbCircle
 10
411.2083821284105
 20
660.6870673185535
 30
0.0
 40
1.75
100
AcDbArc
 50
270.0
 51
90.0
  0
ARC
  5
859E
330
18
100
AcDbEntity
  8
0
100
AcDbCircle
 10
421.7083821284105
 20
654.1870673185535
 30
0.0
 40
1.75
100
AcDbArc
 50
90.0
 51
270.0
  0
ARC
  5
859F
330
18
100
AcDbEntity
  8
0
100
AcDbCircle
 10
421.7083821284105
 20
660.6870673185535
 30
0.0
 40
1.75
100
AcDbArc
 50
90.0
 51
270.0
  0
ARC
  5
85A0
330
18
100
AcDbEntity
  8
0
100
AcDbCircle
 10
399.7083821284105
 20
693.1870673185535
 30
0.0
 40
1.75
100
AcDbArc
 50
90.0
 51
270.0
  0
ARC
  5
85A1
330
18
100
AcDbEntity
  8
0
100
AcDbCircle
 10
421.7083821284105
 20
693.1870673185535
 30
0.0
 40
1.75
100
AcDbArc
 50
90.0
 51
270.0
  0
ARC
  5
85A2
330
18
100
AcDbEntity
  8
0
100
AcDbCircle
 10
411.2083821284105
 20
693.1870673185535
 30
0.0
 40
1.75
100
AcDbArc
 50
270.0
 51
90.0
  0
LINE
  5
85A3
330
18
100
AcDbEntity
  8
0
100
AcDbLine
 10
399.7083821284105
 20
688.4370673185536
 30
0.0
 11
411.2083821284105
 21
688.4370673185535
 31
0.0
  0
LINE
  5
85A4
330
18
100
AcDbEntity
  8
0
100
AcDbLine
 10
399.7083821284105
 20
691.4370673185535
 30
0.0
 11
411.2083821284105
 21
691.4370673185535
 31
0.0
  0
LINE
  5
85A5
330
18
100
AcDbEntity
  8
0
100
AcDbLine
 10
399.7083821284105
 20
681.9370673185536
 30
0.0
 11
411.2083821284105
 21
681.9370673185535
 31
0.0
  0
LINE
  5
85A6
330
18
100
AcDbEntity
  8
0
100
AcDbLine
 10
399.7083821284105
 20
684.9370673185535
 30
0.0
 11
411.2083821284105
 21
684.9370673185535
 31
0.0
  0
LINE
  5
85A7
330
18
100
AcDbEntity
  8
0
100
AcDbLine
 10
399.7083821284105
 20
678.4370673185535
 30
0.0
 11
411.2083821284105
 21
678.4370673185535
 31
0.0
  0
LINE
  5
85A8
330
18
100
AcDbEntity
  8
0
100
AcDbLine
 10
399.7083821284105
 20
675.4370673185536
 30
0.0
 11
411.2083821284105
 21
675.4370673185535
 31
0.0
  0
LINE
  5
85A9
330
18
100
AcDbEntity
  8
0
100
AcDbLine
 10
399.7083821284105
 20
671.9370673185535
 30
0.0
 11
411.2083821284105
 21
671.9370673185535
 31
0.0
  0
LINE
  5
85AA
330
18
100
AcDbEntity
  8
0
100
AcDbLine
 10
399.7083821284105
 20
668.9370673185536
 30
0.0
 11
411.2083821284105
 21
668.9370673185536
 31
0.0
  0
LINE
  5
85AB
330
18
100
AcDbEntity
  8
0
100
AcDbLine
 10
399.7083821284105
 20
665.4370673185535
 30
0.0
 11
411.2083821284105
 21
665.4370673185535
 31
0.0
  0
ARC
  5
85AC
330
18
100
AcDbEntity
  8
0
100
AcDbCircle
 10
399.7083821284105
 20
680.1870673185535
 30
0.0
 40
1.75
100
AcDbArc
 50
90.0
 51
270.0
  0
ARC
  5
85AD
330
18
100
AcDbEntity
  8
0
100
AcDbCircle
 10
399.7083821284105
 20
673.6870673185535
 30
0.0
 40
1.75
100
AcDbArc
 50
90.0
 51
270.0
  0
ARC
  5
85AE
330
18
100
AcDbEntity
  8
0
100
AcDbCircle
 10
399.7083821284105
 20
667.1870673185535
 30
0.0
 40
1.75
100
AcDbArc
 50
90.0
 51
270.0
  0
ARC
  5
85AF
330
18
100
AcDbEntity
  8
0
100
AcDbCircle
 10
399.7083821284105
 20
686.6870673185535
 30
0.0
 40
1.75
100
AcDbArc
 50
90.0
 51
270.0
  0
ARC
  5
85B0
330
18
100
AcDbEntity
  8
0
100
AcDbCircle
 10
421.7083821284105
 20
680.1870673185535
 30
0.0
 40
1.75
100
AcDbArc
 50
90.0
 51
270.0
  0
ARC
  5
85B1
330
18
100
AcDbEntity
  8
0
100
AcDbCircle
 10
411.2083821284105
 20
680.1870673185535
 30
0.0
 40
1.75
100
AcDbArc
 50
270.0
 51
90.0
  0
ARC
  5
85B2
330
18
100
AcDbEntity
  8
0
100
AcDbCircle
 10
411.2083821284105
 20
673.6870673185535
 30
0.0
 40
1.75
100
AcDbArc
 50
270.0
 51
90.0
  0
ARC
  5
85B3
330
18
100
AcDbEntity
  8
0
100
AcDbCircle
 10
411.2083821284105
 20
667.1870673185535
 30
0.0
 40
1.75
100
AcDbArc
 50
270.0
 51
90.0
  0
ARC
  5
85B4
330
18
100
AcDbEntity
  8
0
100
AcDbCircle
 10
421.7083821284105
 20
673.6870673185535
 30
0.0
 40
1.75
100
AcDbArc
 50
90.0
 51
270.0
  0
ARC
  5
85B5
330
18
100
AcDbEntity
  8
0
100
AcDbCircle
 10
421.7083821284105
 20
667.1870673185535
 30
0.0
 40
1.75
100
AcDbArc
 50
90.0
 51
270.0
  0
ARC
  5
85B6
330
18
100
AcDbEntity
  8
0
100
AcDbCircle
 10
411.2083821284105
 20
686.6870673185535
 30
0.0
 40
1.75
100
AcDbArc
 50
270.0
 51
90.0
  0
ARC
  5
85B7
330
18
100
AcDbEntity
  8
0
100
AcDbCircle
 10
421.7083821284105
 20
686.6870673185535
 30
0.0
 40
1.75
100
AcDbArc
 50
90.0
 51
270.0
  0
LINE
  5
85B8
330
18
100
AcDbEntity
  8
0
100
AcDbLine
 10
399.7083821284105
 20
720.9370673185536
 30
0.0
 11
411.2083821284105
 21
720.9370673185535
 31
0.0
  0
LINE
  5
85B9
330
18
100
AcDbEntity
  8
0
100
AcDbLine
 10
399.7083821284105
 20
723.9370673185535
 30
0.0
 11
411.2083821284105
 21
723.9370673185535
 31
0.0
  0
LINE
  5
85BA
330
18
100
AcDbEntity
  8
0
100
AcDbLine
 10
399.7083821284105
 20
714.4370673185536
 30
0.0
 11
411.2083821284105
 21
714.4370673185535
 31
0.0
  0
LINE
  5
85BB
330
18
100
AcDbEntity
  8
0
100
AcDbLine
 10
399.7083821284105
 20
717.4370673185535
 30
0.0
 11
411.2083821284105
 21
717.4370673185535
 31
0.0
  0
LINE
  5
85BC
330
18
100
AcDbEntity
  8
0
100
AcDbLine
 10
399.7083821284105
 20
707.9370673185536
 30
0.0
 11
411.2083821284105
 21
707.9370673185535
 31
0.0
  0
LINE
  5
85BD
330
18
100
AcDbEntity
  8
0
100
AcDbLine
 10
399.7083821284105
 20
704.4370673185535
 30
0.0
 11
411.2083821284105
 21
704.4370673185535
 31
0.0
  0
LINE
  5
85BE
330
18
100
AcDbEntity
  8
0
100
AcDbLine
 10
399.7083821284105
 20
710.9370673185535
 30
0.0
 11
411.2083821284105
 21
710.9370673185535
 31
0.0
  0
LINE
  5
85BF
330
18
100
AcDbEntity
  8
0
100
AcDbLine
 10
399.7083821284105
 20
697.9370673185535
 30
0.0
 11
411.2083821284105
 21
697.9370673185535
 31
0.0
  0
LINE
  5
85C0
330
18
100
AcDbEntity
  8
0
100
AcDbLine
 10
399.7083821284105
 20
701.4370673185537
 30
0.0
 11
411.2083821284105
 21
701.4370673185535
 31
0.0
  0
LINE
  5
85C1
330
18
100
AcDbEntity
  8
0
100
AcDbLine
 10
399.7083821284105
 20
694.9370673185536
 30
0.0
 11
411.2083821284105
 21
694.9370673185535
 31
0.0
  0
ARC
  5
85C2
330
18
100
AcDbEntity
  8
0
100
AcDbCircle
 10
399.7083821284105
 20
699.6870673185535
 30
0.0
 40
1.75
100
AcDbArc
 50
90.0
 51
270.0
  0
ARC
  5
85C3
330
18
100
AcDbEntity
  8
0
100
AcDbCircle
 10
399.7083821284105
 20
706.1870673185535
 30
0.0
 40
1.75
100
AcDbArc
 50
90.0
 51
270.0
  0
ARC
  5
85C4
330
18
100
AcDbEntity
  8
0
100
AcDbCircle
 10
399.7083821284105
 20
712.6870673185536
 30
0.0
 40
1.75
100
AcDbArc
 50
90.0
 51
270.0
  0
ARC
  5
85C5
330
18
100
AcDbEntity
  8
0
100
AcDbCircle
 10
399.7083821284105
 20
719.1870673185535
 30
0.0
 40
1.75
100
AcDbArc
 50
90.0
 51
270.0
  0
ARC
  5
85C6
330
18
100
AcDbEntity
  8
0
100
AcDbCircle
 10
411.2083821284105
 20
699.6870673185535
 30
0.0
 40
1.75
100
AcDbArc
 50
270.0
 51
90.0
  0
ARC
  5
85C7
330
18
100
AcDbEntity
  8
0
100
AcDbCircle
 10
411.2083821284105
 20
706.1870673185535
 30
0.0
 40
1.75
100
AcDbArc
 50
270.0
 51
90.0
  0
ARC
  5
85C8
330
18
100
AcDbEntity
  8
0
100
AcDbCircle
 10
421.7083821284105
 20
699.6870673185535
 30
0.0
 40
1.75
100
AcDbArc
 50
90.0
 51
270.0
  0
ARC
  5
85C9
330
18
100
AcDbEntity
  8
0
100
AcDbCircle
 10
421.7083821284105
 20
706.1870673185535
 30
0.0
 40
1.75
100
AcDbArc
 50
90.0
 51
270.0
  0
ARC
  5
85CA
330
18
100
AcDbEntity
  8
0
100
AcDbCircle
 10
411.2083821284105
 20
712.6870673185536
 30
0.0
 40
1.75
100
AcDbArc
 50
270.0
 51
90.0
  0
ARC
  5
85CB
330
18
100
AcDbEntity
  8
0
100
AcDbCircle
 10
411.2083821284105
 20
719.1870673185535
 30
0.0
 40
1.75
100
AcDbArc
 50
270.0
 51
90.0
  0
ARC
  5
85CC
330
18
100
AcDbEntity
  8
0
100
AcDbCircle
 10
421.7083821284105
 20
712.6870673185536
 30
0.0
 40
1.75
100
AcDbArc
 50
90.0
 51
270.0
  0
ARC
  5
85CD
330
18
100
AcDbEntity
  8
0
100
AcDbCircle
 10
421.7083821284105
 20
719.1870673185535
 30
0.0
 40
1.75
100
AcDbArc
 50
90.0
 51
270.0
  0
ARC
  5
85CE
330
18
100
AcDbEntity
  8
0
100
AcDbCircle
 10
433.2083821284105
 20
634.6870673185535
 30
0.0
 40
1.75
100
AcDbArc
 50
270.0
 51
90.0
  0
ARC
  5
85CF
330
18
100
AcDbEntity
  8
0
100
AcDbCircle
 10
433.2083821284105
 20
621.6870673185535
 30
0.0
 40
1.75
100
AcDbArc
 50
270.0
 51
90.0
  0
ARC
  5
85D0
330
18
100
AcDbEntity
  8
0
100
AcDbCircle
 10
433.2083821284105
 20
628.1870673185535
 30
0.0
 40
1.75
100
AcDbArc
 50
270.0
 51
90.0
  0
ARC
  5
85D1
330
18
100
AcDbEntity
  8
0
100
AcDbCircle
 10
433.2083821284105
 20
641.1870673185535
 30
0.0
 40
1.75
100
AcDbArc
 50
270.0
 51
90.0
  0
ARC
  5
85D2
330
18
100
AcDbEntity
  8
0
100
AcDbCircle
 10
433.2083821284105
 20
647.6870673185535
 30
0.0
 40
1.75
100
AcDbArc
 50
270.0
 51
90.0
  0
ARC
  5
85D3
330
18
100
AcDbEntity
  8
0
100
AcDbCircle
 10
433.2083821284105
 20
654.1870673185535
 30
0.0
 40
1.75
100
AcDbArc
 50
270.0
 51
90.0
  0
ARC
  5
85D4
330
18
100
AcDbEntity
  8
0
100
AcDbCircle
 10
433.2083821284105
 20
660.6870673185535
 30
0.0
 40
1.75
100
AcDbArc
 50
270.0
 51
90.0
  0
ARC
  5
85D5
330
18
100
AcDbEntity
  8
0
100
AcDbCircle
 10
433.2083821284105
 20
693.1870673185535
 30
0.0
 40
1.75
100
AcDbArc
 50
270.0
 51
90.0
  0
ARC
  5
85D6
330
18
100
AcDbEntity
  8
0
100
AcDbCircle
 10
433.2083821284105
 20
680.1870673185535
 30
0.0
 40
1.75
100
AcDbArc
 50
270.0
 51
90.0
  0
ARC
  5
85D7
330
18
100
AcDbEntity
  8
0
100
AcDbCircle
 10
433.2083821284105
 20
673.6870673185535
 30
0.0
 40
1.75
100
AcDbArc
 50
270.0
 51
90.0
  0
ARC
  5
85D8
330
18
100
AcDbEntity
  8
0
100
AcDbCircle
 10
433.2083821284105
 20
667.1870673185535
 30
0.0
 40
1.75
100
AcDbArc
 50
270.0
 51
90.0
  0
ARC
  5
85D9
330
18
100
AcDbEntity
  8
0
100
AcDbCircle
 10
433.2083821284105
 20
686.6870673185535
 30
0.0
 40
1.75
100
AcDbArc
 50
270.0
 51
90.0
  0
ARC
  5
85DA
330
18
100
AcDbEntity
  8
0
100
AcDbCircle
 10
433.2083821284105
 20
699.6870673185535
 30
0.0
 40
1.75
100
AcDbArc
 50
270.0
 51
90.0
  0
ARC
  5
85DB
330
18
100
AcDbEntity
  8
0
100
AcDbCircle
 10
433.2083821284105
 20
706.1870673185535
 30
0.0
 40
1.75
100
AcDbArc
 50
270.0
 51
90.0
  0
ARC
  5
85DC
330
18
100
AcDbEntity
  8
0
100
AcDbCircle
 10
433.2083821284105
 20
712.6870673185536
 30
0.0
 40
1.75
100
AcDbArc
 50
270.0
 51
90.0
  0
ARC
  5
85DD
330
18
100
AcDbEntity
  8
0
100
AcDbCircle
 10
433.2083821284105
 20
719.1870673185535
 30
0.0
 40
1.75
100
AcDbArc
 50
270.0
 51
90.0
  0
LINE
  5
85DE
330
18
100
AcDbEntity
  8
0
100
AcDbLine
 10
354.9583821284105
 20
859.9882292775401
 30
0.0
 11
351.9583821284105
 21
859.9882292775401
 31
0.0
  0
ARC
  5
85DF
330
18
100
AcDbEntity
  8
0
100
AcDbCircle
 10
351.0131662278139
 20
885.9882292775401
 30
0.0
 40
2.0
100
AcDbArc
 50
270.0
 51
358.4088597288058
  0
LINE
  5
85E0
330
18
100
AcDbEntity
  8
0
100
AcDbLine
 10
354.9583821284105
 20
849.9882292775401
 30
0.0
 11
351.9583821284105
 21
849.9882292775401
 31
0.0
  0
LINE
  5
85E1
330
18
100
AcDbEntity
  8
0
100
AcDbLine
 10
360.9583821284105
 20
837.98822927754
 30
0.0
 11
327.9583821284105
 21
837.98822927754
 31
0.0
  0
LINE
  5
85E2
330
18
100
AcDbEntity
  8
0
100
AcDbLine
 10
327.9583821284105
 20
823.9882292775401
 30
0.0
 11
360.9583821284105
 21
823.9882292775401
 31
0.0
  0
LWPOLYLINE
  5
85E3
330
18
100
AcDbEntity
  8
0
100
AcDbPolyline
 90
        4
 70
     1
 43
0.0
 10
329.4583821284105
 20
824.9882292775401
 10
359.4583821284105
 20
824.9882292775401
 10
359.4583821284105
 20
832.9882292775401
 10
329.4583821284105
 20
832.9882292775401
  0
HATCH
  5
85E4
330
18
100
AcDbEntity
  8
0
100
AcDbHatch
 10
0.0
 20
0.0
 30
0.0
210
0.0
220
0.0
230
1.0
  2
SOLID
 70
     1
 71
     0
 91
       20
 92
        7
 72
     1
 73
     1
 93
        2
 10
333.7083821284105
 20
830.4882292775401
 42
1.0
 10
332.7083821284105
 20
830.4882292775401
 42
1.0
 97
        0
 92
        7
 72
     1
 73
     1
 93
        2
 10
336.2083821284105
 20
830.4882292775401
 42
1.0
 10
335.2083821284105
 20
830.4882292775401
 42
1.0
 97
        0
 92
        7
 72
     1
 73
     1
 93
        2
 10
337.7083821284105
 20
830.4882292775401
 42
1.0
 10
338.7083821284105
 20
830.4882292775401
 42
1.0
 97
        0
 92
        7
 72
     1
 73
     1
 93
        2
 10
341.2083821284105
 20
830.4882292775401
 42
1.0
 10
340.2083821284105
 20
830.4882292775401
 42
1.0
 97
        0
 92
        7
 72
     1
 73
     1
 93
        2
 10
343.7083821284105
 20
830.4882292775401
 42
1.0
 10
342.7083821284105
 20
830.4882292775401
 42
1.0
 97
        0
 92
        7
 72
     1
 73
     1
 93
        2
 10
346.2083821284105
 20
830.4882292775401
 42
1.0
 10
345.2083821284105
 20
830.4882292775401
 42
1.0
 97
        0
 92
        7
 72
     1
 73
     1
 93
        2
 10
348.7083821284105
 20
830.4882292775401
 42
1.0
 10
347.7083821284105
 20
830.4882292775401
 42
1.0
 97
        0
 92
        7
 72
     1
 73
     1
 93
        2
 10
351.2083821284105
 20
830.4882292775401
 42
1.0
 10
350.2083821284105
 20
830.4882292775401
 42
1.0
 97
        0
 92
        7
 72
     1
 73
     1
 93
        2
 10
353.7083821284105
 20
830.4882292775401
 42
1.0
 10
352.7083821284105
 20
830.4882292775401
 42
1.0
 97
        0
 92
        7
 72
     1
 73
     1
 93
        2
 10
356.2083821284105
 20
830.4882292775401
 42
1.0
 10
355.2083821284105
 20
830.4882292775401
 42
1.0
 97
        0
 92
        7
 72
     1
 73
     1
 93
        2
 10
356.2083821284105
 20
826.9882292775401
 42
1.0
 10
355.2083821284105
 20
826.9882292775401
 42
1.0
 97
        0
 92
        7
 72
     1
 73
     1
 93
        2
 10
353.7083821284105
 20
826.9882292775401
 42
1.0
 10
352.7083821284105
 20
826.9882292775401
 42
1.0
 97
        0
 92
        7
 72
     1
 73
     1
 93
        2
 10
351.2083821284105
 20
826.9882292775401
 42
1.0
 10
350.2083821284105
 20
826.9882292775401
 42
1.0
 97
        0
 92
        7
 72
     1
 73
     1
 93
        2
 10
348.7083821284105
 20
826.9882292775401
 42
1.0
 10
347.7083821284105
 20
826.9882292775401
 42
1.0
 97
        0
 92
        7
 72
     1
 73
     1
 93
        2
 10
346.2083821284105
 20
826.9882292775401
 42
1.0
 10
345.2083821284105
 20
826.9882292775401
 42
1.0
 97
        0
 92
        7
 72
     1
 73
     1
 93
        2
 10
343.7083821284105
 20
826.9882292775401
 42
1.0
 10
342.7083821284105
 20
826.9882292775401
 42
1.0
 97
        0
 92
        7
 72
     1
 73
     1
 93
        2
 10
341.2083821284105
 20
826.9882292775401
 42
1.0
 10
340.2083821284105
 20
826.9882292775401
 42
1.0
 97
        0
 92
        7
 72
     1
 73
     1
 93
        2
 10
338.7083821284105
 20
826.9882292775401
 42
1.0
 10
337.7083821284105
 20
826.9882292775401
 42
1.0
 97
        0
 92
        7
 72
     1
 73
     1
 93
        2
 10
336.2083821284105
 20
826.9882292775401
 42
1.0
 10
335.2083821284105
 20
826.9882292775401
 42
1.0
 97
        0
 92
        7
 72
     1
 73
     1
 93
        2
 10
333.7083821284105
 20
826.9882292775401
 42
1.0
 10
332.7083821284105
 20
826.9882292775401
 42
1.0
 97
        0
 75
     0
 76
     1
 47
0.0523552323646742
 98
       20
 10
333.2577904278226
 20
830.3885068221674
 10
335.8776604745595
 20
830.4932171663788
 10
338.4975305212961
 20
830.4932171663788
 10
340.6982213129846
 20
830.5455723384845
 10
343.1608989904199
 20
830.3885068221674
 10
345.9379614064581
 20
830.3885068221674
 10
348.2434479038578
 20
830.4932171663788
 10
350.6537277284375
 20
830.3885068221674
 10
353.2735977751743
 20
830.336151650062
 10
355.6838787890195
 20
830.336151650062
 10
355.8410711583209
 20
826.9854166582046
 10
353.1688032587286
 20
826.9854166582046
 10
350.6537277284375
 20
826.7759959697823
 10
348.0338576817006
 20
826.9854166582046
 10
345.7283723735666
 20
826.9854166582046
 10
343.2132968432755
 20
826.8807063139934
 10
340.5934267965388
 20
827.0377718303103
 10
338.2879414884047
 20
826.7759959697823
 10
335.5108790723667
 20
826.9330614860992
 10
333.2577904278226
 20
826.9854166582046
  0
LINE
  5
85E5
330
18
100
AcDbEntity
  8
0
100
AcDbLine
 10
282.9583821284106
 20
772.9370673185536
 30
0.0
 11
355.9583821284105
 21
772.9370673185536
 31
0.0
  0
LINE
  5
85E6
330
18
100
AcDbEntity
  8
0
100
AcDbLine
 10
357.9583821284105
 20
871.98822927754
 30
0.0
 11
284.9583821284105
 21
871.98822927754
 31
0.0
  0
LINE
  5
85E7
330
18
100
AcDbEntity
  8
0
100
AcDbLine
 10
282.9583821284105
 20
818.9882292775401
 30
0.0
 11
438.9583821284105
 21
818.9882292775401
 31
0.0
  0
LINE
  5
85E9
330
18
100
AcDbEntity
  8
0
100
AcDbLine
 10
282.9583821284106
 20
772.9370673185536
 30
0.0
 11
438.9583821284105
 21
772.9370673185536
 31
0.0
  0
LINE
  5
85EA
330
18
100
AcDbEntity
  8
0
100
AcDbLine
 10
413.9583821284108
 20
869.9882292775399
 30
0.0
 11
307.9583821284105
 21
869.98822927754
 31
0.0
  0
LINE
  5
85EB
330
18
100
AcDbEntity
  8
0
100
AcDbLine
 10
280.9583821284105
 20
873.9882292775401
 30
0.0
 11
440.9583821284106
 21
873.9882292775401
 31
0.0
  0
LINE
  5
85EC
330
18
100
AcDbEntity
  8
0
100
AcDbLine
 10
438.9583821284105
 20
873.9882292775401
 30
0.0
 11
282.9583821284105
 21
873.9882292775401
 31
0.0
  0
LINE
  5
85ED
330
18
100
AcDbEntity
  8
0
100
AcDbLine
 10
321.9583821284105
 20
832.9882292775401
 30
0.0
 11
321.9583821284105
 21
842.9882292775401
 31
0.0
  0
LINE
  5
85EE
330
18
100
AcDbEntity
  8
0
100
AcDbLine
 10
318.9583821284105
 20
832.9882292775401
 30
0.0
 11
318.9583821284105
 21
842.9882292775401
 31
0.0
  0
LINE
  5
85EF
330
18
100
AcDbEntity
  8
0
100
AcDbLine
 10
316.4583821284105
 20
825.9882292775401
 30
0.0
 11
316.4583821284105
 21
842.9882292775401
 31
0.0
  0
LINE
  5
85F0
330
18
100
AcDbEntity
  8
0
100
AcDbLine
 10
313.4583821284105
 20
825.9882292775401
 30
0.0
 11
313.4583821284105
 21
842.9882292775401
 31
0.0
  0
LINE
  5
85F1
330
18
100
AcDbEntity
  8
0
100
AcDbLine
 10
307.9583821284105
 20
825.9882292775401
 30
0.0
 11
307.9583821284105
 21
842.9882292775401
 31
0.0
  0
LINE
  5
85F2
330
18
100
AcDbEntity
  8
0
100
AcDbLine
 10
305.4583821284105
 20
825.9882292775401
 30
0.0
 11
305.4583821284105
 21
842.9882292775401
 31
0.0
  0
LINE
  5
85F3
330
18
100
AcDbEntity
  8
0
100
AcDbLine
 10
302.4583821284105
 20
825.9882292775401
 30
0.0
 11
302.4583821284105
 21
842.9882292775401
 31
0.0
  0
LINE
  5
85F4
330
18
100
AcDbEntity
  8
0
100
AcDbLine
 10
310.9583821284105
 20
825.9882292775401
 30
0.0
 11
310.9583821284105
 21
842.9882292775401
 31
0.0
  0
LINE
  5
85F5
330
18
100
AcDbEntity
  8
0
100
AcDbLine
 10
291.4583821284105
 20
825.9882292775401
 30
0.0
 11
291.4583821284105
 21
842.9882292775401
 31
0.0
  0
LINE
  5
85F6
330
18
100
AcDbEntity
  8
0
100
AcDbLine
 10
296.9583821284105
 20
825.9882292775401
 30
0.0
 11
296.9583821284105
 21
842.9882292775401
 31
0.0
  0
LINE
  5
85F7
330
18
100
AcDbEntity
  8
0
100
AcDbLine
 10
294.4583821284105
 20
825.9882292775401
 30
0.0
 11
294.4583821284105
 21
842.9882292775401
 31
0.0
  0
LINE
  5
85F8
330
18
100
AcDbEntity
  8
0
100
AcDbLine
 10
299.9583821284105
 20
825.9882292775401
 30
0.0
 11
299.9583821284105
 21
842.9882292775401
 31
0.0
  0
LINE
  5
85F9
330
18
100
AcDbEntity
  8
0
100
AcDbLine
 10
284.9583821284105
 20
868.9882292775401
 30
0.0
 11
284.9583821284105
 21
819.98822927754
 31
0.0
  0
LINE
  5
85FA
330
18
100
AcDbEntity
  8
0
100
AcDbLine
 10
280.9583821284105
 20
871.98822927754
 30
0.0
 11
280.9583821284105
 21
818.9882292775401
 31
0.0
  0
LINE
  5
85FB
330
18
100
AcDbEntity
  8
0
100
AcDbLine
 10
282.9583821284105
 20
869.98822927754
 30
0.0
 11
282.9583821284105
 21
818.9882292775401
 31
0.0
  0
LINE
  5
85FC
330
18
100
AcDbEntity
  8
0
 48
0.2
100
AcDbLine
 10
283.9583821284105
 20
836.4882292775403
 30
0.0
 11
244.9583821284104
 21
836.4882292775401
 31
0.0
  0
LINE
  5
85FD
330
18
100
AcDbEntity
  8
0
 48
0.2
100
AcDbLine
 10
283.9583821284105
 20
823.7882292775401
 30
0.0
 11
244.9583821284105
 21
823.7882292775401
 31
0.0
  0
LINE
  5
85FE
330
18
100
AcDbEntity
  8
0
100
AcDbLine
 10
275.1480369486435
 20
741.7309862074985
 30
0.0
 11
277.9444632394653
 21
744.5274124983204
 31
0.0
  0
LINE
  5
85FF
330
18
100
AcDbEntity
  8
0
100
AcDbLine
 10
275.5723010173553
 20
741.3067221387867
 30
0.0
 11
278.3687273081773
 21
744.1031484296086
 31
0.0
  0
CIRCLE
  5
8600
330
18
100
AcDbEntity
  8
0
100
AcDbCircle
 10
276.7583821284103
 20
742.9170673185535
 30
0.0
 40
2.0
  0
LINE
  5
8601
330
18
100
AcDbEntity
  8
0
100
AcDbLine
 10
280.9583821284103
 20
735.3370673185535
 30
0.0
 11
271.4583821284102
 21
735.3370673185537
 31
0.0
  0
LINE
  5
8602
330
18
100
AcDbEntity
  8
0
100
AcDbLine
 10
275.1480369486435
 20
736.6509862074986
 30
0.0
 11
277.9444632394653
 21
739.4474124983205
 31
0.0
  0
LINE
  5
8603
330
18
100
AcDbEntity
  8
0
100
AcDbLine
 10
275.5723010173553
 20
736.2267221387867
 30
0.0
 11
278.3687273081773
 21
739.0231484296085
 31
0.0
  0
CIRCLE
  5
8604
330
18
100
AcDbEntity
  8
0
100
AcDbCircle
 10
276.7583821284103
 20
737.8370673185536
 30
0.0
 40
2.0
  0
LINE
  5
8605
330
18
100
AcDbEntity
  8
0
100
AcDbLine
 10
280.9583821284105
 20
750.5370673185535
 30
0.0
 11
271.4583821284104
 21
750.5370673185536
 31
0.0
  0
LINE
  5
8606
330
18
100
AcDbEntity
  8
0
100
AcDbLine
 10
275.1480369486435
 20
746.8109862074985
 30
0.0
 11
277.9444632394653
 21
749.6074124983205
 31
0.0
  0
LINE
  5
8607
330
18
100
AcDbEntity
  8
0
100
AcDbLine
 10
275.5723010173553
 20
746.3867221387866
 30
0.0
 11
278.3687273081773
 21
749.1831484296085
 31
0.0
  0
CIRCLE
  5
8608
330
18
100
AcDbEntity
  8
0
100
AcDbCircle
 10
276.7583821284103
 20
747.9970673185536
 30
0.0
 40
2.0
  0
LINE
  5
8609
330
18
100
AcDbEntity
  8
0
100
AcDbLine
 10
272.9583821284105
 20
750.5370673185536
 30
0.0
 11
272.9583821284106
 21
735.3370673185537
 31
0.0
  0
LINE
  5
860A
330
18
100
AcDbEntity
  8
0
100
AcDbLine
 10
271.4583821284104
 20
750.5370673185536
 30
0.0
 11
271.4583821284104
 21
735.3370673185537
 31
0.0
  0
ARC
  5
860B
330
18
100
AcDbEntity
  8
0
 48
0.2
100
AcDbCircle
 10
261.3283821284103
 20
830.1382292775402
 30
0.0
 40
2.669999999999886
100
AcDbArc
 50
115.9892335838272
 51
244.0107664161727
  0
LINE
  5
860C
330
18
100
AcDbEntity
  8
0
 48
0.2
100
AcDbLine
 10
260.95838212841
 20
821.1382292775402
 30
0.0
 11
244.9583821284105
 21
821.13822927754
 31
0.0
  0
LINE
  5
860D
330
18
100
AcDbEntity
  8
0
 48
0.2
100
AcDbLine
 10
260.95838212841
 20
839.1382292775402
 30
0.0
 11
244.9583821284105
 21
839.1382292775402
 31
0.0
  0
LINE
  5
860E
330
18
100
AcDbEntity
  8
0
 48
0.2
100
AcDbLine
 10
260.1583821284104
 20
826.2882292775403
 30
0.0
 11
252.1583821284104
 21
826.2882292775401
 31
0.0
  0
LINE
  5
860F
330
18
100
AcDbEntity
  8
0
 48
0.2
100
AcDbLine
 10
260.1583821284106
 20
833.9882292775403
 30
0.0
 11
252.1583821284104
 21
833.9882292775403
 31
0.0
  0
LINE
  5
8610
330
18
100
AcDbEntity
  8
0
 48
0.2
100
AcDbLine
 10
252.1583821284104
 20
833.9882292775403
 30
0.0
 11
252.1583821284104
 21
826.2882292775401
 31
0.0
  0
LINE
  5
8611
330
18
100
AcDbEntity
  8
0
 48
0.2
100
AcDbLine
 10
244.9583821284105
 20
839.1382292775402
 30
0.0
 11
244.9583821284105
 21
821.13822927754
 31
0.0
  0
LINE
  5
8612
330
18
100
AcDbEntity
  8
0
 48
0.2
100
AcDbLine
 10
260.1583821284104
 20
836.4882292775403
 30
0.0
 11
260.1583821284104
 21
823.7882292775402
 31
0.0
  0
LINE
  5
8613
330
18
100
AcDbEntity
  8
0
 48
0.2
100
AcDbLine
 10
260.9583821284104
 20
821.1382292775402
 30
0.0
 11
265.9583821284104
 21
823.7882292775401
 31
0.0
  0
LINE
  5
8614
330
18
100
AcDbEntity
  8
0
 48
0.2
100
AcDbLine
 10
265.9583821284104
 20
836.4882292775401
 30
0.0
 11
260.9583821284104
 21
839.1382292775402
 31
0.0
  0
LINE
  5
8615
330
18
100
AcDbEntity
  8
0
100
AcDbLine
 10
311.7083821284105
 20
759.9370673185537
 30
0.0
 11
323.2083821284105
 21
759.9370673185535
 31
0.0
  0
LINE
  5
8616
330
18
100
AcDbEntity
  8
0
100
AcDbLine
 10
311.7083821284106
 20
766.4370673185536
 30
0.0
 11
323.2083821284106
 21
766.4370673185535
 31
0.0
  0
LINE
  5
8617
330
18
100
AcDbEntity
  8
0
100
AcDbLine
 10
311.7083821284106
 20
762.9370673185535
 30
0.0
 11
323.2083821284106
 21
762.9370673185535
 31
0.0
  0
LINE
  5
8618
330
18
100
AcDbEntity
  8
0
100
AcDbLine
 10
311.7083821284105
 20
753.4370673185536
 30
0.0
 11
323.2083821284105
 21
753.4370673185535
 31
0.0
  0
LINE
  5
8619
330
18
100
AcDbEntity
  8
0
100
AcDbLine
 10
311.7083821284105
 20
756.4370673185536
 30
0.0
 11
323.2083821284105
 21
756.4370673185536
 31
0.0
  0
LINE
  5
861A
330
18
100
AcDbEntity
  8
0
100
AcDbLine
 10
311.7083821284105
 20
749.9370673185535
 30
0.0
 11
323.2083821284105
 21
749.9370673185535
 31
0.0
  0
LINE
  5
861B
330
18
100
AcDbEntity
  8
0
100
AcDbLine
 10
289.7083821284105
 20
753.4370673185536
 30
0.0
 11
301.2083821284105
 21
753.4370673185535
 31
0.0
  0
LINE
  5
861C
330
18
100
AcDbEntity
  8
0
100
AcDbLine
 10
289.7083821284105
 20
749.9370673185535
 30
0.0
 11
301.2083821284105
 21
749.9370673185535
 31
0.0
  0
LINE
  5
861D
330
18
100
AcDbEntity
  8
0
100
AcDbLine
 10
280.9583821284105
 20
750.5370673185535
 30
0.0
 11
280.9583821284105
 21
735.3370673185535
 31
0.0
  0
LINE
  5
861E
330
18
100
AcDbEntity
  8
0
100
AcDbLine
 10
280.2583821284104
 20
750.5370673185535
 30
0.0
 11
280.2583821284104
 21
735.3370673185535
 31
0.0
  0
ARC
  5
861F
330
18
100
AcDbEntity
  8
0
100
AcDbCircle
 10
289.7083821284105
 20
751.6870673185535
 30
0.0
 40
1.75
100
AcDbArc
 50
90.0
 51
270.0
  0
ARC
  5
8620
330
18
100
AcDbEntity
  8
0
100
AcDbCircle
 10
301.2083821284105
 20
751.6870673185535
 30
0.0
 40
1.75
100
AcDbArc
 50
270.0
 51
90.0
  0
ARC
  5
8621
330
18
100
AcDbEntity
  8
0
100
AcDbCircle
 10
311.7083821284105
 20
751.6870673185535
 30
0.0
 40
1.75
100
AcDbArc
 50
90.0
 51
270.0
  0
LINE
  5
8622
330
18
100
AcDbEntity
  8
0
100
AcDbLine
 10
289.7083821284105
 20
759.9370673185537
 30
0.0
 11
301.2083821284105
 21
759.9370673185535
 31
0.0
  0
LINE
  5
8623
330
18
100
AcDbEntity
  8
0
100
AcDbLine
 10
289.7083821284106
 20
762.9370673185535
 30
0.0
 11
301.2083821284107
 21
762.9370673185535
 31
0.0
  0
LINE
  5
8624
330
18
100
AcDbEntity
  8
0
100
AcDbLine
 10
289.7083821284106
 20
766.4370673185536
 30
0.0
 11
301.2083821284107
 21
766.4370673185535
 31
0.0
  0
LINE
  5
8625
330
18
100
AcDbEntity
  8
0
100
AcDbLine
 10
289.7083821284105
 20
756.4370673185536
 30
0.0
 11
301.2083821284105
 21
756.4370673185536
 31
0.0
  0
ARC
  5
8626
330
18
100
AcDbEntity
  8
0
100
AcDbCircle
 10
289.7083821284105
 20
758.1870673185535
 30
0.0
 40
1.75
100
AcDbArc
 50
90.0
 51
270.0
  0
ARC
  5
8627
330
18
100
AcDbEntity
  8
0
100
AcDbCircle
 10
289.7083821284105
 20
764.6870673185535
 30
0.0
 40
1.75
100
AcDbArc
 50
90.0
 51
270.0
  0
LINE
  5
8628
330
18
100
AcDbEntity
  8
0
100
AcDbLine
 10
280.9583821284105
 20
772.9370673185536
 30
0.0
 11
282.9583821284106
 21
772.9370673185536
 31
0.0
  0
ARC
  5
8629
330
18
100
AcDbEntity
  8
0
100
AcDbCircle
 10
301.2083821284105
 20
758.1870673185535
 30
0.0
 40
1.75
100
AcDbArc
 50
270.0
 51
90.0
  0
ARC
  5
862A
330
18
100
AcDbEntity
  8
0
100
AcDbCircle
 10
301.2083821284105
 20
764.6870673185535
 30
0.0
 40
1.75
100
AcDbArc
 50
270.0
 51
90.0
  0
ARC
  5
862B
330
18
100
AcDbEntity
  8
0
100
AcDbCircle
 10
311.7083821284105
 20
758.1870673185535
 30
0.0
 40
1.75
100
AcDbArc
 50
90.0
 51
270.0
  0
ARC
  5
862C
330
18
100
AcDbEntity
  8
0
100
AcDbCircle
 10
311.7083821284105
 20
764.6870673185535
 30
0.0
 40
1.75
100
AcDbArc
 50
90.0
 51
270.0
  0
ARC
  5
862D
330
18
100
AcDbEntity
  8
0
100
AcDbCircle
 10
333.7083821284105
 20
751.6870673185535
 30
0.0
 40
1.75
100
AcDbArc
 50
90.0
 51
270.0
  0
ARC
  5
862E
330
18
100
AcDbEntity
  8
0
100
AcDbCircle
 10
323.2083821284105
 20
751.6870673185535
 30
0.0
 40
1.75
100
AcDbArc
 50
270.0
 51
90.0
  0
LINE
  5
862F
330
18
100
AcDbEntity
  8
0
100
AcDbLine
 10
333.7083821284105
 20
753.4370673185536
 30
0.0
 11
345.2083821284105
 21
753.4370673185535
 31
0.0
  0
LINE
  5
8630
330
18
100
AcDbEntity
  8
0
100
AcDbLine
 10
333.7083821284105
 20
749.9370673185535
 30
0.0
 11
345.2083821284105
 21
749.9370673185535
 31
0.0
  0
ARC
  5
8631
330
18
100
AcDbEntity
  8
0
100
AcDbCircle
 10
345.2083821284105
 20
751.6870673185535
 30
0.0
 40
1.75
100
AcDbArc
 50
270.0
 51
90.0
  0
ARC
  5
8632
330
18
100
AcDbEntity
  8
0
100
AcDbCircle
 10
333.7083821284105
 20
764.6870673185535
 30
0.0
 40
1.75
100
AcDbArc
 50
90.0
 51
270.0
  0
ARC
  5
8633
330
18
100
AcDbEntity
  8
0
100
AcDbCircle
 10
333.7083821284105
 20
758.1870673185535
 30
0.0
 40
1.75
100
AcDbArc
 50
90.0
 51
270.0
  0
ARC
  5
8634
330
18
100
AcDbEntity
  8
0
100
AcDbCircle
 10
323.2083821284105
 20
764.6870673185535
 30
0.0
 40
1.75
100
AcDbArc
 50
270.0
 51
90.0
  0
ARC
  5
8635
330
18
100
AcDbEntity
  8
0
100
AcDbCircle
 10
323.2083821284105
 20
758.1870673185535
 30
0.0
 40
1.75
100
AcDbArc
 50
270.0
 51
90.0
  0
LINE
  5
8636
330
18
100
AcDbEntity
  8
0
100
AcDbLine
 10
333.7083821284105
 20
759.9370673185537
 30
0.0
 11
345.2083821284105
 21
759.9370673185535
 31
0.0
  0
LINE
  5
8637
330
18
100
AcDbEntity
  8
0
100
AcDbLine
 10
333.7083821284106
 20
762.9370673185535
 30
0.0
 11
345.2083821284106
 21
762.9370673185535
 31
0.0
  0
LINE
  5
8638
330
18
100
AcDbEntity
  8
0
100
AcDbLine
 10
333.7083821284106
 20
766.4370673185536
 30
0.0
 11
345.2083821284106
 21
766.4370673185535
 31
0.0
  0
LINE
  5
8639
330
18
100
AcDbEntity
  8
0
100
AcDbLine
 10
333.7083821284105
 20
756.4370673185536
 30
0.0
 11
345.2083821284105
 21
756.4370673185536
 31
0.0
  0
ARC
  5
863A
330
18
100
AcDbEntity
  8
0
100
AcDbCircle
 10
345.2083821284105
 20
758.1870673185535
 30
0.0
 40
1.75
100
AcDbArc
 50
270.0
 51
90.0
  0
ARC
  5
863B
330
18
100
AcDbEntity
  8
0
100
AcDbCircle
 10
345.2083821284105
 20
764.6870673185535
 30
0.0
 40
1.75
100
AcDbArc
 50
270.0
 51
90.0
  0
LINE
  5
863C
330
18
100
AcDbEntity
  8
0
100
AcDbLine
 10
316.4583821284105
 20
825.9882292775401
 30
0.0
 11
313.4583821284105
 21
825.9882292775401
 31
0.0
  0
LINE
  5
863D
330
18
100
AcDbEntity
  8
0
 48
0.2
100
AcDbLine
 10
278.9583821284105
 20
833.6382292775402
 30
0.0
 11
278.9583821284105
 21
826.63822927754
 31
0.0
  0
LINE
  5
863E
330
18
100
AcDbEntity
  8
0
100
AcDbLine
 10
282.9583821284105
 20
822.98822927754
 30
0.0
 11
282.9583821284105
 21
818.9882292775401
 31
0.0
  0
LINE
  5
863F
330
18
100
AcDbEntity
  8
0
100
AcDbLine
 10
283.9583821284105
 20
822.98822927754
 30
0.0
 11
283.9583821284105
 21
819.98822927754
 31
0.0
  0
LINE
  5
8640
330
18
100
AcDbEntity
  8
0
100
AcDbLine
 10
282.9583821284105
 20
822.98822927754
 30
0.0
 11
282.9583821284105
 21
818.9882292775401
 31
0.0
  0
LINE
  5
8641
330
18
100
AcDbEntity
  8
0
100
AcDbLine
 10
282.9583821284105
 20
818.9882292775401
 30
0.0
 11
280.9583821284105
 21
818.9882292775401
 31
0.0
  0
LINE
  5
8642
330
18
100
AcDbEntity
  8
0
100
AcDbLine
 10
282.9583821284105
 20
819.98822927754
 30
0.0
 11
284.9583821284105
 21
819.98822927754
 31
0.0
  0
LINE
  5
8643
330
18
100
AcDbEntity
  8
0
 48
0.2
100
AcDbLine
 10
283.9583821284105
 20
826.6382292775402
 30
0.0
 11
278.9583821284105
 21
826.63822927754
 31
0.0
  0
LINE
  5
8644
330
18
100
AcDbEntity
  8
0
100
AcDbLine
 10
282.9583821284105
 20
822.98822927754
 30
0.0
 11
283.9583821284105
 21
822.98822927754
 31
0.0
  0
LINE
  5
8645
330
18
100
AcDbEntity
  8
0
 48
0.2
100
AcDbLine
 10
283.9583821284105
 20
826.63822927754
 30
0.0
 11
283.9583821284105
 21
823.7882292775401
 31
0.0
  0
LINE
  5
8646
330
18
100
AcDbEntity
  8
0
100
AcDbLine
 10
294.4583821284105
 20
825.9882292775401
 30
0.0
 11
291.4583821284105
 21
825.9882292775401
 31
0.0
  0
LINE
  5
8647
330
18
100
AcDbEntity
  8
0
 48
0.2
100
AcDbLine
 10
283.9583821284105
 20
836.4882292775403
 30
0.0
 11
283.9583821284105
 21
833.6382292775402
 31
0.0
  0
LINE
  5
8648
330
18
100
AcDbEntity
  8
0
 48
0.2
100
AcDbLine
 10
283.9583821284105
 20
833.63822927754
 30
0.0
 11
278.9583821284105
 21
833.6382292775402
 31
0.0
  0
LINE
  5
8649
330
18
100
AcDbEntity
  8
0
100
AcDbLine
 10
305.4583821284105
 20
825.9882292775401
 30
0.0
 11
302.4583821284105
 21
825.9882292775401
 31
0.0
  0
LINE
  5
864A
330
18
100
AcDbEntity
  8
0
100
AcDbLine
 10
299.9583821284105
 20
825.9882292775401
 30
0.0
 11
296.9583821284105
 21
825.9882292775401
 31
0.0
  0
LINE
  5
864B
330
18
100
AcDbEntity
  8
0
100
AcDbLine
 10
310.9583821284105
 20
825.9882292775401
 30
0.0
 11
307.9583821284105
 21
825.9882292775401
 31
0.0
  0
CIRCLE
  5
864C
330
18
100
AcDbEntity
  8
0
100
AcDbCircle
 10
333.2083821284105
 20
830.4882292775401
 30
0.0
 40
0.5
  0
CIRCLE
  5
864D
330
18
100
AcDbEntity
  8
0
100
AcDbCircle
 10
333.2083821284105
 20
826.9882292775401
 30
0.0
 40
0.5
  0
LINE
  5
864E
330
18
100
AcDbEntity
  8
0
100
AcDbLine
 10
327.9583821284105
 20
837.98822927754
 30
0.0
 11
327.9583821284105
 21
823.9882292775401
 31
0.0
  0
CIRCLE
  5
864F
330
18
100
AcDbEntity
  8
0
100
AcDbCircle
 10
323.4583821284106
 20
826.9882292775401
 30
0.0
 40
3.25
  0
LWPOLYLINE
  5
8650
330
18
100
AcDbEntity
  8
0
100
AcDbPolyline
 90
        4
 70
     1
 43
0.0
 10
320.9583821284105
 20
825.9882292775401
 10
325.9583821284105
 20
825.9882292775401
 10
325.9583821284105
 20
827.9882292775402
 10
320.9583821284105
 20
827.9882292775402
  0
LWPOLYLINE
  5
8651
330
18
100
AcDbEntity
  8
0
100
AcDbPolyline
 90
        4
 70
     1
 43
0.0
 10
325.7083821284105
 20
826.2382292775402
 10
324.2083821284105
 20
826.2382292775402
 10
324.2083821284105
 20
827.7382292775401
 10
325.7083821284105
 20
827.7382292775401
  0
LINE
  5
8652
330
18
100
AcDbEntity
  8
0
100
AcDbLine
 10
321.9583821284105
 20
832.9882292775401
 30
0.0
 11
318.9583821284105
 21
832.9882292775401
 31
0.0
  0
CIRCLE
  5
8653
330
18
100
AcDbEntity
  8
0
100
AcDbCircle
 10
338.2083821284105
 20
826.9882292775401
 30
0.0
 40
0.5
  0
CIRCLE
  5
8654
330
18
100
AcDbEntity
  8
0
100
AcDbCircle
 10
335.7083821284105
 20
826.9882292775401
 30
0.0
 40
0.5
  0
CIRCLE
  5
8655
330
18
100
AcDbEntity
  8
0
100
AcDbCircle
 10
340.7083821284105
 20
826.9882292775401
 30
0.0
 40
0.5
  0
CIRCLE
  5
8656
330
18
100
AcDbEntity
  8
0
100
AcDbCircle
 10
343.2083821284105
 20
826.9882292775401
 30
0.0
 40
0.5
  0
CIRCLE
  5
8657
330
18
100
AcDbEntity
  8
0
100
AcDbCircle
 10
345.7083821284105
 20
826.9882292775401
 30
0.0
 40
0.5
  0
CIRCLE
  5
8658
330
18
100
AcDbEntity
  8
0
100
AcDbCircle
 10
350.7083821284105
 20
826.9882292775401
 30
0.0
 40
0.5
  0
CIRCLE
  5
8659
330
18
100
AcDbEntity
  8
0
100
AcDbCircle
 10
348.2083821284105
 20
826.9882292775401
 30
0.0
 40
0.5
  0
CIRCLE
  5
865A
330
18
100
AcDbEntity
  8
0
100
AcDbCircle
 10
338.2083821284105
 20
830.4882292775401
 30
0.0
 40
0.5
  0
CIRCLE
  5
865B
330
18
100
AcDbEntity
  8
0
100
AcDbCircle
 10
335.7083821284105
 20
830.4882292775401
 30
0.0
 40
0.5
  0
CIRCLE
  5
865C
330
18
100
AcDbEntity
  8
0
100
AcDbCircle
 10
340.7083821284105
 20
830.4882292775401
 30
0.0
 40
0.5
  0
CIRCLE
  5
865D
330
18
100
AcDbEntity
  8
0
100
AcDbCircle
 10
343.2083821284105
 20
830.4882292775401
 30
0.0
 40
0.5
  0
CIRCLE
  5
865E
330
18
100
AcDbEntity
  8
0
100
AcDbCircle
 10
345.7083821284105
 20
830.4882292775401
 30
0.0
 40
0.5
  0
CIRCLE
  5
865F
330
18
100
AcDbEntity
  8
0
100
AcDbCircle
 10
350.7083821284105
 20
830.4882292775401
 30
0.0
 40
0.5
  0
CIRCLE
  5
8660
330
18
100
AcDbEntity
  8
0
100
AcDbCircle
 10
348.2083821284105
 20
830.4882292775401
 30
0.0
 40
0.5
  0
LINE
  5
8661
330
18
100
AcDbEntity
  8
0
100
AcDbLine
 10
280.2583821284106
 20
845.68822927754
 30
0.0
 11
272.9583821284106
 21
845.68822927754
 31
0.0
  0
LINE
  5
8662
330
18
100
AcDbEntity
  8
0
100
AcDbLine
 10
280.2583821284106
 20
860.68822927754
 30
0.0
 11
271.4583821284106
 21
860.68822927754
 31
0.0
  0
LINE
  5
8663
330
18
100
AcDbEntity
  8
0
100
AcDbLine
 10
271.4583821284106
 20
860.68822927754
 30
0.0
 11
271.4583821284106
 21
851.1882292775402
 31
0.0
  0
LINE
  5
8664
330
18
100
AcDbEntity
  8
0
100
AcDbLine
 10
271.4583821284106
 20
851.1882292775402
 30
0.0
 11
272.9583821284106
 21
845.68822927754
 31
0.0
  0
LINE
  5
8665
330
18
100
AcDbEntity
  8
0
100
AcDbLine
 10
320.9043691877017
 20
885.9326951430592
 30
0.0
 11
320.1583821284106
 21
912.7882292775399
 31
0.0
  0
LINE
  5
8666
330
18
100
AcDbEntity
  8
0
100
AcDbLine
 10
317.7583821284105
 20
912.7882292775399
 30
0.0
 11
317.0123950691194
 21
885.9326951430594
 31
0.0
  0
LINE
  5
8667
330
18
100
AcDbEntity
  8
0
100
AcDbLine
 10
308.9043691877017
 20
885.9326951430592
 30
0.0
 11
308.1583821284106
 21
912.7882292775399
 31
0.0
  0
LINE
  5
8668
330
18
100
AcDbEntity
  8
0
100
AcDbLine
 10
305.7583821284105
 20
912.7882292775399
 30
0.0
 11
305.0123950691194
 21
885.9326951430594
 31
0.0
  0
LINE
  5
8669
330
18
100
AcDbEntity
  8
0
100
AcDbLine
 10
329.7583821284105
 20
912.7882292775399
 30
0.0
 11
329.0123950691194
 21
885.9326951430594
 31
0.0
  0
LINE
  5
866A
330
18
100
AcDbEntity
  8
0
100
AcDbLine
 10
332.9043691877017
 20
885.9326951430592
 30
0.0
 11
332.1583821284106
 21
912.7882292775399
 31
0.0
  0
LINE
  5
866B
330
18
100
AcDbEntity
  8
0
100
AcDbLine
 10
344.9043691877017
 20
885.9326951430592
 30
0.0
 11
344.1583821284106
 21
912.7882292775399
 31
0.0
  0
LINE
  5
866C
330
18
100
AcDbEntity
  8
0
100
AcDbLine
 10
341.7583821284105
 20
912.7882292775399
 30
0.0
 11
341.0123950691194
 21
885.9326951430594
 31
0.0
  0
LINE
  5
866D
330
18
100
AcDbEntity
  8
0
100
AcDbLine
 10
284.9043691877017
 20
885.9326951430594
 30
0.0
 11
284.1583821284105
 21
912.7882292775399
 31
0.0
  0
LINE
  5
866E
330
18
100
AcDbEntity
  8
0
100
AcDbLine
 10
281.7583821284105
 20
912.7882292775399
 30
0.0
 11
280.9583821284105
 21
883.9882292775401
 31
0.0
  0
LINE
  5
866F
330
18
100
AcDbEntity
  8
0
100
AcDbLine
 10
293.7583821284105
 20
912.7882292775399
 30
0.0
 11
293.0123950691194
 21
885.9326951430594
 31
0.0
  0
LINE
  5
8670
330
18
100
AcDbEntity
  8
0
100
AcDbLine
 10
296.9043691877017
 20
885.9326951430592
 30
0.0
 11
296.1583821284106
 21
912.7882292775399
 31
0.0
  0
LINE
  5
8671
330
18
100
AcDbEntity
  8
0
100
AcDbLine
 10
316.4583821284105
 20
866.9882292775401
 30
0.0
 11
313.4583821284105
 21
866.9882292775401
 31
0.0
  0
LINE
  5
8672
330
18
100
AcDbEntity
  8
0
100
AcDbLine
 10
310.9035980290071
 20
883.9882292775397
 30
0.0
 11
315.0131662278139
 21
883.9882292775397
 31
0.0
  0
LINE
  5
8673
330
18
100
AcDbEntity
  8
0
100
AcDbLine
 10
316.4583821284105
 20
842.9882292775401
 30
0.0
 11
313.4583821284105
 21
842.9882292775401
 31
0.0
  0
LINE
  5
8674
330
18
100
AcDbEntity
  8
0
100
AcDbLine
 10
316.4583821284105
 20
849.9882292775401
 30
0.0
 11
313.4583821284105
 21
849.9882292775401
 31
0.0
  0
ARC
  5
8675
330
18
100
AcDbEntity
  8
0
100
AcDbCircle
 10
282.9583821284105
 20
871.98822927754
 30
0.0
 40
2.0
100
AcDbArc
 50
90.0
 51
180.0
  0
LINE
  5
8676
330
18
100
AcDbEntity
  8
0
100
AcDbLine
 10
297.9583821284105
 20
869.98822927754
 30
0.0
 11
285.9583821284105
 21
869.98822927754
 31
0.0
  0
LINE
  5
8677
330
18
100
AcDbEntity
  8
0
100
AcDbLine
 10
289.6583821284106
 20
859.1882292775402
 30
0.0
 11
289.6583821284106
 21
854.28822927754
 31
0.0
  0
LINE
  5
8678
330
18
100
AcDbEntity
  8
0
100
AcDbLine
 10
291.4583821284105
 20
849.9882292775401
 30
0.0
 11
291.4583821284105
 21
866.9882292775401
 31
0.0
  0
LINE
  5
8679
330
18
100
AcDbEntity
  8
0
100
AcDbLine
 10
294.4583821284105
 20
849.9882292775401
 30
0.0
 11
294.4583821284105
 21
866.9882292775401
 31
0.0
  0
LINE
  5
867A
330
18
100
AcDbEntity
  8
0
100
AcDbLine
 10
289.6583821284106
 20
854.28822927754
 30
0.0
 11
280.9583821284105
 21
854.28822927754
 31
0.0
  0
LINE
  5
867B
330
18
100
AcDbEntity
  8
0
100
AcDbLine
 10
280.2583821284106
 20
845.68822927754
 30
0.0
 11
280.9583821284106
 21
851.1882292775402
 31
0.0
  0
LINE
  5
867C
330
18
100
AcDbEntity
  8
0
100
AcDbLine
 10
280.9583821284105
 20
854.28822927754
 30
0.0
 11
280.9583821284106
 21
851.1882292775402
 31
0.0
  0
LINE
  5
867D
330
18
100
AcDbEntity
  8
0
100
AcDbLine
 10
294.4583821284105
 20
842.9882292775401
 30
0.0
 11
291.4583821284105
 21
842.9882292775401
 31
0.0
  0
LINE
  5
867E
330
18
100
AcDbEntity
  8
0
100
AcDbLine
 10
294.4583821284105
 20
849.9882292775401
 30
0.0
 11
291.4583821284105
 21
849.9882292775401
 31
0.0
  0
LINE
  5
867F
330
18
100
AcDbEntity
  8
0
100
AcDbLine
 10
289.6583821284106
 20
859.1882292775402
 30
0.0
 11
280.9583821284109
 21
859.1882292775402
 31
0.0
  0
LINE
  5
8680
330
18
100
AcDbEntity
  8
0
100
AcDbLine
 10
282.9583821284105
 20
860.8882292775401
 30
0.0
 11
280.9583821284105
 21
860.8882292775401
 31
0.0
  0
LINE
  5
8681
330
18
100
AcDbEntity
  8
0
100
AcDbLine
 10
280.9583821284109
 20
859.6882292775401
 30
0.0
 11
280.2583821284107
 21
859.6882292775401
 31
0.0
  0
LINE
  5
8682
330
18
100
AcDbEntity
  8
0
100
AcDbLine
 10
280.2583821284106
 20
860.68822927754
 30
0.0
 11
280.2583821284107
 21
859.6882292775401
 31
0.0
  0
LINE
  5
8683
330
18
100
AcDbEntity
  8
0
100
AcDbLine
 10
280.9583821284109
 20
859.6882292775401
 30
0.0
 11
280.9583821284109
 21
859.1882292775402
 31
0.0
  0
LINE
  5
8684
330
18
100
AcDbEntity
  8
0
100
AcDbLine
 10
284.9583821284105
 20
868.9882292775401
 30
0.0
 11
285.9583821284105
 21
869.98822927754
 31
0.0
  0
ARC
  5
8685
330
18
100
AcDbEntity
  8
0
100
AcDbCircle
 10
284.9583821284105
 20
869.98822927754
 30
0.0
 40
2.0
100
AcDbArc
 50
90.0
 51
180.0
  0
LINE
  5
8686
330
18
100
AcDbEntity
  8
0
100
AcDbLine
 10
294.4583821284105
 20
866.9882292775401
 30
0.0
 11
291.4583821284105
 21
866.9882292775401
 31
0.0
  0
LINE
  5
8687
330
18
100
AcDbEntity
  8
0
100
AcDbLine
 10
302.4583821284105
 20
849.9882292775401
 30
0.0
 11
302.4583821284105
 21
866.9882292775401
 31
0.0
  0
LINE
  5
8688
330
18
100
AcDbEntity
  8
0
100
AcDbLine
 10
305.4583821284105
 20
849.9882292775401
 30
0.0
 11
305.4583821284105
 21
866.9882292775401
 31
0.0
  0
LINE
  5
8689
330
18
100
AcDbEntity
  8
0
100
AcDbLine
 10
307.9583821284105
 20
849.9882292775401
 30
0.0
 11
307.9583821284105
 21
866.9882292775401
 31
0.0
  0
LINE
  5
868A
330
18
100
AcDbEntity
  8
0
100
AcDbLine
 10
310.9583821284105
 20
849.9882292775401
 30
0.0
 11
310.9583821284105
 21
866.9882292775401
 31
0.0
  0
LINE
  5
868B
330
18
100
AcDbEntity
  8
0
100
AcDbLine
 10
313.4583821284105
 20
849.9882292775401
 30
0.0
 11
313.4583821284105
 21
866.9882292775401
 31
0.0
  0
LINE
  5
868C
330
18
100
AcDbEntity
  8
0
100
AcDbLine
 10
296.9583821284105
 20
849.9882292775401
 30
0.0
 11
296.9583821284105
 21
866.9882292775401
 31
0.0
  0
LINE
  5
868D
330
18
100
AcDbEntity
  8
0
100
AcDbLine
 10
299.9583821284105
 20
849.9882292775401
 30
0.0
 11
299.9583821284105
 21
866.9882292775401
 31
0.0
  0
LINE
  5
868E
330
18
100
AcDbEntity
  8
0
100
AcDbLine
 10
305.4583821284105
 20
842.9882292775401
 30
0.0
 11
302.4583821284105
 21
842.9882292775401
 31
0.0
  0
LINE
  5
868F
330
18
100
AcDbEntity
  8
0
100
AcDbLine
 10
305.4583821284105
 20
849.9882292775401
 30
0.0
 11
302.4583821284105
 21
849.9882292775401
 31
0.0
  0
LINE
  5
8690
330
18
100
AcDbEntity
  8
0
100
AcDbLine
 10
299.9583821284105
 20
842.9882292775401
 30
0.0
 11
296.9583821284105
 21
842.9882292775401
 31
0.0
  0
LINE
  5
8691
330
18
100
AcDbEntity
  8
0
100
AcDbLine
 10
299.9583821284105
 20
849.9882292775401
 30
0.0
 11
296.9583821284105
 21
849.9882292775401
 31
0.0
  0
LINE
  5
8692
330
18
100
AcDbEntity
  8
0
100
AcDbLine
 10
310.9583821284105
 20
842.9882292775401
 30
0.0
 11
307.9583821284105
 21
842.9882292775401
 31
0.0
  0
LINE
  5
8693
330
18
100
AcDbEntity
  8
0
100
AcDbLine
 10
310.9583821284105
 20
849.9882292775401
 30
0.0
 11
307.9583821284105
 21
849.9882292775401
 31
0.0
  0
LINE
  5
8694
330
18
100
AcDbEntity
  8
0
100
AcDbLine
 10
305.4583821284105
 20
866.9882292775401
 30
0.0
 11
302.4583821284105
 21
866.9882292775401
 31
0.0
  0
LINE
  5
8695
330
18
100
AcDbEntity
  8
0
100
AcDbLine
 10
307.9583821284105
 20
871.98822927754
 30
0.0
 11
297.9583821284105
 21
871.98822927754
 31
0.0
  0
LINE
  5
8696
330
18
100
AcDbEntity
  8
0
100
AcDbLine
 10
297.9583821284106
 20
871.98822927754
 30
0.0
 11
307.9583821284105
 21
871.98822927754
 31
0.0
  0
LINE
  5
8697
330
18
100
AcDbEntity
  8
0
100
AcDbLine
 10
299.9583821284105
 20
866.9882292775401
 30
0.0
 11
296.9583821284105
 21
866.9882292775401
 31
0.0
  0
LINE
  5
8698
330
18
100
AcDbEntity
  8
0
100
AcDbLine
 10
297.9583821284105
 20
871.98822927754
 30
0.0
 11
297.9583821284105
 21
869.98822927754
 31
0.0
  0
LINE
  5
8699
330
18
100
AcDbEntity
  8
0
100
AcDbLine
 10
310.9583821284105
 20
866.9882292775401
 30
0.0
 11
307.9583821284105
 21
866.9882292775401
 31
0.0
  0
LINE
  5
869A
330
18
100
AcDbEntity
  8
0
100
AcDbLine
 10
307.9583821284105
 20
871.98822927754
 30
0.0
 11
307.9583821284105
 21
869.98822927754
 31
0.0
  0
ARC
  5
869B
330
18
100
AcDbEntity
  8
0
100
AcDbCircle
 10
286.9035980290071
 20
885.9882292775401
 30
0.0
 40
2.0
100
AcDbArc
 50
181.5911402711942
 51
270.0
  0
LINE
  5
869C
330
18
100
AcDbEntity
  8
0
100
AcDbLine
 10
280.9583821284105
 20
873.9882292775401
 30
0.0
 11
280.9583821284105
 21
883.9882292775401
 31
0.0
  0
ARC
  5
869D
330
18
100
AcDbEntity
  8
0
100
AcDbCircle
 10
291.0131662278139
 20
885.9882292775401
 30
0.0
 40
2.0
100
AcDbArc
 50
270.0
 51
358.4088597288058
  0
LINE
  5
869E
330
18
100
AcDbEntity
  8
0
100
AcDbLine
 10
286.9035980290071
 20
883.9882292775401
 30
0.0
 11
291.0131662278139
 21
883.9882292775401
 31
0.0
  0
ARC
  5
869F
330
18
100
AcDbEntity
  8
0
100
AcDbCircle
 10
303.0131662278139
 20
885.9882292775401
 30
0.0
 40
2.0
100
AcDbArc
 50
270.0
 51
358.4088597288058
  0
LINE
  5
86A0
330
18
100
AcDbEntity
  8
0
100
AcDbLine
 10
298.9035980290072
 20
883.9882292775397
 30
0.0
 11
303.0131662278139
 21
883.9882292775397
 31
0.0
  0
ARC
  5
86A1
330
18
100
AcDbEntity
  8
0
100
AcDbCircle
 10
298.9035980290072
 20
885.9882292775399
 30
0.0
 40
2.0
100
AcDbArc
 50
181.5911402711942
 51
270.0
  0
ARC
  5
86A2
330
18
100
AcDbEntity
  8
0
100
AcDbCircle
 10
310.9035980290071
 20
885.9882292775399
 30
0.0
 40
2.0
100
AcDbArc
 50
181.5911402711942
 51
270.0
  0
LINE
  5
86A3
330
18
100
AcDbEntity
  8
0
100
AcDbLine
 10
327.4583821284105
 20
849.9882292775399
 30
0.0
 11
327.4583821284105
 21
866.9882292775399
 31
0.0
  0
LINE
  5
86A4
330
18
100
AcDbEntity
  8
0
100
AcDbLine
 10
329.9583821284105
 20
849.9882292775399
 30
0.0
 11
329.9583821284105
 21
866.9882292775399
 31
0.0
  0
LINE
  5
86A5
330
18
100
AcDbEntity
  8
0
100
AcDbLine
 10
332.9583821284105
 20
849.9882292775399
 30
0.0
 11
332.9583821284105
 21
866.9882292775399
 31
0.0
  0
LINE
  5
86A6
330
18
100
AcDbEntity
  8
0
100
AcDbLine
 10
324.4583821284105
 20
849.9882292775399
 30
0.0
 11
324.4583821284105
 21
866.9882292775399
 31
0.0
  0
LINE
  5
86A7
330
18
100
AcDbEntity
  8
0
100
AcDbLine
 10
318.9583821284105
 20
849.9882292775401
 30
0.0
 11
318.9583821284105
 21
866.9882292775401
 31
0.0
  0
LINE
  5
86A8
330
18
100
AcDbEntity
  8
0
100
AcDbLine
 10
321.9583821284105
 20
849.9882292775399
 30
0.0
 11
321.9583821284105
 21
866.9882292775399
 31
0.0
  0
LINE
  5
86A9
330
18
100
AcDbEntity
  8
0
100
AcDbLine
 10
316.4583821284105
 20
849.9882292775401
 30
0.0
 11
316.4583821284105
 21
866.9882292775401
 31
0.0
  0
LINE
  5
86AA
330
18
100
AcDbEntity
  8
0
100
AcDbLine
 10
321.9583821284105
 20
842.9882292775401
 30
0.0
 11
318.9583821284105
 21
842.9882292775401
 31
0.0
  0
LINE
  5
86AB
330
18
100
AcDbEntity
  8
0
100
AcDbLine
 10
321.9583821284105
 20
849.9882292775399
 30
0.0
 11
318.9583821284105
 21
849.9882292775401
 31
0.0
  0
LINE
  5
86AC
330
18
100
AcDbEntity
  8
0
100
AcDbLine
 10
327.4583821284105
 20
849.9882292775399
 30
0.0
 11
324.4583821284105
 21
849.9882292775399
 31
0.0
  0
LINE
  5
86AD
330
18
100
AcDbEntity
  8
0
100
AcDbLine
 10
332.9583821284105
 20
849.9882292775399
 30
0.0
 11
329.9583821284105
 21
849.9882292775399
 31
0.0
  0
LINE
  5
86AE
330
18
100
AcDbEntity
  8
0
100
AcDbLine
 10
321.9583821284105
 20
866.9882292775399
 30
0.0
 11
318.9583821284105
 21
866.9882292775401
 31
0.0
  0
LINE
  5
86AF
330
18
100
AcDbEntity
  8
0
100
AcDbLine
 10
327.4583821284105
 20
866.9882292775399
 30
0.0
 11
324.4583821284105
 21
866.9882292775399
 31
0.0
  0
LINE
  5
86B0
330
18
100
AcDbEntity
  8
0
100
AcDbLine
 10
332.9583821284105
 20
866.9882292775399
 30
0.0
 11
329.9583821284105
 21
866.9882292775399
 31
0.0
  0
LINE
  5
86B1
330
18
100
AcDbEntity
  8
0
100
AcDbLine
 10
351.9583821284105
 20
849.9882292775401
 30
0.0
 11
351.9583821284105
 21
859.9882292775401
 31
0.0
  0
LINE
  5
86B2
330
18
100
AcDbEntity
  8
0
100
AcDbLine
 10
349.4583821284105
 20
849.9882292775399
 30
0.0
 11
349.4583821284105
 21
866.9882292775399
 31
0.0
  0
LINE
  5
86B3
330
18
100
AcDbEntity
  8
0
100
AcDbLine
 10
335.4583821284105
 20
849.9882292775399
 30
0.0
 11
335.4583821284105
 21
866.9882292775399
 31
0.0
  0
LINE
  5
86B4
330
18
100
AcDbEntity
  8
0
100
AcDbLine
 10
338.4583821284105
 20
849.9882292775399
 30
0.0
 11
338.4583821284105
 21
866.9882292775399
 31
0.0
  0
LINE
  5
86B5
330
18
100
AcDbEntity
  8
0
100
AcDbLine
 10
340.9583821284105
 20
849.9882292775399
 30
0.0
 11
340.9583821284105
 21
866.9882292775399
 31
0.0
  0
LINE
  5
86B6
330
18
100
AcDbEntity
  8
0
100
AcDbLine
 10
343.9583821284105
 20
849.9882292775399
 30
0.0
 11
343.9583821284105
 21
866.9882292775399
 31
0.0
  0
LINE
  5
86B7
330
18
100
AcDbEntity
  8
0
100
AcDbLine
 10
346.4583821284105
 20
849.9882292775399
 30
0.0
 11
346.4583821284105
 21
866.9882292775399
 31
0.0
  0
LINE
  5
86B8
330
18
100
AcDbEntity
  8
0
100
AcDbLine
 10
343.9583821284105
 20
849.9882292775399
 30
0.0
 11
340.9583821284105
 21
849.9882292775399
 31
0.0
  0
LINE
  5
86B9
330
18
100
AcDbEntity
  8
0
100
AcDbLine
 10
338.4583821284105
 20
849.9882292775399
 30
0.0
 11
335.4583821284105
 21
849.9882292775399
 31
0.0
  0
LINE
  5
86BA
330
18
100
AcDbEntity
  8
0
100
AcDbLine
 10
349.4583821284105
 20
849.9882292775399
 30
0.0
 11
346.4583821284105
 21
849.9882292775399
 31
0.0
  0
LINE
  5
86BB
330
18
100
AcDbEntity
  8
0
100
AcDbLine
 10
343.9583821284105
 20
866.9882292775399
 30
0.0
 11
340.9583821284105
 21
866.9882292775399
 31
0.0
  0
LINE
  5
86BC
330
18
100
AcDbEntity
  8
0
100
AcDbLine
 10
338.4583821284105
 20
866.9882292775399
 30
0.0
 11
335.4583821284105
 21
866.9882292775399
 31
0.0
  0
LINE
  5
86BD
330
18
100
AcDbEntity
  8
0
100
AcDbLine
 10
349.4583821284105
 20
866.9882292775399
 30
0.0
 11
346.4583821284105
 21
866.9882292775399
 31
0.0
  0
ARC
  5
86BE
330
18
100
AcDbEntity
  8
0
100
AcDbCircle
 10
334.9035980290071
 20
885.9882292775399
 30
0.0
 40
2.0
100
AcDbArc
 50
181.5911402711942
 51
270.0
  0
LINE
  5
86BF
330
18
100
AcDbEntity
  8
0
100
AcDbLine
 10
322.9035980290071
 20
883.9882292775397
 30
0.0
 11
327.0131662278139
 21
883.9882292775397
 31
0.0
  0
ARC
  5
86C0
330
18
100
AcDbEntity
  8
0
100
AcDbCircle
 10
315.0131662278139
 20
885.9882292775401
 30
0.0
 40
2.0
100
AcDbArc
 50
270.0
 51
358.4088597288058
  0
ARC
  5
86C1
330
18
100
AcDbEntity
  8
0
100
AcDbCircle
 10
322.9035980290071
 20
885.9882292775399
 30
0.0
 40
2.0
100
AcDbArc
 50
181.5911402711942
 51
270.0
  0
ARC
  5
86C2
330
18
100
AcDbEntity
  8
0
100
AcDbCircle
 10
327.0131662278139
 20
885.9882292775401
 30
0.0
 40
2.0
100
AcDbArc
 50
270.0
 51
358.4088597288058
  0
LINE
  5
86C3
330
18
100
AcDbEntity
  8
0
100
AcDbLine
 10
334.9035980290071
 20
883.9882292775397
 30
0.0
 11
339.0131662278139
 21
883.9882292775397
 31
0.0
  0
ARC
  5
86C4
330
18
100
AcDbEntity
  8
0
100
AcDbCircle
 10
339.0131662278139
 20
885.9882292775401
 30
0.0
 40
2.0
100
AcDbArc
 50
270.0
 51
358.4088597288058
  0
LINE
  5
86C5
330
18
100
AcDbEntity
  8
0
100
AcDbLine
 10
346.9035980290072
 20
883.9882292775397
 30
0.0
 11
351.0131662278139
 21
883.9882292775397
 31
0.0
  0
ARC
  5
86C6
330
18
100
AcDbEntity
  8
0
100
AcDbCircle
 10
346.9035980290072
 20
885.9882292775399
 30
0.0
 40
2.0
100
AcDbArc
 50
181.5911402711942
 51
270.0
  0
ARC
  5
86C7
330
18
100
AcDbEntity
  8
0
100
AcDbCircle
 10
294.9583821284105
 20
912.7882292775399
 30
0.0
 40
1.199999999999999
100
AcDbArc
 50
0.0
 51
180.0
  0
ARC
  5
86C8
330
18
100
AcDbEntity
  8
0
100
AcDbCircle
 10
282.9583821284105
 20
912.7882292775399
 30
0.0
 40
1.199999999999999
100
AcDbArc
 50
0.0
 51
180.0
  0
ARC
  5
86C9
330
18
100
AcDbEntity
  8
0
100
AcDbCircle
 10
306.9583821284105
 20
912.7882292775399
 30
0.0
 40
1.199999999999999
100
AcDbArc
 50
0.0
 51
180.0
  0
ARC
  5
86CA
330
18
100
AcDbEntity
  8
0
100
AcDbCircle
 10
318.9583821284105
 20
912.7882292775399
 30
0.0
 40
1.199999999999999
100
AcDbArc
 50
0.0
 51
180.0
  0
ARC
  5
86CB
330
18
100
AcDbEntity
  8
0
100
AcDbCircle
 10
330.9583821284105
 20
912.7882292775399
 30
0.0
 40
1.199999999999999
100
AcDbArc
 50
0.0
 51
180.0
  0
ARC
  5
86CC
330
18
100
AcDbEntity
  8
0
100
AcDbCircle
 10
342.9583821284105
 20
912.7882292775399
 30
0.0
 40
1.199999999999999
100
AcDbArc
 50
0.0
 51
180.0
  0
LINE
  5
86CD
330
18
100
AcDbEntity
  8
0
100
AcDbLine
 10
431.9583821284105
 20
825.9882292775401
 30
0.0
 11
431.9583821284105
 21
842.9882292775401
 31
0.0
  0
LINE
  5
86CE
330
18
100
AcDbEntity
  8
0
100
AcDbLine
 10
428.9583821284105
 20
825.9882292775401
 30
0.0
 11
428.9583821284105
 21
842.9882292775401
 31
0.0
  0
LINE
  5
86CF
330
18
100
AcDbEntity
  8
0
100
AcDbLine
 10
426.4583821284105
 20
825.9882292775401
 30
0.0
 11
426.4583821284105
 21
842.9882292775401
 31
0.0
  0
LINE
  5
86D0
330
18
100
AcDbEntity
  8
0
100
AcDbLine
 10
423.4583821284105
 20
825.9882292775401
 30
0.0
 11
423.4583821284105
 21
842.9882292775401
 31
0.0
  0
LINE
  5
86D1
330
18
100
AcDbEntity
  8
0
100
AcDbLine
 10
420.9583821284105
 20
825.9882292775401
 30
0.0
 11
420.9583821284105
 21
842.9882292775401
 31
0.0
  0
LINE
  5
86D2
330
18
100
AcDbEntity
  8
0
100
AcDbLine
 10
417.9583821284105
 20
825.9882292775401
 30
0.0
 11
417.9583821284105
 21
842.9882292775401
 31
0.0
  0
LINE
  5
86D3
330
18
100
AcDbEntity
  8
0
100
AcDbLine
 10
415.4583821284105
 20
825.9882292775401
 30
0.0
 11
415.4583821284105
 21
842.9882292775401
 31
0.0
  0
LINE
  5
86D4
330
18
100
AcDbEntity
  8
0
100
AcDbLine
 10
412.4583821284105
 20
825.9882292775401
 30
0.0
 11
412.4583821284105
 21
842.9882292775401
 31
0.0
  0
LINE
  5
86D5
330
18
100
AcDbEntity
  8
0
100
AcDbLine
 10
409.9583821284105
 20
825.9882292775401
 30
0.0
 11
409.9583821284105
 21
842.9882292775401
 31
0.0
  0
LINE
  5
86D6
330
18
100
AcDbEntity
  8
0
100
AcDbLine
 10
401.4583821284105
 20
825.9882292775401
 30
0.0
 11
401.4583821284105
 21
842.9882292775401
 31
0.0
  0
LINE
  5
86D7
330
18
100
AcDbEntity
  8
0
100
AcDbLine
 10
398.9583821284105
 20
825.9882292775401
 30
0.0
 11
398.9583821284105
 21
842.9882292775401
 31
0.0
  0
LINE
  5
86D8
330
18
100
AcDbEntity
  8
0
100
AcDbLine
 10
395.9583821284105
 20
825.9882292775401
 30
0.0
 11
395.9583821284105
 21
842.9882292775401
 31
0.0
  0
LINE
  5
86D9
330
18
100
AcDbEntity
  8
0
100
AcDbLine
 10
404.4583821284105
 20
825.9882292775401
 30
0.0
 11
404.4583821284105
 21
842.9882292775401
 31
0.0
  0
LINE
  5
86DA
330
18
100
AcDbEntity
  8
0
100
AcDbLine
 10
406.9583821284105
 20
825.9882292775401
 30
0.0
 11
406.9583821284105
 21
842.9882292775401
 31
0.0
  0
LINE
  5
86DB
330
18
100
AcDbEntity
  8
0
100
AcDbLine
 10
436.9583821284106
 20
868.9882292775399
 30
0.0
 11
436.9583821284106
 21
819.98822927754
 31
0.0
  0
LINE
  5
86DC
330
18
100
AcDbEntity
  8
0
100
AcDbLine
 10
440.9583821284106
 20
871.98822927754
 30
0.0
 11
440.9583821284106
 21
818.9882292775401
 31
0.0
  0
LINE
  5
86DD
330
18
100
AcDbEntity
  8
0
100
AcDbLine
 10
438.9583821284105
 20
869.98822927754
 30
0.0
 11
438.9583821284105
 21
818.9882292775401
 31
0.0
  0
LINE
  5
86DE
330
18
100
AcDbEntity
  8
0
100
AcDbLine
 10
387.9583821284105
 20
825.9882292775401
 30
0.0
 11
387.9583821284105
 21
842.9882292775401
 31
0.0
  0
LINE
  5
86DF
330
18
100
AcDbEntity
  8
0
100
AcDbLine
 10
384.9583821284105
 20
825.9882292775401
 30
0.0
 11
384.9583821284105
 21
842.9882292775401
 31
0.0
  0
LINE
  5
86E0
330
18
100
AcDbEntity
  8
0
100
AcDbLine
 10
393.4583821284105
 20
825.9882292775401
 30
0.0
 11
393.4583821284105
 21
842.9882292775401
 31
0.0
  0
LINE
  5
86E1
330
18
100
AcDbEntity
  8
0
100
AcDbLine
 10
390.4583821284105
 20
825.9882292775401
 30
0.0
 11
390.4583821284105
 21
842.9882292775401
 31
0.0
  0
LINE
  5
86E2
330
18
100
AcDbEntity
  8
0
100
AcDbLine
 10
379.4583821284105
 20
825.9882292775401
 30
0.0
 11
379.4583821284105
 21
842.9882292775401
 31
0.0
  0
LINE
  5
86E3
330
18
100
AcDbEntity
  8
0
100
AcDbLine
 10
376.9583821284105
 20
825.9882292775401
 30
0.0
 11
376.9583821284105
 21
842.9882292775401
 31
0.0
  0
LINE
  5
86E4
330
18
100
AcDbEntity
  8
0
100
AcDbLine
 10
373.9583821284105
 20
825.9882292775401
 30
0.0
 11
373.9583821284105
 21
842.9882292775401
 31
0.0
  0
LINE
  5
86E5
330
18
100
AcDbEntity
  8
0
100
AcDbLine
 10
382.4583821284105
 20
825.9882292775401
 30
0.0
 11
382.4583821284105
 21
842.9882292775401
 31
0.0
  0
LINE
  5
86E6
330
18
100
AcDbEntity
  8
0
100
AcDbLine
 10
371.4583821284105
 20
825.9882292775401
 30
0.0
 11
371.4583821284105
 21
842.9882292775401
 31
0.0
  0
LINE
  5
86E7
330
18
100
AcDbEntity
  8
0
100
AcDbLine
 10
368.4583821284105
 20
825.9882292775401
 30
0.0
 11
368.4583821284105
 21
842.9882292775401
 31
0.0
  0
LINE
  5
86E8
330
18
100
AcDbEntity
  8
0
100
AcDbLine
 10
365.9583821284105
 20
825.9882292775401
 30
0.0
 11
365.9583821284105
 21
842.9882292775401
 31
0.0
  0
LINE
  5
86E9
330
18
100
AcDbEntity
  8
0
100
AcDbLine
 10
362.9583821284105
 20
825.9882292775401
 30
0.0
 11
362.9583821284105
 21
842.9882292775401
 31
0.0
  0
LINE
  5
86EA
330
18
100
AcDbEntity
  8
0
100
AcDbLine
 10
421.7083821284105
 20
759.9370673185537
 30
0.0
 11
433.2083821284105
 21
759.9370673185535
 31
0.0
  0
LINE
  5
86EB
330
18
100
AcDbEntity
  8
0
100
AcDbLine
 10
421.7083821284105
 20
762.9370673185535
 30
0.0
 11
433.2083821284105
 21
762.9370673185535
 31
0.0
  0
LINE
  5
86EC
330
18
100
AcDbEntity
  8
0
100
AcDbLine
 10
421.7083821284105
 20
766.4370673185536
 30
0.0
 11
433.2083821284105
 21
766.4370673185535
 31
0.0
  0
LINE
  5
86ED
330
18
100
AcDbEntity
  8
0
100
AcDbLine
 10
369.9583821284105
 20
772.9370673185536
 30
0.0
 11
438.9583821284105
 21
772.9370673185536
 31
0.0
  0
LINE
  5
86EE
330
18
100
AcDbEntity
  8
0
100
AcDbLine
 10
421.7083821284105
 20
736.9370673185535
 30
0.0
 11
433.2083821284105
 21
736.9370673185535
 31
0.0
  0
LINE
  5
86EF
330
18
100
AcDbEntity
  8
0
100
AcDbLine
 10
421.7083821284105
 20
740.4370673185536
 30
0.0
 11
433.2083821284105
 21
740.4370673185535
 31
0.0
  0
LINE
  5
86F0
330
18
100
AcDbEntity
  8
0
100
AcDbLine
 10
421.7083821284105
 20
730.4370673185535
 30
0.0
 11
433.2083821284105
 21
730.4370673185535
 31
0.0
  0
LINE
  5
86F1
330
18
100
AcDbEntity
  8
0
100
AcDbLine
 10
421.7083821284105
 20
733.9370673185536
 30
0.0
 11
433.2083821284105
 21
733.9370673185535
 31
0.0
  0
LINE
  5
86F2
330
18
100
AcDbEntity
  8
0
100
AcDbLine
 10
421.7083821284105
 20
727.4370673185536
 30
0.0
 11
433.2083821284105
 21
727.4370673185535
 31
0.0
  0
LINE
  5
86F3
330
18
100
AcDbEntity
  8
0
100
AcDbLine
 10
421.7083821284105
 20
756.4370673185536
 30
0.0
 11
433.2083821284105
 21
756.4370673185536
 31
0.0
  0
LINE
  5
86F4
330
18
100
AcDbEntity
  8
0
100
AcDbLine
 10
421.7083821284105
 20
753.4370673185536
 30
0.0
 11
433.2083821284105
 21
753.4370673185535
 31
0.0
  0
LINE
  5
86F5
330
18
100
AcDbEntity
  8
0
100
AcDbLine
 10
421.7083821284105
 20
749.9370673185535
 30
0.0
 11
433.2083821284105
 21
749.9370673185535
 31
0.0
  0
LINE
  5
86F6
330
18
100
AcDbEntity
  8
0
100
AcDbLine
 10
421.7083821284105
 20
746.9370673185537
 30
0.0
 11
433.2083821284105
 21
746.9370673185535
 31
0.0
  0
LINE
  5
86F7
330
18
100
AcDbEntity
  8
0
100
AcDbLine
 10
421.7083821284105
 20
743.4370673185535
 30
0.0
 11
433.2083821284105
 21
743.4370673185535
 31
0.0
  0
ARC
  5
86F8
330
18
100
AcDbEntity
  8
0
100
AcDbCircle
 10
389.2083821284105
 20
764.6870673185535
 30
0.0
 40
1.75
100
AcDbArc
 50
270.0
 51
90.0
  0
ARC
  5
86F9
330
18
100
AcDbEntity
  8
0
100
AcDbCircle
 10
389.2083821284105
 20
751.6870673185535
 30
0.0
 40
1.75
100
AcDbArc
 50
270.0
 51
90.0
  0
ARC
  5
86FA
330
18
100
AcDbEntity
  8
0
100
AcDbCircle
 10
389.2083821284105
 20
758.1870673185535
 30
0.0
 40
1.75
100
AcDbArc
 50
270.0
 51
90.0
  0
LINE
  5
86FB
330
18
100
AcDbEntity
  8
0
100
AcDbLine
 10
355.7083821284105
 20
753.4370673185536
 30
0.0
 11
367.2083821284105
 21
753.4370673185535
 31
0.0
  0
LINE
  5
86FC
330
18
100
AcDbEntity
  8
0
100
AcDbLine
 10
355.7083821284105
 20
749.9370673185535
 30
0.0
 11
367.2083821284105
 21
749.9370673185535
 31
0.0
  0
ARC
  5
86FD
330
18
100
AcDbEntity
  8
0
100
AcDbCircle
 10
355.7083821284105
 20
751.6870673185535
 30
0.0
 40
1.75
100
AcDbArc
 50
90.0
 51
270.0
  0
ARC
  5
86FE
330
18
100
AcDbEntity
  8
0
100
AcDbCircle
 10
367.2083821284105
 20
751.6870673185535
 30
0.0
 40
1.75
100
AcDbArc
 50
270.0
 51
90.0
  0
LINE
  5
86FF
330
18
100
AcDbEntity
  8
0
100
AcDbLine
 10
377.7083821284105
 20
753.4370673185536
 30
0.0
 11
389.2083821284105
 21
753.4370673185535
 31
0.0
  0
LINE
  5
8700
330
18
100
AcDbEntity
  8
0
100
AcDbLine
 10
377.7083821284105
 20
749.9370673185535
 30
0.0
 11
389.2083821284105
 21
749.9370673185535
 31
0.0
  0
ARC
  5
8701
330
18
100
AcDbEntity
  8
0
100
AcDbCircle
 10
377.7083821284105
 20
751.6870673185535
 30
0.0
 40
1.75
100
AcDbArc
 50
90.0
 51
270.0
  0
LINE
  5
8702
330
18
100
AcDbEntity
  8
0
100
AcDbLine
 10
355.7083821284105
 20
759.9370673185537
 30
0.0
 11
367.2083821284105
 21
759.9370673185535
 31
0.0
  0
LINE
  5
8703
330
18
100
AcDbEntity
  8
0
100
AcDbLine
 10
355.7083821284105
 20
766.4370673185536
 30
0.0
 11
367.2083821284105
 21
766.4370673185535
 31
0.0
  0
LINE
  5
8704
330
18
100
AcDbEntity
  8
0
100
AcDbLine
 10
355.7083821284105
 20
762.9370673185535
 30
0.0
 11
367.2083821284105
 21
762.9370673185535
 31
0.0
  0
LINE
  5
8705
330
18
100
AcDbEntity
  8
0
100
AcDbLine
 10
355.7083821284105
 20
756.4370673185536
 30
0.0
 11
367.2083821284105
 21
756.4370673185536
 31
0.0
  0
ARC
  5
8706
330
18
100
AcDbEntity
  8
0
100
AcDbCircle
 10
355.7083821284105
 20
758.1870673185535
 30
0.0
 40
1.75
100
AcDbArc
 50
90.0
 51
270.0
  0
ARC
  5
8707
330
18
100
AcDbEntity
  8
0
100
AcDbCircle
 10
355.7083821284105
 20
764.6870673185535
 30
0.0
 40
1.75
100
AcDbArc
 50
90.0
 51
270.0
  0
ARC
  5
8708
330
18
100
AcDbEntity
  8
0
100
AcDbCircle
 10
367.2083821284105
 20
758.1870673185535
 30
0.0
 40
1.75
100
AcDbArc
 50
270.0
 51
90.0
  0
ARC
  5
8709
330
18
100
AcDbEntity
  8
0
100
AcDbCircle
 10
367.2083821284105
 20
764.6870673185535
 30
0.0
 40
1.75
100
AcDbArc
 50
270.0
 51
90.0
  0
ARC
  5
870A
330
18
100
AcDbEntity
  8
0
100
AcDbCircle
 10
362.9583821284105
 20
771.6870673185536
 30
0.0
 40
3.249999999999876
100
AcDbArc
 50
22.61986494803852
 51
157.3801350519614
  0
LINE
  5
870B
330
18
100
AcDbEntity
  8
0
100
AcDbLine
 10
377.7083821284105
 20
759.9370673185537
 30
0.0
 11
389.2083821284105
 21
759.9370673185535
 31
0.0
  0
LINE
  5
870C
330
18
100
AcDbEntity
  8
0
100
AcDbLine
 10
377.7083821284105
 20
762.9370673185535
 30
0.0
 11
389.2083821284105
 21
762.9370673185535
 31
0.0
  0
LINE
  5
870D
330
18
100
AcDbEntity
  8
0
100
AcDbLine
 10
377.7083821284105
 20
766.4370673185536
 30
0.0
 11
389.2083821284105
 21
766.4370673185535
 31
0.0
  0
LINE
  5
870E
330
18
100
AcDbEntity
  8
0
100
AcDbLine
 10
377.7083821284105
 20
756.4370673185536
 30
0.0
 11
389.2083821284105
 21
756.4370673185536
 31
0.0
  0
ARC
  5
870F
330
18
100
AcDbEntity
  8
0
100
AcDbCircle
 10
377.7083821284105
 20
758.1870673185535
 30
0.0
 40
1.75
100
AcDbArc
 50
90.0
 51
270.0
  0
ARC
  5
8710
330
18
100
AcDbEntity
  8
0
100
AcDbCircle
 10
377.7083821284105
 20
764.6870673185535
 30
0.0
 40
1.75
100
AcDbArc
 50
90.0
 51
270.0
  0
LINE
  5
8711
330
18
100
AcDbEntity
  8
0
100
AcDbLine
 10
399.7083821284105
 20
753.4370673185536
 30
0.0
 11
411.2083821284105
 21
753.4370673185535
 31
0.0
  0
LINE
  5
8712
330
18
100
AcDbEntity
  8
0
100
AcDbLine
 10
399.7083821284105
 20
746.9370673185537
 30
0.0
 11
411.2083821284105
 21
746.9370673185535
 31
0.0
  0
LINE
  5
8713
330
18
100
AcDbEntity
  8
0
100
AcDbLine
 10
399.7083821284105
 20
749.9370673185535
 30
0.0
 11
411.2083821284105
 21
749.9370673185535
 31
0.0
  0
LINE
  5
8714
330
18
100
AcDbEntity
  8
0
100
AcDbLine
 10
399.7083821284105
 20
743.4370673185535
 30
0.0
 11
411.2083821284105
 21
743.4370673185535
 31
0.0
  0
LINE
  5
8715
330
18
100
AcDbEntity
  8
0
100
AcDbLine
 10
399.7083821284105
 20
740.4370673185536
 30
0.0
 11
411.2083821284105
 21
740.4370673185535
 31
0.0
  0
LINE
  5
8716
330
18
100
AcDbEntity
  8
0
100
AcDbLine
 10
399.7083821284105
 20
736.9370673185535
 30
0.0
 11
411.2083821284105
 21
736.9370673185535
 31
0.0
  0
LINE
  5
8717
330
18
100
AcDbEntity
  8
0
100
AcDbLine
 10
399.7083821284105
 20
733.9370673185536
 30
0.0
 11
411.2083821284105
 21
733.9370673185535
 31
0.0
  0
LINE
  5
8718
330
18
100
AcDbEntity
  8
0
100
AcDbLine
 10
399.7083821284105
 20
730.4370673185535
 30
0.0
 11
411.2083821284105
 21
730.4370673185535
 31
0.0
  0
LINE
  5
8719
330
18
100
AcDbEntity
  8
0
100
AcDbLine
 10
399.7083821284105
 20
727.4370673185536
 30
0.0
 11
411.2083821284105
 21
727.4370673185535
 31
0.0
  0
ARC
  5
871A
330
18
100
AcDbEntity
  8
0
100
AcDbCircle
 10
399.7083821284105
 20
738.6870673185535
 30
0.0
 40
1.75
100
AcDbArc
 50
90.0
 51
270.0
  0
ARC
  5
871B
330
18
100
AcDbEntity
  8
0
100
AcDbCircle
 10
399.7083821284105
 20
732.1870673185535
 30
0.0
 40
1.75
100
AcDbArc
 50
90.0
 51
270.0
  0
ARC
  5
871C
330
18
100
AcDbEntity
  8
0
100
AcDbCircle
 10
399.7083821284105
 20
751.6870673185535
 30
0.0
 40
1.75
100
AcDbArc
 50
90.0
 51
270.0
  0
ARC
  5
871D
330
18
100
AcDbEntity
  8
0
100
AcDbCircle
 10
399.7083821284105
 20
745.1870673185535
 30
0.0
 40
1.75
100
AcDbArc
 50
90.0
 51
270.0
  0
ARC
  5
871E
330
18
100
AcDbEntity
  8
0
100
AcDbCircle
 10
421.7083821284105
 20
738.6870673185535
 30
0.0
 40
1.75
100
AcDbArc
 50
90.0
 51
270.0
  0
ARC
  5
871F
330
18
100
AcDbEntity
  8
0
100
AcDbCircle
 10
411.2083821284105
 20
738.6870673185535
 30
0.0
 40
1.75
100
AcDbArc
 50
270.0
 51
90.0
  0
ARC
  5
8720
330
18
100
AcDbEntity
  8
0
100
AcDbCircle
 10
411.2083821284105
 20
732.1870673185535
 30
0.0
 40
1.75
100
AcDbArc
 50
270.0
 51
90.0
  0
ARC
  5
8721
330
18
100
AcDbEntity
  8
0
100
AcDbCircle
 10
421.7083821284105
 20
732.1870673185535
 30
0.0
 40
1.75
100
AcDbArc
 50
90.0
 51
270.0
  0
ARC
  5
8722
330
18
100
AcDbEntity
  8
0
100
AcDbCircle
 10
411.2083821284105
 20
745.1870673185535
 30
0.0
 40
1.75
100
AcDbArc
 50
270.0
 51
90.0
  0
ARC
  5
8723
330
18
100
AcDbEntity
  8
0
100
AcDbCircle
 10
411.2083821284105
 20
751.6870673185535
 30
0.0
 40
1.75
100
AcDbArc
 50
270.0
 51
90.0
  0
ARC
  5
8724
330
18
100
AcDbEntity
  8
0
100
AcDbCircle
 10
421.7083821284105
 20
745.1870673185535
 30
0.0
 40
1.75
100
AcDbArc
 50
90.0
 51
270.0
  0
ARC
  5
8725
330
18
100
AcDbEntity
  8
0
100
AcDbCircle
 10
421.7083821284105
 20
751.6870673185535
 30
0.0
 40
1.75
100
AcDbArc
 50
90.0
 51
270.0
  0
LINE
  5
8726
330
18
100
AcDbEntity
  8
0
100
AcDbLine
 10
399.7083821284105
 20
759.9370673185537
 30
0.0
 11
411.2083821284105
 21
759.9370673185535
 31
0.0
  0
LINE
  5
8727
330
18
100
AcDbEntity
  8
0
100
AcDbLine
 10
399.7083821284105
 20
766.4370673185536
 30
0.0
 11
411.2083821284105
 21
766.4370673185535
 31
0.0
  0
LINE
  5
8728
330
18
100
AcDbEntity
  8
0
100
AcDbLine
 10
399.7083821284105
 20
762.9370673185535
 30
0.0
 11
411.2083821284105
 21
762.9370673185535
 31
0.0
  0
LINE
  5
8729
330
18
100
AcDbEntity
  8
0
100
AcDbLine
 10
399.7083821284105
 20
756.4370673185536
 30
0.0
 11
411.2083821284105
 21
756.4370673185536
 31
0.0
  0
ARC
  5
872A
330
18
100
AcDbEntity
  8
0
100
AcDbCircle
 10
399.7083821284105
 20
764.6870673185535
 30
0.0
 40
1.75
100
AcDbArc
 50
90.0
 51
270.0
  0
ARC
  5
872B
330
18
100
AcDbEntity
  8
0
100
AcDbCircle
 10
399.7083821284105
 20
758.1870673185535
 30
0.0
 40
1.75
100
AcDbArc
 50
90.0
 51
270.0
  0
ARC
  5
872C
330
18
100
AcDbEntity
  8
0
100
AcDbCircle
 10
411.2083821284105
 20
758.1870673185535
 30
0.0
 40
1.75
100
AcDbArc
 50
270.0
 51
90.0
  0
ARC
  5
872D
330
18
100
AcDbEntity
  8
0
100
AcDbCircle
 10
411.2083821284105
 20
764.6870673185535
 30
0.0
 40
1.75
100
AcDbArc
 50
270.0
 51
90.0
  0
ARC
  5
872E
330
18
100
AcDbEntity
  8
0
100
AcDbCircle
 10
421.7083821284105
 20
758.1870673185535
 30
0.0
 40
1.75
100
AcDbArc
 50
90.0
 51
270.0
  0
ARC
  5
872F
330
18
100
AcDbEntity
  8
0
100
AcDbCircle
 10
421.7083821284105
 20
764.6870673185535
 30
0.0
 40
1.75
100
AcDbArc
 50
90.0
 51
270.0
  0
LINE
  5
8730
330
18
100
AcDbEntity
  8
0
100
AcDbLine
 10
371.4583821284105
 20
825.9882292775401
 30
0.0
 11
368.4583821284105
 21
825.9882292775401
 31
0.0
  0
LINE
  5
8731
330
18
100
AcDbEntity
  8
0
100
AcDbLine
 10
360.9583821284105
 20
823.9882292775401
 30
0.0
 11
360.9583821284105
 21
837.98822927754
 31
0.0
  0
CIRCLE
  5
8732
330
18
100
AcDbEntity
  8
0
100
AcDbCircle
 10
353.2083821284105
 20
826.9882292775401
 30
0.0
 40
0.5
  0
CIRCLE
  5
8733
330
18
100
AcDbEntity
  8
0
100
AcDbCircle
 10
355.7083821284105
 20
826.9882292775401
 30
0.0
 40
0.5
  0
LINE
  5
8734
330
18
100
AcDbEntity
  8
0
100
AcDbLine
 10
365.9583821284105
 20
825.9882292775401
 30
0.0
 11
362.9583821284105
 21
825.9882292775401
 31
0.0
  0
CIRCLE
  5
8735
330
18
100
AcDbEntity
  8
0
100
AcDbCircle
 10
353.2083821284105
 20
830.4882292775401
 30
0.0
 40
0.5
  0
CIRCLE
  5
8736
330
18
100
AcDbEntity
  8
0
100
AcDbCircle
 10
355.7083821284105
 20
830.4882292775401
 30
0.0
 40
0.5
  0
LINE
  5
8737
330
18
100
AcDbEntity
  8
0
100
AcDbLine
 10
382.4583821284105
 20
825.9882292775401
 30
0.0
 11
379.4583821284105
 21
825.9882292775401
 31
0.0
  0
LINE
  5
8738
330
18
100
AcDbEntity
  8
0
100
AcDbLine
 10
376.9583821284105
 20
825.9882292775401
 30
0.0
 11
373.9583821284105
 21
825.9882292775401
 31
0.0
  0
LINE
  5
8739
330
18
100
AcDbEntity
  8
0
100
AcDbLine
 10
387.9583821284105
 20
825.9882292775401
 30
0.0
 11
384.9583821284105
 21
825.9882292775401
 31
0.0
  0
LINE
  5
873A
330
18
100
AcDbEntity
  8
0
100
AcDbLine
 10
409.9583821284105
 20
825.9882292775401
 30
0.0
 11
406.9583821284105
 21
825.9882292775401
 31
0.0
  0
LINE
  5
873B
330
18
100
AcDbEntity
  8
0
100
AcDbLine
 10
398.9583821284105
 20
825.9882292775401
 30
0.0
 11
395.9583821284105
 21
825.9882292775401
 31
0.0
  0
LINE
  5
873C
330
18
100
AcDbEntity
  8
0
100
AcDbLine
 10
393.4583821284105
 20
825.9882292775401
 30
0.0
 11
390.4583821284105
 21
825.9882292775401
 31
0.0
  0
LINE
  5
873D
330
18
100
AcDbEntity
  8
0
100
AcDbLine
 10
404.4583821284105
 20
825.9882292775401
 30
0.0
 11
401.4583821284105
 21
825.9882292775401
 31
0.0
  0
LINE
  5
873E
330
18
100
AcDbEntity
  8
0
100
AcDbLine
 10
415.4583821284105
 20
825.9882292775401
 30
0.0
 11
412.4583821284105
 21
825.9882292775401
 31
0.0
  0
LINE
  5
873F
330
18
100
AcDbEntity
  8
0
100
AcDbLine
 10
420.9583821284105
 20
825.9882292775401
 30
0.0
 11
417.9583821284105
 21
825.9882292775401
 31
0.0
  0
LINE
  5
8740
330
18
100
AcDbEntity
  8
0
100
AcDbLine
 10
426.4583821284105
 20
825.9882292775401
 30
0.0
 11
423.4583821284105
 21
825.9882292775401
 31
0.0
  0
ARC
  5
8741
330
18
100
AcDbEntity
  8
0
100
AcDbCircle
 10
433.2083821284105
 20
738.6870673185535
 30
0.0
 40
1.75
100
AcDbArc
 50
270.0
 51
90.0
  0
ARC
  5
8742
330
18
100
AcDbEntity
  8
0
100
AcDbCircle
 10
433.2083821284105
 20
732.1870673185535
 30
0.0
 40
1.75
100
AcDbArc
 50
270.0
 51
90.0
  0
ARC
  5
8743
330
18
100
AcDbEntity
  8
0
100
AcDbCircle
 10
433.2083821284105
 20
745.1870673185535
 30
0.0
 40
1.75
100
AcDbArc
 50
270.0
 51
90.0
  0
ARC
  5
8744
330
18
100
AcDbEntity
  8
0
100
AcDbCircle
 10
433.2083821284105
 20
751.6870673185535
 30
0.0
 40
1.75
100
AcDbArc
 50
270.0
 51
90.0
  0
ARC
  5
8745
330
18
100
AcDbEntity
  8
0
100
AcDbCircle
 10
433.2083821284105
 20
758.1870673185535
 30
0.0
 40
1.75
100
AcDbArc
 50
270.0
 51
90.0
  0
ARC
  5
8746
330
18
100
AcDbEntity
  8
0
100
AcDbCircle
 10
433.2083821284105
 20
764.6870673185535
 30
0.0
 40
1.75
100
AcDbArc
 50
270.0
 51
90.0
  0
LINE
  5
8747
330
18
100
AcDbEntity
  8
0
100
AcDbLine
 10
438.9583821284105
 20
787.9370673185535
 30
0.0
 11
440.9583821284106
 21
787.9370673185535
 31
0.0
  0
LINE
  5
8748
330
18
100
AcDbEntity
  8
0
100
AcDbLine
 10
431.9583821284105
 20
825.9882292775401
 30
0.0
 11
428.9583821284105
 21
825.9882292775401
 31
0.0
  0
LINE
  5
8749
330
18
100
AcDbEntity
  8
0
100
AcDbLine
 10
438.9583821284105
 20
822.98822927754
 30
0.0
 11
438.9583821284105
 21
818.9882292775401
 31
0.0
  0
LINE
  5
874A
330
18
100
AcDbEntity
  8
0
100
AcDbLine
 10
437.9583821284105
 20
822.98822927754
 30
0.0
 11
437.9583821284105
 21
819.98822927754
 31
0.0
  0
LINE
  5
874B
330
18
100
AcDbEntity
  8
0
100
AcDbLine
 10
438.9583821284105
 20
823.9882292775401
 30
0.0
 11
438.9583821284105
 21
818.9882292775401
 31
0.0
  0
LINE
  5
874C
330
18
100
AcDbEntity
  8
0
100
AcDbLine
 10
440.9583821284106
 20
818.9882292775401
 30
0.0
 11
438.9583821284105
 21
818.9882292775401
 31
0.0
  0
LINE
  5
874D
330
18
100
AcDbEntity
  8
0
100
AcDbLine
 10
436.9583821284106
 20
819.98822927754
 30
0.0
 11
438.9583821284105
 21
819.98822927754
 31
0.0
  0
LINE
  5
874E
330
18
100
AcDbEntity
  8
0
100
AcDbLine
 10
437.9583821284105
 20
822.98822927754
 30
0.0
 11
438.9583821284105
 21
822.98822927754
 31
0.0
  0
ARC
  5
874F
330
18
100
AcDbEntity
  8
0
100
AcDbCircle
 10
426.9583821284105
 20
912.7882292775399
 30
0.0
 40
1.199999999999999
100
AcDbArc
 50
0.0
 51
180.0
  0
LINE
  5
8750
330
18
100
AcDbEntity
  8
0
100
AcDbLine
 10
435.9583821284105
 20
869.9882292775399
 30
0.0
 11
423.9583821284107
 21
869.9882292775399
 31
0.0
  0
LINE
  5
8751
330
18
100
AcDbEntity
  8
0
100
AcDbLine
 10
436.9583821284106
 20
871.98822927754
 30
0.0
 11
367.9583821284105
 21
871.98822927754
 31
0.0
  0
LINE
  5
8752
330
18
100
AcDbEntity
  8
0
100
AcDbLine
 10
416.9043691877017
 20
885.9326951430594
 30
0.0
 11
416.1583821284105
 21
912.7882292775399
 31
0.0
  0
LINE
  5
8753
330
18
100
AcDbEntity
  8
0
100
AcDbLine
 10
413.7583821284104
 20
912.7882292775399
 30
0.0
 11
413.0123950691194
 21
885.9326951430594
 31
0.0
  0
LINE
  5
8754
330
18
100
AcDbEntity
  8
0
100
AcDbLine
 10
425.7583821284105
 20
912.7882292775399
 30
0.0
 11
425.0123950691194
 21
885.9326951430594
 31
0.0
  0
LINE
  5
8755
330
18
100
AcDbEntity
  8
0
100
AcDbLine
 10
404.9043691877017
 20
885.9326951430594
 30
0.0
 11
404.1583821284105
 21
912.7882292775399
 31
0.0
  0
LINE
  5
8756
330
18
100
AcDbEntity
  8
0
100
AcDbLine
 10
401.7583821284104
 20
912.7882292775399
 30
0.0
 11
401.0123950691194
 21
885.9326951430594
 31
0.0
  0
LINE
  5
8757
330
18
100
AcDbEntity
  8
0
100
AcDbLine
 10
392.9043691877017
 20
885.9326951430594
 30
0.0
 11
392.1583821284106
 21
912.7882292775399
 31
0.0
  0
LINE
  5
8758
330
18
100
AcDbEntity
  8
0
100
AcDbLine
 10
380.9043691877017
 20
885.9326951430594
 30
0.0
 11
380.1583821284106
 21
912.7882292775399
 31
0.0
  0
LINE
  5
8759
330
18
100
AcDbEntity
  8
0
100
AcDbLine
 10
377.7583821284105
 20
912.7882292775399
 30
0.0
 11
377.0123950691194
 21
885.9326951430594
 31
0.0
  0
LINE
  5
875A
330
18
100
AcDbEntity
  8
0
100
AcDbLine
 10
389.7583821284105
 20
912.7882292775399
 30
0.0
 11
389.0123950691194
 21
885.9326951430594
 31
0.0
  0
LINE
  5
875B
330
18
100
AcDbEntity
  8
0
100
AcDbLine
 10
356.9043691877017
 20
885.9326951430592
 30
0.0
 11
356.1583821284106
 21
912.7882292775399
 31
0.0
  0
LINE
  5
875C
330
18
100
AcDbEntity
  8
0
100
AcDbLine
 10
353.7583821284105
 20
912.7882292775399
 30
0.0
 11
353.0123950691194
 21
885.9326951430594
 31
0.0
  0
LINE
  5
875D
330
18
100
AcDbEntity
  8
0
100
AcDbLine
 10
368.9043691877017
 20
885.9326951430594
 30
0.0
 11
368.1583821284106
 21
912.7882292775399
 31
0.0
  0
LINE
  5
875E
330
18
100
AcDbEntity
  8
0
100
AcDbLine
 10
365.7583821284105
 20
912.7882292775399
 30
0.0
 11
365.0123950691193
 21
885.9326951430594
 31
0.0
  0
ARC
  5
875F
330
18
100
AcDbEntity
  8
0
100
AcDbCircle
 10
387.0131662278139
 20
885.9882292775401
 30
0.0
 40
2.0
100
AcDbArc
 50
270.0
 51
358.4088597288058
  0
LINE
  5
8760
330
18
100
AcDbEntity
  8
0
100
AcDbLine
 10
371.4583821284105
 20
859.9882292775399
 30
0.0
 11
368.4583821284105
 21
859.9882292775399
 31
0.0
  0
LINE
  5
8761
330
18
100
AcDbEntity
  8
0
100
AcDbLine
 10
371.4583821284105
 20
842.9882292775401
 30
0.0
 11
368.4583821284105
 21
842.9882292775401
 31
0.0
  0
LINE
  5
8762
330
18
100
AcDbEntity
  8
0
100
AcDbLine
 10
371.4583821284105
 20
849.9882292775399
 30
0.0
 11
368.4583821284105
 21
849.9882292775399
 31
0.0
  0
LINE
  5
8763
330
18
100
AcDbEntity
  8
0
100
AcDbLine
 10
362.9583821284105
 20
849.9882292775399
 30
0.0
 11
362.9583821284105
 21
859.9882292775399
 31
0.0
  0
LINE
  5
8764
330
18
100
AcDbEntity
  8
0
100
AcDbLine
 10
368.4583821284105
 20
849.9882292775399
 30
0.0
 11
368.4583821284105
 21
859.9882292775399
 31
0.0
  0
LINE
  5
8765
330
18
100
AcDbEntity
  8
0
100
AcDbLine
 10
365.9583821284105
 20
849.9882292775399
 30
0.0
 11
365.9583821284105
 21
859.9882292775399
 31
0.0
  0
LINE
  5
8766
330
18
100
AcDbEntity
  8
0
100
AcDbLine
 10
354.9583821284105
 20
849.9882292775401
 30
0.0
 11
354.9583821284105
 21
859.9882292775401
 31
0.0
  0
LINE
  5
8767
330
18
100
AcDbEntity
  8
0
100
AcDbLine
 10
357.4583821284105
 20
849.9882292775399
 30
0.0
 11
357.4583821284105
 21
859.9882292775399
 31
0.0
  0
LINE
  5
8768
330
18
100
AcDbEntity
  8
0
100
AcDbLine
 10
360.4583821284105
 20
849.9882292775399
 30
0.0
 11
360.4583821284105
 21
859.9882292775399
 31
0.0
  0
LINE
  5
8769
330
18
100
AcDbEntity
  8
0
100
AcDbLine
 10
360.4583821284105
 20
849.9882292775399
 30
0.0
 11
357.4583821284105
 21
849.9882292775399
 31
0.0
  0
LINE
  5
876A
330
18
100
AcDbEntity
  8
0
100
AcDbLine
 10
365.9583821284105
 20
842.9882292775401
 30
0.0
 11
362.9583821284105
 21
842.9882292775401
 31
0.0
  0
LINE
  5
876B
330
18
100
AcDbEntity
  8
0
100
AcDbLine
 10
365.9583821284105
 20
849.9882292775399
 30
0.0
 11
362.9583821284105
 21
849.9882292775399
 31
0.0
  0
LINE
  5
876C
330
18
100
AcDbEntity
  8
0
100
AcDbLine
 10
361.0218904553065
 20
865.9882292775401
 30
0.0
 11
362.4583821284103
 21
865.9882292775401
 31
0.0
  0
LINE
  5
876D
330
18
100
AcDbEntity
  8
0
100
AcDbLine
 10
361.0218904553065
 20
864.98822927754
 30
0.0
 11
362.4583821284103
 21
864.98822927754
 31
0.0
  0
CIRCLE
  5
876E
330
18
100
AcDbEntity
  8
0
100
AcDbCircle
 10
362.9583821284103
 20
865.48822927754
 30
0.0
 40
3.0
  0
LINE
  5
876F
330
18
100
AcDbEntity
  8
0
100
AcDbLine
 10
361.0218904553065
 20
864.98822927754
 30
0.0
 11
361.0218904553065
 21
865.9882292775401
 31
0.0
  0
LINE
  5
8770
330
18
100
AcDbEntity
  8
0
100
AcDbLine
 10
360.4583821284105
 20
859.9882292775399
 30
0.0
 11
357.4583821284105
 21
859.9882292775399
 31
0.0
  0
LINE
  5
8771
330
18
100
AcDbEntity
  8
0
100
AcDbLine
 10
357.9583821284105
 20
871.98822927754
 30
0.0
 11
357.9583821284105
 21
869.98822927754
 31
0.0
  0
LINE
  5
8772
330
18
100
AcDbEntity
  8
0
100
AcDbLine
 10
364.8948738015141
 20
865.9882292775401
 30
0.0
 11
364.8948738015141
 21
864.98822927754
 31
0.0
  0
LINE
  5
8773
330
18
100
AcDbEntity
  8
0
100
AcDbLine
 10
365.9583821284105
 20
859.9882292775399
 30
0.0
 11
362.9583821284105
 21
859.9882292775399
 31
0.0
  0
LINE
  5
8774
330
18
100
AcDbEntity
  8
0
100
AcDbLine
 10
363.4583821284103
 20
863.5517376044363
 30
0.0
 11
362.4583821284103
 21
863.5517376044363
 31
0.0
  0
LINE
  5
8775
330
18
100
AcDbEntity
  8
0
100
AcDbLine
 10
362.4583821284103
 20
863.5517376044363
 30
0.0
 11
362.4583821284103
 21
864.98822927754
 31
0.0
  0
LINE
  5
8776
330
18
100
AcDbEntity
  8
0
100
AcDbLine
 10
363.4583821284103
 20
863.5517376044363
 30
0.0
 11
363.4583821284103
 21
864.98822927754
 31
0.0
  0
LINE
  5
8777
330
18
100
AcDbEntity
  8
0
100
AcDbLine
 10
363.4583821284103
 20
864.98822927754
 30
0.0
 11
364.8948738015141
 21
864.98822927754
 31
0.0
  0
LINE
  5
8778
330
18
100
AcDbEntity
  8
0
100
AcDbLine
 10
362.4583821284103
 20
867.4247209506438
 30
0.0
 11
363.4583821284103
 21
867.4247209506438
 31
0.0
  0
LINE
  5
8779
330
18
100
AcDbEntity
  8
0
100
AcDbLine
 10
362.4583821284103
 20
865.9882292775401
 30
0.0
 11
362.4583821284103
 21
867.4247209506438
 31
0.0
  0
LINE
  5
877A
330
18
100
AcDbEntity
  8
0
100
AcDbLine
 10
363.4583821284103
 20
865.9882292775401
 30
0.0
 11
364.8948738015141
 21
865.9882292775401
 31
0.0
  0
LINE
  5
877B
330
18
100
AcDbEntity
  8
0
100
AcDbLine
 10
363.4583821284103
 20
865.9882292775401
 30
0.0
 11
363.4583821284103
 21
867.4247209506438
 31
0.0
  0
LINE
  5
877C
330
18
100
AcDbEntity
  8
0
100
AcDbLine
 10
367.9583821284105
 20
871.98822927754
 30
0.0
 11
367.9583821284105
 21
869.98822927754
 31
0.0
  0
LINE
  5
877D
330
18
100
AcDbEntity
  8
0
100
AcDbLine
 10
384.9583821284105
 20
849.9882292775399
 30
0.0
 11
384.9583821284105
 21
866.9882292775399
 31
0.0
  0
LINE
  5
877E
330
18
100
AcDbEntity
  8
0
100
AcDbLine
 10
387.9583821284105
 20
849.9882292775399
 30
0.0
 11
387.9583821284105
 21
866.9882292775399
 31
0.0
  0
LINE
  5
877F
330
18
100
AcDbEntity
  8
0
100
AcDbLine
 10
382.4583821284105
 20
849.9882292775399
 30
0.0
 11
382.4583821284105
 21
866.9882292775399
 31
0.0
  0
LINE
  5
8780
330
18
100
AcDbEntity
  8
0
100
AcDbLine
 10
373.9583821284105
 20
849.9882292775399
 30
0.0
 11
373.9583821284105
 21
866.9882292775399
 31
0.0
  0
LINE
  5
8781
330
18
100
AcDbEntity
  8
0
100
AcDbLine
 10
376.9583821284105
 20
849.9882292775399
 30
0.0
 11
376.9583821284105
 21
866.9882292775399
 31
0.0
  0
LINE
  5
8782
330
18
100
AcDbEntity
  8
0
100
AcDbLine
 10
379.4583821284105
 20
849.9882292775399
 30
0.0
 11
379.4583821284105
 21
866.9882292775399
 31
0.0
  0
LINE
  5
8783
330
18
100
AcDbEntity
  8
0
100
AcDbLine
 10
371.4583821284105
 20
849.9882292775399
 30
0.0
 11
371.4583821284105
 21
859.9882292775399
 31
0.0
  0
LINE
  5
8784
330
18
100
AcDbEntity
  8
0
100
AcDbLine
 10
382.4583821284105
 20
842.9882292775401
 30
0.0
 11
379.4583821284105
 21
842.9882292775401
 31
0.0
  0
LINE
  5
8785
330
18
100
AcDbEntity
  8
0
100
AcDbLine
 10
382.4583821284105
 20
849.9882292775399
 30
0.0
 11
379.4583821284105
 21
849.9882292775399
 31
0.0
  0
LINE
  5
8786
330
18
100
AcDbEntity
  8
0
100
AcDbLine
 10
376.9583821284105
 20
842.9882292775401
 30
0.0
 11
373.9583821284105
 21
842.9882292775401
 31
0.0
  0
LINE
  5
8787
330
18
100
AcDbEntity
  8
0
100
AcDbLine
 10
376.9583821284105
 20
849.9882292775399
 30
0.0
 11
373.9583821284105
 21
849.9882292775399
 31
0.0
  0
LINE
  5
8788
330
18
100
AcDbEntity
  8
0
100
AcDbLine
 10
387.9583821284105
 20
842.9882292775401
 30
0.0
 11
384.9583821284105
 21
842.9882292775401
 31
0.0
  0
LINE
  5
8789
330
18
100
AcDbEntity
  8
0
100
AcDbLine
 10
387.9583821284105
 20
849.9882292775399
 30
0.0
 11
384.9583821284105
 21
849.9882292775399
 31
0.0
  0
LINE
  5
878A
330
18
100
AcDbEntity
  8
0
100
AcDbLine
 10
382.4583821284105
 20
866.9882292775399
 30
0.0
 11
379.4583821284105
 21
866.9882292775399
 31
0.0
  0
LINE
  5
878B
330
18
100
AcDbEntity
  8
0
100
AcDbLine
 10
376.9583821284105
 20
866.9882292775399
 30
0.0
 11
373.9583821284105
 21
866.9882292775399
 31
0.0
  0
LINE
  5
878C
330
18
100
AcDbEntity
  8
0
100
AcDbLine
 10
387.9583821284105
 20
866.9882292775399
 30
0.0
 11
384.9583821284105
 21
866.9882292775399
 31
0.0
  0
ARC
  5
878D
330
18
100
AcDbEntity
  8
0
100
AcDbCircle
 10
370.9035980290071
 20
885.9882292775401
 30
0.0
 40
2.0
100
AcDbArc
 50
181.5911402711942
 51
270.0
  0
LINE
  5
878E
330
18
100
AcDbEntity
  8
0
100
AcDbLine
 10
358.9035980290071
 20
883.9882292775397
 30
0.0
 11
363.0131662278139
 21
883.9882292775397
 31
0.0
  0
ARC
  5
878F
330
18
100
AcDbEntity
  8
0
100
AcDbCircle
 10
358.9035980290071
 20
885.9882292775399
 30
0.0
 40
2.0
100
AcDbArc
 50
181.5911402711942
 51
270.0
  0
ARC
  5
8790
330
18
100
AcDbEntity
  8
0
100
AcDbCircle
 10
363.0131662278139
 20
885.9882292775401
 30
0.0
 40
2.0
100
AcDbArc
 50
270.0
 51
358.4088597288058
  0
ARC
  5
8791
330
18
100
AcDbEntity
  8
0
100
AcDbCircle
 10
375.0131662278139
 20
885.9882292775401
 30
0.0
 40
2.0
100
AcDbArc
 50
270.0
 51
358.4088597288058
  0
LINE
  5
8792
330
18
100
AcDbEntity
  8
0
100
AcDbLine
 10
370.9035980290071
 20
883.9882292775401
 30
0.0
 11
375.0131662278139
 21
883.9882292775401
 31
0.0
  0
LINE
  5
8793
330
18
100
AcDbEntity
  8
0
100
AcDbLine
 10
382.9035980290072
 20
883.9882292775401
 30
0.0
 11
387.0131662278139
 21
883.9882292775401
 31
0.0
  0
ARC
  5
8794
330
18
100
AcDbEntity
  8
0
100
AcDbCircle
 10
382.9035980290072
 20
885.9882292775401
 30
0.0
 40
2.0
100
AcDbArc
 50
181.5911402711942
 51
270.0
  0
LINE
  5
8795
330
18
100
AcDbEntity
  8
0
100
AcDbLine
 10
409.9583821284105
 20
866.9882292775399
 30
0.0
 11
406.9583821284105
 21
866.9882292775399
 31
0.0
  0
LINE
  5
8796
330
18
100
AcDbEntity
  8
0
100
AcDbLine
 10
409.9583821284105
 20
842.9882292775401
 30
0.0
 11
406.9583821284105
 21
842.9882292775401
 31
0.0
  0
LINE
  5
8797
330
18
100
AcDbEntity
  8
0
100
AcDbLine
 10
409.9583821284105
 20
849.9882292775399
 30
0.0
 11
406.9583821284105
 21
849.9882292775399
 31
0.0
  0
LINE
  5
8798
330
18
100
AcDbEntity
  8
0
100
AcDbLine
 10
395.9583821284105
 20
849.9882292775399
 30
0.0
 11
395.9583821284105
 21
866.9882292775399
 31
0.0
  0
LINE
  5
8799
330
18
100
AcDbEntity
  8
0
100
AcDbLine
 10
398.9583821284105
 20
849.9882292775399
 30
0.0
 11
398.9583821284105
 21
866.9882292775399
 31
0.0
  0
LINE
  5
879A
330
18
100
AcDbEntity
  8
0
100
AcDbLine
 10
401.4583821284105
 20
849.9882292775399
 30
0.0
 11
401.4583821284105
 21
866.9882292775399
 31
0.0
  0
LINE
  5
879B
330
18
100
AcDbEntity
  8
0
100
AcDbLine
 10
404.4583821284105
 20
849.9882292775399
 30
0.0
 11
404.4583821284105
 21
866.9882292775399
 31
0.0
  0
LINE
  5
879C
330
18
100
AcDbEntity
  8
0
100
AcDbLine
 10
406.9583821284105
 20
849.9882292775399
 30
0.0
 11
406.9583821284105
 21
866.9882292775399
 31
0.0
  0
LINE
  5
879D
330
18
100
AcDbEntity
  8
0
100
AcDbLine
 10
390.4583821284105
 20
849.9882292775399
 30
0.0
 11
390.4583821284105
 21
866.9882292775399
 31
0.0
  0
LINE
  5
879E
330
18
100
AcDbEntity
  8
0
100
AcDbLine
 10
393.4583821284105
 20
849.9882292775399
 30
0.0
 11
393.4583821284105
 21
866.9882292775399
 31
0.0
  0
LINE
  5
879F
330
18
100
AcDbEntity
  8
0
100
AcDbLine
 10
398.9583821284105
 20
842.9882292775401
 30
0.0
 11
395.9583821284105
 21
842.9882292775401
 31
0.0
  0
LINE
  5
87A0
330
18
100
AcDbEntity
  8
0
100
AcDbLine
 10
398.9583821284105
 20
849.9882292775399
 30
0.0
 11
395.9583821284105
 21
849.9882292775399
 31
0.0
  0
LINE
  5
87A1
330
18
100
AcDbEntity
  8
0
100
AcDbLine
 10
393.4583821284105
 20
842.9882292775401
 30
0.0
 11
390.4583821284105
 21
842.9882292775401
 31
0.0
  0
LINE
  5
87A2
330
18
100
AcDbEntity
  8
0
100
AcDbLine
 10
393.4583821284105
 20
849.9882292775399
 30
0.0
 11
390.4583821284105
 21
849.9882292775399
 31
0.0
  0
LINE
  5
87A3
330
18
100
AcDbEntity
  8
0
100
AcDbLine
 10
404.4583821284105
 20
842.9882292775401
 30
0.0
 11
401.4583821284105
 21
842.9882292775401
 31
0.0
  0
LINE
  5
87A4
330
18
100
AcDbEntity
  8
0
100
AcDbLine
 10
404.4583821284105
 20
849.9882292775399
 30
0.0
 11
401.4583821284105
 21
849.9882292775399
 31
0.0
  0
LINE
  5
87A5
330
18
100
AcDbEntity
  8
0
100
AcDbLine
 10
398.9583821284105
 20
866.9882292775399
 30
0.0
 11
395.9583821284105
 21
866.9882292775399
 31
0.0
  0
LINE
  5
87A6
330
18
100
AcDbEntity
  8
0
100
AcDbLine
 10
393.4583821284105
 20
866.9882292775399
 30
0.0
 11
390.4583821284105
 21
866.9882292775399
 31
0.0
  0
LINE
  5
87A7
330
18
100
AcDbEntity
  8
0
100
AcDbLine
 10
404.4583821284105
 20
866.9882292775399
 30
0.0
 11
401.4583821284105
 21
866.9882292775399
 31
0.0
  0
LINE
  5
87A8
330
18
100
AcDbEntity
  8
0
100
AcDbLine
 10
420.9583821284105
 20
849.9882292775399
 30
0.0
 11
420.9583821284105
 21
866.9882292775399
 31
0.0
  0
LINE
  5
87A9
330
18
100
AcDbEntity
  8
0
100
AcDbLine
 10
423.4583821284105
 20
849.9882292775399
 30
0.0
 11
423.4583821284105
 21
866.9882292775399
 31
0.0
  0
LINE
  5
87AA
330
18
100
AcDbEntity
  8
0
100
AcDbLine
 10
426.4583821284105
 20
849.9882292775399
 30
0.0
 11
426.4583821284105
 21
866.9882292775399
 31
0.0
  0
LINE
  5
87AB
330
18
100
AcDbEntity
  8
0
100
AcDbLine
 10
417.9583821284105
 20
849.9882292775399
 30
0.0
 11
417.9583821284105
 21
866.9882292775399
 31
0.0
  0
LINE
  5
87AC
330
18
100
AcDbEntity
  8
0
100
AcDbLine
 10
409.9583821284105
 20
849.9882292775399
 30
0.0
 11
409.9583821284105
 21
866.9882292775399
 31
0.0
  0
LINE
  5
87AD
330
18
100
AcDbEntity
  8
0
100
AcDbLine
 10
412.4583821284105
 20
849.9882292775399
 30
0.0
 11
412.4583821284105
 21
866.9882292775399
 31
0.0
  0
LINE
  5
87AE
330
18
100
AcDbEntity
  8
0
100
AcDbLine
 10
415.4583821284105
 20
849.9882292775399
 30
0.0
 11
415.4583821284105
 21
866.9882292775399
 31
0.0
  0
LINE
  5
87AF
330
18
100
AcDbEntity
  8
0
100
AcDbLine
 10
415.4583821284105
 20
842.9882292775401
 30
0.0
 11
412.4583821284105
 21
842.9882292775401
 31
0.0
  0
LINE
  5
87B0
330
18
100
AcDbEntity
  8
0
100
AcDbLine
 10
415.4583821284105
 20
849.9882292775399
 30
0.0
 11
412.4583821284105
 21
849.9882292775399
 31
0.0
  0
LINE
  5
87B1
330
18
100
AcDbEntity
  8
0
100
AcDbLine
 10
420.9583821284105
 20
842.9882292775401
 30
0.0
 11
417.9583821284105
 21
842.9882292775401
 31
0.0
  0
LINE
  5
87B2
330
18
100
AcDbEntity
  8
0
100
AcDbLine
 10
420.9583821284105
 20
849.9882292775399
 30
0.0
 11
417.9583821284105
 21
849.9882292775399
 31
0.0
  0
LINE
  5
87B3
330
18
100
AcDbEntity
  8
0
100
AcDbLine
 10
426.4583821284105
 20
842.9882292775401
 30
0.0
 11
423.4583821284105
 21
842.9882292775401
 31
0.0
  0
LINE
  5
87B4
330
18
100
AcDbEntity
  8
0
100
AcDbLine
 10
426.4583821284105
 20
849.9882292775399
 30
0.0
 11
423.4583821284105
 21
849.9882292775399
 31
0.0
  0
LINE
  5
87B5
330
18
100
AcDbEntity
  8
0
100
AcDbLine
 10
413.9583821284108
 20
871.98822927754
 30
0.0
 11
423.9583821284107
 21
871.98822927754
 31
0.0
  0
LINE
  5
87B6
330
18
100
AcDbEntity
  8
0
100
AcDbLine
 10
413.9583821284108
 20
871.98822927754
 30
0.0
 11
423.9583821284107
 21
871.98822927754
 31
0.0
  0
LINE
  5
87B7
330
18
100
AcDbEntity
  8
0
100
AcDbLine
 10
415.4583821284105
 20
866.9882292775399
 30
0.0
 11
412.4583821284105
 21
866.9882292775399
 31
0.0
  0
LINE
  5
87B8
330
18
100
AcDbEntity
  8
0
100
AcDbLine
 10
413.9583821284108
 20
871.98822927754
 30
0.0
 11
413.9583821284108
 21
869.9882292775399
 31
0.0
  0
LINE
  5
87B9
330
18
100
AcDbEntity
  8
0
100
AcDbLine
 10
420.9583821284105
 20
866.9882292775399
 30
0.0
 11
417.9583821284105
 21
866.9882292775399
 31
0.0
  0
LINE
  5
87BA
330
18
100
AcDbEntity
  8
0
100
AcDbLine
 10
426.4583821284105
 20
866.9882292775399
 30
0.0
 11
423.4583821284105
 21
866.9882292775399
 31
0.0
  0
LINE
  5
87BB
330
18
100
AcDbEntity
  8
0
100
AcDbLine
 10
423.9583821284107
 20
871.98822927754
 30
0.0
 11
423.9583821284107
 21
869.9882292775399
 31
0.0
  0
LINE
  5
87BC
330
18
100
AcDbEntity
  8
0
100
AcDbLine
 10
406.9035980290071
 20
883.9882292775401
 30
0.0
 11
411.0131662278139
 21
883.9882292775401
 31
0.0
  0
LINE
  5
87BD
330
18
100
AcDbEntity
  8
0
100
AcDbLine
 10
394.9035980290071
 20
883.9882292775401
 30
0.0
 11
399.0131662278139
 21
883.9882292775401
 31
0.0
  0
ARC
  5
87BE
330
18
100
AcDbEntity
  8
0
100
AcDbCircle
 10
394.9035980290071
 20
885.9882292775401
 30
0.0
 40
2.0
100
AcDbArc
 50
181.5911402711942
 51
270.0
  0
ARC
  5
87BF
330
18
100
AcDbEntity
  8
0
100
AcDbCircle
 10
399.0131662278139
 20
885.9882292775401
 30
0.0
 40
2.0
100
AcDbArc
 50
270.0
 51
358.4088597288058
  0
ARC
  5
87C0
330
18
100
AcDbEntity
  8
0
100
AcDbCircle
 10
406.9035980290071
 20
885.9882292775401
 30
0.0
 40
2.0
100
AcDbArc
 50
181.5911402711942
 51
270.0
  0
ARC
  5
87C1
330
18
100
AcDbEntity
  8
0
100
AcDbCircle
 10
418.9035980290071
 20
885.9882292775401
 30
0.0
 40
2.0
100
AcDbArc
 50
181.5911402711942
 51
270.0
  0
ARC
  5
87C2
330
18
100
AcDbEntity
  8
0
100
AcDbCircle
 10
411.0131662278139
 20
885.9882292775401
 30
0.0
 40
2.0
100
AcDbArc
 50
270.0
 51
358.4088597288058
  0
LINE
  5
87C3
330
18
100
AcDbEntity
  8
0
100
AcDbLine
 10
418.9035980290071
 20
883.9882292775401
 30
0.0
 11
423.0131662278139
 21
883.9882292775401
 31
0.0
  0
ARC
  5
87C4
330
18
100
AcDbEntity
  8
0
100
AcDbCircle
 10
423.0131662278139
 20
885.9882292775401
 30
0.0
 40
2.0
100
AcDbArc
 50
270.0
 51
358.4088597288058
  0
ARC
  5
87C5
330
18
100
AcDbEntity
  8
0
100
AcDbCircle
 10
354.9583821284105
 20
912.7882292775399
 30
0.0
 40
1.199999999999999
100
AcDbArc
 50
0.0
 51
180.0
  0
ARC
  5
87C6
330
18
100
AcDbEntity
  8
0
100
AcDbCircle
 10
366.9583821284105
 20
912.7882292775399
 30
0.0
 40
1.199999999999999
100
AcDbArc
 50
0.0
 51
180.0
  0
ARC
  5
87C7
330
18
100
AcDbEntity
  8
0
100
AcDbCircle
 10
378.9583821284105
 20
912.7882292775399
 30
0.0
 40
1.199999999999999
100
AcDbArc
 50
0.0
 51
180.0
  0
ARC
  5
87C8
330
18
100
AcDbEntity
  8
0
100
AcDbCircle
 10
390.9583821284105
 20
912.7882292775399
 30
0.0
 40
1.199999999999999
100
AcDbArc
 50
0.0
 51
180.0
  0
ARC
  5
87C9
330
18
100
AcDbEntity
  8
0
100
AcDbCircle
 10
402.9583821284105
 20
912.7882292775399
 30
0.0
 40
1.199999999999999
100
AcDbArc
 50
0.0
 51
180.0
  0
ARC
  5
87CA
330
18
100
AcDbEntity
  8
0
100
AcDbCircle
 10
414.9583821284105
 20
912.7882292775399
 30
0.0
 40
1.199999999999999
100
AcDbArc
 50
0.0
 51
180.0
  0
LINE
  5
87CB
330
18
100
AcDbEntity
  8
0
100
AcDbLine
 10
428.9043691877017
 20
885.9326951430594
 30
0.0
 11
428.1583821284105
 21
912.7882292775399
 31
0.0
  0
LINE
  5
87CC
330
18
100
AcDbEntity
  8
0
100
AcDbLine
 10
440.9583821284106
 20
883.9882292775396
 30
0.0
 11
440.1583821284106
 21
912.7882292775399
 31
0.0
  0
LINE
  5
87CD
330
18
100
AcDbEntity
  8
0
100
AcDbLine
 10
437.7583821284105
 20
912.7882292775399
 30
0.0
 11
437.0123950691193
 21
885.9326951430594
 31
0.0
  0
ARC
  5
87CE
330
18
100
AcDbEntity
  8
0
100
AcDbCircle
 10
438.9583821284105
 20
871.98822927754
 30
0.0
 40
2.0
100
AcDbArc
 50
0.0
 51
90.0
  0
LINE
  5
87CF
330
18
100
AcDbEntity
  8
0
100
AcDbLine
 10
431.9583821284105
 20
849.9882292775399
 30
0.0
 11
431.9583821284105
 21
866.9882292775399
 31
0.0
  0
LINE
  5
87D0
330
18
100
AcDbEntity
  8
0
100
AcDbLine
 10
428.9583821284105
 20
849.9882292775399
 30
0.0
 11
428.9583821284105
 21
866.9882292775399
 31
0.0
  0
LINE
  5
87D1
330
18
100
AcDbEntity
  8
0
100
AcDbLine
 10
431.9583821284105
 20
842.9882292775401
 30
0.0
 11
428.9583821284105
 21
842.9882292775401
 31
0.0
  0
LINE
  5
87D2
330
18
100
AcDbEntity
  8
0
100
AcDbLine
 10
431.9583821284105
 20
849.9882292775399
 30
0.0
 11
428.9583821284105
 21
849.9882292775399
 31
0.0
  0
LINE
  5
87D3
330
18
100
AcDbEntity
  8
0
100
AcDbLine
 10
431.9583821284105
 20
866.9882292775399
 30
0.0
 11
428.9583821284105
 21
866.9882292775399
 31
0.0
  0
LINE
  5
87D4
330
18
100
AcDbEntity
  8
0
100
AcDbLine
 10
438.9583821284105
 20
869.98822927754
 30
0.0
 11
440.9583821284106
 21
869.98822927754
 31
0.0
  0
LINE
  5
87D5
330
18
100
AcDbEntity
  8
0
100
AcDbLine
 10
436.9583821284106
 20
868.9882292775399
 30
0.0
 11
435.9583821284105
 21
869.9882292775399
 31
0.0
  0
ARC
  5
87D6
330
18
100
AcDbEntity
  8
0
100
AcDbCircle
 10
436.9583821284106
 20
869.98822927754
 30
0.0
 40
2.0
100
AcDbArc
 50
0.0
 51
90.0
  0
ARC
  5
87D7
330
18
100
AcDbEntity
  8
0
100
AcDbCircle
 10
435.0131662278139
 20
885.9882292775401
 30
0.0
 40
2.0
100
AcDbArc
 50
270.0
 51
358.4088597288058
  0
LINE
  5
87D8
330
18
100
AcDbEntity
  8
0
100
AcDbLine
 10
430.9035980290071
 20
883.9882292775401
 30
0.0
 11
435.0131662278139
 21
883.9882292775401
 31
0.0
  0
ARC
  5
87D9
330
18
100
AcDbEntity
  8
0
100
AcDbCircle
 10
430.9035980290071
 20
885.9882292775401
 30
0.0
 40
2.0
100
AcDbArc
 50
181.5911402711942
 51
270.0
  0
LINE
  5
87DA
330
18
100
AcDbEntity
  8
0
100
AcDbLine
 10
440.9583821284106
 20
883.9882292775396
 30
0.0
 11
440.9583821284106
 21
873.9882292775401
 31
0.0
  0
ARC
  5
87DB
330
18
100
AcDbEntity
  8
0
100
AcDbCircle
 10
438.9583821284105
 20
912.7882292775399
 30
0.0
 40
1.199999999999999
100
AcDbArc
 50
0.0
 51
180.0
  0
LINE
  5
89B0
330
18
100
AcDbEntity
  8
0
100
AcDbLine
 10
160.8858715225534
 20
751.9370673185537
 30
0.0
 11
145.3858715225534
 21
751.9370673185535
 31
0.0
  0
LINE
  5
89B1
330
18
100
AcDbEntity
  8
0
100
AcDbLine
 10
160.8858715225534
 20
733.4370673185535
 30
0.0
 11
145.3858715225534
 21
733.4370673185535
 31
0.0
  0
LINE
  5
89B2
330
18
100
AcDbEntity
  8
0
100
AcDbLine
 10
160.8858715225534
 20
717.4370673185533
 30
0.0
 11
145.3858715225534
 21
717.4370673185533
 31
0.0
  0
LINE
  5
89B3
330
18
100
AcDbEntity
  8
0
100
AcDbLine
 10
160.8858715225534
 20
662.9370673185535
 30
0.0
 11
145.3858715225534
 21
662.9370673185535
 31
0.0
  0
INSERT
  5
89B4
330
18
100
AcDbEntity
  8
0
100
AcDbBlockReference
  2
A$C5A3A0BB0
 10
146.3321541961182
 20
664.7185436708498
 30
0.0
  0
CIRCLE
  5
89B5
330
18
100
AcDbEntity
  8
0
100
AcDbCircle
 10
163.3858715225534
 20
619.9370673185535
 30
0.0
 40
4.0
  0
INSERT
  5
89B6
330
18
100
AcDbEntity
  8
0
100
AcDbBlockReference
  2
A$C3413120B
 10
146.3034691356323
 20
734.580335688733
 30
0.0
  0
MTEXT
  5
89B7
330
18
100
AcDbEntity
  8
0
100
AcDbMText
 10
139.6908111628506
 20
694.5457111351479
 30
0.0
 40
3.0
 41
4.654799999999999
 71
     1
 72
     5
  1
B2
  7
MSｺﾞｼｯｸ
 73
     1
 44
1.0
  0
LINE
  5
89B8
330
18
100
AcDbEntity
  8
0
100
AcDbLine
 10
145.3858715225534
 20
662.9370673185535
 30
0.0
 11
145.3858715225534
 21
717.4370673185533
 31
0.0
  0
LINE
  5
89B9
330
18
100
AcDbEntity
  8
0
100
AcDbLine
 10
145.3858715225534
 20
662.9370673185536
 30
0.0
 11
145.3858715225534
 21
717.4370673185533
 31
0.0
  0
LINE
  5
89BC
330
18
100
AcDbEntity
  8
0
370
    40
100
AcDbLine
 10
141.8858715225534
 20
617.9370673185534
 30
0.0
 11
140.8858715225534
 21
617.9370673185534
 31
0.0
  0
LINE
  5
89BD
330
18
100
AcDbEntity
  8
0
370
    40
100
AcDbLine
 10
143.3858715225534
 20
620.3370673185534
 30
0.0
 11
139.3858715225534
 21
620.3370673185535
 31
0.0
  0
LINE
  5
89BE
330
18
100
AcDbEntity
  8
0
370
    40
100
AcDbLine
 10
142.6358715225534
 20
619.1370673185534
 30
0.0
 11
140.1358715225534
 21
619.1370673185534
 31
0.0
  0
CIRCLE
  5
89BF
330
18
100
AcDbEntity
  8
0
370
    40
100
AcDbCircle
 10
141.3858715225534
 20
619.9370673185535
 30
0.0
 40
3.0
  0
LINE
  5
89C0
330
18
100
AcDbEntity
  8
0
370
    40
100
AcDbLine
 10
141.3858715225534
 20
621.9370673185537
 30
0.0
 11
141.3858715225534
 21
620.3370673185534
 31
0.0
  0
LINE
  5
89C1
330
18
100
AcDbEntity
  8
0
100
AcDbLine
 10
153.0525381892201
 20
620.6037339852202
 30
0.0
 11
154.9678604200252
 21
620.6037339852202
 31
0.0
  0
LINE
  5
89C2
330
18
100
AcDbEntity
  8
0
100
AcDbLine
 10
153.0525381892201
 20
619.2704006518868
 30
0.0
 11
154.9678604200252
 21
619.2704006518868
 31
0.0
  0
CIRCLE
  5
89C3
330
18
100
AcDbEntity
  8
0
100
AcDbCircle
 10
152.3858715225534
 20
619.9370673185535
 30
0.0
 40
3.333333333333333
  0
CIRCLE
  5
89C4
330
18
100
AcDbEntity
  8
0
100
AcDbCircle
 10
152.3858715225534
 20
619.9370673185535
 30
0.0
 40
4.0
  0
LINE
  5
89C5
330
18
100
AcDbEntity
  8
0
100
AcDbLine
 10
153.0525381892201
 20
620.6037339852202
 30
0.0
 11
153.0525381892201
 21
622.5190562160253
 31
0.0
  0
LINE
  5
89C6
330
18
100
AcDbEntity
  8
0
100
AcDbLine
 10
151.7192048558868
 20
620.6037339852202
 30
0.0
 11
151.7192048558868
 21
622.5190562160253
 31
0.0
  0
ARC
  5
89C7
330
18
100
AcDbEntity
  8
0
100
AcDbCircle
 10
152.3858715225534
 20
619.9370673185535
 30
0.0
 40
2.666666666666666
100
AcDbArc
 50
75.52248781407055
 51
104.4775121859294
  0
LINE
  5
89C8
330
18
100
AcDbEntity
  8
0
100
AcDbLine
 10
149.8038826250823
 20
620.6037339852202
 30
0.0
 11
151.7192048558868
 21
620.6037339852202
 31
0.0
  0
LINE
  5
89C9
330
18
100
AcDbEntity
  8
0
100
AcDbLine
 10
153.0525381892201
 20
617.3550784210817
 30
0.0
 11
153.0525381892201
 21
619.2704006518868
 31
0.0
  0
LINE
  5
89CA
330
18
100
AcDbEntity
  8
0
100
AcDbLine
 10
151.7192048558868
 20
617.3550784210817
 30
0.0
 11
151.7192048558868
 21
619.2704006518868
 31
0.0
  0
ARC
  5
89CB
330
18
100
AcDbEntity
  8
0
100
AcDbCircle
 10
152.3858715225534
 20
619.9370673185535
 30
0.0
 40
2.666666666666666
100
AcDbArc
 50
255.5224878140705
 51
284.4775121859294
  0
LINE
  5
89CC
330
18
100
AcDbEntity
  8
0
100
AcDbLine
 10
149.8038826250823
 20
619.2704006518868
 30
0.0
 11
151.7192048558868
 21
619.2704006518868
 31
0.0
  0
ARC
  5
89CD
330
18
100
AcDbEntity
  8
0
100
AcDbCircle
 10
152.3858715225534
 20
619.9370673185535
 30
0.0
 40
2.666666666666666
100
AcDbArc
 50
165.5224878140701
 51
194.4775121859298
  0
ARC
  5
89CE
330
18
100
AcDbEntity
  8
0
100
AcDbCircle
 10
152.3858715225534
 20
619.9370673185535
 30
0.0
 40
2.666666666666666
100
AcDbArc
 50
345.5224878140701
 51
14.47751218592986
  0
LINE
  5
89CF
330
18
100
AcDbEntity
  8
0
100
AcDbLine
 10
158.8858715225534
 20
662.9370673185536
 30
0.0
 11
145.3858715225534
 21
662.9370673185536
 31
0.0
  0
MTEXT
  5
89D0
330
18
100
AcDbEntity
  8
0
100
AcDbMText
 10
140.203862748908
 20
677.8175698614377
 30
0.0
 40
3.0
 41
4.654799999999999
 71
     1
 72
     5
  1
W
  7
MSｺﾞｼｯｸ
 73
     1
 44
1.0
  0
MTEXT
  5
89D1
330
18
100
AcDbEntity
  8
0
100
AcDbMText
 10
138.1118531090462
 20
672.5448339818953
 30
0.0
 40
3.0
 41
4.654799999999999
 71
     1
 72
     5
  1
DBK
  7
MSｺﾞｼｯｸ
 73
     1
 44
1.0
  0
MTEXT
  5
89D2
330
18
100
AcDbEntity
  8
0
100
AcDbMText
 10
138.0772176711555
 20
667.228618751841
 30
0.0
 40
3.0
 41
4.654799999999999
 71
     1
 72
     5
  1
DBC
  7
MSｺﾞｼｯｸ
 73
     1
 44
1.0
  0
MTEXT
  5
89D3
330
18
100
AcDbEntity
  8
0
100
AcDbMText
 10
140.6436255959276
 20
688.5133827590602
 30
0.0
 40
3.0
 41
4.654799999999999
 71
     1
 72
     5
  1
U
  7
MSｺﾞｼｯｸ
 73
     1
 44
1.0
  0
MTEXT
  5
89D4
330
18
100
AcDbEntity
  8
0
100
AcDbMText
 10
140.5703368568881
 20
683.0133827590603
 30
0.0
 40
3.0
 41
4.654799999999999
 71
     1
 72
     5
  1
V
  7
MSｺﾞｼｯｸ
 73
     1
 44
1.0
  0
LINE
  5
89D5
330
18
100
AcDbEntity
  8
0
100
AcDbLine
 10
158.8858715225534
 20
717.4370673185533
 30
0.0
 11
145.3858715225534
 21
717.4370673185533
 31
0.0
  0
MTEXT
  5
89D6
330
18
100
AcDbEntity
  8
0
100
AcDbMText
 10
140.6436255959276
 20
710.893615690105
 30
0.0
 40
3.0
 41
4.654799999999999
 71
     1
 72
     5
  1
S
  7
MSｺﾞｼｯｸ
 73
     1
 44
1.0
  0
MTEXT
  5
89D7
330
18
100
AcDbEntity
  8
0
100
AcDbMText
 10
140.6101715279798
 20
705.393611902396
 30
0.0
 40
3.0
 41
4.654799999999999
 71
     1
 72
     5
  1
T
  7
MSｺﾞｼｯｸ
 73
     1
 44
1.0
  0
MTEXT
  5
89D8
330
18
100
AcDbEntity
  8
0
100
AcDbMText
 10
139.5442276022156
 20
699.8936156901049
 30
0.0
 40
3.0
 41
4.654799999999999
 71
     1
 72
     5
  1
B1
  7
MSｺﾞｼｯｸ
 73
     1
 44
1.0
  0
MTEXT
  5
89D9
330
18
100
AcDbEntity
  8
0
100
AcDbMText
 10
140.6436255959276
 20
716.2415240327704
 30
0.0
 40
3.0
 41
4.654799999999999
 71
     1
 72
     5
  1
R
  7
MSｺﾞｼｯｸ
 73
     1
 44
1.0
  0
MTEXT
  5
89DA
330
18
100
AcDbEntity
  8
0
100
AcDbMText
 10
149.4599814295821
 20
722.7675658964924
 30
0.0
 40
4.0
 41
13.7408
 71
     1
 72
     5
  1
TB2
  7
MSｺﾞｼｯｸ
 73
     1
 44
1.0
  0
LINE
  5
89DB
330
18
100
AcDbEntity
  8
0
100
AcDbLine
 10
158.8858715225534
 20
751.9370673185537
 30
0.0
 11
145.3858715225534
 21
751.9370673185535
 31
0.0
  0
LINE
  5
89DC
330
18
100
AcDbEntity
  8
0
100
AcDbLine
 10
158.8858715225534
 20
733.4370673185535
 30
0.0
 11
145.3858715225534
 21
733.4370673185535
 31
0.0
  0
LINE
  5
89DD
330
18
100
AcDbEntity
  8
0
100
AcDbLine
 10
145.3858715225534
 20
751.9370673185535
 30
0.0
 11
145.3858715225534
 21
733.4370673185535
 31
0.0
  0
LINE
  5
89DE
330
18
100
AcDbEntity
  8
0
100
AcDbLine
 10
145.3858715225534
 20
751.9370673185535
 30
0.0
 11
145.3858715225534
 21
733.4370673185535
 31
0.0
  0
MTEXT
  5
89DF
330
18
100
AcDbEntity
  8
0
100
AcDbMText
 10
140.7902091565627
 20
744.472290329582
 30
0.0
 40
3.299999999999999
 41
4.654799999999999
 71
     1
 72
     5
  1
s
  7
MSｺﾞｼｯｸ
 73
     1
 44
1.0
  0
MTEXT
  5
89E0
330
18
100
AcDbEntity
  8
0
100
AcDbMText
 10
141.0184571383385
 20
749.972290329582
 30
0.0
 40
3.299999999999999
 41
4.654799999999999
 71
     1
 72
     5
  1
r
  7
MSｺﾞｼｯｸ
 73
     1
 44
1.0
  0
MTEXT
  5
89E1
330
18
100
AcDbEntity
  8
0
100
AcDbMText
 10
149.4599814295821
 20
757.2675658964924
 30
0.0
 40
4.0
 41
13.7408
 71
     1
 72
     5
  1
TB1
  7
MSｺﾞｼｯｸ
 73
     1
 44
1.0
  0
LINE
  5
89E3
330
18
100
AcDbEntity
  8
0
100
AcDbLine
 10
160.8858715225534
 20
717.4370673185533
 30
0.0
 11
160.8858715225534
 21
662.9370673185535
 31
0.0
  0
INSERT
  5
89E4
330
18
100
AcDbEntity
  8
0
100
AcDbBlockReference
  2
A$C57095CDF
 10
171.0608715485801
 20
668.5120674056024
 30
0.0
  0
LINE
  5
89E5
330
18
100
AcDbEntity
  8
0
100
AcDbLine
 10
166.3858715225534
 20
622.4370673185537
 30
0.0
 11
166.3858715225566
 21
700.4370673185535
 31
0.0
  0
LINE
  5
89E6
330
18
100
AcDbEntity
  8
0
100
AcDbLine
 10
181.8858715225534
 20
767.4370673185535
 30
0.0
 11
181.8858715225534
 21
622.4370673185537
 31
0.0
  0
LINE
  5
89E7
330
18
100
AcDbEntity
  8
0
100
AcDbLine
 10
183.8858715225534
 20
768.4370673185535
 30
0.0
 11
183.8858715225534
 21
622.4370673185537
 31
0.0
  0
LINE
  5
89E8
330
18
100
AcDbEntity
  8
0
100
AcDbLine
 10
187.3858715225534
 20
771.9370673185535
 30
0.0
 11
187.3858715225534
 21
613.9370673185535
 31
0.0
  0
INSERT
  5
89E9
330
18
100
AcDbEntity
  8
0
100
AcDbBlockReference
  2
A$C3A6E1F00
 10
171.0608715485801
 20
624.5370677986813
 30
0.0
  0
LINE
  5
89EA
330
18
100
AcDbEntity
  8
0
100
AcDbLine
 10
166.3858715225534
 20
622.4370673185537
 30
0.0
 11
183.8858715225534
 21
622.4370673185537
 31
0.0
  0
LINE
  5
89EB
330
18
100
AcDbEntity
  8
0
100
AcDbLine
 10
164.0525381892201
 20
620.6037339852202
 30
0.0
 11
165.9678604200252
 21
620.6037339852202
 31
0.0
  0
LINE
  5
89EC
330
18
100
AcDbEntity
  8
0
100
AcDbLine
 10
164.0525381892201
 20
619.2704006518868
 30
0.0
 11
165.9678604200252
 21
619.2704006518868
 31
0.0
  0
CIRCLE
  5
89ED
330
18
100
AcDbEntity
  8
0
100
AcDbCircle
 10
163.3858715225534
 20
619.9370673185535
 30
0.0
 40
3.333333333333333
  0
LINE
  5
89EE
330
18
100
AcDbEntity
  8
0
100
AcDbLine
 10
164.0525381892201
 20
620.6037339852202
 30
0.0
 11
164.0525381892201
 21
622.5190562160253
 31
0.0
  0
LINE
  5
89EF
330
18
100
AcDbEntity
  8
0
100
AcDbLine
 10
160.8038826250823
 20
620.6037339852202
 30
0.0
 11
162.7192048558868
 21
620.6037339852202
 31
0.0
  0
LINE
  5
89F0
330
18
100
AcDbEntity
  8
0
100
AcDbLine
 10
162.7192048558868
 20
620.6037339852202
 30
0.0
 11
162.7192048558868
 21
622.5190562160253
 31
0.0
  0
ARC
  5
89F1
330
18
100
AcDbEntity
  8
0
100
AcDbCircle
 10
163.3858715225534
 20
619.9370673185535
 30
0.0
 40
2.666666666666666
100
AcDbArc
 50
75.52248781407055
 51
104.4775121859294
  0
LINE
  5
89F2
330
18
100
AcDbEntity
  8
0
100
AcDbLine
 10
164.0525381892201
 20
617.3550784210817
 30
0.0
 11
164.0525381892201
 21
619.2704006518868
 31
0.0
  0
LINE
  5
89F3
330
18
100
AcDbEntity
  8
0
100
AcDbLine
 10
162.7192048558868
 20
617.3550784210817
 30
0.0
 11
162.7192048558868
 21
619.2704006518868
 31
0.0
  0
LINE
  5
89F4
330
18
100
AcDbEntity
  8
0
100
AcDbLine
 10
160.8038826250823
 20
619.2704006518868
 30
0.0
 11
162.7192048558868
 21
619.2704006518868
 31
0.0
  0
ARC
  5
89F5
330
18
100
AcDbEntity
  8
0
100
AcDbCircle
 10
163.3858715225534
 20
619.9370673185535
 30
0.0
 40
2.666666666666666
100
AcDbArc
 50
255.5224878140705
 51
284.4775121859294
  0
ARC
  5
89F6
330
18
100
AcDbEntity
  8
0
100
AcDbCircle
 10
163.3858715225534
 20
619.9370673185535
 30
0.0
 40
2.666666666666666
100
AcDbArc
 50
165.5224878140701
 51
194.4775121859298
  0
ARC
  5
89F7
330
18
100
AcDbEntity
  8
0
100
AcDbCircle
 10
163.3858715225534
 20
619.9370673185535
 30
0.0
 40
2.666666666666666
100
AcDbArc
 50
345.5224878140701
 51
14.47751218592986
  0
LINE
  5
89F8
330
18
100
AcDbEntity
  8
0
100
AcDbLine
 10
180.3858715225534
 20
624.6370673185536
 30
0.0
 11
180.3858715225534
 21
622.4370673185537
 31
0.0
  0
LINE
  5
89F9
330
18
100
AcDbEntity
  8
0
100
AcDbLine
 10
187.3858715225534
 20
613.9370673185535
 30
0.0
 11
186.3858715225534
 21
612.9370673185535
 31
0.0
  0
MTEXT
  5
89FA
330
18
100
AcDbEntity
  8
0
100
AcDbMText
 10
165.5876388421561
 20
647.1398915877784
 30
0.0
 40
2.399999999999999
 41
7.047999999999999
 71
     3
 72
     5
  1
CN1
  7
MSｺﾞｼｯｸ
 73
     1
 44
1.0
  0
MTEXT
  5
89FB
330
18
100
AcDbEntity
  8
0
100
AcDbMText
 10
166.0987561748302
 20
685.19998737488
 30
0.0
 40
2.399999999999999
 41
7.047999999999999
 71
     3
 72
     5
  1
CN2
  7
MSｺﾞｼｯｸ
 73
     1
 44
1.0
  0
INSERT
  5
89FC
330
18
100
AcDbEntity
  8
0
100
AcDbBlockReference
  2
A$C444F17A9
 10
172.7608709148561
 20
748.8370668325269
 30
0.0
  0
LINE
  5
89FD
330
18
100
AcDbEntity
  8
0
100
AcDbLine
 10
166.3858715225534
 20
768.4370673185535
 30
0.0
 11
166.3858715225534
 21
717.4370673185535
 31
0.0
  0
INSERT
  5
89FE
330
18
100
AcDbEntity
  8
0
100
AcDbBlockReference
  2
A$C6C1277F2
 10
171.0608715485801
 20
716.6620678011185
 30
0.0
  0
INSERT
  5
89FF
330
18
100
AcDbEntity
  8
0
100
AcDbBlockReference
  2
A$C2F696F30
 10
163.9858707573893
 20
702.0870675119359
 30
0.0
  0
LINE
  5
8A00
330
18
100
AcDbEntity
  8
0
100
AcDbLine
 10
163.3858715225534
 20
717.4370673185538
 30
0.0
 11
163.3858715225513
 21
700.4370673185539
 31
0.0
  0
LINE
  5
8A01
330
18
100
AcDbEntity
  8
0
100
AcDbLine
 10
166.3858715225566
 20
700.4370673185535
 30
0.0
 11
163.3858715225513
 21
700.4370673185539
 31
0.0
  0
MTEXT
  5
8A02
330
18
100
AcDbEntity
  8
0
100
AcDbMText
 10
165.1442021302195
 20
698.7600831619811
 30
0.0
 40
2.399999999999999
 41
7.047999999999999
 71
     3
 72
     5
  1
J2
  7
MSｺﾞｼｯｸ
 73
     1
 44
1.0
  0
LINE
  5
8A03
330
18
100
AcDbEntity
  8
0
100
AcDbLine
 10
163.3858715225534
 20
717.4370673185538
 30
0.0
 11
166.3858715225534
 21
717.4370673185538
 31
0.0
  0
LINE
  5
8A04
330
18
100
AcDbEntity
  8
0
100
AcDbLine
 10
166.3858715225534
 20
760.1870673185535
 30
0.0
 11
172.8608715225534
 21
760.1870673185535
 31
0.0
  0
MTEXT
  5
8A06
330
18
100
AcDbEntity
  8
0
100
AcDbMText
 10
164.5398026909883
 20
732.4596080141832
 30
0.0
 40
2.399999999999999
 41
7.047999999999999
 71
     3
 72
     5
  1
J1
  7
MSｺﾞｼｯｸ
 73
     1
 44
1.0
  0
LINE
  5
8A07
330
18
100
AcDbEntity
  8
0
100
AcDbLine
 10
160.8858715225534
 20
733.4370673185535
 30
0.0
 11
160.8858715225534
 21
734.580335688733
 31
0.0
  0
LINE
  5
8A08
330
18
100
AcDbEntity
  8
0
100
AcDbLine
 10
160.8858715225534
 20
751.9370673185537
 30
0.0
 11
160.8858715225534
 21
750.6049976982009
 31
0.0
  0
LINE
  5
8A09
330
18
100
AcDbEntity
  8
0
100
AcDbLine
 10
166.3858715225534
 20
762.9370673185535
 30
0.0
 11
180.3858715225534
 21
762.9370673185535
 31
0.0
  0
LINE
  5
8A0A
330
18
100
AcDbEntity
  8
0
100
AcDbLine
 10
166.3858715225534
 20
765.6870673185535
 30
0.0
 11
180.3858715225534
 21
765.6870673185535
 31
0.0
  0
LINE
  5
8A0B
330
18
100
AcDbEntity
  8
0
100
AcDbLine
 10
183.8858715225534
 20
768.4370673185535
 30
0.0
 11
166.3858715225534
 21
768.4370673185535
 31
0.0
  0
LINE
  5
8A0C
330
18
100
AcDbEntity
  8
0
100
AcDbLine
 10
180.3858715225534
 20
767.4370673185535
 30
0.0
 11
181.8858715225534
 21
767.4370673185535
 31
0.0
  0
LINE
  5
8A0D
330
18
100
AcDbEntity
  8
0
100
AcDbLine
 10
180.3858715225534
 20
761.9370673185535
 30
0.0
 11
180.3858715225534
 21
767.4370673185535
 31
0.0
  0
LINE
  5
8A0E
330
18
100
AcDbEntity
  8
0
100
AcDbLine
 10
187.3858715225534
 20
771.9370673185535
 30
0.0
 11
186.3858715225534
 21
772.9370673185536
 31
0.0
  0
CIRCLE
  5
8A37
330
18
100
AcDbEntity
  8
0
100
AcDbCircle
 10
163.3858715225536
 20
619.9370673185534
 30
0.0
 40
3.333333333333333
  0
CIRCLE
  5
8A38
330
18
100
AcDbEntity
  8
0
100
AcDbCircle
 10
163.3858715225536
 20
619.9370673185534
 30
0.0
 40
4.0
  0
LINE
  5
8A39
330
18
100
AcDbEntity
  8
0
100
AcDbLine
 10
164.0525381892204
 20
619.2704006518867
 30
0.0
 11
165.9678604200254
 21
619.2704006518867
 31
0.0
  0
LINE
  5
8A3A
330
18
100
AcDbEntity
  8
0
100
AcDbLine
 10
164.0525381892204
 20
620.6037339852201
 30
0.0
 11
165.9678604200254
 21
620.6037339852201
 31
0.0
  0
LINE
  5
8A3B
330
18
100
AcDbEntity
  8
0
370
    40
100
AcDbLine
 10
142.6358715225535
 20
619.1370673185534
 30
0.0
 11
140.1358715225535
 21
619.1370673185534
 31
0.0
  0
LINE
  5
8A3C
330
18
100
AcDbEntity
  8
0
370
    40
100
AcDbLine
 10
141.8858715225535
 20
617.9370673185535
 30
0.0
 11
140.8858715225535
 21
617.9370673185535
 31
0.0
  0
LINE
  5
8A3D
330
18
100
AcDbEntity
  8
0
370
    40
100
AcDbLine
 10
143.3858715225535
 20
620.3370673185534
 30
0.0
 11
139.3858715225535
 21
620.3370673185534
 31
0.0
  0
LINE
  5
8A3E
330
18
100
AcDbEntity
  8
0
370
    40
100
AcDbLine
 10
141.3858715225535
 20
621.9370673185535
 30
0.0
 11
141.3858715225535
 21
620.3370673185534
 31
0.0
  0
ARC
  5
8A3F
330
18
100
AcDbEntity
  8
0
100
AcDbCircle
 10
163.3858715225536
 20
619.9370673185534
 30
0.0
 40
2.666666666666666
100
AcDbArc
 50
165.5224878140701
 51
194.4775121859298
  0
ARC
  5
8A40
330
18
100
AcDbEntity
  8
0
100
AcDbCircle
 10
152.3858715225536
 20
619.9370673185534
 30
0.0
 40
2.666666666666666
100
AcDbArc
 50
345.5224878140701
 51
14.47751218592986
  0
ARC
  5
8A41
330
18
100
AcDbEntity
  8
0
100
AcDbCircle
 10
152.3858715225536
 20
619.9370673185534
 30
0.0
 40
2.666666666666666
100
AcDbArc
 50
165.5224878140701
 51
194.4775121859298
  0
CIRCLE
  5
8A42
330
18
100
AcDbEntity
  8
0
100
AcDbCircle
 10
152.3858715225536
 20
619.9370673185534
 30
0.0
 40
3.333333333333333
  0
CIRCLE
  5
8A43
330
18
100
AcDbEntity
  8
0
100
AcDbCircle
 10
152.3858715225536
 20
619.9370673185534
 30
0.0
 40
4.0
  0
LINE
  5
8A44
330
18
100
AcDbEntity
  8
0
100
AcDbLine
 10
149.8038826250825
 20
619.2704006518867
 30
0.0
 11
151.719204855887
 21
619.2704006518867
 31
0.0
  0
LINE
  5
8A45
330
18
100
AcDbEntity
  8
0
100
AcDbLine
 10
153.0525381892203
 20
617.3550784210816
 30
0.0
 11
153.0525381892203
 21
619.2704006518867
 31
0.0
  0
LINE
  5
8A46
330
18
100
AcDbEntity
  8
0
100
AcDbLine
 10
151.719204855887
 20
617.3550784210816
 30
0.0
 11
151.719204855887
 21
619.2704006518867
 31
0.0
  0
ARC
  5
8A47
330
18
100
AcDbEntity
  8
0
100
AcDbCircle
 10
152.3858715225536
 20
619.9370673185534
 30
0.0
 40
2.666666666666666
100
AcDbArc
 50
255.5224878140705
 51
284.4775121859294
  0
LINE
  5
8A48
330
18
100
AcDbEntity
  8
0
100
AcDbLine
 10
153.0525381892203
 20
619.2704006518867
 30
0.0
 11
154.9678604200254
 21
619.2704006518867
 31
0.0
  0
LINE
  5
8A49
330
18
100
AcDbEntity
  8
0
100
AcDbLine
 10
160.8038826250825
 20
619.2704006518867
 30
0.0
 11
162.719204855887
 21
619.2704006518867
 31
0.0
  0
LINE
  5
8A4A
330
18
100
AcDbEntity
  8
0
100
AcDbLine
 10
164.0525381892204
 20
617.3550784210816
 30
0.0
 11
164.0525381892204
 21
619.2704006518867
 31
0.0
  0
LINE
  5
8A4B
330
18
100
AcDbEntity
  8
0
100
AcDbLine
 10
162.719204855887
 20
617.3550784210816
 30
0.0
 11
162.719204855887
 21
619.2704006518867
 31
0.0
  0
ARC
  5
8A4C
330
18
100
AcDbEntity
  8
0
100
AcDbCircle
 10
163.3858715225536
 20
619.9370673185534
 30
0.0
 40
2.666666666666666
100
AcDbArc
 50
255.5224878140705
 51
284.4775121859294
  0
LINE
  5
8A4D
330
18
100
AcDbEntity
  8
0
100
AcDbLine
 10
149.8038826250825
 20
620.6037339852201
 30
0.0
 11
151.719204855887
 21
620.6037339852201
 31
0.0
  0
LINE
  5
8A4E
330
18
100
AcDbEntity
  8
0
100
AcDbLine
 10
153.0525381892203
 20
620.6037339852201
 30
0.0
 11
153.0525381892203
 21
622.5190562160252
 31
0.0
  0
LINE
  5
8A4F
330
18
100
AcDbEntity
  8
0
100
AcDbLine
 10
151.719204855887
 20
620.6037339852201
 30
0.0
 11
151.719204855887
 21
622.5190562160252
 31
0.0
  0
ARC
  5
8A50
330
18
100
AcDbEntity
  8
0
100
AcDbCircle
 10
152.3858715225536
 20
619.9370673185534
 30
0.0
 40
2.666666666666666
100
AcDbArc
 50
75.52248781407055
 51
104.4775121859294
  0
LINE
  5
8A51
330
18
100
AcDbEntity
  8
0
100
AcDbLine
 10
153.0525381892203
 20
620.6037339852201
 30
0.0
 11
154.9678604200254
 21
620.6037339852201
 31
0.0
  0
LINE
  5
8A52
330
18
100
AcDbEntity
  8
0
100
AcDbLine
 10
160.8038826250825
 20
620.6037339852201
 30
0.0
 11
162.719204855887
 21
620.6037339852201
 31
0.0
  0
LINE
  5
8A53
330
18
100
AcDbEntity
  8
0
100
AcDbLine
 10
164.0525381892204
 20
620.6037339852201
 30
0.0
 11
164.0525381892204
 21
622.5190562160252
 31
0.0
  0
LINE
  5
8A54
330
18
100
AcDbEntity
  8
0
100
AcDbLine
 10
162.719204855887
 20
620.6037339852201
 30
0.0
 11
162.719204855887
 21
622.5190562160252
 31
0.0
  0
ARC
  5
8A55
330
18
100
AcDbEntity
  8
0
100
AcDbCircle
 10
163.3858715225536
 20
619.9370673185534
 30
0.0
 40
2.666666666666666
100
AcDbArc
 50
75.52248781407055
 51
104.4775121859294
  0
ARC
  5
8A56
330
18
100
AcDbEntity
  8
0
100
AcDbCircle
 10
163.3858715225536
 20
619.9370673185534
 30
0.0
 40
2.666666666666666
100
AcDbArc
 50
345.5224878140701
 51
14.47751218592986
  0
CIRCLE
  5
8A57
330
18
100
AcDbEntity
  8
0
370
    40
100
AcDbCircle
 10
141.3858715225535
 20
619.9370673185535
 30
0.0
 40
3.0
  0
TEXT
  5
8A9E
330
18
100
AcDbEntity
  8
0
100
AcDbText
 10
371.1832095722477
 20
557.6322546952174
 30
0.0
 40
6.0
  1
ＮＣＲ－＊Ａ＊＊Ａ２Ｄ－８０１－ＵＬ　＊（－Ｈ、－Ｓ＊＊）
 41
0.6
  7
MSｺﾞｼｯｸ
100
AcDbText
  0
TEXT
  5
8A9F
330
18
100
AcDbEntity
  8
0
100
AcDbText
 10
435.0272409860155
 20
531.7750259355039
 30
0.0
 40
7.0
  1
ＳＥ－３５３１１
 41
0.9529999999999999
  7
MSｺﾞｼｯｸ
100
AcDbText
  0
MTEXT
  5
8AA0
330
18
100
AcDbEntity
  8
0
100
AcDbMText
 10
435.9191514242196
 20
549.4654651598604
 30
0.0
 40
6.0
 41
39.7426
 71
     1
 72
     5
  1
VC外形図
  7
MSｺﾞｼｯｸ
 73
     1
 44
1.0
  0
VIEWPORT
  5
8AFA
330
8AF6
100
AcDbEntity
 67
     1
  8
0
100
AcDbViewport
 10
202.4999999999999
 20
128.4999999999999
 30
0.0
 40
486.0
 41
308.3999999999999
 68
     1
 69
     1
 12
202.4999999999999
 22
128.4999999999999
 13
0.0
 23
0.0
 14
0.5
 24
0.5
 15
0.0
 25
0.0
 16
0.0
 26
0.0
 36
1.0
 17
0.0
 27
0.0
 37
0.0
 42
50.0
 43
0.0
 44
0.0
 45
308.3999999999999
 50
0.0
 51
0.0
 72
   100
 90
    32864
  1

281
     0
 71
     1
 74
     0
110
0.0
120
0.0
130
0.0
111
1.0
121
0.0
131
0.0
112
0.0
122
1.0
132
0.0
 79
     0
146
0.0
  0
VIEWPORT
  5
8AFB
330
8AF6
100
AcDbEntity
 67
     1
  8
0
100
AcDbViewport
 10
202.4999999999999
 20
128.4999999999999
 30
0.0
 40
324.0
 41
205.6
 68
     2
 69
     2
 12
298.0443405474005
 22
722.8816276065219
 13
0.0
 23
0.0
 14
0.5
 24
0.5
 15
0.0
 25
0.0
 16
0.0
 26
0.0
 36
1.0
 17
0.0
 27
0.0
 37
0.0
 42
50.0
 43
0.0
 44
0.0
 45
389.8574674088767
 50
0.0
 51
0.0
 72
   100
 90
    32864
  1

281
     0
 71
     1
 74
     0
110
0.0
120
0.0
130
0.0
111
1.0
121
0.0
131
0.0
112
0.0
122
1.0
132
0.0
 79
     0
146
0.0
  0
ENDSEC
  0
SECTION
  2
OBJECTS
  0
DICTIONARY
  5
C
330
0
100
AcDbDictionary
281
     1
  3
ACAD_GROUP
350
D
  3
ACAD_IMAGE_VARS
350
8AF2
  3
ACAD_LAYOUT
350
73F
  3
ACAD_MLINESTYLE
350
1B
  3
ACAD_PLOTSETTINGS
350
740
  3
ACAD_PLOTSTYLENAME
350
73D
  3
ACAD_SCALELIST
350
8AC6
  3
AcadDim
350
61D4
  3
AcDbVariableDictionary
350
7046
  3
APPDATA
350
8AF0
  3
DWGPROPS
350
8AFE
  0
DICTIONARY
  5
D
102
{ACAD_REACTORS
330
C
102
}
330
C
100
AcDbDictionary
281
     1
  0
RASTERVARIABLES
  5
8AF2
102
{ACAD_REACTORS
330
C
102
}
330
C
100
AcDbRasterVariables
 90
        0
 70
     1
 71
     1
 72
     0
  0
DICTIONARY
  5
73F
102
{ACAD_REACTORS
330
C
102
}
330
C
100
AcDbDictionary
281
     1
  3
Model
350
741
  3
Sheet1
350
8AF7
  0
DICTIONARY
  5
1B
102
{ACAD_REACTORS
330
C
102
}
330
C
100
AcDbDictionary
281
     1
  3
STANDARD
350
1C
  0
DICTIONARY
  5
740
102
{ACAD_REACTORS
330
C
102
}
330
C
100
AcDbDictionary
281
     1
  0
ACDBDICTIONARYWDFLT
  5
73D
102
{ACAD_REACTORS
330
C
102
}
330
C
100
AcDbDictionary
281
     1
  3
Normal
350
73E
100
AcDbDictionaryWithDefault
340
73E
  0
DICTIONARY
  5
8AC6
102
{ACAD_REACTORS
330
C
102
}
330
C
100
AcDbDictionary
281
     1
  3
A0
350
8AC7
  3
A1
350
8AC8
  3
A2
350
8AC9
  3
A3
350
8ACA
  3
A4
350
8ACB
  3
A5
350
8ACC
  3
A6
350
8ACD
  3
A7
350
8ACE
  3
A8
350
8ACF
  3
A9
350
8AD0
  3
B0
350
8AD1
  3
B1
350
8AD2
  3
B2
350
8AD3
  3
B3
350
8AD4
  3
B4
350
8AD5
  3
B5
350
8AD6
  3
B6
350
8AD7
  3
B7
350
8AD8
  3
B8
350
8AD9
  3
B9
350
8ADA
  3
C0
350
8ADB
  3
C1
350
8ADC
  3
C2
350
8ADD
  3
C3
350
8ADE
  3
C4
350
8ADF
  3
C5
350
8AE0
  3
C6
350
8AE1
  3
C7
350
8AE2
  3
C8
350
8AE3
  3
C9
350
8AE4
  3
D0
350
8AE5
  3
D1
350
8AE6
  3
D2
350
8AE7
  0
XRECORD
  5
61D4
102
{ACAD_REACTORS
330
C
102
}
330
C
100
AcDbXrecord
280
     1
 90
   990106
  3

 60
     0
 61
     0
 62
     1
 63
     3
 64
     0
 65
     0
 66
     0
 67
     3
 68
     1
 69
     0
 70
     0
 71
     0
 72
     0
 40
0.0
170
     0
  0
DICTIONARY
  5
7046
102
{ACAD_REACTORS
330
C
102
}
330
C
100
AcDbDictionary
281
     1
  3
DIMASSOC
350
7047
  0
DICTIONARY
  5
8AF0
102
{ACAD_REACTORS
330
C
102
}
330
C
100
AcDbDictionary
281
     1
  0
XRECORD
  5
8AFE
102
{ACAD_REACTORS
330
C
102
}
330
C
100
AcDbXrecord
280
     1
  1
DWGPROPS COOKIE
  2

  3

  4

  6

  7

  8
k-yoshida
  9

300
=
301
=
302
=
303
=
304
=
305
=
306
=
307
=
308
=
309
=
 40
0.0
 41
2451224.285162384
 42
2457315.082890961
  1

 90
        0
  0
LAYOUT
  5
741
102
{ACAD_REACTORS
330
73F
102
}
330
73F
100
AcDbPlotSettings
  1

  2
HP DesignJet 750C (D/A1) Color
  4
ISO_A3_(420.00_x_297.00_MM)
  6

 40
7.5
 41
20.0
 42
7.5
 43
20.0
 44
420.0
 45
297.0
 46
0.0
 47
0.0
 48
0.0
 49
0.0
140
0.0
141
0.0
142
1.0
143
1.61023529636426
 70
  1712
 72
     1
 73
     0
 74
     0
  7

 75
     0
147
0.6210272512706023
148
23.25390092797835
149
-530.6963488311462
100
AcDbLayout
  1
Model
 70
     1
 71
     0
 10
0.0
 20
0.0
 11
12.0
 21
9.0
 12
0.0
 22
0.0
 32
0.0
 14
92.38587152255343
 24
531.7750259355039
 34
0.0
 15
503.7028095722477
 25
913.98822927754
 35
0.0
146
0.0
 13
0.0
 23
0.0
 33
0.0
 16
1.0
 26
0.0
 36
0.0
 17
0.0
 27
1.0
 37
0.0
 76
     0
330
18
  0
LAYOUT
  5
8AF7
102
{ACAD_REACTORS
330
73F
102
}
330
73F
100
AcDbPlotSettings
  1

  2
none_device
  4
ISO_A3_(420.00_x_297.00_MM)
  6

 40
7.5
 41
20.0
 42
7.5
 43
20.0
 44
420.0
 45
297.0
 46
0.0
 47
0.0
 48
0.0
 49
0.0
140
0.0
141
0.0
142
1.0
143
1.0
 70
   688
 72
     1
 73
     0
 74
     5
  7

 75
    16
147
1.0
148
0.0
149
0.0
100
AcDbLayout
  1
Sheet1
 70
     1
 71
     1
 10
0.0
 20
0.0
 11
0.0
 21
0.0
 12
0.0
 22
0.0
 32
0.0
 14
40.49999999999999
 24
25.69999999999998
 34
0.0
 15
364.5
 25
231.3
 35
0.0
146
0.0
 13
0.0
 23
0.0
 33
0.0
 16
1.0
 26
0.0
 36
0.0
 17
0.0
 27
1.0
 37
0.0
 76
     0
330
8AF6
331
8AFA
  0
MLINESTYLE
  5
1C
102
{ACAD_REACTORS
330
1B
102
}
330
1B
100
AcDbMlineStyle
  2
STANDARD
 70
     0
  3

 62
   256
 51
90.0
 52
90.0
 71
     2
 49
0.5
 62
   256
  6
BYLAYER
 49
-0.5
 62
   256
  6
BYLAYER
  0
ACDBPLACEHOLDER
  5
73E
102
{ACAD_REACTORS
330
73D
102
}
330
73D
  0
ACAD_PROXY_OBJECT
  5
8AC7
102
{ACAD_REACTORS
330
8AC6
102
}
330
8AC6
100
AcDbProxyObject
 90
      499
 91
      507
 95
   655383
 70
     0
 93
       41
310
903313A31581
 94
        0
  0
ACAD_PROXY_OBJECT
  5
8AC8
102
{ACAD_REACTORS
330
8AC6
102
}
330
8AC6
100
AcDbProxyObject
 90
      499
 91
      507
 95
   655383
 70
     0
 93
      105
310
903313A324000000000000004042
 94
        0
  0
ACAD_PROXY_OBJECT
  5
8AC9
102
{ACAD_REACTORS
330
8AC6
102
}
330
8AC6
100
AcDbProxyObject
 90
      499
 91
      507
 95
   655383
 70
     0
 93
      105
310
903313A344000000000000104042
 94
        0
  0
ACAD_PROXY_OBJECT
  5
8ACA
102
{ACAD_REACTORS
330
8AC6
102
}
330
8AC6
100
AcDbProxyObject
 90
      499
 91
      507
 95
   655383
 70
     0
 93
      105
310
903313A354000000000000144042
 94
        0
  0
ACAD_PROXY_OBJECT
  5
8ACB
102
{ACAD_REACTORS
330
8AC6
102
}
330
8AC6
100
AcDbProxyObject
 90
      499
 91
      507
 95
   655383
 70
     0
 93
      105
310
903313A384000000000000204042
 94
        0
  0
ACAD_PROXY_OBJECT
  5
8ACC
102
{ACAD_REACTORS
330
8AC6
102
}
330
8AC6
100
AcDbProxyObject
 90
      499
 91
      507
 95
   655383
 70
     0
 93
      113
310
904313A31304000000000000244000
 94
        0
  0
ACAD_PROXY_OBJECT
  5
8ACD
102
{ACAD_REACTORS
330
8AC6
102
}
330
8AC6
100
AcDbProxyObject
 90
      499
 91
      507
 95
   655383
 70
     0
 93
      113
310
904313A31364000000000000304000
 94
        0
  0
ACAD_PROXY_OBJECT
  5
8ACE
102
{ACAD_REACTORS
330
8AC6
102
}
330
8AC6
100
AcDbProxyObject
 90
      499
 91
      507
 95
   655383
 70
     0
 93
      113
310
904313A32304000000000000344000
 94
        0
  0
ACAD_PROXY_OBJECT
  5
8ACF
102
{ACAD_REACTORS
330
8AC6
102
}
330
8AC6
100
AcDbProxyObject
 90
      499
 91
      507
 95
   655383
 70
     0
 93
      113
310
904313A333040000000000003E4000
 94
        0
  0
ACAD_PROXY_OBJECT
  5
8AD0
102
{ACAD_REACTORS
330
8AC6
102
}
330
8AC6
100
AcDbProxyObject
 90
      499
 91
      507
 95
   655383
 70
     0
 93
      113
310
904313A34304000000000000444000
 94
        0
  0
ACAD_PROXY_OBJECT
  5
8AD1
102
{ACAD_REACTORS
330
8AC6
102
}
330
8AC6
100
AcDbProxyObject
 90
      499
 91
      507
 95
   655383
 70
     0
 93
      113
310
904313A35304000000000000494000
 94
        0
  0
ACAD_PROXY_OBJECT
  5
8AD2
102
{ACAD_REACTORS
330
8AC6
102
}
330
8AC6
100
AcDbProxyObject
 90
      499
 91
      507
 95
   655383
 70
     0
 93
      121
310
905313A3130304000000000000594000
 94
        0
  0
ACAD_PROXY_OBJECT
  5
8AD3
102
{ACAD_REACTORS
330
8AC6
102
}
330
8AC6
100
AcDbProxyObject
 90
      499
 91
      507
 95
   655383
 70
     0
 93
      105
310
903323A310000000000000010159
 94
        0
  0
ACAD_PROXY_OBJECT
  5
8AD4
102
{ACAD_REACTORS
330
8AC6
102
}
330
8AC6
100
AcDbProxyObject
 90
      499
 91
      507
 95
   655383
 70
     0
 93
      105
310
903343A310000000000000410159
 94
        0
  0
ACAD_PROXY_OBJECT
  5
8AD5
102
{ACAD_REACTORS
330
8AC6
102
}
330
8AC6
100
AcDbProxyObject
 90
      499
 91
      507
 95
   655383
 70
     0
 93
      105
310
903383A310000000000000810159
 94
        0
  0
ACAD_PROXY_OBJECT
  5
8AD6
102
{ACAD_REACTORS
330
8AC6
102
}
330
8AC6
100
AcDbProxyObject
 90
      499
 91
      507
 95
   655383
 70
     0
 93
      113
310
90431303A310000000000000910140
 94
        0
  0
ACAD_PROXY_OBJECT
  5
8AD7
102
{ACAD_REACTORS
330
8AC6
102
}
330
8AC6
100
AcDbProxyObject
 90
      499
 91
      507
 95
   655383
 70
     0
 93
      121
310
9053130303A310000000000001650100
 94
        0
  0
ACAD_PROXY_OBJECT
  5
8AD8
102
{ACAD_REACTORS
330
8AC6
102
}
330
8AC6
100
AcDbProxyObject
 90
      499
 91
      507
 95
   655383
 70
     0
 93
      257
310
90E312F31323822203D2031272D3022000000000000200FC000000000000284000
 94
        0
  0
ACAD_PROXY_OBJECT
  5
8AD9
102
{ACAD_REACTORS
330
8AC6
102
}
330
8AC6
100
AcDbProxyObject
 90
      499
 91
      507
 95
   655383
 70
     0
 93
      249
310
90D312F363422203D2031272D3022000000000000240FC000000000000284040
 94
        0
  0
ACAD_PROXY_OBJECT
  5
8ADA
102
{ACAD_REACTORS
330
8AC6
102
}
330
8AC6
100
AcDbProxyObject
 90
      499
 91
      507
 95
   655383
 70
     0
 93
      249
310
90D312F333222203D2031272D3022000000000000280FC000000000000284040
 94
        0
  0
ACAD_PROXY_OBJECT
  5
8ADB
102
{ACAD_REACTORS
330
8AC6
102
}
330
8AC6
100
AcDbProxyObject
 90
      499
 91
      507
 95
   655383
 70
     0
 93
      249
310
90D312F313622203D2031272D30220000000000002C0FC000000000000284040
 94
        0
  0
ACAD_PROXY_OBJECT
  5
8ADC
102
{ACAD_REACTORS
330
8AC6
102
}
330
8AC6
100
AcDbProxyObject
 90
      499
 91
      507
 95
   655383
 70
     0
 93
      249
310
90D332F333222203D2031272D30220000000000002E0FC000000000000284040
 94
        0
  0
ACAD_PROXY_OBJECT
  5
8ADD
102
{ACAD_REACTORS
330
8AC6
102
}
330
8AC6
100
AcDbProxyObject
 90
      499
 91
      507
 95
   655383
 70
     0
 93
      241
310
90C312F3822203D2031272D3022000000000000300FC000000000000284040
 94
        0
  0
ACAD_PROXY_OBJECT
  5
8ADE
102
{ACAD_REACTORS
330
8AC6
102
}
330
8AC6
100
AcDbProxyObject
 90
      499
 91
      507
 95
   655383
 70
     0
 93
      249
310
90D332F313622203D2031272D3022000000000000320FC000000000000284040
 94
        0
  0
ACAD_PROXY_OBJECT
  5
8ADF
102
{ACAD_REACTORS
330
8AC6
102
}
330
8AC6
100
AcDbProxyObject
 90
      499
 91
      507
 95
   655383
 70
     0
 93
      241
310
90C312F3422203D2031272D3022000000000000340FC000000000000284040
 94
        0
  0
ACAD_PROXY_OBJECT
  5
8AE0
102
{ACAD_REACTORS
330
8AC6
102
}
330
8AC6
100
AcDbProxyObject
 90
      499
 91
      507
 95
   655383
 70
     0
 93
      241
310
90C332F3822203D2031272D3022000000000000360FC000000000000284040
 94
        0
  0
ACAD_PROXY_OBJECT
  5
8AE1
102
{ACAD_REACTORS
330
8AC6
102
}
330
8AC6
100
AcDbProxyObject
 90
      499
 91
      507
 95
   655383
 70
     0
 93
      241
310
90C312F3222203D2031272D3022000000000000380FC000000000000284040
 94
        0
  0
ACAD_PROXY_OBJECT
  5
8AE2
102
{ACAD_REACTORS
330
8AC6
102
}
330
8AC6
100
AcDbProxyObject
 90
      499
 91
      507
 95
   655383
 70
     0
 93
      241
310
90C332F3422203D2031272D30220000000000003A0FC000000000000284040
 94
        0
  0
ACAD_PROXY_OBJECT
  5
8AE3
102
{ACAD_REACTORS
330
8AC6
102
}
330
8AC6
100
AcDbProxyObject
 90
      499
 91
      507
 95
   655383
 70
     0
 93
      161
310
90A3122203D2031272D30224000000000000284020
 94
        0
  0
ACAD_PROXY_OBJECT
  5
8AE4
102
{ACAD_REACTORS
330
8AC6
102
}
330
8AC6
100
AcDbProxyObject
 90
      499
 91
      507
 95
   655383
 70
     0
 93
      257
310
90E312D312F3222203D2031272D30220000000000003E0FC000000000000284000
 94
        0
  0
ACAD_PROXY_OBJECT
  5
8AE5
102
{ACAD_REACTORS
330
8AC6
102
}
330
8AC6
100
AcDbProxyObject
 90
      499
 91
      507
 95
   655383
 70
     0
 93
      225
310
90A3322203D2031272D302200000000000002100000000000000284000
 94
        0
  0
ACAD_PROXY_OBJECT
  5
8AE6
102
{ACAD_REACTORS
330
8AC6
102
}
330
8AC6
100
AcDbProxyObject
 90
      499
 91
      507
 95
   655383
 70
     0
 93
      225
310
90A3622203D2031272D302200000000000006100000000000000284000
 94
        0
  0
ACAD_PROXY_OBJECT
  5
8AE7
102
{ACAD_REACTORS
330
8AC6
102
}
330
8AC6
100
AcDbProxyObject
 90
      499
 91
      507
 95
   655383
 70
     0
 93
      249
310
90D31272D3022203D2031272D30220000000000000A100000000000000284040
 94
        0
  0
DICTIONARYVAR
  5
7047
102
{ACAD_REACTORS
330
7046
102
}
330
7046
100
DictionaryVariables
280
     0
  1
1
  0
ENDSEC
  0
EOF
