  0
SECTION
  2
HEADER
  9
$ACADVER
  1
AC1015
  9
$ACADMAINTVER
 70
    10
  9
$DWGCODEPAGE
  3
ANSI_932
  9
$INSBASE
 10
0.0
 20
0.0
 30
0.0
  9
$EXTMIN
 10
13.39512515104979
 20
528.1591483196494
 30
0.0
  9
$EXTMAX
 10
533.7006948371612
 20
935.7892966669661
 30
0.0
  9
$LIMMIN
 10
0.0
 20
0.0
  9
$LIMMAX
 10
420.0
 20
297.0
  9
$ORTHOMODE
 70
     0
  9
$REGENMODE
 70
     1
  9
$FILLMODE
 70
     1
  9
$QTEXTMODE
 70
     0
  9
$MIRRTEXT
 70
     1
  9
$LTSCALE
 40
1.0
  9
$ATTMODE
 70
     1
  9
$TEXTSIZE
 40
3.0
  9
$TRACEWID
 40
1.0
  9
$TEXTSTYLE
  7
STANDARD
  9
$CLAYER
  8
0
  9
$CELTYPE
  6
BYLAYER
  9
$CECOLOR
 62
   256
  9
$CELTSCALE
 40
1.0
  9
$DISPSILH
 70
     0
  9
$DIMSCALE
 40
1.0
  9
$DIMASZ
 40
3.0
  9
$DIMEXO
 40
1.0
  9
$DIMDLI
 40
6.0
  9
$DIMRND
 40
0.0
  9
$DIMDLE
 40
0.0
  9
$DIMEXE
 40
0.75
  9
$DIMTP
 40
0.0
  9
$DIMTM
 40
0.0
  9
$DIMTXT
 40
6.0
  9
$DIMCEN
 40
3.0
  9
$DIMTSZ
 40
0.0
  9
$DIMTOL
 70
     0
  9
$DIMLIM
 70
     0
  9
$DIMTIH
 70
     0
  9
$DIMTOH
 70
     0
  9
$DIMSE1
 70
     0
  9
$DIMSE2
 70
     0
  9
$DIMTAD
 70
     1
  9
$DIMZIN
 70
     9
  9
$DIMBLK
  1

  9
$DIMASO
 70
     1
  9
$DIMSHO
 70
     1
  9
$DIMPOST
  1

  9
$DIMAPOST
  1

  9
$DIMALT
 70
     0
  9
$DIMALTD
 70
     4
  9
$DIMALTF
 40
0.0394
  9
$DIMLFAC
 40
1.0
  9
$DIMTOFL
 70
     1
  9
$DIMTVP
 40
0.0
  9
$DIMTIX
 70
     0
  9
$DIMSOXD
 70
     0
  9
$DIMSAH
 70
     1
  9
$DIMBLK1
  1
OPEN
  9
$DIMBLK2
  1
OPEN
  9
$DIMSTYLE
  2
STANDARD
  9
$DIMCLRD
 70
     0
  9
$DIMCLRE
 70
     0
  9
$DIMCLRT
 70
     7
  9
$DIMTFAC
 40
1.0
  9
$DIMGAP
 40
1.0
  9
$DIMJUST
 70
     0
  9
$DIMSD1
 70
     0
  9
$DIMSD2
 70
     0
  9
$DIMTOLJ
 70
     1
  9
$DIMTZIN
 70
     9
  9
$DIMALTZ
 70
     0
  9
$DIMALTTZ
 70
     0
  9
$DIMUPT
 70
     0
  9
$DIMDEC
 70
     4
  9
$DIMTDEC
 70
     4
  9
$DIMALTU
 70
     8
  9
$DIMALTTD
 70
     4
  9
$DIMTXSTY
  7
STANDARD
  9
$DIMAUNIT
 70
     0
  9
$DIMADEC
 70
     0
  9
$DIMALTRND
 40
0.0
  9
$DIMAZIN
 70
     2
  9
$DIMDSEP
 70
    46
  9
$DIMATFIT
 70
     3
  9
$DIMFRAC
 70
     0
  9
$DIMLDRBLK
  1
OPEN
  9
$DIMLUNIT
 70
     2
  9
$DIMLWD
 70
    -2
  9
$DIMLWE
 70
    -2
  9
$DIMTMOVE
 70
     2
  9
$LUNITS
 70
     2
  9
$LUPREC
 70
     4
  9
$SKETCHINC
 40
1.0
  9
$FILLETRAD
 40
10.0
  9
$AUNITS
 70
     0
  9
$AUPREC
 70
     0
  9
$MENU
  1
.
  9
$ELEVATION
 40
0.0
  9
$PELEVATION
 40
0.0
  9
$THICKNESS
 40
0.0
  9
$LIMCHECK
 70
     0
  9
$CHAMFERA
 40
10.0
  9
$CHAMFERB
 40
10.0
  9
$CHAMFERC
 40
20.0
  9
$CHAMFERD
 40
0.0
  9
$SKPOLY
 70
     0
  9
$TDCREATE
 40
2451224.660162384
  9
$TDUCREATE
 40
2451224.285162384
  9
$TDUPDATE
 40
2457366.476024120
  9
$TDUUPDATE
 40
2457366.101024120
  9
$TDINDWG
 40
1.4861979977
  9
$TDUSRTIMER
 40
2457315.113269085
  9
$USRTIMER
 70
     1
  9
$ANGBASE
 50
0.0
  9
$ANGDIR
 70
     0
  9
$PDMODE
 70
     0
  9
$PDSIZE
 40
0.0
  9
$PLINEWID
 40
0.0
  9
$SPLFRAME
 70
     0
  9
$SPLINETYPE
 70
     6
  9
$SPLINESEGS
 70
     8
  9
$HANDSEED
  5
9DBE
  9
$SURFTAB1
 70
     6
  9
$SURFTAB2
 70
     6
  9
$SURFTYPE
 70
     6
  9
$SURFU
 70
     6
  9
$SURFV
 70
     6
  9
$UCSBASE
  2

  9
$UCSNAME
  2

  9
$UCSORG
 10
0.0
 20
0.0
 30
0.0
  9
$UCSXDIR
 10
1.0
 20
0.0
 30
0.0
  9
$UCSYDIR
 10
0.0
 20
1.0
 30
0.0
  9
$UCSORTHOREF
  2

  9
$UCSORTHOVIEW
 70
     0
  9
$UCSORGTOP
 10
0.0
 20
0.0
 30
0.0
  9
$UCSORGBOTTOM
 10
0.0
 20
0.0
 30
0.0
  9
$UCSORGLEFT
 10
0.0
 20
0.0
 30
0.0
  9
$UCSORGRIGHT
 10
0.0
 20
0.0
 30
0.0
  9
$UCSORGFRONT
 10
0.0
 20
0.0
 30
0.0
  9
$UCSORGBACK
 10
0.0
 20
0.0
 30
0.0
  9
$PUCSBASE
  2

  9
$PUCSNAME
  2

  9
$PUCSORG
 10
0.0
 20
0.0
 30
0.0
  9
$PUCSXDIR
 10
1.0
 20
0.0
 30
0.0
  9
$PUCSYDIR
 10
0.0
 20
1.0
 30
0.0
  9
$PUCSORTHOREF
  2

  9
$PUCSORTHOVIEW
 70
     0
  9
$PUCSORGTOP
 10
0.0
 20
0.0
 30
0.0
  9
$PUCSORGBOTTOM
 10
0.0
 20
0.0
 30
0.0
  9
$PUCSORGLEFT
 10
0.0
 20
0.0
 30
0.0
  9
$PUCSORGRIGHT
 10
0.0
 20
0.0
 30
0.0
  9
$PUCSORGFRONT
 10
0.0
 20
0.0
 30
0.0
  9
$PUCSORGBACK
 10
0.0
 20
0.0
 30
0.0
  9
$USERI1
 70
     0
  9
$USERI2
 70
     0
  9
$USERI3
 70
     0
  9
$USERI4
 70
     0
  9
$USERI5
 70
     0
  9
$USERR1
 40
0.0
  9
$USERR2
 40
0.0
  9
$USERR3
 40
0.0
  9
$USERR4
 40
0.0
  9
$USERR5
 40
0.0
  9
$WORLDVIEW
 70
     1
  9
$SHADEDGE
 70
     3
  9
$SHADEDIF
 70
    70
  9
$TILEMODE
 70
     1
  9
$MAXACTVP
 70
    48
  9
$PINSBASE
 10
0.0
 20
0.0
 30
0.0
  9
$PLIMCHECK
 70
     0
  9
$PEXTMIN
 10
40.49999999999999
 20
25.69999999999998
 30
0.0
  9
$PEXTMAX
 10
364.5
 20
231.3
 30
0.0
  9
$PLIMMIN
 10
0.0
 20
0.0
  9
$PLIMMAX
 10
0.0
 20
0.0
  9
$UNITMODE
 70
     0
  9
$VISRETAIN
 70
     1
  9
$PLINEGEN
 70
     0
  9
$PSLTSCALE
 70
     1
  9
$TREEDEPTH
 70
  3020
  9
$CMLSTYLE
  2
STANDARD
  9
$CMLJUST
 70
     0
  9
$CMLSCALE
 40
20.0
  9
$PROXYGRAPHICS
 70
     1
  9
$MEASUREMENT
 70
     1
  9
$CELWEIGHT
370
    -1
  9
$ENDCAPS
280
     0
  9
$JOINSTYLE
280
     0
  9
$LWDISPLAY
290
     0
  9
$INSUNITS
 70
     0
  9
$HYPERLINKBASE
  1

  9
$STYLESHEET
  1

  9
$XEDIT
290
     1
  9
$CEPSNTYPE
380
     0
  9
$PSTYLEMODE
290
     1
  9
$FINGERPRINTGUID
  2
{6B368F64-F7EB-11D4-BFBA-00004C030E53}
  9
$VERSIONGUID
  2
{7EFD5EB1-5F3A-4591-BA94-7C0AA0FBA420}
  9
$EXTNAMES
290
     1
  9
$PSVPSCALE
 40
0.0
  9
$OLESTARTUP
290
     0
  0
ENDSEC
  0
SECTION
  2
CLASSES
  0
CLASS
  1
HATCH
  2
AcDbHatch
  3
AutoCAD 2000
 90
    32768
280
     0
281
     1
  0
CLASS
  1
LWPOLYLINE
  2
AcDbPolyline
  3
AutoCAD 2000
 90
    32768
280
     0
281
     1
  0
CLASS
  1
ACDBDICTIONARYWDFLT
  2
AcDbDictionaryWithDefault
  3
AutoCAD 2000
 90
        0
280
     0
281
     0
  0
CLASS
  1
ACDBPLACEHOLDER
  2
AcDbPlaceHolder
  3
AutoCAD 2000
 90
        0
280
     0
281
     0
  0
CLASS
  1
LAYOUT
  2
AcDbLayout
  3
AutoCAD 2000
 90
        0
280
     0
281
     0
  0
CLASS
  1
DICTIONARYVAR
  2
AcDbDictionaryVar
  3
AutoCAD 2000
 90
        0
280
     0
281
     0
  0
CLASS
  1
VISUALSTYLE
  2
AcDbVisualStyle
  3
ObjectDBX Classes
 90
    36863
280
     0
281
     0
  0
CLASS
  1
SCALE
  2
AcDbScale
  3
ObjectDBX Classes
 90
     1153
280
     0
281
     0
  0
CLASS
  1
MATERIAL
  2
AcDbMaterial
  3
ObjectDBX Classes
 90
    33921
280
     0
281
     0
  0
CLASS
  1
TABLESTYLE
  2
AcDbTableStyle
  3
ObjectDBX Classes
 90
    36863
280
     0
281
     0
  0
CLASS
  1
MLEADERSTYLE
  2
AcDbMLeaderStyle
  3
ACDB_MLEADERSTYLE_CLASS
 90
    36863
280
     0
281
     0
  0
CLASS
  1
SUN
  2
AcDbSun
  3
SCENEOE
 90
     1153
280
     0
281
     0
  0
CLASS
  1
RASTERVARIABLES
  2
AcDbRasterVariables
  3
ISM
 90
        0
280
     0
281
     0
  0
ENDSEC
  0
SECTION
  2
TABLES
  0
TABLE
  2
VPORT
  5
8
330
0
100
AcDbSymbolTable
 70
     2
  0
VPORT
  5
9DBD
330
8
100
AcDbSymbolTableRecord
100
AcDbViewportTableRecord
  2
*Active
 70
     0
 10
0.0
 20
0.0
 11
1.0
 21
1.0
 12
385.2597334263845
 22
731.9849682308547
 13
0.0
 23
0.0
 14
10.0
 24
10.0
 15
10.0
 25
10.0
 16
0.0
 26
0.0
 36
1.0
 17
0.0
 27
0.0
 37
0.0
 40
478.4155796672814
 41
1.562182741116751
 42
50.0
 43
0.0
 44
0.0
 50
0.0
 51
0.0
 71
     0
 72
   100
 73
     1
 74
     0
 75
     0
 76
     0
 77
     0
 78
     0
281
     0
 65
     1
110
0.0
120
0.0
130
0.0
111
1.0
121
0.0
131
0.0
112
0.0
122
1.0
132
0.0
 79
     0
146
0.0
  0
ENDTAB
  0
TABLE
  2
LTYPE
  5
5
330
0
100
AcDbSymbolTable
 70
     1
  0
LTYPE
  5
12
330
5
100
AcDbSymbolTableRecord
100
AcDbLinetypeTableRecord
  2
BYBLOCK
 70
     0
  3

 72
    65
 73
     0
 40
0.0
  0
LTYPE
  5
13
330
5
100
AcDbSymbolTableRecord
100
AcDbLinetypeTableRecord
  2
BYLAYER
 70
     0
  3

 72
    65
 73
     0
 40
0.0
  0
LTYPE
  5
14
330
5
100
AcDbSymbolTableRecord
100
AcDbLinetypeTableRecord
  2
CONTINUOUS
 70
     0
  3
Solid line
 72
    65
 73
     0
 40
0.0
  0
ENDTAB
  0
TABLE
  2
LAYER
  5
2
102
{ACAD_XDICTIONARY
360
9A57
102
}
330
0
100
AcDbSymbolTable
 70
     1
  0
LAYER
  5
E
330
2
100
AcDbSymbolTableRecord
100
AcDbLayerTableRecord
  2
0
 70
     0
 62
     7
  6
CONTINUOUS
370
    -3
390
73E
  0
ENDTAB
  0
TABLE
  2
STYLE
  5
3
330
0
100
AcDbSymbolTable
 70
     2
  0
STYLE
  5
F
330
3
100
AcDbSymbolTableRecord
100
AcDbTextStyleTableRecord
  2
STANDARD
 70
     0
 40
0.0
 41
1.0
 50
0.0
 71
     0
 42
3.0
  3
isocp.shx
  4
bigfont.shx
  0
STYLE
  5
35
330
3
100
AcDbSymbolTableRecord
100
AcDbTextStyleTableRecord
  2
MSｺﾞｼｯｸ
 70
     0
 40
0.0
 41
1.0
 50
0.0
 71
     0
 42
5.0
  3
MS Gothic.ttf
  4

1001
ACAD
1000
MS Gothic
1071
    32817
  0
ENDTAB
  0
TABLE
  2
VIEW
  5
6
330
0
100
AcDbSymbolTable
 70
     0
  0
ENDTAB
  0
TABLE
  2
UCS
  5
7
330
0
100
AcDbSymbolTable
 70
     0
  0
ENDTAB
  0
TABLE
  2
APPID
  5
9
330
0
100
AcDbSymbolTable
 70
     1
  0
APPID
  5
10
330
9
100
AcDbSymbolTableRecord
100
AcDbRegAppTableRecord
  2
ACAD
 70
     0
  0
ENDTAB
  0
TABLE
  2
DIMSTYLE
  5
A
330
0
100
AcDbSymbolTable
 70
     1
100
AcDbDimStyleTable
 71
     0
  0
DIMSTYLE
105
1D
330
A
100
AcDbSymbolTableRecord
100
AcDbDimStyleTableRecord
  2
STANDARD
 70
     0
 78
     8
 79
     2
140
3.0
340
F
341
89E
342
89E
  0
ENDTAB
  0
TABLE
  2
BLOCK_RECORD
  5
1
330
0
100
AcDbSymbolTable
 70
     9
  0
BLOCK_RECORD
  5
18
330
1
100
AcDbSymbolTableRecord
100
AcDbBlockTableRecord
  2
*MODEL_SPACE
340
741
  0
BLOCK_RECORD
  5
9DAE
330
1
100
AcDbSymbolTableRecord
100
AcDbBlockTableRecord
  2
*Paper_Space
340
9DAF
  0
BLOCK_RECORD
  5
24
330
1
100
AcDbSymbolTableRecord
100
AcDbBlockTableRecord
  2
_OPEN
340
0
  0
BLOCK_RECORD
  5
89E
330
1
100
AcDbSymbolTableRecord
100
AcDbBlockTableRecord
  2
_Open30
340
0
  0
BLOCK_RECORD
  5
7058
330
1
100
AcDbSymbolTableRecord
100
AcDbBlockTableRecord
  2
A$C444F17A9
340
0
102
{BLKREFS
331
89FC
102
}
  0
BLOCK_RECORD
  5
7064
330
1
100
AcDbSymbolTableRecord
100
AcDbBlockTableRecord
  2
A$C6C1277F2
340
0
102
{BLKREFS
331
89FE
102
}
  0
BLOCK_RECORD
  5
7091
330
1
100
AcDbSymbolTableRecord
100
AcDbBlockTableRecord
  2
A$C2F696F30
340
0
102
{BLKREFS
331
89FF
102
}
  0
BLOCK_RECORD
  5
70A9
330
1
100
AcDbSymbolTableRecord
100
AcDbBlockTableRecord
  2
A$C57095CDF
340
0
102
{BLKREFS
331
89E4
102
}
  0
BLOCK_RECORD
  5
70DC
330
1
100
AcDbSymbolTableRecord
100
AcDbBlockTableRecord
  2
A$C3A6E1F00
340
0
102
{BLKREFS
331
89E9
102
}
  0
BLOCK_RECORD
  5
88F5
330
1
100
AcDbSymbolTableRecord
100
AcDbBlockTableRecord
  2
A$C5A3A0BB0
340
0
102
{BLKREFS
331
89B4
102
}
  0
BLOCK_RECORD
  5
8936
330
1
100
AcDbSymbolTableRecord
100
AcDbBlockTableRecord
  2
A$C3413120B
340
0
102
{BLKREFS
331
89B6
102
}
  0
ENDTAB
  0
ENDSEC
  0
SECTION
  2
BLOCKS
  0
BLOCK
  5
19
330
18
100
AcDbEntity
  8
0
100
AcDbBlockBegin
  2
*MODEL_SPACE
 70
     0
 10
0.0
 20
0.0
 30
0.0
  3
*MODEL_SPACE
  1

  0
ENDBLK
  5
1A
330
18
100
AcDbEntity
  8
0
100
AcDbBlockEnd
  0
BLOCK
  5
9DB0
330
9DAE
100
AcDbEntity
 67
     1
  8
0
100
AcDbBlockBegin
  2
*Paper_Space
 70
     0
 10
0.0
 20
0.0
 30
0.0
  3
*Paper_Space
  1

  0
ENDBLK
  5
9DB1
330
9DAE
100
AcDbEntity
 67
     1
  8
0
100
AcDbBlockEnd
  0
BLOCK
  5
25
330
24
100
AcDbEntity
  8
0
100
AcDbBlockBegin
  2
_OPEN
 70
     0
 10
0.0
 20
0.0
 30
0.0
  3
_OPEN
  1

  0
LINE
  5
26
330
24
100
AcDbEntity
  8
0
  6
ByBlock
 62
     0
100
AcDbLine
 10
-1.0
 20
0.1666666666666666
 30
0.0
 11
0.0
 21
0.0
 31
0.0
  0
LINE
  5
27
330
24
100
AcDbEntity
  8
0
  6
ByBlock
 62
     0
100
AcDbLine
 10
0.0
 20
0.0
 30
0.0
 11
-1.0
 21
-0.1666666666666666
 31
0.0
  0
LINE
  5
28
330
24
100
AcDbEntity
  8
0
  6
ByBlock
 62
     0
100
AcDbLine
 10
0.0
 20
0.0
 30
0.0
 11
-1.0
 21
0.0
 31
0.0
  0
ENDBLK
  5
29
330
24
100
AcDbEntity
  8
0
100
AcDbBlockEnd
  0
BLOCK
  5
8A2
330
89E
100
AcDbEntity
  8
0
100
AcDbBlockBegin
  2
_Open30
 70
     0
 10
0.0
 20
0.0
 30
0.0
  3
_Open30
  1

  0
LINE
  5
89F
330
89E
100
AcDbEntity
  8
0
  6
ByBlock
 62
     0
370
    -2
100
AcDbLine
 10
-1.0
 20
0.26794919
 30
0.0
 11
0.0
 21
0.0
 31
0.0
  0
LINE
  5
8A0
330
89E
100
AcDbEntity
  8
0
  6
ByBlock
 62
     0
370
    -2
100
AcDbLine
 10
0.0
 20
0.0
 30
0.0
 11
-1.0
 21
-0.26794919
 31
0.0
  0
LINE
  5
8A1
330
89E
100
AcDbEntity
  8
0
  6
ByBlock
 62
     0
370
    -2
100
AcDbLine
 10
0.0
 20
0.0
 30
0.0
 11
-1.0
 21
0.0
 31
0.0
  0
ENDBLK
  5
8A3
330
89E
100
AcDbEntity
  8
0
100
AcDbBlockEnd
  0
BLOCK
  5
7062
330
7058
100
AcDbEntity
  8
0
100
AcDbBlockBegin
  2
A$C444F17A9
 70
     0
 10
0.0
 20
0.0
 30
0.0
  3
A$C444F17A9
  1

  0
LWPOLYLINE
  5
7059
330
7058
100
AcDbEntity
  8
0
100
AcDbPolyline
 90
        4
 70
     1
 43
0.2
 10
0.1000006076973037
 20
13.1000004860266
 10
7.625000607697302
 20
13.1000004860266
 10
7.625000607697302
 20
0.1000004860266017
 10
0.1000006076973037
 20
0.1000004860266017
  0
ELLIPSE
  5
705A
330
7058
100
AcDbEntity
  8
0
100
AcDbEllipse
 10
6.125000607697302
 20
3.07500048602651
 30
0.0
 11
0.5
 21
0.0
 31
0.0
210
0.0
220
0.0
230
1.0
 40
0.95
 41
0.0
 42
6.283184999999999
  0
LWPOLYLINE
  5
705B
330
7058
100
AcDbEntity
  8
0
100
AcDbPolyline
 90
        6
 70
     1
 43
0.2
 10
2.175000607697299
 20
3.525000486026556
 10
1.725000607697296
 20
3.100000486026601
 10
2.175000607697299
 20
2.70000048602651
 10
4.275000607697307
 20
2.70000048602651
 10
4.700000607697305
 20
3.100000486026601
 10
4.275000607697307
 20
3.525000486026556
  0
LWPOLYLINE
  5
705C
330
7058
100
AcDbEntity
  8
0
100
AcDbPolyline
 90
        6
 70
     1
 43
0.2
 10
3.250000607697302
 20
10.80000048602664
 10
2.825000607697305
 20
10.42500048602664
 10
3.250000607697302
 20
10.00000048602669
 10
5.375000607697302
 20
10.00000048602669
 10
5.775000607697307
 20
10.42500048602664
 10
5.375000607697302
 20
10.80000048602664
  0
LWPOLYLINE
  5
705D
330
7058
100
AcDbEntity
  8
0
100
AcDbPolyline
 90
        6
 70
     1
 43
0.2
 10
5.525000607697307
 20
6.70000048602651
 10
5.125000607697302
 20
6.275000486026556
 10
4.700000607697305
 20
3.500000486026692
 10
5.125000607697302
 20
3.100000486026601
 10
5.525000607697307
 20
3.500000486026692
 10
5.975000607697296
 20
6.275000486026556
  0
LWPOLYLINE
  5
705E
330
7058
100
AcDbEntity
  8
0
100
AcDbPolyline
 90
        6
 70
     1
 43
0.2
 10
6.100000607697296
 20
10.42500048602664
 10
5.675000607697299
 20
10.02500048602655
 10
5.275000607697307
 20
7.225000486026601
 10
5.675000607697299
 20
6.82500048602651
 10
6.100000607697296
 20
7.225000486026601
 10
6.525000607697307
 20
10.02500048602655
  0
LWPOLYLINE
  5
705F
330
7058
100
AcDbEntity
  8
0
100
AcDbPolyline
 90
        6
 70
     1
 43
0.2
 10
1.875000607697302
 20
6.70000048602651
 10
1.450000607697305
 20
6.275000486026556
 10
1.050000607697299
 20
3.500000486026692
 10
1.450000607697305
 20
3.100000486026601
 10
1.875000607697302
 20
3.500000486026692
 10
2.300000607697299
 20
6.275000486026556
  0
LWPOLYLINE
  5
7060
330
7058
100
AcDbEntity
  8
0
100
AcDbPolyline
 90
        6
 70
     1
 43
0.2
 10
2.725000607697296
 20
7.225000486026601
 10
2.275000607697307
 20
6.82500048602651
 10
2.725000607697296
 20
6.425000486026647
 10
4.825000607697305
 20
6.425000486026647
 10
5.225000607697296
 20
6.82500048602651
 10
4.825000607697305
 20
7.225000486026601
  0
LWPOLYLINE
  5
7061
330
7058
100
AcDbEntity
  8
0
100
AcDbPolyline
 90
        6
 70
     1
 43
0.2
 10
2.425000607697299
 20
10.42500048602664
 10
2.025000607697307
 20
10.02500048602655
 10
1.600000607697296
 20
7.225000486026601
 10
2.025000607697307
 20
6.82500048602651
 10
2.425000607697299
 20
7.225000486026601
 10
2.875000607697302
 20
10.02500048602655
  0
ENDBLK
  5
7063
330
7058
100
AcDbEntity
  8
0
100
AcDbBlockEnd
  0
BLOCK
  5
708F
330
7064
100
AcDbEntity
  8
0
100
AcDbBlockBegin
  2
A$C6C1277F2
 70
     0
 10
0.0
 20
0.0
 30
0.0
  3
A$C6C1277F2
  1

  0
ELLIPSE
  5
7065
330
7064
100
AcDbEntity
  8
0
100
AcDbEllipse
 10
4.724999973973268
 20
26.39999951743493
 30
0.0
 11
0.0
 21
0.775
 31
0.0
210
0.0
220
0.0
230
1.0
 40
0.9677419999999999
 41
0.0
 42
6.283184999999999
  0
LWPOLYLINE
  5
7066
330
7064
100
AcDbEntity
  8
0
100
AcDbPolyline
 90
        4
 70
     1
 43
0.2
 10
0.0999999739732616
 20
28.77499951743493
 10
0.0999999739732616
 20
0.0999995174349806
 10
9.324999973973262
 20
0.0999995174349806
 10
9.324999973973262
 20
28.77499951743493
  0
ELLIPSE
  5
7067
330
7064
100
AcDbEntity
  8
0
100
AcDbEllipse
 10
4.724999973973268
 20
3.399999517434935
 30
0.0
 11
0.0
 21
0.775
 31
0.0
210
0.0
220
0.0
230
1.0
 40
0.9677419999999999
 41
0.0
 42
6.283184999999999
  0
LINE
  5
7068
330
7064
100
AcDbEntity
  8
0
100
AcDbLine
 10
0.8999999739732658
 20
4.299999517435026
 30
0.0
 11
0.8999999739732658
 21
6.374999517434844
 31
0.0
  0
LINE
  5
7069
330
7064
100
AcDbEntity
  8
0
100
AcDbLine
 10
8.524999973973265
 20
4.299999517435026
 30
0.0
 11
8.524999973973265
 21
6.374999517434844
 31
0.0
  0
LINE
  5
706A
330
7064
100
AcDbEntity
  8
0
100
AcDbLine
 10
6.599999973973268
 20
4.274999517434935
 30
0.0
 11
6.599999973973268
 21
5.249999517434844
 31
0.0
  0
LINE
  5
706B
330
7064
100
AcDbEntity
  8
0
100
AcDbLine
 10
6.599999973973268
 20
5.274999517434935
 30
0.0
 11
3.024999973973265
 21
5.274999517434935
 31
0.0
  0
LINE
  5
706C
330
7064
100
AcDbEntity
  8
0
100
AcDbLine
 10
3.024999973973265
 20
4.299999517435026
 30
0.0
 11
3.024999973973265
 21
5.274999517434935
 31
0.0
  0
LINE
  5
706D
330
7064
100
AcDbEntity
  8
0
100
AcDbLine
 10
3.024999973973265
 20
4.299999517435026
 30
0.0
 11
0.8999999739732658
 21
4.299999517435026
 31
0.0
  0
LINE
  5
706E
330
7064
100
AcDbEntity
  8
0
100
AcDbLine
 10
8.524999973973265
 20
4.299999517435026
 30
0.0
 11
6.599999973973268
 21
4.299999517435026
 31
0.0
  0
LINE
  5
706F
330
7064
100
AcDbEntity
  8
0
100
AcDbLine
 10
8.524999973973265
 20
6.374999517434844
 30
0.0
 11
0.8999999739732658
 21
6.374999517434844
 31
0.0
  0
LINE
  5
7070
330
7064
100
AcDbEntity
  8
0
100
AcDbLine
 10
0.8999999739732658
 20
25.17499951743502
 30
0.0
 11
0.8999999739732658
 21
23.09999951743498
 31
0.0
  0
LINE
  5
7071
330
7064
100
AcDbEntity
  8
0
100
AcDbLine
 10
8.524999973973265
 20
25.17499951743502
 30
0.0
 11
8.524999973973265
 21
23.09999951743498
 31
0.0
  0
LINE
  5
7072
330
7064
100
AcDbEntity
  8
0
100
AcDbLine
 10
6.599999973973268
 20
25.19999951743489
 30
0.0
 11
6.599999973973268
 21
24.22499951743498
 31
0.0
  0
LINE
  5
7073
330
7064
100
AcDbEntity
  8
0
100
AcDbLine
 10
6.599999973973268
 20
24.19999951743489
 30
0.0
 11
3.024999973973265
 21
24.19999951743489
 31
0.0
  0
LINE
  5
7074
330
7064
100
AcDbEntity
  8
0
100
AcDbLine
 10
3.024999973973265
 20
25.17499951743502
 30
0.0
 11
3.024999973973265
 21
24.19999951743489
 31
0.0
  0
LINE
  5
7075
330
7064
100
AcDbEntity
  8
0
100
AcDbLine
 10
3.024999973973265
 20
25.17499951743502
 30
0.0
 11
0.8999999739732658
 21
25.17499951743502
 31
0.0
  0
LINE
  5
7076
330
7064
100
AcDbEntity
  8
0
100
AcDbLine
 10
8.524999973973265
 20
25.17499951743502
 30
0.0
 11
6.599999973973268
 21
25.17499951743502
 31
0.0
  0
LWPOLYLINE
  5
7077
330
7064
100
AcDbEntity
  8
0
100
AcDbPolyline
 90
        4
 70
     1
 43
0.0
 10
3.474999973973268
 20
11.29999951743502
 10
3.12499997397326
 20
11.29999951743502
 10
3.12499997397326
 20
10.32499951743488
 10
3.474999973973268
 20
10.32499951743488
  0
LWPOLYLINE
  5
7078
330
7064
100
AcDbEntity
  8
0
100
AcDbPolyline
 90
        4
 70
     1
 43
0.0
 10
3.474999973973268
 20
12.47499951743498
 10
3.12499997397326
 20
12.47499951743498
 10
3.12499997397326
 20
11.49999951743484
 10
3.474999973973268
 20
11.49999951743484
  0
LWPOLYLINE
  5
7079
330
7064
100
AcDbEntity
  8
0
100
AcDbPolyline
 90
        4
 70
     1
 43
0.0
 10
3.474999973973268
 20
13.74999951743484
 10
3.12499997397326
 20
13.74999951743484
 10
3.12499997397326
 20
12.77499951743493
 10
3.474999973973268
 20
12.77499951743493
  0
LWPOLYLINE
  5
707A
330
7064
100
AcDbEntity
  8
0
100
AcDbPolyline
 90
        4
 70
     1
 43
0.0
 10
3.474999973973268
 20
15.07499951743489
 10
3.12499997397326
 20
15.07499951743489
 10
3.12499997397326
 20
14.12499951743484
 10
3.474999973973268
 20
14.12499951743484
  0
LWPOLYLINE
  5
707B
330
7064
100
AcDbEntity
  8
0
100
AcDbPolyline
 90
        4
 70
     1
 43
0.0
 10
3.474999973973268
 20
16.34999951743498
 10
3.12499997397326
 20
16.34999951743498
 10
3.12499997397326
 20
15.37499951743484
 10
3.474999973973268
 20
15.37499951743484
  0
LWPOLYLINE
  5
707C
330
7064
100
AcDbEntity
  8
0
100
AcDbPolyline
 90
        4
 70
     1
 43
0.0
 10
3.474999973973268
 20
17.57499951743489
 10
3.12499997397326
 20
17.57499951743489
 10
3.12499997397326
 20
16.59999951743498
 10
3.474999973973268
 20
16.59999951743498
  0
LWPOLYLINE
  5
707D
330
7064
100
AcDbEntity
  8
0
100
AcDbPolyline
 90
        4
 70
     1
 43
0.0
 10
3.474999973973268
 20
18.84999951743498
 10
3.12499997397326
 20
18.84999951743498
 10
3.12499997397326
 20
17.84999951743498
 10
3.474999973973268
 20
17.84999951743498
  0
LWPOLYLINE
  5
707E
330
7064
100
AcDbEntity
  8
0
100
AcDbPolyline
 90
        4
 70
     1
 43
0.0
 10
6.24999997397326
 20
11.29999951743502
 10
5.899999973973265
 20
11.29999951743502
 10
5.899999973973265
 20
10.32499951743488
 10
6.24999997397326
 20
10.32499951743488
  0
LWPOLYLINE
  5
707F
330
7064
100
AcDbEntity
  8
0
100
AcDbPolyline
 90
        4
 70
     1
 43
0.0
 10
6.24999997397326
 20
12.47499951743498
 10
5.899999973973265
 20
12.47499951743498
 10
5.899999973973265
 20
11.49999951743484
 10
6.24999997397326
 20
11.49999951743484
  0
LWPOLYLINE
  5
7080
330
7064
100
AcDbEntity
  8
0
100
AcDbPolyline
 90
        4
 70
     1
 43
0.0
 10
6.24999997397326
 20
13.74999951743484
 10
5.899999973973265
 20
13.74999951743484
 10
5.899999973973265
 20
12.77499951743493
 10
6.24999997397326
 20
12.77499951743493
  0
LWPOLYLINE
  5
7081
330
7064
100
AcDbEntity
  8
0
100
AcDbPolyline
 90
        4
 70
     1
 43
0.0
 10
6.24999997397326
 20
15.07499951743489
 10
5.899999973973265
 20
15.07499951743489
 10
5.899999973973265
 20
14.12499951743484
 10
6.24999997397326
 20
14.12499951743484
  0
LWPOLYLINE
  5
7082
330
7064
100
AcDbEntity
  8
0
100
AcDbPolyline
 90
        4
 70
     1
 43
0.0
 10
6.24999997397326
 20
16.34999951743498
 10
5.899999973973265
 20
16.34999951743498
 10
5.899999973973265
 20
15.37499951743484
 10
6.24999997397326
 20
15.37499951743484
  0
LWPOLYLINE
  5
7083
330
7064
100
AcDbEntity
  8
0
100
AcDbPolyline
 90
        4
 70
     1
 43
0.0
 10
6.24999997397326
 20
17.57499951743489
 10
5.899999973973265
 20
17.57499951743489
 10
5.899999973973265
 20
16.59999951743498
 10
6.24999997397326
 20
16.59999951743498
  0
LWPOLYLINE
  5
7084
330
7064
100
AcDbEntity
  8
0
100
AcDbPolyline
 90
        4
 70
     1
 43
0.0
 10
6.24999997397326
 20
18.84999951743498
 10
5.899999973973265
 20
18.84999951743498
 10
5.899999973973265
 20
17.84999951743498
 10
6.24999997397326
 20
17.84999951743498
  0
LWPOLYLINE
  5
7085
330
7064
100
AcDbEntity
  8
0
100
AcDbPolyline
 90
        4
 70
     1
 43
0.0
 10
6.599999973973268
 20
19.69999951743488
 10
2.899999973973265
 20
19.69999951743488
 10
2.899999973973265
 20
9.47499951743498
 10
6.599999973973268
 20
9.47499951743498
  0
ELLIPSE
  5
7086
330
7064
100
AcDbEntity
  8
0
100
AcDbEllipse
 10
6.549999973973257
 20
10.02499951743493
 30
0.0
 11
0.0
 21
1.25
 31
0.0
210
0.0
220
0.0
230
1.0
 40
0.98
 41
3.380894
 42
4.528311
  0
ELLIPSE
  5
7087
330
7064
100
AcDbEntity
  8
0
100
AcDbEllipse
 10
6.549999973973257
 20
19.37499951743484
 30
0.0
 11
0.0
 21
1.25
 31
0.0
210
0.0
220
0.0
230
1.0
 40
0.98
 41
4.509903999999999
 42
6.059223999999999
  0
ELLIPSE
  5
7088
330
7064
100
AcDbEntity
  8
0
100
AcDbEllipse
 10
2.87499997397326
 20
9.049999517435026
 30
0.0
 11
0.0
 21
1.25
 31
0.0
210
0.0
220
0.0
230
1.0
 40
0.98
 41
1.708854999999999
 42
3.380894
  0
ELLIPSE
  5
7089
330
7064
100
AcDbEntity
  8
0
100
AcDbEllipse
 10
2.87499997397326
 20
20.29999951743502
 30
0.0
 11
0.0
 21
1.25
 31
0.0
210
0.0
220
0.0
230
1.0
 40
0.98
 41
6.03468
 42
8.053399307179585
  0
LINE
  5
708A
330
7064
100
AcDbEntity
  8
0
100
AcDbLine
 10
6.849999973973268
 20
20.54999951743502
 30
0.0
 11
3.149999973973265
 21
21.47499951743498
 31
0.0
  0
LINE
  5
708B
330
7064
100
AcDbEntity
  8
0
100
AcDbLine
 10
7.774999973973265
 20
10.02499951743493
 30
0.0
 11
7.774999973973265
 21
19.37499951743484
 31
0.0
  0
LINE
  5
708C
330
7064
100
AcDbEntity
  8
0
100
AcDbLine
 10
3.149999973973265
 20
7.799999517435026
 30
0.0
 11
6.849999973973268
 21
8.774999517434935
 31
0.0
  0
LINE
  5
708D
330
7064
100
AcDbEntity
  8
0
100
AcDbLine
 10
1.649999973973265
 20
20.29999951743502
 30
0.0
 11
1.649999973973265
 21
8.949999517434889
 31
0.0
  0
LINE
  5
708E
330
7064
100
AcDbEntity
  8
0
100
AcDbLine
 10
8.524999973973265
 20
23.09999951743498
 30
0.0
 11
0.8999999739732658
 21
23.09999951743498
 31
0.0
  0
ENDBLK
  5
7090
330
7064
100
AcDbEntity
  8
0
100
AcDbBlockEnd
  0
BLOCK
  5
70A7
330
7091
100
AcDbEntity
  8
0
100
AcDbBlockBegin
  2
A$C2F696F30
 70
     0
 10
0.0
 20
0.0
 30
0.0
  3
A$C2F696F30
  1

  0
LINE
  5
7092
330
7091
100
AcDbEntity
  8
0
100
AcDbLine
 10
1.400000765164122
 20
-0.0000001933823341
 30
0.0
 11
5.400000765164122
 21
-0.0000001933823341
 31
0.0
  0
LINE
  5
7093
330
7091
100
AcDbEntity
  8
0
100
AcDbLine
 10
1.400000765164122
 20
13.77499980661764
 30
0.0
 11
5.400000765164122
 21
13.77499980661764
 31
0.0
  0
LWPOLYLINE
  5
7094
330
7091
100
AcDbEntity
  8
0
100
AcDbPolyline
 90
        4
 70
     1
 43
0.2
 10
15.40000076516412
 20
13.34999980661768
 10
15.40000076516412
 20
0.3499998066176886
 10
0.4000007651641227
 20
0.3499998066176886
 10
0.4000007651641227
 20
13.34999980661768
  0
LWPOLYLINE
  5
7095
330
7091
100
AcDbEntity
  8
0
100
AcDbPolyline
 90
        4
 70
     1
 43
0.2
 10
1.400000765164122
 20
12.34999980661768
 10
3.400000765164122
 20
12.34999980661768
 10
3.400000765164122
 20
1.349999806617688
 10
1.400000765164122
 20
1.349999806617688
  0
LWPOLYLINE
  5
7096
330
7091
100
AcDbEntity
  8
0
100
AcDbPolyline
 90
        4
 70
     1
 43
0.2
 10
3.950000765164119
 20
3.349999806617688
 10
3.950000765164119
 20
2.349999806617688
 10
3.400000765164122
 20
2.349999806617688
 10
3.400000765164122
 20
3.349999806617688
  0
LWPOLYLINE
  5
7097
330
7091
100
AcDbEntity
  8
0
100
AcDbPolyline
 90
        4
 70
     1
 43
0.2
 10
3.950000765164119
 20
5.749999806617665
 10
3.950000765164119
 20
4.749999806617665
 10
3.400000765164122
 20
4.749999806617665
 10
3.400000765164122
 20
5.749999806617665
  0
LINE
  5
7098
330
7091
100
AcDbEntity
  8
0
100
AcDbLine
 10
0.0000007651641241
 20
1.349999806617688
 30
0.0
 11
0.0000007651641241
 21
5.349999806617688
 31
0.0
  0
LWPOLYLINE
  5
7099
330
7091
100
AcDbEntity
  8
0
100
AcDbPolyline
 90
        4
 70
     1
 43
0.2
 10
3.950000765164119
 20
8.949999806617711
 10
3.950000765164119
 20
7.949999806617711
 10
3.400000765164122
 20
7.949999806617711
 10
3.400000765164122
 20
8.949999806617711
  0
LWPOLYLINE
  5
709A
330
7091
100
AcDbEntity
  8
0
100
AcDbPolyline
 90
        4
 70
     1
 43
0.2
 10
3.950000765164119
 20
11.34999980661768
 10
3.950000765164119
 20
10.34999980661768
 10
3.400000765164122
 20
10.34999980661768
 10
3.400000765164122
 20
11.34999980661768
  0
LINE
  5
709B
330
7091
100
AcDbEntity
  8
0
100
AcDbLine
 10
0.0000007651641241
 20
12.34999980661768
 30
0.0
 11
0.0000007651641241
 21
8.349999806617688
 31
0.0
  0
LWPOLYLINE
  5
709C
330
7091
100
AcDbEntity
  8
0
100
AcDbPolyline
 90
        4
 70
     1
 43
0.2
 10
10.40000076516412
 20
12.34999980661768
 10
12.40000076516412
 20
12.34999980661768
 10
12.40000076516412
 20
1.349999806617688
 10
10.40000076516412
 20
1.349999806617688
  0
LINE
  5
709D
330
7091
100
AcDbEntity
  8
0
100
AcDbLine
 10
9.400000765164122
 20
13.34999980661768
 30
0.0
 11
9.400000765164122
 21
0.3499998066176886
 31
0.0
  0
LINE
  5
709E
330
7091
100
AcDbEntity
  8
0
100
AcDbLine
 10
6.400000765164122
 20
13.34999980661768
 30
0.0
 11
6.400000765164122
 21
0.3499998066176886
 31
0.0
  0
LWPOLYLINE
  5
709F
330
7091
100
AcDbEntity
  8
0
100
AcDbPolyline
 90
        4
 70
     1
 43
0.2
 10
12.95000076516412
 20
3.349999806617688
 10
12.95000076516412
 20
2.349999806617688
 10
12.40000076516412
 20
2.349999806617688
 10
12.40000076516412
 20
3.349999806617688
  0
LWPOLYLINE
  5
70A0
330
7091
100
AcDbEntity
  8
0
100
AcDbPolyline
 90
        4
 70
     1
 43
0.2
 10
12.95000076516412
 20
5.749999806617665
 10
12.95000076516412
 20
4.749999806617665
 10
12.40000076516412
 20
4.749999806617665
 10
12.40000076516412
 20
5.749999806617665
  0
LINE
  5
70A1
330
7091
100
AcDbEntity
  8
0
100
AcDbLine
 10
14.40000076516412
 20
-0.0000001933823341
 30
0.0
 11
10.40000076516412
 21
-0.0000001933823341
 31
0.0
  0
LINE
  5
70A2
330
7091
100
AcDbEntity
  8
0
100
AcDbLine
 10
15.80000076516412
 20
1.349999806617688
 30
0.0
 11
15.80000076516412
 21
5.349999806617688
 31
0.0
  0
LWPOLYLINE
  5
70A3
330
7091
100
AcDbEntity
  8
0
100
AcDbPolyline
 90
        4
 70
     1
 43
0.2
 10
12.95000076516412
 20
8.949999806617711
 10
12.95000076516412
 20
7.949999806617711
 10
12.40000076516412
 20
7.949999806617711
 10
12.40000076516412
 20
8.949999806617711
  0
LWPOLYLINE
  5
70A4
330
7091
100
AcDbEntity
  8
0
100
AcDbPolyline
 90
        4
 70
     1
 43
0.2
 10
12.95000076516412
 20
11.34999980661768
 10
12.95000076516412
 20
10.34999980661768
 10
12.40000076516412
 20
10.34999980661768
 10
12.40000076516412
 20
11.34999980661768
  0
LINE
  5
70A5
330
7091
100
AcDbEntity
  8
0
100
AcDbLine
 10
14.40000076516412
 20
13.77499980661764
 30
0.0
 11
10.40000076516412
 21
13.77499980661764
 31
0.0
  0
LINE
  5
70A6
330
7091
100
AcDbEntity
  8
0
100
AcDbLine
 10
15.80000076516412
 20
12.34999980661768
 30
0.0
 11
15.80000076516412
 21
8.349999806617688
 31
0.0
  0
ENDBLK
  5
70A8
330
7091
100
AcDbEntity
  8
0
100
AcDbBlockEnd
  0
BLOCK
  5
70DA
330
70A9
100
AcDbEntity
  8
0
100
AcDbBlockBegin
  2
A$C57095CDF
 70
     0
 10
0.0
 20
0.0
 30
0.0
  3
A$C57095CDF
  1

  0
LWPOLYLINE
  5
70AA
330
70A9
100
AcDbEntity
  8
0
100
AcDbPolyline
 90
        4
 70
     1
 43
0.0
 10
3.474999973973268
 20
16.69999991295117
 10
3.12499997397326
 20
16.69999991295117
 10
3.12499997397326
 20
15.72499991295103
 10
3.474999973973268
 20
15.72499991295103
  0
LWPOLYLINE
  5
70AB
330
70A9
100
AcDbEntity
  8
0
100
AcDbPolyline
 90
        4
 70
     1
 43
0.0
 10
6.24999997397326
 20
16.69999991295117
 10
5.899999973973265
 20
16.69999991295117
 10
5.899999973973265
 20
15.72499991295103
 10
6.24999997397326
 20
15.72499991295103
  0
LWPOLYLINE
  5
70AC
330
70A9
100
AcDbEntity
  8
0
100
AcDbPolyline
 90
        4
 70
     1
 43
0.0
 10
6.599999973973268
 20
24.09999991295103
 10
2.899999973973265
 20
24.09999991295103
 10
2.899999973973265
 20
9.94999991295117
 10
6.599999973973268
 20
9.94999991295117
  0
LINE
  5
70AD
330
70A9
100
AcDbEntity
  8
0
100
AcDbLine
 10
7.774999973973265
 20
9.899999912950988
 30
0.0
 11
7.774999973973265
 21
24.02499991295099
 31
0.0
  0
LINE
  5
70AE
330
70A9
100
AcDbEntity
  8
0
100
AcDbLine
 10
1.649999973973265
 20
24.94999991295117
 30
0.0
 11
1.649999973973265
 21
8.849999912951034
 31
0.0
  0
LWPOLYLINE
  5
70AF
330
70A9
100
AcDbEntity
  8
0
100
AcDbPolyline
 90
        4
 70
     1
 43
0.2
 10
0.0999999739732616
 20
33.42499991295108
 10
0.0999999739732616
 20
0.0999999129510343
 10
9.324999973973262
 20
0.0999999129510343
 10
9.324999973973262
 20
33.42499991295108
  0
LWPOLYLINE
  5
70B0
330
70A9
100
AcDbEntity
  8
0
100
AcDbPolyline
 90
        4
 70
     1
 43
0.0
 10
3.449999973973262
 20
11.87499991295112
 10
3.099999973973261
 20
11.87499991295112
 10
3.099999973973261
 20
10.89999991295098
 10
3.449999973973262
 20
10.89999991295098
  0
LWPOLYLINE
  5
70B1
330
70A9
100
AcDbEntity
  8
0
100
AcDbPolyline
 90
        4
 70
     1
 43
0.0
 10
6.224999973973268
 20
11.87499991295112
 10
5.87499997397326
 20
11.87499991295112
 10
5.87499997397326
 20
10.89999991295098
 10
6.224999973973268
 20
10.89999991295098
  0
LWPOLYLINE
  5
70B2
330
70A9
100
AcDbEntity
  8
0
100
AcDbPolyline
 90
        4
 70
     1
 43
0.0
 10
3.449999973973262
 20
13.07499991295117
 10
3.099999973973261
 20
13.07499991295117
 10
3.099999973973261
 20
12.09999991295103
 10
3.449999973973262
 20
12.09999991295103
  0
LWPOLYLINE
  5
70B3
330
70A9
100
AcDbEntity
  8
0
100
AcDbPolyline
 90
        4
 70
     1
 43
0.0
 10
6.224999973973268
 20
13.07499991295117
 10
5.87499997397326
 20
13.07499991295117
 10
5.87499997397326
 20
12.09999991295103
 10
6.224999973973268
 20
12.09999991295103
  0
LWPOLYLINE
  5
70B4
330
70A9
100
AcDbEntity
  8
0
100
AcDbPolyline
 90
        4
 70
     1
 43
0.0
 10
3.474999973973268
 20
14.27499991295098
 10
3.12499997397326
 20
14.27499991295098
 10
3.12499997397326
 20
13.29999991295108
 10
3.474999973973268
 20
13.29999991295108
  0
LWPOLYLINE
  5
70B5
330
70A9
100
AcDbEntity
  8
0
100
AcDbPolyline
 90
        4
 70
     1
 43
0.0
 10
6.24999997397326
 20
14.27499991295098
 10
5.899999973973265
 20
14.27499991295098
 10
5.899999973973265
 20
13.29999991295108
 10
6.24999997397326
 20
13.29999991295108
  0
LINE
  5
70B6
330
70A9
100
AcDbEntity
  8
0
100
AcDbLine
 10
0.8999999739732658
 20
4.274999912950988
 30
0.0
 11
0.8999999739732658
 21
6.349999912951034
 31
0.0
  0
LINE
  5
70B7
330
70A9
100
AcDbEntity
  8
0
100
AcDbLine
 10
8.524999973973265
 20
4.274999912950988
 30
0.0
 11
8.524999973973265
 21
6.349999912951034
 31
0.0
  0
LINE
  5
70B8
330
70A9
100
AcDbEntity
  8
0
100
AcDbLine
 10
6.599999973973268
 20
4.249999912951125
 30
0.0
 11
6.599999973973268
 21
5.224999912951034
 31
0.0
  0
LINE
  5
70B9
330
70A9
100
AcDbEntity
  8
0
100
AcDbLine
 10
6.599999973973268
 20
5.249999912951125
 30
0.0
 11
3.024999973973265
 21
5.249999912951125
 31
0.0
  0
LINE
  5
70BA
330
70A9
100
AcDbEntity
  8
0
100
AcDbLine
 10
3.024999973973265
 20
4.274999912950988
 30
0.0
 11
3.024999973973265
 21
5.249999912951125
 31
0.0
  0
LINE
  5
70BB
330
70A9
100
AcDbEntity
  8
0
100
AcDbLine
 10
3.024999973973265
 20
4.274999912950988
 30
0.0
 11
0.8999999739732658
 21
4.274999912950988
 31
0.0
  0
LINE
  5
70BC
330
70A9
100
AcDbEntity
  8
0
100
AcDbLine
 10
8.524999973973265
 20
4.274999912950988
 30
0.0
 11
6.599999973973268
 21
4.274999912950988
 31
0.0
  0
LINE
  5
70BD
330
70A9
100
AcDbEntity
  8
0
100
AcDbLine
 10
8.524999973973265
 20
6.349999912951034
 30
0.0
 11
0.8999999739732658
 21
6.349999912951034
 31
0.0
  0
LWPOLYLINE
  5
70BE
330
70A9
100
AcDbEntity
  8
0
100
AcDbPolyline
 90
        4
 70
     1
 43
0.0
 10
3.474999973973268
 20
15.52499991295098
 10
3.12499997397326
 20
15.52499991295098
 10
3.12499997397326
 20
14.54999991295108
 10
3.474999973973268
 20
14.54999991295108
  0
LWPOLYLINE
  5
70BF
330
70A9
100
AcDbEntity
  8
0
100
AcDbPolyline
 90
        4
 70
     1
 43
0.0
 10
6.24999997397326
 20
15.52499991295098
 10
5.899999973973265
 20
15.52499991295098
 10
5.899999973973265
 20
14.54999991295108
 10
6.24999997397326
 20
14.54999991295108
  0
ELLIPSE
  5
70C0
330
70A9
100
AcDbEntity
  8
0
100
AcDbEllipse
 10
6.549999973973257
 20
9.999999912951125
 30
0.0
 11
0.0
 21
1.25
 31
0.0
210
0.0
220
0.0
230
1.0
 40
0.98
 41
3.380894
 42
4.528311
  0
ELLIPSE
  5
70C1
330
70A9
100
AcDbEntity
  8
0
100
AcDbEllipse
 10
2.87499997397326
 20
9.024999912950988
 30
0.0
 11
0.0
 21
1.25
 31
0.0
210
0.0
220
0.0
230
1.0
 40
0.98
 41
1.708854999999999
 42
3.380894
  0
LINE
  5
70C2
330
70A9
100
AcDbEntity
  8
0
100
AcDbLine
 10
3.149999973973265
 20
7.774999912950988
 30
0.0
 11
6.849999973973268
 21
8.749999912951125
 31
0.0
  0
ELLIPSE
  5
70C3
330
70A9
100
AcDbEntity
  8
0
100
AcDbEllipse
 10
4.724999973973268
 20
3.374999912951125
 30
0.0
 11
0.0
 21
0.775
 31
0.0
210
0.0
220
0.0
230
1.0
 40
0.9677419999999999
 41
0.0
 42
6.283184999999999
  0
LINE
  5
70C4
330
70A9
100
AcDbEntity
  8
0
100
AcDbLine
 10
0.8999999739732658
 20
29.82499991295117
 30
0.0
 11
0.8999999739732658
 21
27.74999991295112
 31
0.0
  0
LINE
  5
70C5
330
70A9
100
AcDbEntity
  8
0
100
AcDbLine
 10
8.524999973973265
 20
29.82499991295117
 30
0.0
 11
8.524999973973265
 21
27.74999991295112
 31
0.0
  0
LINE
  5
70C6
330
70A9
100
AcDbEntity
  8
0
100
AcDbLine
 10
6.599999973973268
 20
29.84999991295103
 30
0.0
 11
6.599999973973268
 21
28.87499991295112
 31
0.0
  0
LINE
  5
70C7
330
70A9
100
AcDbEntity
  8
0
100
AcDbLine
 10
6.599999973973268
 20
28.84999991295103
 30
0.0
 11
3.024999973973265
 21
28.84999991295103
 31
0.0
  0
LINE
  5
70C8
330
70A9
100
AcDbEntity
  8
0
100
AcDbLine
 10
3.024999973973265
 20
29.82499991295117
 30
0.0
 11
3.024999973973265
 21
28.84999991295103
 31
0.0
  0
LINE
  5
70C9
330
70A9
100
AcDbEntity
  8
0
100
AcDbLine
 10
3.024999973973265
 20
29.82499991295117
 30
0.0
 11
0.8999999739732658
 21
29.82499991295117
 31
0.0
  0
LINE
  5
70CA
330
70A9
100
AcDbEntity
  8
0
100
AcDbLine
 10
8.524999973973265
 20
29.82499991295117
 30
0.0
 11
6.599999973973268
 21
29.82499991295117
 31
0.0
  0
LWPOLYLINE
  5
70CB
330
70A9
100
AcDbEntity
  8
0
100
AcDbPolyline
 90
        4
 70
     1
 43
0.0
 10
3.474999973973268
 20
17.97499991295103
 10
3.12499997397326
 20
17.97499991295103
 10
3.12499997397326
 20
16.99999991295112
 10
3.474999973973268
 20
16.99999991295112
  0
LWPOLYLINE
  5
70CC
330
70A9
100
AcDbEntity
  8
0
100
AcDbPolyline
 90
        4
 70
     1
 43
0.0
 10
3.474999973973268
 20
19.29999991295107
 10
3.12499997397326
 20
19.29999991295107
 10
3.12499997397326
 20
18.34999991295103
 10
3.474999973973268
 20
18.34999991295103
  0
LWPOLYLINE
  5
70CD
330
70A9
100
AcDbEntity
  8
0
100
AcDbPolyline
 90
        4
 70
     1
 43
0.0
 10
3.474999973973268
 20
20.57499991295117
 10
3.12499997397326
 20
20.57499991295117
 10
3.12499997397326
 20
19.59999991295103
 10
3.474999973973268
 20
19.59999991295103
  0
LWPOLYLINE
  5
70CE
330
70A9
100
AcDbEntity
  8
0
100
AcDbPolyline
 90
        4
 70
     1
 43
0.0
 10
3.474999973973268
 20
21.79999991295108
 10
3.12499997397326
 20
21.79999991295108
 10
3.12499997397326
 20
20.82499991295116
 10
3.474999973973268
 20
20.82499991295116
  0
LWPOLYLINE
  5
70CF
330
70A9
100
AcDbEntity
  8
0
100
AcDbPolyline
 90
        4
 70
     1
 43
0.0
 10
3.474999973973268
 20
23.07499991295117
 10
3.12499997397326
 20
23.07499991295117
 10
3.12499997397326
 20
22.07499991295116
 10
3.474999973973268
 20
22.07499991295116
  0
LWPOLYLINE
  5
70D0
330
70A9
100
AcDbEntity
  8
0
100
AcDbPolyline
 90
        4
 70
     1
 43
0.0
 10
6.24999997397326
 20
17.97499991295103
 10
5.899999973973265
 20
17.97499991295103
 10
5.899999973973265
 20
16.99999991295112
 10
6.24999997397326
 20
16.99999991295112
  0
LWPOLYLINE
  5
70D1
330
70A9
100
AcDbEntity
  8
0
100
AcDbPolyline
 90
        4
 70
     1
 43
0.0
 10
6.24999997397326
 20
19.29999991295107
 10
5.899999973973265
 20
19.29999991295107
 10
5.899999973973265
 20
18.34999991295103
 10
6.24999997397326
 20
18.34999991295103
  0
LWPOLYLINE
  5
70D2
330
70A9
100
AcDbEntity
  8
0
100
AcDbPolyline
 90
        4
 70
     1
 43
0.0
 10
6.24999997397326
 20
20.57499991295117
 10
5.899999973973265
 20
20.57499991295117
 10
5.899999973973265
 20
19.59999991295103
 10
6.24999997397326
 20
19.59999991295103
  0
LWPOLYLINE
  5
70D3
330
70A9
100
AcDbEntity
  8
0
100
AcDbPolyline
 90
        4
 70
     1
 43
0.0
 10
6.24999997397326
 20
21.79999991295108
 10
5.899999973973265
 20
21.79999991295108
 10
5.899999973973265
 20
20.82499991295116
 10
6.24999997397326
 20
20.82499991295116
  0
LWPOLYLINE
  5
70D4
330
70A9
100
AcDbEntity
  8
0
100
AcDbPolyline
 90
        4
 70
     1
 43
0.0
 10
6.24999997397326
 20
23.07499991295117
 10
5.899999973973265
 20
23.07499991295117
 10
5.899999973973265
 20
22.07499991295116
 10
6.24999997397326
 20
22.07499991295116
  0
ELLIPSE
  5
70D5
330
70A9
100
AcDbEntity
  8
0
100
AcDbEllipse
 10
6.549999973973257
 20
24.02499991295099
 30
0.0
 11
0.0
 21
1.25
 31
0.0
210
0.0
220
0.0
230
1.0
 40
0.98
 41
4.509903999999999
 42
6.059223999999999
  0
ELLIPSE
  5
70D6
330
70A9
100
AcDbEntity
  8
0
100
AcDbEllipse
 10
2.87499997397326
 20
24.94999991295117
 30
0.0
 11
0.0
 21
1.25
 31
0.0
210
0.0
220
0.0
230
1.0
 40
0.98
 41
6.03468
 42
8.053399307179585
  0
LINE
  5
70D7
330
70A9
100
AcDbEntity
  8
0
100
AcDbLine
 10
6.849999973973268
 20
25.19999991295117
 30
0.0
 11
3.149999973973265
 21
26.12499991295112
 31
0.0
  0
ELLIPSE
  5
70D8
330
70A9
100
AcDbEntity
  8
0
100
AcDbEllipse
 10
4.724999973973268
 20
31.04999991295108
 30
0.0
 11
0.0
 21
0.775
 31
0.0
210
0.0
220
0.0
230
1.0
 40
0.9677419999999999
 41
0.0
 42
6.283184999999999
  0
LINE
  5
70D9
330
70A9
100
AcDbEntity
  8
0
100
AcDbLine
 10
8.524999973973265
 20
27.74999991295112
 30
0.0
 11
0.8999999739732658
 21
27.74999991295112
 31
0.0
  0
ENDBLK
  5
70DB
330
70A9
100
AcDbEntity
  8
0
100
AcDbBlockEnd
  0
BLOCK
  5
711D
330
70DC
100
AcDbEntity
  8
0
100
AcDbBlockBegin
  2
A$C3A6E1F00
 70
     0
 10
0.0
 20
0.0
 30
0.0
  3
A$C3A6E1F00
  1

  0
LWPOLYLINE
  5
70DD
330
70DC
100
AcDbEntity
  8
0
100
AcDbPolyline
 90
        4
 70
     1
 43
0.0
 10
3.449999973973262
 20
15.9499995198721
 10
3.099999973973261
 20
15.9499995198721
 10
3.099999973973261
 20
14.9749995198722
 10
3.449999973973262
 20
14.9749995198722
  0
LWPOLYLINE
  5
70DE
330
70DC
100
AcDbEntity
  8
0
100
AcDbPolyline
 90
        4
 70
     1
 43
0.0
 10
6.224999973973268
 20
15.9499995198721
 10
5.87499997397326
 20
15.9499995198721
 10
5.87499997397326
 20
14.9749995198722
 10
6.224999973973268
 20
14.9749995198722
  0
LWPOLYLINE
  5
70DF
330
70DC
100
AcDbEntity
  8
0
100
AcDbPolyline
 90
        4
 70
     1
 43
0.0
 10
6.599999973973268
 20
34.0749995198721
 10
2.899999973973265
 20
34.0749995198721
 10
2.899999973973265
 20
10.27499951987215
 10
6.599999973973268
 20
10.27499951987215
  0
LINE
  5
70E0
330
70DC
100
AcDbEntity
  8
0
100
AcDbLine
 10
7.774999973973265
 20
9.824999519872108
 30
0.0
 11
7.774999973973265
 21
33.99999951987206
 31
0.0
  0
LINE
  5
70E1
330
70DC
100
AcDbEntity
  8
0
100
AcDbLine
 10
1.649999973973265
 20
34.92499951987224
 30
0.0
 11
1.649999973973265
 21
8.899999519872153
 31
0.0
  0
LWPOLYLINE
  5
70E2
330
70DC
100
AcDbEntity
  8
0
100
AcDbPolyline
 90
        4
 70
     1
 43
0.2
 10
0.0999999739732616
 20
43.39999951987215
 10
0.0999999739732616
 20
0.099999519872199
 10
9.324999973973262
 20
0.099999519872199
 10
9.324999973973262
 20
43.39999951987215
  0
LWPOLYLINE
  5
70E3
330
70DC
100
AcDbEntity
  8
0
100
AcDbPolyline
 90
        4
 70
     1
 43
0.0
 10
3.449999973973262
 20
12.29999951987224
 10
3.099999973973261
 20
12.29999951987224
 10
3.099999973973261
 20
11.3249995198721
 10
3.449999973973262
 20
11.3249995198721
  0
LWPOLYLINE
  5
70E4
330
70DC
100
AcDbEntity
  8
0
100
AcDbPolyline
 90
        4
 70
     1
 43
0.0
 10
6.224999973973268
 20
12.29999951987224
 10
5.87499997397326
 20
12.29999951987224
 10
5.87499997397326
 20
11.3249995198721
 10
6.224999973973268
 20
11.3249995198721
  0
LWPOLYLINE
  5
70E5
330
70DC
100
AcDbEntity
  8
0
100
AcDbPolyline
 90
        4
 70
     1
 43
0.0
 10
3.449999973973262
 20
13.52499951987215
 10
3.099999973973261
 20
13.52499951987215
 10
3.099999973973261
 20
12.54999951987224
 10
3.449999973973262
 20
12.54999951987224
  0
LWPOLYLINE
  5
70E6
330
70DC
100
AcDbEntity
  8
0
100
AcDbPolyline
 90
        4
 70
     1
 43
0.0
 10
6.224999973973268
 20
13.52499951987215
 10
5.87499997397326
 20
13.52499951987215
 10
5.87499997397326
 20
12.54999951987224
 10
6.224999973973268
 20
12.54999951987224
  0
LWPOLYLINE
  5
70E7
330
70DC
100
AcDbEntity
  8
0
100
AcDbPolyline
 90
        4
 70
     1
 43
0.0
 10
3.449999973973262
 20
14.74999951987206
 10
3.099999973973261
 20
14.74999951987206
 10
3.099999973973261
 20
13.77499951987215
 10
3.449999973973262
 20
13.77499951987215
  0
LWPOLYLINE
  5
70E8
330
70DC
100
AcDbEntity
  8
0
100
AcDbPolyline
 90
        4
 70
     1
 43
0.0
 10
6.224999973973268
 20
14.74999951987206
 10
5.87499997397326
 20
14.74999951987206
 10
5.87499997397326
 20
13.77499951987215
 10
6.224999973973268
 20
13.77499951987215
  0
LINE
  5
70E9
330
70DC
100
AcDbEntity
  8
0
100
AcDbLine
 10
0.8999999739732658
 20
4.374999519872176
 30
0.0
 11
0.8999999739732658
 21
6.449999519872108
 31
0.0
  0
LINE
  5
70EA
330
70DC
100
AcDbEntity
  8
0
100
AcDbLine
 10
8.524999973973265
 20
4.374999519872176
 30
0.0
 11
8.524999973973265
 21
6.449999519872108
 31
0.0
  0
LINE
  5
70EB
330
70DC
100
AcDbEntity
  8
0
100
AcDbLine
 10
6.599999973973268
 20
4.349999519872199
 30
0.0
 11
6.599999973973268
 21
5.324999519872108
 31
0.0
  0
LINE
  5
70EC
330
70DC
100
AcDbEntity
  8
0
100
AcDbLine
 10
6.599999973973268
 20
5.349999519872199
 30
0.0
 11
3.024999973973265
 21
5.349999519872199
 31
0.0
  0
LINE
  5
70ED
330
70DC
100
AcDbEntity
  8
0
100
AcDbLine
 10
3.024999973973265
 20
4.374999519872176
 30
0.0
 11
3.024999973973265
 21
5.349999519872199
 31
0.0
  0
LINE
  5
70EE
330
70DC
100
AcDbEntity
  8
0
100
AcDbLine
 10
3.024999973973265
 20
4.374999519872176
 30
0.0
 11
0.8999999739732658
 21
4.374999519872176
 31
0.0
  0
LINE
  5
70EF
330
70DC
100
AcDbEntity
  8
0
100
AcDbLine
 10
8.524999973973265
 20
4.374999519872176
 30
0.0
 11
6.599999973973268
 21
4.374999519872176
 31
0.0
  0
LINE
  5
70F0
330
70DC
100
AcDbEntity
  8
0
100
AcDbLine
 10
8.524999973973265
 20
6.449999519872108
 30
0.0
 11
0.8999999739732658
 21
6.449999519872108
 31
0.0
  0
ELLIPSE
  5
70F1
330
70DC
100
AcDbEntity
  8
0
100
AcDbEllipse
 10
6.549999973973257
 20
10.04999951987224
 30
0.0
 11
0.0
 21
1.25
 31
0.0
210
0.0
220
0.0
230
1.0
 40
0.98
 41
3.380894
 42
4.528311
  0
ELLIPSE
  5
70F2
330
70DC
100
AcDbEntity
  8
0
100
AcDbEllipse
 10
2.87499997397326
 20
9.074999519872108
 30
0.0
 11
0.0
 21
1.25
 31
0.0
210
0.0
220
0.0
230
1.0
 40
0.98
 41
1.708854999999999
 42
3.380894
  0
LINE
  5
70F3
330
70DC
100
AcDbEntity
  8
0
100
AcDbLine
 10
3.149999973973265
 20
7.824999519872108
 30
0.0
 11
6.849999973973268
 21
8.799999519872244
 31
0.0
  0
ELLIPSE
  5
70F4
330
70DC
100
AcDbEntity
  8
0
100
AcDbEllipse
 10
4.724999973973268
 20
3.474999519872199
 30
0.0
 11
0.0
 21
0.775
 31
0.0
210
0.0
220
0.0
230
1.0
 40
0.9677419999999999
 41
0.0
 42
6.283184999999999
  0
LINE
  5
70F5
330
70DC
100
AcDbEntity
  8
0
100
AcDbLine
 10
0.8999999739732658
 20
39.79999951987224
 30
0.0
 11
0.8999999739732658
 21
37.72499951987219
 31
0.0
  0
LINE
  5
70F6
330
70DC
100
AcDbEntity
  8
0
100
AcDbLine
 10
8.524999973973265
 20
39.79999951987224
 30
0.0
 11
8.524999973973265
 21
37.72499951987219
 31
0.0
  0
LWPOLYLINE
  5
70F7
330
70DC
100
AcDbEntity
  8
0
100
AcDbPolyline
 90
        4
 70
     1
 43
0.0
 10
3.449999973973262
 20
17.12499951987206
 10
3.099999973973261
 20
17.12499951987206
 10
3.099999973973261
 20
16.14999951987215
 10
3.449999973973262
 20
16.14999951987215
  0
LWPOLYLINE
  5
70F8
330
70DC
100
AcDbEntity
  8
0
100
AcDbPolyline
 90
        4
 70
     1
 43
0.0
 10
6.224999973973268
 20
17.12499951987206
 10
5.87499997397326
 20
17.12499951987206
 10
5.87499997397326
 20
16.14999951987215
 10
6.224999973973268
 20
16.14999951987215
  0
LWPOLYLINE
  5
70F9
330
70DC
100
AcDbEntity
  8
0
100
AcDbPolyline
 90
        4
 70
     1
 43
0.0
 10
3.449999973973262
 20
18.29999951987224
 10
3.099999973973261
 20
18.29999951987224
 10
3.099999973973261
 20
17.3249995198721
 10
3.449999973973262
 20
17.3249995198721
  0
LWPOLYLINE
  5
70FA
330
70DC
100
AcDbEntity
  8
0
100
AcDbPolyline
 90
        4
 70
     1
 43
0.0
 10
6.224999973973268
 20
18.29999951987224
 10
5.87499997397326
 20
18.29999951987224
 10
5.87499997397326
 20
17.3249995198721
 10
6.224999973973268
 20
17.3249995198721
  0
LWPOLYLINE
  5
70FB
330
70DC
100
AcDbEntity
  8
0
100
AcDbPolyline
 90
        4
 70
     1
 43
0.0
 10
3.449999973973262
 20
19.4749995198722
 10
3.099999973973261
 20
19.4749995198722
 10
3.099999973973261
 20
18.49999951987206
 10
3.449999973973262
 20
18.49999951987206
  0
LWPOLYLINE
  5
70FC
330
70DC
100
AcDbEntity
  8
0
100
AcDbPolyline
 90
        4
 70
     1
 43
0.0
 10
6.224999973973268
 20
19.4749995198722
 10
5.87499997397326
 20
19.4749995198722
 10
5.87499997397326
 20
18.49999951987206
 10
6.224999973973268
 20
18.49999951987206
  0
LWPOLYLINE
  5
70FD
330
70DC
100
AcDbEntity
  8
0
100
AcDbPolyline
 90
        4
 70
     1
 43
0.0
 10
3.449999973973262
 20
20.67499951987224
 10
3.099999973973261
 20
20.67499951987224
 10
3.099999973973261
 20
19.6999995198721
 10
3.449999973973262
 20
19.6999995198721
  0
LWPOLYLINE
  5
70FE
330
70DC
100
AcDbEntity
  8
0
100
AcDbPolyline
 90
        4
 70
     1
 43
0.0
 10
6.224999973973268
 20
20.67499951987224
 10
5.87499997397326
 20
20.67499951987224
 10
5.87499997397326
 20
19.6999995198721
 10
6.224999973973268
 20
19.6999995198721
  0
LWPOLYLINE
  5
70FF
330
70DC
100
AcDbEntity
  8
0
100
AcDbPolyline
 90
        4
 70
     1
 43
0.0
 10
3.449999973973262
 20
21.8499995198722
 10
3.099999973973261
 20
21.8499995198722
 10
3.099999973973261
 20
20.87499951987206
 10
3.449999973973262
 20
20.87499951987206
  0
LWPOLYLINE
  5
7100
330
70DC
100
AcDbEntity
  8
0
100
AcDbPolyline
 90
        4
 70
     1
 43
0.0
 10
6.224999973973268
 20
21.8499995198722
 10
5.87499997397326
 20
21.8499995198722
 10
5.87499997397326
 20
20.87499951987206
 10
6.224999973973268
 20
20.87499951987206
  0
LWPOLYLINE
  5
7101
330
70DC
100
AcDbEntity
  8
0
100
AcDbPolyline
 90
        4
 70
     1
 43
0.0
 10
3.449999973973262
 20
23.04999951987224
 10
3.099999973973261
 20
23.04999951987224
 10
3.099999973973261
 20
22.0749995198721
 10
3.449999973973262
 20
22.0749995198721
  0
LWPOLYLINE
  5
7102
330
70DC
100
AcDbEntity
  8
0
100
AcDbPolyline
 90
        4
 70
     1
 43
0.0
 10
6.224999973973268
 20
23.04999951987224
 10
5.87499997397326
 20
23.04999951987224
 10
5.87499997397326
 20
22.0749995198721
 10
6.224999973973268
 20
22.0749995198721
  0
LWPOLYLINE
  5
7103
330
70DC
100
AcDbEntity
  8
0
100
AcDbPolyline
 90
        4
 70
     1
 43
0.0
 10
3.474999973973268
 20
24.24999951987206
 10
3.12499997397326
 20
24.24999951987206
 10
3.12499997397326
 20
23.27499951987215
 10
3.474999973973268
 20
23.27499951987215
  0
LWPOLYLINE
  5
7104
330
70DC
100
AcDbEntity
  8
0
100
AcDbPolyline
 90
        4
 70
     1
 43
0.0
 10
6.24999997397326
 20
24.24999951987206
 10
5.899999973973265
 20
24.24999951987206
 10
5.899999973973265
 20
23.27499951987215
 10
6.24999997397326
 20
23.27499951987215
  0
LWPOLYLINE
  5
7105
330
70DC
100
AcDbEntity
  8
0
100
AcDbPolyline
 90
        4
 70
     1
 43
0.0
 10
3.474999973973268
 20
25.49999951987206
 10
3.12499997397326
 20
25.49999951987206
 10
3.12499997397326
 20
24.52499951987215
 10
3.474999973973268
 20
24.52499951987215
  0
LWPOLYLINE
  5
7106
330
70DC
100
AcDbEntity
  8
0
100
AcDbPolyline
 90
        4
 70
     1
 43
0.0
 10
3.474999973973268
 20
26.67499951987224
 10
3.12499997397326
 20
26.67499951987224
 10
3.12499997397326
 20
25.6999995198721
 10
3.474999973973268
 20
25.6999995198721
  0
LWPOLYLINE
  5
7107
330
70DC
100
AcDbEntity
  8
0
100
AcDbPolyline
 90
        4
 70
     1
 43
0.0
 10
3.474999973973268
 20
27.94999951987211
 10
3.12499997397326
 20
27.94999951987211
 10
3.12499997397326
 20
26.9749995198722
 10
3.474999973973268
 20
26.9749995198722
  0
LWPOLYLINE
  5
7108
330
70DC
100
AcDbEntity
  8
0
100
AcDbPolyline
 90
        4
 70
     1
 43
0.0
 10
3.474999973973268
 20
29.27499951987215
 10
3.12499997397326
 20
29.27499951987215
 10
3.12499997397326
 20
28.32499951987211
 10
3.474999973973268
 20
28.32499951987211
  0
LWPOLYLINE
  5
7109
330
70DC
100
AcDbEntity
  8
0
100
AcDbPolyline
 90
        4
 70
     1
 43
0.0
 10
3.474999973973268
 20
30.54999951987224
 10
3.12499997397326
 20
30.54999951987224
 10
3.12499997397326
 20
29.57499951987211
 10
3.474999973973268
 20
29.57499951987211
  0
LWPOLYLINE
  5
710A
330
70DC
100
AcDbEntity
  8
0
100
AcDbPolyline
 90
        4
 70
     1
 43
0.0
 10
3.474999973973268
 20
31.77499951987215
 10
3.12499997397326
 20
31.77499951987215
 10
3.12499997397326
 20
30.79999951987224
 10
3.474999973973268
 20
30.79999951987224
  0
LWPOLYLINE
  5
710B
330
70DC
100
AcDbEntity
  8
0
100
AcDbPolyline
 90
        4
 70
     1
 43
0.0
 10
3.474999973973268
 20
33.04999951987224
 10
3.12499997397326
 20
33.04999951987224
 10
3.12499997397326
 20
32.04999951987224
 10
3.474999973973268
 20
32.04999951987224
  0
LWPOLYLINE
  5
710C
330
70DC
100
AcDbEntity
  8
0
100
AcDbPolyline
 90
        4
 70
     1
 43
0.0
 10
6.24999997397326
 20
25.49999951987206
 10
5.899999973973265
 20
25.49999951987206
 10
5.899999973973265
 20
24.52499951987215
 10
6.24999997397326
 20
24.52499951987215
  0
LWPOLYLINE
  5
710D
330
70DC
100
AcDbEntity
  8
0
100
AcDbPolyline
 90
        4
 70
     1
 43
0.0
 10
6.24999997397326
 20
26.67499951987224
 10
5.899999973973265
 20
26.67499951987224
 10
5.899999973973265
 20
25.6999995198721
 10
6.24999997397326
 20
25.6999995198721
  0
LWPOLYLINE
  5
710E
330
70DC
100
AcDbEntity
  8
0
100
AcDbPolyline
 90
        4
 70
     1
 43
0.0
 10
6.24999997397326
 20
27.94999951987211
 10
5.899999973973265
 20
27.94999951987211
 10
5.899999973973265
 20
26.9749995198722
 10
6.24999997397326
 20
26.9749995198722
  0
LWPOLYLINE
  5
710F
330
70DC
100
AcDbEntity
  8
0
100
AcDbPolyline
 90
        4
 70
     1
 43
0.0
 10
6.24999997397326
 20
29.27499951987215
 10
5.899999973973265
 20
29.27499951987215
 10
5.899999973973265
 20
28.32499951987211
 10
6.24999997397326
 20
28.32499951987211
  0
LWPOLYLINE
  5
7110
330
70DC
100
AcDbEntity
  8
0
100
AcDbPolyline
 90
        4
 70
     1
 43
0.0
 10
6.24999997397326
 20
30.54999951987224
 10
5.899999973973265
 20
30.54999951987224
 10
5.899999973973265
 20
29.57499951987211
 10
6.24999997397326
 20
29.57499951987211
  0
LWPOLYLINE
  5
7111
330
70DC
100
AcDbEntity
  8
0
100
AcDbPolyline
 90
        4
 70
     1
 43
0.0
 10
6.24999997397326
 20
31.77499951987215
 10
5.899999973973265
 20
31.77499951987215
 10
5.899999973973265
 20
30.79999951987224
 10
6.24999997397326
 20
30.79999951987224
  0
LWPOLYLINE
  5
7112
330
70DC
100
AcDbEntity
  8
0
100
AcDbPolyline
 90
        4
 70
     1
 43
0.0
 10
6.24999997397326
 20
33.04999951987224
 10
5.899999973973265
 20
33.04999951987224
 10
5.899999973973265
 20
32.04999951987224
 10
6.24999997397326
 20
32.04999951987224
  0
ELLIPSE
  5
7113
330
70DC
100
AcDbEntity
  8
0
100
AcDbEllipse
 10
6.549999973973257
 20
33.99999951987206
 30
0.0
 11
0.0
 21
1.25
 31
0.0
210
0.0
220
0.0
230
1.0
 40
0.98
 41
4.509903999999999
 42
6.059223999999999
  0
ELLIPSE
  5
7114
330
70DC
100
AcDbEntity
  8
0
100
AcDbEllipse
 10
2.87499997397326
 20
34.92499951987224
 30
0.0
 11
0.0
 21
1.25
 31
0.0
210
0.0
220
0.0
230
1.0
 40
0.98
 41
6.03468
 42
8.053399307179585
  0
LINE
  5
7115
330
70DC
100
AcDbEntity
  8
0
100
AcDbLine
 10
6.849999973973268
 20
35.17499951987224
 30
0.0
 11
3.149999973973265
 21
36.09999951987219
 31
0.0
  0
LINE
  5
7116
330
70DC
100
AcDbEntity
  8
0
100
AcDbLine
 10
8.524999973973265
 20
37.72499951987219
 30
0.0
 11
0.8999999739732658
 21
37.72499951987219
 31
0.0
  0
LINE
  5
7117
330
70DC
100
AcDbEntity
  8
0
100
AcDbLine
 10
6.599999973973268
 20
39.82499951987211
 30
0.0
 11
6.599999973973268
 21
38.8499995198722
 31
0.0
  0
LINE
  5
7118
330
70DC
100
AcDbEntity
  8
0
100
AcDbLine
 10
6.599999973973268
 20
38.8249995198721
 30
0.0
 11
3.024999973973265
 21
38.8249995198721
 31
0.0
  0
LINE
  5
7119
330
70DC
100
AcDbEntity
  8
0
100
AcDbLine
 10
3.024999973973265
 20
39.79999951987224
 30
0.0
 11
3.024999973973265
 21
38.8249995198721
 31
0.0
  0
LINE
  5
711A
330
70DC
100
AcDbEntity
  8
0
100
AcDbLine
 10
3.024999973973265
 20
39.79999951987224
 30
0.0
 11
0.8999999739732658
 21
39.79999951987224
 31
0.0
  0
LINE
  5
711B
330
70DC
100
AcDbEntity
  8
0
100
AcDbLine
 10
8.524999973973265
 20
39.79999951987224
 30
0.0
 11
6.599999973973268
 21
39.79999951987224
 31
0.0
  0
ELLIPSE
  5
711C
330
70DC
100
AcDbEntity
  8
0
100
AcDbEllipse
 10
4.724999973973268
 20
41.02499951987215
 30
0.0
 11
0.0
 21
0.775
 31
0.0
210
0.0
220
0.0
230
1.0
 40
0.9677419999999999
 41
0.0
 42
6.283184999999999
  0
ENDBLK
  5
711E
330
70DC
100
AcDbEntity
  8
0
100
AcDbBlockEnd
  0
BLOCK
  5
8934
330
88F5
100
AcDbEntity
  8
0
100
AcDbBlockBegin
  2
A$C5A3A0BB0
 70
     0
 10
0.0
 20
0.0
 30
0.0
  3
A$C5A3A0BB0
  1

  0
LWPOLYLINE
  5
88F6
330
88F5
100
AcDbEntity
  8
0
100
AcDbPolyline
 90
        4
 70
     1
 43
0.2
 10
0.0999993794071088
 20
51.09999997583827
 10
15.0999993794071
 20
51.09999997583827
 10
15.0999993794071
 20
0.0999999758382728
 10
0.0999993794071088
 20
0.0999999758382728
  0
LINE
  5
88F7
330
88F5
100
AcDbEntity
  8
0
100
AcDbLine
 10
5.099999379407108
 20
4.099999975838272
 30
0.0
 11
7.099999379407108
 21
5.099999975838272
 31
0.0
  0
LINE
  5
88F8
330
88F5
100
AcDbEntity
  8
0
100
AcDbLine
 10
3.099999379407108
 20
4.099999975838272
 30
0.0
 11
2.099999379407108
 21
5.099999975838272
 31
0.0
  0
LWPOLYLINE
  5
88F9
330
88F5
100
AcDbEntity
  8
0
100
AcDbPolyline
 90
        4
 70
     1
 43
0.2
 10
2.099999379407108
 20
5.099999975838272
 10
7.099999379407108
 20
5.099999975838272
 10
7.099999379407108
 20
1.099999975838272
 10
2.099999379407108
 20
1.099999975838272
  0
LINE
  5
88FA
330
88F5
100
AcDbEntity
  8
0
100
AcDbLine
 10
10.0999993794071
 20
51.09999997583827
 30
0.0
 11
10.0999993794071
 21
0.0999999758382728
 31
0.0
  0
LINE
  5
88FB
330
88F5
100
AcDbEntity
  8
0
100
AcDbLine
 10
5.099999379407108
 20
2.099999975838272
 30
0.0
 11
7.099999379407108
 21
1.099999975838272
 31
0.0
  0
LINE
  5
88FC
330
88F5
100
AcDbEntity
  8
0
100
AcDbLine
 10
3.099999379407108
 20
2.099999975838272
 30
0.0
 11
2.099999379407108
 21
1.099999975838272
 31
0.0
  0
LWPOLYLINE
  5
88FD
330
88F5
100
AcDbEntity
  8
0
100
AcDbPolyline
 90
        4
 70
     1
 43
0.2
 10
3.099999379407108
 20
4.099999975838272
 10
5.099999379407108
 20
4.099999975838272
 10
5.099999379407108
 20
2.099999975838272
 10
3.099999379407108
 20
2.099999975838272
  0
LINE
  5
88FE
330
88F5
100
AcDbEntity
  8
0
100
AcDbLine
 10
5.099999379407108
 20
49.09999997583827
 30
0.0
 11
7.099999379407108
 21
50.09999997583827
 31
0.0
  0
LINE
  5
88FF
330
88F5
100
AcDbEntity
  8
0
100
AcDbLine
 10
3.099999379407108
 20
49.09999997583827
 30
0.0
 11
2.099999379407108
 21
50.09999997583827
 31
0.0
  0
LWPOLYLINE
  5
8900
330
88F5
100
AcDbEntity
  8
0
100
AcDbPolyline
 90
        4
 70
     1
 43
0.2
 10
2.099999379407108
 20
50.09999997583827
 10
7.099999379407108
 20
50.09999997583827
 10
7.099999379407108
 20
46.09999997583827
 10
2.099999379407108
 20
46.09999997583827
  0
LINE
  5
8901
330
88F5
100
AcDbEntity
  8
0
100
AcDbLine
 10
5.099999379407108
 20
27.09999997583827
 30
0.0
 11
7.099999379407108
 21
26.09999997583827
 31
0.0
  0
LINE
  5
8902
330
88F5
100
AcDbEntity
  8
0
100
AcDbLine
 10
3.099999379407108
 20
27.09999997583827
 30
0.0
 11
2.099999379407108
 21
26.09999997583827
 31
0.0
  0
LWPOLYLINE
  5
8903
330
88F5
100
AcDbEntity
  8
0
100
AcDbPolyline
 90
        4
 70
     1
 43
0.2
 10
2.099999379407108
 20
30.09999997583827
 10
7.099999379407108
 20
30.09999997583827
 10
7.099999379407108
 20
26.09999997583827
 10
2.099999379407108
 20
26.09999997583827
  0
LINE
  5
8904
330
88F5
100
AcDbEntity
  8
0
100
AcDbLine
 10
5.099999379407108
 20
9.099999975838272
 30
0.0
 11
7.099999379407108
 21
10.09999997583827
 31
0.0
  0
LINE
  5
8905
330
88F5
100
AcDbEntity
  8
0
100
AcDbLine
 10
5.099999379407108
 20
7.099999975838272
 30
0.0
 11
7.099999379407108
 21
6.099999975838272
 31
0.0
  0
LINE
  5
8906
330
88F5
100
AcDbEntity
  8
0
100
AcDbLine
 10
3.099999379407108
 20
7.099999975838272
 30
0.0
 11
2.099999379407108
 21
6.099999975838272
 31
0.0
  0
LINE
  5
8907
330
88F5
100
AcDbEntity
  8
0
100
AcDbLine
 10
3.099999379407108
 20
9.099999975838272
 30
0.0
 11
2.099999379407108
 21
10.09999997583827
 31
0.0
  0
LWPOLYLINE
  5
8908
330
88F5
100
AcDbEntity
  8
0
100
AcDbPolyline
 90
        4
 70
     1
 43
0.2
 10
3.099999379407108
 20
9.099999975838272
 10
5.099999379407108
 20
9.099999975838272
 10
5.099999379407108
 20
7.099999975838272
 10
3.099999379407108
 20
7.099999975838272
  0
LWPOLYLINE
  5
8909
330
88F5
100
AcDbEntity
  8
0
100
AcDbPolyline
 90
        4
 70
     1
 43
0.2
 10
2.099999379407108
 20
10.09999997583827
 10
7.099999379407108
 20
10.09999997583827
 10
7.099999379407108
 20
6.099999975838272
 10
2.099999379407108
 20
6.099999975838272
  0
LINE
  5
890A
330
88F5
100
AcDbEntity
  8
0
100
AcDbLine
 10
5.099999379407108
 20
14.09999997583827
 30
0.0
 11
7.099999379407108
 21
15.09999997583827
 31
0.0
  0
LINE
  5
890B
330
88F5
100
AcDbEntity
  8
0
100
AcDbLine
 10
5.099999379407108
 20
12.09999997583827
 30
0.0
 11
7.099999379407108
 21
11.09999997583827
 31
0.0
  0
LINE
  5
890C
330
88F5
100
AcDbEntity
  8
0
100
AcDbLine
 10
3.099999379407108
 20
12.09999997583827
 30
0.0
 11
2.099999379407108
 21
11.09999997583827
 31
0.0
  0
LINE
  5
890D
330
88F5
100
AcDbEntity
  8
0
100
AcDbLine
 10
3.099999379407108
 20
14.09999997583827
 30
0.0
 11
2.099999379407108
 21
15.09999997583827
 31
0.0
  0
LWPOLYLINE
  5
890E
330
88F5
100
AcDbEntity
  8
0
100
AcDbPolyline
 90
        4
 70
     1
 43
0.2
 10
3.099999379407108
 20
14.09999997583827
 10
5.099999379407108
 20
14.09999997583827
 10
5.099999379407108
 20
12.09999997583827
 10
3.099999379407108
 20
12.09999997583827
  0
LWPOLYLINE
  5
890F
330
88F5
100
AcDbEntity
  8
0
100
AcDbPolyline
 90
        4
 70
     1
 43
0.2
 10
2.099999379407108
 20
15.09999997583827
 10
7.099999379407108
 20
15.09999997583827
 10
7.099999379407108
 20
11.09999997583827
 10
2.099999379407108
 20
11.09999997583827
  0
LINE
  5
8910
330
88F5
100
AcDbEntity
  8
0
100
AcDbLine
 10
5.099999379407108
 20
19.09999997583827
 30
0.0
 11
7.099999379407108
 21
20.09999997583827
 31
0.0
  0
LINE
  5
8911
330
88F5
100
AcDbEntity
  8
0
100
AcDbLine
 10
5.099999379407108
 20
17.09999997583827
 30
0.0
 11
7.099999379407108
 21
16.09999997583827
 31
0.0
  0
LINE
  5
8912
330
88F5
100
AcDbEntity
  8
0
100
AcDbLine
 10
3.099999379407108
 20
17.09999997583827
 30
0.0
 11
2.099999379407108
 21
16.09999997583827
 31
0.0
  0
LINE
  5
8913
330
88F5
100
AcDbEntity
  8
0
100
AcDbLine
 10
3.099999379407108
 20
19.09999997583827
 30
0.0
 11
2.099999379407108
 21
20.09999997583827
 31
0.0
  0
LWPOLYLINE
  5
8914
330
88F5
100
AcDbEntity
  8
0
100
AcDbPolyline
 90
        4
 70
     1
 43
0.2
 10
3.099999379407108
 20
19.09999997583827
 10
5.099999379407108
 20
19.09999997583827
 10
5.099999379407108
 20
17.09999997583827
 10
3.099999379407108
 20
17.09999997583827
  0
LWPOLYLINE
  5
8915
330
88F5
100
AcDbEntity
  8
0
100
AcDbPolyline
 90
        4
 70
     1
 43
0.2
 10
2.099999379407108
 20
20.09999997583827
 10
7.099999379407108
 20
20.09999997583827
 10
7.099999379407108
 20
16.09999997583827
 10
2.099999379407108
 20
16.09999997583827
  0
LINE
  5
8916
330
88F5
100
AcDbEntity
  8
0
100
AcDbLine
 10
5.099999379407108
 20
24.09999997583827
 30
0.0
 11
7.099999379407108
 21
25.09999997583827
 31
0.0
  0
LINE
  5
8917
330
88F5
100
AcDbEntity
  8
0
100
AcDbLine
 10
5.099999379407108
 20
22.09999997583827
 30
0.0
 11
7.099999379407108
 21
21.09999997583827
 31
0.0
  0
LINE
  5
8918
330
88F5
100
AcDbEntity
  8
0
100
AcDbLine
 10
3.099999379407108
 20
22.09999997583827
 30
0.0
 11
2.099999379407108
 21
21.09999997583827
 31
0.0
  0
LINE
  5
8919
330
88F5
100
AcDbEntity
  8
0
100
AcDbLine
 10
3.099999379407108
 20
24.09999997583827
 30
0.0
 11
2.099999379407108
 21
25.09999997583827
 31
0.0
  0
LWPOLYLINE
  5
891A
330
88F5
100
AcDbEntity
  8
0
100
AcDbPolyline
 90
        4
 70
     1
 43
0.2
 10
3.099999379407108
 20
24.09999997583827
 10
5.099999379407108
 20
24.09999997583827
 10
5.099999379407108
 20
22.09999997583827
 10
3.099999379407108
 20
22.09999997583827
  0
LWPOLYLINE
  5
891B
330
88F5
100
AcDbEntity
  8
0
100
AcDbPolyline
 90
        4
 70
     1
 43
0.2
 10
2.099999379407108
 20
25.09999997583827
 10
7.099999379407108
 20
25.09999997583827
 10
7.099999379407108
 20
21.09999997583827
 10
2.099999379407108
 20
21.09999997583827
  0
LINE
  5
891C
330
88F5
100
AcDbEntity
  8
0
100
AcDbLine
 10
5.099999379407108
 20
29.09999997583827
 30
0.0
 11
7.099999379407108
 21
30.09999997583827
 31
0.0
  0
LINE
  5
891D
330
88F5
100
AcDbEntity
  8
0
100
AcDbLine
 10
3.099999379407108
 20
29.09999997583827
 30
0.0
 11
2.099999379407108
 21
30.09999997583827
 31
0.0
  0
LWPOLYLINE
  5
891E
330
88F5
100
AcDbEntity
  8
0
100
AcDbPolyline
 90
        4
 70
     1
 43
0.2
 10
3.099999379407108
 20
29.09999997583827
 10
5.099999379407108
 20
29.09999997583827
 10
5.099999379407108
 20
27.09999997583827
 10
3.099999379407108
 20
27.09999997583827
  0
LINE
  5
891F
330
88F5
100
AcDbEntity
  8
0
100
AcDbLine
 10
5.099999379407108
 20
34.09999997583827
 30
0.0
 11
7.099999379407108
 21
35.09999997583827
 31
0.0
  0
LINE
  5
8920
330
88F5
100
AcDbEntity
  8
0
100
AcDbLine
 10
5.099999379407108
 20
32.09999997583827
 30
0.0
 11
7.099999379407108
 21
31.09999997583827
 31
0.0
  0
LINE
  5
8921
330
88F5
100
AcDbEntity
  8
0
100
AcDbLine
 10
3.099999379407108
 20
32.09999997583827
 30
0.0
 11
2.099999379407108
 21
31.09999997583827
 31
0.0
  0
LINE
  5
8922
330
88F5
100
AcDbEntity
  8
0
100
AcDbLine
 10
3.099999379407108
 20
34.09999997583827
 30
0.0
 11
2.099999379407108
 21
35.09999997583827
 31
0.0
  0
LWPOLYLINE
  5
8923
330
88F5
100
AcDbEntity
  8
0
100
AcDbPolyline
 90
        4
 70
     1
 43
0.2
 10
3.099999379407108
 20
34.09999997583827
 10
5.099999379407108
 20
34.09999997583827
 10
5.099999379407108
 20
32.09999997583827
 10
3.099999379407108
 20
32.09999997583827
  0
LWPOLYLINE
  5
8924
330
88F5
100
AcDbEntity
  8
0
100
AcDbPolyline
 90
        4
 70
     1
 43
0.2
 10
2.099999379407108
 20
35.09999997583827
 10
7.099999379407108
 20
35.09999997583827
 10
7.099999379407108
 20
31.09999997583827
 10
2.099999379407108
 20
31.09999997583827
  0
LINE
  5
8925
330
88F5
100
AcDbEntity
  8
0
100
AcDbLine
 10
5.099999379407108
 20
39.09999997583827
 30
0.0
 11
7.099999379407108
 21
40.09999997583827
 31
0.0
  0
LINE
  5
8926
330
88F5
100
AcDbEntity
  8
0
100
AcDbLine
 10
5.099999379407108
 20
37.09999997583827
 30
0.0
 11
7.099999379407108
 21
36.09999997583827
 31
0.0
  0
LINE
  5
8927
330
88F5
100
AcDbEntity
  8
0
100
AcDbLine
 10
3.099999379407108
 20
37.09999997583827
 30
0.0
 11
2.099999379407108
 21
36.09999997583827
 31
0.0
  0
LINE
  5
8928
330
88F5
100
AcDbEntity
  8
0
100
AcDbLine
 10
3.099999379407108
 20
39.09999997583827
 30
0.0
 11
2.099999379407108
 21
40.09999997583827
 31
0.0
  0
LWPOLYLINE
  5
8929
330
88F5
100
AcDbEntity
  8
0
100
AcDbPolyline
 90
        4
 70
     1
 43
0.2
 10
3.099999379407108
 20
39.09999997583827
 10
5.099999379407108
 20
39.09999997583827
 10
5.099999379407108
 20
37.09999997583827
 10
3.099999379407108
 20
37.09999997583827
  0
LWPOLYLINE
  5
892A
330
88F5
100
AcDbEntity
  8
0
100
AcDbPolyline
 90
        4
 70
     1
 43
0.2
 10
2.099999379407108
 20
40.09999997583827
 10
7.099999379407108
 20
40.09999997583827
 10
7.099999379407108
 20
36.09999997583827
 10
2.099999379407108
 20
36.09999997583827
  0
LINE
  5
892B
330
88F5
100
AcDbEntity
  8
0
100
AcDbLine
 10
5.099999379407108
 20
44.09999997583827
 30
0.0
 11
7.099999379407108
 21
45.09999997583827
 31
0.0
  0
LINE
  5
892C
330
88F5
100
AcDbEntity
  8
0
100
AcDbLine
 10
5.099999379407108
 20
42.09999997583827
 30
0.0
 11
7.099999379407108
 21
41.09999997583827
 31
0.0
  0
LINE
  5
892D
330
88F5
100
AcDbEntity
  8
0
100
AcDbLine
 10
3.099999379407108
 20
42.09999997583827
 30
0.0
 11
2.099999379407108
 21
41.09999997583827
 31
0.0
  0
LINE
  5
892E
330
88F5
100
AcDbEntity
  8
0
100
AcDbLine
 10
3.099999379407108
 20
44.09999997583827
 30
0.0
 11
2.099999379407108
 21
45.09999997583827
 31
0.0
  0
LWPOLYLINE
  5
892F
330
88F5
100
AcDbEntity
  8
0
100
AcDbPolyline
 90
        4
 70
     1
 43
0.2
 10
3.099999379407108
 20
44.09999997583827
 10
5.099999379407108
 20
44.09999997583827
 10
5.099999379407108
 20
42.09999997583827
 10
3.099999379407108
 20
42.09999997583827
  0
LWPOLYLINE
  5
8930
330
88F5
100
AcDbEntity
  8
0
100
AcDbPolyline
 90
        4
 70
     1
 43
0.2
 10
2.099999379407108
 20
45.09999997583827
 10
7.099999379407108
 20
45.09999997583827
 10
7.099999379407108
 20
41.09999997583827
 10
2.099999379407108
 20
41.09999997583827
  0
LINE
  5
8931
330
88F5
100
AcDbEntity
  8
0
100
AcDbLine
 10
5.099999379407108
 20
47.09999997583827
 30
0.0
 11
7.099999379407108
 21
46.09999997583827
 31
0.0
  0
LINE
  5
8932
330
88F5
100
AcDbEntity
  8
0
100
AcDbLine
 10
3.099999379407108
 20
47.09999997583827
 30
0.0
 11
2.099999379407108
 21
46.09999997583827
 31
0.0
  0
LWPOLYLINE
  5
8933
330
88F5
100
AcDbEntity
  8
0
100
AcDbPolyline
 90
        4
 70
     1
 43
0.2
 10
3.099999379407108
 20
49.09999997583827
 10
5.099999379407108
 20
49.09999997583827
 10
5.099999379407108
 20
47.09999997583827
 10
3.099999379407108
 20
47.09999997583827
  0
ENDBLK
  5
8935
330
88F5
100
AcDbEntity
  8
0
100
AcDbBlockEnd
  0
BLOCK
  5
894B
330
8936
100
AcDbEntity
  8
0
100
AcDbBlockBegin
  2
A$C3413120B
 70
     0
 10
0.0
 20
0.0
 30
0.0
  3
A$C3413120B
  1

  0
LWPOLYLINE
  5
8937
330
8936
100
AcDbEntity
  8
0
100
AcDbPolyline
 90
        4
 70
     1
 43
0.0
 10
-0.0000002802582912
 20
16.02466200946787
 10
14.99999971974171
 20
16.02466200946787
 10
14.99999971974171
 20
0.0
 10
-0.0000002802582912
 20
0.0
  0
LINE
  5
8938
330
8936
100
AcDbEntity
  8
0
100
AcDbLine
 10
9.999999719741708
 20
16.02466200946787
 30
0.0
 11
9.999999719741708
 21
0.0
 31
0.0
  0
LINE
  5
8939
330
8936
100
AcDbEntity
  8
0
100
AcDbLine
 10
4.999999719741708
 20
14.02466200946787
 30
0.0
 11
6.999999719741708
 21
15.02466200946787
 31
0.0
  0
LINE
  5
893A
330
8936
100
AcDbEntity
  8
0
100
AcDbLine
 10
2.999999719741708
 20
14.02466200946787
 30
0.0
 11
1.999999719741708
 21
15.02466200946787
 31
0.0
  0
LWPOLYLINE
  5
893B
330
8936
100
AcDbEntity
  8
0
100
AcDbPolyline
 90
        4
 70
     1
 43
0.2
 10
1.999999719741708
 20
15.02466200946787
 10
6.999999719741708
 20
15.02466200946787
 10
6.999999719741708
 20
11.02466200946787
 10
1.999999719741708
 20
11.02466200946787
  0
LINE
  5
893C
330
8936
100
AcDbEntity
  8
0
100
AcDbLine
 10
4.999999719741708
 20
4.024662009467874
 30
0.0
 11
6.999999719741708
 21
5.024662009467874
 31
0.0
  0
LINE
  5
893D
330
8936
100
AcDbEntity
  8
0
100
AcDbLine
 10
4.999999719741708
 20
2.024662009467874
 30
0.0
 11
6.999999719741708
 21
1.024662009467874
 31
0.0
  0
LINE
  5
893E
330
8936
100
AcDbEntity
  8
0
100
AcDbLine
 10
2.999999719741708
 20
2.024662009467874
 30
0.0
 11
1.999999719741708
 21
1.024662009467874
 31
0.0
  0
LINE
  5
893F
330
8936
100
AcDbEntity
  8
0
100
AcDbLine
 10
2.999999719741708
 20
4.024662009467874
 30
0.0
 11
1.999999719741708
 21
5.024662009467874
 31
0.0
  0
LWPOLYLINE
  5
8940
330
8936
100
AcDbEntity
  8
0
100
AcDbPolyline
 90
        4
 70
     1
 43
0.2
 10
2.999999719741708
 20
4.024662009467874
 10
4.999999719741708
 20
4.024662009467874
 10
4.999999719741708
 20
2.024662009467874
 10
2.999999719741708
 20
2.024662009467874
  0
LWPOLYLINE
  5
8941
330
8936
100
AcDbEntity
  8
0
100
AcDbPolyline
 90
        4
 70
     1
 43
0.2
 10
1.999999719741708
 20
5.024662009467874
 10
6.999999719741708
 20
5.024662009467874
 10
6.999999719741708
 20
1.024662009467874
 10
1.999999719741708
 20
1.024662009467874
  0
LINE
  5
8942
330
8936
100
AcDbEntity
  8
0
100
AcDbLine
 10
4.999999719741708
 20
9.024662009467874
 30
0.0
 11
6.999999719741708
 21
10.02466200946787
 31
0.0
  0
LINE
  5
8943
330
8936
100
AcDbEntity
  8
0
100
AcDbLine
 10
4.999999719741708
 20
7.024662009467874
 30
0.0
 11
6.999999719741708
 21
6.024662009467874
 31
0.0
  0
LINE
  5
8944
330
8936
100
AcDbEntity
  8
0
100
AcDbLine
 10
2.999999719741708
 20
7.024662009467874
 30
0.0
 11
1.999999719741708
 21
6.024662009467874
 31
0.0
  0
LINE
  5
8945
330
8936
100
AcDbEntity
  8
0
100
AcDbLine
 10
2.999999719741708
 20
9.024662009467874
 30
0.0
 11
1.999999719741708
 21
10.02466200946787
 31
0.0
  0
LWPOLYLINE
  5
8946
330
8936
100
AcDbEntity
  8
0
100
AcDbPolyline
 90
        4
 70
     1
 43
0.2
 10
2.999999719741708
 20
9.024662009467874
 10
4.999999719741708
 20
9.024662009467874
 10
4.999999719741708
 20
7.024662009467874
 10
2.999999719741708
 20
7.024662009467874
  0
LWPOLYLINE
  5
8947
330
8936
100
AcDbEntity
  8
0
100
AcDbPolyline
 90
        4
 70
     1
 43
0.2
 10
1.999999719741708
 20
10.02466200946787
 10
6.999999719741708
 20
10.02466200946787
 10
6.999999719741708
 20
6.024662009467874
 10
1.999999719741708
 20
6.024662009467874
  0
LINE
  5
8948
330
8936
100
AcDbEntity
  8
0
100
AcDbLine
 10
4.999999719741708
 20
12.02466200946787
 30
0.0
 11
6.999999719741708
 21
11.02466200946787
 31
0.0
  0
LINE
  5
8949
330
8936
100
AcDbEntity
  8
0
100
AcDbLine
 10
2.999999719741708
 20
12.02466200946787
 30
0.0
 11
1.999999719741708
 21
11.02466200946787
 31
0.0
  0
LWPOLYLINE
  5
894A
330
8936
100
AcDbEntity
  8
0
100
AcDbPolyline
 90
        4
 70
     1
 43
0.2
 10
2.999999719741708
 20
14.02466200946787
 10
4.999999719741708
 20
14.02466200946787
 10
4.999999719741708
 20
12.02466200946787
 10
2.999999719741708
 20
12.02466200946787
  0
ENDBLK
  5
894C
330
8936
100
AcDbEntity
  8
0
100
AcDbBlockEnd
  0
ENDSEC
  0
SECTION
  2
ENTITIES
  0
LINE
  5
838D
330
18
100
AcDbEntity
  8
0
100
AcDbLine
 10
13.39512515104979
 20
772.9370673185536
 30
0.0
 11
13.39512515104979
 21
612.9370673185536
 31
0.0
  0
LINE
  5
838E
330
18
100
AcDbEntity
  8
0
100
AcDbLine
 10
53.3951251510498
 20
772.9370673185536
 30
0.0
 11
53.3951251510498
 21
612.9370673185535
 31
0.0
  0
LINE
  5
838F
330
18
100
AcDbEntity
  8
0
100
AcDbLine
 10
53.3951251510498
 20
772.9370673185536
 30
0.0
 11
53.3951251510498
 21
612.9370673185535
 31
0.0
  0
LINE
  5
8390
330
18
100
AcDbEntity
  8
0
100
AcDbLine
 10
108.3951251510498
 20
598.9370673185533
 30
0.0
 11
108.3951251510499
 21
786.9370673185537
 31
0.0
  0
LINE
  5
8391
330
18
100
AcDbEntity
  8
0
100
AcDbLine
 10
108.3951251510498
 20
772.9370673185536
 30
0.0
 11
108.3951251510498
 21
612.9370673185535
 31
0.0
  0
ARC
  5
8396
330
18
100
AcDbEntity
  8
0
100
AcDbCircle
 10
98.3951251510498
 20
602.9370673185535
 30
0.0
 40
2.75
100
AcDbArc
 50
0.0
 51
180.0
  0
LINE
  5
8397
330
18
100
AcDbEntity
  8
0
100
AcDbLine
 10
57.3951251510498
 20
612.9370673185535
 30
0.0
 11
57.3951251510498
 21
598.9370673185535
 31
0.0
  0
ARC
  5
8398
330
18
100
AcDbEntity
  8
0
100
AcDbCircle
 10
67.3951251510498
 20
602.9370673185535
 30
0.0
 40
2.75
100
AcDbArc
 50
0.0
 51
180.0
  0
LINE
  5
839A
330
18
100
AcDbEntity
  8
0
100
AcDbLine
 10
71.1451251510498
 20
597.9370673185534
 30
0.0
 11
94.6451251510498
 21
597.9370673185534
 31
0.0
  0
LINE
  5
839C
330
18
100
AcDbEntity
  8
0
100
AcDbLine
 10
58.3951251510498
 20
597.9370673185535
 30
0.0
 11
63.6451251510498
 21
597.9370673185535
 31
0.0
  0
LINE
  5
839D
330
18
100
AcDbEntity
  8
0
100
AcDbLine
 10
58.3951251510498
 20
597.9370673185535
 30
0.0
 11
57.3951251510498
 21
598.9370673185535
 31
0.0
  0
LINE
  5
839E
330
18
100
AcDbEntity
  8
0
100
AcDbLine
 10
64.6451251510498
 20
598.9370673185535
 30
0.0
 11
63.6451251510498
 21
597.9370673185535
 31
0.0
  0
LINE
  5
839F
330
18
100
AcDbEntity
  8
0
100
AcDbLine
 10
64.6451251510498
 20
602.9370673185535
 30
0.0
 11
64.6451251510498
 21
598.9370673185535
 31
0.0
  0
LINE
  5
83A0
330
18
100
AcDbEntity
  8
0
100
AcDbLine
 10
71.1451251510498
 20
597.9370673185534
 30
0.0
 11
70.14512515104979
 21
598.9370673185534
 31
0.0
  0
LINE
  5
83A1
330
18
100
AcDbEntity
  8
0
100
AcDbLine
 10
70.14512515104979
 20
602.9370673185535
 30
0.0
 11
70.14512515104979
 21
598.9370673185534
 31
0.0
  0
LINE
  5
83A2
330
18
100
AcDbEntity
  8
0
100
AcDbLine
 10
102.1451251510498
 20
597.9370673185534
 30
0.0
 11
107.3951251510498
 21
597.9370673185534
 31
0.0
  0
LINE
  5
83A4
330
18
100
AcDbEntity
  8
0
100
AcDbLine
 10
95.64512515104979
 20
598.9370673185535
 30
0.0
 11
94.6451251510498
 21
597.9370673185535
 31
0.0
  0
LINE
  5
83A5
330
18
100
AcDbEntity
  8
0
100
AcDbLine
 10
95.64512515104979
 20
602.9370673185535
 30
0.0
 11
95.64512515104979
 21
598.9370673185535
 31
0.0
  0
LINE
  5
83A6
330
18
100
AcDbEntity
  8
0
100
AcDbLine
 10
102.1451251510498
 20
597.9370673185534
 30
0.0
 11
101.1451251510498
 21
598.9370673185534
 31
0.0
  0
LINE
  5
83A7
330
18
100
AcDbEntity
  8
0
100
AcDbLine
 10
101.1451251510498
 20
602.9370673185535
 30
0.0
 11
101.1451251510498
 21
598.9370673185534
 31
0.0
  0
LINE
  5
83A8
330
18
100
AcDbEntity
  8
0
100
AcDbLine
 10
107.3951251510498
 20
597.9370673185534
 30
0.0
 11
108.3951251510498
 21
598.9370673185534
 31
0.0
  0
LINE
  5
83A9
330
18
100
AcDbEntity
  8
0
100
AcDbLine
 10
53.39512515104991
 20
612.9370673185535
 30
0.0
 11
13.39512515104979
 21
612.9370673185536
 31
0.0
  0
LINE
  5
83B6
330
18
100
AcDbEntity
  8
0
100
AcDbLine
 10
53.39512515104991
 20
612.9370673185535
 30
0.0
 11
108.3951251510498
 21
612.9370673185535
 31
0.0
  0
CIRCLE
  5
83B7
330
18
100
AcDbEntity
  8
0
370
    40
100
AcDbCircle
 10
62.3951251510498
 20
619.9370673185535
 30
0.0
 40
3.0
  0
ARC
  5
83B8
330
18
100
AcDbEntity
  8
0
100
AcDbCircle
 10
61.89512515104969
 20
614.1870673185534
 30
0.0
 40
3.249999999999876
100
AcDbArc
 50
202.6198649480385
 51
337.3801350519614
  0
LINE
  5
846B
330
18
100
AcDbEntity
  8
0
100
AcDbLine
 10
53.39512515105003
 20
772.9370673185536
 30
0.0
 11
13.39512515104979
 21
772.9370673185536
 31
0.0
  0
LINE
  5
846C
330
18
100
AcDbEntity
  8
0
100
AcDbLine
 10
95.64512515104979
 20
782.9370673185535
 30
0.0
 11
95.64512515104979
 21
786.9370673185535
 31
0.0
  0
LINE
  5
846D
330
18
100
AcDbEntity
  8
0
100
AcDbLine
 10
101.1451251510498
 20
782.9370673185535
 30
0.0
 11
101.1451251510498
 21
786.9370673185536
 31
0.0
  0
LINE
  5
846F
330
18
100
AcDbEntity
  8
0
100
AcDbLine
 10
70.14512515104979
 20
782.9370673185535
 30
0.0
 11
70.14512515104979
 21
786.9370673185536
 31
0.0
  0
LINE
  5
8470
330
18
100
AcDbEntity
  8
0
100
AcDbLine
 10
57.3951251510498
 20
772.9370673185536
 30
0.0
 11
57.3951251510498
 21
786.9370673185535
 31
0.0
  0
LINE
  5
8471
330
18
100
AcDbEntity
  8
0
100
AcDbLine
 10
64.6451251510498
 20
782.9370673185535
 30
0.0
 11
64.6451251510498
 21
786.9370673185535
 31
0.0
  0
LINE
  5
8474
330
18
100
AcDbEntity
  8
0
100
AcDbLine
 10
53.3951251510498
 20
772.9370673185536
 30
0.0
 11
108.3951251510498
 21
772.9370673185536
 31
0.0
  0
ARC
  5
84AC
330
18
100
AcDbEntity
  8
0
100
AcDbCircle
 10
67.3951251510498
 20
782.9370673185535
 30
0.0
 40
2.75
100
AcDbArc
 50
180.0
 51
0.0
  0
ARC
  5
84AD
330
18
100
AcDbEntity
  8
0
100
AcDbCircle
 10
61.89512515104979
 20
771.6870673185536
 30
0.0
 40
3.249999999999876
100
AcDbArc
 50
22.61986494803852
 51
157.3801350519614
  0
ARC
  5
84B0
330
18
100
AcDbEntity
  8
0
100
AcDbCircle
 10
98.3951251510498
 20
782.9370673185535
 30
0.0
 40
2.75
100
AcDbArc
 50
180.0
 51
0.0
  0
LINE
  5
84B1
330
18
100
AcDbEntity
  8
0
100
AcDbLine
 10
71.1451251510498
 20
787.9370673185536
 30
0.0
 11
94.6451251510498
 21
787.9370673185536
 31
0.0
  0
LINE
  5
84B3
330
18
100
AcDbEntity
  8
0
100
AcDbLine
 10
58.3951251510498
 20
787.9370673185535
 30
0.0
 11
63.6451251510498
 21
787.9370673185535
 31
0.0
  0
LINE
  5
84B4
330
18
100
AcDbEntity
  8
0
100
AcDbLine
 10
58.3951251510498
 20
787.9370673185535
 30
0.0
 11
57.3951251510498
 21
786.9370673185535
 31
0.0
  0
LINE
  5
84B5
330
18
100
AcDbEntity
  8
0
100
AcDbLine
 10
64.6451251510498
 20
786.9370673185535
 30
0.0
 11
63.6451251510498
 21
787.9370673185535
 31
0.0
  0
LINE
  5
84B6
330
18
100
AcDbEntity
  8
0
100
AcDbLine
 10
71.1451251510498
 20
787.9370673185536
 30
0.0
 11
70.14512515104979
 21
786.9370673185536
 31
0.0
  0
LINE
  5
84B7
330
18
100
AcDbEntity
  8
0
100
AcDbLine
 10
102.1451251510498
 20
787.9370673185536
 30
0.0
 11
107.3951251510499
 21
787.9370673185536
 31
0.0
  0
LINE
  5
84B8
330
18
100
AcDbEntity
  8
0
100
AcDbLine
 10
95.64512515104979
 20
786.9370673185535
 30
0.0
 11
94.6451251510498
 21
787.9370673185535
 31
0.0
  0
LINE
  5
84B9
330
18
100
AcDbEntity
  8
0
100
AcDbLine
 10
102.1451251510498
 20
787.9370673185536
 30
0.0
 11
101.1451251510498
 21
786.9370673185536
 31
0.0
  0
LINE
  5
84BA
330
18
100
AcDbEntity
  8
0
100
AcDbLine
 10
107.3951251510499
 20
787.9370673185536
 30
0.0
 11
108.3951251510499
 21
786.9370673185536
 31
0.0
  0
LINE
  5
84C0
330
18
100
AcDbEntity
  8
0
100
AcDbLine
 10
438.9583821284105
 20
787.9370673185535
 30
0.0
 11
438.9583821284105
 21
597.9370673185535
 31
0.0
  0
LINE
  5
84C1
330
18
100
AcDbEntity
  8
0
100
AcDbLine
 10
440.9583821284106
 20
787.9370673185535
 30
0.0
 11
440.9583821284106
 21
597.9370673185535
 31
0.0
  0
LINE
  5
84C2
330
18
100
AcDbEntity
  8
0
100
AcDbLine
 10
282.9583821284105
 20
772.9370673185536
 30
0.0
 11
282.9583821284105
 21
612.9370673185535
 31
0.0
  0
LINE
  5
84C3
330
18
100
AcDbEntity
  8
0
100
AcDbLine
 10
280.9583821284105
 20
772.9370673185536
 30
0.0
 11
280.9583821284105
 21
612.9370673185535
 31
0.0
  0
LINE
  5
84C4
330
18
100
AcDbEntity
  8
0
100
AcDbLine
 10
282.9583821284105
 20
612.9370673185535
 30
0.0
 11
353.9583821284105
 21
612.9370673185535
 31
0.0
  0
LINE
  5
84C5
330
18
100
AcDbEntity
  8
0
100
AcDbLine
 10
438.9583821284105
 20
612.9370673185535
 30
0.0
 11
282.9583821284105
 21
612.9370673185535
 31
0.0
  0
ARC
  5
84C6
330
18
100
AcDbEntity
  8
0
100
AcDbCircle
 10
278.5583821284102
 20
618.2037339852201
 30
0.0
 40
1.599999999999999
100
AcDbArc
 50
180.0
 51
270.0
  0
ARC
  5
84C7
330
18
100
AcDbEntity
  8
0
100
AcDbCircle
 10
278.5583821284102
 20
621.6704006518868
 30
0.0
 40
1.599999999999999
100
AcDbArc
 50
90.0
 51
180.0
  0
CIRCLE
  5
84C8
330
18
100
AcDbEntity
  8
0
100
AcDbCircle
 10
276.7583821284103
 20
703.1370673185535
 30
0.0
 40
2.0
  0
LINE
  5
84C9
330
18
100
AcDbEntity
  8
0
100
AcDbLine
 10
275.5723010173553
 20
701.5267221387866
 30
0.0
 11
278.3687273081773
 21
704.3231484296086
 31
0.0
  0
LINE
  5
84CA
330
18
100
AcDbEntity
  8
0
100
AcDbLine
 10
275.1480369486435
 20
701.9509862074985
 30
0.0
 11
277.9444632394653
 21
704.7474124983205
 31
0.0
  0
LINE
  5
84CB
330
18
100
AcDbEntity
  8
0
 48
0.2
100
AcDbLine
 10
280.9583821284105
 20
701.3370673185534
 30
0.0
 11
260.1583821284102
 21
701.3370673185534
 31
0.0
  0
CIRCLE
  5
84CC
330
18
100
AcDbEntity
  8
0
100
AcDbCircle
 10
276.7583821284103
 20
698.0570673185536
 30
0.0
 40
2.0
  0
LINE
  5
84CD
330
18
100
AcDbEntity
  8
0
100
AcDbLine
 10
275.5723010173553
 20
696.4467221387868
 30
0.0
 11
278.3687273081773
 21
699.2431484296085
 31
0.0
  0
LINE
  5
84CE
330
18
100
AcDbEntity
  8
0
100
AcDbLine
 10
275.1480369486435
 20
696.8709862074986
 30
0.0
 11
277.9444632394653
 21
699.6674124983205
 31
0.0
  0
LINE
  5
84CF
330
18
100
AcDbEntity
  8
0
100
AcDbLine
 10
280.9583821284105
 20
715.8370673185535
 30
0.0
 11
271.4583821284104
 21
715.8370673185536
 31
0.0
  0
LINE
  5
84D0
330
18
100
AcDbEntity
  8
0
100
AcDbLine
 10
275.1480369486435
 20
712.1109862074985
 30
0.0
 11
277.9444632394653
 21
714.9074124983204
 31
0.0
  0
CIRCLE
  5
84D1
330
18
100
AcDbEntity
  8
0
100
AcDbCircle
 10
276.7583821284103
 20
713.2970673185536
 30
0.0
 40
2.0
  0
LINE
  5
84D2
330
18
100
AcDbEntity
  8
0
100
AcDbLine
 10
275.5723010173553
 20
711.6867221387866
 30
0.0
 11
278.3687273081773
 21
714.4831484296084
 31
0.0
  0
CIRCLE
  5
84D3
330
18
100
AcDbEntity
  8
0
100
AcDbCircle
 10
276.7583821284103
 20
708.2170673185535
 30
0.0
 40
2.0
  0
LINE
  5
84D4
330
18
100
AcDbEntity
  8
0
100
AcDbLine
 10
275.5723010173553
 20
706.6067221387866
 30
0.0
 11
278.3687273081773
 21
709.4031484296086
 31
0.0
  0
LINE
  5
84D5
330
18
100
AcDbEntity
  8
0
100
AcDbLine
 10
275.1480369486435
 20
707.0309862074984
 30
0.0
 11
277.9444632394653
 21
709.8274124983204
 31
0.0
  0
LINE
  5
84D6
330
18
100
AcDbEntity
  8
0
100
AcDbLine
 10
280.9583821284105
 20
665.0370673185534
 30
0.0
 11
271.4583821284104
 21
665.0370673185537
 31
0.0
  0
LINE
  5
84D7
330
18
100
AcDbEntity
  8
0
 48
0.2
100
AcDbLine
 10
280.9583821284105
 20
668.0370673185534
 30
0.0
 11
260.1583821284102
 21
668.0370673185536
 31
0.0
  0
CIRCLE
  5
84D8
330
18
100
AcDbEntity
  8
0
100
AcDbCircle
 10
276.7583821284103
 20
682.8170673185536
 30
0.0
 40
2.0
  0
LINE
  5
84D9
330
18
100
AcDbEntity
  8
0
100
AcDbLine
 10
275.1480369486433
 20
681.6309862074986
 30
0.0
 11
277.9444632394652
 21
684.4274124983205
 31
0.0
  0
CIRCLE
  5
84DA
330
18
100
AcDbEntity
  8
0
100
AcDbCircle
 10
276.7583821284103
 20
672.6570673185537
 30
0.0
 40
2.0
  0
LINE
  5
84DB
330
18
100
AcDbEntity
  8
0
100
AcDbLine
 10
275.1480369486433
 20
666.3909862074985
 30
0.0
 11
277.9444632394652
 21
669.1874124983205
 31
0.0
  0
LINE
  5
84DC
330
18
100
AcDbEntity
  8
0
100
AcDbLine
 10
275.5723010173552
 20
665.9667221387867
 30
0.0
 11
278.3687273081771
 21
668.7631484296087
 31
0.0
  0
CIRCLE
  5
84DD
330
18
100
AcDbEntity
  8
0
100
AcDbCircle
 10
276.7583821284103
 20
667.5770673185536
 30
0.0
 40
2.0
  0
LINE
  5
84DE
330
18
100
AcDbEntity
  8
0
100
AcDbLine
 10
275.5723010173552
 20
671.0467221387867
 30
0.0
 11
278.3687273081771
 21
673.8431484296086
 31
0.0
  0
LINE
  5
84DF
330
18
100
AcDbEntity
  8
0
100
AcDbLine
 10
275.1480369486433
 20
671.4709862074986
 30
0.0
 11
277.9444632394652
 21
674.2674124983206
 31
0.0
  0
LINE
  5
84E0
330
18
100
AcDbEntity
  8
0
100
AcDbLine
 10
275.5723010173552
 20
681.2067221387867
 30
0.0
 11
278.3687273081771
 21
684.0031484296087
 31
0.0
  0
LINE
  5
84E1
330
18
100
AcDbEntity
  8
0
100
AcDbLine
 10
275.5723010173552
 20
676.1267221387868
 30
0.0
 11
278.3687273081771
 21
678.9231484296086
 31
0.0
  0
LINE
  5
84E2
330
18
100
AcDbEntity
  8
0
100
AcDbLine
 10
275.1480369486433
 20
676.5509862074987
 30
0.0
 11
277.9444632394652
 21
679.3474124983206
 31
0.0
  0
CIRCLE
  5
84E3
330
18
100
AcDbEntity
  8
0
100
AcDbCircle
 10
276.7583821284103
 20
677.7370673185536
 30
0.0
 40
2.0
  0
CIRCLE
  5
84E4
330
18
100
AcDbEntity
  8
0
100
AcDbCircle
 10
276.7583821284103
 20
687.8970673185535
 30
0.0
 40
2.0
  0
LINE
  5
84E5
330
18
100
AcDbEntity
  8
0
100
AcDbLine
 10
275.5723010173552
 20
686.2867221387866
 30
0.0
 11
278.3687273081771
 21
689.0831484296086
 31
0.0
  0
LINE
  5
84E6
330
18
100
AcDbEntity
  8
0
100
AcDbLine
 10
275.1480369486433
 20
686.7109862074985
 30
0.0
 11
277.9444632394652
 21
689.5074124983205
 31
0.0
  0
CIRCLE
  5
84E7
330
18
100
AcDbEntity
  8
0
100
AcDbCircle
 10
276.7583821284103
 20
692.9770673185536
 30
0.0
 40
2.0
  0
LINE
  5
84E8
330
18
100
AcDbEntity
  8
0
100
AcDbLine
 10
275.5723010173553
 20
691.3667221387867
 30
0.0
 11
278.3687273081773
 21
694.1631484296086
 31
0.0
  0
LINE
  5
84E9
330
18
100
AcDbEntity
  8
0
100
AcDbLine
 10
275.1480369486435
 20
691.7909862074985
 30
0.0
 11
277.9444632394653
 21
694.5874124983205
 31
0.0
  0
LINE
  5
84EA
330
18
100
AcDbEntity
  8
0
100
AcDbLine
 10
276.9583821284105
 20
621.6704006518869
 30
0.0
 11
276.9583821284105
 21
618.2037339852204
 31
0.0
  0
LINE
  5
84EB
330
18
100
AcDbEntity
  8
0
 48
0.2
100
AcDbLine
 10
271.9583821284104
 20
694.5870673185534
 30
0.0
 11
270.7083821284104
 21
692.4220038090923
 31
0.0
  0
LINE
  5
84EC
330
18
100
AcDbEntity
  8
0
 48
0.2
100
AcDbLine
 10
272.2470572630052
 20
694.5870673185534
 30
0.0
 11
270.8527196957079
 21
692.1720038090922
 31
0.0
  0
LINE
  5
84ED
330
18
100
AcDbEntity
  8
0
 48
0.2
100
AcDbLine
 10
266.9583821284104
 20
694.5870673185534
 30
0.0
 11
268.2083821284104
 21
692.4220038090923
 31
0.0
  0
LINE
  5
84EE
330
18
100
AcDbEntity
  8
0
 48
0.2
100
AcDbLine
 10
266.6697069938156
 20
694.5870673185534
 30
0.0
 11
268.0640445611129
 21
692.1720038090922
 31
0.0
  0
CIRCLE
  5
84EF
330
18
100
AcDbEntity
  8
0
 48
0.2
100
AcDbCircle
 10
269.4583821284104
 20
694.5870673185534
 30
0.0
 40
1.5
  0
LINE
  5
84F0
330
18
100
AcDbEntity
  8
0
 48
0.2
100
AcDbLine
 10
256.1583821284102
 20
692.5870673185534
 30
0.0
 11
260.1583821284102
 21
695.6870673185533
 31
0.0
  0
LINE
  5
84F1
330
18
100
AcDbEntity
  8
0
100
AcDbLine
 10
272.9583821284105
 20
715.8370673185536
 30
0.0
 11
272.9583821284104
 21
665.0370673185537
 31
0.0
  0
LINE
  5
84F2
330
18
100
AcDbEntity
  8
0
100
AcDbLine
 10
271.4583821284104
 20
715.8370673185536
 30
0.0
 11
271.4583821284104
 21
665.0370673185537
 31
0.0
  0
ARC
  5
84F3
330
18
100
AcDbEntity
  8
0
 48
0.2
100
AcDbCircle
 10
248.0583821284103
 20
692.5870673185534
 30
0.0
 40
3.100000000000022
100
AcDbArc
 50
40.87863514651799
 51
180.0
  0
LINE
  5
84F4
330
18
100
AcDbEntity
  8
0
 48
0.2
100
AcDbLine
 10
252.1583821284102
 20
692.5870673185534
 30
0.0
 11
250.4022845674348
 21
694.6158899713093
 31
0.0
  0
LINE
  5
84F5
330
18
100
AcDbEntity
  8
0
 48
0.2
100
AcDbLine
 10
256.1583821284104
 20
676.7870673185536
 30
0.0
 11
260.1583821284104
 21
673.6870673185535
 31
0.0
  0
ARC
  5
84F6
330
18
100
AcDbEntity
  8
0
 48
0.2
100
AcDbCircle
 10
261.3283821284103
 20
670.6370673185536
 30
0.0
 40
2.669999999999886
100
AcDbArc
 50
115.9892335838272
 51
244.0107664161727
  0
LINE
  5
84F7
330
18
100
AcDbEntity
  8
0
 48
0.2
100
AcDbLine
 10
265.9583821284104
 20
676.7870673185536
 30
0.0
 11
244.9583821284104
 21
676.7870673185534
 31
0.0
  0
LINE
  5
84F8
330
18
100
AcDbEntity
  8
0
 48
0.2
100
AcDbLine
 10
265.9583821284102
 20
692.5870673185534
 30
0.0
 11
244.9583821284102
 21
692.5870673185534
 31
0.0
  0
LINE
  5
84F9
330
18
100
AcDbEntity
  8
0
 48
0.2
100
AcDbLine
 10
244.9583821284104
 20
676.7870673185536
 30
0.0
 11
244.9583821284102
 21
692.5870673185534
 31
0.0
  0
ARC
  5
84FA
330
18
100
AcDbEntity
  8
0
 48
0.2
100
AcDbCircle
 10
248.0583821284105
 20
676.7870673185537
 30
0.0
 40
3.100000000000022
100
AcDbArc
 50
180.0
 51
319.121364853482
  0
LINE
  5
84FB
330
18
100
AcDbEntity
  8
0
 48
0.2
100
AcDbLine
 10
252.1583821284104
 20
676.7870673185536
 30
0.0
 11
250.4022845674348
 21
674.7582446657977
 31
0.0
  0
LINE
  5
84FC
330
18
100
AcDbEntity
  8
0
 48
0.2
100
AcDbLine
 10
265.9583821284104
 20
676.7870673185536
 30
0.0
 11
265.9583821284102
 21
692.5870673185534
 31
0.0
  0
LINE
  5
84FD
330
18
100
AcDbEntity
  8
0
 48
0.2
100
AcDbLine
 10
260.9583821284104
 20
676.7870673185536
 30
0.0
 11
260.9583821284102
 21
692.5870673185534
 31
0.0
  0
LINE
  5
84FE
330
18
100
AcDbEntity
  8
0
 48
0.2
100
AcDbLine
 10
266.9583821284104
 20
674.7870673185537
 30
0.0
 11
268.2083821284104
 21
672.6220038090925
 31
0.0
  0
CIRCLE
  5
84FF
330
18
100
AcDbEntity
  8
0
 48
0.2
100
AcDbCircle
 10
269.4583821284104
 20
674.7870673185537
 30
0.0
 40
1.5
  0
LINE
  5
8500
330
18
100
AcDbEntity
  8
0
 48
0.2
100
AcDbLine
 10
268.0640445611129
 20
672.3720038090926
 30
0.0
 11
270.8527196957079
 21
672.3720038090926
 31
0.0
  0
LINE
  5
8501
330
18
100
AcDbEntity
  8
0
 48
0.2
100
AcDbLine
 10
266.9583821284104
 20
674.7870673185537
 30
0.0
 11
268.2083821284104
 21
676.9521308280148
 31
0.0
  0
LINE
  5
8502
330
18
100
AcDbEntity
  8
0
 48
0.2
100
AcDbLine
 10
268.0640445611129
 20
677.2021308280147
 30
0.0
 11
270.8527196957079
 21
677.2021308280147
 31
0.0
  0
LINE
  5
8503
330
18
100
AcDbEntity
  8
0
 48
0.2
100
AcDbLine
 10
260.1583821284102
 20
668.0370673185536
 30
0.0
 11
260.1583821284102
 21
673.6870673185535
 31
0.0
  0
LINE
  5
8504
330
18
100
AcDbEntity
  8
0
 48
0.2
100
AcDbLine
 10
266.6697069938156
 20
674.7870673185537
 30
0.0
 11
268.0640445611129
 21
672.3720038090926
 31
0.0
  0
LINE
  5
8505
330
18
100
AcDbEntity
  8
0
 48
0.2
100
AcDbLine
 10
266.6697069938156
 20
674.7870673185537
 30
0.0
 11
268.0640445611129
 21
677.2021308280147
 31
0.0
  0
LINE
  5
8506
330
18
100
AcDbEntity
  8
0
 48
0.2
100
AcDbLine
 10
270.8527196957079
 20
672.3720038090926
 30
0.0
 11
272.2470572630052
 21
674.7870673185537
 31
0.0
  0
LINE
  5
8507
330
18
100
AcDbEntity
  8
0
 48
0.2
100
AcDbLine
 10
270.7083821284104
 20
672.6220038090925
 30
0.0
 11
271.9583821284104
 21
674.7870673185537
 31
0.0
  0
LINE
  5
8508
330
18
100
AcDbEntity
  8
0
 48
0.2
100
AcDbLine
 10
268.2083821284104
 20
672.6220038090925
 30
0.0
 11
270.7083821284104
 21
672.6220038090925
 31
0.0
  0
LINE
  5
8509
330
18
100
AcDbEntity
  8
0
 48
0.2
100
AcDbLine
 10
272.2470572630052
 20
674.7870673185537
 30
0.0
 11
270.8527196957079
 21
677.2021308280147
 31
0.0
  0
LINE
  5
850A
330
18
100
AcDbEntity
  8
0
 48
0.2
100
AcDbLine
 10
271.9583821284104
 20
674.7870673185537
 30
0.0
 11
270.7083821284104
 21
676.9521308280148
 31
0.0
  0
LINE
  5
850B
330
18
100
AcDbEntity
  8
0
 48
0.2
100
AcDbLine
 10
268.2083821284104
 20
676.9521308280148
 30
0.0
 11
270.7083821284104
 21
676.9521308280148
 31
0.0
  0
LINE
  5
850C
330
18
100
AcDbEntity
  8
0
 48
0.2
100
AcDbLine
 10
268.0640445611129
 20
692.1720038090922
 30
0.0
 11
270.8527196957079
 21
692.1720038090922
 31
0.0
  0
LINE
  5
850D
330
18
100
AcDbEntity
  8
0
 48
0.2
100
AcDbLine
 10
268.2083821284104
 20
692.4220038090923
 30
0.0
 11
270.7083821284104
 21
692.4220038090923
 31
0.0
  0
ARC
  5
850E
330
18
100
AcDbEntity
  8
0
 48
0.2
100
AcDbCircle
 10
261.3283821284101
 20
698.7370673185535
 30
0.0
 40
2.669999999999886
100
AcDbArc
 50
115.9892335838272
 51
244.0107664161727
  0
LINE
  5
850F
330
18
100
AcDbEntity
  8
0
 48
0.2
100
AcDbLine
 10
268.0640445611129
 20
697.0021308280145
 30
0.0
 11
270.8527196957079
 21
697.0021308280145
 31
0.0
  0
LINE
  5
8510
330
18
100
AcDbEntity
  8
0
 48
0.2
100
AcDbLine
 10
266.9583821284104
 20
694.5870673185534
 30
0.0
 11
268.2083821284104
 21
696.7521308280145
 31
0.0
  0
LINE
  5
8511
330
18
100
AcDbEntity
  8
0
 48
0.2
100
AcDbLine
 10
260.1583821284102
 20
695.6870673185535
 30
0.0
 11
260.1583821284102
 21
701.3370673185534
 31
0.0
  0
LINE
  5
8512
330
18
100
AcDbEntity
  8
0
 48
0.2
100
AcDbLine
 10
266.6697069938156
 20
694.5870673185534
 30
0.0
 11
268.0640445611129
 21
697.0021308280145
 31
0.0
  0
LINE
  5
8513
330
18
100
AcDbEntity
  8
0
 48
0.2
100
AcDbLine
 10
268.2083821284104
 20
696.7521308280145
 30
0.0
 11
270.7083821284104
 21
696.7521308280145
 31
0.0
  0
LINE
  5
8514
330
18
100
AcDbEntity
  8
0
 48
0.2
100
AcDbLine
 10
270.7083821284104
 20
696.7521308280145
 30
0.0
 11
271.9583821284104
 21
694.5870673185534
 31
0.0
  0
LINE
  5
8515
330
18
100
AcDbEntity
  8
0
 48
0.2
100
AcDbLine
 10
270.8527196957079
 20
697.0021308280145
 30
0.0
 11
272.2470572630052
 21
694.5870673185534
 31
0.0
  0
LWPOLYLINE
  5
8524
330
18
100
AcDbEntity
  8
0
100
AcDbPolyline
 90
        4
 70
     1
 43
0.0
 10
280.2917154617439
 20
623.9370673185534
 10
280.2917154617439
 20
615.9370673185534
 10
280.9583821284105
 20
615.9370673185534
 10
280.9583821284105
 20
623.9370673185534
  0
LWPOLYLINE
  5
8525
330
18
100
AcDbEntity
  8
0
100
AcDbPolyline
 90
        4
 70
     1
 43
0.0
 10
279.6250487950772
 20
623.2704006518868
 10
279.6250487950772
 20
616.60373398522
 10
280.2917154617439
 20
616.60373398522
 10
280.2917154617439
 20
623.2704006518868
  0
LINE
  5
8527
330
18
100
AcDbEntity
  8
0
100
AcDbLine
 10
280.9583821284105
 20
612.9370673185535
 30
0.0
 11
282.9583821284105
 21
612.9370673185535
 31
0.0
  0
LINE
  5
8528
330
18
100
AcDbEntity
  8
0
100
AcDbLine
 10
278.5583821284103
 20
616.60373398522
 30
0.0
 11
279.6250487950772
 21
616.60373398522
 31
0.0
  0
LINE
  5
8529
330
18
100
AcDbEntity
  8
0
100
AcDbLine
 10
279.6250487950772
 20
623.2704006518868
 30
0.0
 11
278.5583821284103
 21
623.2704006518868
 31
0.0
  0
LINE
  5
853F
330
18
100
AcDbEntity
  8
0
100
AcDbLine
 10
280.2583821284104
 20
715.8370673185535
 30
0.0
 11
280.2583821284102
 21
665.0370673185534
 31
0.0
  0
LINE
  5
8540
330
18
100
AcDbEntity
  8
0
100
AcDbLine
 10
280.9583821284105
 20
715.8370673185535
 30
0.0
 11
280.9583821284105
 21
665.0370673185534
 31
0.0
  0
LINE
  5
8541
330
18
100
AcDbEntity
  8
0
100
AcDbLine
 10
438.9583821284105
 20
597.9370673185535
 30
0.0
 11
440.9583821284106
 21
597.9370673185535
 31
0.0
  0
LINE
  5
8563
330
18
100
AcDbEntity
  8
0
100
AcDbLine
 10
367.9583821284105
 20
612.9370673185534
 30
0.0
 11
438.9583821284105
 21
612.9370673185535
 31
0.0
  0
ARC
  5
856D
330
18
100
AcDbEntity
  8
0
100
AcDbCircle
 10
360.9583821284105
 20
614.1870673185532
 30
0.0
 40
3.249999999999876
100
AcDbArc
 50
202.6198649480385
 51
337.3801350519614
  0
ARC
  5
85DF
330
18
100
AcDbEntity
  8
0
100
AcDbCircle
 10
351.0131662278139
 20
907.789296666966
 30
0.0
 40
2.0
100
AcDbArc
 50
270.0
 51
358.4088597288058
  0
LWPOLYLINE
  5
85E3
330
18
100
AcDbEntity
  8
0
100
AcDbPolyline
 90
        4
 70
     1
 43
0.0
 10
329.4583821284105
 20
846.789296666966
 10
359.4583821284105
 20
846.789296666966
 10
359.4583821284105
 20
854.789296666966
 10
329.4583821284105
 20
854.789296666966
  0
HATCH
  5
85E4
330
18
100
AcDbEntity
  8
0
100
AcDbHatch
 10
0.0
 20
0.0
 30
0.0
210
0.0
220
0.0
230
1.0
  2
SOLID
 70
     1
 71
     0
 91
       20
 92
        7
 72
     1
 73
     1
 93
        2
 10
333.7083821284105
 20
852.289296666966
 42
1.0
 10
332.7083821284105
 20
852.289296666966
 42
1.0
 97
        0
 92
        7
 72
     1
 73
     1
 93
        2
 10
336.2083821284105
 20
852.289296666966
 42
1.0
 10
335.2083821284105
 20
852.289296666966
 42
1.0
 97
        0
 92
        7
 72
     1
 73
     1
 93
        2
 10
337.7083821284105
 20
852.289296666966
 42
1.0
 10
338.7083821284105
 20
852.289296666966
 42
1.0
 97
        0
 92
        7
 72
     1
 73
     1
 93
        2
 10
341.2083821284105
 20
852.289296666966
 42
1.0
 10
340.2083821284105
 20
852.289296666966
 42
1.0
 97
        0
 92
        7
 72
     1
 73
     1
 93
        2
 10
343.7083821284105
 20
852.289296666966
 42
1.0
 10
342.7083821284105
 20
852.289296666966
 42
1.0
 97
        0
 92
        7
 72
     1
 73
     1
 93
        2
 10
346.2083821284105
 20
852.289296666966
 42
1.0
 10
345.2083821284105
 20
852.289296666966
 42
1.0
 97
        0
 92
        7
 72
     1
 73
     1
 93
        2
 10
348.7083821284105
 20
852.289296666966
 42
1.0
 10
347.7083821284105
 20
852.289296666966
 42
1.0
 97
        0
 92
        7
 72
     1
 73
     1
 93
        2
 10
351.2083821284105
 20
852.289296666966
 42
1.0
 10
350.2083821284105
 20
852.289296666966
 42
1.0
 97
        0
 92
        7
 72
     1
 73
     1
 93
        2
 10
353.7083821284105
 20
852.289296666966
 42
1.0
 10
352.7083821284105
 20
852.289296666966
 42
1.0
 97
        0
 92
        7
 72
     1
 73
     1
 93
        2
 10
356.2083821284105
 20
852.289296666966
 42
1.0
 10
355.2083821284105
 20
852.289296666966
 42
1.0
 97
        0
 92
        7
 72
     1
 73
     1
 93
        2
 10
356.2083821284105
 20
848.789296666966
 42
1.0
 10
355.2083821284105
 20
848.789296666966
 42
1.0
 97
        0
 92
        7
 72
     1
 73
     1
 93
        2
 10
353.7083821284105
 20
848.789296666966
 42
1.0
 10
352.7083821284105
 20
848.789296666966
 42
1.0
 97
        0
 92
        7
 72
     1
 73
     1
 93
        2
 10
351.2083821284105
 20
848.789296666966
 42
1.0
 10
350.2083821284105
 20
848.789296666966
 42
1.0
 97
        0
 92
        7
 72
     1
 73
     1
 93
        2
 10
348.7083821284105
 20
848.789296666966
 42
1.0
 10
347.7083821284105
 20
848.789296666966
 42
1.0
 97
        0
 92
        7
 72
     1
 73
     1
 93
        2
 10
346.2083821284105
 20
848.789296666966
 42
1.0
 10
345.2083821284105
 20
848.789296666966
 42
1.0
 97
        0
 92
        7
 72
     1
 73
     1
 93
        2
 10
343.7083821284105
 20
848.789296666966
 42
1.0
 10
342.7083821284105
 20
848.789296666966
 42
1.0
 97
        0
 92
        7
 72
     1
 73
     1
 93
        2
 10
341.2083821284105
 20
848.789296666966
 42
1.0
 10
340.2083821284105
 20
848.789296666966
 42
1.0
 97
        0
 92
        7
 72
     1
 73
     1
 93
        2
 10
338.7083821284105
 20
848.789296666966
 42
1.0
 10
337.7083821284105
 20
848.789296666966
 42
1.0
 97
        0
 92
        7
 72
     1
 73
     1
 93
        2
 10
336.2083821284105
 20
848.789296666966
 42
1.0
 10
335.2083821284105
 20
848.789296666966
 42
1.0
 97
        0
 92
        7
 72
     1
 73
     1
 93
        2
 10
333.7083821284105
 20
848.789296666966
 42
1.0
 10
332.7083821284105
 20
848.789296666966
 42
1.0
 97
        0
 75
     0
 76
     1
 47
0.0523552323646742
 98
       20
 10
333.2577904278226
 20
852.1895742115935
 10
335.8776604745595
 20
852.2942845558047
 10
338.4975305212961
 20
852.2942845558047
 10
340.6982213129846
 20
852.3466397279104
 10
343.1608989904199
 20
852.1895742115935
 10
345.9379614064581
 20
852.1895742115935
 10
348.2434479038578
 20
852.2942845558047
 10
350.6537277284375
 20
852.1895742115935
 10
353.2735977751743
 20
852.1372190394879
 10
355.6838787890195
 20
852.1372190394879
 10
355.8410711583209
 20
848.7864840476307
 10
353.1688032587286
 20
848.7864840476307
 10
350.6537277284375
 20
848.5770633592082
 10
348.0338576817006
 20
848.7864840476307
 10
345.7283723735666
 20
848.7864840476307
 10
343.2132968432755
 20
848.6817737034193
 10
340.5934267965388
 20
848.8388392197363
 10
338.2879414884047
 20
848.5770633592082
 10
335.5108790723667
 20
848.7341288755251
 10
333.2577904278226
 20
848.7864840476307
  0
LINE
  5
85E5
330
18
100
AcDbEntity
  8
0
100
AcDbLine
 10
282.9583821284106
 20
772.9370673185536
 30
0.0
 11
355.9583821284105
 21
772.9370673185536
 31
0.0
  0
LINE
  5
85E6
330
18
100
AcDbEntity
  8
0
100
AcDbLine
 10
357.9583821284105
 20
893.7892966669661
 30
0.0
 11
284.9583821284105
 21
893.7892966669661
 31
0.0
  0
LINE
  5
85E9
330
18
100
AcDbEntity
  8
0
100
AcDbLine
 10
282.9583821284106
 20
772.9370673185536
 30
0.0
 11
438.9583821284105
 21
772.9370673185536
 31
0.0
  0
LINE
  5
85EB
330
18
100
AcDbEntity
  8
0
100
AcDbLine
 10
280.9583821284105
 20
895.789296666966
 30
0.0
 11
440.9583821284106
 21
895.789296666966
 31
0.0
  0
LINE
  5
85EC
330
18
100
AcDbEntity
  8
0
100
AcDbLine
 10
438.9583821284105
 20
895.789296666966
 30
0.0
 11
282.9583821284105
 21
895.789296666966
 31
0.0
  0
LINE
  5
85FA
330
18
100
AcDbEntity
  8
0
100
AcDbLine
 10
280.9583821284105
 20
893.7892966669661
 30
0.0
 11
280.9583821284105
 21
840.789296666966
 31
0.0
  0
LINE
  5
85FB
330
18
100
AcDbEntity
  8
0
100
AcDbLine
 10
282.9583821284105
 20
891.789296666966
 30
0.0
 11
282.9583821284105
 21
840.789296666966
 31
0.0
  0
LINE
  5
85FC
330
18
100
AcDbEntity
  8
0
 48
0.2
100
AcDbLine
 10
280.9583821284105
 20
858.2892966669664
 30
0.0
 11
244.9583821284104
 21
858.289296666966
 31
0.0
  0
LINE
  5
85FD
330
18
100
AcDbEntity
  8
0
 48
0.2
100
AcDbLine
 10
280.9583821284105
 20
845.5892966669662
 30
0.0
 11
244.9583821284105
 21
845.5892966669662
 31
0.0
  0
LINE
  5
85FE
330
18
100
AcDbEntity
  8
0
100
AcDbLine
 10
275.1480369486435
 20
741.7309862074985
 30
0.0
 11
277.9444632394653
 21
744.5274124983204
 31
0.0
  0
LINE
  5
85FF
330
18
100
AcDbEntity
  8
0
100
AcDbLine
 10
275.5723010173553
 20
741.3067221387867
 30
0.0
 11
278.3687273081773
 21
744.1031484296086
 31
0.0
  0
CIRCLE
  5
8600
330
18
100
AcDbEntity
  8
0
100
AcDbCircle
 10
276.7583821284103
 20
742.9170673185535
 30
0.0
 40
2.0
  0
LINE
  5
8601
330
18
100
AcDbEntity
  8
0
100
AcDbLine
 10
280.9583821284103
 20
735.3370673185535
 30
0.0
 11
271.4583821284102
 21
735.3370673185537
 31
0.0
  0
LINE
  5
8602
330
18
100
AcDbEntity
  8
0
100
AcDbLine
 10
275.1480369486435
 20
736.6509862074986
 30
0.0
 11
277.9444632394653
 21
739.4474124983205
 31
0.0
  0
LINE
  5
8603
330
18
100
AcDbEntity
  8
0
100
AcDbLine
 10
275.5723010173553
 20
736.2267221387867
 30
0.0
 11
278.3687273081773
 21
739.0231484296085
 31
0.0
  0
CIRCLE
  5
8604
330
18
100
AcDbEntity
  8
0
100
AcDbCircle
 10
276.7583821284103
 20
737.8370673185536
 30
0.0
 40
2.0
  0
LINE
  5
8605
330
18
100
AcDbEntity
  8
0
100
AcDbLine
 10
280.9583821284105
 20
750.5370673185535
 30
0.0
 11
271.4583821284104
 21
750.5370673185536
 31
0.0
  0
LINE
  5
8606
330
18
100
AcDbEntity
  8
0
100
AcDbLine
 10
275.1480369486435
 20
746.8109862074985
 30
0.0
 11
277.9444632394653
 21
749.6074124983205
 31
0.0
  0
LINE
  5
8607
330
18
100
AcDbEntity
  8
0
100
AcDbLine
 10
275.5723010173553
 20
746.3867221387866
 30
0.0
 11
278.3687273081773
 21
749.1831484296085
 31
0.0
  0
CIRCLE
  5
8608
330
18
100
AcDbEntity
  8
0
100
AcDbCircle
 10
276.7583821284103
 20
747.9970673185536
 30
0.0
 40
2.0
  0
LINE
  5
8609
330
18
100
AcDbEntity
  8
0
100
AcDbLine
 10
272.9583821284105
 20
750.5370673185536
 30
0.0
 11
272.9583821284106
 21
735.3370673185537
 31
0.0
  0
LINE
  5
860A
330
18
100
AcDbEntity
  8
0
100
AcDbLine
 10
271.4583821284104
 20
750.5370673185536
 30
0.0
 11
271.4583821284104
 21
735.3370673185537
 31
0.0
  0
ARC
  5
860B
330
18
100
AcDbEntity
  8
0
 48
0.2
100
AcDbCircle
 10
261.3283821284103
 20
851.9392966669661
 30
0.0
 40
2.669999999999886
100
AcDbArc
 50
115.9892335838272
 51
244.0107664161727
  0
LINE
  5
860C
330
18
100
AcDbEntity
  8
0
 48
0.2
100
AcDbLine
 10
260.95838212841
 20
842.9392966669661
 30
0.0
 11
244.9583821284105
 21
842.9392966669659
 31
0.0
  0
LINE
  5
860D
330
18
100
AcDbEntity
  8
0
 48
0.2
100
AcDbLine
 10
260.95838212841
 20
860.9392966669661
 30
0.0
 11
244.9583821284105
 21
860.9392966669661
 31
0.0
  0
LINE
  5
860E
330
18
100
AcDbEntity
  8
0
 48
0.2
100
AcDbLine
 10
260.1583821284104
 20
848.0892966669662
 30
0.0
 11
252.1583821284104
 21
848.089296666966
 31
0.0
  0
LINE
  5
860F
330
18
100
AcDbEntity
  8
0
 48
0.2
100
AcDbLine
 10
260.1583821284106
 20
855.7892966669662
 30
0.0
 11
252.1583821284104
 21
855.7892966669662
 31
0.0
  0
LINE
  5
8610
330
18
100
AcDbEntity
  8
0
 48
0.2
100
AcDbLine
 10
252.1583821284104
 20
855.7892966669662
 30
0.0
 11
252.1583821284104
 21
848.089296666966
 31
0.0
  0
LINE
  5
8611
330
18
100
AcDbEntity
  8
0
 48
0.2
100
AcDbLine
 10
244.9583821284105
 20
860.9392966669661
 30
0.0
 11
244.9583821284105
 21
842.9392966669659
 31
0.0
  0
LINE
  5
8612
330
18
100
AcDbEntity
  8
0
 48
0.2
100
AcDbLine
 10
260.1583821284104
 20
858.2892966669662
 30
0.0
 11
260.1583821284104
 21
845.5892966669662
 31
0.0
  0
LINE
  5
8613
330
18
100
AcDbEntity
  8
0
 48
0.2
100
AcDbLine
 10
260.9583821284104
 20
842.9392966669661
 30
0.0
 11
265.9583821284104
 21
845.5892966669662
 31
0.0
  0
LINE
  5
8614
330
18
100
AcDbEntity
  8
0
 48
0.2
100
AcDbLine
 10
265.9583821284104
 20
858.289296666966
 30
0.0
 11
260.9583821284104
 21
860.9392966669661
 31
0.0
  0
LINE
  5
861D
330
18
100
AcDbEntity
  8
0
100
AcDbLine
 10
280.9583821284105
 20
750.5370673185535
 30
0.0
 11
280.9583821284105
 21
735.3370673185535
 31
0.0
  0
LINE
  5
861E
330
18
100
AcDbEntity
  8
0
100
AcDbLine
 10
280.2583821284104
 20
750.5370673185535
 30
0.0
 11
280.2583821284104
 21
735.3370673185535
 31
0.0
  0
LINE
  5
8628
330
18
100
AcDbEntity
  8
0
100
AcDbLine
 10
280.9583821284105
 20
772.9370673185536
 30
0.0
 11
282.9583821284106
 21
772.9370673185536
 31
0.0
  0
LINE
  5
863D
330
18
100
AcDbEntity
  8
0
 48
0.2
100
AcDbLine
 10
278.9583821284105
 20
855.4392966669661
 30
0.0
 11
278.9583821284105
 21
848.4392966669659
 31
0.0
  0
LINE
  5
8641
330
18
100
AcDbEntity
  8
0
100
AcDbLine
 10
282.9583821284105
 20
840.789296666966
 30
0.0
 11
280.9583821284105
 21
840.789296666966
 31
0.0
  0
LINE
  5
8643
330
18
100
AcDbEntity
  8
0
 48
0.2
100
AcDbLine
 10
280.9583821284105
 20
848.4392966669659
 30
0.0
 11
278.9583821284105
 21
848.4392966669659
 31
0.0
  0
LINE
  5
8644
330
18
100
AcDbEntity
  8
0
100
AcDbLine
 10
282.9583821284105
 20
844.7892966669661
 30
0.0
 11
283.9583821284105
 21
844.7892966669661
 31
0.0
  0
LINE
  5
8648
330
18
100
AcDbEntity
  8
0
 48
0.2
100
AcDbLine
 10
280.9583821284105
 20
855.4392966669659
 30
0.0
 11
278.9583821284105
 21
855.4392966669661
 31
0.0
  0
CIRCLE
  5
864C
330
18
100
AcDbEntity
  8
0
100
AcDbCircle
 10
333.2083821284105
 20
852.289296666966
 30
0.0
 40
0.5
  0
CIRCLE
  5
864D
330
18
100
AcDbEntity
  8
0
100
AcDbCircle
 10
333.2083821284105
 20
848.789296666966
 30
0.0
 40
0.5
  0
LWPOLYLINE
  5
8650
330
18
100
AcDbEntity
  8
0
100
AcDbPolyline
 90
        4
 70
     1
 43
0.0
 10
320.9583821284105
 20
847.7892966669662
 10
325.9583821284105
 20
847.7892966669662
 10
325.9583821284105
 20
849.7892966669661
 10
320.9583821284105
 20
849.7892966669661
  0
LWPOLYLINE
  5
8651
330
18
100
AcDbEntity
  8
0
100
AcDbPolyline
 90
        4
 70
     1
 43
0.0
 10
325.7083821284105
 20
848.0392966669661
 10
324.2083821284105
 20
848.0392966669661
 10
324.2083821284105
 20
849.5392966669662
 10
325.7083821284105
 20
849.5392966669662
  0
CIRCLE
  5
8653
330
18
100
AcDbEntity
  8
0
100
AcDbCircle
 10
338.2083821284105
 20
848.789296666966
 30
0.0
 40
0.5
  0
CIRCLE
  5
8654
330
18
100
AcDbEntity
  8
0
100
AcDbCircle
 10
335.7083821284105
 20
848.789296666966
 30
0.0
 40
0.5
  0
CIRCLE
  5
8655
330
18
100
AcDbEntity
  8
0
100
AcDbCircle
 10
340.7083821284105
 20
848.789296666966
 30
0.0
 40
0.5
  0
CIRCLE
  5
8656
330
18
100
AcDbEntity
  8
0
100
AcDbCircle
 10
343.2083821284105
 20
848.789296666966
 30
0.0
 40
0.5
  0
CIRCLE
  5
8657
330
18
100
AcDbEntity
  8
0
100
AcDbCircle
 10
345.7083821284105
 20
848.789296666966
 30
0.0
 40
0.5
  0
CIRCLE
  5
8658
330
18
100
AcDbEntity
  8
0
100
AcDbCircle
 10
350.7083821284105
 20
848.789296666966
 30
0.0
 40
0.5
  0
CIRCLE
  5
8659
330
18
100
AcDbEntity
  8
0
100
AcDbCircle
 10
348.2083821284105
 20
848.789296666966
 30
0.0
 40
0.5
  0
CIRCLE
  5
865A
330
18
100
AcDbEntity
  8
0
100
AcDbCircle
 10
338.2083821284105
 20
852.289296666966
 30
0.0
 40
0.5
  0
CIRCLE
  5
865B
330
18
100
AcDbEntity
  8
0
100
AcDbCircle
 10
335.7083821284105
 20
852.289296666966
 30
0.0
 40
0.5
  0
CIRCLE
  5
865C
330
18
100
AcDbEntity
  8
0
100
AcDbCircle
 10
340.7083821284105
 20
852.289296666966
 30
0.0
 40
0.5
  0
CIRCLE
  5
865D
330
18
100
AcDbEntity
  8
0
100
AcDbCircle
 10
343.2083821284105
 20
852.289296666966
 30
0.0
 40
0.5
  0
CIRCLE
  5
865E
330
18
100
AcDbEntity
  8
0
100
AcDbCircle
 10
345.7083821284105
 20
852.289296666966
 30
0.0
 40
0.5
  0
CIRCLE
  5
865F
330
18
100
AcDbEntity
  8
0
100
AcDbCircle
 10
350.7083821284105
 20
852.289296666966
 30
0.0
 40
0.5
  0
CIRCLE
  5
8660
330
18
100
AcDbEntity
  8
0
100
AcDbCircle
 10
348.2083821284105
 20
852.289296666966
 30
0.0
 40
0.5
  0
LINE
  5
8661
330
18
100
AcDbEntity
  8
0
100
AcDbLine
 10
280.2583821284106
 20
867.4892966669661
 30
0.0
 11
272.9583821284106
 21
867.4892966669661
 31
0.0
  0
LINE
  5
8662
330
18
100
AcDbEntity
  8
0
100
AcDbLine
 10
280.2583821284106
 20
882.4892966669661
 30
0.0
 11
271.4583821284106
 21
882.4892966669661
 31
0.0
  0
LINE
  5
8663
330
18
100
AcDbEntity
  8
0
100
AcDbLine
 10
271.4583821284106
 20
882.4892966669661
 30
0.0
 11
271.4583821284106
 21
872.9892966669661
 31
0.0
  0
LINE
  5
8664
330
18
100
AcDbEntity
  8
0
100
AcDbLine
 10
271.4583821284106
 20
872.9892966669661
 30
0.0
 11
272.9583821284106
 21
867.4892966669661
 31
0.0
  0
LINE
  5
8665
330
18
100
AcDbEntity
  8
0
100
AcDbLine
 10
320.9043691877017
 20
907.7337625324851
 30
0.0
 11
320.1583821284106
 21
934.589296666966
 31
0.0
  0
LINE
  5
8666
330
18
100
AcDbEntity
  8
0
100
AcDbLine
 10
317.7583821284105
 20
934.589296666966
 30
0.0
 11
317.0123950691194
 21
907.7337625324853
 31
0.0
  0
LINE
  5
8667
330
18
100
AcDbEntity
  8
0
100
AcDbLine
 10
308.9043691877017
 20
907.7337625324851
 30
0.0
 11
308.1583821284106
 21
934.589296666966
 31
0.0
  0
LINE
  5
8668
330
18
100
AcDbEntity
  8
0
100
AcDbLine
 10
305.7583821284105
 20
934.589296666966
 30
0.0
 11
305.0123950691194
 21
907.7337625324853
 31
0.0
  0
LINE
  5
8669
330
18
100
AcDbEntity
  8
0
100
AcDbLine
 10
329.7583821284105
 20
934.589296666966
 30
0.0
 11
329.0123950691194
 21
907.7337625324853
 31
0.0
  0
LINE
  5
866A
330
18
100
AcDbEntity
  8
0
100
AcDbLine
 10
332.9043691877017
 20
907.7337625324851
 30
0.0
 11
332.1583821284106
 21
934.589296666966
 31
0.0
  0
LINE
  5
866B
330
18
100
AcDbEntity
  8
0
100
AcDbLine
 10
344.9043691877017
 20
907.7337625324851
 30
0.0
 11
344.1583821284106
 21
934.589296666966
 31
0.0
  0
LINE
  5
866C
330
18
100
AcDbEntity
  8
0
100
AcDbLine
 10
341.7583821284105
 20
934.589296666966
 30
0.0
 11
341.0123950691194
 21
907.7337625324853
 31
0.0
  0
LINE
  5
866D
330
18
100
AcDbEntity
  8
0
100
AcDbLine
 10
284.9043691877017
 20
907.7337625324853
 30
0.0
 11
284.1583821284105
 21
934.589296666966
 31
0.0
  0
LINE
  5
866E
330
18
100
AcDbEntity
  8
0
100
AcDbLine
 10
281.7583821284105
 20
934.589296666966
 30
0.0
 11
280.9583821284105
 21
905.789296666966
 31
0.0
  0
LINE
  5
866F
330
18
100
AcDbEntity
  8
0
100
AcDbLine
 10
293.7583821284105
 20
934.589296666966
 30
0.0
 11
293.0123950691194
 21
907.7337625324853
 31
0.0
  0
LINE
  5
8670
330
18
100
AcDbEntity
  8
0
100
AcDbLine
 10
296.9043691877017
 20
907.7337625324851
 30
0.0
 11
296.1583821284106
 21
934.589296666966
 31
0.0
  0
LINE
  5
8672
330
18
100
AcDbEntity
  8
0
100
AcDbLine
 10
310.9035980290071
 20
905.7892966669658
 30
0.0
 11
315.0131662278139
 21
905.7892966669658
 31
0.0
  0
ARC
  5
8675
330
18
100
AcDbEntity
  8
0
100
AcDbCircle
 10
282.9583821284105
 20
893.7892966669661
 30
0.0
 40
2.0
100
AcDbArc
 50
90.0
 51
180.0
  0
LINE
  5
867B
330
18
100
AcDbEntity
  8
0
100
AcDbLine
 10
280.2583821284106
 20
867.4892966669661
 30
0.0
 11
280.9583821284106
 21
872.9892966669661
 31
0.0
  0
LINE
  5
867C
330
18
100
AcDbEntity
  8
0
100
AcDbLine
 10
280.9583821284105
 20
876.0892966669661
 30
0.0
 11
280.9583821284106
 21
872.9892966669661
 31
0.0
  0
LINE
  5
8680
330
18
100
AcDbEntity
  8
0
100
AcDbLine
 10
282.9583821284105
 20
882.689296666966
 30
0.0
 11
280.9583821284105
 21
882.689296666966
 31
0.0
  0
LINE
  5
8681
330
18
100
AcDbEntity
  8
0
100
AcDbLine
 10
280.9583821284109
 20
881.489296666966
 30
0.0
 11
280.2583821284107
 21
881.489296666966
 31
0.0
  0
LINE
  5
8682
330
18
100
AcDbEntity
  8
0
100
AcDbLine
 10
280.2583821284106
 20
882.4892966669661
 30
0.0
 11
280.2583821284107
 21
881.489296666966
 31
0.0
  0
LINE
  5
8683
330
18
100
AcDbEntity
  8
0
100
AcDbLine
 10
280.9583821284109
 20
881.489296666966
 30
0.0
 11
280.9583821284109
 21
880.9892966669661
 31
0.0
  0
ARC
  5
8685
330
18
100
AcDbEntity
  8
0
100
AcDbCircle
 10
284.9583821284105
 20
891.789296666966
 30
0.0
 40
2.0
100
AcDbArc
 50
90.0
 51
180.0
  0
ARC
  5
869B
330
18
100
AcDbEntity
  8
0
100
AcDbCircle
 10
286.9035980290071
 20
907.789296666966
 30
0.0
 40
2.0
100
AcDbArc
 50
181.5911402711942
 51
270.0
  0
LINE
  5
869C
330
18
100
AcDbEntity
  8
0
100
AcDbLine
 10
280.9583821284105
 20
895.789296666966
 30
0.0
 11
280.9583821284105
 21
905.789296666966
 31
0.0
  0
ARC
  5
869D
330
18
100
AcDbEntity
  8
0
100
AcDbCircle
 10
291.0131662278139
 20
907.789296666966
 30
0.0
 40
2.0
100
AcDbArc
 50
270.0
 51
358.4088597288058
  0
LINE
  5
869E
330
18
100
AcDbEntity
  8
0
100
AcDbLine
 10
286.9035980290071
 20
905.789296666966
 30
0.0
 11
291.0131662278139
 21
905.789296666966
 31
0.0
  0
ARC
  5
869F
330
18
100
AcDbEntity
  8
0
100
AcDbCircle
 10
303.0131662278139
 20
907.789296666966
 30
0.0
 40
2.0
100
AcDbArc
 50
270.0
 51
358.4088597288058
  0
LINE
  5
86A0
330
18
100
AcDbEntity
  8
0
100
AcDbLine
 10
298.9035980290072
 20
905.7892966669658
 30
0.0
 11
303.0131662278139
 21
905.7892966669658
 31
0.0
  0
ARC
  5
86A1
330
18
100
AcDbEntity
  8
0
100
AcDbCircle
 10
298.9035980290072
 20
907.7892966669658
 30
0.0
 40
2.0
100
AcDbArc
 50
181.5911402711942
 51
270.0
  0
ARC
  5
86A2
330
18
100
AcDbEntity
  8
0
100
AcDbCircle
 10
310.9035980290071
 20
907.7892966669658
 30
0.0
 40
2.0
100
AcDbArc
 50
181.5911402711942
 51
270.0
  0
ARC
  5
86BE
330
18
100
AcDbEntity
  8
0
100
AcDbCircle
 10
334.9035980290071
 20
907.7892966669658
 30
0.0
 40
2.0
100
AcDbArc
 50
181.5911402711942
 51
270.0
  0
LINE
  5
86BF
330
18
100
AcDbEntity
  8
0
100
AcDbLine
 10
322.9035980290071
 20
905.7892966669658
 30
0.0
 11
327.0131662278139
 21
905.7892966669658
 31
0.0
  0
ARC
  5
86C0
330
18
100
AcDbEntity
  8
0
100
AcDbCircle
 10
315.0131662278139
 20
907.789296666966
 30
0.0
 40
2.0
100
AcDbArc
 50
270.0
 51
358.4088597288058
  0
ARC
  5
86C1
330
18
100
AcDbEntity
  8
0
100
AcDbCircle
 10
322.9035980290071
 20
907.7892966669658
 30
0.0
 40
2.0
100
AcDbArc
 50
181.5911402711942
 51
270.0
  0
ARC
  5
86C2
330
18
100
AcDbEntity
  8
0
100
AcDbCircle
 10
327.0131662278139
 20
907.789296666966
 30
0.0
 40
2.0
100
AcDbArc
 50
270.0
 51
358.4088597288058
  0
LINE
  5
86C3
330
18
100
AcDbEntity
  8
0
100
AcDbLine
 10
334.9035980290071
 20
905.7892966669658
 30
0.0
 11
339.0131662278139
 21
905.7892966669658
 31
0.0
  0
ARC
  5
86C4
330
18
100
AcDbEntity
  8
0
100
AcDbCircle
 10
339.0131662278139
 20
907.789296666966
 30
0.0
 40
2.0
100
AcDbArc
 50
270.0
 51
358.4088597288058
  0
LINE
  5
86C5
330
18
100
AcDbEntity
  8
0
100
AcDbLine
 10
346.9035980290072
 20
905.7892966669658
 30
0.0
 11
351.0131662278139
 21
905.7892966669658
 31
0.0
  0
ARC
  5
86C6
330
18
100
AcDbEntity
  8
0
100
AcDbCircle
 10
346.9035980290072
 20
907.7892966669658
 30
0.0
 40
2.0
100
AcDbArc
 50
181.5911402711942
 51
270.0
  0
ARC
  5
86C7
330
18
100
AcDbEntity
  8
0
100
AcDbCircle
 10
294.9583821284105
 20
934.589296666966
 30
0.0
 40
1.199999999999999
100
AcDbArc
 50
0.0
 51
180.0
  0
ARC
  5
86C8
330
18
100
AcDbEntity
  8
0
100
AcDbCircle
 10
282.9583821284105
 20
934.589296666966
 30
0.0
 40
1.199999999999999
100
AcDbArc
 50
0.0
 51
180.0
  0
ARC
  5
86C9
330
18
100
AcDbEntity
  8
0
100
AcDbCircle
 10
306.9583821284105
 20
934.589296666966
 30
0.0
 40
1.199999999999999
100
AcDbArc
 50
0.0
 51
180.0
  0
ARC
  5
86CA
330
18
100
AcDbEntity
  8
0
100
AcDbCircle
 10
318.9583821284105
 20
934.589296666966
 30
0.0
 40
1.199999999999999
100
AcDbArc
 50
0.0
 51
180.0
  0
ARC
  5
86CB
330
18
100
AcDbEntity
  8
0
100
AcDbCircle
 10
330.9583821284105
 20
934.589296666966
 30
0.0
 40
1.199999999999999
100
AcDbArc
 50
0.0
 51
180.0
  0
ARC
  5
86CC
330
18
100
AcDbEntity
  8
0
100
AcDbCircle
 10
342.9583821284105
 20
934.589296666966
 30
0.0
 40
1.199999999999999
100
AcDbArc
 50
0.0
 51
180.0
  0
LINE
  5
86DC
330
18
100
AcDbEntity
  8
0
100
AcDbLine
 10
440.9583821284107
 20
893.7892966669661
 30
0.0
 11
440.9583821284106
 21
840.789296666966
 31
0.0
  0
LINE
  5
86DD
330
18
100
AcDbEntity
  8
0
100
AcDbLine
 10
438.9583821284105
 20
891.789296666966
 30
0.0
 11
438.9583821284105
 21
840.789296666966
 31
0.0
  0
LINE
  5
86ED
330
18
100
AcDbEntity
  8
0
100
AcDbLine
 10
369.9583821284105
 20
772.9370673185536
 30
0.0
 11
438.9583821284105
 21
772.9370673185536
 31
0.0
  0
ARC
  5
870A
330
18
100
AcDbEntity
  8
0
100
AcDbCircle
 10
362.9583821284105
 20
771.6870673185536
 30
0.0
 40
3.249999999999876
100
AcDbArc
 50
22.61986494803852
 51
157.3801350519614
  0
CIRCLE
  5
8732
330
18
100
AcDbEntity
  8
0
100
AcDbCircle
 10
353.2083821284105
 20
848.789296666966
 30
0.0
 40
0.5
  0
CIRCLE
  5
8733
330
18
100
AcDbEntity
  8
0
100
AcDbCircle
 10
355.7083821284105
 20
848.789296666966
 30
0.0
 40
0.5
  0
CIRCLE
  5
8735
330
18
100
AcDbEntity
  8
0
100
AcDbCircle
 10
353.2083821284105
 20
852.289296666966
 30
0.0
 40
0.5
  0
CIRCLE
  5
8736
330
18
100
AcDbEntity
  8
0
100
AcDbCircle
 10
355.7083821284105
 20
852.289296666966
 30
0.0
 40
0.5
  0
LINE
  5
8747
330
18
100
AcDbEntity
  8
0
100
AcDbLine
 10
438.9583821284105
 20
787.9370673185535
 30
0.0
 11
440.9583821284106
 21
787.9370673185535
 31
0.0
  0
LINE
  5
874C
330
18
100
AcDbEntity
  8
0
100
AcDbLine
 10
440.9583821284106
 20
840.789296666966
 30
0.0
 11
438.9583821284105
 21
840.789296666966
 31
0.0
  0
ARC
  5
874F
330
18
100
AcDbEntity
  8
0
100
AcDbCircle
 10
426.9583821284105
 20
934.589296666966
 30
0.0
 40
1.199999999999999
100
AcDbArc
 50
0.0
 51
180.0
  0
LINE
  5
8751
330
18
100
AcDbEntity
  8
0
100
AcDbLine
 10
436.9583821284106
 20
893.7892966669661
 30
0.0
 11
367.9583821284105
 21
893.7892966669661
 31
0.0
  0
LINE
  5
8752
330
18
100
AcDbEntity
  8
0
100
AcDbLine
 10
416.9043691877017
 20
907.7337625324853
 30
0.0
 11
416.1583821284105
 21
934.589296666966
 31
0.0
  0
LINE
  5
8753
330
18
100
AcDbEntity
  8
0
100
AcDbLine
 10
413.7583821284104
 20
934.589296666966
 30
0.0
 11
413.0123950691194
 21
907.7337625324853
 31
0.0
  0
LINE
  5
8754
330
18
100
AcDbEntity
  8
0
100
AcDbLine
 10
425.7583821284105
 20
934.589296666966
 30
0.0
 11
425.0123950691194
 21
907.7337625324853
 31
0.0
  0
LINE
  5
8755
330
18
100
AcDbEntity
  8
0
100
AcDbLine
 10
404.9043691877017
 20
907.7337625324853
 30
0.0
 11
404.1583821284105
 21
934.589296666966
 31
0.0
  0
LINE
  5
8756
330
18
100
AcDbEntity
  8
0
100
AcDbLine
 10
401.7583821284104
 20
934.589296666966
 30
0.0
 11
401.0123950691194
 21
907.7337625324853
 31
0.0
  0
LINE
  5
8757
330
18
100
AcDbEntity
  8
0
100
AcDbLine
 10
392.9043691877017
 20
907.7337625324853
 30
0.0
 11
392.1583821284106
 21
934.589296666966
 31
0.0
  0
LINE
  5
8758
330
18
100
AcDbEntity
  8
0
100
AcDbLine
 10
380.9043691877017
 20
907.7337625324853
 30
0.0
 11
380.1583821284106
 21
934.589296666966
 31
0.0
  0
LINE
  5
8759
330
18
100
AcDbEntity
  8
0
100
AcDbLine
 10
377.7583821284105
 20
934.589296666966
 30
0.0
 11
377.0123950691194
 21
907.7337625324853
 31
0.0
  0
LINE
  5
875A
330
18
100
AcDbEntity
  8
0
100
AcDbLine
 10
389.7583821284105
 20
934.589296666966
 30
0.0
 11
389.0123950691194
 21
907.7337625324853
 31
0.0
  0
LINE
  5
875B
330
18
100
AcDbEntity
  8
0
100
AcDbLine
 10
356.9043691877017
 20
907.7337625324851
 30
0.0
 11
356.1583821284106
 21
934.589296666966
 31
0.0
  0
LINE
  5
875C
330
18
100
AcDbEntity
  8
0
100
AcDbLine
 10
353.7583821284105
 20
934.589296666966
 30
0.0
 11
353.0123950691194
 21
907.7337625324853
 31
0.0
  0
LINE
  5
875D
330
18
100
AcDbEntity
  8
0
100
AcDbLine
 10
368.9043691877017
 20
907.7337625324853
 30
0.0
 11
368.1583821284106
 21
934.589296666966
 31
0.0
  0
LINE
  5
875E
330
18
100
AcDbEntity
  8
0
100
AcDbLine
 10
365.7583821284105
 20
934.589296666966
 30
0.0
 11
365.0123950691193
 21
907.7337625324853
 31
0.0
  0
ARC
  5
875F
330
18
100
AcDbEntity
  8
0
100
AcDbCircle
 10
387.0131662278139
 20
907.789296666966
 30
0.0
 40
2.0
100
AcDbArc
 50
270.0
 51
358.4088597288058
  0
LINE
  5
876C
330
18
100
AcDbEntity
  8
0
100
AcDbLine
 10
361.0218904553065
 20
887.789296666966
 30
0.0
 11
362.4583821284103
 21
887.789296666966
 31
0.0
  0
LINE
  5
876D
330
18
100
AcDbEntity
  8
0
100
AcDbLine
 10
361.0218904553065
 20
886.7892966669661
 30
0.0
 11
362.4583821284103
 21
886.7892966669661
 31
0.0
  0
CIRCLE
  5
876E
330
18
100
AcDbEntity
  8
0
100
AcDbCircle
 10
362.9583821284103
 20
887.289296666966
 30
0.0
 40
3.0
  0
LINE
  5
876F
330
18
100
AcDbEntity
  8
0
100
AcDbLine
 10
361.0218904553065
 20
886.7892966669661
 30
0.0
 11
361.0218904553065
 21
887.789296666966
 31
0.0
  0
LINE
  5
8771
330
18
100
AcDbEntity
  8
0
100
AcDbLine
 10
357.9583821284105
 20
893.7892966669661
 30
0.0
 11
357.9583821284105
 21
891.789296666966
 31
0.0
  0
LINE
  5
8772
330
18
100
AcDbEntity
  8
0
100
AcDbLine
 10
364.8948738015141
 20
887.789296666966
 30
0.0
 11
364.8948738015141
 21
886.7892966669661
 31
0.0
  0
LINE
  5
8774
330
18
100
AcDbEntity
  8
0
100
AcDbLine
 10
363.4583821284103
 20
885.3528049938624
 30
0.0
 11
362.4583821284103
 21
885.3528049938624
 31
0.0
  0
LINE
  5
8775
330
18
100
AcDbEntity
  8
0
100
AcDbLine
 10
362.4583821284103
 20
885.3528049938624
 30
0.0
 11
362.4583821284103
 21
886.7892966669661
 31
0.0
  0
LINE
  5
8776
330
18
100
AcDbEntity
  8
0
100
AcDbLine
 10
363.4583821284103
 20
885.3528049938624
 30
0.0
 11
363.4583821284103
 21
886.7892966669661
 31
0.0
  0
LINE
  5
8777
330
18
100
AcDbEntity
  8
0
100
AcDbLine
 10
363.4583821284103
 20
886.7892966669661
 30
0.0
 11
364.8948738015141
 21
886.7892966669661
 31
0.0
  0
LINE
  5
8778
330
18
100
AcDbEntity
  8
0
100
AcDbLine
 10
362.4583821284103
 20
889.2257883400699
 30
0.0
 11
363.4583821284103
 21
889.2257883400699
 31
0.0
  0
LINE
  5
8779
330
18
100
AcDbEntity
  8
0
100
AcDbLine
 10
362.4583821284103
 20
887.789296666966
 30
0.0
 11
362.4583821284103
 21
889.2257883400699
 31
0.0
  0
LINE
  5
877A
330
18
100
AcDbEntity
  8
0
100
AcDbLine
 10
363.4583821284103
 20
887.789296666966
 30
0.0
 11
364.8948738015141
 21
887.789296666966
 31
0.0
  0
LINE
  5
877B
330
18
100
AcDbEntity
  8
0
100
AcDbLine
 10
363.4583821284103
 20
887.789296666966
 30
0.0
 11
363.4583821284103
 21
889.2257883400699
 31
0.0
  0
LINE
  5
877C
330
18
100
AcDbEntity
  8
0
100
AcDbLine
 10
367.9583821284105
 20
893.7892966669661
 30
0.0
 11
367.9583821284105
 21
891.789296666966
 31
0.0
  0
ARC
  5
878D
330
18
100
AcDbEntity
  8
0
100
AcDbCircle
 10
370.9035980290071
 20
907.789296666966
 30
0.0
 40
2.0
100
AcDbArc
 50
181.5911402711942
 51
270.0
  0
LINE
  5
878E
330
18
100
AcDbEntity
  8
0
100
AcDbLine
 10
358.9035980290071
 20
905.7892966669658
 30
0.0
 11
363.0131662278139
 21
905.7892966669658
 31
0.0
  0
ARC
  5
878F
330
18
100
AcDbEntity
  8
0
100
AcDbCircle
 10
358.9035980290071
 20
907.7892966669658
 30
0.0
 40
2.0
100
AcDbArc
 50
181.5911402711942
 51
270.0
  0
ARC
  5
8790
330
18
100
AcDbEntity
  8
0
100
AcDbCircle
 10
363.0131662278139
 20
907.789296666966
 30
0.0
 40
2.0
100
AcDbArc
 50
270.0
 51
358.4088597288058
  0
ARC
  5
8791
330
18
100
AcDbEntity
  8
0
100
AcDbCircle
 10
375.0131662278139
 20
907.789296666966
 30
0.0
 40
2.0
100
AcDbArc
 50
270.0
 51
358.4088597288058
  0
LINE
  5
8792
330
18
100
AcDbEntity
  8
0
100
AcDbLine
 10
370.9035980290071
 20
905.789296666966
 30
0.0
 11
375.0131662278139
 21
905.789296666966
 31
0.0
  0
LINE
  5
8793
330
18
100
AcDbEntity
  8
0
100
AcDbLine
 10
382.9035980290072
 20
905.789296666966
 30
0.0
 11
387.0131662278139
 21
905.789296666966
 31
0.0
  0
ARC
  5
8794
330
18
100
AcDbEntity
  8
0
100
AcDbCircle
 10
382.9035980290072
 20
907.789296666966
 30
0.0
 40
2.0
100
AcDbArc
 50
181.5911402711942
 51
270.0
  0
LINE
  5
87BC
330
18
100
AcDbEntity
  8
0
100
AcDbLine
 10
406.9035980290071
 20
905.789296666966
 30
0.0
 11
411.0131662278139
 21
905.789296666966
 31
0.0
  0
LINE
  5
87BD
330
18
100
AcDbEntity
  8
0
100
AcDbLine
 10
394.9035980290071
 20
905.789296666966
 30
0.0
 11
399.0131662278139
 21
905.789296666966
 31
0.0
  0
ARC
  5
87BE
330
18
100
AcDbEntity
  8
0
100
AcDbCircle
 10
394.9035980290071
 20
907.789296666966
 30
0.0
 40
2.0
100
AcDbArc
 50
181.5911402711942
 51
270.0
  0
ARC
  5
87BF
330
18
100
AcDbEntity
  8
0
100
AcDbCircle
 10
399.0131662278139
 20
907.789296666966
 30
0.0
 40
2.0
100
AcDbArc
 50
270.0
 51
358.4088597288058
  0
ARC
  5
87C0
330
18
100
AcDbEntity
  8
0
100
AcDbCircle
 10
406.9035980290071
 20
907.789296666966
 30
0.0
 40
2.0
100
AcDbArc
 50
181.5911402711942
 51
270.0
  0
ARC
  5
87C1
330
18
100
AcDbEntity
  8
0
100
AcDbCircle
 10
418.9035980290071
 20
907.789296666966
 30
0.0
 40
2.0
100
AcDbArc
 50
181.5911402711942
 51
270.0
  0
ARC
  5
87C2
330
18
100
AcDbEntity
  8
0
100
AcDbCircle
 10
411.0131662278139
 20
907.789296666966
 30
0.0
 40
2.0
100
AcDbArc
 50
270.0
 51
358.4088597288058
  0
LINE
  5
87C3
330
18
100
AcDbEntity
  8
0
100
AcDbLine
 10
418.9035980290071
 20
905.789296666966
 30
0.0
 11
423.0131662278139
 21
905.789296666966
 31
0.0
  0
ARC
  5
87C4
330
18
100
AcDbEntity
  8
0
100
AcDbCircle
 10
423.0131662278139
 20
907.789296666966
 30
0.0
 40
2.0
100
AcDbArc
 50
270.0
 51
358.4088597288058
  0
ARC
  5
87C5
330
18
100
AcDbEntity
  8
0
100
AcDbCircle
 10
354.9583821284105
 20
934.589296666966
 30
0.0
 40
1.199999999999999
100
AcDbArc
 50
0.0
 51
180.0
  0
ARC
  5
87C6
330
18
100
AcDbEntity
  8
0
100
AcDbCircle
 10
366.9583821284105
 20
934.589296666966
 30
0.0
 40
1.199999999999999
100
AcDbArc
 50
0.0
 51
180.0
  0
ARC
  5
87C7
330
18
100
AcDbEntity
  8
0
100
AcDbCircle
 10
378.9583821284105
 20
934.589296666966
 30
0.0
 40
1.199999999999999
100
AcDbArc
 50
0.0
 51
180.0
  0
ARC
  5
87C8
330
18
100
AcDbEntity
  8
0
100
AcDbCircle
 10
390.9583821284105
 20
934.589296666966
 30
0.0
 40
1.199999999999999
100
AcDbArc
 50
0.0
 51
180.0
  0
ARC
  5
87C9
330
18
100
AcDbEntity
  8
0
100
AcDbCircle
 10
402.9583821284105
 20
934.589296666966
 30
0.0
 40
1.199999999999999
100
AcDbArc
 50
0.0
 51
180.0
  0
ARC
  5
87CA
330
18
100
AcDbEntity
  8
0
100
AcDbCircle
 10
414.9583821284105
 20
934.589296666966
 30
0.0
 40
1.199999999999999
100
AcDbArc
 50
0.0
 51
180.0
  0
LINE
  5
87CB
330
18
100
AcDbEntity
  8
0
100
AcDbLine
 10
428.9043691877017
 20
907.7337625324853
 30
0.0
 11
428.1583821284105
 21
934.589296666966
 31
0.0
  0
LINE
  5
87CC
330
18
100
AcDbEntity
  8
0
100
AcDbLine
 10
440.9583821284106
 20
905.7892966669655
 30
0.0
 11
440.1583821284106
 21
934.589296666966
 31
0.0
  0
LINE
  5
87CD
330
18
100
AcDbEntity
  8
0
100
AcDbLine
 10
437.7583821284105
 20
934.589296666966
 30
0.0
 11
437.0123950691193
 21
907.7337625324853
 31
0.0
  0
ARC
  5
87CE
330
18
100
AcDbEntity
  8
0
100
AcDbCircle
 10
438.9583821284105
 20
893.7892966669661
 30
0.0
 40
2.0
100
AcDbArc
 50
0.0
 51
90.0
  0
LINE
  5
87D4
330
18
100
AcDbEntity
  8
0
100
AcDbLine
 10
438.9583821284105
 20
891.789296666966
 30
0.0
 11
440.9583821284106
 21
891.789296666966
 31
0.0
  0
ARC
  5
87D6
330
18
100
AcDbEntity
  8
0
100
AcDbCircle
 10
436.9583821284106
 20
891.789296666966
 30
0.0
 40
2.0
100
AcDbArc
 50
0.0
 51
90.0
  0
ARC
  5
87D7
330
18
100
AcDbEntity
  8
0
100
AcDbCircle
 10
435.0131662278139
 20
907.789296666966
 30
0.0
 40
2.0
100
AcDbArc
 50
270.0
 51
358.4088597288058
  0
LINE
  5
87D8
330
18
100
AcDbEntity
  8
0
100
AcDbLine
 10
430.9035980290071
 20
905.789296666966
 30
0.0
 11
435.0131662278139
 21
905.789296666966
 31
0.0
  0
ARC
  5
87D9
330
18
100
AcDbEntity
  8
0
100
AcDbCircle
 10
430.9035980290071
 20
907.789296666966
 30
0.0
 40
2.0
100
AcDbArc
 50
181.5911402711942
 51
270.0
  0
LINE
  5
87DA
330
18
100
AcDbEntity
  8
0
100
AcDbLine
 10
440.9583821284106
 20
905.7892966669655
 30
0.0
 11
440.9583821284106
 21
895.789296666966
 31
0.0
  0
ARC
  5
87DB
330
18
100
AcDbEntity
  8
0
100
AcDbCircle
 10
438.9583821284105
 20
934.589296666966
 30
0.0
 40
1.199999999999999
100
AcDbArc
 50
0.0
 51
180.0
  0
LINE
  5
89B0
330
18
100
AcDbEntity
  8
0
100
AcDbLine
 10
81.89512515104979
 20
751.9370673185537
 30
0.0
 11
66.39512515104979
 21
751.9370673185535
 31
0.0
  0
LINE
  5
89B1
330
18
100
AcDbEntity
  8
0
100
AcDbLine
 10
81.89512515104979
 20
733.4370673185535
 30
0.0
 11
66.39512515104979
 21
733.4370673185535
 31
0.0
  0
LINE
  5
89B2
330
18
100
AcDbEntity
  8
0
100
AcDbLine
 10
81.89512515104979
 20
717.4370673185533
 30
0.0
 11
66.39512515104979
 21
717.4370673185533
 31
0.0
  0
LINE
  5
89B3
330
18
100
AcDbEntity
  8
0
100
AcDbLine
 10
81.89512515104979
 20
662.9370673185535
 30
0.0
 11
66.39512515104979
 21
662.9370673185535
 31
0.0
  0
INSERT
  5
89B4
330
18
100
AcDbEntity
  8
0
100
AcDbBlockReference
  2
A$C5A3A0BB0
 10
67.34140782461463
 20
664.7185436708498
 30
0.0
  0
CIRCLE
  5
89B5
330
18
100
AcDbEntity
  8
0
100
AcDbCircle
 10
84.39512515104979
 20
619.9370673185535
 30
0.0
 40
4.0
  0
INSERT
  5
89B6
330
18
100
AcDbEntity
  8
0
100
AcDbBlockReference
  2
A$C3413120B
 10
67.3127227641287
 20
734.580335688733
 30
0.0
  0
MTEXT
  5
89B7
330
18
100
AcDbEntity
  8
0
100
AcDbMText
 10
60.70006479134701
 20
694.5457111351479
 30
0.0
 40
3.0
 41
4.654799999999999
 71
     1
 72
     5
  1
B2
  7
MSｺﾞｼｯｸ
 73
     1
 44
1.0
  0
LINE
  5
89B8
330
18
100
AcDbEntity
  8
0
100
AcDbLine
 10
66.39512515104979
 20
662.9370673185535
 30
0.0
 11
66.39512515104979
 21
717.4370673185533
 31
0.0
  0
LINE
  5
89B9
330
18
100
AcDbEntity
  8
0
100
AcDbLine
 10
66.39512515104979
 20
662.9370673185536
 30
0.0
 11
66.39512515104979
 21
717.4370673185533
 31
0.0
  0
LINE
  5
89BC
330
18
100
AcDbEntity
  8
0
370
    40
100
AcDbLine
 10
62.8951251510498
 20
617.9370673185534
 30
0.0
 11
61.89512515104979
 21
617.9370673185534
 31
0.0
  0
LINE
  5
89BD
330
18
100
AcDbEntity
  8
0
370
    40
100
AcDbLine
 10
64.39512515104979
 20
620.3370673185534
 30
0.0
 11
60.3951251510498
 21
620.3370673185535
 31
0.0
  0
LINE
  5
89BE
330
18
100
AcDbEntity
  8
0
370
    40
100
AcDbLine
 10
63.6451251510498
 20
619.1370673185534
 30
0.0
 11
61.1451251510498
 21
619.1370673185534
 31
0.0
  0
CIRCLE
  5
89BF
330
18
100
AcDbEntity
  8
0
370
    40
100
AcDbCircle
 10
62.3951251510498
 20
619.9370673185535
 30
0.0
 40
3.0
  0
LINE
  5
89C0
330
18
100
AcDbEntity
  8
0
370
    40
100
AcDbLine
 10
62.3951251510498
 20
621.9370673185537
 30
0.0
 11
62.3951251510498
 21
620.3370673185534
 31
0.0
  0
LINE
  5
89C1
330
18
100
AcDbEntity
  8
0
100
AcDbLine
 10
74.06179181771654
 20
620.6037339852202
 30
0.0
 11
75.97711404852157
 21
620.6037339852202
 31
0.0
  0
LINE
  5
89C2
330
18
100
AcDbEntity
  8
0
100
AcDbLine
 10
74.06179181771654
 20
619.2704006518868
 30
0.0
 11
75.97711404852157
 21
619.2704006518868
 31
0.0
  0
CIRCLE
  5
89C3
330
18
100
AcDbEntity
  8
0
100
AcDbCircle
 10
73.3951251510498
 20
619.9370673185535
 30
0.0
 40
3.333333333333333
  0
CIRCLE
  5
89C4
330
18
100
AcDbEntity
  8
0
100
AcDbCircle
 10
73.3951251510498
 20
619.9370673185535
 30
0.0
 40
4.0
  0
LINE
  5
89C5
330
18
100
AcDbEntity
  8
0
100
AcDbLine
 10
74.06179181771654
 20
620.6037339852202
 30
0.0
 11
74.06179181771654
 21
622.5190562160253
 31
0.0
  0
LINE
  5
89C6
330
18
100
AcDbEntity
  8
0
100
AcDbLine
 10
72.72845848438317
 20
620.6037339852202
 30
0.0
 11
72.72845848438317
 21
622.5190562160253
 31
0.0
  0
ARC
  5
89C7
330
18
100
AcDbEntity
  8
0
100
AcDbCircle
 10
73.3951251510498
 20
619.9370673185535
 30
0.0
 40
2.666666666666666
100
AcDbArc
 50
75.52248781407055
 51
104.4775121859294
  0
LINE
  5
89C8
330
18
100
AcDbEntity
  8
0
100
AcDbLine
 10
70.81313625357871
 20
620.6037339852202
 30
0.0
 11
72.72845848438317
 21
620.6037339852202
 31
0.0
  0
LINE
  5
89C9
330
18
100
AcDbEntity
  8
0
100
AcDbLine
 10
74.06179181771654
 20
617.3550784210817
 30
0.0
 11
74.06179181771654
 21
619.2704006518868
 31
0.0
  0
LINE
  5
89CA
330
18
100
AcDbEntity
  8
0
100
AcDbLine
 10
72.72845848438317
 20
617.3550784210817
 30
0.0
 11
72.72845848438317
 21
619.2704006518868
 31
0.0
  0
ARC
  5
89CB
330
18
100
AcDbEntity
  8
0
100
AcDbCircle
 10
73.3951251510498
 20
619.9370673185535
 30
0.0
 40
2.666666666666666
100
AcDbArc
 50
255.5224878140705
 51
284.4775121859294
  0
LINE
  5
89CC
330
18
100
AcDbEntity
  8
0
100
AcDbLine
 10
70.81313625357871
 20
619.2704006518868
 30
0.0
 11
72.72845848438317
 21
619.2704006518868
 31
0.0
  0
ARC
  5
89CD
330
18
100
AcDbEntity
  8
0
100
AcDbCircle
 10
73.3951251510498
 20
619.9370673185535
 30
0.0
 40
2.666666666666666
100
AcDbArc
 50
165.5224878140701
 51
194.4775121859298
  0
ARC
  5
89CE
330
18
100
AcDbEntity
  8
0
100
AcDbCircle
 10
73.3951251510498
 20
619.9370673185535
 30
0.0
 40
2.666666666666666
100
AcDbArc
 50
345.5224878140701
 51
14.47751218592986
  0
LINE
  5
89CF
330
18
100
AcDbEntity
  8
0
100
AcDbLine
 10
79.8951251510498
 20
662.9370673185536
 30
0.0
 11
66.39512515104979
 21
662.9370673185536
 31
0.0
  0
MTEXT
  5
89D0
330
18
100
AcDbEntity
  8
0
100
AcDbMText
 10
61.21311637740439
 20
677.8175698614377
 30
0.0
 40
3.0
 41
4.654799999999999
 71
     1
 72
     5
  1
W
  7
MSｺﾞｼｯｸ
 73
     1
 44
1.0
  0
MTEXT
  5
89D1
330
18
100
AcDbEntity
  8
0
100
AcDbMText
 10
59.12110673754262
 20
672.5448339818953
 30
0.0
 40
3.0
 41
4.654799999999999
 71
     1
 72
     5
  1
DBK
  7
MSｺﾞｼｯｸ
 73
     1
 44
1.0
  0
MTEXT
  5
89D2
330
18
100
AcDbEntity
  8
0
100
AcDbMText
 10
59.08647129965186
 20
667.228618751841
 30
0.0
 40
3.0
 41
4.654799999999999
 71
     1
 72
     5
  1
DBC
  7
MSｺﾞｼｯｸ
 73
     1
 44
1.0
  0
MTEXT
  5
89D3
330
18
100
AcDbEntity
  8
0
100
AcDbMText
 10
61.65287922442406
 20
688.5133827590602
 30
0.0
 40
3.0
 41
4.654799999999999
 71
     1
 72
     5
  1
U
  7
MSｺﾞｼｯｸ
 73
     1
 44
1.0
  0
MTEXT
  5
89D4
330
18
100
AcDbEntity
  8
0
100
AcDbMText
 10
61.57959048538453
 20
683.0133827590603
 30
0.0
 40
3.0
 41
4.654799999999999
 71
     1
 72
     5
  1
V
  7
MSｺﾞｼｯｸ
 73
     1
 44
1.0
  0
LINE
  5
89D5
330
18
100
AcDbEntity
  8
0
100
AcDbLine
 10
79.8951251510498
 20
717.4370673185533
 30
0.0
 11
66.39512515104979
 21
717.4370673185533
 31
0.0
  0
MTEXT
  5
89D6
330
18
100
AcDbEntity
  8
0
100
AcDbMText
 10
61.65287922442406
 20
710.893615690105
 30
0.0
 40
3.0
 41
4.654799999999999
 71
     1
 72
     5
  1
S
  7
MSｺﾞｼｯｸ
 73
     1
 44
1.0
  0
MTEXT
  5
89D7
330
18
100
AcDbEntity
  8
0
100
AcDbMText
 10
61.61942515647627
 20
705.393611902396
 30
0.0
 40
3.0
 41
4.654799999999999
 71
     1
 72
     5
  1
T
  7
MSｺﾞｼｯｸ
 73
     1
 44
1.0
  0
MTEXT
  5
89D8
330
18
100
AcDbEntity
  8
0
100
AcDbMText
 10
60.55348123071201
 20
699.8936156901049
 30
0.0
 40
3.0
 41
4.654799999999999
 71
     1
 72
     5
  1
B1
  7
MSｺﾞｼｯｸ
 73
     1
 44
1.0
  0
MTEXT
  5
89D9
330
18
100
AcDbEntity
  8
0
100
AcDbMText
 10
61.65287922442406
 20
716.2415240327704
 30
0.0
 40
3.0
 41
4.654799999999999
 71
     1
 72
     5
  1
R
  7
MSｺﾞｼｯｸ
 73
     1
 44
1.0
  0
MTEXT
  5
89DA
330
18
100
AcDbEntity
  8
0
100
AcDbMText
 10
70.46923505807853
 20
722.7675658964924
 30
0.0
 40
4.0
 41
13.7408
 71
     1
 72
     5
  1
TB2
  7
MSｺﾞｼｯｸ
 73
     1
 44
1.0
  0
LINE
  5
89DB
330
18
100
AcDbEntity
  8
0
100
AcDbLine
 10
79.8951251510498
 20
751.9370673185537
 30
0.0
 11
66.39512515104979
 21
751.9370673185535
 31
0.0
  0
LINE
  5
89DC
330
18
100
AcDbEntity
  8
0
100
AcDbLine
 10
79.8951251510498
 20
733.4370673185535
 30
0.0
 11
66.39512515104979
 21
733.4370673185535
 31
0.0
  0
LINE
  5
89DD
330
18
100
AcDbEntity
  8
0
100
AcDbLine
 10
66.39512515104979
 20
751.9370673185535
 30
0.0
 11
66.39512515104979
 21
733.4370673185535
 31
0.0
  0
LINE
  5
89DE
330
18
100
AcDbEntity
  8
0
100
AcDbLine
 10
66.39512515104979
 20
751.9370673185535
 30
0.0
 11
66.39512515104979
 21
733.4370673185535
 31
0.0
  0
MTEXT
  5
89DF
330
18
100
AcDbEntity
  8
0
100
AcDbMText
 10
61.79946278505906
 20
744.472290329582
 30
0.0
 40
3.299999999999999
 41
4.654799999999999
 71
     1
 72
     5
  1
s
  7
MSｺﾞｼｯｸ
 73
     1
 44
1.0
  0
MTEXT
  5
89E0
330
18
100
AcDbEntity
  8
0
100
AcDbMText
 10
62.02771076683496
 20
749.972290329582
 30
0.0
 40
3.299999999999999
 41
4.654799999999999
 71
     1
 72
     5
  1
r
  7
MSｺﾞｼｯｸ
 73
     1
 44
1.0
  0
MTEXT
  5
89E1
330
18
100
AcDbEntity
  8
0
100
AcDbMText
 10
70.46923505807853
 20
757.2675658964924
 30
0.0
 40
4.0
 41
13.7408
 71
     1
 72
     5
  1
TB1
  7
MSｺﾞｼｯｸ
 73
     1
 44
1.0
  0
LINE
  5
89E3
330
18
100
AcDbEntity
  8
0
100
AcDbLine
 10
81.89512515104979
 20
717.4370673185533
 30
0.0
 11
81.89512515104979
 21
662.9370673185535
 31
0.0
  0
INSERT
  5
89E4
330
18
100
AcDbEntity
  8
0
100
AcDbBlockReference
  2
A$C57095CDF
 10
92.07012517707653
 20
668.5120674056024
 30
0.0
  0
LINE
  5
89E5
330
18
100
AcDbEntity
  8
0
100
AcDbLine
 10
87.3951251510498
 20
622.4370673185537
 30
0.0
 11
87.39512515105298
 21
700.4370673185535
 31
0.0
  0
LINE
  5
89E6
330
18
100
AcDbEntity
  8
0
100
AcDbLine
 10
102.8951251510497
 20
767.4370673185535
 30
0.0
 11
102.8951251510497
 21
622.4370673185537
 31
0.0
  0
LINE
  5
89E7
330
18
100
AcDbEntity
  8
0
100
AcDbLine
 10
104.8951251510497
 20
768.4370673185535
 30
0.0
 11
104.8951251510497
 21
622.4370673185537
 31
0.0
  0
LINE
  5
89E8
330
18
100
AcDbEntity
  8
0
100
AcDbLine
 10
108.3951251510498
 20
771.9370673185535
 30
0.0
 11
108.3951251510498
 21
613.9370673185535
 31
0.0
  0
INSERT
  5
89E9
330
18
100
AcDbEntity
  8
0
100
AcDbBlockReference
  2
A$C3A6E1F00
 10
92.07012517707653
 20
624.5370677986813
 30
0.0
  0
LINE
  5
89EA
330
18
100
AcDbEntity
  8
0
100
AcDbLine
 10
87.3951251510498
 20
622.4370673185537
 30
0.0
 11
104.8951251510497
 21
622.4370673185537
 31
0.0
  0
LINE
  5
89EB
330
18
100
AcDbEntity
  8
0
100
AcDbLine
 10
85.06179181771654
 20
620.6037339852202
 30
0.0
 11
86.97711404852157
 21
620.6037339852202
 31
0.0
  0
LINE
  5
89EC
330
18
100
AcDbEntity
  8
0
100
AcDbLine
 10
85.06179181771654
 20
619.2704006518868
 30
0.0
 11
86.97711404852157
 21
619.2704006518868
 31
0.0
  0
CIRCLE
  5
89ED
330
18
100
AcDbEntity
  8
0
100
AcDbCircle
 10
84.39512515104979
 20
619.9370673185535
 30
0.0
 40
3.333333333333333
  0
LINE
  5
89EE
330
18
100
AcDbEntity
  8
0
100
AcDbLine
 10
85.06179181771654
 20
620.6037339852202
 30
0.0
 11
85.06179181771654
 21
622.5190562160253
 31
0.0
  0
LINE
  5
89EF
330
18
100
AcDbEntity
  8
0
100
AcDbLine
 10
81.81313625357871
 20
620.6037339852202
 30
0.0
 11
83.72845848438316
 21
620.6037339852202
 31
0.0
  0
LINE
  5
89F0
330
18
100
AcDbEntity
  8
0
100
AcDbLine
 10
83.72845848438316
 20
620.6037339852202
 30
0.0
 11
83.72845848438316
 21
622.5190562160253
 31
0.0
  0
ARC
  5
89F1
330
18
100
AcDbEntity
  8
0
100
AcDbCircle
 10
84.39512515104979
 20
619.9370673185535
 30
0.0
 40
2.666666666666666
100
AcDbArc
 50
75.52248781407055
 51
104.4775121859294
  0
LINE
  5
89F2
330
18
100
AcDbEntity
  8
0
100
AcDbLine
 10
85.06179181771654
 20
617.3550784210817
 30
0.0
 11
85.06179181771654
 21
619.2704006518868
 31
0.0
  0
LINE
  5
89F3
330
18
100
AcDbEntity
  8
0
100
AcDbLine
 10
83.72845848438316
 20
617.3550784210817
 30
0.0
 11
83.72845848438316
 21
619.2704006518868
 31
0.0
  0
LINE
  5
89F4
330
18
100
AcDbEntity
  8
0
100
AcDbLine
 10
81.81313625357871
 20
619.2704006518868
 30
0.0
 11
83.72845848438316
 21
619.2704006518868
 31
0.0
  0
ARC
  5
89F5
330
18
100
AcDbEntity
  8
0
100
AcDbCircle
 10
84.39512515104979
 20
619.9370673185535
 30
0.0
 40
2.666666666666666
100
AcDbArc
 50
255.5224878140705
 51
284.4775121859294
  0
ARC
  5
89F6
330
18
100
AcDbEntity
  8
0
100
AcDbCircle
 10
84.39512515104979
 20
619.9370673185535
 30
0.0
 40
2.666666666666666
100
AcDbArc
 50
165.5224878140701
 51
194.4775121859298
  0
ARC
  5
89F7
330
18
100
AcDbEntity
  8
0
100
AcDbCircle
 10
84.39512515104979
 20
619.9370673185535
 30
0.0
 40
2.666666666666666
100
AcDbArc
 50
345.5224878140701
 51
14.47751218592986
  0
LINE
  5
89F8
330
18
100
AcDbEntity
  8
0
100
AcDbLine
 10
101.3951251510498
 20
624.6370673185536
 30
0.0
 11
101.3951251510498
 21
622.4370673185537
 31
0.0
  0
MTEXT
  5
89FA
330
18
100
AcDbEntity
  8
0
100
AcDbMText
 10
86.5968924706525
 20
647.1398915877784
 30
0.0
 40
2.399999999999999
 41
7.047999999999999
 71
     3
 72
     5
  1
CN1
  7
MSｺﾞｼｯｸ
 73
     1
 44
1.0
  0
MTEXT
  5
89FB
330
18
100
AcDbEntity
  8
0
100
AcDbMText
 10
87.10800980332658
 20
685.19998737488
 30
0.0
 40
2.399999999999999
 41
7.047999999999999
 71
     3
 72
     5
  1
CN2
  7
MSｺﾞｼｯｸ
 73
     1
 44
1.0
  0
INSERT
  5
89FC
330
18
100
AcDbEntity
  8
0
100
AcDbBlockReference
  2
A$C444F17A9
 10
93.77012454335249
 20
748.8370668325269
 30
0.0
  0
LINE
  5
89FD
330
18
100
AcDbEntity
  8
0
100
AcDbLine
 10
87.3951251510498
 20
768.4370673185535
 30
0.0
 11
87.3951251510498
 21
717.4370673185535
 31
0.0
  0
INSERT
  5
89FE
330
18
100
AcDbEntity
  8
0
100
AcDbBlockReference
  2
A$C6C1277F2
 10
92.07012517707653
 20
716.6620678011185
 30
0.0
  0
INSERT
  5
89FF
330
18
100
AcDbEntity
  8
0
100
AcDbBlockReference
  2
A$C2F696F30
 10
84.99512438588567
 20
702.0870675119359
 30
0.0
  0
LINE
  5
8A00
330
18
100
AcDbEntity
  8
0
100
AcDbLine
 10
84.39512515104979
 20
717.4370673185538
 30
0.0
 11
84.39512515104775
 21
700.4370673185539
 31
0.0
  0
LINE
  5
8A01
330
18
100
AcDbEntity
  8
0
100
AcDbLine
 10
87.39512515105298
 20
700.4370673185535
 30
0.0
 11
84.39512515104775
 21
700.4370673185539
 31
0.0
  0
MTEXT
  5
8A02
330
18
100
AcDbEntity
  8
0
100
AcDbMText
 10
86.15345575871595
 20
698.7600831619811
 30
0.0
 40
2.399999999999999
 41
7.047999999999999
 71
     3
 72
     5
  1
J2
  7
MSｺﾞｼｯｸ
 73
     1
 44
1.0
  0
LINE
  5
8A03
330
18
100
AcDbEntity
  8
0
100
AcDbLine
 10
84.39512515104979
 20
717.4370673185538
 30
0.0
 11
87.3951251510498
 21
717.4370673185538
 31
0.0
  0
LINE
  5
8A04
330
18
100
AcDbEntity
  8
0
100
AcDbLine
 10
87.3951251510498
 20
760.1870673185535
 30
0.0
 11
93.87012515104979
 21
760.1870673185535
 31
0.0
  0
MTEXT
  5
8A06
330
18
100
AcDbEntity
  8
0
100
AcDbMText
 10
85.54905631948475
 20
732.4596080141832
 30
0.0
 40
2.399999999999999
 41
7.047999999999999
 71
     3
 72
     5
  1
J1
  7
MSｺﾞｼｯｸ
 73
     1
 44
1.0
  0
LINE
  5
8A07
330
18
100
AcDbEntity
  8
0
100
AcDbLine
 10
81.89512515104979
 20
733.4370673185535
 30
0.0
 11
81.89512515104979
 21
734.580335688733
 31
0.0
  0
LINE
  5
8A08
330
18
100
AcDbEntity
  8
0
100
AcDbLine
 10
81.89512515104979
 20
751.9370673185537
 30
0.0
 11
81.89512515104979
 21
750.6049976982009
 31
0.0
  0
LINE
  5
8A09
330
18
100
AcDbEntity
  8
0
100
AcDbLine
 10
87.3951251510498
 20
762.9370673185535
 30
0.0
 11
101.3951251510498
 21
762.9370673185535
 31
0.0
  0
LINE
  5
8A0A
330
18
100
AcDbEntity
  8
0
100
AcDbLine
 10
87.3951251510498
 20
765.6870673185535
 30
0.0
 11
101.3951251510498
 21
765.6870673185535
 31
0.0
  0
LINE
  5
8A0B
330
18
100
AcDbEntity
  8
0
100
AcDbLine
 10
104.8951251510497
 20
768.4370673185535
 30
0.0
 11
87.3951251510498
 21
768.4370673185535
 31
0.0
  0
LINE
  5
8A0C
330
18
100
AcDbEntity
  8
0
100
AcDbLine
 10
101.3951251510498
 20
767.4370673185535
 30
0.0
 11
102.8951251510497
 21
767.4370673185535
 31
0.0
  0
LINE
  5
8A0D
330
18
100
AcDbEntity
  8
0
100
AcDbLine
 10
101.3951251510498
 20
761.9370673185535
 30
0.0
 11
101.3951251510498
 21
767.4370673185535
 31
0.0
  0
CIRCLE
  5
8A37
330
18
100
AcDbEntity
  8
0
100
AcDbCircle
 10
84.39512515105002
 20
619.9370673185534
 30
0.0
 40
3.333333333333333
  0
CIRCLE
  5
8A38
330
18
100
AcDbEntity
  8
0
100
AcDbCircle
 10
84.39512515105002
 20
619.9370673185534
 30
0.0
 40
4.0
  0
LINE
  5
8A39
330
18
100
AcDbEntity
  8
0
100
AcDbLine
 10
85.06179181771676
 20
619.2704006518867
 30
0.0
 11
86.9771140485218
 21
619.2704006518867
 31
0.0
  0
LINE
  5
8A3A
330
18
100
AcDbEntity
  8
0
100
AcDbLine
 10
85.06179181771676
 20
620.6037339852201
 30
0.0
 11
86.9771140485218
 21
620.6037339852201
 31
0.0
  0
LINE
  5
8A3B
330
18
100
AcDbEntity
  8
0
370
    40
100
AcDbLine
 10
63.64512515104991
 20
619.1370673185534
 30
0.0
 11
61.14512515104991
 21
619.1370673185534
 31
0.0
  0
LINE
  5
8A3C
330
18
100
AcDbEntity
  8
0
370
    40
100
AcDbLine
 10
62.89512515104991
 20
617.9370673185535
 30
0.0
 11
61.89512515104991
 21
617.9370673185535
 31
0.0
  0
LINE
  5
8A3D
330
18
100
AcDbEntity
  8
0
370
    40
100
AcDbLine
 10
64.39512515104991
 20
620.3370673185534
 30
0.0
 11
60.39512515104991
 21
620.3370673185534
 31
0.0
  0
LINE
  5
8A3E
330
18
100
AcDbEntity
  8
0
370
    40
100
AcDbLine
 10
62.39512515104991
 20
621.9370673185535
 30
0.0
 11
62.39512515104991
 21
620.3370673185534
 31
0.0
  0
ARC
  5
8A3F
330
18
100
AcDbEntity
  8
0
100
AcDbCircle
 10
84.39512515105002
 20
619.9370673185534
 30
0.0
 40
2.666666666666666
100
AcDbArc
 50
165.5224878140701
 51
194.4775121859298
  0
ARC
  5
8A40
330
18
100
AcDbEntity
  8
0
100
AcDbCircle
 10
73.39512515105003
 20
619.9370673185534
 30
0.0
 40
2.666666666666666
100
AcDbArc
 50
345.5224878140701
 51
14.47751218592986
  0
ARC
  5
8A41
330
18
100
AcDbEntity
  8
0
100
AcDbCircle
 10
73.39512515105003
 20
619.9370673185534
 30
0.0
 40
2.666666666666666
100
AcDbArc
 50
165.5224878140701
 51
194.4775121859298
  0
CIRCLE
  5
8A42
330
18
100
AcDbEntity
  8
0
100
AcDbCircle
 10
73.39512515105003
 20
619.9370673185534
 30
0.0
 40
3.333333333333333
  0
CIRCLE
  5
8A43
330
18
100
AcDbEntity
  8
0
100
AcDbCircle
 10
73.39512515105003
 20
619.9370673185534
 30
0.0
 40
4.0
  0
LINE
  5
8A44
330
18
100
AcDbEntity
  8
0
100
AcDbLine
 10
70.81313625357893
 20
619.2704006518867
 30
0.0
 11
72.7284584843834
 21
619.2704006518867
 31
0.0
  0
LINE
  5
8A45
330
18
100
AcDbEntity
  8
0
100
AcDbLine
 10
74.06179181771676
 20
617.3550784210816
 30
0.0
 11
74.06179181771676
 21
619.2704006518867
 31
0.0
  0
LINE
  5
8A46
330
18
100
AcDbEntity
  8
0
100
AcDbLine
 10
72.7284584843834
 20
617.3550784210816
 30
0.0
 11
72.7284584843834
 21
619.2704006518867
 31
0.0
  0
ARC
  5
8A47
330
18
100
AcDbEntity
  8
0
100
AcDbCircle
 10
73.39512515105003
 20
619.9370673185534
 30
0.0
 40
2.666666666666666
100
AcDbArc
 50
255.5224878140705
 51
284.4775121859294
  0
LINE
  5
8A48
330
18
100
AcDbEntity
  8
0
100
AcDbLine
 10
74.06179181771676
 20
619.2704006518867
 30
0.0
 11
75.9771140485218
 21
619.2704006518867
 31
0.0
  0
LINE
  5
8A49
330
18
100
AcDbEntity
  8
0
100
AcDbLine
 10
81.81313625357892
 20
619.2704006518867
 30
0.0
 11
83.72845848438339
 21
619.2704006518867
 31
0.0
  0
LINE
  5
8A4A
330
18
100
AcDbEntity
  8
0
100
AcDbLine
 10
85.06179181771676
 20
617.3550784210816
 30
0.0
 11
85.06179181771676
 21
619.2704006518867
 31
0.0
  0
LINE
  5
8A4B
330
18
100
AcDbEntity
  8
0
100
AcDbLine
 10
83.72845848438339
 20
617.3550784210816
 30
0.0
 11
83.72845848438339
 21
619.2704006518867
 31
0.0
  0
ARC
  5
8A4C
330
18
100
AcDbEntity
  8
0
100
AcDbCircle
 10
84.39512515105002
 20
619.9370673185534
 30
0.0
 40
2.666666666666666
100
AcDbArc
 50
255.5224878140705
 51
284.4775121859294
  0
LINE
  5
8A4D
330
18
100
AcDbEntity
  8
0
100
AcDbLine
 10
70.81313625357893
 20
620.6037339852201
 30
0.0
 11
72.7284584843834
 21
620.6037339852201
 31
0.0
  0
LINE
  5
8A4E
330
18
100
AcDbEntity
  8
0
100
AcDbLine
 10
74.06179181771676
 20
620.6037339852201
 30
0.0
 11
74.06179181771676
 21
622.5190562160252
 31
0.0
  0
LINE
  5
8A4F
330
18
100
AcDbEntity
  8
0
100
AcDbLine
 10
72.7284584843834
 20
620.6037339852201
 30
0.0
 11
72.7284584843834
 21
622.5190562160252
 31
0.0
  0
ARC
  5
8A50
330
18
100
AcDbEntity
  8
0
100
AcDbCircle
 10
73.39512515105003
 20
619.9370673185534
 30
0.0
 40
2.666666666666666
100
AcDbArc
 50
75.52248781407055
 51
104.4775121859294
  0
LINE
  5
8A51
330
18
100
AcDbEntity
  8
0
100
AcDbLine
 10
74.06179181771676
 20
620.6037339852201
 30
0.0
 11
75.9771140485218
 21
620.6037339852201
 31
0.0
  0
LINE
  5
8A52
330
18
100
AcDbEntity
  8
0
100
AcDbLine
 10
81.81313625357892
 20
620.6037339852201
 30
0.0
 11
83.72845848438339
 21
620.6037339852201
 31
0.0
  0
LINE
  5
8A53
330
18
100
AcDbEntity
  8
0
100
AcDbLine
 10
85.06179181771676
 20
620.6037339852201
 30
0.0
 11
85.06179181771676
 21
622.5190562160252
 31
0.0
  0
LINE
  5
8A54
330
18
100
AcDbEntity
  8
0
100
AcDbLine
 10
83.72845848438339
 20
620.6037339852201
 30
0.0
 11
83.72845848438339
 21
622.5190562160252
 31
0.0
  0
ARC
  5
8A55
330
18
100
AcDbEntity
  8
0
100
AcDbCircle
 10
84.39512515105002
 20
619.9370673185534
 30
0.0
 40
2.666666666666666
100
AcDbArc
 50
75.52248781407055
 51
104.4775121859294
  0
ARC
  5
8A56
330
18
100
AcDbEntity
  8
0
100
AcDbCircle
 10
84.39512515105002
 20
619.9370673185534
 30
0.0
 40
2.666666666666666
100
AcDbArc
 50
345.5224878140701
 51
14.47751218592986
  0
CIRCLE
  5
8A57
330
18
100
AcDbEntity
  8
0
370
    40
100
AcDbCircle
 10
62.39512515104991
 20
619.9370673185535
 30
0.0
 40
3.0
  0
LINE
  5
8B77
330
18
100
AcDbEntity
  8
0
100
AcDbLine
 10
108.3951251510499
 20
612.9370673185536
 30
0.0
 11
132.3951251510498
 21
612.9370673185536
 31
0.0
  0
LINE
  5
8B78
330
18
100
AcDbEntity
  8
0
100
AcDbLine
 10
108.3951251510499
 20
772.9370673185536
 30
0.0
 11
132.3951251510499
 21
772.9370673185536
 31
0.0
  0
LINE
  5
8B79
330
18
100
AcDbEntity
  8
0
100
AcDbLine
 10
121.3566636125883
 20
666.4370673185536
 30
0.0
 11
121.3566636125883
 21
662.3601442416306
 31
0.0
  0
LINE
  5
8B7A
330
18
100
AcDbEntity
  8
0
100
AcDbLine
 10
121.3566636125883
 20
666.4370673185536
 30
0.0
 11
121.3566636125883
 21
662.3601442416306
 31
0.0
  0
LINE
  5
8B7B
330
18
100
AcDbEntity
  8
0
100
AcDbLine
 10
114.3566636125883
 20
666.4370673185536
 30
0.0
 11
114.8566636125883
 21
665.7062980877843
 31
0.0
  0
LINE
  5
8B7C
330
18
100
AcDbEntity
  8
0
100
AcDbLine
 10
114.3566636125883
 20
666.4370673185536
 30
0.0
 11
114.8566636125883
 21
665.7062980877843
 31
0.0
  0
LINE
  5
8B7D
330
18
100
AcDbEntity
  8
0
100
AcDbLine
 10
114.3566636125883
 20
666.4370673185536
 30
0.0
 11
114.3566636125883
 21
662.3601442416306
 31
0.0
  0
LINE
  5
8B7E
330
18
100
AcDbEntity
  8
0
100
AcDbLine
 10
114.3566636125883
 20
666.4370673185536
 30
0.0
 11
114.3566636125883
 21
662.3601442416306
 31
0.0
  0
LINE
  5
8B7F
330
18
100
AcDbEntity
  8
0
100
AcDbLine
 10
118.7797405356652
 20
665.7062980877843
 30
0.0
 11
121.3566636125883
 21
666.4370673185536
 31
0.0
  0
LINE
  5
8B80
330
18
100
AcDbEntity
  8
0
100
AcDbLine
 10
118.7797405356652
 20
665.7062980877843
 30
0.0
 11
121.3566636125883
 21
666.4370673185536
 31
0.0
  0
LINE
  5
8B81
330
18
100
AcDbEntity
  8
0
100
AcDbLine
 10
129.8951251510499
 20
718.9370673185536
 30
0.0
 11
129.8951251510499
 21
626.7630704750651
 31
0.0
  0
LINE
  5
8B82
330
18
100
AcDbEntity
  8
0
100
AcDbLine
 10
113.548971304896
 20
676.9755288570152
 30
0.0
 11
113.548971304896
 21
651.5909134723998
 31
0.0
  0
LINE
  5
8B83
330
18
100
AcDbEntity
  8
0
100
AcDbLine
 10
121.8566636125883
 20
676.9370673185536
 30
0.0
 11
121.8566636125883
 21
651.5524519339383
 31
0.0
  0
LINE
  5
8B84
330
18
100
AcDbEntity
  8
0
100
AcDbLine
 10
126.6258943818191
 20
677.0139903954767
 30
0.0
 11
126.6258943818191
 21
651.6293750108614
 31
0.0
  0
LINE
  5
8B85
330
18
100
AcDbEntity
  8
0
100
AcDbLine
 10
109.6258943818191
 20
684.1678365493229
 30
0.0
 11
109.6258943818191
 21
626.7630704750651
 31
0.0
  0
LINE
  5
8B86
330
18
100
AcDbEntity
  8
0
100
AcDbLine
 10
110.6258943818191
 20
626.7630704750651
 30
0.0
 11
110.6258943818191
 21
684.1678365493229
 31
0.0
  0
LINE
  5
8B87
330
18
100
AcDbEntity
  8
0
100
AcDbLine
 10
108.3951251510499
 20
772.9370673185536
 30
0.0
 11
108.3951251510499
 21
612.9370673185535
 31
0.0
  0
CIRCLE
  5
8B88
330
18
100
AcDbEntity
  8
0
100
AcDbCircle
 10
125.0105097664345
 20
637.1678365493229
 30
0.0
 40
1.923076923076923
  0
CIRCLE
  5
8B89
330
18
100
AcDbEntity
  8
0
100
AcDbCircle
 10
120.2412789972037
 20
637.1678365493229
 30
0.0
 40
1.923076923076923
  0
LINE
  5
8B8A
330
18
100
AcDbEntity
  8
0
100
AcDbLine
 10
115.6258943818191
 20
651.6293750108614
 30
0.0
 11
115.6258943818191
 21
626.7630704750651
 31
0.0
  0
LINE
  5
8B8B
330
18
100
AcDbEntity
  8
0
100
AcDbLine
 10
117.2028174587422
 20
626.7630704750651
 30
0.0
 11
117.2028174587422
 21
651.6293750108614
 31
0.0
  0
LINE
  5
8B8C
330
18
100
AcDbEntity
  8
0
100
AcDbLine
 10
128.0105097664345
 20
639.7062980877843
 30
0.0
 11
128.0105097664345
 21
634.821682703169
 31
0.0
  0
LINE
  5
8B8D
330
18
100
AcDbEntity
  8
0
100
AcDbLine
 10
129.8951251510499
 20
626.7630704750651
 30
0.0
 11
108.3951251510499
 21
626.7630704750651
 31
0.0
  0
MTEXT
  5
8B8E
330
18
100
AcDbEntity
  8
0
100
AcDbMText
 10
122.3649436133144
 20
623.7473970603509
 30
0.0
 40
2.392731153524477
 41
18.25893143254529
 71
     5
 72
     5
  1
{\fＭＳ ゴシック|b0|i0|c128|p49;L ERR/L RUN}
  7
MSｺﾞｼｯｸ
 73
     1
 44
1.0
  0
LINE
  5
8B8F
330
18
100
AcDbEntity
  8
0
100
AcDbLine
 10
117.2412789972037
 20
628.6293750108613
 30
0.0
 11
127.972048227973
 21
628.6293750108613
 31
0.0
  0
LINE
  5
8B90
330
18
100
AcDbEntity
  8
0
100
AcDbLine
 10
117.2412789972037
 20
633.5524519339383
 30
0.0
 11
127.972048227973
 21
633.5524519339383
 31
0.0
  0
LINE
  5
8B91
330
18
100
AcDbEntity
  8
0
100
AcDbLine
 10
117.2412789972037
 20
634.7832211647074
 30
0.0
 11
127.972048227973
 21
634.7832211647074
 31
0.0
  0
CIRCLE
  5
8B92
330
18
100
AcDbEntity
  8
0
100
AcDbCircle
 10
120.2412789972037
 20
631.0139903954767
 30
0.0
 40
1.923076923076923
  0
CIRCLE
  5
8B93
330
18
100
AcDbEntity
  8
0
100
AcDbCircle
 10
125.0105097664345
 20
631.0139903954767
 30
0.0
 40
1.923076923076923
  0
LINE
  5
8B94
330
18
100
AcDbEntity
  8
0
100
AcDbLine
 10
128.0105097664345
 20
633.5524519339383
 30
0.0
 11
128.0105097664345
 21
628.6678365493229
 31
0.0
  0
LINE
  5
8B95
330
18
100
AcDbEntity
  8
0
100
AcDbLine
 10
122.8566636125884
 20
647.9370673185536
 30
0.0
 11
120.048971304896
 21
650.7062980877844
 31
0.0
  0
LINE
  5
8B96
330
18
100
AcDbEntity
  8
0
100
AcDbLine
 10
122.3951251510499
 20
647.4755288570151
 30
0.0
 11
119.6258943818191
 21
650.2832211647074
 31
0.0
  0
LINE
  5
8B97
330
18
100
AcDbEntity
  8
0
100
AcDbLine
 10
117.2412789972037
 20
639.7062980877843
 30
0.0
 11
127.972048227973
 21
639.7062980877843
 31
0.0
  0
LINE
  5
8B98
330
18
100
AcDbEntity
  8
0
100
AcDbLine
 10
113.548971304896
 20
651.6293750108614
 30
0.0
 11
126.6258943818191
 21
651.6293750108614
 31
0.0
  0
LINE
  5
8B99
330
18
100
AcDbEntity
  8
0
100
AcDbLine
 10
117.2028174587422
 20
651.6293750108614
 30
0.0
 11
125.2028174587422
 21
651.6293750108614
 31
0.0
  0
LINE
  5
8B9A
330
18
100
AcDbEntity
  8
0
100
AcDbLine
 10
125.2028174587422
 20
646.5524519339383
 30
0.0
 11
117.2028174587422
 21
646.5524519339383
 31
0.0
  0
CIRCLE
  5
8B9B
330
18
100
AcDbEntity
  8
0
100
AcDbCircle
 10
121.2028174587422
 20
649.0909134723998
 30
0.0
 40
2.038461538461538
  0
LINE
  5
8B9C
330
18
100
AcDbEntity
  8
0
100
AcDbLine
 10
125.2028174587422
 20
646.5524519339383
 30
0.0
 11
125.2028174587422
 21
651.6293750108614
 31
0.0
  0
LINE
  5
8B9D
330
18
100
AcDbEntity
  8
0
100
AcDbLine
 10
121.3566636125883
 20
661.3601442416305
 30
0.0
 11
121.3566636125883
 21
657.2832211647074
 31
0.0
  0
LINE
  5
8B9E
330
18
100
AcDbEntity
  8
0
100
AcDbLine
 10
121.3566636125883
 20
661.3601442416305
 30
0.0
 11
121.3566636125883
 21
657.2832211647074
 31
0.0
  0
LINE
  5
8B9F
330
18
100
AcDbEntity
  8
0
100
AcDbLine
 10
114.8566636125883
 20
660.6293750108614
 30
0.0
 11
114.8566636125883
 21
658.0139903954767
 31
0.0
  0
LINE
  5
8BA0
330
18
100
AcDbEntity
  8
0
100
AcDbLine
 10
114.8566636125883
 20
660.6293750108614
 30
0.0
 11
114.8566636125883
 21
658.0139903954767
 31
0.0
  0
LINE
  5
8BA1
330
18
100
AcDbEntity
  8
0
100
AcDbLine
 10
114.3566636125883
 20
661.3601442416305
 30
0.0
 11
114.3566636125883
 21
657.2832211647074
 31
0.0
  0
LINE
  5
8BA2
330
18
100
AcDbEntity
  8
0
100
AcDbLine
 10
114.3566636125883
 20
661.3601442416305
 30
0.0
 11
114.3566636125883
 21
657.2832211647074
 31
0.0
  0
LINE
  5
8BA3
330
18
100
AcDbEntity
  8
0
100
AcDbLine
 10
118.7797405356652
 20
660.6293750108614
 30
0.0
 11
118.7797405356652
 21
658.0139903954767
 31
0.0
  0
LINE
  5
8BA4
330
18
100
AcDbEntity
  8
0
100
AcDbLine
 10
118.7797405356652
 20
660.6293750108614
 30
0.0
 11
118.7797405356652
 21
658.0139903954767
 31
0.0
  0
LINE
  5
8BA5
330
18
100
AcDbEntity
  8
0
100
AcDbLine
 10
114.8566636125883
 20
658.0139903954767
 30
0.0
 11
118.7797405356652
 21
658.0139903954767
 31
0.0
  0
LINE
  5
8BA6
330
18
100
AcDbEntity
  8
0
100
AcDbLine
 10
114.8566636125883
 20
658.0139903954767
 30
0.0
 11
118.7797405356652
 21
658.0139903954767
 31
0.0
  0
LINE
  5
8BA7
330
18
100
AcDbEntity
  8
0
100
AcDbLine
 10
114.8566636125883
 20
655.5524519339383
 30
0.0
 11
118.7797405356652
 21
655.5524519339383
 31
0.0
  0
LINE
  5
8BA8
330
18
100
AcDbEntity
  8
0
100
AcDbLine
 10
114.8566636125883
 20
655.5524519339383
 30
0.0
 11
118.7797405356652
 21
655.5524519339383
 31
0.0
  0
LINE
  5
8BA9
330
18
100
AcDbEntity
  8
0
100
AcDbLine
 10
114.3566636125883
 20
657.2832211647074
 30
0.0
 11
121.3566636125883
 21
657.2832211647074
 31
0.0
  0
LINE
  5
8BAA
330
18
100
AcDbEntity
  8
0
100
AcDbLine
 10
114.3566636125883
 20
657.2832211647074
 30
0.0
 11
121.3566636125883
 21
657.2832211647074
 31
0.0
  0
LINE
  5
8BAB
330
18
100
AcDbEntity
  8
0
100
AcDbLine
 10
114.3566636125883
 20
656.2832211647075
 30
0.0
 11
121.3566636125883
 21
656.2832211647075
 31
0.0
  0
LINE
  5
8BAC
330
18
100
AcDbEntity
  8
0
100
AcDbLine
 10
114.3566636125883
 20
656.2832211647075
 30
0.0
 11
121.3566636125883
 21
656.2832211647075
 31
0.0
  0
LINE
  5
8BAD
330
18
100
AcDbEntity
  8
0
100
AcDbLine
 10
114.8566636125883
 20
652.9370673185536
 30
0.0
 11
118.7797405356652
 21
652.9370673185536
 31
0.0
  0
LINE
  5
8BAE
330
18
100
AcDbEntity
  8
0
100
AcDbLine
 10
114.8566636125883
 20
652.9370673185536
 30
0.0
 11
118.7797405356652
 21
652.9370673185536
 31
0.0
  0
LINE
  5
8BAF
330
18
100
AcDbEntity
  8
0
100
AcDbLine
 10
114.3566636125883
 20
652.2062980877843
 30
0.0
 11
121.3566636125883
 21
652.2062980877843
 31
0.0
  0
LINE
  5
8BB0
330
18
100
AcDbEntity
  8
0
100
AcDbLine
 10
114.3566636125883
 20
652.2062980877843
 30
0.0
 11
121.3566636125883
 21
652.2062980877843
 31
0.0
  0
LINE
  5
8BB1
330
18
100
AcDbEntity
  8
0
100
AcDbLine
 10
114.8566636125883
 20
658.0139903954767
 30
0.0
 11
114.3566636125883
 21
657.2832211647074
 31
0.0
  0
LINE
  5
8BB2
330
18
100
AcDbEntity
  8
0
100
AcDbLine
 10
114.8566636125883
 20
658.0139903954767
 30
0.0
 11
114.3566636125883
 21
657.2832211647074
 31
0.0
  0
LINE
  5
8BB3
330
18
100
AcDbEntity
  8
0
100
AcDbLine
 10
114.3566636125883
 20
656.2832211647075
 30
0.0
 11
114.8566636125883
 21
655.5524519339383
 31
0.0
  0
LINE
  5
8BB4
330
18
100
AcDbEntity
  8
0
100
AcDbLine
 10
114.3566636125883
 20
656.2832211647075
 30
0.0
 11
114.8566636125883
 21
655.5524519339383
 31
0.0
  0
LINE
  5
8BB5
330
18
100
AcDbEntity
  8
0
100
AcDbLine
 10
114.8566636125883
 20
652.9370673185536
 30
0.0
 11
114.3566636125883
 21
652.2062980877843
 31
0.0
  0
LINE
  5
8BB6
330
18
100
AcDbEntity
  8
0
100
AcDbLine
 10
114.8566636125883
 20
652.9370673185536
 30
0.0
 11
114.3566636125883
 21
652.2062980877843
 31
0.0
  0
LINE
  5
8BB7
330
18
100
AcDbEntity
  8
0
100
AcDbLine
 10
114.8566636125883
 20
655.5524519339383
 30
0.0
 11
114.8566636125883
 21
652.9370673185536
 31
0.0
  0
LINE
  5
8BB8
330
18
100
AcDbEntity
  8
0
100
AcDbLine
 10
114.8566636125883
 20
655.5524519339383
 30
0.0
 11
114.8566636125883
 21
652.9370673185536
 31
0.0
  0
LINE
  5
8BB9
330
18
100
AcDbEntity
  8
0
100
AcDbLine
 10
114.3566636125883
 20
656.2832211647075
 30
0.0
 11
114.3566636125883
 21
652.2062980877843
 31
0.0
  0
LINE
  5
8BBA
330
18
100
AcDbEntity
  8
0
100
AcDbLine
 10
114.3566636125883
 20
656.2832211647075
 30
0.0
 11
114.3566636125883
 21
652.2062980877843
 31
0.0
  0
LINE
  5
8BBB
330
18
100
AcDbEntity
  8
0
100
AcDbLine
 10
118.7797405356652
 20
658.0139903954767
 30
0.0
 11
121.3566636125883
 21
657.2832211647074
 31
0.0
  0
LINE
  5
8BBC
330
18
100
AcDbEntity
  8
0
100
AcDbLine
 10
118.7797405356652
 20
658.0139903954767
 30
0.0
 11
121.3566636125883
 21
657.2832211647074
 31
0.0
  0
LINE
  5
8BBD
330
18
100
AcDbEntity
  8
0
100
AcDbLine
 10
118.7797405356652
 20
655.5524519339383
 30
0.0
 11
121.3566636125883
 21
656.2832211647075
 31
0.0
  0
LINE
  5
8BBE
330
18
100
AcDbEntity
  8
0
100
AcDbLine
 10
118.7797405356652
 20
655.5524519339383
 30
0.0
 11
121.3566636125883
 21
656.2832211647075
 31
0.0
  0
LINE
  5
8BBF
330
18
100
AcDbEntity
  8
0
100
AcDbLine
 10
118.7797405356652
 20
652.9370673185536
 30
0.0
 11
121.3566636125883
 21
652.2062980877843
 31
0.0
  0
LINE
  5
8BC0
330
18
100
AcDbEntity
  8
0
100
AcDbLine
 10
118.7797405356652
 20
652.9370673185536
 30
0.0
 11
121.3566636125883
 21
652.2062980877843
 31
0.0
  0
LINE
  5
8BC1
330
18
100
AcDbEntity
  8
0
100
AcDbLine
 10
121.3566636125883
 20
656.2832211647075
 30
0.0
 11
121.3566636125883
 21
652.2062980877843
 31
0.0
  0
LINE
  5
8BC2
330
18
100
AcDbEntity
  8
0
100
AcDbLine
 10
121.3566636125883
 20
656.2832211647075
 30
0.0
 11
121.3566636125883
 21
652.2062980877843
 31
0.0
  0
LINE
  5
8BC3
330
18
100
AcDbEntity
  8
0
100
AcDbLine
 10
118.7797405356652
 20
655.5524519339383
 30
0.0
 11
118.7797405356652
 21
652.9370673185536
 31
0.0
  0
LINE
  5
8BC4
330
18
100
AcDbEntity
  8
0
100
AcDbLine
 10
118.7797405356652
 20
655.5524519339383
 30
0.0
 11
118.7797405356652
 21
652.9370673185536
 31
0.0
  0
LINE
  5
8BC5
330
18
100
AcDbEntity
  8
0
100
AcDbLine
 10
114.8566636125883
 20
665.7062980877843
 30
0.0
 11
118.7797405356652
 21
665.7062980877843
 31
0.0
  0
LINE
  5
8BC6
330
18
100
AcDbEntity
  8
0
100
AcDbLine
 10
114.8566636125883
 20
665.7062980877843
 30
0.0
 11
118.7797405356652
 21
665.7062980877843
 31
0.0
  0
LINE
  5
8BC7
330
18
100
AcDbEntity
  8
0
100
AcDbLine
 10
114.8566636125883
 20
663.0909134723999
 30
0.0
 11
118.7797405356652
 21
663.0909134723999
 31
0.0
  0
LINE
  5
8BC8
330
18
100
AcDbEntity
  8
0
100
AcDbLine
 10
114.8566636125883
 20
660.6293750108614
 30
0.0
 11
118.7797405356652
 21
660.6293750108614
 31
0.0
  0
LINE
  5
8BC9
330
18
100
AcDbEntity
  8
0
100
AcDbLine
 10
114.8566636125883
 20
663.0909134723999
 30
0.0
 11
118.7797405356652
 21
663.0909134723999
 31
0.0
  0
LINE
  5
8BCA
330
18
100
AcDbEntity
  8
0
100
AcDbLine
 10
114.8566636125883
 20
660.6293750108614
 30
0.0
 11
118.7797405356652
 21
660.6293750108614
 31
0.0
  0
LINE
  5
8BCB
330
18
100
AcDbEntity
  8
0
100
AcDbLine
 10
114.3566636125883
 20
662.3601442416306
 30
0.0
 11
121.3566636125883
 21
662.3601442416306
 31
0.0
  0
LINE
  5
8BCC
330
18
100
AcDbEntity
  8
0
100
AcDbLine
 10
114.3566636125883
 20
661.3601442416305
 30
0.0
 11
121.3566636125883
 21
661.3601442416305
 31
0.0
  0
LINE
  5
8BCD
330
18
100
AcDbEntity
  8
0
100
AcDbLine
 10
114.3566636125883
 20
662.3601442416306
 30
0.0
 11
121.3566636125883
 21
662.3601442416306
 31
0.0
  0
LINE
  5
8BCE
330
18
100
AcDbEntity
  8
0
100
AcDbLine
 10
114.3566636125883
 20
661.3601442416305
 30
0.0
 11
121.3566636125883
 21
661.3601442416305
 31
0.0
  0
LINE
  5
8BCF
330
18
100
AcDbEntity
  8
0
100
AcDbLine
 10
114.8566636125883
 20
663.0909134723999
 30
0.0
 11
114.3566636125883
 21
662.3601442416306
 31
0.0
  0
LINE
  5
8BD0
330
18
100
AcDbEntity
  8
0
100
AcDbLine
 10
114.3566636125883
 20
661.3601442416305
 30
0.0
 11
114.8566636125883
 21
660.6293750108614
 31
0.0
  0
LINE
  5
8BD1
330
18
100
AcDbEntity
  8
0
100
AcDbLine
 10
114.8566636125883
 20
663.0909134723999
 30
0.0
 11
114.3566636125883
 21
662.3601442416306
 31
0.0
  0
LINE
  5
8BD2
330
18
100
AcDbEntity
  8
0
100
AcDbLine
 10
114.3566636125883
 20
661.3601442416305
 30
0.0
 11
114.8566636125883
 21
660.6293750108614
 31
0.0
  0
LINE
  5
8BD3
330
18
100
AcDbEntity
  8
0
100
AcDbLine
 10
114.8566636125883
 20
665.7062980877843
 30
0.0
 11
114.8566636125883
 21
663.0909134723999
 31
0.0
  0
LINE
  5
8BD4
330
18
100
AcDbEntity
  8
0
100
AcDbLine
 10
114.8566636125883
 20
665.7062980877843
 30
0.0
 11
114.8566636125883
 21
663.0909134723999
 31
0.0
  0
LINE
  5
8BD5
330
18
100
AcDbEntity
  8
0
100
AcDbLine
 10
118.7797405356652
 20
665.7062980877843
 30
0.0
 11
118.7797405356652
 21
663.0909134723999
 31
0.0
  0
LINE
  5
8BD6
330
18
100
AcDbEntity
  8
0
100
AcDbLine
 10
118.7797405356652
 20
665.7062980877843
 30
0.0
 11
118.7797405356652
 21
663.0909134723999
 31
0.0
  0
LINE
  5
8BD7
330
18
100
AcDbEntity
  8
0
100
AcDbLine
 10
118.7797405356652
 20
663.0909134723999
 30
0.0
 11
121.3566636125883
 21
662.3601442416306
 31
0.0
  0
LINE
  5
8BD8
330
18
100
AcDbEntity
  8
0
100
AcDbLine
 10
118.7797405356652
 20
660.6293750108614
 30
0.0
 11
121.3566636125883
 21
661.3601442416305
 31
0.0
  0
LINE
  5
8BD9
330
18
100
AcDbEntity
  8
0
100
AcDbLine
 10
118.7797405356652
 20
663.0909134723999
 30
0.0
 11
121.3566636125883
 21
662.3601442416306
 31
0.0
  0
LINE
  5
8BDA
330
18
100
AcDbEntity
  8
0
100
AcDbLine
 10
118.7797405356652
 20
660.6293750108614
 30
0.0
 11
121.3566636125883
 21
661.3601442416305
 31
0.0
  0
MTEXT
  5
8BDB
330
18
100
AcDbEntity
  8
0
100
AcDbMText
 10
122.3627781881371
 20
722.0883133095643
 30
0.0
 40
2.392731153524477
 41
10.33162170242641
 71
     5
 72
     5
  1
{\fＭＳ ゴシック|b0|i0|c128|p49;ST No.}
  7
MSｺﾞｼｯｸ
 73
     1
 44
1.0
  0
LINE
  5
8BDC
330
18
100
AcDbEntity
  8
0
100
AcDbLine
 10
116.4516965310988
 20
718.9370673185536
 30
0.0
 11
116.4516965310988
 21
684.1678365493229
 31
0.0
  0
LINE
  5
8BDD
330
18
100
AcDbEntity
  8
0
100
AcDbLine
 10
117.2028174587422
 20
718.9370673185536
 30
0.0
 11
117.2028174587422
 21
677.0139903954767
 31
0.0
  0
MTEXT
  5
8BDE
330
18
100
AcDbEntity
  8
0
100
AcDbMText
 10
113.0177435962878
 20
692.5811294075565
 30
0.0
 40
2.392731153524477
 41
5.565971209328641
 71
     5
 72
     5
  1
{\fＭＳ ゴシック|b0|i0|c128|p49;RATE}
  7
MSｺﾞｼｯｸ
 73
     1
 44
1.0
  0
LINE
  5
8BDF
330
18
100
AcDbEntity
  8
0
100
AcDbLine
 10
117.3566636125883
 20
691.5139903954767
 30
0.0
 11
119.9335866895114
 21
694.1293750108613
 31
0.0
  0
LINE
  5
8BE0
330
18
100
AcDbEntity
  8
0
100
AcDbLine
 10
127.3566636125883
 20
694.1293750108613
 30
0.0
 11
127.3951251510499
 21
684.1678365493229
 31
0.0
  0
MTEXT
  5
8BE1
330
18
100
AcDbEntity
  8
0
100
AcDbMText
 10
113.0177435962878
 20
687.2551133597482
 30
0.0
 40
2.392731153524477
 41
7.182299999999999
 71
     5
 72
     5
  1
{\fＭＳ ゴシック|b0|i0|c128|p49;TB7}
  7
MSｺﾞｼｯｸ
 73
     1
 44
1.0
  0
LINE
  5
8BE2
330
18
100
AcDbEntity
  8
0
100
AcDbLine
 10
116.4516965310988
 20
684.1678365493229
 30
0.0
 11
108.3951251510499
 21
684.1678365493229
 31
0.0
  0
LINE
  5
8BE3
330
18
100
AcDbEntity
  8
0
100
AcDbLine
 10
115.5874328433575
 20
684.1678365493229
 30
0.0
 11
115.5874328433575
 21
676.9370673185536
 31
0.0
  0
LINE
  5
8BE4
330
18
100
AcDbEntity
  8
0
100
AcDbLine
 10
122.3951251510499
 20
677.9755288570152
 30
0.0
 11
119.6258943818191
 21
680.744759626246
 31
0.0
  0
LINE
  5
8BE5
330
18
100
AcDbEntity
  8
0
100
AcDbLine
 10
122.8566636125884
 20
678.3986057800921
 30
0.0
 11
120.048971304896
 21
681.1678365493229
 31
0.0
  0
ELLIPSE
  5
8BE6
330
18
100
AcDbEntity
  8
0
100
AcDbEllipse
 10
121.2028174587422
 20
679.5524519339383
 30
0.0
 11
2.038461538461538
 21
0.0
 31
0.0
210
0.0
220
0.0
230
1.0
 40
0.9811320000000002
 41
0.0
 42
6.283184999999999
  0
LINE
  5
8BE7
330
18
100
AcDbEntity
  8
0
100
AcDbLine
 10
125.2028174587422
 20
682.1293750108613
 30
0.0
 11
125.2028174587422
 21
677.0139903954767
 31
0.0
  0
LINE
  5
8BE8
330
18
100
AcDbEntity
  8
0
100
AcDbLine
 10
113.548971304896
 20
677.0139903954767
 30
0.0
 11
126.6258943818191
 21
677.0139903954767
 31
0.0
  0
LINE
  5
8BE9
330
18
100
AcDbEntity
  8
0
100
AcDbLine
 10
117.2028174587422
 20
677.0139903954767
 30
0.0
 11
125.2028174587422
 21
677.0139903954767
 31
0.0
  0
LINE
  5
8BEA
330
18
100
AcDbEntity
  8
0
100
AcDbLine
 10
121.3566636125883
 20
676.5909134723998
 30
0.0
 11
121.3566636125883
 21
672.5139903954767
 31
0.0
  0
LINE
  5
8BEB
330
18
100
AcDbEntity
  8
0
100
AcDbLine
 10
121.3566636125883
 20
676.5909134723998
 30
0.0
 11
121.3566636125883
 21
672.5139903954767
 31
0.0
  0
LINE
  5
8BEC
330
18
100
AcDbEntity
  8
0
100
AcDbLine
 10
114.3566636125883
 20
676.5909134723998
 30
0.0
 11
114.3566636125883
 21
672.5139903954767
 31
0.0
  0
LINE
  5
8BED
330
18
100
AcDbEntity
  8
0
100
AcDbLine
 10
114.3566636125883
 20
676.5909134723998
 30
0.0
 11
114.3566636125883
 21
672.5139903954767
 31
0.0
  0
LINE
  5
8BEE
330
18
100
AcDbEntity
  8
0
100
AcDbLine
 10
114.8566636125883
 20
673.2832211647075
 30
0.0
 11
114.3566636125883
 21
672.5139903954767
 31
0.0
  0
LINE
  5
8BEF
330
18
100
AcDbEntity
  8
0
100
AcDbLine
 10
114.8566636125883
 20
673.2832211647075
 30
0.0
 11
114.3566636125883
 21
672.5139903954767
 31
0.0
  0
LINE
  5
8BF0
330
18
100
AcDbEntity
  8
0
100
AcDbLine
 10
118.7797405356652
 20
673.2832211647075
 30
0.0
 11
121.3566636125883
 21
672.5139903954767
 31
0.0
  0
LINE
  5
8BF1
330
18
100
AcDbEntity
  8
0
100
AcDbLine
 10
118.7797405356652
 20
673.2832211647075
 30
0.0
 11
121.3566636125883
 21
672.5139903954767
 31
0.0
  0
LINE
  5
8BF2
330
18
100
AcDbEntity
  8
0
100
AcDbLine
 10
114.8566636125883
 20
670.7832211647074
 30
0.0
 11
118.7797405356652
 21
670.7832211647074
 31
0.0
  0
LINE
  5
8BF3
330
18
100
AcDbEntity
  8
0
100
AcDbLine
 10
114.8566636125883
 20
670.7832211647074
 30
0.0
 11
118.7797405356652
 21
670.7832211647074
 31
0.0
  0
LINE
  5
8BF4
330
18
100
AcDbEntity
  8
0
100
AcDbLine
 10
114.8566636125883
 20
668.2062980877844
 30
0.0
 11
118.7797405356652
 21
668.2062980877844
 31
0.0
  0
LINE
  5
8BF5
330
18
100
AcDbEntity
  8
0
100
AcDbLine
 10
114.8566636125883
 20
668.2062980877844
 30
0.0
 11
118.7797405356652
 21
668.2062980877844
 31
0.0
  0
LINE
  5
8BF6
330
18
100
AcDbEntity
  8
0
100
AcDbLine
 10
114.3566636125883
 20
671.5139903954767
 30
0.0
 11
121.3566636125883
 21
671.5139903954767
 31
0.0
  0
LINE
  5
8BF7
330
18
100
AcDbEntity
  8
0
100
AcDbLine
 10
114.3566636125883
 20
672.5139903954767
 30
0.0
 11
121.3566636125883
 21
672.5139903954767
 31
0.0
  0
LINE
  5
8BF8
330
18
100
AcDbEntity
  8
0
100
AcDbLine
 10
114.3566636125883
 20
671.5139903954767
 30
0.0
 11
121.3566636125883
 21
671.5139903954767
 31
0.0
  0
LINE
  5
8BF9
330
18
100
AcDbEntity
  8
0
100
AcDbLine
 10
114.3566636125883
 20
667.4370673185536
 30
0.0
 11
121.3566636125883
 21
667.4370673185536
 31
0.0
  0
LINE
  5
8BFA
330
18
100
AcDbEntity
  8
0
100
AcDbLine
 10
114.3566636125883
 20
672.5139903954767
 30
0.0
 11
121.3566636125883
 21
672.5139903954767
 31
0.0
  0
LINE
  5
8BFB
330
18
100
AcDbEntity
  8
0
100
AcDbLine
 10
114.3566636125883
 20
667.4370673185536
 30
0.0
 11
121.3566636125883
 21
667.4370673185536
 31
0.0
  0
LINE
  5
8BFC
330
18
100
AcDbEntity
  8
0
100
AcDbLine
 10
114.3566636125883
 20
666.4370673185536
 30
0.0
 11
121.3566636125883
 21
666.4370673185536
 31
0.0
  0
LINE
  5
8BFD
330
18
100
AcDbEntity
  8
0
100
AcDbLine
 10
114.3566636125883
 20
666.4370673185536
 30
0.0
 11
121.3566636125883
 21
666.4370673185536
 31
0.0
  0
LINE
  5
8BFE
330
18
100
AcDbEntity
  8
0
100
AcDbLine
 10
114.3566636125883
 20
671.5139903954767
 30
0.0
 11
114.8566636125883
 21
670.7832211647074
 31
0.0
  0
LINE
  5
8BFF
330
18
100
AcDbEntity
  8
0
100
AcDbLine
 10
114.3566636125883
 20
671.5139903954767
 30
0.0
 11
114.8566636125883
 21
670.7832211647074
 31
0.0
  0
LINE
  5
8C00
330
18
100
AcDbEntity
  8
0
100
AcDbLine
 10
114.8566636125883
 20
668.2062980877844
 30
0.0
 11
114.3566636125883
 21
667.4370673185536
 31
0.0
  0
LINE
  5
8C01
330
18
100
AcDbEntity
  8
0
100
AcDbLine
 10
114.8566636125883
 20
668.2062980877844
 30
0.0
 11
114.3566636125883
 21
667.4370673185536
 31
0.0
  0
LINE
  5
8C02
330
18
100
AcDbEntity
  8
0
100
AcDbLine
 10
114.8566636125883
 20
670.7832211647074
 30
0.0
 11
114.8566636125883
 21
668.2062980877844
 31
0.0
  0
LINE
  5
8C03
330
18
100
AcDbEntity
  8
0
100
AcDbLine
 10
114.8566636125883
 20
670.7832211647074
 30
0.0
 11
114.8566636125883
 21
668.2062980877844
 31
0.0
  0
LINE
  5
8C04
330
18
100
AcDbEntity
  8
0
100
AcDbLine
 10
114.3566636125883
 20
671.5139903954767
 30
0.0
 11
114.3566636125883
 21
667.4370673185536
 31
0.0
  0
LINE
  5
8C05
330
18
100
AcDbEntity
  8
0
100
AcDbLine
 10
114.3566636125883
 20
671.5139903954767
 30
0.0
 11
114.3566636125883
 21
667.4370673185536
 31
0.0
  0
LINE
  5
8C06
330
18
100
AcDbEntity
  8
0
100
AcDbLine
 10
121.3566636125883
 20
671.5139903954767
 30
0.0
 11
121.3566636125883
 21
667.4370673185536
 31
0.0
  0
LINE
  5
8C07
330
18
100
AcDbEntity
  8
0
100
AcDbLine
 10
121.3566636125883
 20
671.5139903954767
 30
0.0
 11
121.3566636125883
 21
667.4370673185536
 31
0.0
  0
LINE
  5
8C08
330
18
100
AcDbEntity
  8
0
100
AcDbLine
 10
118.7797405356652
 20
670.7832211647074
 30
0.0
 11
118.7797405356652
 21
668.2062980877844
 31
0.0
  0
LINE
  5
8C09
330
18
100
AcDbEntity
  8
0
100
AcDbLine
 10
118.7797405356652
 20
670.7832211647074
 30
0.0
 11
118.7797405356652
 21
668.2062980877844
 31
0.0
  0
LINE
  5
8C0A
330
18
100
AcDbEntity
  8
0
100
AcDbLine
 10
118.7797405356652
 20
668.2062980877844
 30
0.0
 11
121.3566636125883
 21
667.4370673185536
 31
0.0
  0
LINE
  5
8C0B
330
18
100
AcDbEntity
  8
0
100
AcDbLine
 10
118.7797405356652
 20
668.2062980877844
 30
0.0
 11
121.3566636125883
 21
667.4370673185536
 31
0.0
  0
LINE
  5
8C0C
330
18
100
AcDbEntity
  8
0
100
AcDbLine
 10
118.7797405356652
 20
670.7832211647074
 30
0.0
 11
121.3566636125883
 21
671.5139903954767
 31
0.0
  0
LINE
  5
8C0D
330
18
100
AcDbEntity
  8
0
100
AcDbLine
 10
118.7797405356652
 20
670.7832211647074
 30
0.0
 11
121.3566636125883
 21
671.5139903954767
 31
0.0
  0
LINE
  5
8C0E
330
18
100
AcDbEntity
  8
0
100
AcDbLine
 10
114.8566636125883
 20
673.2832211647075
 30
0.0
 11
118.7797405356652
 21
673.2832211647075
 31
0.0
  0
LINE
  5
8C0F
330
18
100
AcDbEntity
  8
0
100
AcDbLine
 10
114.8566636125883
 20
673.2832211647075
 30
0.0
 11
118.7797405356652
 21
673.2832211647075
 31
0.0
  0
LINE
  5
8C10
330
18
100
AcDbEntity
  8
0
100
AcDbLine
 10
114.8566636125883
 20
675.8601442416305
 30
0.0
 11
118.7797405356652
 21
675.8601442416305
 31
0.0
  0
LINE
  5
8C11
330
18
100
AcDbEntity
  8
0
100
AcDbLine
 10
114.8566636125883
 20
675.8601442416305
 30
0.0
 11
118.7797405356652
 21
675.8601442416305
 31
0.0
  0
LINE
  5
8C12
330
18
100
AcDbEntity
  8
0
100
AcDbLine
 10
114.3566636125883
 20
676.5909134723998
 30
0.0
 11
121.3566636125883
 21
676.5909134723998
 31
0.0
  0
LINE
  5
8C13
330
18
100
AcDbEntity
  8
0
100
AcDbLine
 10
114.3566636125883
 20
676.5909134723998
 30
0.0
 11
121.3566636125883
 21
676.5909134723998
 31
0.0
  0
LINE
  5
8C14
330
18
100
AcDbEntity
  8
0
100
AcDbLine
 10
114.8566636125883
 20
675.8601442416305
 30
0.0
 11
114.8566636125883
 21
673.2832211647075
 31
0.0
  0
LINE
  5
8C15
330
18
100
AcDbEntity
  8
0
100
AcDbLine
 10
114.8566636125883
 20
675.8601442416305
 30
0.0
 11
114.8566636125883
 21
673.2832211647075
 31
0.0
  0
LINE
  5
8C16
330
18
100
AcDbEntity
  8
0
100
AcDbLine
 10
114.3566636125883
 20
676.5909134723998
 30
0.0
 11
114.8566636125883
 21
675.8601442416305
 31
0.0
  0
LINE
  5
8C17
330
18
100
AcDbEntity
  8
0
100
AcDbLine
 10
114.3566636125883
 20
676.5909134723998
 30
0.0
 11
114.8566636125883
 21
675.8601442416305
 31
0.0
  0
LINE
  5
8C18
330
18
100
AcDbEntity
  8
0
100
AcDbLine
 10
118.7797405356652
 20
675.8601442416305
 30
0.0
 11
118.7797405356652
 21
673.2832211647075
 31
0.0
  0
LINE
  5
8C19
330
18
100
AcDbEntity
  8
0
100
AcDbLine
 10
118.7797405356652
 20
675.8601442416305
 30
0.0
 11
118.7797405356652
 21
673.2832211647075
 31
0.0
  0
LINE
  5
8C1A
330
18
100
AcDbEntity
  8
0
100
AcDbLine
 10
118.7797405356652
 20
675.8601442416305
 30
0.0
 11
121.3566636125883
 21
676.5909134723998
 31
0.0
  0
LINE
  5
8C1B
330
18
100
AcDbEntity
  8
0
100
AcDbLine
 10
118.7797405356652
 20
675.8601442416305
 30
0.0
 11
121.3566636125883
 21
676.5909134723998
 31
0.0
  0
MTEXT
  5
8C1C
330
18
100
AcDbEntity
  8
0
100
AcDbMText
 10
120.5690439256862
 20
693.5053709072741
 30
0.0
 40
2.153846153846153
 41
1.938461538461538
 71
     1
 72
     5
  1
\T1.1;\fＭＳ ゴシック|b0|i0|c128|p18;\H1.4;2
  7
MSｺﾞｼｯｸ
 11
0.9510565608316644
 21
0.3090168573056278
 31
0.0
 73
     1
 44
1.0
  0
LINE
  5
8C1D
330
18
100
AcDbEntity
  8
0
370
    40
100
AcDbLine
 10
121.3951251510499
 20
689.2832211647075
 30
0.0
 11
123.548971304896
 21
689.2832211647075
 31
0.0
  0
CIRCLE
  5
8C1E
330
18
100
AcDbEntity
  8
0
100
AcDbCircle
 10
122.4335866895114
 20
689.244759626246
 30
0.0
 40
1.846153846153846
  0
MTEXT
  5
8C1F
330
18
100
AcDbEntity
  8
0
100
AcDbMText
 10
121.686366488115
 20
684.7905125758901
 30
0.0
 40
2.153846153846153
 41
1.938461538461538
 71
     1
 72
     5
  1
\T1.1;\fＭＳ ゴシック|b0|i0|c128|p18;\H1.4;8
  7
MSｺﾞｼｯｸ
 11
-0.9510565608316644
 21
0.3090168573056278
 31
0.0
 73
     1
 44
1.0
  0
LINE
  5
8C20
330
18
100
AcDbEntity
  8
0
100
AcDbLine
 10
117.3566636125883
 20
684.1678365493229
 30
0.0
 11
127.3951251510499
 21
684.1678365493229
 31
0.0
  0
LINE
  5
8C21
330
18
100
AcDbEntity
  8
0
100
AcDbLine
 10
117.2028174587422
 20
682.1293750108613
 30
0.0
 11
125.2028174587422
 21
682.1293750108613
 31
0.0
  0
MTEXT
  5
8C22
330
18
100
AcDbEntity
  8
0
100
AcDbMText
 10
118.866626476823
 20
685.8776974313713
 30
0.0
 40
2.153846153846153
 41
1.938461538461538
 71
     1
 72
     5
  1
\T1.1;\fＭＳ ゴシック|b0|i0|c128|p18;\H1.4;9
  7
MSｺﾞｼｯｸ
 11
-0.5877850844899974
 21
0.8090171162905557
 31
0.0
 73
     1
 44
1.0
  0
LWPOLYLINE
  5
8C23
330
18
100
AcDbEntity
  8
0
100
AcDbPolyline
 90
        3
 70
     0
 43
0.0
 10
121.6643559202806
 20
690.0909134723998
 10
120.8951251510499
 20
689.321682703169
 10
121.6643559202806
 20
688.5524519339382
  0
HATCH
  5
8C24
330
18
100
AcDbEntity
  8
0
100
AcDbHatch
 10
0.0
 20
0.0
 30
0.0
210
0.0
220
0.0
230
1.0
  2
SOLID
 70
     1
 71
     0
 91
        1
 92
        7
 72
     0
 73
     1
 93
        3
 10
121.6643559202806
 20
690.0909134723998
 10
120.8951251510499
 20
689.321682703169
 10
121.6643559202806
 20
688.5524519339382
 97
        1
330
8C23
 75
     0
 76
     1
 47
0.651316
 98
        1
 10
13.39512515104991
 20
563.3986057800921
  0
MTEXT
  5
8C25
330
18
100
AcDbEntity
  8
0
100
AcDbMText
 10
118.5616324139072
 20
691.8925983140383
 30
0.0
 40
2.153846153846153
 41
1.805318338648825
 71
     1
 72
     5
  1
\T1.1;\fＭＳ ゴシック|b0|i0|c128|p18;\H1.4;1
  7
MSｺﾞｼｯｸ
 11
0.5877850844899974
 21
0.8090171162905557
 31
0.0
 73
     1
 44
1.0
  0
MTEXT
  5
8C26
330
18
100
AcDbEntity
  8
0
100
AcDbMText
 10
118.0335325011281
 20
688.7735006652339
 30
0.0
 40
2.153846153846153
 41
1.938461538461538
 71
     1
 72
     5
  1
\T1.1;\fＭＳ ゴシック|b0|i0|c128|p18;\H1.4;0
  7
MSｺﾞｼｯｸ
 11
0.0
 21
1.0
 31
0.0
 73
     1
 44
1.0
  0
MTEXT
  5
8C27
330
18
100
AcDbEntity
  8
0
100
AcDbMText
 10
124.4989098213479
 20
685.3564839497224
 30
0.0
 40
2.153846153846153
 41
1.938461538461538
 71
     1
 72
     5
  1
\T1.1;\fＭＳ ゴシック|b0|i0|c128|p18;\H1.4;7
  7
MSｺﾞｼｯｸ
 11
-0.9510565608316644
 21
-0.3090168573056278
 31
0.0
 73
     1
 44
1.0
  0
MTEXT
  5
8C28
330
18
100
AcDbEntity
  8
0
100
AcDbMText
 10
123.608409701074
 20
693.653019099781
 30
0.0
 40
2.153846153846153
 41
1.938461538461538
 71
     1
 72
     5
  1
\T1.1;\fＭＳ ゴシック|b0|i0|c128|p18;\H1.4;3
  7
MSｺﾞｼｯｸ
 11
0.9510565608316644
 21
-0.3090168573056278
 31
0.0
 73
     1
 44
1.0
  0
LINE
  5
8C29
330
18
100
AcDbEntity
  8
0
370
    40
100
AcDbLine
 10
122.3951251510499
 20
690.5524519339382
 30
0.0
 11
122.3951251510499
 21
688.0909134723999
 31
0.0
  0
MTEXT
  5
8C2A
330
18
100
AcDbEntity
  8
0
100
AcDbMText
 10
126.046526880798
 20
692.3955380283354
 30
0.0
 40
2.153846153846153
 41
1.938461538461538
 71
     1
 72
     5
  1
\T1.1;\fＭＳ ゴシック|b0|i0|c128|p18;\H1.4;4
  7
MSｺﾞｼｯｸ
 11
0.5877850844899974
 21
-0.8090171162905557
 31
0.0
 73
     1
 44
1.0
  0
MTEXT
  5
8C2B
330
18
100
AcDbEntity
  8
0
100
AcDbMText
 10
126.9402676494125
 20
689.6925889394526
 30
0.0
 40
2.153846153846153
 41
1.938461538461538
 71
     1
 72
     5
  1
\T1.1;\fＭＳ ゴシック|b0|i0|c128|p18;\H1.4;5
  7
MSｺﾞｼｯｸ
 11
0.0
 21
-1.0
 31
0.0
 73
     1
 44
1.0
  0
MTEXT
  5
8C2C
330
18
100
AcDbEntity
  8
0
100
AcDbMText
 10
126.4036714239514
 20
687.0967133648136
 30
0.0
 40
2.153846153846153
 41
1.938461538461538
 71
     1
 72
     5
  1
\T1.1;\fＭＳ ゴシック|b0|i0|c128|p18;\H1.4;6
  7
MSｺﾞｼｯｸ
 11
-0.5877850844899974
 21
-0.8090171162905557
 31
0.0
 73
     1
 44
1.0
  0
MTEXT
  5
8C2D
330
18
100
AcDbEntity
  8
0
100
AcDbMText
 10
113.0177435962878
 20
712.1903338685881
 30
0.0
 40
2.392731153524477
 41
7.286126815962822
 71
     5
 72
     5
  1
{\fＭＳ ゴシック|b0|i0|c128|p49;x 10}
  7
MSｺﾞｼｯｸ
 73
     1
 44
1.0
  0
MTEXT
  5
8C2E
330
18
100
AcDbEntity
  8
0
100
AcDbMText
 10
112.6439423824511
 20
700.9850740896443
 30
0.0
 40
2.392731153524477
 41
5.565971209328641
 71
     5
 72
     5
  1
{\fＭＳ ゴシック|b0|i0|c128|p49;x 1}
  7
MSｺﾞｼｯｸ
 73
     1
 44
1.0
  0
LINE
  5
8C2F
330
18
100
AcDbEntity
  8
0
100
AcDbLine
 10
127.3566636125883
 20
716.5909134723998
 30
0.0
 11
127.3951251510499
 21
706.6293750108613
 31
0.0
  0
LINE
  5
8C30
330
18
100
AcDbEntity
  8
0
370
    40
100
AcDbLine
 10
121.3951251510499
 20
700.5139903954767
 30
0.0
 11
123.548971304896
 21
700.5139903954767
 31
0.0
  0
MTEXT
  5
8C31
330
18
100
AcDbEntity
  8
0
100
AcDbMText
 10
120.6825031888502
 20
704.7161576050683
 30
0.0
 40
2.153846153846153
 41
1.938461538461538
 71
     1
 72
     5
  1
\T1.1;\fＭＳ ゴシック|b0|i0|c128|p18;\H1.4;2
  7
MSｺﾞｼｯｸ
 11
0.9510565608316644
 21
0.3090168573056278
 31
0.0
 73
     1
 44
1.0
  0
MTEXT
  5
8C32
330
18
100
AcDbEntity
  8
0
100
AcDbMText
 10
121.799825751279
 20
696.0012992736844
 30
0.0
 40
2.153846153846153
 41
1.938461538461538
 71
     1
 72
     5
  1
\T1.1;\fＭＳ ゴシック|b0|i0|c128|p18;\H1.4;8
  7
MSｺﾞｼｯｸ
 11
-0.9510565608316644
 21
0.3090168573056278
 31
0.0
 73
     1
 44
1.0
  0
CIRCLE
  5
8C33
330
18
100
AcDbEntity
  8
0
100
AcDbCircle
 10
122.4335866895114
 20
700.4755288570152
 30
0.0
 40
1.846153846153846
  0
LINE
  5
8C34
330
18
100
AcDbEntity
  8
0
100
AcDbLine
 10
117.3566636125883
 20
694.1293750108613
 30
0.0
 11
127.3951251510499
 21
694.1293750108613
 31
0.0
  0
LINE
  5
8C35
330
18
100
AcDbEntity
  8
0
100
AcDbLine
 10
117.3566636125883
 20
695.398605780092
 30
0.0
 11
127.3951251510499
 21
695.398605780092
 31
0.0
  0
LINE
  5
8C36
330
18
100
AcDbEntity
  8
0
100
AcDbLine
 10
117.3566636125883
 20
705.3601442416305
 30
0.0
 11
127.3951251510499
 21
705.3601442416305
 31
0.0
  0
LINE
  5
8C37
330
18
100
AcDbEntity
  8
0
100
AcDbLine
 10
117.3566636125883
 20
706.6293750108613
 30
0.0
 11
127.3951251510499
 21
706.6293750108613
 31
0.0
  0
LWPOLYLINE
  5
8C38
330
18
100
AcDbEntity
  8
0
100
AcDbPolyline
 90
        3
 70
     0
 43
0.0
 10
121.6643559202806
 20
701.321682703169
 10
120.8951251510499
 20
700.5524519339383
 10
121.6643559202806
 20
699.7832211647074
  0
HATCH
  5
8C39
330
18
100
AcDbEntity
  8
0
100
AcDbHatch
 10
0.0
 20
0.0
 30
0.0
210
0.0
220
0.0
230
1.0
  2
SOLID
 70
     1
 71
     0
 91
        1
 92
        7
 72
     0
 73
     1
 93
        3
 10
121.6643559202806
 20
701.321682703169
 10
120.8951251510499
 20
700.5524519339383
 10
121.6643559202806
 20
699.7832211647074
 97
        1
330
8C38
 75
     0
 76
     1
 47
0.651316
 98
        1
 10
13.39512515104991
 20
563.3986057800921
  0
MTEXT
  5
8C3A
330
18
100
AcDbEntity
  8
0
100
AcDbMText
 10
118.1469917642921
 20
699.9842873630282
 30
0.0
 40
2.153846153846153
 41
1.938461538461538
 71
     1
 72
     5
  1
\T1.1;\fＭＳ ゴシック|b0|i0|c128|p18;\H1.4;0
  7
MSｺﾞｼｯｸ
 11
0.0
 21
1.0
 31
0.0
 73
     1
 44
1.0
  0
MTEXT
  5
8C3B
330
18
100
AcDbEntity
  8
0
100
AcDbMText
 10
118.980085739987
 20
697.0884841291655
 30
0.0
 40
2.153846153846153
 41
1.938461538461538
 71
     1
 72
     5
  1
\T1.1;\fＭＳ ゴシック|b0|i0|c128|p18;\H1.4;9
  7
MSｺﾞｼｯｸ
 11
-0.5877850844899974
 21
0.8090171162905557
 31
0.0
 73
     1
 44
1.0
  0
LINE
  5
8C3C
330
18
100
AcDbEntity
  8
0
100
AcDbLine
 10
117.3566636125883
 20
702.744759626246
 30
0.0
 11
119.9335866895114
 21
705.3601442416305
 31
0.0
  0
MTEXT
  5
8C3D
330
18
100
AcDbEntity
  8
0
100
AcDbMText
 10
118.6750916770711
 20
703.1033850118325
 30
0.0
 40
2.153846153846153
 41
1.805318338648825
 71
     1
 72
     5
  1
\T1.1;\fＭＳ ゴシック|b0|i0|c128|p18;\H1.4;1
  7
MSｺﾞｼｯｸ
 11
0.5877850844899974
 21
0.8090171162905557
 31
0.0
 73
     1
 44
1.0
  0
MTEXT
  5
8C3E
330
18
100
AcDbEntity
  8
0
100
AcDbMText
 10
127.0537269125765
 20
700.903375637247
 30
0.0
 40
2.153846153846153
 41
1.938461538461538
 71
     1
 72
     5
  1
\T1.1;\fＭＳ ゴシック|b0|i0|c128|p18;\H1.4;5
  7
MSｺﾞｼｯｸ
 11
0.0
 21
-1.0
 31
0.0
 73
     1
 44
1.0
  0
LINE
  5
8C3F
330
18
100
AcDbEntity
  8
0
370
    40
100
AcDbLine
 10
122.3951251510499
 20
701.7832211647075
 30
0.0
 11
122.3951251510499
 21
699.321682703169
 31
0.0
  0
LINE
  5
8C40
330
18
100
AcDbEntity
  8
0
100
AcDbLine
 10
127.3566636125883
 20
705.3601442416305
 30
0.0
 11
127.3951251510499
 21
695.398605780092
 31
0.0
  0
MTEXT
  5
8C41
330
18
100
AcDbEntity
  8
0
100
AcDbMText
 10
124.6123690845119
 20
696.5672706475166
 30
0.0
 40
2.153846153846153
 41
1.938461538461538
 71
     1
 72
     5
  1
\T1.1;\fＭＳ ゴシック|b0|i0|c128|p18;\H1.4;7
  7
MSｺﾞｼｯｸ
 11
-0.9510565608316644
 21
-0.3090168573056278
 31
0.0
 73
     1
 44
1.0
  0
MTEXT
  5
8C42
330
18
100
AcDbEntity
  8
0
100
AcDbMText
 10
126.5171306871154
 20
698.3075000626078
 30
0.0
 40
2.153846153846153
 41
1.938461538461538
 71
     1
 72
     5
  1
\T1.1;\fＭＳ ゴシック|b0|i0|c128|p18;\H1.4;6
  7
MSｺﾞｼｯｸ
 11
-0.5877850844899974
 21
-0.8090171162905557
 31
0.0
 73
     1
 44
1.0
  0
MTEXT
  5
8C43
330
18
100
AcDbEntity
  8
0
100
AcDbMText
 10
123.721868964238
 20
704.8638057975754
 30
0.0
 40
2.153846153846153
 41
1.938461538461538
 71
     1
 72
     5
  1
\T1.1;\fＭＳ ゴシック|b0|i0|c128|p18;\H1.4;3
  7
MSｺﾞｼｯｸ
 11
0.9510565608316644
 21
-0.3090168573056278
 31
0.0
 73
     1
 44
1.0
  0
MTEXT
  5
8C44
330
18
100
AcDbEntity
  8
0
100
AcDbMText
 10
126.159986143962
 20
703.6063247261296
 30
0.0
 40
2.153846153846153
 41
1.938461538461538
 71
     1
 72
     5
  1
\T1.1;\fＭＳ ゴシック|b0|i0|c128|p18;\H1.4;4
  7
MSｺﾞｼｯｸ
 11
0.5877850844899974
 21
-0.8090171162905557
 31
0.0
 73
     1
 44
1.0
  0
MTEXT
  5
8C45
330
18
100
AcDbEntity
  8
0
100
AcDbMText
 10
120.4681393743361
 20
715.9301457677673
 30
0.0
 40
2.153846153846153
 41
1.938461538461538
 71
     1
 72
     5
  1
\T1.1;\fＭＳ ゴシック|b0|i0|c128|p18;\H1.4;2
  7
MSｺﾞｼｯｸ
 11
0.9510565608316644
 21
0.3090168573056278
 31
0.0
 73
     1
 44
1.0
  0
LINE
  5
8C46
330
18
100
AcDbEntity
  8
0
370
    40
100
AcDbLine
 10
121.3951251510499
 20
711.744759626246
 30
0.0
 11
123.548971304896
 21
711.744759626246
 31
0.0
  0
MTEXT
  5
8C47
330
18
100
AcDbEntity
  8
0
100
AcDbMText
 10
121.5854619367649
 20
707.2152874363833
 30
0.0
 40
2.153846153846153
 41
1.938461538461538
 71
     1
 72
     5
  1
\T1.1;\fＭＳ ゴシック|b0|i0|c128|p18;\H1.4;8
  7
MSｺﾞｼｯｸ
 11
-0.9510565608316644
 21
0.3090168573056278
 31
0.0
 73
     1
 44
1.0
  0
CIRCLE
  5
8C48
330
18
100
AcDbEntity
  8
0
100
AcDbCircle
 10
122.4335866895114
 20
711.7062980877843
 30
0.0
 40
1.846153846153846
  0
LINE
  5
8C49
330
18
100
AcDbEntity
  8
0
100
AcDbLine
 10
117.3566636125883
 20
716.5909134723998
 30
0.0
 11
127.3951251510499
 21
716.5909134723998
 31
0.0
  0
LINE
  5
8C4A
330
18
100
AcDbEntity
  8
0
100
AcDbLine
 10
116.4516965310988
 20
718.9370673185536
 30
0.0
 11
129.8951251510499
 21
718.9370673185536
 31
0.0
  0
LINE
  5
8C4B
330
18
100
AcDbEntity
  8
0
100
AcDbLine
 10
117.3566636125883
 20
713.9755288570151
 30
0.0
 11
119.9335866895114
 21
716.5909134723998
 31
0.0
  0
MTEXT
  5
8C4C
330
18
100
AcDbEntity
  8
0
100
AcDbMText
 10
118.460727862557
 20
714.3173731745315
 30
0.0
 40
2.153846153846153
 41
1.805318338648825
 71
     1
 72
     5
  1
\T1.1;\fＭＳ ゴシック|b0|i0|c128|p18;\H1.4;1
  7
MSｺﾞｼｯｸ
 11
0.5877850844899974
 21
0.8090171162905557
 31
0.0
 73
     1
 44
1.0
  0
LWPOLYLINE
  5
8C4D
330
18
100
AcDbEntity
  8
0
100
AcDbPolyline
 90
        3
 70
     0
 43
0.0
 10
121.6643559202806
 20
712.5524519339383
 10
120.8951251510499
 20
711.7832211647074
 10
121.6643559202806
 20
711.0139903954767
  0
HATCH
  5
8C4E
330
18
100
AcDbEntity
  8
0
100
AcDbHatch
 10
0.0
 20
0.0
 30
0.0
210
0.0
220
0.0
230
1.0
  2
SOLID
 70
     1
 71
     0
 91
        1
 92
        7
 72
     0
 73
     1
 93
        3
 10
121.6643559202806
 20
712.5524519339383
 10
120.8951251510499
 20
711.7832211647074
 10
121.6643559202806
 20
711.0139903954767
 97
        1
330
8C4D
 75
     0
 76
     1
 47
0.651316
 98
        1
 10
13.39512515104991
 20
563.3986057800921
  0
MTEXT
  5
8C4F
330
18
100
AcDbEntity
  8
0
100
AcDbMText
 10
117.9326279497779
 20
711.1982755257271
 30
0.0
 40
2.153846153846153
 41
1.938461538461538
 71
     1
 72
     5
  1
\T1.1;\fＭＳ ゴシック|b0|i0|c128|p18;\H1.4;0
  7
MSｺﾞｼｯｸ
 11
0.0
 21
1.0
 31
0.0
 73
     1
 44
1.0
  0
MTEXT
  5
8C50
330
18
100
AcDbEntity
  8
0
100
AcDbMText
 10
118.7657219254729
 20
708.3024722918645
 30
0.0
 40
2.153846153846153
 41
1.938461538461538
 71
     1
 72
     5
  1
\T1.1;\fＭＳ ゴシック|b0|i0|c128|p18;\H1.4;9
  7
MSｺﾞｼｯｸ
 11
-0.5877850844899974
 21
0.8090171162905557
 31
0.0
 73
     1
 44
1.0
  0
MTEXT
  5
8C51
330
18
100
AcDbEntity
  8
0
100
AcDbMText
 10
123.5075051497238
 20
716.0777939602743
 30
0.0
 40
2.153846153846153
 41
1.938461538461538
 71
     1
 72
     5
  1
\T1.1;\fＭＳ ゴシック|b0|i0|c128|p18;\H1.4;3
  7
MSｺﾞｼｯｸ
 11
0.9510565608316644
 21
-0.3090168573056278
 31
0.0
 73
     1
 44
1.0
  0
MTEXT
  5
8C52
330
18
100
AcDbEntity
  8
0
100
AcDbMText
 10
125.9456223294479
 20
714.8203128888286
 30
0.0
 40
2.153846153846153
 41
1.938461538461538
 71
     1
 72
     5
  1
\T1.1;\fＭＳ ゴシック|b0|i0|c128|p18;\H1.4;4
  7
MSｺﾞｼｯｸ
 11
0.5877850844899974
 21
-0.8090171162905557
 31
0.0
 73
     1
 44
1.0
  0
LINE
  5
8C53
330
18
100
AcDbEntity
  8
0
370
    40
100
AcDbLine
 10
122.3951251510499
 20
713.0139903954767
 30
0.0
 11
122.3951251510499
 21
710.5524519339383
 31
0.0
  0
MTEXT
  5
8C54
330
18
100
AcDbEntity
  8
0
100
AcDbMText
 10
124.3980052699978
 20
707.7812588102156
 30
0.0
 40
2.153846153846153
 41
1.938461538461538
 71
     1
 72
     5
  1
\T1.1;\fＭＳ ゴシック|b0|i0|c128|p18;\H1.4;7
  7
MSｺﾞｼｯｸ
 11
-0.9510565608316644
 21
-0.3090168573056278
 31
0.0
 73
     1
 44
1.0
  0
MTEXT
  5
8C55
330
18
100
AcDbEntity
  8
0
100
AcDbMText
 10
126.3027668726012
 20
709.5214882253068
 30
0.0
 40
2.153846153846153
 41
1.183903929452547
 71
     1
 72
     5
  1
\T1.1;\fＭＳ ゴシック|b0|i0|c128|p18;\H1.4;6
  7
MSｺﾞｼｯｸ
 11
-0.5877850844899974
 21
-0.8090171162905557
 31
0.0
 73
     1
 44
1.0
  0
MTEXT
  5
8C56
330
18
100
AcDbEntity
  8
0
100
AcDbMText
 10
126.8393630980623
 20
712.1173637999459
 30
0.0
 40
2.153846153846153
 41
1.938461538461538
 71
     1
 72
     5
  1
\T1.1;\fＭＳ ゴシック|b0|i0|c128|p18;\H1.4;5
  7
MSｺﾞｼｯｸ
 11
0.0
 21
-1.0
 31
0.0
 73
     1
 44
1.0
  0
LWPOLYLINE
  5
8C57
330
18
100
AcDbEntity
  8
0
100
AcDbPolyline
 90
        8
 70
     1
 43
0.0
 10
113.0818672420698
 20
769.9241579734133
 10
127.3455414719613
 20
769.9241579734133
 42
-0.4142135623730951
 10
128.4940524256531
 20
768.7756470197216
 10
128.4940524256531
 20
762.6667702334873
 42
-0.4142135623730906
 10
127.3455414719613
 20
761.5182592797956
 10
113.08186724207
 20
761.5182592797955
 42
-0.4142135623730951
 10
111.9333562883783
 20
762.6667702334872
 10
111.933356288378
 20
768.7756470197216
 42
-0.4142135623730984
  0
MTEXT
  5
8C58
330
18
100
AcDbEntity
  8
0
100
AcDbMText
 10
112.7219601159554
 20
767.4201635444477
 30
0.0
 40
3.349823614934269
 41
15.77211809006422
 71
     1
 72
     5
  1
CC-Link
  7
MSｺﾞｼｯｸ
 73
     1
 44
1.0
  0
LINE
  5
8C59
330
18
100
AcDbEntity
  8
0
100
AcDbLine
 10
132.3951251510499
 20
772.9370673185536
 30
0.0
 11
132.3951251510499
 21
612.9370673185536
 31
0.0
  0
LINE
  5
8C96
330
18
100
AcDbEntity
  8
0
100
AcDbLine
 10
108.3951251510498
 20
613.9370673185535
 30
0.0
 11
107.3951251510498
 21
612.9370673185535
 31
0.0
  0
LINE
  5
8C97
330
18
100
AcDbEntity
  8
0
100
AcDbLine
 10
108.3951251510498
 20
771.9370673185535
 30
0.0
 11
107.3951251510498
 21
772.9370673185536
 31
0.0
  0
LWPOLYLINE
  5
8EEF
330
18
100
AcDbEntity
  8
0
100
AcDbPolyline
 90
        8
 70
     1
 43
0.0
 10
438.9583821284105
 20
771.9370673185535
 10
438.9583821284105
 20
613.9370673185535
 10
437.9583821284105
 20
612.9370673185535
 10
283.9583821284105
 20
612.9370673185535
 10
282.9583821284105
 20
613.9370673185535
 10
282.9583821284105
 20
771.9370673185535
 10
283.9583821284105
 20
772.9370673185536
 10
437.9583821284105
 20
772.9370673185536
  0
LWPOLYLINE
  5
8EF7
330
18
100
AcDbEntity
  8
0
100
AcDbPolyline
 90
        8
 70
     1
 43
0.0
 10
302.9583821284105
 20
751.4370673185535
 10
302.9583821284105
 20
751.4370673185535
 42
-0.4142135623730951
 10
301.2083821284105
 20
749.6870673185535
 10
289.7083821284105
 20
749.6870673185535
 42
-0.4142135623730951
 10
287.9583821284105
 20
751.4370673185535
 10
287.9583821284105
 20
751.4370673185535
 42
-0.4142135623730951
 10
289.7083821284105
 20
753.1870673185535
 10
301.2083821284105
 20
753.1870673185535
 42
-0.4142135623730951
  0
LWPOLYLINE
  5
8EF8
330
18
100
AcDbEntity
  8
0
100
AcDbPolyline
 90
        8
 70
     1
 43
0.0
 10
302.9583821284105
 20
764.4370673185535
 10
302.9583821284105
 20
764.4370673185535
 42
-0.4142135623730951
 10
301.2083821284105
 20
762.6870673185536
 10
289.7083821284105
 20
762.6870673185536
 42
-0.4142135623730951
 10
287.9583821284105
 20
764.4370673185535
 10
287.9583821284105
 20
764.4370673185535
 42
-0.4142135623730951
 10
289.7083821284105
 20
766.1870673185535
 10
301.2083821284105
 20
766.1870673185535
 42
-0.4142135623730951
  0
LWPOLYLINE
  5
8EF9
330
18
100
AcDbEntity
  8
0
100
AcDbPolyline
 90
        8
 70
     1
 43
0.0
 10
302.9583821284105
 20
757.9370673185535
 10
302.9583821284105
 20
757.9370673185535
 42
-0.4142135623730951
 10
301.2083821284105
 20
756.1870673185535
 10
289.7083821284105
 20
756.1870673185535
 42
-0.4142135623730951
 10
287.9583821284105
 20
757.9370673185535
 10
287.9583821284105
 20
757.9370673185535
 42
-0.4142135623730951
 10
289.7083821284105
 20
759.6870673185535
 10
301.2083821284105
 20
759.6870673185535
 42
-0.4142135623730951
  0
LWPOLYLINE
  5
8EFC
330
18
100
AcDbEntity
  8
0
100
AcDbPolyline
 90
        2
 70
     0
 43
0.0
 10
436.9583821284106
 20
816.789296666966
 10
284.9583821284105
 20
816.789296666966
  0
LINE
  5
8EFF
330
18
100
AcDbEntity
  8
0
100
AcDbLine
 10
307.9583821284106
 20
893.7892966669661
 30
0.0
 11
297.9583821284106
 21
893.7892966669661
 31
0.0
  0
LWPOLYLINE
  5
8F01
330
18
100
AcDbEntity
  8
0
100
AcDbPolyline
 90
        4
 70
     0
 43
0.0
 10
284.9583821284105
 20
817.7892966669659
 10
284.9583821284106
 20
890.789296666966
 10
285.9583821284106
 20
891.789296666966
 10
297.9583821284106
 20
891.789296666966
  0
LWPOLYLINE
  5
8F05
330
18
100
AcDbEntity
  8
0
100
AcDbPolyline
 90
        4
 70
     1
 43
0.0
 10
294.4583821284106
 20
888.789296666966
 10
294.4583821284106
 20
871.789296666966
 10
291.4583821284106
 20
871.789296666966
 10
291.4583821284106
 20
888.789296666966
  0
LWPOLYLINE
  5
8F06
330
18
100
AcDbEntity
  8
0
100
AcDbPolyline
 90
        4
 70
     1
 43
0.0
 10
299.9583821284106
 20
888.789296666966
 10
299.9583821284106
 20
871.789296666966
 10
296.9583821284107
 20
871.789296666966
 10
296.9583821284107
 20
888.789296666966
  0
LINE
  5
8F07
330
18
100
AcDbEntity
  8
0
100
AcDbLine
 10
297.9583821284106
 20
893.7892966669661
 30
0.0
 11
297.9583821284106
 21
891.789296666966
 31
0.0
  0
LINE
  5
8F08
330
18
100
AcDbEntity
  8
0
100
AcDbLine
 10
283.9583821284105
 20
844.7892966669661
 30
0.0
 11
283.9583821284105
 21
817.7892966669659
 31
0.0
  0
LINE
  5
8F09
330
18
100
AcDbEntity
  8
0
100
AcDbLine
 10
282.9583821284105
 20
816.789296666966
 30
0.0
 11
282.9583821284105
 21
844.7892966669661
 31
0.0
  0
LWPOLYLINE
  5
8F0A
330
18
100
AcDbEntity
  8
0
100
AcDbPolyline
 90
        4
 70
     1
 43
0.0
 10
299.9583821284105
 20
864.789296666966
 10
299.9583821284105
 20
847.789296666966
 10
296.9583821284105
 20
847.789296666966
 10
296.9583821284105
 20
864.789296666966
  0
LWPOLYLINE
  5
8F0B
330
18
100
AcDbEntity
  8
0
100
AcDbPolyline
 90
        4
 70
     1
 43
0.0
 10
294.4583821284105
 20
864.789296666966
 10
294.4583821284105
 20
847.789296666966
 10
291.4583821284105
 20
847.789296666966
 10
291.4583821284105
 20
864.789296666966
  0
LINE
  5
8F0C
330
18
100
AcDbEntity
  8
0
100
AcDbLine
 10
282.9583821284105
 20
844.7892966669661
 30
0.0
 11
283.9583821284105
 21
844.7892966669661
 31
0.0
  0
LINE
  5
8F0D
330
18
100
AcDbEntity
  8
0
100
AcDbLine
 10
283.9583821284105
 20
817.7892966669659
 30
0.0
 11
284.9583821284105
 21
817.7892966669659
 31
0.0
  0
LINE
  5
8F0E
330
18
100
AcDbEntity
  8
0
100
AcDbLine
 10
284.9583821284105
 20
816.789296666966
 30
0.0
 11
282.9583821284105
 21
816.789296666966
 31
0.0
  0
LWPOLYLINE
  5
8F1D
330
18
100
AcDbEntity
  8
0
100
AcDbPolyline
 90
        4
 70
     1
 43
0.0
 10
387.9583821284105
 20
864.789296666966
 10
387.9583821284105
 20
847.789296666966
 10
384.9583821284105
 20
847.789296666966
 10
384.9583821284105
 20
864.789296666966
  0
LWPOLYLINE
  5
8F1E
330
18
100
AcDbEntity
  8
0
100
AcDbPolyline
 90
        4
 70
     1
 43
0.0
 10
387.9583821284106
 20
888.789296666966
 10
387.9583821284106
 20
871.789296666966
 10
384.9583821284106
 20
871.789296666966
 10
384.9583821284106
 20
888.789296666966
  0
LWPOLYLINE
  5
8F1F
330
18
100
AcDbEntity
  8
0
100
AcDbPolyline
 90
        2
 70
     0
 43
0.0
 10
307.9583821284106
 20
891.789296666966
 10
413.9583821284106
 20
891.789296666966
  0
LWPOLYLINE
  5
8F23
330
18
100
AcDbEntity
  8
0
100
AcDbPolyline
 90
        4
 70
     1
 43
0.0
 10
305.4583821284106
 20
888.789296666966
 10
305.4583821284106
 20
871.789296666966
 10
302.4583821284106
 20
871.789296666966
 10
302.4583821284106
 20
888.789296666966
  0
LWPOLYLINE
  5
8F24
330
18
100
AcDbEntity
  8
0
100
AcDbPolyline
 90
        4
 70
     1
 43
0.0
 10
310.9583821284106
 20
888.789296666966
 10
310.9583821284106
 20
871.789296666966
 10
307.9583821284106
 20
871.789296666966
 10
307.9583821284106
 20
888.789296666966
  0
LWPOLYLINE
  5
8F25
330
18
100
AcDbEntity
  8
0
100
AcDbPolyline
 90
        4
 70
     1
 43
0.0
 10
316.4583821284106
 20
888.789296666966
 10
316.4583821284106
 20
871.789296666966
 10
313.4583821284106
 20
871.789296666966
 10
313.4583821284106
 20
888.789296666966
  0
LWPOLYLINE
  5
8F26
330
18
100
AcDbEntity
  8
0
100
AcDbPolyline
 90
        4
 70
     1
 43
0.0
 10
321.9583821284107
 20
888.789296666966
 10
321.9583821284107
 20
871.789296666966
 10
318.9583821284106
 20
871.789296666966
 10
318.9583821284106
 20
888.789296666966
  0
LINE
  5
8F27
330
18
100
AcDbEntity
  8
0
100
AcDbLine
 10
307.9583821284106
 20
891.789296666966
 30
0.0
 11
307.9583821284106
 21
893.7892966669661
 31
0.0
  0
LWPOLYLINE
  5
8F28
330
18
100
AcDbEntity
  8
0
100
AcDbPolyline
 90
        4
 70
     1
 43
0.0
 10
327.4583821284106
 20
888.789296666966
 10
327.4583821284106
 20
871.789296666966
 10
324.4583821284106
 20
871.789296666966
 10
324.4583821284106
 20
888.789296666966
  0
LWPOLYLINE
  5
8F29
330
18
100
AcDbEntity
  8
0
100
AcDbPolyline
 90
        4
 70
     1
 43
0.0
 10
332.9583821284106
 20
888.789296666966
 10
332.9583821284106
 20
871.789296666966
 10
329.9583821284106
 20
871.789296666966
 10
329.9583821284106
 20
888.789296666966
  0
LWPOLYLINE
  5
8F2A
330
18
100
AcDbEntity
  8
0
100
AcDbPolyline
 90
        4
 70
     1
 43
0.0
 10
338.4583821284106
 20
888.789296666966
 10
338.4583821284106
 20
871.789296666966
 10
335.4583821284106
 20
871.789296666966
 10
335.4583821284106
 20
888.789296666966
  0
LWPOLYLINE
  5
8F2B
330
18
100
AcDbEntity
  8
0
100
AcDbPolyline
 90
        4
 70
     1
 43
0.0
 10
343.9583821284106
 20
888.789296666966
 10
343.9583821284106
 20
871.789296666966
 10
340.9583821284106
 20
871.789296666966
 10
340.9583821284106
 20
888.789296666966
  0
LWPOLYLINE
  5
8F2D
330
18
100
AcDbEntity
  8
0
100
AcDbPolyline
 90
        4
 70
     1
 43
0.0
 10
349.4583821284106
 20
888.789296666966
 10
349.4583821284106
 20
871.789296666966
 10
346.4583821284106
 20
871.789296666966
 10
346.4583821284106
 20
888.789296666966
  0
LWPOLYLINE
  5
8F2E
330
18
100
AcDbEntity
  8
0
100
AcDbPolyline
 90
        4
 70
     1
 43
0.0
 10
354.9583821284106
 20
881.789296666966
 10
354.9583821284106
 20
871.789296666966
 10
351.9583821284106
 20
871.789296666966
 10
351.9583821284106
 20
881.789296666966
  0
LWPOLYLINE
  5
8F2F
330
18
100
AcDbEntity
  8
0
100
AcDbPolyline
 90
        4
 70
     1
 43
0.0
 10
360.4583821284106
 20
881.789296666966
 10
360.4583821284106
 20
871.789296666966
 10
357.4583821284107
 20
871.789296666966
 10
357.4583821284107
 20
881.789296666966
  0
LWPOLYLINE
  5
8F30
330
18
100
AcDbEntity
  8
0
100
AcDbPolyline
 90
        4
 70
     1
 43
0.0
 10
365.9583821284106
 20
881.789296666966
 10
365.9583821284106
 20
871.789296666966
 10
362.9583821284106
 20
871.789296666966
 10
362.9583821284106
 20
881.789296666966
  0
LWPOLYLINE
  5
8F34
330
18
100
AcDbEntity
  8
0
100
AcDbPolyline
 90
        4
 70
     1
 43
0.0
 10
371.4583821284106
 20
881.789296666966
 10
371.4583821284106
 20
871.789296666966
 10
368.4583821284106
 20
871.789296666966
 10
368.4583821284106
 20
881.789296666966
  0
LWPOLYLINE
  5
8F35
330
18
100
AcDbEntity
  8
0
100
AcDbPolyline
 90
        4
 70
     1
 43
0.0
 10
376.9583821284106
 20
888.789296666966
 10
376.9583821284106
 20
871.789296666966
 10
373.9583821284107
 20
871.789296666966
 10
373.9583821284107
 20
888.789296666966
  0
LWPOLYLINE
  5
8F36
330
18
100
AcDbEntity
  8
0
100
AcDbPolyline
 90
        4
 70
     1
 43
0.0
 10
382.4583821284107
 20
888.789296666966
 10
382.4583821284107
 20
871.789296666966
 10
379.4583821284106
 20
871.789296666966
 10
379.4583821284106
 20
888.789296666966
  0
LWPOLYLINE
  5
8F37
330
18
100
AcDbEntity
  8
0
100
AcDbPolyline
 90
        4
 70
     1
 43
0.0
 10
360.9583821284105
 20
859.7892966669659
 10
360.9583821284105
 20
845.789296666966
 10
327.9583821284105
 20
845.789296666966
 10
327.9583821284105
 20
859.7892966669659
  0
CIRCLE
  5
8F3A
330
18
100
AcDbEntity
  8
0
100
AcDbCircle
 10
323.4583821284105
 20
848.789296666966
 30
0.0
 40
3.25
  0
LWPOLYLINE
  5
8F3B
330
18
100
AcDbEntity
  8
0
100
AcDbPolyline
 90
        4
 70
     1
 43
0.0
 10
316.4583821284105
 20
864.789296666966
 10
316.4583821284105
 20
847.789296666966
 10
313.4583821284105
 20
847.789296666966
 10
313.4583821284105
 20
864.789296666966
  0
LWPOLYLINE
  5
8F3C
330
18
100
AcDbEntity
  8
0
100
AcDbPolyline
 90
        4
 70
     1
 43
0.0
 10
310.9583821284105
 20
864.789296666966
 10
310.9583821284105
 20
847.789296666966
 10
307.9583821284105
 20
847.789296666966
 10
307.9583821284105
 20
864.789296666966
  0
LWPOLYLINE
  5
8F3D
330
18
100
AcDbEntity
  8
0
100
AcDbPolyline
 90
        4
 70
     1
 43
0.0
 10
305.4583821284105
 20
864.789296666966
 10
305.4583821284105
 20
847.789296666966
 10
302.4583821284105
 20
847.789296666966
 10
302.4583821284105
 20
864.789296666966
  0
LWPOLYLINE
  5
8F3E
330
18
100
AcDbEntity
  8
0
100
AcDbPolyline
 90
        4
 70
     1
 43
0.0
 10
321.9583821284105
 20
864.789296666966
 10
321.9583821284105
 20
854.789296666966
 10
318.9583821284105
 20
854.789296666966
 10
318.9583821284105
 20
864.789296666966
  0
LWPOLYLINE
  5
8F40
330
18
100
AcDbEntity
  8
0
100
AcDbPolyline
 90
        4
 70
     1
 43
0.0
 10
365.9583821284105
 20
864.789296666966
 10
365.9583821284105
 20
847.789296666966
 10
362.9583821284105
 20
847.789296666966
 10
362.9583821284105
 20
864.789296666966
  0
LWPOLYLINE
  5
8F41
330
18
100
AcDbEntity
  8
0
100
AcDbPolyline
 90
        4
 70
     1
 43
0.0
 10
371.4583821284105
 20
864.789296666966
 10
371.4583821284105
 20
847.789296666966
 10
368.4583821284105
 20
847.789296666966
 10
368.4583821284105
 20
864.789296666966
  0
LWPOLYLINE
  5
8F42
330
18
100
AcDbEntity
  8
0
100
AcDbPolyline
 90
        4
 70
     1
 43
0.0
 10
376.9583821284105
 20
864.789296666966
 10
376.9583821284105
 20
847.789296666966
 10
373.9583821284105
 20
847.789296666966
 10
373.9583821284105
 20
864.789296666966
  0
LWPOLYLINE
  5
8F43
330
18
100
AcDbEntity
  8
0
100
AcDbPolyline
 90
        4
 70
     1
 43
0.0
 10
382.4583821284105
 20
864.789296666966
 10
382.4583821284105
 20
847.789296666966
 10
379.4583821284105
 20
847.789296666966
 10
379.4583821284105
 20
864.789296666966
  0
LWPOLYLINE
  5
8F45
330
18
100
AcDbEntity
  8
0
100
AcDbPolyline
 90
        4
 70
     0
 43
0.0
 10
423.9583821284107
 20
891.789296666966
 10
435.9583821284107
 20
891.789296666966
 10
436.9583821284107
 20
890.789296666966
 10
436.9583821284106
 20
817.7892966669659
  0
LWPOLYLINE
  5
8F46
330
18
100
AcDbEntity
  8
0
100
AcDbPolyline
 90
        4
 70
     1
 43
0.0
 10
431.9583821284107
 20
888.789296666966
 10
431.9583821284107
 20
871.789296666966
 10
428.9583821284106
 20
871.789296666966
 10
428.9583821284106
 20
888.789296666966
  0
LWPOLYLINE
  5
8F49
330
18
100
AcDbEntity
  8
0
100
AcDbPolyline
 90
        4
 70
     1
 43
0.0
 10
409.9583821284106
 20
888.789296666966
 10
409.9583821284106
 20
871.789296666966
 10
406.9583821284107
 20
871.789296666966
 10
406.9583821284107
 20
888.789296666966
  0
LWPOLYLINE
  5
8F4A
330
18
100
AcDbEntity
  8
0
100
AcDbPolyline
 90
        4
 70
     1
 43
0.0
 10
393.4583821284106
 20
888.789296666966
 10
393.4583821284106
 20
871.789296666966
 10
390.4583821284106
 20
871.789296666966
 10
390.4583821284106
 20
888.789296666966
  0
LWPOLYLINE
  5
8F4B
330
18
100
AcDbEntity
  8
0
100
AcDbPolyline
 90
        4
 70
     1
 43
0.0
 10
398.9583821284107
 20
888.789296666966
 10
398.9583821284107
 20
871.789296666966
 10
395.9583821284106
 20
871.789296666966
 10
395.9583821284106
 20
888.789296666966
  0
LWPOLYLINE
  5
8F4C
330
18
100
AcDbEntity
  8
0
100
AcDbPolyline
 90
        4
 70
     1
 43
0.0
 10
404.4583821284106
 20
888.789296666966
 10
404.4583821284106
 20
871.789296666966
 10
401.4583821284106
 20
871.789296666966
 10
401.4583821284106
 20
888.789296666966
  0
LWPOLYLINE
  5
8F4D
330
18
100
AcDbEntity
  8
0
100
AcDbPolyline
 90
        4
 70
     1
 43
0.0
 10
415.4583821284107
 20
888.789296666966
 10
415.4583821284107
 20
871.789296666966
 10
412.4583821284106
 20
871.789296666966
 10
412.4583821284106
 20
888.789296666966
  0
LWPOLYLINE
  5
8F4E
330
18
100
AcDbEntity
  8
0
100
AcDbPolyline
 90
        4
 70
     1
 43
0.0
 10
420.9583821284106
 20
888.789296666966
 10
420.9583821284106
 20
871.789296666966
 10
417.9583821284106
 20
871.789296666966
 10
417.9583821284106
 20
888.789296666966
  0
LWPOLYLINE
  5
8F4F
330
18
100
AcDbEntity
  8
0
100
AcDbPolyline
 90
        4
 70
     1
 43
0.0
 10
426.4583821284106
 20
888.789296666966
 10
426.4583821284106
 20
871.789296666966
 10
423.4583821284107
 20
871.789296666966
 10
423.4583821284107
 20
888.789296666966
  0
LINE
  5
8F51
330
18
100
AcDbEntity
  8
0
100
AcDbLine
 10
423.9583821284107
 20
893.7892966669661
 30
0.0
 11
413.9583821284106
 21
893.7892966669661
 31
0.0
  0
LINE
  5
8F52
330
18
100
AcDbEntity
  8
0
100
AcDbLine
 10
413.9583821284106
 20
893.7892966669661
 30
0.0
 11
413.9583821284106
 21
891.789296666966
 31
0.0
  0
LINE
  5
8F53
330
18
100
AcDbEntity
  8
0
100
AcDbLine
 10
423.9583821284107
 20
891.789296666966
 30
0.0
 11
423.9583821284107
 21
893.7892966669661
 31
0.0
  0
LWPOLYLINE
  5
8F56
330
18
100
AcDbEntity
  8
0
100
AcDbPolyline
 90
        4
 70
     1
 43
0.0
 10
431.9583821284105
 20
864.789296666966
 10
431.9583821284105
 20
847.789296666966
 10
428.9583821284105
 20
847.789296666966
 10
428.9583821284105
 20
864.789296666966
  0
LWPOLYLINE
  5
8F57
330
18
100
AcDbEntity
  8
0
100
AcDbPolyline
 90
        4
 70
     1
 43
0.0
 10
409.9583821284105
 20
864.789296666966
 10
409.9583821284105
 20
847.789296666966
 10
406.9583821284105
 20
847.789296666966
 10
406.9583821284105
 20
864.789296666966
  0
LWPOLYLINE
  5
8F58
330
18
100
AcDbEntity
  8
0
100
AcDbPolyline
 90
        4
 70
     1
 43
0.0
 10
393.4583821284105
 20
864.789296666966
 10
393.4583821284105
 20
847.789296666966
 10
390.4583821284105
 20
847.789296666966
 10
390.4583821284105
 20
864.789296666966
  0
LWPOLYLINE
  5
8F59
330
18
100
AcDbEntity
  8
0
100
AcDbPolyline
 90
        4
 70
     1
 43
0.0
 10
398.9583821284105
 20
864.789296666966
 10
398.9583821284105
 20
847.789296666966
 10
395.9583821284105
 20
847.789296666966
 10
395.9583821284105
 20
864.789296666966
  0
LWPOLYLINE
  5
8F5A
330
18
100
AcDbEntity
  8
0
100
AcDbPolyline
 90
        4
 70
     1
 43
0.0
 10
404.4583821284105
 20
864.789296666966
 10
404.4583821284105
 20
847.789296666966
 10
401.4583821284105
 20
847.789296666966
 10
401.4583821284105
 20
864.789296666966
  0
LWPOLYLINE
  5
8F5B
330
18
100
AcDbEntity
  8
0
100
AcDbPolyline
 90
        4
 70
     1
 43
0.0
 10
415.4583821284105
 20
864.789296666966
 10
415.4583821284105
 20
847.789296666966
 10
412.4583821284105
 20
847.789296666966
 10
412.4583821284105
 20
864.789296666966
  0
LWPOLYLINE
  5
8F5C
330
18
100
AcDbEntity
  8
0
100
AcDbPolyline
 90
        4
 70
     1
 43
0.0
 10
420.9583821284105
 20
864.789296666966
 10
420.9583821284105
 20
847.789296666966
 10
417.9583821284105
 20
847.789296666966
 10
417.9583821284105
 20
864.789296666966
  0
LWPOLYLINE
  5
8F5D
330
18
100
AcDbEntity
  8
0
100
AcDbPolyline
 90
        4
 70
     1
 43
0.0
 10
426.4583821284105
 20
864.789296666966
 10
426.4583821284105
 20
847.789296666966
 10
423.4583821284105
 20
847.789296666966
 10
423.4583821284105
 20
864.789296666966
  0
LINE
  5
8F5F
330
18
100
AcDbEntity
  8
0
100
AcDbLine
 10
438.9583821284105
 20
844.7892966669661
 30
0.0
 11
438.9583821284105
 21
816.789296666966
 31
0.0
  0
LINE
  5
8F60
330
18
100
AcDbEntity
  8
0
100
AcDbLine
 10
437.9583821284105
 20
817.7892966669659
 30
0.0
 11
437.9583821284105
 21
844.7892966669661
 31
0.0
  0
LINE
  5
8F61
330
18
100
AcDbEntity
  8
0
100
AcDbLine
 10
437.9583821284105
 20
844.7892966669661
 30
0.0
 11
438.9583821284105
 21
844.7892966669661
 31
0.0
  0
LINE
  5
8F62
330
18
100
AcDbEntity
  8
0
100
AcDbLine
 10
438.9583821284105
 20
816.789296666966
 30
0.0
 11
436.9583821284106
 21
816.789296666966
 31
0.0
  0
LINE
  5
8F63
330
18
100
AcDbEntity
  8
0
100
AcDbLine
 10
436.9583821284106
 20
817.7892966669659
 30
0.0
 11
437.9583821284105
 21
817.7892966669659
 31
0.0
  0
LWPOLYLINE
  5
8F64
330
18
100
AcDbEntity
  8
0
100
AcDbPolyline
 90
        8
 70
     1
 43
0.0
 10
390.9583821284105
 20
751.4370673185535
 10
390.9583821284105
 20
751.4370673185535
 42
-0.4142135623730951
 10
389.2083821284105
 20
749.6870673185535
 10
377.7083821284105
 20
749.6870673185535
 42
-0.4142135623730951
 10
375.9583821284105
 20
751.4370673185535
 10
375.9583821284105
 20
751.4370673185535
 42
-0.4142135623730951
 10
377.7083821284105
 20
753.1870673185535
 10
389.2083821284105
 20
753.1870673185535
 42
-0.4142135623730951
  0
LWPOLYLINE
  5
8F65
330
18
100
AcDbEntity
  8
0
100
AcDbPolyline
 90
        8
 70
     1
 43
0.0
 10
390.9583821284105
 20
757.9370673185535
 10
390.9583821284105
 20
757.9370673185535
 42
-0.4142135623730951
 10
389.2083821284105
 20
756.1870673185535
 10
377.7083821284105
 20
756.1870673185535
 42
-0.4142135623730951
 10
375.9583821284105
 20
757.9370673185535
 10
375.9583821284105
 20
757.9370673185535
 42
-0.4142135623730951
 10
377.7083821284105
 20
759.6870673185535
 10
389.2083821284105
 20
759.6870673185535
 42
-0.4142135623730951
  0
LWPOLYLINE
  5
8F66
330
18
100
AcDbEntity
  8
0
100
AcDbPolyline
 90
        8
 70
     1
 43
0.0
 10
390.9583821284105
 20
764.4370673185535
 10
390.9583821284105
 20
764.4370673185535
 42
-0.4142135623730951
 10
389.2083821284105
 20
762.6870673185536
 10
377.7083821284105
 20
762.6870673185536
 42
-0.4142135623730951
 10
375.9583821284105
 20
764.4370673185535
 10
375.9583821284105
 20
764.4370673185535
 42
-0.4142135623730951
 10
377.7083821284105
 20
766.1870673185535
 10
389.2083821284105
 20
766.1870673185535
 42
-0.4142135623730951
  0
LWPOLYLINE
  5
8F67
330
18
100
AcDbEntity
  8
0
100
AcDbPolyline
 90
        8
 70
     1
 43
0.0
 10
346.9583821284105
 20
751.4370673185535
 10
346.9583821284105
 20
751.4370673185535
 42
-0.4142135623730951
 10
345.2083821284105
 20
749.6870673185535
 10
333.7083821284105
 20
749.6870673185535
 42
-0.4142135623730951
 10
331.9583821284105
 20
751.4370673185535
 10
331.9583821284105
 20
751.4370673185535
 42
-0.4142135623730951
 10
333.7083821284105
 20
753.1870673185535
 10
345.2083821284105
 20
753.1870673185535
 42
-0.4142135623730951
  0
LWPOLYLINE
  5
8F68
330
18
100
AcDbEntity
  8
0
100
AcDbPolyline
 90
        8
 70
     1
 43
0.0
 10
346.9583821284105
 20
764.4370673185535
 10
346.9583821284105
 20
764.4370673185535
 42
-0.4142135623730951
 10
345.2083821284105
 20
762.6870673185536
 10
333.7083821284105
 20
762.6870673185536
 42
-0.4142135623730951
 10
331.9583821284105
 20
764.4370673185535
 10
331.9583821284105
 20
764.4370673185535
 42
-0.4142135623730951
 10
333.7083821284105
 20
766.1870673185535
 10
345.2083821284105
 20
766.1870673185535
 42
-0.4142135623730951
  0
LWPOLYLINE
  5
8F69
330
18
100
AcDbEntity
  8
0
100
AcDbPolyline
 90
        8
 70
     1
 43
0.0
 10
346.9583821284105
 20
757.9370673185535
 10
346.9583821284105
 20
757.9370673185535
 42
-0.4142135623730951
 10
345.2083821284105
 20
756.1870673185535
 10
333.7083821284105
 20
756.1870673185535
 42
-0.4142135623730951
 10
331.9583821284105
 20
757.9370673185535
 10
331.9583821284105
 20
757.9370673185535
 42
-0.4142135623730951
 10
333.7083821284105
 20
759.6870673185535
 10
345.2083821284105
 20
759.6870673185535
 42
-0.4142135623730951
  0
LWPOLYLINE
  5
8F6A
330
18
100
AcDbEntity
  8
0
100
AcDbPolyline
 90
        8
 70
     1
 43
0.0
 10
324.9583821284105
 20
751.4370673185535
 10
324.9583821284105
 20
751.4370673185535
 42
-0.4142135623730951
 10
323.2083821284105
 20
749.6870673185535
 10
311.7083821284105
 20
749.6870673185535
 42
-0.4142135623730951
 10
309.9583821284105
 20
751.4370673185535
 10
309.9583821284105
 20
751.4370673185535
 42
-0.4142135623730951
 10
311.7083821284105
 20
753.1870673185535
 10
323.2083821284105
 20
753.1870673185535
 42
-0.4142135623730951
  0
LWPOLYLINE
  5
8F6B
330
18
100
AcDbEntity
  8
0
100
AcDbPolyline
 90
        8
 70
     1
 43
0.0
 10
324.9583821284105
 20
764.4370673185535
 10
324.9583821284105
 20
764.4370673185535
 42
-0.4142135623730951
 10
323.2083821284105
 20
762.6870673185536
 10
311.7083821284105
 20
762.6870673185536
 42
-0.4142135623730951
 10
309.9583821284105
 20
764.4370673185535
 10
309.9583821284105
 20
764.4370673185535
 42
-0.4142135623730951
 10
311.7083821284105
 20
766.1870673185535
 10
323.2083821284105
 20
766.1870673185535
 42
-0.4142135623730951
  0
LWPOLYLINE
  5
8F6C
330
18
100
AcDbEntity
  8
0
100
AcDbPolyline
 90
        8
 70
     1
 43
0.0
 10
324.9583821284105
 20
757.9370673185535
 10
324.9583821284105
 20
757.9370673185535
 42
-0.4142135623730951
 10
323.2083821284105
 20
756.1870673185535
 10
311.7083821284105
 20
756.1870673185535
 42
-0.4142135623730951
 10
309.9583821284105
 20
757.9370673185535
 10
309.9583821284105
 20
757.9370673185535
 42
-0.4142135623730951
 10
311.7083821284105
 20
759.6870673185535
 10
323.2083821284105
 20
759.6870673185535
 42
-0.4142135623730951
  0
LWPOLYLINE
  5
8F6E
330
18
100
AcDbEntity
  8
0
100
AcDbPolyline
 90
        8
 70
     1
 43
0.0
 10
368.9583821284105
 20
751.4370673185535
 10
368.9583821284105
 20
751.4370673185535
 42
-0.4142135623730951
 10
367.2083821284105
 20
749.6870673185535
 10
355.7083821284105
 20
749.6870673185535
 42
-0.4142135623730951
 10
353.9583821284105
 20
751.4370673185535
 10
353.9583821284105
 20
751.4370673185535
 42
-0.4142135623730951
 10
355.7083821284105
 20
753.1870673185535
 10
367.2083821284105
 20
753.1870673185535
 42
-0.4142135623730951
  0
LWPOLYLINE
  5
8F6F
330
18
100
AcDbEntity
  8
0
100
AcDbPolyline
 90
        8
 70
     1
 43
0.0
 10
368.9583821284105
 20
764.4370673185535
 10
368.9583821284105
 20
764.4370673185535
 42
-0.4142135623730951
 10
367.2083821284105
 20
762.6870673185536
 10
355.7083821284105
 20
762.6870673185536
 42
-0.4142135623730951
 10
353.9583821284105
 20
764.4370673185535
 10
353.9583821284105
 20
764.4370673185535
 42
-0.4142135623730951
 10
355.7083821284105
 20
766.1870673185535
 10
367.2083821284105
 20
766.1870673185535
 42
-0.4142135623730951
  0
LWPOLYLINE
  5
8F70
330
18
100
AcDbEntity
  8
0
100
AcDbPolyline
 90
        8
 70
     1
 43
0.0
 10
368.9583821284105
 20
757.9370673185535
 10
368.9583821284105
 20
757.9370673185535
 42
-0.4142135623730951
 10
367.2083821284105
 20
756.1870673185535
 10
355.7083821284105
 20
756.1870673185535
 42
-0.4142135623730951
 10
353.9583821284105
 20
757.9370673185535
 10
353.9583821284105
 20
757.9370673185535
 42
-0.4142135623730951
 10
355.7083821284105
 20
759.6870673185535
 10
367.2083821284105
 20
759.6870673185535
 42
-0.4142135623730951
  0
LWPOLYLINE
  5
8F73
330
18
100
AcDbEntity
  8
0
100
AcDbPolyline
 90
        8
 70
     1
 43
0.0
 10
434.9583821284105
 20
751.4370673185535
 10
434.9583821284105
 20
751.4370673185535
 42
-0.4142135623730951
 10
433.2083821284105
 20
749.6870673185535
 10
421.7083821284105
 20
749.6870673185535
 42
-0.4142135623730951
 10
419.9583821284106
 20
751.4370673185535
 10
419.9583821284106
 20
751.4370673185535
 42
-0.4142135623730951
 10
421.7083821284105
 20
753.1870673185535
 10
433.2083821284105
 20
753.1870673185535
 42
-0.4142135623730951
  0
LWPOLYLINE
  5
8F74
330
18
100
AcDbEntity
  8
0
100
AcDbPolyline
 90
        8
 70
     1
 43
0.0
 10
434.9583821284105
 20
757.9370673185535
 10
434.9583821284105
 20
757.9370673185535
 42
-0.4142135623730951
 10
433.2083821284105
 20
756.1870673185535
 10
421.7083821284105
 20
756.1870673185535
 42
-0.4142135623730951
 10
419.9583821284106
 20
757.9370673185535
 10
419.9583821284106
 20
757.9370673185535
 42
-0.4142135623730951
 10
421.7083821284105
 20
759.6870673185535
 10
433.2083821284105
 20
759.6870673185535
 42
-0.4142135623730951
  0
LWPOLYLINE
  5
8F75
330
18
100
AcDbEntity
  8
0
100
AcDbPolyline
 90
        8
 70
     1
 43
0.0
 10
434.9583821284105
 20
764.4370673185535
 10
434.9583821284105
 20
764.4370673185535
 42
-0.4142135623730951
 10
433.2083821284105
 20
762.6870673185536
 10
421.7083821284105
 20
762.6870673185536
 42
-0.4142135623730951
 10
419.9583821284106
 20
764.4370673185535
 10
419.9583821284106
 20
764.4370673185535
 42
-0.4142135623730951
 10
421.7083821284105
 20
766.1870673185535
 10
433.2083821284105
 20
766.1870673185535
 42
-0.4142135623730951
  0
LWPOLYLINE
  5
8F76
330
18
100
AcDbEntity
  8
0
100
AcDbPolyline
 90
        8
 70
     1
 43
0.0
 10
412.9583821284105
 20
764.4370673185535
 10
412.9583821284105
 20
764.4370673185535
 42
-0.4142135623730951
 10
411.2083821284105
 20
762.6870673185536
 10
399.7083821284105
 20
762.6870673185536
 42
-0.4142135623730951
 10
397.9583821284105
 20
764.4370673185535
 10
397.9583821284105
 20
764.4370673185535
 42
-0.4142135623730951
 10
399.7083821284105
 20
766.1870673185535
 10
411.2083821284105
 20
766.1870673185535
 42
-0.4142135623730951
  0
LWPOLYLINE
  5
8F77
330
18
100
AcDbEntity
  8
0
100
AcDbPolyline
 90
        8
 70
     1
 43
0.0
 10
412.9583821284105
 20
757.9370673185535
 10
412.9583821284105
 20
757.9370673185535
 42
-0.4142135623730951
 10
411.2083821284105
 20
756.1870673185535
 10
399.7083821284105
 20
756.1870673185535
 42
-0.4142135623730951
 10
397.9583821284105
 20
757.9370673185535
 10
397.9583821284105
 20
757.9370673185535
 42
-0.4142135623730951
 10
399.7083821284105
 20
759.6870673185535
 10
411.2083821284105
 20
759.6870673185535
 42
-0.4142135623730951
  0
LWPOLYLINE
  5
8F78
330
18
100
AcDbEntity
  8
0
100
AcDbPolyline
 90
        8
 70
     1
 43
0.0
 10
412.9583821284105
 20
751.4370673185535
 10
412.9583821284105
 20
751.4370673185535
 42
-0.4142135623730951
 10
411.2083821284105
 20
749.6870673185535
 10
399.7083821284105
 20
749.6870673185535
 42
-0.4142135623730951
 10
397.9583821284105
 20
751.4370673185535
 10
397.9583821284105
 20
751.4370673185535
 42
-0.4142135623730951
 10
399.7083821284105
 20
753.1870673185535
 10
411.2083821284105
 20
753.1870673185535
 42
-0.4142135623730951
  0
LWPOLYLINE
  5
8F80
330
18
100
AcDbEntity
  8
0
100
AcDbPolyline
 90
        8
 70
     1
 43
0.0
 10
302.9583821284105
 20
621.4370673185535
 10
302.9583821284105
 20
621.4370673185535
 42
-0.4142135623730951
 10
301.2083821284105
 20
619.6870673185535
 10
289.7083821284105
 20
619.6870673185535
 42
-0.4142135623730951
 10
287.9583821284105
 20
621.4370673185535
 10
287.9583821284105
 20
621.4370673185535
 42
-0.4142135623730951
 10
289.7083821284105
 20
623.1870673185535
 10
301.2083821284105
 20
623.1870673185535
 42
-0.4142135623730951
  0
LWPOLYLINE
  5
8F81
330
18
100
AcDbEntity
  8
0
100
AcDbPolyline
 90
        8
 70
     1
 43
0.0
 10
302.9583821284105
 20
634.4370673185535
 10
302.9583821284105
 20
634.4370673185535
 42
-0.4142135623730951
 10
301.2083821284105
 20
632.6870673185535
 10
289.7083821284105
 20
632.6870673185535
 42
-0.4142135623730951
 10
287.9583821284105
 20
634.4370673185535
 10
287.9583821284105
 20
634.4370673185535
 42
-0.4142135623730951
 10
289.7083821284105
 20
636.1870673185535
 10
301.2083821284105
 20
636.1870673185535
 42
-0.4142135623730951
  0
LWPOLYLINE
  5
8F82
330
18
100
AcDbEntity
  8
0
100
AcDbPolyline
 90
        8
 70
     1
 43
0.0
 10
302.9583821284105
 20
627.9370673185535
 10
302.9583821284105
 20
627.9370673185535
 42
-0.4142135623730951
 10
301.2083821284105
 20
626.1870673185535
 10
289.7083821284105
 20
626.1870673185535
 42
-0.4142135623730951
 10
287.9583821284105
 20
627.9370673185535
 10
287.9583821284105
 20
627.9370673185535
 42
-0.4142135623730951
 10
289.7083821284105
 20
629.6870673185535
 10
301.2083821284105
 20
629.6870673185535
 42
-0.4142135623730951
  0
LWPOLYLINE
  5
8F88
330
18
100
AcDbEntity
  8
0
100
AcDbPolyline
 90
        8
 70
     1
 43
0.0
 10
390.9583821284105
 20
634.4370673185535
 10
390.9583821284105
 20
634.4370673185535
 42
-0.4142135623730951
 10
389.2083821284105
 20
632.6870673185535
 10
377.7083821284105
 20
632.6870673185535
 42
-0.4142135623730951
 10
375.9583821284105
 20
634.4370673185535
 10
375.9583821284105
 20
634.4370673185535
 42
-0.4142135623730951
 10
377.7083821284105
 20
636.1870673185535
 10
389.2083821284105
 20
636.1870673185535
 42
-0.4142135623730951
  0
LWPOLYLINE
  5
8F89
330
18
100
AcDbEntity
  8
0
100
AcDbPolyline
 90
        8
 70
     1
 43
0.0
 10
346.9583821284105
 20
634.4370673185535
 10
346.9583821284105
 20
634.4370673185535
 42
-0.4142135623730951
 10
345.2083821284105
 20
632.6870673185535
 10
333.7083821284105
 20
632.6870673185535
 42
-0.4142135623730951
 10
331.9583821284105
 20
634.4370673185535
 10
331.9583821284105
 20
634.4370673185535
 42
-0.4142135623730951
 10
333.7083821284105
 20
636.1870673185535
 10
345.2083821284105
 20
636.1870673185535
 42
-0.4142135623730951
  0
LWPOLYLINE
  5
8F8A
330
18
100
AcDbEntity
  8
0
100
AcDbPolyline
 90
        8
 70
     1
 43
0.0
 10
324.9583821284105
 20
634.4370673185535
 10
324.9583821284105
 20
634.4370673185535
 42
-0.4142135623730951
 10
323.2083821284105
 20
632.6870673185535
 10
311.7083821284105
 20
632.6870673185535
 42
-0.4142135623730951
 10
309.9583821284105
 20
634.4370673185535
 10
309.9583821284105
 20
634.4370673185535
 42
-0.4142135623730951
 10
311.7083821284105
 20
636.1870673185535
 10
323.2083821284105
 20
636.1870673185535
 42
-0.4142135623730951
  0
LWPOLYLINE
  5
8F8B
330
18
100
AcDbEntity
  8
0
100
AcDbPolyline
 90
        8
 70
     1
 43
0.0
 10
368.9583821284105
 20
634.4370673185535
 10
368.9583821284105
 20
634.4370673185535
 42
-0.4142135623730951
 10
367.2083821284105
 20
632.6870673185535
 10
355.7083821284105
 20
632.6870673185535
 42
-0.4142135623730951
 10
353.9583821284105
 20
634.4370673185535
 10
353.9583821284105
 20
634.4370673185535
 42
-0.4142135623730951
 10
355.7083821284105
 20
636.1870673185535
 10
367.2083821284105
 20
636.1870673185535
 42
-0.4142135623730951
  0
LWPOLYLINE
  5
8F8C
330
18
100
AcDbEntity
  8
0
100
AcDbPolyline
 90
        8
 70
     1
 43
0.0
 10
434.9583821284105
 20
692.9370673185535
 10
434.9583821284105
 20
692.9370673185535
 42
-0.4142135623730951
 10
433.2083821284105
 20
691.1870673185535
 10
421.7083821284105
 20
691.1870673185535
 42
-0.4142135623730951
 10
419.9583821284106
 20
692.9370673185535
 10
419.9583821284106
 20
692.9370673185535
 42
-0.4142135623730951
 10
421.7083821284105
 20
694.6870673185535
 10
433.2083821284105
 20
694.6870673185535
 42
-0.4142135623730951
  0
LWPOLYLINE
  5
8F8D
330
18
100
AcDbEntity
  8
0
100
AcDbPolyline
 90
        8
 70
     1
 43
0.0
 10
434.9583821284105
 20
699.4370673185535
 10
434.9583821284105
 20
699.4370673185535
 42
-0.4142135623730951
 10
433.2083821284105
 20
697.6870673185535
 10
421.7083821284105
 20
697.6870673185535
 42
-0.4142135623730951
 10
419.9583821284106
 20
699.4370673185535
 10
419.9583821284106
 20
699.4370673185535
 42
-0.4142135623730951
 10
421.7083821284105
 20
701.1870673185535
 10
433.2083821284105
 20
701.1870673185535
 42
-0.4142135623730951
  0
LWPOLYLINE
  5
8F8E
330
18
100
AcDbEntity
  8
0
100
AcDbPolyline
 90
        8
 70
     1
 43
0.0
 10
434.9583821284105
 20
705.9370673185535
 10
434.9583821284105
 20
705.9370673185535
 42
-0.4142135623730951
 10
433.2083821284105
 20
704.1870673185535
 10
421.7083821284105
 20
704.1870673185535
 42
-0.4142135623730951
 10
419.9583821284106
 20
705.9370673185535
 10
419.9583821284106
 20
705.9370673185535
 42
-0.4142135623730951
 10
421.7083821284105
 20
707.6870673185535
 10
433.2083821284105
 20
707.6870673185535
 42
-0.4142135623730951
  0
LWPOLYLINE
  5
8F8F
330
18
100
AcDbEntity
  8
0
100
AcDbPolyline
 90
        8
 70
     1
 43
0.0
 10
434.9583821284105
 20
712.4370673185535
 10
434.9583821284105
 20
712.4370673185535
 42
-0.4142135623730951
 10
433.2083821284105
 20
710.6870673185535
 10
421.7083821284105
 20
710.6870673185535
 42
-0.4142135623730951
 10
419.9583821284106
 20
712.4370673185535
 10
419.9583821284106
 20
712.4370673185535
 42
-0.4142135623730951
 10
421.7083821284105
 20
714.1870673185535
 10
433.2083821284105
 20
714.1870673185535
 42
-0.4142135623730951
  0
LWPOLYLINE
  5
8F90
330
18
100
AcDbEntity
  8
0
100
AcDbPolyline
 90
        8
 70
     1
 43
0.0
 10
434.9583821284105
 20
718.9370673185536
 10
434.9583821284105
 20
718.9370673185536
 42
-0.4142135623730951
 10
433.2083821284105
 20
717.1870673185535
 10
421.7083821284105
 20
717.1870673185535
 42
-0.4142135623730951
 10
419.9583821284106
 20
718.9370673185536
 10
419.9583821284106
 20
718.9370673185536
 42
-0.4142135623730951
 10
421.7083821284105
 20
720.6870673185535
 10
433.2083821284105
 20
720.6870673185535
 42
-0.4142135623730951
  0
LWPOLYLINE
  5
8F91
330
18
100
AcDbEntity
  8
0
100
AcDbPolyline
 90
        8
 70
     1
 43
0.0
 10
434.9583821284105
 20
725.4370673185535
 10
434.9583821284105
 20
725.4370673185535
 42
-0.4142135623730951
 10
433.2083821284105
 20
723.6870673185535
 10
421.7083821284105
 20
723.6870673185535
 42
-0.4142135623730951
 10
419.9583821284106
 20
725.4370673185535
 10
419.9583821284106
 20
725.4370673185535
 42
-0.4142135623730951
 10
421.7083821284105
 20
727.1870673185535
 10
433.2083821284105
 20
727.1870673185535
 42
-0.4142135623730951
  0
LWPOLYLINE
  5
8F92
330
18
100
AcDbEntity
  8
0
100
AcDbPolyline
 90
        8
 70
     1
 43
0.0
 10
434.9583821284105
 20
731.9370673185535
 10
434.9583821284105
 20
731.9370673185535
 42
-0.4142135623730951
 10
433.2083821284105
 20
730.1870673185535
 10
421.7083821284105
 20
730.1870673185535
 42
-0.4142135623730951
 10
419.9583821284106
 20
731.9370673185535
 10
419.9583821284106
 20
731.9370673185535
 42
-0.4142135623730951
 10
421.7083821284105
 20
733.6870673185535
 10
433.2083821284105
 20
733.6870673185535
 42
-0.4142135623730951
  0
LWPOLYLINE
  5
8F93
330
18
100
AcDbEntity
  8
0
100
AcDbPolyline
 90
        8
 70
     1
 43
0.0
 10
434.9583821284105
 20
738.4370673185535
 10
434.9583821284105
 20
738.4370673185535
 42
-0.4142135623730951
 10
433.2083821284105
 20
736.6870673185535
 10
421.7083821284105
 20
736.6870673185535
 42
-0.4142135623730951
 10
419.9583821284106
 20
738.4370673185535
 10
419.9583821284106
 20
738.4370673185535
 42
-0.4142135623730951
 10
421.7083821284105
 20
740.1870673185535
 10
433.2083821284105
 20
740.1870673185535
 42
-0.4142135623730951
  0
LWPOLYLINE
  5
8F94
330
18
100
AcDbEntity
  8
0
100
AcDbPolyline
 90
        8
 70
     1
 43
0.0
 10
434.9583821284105
 20
744.9370673185535
 10
434.9583821284105
 20
744.9370673185535
 42
-0.4142135623730951
 10
433.2083821284105
 20
743.1870673185535
 10
421.7083821284105
 20
743.1870673185535
 42
-0.4142135623730951
 10
419.9583821284106
 20
744.9370673185535
 10
419.9583821284106
 20
744.9370673185535
 42
-0.4142135623730951
 10
421.7083821284105
 20
746.6870673185535
 10
433.2083821284105
 20
746.6870673185535
 42
-0.4142135623730951
  0
LWPOLYLINE
  5
8F95
330
18
100
AcDbEntity
  8
0
100
AcDbPolyline
 90
        8
 70
     1
 43
0.0
 10
412.9583821284105
 20
718.9370673185536
 10
412.9583821284105
 20
718.9370673185536
 42
-0.4142135623730951
 10
411.2083821284105
 20
717.1870673185535
 10
399.7083821284105
 20
717.1870673185535
 42
-0.4142135623730951
 10
397.9583821284105
 20
718.9370673185536
 10
397.9583821284105
 20
718.9370673185536
 42
-0.4142135623730951
 10
399.7083821284105
 20
720.6870673185535
 10
411.2083821284105
 20
720.6870673185535
 42
-0.4142135623730951
  0
LWPOLYLINE
  5
8F96
330
18
100
AcDbEntity
  8
0
100
AcDbPolyline
 90
        8
 70
     1
 43
0.0
 10
412.9583821284105
 20
738.4370673185535
 10
412.9583821284105
 20
738.4370673185535
 42
-0.4142135623730951
 10
411.2083821284105
 20
736.6870673185535
 10
399.7083821284105
 20
736.6870673185535
 42
-0.4142135623730951
 10
397.9583821284105
 20
738.4370673185535
 10
397.9583821284105
 20
738.4370673185535
 42
-0.4142135623730951
 10
399.7083821284105
 20
740.1870673185535
 10
411.2083821284105
 20
740.1870673185535
 42
-0.4142135623730951
  0
LWPOLYLINE
  5
8F97
330
18
100
AcDbEntity
  8
0
100
AcDbPolyline
 90
        8
 70
     1
 43
0.0
 10
412.9583821284105
 20
731.9370673185535
 10
412.9583821284105
 20
731.9370673185535
 42
-0.4142135623730951
 10
411.2083821284105
 20
730.1870673185535
 10
399.7083821284105
 20
730.1870673185535
 42
-0.4142135623730951
 10
397.9583821284105
 20
731.9370673185535
 10
397.9583821284105
 20
731.9370673185535
 42
-0.4142135623730951
 10
399.7083821284105
 20
733.6870673185535
 10
411.2083821284105
 20
733.6870673185535
 42
-0.4142135623730951
  0
LWPOLYLINE
  5
8F98
330
18
100
AcDbEntity
  8
0
100
AcDbPolyline
 90
        8
 70
     1
 43
0.0
 10
412.9583821284105
 20
725.4370673185535
 10
412.9583821284105
 20
725.4370673185535
 42
-0.4142135623730951
 10
411.2083821284105
 20
723.6870673185535
 10
399.7083821284105
 20
723.6870673185535
 42
-0.4142135623730951
 10
397.9583821284105
 20
725.4370673185535
 10
397.9583821284105
 20
725.4370673185535
 42
-0.4142135623730951
 10
399.7083821284105
 20
727.1870673185535
 10
411.2083821284105
 20
727.1870673185535
 42
-0.4142135623730951
  0
LWPOLYLINE
  5
8F99
330
18
100
AcDbEntity
  8
0
100
AcDbPolyline
 90
        8
 70
     1
 43
0.0
 10
412.9583821284105
 20
744.9370673185535
 10
412.9583821284105
 20
744.9370673185535
 42
-0.4142135623730951
 10
411.2083821284105
 20
743.1870673185535
 10
399.7083821284105
 20
743.1870673185535
 42
-0.4142135623730951
 10
397.9583821284105
 20
744.9370673185535
 10
397.9583821284105
 20
744.9370673185535
 42
-0.4142135623730951
 10
399.7083821284105
 20
746.6870673185535
 10
411.2083821284105
 20
746.6870673185535
 42
-0.4142135623730951
  0
LWPOLYLINE
  5
8F9A
330
18
100
AcDbEntity
  8
0
100
AcDbPolyline
 90
        8
 70
     1
 43
0.0
 10
412.9583821284105
 20
705.9370673185535
 10
412.9583821284105
 20
705.9370673185535
 42
-0.4142135623730951
 10
411.2083821284105
 20
704.1870673185535
 10
399.7083821284105
 20
704.1870673185535
 42
-0.4142135623730951
 10
397.9583821284105
 20
705.9370673185535
 10
397.9583821284105
 20
705.9370673185535
 42
-0.4142135623730951
 10
399.7083821284105
 20
707.6870673185535
 10
411.2083821284105
 20
707.6870673185535
 42
-0.4142135623730951
  0
LWPOLYLINE
  5
8F9B
330
18
100
AcDbEntity
  8
0
100
AcDbPolyline
 90
        8
 70
     1
 43
0.0
 10
412.9583821284105
 20
699.4370673185535
 10
412.9583821284105
 20
699.4370673185535
 42
-0.4142135623730951
 10
411.2083821284105
 20
697.6870673185535
 10
399.7083821284105
 20
697.6870673185535
 42
-0.4142135623730951
 10
397.9583821284105
 20
699.4370673185535
 10
397.9583821284105
 20
699.4370673185535
 42
-0.4142135623730951
 10
399.7083821284105
 20
701.1870673185535
 10
411.2083821284105
 20
701.1870673185535
 42
-0.4142135623730951
  0
LWPOLYLINE
  5
8F9C
330
18
100
AcDbEntity
  8
0
100
AcDbPolyline
 90
        8
 70
     1
 43
0.0
 10
412.9583821284105
 20
692.9370673185535
 10
412.9583821284105
 20
692.9370673185535
 42
-0.4142135623730951
 10
411.2083821284105
 20
691.1870673185535
 10
399.7083821284105
 20
691.1870673185535
 42
-0.4142135623730951
 10
397.9583821284105
 20
692.9370673185535
 10
397.9583821284105
 20
692.9370673185535
 42
-0.4142135623730951
 10
399.7083821284105
 20
694.6870673185535
 10
411.2083821284105
 20
694.6870673185535
 42
-0.4142135623730951
  0
LWPOLYLINE
  5
8F9D
330
18
100
AcDbEntity
  8
0
100
AcDbPolyline
 90
        8
 70
     1
 43
0.0
 10
412.9583821284105
 20
712.4370673185535
 10
412.9583821284105
 20
712.4370673185535
 42
-0.4142135623730951
 10
411.2083821284105
 20
710.6870673185535
 10
399.7083821284105
 20
710.6870673185535
 42
-0.4142135623730951
 10
397.9583821284105
 20
712.4370673185535
 10
397.9583821284105
 20
712.4370673185535
 42
-0.4142135623730951
 10
399.7083821284105
 20
714.1870673185535
 10
411.2083821284105
 20
714.1870673185535
 42
-0.4142135623730951
  0
LWPOLYLINE
  5
8F9E
330
18
100
AcDbEntity
  8
0
100
AcDbPolyline
 90
        8
 70
     1
 43
0.0
 10
434.9583821284105
 20
634.4370673185535
 10
434.9583821284105
 20
634.4370673185535
 42
-0.4142135623730951
 10
433.2083821284105
 20
632.6870673185535
 10
421.7083821284105
 20
632.6870673185535
 42
-0.4142135623730951
 10
419.9583821284106
 20
634.4370673185535
 10
419.9583821284106
 20
634.4370673185535
 42
-0.4142135623730951
 10
421.7083821284105
 20
636.1870673185535
 10
433.2083821284105
 20
636.1870673185535
 42
-0.4142135623730951
  0
LWPOLYLINE
  5
8F9F
330
18
100
AcDbEntity
  8
0
100
AcDbPolyline
 90
        8
 70
     1
 43
0.0
 10
434.9583821284105
 20
640.9370673185535
 10
434.9583821284105
 20
640.9370673185535
 42
-0.4142135623730951
 10
433.2083821284105
 20
639.1870673185535
 10
421.7083821284105
 20
639.1870673185535
 42
-0.4142135623730951
 10
419.9583821284106
 20
640.9370673185535
 10
419.9583821284106
 20
640.9370673185535
 42
-0.4142135623730951
 10
421.7083821284105
 20
642.6870673185535
 10
433.2083821284105
 20
642.6870673185535
 42
-0.4142135623730951
  0
LWPOLYLINE
  5
8FA0
330
18
100
AcDbEntity
  8
0
100
AcDbPolyline
 90
        8
 70
     1
 43
0.0
 10
434.9583821284105
 20
647.4370673185535
 10
434.9583821284105
 20
647.4370673185535
 42
-0.4142135623730951
 10
433.2083821284105
 20
645.6870673185535
 10
421.7083821284105
 20
645.6870673185535
 42
-0.4142135623730951
 10
419.9583821284106
 20
647.4370673185535
 10
419.9583821284106
 20
647.4370673185535
 42
-0.4142135623730951
 10
421.7083821284105
 20
649.1870673185535
 10
433.2083821284105
 20
649.1870673185535
 42
-0.4142135623730951
  0
LWPOLYLINE
  5
8FA1
330
18
100
AcDbEntity
  8
0
100
AcDbPolyline
 90
        8
 70
     1
 43
0.0
 10
434.9583821284105
 20
653.9370673185535
 10
434.9583821284105
 20
653.9370673185535
 42
-0.4142135623730951
 10
433.2083821284105
 20
652.1870673185535
 10
421.7083821284105
 20
652.1870673185535
 42
-0.4142135623730951
 10
419.9583821284106
 20
653.9370673185535
 10
419.9583821284106
 20
653.9370673185535
 42
-0.4142135623730951
 10
421.7083821284105
 20
655.6870673185535
 10
433.2083821284105
 20
655.6870673185535
 42
-0.4142135623730951
  0
LWPOLYLINE
  5
8FA2
330
18
100
AcDbEntity
  8
0
100
AcDbPolyline
 90
        8
 70
     1
 43
0.0
 10
434.9583821284105
 20
660.4370673185535
 10
434.9583821284105
 20
660.4370673185535
 42
-0.4142135623730951
 10
433.2083821284105
 20
658.6870673185535
 10
421.7083821284105
 20
658.6870673185535
 42
-0.4142135623730951
 10
419.9583821284106
 20
660.4370673185535
 10
419.9583821284106
 20
660.4370673185535
 42
-0.4142135623730951
 10
421.7083821284105
 20
662.1870673185535
 10
433.2083821284105
 20
662.1870673185535
 42
-0.4142135623730951
  0
LWPOLYLINE
  5
8FA3
330
18
100
AcDbEntity
  8
0
100
AcDbPolyline
 90
        8
 70
     1
 43
0.0
 10
434.9583821284105
 20
666.9370673185535
 10
434.9583821284105
 20
666.9370673185535
 42
-0.4142135623730951
 10
433.2083821284105
 20
665.1870673185535
 10
421.7083821284105
 20
665.1870673185535
 42
-0.4142135623730951
 10
419.9583821284106
 20
666.9370673185535
 10
419.9583821284106
 20
666.9370673185535
 42
-0.4142135623730951
 10
421.7083821284105
 20
668.6870673185535
 10
433.2083821284105
 20
668.6870673185535
 42
-0.4142135623730951
  0
LWPOLYLINE
  5
8FA4
330
18
100
AcDbEntity
  8
0
100
AcDbPolyline
 90
        8
 70
     1
 43
0.0
 10
434.9583821284105
 20
673.4370673185535
 10
434.9583821284105
 20
673.4370673185535
 42
-0.4142135623730951
 10
433.2083821284105
 20
671.6870673185535
 10
421.7083821284105
 20
671.6870673185535
 42
-0.4142135623730951
 10
419.9583821284106
 20
673.4370673185535
 10
419.9583821284106
 20
673.4370673185535
 42
-0.4142135623730951
 10
421.7083821284105
 20
675.1870673185536
 10
433.2083821284105
 20
675.1870673185536
 42
-0.4142135623730951
  0
LWPOLYLINE
  5
8FA5
330
18
100
AcDbEntity
  8
0
100
AcDbPolyline
 90
        8
 70
     1
 43
0.0
 10
434.9583821284105
 20
679.9370673185535
 10
434.9583821284105
 20
679.9370673185535
 42
-0.4142135623730951
 10
433.2083821284105
 20
678.1870673185535
 10
421.7083821284105
 20
678.1870673185535
 42
-0.4142135623730951
 10
419.9583821284106
 20
679.9370673185535
 10
419.9583821284106
 20
679.9370673185535
 42
-0.4142135623730951
 10
421.7083821284105
 20
681.6870673185535
 10
433.2083821284105
 20
681.6870673185535
 42
-0.4142135623730951
  0
LWPOLYLINE
  5
8FA6
330
18
100
AcDbEntity
  8
0
100
AcDbPolyline
 90
        8
 70
     1
 43
0.0
 10
434.9583821284105
 20
686.4370673185535
 10
434.9583821284105
 20
686.4370673185535
 42
-0.4142135623730951
 10
433.2083821284105
 20
684.6870673185535
 10
421.7083821284105
 20
684.6870673185535
 42
-0.4142135623730951
 10
419.9583821284106
 20
686.4370673185535
 10
419.9583821284106
 20
686.4370673185535
 42
-0.4142135623730951
 10
421.7083821284105
 20
688.1870673185535
 10
433.2083821284105
 20
688.1870673185535
 42
-0.4142135623730951
  0
LWPOLYLINE
  5
8FA7
330
18
100
AcDbEntity
  8
0
100
AcDbPolyline
 90
        8
 70
     1
 43
0.0
 10
412.9583821284105
 20
660.4370673185535
 10
412.9583821284105
 20
660.4370673185535
 42
-0.4142135623730951
 10
411.2083821284105
 20
658.6870673185535
 10
399.7083821284105
 20
658.6870673185535
 42
-0.4142135623730951
 10
397.9583821284105
 20
660.4370673185535
 10
397.9583821284105
 20
660.4370673185535
 42
-0.4142135623730951
 10
399.7083821284105
 20
662.1870673185535
 10
411.2083821284105
 20
662.1870673185535
 42
-0.4142135623730951
  0
LWPOLYLINE
  5
8FA8
330
18
100
AcDbEntity
  8
0
100
AcDbPolyline
 90
        8
 70
     1
 43
0.0
 10
412.9583821284105
 20
679.9370673185535
 10
412.9583821284105
 20
679.9370673185535
 42
-0.4142135623730951
 10
411.2083821284105
 20
678.1870673185535
 10
399.7083821284105
 20
678.1870673185535
 42
-0.4142135623730951
 10
397.9583821284105
 20
679.9370673185535
 10
397.9583821284105
 20
679.9370673185535
 42
-0.4142135623730951
 10
399.7083821284105
 20
681.6870673185535
 10
411.2083821284105
 20
681.6870673185535
 42
-0.4142135623730951
  0
LWPOLYLINE
  5
8FA9
330
18
100
AcDbEntity
  8
0
100
AcDbPolyline
 90
        8
 70
     1
 43
0.0
 10
412.9583821284105
 20
673.4370673185535
 10
412.9583821284105
 20
673.4370673185535
 42
-0.4142135623730951
 10
411.2083821284105
 20
671.6870673185535
 10
399.7083821284105
 20
671.6870673185535
 42
-0.4142135623730951
 10
397.9583821284105
 20
673.4370673185535
 10
397.9583821284105
 20
673.4370673185535
 42
-0.4142135623730951
 10
399.7083821284105
 20
675.1870673185536
 10
411.2083821284105
 20
675.1870673185536
 42
-0.4142135623730951
  0
LWPOLYLINE
  5
8FAA
330
18
100
AcDbEntity
  8
0
100
AcDbPolyline
 90
        8
 70
     1
 43
0.0
 10
412.9583821284105
 20
666.9370673185535
 10
412.9583821284105
 20
666.9370673185535
 42
-0.4142135623730951
 10
411.2083821284105
 20
665.1870673185535
 10
399.7083821284105
 20
665.1870673185535
 42
-0.4142135623730951
 10
397.9583821284105
 20
666.9370673185535
 10
397.9583821284105
 20
666.9370673185535
 42
-0.4142135623730951
 10
399.7083821284105
 20
668.6870673185535
 10
411.2083821284105
 20
668.6870673185535
 42
-0.4142135623730951
  0
LWPOLYLINE
  5
8FAB
330
18
100
AcDbEntity
  8
0
100
AcDbPolyline
 90
        8
 70
     1
 43
0.0
 10
412.9583821284105
 20
686.4370673185535
 10
412.9583821284105
 20
686.4370673185535
 42
-0.4142135623730951
 10
411.2083821284105
 20
684.6870673185535
 10
399.7083821284105
 20
684.6870673185535
 42
-0.4142135623730951
 10
397.9583821284105
 20
686.4370673185535
 10
397.9583821284105
 20
686.4370673185535
 42
-0.4142135623730951
 10
399.7083821284105
 20
688.1870673185535
 10
411.2083821284105
 20
688.1870673185535
 42
-0.4142135623730951
  0
LWPOLYLINE
  5
8FAC
330
18
100
AcDbEntity
  8
0
100
AcDbPolyline
 90
        8
 70
     1
 43
0.0
 10
412.9583821284105
 20
653.9370673185535
 10
412.9583821284105
 20
653.9370673185535
 42
-0.4142135623730951
 10
411.2083821284105
 20
652.1870673185535
 10
399.7083821284105
 20
652.1870673185535
 42
-0.4142135623730951
 10
397.9583821284105
 20
653.9370673185535
 10
397.9583821284105
 20
653.9370673185535
 42
-0.4142135623730951
 10
399.7083821284105
 20
655.6870673185535
 10
411.2083821284105
 20
655.6870673185535
 42
-0.4142135623730951
  0
LWPOLYLINE
  5
8FAD
330
18
100
AcDbEntity
  8
0
100
AcDbPolyline
 90
        8
 70
     1
 43
0.0
 10
412.9583821284105
 20
647.4370673185535
 10
412.9583821284105
 20
647.4370673185535
 42
-0.4142135623730951
 10
411.2083821284105
 20
645.6870673185535
 10
399.7083821284105
 20
645.6870673185535
 42
-0.4142135623730951
 10
397.9583821284105
 20
647.4370673185535
 10
397.9583821284105
 20
647.4370673185535
 42
-0.4142135623730951
 10
399.7083821284105
 20
649.1870673185535
 10
411.2083821284105
 20
649.1870673185535
 42
-0.4142135623730951
  0
LWPOLYLINE
  5
8FAE
330
18
100
AcDbEntity
  8
0
100
AcDbPolyline
 90
        8
 70
     1
 43
0.0
 10
412.9583821284105
 20
640.9370673185535
 10
412.9583821284105
 20
640.9370673185535
 42
-0.4142135623730951
 10
411.2083821284105
 20
639.1870673185535
 10
399.7083821284105
 20
639.1870673185535
 42
-0.4142135623730951
 10
397.9583821284105
 20
640.9370673185535
 10
397.9583821284105
 20
640.9370673185535
 42
-0.4142135623730951
 10
399.7083821284105
 20
642.6870673185535
 10
411.2083821284105
 20
642.6870673185535
 42
-0.4142135623730951
  0
LWPOLYLINE
  5
8FAF
330
18
100
AcDbEntity
  8
0
100
AcDbPolyline
 90
        8
 70
     1
 43
0.0
 10
412.9583821284105
 20
634.4370673185535
 10
412.9583821284105
 20
634.4370673185535
 42
-0.4142135623730951
 10
411.2083821284105
 20
632.6870673185535
 10
399.7083821284105
 20
632.6870673185535
 42
-0.4142135623730951
 10
397.9583821284105
 20
634.4370673185535
 10
397.9583821284105
 20
634.4370673185535
 42
-0.4142135623730951
 10
399.7083821284105
 20
636.1870673185535
 10
411.2083821284105
 20
636.1870673185535
 42
-0.4142135623730951
  0
LWPOLYLINE
  5
8FB0
330
18
100
AcDbEntity
  8
0
100
AcDbPolyline
 90
        8
 70
     1
 43
0.0
 10
390.9583821284105
 20
621.4370673185535
 10
390.9583821284105
 20
621.4370673185535
 42
-0.4142135623730951
 10
389.2083821284105
 20
619.6870673185535
 10
377.7083821284105
 20
619.6870673185535
 42
-0.4142135623730951
 10
375.9583821284105
 20
621.4370673185535
 10
375.9583821284105
 20
621.4370673185535
 42
-0.4142135623730951
 10
377.7083821284105
 20
623.1870673185535
 10
389.2083821284105
 20
623.1870673185535
 42
-0.4142135623730951
  0
LWPOLYLINE
  5
8FB1
330
18
100
AcDbEntity
  8
0
100
AcDbPolyline
 90
        8
 70
     1
 43
0.0
 10
390.9583821284105
 20
627.9370673185535
 10
390.9583821284105
 20
627.9370673185535
 42
-0.4142135623730951
 10
389.2083821284105
 20
626.1870673185535
 10
377.7083821284105
 20
626.1870673185535
 42
-0.4142135623730951
 10
375.9583821284105
 20
627.9370673185535
 10
375.9583821284105
 20
627.9370673185535
 42
-0.4142135623730951
 10
377.7083821284105
 20
629.6870673185535
 10
389.2083821284105
 20
629.6870673185535
 42
-0.4142135623730951
  0
LWPOLYLINE
  5
8FB2
330
18
100
AcDbEntity
  8
0
100
AcDbPolyline
 90
        8
 70
     1
 43
0.0
 10
346.9583821284105
 20
621.4370673185535
 10
346.9583821284105
 20
621.4370673185535
 42
-0.4142135623730951
 10
345.2083821284105
 20
619.6870673185535
 10
333.7083821284105
 20
619.6870673185535
 42
-0.4142135623730951
 10
331.9583821284105
 20
621.4370673185535
 10
331.9583821284105
 20
621.4370673185535
 42
-0.4142135623730951
 10
333.7083821284105
 20
623.1870673185535
 10
345.2083821284105
 20
623.1870673185535
 42
-0.4142135623730951
  0
LWPOLYLINE
  5
8FB3
330
18
100
AcDbEntity
  8
0
100
AcDbPolyline
 90
        8
 70
     1
 43
0.0
 10
346.9583821284105
 20
627.9370673185535
 10
346.9583821284105
 20
627.9370673185535
 42
-0.4142135623730951
 10
345.2083821284105
 20
626.1870673185535
 10
333.7083821284105
 20
626.1870673185535
 42
-0.4142135623730951
 10
331.9583821284105
 20
627.9370673185535
 10
331.9583821284105
 20
627.9370673185535
 42
-0.4142135623730951
 10
333.7083821284105
 20
629.6870673185535
 10
345.2083821284105
 20
629.6870673185535
 42
-0.4142135623730951
  0
LWPOLYLINE
  5
8FB4
330
18
100
AcDbEntity
  8
0
100
AcDbPolyline
 90
        8
 70
     1
 43
0.0
 10
324.9583821284105
 20
621.4370673185535
 10
324.9583821284105
 20
621.4370673185535
 42
-0.4142135623730951
 10
323.2083821284105
 20
619.6870673185535
 10
311.7083821284105
 20
619.6870673185535
 42
-0.4142135623730951
 10
309.9583821284105
 20
621.4370673185535
 10
309.9583821284105
 20
621.4370673185535
 42
-0.4142135623730951
 10
311.7083821284105
 20
623.1870673185535
 10
323.2083821284105
 20
623.1870673185535
 42
-0.4142135623730951
  0
LWPOLYLINE
  5
8FB5
330
18
100
AcDbEntity
  8
0
100
AcDbPolyline
 90
        8
 70
     1
 43
0.0
 10
324.9583821284105
 20
627.9370673185535
 10
324.9583821284105
 20
627.9370673185535
 42
-0.4142135623730951
 10
323.2083821284105
 20
626.1870673185535
 10
311.7083821284105
 20
626.1870673185535
 42
-0.4142135623730951
 10
309.9583821284105
 20
627.9370673185535
 10
309.9583821284105
 20
627.9370673185535
 42
-0.4142135623730951
 10
311.7083821284105
 20
629.6870673185535
 10
323.2083821284105
 20
629.6870673185535
 42
-0.4142135623730951
  0
LWPOLYLINE
  5
8FB7
330
18
100
AcDbEntity
  8
0
100
AcDbPolyline
 90
        8
 70
     1
 43
0.0
 10
368.9583821284105
 20
621.4370673185535
 10
368.9583821284105
 20
621.4370673185535
 42
-0.4142135623730951
 10
367.2083821284105
 20
619.6870673185535
 10
355.7083821284105
 20
619.6870673185535
 42
-0.4142135623730951
 10
353.9583821284105
 20
621.4370673185535
 10
353.9583821284105
 20
621.4370673185535
 42
-0.4142135623730951
 10
355.7083821284105
 20
623.1870673185535
 10
367.2083821284105
 20
623.1870673185535
 42
-0.4142135623730951
  0
LWPOLYLINE
  5
8FB8
330
18
100
AcDbEntity
  8
0
100
AcDbPolyline
 90
        8
 70
     1
 43
0.0
 10
368.9583821284105
 20
627.9370673185535
 10
368.9583821284105
 20
627.9370673185535
 42
-0.4142135623730951
 10
367.2083821284105
 20
626.1870673185535
 10
355.7083821284105
 20
626.1870673185535
 42
-0.4142135623730951
 10
353.9583821284105
 20
627.9370673185535
 10
353.9583821284105
 20
627.9370673185535
 42
-0.4142135623730951
 10
355.7083821284105
 20
629.6870673185535
 10
367.2083821284105
 20
629.6870673185535
 42
-0.4142135623730951
  0
LWPOLYLINE
  5
8FB9
330
18
100
AcDbEntity
  8
0
100
AcDbPolyline
 90
        8
 70
     1
 43
0.0
 10
434.9583821284105
 20
621.4370673185535
 10
434.9583821284105
 20
621.4370673185535
 42
-0.4142135623730951
 10
433.2083821284105
 20
619.6870673185535
 10
421.7083821284105
 20
619.6870673185535
 42
-0.4142135623730951
 10
419.9583821284106
 20
621.4370673185535
 10
419.9583821284106
 20
621.4370673185535
 42
-0.4142135623730951
 10
421.7083821284105
 20
623.1870673185535
 10
433.2083821284105
 20
623.1870673185535
 42
-0.4142135623730951
  0
LWPOLYLINE
  5
8FBA
330
18
100
AcDbEntity
  8
0
100
AcDbPolyline
 90
        8
 70
     1
 43
0.0
 10
434.9583821284105
 20
627.9370673185535
 10
434.9583821284105
 20
627.9370673185535
 42
-0.4142135623730951
 10
433.2083821284105
 20
626.1870673185535
 10
421.7083821284105
 20
626.1870673185535
 42
-0.4142135623730951
 10
419.9583821284106
 20
627.9370673185535
 10
419.9583821284106
 20
627.9370673185535
 42
-0.4142135623730951
 10
421.7083821284105
 20
629.6870673185535
 10
433.2083821284105
 20
629.6870673185535
 42
-0.4142135623730951
  0
LWPOLYLINE
  5
8FBB
330
18
100
AcDbEntity
  8
0
100
AcDbPolyline
 90
        8
 70
     1
 43
0.0
 10
412.9583821284105
 20
621.4370673185535
 10
412.9583821284105
 20
621.4370673185535
 42
-0.4142135623730951
 10
411.2083821284105
 20
619.6870673185535
 10
399.7083821284105
 20
619.6870673185535
 42
-0.4142135623730951
 10
397.9583821284105
 20
621.4370673185535
 10
397.9583821284105
 20
621.4370673185535
 42
-0.4142135623730951
 10
399.7083821284105
 20
623.1870673185535
 10
411.2083821284105
 20
623.1870673185535
 42
-0.4142135623730951
  0
LWPOLYLINE
  5
8FBC
330
18
100
AcDbEntity
  8
0
100
AcDbPolyline
 90
        8
 70
     1
 43
0.0
 10
412.9583821284105
 20
627.9370673185535
 10
412.9583821284105
 20
627.9370673185535
 42
-0.4142135623730951
 10
411.2083821284105
 20
626.1870673185535
 10
399.7083821284105
 20
626.1870673185535
 42
-0.4142135623730951
 10
397.9583821284105
 20
627.9370673185535
 10
397.9583821284105
 20
627.9370673185535
 42
-0.4142135623730951
 10
399.7083821284105
 20
629.6870673185535
 10
411.2083821284105
 20
629.6870673185535
 42
-0.4142135623730951
  0
LINE
  5
9352
330
18
100
AcDbEntity
  8
0
100
AcDbLine
 10
438.9583821284105
 20
771.9370673185535
 30
0.0
 11
438.9583821284105
 21
772.9370673185536
 31
0.0
  0
LINE
  5
9353
330
18
100
AcDbEntity
  8
0
100
AcDbLine
 10
437.9583821284105
 20
772.9370673185536
 30
0.0
 11
438.9583821284105
 21
772.9370673185536
 31
0.0
  0
LINE
  5
9AA4
330
18
100
AcDbEntity
  8
0
100
AcDbLine
 10
293.67597266335
 20
646.359251525599
 30
0.0
 11
341.6759726633499
 21
646.359251525599
 31
0.0
  0
TEXT
  5
9AA5
330
18
100
AcDbEntity
  8
0
100
AcDbText
 10
332.2603515537963
 20
648.1894097836672
 30
0.0
 40
1.0
  1
MADE　IN　JAPAN
 41
0.8
  7
MSｺﾞｼｯｸ
 11
332.2603515537963
 21
648.6894097836672
 31
0.0
100
AcDbText
 73
     2
  0
TEXT
  5
9AA7
330
18
100
AcDbEntity
  8
0
100
AcDbText
 10
295.1469708755051
 20
678.1082419553217
 30
0.0
 40
2.5
  1
MODEL:NCR-DAB0A2C-401-UL
 41
1.1
  7
MSｺﾞｼｯｸ
 11
295.1469708755051
 21
679.3582419553217
 31
0.0
100
AcDbText
 73
     2
  0
LINE
  5
9AA8
330
18
100
AcDbEntity
  8
0
100
AcDbLine
 10
293.67597266335
 20
687.209251525599
 30
0.0
 11
341.6759726633499
 21
687.2092515255991
 31
0.0
  0
LINE
  5
9AA9
330
18
100
AcDbEntity
  8
0
100
AcDbLine
 10
292.6759726633499
 20
688.209251525599
 30
0.0
 11
342.6759726633499
 21
688.209251525599
 31
0.0
  0
LINE
  5
9AAA
330
18
100
AcDbEntity
  8
0
100
AcDbLine
 10
293.67597266335
 20
681.209251525599
 30
0.0
 11
341.6759726633499
 21
681.2092515255991
 31
0.0
  0
LINE
  5
9AAB
330
18
100
AcDbEntity
  8
0
100
AcDbLine
 10
292.6759726633499
 20
646.209251525599
 30
0.0
 11
342.6759726633499
 21
646.209251525599
 31
0.0
  0
LINE
  5
9AAE
330
18
100
AcDbEntity
  8
0
100
AcDbLine
 10
293.67597266335
 20
687.209251525599
 30
0.0
 11
293.67597266335
 21
646.359251525599
 31
0.0
  0
LINE
  5
9AAF
330
18
100
AcDbEntity
  8
0
100
AcDbLine
 10
292.6759726633499
 20
688.209251525599
 30
0.0
 11
292.6759726633499
 21
646.209251525599
 31
0.0
  0
TEXT
  5
9AB0
330
18
100
AcDbEntity
  8
0
100
AcDbText
 10
305.9890112372321
 20
675.999648585583
 30
0.0
 40
1.5
  1
Mot.:×　　EX.:-×××　　
  7
MSｺﾞｼｯｸ
 11
305.9890112372321
 21
676.749648585583
 31
0.0
100
AcDbText
 73
     2
  0
TEXT
  5
9AB1
330
18
100
AcDbEntity
  8
0
100
AcDbText
 10
302.6656195035854
 20
646.9152164935461
 30
0.0
 40
1.5
  1
NIKKI　DENSO　CO.,LTD.
  7
MSｺﾞｼｯｸ
 11
302.6656195035854
 21
647.6652164935461
 31
0.0
100
AcDbText
 73
     2
  0
LINE
  5
9ABB
102
{ACAD_REACTORS
330
9ABF
102
}
330
18
100
AcDbEntity
  8
0
100
AcDbLine
 10
298.2296901010207
 20
649.1245141067056
 30
0.0
 11
300.8394813594189
 21
649.1245141067056
 31
0.0
  0
LINE
  5
9ABC
102
{ACAD_REACTORS
330
9ABF
102
}
330
18
100
AcDbEntity
  8
0
100
AcDbLine
 10
301.0258950207331
 20
650.5226165665616
 30
0.0
 11
297.7636559477352
 21
649.4973414293339
 31
0.0
  0
LINE
  5
9ABD
102
{ACAD_REACTORS
330
9ABF
102
}
330
18
100
AcDbEntity
  8
0
100
AcDbLine
 10
295.8995193345939
 20
650.5226165665616
 30
0.0
 11
301.0258950207331
 21
650.5226165665616
 31
0.0
  0
LINE
  5
9ABE
102
{ACAD_REACTORS
330
9ABF
102
}
330
18
100
AcDbEntity
  8
0
100
AcDbLine
 10
295.4334851813086
 20
646.7943433402787
 30
0.0
 11
300.5598608674477
 21
646.7943433402787
 31
0.0
  0
HATCH
  5
9ABF
330
18
100
AcDbEntity
  8
0
100
AcDbHatch
 10
0.0
 20
0.0
 30
0.0
210
0.0
220
0.0
230
1.0
  2
ANSI37
 70
     0
 71
     1
 91
        2
 92
       17
 93
        1
 72
     2
 10
298.2296901010207
 20
648.4254628767774
 40
0.699051229928066
 50
0.0
 51
360.0
 73
     1
 97
        1
330
9AC3
 92
        1
 93
        8
 72
     2
 10
298.2307739013773
 20
648.4276304774905
 40
1.167253487083373
 50
113.5897772726313
 51
269.9468005914085
 73
     1
 72
     2
 10
298.2296901010207
 20
648.1924458001347
 40
0.9320683065707545
 50
270.0
 51
450.0
 73
     1
 72
     1
 10
298.2296901010207
 20
649.1245141067056
 11
300.8394813594189
 21
649.1245141067056
 72
     1
 10
300.8394813594189
 20
649.1245141067056
 11
300.5598608674477
 21
646.7943433402787
 72
     1
 10
300.5598608674477
 20
646.7943433402787
 11
295.4334851813086
 21
646.7943433402787
 72
     1
 10
295.4334851813086
 20
646.7943433402787
 11
295.8995193345939
 21
650.5226165665616
 72
     1
 10
295.8995193345939
 20
650.5226165665616
 11
301.0258950207331
 21
650.5226165665616
 72
     1
 10
301.0258950207331
 20
650.5226165665616
 11
297.7636559477352
 21
649.4973414293339
 97
        8
330
9AC0
330
9AC2
330
9ABB
330
9AC4
330
9ABE
330
9AC1
330
9ABD
330
9ABC
 75
     0
 76
     1
 52
360.0
 41
0.7456546452566037
 77
     0
 78
     2
 53
44.99999999999999
 43
63.78401212438149
 44
651.3106562509467
 45
-0.0659071820105242
 46
0.0659071820105243
 79
     0
 53
134.9999999999999
 43
63.78401212438149
 44
651.3106562509467
 45
-0.0659071820105243
 46
-0.0659071820105242
 79
     0
 98
        1
 10
63.78401212438149
 20
651.3106562509467
  0
ARC
  5
9AC0
102
{ACAD_REACTORS
330
9ABF
102
}
330
18
100
AcDbEntity
  8
0
100
AcDbCircle
 10
298.2307739013773
 20
648.4276304774905
 30
0.0
 40
1.167253487083373
100
AcDbArc
 50
113.5897772726313
 51
269.9468005914085
  0
LINE
  5
9AC1
102
{ACAD_REACTORS
330
9ABF
102
}
330
18
100
AcDbEntity
  8
0
100
AcDbLine
 10
295.4334851813086
 20
646.7943433402787
 30
0.0
 11
295.8995193345939
 21
650.5226165665616
 31
0.0
  0
ARC
  5
9AC2
102
{ACAD_REACTORS
330
9ABF
102
}
330
18
100
AcDbEntity
  8
0
100
AcDbCircle
 10
298.2296901010207
 20
648.1924458001347
 30
0.0
 40
0.9320683065707545
100
AcDbArc
 50
270.0
 51
90.0
  0
CIRCLE
  5
9AC3
102
{ACAD_REACTORS
330
9ABF
102
}
330
18
100
AcDbEntity
  8
0
100
AcDbCircle
 10
298.2296901010207
 20
648.4254628767774
 30
0.0
 40
0.699051229928066
  0
LINE
  5
9AC4
102
{ACAD_REACTORS
330
9ABF
102
}
330
18
100
AcDbEntity
  8
0
100
AcDbLine
 10
300.5598608674477
 20
646.7943433402787
 30
0.0
 11
300.8394813594189
 21
649.1245141067056
 31
0.0
  0
MTEXT
  5
9ACE
330
18
100
AcDbEntity
  8
0
100
AcDbMText
 10
295.5969708755052
 20
686.1297133962434
 30
0.0
 40
4.0
 41
0.0
 71
     1
 72
     5
  1
AC SERVO DRIVER
  7
MSｺﾞｼｯｸ
 73
     1
 44
1.0
  0
LINE
  5
9ACF
330
18
100
AcDbEntity
  8
0
100
AcDbLine
 10
341.6759726633499
 20
687.2092515255991
 30
0.0
 11
341.6759726633499
 21
646.359251525599
 31
0.0
  0
LINE
  5
9AD0
330
18
100
AcDbEntity
  8
0
100
AcDbLine
 10
342.6759726633499
 20
688.209251525599
 30
0.0
 11
342.6759726633499
 21
646.209251525599
 31
0.0
  0
TEXT
  5
9D19
330
18
100
AcDbEntity
  8
0
100
AcDbText
 10
332.087039535012
 20
655.6105869615081
 30
0.0
 40
5.0
  1
XX
  7
MSｺﾞｼｯｸ
 11
332.087039535012
 21
658.1105869615081
 31
0.0
100
AcDbText
 73
     2
  0
TEXT
  5
9D1A
330
18
100
AcDbEntity
  8
0
100
AcDbText
 10
334.2031910111155
 20
663.072055612332
 30
0.0
 40
2.5
  1
Xxxx
  7
MSｺﾞｼｯｸ
 11
334.2031910111155
 21
664.3220556123319
 31
0.0
100
AcDbText
 73
     2
  0
TEXT
  5
9D1B
330
18
100
AcDbEntity
  8
0
100
AcDbText
 10
294.6954358556699
 20
661.4575885118653
 30
0.0
 40
1.5
  1
xxxxx     xxx  :xxxxxxxxxx
  7
MSｺﾞｼｯｸ
 11
294.6954358556699
 21
662.2075885118653
 31
0.0
100
AcDbText
 73
     2
  0
TEXT
  5
9D1C
330
18
100
AcDbEntity
  8
0
100
AcDbText
 10
294.7125696141513
 20
663.6016406117853
 30
0.0
 40
1.5
  1
xxxxxxxxx xxx  :xxxxxxxxxx
  7
MSｺﾞｼｯｸ
 11
294.7125696141513
 21
664.3516406117853
 31
0.0
100
AcDbText
 73
     2
  0
TEXT
  5
9D1D
330
18
100
AcDbEntity
  8
0
100
AcDbText
 10
294.7125696141513
 20
665.5738208930393
 30
0.0
 40
1.5
  1
xxxxx     xxx  :xxxxxxxxxx
  7
MSｺﾞｼｯｸ
 11
294.7125696141513
 21
666.3238208930392
 31
0.0
100
AcDbText
 73
     2
  0
TEXT
  5
9D1E
330
18
100
AcDbEntity
  8
0
100
AcDbText
 10
294.7160053009117
 20
667.6757588609546
 30
0.0
 40
1.5
  1
xxxxxxx xxxxx:xxxxxxxxxx
  7
MSｺﾞｼｯｸ
 11
294.7160053009117
 21
668.4257588609546
 31
0.0
100
AcDbText
 73
     2
  0
TEXT
  5
9D1F
330
18
100
AcDbEntity
  8
0
100
AcDbText
 10
294.718754391213
 20
669.5653897385092
 30
0.0
 40
1.5
  1
xxx     xxxxx:xxxxxxxxxx
  7
MSｺﾞｼｯｸ
 11
294.718754391213
 21
670.3153897385092
 31
0.0
100
AcDbText
 73
     2
  0
TEXT
  5
9D20
330
18
100
AcDbEntity
  8
0
100
AcDbText
 10
294.7217201851263
 20
673.5642532530315
 30
0.0
 40
1.5
  1
xx　    xxxxx:xxxxxxxxxx
  7
MSｺﾞｼｯｸ
 11
294.7217201851263
 21
674.3142532530315
 31
0.0
100
AcDbText
 73
     2
  0
TEXT
  5
9D21
330
18
100
AcDbEntity
  8
0
100
AcDbText
 10
308.3961189891695
 20
671.5642532530315
 30
0.0
 40
1.5
  1
xxxxxxx
  7
MSｺﾞｼｯｸ
 11
308.3961189891695
 21
672.3142532530316
 31
0.0
100
AcDbText
 73
     2
  0
TEXT
  5
9D22
330
18
100
AcDbEntity
  8
0
100
AcDbText
 10
301.6552542680093
 20
654.7372808149243
 30
0.0
 40
2.5
  1
Xxxx xxxxx
  7
MSｺﾞｼｯｸ
 11
301.6552542680093
 21
655.9872808149243
 31
0.0
100
AcDbText
 73
     2
  0
TEXT
  5
9D23
330
18
100
AcDbEntity
  8
0
100
AcDbText
 10
302.5092908897609
 20
649.0412003972257
 30
0.0
 40
1.5
  1
xxxxxxx.xx.xxxx
 41
0.8
  7
MSｺﾞｼｯｸ
 11
302.5092908897609
 21
649.7912003972256
 31
0.0
100
AcDbText
 73
     2
  0
TEXT
  5
9D24
330
18
100
AcDbEntity
  8
0
100
AcDbText
 10
302.6066604682209
 20
650.9272946838965
 30
0.0
 40
1.5
  1
xxx.xxxx.xx
 41
0.8
  7
MSｺﾞｼｯｸ
 11
302.6066604682209
 21
651.6772946838965
 31
0.0
100
AcDbText
 73
     2
  0
TEXT
  5
9D25
330
18
100
AcDbEntity
  8
0
100
AcDbText
 10
327.0303539546334
 20
652.4513934426113
 30
0.0
 40
1.0
  1
xxx xxxxxx
 41
0.8
  7
MSｺﾞｼｯｸ
 11
327.0303539546334
 21
652.9513934426113
 31
0.0
100
AcDbText
 73
     2
  0
TEXT
  5
9D26
330
18
100
AcDbEntity
  8
0
100
AcDbText
 10
327.0303539546334
 20
651.2141795625297
 30
0.0
 40
1.0
  1
xxx xxxxx xxxxx
 41
0.8
  7
MSｺﾞｼｯｸ
 11
327.0303539546334
 21
651.7141795625298
 31
0.0
100
AcDbText
 73
     2
  0
TEXT
  5
9D27
330
18
100
AcDbEntity
  8
0
100
AcDbText
 10
327.0303539546334
 20
649.8532442516092
 30
0.0
 40
1.0
  1
xxx xxxxx xxxxx xxxxx
 41
0.8
  7
MSｺﾞｼｯｸ
 11
327.0303539546334
 21
650.3532442516092
 31
0.0
100
AcDbText
 73
     2
  0
TEXT
  5
9D28
330
18
100
AcDbEntity
  8
0
100
AcDbText
 10
332.2635932884146
 20
646.6540615076851
 30
0.0
 40
1.0
  1
xx-xxxxxx
 41
0.8
  7
MSｺﾞｼｯｸ
 11
332.2635932884146
 21
647.1540615076851
 31
0.0
100
AcDbText
 73
     2
  0
TEXT
  5
9D58
330
18
100
AcDbEntity
  8
0
100
AcDbText
 10
440.1372430605115
 20
551.5911203703482
 30
0.0
 40
6.0
  1
ＮＣＲ－＊Ａ＊＊Ａ２Ｄ－８０１－ＵＬ　＊
 41
0.6
  7
MSｺﾞｼｯｸ
100
AcDbText
  0
TEXT
  5
9D59
330
18
100
AcDbEntity
  8
0
100
AcDbText
 10
462.1248113829576
 20
540.7962429047554
 30
0.0
 40
6.0
  1
VC外形図 CC-Link付
  7
MSｺﾞｼｯｸ
100
AcDbText
  0
TEXT
  5
9D5A
330
18
100
AcDbEntity
  8
0
100
AcDbText
 10
461.1902027077112
 20
529.4383361369083
 30
0.0
 40
7.0
  1
ＳＥ－４９９８０
 41
0.9529999999999999
  7
MSｺﾞｼｯｸ
100
AcDbText
  0
VIEWPORT
  5
9DB2
330
9DAE
100
AcDbEntity
 67
     1
  8
0
100
AcDbViewport
 10
202.4999999999999
 20
128.4999999999999
 30
0.0
 40
486.0
 41
308.3999999999999
 68
     1
 69
     1
 12
202.4999999999999
 22
128.4999999999999
 13
0.0
 23
0.0
 14
0.5
 24
0.5
 15
0.0
 25
0.0
 16
0.0
 26
0.0
 36
1.0
 17
0.0
 27
0.0
 37
0.0
 42
50.0
 43
0.0
 44
0.0
 45
308.3999999999999
 50
0.0
 51
0.0
 72
   100
 90
    32864
  1

281
     0
 71
     1
 74
     0
110
0.0
120
0.0
130
0.0
111
1.0
121
0.0
131
0.0
112
0.0
122
1.0
132
0.0
 79
     0
146
0.0
  0
VIEWPORT
  5
9DB3
330
9DAE
100
AcDbEntity
 67
     1
  8
0
100
AcDbViewport
 10
202.4999999999999
 20
128.4999999999999
 30
0.0
 40
324.0
 41
205.6
 68
     2
 69
     2
 12
272.9613841057806
 22
732.6138164019371
 13
0.0
 23
0.0
 14
0.5
 24
0.5
 15
0.0
 25
0.0
 16
0.0
 26
0.0
 36
1.0
 17
0.0
 27
0.0
 37
0.0
 42
50.0
 43
0.0
 44
0.0
 45
414.4779797406588
 50
0.0
 51
0.0
 72
   100
 90
    32864
  1

281
     0
 71
     1
 74
     0
110
0.0
120
0.0
130
0.0
111
1.0
121
0.0
131
0.0
112
0.0
122
1.0
132
0.0
 79
     0
146
0.0
  0
ENDSEC
  0
SECTION
  2
OBJECTS
  0
DICTIONARY
  5
C
330
0
100
AcDbDictionary
281
     1
  3
ACAD_GROUP
350
D
  3
ACAD_IMAGE_VARS
350
9DAC
  3
ACAD_LAYOUT
350
73F
  3
ACAD_MLINESTYLE
350
1B
  3
ACAD_PLOTSETTINGS
350
740
  3
ACAD_PLOTSTYLENAME
350
73D
  3
ACAD_SCALELIST
350
9D80
  3
AcadDim
350
61D4
  3
AcDbVariableDictionary
350
7046
  3
APPDATA
350
9DAA
  3
DWGPROPS
350
9DB6
  0
DICTIONARY
  5
9A57
330
2
100
AcDbDictionary
280
     1
281
     1
  3
ACAD_LAYERFILTERS
360
9A58
  3
ACAD_LAYERSTATES
360
9A66
  0
DICTIONARY
  5
D
102
{ACAD_REACTORS
330
C
102
}
330
C
100
AcDbDictionary
281
     1
  0
RASTERVARIABLES
  5
9DAC
102
{ACAD_REACTORS
330
C
102
}
330
C
100
AcDbRasterVariables
 90
        0
 70
     1
 71
     1
 72
     0
  0
DICTIONARY
  5
73F
102
{ACAD_REACTORS
330
C
102
}
330
C
100
AcDbDictionary
281
     1
  3
Model
350
741
  3
Sheet1
350
9DAF
  0
DICTIONARY
  5
1B
102
{ACAD_REACTORS
330
C
102
}
330
C
100
AcDbDictionary
281
     1
  3
STANDARD
350
1C
  0
DICTIONARY
  5
740
102
{ACAD_REACTORS
330
C
102
}
330
C
100
AcDbDictionary
281
     1
  0
ACDBDICTIONARYWDFLT
  5
73D
102
{ACAD_REACTORS
330
C
102
}
330
C
100
AcDbDictionary
281
     1
  3
Normal
350
73E
100
AcDbDictionaryWithDefault
340
73E
  0
DICTIONARY
  5
9D80
102
{ACAD_REACTORS
330
C
102
}
330
C
100
AcDbDictionary
281
     1
  3
A0
350
9D81
  3
A1
350
9D82
  3
A2
350
9D83
  3
A3
350
9D84
  3
A4
350
9D85
  3
A5
350
9D86
  3
A6
350
9D87
  3
A7
350
9D88
  3
A8
350
9D89
  3
A9
350
9D8A
  3
B0
350
9D8B
  3
B1
350
9D8C
  3
B2
350
9D8D
  3
B3
350
9D8E
  3
B4
350
9D8F
  3
B5
350
9D90
  3
B6
350
9D91
  3
B7
350
9D92
  3
B8
350
9D93
  3
B9
350
9D94
  3
C0
350
9D95
  3
C1
350
9D96
  3
C2
350
9D97
  3
C3
350
9D98
  3
C4
350
9D99
  3
C5
350
9D9A
  3
C6
350
9D9B
  3
C7
350
9D9C
  3
C8
350
9D9D
  3
C9
350
9D9E
  3
D0
350
9D9F
  3
D1
350
9DA0
  3
D2
350
9DA1
  0
XRECORD
  5
61D4
102
{ACAD_REACTORS
330
C
102
}
330
C
100
AcDbXrecord
280
     1
 90
   990106
  3

 60
     0
 61
     0
 62
     1
 63
     3
 64
     0
 65
     0
 66
     0
 67
     3
 68
     1
 69
     0
 70
     0
 71
     0
 72
     0
 40
0.0
170
     0
  0
DICTIONARY
  5
7046
102
{ACAD_REACTORS
330
C
102
}
330
C
100
AcDbDictionary
281
     1
  3
DIMASSOC
350
7047
  0
DICTIONARY
  5
9DAA
102
{ACAD_REACTORS
330
C
102
}
330
C
100
AcDbDictionary
281
     1
  0
XRECORD
  5
9DB6
102
{ACAD_REACTORS
330
C
102
}
330
C
100
AcDbXrecord
280
     1
  1
DWGPROPS COOKIE
  2

  3

  4

  6

  7

  8
k-yoshida
  9

300
=
301
=
302
=
303
=
304
=
305
=
306
=
307
=
308
=
309
=
 40
0.0
 41
2451224.285162384
 42
2457315.113869861
  1

 90
        0
  0
DICTIONARY
  5
9A58
102
{ACAD_REACTORS
330
9A57
102
}
330
9A57
100
AcDbDictionary
280
     1
281
     1
  3
0
360
9A59
  3
11
360
9A5A
  3
150_
360
9A5B
  3
160_
360
9A5C
  3
170_
360
9A5D
  3
171_
360
9A5E
  3
350_
360
9A5F
  3
4
360
9A60
  3
5
360
9A61
  3
7
360
9A62
  3
kiseki
360
9A63
  0
DICTIONARY
  5
9A66
102
{ACAD_REACTORS
330
9A57
102
}
330
9A57
100
AcDbDictionary
281
     1
  0
LAYOUT
  5
741
102
{ACAD_REACTORS
330
73F
102
}
330
73F
100
AcDbPlotSettings
  1

  2
HP DesignJet 750C (D/A1) Color
  4
ISO_A3_(420.00_x_297.00_MM)
  6

 40
7.5
 41
20.0
 42
7.5
 43
20.0
 44
420.0
 45
297.0
 46
0.0
 47
0.0
 48
0.0
 49
0.0
140
0.0
141
0.0
142
1.0
143
1.861539220495258
 70
  1712
 72
     1
 73
     0
 74
     0
  7

 75
     0
147
0.5371898636301373
148
-11.57345260758785
149
-492.777178397214
100
AcDbLayout
  1
Model
 70
     1
 71
     0
 10
0.0
 20
0.0
 11
12.0
 21
9.0
 12
0.0
 22
0.0
 32
0.0
 14
13.39512515104979
 24
529.4383361369083
 34
0.0
 15
532.5276430605115
 25
935.7892966669661
 35
0.0
146
0.0
 13
0.0
 23
0.0
 33
0.0
 16
1.0
 26
0.0
 36
0.0
 17
0.0
 27
1.0
 37
0.0
 76
     0
330
18
  0
LAYOUT
  5
9DAF
102
{ACAD_REACTORS
330
73F
102
}
330
73F
100
AcDbPlotSettings
  1

  2
none_device
  4
ISO_A3_(420.00_x_297.00_MM)
  6

 40
7.5
 41
20.0
 42
7.5
 43
20.0
 44
420.0
 45
297.0
 46
0.0
 47
0.0
 48
0.0
 49
0.0
140
0.0
141
0.0
142
1.0
143
1.0
 70
   688
 72
     1
 73
     0
 74
     5
  7

 75
    16
147
1.0
148
0.0
149
0.0
100
AcDbLayout
  1
Sheet1
 70
     1
 71
     1
 10
0.0
 20
0.0
 11
0.0
 21
0.0
 12
0.0
 22
0.0
 32
0.0
 14
40.49999999999999
 24
25.69999999999998
 34
0.0
 15
364.5
 25
231.3
 35
0.0
146
0.0
 13
0.0
 23
0.0
 33
0.0
 16
1.0
 26
0.0
 36
0.0
 17
0.0
 27
1.0
 37
0.0
 76
     0
330
9DAE
331
9DB2
  0
MLINESTYLE
  5
1C
102
{ACAD_REACTORS
330
1B
102
}
330
1B
100
AcDbMlineStyle
  2
STANDARD
 70
     0
  3

 62
   256
 51
90.0
 52
90.0
 71
     2
 49
0.5
 62
   256
  6
BYLAYER
 49
-0.5
 62
   256
  6
BYLAYER
  0
ACDBPLACEHOLDER
  5
73E
102
{ACAD_REACTORS
330
73D
102
}
330
73D
  0
ACAD_PROXY_OBJECT
  5
9D81
102
{ACAD_REACTORS
330
9D80
102
}
330
9D80
100
AcDbProxyObject
 90
      499
 91
      507
 95
   655383
 70
     0
 93
       41
310
903313A31581
 94
        0
  0
ACAD_PROXY_OBJECT
  5
9D82
102
{ACAD_REACTORS
330
9D80
102
}
330
9D80
100
AcDbProxyObject
 90
      499
 91
      507
 95
   655383
 70
     0
 93
      105
310
903313A324000000000000004042
 94
        0
  0
ACAD_PROXY_OBJECT
  5
9D83
102
{ACAD_REACTORS
330
9D80
102
}
330
9D80
100
AcDbProxyObject
 90
      499
 91
      507
 95
   655383
 70
     0
 93
      105
310
903313A344000000000000104042
 94
        0
  0
ACAD_PROXY_OBJECT
  5
9D84
102
{ACAD_REACTORS
330
9D80
102
}
330
9D80
100
AcDbProxyObject
 90
      499
 91
      507
 95
   655383
 70
     0
 93
      105
310
903313A354000000000000144042
 94
        0
  0
ACAD_PROXY_OBJECT
  5
9D85
102
{ACAD_REACTORS
330
9D80
102
}
330
9D80
100
AcDbProxyObject
 90
      499
 91
      507
 95
   655383
 70
     0
 93
      105
310
903313A384000000000000204042
 94
        0
  0
ACAD_PROXY_OBJECT
  5
9D86
102
{ACAD_REACTORS
330
9D80
102
}
330
9D80
100
AcDbProxyObject
 90
      499
 91
      507
 95
   655383
 70
     0
 93
      113
310
904313A31304000000000000244064
 94
        0
  0
ACAD_PROXY_OBJECT
  5
9D87
102
{ACAD_REACTORS
330
9D80
102
}
330
9D80
100
AcDbProxyObject
 90
      499
 91
      507
 95
   655383
 70
     0
 93
      113
310
904313A31364000000000000304064
 94
        0
  0
ACAD_PROXY_OBJECT
  5
9D88
102
{ACAD_REACTORS
330
9D80
102
}
330
9D80
100
AcDbProxyObject
 90
      499
 91
      507
 95
   655383
 70
     0
 93
      113
310
904313A32304000000000000344064
 94
        0
  0
ACAD_PROXY_OBJECT
  5
9D89
102
{ACAD_REACTORS
330
9D80
102
}
330
9D80
100
AcDbProxyObject
 90
      499
 91
      507
 95
   655383
 70
     0
 93
      113
310
904313A333040000000000003E4064
 94
        0
  0
ACAD_PROXY_OBJECT
  5
9D8A
102
{ACAD_REACTORS
330
9D80
102
}
330
9D80
100
AcDbProxyObject
 90
      499
 91
      507
 95
   655383
 70
     0
 93
      113
310
904313A34304000000000000444064
 94
        0
  0
ACAD_PROXY_OBJECT
  5
9D8B
102
{ACAD_REACTORS
330
9D80
102
}
330
9D80
100
AcDbProxyObject
 90
      499
 91
      507
 95
   655383
 70
     0
 93
      113
310
904313A35304000000000000494064
 94
        0
  0
ACAD_PROXY_OBJECT
  5
9D8C
102
{ACAD_REACTORS
330
9D80
102
}
330
9D80
100
AcDbProxyObject
 90
      499
 91
      507
 95
   655383
 70
     0
 93
      121
310
905313A3130304000000000000594076
 94
        0
  0
ACAD_PROXY_OBJECT
  5
9D8D
102
{ACAD_REACTORS
330
9D80
102
}
330
9D80
100
AcDbProxyObject
 90
      499
 91
      507
 95
   655383
 70
     0
 93
      105
310
903323A310000000000000010159
 94
        0
  0
ACAD_PROXY_OBJECT
  5
9D8E
102
{ACAD_REACTORS
330
9D80
102
}
330
9D80
100
AcDbProxyObject
 90
      499
 91
      507
 95
   655383
 70
     0
 93
      105
310
903343A310000000000000410159
 94
        0
  0
ACAD_PROXY_OBJECT
  5
9D8F
102
{ACAD_REACTORS
330
9D80
102
}
330
9D80
100
AcDbProxyObject
 90
      499
 91
      507
 95
   655383
 70
     0
 93
      105
310
903383A310000000000000810159
 94
        0
  0
ACAD_PROXY_OBJECT
  5
9D90
102
{ACAD_REACTORS
330
9D80
102
}
330
9D80
100
AcDbProxyObject
 90
      499
 91
      507
 95
   655383
 70
     0
 93
      113
310
90431303A310000000000000910140
 94
        0
  0
ACAD_PROXY_OBJECT
  5
9D91
102
{ACAD_REACTORS
330
9D80
102
}
330
9D80
100
AcDbProxyObject
 90
      499
 91
      507
 95
   655383
 70
     0
 93
      121
310
9053130303A310000000000001650176
 94
        0
  0
ACAD_PROXY_OBJECT
  5
9D92
102
{ACAD_REACTORS
330
9D80
102
}
330
9D80
100
AcDbProxyObject
 90
      499
 91
      507
 95
   655383
 70
     0
 93
      257
310
90E312F31323822203D2031272D3022000000000000200FC000000000000284000
 94
        0
  0
ACAD_PROXY_OBJECT
  5
9D93
102
{ACAD_REACTORS
330
9D80
102
}
330
9D80
100
AcDbProxyObject
 90
      499
 91
      507
 95
   655383
 70
     0
 93
      249
310
90D312F363422203D2031272D3022000000000000240FC000000000000284040
 94
        0
  0
ACAD_PROXY_OBJECT
  5
9D94
102
{ACAD_REACTORS
330
9D80
102
}
330
9D80
100
AcDbProxyObject
 90
      499
 91
      507
 95
   655383
 70
     0
 93
      249
310
90D312F333222203D2031272D3022000000000000280FC000000000000284040
 94
        0
  0
ACAD_PROXY_OBJECT
  5
9D95
102
{ACAD_REACTORS
330
9D80
102
}
330
9D80
100
AcDbProxyObject
 90
      499
 91
      507
 95
   655383
 70
     0
 93
      249
310
90D312F313622203D2031272D30220000000000002C0FC000000000000284040
 94
        0
  0
ACAD_PROXY_OBJECT
  5
9D96
102
{ACAD_REACTORS
330
9D80
102
}
330
9D80
100
AcDbProxyObject
 90
      499
 91
      507
 95
   655383
 70
     0
 93
      249
310
90D332F333222203D2031272D30220000000000002E0FC000000000000284040
 94
        0
  0
ACAD_PROXY_OBJECT
  5
9D97
102
{ACAD_REACTORS
330
9D80
102
}
330
9D80
100
AcDbProxyObject
 90
      499
 91
      507
 95
   655383
 70
     0
 93
      241
310
90C312F3822203D2031272D3022000000000000300FC000000000000284040
 94
        0
  0
ACAD_PROXY_OBJECT
  5
9D98
102
{ACAD_REACTORS
330
9D80
102
}
330
9D80
100
AcDbProxyObject
 90
      499
 91
      507
 95
   655383
 70
     0
 93
      249
310
90D332F313622203D2031272D3022000000000000320FC000000000000284040
 94
        0
  0
ACAD_PROXY_OBJECT
  5
9D99
102
{ACAD_REACTORS
330
9D80
102
}
330
9D80
100
AcDbProxyObject
 90
      499
 91
      507
 95
   655383
 70
     0
 93
      241
310
90C312F3422203D2031272D3022000000000000340FC000000000000284040
 94
        0
  0
ACAD_PROXY_OBJECT
  5
9D9A
102
{ACAD_REACTORS
330
9D80
102
}
330
9D80
100
AcDbProxyObject
 90
      499
 91
      507
 95
   655383
 70
     0
 93
      241
310
90C332F3822203D2031272D3022000000000000360FC000000000000284040
 94
        0
  0
ACAD_PROXY_OBJECT
  5
9D9B
102
{ACAD_REACTORS
330
9D80
102
}
330
9D80
100
AcDbProxyObject
 90
      499
 91
      507
 95
   655383
 70
     0
 93
      241
310
90C312F3222203D2031272D3022000000000000380FC000000000000284040
 94
        0
  0
ACAD_PROXY_OBJECT
  5
9D9C
102
{ACAD_REACTORS
330
9D80
102
}
330
9D80
100
AcDbProxyObject
 90
      499
 91
      507
 95
   655383
 70
     0
 93
      241
310
90C332F3422203D2031272D30220000000000003A0FC000000000000284040
 94
        0
  0
ACAD_PROXY_OBJECT
  5
9D9D
102
{ACAD_REACTORS
330
9D80
102
}
330
9D80
100
AcDbProxyObject
 90
      499
 91
      507
 95
   655383
 70
     0
 93
      161
310
90A3122203D2031272D30224000000000000284020
 94
        0
  0
ACAD_PROXY_OBJECT
  5
9D9E
102
{ACAD_REACTORS
330
9D80
102
}
330
9D80
100
AcDbProxyObject
 90
      499
 91
      507
 95
   655383
 70
     0
 93
      257
310
90E312D312F3222203D2031272D30220000000000003E0FC000000000000284000
 94
        0
  0
ACAD_PROXY_OBJECT
  5
9D9F
102
{ACAD_REACTORS
330
9D80
102
}
330
9D80
100
AcDbProxyObject
 90
      499
 91
      507
 95
   655383
 70
     0
 93
      225
310
90A3322203D2031272D302200000000000002100000000000000284000
 94
        0
  0
ACAD_PROXY_OBJECT
  5
9DA0
102
{ACAD_REACTORS
330
9D80
102
}
330
9D80
100
AcDbProxyObject
 90
      499
 91
      507
 95
   655383
 70
     0
 93
      225
310
90A3622203D2031272D302200000000000006100000000000000284000
 94
        0
  0
ACAD_PROXY_OBJECT
  5
9DA1
102
{ACAD_REACTORS
330
9D80
102
}
330
9D80
100
AcDbProxyObject
 90
      499
 91
      507
 95
   655383
 70
     0
 93
      249
310
90D31272D3022203D2031272D30220000000000000A100000000000000284040
 94
        0
  0
DICTIONARYVAR
  5
7047
102
{ACAD_REACTORS
330
7046
102
}
330
7046
100
DictionaryVariables
280
     0
  1
1
  0
XRECORD
  5
9A59
102
{ACAD_REACTORS
330
9A58
102
}
330
9A58
100
AcDbXrecord
280
     1
  1
0
  1
*0
  1
*
  1
*
 70
     0
  1
*
  1
*
  0
XRECORD
  5
9A5A
102
{ACAD_REACTORS
330
9A58
102
}
330
9A58
100
AcDbXrecord
280
     1
  1
11
  1
*11
  1
*
  1
*
 70
     0
  1
*
  1
*
  0
XRECORD
  5
9A5B
102
{ACAD_REACTORS
330
9A58
102
}
330
9A58
100
AcDbXrecord
280
     1
  1
150_
  1
150_*
  1
*
  1
*
 70
     0
  1
*
  1
*
  0
XRECORD
  5
9A5C
102
{ACAD_REACTORS
330
9A58
102
}
330
9A58
100
AcDbXrecord
280
     1
  1
160_
  1
160_*
  1
*
  1
*
 70
     0
  1
*
  1
*
  0
XRECORD
  5
9A5D
102
{ACAD_REACTORS
330
9A58
102
}
330
9A58
100
AcDbXrecord
280
     1
  1
170_
  1
170_*
  1
*
  1
*
 70
     0
  1
*
  1
*
  0
XRECORD
  5
9A5E
102
{ACAD_REACTORS
330
9A58
102
}
330
9A58
100
AcDbXrecord
280
     1
  1
171_
  1
171_*
  1
*
  1
*
 70
     0
  1
*
  1
*
  0
XRECORD
  5
9A5F
102
{ACAD_REACTORS
330
9A58
102
}
330
9A58
100
AcDbXrecord
280
     1
  1
350_
  1
350_*
  1
*
  1
*
 70
     0
  1
*
  1
*
  0
XRECORD
  5
9A60
102
{ACAD_REACTORS
330
9A58
102
}
330
9A58
100
AcDbXrecord
280
     1
  1
4
  1
*4
  1
*
  1
*
 70
     0
  1
*
  1
*
  0
XRECORD
  5
9A61
102
{ACAD_REACTORS
330
9A58
102
}
330
9A58
100
AcDbXrecord
280
     1
  1
5
  1
*5
  1
*
  1
*
 70
     0
  1
*
  1
*
  0
XRECORD
  5
9A62
102
{ACAD_REACTORS
330
9A58
102
}
330
9A58
100
AcDbXrecord
280
     1
  1
7
  1
*7
  1
*
  1
*
 70
     0
  1
*
  1
*
  0
XRECORD
  5
9A63
102
{ACAD_REACTORS
330
9A58
102
}
330
9A58
100
AcDbXrecord
280
     1
  1
kiseki
  1
kiseki*
  1
*
  1
*
 70
     0
  1
*
  1
*
  0
ENDSEC
  0
EOF
