  0
SECTION
  2
HEADER
  9
$ACADVER
  1
AC1015
  9
$ACADMAINTVER
 70
    10
  9
$DWGCODEPAGE
  3
ANSI_932
  9
$INSBASE
 10
0.0
 20
0.0
 30
0.0
  9
$EXTMIN
 10
-54.63916534301313
 20
-96.15477430005253
 30
0.0
  9
$EXTMAX
 10
491.834957325519
 20
377.680444180938
 30
0.0
  9
$LIMMIN
 10
0.0
 20
0.0
  9
$LIMMAX
 10
420.0
 20
297.0
  9
$ORTHOMODE
 70
     0
  9
$REGENMODE
 70
     1
  9
$FILLMODE
 70
     1
  9
$QTEXTMODE
 70
     0
  9
$MIRRTEXT
 70
     1
  9
$LTSCALE
 40
1.0
  9
$ATTMODE
 70
     1
  9
$TEXTSIZE
 40
3.0
  9
$TRACEWID
 40
1.0
  9
$TEXTSTYLE
  7
STANDARD
  9
$CLAYER
  8
0
  9
$CELTYPE
  6
BYLAYER
  9
$CECOLOR
 62
   256
  9
$CELTSCALE
 40
1.0
  9
$DISPSILH
 70
     0
  9
$DIMSCALE
 40
1.0
  9
$DIMASZ
 40
4.5
  9
$DIMEXO
 40
1.0
  9
$DIMDLI
 40
5.0
  9
$DIMRND
 40
0.0
  9
$DIMDLE
 40
0.0
  9
$DIMEXE
 40
0.75
  9
$DIMTP
 40
0.0
  9
$DIMTM
 40
0.0
  9
$DIMTXT
 40
6.0
  9
$DIMCEN
 40
2.5
  9
$DIMTSZ
 40
0.0
  9
$DIMTOL
 70
     0
  9
$DIMLIM
 70
     0
  9
$DIMTIH
 70
     0
  9
$DIMTOH
 70
     0
  9
$DIMSE1
 70
     0
  9
$DIMSE2
 70
     0
  9
$DIMTAD
 70
     1
  9
$DIMZIN
 70
     9
  9
$DIMBLK
  1

  9
$DIMASO
 70
     1
  9
$DIMSHO
 70
     1
  9
$DIMPOST
  1

  9
$DIMAPOST
  1

  9
$DIMALT
 70
     0
  9
$DIMALTD
 70
     4
  9
$DIMALTF
 40
0.0394
  9
$DIMLFAC
 40
1.0
  9
$DIMTOFL
 70
     1
  9
$DIMTVP
 40
0.0
  9
$DIMTIX
 70
     0
  9
$DIMSOXD
 70
     0
  9
$DIMSAH
 70
     1
  9
$DIMBLK1
  1
OPEN
  9
$DIMBLK2
  1
OPEN
  9
$DIMSTYLE
  2
STANDARD
  9
$DIMCLRD
 70
     0
  9
$DIMCLRE
 70
     0
  9
$DIMCLRT
 70
     7
  9
$DIMTFAC
 40
1.0
  9
$DIMGAP
 40
1.0
  9
$DIMJUST
 70
     0
  9
$DIMSD1
 70
     0
  9
$DIMSD2
 70
     0
  9
$DIMTOLJ
 70
     1
  9
$DIMTZIN
 70
     9
  9
$DIMALTZ
 70
     0
  9
$DIMALTTZ
 70
     0
  9
$DIMUPT
 70
     0
  9
$DIMDEC
 70
     4
  9
$DIMTDEC
 70
     4
  9
$DIMALTU
 70
     8
  9
$DIMALTTD
 70
     4
  9
$DIMTXSTY
  7
STANDARD
  9
$DIMAUNIT
 70
     0
  9
$DIMADEC
 70
     0
  9
$DIMALTRND
 40
0.0
  9
$DIMAZIN
 70
     2
  9
$DIMDSEP
 70
    46
  9
$DIMATFIT
 70
     3
  9
$DIMFRAC
 70
     0
  9
$DIMLDRBLK
  1
OPEN
  9
$DIMLUNIT
 70
     2
  9
$DIMLWD
 70
    -2
  9
$DIMLWE
 70
    -2
  9
$DIMTMOVE
 70
     2
  9
$LUNITS
 70
     2
  9
$LUPREC
 70
     4
  9
$SKETCHINC
 40
1.0
  9
$FILLETRAD
 40
10.0
  9
$AUNITS
 70
     0
  9
$AUPREC
 70
     0
  9
$MENU
  1
.
  9
$ELEVATION
 40
0.0
  9
$PELEVATION
 40
0.0
  9
$THICKNESS
 40
0.0
  9
$LIMCHECK
 70
     0
  9
$CHAMFERA
 40
10.0
  9
$CHAMFERB
 40
10.0
  9
$CHAMFERC
 40
20.0
  9
$CHAMFERD
 40
0.0
  9
$SKPOLY
 70
     0
  9
$TDCREATE
 40
2451224.660162384
  9
$TDUCREATE
 40
2451224.285162384
  9
$TDUPDATE
 40
2457366.481317812
  9
$TDUUPDATE
 40
2457366.106317812
  9
$TDINDWG
 40
1.3544728819
  9
$TDUSRTIMER
 40
2457315.084250544
  9
$USRTIMER
 70
     1
  9
$ANGBASE
 50
0.0
  9
$ANGDIR
 70
     0
  9
$PDMODE
 70
     0
  9
$PDSIZE
 40
0.0
  9
$PLINEWID
 40
0.0
  9
$SPLFRAME
 70
     0
  9
$SPLINETYPE
 70
     6
  9
$SPLINESEGS
 70
     8
  9
$HANDSEED
  5
8F3F
  9
$SURFTAB1
 70
     6
  9
$SURFTAB2
 70
     6
  9
$SURFTYPE
 70
     6
  9
$SURFU
 70
     6
  9
$SURFV
 70
     6
  9
$UCSBASE
  2

  9
$UCSNAME
  2

  9
$UCSORG
 10
0.0
 20
0.0
 30
0.0
  9
$UCSXDIR
 10
1.0
 20
0.0
 30
0.0
  9
$UCSYDIR
 10
0.0
 20
1.0
 30
0.0
  9
$UCSORTHOREF
  2

  9
$UCSORTHOVIEW
 70
     0
  9
$UCSORGTOP
 10
0.0
 20
0.0
 30
0.0
  9
$UCSORGBOTTOM
 10
0.0
 20
0.0
 30
0.0
  9
$UCSORGLEFT
 10
0.0
 20
0.0
 30
0.0
  9
$UCSORGRIGHT
 10
0.0
 20
0.0
 30
0.0
  9
$UCSORGFRONT
 10
0.0
 20
0.0
 30
0.0
  9
$UCSORGBACK
 10
0.0
 20
0.0
 30
0.0
  9
$PUCSBASE
  2

  9
$PUCSNAME
  2

  9
$PUCSORG
 10
0.0
 20
0.0
 30
0.0
  9
$PUCSXDIR
 10
1.0
 20
0.0
 30
0.0
  9
$PUCSYDIR
 10
0.0
 20
1.0
 30
0.0
  9
$PUCSORTHOREF
  2

  9
$PUCSORTHOVIEW
 70
     0
  9
$PUCSORGTOP
 10
0.0
 20
0.0
 30
0.0
  9
$PUCSORGBOTTOM
 10
0.0
 20
0.0
 30
0.0
  9
$PUCSORGLEFT
 10
0.0
 20
0.0
 30
0.0
  9
$PUCSORGRIGHT
 10
0.0
 20
0.0
 30
0.0
  9
$PUCSORGFRONT
 10
0.0
 20
0.0
 30
0.0
  9
$PUCSORGBACK
 10
0.0
 20
0.0
 30
0.0
  9
$USERI1
 70
     0
  9
$USERI2
 70
     0
  9
$USERI3
 70
     0
  9
$USERI4
 70
     0
  9
$USERI5
 70
     0
  9
$USERR1
 40
0.0
  9
$USERR2
 40
0.0
  9
$USERR3
 40
0.0
  9
$USERR4
 40
0.0
  9
$USERR5
 40
0.0
  9
$WORLDVIEW
 70
     1
  9
$SHADEDGE
 70
     3
  9
$SHADEDIF
 70
    70
  9
$TILEMODE
 70
     1
  9
$MAXACTVP
 70
    48
  9
$PINSBASE
 10
0.0
 20
0.0
 30
0.0
  9
$PLIMCHECK
 70
     0
  9
$PEXTMIN
 10
40.49999999999999
 20
25.69999999999998
 30
0.0
  9
$PEXTMAX
 10
364.5
 20
231.3
 30
0.0
  9
$PLIMMIN
 10
0.0
 20
0.0
  9
$PLIMMAX
 10
0.0
 20
0.0
  9
$UNITMODE
 70
     0
  9
$VISRETAIN
 70
     1
  9
$PLINEGEN
 70
     0
  9
$PSLTSCALE
 70
     1
  9
$TREEDEPTH
 70
  3020
  9
$CMLSTYLE
  2
STANDARD
  9
$CMLJUST
 70
     0
  9
$CMLSCALE
 40
20.0
  9
$PROXYGRAPHICS
 70
     1
  9
$MEASUREMENT
 70
     1
  9
$CELWEIGHT
370
    -1
  9
$ENDCAPS
280
     0
  9
$JOINSTYLE
280
     0
  9
$LWDISPLAY
290
     0
  9
$INSUNITS
 70
     0
  9
$HYPERLINKBASE
  1

  9
$STYLESHEET
  1

  9
$XEDIT
290
     1
  9
$CEPSNTYPE
380
     0
  9
$PSTYLEMODE
290
     1
  9
$FINGERPRINTGUID
  2
{6B368F64-F7EB-11D4-BFBA-00004C030E53}
  9
$VERSIONGUID
  2
{2C69030A-4401-4B53-8EA4-EA0CAC3CB8E2}
  9
$EXTNAMES
290
     1
  9
$PSVPSCALE
 40
0.0
  9
$OLESTARTUP
290
     0
  0
ENDSEC
  0
SECTION
  2
CLASSES
  0
CLASS
  1
HATCH
  2
AcDbHatch
  3
AutoCAD 2000
 90
    32768
280
     0
281
     1
  0
CLASS
  1
LWPOLYLINE
  2
AcDbPolyline
  3
AutoCAD 2000
 90
    32768
280
     0
281
     1
  0
CLASS
  1
ACDBDICTIONARYWDFLT
  2
AcDbDictionaryWithDefault
  3
AutoCAD 2000
 90
        0
280
     0
281
     0
  0
CLASS
  1
ACDBPLACEHOLDER
  2
AcDbPlaceHolder
  3
AutoCAD 2000
 90
        0
280
     0
281
     0
  0
CLASS
  1
LAYOUT
  2
AcDbLayout
  3
AutoCAD 2000
 90
        0
280
     0
281
     0
  0
CLASS
  1
DICTIONARYVAR
  2
AcDbDictionaryVar
  3
AutoCAD 2000
 90
        0
280
     0
281
     0
  0
CLASS
  1
VISUALSTYLE
  2
AcDbVisualStyle
  3
ObjectDBX Classes
 90
    36863
280
     0
281
     0
  0
CLASS
  1
SCALE
  2
AcDbScale
  3
ObjectDBX Classes
 90
     1153
280
     0
281
     0
  0
CLASS
  1
MATERIAL
  2
AcDbMaterial
  3
ObjectDBX Classes
 90
    33921
280
     0
281
     0
  0
CLASS
  1
TABLESTYLE
  2
AcDbTableStyle
  3
ObjectDBX Classes
 90
    36863
280
     0
281
     0
  0
CLASS
  1
MLEADERSTYLE
  2
AcDbMLeaderStyle
  3
ACDB_MLEADERSTYLE_CLASS
 90
    36863
280
     0
281
     0
  0
CLASS
  1
SUN
  2
AcDbSun
  3
SCENEOE
 90
     1153
280
     0
281
     0
  0
CLASS
  1
RASTERVARIABLES
  2
AcDbRasterVariables
  3
ISM
 90
        0
280
     0
281
     0
  0
ENDSEC
  0
SECTION
  2
TABLES
  0
TABLE
  2
VPORT
  5
8
330
0
100
AcDbSymbolTable
 70
     2
  0
VPORT
  5
8F3E
330
8
100
AcDbSymbolTableRecord
100
AcDbViewportTableRecord
  2
*Active
 70
     0
 10
0.0
 20
0.0
 11
1.0
 21
1.0
 12
216.9349646573161
 22
161.676964430007
 13
0.0
 23
0.0
 14
10.0
 24
10.0
 15
10.0
 25
10.0
 16
0.0
 26
0.0
 36
1.0
 17
0.0
 27
0.0
 37
0.0
 40
539.5594169476857
 41
1.562182741116751
 42
50.0
 43
0.0
 44
0.0
 50
0.0
 51
0.0
 71
    16
 72
   100
 73
     1
 74
     0
 75
     0
 76
     0
 77
     0
 78
     0
281
     0
 65
     1
110
0.0
120
0.0
130
0.0
111
1.0
121
0.0
131
0.0
112
0.0
122
1.0
132
0.0
 79
     0
146
0.0
  0
ENDTAB
  0
TABLE
  2
LTYPE
  5
5
330
0
100
AcDbSymbolTable
 70
     1
  0
LTYPE
  5
12
330
5
100
AcDbSymbolTableRecord
100
AcDbLinetypeTableRecord
  2
BYBLOCK
 70
     0
  3

 72
    65
 73
     0
 40
0.0
  0
LTYPE
  5
13
330
5
100
AcDbSymbolTableRecord
100
AcDbLinetypeTableRecord
  2
BYLAYER
 70
     0
  3

 72
    65
 73
     0
 40
0.0
  0
LTYPE
  5
14
330
5
100
AcDbSymbolTableRecord
100
AcDbLinetypeTableRecord
  2
CONTINUOUS
 70
     0
  3
Solid line
 72
    65
 73
     0
 40
0.0
  0
ENDTAB
  0
TABLE
  2
LAYER
  5
2
330
0
100
AcDbSymbolTable
 70
     1
  0
LAYER
  5
E
330
2
100
AcDbSymbolTableRecord
100
AcDbLayerTableRecord
  2
0
 70
     0
 62
     7
  6
CONTINUOUS
370
    -3
390
73E
  0
ENDTAB
  0
TABLE
  2
STYLE
  5
3
330
0
100
AcDbSymbolTable
 70
     2
  0
STYLE
  5
F
330
3
100
AcDbSymbolTableRecord
100
AcDbTextStyleTableRecord
  2
STANDARD
 70
     0
 40
0.0
 41
1.0
 50
0.0
 71
     0
 42
3.0
  3
isocp.shx
  4
bigfont.shx
  0
STYLE
  5
35
330
3
100
AcDbSymbolTableRecord
100
AcDbTextStyleTableRecord
  2
MSｺﾞｼｯｸ
 70
     0
 40
0.0
 41
1.0
 50
0.0
 71
     0
 42
5.0
  3
MS Gothic.ttf
  4

1001
ACAD
1000
MS Gothic
1071
    32817
  0
ENDTAB
  0
TABLE
  2
VIEW
  5
6
330
0
100
AcDbSymbolTable
 70
     0
  0
ENDTAB
  0
TABLE
  2
UCS
  5
7
330
0
100
AcDbSymbolTable
 70
     0
  0
ENDTAB
  0
TABLE
  2
APPID
  5
9
330
0
100
AcDbSymbolTable
 70
     1
  0
APPID
  5
10
330
9
100
AcDbSymbolTableRecord
100
AcDbRegAppTableRecord
  2
ACAD
 70
     0
  0
ENDTAB
  0
TABLE
  2
DIMSTYLE
  5
A
330
0
100
AcDbSymbolTable
 70
     1
100
AcDbDimStyleTable
 71
     0
  0
DIMSTYLE
105
1D
330
A
100
AcDbSymbolTableRecord
100
AcDbDimStyleTableRecord
  2
STANDARD
 70
     0
 78
     8
 79
     2
140
3.0
340
F
341
89E
342
89E
  0
ENDTAB
  0
TABLE
  2
BLOCK_RECORD
  5
1
330
0
100
AcDbSymbolTable
 70
     2
  0
BLOCK_RECORD
  5
18
330
1
100
AcDbSymbolTableRecord
100
AcDbBlockTableRecord
  2
*MODEL_SPACE
340
741
  0
BLOCK_RECORD
  5
8F30
330
1
100
AcDbSymbolTableRecord
100
AcDbBlockTableRecord
  2
*Paper_Space
340
8F31
  0
BLOCK_RECORD
  5
24
330
1
100
AcDbSymbolTableRecord
100
AcDbBlockTableRecord
  2
_OPEN
340
0
  0
BLOCK_RECORD
  5
89E
330
1
100
AcDbSymbolTableRecord
100
AcDbBlockTableRecord
  2
_Open30
340
0
  0
ENDTAB
  0
ENDSEC
  0
SECTION
  2
BLOCKS
  0
BLOCK
  5
19
330
18
100
AcDbEntity
  8
0
100
AcDbBlockBegin
  2
*MODEL_SPACE
 70
     0
 10
0.0
 20
0.0
 30
0.0
  3
*MODEL_SPACE
  1

  0
ENDBLK
  5
1A
330
18
100
AcDbEntity
  8
0
100
AcDbBlockEnd
  0
BLOCK
  5
8F32
330
8F30
100
AcDbEntity
 67
     1
  8
0
100
AcDbBlockBegin
  2
*Paper_Space
 70
     0
 10
0.0
 20
0.0
 30
0.0
  3
*Paper_Space
  1

  0
ENDBLK
  5
8F33
330
8F30
100
AcDbEntity
 67
     1
  8
0
100
AcDbBlockEnd
  0
BLOCK
  5
25
330
24
100
AcDbEntity
  8
0
100
AcDbBlockBegin
  2
_OPEN
 70
     0
 10
0.0
 20
0.0
 30
0.0
  3
_OPEN
  1

  0
LINE
  5
26
330
24
100
AcDbEntity
  8
0
  6
ByBlock
 62
     0
100
AcDbLine
 10
-1.0
 20
0.1666666666666666
 30
0.0
 11
0.0
 21
0.0
 31
0.0
  0
LINE
  5
27
330
24
100
AcDbEntity
  8
0
  6
ByBlock
 62
     0
100
AcDbLine
 10
0.0
 20
0.0
 30
0.0
 11
-1.0
 21
-0.1666666666666666
 31
0.0
  0
LINE
  5
28
330
24
100
AcDbEntity
  8
0
  6
ByBlock
 62
     0
100
AcDbLine
 10
0.0
 20
0.0
 30
0.0
 11
-1.0
 21
0.0
 31
0.0
  0
ENDBLK
  5
29
330
24
100
AcDbEntity
  8
0
100
AcDbBlockEnd
  0
BLOCK
  5
8A2
330
89E
100
AcDbEntity
  8
0
100
AcDbBlockBegin
  2
_Open30
 70
     0
 10
0.0
 20
0.0
 30
0.0
  3
_Open30
  1

  0
LINE
  5
89F
330
89E
100
AcDbEntity
  8
0
  6
ByBlock
 62
     0
370
    -2
100
AcDbLine
 10
-1.0
 20
0.26794919
 30
0.0
 11
0.0
 21
0.0
 31
0.0
  0
LINE
  5
8A0
330
89E
100
AcDbEntity
  8
0
  6
ByBlock
 62
     0
370
    -2
100
AcDbLine
 10
0.0
 20
0.0
 30
0.0
 11
-1.0
 21
-0.26794919
 31
0.0
  0
LINE
  5
8A1
330
89E
100
AcDbEntity
  8
0
  6
ByBlock
 62
     0
370
    -2
100
AcDbLine
 10
0.0
 20
0.0
 30
0.0
 11
-1.0
 21
0.0
 31
0.0
  0
ENDBLK
  5
8A3
330
89E
100
AcDbEntity
  8
0
100
AcDbBlockEnd
  0
ENDSEC
  0
SECTION
  2
ENTITIES
  0
LINE
  5
7853
330
18
100
AcDbEntity
  8
0
 48
0.2
100
AcDbLine
 10
202.4316797587008
 20
262.0304441809377
 30
0.0
 11
197.4316797587008
 21
259.3804441809376
 31
0.0
  0
LINE
  5
7854
330
18
100
AcDbEntity
  8
0
 48
0.2
100
AcDbLine
 10
181.4316797587009
 20
259.3804441809376
 30
0.0
 11
181.4316797587009
 21
277.380444180938
 31
0.0
  0
LINE
  5
7855
330
18
100
AcDbEntity
  8
0
100
AcDbLine
 10
406.4316797587017
 20
258.6804441809382
 30
0.0
 11
406.4316797587017
 21
262.6804441809384
 31
0.0
  0
LINE
  5
7856
330
18
100
AcDbEntity
  8
0
100
AcDbLine
 10
404.4316797587018
 20
258.6804441809382
 30
0.0
 11
404.4316797587018
 21
264.680444180938
 31
0.0
  0
LINE
  5
7857
330
18
100
AcDbEntity
  8
0
100
AcDbLine
 10
406.4316797587017
 20
258.6804441809382
 30
0.0
 11
406.4316797587017
 21
262.6804441809382
 31
0.0
  0
LINE
  5
7858
330
18
100
AcDbEntity
  8
0
100
AcDbLine
 10
407.4316797587017
 20
257.6804441809382
 30
0.0
 11
407.4316797587017
 21
262.6804441809384
 31
0.0
  0
LINE
  5
7859
330
18
100
AcDbEntity
  8
0
100
AcDbLine
 10
407.4316797587017
 20
257.6804441809382
 30
0.0
 11
407.4316797587017
 21
262.6804441809382
 31
0.0
  0
LINE
  5
785A
330
18
100
AcDbEntity
  8
0
100
AcDbLine
 10
226.4316797587017
 20
258.680444180938
 30
0.0
 11
226.4316797587017
 21
264.6804441809377
 31
0.0
  0
LINE
  5
785B
330
18
100
AcDbEntity
  8
0
100
AcDbLine
 10
224.4316797587017
 20
258.680444180938
 30
0.0
 11
224.4316797587017
 21
262.6804441809382
 31
0.0
  0
LINE
  5
785C
330
18
100
AcDbEntity
  8
0
100
AcDbLine
 10
223.4316797587017
 20
257.680444180938
 30
0.0
 11
223.4316797587017
 21
262.6804441809382
 31
0.0
  0
LINE
  5
785D
330
18
100
AcDbEntity
  8
0
100
AcDbLine
 10
220.4316797587017
 20
257.680444180938
 30
0.0
 11
220.4316797587019
 21
377.680444180938
 31
0.0
  0
LINE
  5
785E
330
18
100
AcDbEntity
  8
0
100
AcDbLine
 10
223.4316797587017
 20
257.680444180938
 30
0.0
 11
223.4316797587019
 21
374.680444180938
 31
0.0
  0
LINE
  5
785F
330
18
100
AcDbEntity
  8
0
100
AcDbLine
 10
410.4316797587017
 20
257.6804441809378
 30
0.0
 11
410.431679758702
 21
377.680444180938
 31
0.0
  0
LINE
  5
7860
330
18
100
AcDbEntity
  8
0
100
AcDbLine
 10
407.4316797587017
 20
257.6804441809378
 30
0.0
 11
407.431679758702
 21
374.680444180938
 31
0.0
  0
LINE
  5
7861
330
18
100
AcDbEntity
  8
0
100
AcDbLine
 10
223.4316797587017
 20
257.680444180938
 30
0.0
 11
407.4316797587017
 21
257.6804441809382
 31
0.0
  0
LINE
  5
7913
330
18
100
AcDbEntity
  8
0
100
AcDbLine
 10
223.4316797587017
 20
257.6804441809382
 30
0.0
 11
220.4316797587017
 21
257.680444180938
 31
0.0
  0
LINE
  5
792A
330
18
100
AcDbEntity
  8
0
 48
0.2
100
AcDbLine
 10
197.4316797587005
 20
259.3804441809376
 30
0.0
 11
181.4316797587009
 21
259.3804441809376
 31
0.0
  0
LINE
  5
792B
330
18
100
AcDbEntity
  8
0
100
AcDbLine
 10
224.4316797587017
 20
258.680444180938
 30
0.0
 11
226.4316797587017
 21
258.6804441809382
 31
0.0
  0
LINE
  5
7930
330
18
100
AcDbEntity
  8
0
100
AcDbLine
 10
410.4316797587017
 20
257.6804441809378
 30
0.0
 11
407.4316797587017
 21
257.6804441809378
 31
0.0
  0
LINE
  5
7931
330
18
100
AcDbEntity
  8
0
100
AcDbLine
 10
404.4316797587018
 20
258.6804441809384
 30
0.0
 11
406.4316797587017
 21
258.6804441809382
 31
0.0
  0
LINE
  5
7932
330
18
100
AcDbEntity
  8
0
100
AcDbLine
 10
402.4316797587017
 20
374.680444180938
 30
0.0
 11
278.4316797587017
 21
374.680444180938
 31
0.0
  0
LINE
  5
7933
330
18
100
AcDbEntity
  8
0
100
AcDbLine
 10
407.431679758702
 20
374.680444180938
 30
0.0
 11
223.4316797587019
 21
374.680444180938
 31
0.0
  0
LINE
  5
7934
330
18
100
AcDbEntity
  8
0
100
AcDbLine
 10
410.431679758702
 20
377.680444180938
 30
0.0
 11
220.4316797587019
 21
377.680444180938
 31
0.0
  0
LINE
  5
7935
330
18
100
AcDbEntity
  8
0
100
AcDbLine
 10
278.4316797587017
 20
314.680444180938
 30
0.0
 11
402.4316797587017
 21
314.680444180938
 31
0.0
  0
LINE
  5
7936
330
18
100
AcDbEntity
  8
0
100
AcDbLine
 10
406.4316797587017
 20
313.680444180938
 30
0.0
 11
277.4316797587017
 21
313.680444180938
 31
0.0
  0
LINE
  5
7937
330
18
100
AcDbEntity
  8
0
100
AcDbLine
 10
317.9316797587017
 20
320.680444180938
 30
0.0
 11
326.9316797587017
 21
320.680444180938
 31
0.0
  0
LINE
  5
7938
330
18
100
AcDbEntity
  8
0
100
AcDbLine
 10
317.9316797587017
 20
370.680444180938
 30
0.0
 11
326.9316797587017
 21
370.680444180938
 31
0.0
  0
LINE
  5
793A
330
18
100
AcDbEntity
  8
0
 48
0.2
100
AcDbLine
 10
196.631679758701
 20
264.5304441809376
 30
0.0
 11
188.6316797587008
 21
264.5304441809376
 31
0.0
  0
LINE
  5
793B
330
18
100
AcDbEntity
  8
0
 48
0.2
100
AcDbLine
 10
196.6316797587009
 20
272.2304441809375
 30
0.0
 11
188.6316797587008
 21
272.230444180938
 31
0.0
  0
ARC
  5
793C
330
18
100
AcDbEntity
  8
0
 48
0.2
100
AcDbCircle
 10
197.8016797587007
 20
268.3804441809376
 30
0.0
 40
2.669999999999886
100
AcDbArc
 50
115.9892335838301
 51
244.0107664161697
  0
LINE
  5
793D
330
18
100
AcDbEntity
  8
0
 48
0.2
100
AcDbLine
 10
197.4316797587005
 20
277.3804441809376
 30
0.0
 11
181.4316797587009
 21
277.380444180938
 31
0.0
  0
LINE
  5
793E
330
18
100
AcDbEntity
  8
0
 48
0.2
100
AcDbLine
 10
220.4316797587009
 20
274.7304441809379
 30
0.0
 11
181.4316797587009
 21
274.7304441809379
 31
0.0
  0
LINE
  5
793F
330
18
100
AcDbEntity
  8
0
 48
0.2
100
AcDbLine
 10
220.4316797587009
 20
262.0304441809377
 30
0.0
 11
181.4316797587008
 21
262.0304441809377
 31
0.0
  0
LINE
  5
7940
330
18
100
AcDbEntity
  8
0
 48
0.2
100
AcDbLine
 10
188.6316797587008
 20
264.5304441809376
 30
0.0
 11
188.6316797587008
 21
272.230444180938
 31
0.0
  0
LINE
  5
7941
330
18
100
AcDbEntity
  8
0
 48
0.2
100
AcDbLine
 10
215.4316797587009
 20
264.8804441809376
 30
0.0
 11
215.4316797587009
 21
271.880444180938
 31
0.0
  0
LINE
  5
7942
330
18
100
AcDbEntity
  8
0
 48
0.2
100
AcDbLine
 10
220.4316797587009
 20
264.880444180938
 30
0.0
 11
215.4316797587009
 21
264.8804441809376
 31
0.0
  0
LINE
  5
7943
330
18
100
AcDbEntity
  8
0
 48
0.2
100
AcDbLine
 10
220.4316797587009
 20
262.0304441809377
 30
0.0
 11
220.4316797587009
 21
264.8804441809376
 31
0.0
  0
LINE
  5
7944
330
18
100
AcDbEntity
  8
0
 48
0.2
100
AcDbLine
 10
220.4316797587009
 20
271.8804441809376
 30
0.0
 11
215.4316797587009
 21
271.880444180938
 31
0.0
  0
LINE
  5
7945
330
18
100
AcDbEntity
  8
0
 48
0.2
100
AcDbLine
 10
220.4316797587009
 20
271.880444180938
 30
0.0
 11
220.4316797587009
 21
274.7304441809379
 31
0.0
  0
LINE
  5
7946
330
18
100
AcDbEntity
  8
0
 48
0.2
100
AcDbLine
 10
196.6316797587009
 20
262.0304441809377
 30
0.0
 11
196.6316797587007
 21
274.7304441809375
 31
0.0
  0
LINE
  5
7947
330
18
100
AcDbEntity
  8
0
 48
0.2
100
AcDbLine
 10
197.4316797587008
 20
277.3804441809376
 30
0.0
 11
202.4316797587008
 21
274.7304441809379
 31
0.0
  0
LINE
  5
7948
330
18
100
AcDbEntity
  8
0
100
AcDbLine
 10
220.4316797586989
 20
295.0804441809381
 30
0.0
 11
211.6316797586989
 21
295.0804441809381
 31
0.0
  0
LINE
  5
7949
330
18
100
AcDbEntity
  8
0
100
AcDbLine
 10
211.6316797586989
 20
285.5804441809381
 30
0.0
 11
213.1316797586989
 21
280.0804441809381
 31
0.0
  0
LINE
  5
794B
330
18
100
AcDbEntity
  8
0
100
AcDbLine
 10
211.6316797586989
 20
295.0804441809381
 30
0.0
 11
211.6316797586989
 21
285.5804441809381
 31
0.0
  0
LINE
  5
794C
330
18
100
AcDbEntity
  8
0
100
AcDbLine
 10
220.4316797586989
 20
295.0804441809381
 30
0.0
 11
220.431679758699
 21
294.0804441809381
 31
0.0
  0
LINE
  5
794D
330
18
100
AcDbEntity
  8
0
100
AcDbLine
 10
220.4316797586989
 20
280.0804441809381
 30
0.0
 11
213.1316797586989
 21
280.0804441809381
 31
0.0
  0
LINE
  5
794F
330
18
100
AcDbEntity
  8
0
100
AcDbLine
 10
302.9316797587017
 20
320.680444180938
 30
0.0
 11
302.9316797587017
 21
370.680444180938
 31
0.0
  0
LINE
  5
7950
330
18
100
AcDbEntity
  8
0
100
AcDbLine
 10
305.9316797587017
 20
320.680444180938
 30
0.0
 11
305.9316797587017
 21
370.680444180938
 31
0.0
  0
LINE
  5
7951
330
18
100
AcDbEntity
  8
0
100
AcDbLine
 10
290.9316797587017
 20
320.680444180938
 30
0.0
 11
290.9316797587017
 21
370.680444180938
 31
0.0
  0
LINE
  5
7952
330
18
100
AcDbEntity
  8
0
100
AcDbLine
 10
293.9316797587017
 20
320.680444180938
 30
0.0
 11
293.9316797587017
 21
370.680444180938
 31
0.0
  0
LINE
  5
7953
330
18
100
AcDbEntity
  8
0
100
AcDbLine
 10
281.9316797587017
 20
320.680444180938
 30
0.0
 11
281.9316797587017
 21
370.680444180938
 31
0.0
  0
LINE
  5
7954
330
18
100
AcDbEntity
  8
0
100
AcDbLine
 10
278.4316797587017
 20
314.680444180938
 30
0.0
 11
278.4316797587017
 21
374.680444180938
 31
0.0
  0
LINE
  5
7955
330
18
100
AcDbEntity
  8
0
100
AcDbLine
 10
277.4316797587017
 20
313.680444180938
 30
0.0
 11
277.4316797587015
 21
371.680444180938
 31
0.0
  0
LINE
  5
7956
330
18
100
AcDbEntity
  8
0
100
AcDbLine
 10
314.9316797587017
 20
320.680444180938
 30
0.0
 11
314.9316797587017
 21
370.680444180938
 31
0.0
  0
LINE
  5
7957
330
18
100
AcDbEntity
  8
0
100
AcDbLine
 10
317.9316797587017
 20
320.680444180938
 30
0.0
 11
317.9316797587017
 21
370.680444180938
 31
0.0
  0
LINE
  5
7958
330
18
100
AcDbEntity
  8
0
100
AcDbLine
 10
231.4316797587015
 20
362.680444180938
 30
0.0
 11
231.4316797587015
 21
342.680444180938
 31
0.0
  0
LINE
  5
7959
330
18
100
AcDbEntity
  8
0
100
AcDbLine
 10
236.4316797587015
 20
362.680444180938
 30
0.0
 11
236.4316797587015
 21
342.680444180938
 31
0.0
  0
LINE
  5
795A
330
18
100
AcDbEntity
  8
0
100
AcDbLine
 10
251.4316797587015
 20
362.680444180938
 30
0.0
 11
251.4316797587015
 21
342.680444180938
 31
0.0
  0
LINE
  5
795B
330
18
100
AcDbEntity
  8
0
100
AcDbLine
 10
256.4316797587015
 20
362.680444180938
 30
0.0
 11
256.4316797587015
 21
342.680444180938
 31
0.0
  0
LINE
  5
795C
330
18
100
AcDbEntity
  8
0
100
AcDbLine
 10
241.4316797587015
 20
362.680444180938
 30
0.0
 11
241.4316797587015
 21
342.680444180938
 31
0.0
  0
LINE
  5
795D
330
18
100
AcDbEntity
  8
0
100
AcDbLine
 10
246.4316797587015
 20
362.680444180938
 30
0.0
 11
246.4316797587015
 21
342.680444180938
 31
0.0
  0
LINE
  5
795E
330
18
100
AcDbEntity
  8
0
100
AcDbLine
 10
266.4316797587015
 20
362.680444180938
 30
0.0
 11
266.4316797587015
 21
342.680444180938
 31
0.0
  0
LINE
  5
795F
330
18
100
AcDbEntity
  8
0
100
AcDbLine
 10
261.4316797587015
 20
362.680444180938
 30
0.0
 11
261.4316797587015
 21
342.680444180938
 31
0.0
  0
LINE
  5
7961
330
18
100
AcDbEntity
  8
0
100
AcDbLine
 10
223.4316797587017
 20
264.680444180938
 30
0.0
 11
223.4316797587017
 21
372.680444180938
 31
0.0
  0
LINE
  5
7962
330
18
100
AcDbEntity
  8
0
100
AcDbLine
 10
246.4316797587017
 20
307.680444180938
 30
0.0
 11
246.4316797587017
 21
287.680444180938
 31
0.0
  0
LINE
  5
7963
330
18
100
AcDbEntity
  8
0
100
AcDbLine
 10
256.4316797587017
 20
307.680444180938
 30
0.0
 11
256.4316797587017
 21
287.680444180938
 31
0.0
  0
LINE
  5
7964
330
18
100
AcDbEntity
  8
0
100
AcDbLine
 10
251.4316797587017
 20
307.680444180938
 30
0.0
 11
251.4316797587017
 21
287.680444180938
 31
0.0
  0
LINE
  5
7965
330
18
100
AcDbEntity
  8
0
100
AcDbLine
 10
266.4316797587017
 20
307.680444180938
 30
0.0
 11
266.4316797587017
 21
287.680444180938
 31
0.0
  0
LINE
  5
7966
330
18
100
AcDbEntity
  8
0
100
AcDbLine
 10
261.4316797587017
 20
307.680444180938
 30
0.0
 11
261.4316797587017
 21
287.680444180938
 31
0.0
  0
LINE
  5
7967
330
18
100
AcDbEntity
  8
0
100
AcDbLine
 10
231.4316797587017
 20
307.680444180938
 30
0.0
 11
231.4316797587017
 21
287.680444180938
 31
0.0
  0
LINE
  5
7968
330
18
100
AcDbEntity
  8
0
100
AcDbLine
 10
236.4316797587017
 20
307.680444180938
 30
0.0
 11
236.4316797587017
 21
287.680444180938
 31
0.0
  0
LINE
  5
7969
330
18
100
AcDbEntity
  8
0
100
AcDbLine
 10
241.4316797587017
 20
307.680444180938
 30
0.0
 11
241.4316797587017
 21
287.680444180938
 31
0.0
  0
LINE
  5
796A
330
18
100
AcDbEntity
  8
0
100
AcDbLine
 10
246.4316797587017
 20
282.680444180938
 30
0.0
 11
241.4316797587017
 21
282.680444180938
 31
0.0
  0
LINE
  5
796B
330
18
100
AcDbEntity
  8
0
100
AcDbLine
 10
246.4316797587017
 20
287.680444180938
 30
0.0
 11
241.4316797587017
 21
287.680444180938
 31
0.0
  0
LINE
  5
796C
330
18
100
AcDbEntity
  8
0
100
AcDbLine
 10
246.4316797587017
 20
262.680444180938
 30
0.0
 11
241.4316797587017
 21
262.680444180938
 31
0.0
  0
LINE
  5
796D
330
18
100
AcDbEntity
  8
0
100
AcDbLine
 10
236.4316797587017
 20
282.680444180938
 30
0.0
 11
231.4316797587017
 21
282.680444180938
 31
0.0
  0
LINE
  5
796E
330
18
100
AcDbEntity
  8
0
100
AcDbLine
 10
236.4316797587017
 20
287.680444180938
 30
0.0
 11
231.4316797587017
 21
287.680444180938
 31
0.0
  0
LINE
  5
7972
330
18
100
AcDbEntity
  8
0
100
AcDbLine
 10
236.4316797587017
 20
262.680444180938
 30
0.0
 11
231.4316797587017
 21
262.680444180938
 31
0.0
  0
LINE
  5
7973
330
18
100
AcDbEntity
  8
0
100
AcDbLine
 10
223.4316797587017
 20
262.680444180938
 30
0.0
 11
224.4316797587017
 21
262.680444180938
 31
0.0
  0
LINE
  5
7974
330
18
100
AcDbEntity
  8
0
100
AcDbLine
 10
223.4316797587017
 20
264.680444180938
 30
0.0
 11
226.4316797587017
 21
264.6804441809377
 31
0.0
  0
LINE
  5
7975
330
18
100
AcDbEntity
  8
0
100
AcDbLine
 10
241.4316797587017
 20
282.680444180938
 30
0.0
 11
241.4316797587017
 21
262.680444180938
 31
0.0
  0
LINE
  5
7976
330
18
100
AcDbEntity
  8
0
100
AcDbLine
 10
231.4316797587017
 20
282.680444180938
 30
0.0
 11
231.4316797587017
 21
262.680444180938
 31
0.0
  0
LINE
  5
7977
330
18
100
AcDbEntity
  8
0
100
AcDbLine
 10
236.4316797587017
 20
282.680444180938
 30
0.0
 11
236.4316797587017
 21
262.680444180938
 31
0.0
  0
LINE
  5
7978
330
18
100
AcDbEntity
  8
0
100
AcDbLine
 10
256.4316797587017
 20
282.680444180938
 30
0.0
 11
251.4316797587017
 21
282.680444180938
 31
0.0
  0
LINE
  5
7979
330
18
100
AcDbEntity
  8
0
100
AcDbLine
 10
256.4316797587017
 20
287.680444180938
 30
0.0
 11
251.4316797587017
 21
287.680444180938
 31
0.0
  0
LINE
  5
797A
330
18
100
AcDbEntity
  8
0
100
AcDbLine
 10
266.4316797587017
 20
282.680444180938
 30
0.0
 11
261.4316797587017
 21
282.680444180938
 31
0.0
  0
LINE
  5
797B
330
18
100
AcDbEntity
  8
0
100
AcDbLine
 10
266.4316797587017
 20
287.680444180938
 30
0.0
 11
261.4316797587017
 21
287.680444180938
 31
0.0
  0
LINE
  5
797C
330
18
100
AcDbEntity
  8
0
100
AcDbLine
 10
256.4316797587017
 20
262.680444180938
 30
0.0
 11
251.4316797587017
 21
262.680444180938
 31
0.0
  0
LINE
  5
797D
330
18
100
AcDbEntity
  8
0
100
AcDbLine
 10
266.4316797587017
 20
262.680444180938
 30
0.0
 11
261.4316797587017
 21
262.680444180938
 31
0.0
  0
LINE
  5
797E
330
18
100
AcDbEntity
  8
0
100
AcDbLine
 10
256.4316797587017
 20
282.680444180938
 30
0.0
 11
256.4316797587017
 21
262.680444180938
 31
0.0
  0
LINE
  5
797F
330
18
100
AcDbEntity
  8
0
100
AcDbLine
 10
251.4316797587017
 20
282.680444180938
 30
0.0
 11
251.4316797587017
 21
262.680444180938
 31
0.0
  0
LINE
  5
7980
330
18
100
AcDbEntity
  8
0
100
AcDbLine
 10
246.4316797587017
 20
282.680444180938
 30
0.0
 11
246.4316797587017
 21
262.680444180938
 31
0.0
  0
LINE
  5
7981
330
18
100
AcDbEntity
  8
0
100
AcDbLine
 10
266.4316797587017
 20
282.680444180938
 30
0.0
 11
266.4316797587017
 21
262.680444180938
 31
0.0
  0
LINE
  5
7982
330
18
100
AcDbEntity
  8
0
100
AcDbLine
 10
261.4316797587017
 20
282.680444180938
 30
0.0
 11
261.4316797587017
 21
262.680444180938
 31
0.0
  0
LINE
  5
7983
330
18
100
AcDbEntity
  8
0
100
AcDbLine
 10
246.4316797587015
 20
342.680444180938
 30
0.0
 11
241.4316797587015
 21
342.680444180938
 31
0.0
  0
LINE
  5
7984
330
18
100
AcDbEntity
  8
0
100
AcDbLine
 10
246.4316797587015
 20
337.680444180938
 30
0.0
 11
241.4316797587015
 21
337.680444180938
 31
0.0
  0
LINE
  5
7985
330
18
100
AcDbEntity
  8
0
100
AcDbLine
 10
246.4316797587017
 20
317.680444180938
 30
0.0
 11
241.4316797587017
 21
317.680444180938
 31
0.0
  0
LINE
  5
7986
330
18
100
AcDbEntity
  8
0
100
AcDbLine
 10
246.4316797587017
 20
307.680444180938
 30
0.0
 11
241.4316797587017
 21
307.680444180938
 31
0.0
  0
LINE
  5
7987
330
18
100
AcDbEntity
  8
0
100
AcDbLine
 10
236.4316797587015
 20
342.680444180938
 30
0.0
 11
231.4316797587015
 21
342.680444180938
 31
0.0
  0
LINE
  5
7988
330
18
100
AcDbEntity
  8
0
100
AcDbLine
 10
236.4316797587015
 20
337.680444180938
 30
0.0
 11
231.4316797587015
 21
337.680444180938
 31
0.0
  0
LINE
  5
7989
330
18
100
AcDbEntity
  8
0
100
AcDbLine
 10
236.4316797587017
 20
317.680444180938
 30
0.0
 11
231.4316797587017
 21
317.680444180938
 31
0.0
  0
LINE
  5
798A
330
18
100
AcDbEntity
  8
0
100
AcDbLine
 10
236.4316797587015
 20
337.680444180938
 30
0.0
 11
236.4316797587017
 21
317.680444180938
 31
0.0
  0
LINE
  5
798B
330
18
100
AcDbEntity
  8
0
100
AcDbLine
 10
231.4316797587015
 20
337.680444180938
 30
0.0
 11
231.4316797587017
 21
317.680444180938
 31
0.0
  0
LINE
  5
798C
330
18
100
AcDbEntity
  8
0
100
AcDbLine
 10
241.4316797587015
 20
337.680444180938
 30
0.0
 11
241.4316797587017
 21
317.680444180938
 31
0.0
  0
LINE
  5
798D
330
18
100
AcDbEntity
  8
0
100
AcDbLine
 10
236.4316797587017
 20
307.680444180938
 30
0.0
 11
231.4316797587017
 21
307.680444180938
 31
0.0
  0
LINE
  5
798E
330
18
100
AcDbEntity
  8
0
100
AcDbLine
 10
256.4316797587015
 20
342.680444180938
 30
0.0
 11
251.4316797587015
 21
342.680444180938
 31
0.0
  0
LINE
  5
798F
330
18
100
AcDbEntity
  8
0
100
AcDbLine
 10
256.4316797587015
 20
337.680444180938
 30
0.0
 11
251.4316797587015
 21
337.680444180938
 31
0.0
  0
LINE
  5
7990
330
18
100
AcDbEntity
  8
0
100
AcDbLine
 10
256.4316797587017
 20
317.680444180938
 30
0.0
 11
251.4316797587017
 21
317.680444180938
 31
0.0
  0
LINE
  5
7991
330
18
100
AcDbEntity
  8
0
100
AcDbLine
 10
256.4316797587015
 20
337.680444180938
 30
0.0
 11
256.4316797587017
 21
317.680444180938
 31
0.0
  0
LINE
  5
7992
330
18
100
AcDbEntity
  8
0
100
AcDbLine
 10
251.4316797587015
 20
337.680444180938
 30
0.0
 11
251.4316797587017
 21
317.680444180938
 31
0.0
  0
LINE
  5
7993
330
18
100
AcDbEntity
  8
0
100
AcDbLine
 10
246.4316797587015
 20
337.680444180938
 30
0.0
 11
246.4316797587017
 21
317.680444180938
 31
0.0
  0
LINE
  5
7994
330
18
100
AcDbEntity
  8
0
100
AcDbLine
 10
266.4316797587015
 20
342.680444180938
 30
0.0
 11
261.4316797587015
 21
342.680444180938
 31
0.0
  0
LINE
  5
7995
330
18
100
AcDbEntity
  8
0
100
AcDbLine
 10
266.4316797587015
 20
337.680444180938
 30
0.0
 11
261.4316797587015
 21
337.680444180938
 31
0.0
  0
LINE
  5
7996
330
18
100
AcDbEntity
  8
0
100
AcDbLine
 10
266.4316797587017
 20
317.680444180938
 30
0.0
 11
261.4316797587017
 21
317.680444180938
 31
0.0
  0
LINE
  5
7997
330
18
100
AcDbEntity
  8
0
100
AcDbLine
 10
266.4316797587015
 20
337.680444180938
 30
0.0
 11
266.4316797587017
 21
317.680444180938
 31
0.0
  0
LINE
  5
7998
330
18
100
AcDbEntity
  8
0
100
AcDbLine
 10
261.4316797587015
 20
337.680444180938
 30
0.0
 11
261.4316797587017
 21
317.680444180938
 31
0.0
  0
LINE
  5
7999
330
18
100
AcDbEntity
  8
0
100
AcDbLine
 10
256.4316797587017
 20
307.680444180938
 30
0.0
 11
251.4316797587017
 21
307.680444180938
 31
0.0
  0
LINE
  5
799A
330
18
100
AcDbEntity
  8
0
100
AcDbLine
 10
266.4316797587017
 20
307.680444180938
 30
0.0
 11
261.4316797587017
 21
307.680444180938
 31
0.0
  0
LINE
  5
799B
330
18
100
AcDbEntity
  8
0
100
AcDbLine
 10
306.4316797587017
 20
307.680444180938
 30
0.0
 11
306.4316797587017
 21
287.680444180938
 31
0.0
  0
LINE
  5
799C
330
18
100
AcDbEntity
  8
0
100
AcDbLine
 10
296.4316797587017
 20
307.680444180938
 30
0.0
 11
296.4316797587017
 21
287.680444180938
 31
0.0
  0
LINE
  5
799D
330
18
100
AcDbEntity
  8
0
100
AcDbLine
 10
301.4316797587017
 20
307.680444180938
 30
0.0
 11
301.4316797587017
 21
287.680444180938
 31
0.0
  0
LINE
  5
799E
330
18
100
AcDbEntity
  8
0
100
AcDbLine
 10
311.4316797587017
 20
307.680444180938
 30
0.0
 11
311.4316797587017
 21
287.680444180938
 31
0.0
  0
LINE
  5
799F
330
18
100
AcDbEntity
  8
0
100
AcDbLine
 10
316.4316797587017
 20
307.680444180938
 30
0.0
 11
316.4316797587017
 21
287.680444180938
 31
0.0
  0
LINE
  5
79A0
330
18
100
AcDbEntity
  8
0
100
AcDbLine
 10
276.4316797587017
 20
307.680444180938
 30
0.0
 11
276.4316797587017
 21
287.680444180938
 31
0.0
  0
LINE
  5
79A1
330
18
100
AcDbEntity
  8
0
100
AcDbLine
 10
281.4316797587017
 20
307.680444180938
 30
0.0
 11
281.4316797587017
 21
287.680444180938
 31
0.0
  0
LINE
  5
79A2
330
18
100
AcDbEntity
  8
0
100
AcDbLine
 10
271.4316797587017
 20
307.680444180938
 30
0.0
 11
271.4316797587017
 21
287.680444180938
 31
0.0
  0
LINE
  5
79A3
330
18
100
AcDbEntity
  8
0
100
AcDbLine
 10
291.4316797587017
 20
307.680444180938
 30
0.0
 11
291.4316797587017
 21
287.680444180938
 31
0.0
  0
LINE
  5
79A4
330
18
100
AcDbEntity
  8
0
100
AcDbLine
 10
286.4316797587017
 20
307.680444180938
 30
0.0
 11
286.4316797587017
 21
287.680444180938
 31
0.0
  0
LINE
  5
79A5
330
18
100
AcDbEntity
  8
0
100
AcDbLine
 10
296.4316797587017
 20
282.680444180938
 30
0.0
 11
291.4316797587017
 21
282.680444180938
 31
0.0
  0
LINE
  5
79A6
330
18
100
AcDbEntity
  8
0
100
AcDbLine
 10
296.4316797587017
 20
287.680444180938
 30
0.0
 11
291.4316797587017
 21
287.680444180938
 31
0.0
  0
LINE
  5
79A7
330
18
100
AcDbEntity
  8
0
100
AcDbLine
 10
296.4316797587017
 20
262.680444180938
 30
0.0
 11
291.4316797587017
 21
262.680444180938
 31
0.0
  0
LINE
  5
79A8
330
18
100
AcDbEntity
  8
0
100
AcDbLine
 10
286.4316797587017
 20
282.680444180938
 30
0.0
 11
281.4316797587017
 21
282.680444180938
 31
0.0
  0
LINE
  5
79A9
330
18
100
AcDbEntity
  8
0
100
AcDbLine
 10
286.4316797587017
 20
287.680444180938
 30
0.0
 11
281.4316797587017
 21
287.680444180938
 31
0.0
  0
LINE
  5
79AA
330
18
100
AcDbEntity
  8
0
100
AcDbLine
 10
276.4316797587017
 20
287.680444180938
 30
0.0
 11
271.4316797587017
 21
287.680444180938
 31
0.0
  0
LINE
  5
79AB
330
18
100
AcDbEntity
  8
0
100
AcDbLine
 10
276.4316797587017
 20
282.680444180938
 30
0.0
 11
271.4316797587017
 21
282.680444180938
 31
0.0
  0
LINE
  5
79AC
330
18
100
AcDbEntity
  8
0
100
AcDbLine
 10
286.4316797587017
 20
262.680444180938
 30
0.0
 11
281.4316797587017
 21
262.680444180938
 31
0.0
  0
LINE
  5
79AD
330
18
100
AcDbEntity
  8
0
100
AcDbLine
 10
276.4316797587017
 20
262.680444180938
 30
0.0
 11
271.4316797587017
 21
262.680444180938
 31
0.0
  0
LINE
  5
79AE
330
18
100
AcDbEntity
  8
0
100
AcDbLine
 10
291.4316797587017
 20
282.680444180938
 30
0.0
 11
291.4316797587017
 21
262.680444180938
 31
0.0
  0
LINE
  5
79AF
330
18
100
AcDbEntity
  8
0
100
AcDbLine
 10
286.4316797587017
 20
282.680444180938
 30
0.0
 11
286.4316797587017
 21
262.680444180938
 31
0.0
  0
LINE
  5
79B0
330
18
100
AcDbEntity
  8
0
100
AcDbLine
 10
276.4316797587017
 20
282.680444180938
 30
0.0
 11
276.4316797587017
 21
262.680444180938
 31
0.0
  0
LINE
  5
79B1
330
18
100
AcDbEntity
  8
0
100
AcDbLine
 10
281.4316797587017
 20
282.680444180938
 30
0.0
 11
281.4316797587017
 21
262.680444180938
 31
0.0
  0
LINE
  5
79B2
330
18
100
AcDbEntity
  8
0
100
AcDbLine
 10
271.4316797587017
 20
282.680444180938
 30
0.0
 11
271.4316797587017
 21
262.680444180938
 31
0.0
  0
LINE
  5
79B3
330
18
100
AcDbEntity
  8
0
100
AcDbLine
 10
306.4316797587017
 20
282.680444180938
 30
0.0
 11
301.4316797587017
 21
282.680444180938
 31
0.0
  0
LINE
  5
79B4
330
18
100
AcDbEntity
  8
0
100
AcDbLine
 10
306.4316797587017
 20
287.680444180938
 30
0.0
 11
301.4316797587017
 21
287.680444180938
 31
0.0
  0
LINE
  5
79B5
330
18
100
AcDbEntity
  8
0
100
AcDbLine
 10
316.4316797587017
 20
282.680444180938
 30
0.0
 11
311.4316797587017
 21
282.680444180938
 31
0.0
  0
LINE
  5
79B6
330
18
100
AcDbEntity
  8
0
100
AcDbLine
 10
316.4316797587017
 20
287.680444180938
 30
0.0
 11
311.4316797587017
 21
287.680444180938
 31
0.0
  0
LINE
  5
79B7
330
18
100
AcDbEntity
  8
0
100
AcDbLine
 10
306.4316797587017
 20
262.680444180938
 30
0.0
 11
301.4316797587017
 21
262.680444180938
 31
0.0
  0
LINE
  5
79B8
330
18
100
AcDbEntity
  8
0
100
AcDbLine
 10
316.4316797587017
 20
262.680444180938
 30
0.0
 11
311.4316797587017
 21
262.680444180938
 31
0.0
  0
LINE
  5
79B9
330
18
100
AcDbEntity
  8
0
100
AcDbLine
 10
306.4316797587017
 20
282.680444180938
 30
0.0
 11
306.4316797587017
 21
262.680444180938
 31
0.0
  0
LINE
  5
79BA
330
18
100
AcDbEntity
  8
0
100
AcDbLine
 10
296.4316797587017
 20
282.680444180938
 30
0.0
 11
296.4316797587017
 21
262.680444180938
 31
0.0
  0
LINE
  5
79BB
330
18
100
AcDbEntity
  8
0
100
AcDbLine
 10
301.4316797587017
 20
282.680444180938
 30
0.0
 11
301.4316797587017
 21
262.680444180938
 31
0.0
  0
LINE
  5
79BC
330
18
100
AcDbEntity
  8
0
100
AcDbLine
 10
316.4316797587017
 20
282.680444180938
 30
0.0
 11
316.4316797587017
 21
262.680444180938
 31
0.0
  0
LINE
  5
79BD
330
18
100
AcDbEntity
  8
0
100
AcDbLine
 10
311.4316797587017
 20
282.680444180938
 30
0.0
 11
311.4316797587017
 21
262.680444180938
 31
0.0
  0
LINE
  5
79BE
330
18
100
AcDbEntity
  8
0
100
AcDbLine
 10
293.9316797587017
 20
320.680444180938
 30
0.0
 11
302.9316797587017
 21
320.680444180938
 31
0.0
  0
LINE
  5
79BF
330
18
100
AcDbEntity
  8
0
100
AcDbLine
 10
296.4316797587017
 20
307.680444180938
 30
0.0
 11
291.4316797587017
 21
307.680444180938
 31
0.0
  0
LINE
  5
79C0
330
18
100
AcDbEntity
  8
0
100
AcDbLine
 10
281.9316797587017
 20
320.680444180938
 30
0.0
 11
290.9316797587017
 21
320.680444180938
 31
0.0
  0
LINE
  5
79C1
330
18
100
AcDbEntity
  8
0
100
AcDbLine
 10
286.4316797587017
 20
307.680444180938
 30
0.0
 11
281.4316797587017
 21
307.680444180938
 31
0.0
  0
LINE
  5
79C2
330
18
100
AcDbEntity
  8
0
100
AcDbLine
 10
276.4316797587017
 20
307.680444180938
 30
0.0
 11
271.4316797587017
 21
307.680444180938
 31
0.0
  0
LINE
  5
79C3
330
18
100
AcDbEntity
  8
0
100
AcDbLine
 10
305.9316797587017
 20
320.680444180938
 30
0.0
 11
314.9316797587017
 21
320.680444180938
 31
0.0
  0
LINE
  5
79C4
330
18
100
AcDbEntity
  8
0
100
AcDbLine
 10
306.4316797587017
 20
307.680444180938
 30
0.0
 11
301.4316797587017
 21
307.680444180938
 31
0.0
  0
LINE
  5
79C5
330
18
100
AcDbEntity
  8
0
100
AcDbLine
 10
316.4316797587017
 20
307.680444180938
 30
0.0
 11
311.4316797587017
 21
307.680444180938
 31
0.0
  0
LINE
  5
79C6
330
18
100
AcDbEntity
  8
0
100
AcDbLine
 10
276.4316797587015
 20
372.680444180938
 30
0.0
 11
223.4316797587017
 21
372.680444180938
 31
0.0
  0
LINE
  5
79C7
330
18
100
AcDbEntity
  8
0
100
AcDbLine
 10
246.4316797587015
 20
362.680444180938
 30
0.0
 11
241.4316797587015
 21
362.680444180938
 31
0.0
  0
LINE
  5
79C8
330
18
100
AcDbEntity
  8
0
100
AcDbLine
 10
236.4316797587015
 20
362.680444180938
 30
0.0
 11
231.4316797587015
 21
362.680444180938
 31
0.0
  0
LINE
  5
79CC
330
18
100
AcDbEntity
  8
0
100
AcDbLine
 10
256.4316797587015
 20
362.680444180938
 30
0.0
 11
251.4316797587015
 21
362.680444180938
 31
0.0
  0
LINE
  5
79CD
330
18
100
AcDbEntity
  8
0
100
AcDbLine
 10
266.4316797587015
 20
362.680444180938
 30
0.0
 11
261.4316797587015
 21
362.680444180938
 31
0.0
  0
LINE
  5
79CE
330
18
100
AcDbEntity
  8
0
100
AcDbLine
 10
293.9316797587017
 20
370.680444180938
 30
0.0
 11
302.9316797587017
 21
370.680444180938
 31
0.0
  0
LINE
  5
79CF
330
18
100
AcDbEntity
  8
0
100
AcDbLine
 10
281.9316797587017
 20
370.680444180938
 30
0.0
 11
290.9316797587017
 21
370.680444180938
 31
0.0
  0
LINE
  5
79D0
330
18
100
AcDbEntity
  8
0
100
AcDbLine
 10
276.4316797587015
 20
372.680444180938
 30
0.0
 11
277.4316797587015
 21
371.680444180938
 31
0.0
  0
LINE
  5
79D1
330
18
100
AcDbEntity
  8
0
100
AcDbLine
 10
305.9316797587017
 20
370.680444180938
 30
0.0
 11
314.9316797587017
 21
370.680444180938
 31
0.0
  0
LINE
  5
79D2
330
18
100
AcDbEntity
  8
0
100
AcDbLine
 10
389.9316797587017
 20
320.680444180938
 30
0.0
 11
389.9316797587017
 21
370.680444180938
 31
0.0
  0
LINE
  5
79D3
330
18
100
AcDbEntity
  8
0
100
AcDbLine
 10
398.9316797587017
 20
320.680444180938
 30
0.0
 11
398.9316797587017
 21
370.680444180938
 31
0.0
  0
LINE
  5
79D4
330
18
100
AcDbEntity
  8
0
100
AcDbLine
 10
402.4316797587017
 20
314.680444180938
 30
0.0
 11
402.4316797587017
 21
374.680444180938
 31
0.0
  0
LINE
  5
79D5
330
18
100
AcDbEntity
  8
0
100
AcDbLine
 10
374.9316797587017
 20
320.680444180938
 30
0.0
 11
374.9316797587017
 21
370.680444180938
 31
0.0
  0
LINE
  5
79D6
330
18
100
AcDbEntity
  8
0
100
AcDbLine
 10
377.9316797587017
 20
320.680444180938
 30
0.0
 11
377.9316797587017
 21
370.680444180938
 31
0.0
  0
LINE
  5
79D7
330
18
100
AcDbEntity
  8
0
100
AcDbLine
 10
386.9316797587017
 20
320.680444180938
 30
0.0
 11
386.9316797587017
 21
370.680444180938
 31
0.0
  0
LINE
  5
79D8
330
18
100
AcDbEntity
  8
0
100
AcDbLine
 10
341.9316797587017
 20
320.680444180938
 30
0.0
 11
341.9316797587017
 21
370.680444180938
 31
0.0
  0
LINE
  5
79D9
330
18
100
AcDbEntity
  8
0
100
AcDbLine
 10
338.9316797587017
 20
320.680444180938
 30
0.0
 11
338.9316797587017
 21
370.680444180938
 31
0.0
  0
LINE
  5
79DA
330
18
100
AcDbEntity
  8
0
100
AcDbLine
 10
326.9316797587017
 20
320.680444180938
 30
0.0
 11
326.9316797587017
 21
370.680444180938
 31
0.0
  0
LINE
  5
79DB
330
18
100
AcDbEntity
  8
0
100
AcDbLine
 10
329.9316797587017
 20
320.680444180938
 30
0.0
 11
329.9316797587017
 21
370.680444180938
 31
0.0
  0
LINE
  5
79DC
330
18
100
AcDbEntity
  8
0
100
AcDbLine
 10
350.9316797587017
 20
320.680444180938
 30
0.0
 11
350.9316797587017
 21
370.680444180938
 31
0.0
  0
LINE
  5
79DD
330
18
100
AcDbEntity
  8
0
100
AcDbLine
 10
353.9316797587017
 20
320.680444180938
 30
0.0
 11
353.9316797587017
 21
370.680444180938
 31
0.0
  0
LINE
  5
79DE
330
18
100
AcDbEntity
  8
0
100
AcDbLine
 10
362.9316797587017
 20
320.680444180938
 30
0.0
 11
362.9316797587017
 21
370.680444180938
 31
0.0
  0
LINE
  5
79DF
330
18
100
AcDbEntity
  8
0
100
AcDbLine
 10
365.9316797587017
 20
320.680444180938
 30
0.0
 11
365.9316797587017
 21
370.680444180938
 31
0.0
  0
LINE
  5
79E0
330
18
100
AcDbEntity
  8
0
100
AcDbLine
 10
365.9316797587017
 20
320.680444180938
 30
0.0
 11
374.9316797587017
 21
320.680444180938
 31
0.0
  0
LINE
  5
79E1
330
18
100
AcDbEntity
  8
0
100
AcDbLine
 10
346.4316797587017
 20
307.680444180938
 30
0.0
 11
346.4316797587017
 21
287.6804441809382
 31
0.0
  0
LINE
  5
79E2
330
18
100
AcDbEntity
  8
0
100
AcDbLine
 10
351.4316797587017
 20
307.680444180938
 30
0.0
 11
351.4316797587017
 21
287.6804441809382
 31
0.0
  0
LINE
  5
79E3
330
18
100
AcDbEntity
  8
0
100
AcDbLine
 10
356.4316797587017
 20
307.680444180938
 30
0.0
 11
356.4316797587017
 21
287.6804441809382
 31
0.0
  0
LINE
  5
79E4
330
18
100
AcDbEntity
  8
0
100
AcDbLine
 10
366.4316797587017
 20
307.680444180938
 30
0.0
 11
366.4316797587017
 21
287.6804441809382
 31
0.0
  0
LINE
  5
79E5
330
18
100
AcDbEntity
  8
0
100
AcDbLine
 10
361.4316797587017
 20
307.680444180938
 30
0.0
 11
361.4316797587017
 21
287.6804441809382
 31
0.0
  0
LINE
  5
79E6
330
18
100
AcDbEntity
  8
0
100
AcDbLine
 10
331.4316797587017
 20
307.680444180938
 30
0.0
 11
331.4316797587017
 21
287.6804441809382
 31
0.0
  0
LINE
  5
79E7
330
18
100
AcDbEntity
  8
0
100
AcDbLine
 10
326.4316797587017
 20
307.680444180938
 30
0.0
 11
326.4316797587017
 21
287.680444180938
 31
0.0
  0
LINE
  5
79E8
330
18
100
AcDbEntity
  8
0
100
AcDbLine
 10
321.4316797587017
 20
307.680444180938
 30
0.0
 11
321.4316797587017
 21
287.680444180938
 31
0.0
  0
LINE
  5
79E9
330
18
100
AcDbEntity
  8
0
100
AcDbLine
 10
336.4316797587017
 20
307.680444180938
 30
0.0
 11
336.4316797587017
 21
287.6804441809382
 31
0.0
  0
LINE
  5
79EA
330
18
100
AcDbEntity
  8
0
100
AcDbLine
 10
341.4316797587017
 20
307.680444180938
 30
0.0
 11
341.4316797587017
 21
287.6804441809382
 31
0.0
  0
LINE
  5
79EB
330
18
100
AcDbEntity
  8
0
100
AcDbLine
 10
346.4316797587017
 20
282.6804441809382
 30
0.0
 11
341.4316797587017
 21
282.6804441809382
 31
0.0
  0
LINE
  5
79EC
330
18
100
AcDbEntity
  8
0
100
AcDbLine
 10
346.4316797587017
 20
287.6804441809382
 30
0.0
 11
341.4316797587017
 21
287.6804441809382
 31
0.0
  0
LINE
  5
79ED
330
18
100
AcDbEntity
  8
0
100
AcDbLine
 10
346.4316797587017
 20
262.6804441809382
 30
0.0
 11
341.4316797587017
 21
262.6804441809382
 31
0.0
  0
LINE
  5
79EE
330
18
100
AcDbEntity
  8
0
100
AcDbLine
 10
336.4316797587017
 20
282.6804441809382
 30
0.0
 11
331.4316797587017
 21
282.6804441809382
 31
0.0
  0
LINE
  5
79EF
330
18
100
AcDbEntity
  8
0
100
AcDbLine
 10
336.4316797587017
 20
287.6804441809382
 30
0.0
 11
331.4316797587017
 21
287.6804441809382
 31
0.0
  0
LINE
  5
79F0
330
18
100
AcDbEntity
  8
0
100
AcDbLine
 10
326.4316797587017
 20
282.680444180938
 30
0.0
 11
321.4316797587017
 21
282.680444180938
 31
0.0
  0
LINE
  5
79F1
330
18
100
AcDbEntity
  8
0
100
AcDbLine
 10
326.4316797587017
 20
287.680444180938
 30
0.0
 11
321.4316797587017
 21
287.680444180938
 31
0.0
  0
LINE
  5
79F2
330
18
100
AcDbEntity
  8
0
100
AcDbLine
 10
336.4316797587017
 20
262.6804441809382
 30
0.0
 11
331.4316797587017
 21
262.6804441809382
 31
0.0
  0
LINE
  5
79F3
330
18
100
AcDbEntity
  8
0
100
AcDbLine
 10
326.4316797587017
 20
262.680444180938
 30
0.0
 11
321.4316797587017
 21
262.680444180938
 31
0.0
  0
LINE
  5
79F4
330
18
100
AcDbEntity
  8
0
100
AcDbLine
 10
336.4316797587017
 20
282.6804441809382
 30
0.0
 11
336.4316797587017
 21
262.6804441809382
 31
0.0
  0
LINE
  5
79F5
330
18
100
AcDbEntity
  8
0
100
AcDbLine
 10
341.4316797587017
 20
282.6804441809382
 30
0.0
 11
341.4316797587017
 21
262.6804441809382
 31
0.0
  0
LINE
  5
79F6
330
18
100
AcDbEntity
  8
0
100
AcDbLine
 10
331.4316797587017
 20
282.6804441809382
 30
0.0
 11
331.4316797587017
 21
262.6804441809382
 31
0.0
  0
LINE
  5
79F7
330
18
100
AcDbEntity
  8
0
100
AcDbLine
 10
326.4316797587017
 20
282.680444180938
 30
0.0
 11
326.4316797587017
 21
262.680444180938
 31
0.0
  0
LINE
  5
79F8
330
18
100
AcDbEntity
  8
0
100
AcDbLine
 10
321.4316797587017
 20
282.680444180938
 30
0.0
 11
321.4316797587017
 21
262.680444180938
 31
0.0
  0
LINE
  5
79F9
330
18
100
AcDbEntity
  8
0
100
AcDbLine
 10
356.4316797587017
 20
282.6804441809382
 30
0.0
 11
351.4316797587017
 21
282.6804441809382
 31
0.0
  0
LINE
  5
79FA
330
18
100
AcDbEntity
  8
0
100
AcDbLine
 10
356.4316797587017
 20
287.6804441809382
 30
0.0
 11
351.4316797587017
 21
287.6804441809382
 31
0.0
  0
LINE
  5
79FB
330
18
100
AcDbEntity
  8
0
100
AcDbLine
 10
366.4316797587017
 20
282.6804441809382
 30
0.0
 11
361.4316797587017
 21
282.6804441809382
 31
0.0
  0
LINE
  5
79FC
330
18
100
AcDbEntity
  8
0
100
AcDbLine
 10
366.4316797587017
 20
287.6804441809382
 30
0.0
 11
361.4316797587017
 21
287.6804441809382
 31
0.0
  0
LINE
  5
79FD
330
18
100
AcDbEntity
  8
0
100
AcDbLine
 10
356.4316797587017
 20
262.6804441809382
 30
0.0
 11
351.4316797587017
 21
262.6804441809382
 31
0.0
  0
LINE
  5
79FE
330
18
100
AcDbEntity
  8
0
100
AcDbLine
 10
366.4316797587017
 20
262.6804441809382
 30
0.0
 11
361.4316797587017
 21
262.6804441809382
 31
0.0
  0
LINE
  5
79FF
330
18
100
AcDbEntity
  8
0
100
AcDbLine
 10
346.4316797587017
 20
282.6804441809382
 30
0.0
 11
346.4316797587017
 21
262.6804441809382
 31
0.0
  0
LINE
  5
7A00
330
18
100
AcDbEntity
  8
0
100
AcDbLine
 10
351.4316797587017
 20
282.6804441809382
 30
0.0
 11
351.4316797587017
 21
262.6804441809382
 31
0.0
  0
LINE
  5
7A01
330
18
100
AcDbEntity
  8
0
100
AcDbLine
 10
356.4316797587017
 20
282.6804441809382
 30
0.0
 11
356.4316797587017
 21
262.6804441809382
 31
0.0
  0
LINE
  5
7A02
330
18
100
AcDbEntity
  8
0
100
AcDbLine
 10
366.4316797587017
 20
282.6804441809382
 30
0.0
 11
366.4316797587017
 21
262.6804441809382
 31
0.0
  0
LINE
  5
7A03
330
18
100
AcDbEntity
  8
0
100
AcDbLine
 10
361.4316797587017
 20
282.6804441809382
 30
0.0
 11
361.4316797587017
 21
262.6804441809382
 31
0.0
  0
LINE
  5
7A04
330
18
100
AcDbEntity
  8
0
100
AcDbLine
 10
341.9316797587017
 20
320.680444180938
 30
0.0
 11
350.9316797587017
 21
320.680444180938
 31
0.0
  0
LINE
  5
7A05
330
18
100
AcDbEntity
  8
0
100
AcDbLine
 10
346.4316797587017
 20
307.680444180938
 30
0.0
 11
341.4316797587017
 21
307.680444180938
 31
0.0
  0
LINE
  5
7A06
330
18
100
AcDbEntity
  8
0
100
AcDbLine
 10
329.9316797587017
 20
320.680444180938
 30
0.0
 11
338.9316797587017
 21
320.680444180938
 31
0.0
  0
LINE
  5
7A07
330
18
100
AcDbEntity
  8
0
100
AcDbLine
 10
327.6071062392448
 20
313.680444180938
 30
0.0
 11
327.6071062392448
 21
314.680444180938
 31
0.0
  0
LINE
  5
7A08
330
18
100
AcDbEntity
  8
0
100
AcDbLine
 10
326.0193929989735
 20
313.680444180938
 30
0.0
 11
326.0193929989733
 21
314.680444180938
 31
0.0
  0
LINE
  5
7A09
330
18
100
AcDbEntity
  8
0
100
AcDbLine
 10
322.8439665184302
 20
313.680444180938
 30
0.0
 11
322.8439665184304
 21
314.680444180938
 31
0.0
  0
LINE
  5
7A0A
330
18
100
AcDbEntity
  8
0
100
AcDbLine
 10
321.2562532781588
 20
314.680444180938
 30
0.0
 11
321.2562532781588
 21
313.680444180938
 31
0.0
  0
LINE
  5
7A0B
330
18
100
AcDbEntity
  8
0
100
AcDbLine
 10
327.6071062392448
 20
314.680444180938
 30
0.0
 11
321.2562532781588
 21
314.680444180938
 31
0.0
  0
LINE
  5
7A0C
330
18
100
AcDbEntity
  8
0
100
AcDbLine
 10
324.4316797587017
 20
314.680444180938
 30
0.0
 11
324.4316797587017
 21
313.680444180938
 31
0.0
  0
LINE
  5
7A0D
330
18
100
AcDbEntity
  8
0
100
AcDbLine
 10
336.4316797587017
 20
307.680444180938
 30
0.0
 11
331.4316797587017
 21
307.680444180938
 31
0.0
  0
LINE
  5
7A0E
330
18
100
AcDbEntity
  8
0
100
AcDbLine
 10
326.4316797587017
 20
307.680444180938
 30
0.0
 11
321.4316797587017
 21
307.680444180938
 31
0.0
  0
LINE
  5
7A0F
330
18
100
AcDbEntity
  8
0
100
AcDbLine
 10
353.9316797587017
 20
320.680444180938
 30
0.0
 11
362.9316797587017
 21
320.680444180938
 31
0.0
  0
LINE
  5
7A10
330
18
100
AcDbEntity
  8
0
100
AcDbLine
 10
356.4316797587017
 20
307.680444180938
 30
0.0
 11
351.4316797587017
 21
307.680444180938
 31
0.0
  0
LINE
  5
7A11
330
18
100
AcDbEntity
  8
0
100
AcDbLine
 10
366.4316797587017
 20
307.680444180938
 30
0.0
 11
361.4316797587017
 21
307.680444180938
 31
0.0
  0
LINE
  5
7A12
330
18
100
AcDbEntity
  8
0
100
AcDbLine
 10
396.4316797587017
 20
307.680444180938
 30
0.0
 11
396.4316797587017
 21
287.6804441809382
 31
0.0
  0
LINE
  5
7A13
330
18
100
AcDbEntity
  8
0
100
AcDbLine
 10
371.4316797587017
 20
307.680444180938
 30
0.0
 11
371.4316797587017
 21
287.6804441809382
 31
0.0
  0
LINE
  5
7A14
330
18
100
AcDbEntity
  8
0
100
AcDbLine
 10
376.4316797587017
 20
307.680444180938
 30
0.0
 11
376.4316797587017
 21
287.6804441809382
 31
0.0
  0
LINE
  5
7A15
330
18
100
AcDbEntity
  8
0
100
AcDbLine
 10
381.4316797587017
 20
307.680444180938
 30
0.0
 11
381.4316797587017
 21
287.6804441809382
 31
0.0
  0
LINE
  5
7A16
330
18
100
AcDbEntity
  8
0
100
AcDbLine
 10
386.4316797587017
 20
307.680444180938
 30
0.0
 11
386.4316797587017
 21
287.6804441809382
 31
0.0
  0
LINE
  5
7A17
330
18
100
AcDbEntity
  8
0
100
AcDbLine
 10
391.4316797587017
 20
307.680444180938
 30
0.0
 11
391.4316797587017
 21
287.6804441809382
 31
0.0
  0
LINE
  5
7A18
330
18
100
AcDbEntity
  8
0
100
AcDbLine
 10
407.4316797587017
 20
264.6804441809382
 30
0.0
 11
407.4316797587017
 21
313.680444180938
 31
0.0
  0
LINE
  5
7A19
330
18
100
AcDbEntity
  8
0
100
AcDbLine
 10
396.4316797587017
 20
282.6804441809382
 30
0.0
 11
391.4316797587017
 21
282.6804441809382
 31
0.0
  0
LINE
  5
7A1A
330
18
100
AcDbEntity
  8
0
100
AcDbLine
 10
396.4316797587017
 20
287.6804441809382
 30
0.0
 11
391.4316797587017
 21
287.6804441809382
 31
0.0
  0
LINE
  5
7A1B
330
18
100
AcDbEntity
  8
0
100
AcDbLine
 10
396.4316797587017
 20
262.6804441809382
 30
0.0
 11
391.4316797587017
 21
262.6804441809382
 31
0.0
  0
LINE
  5
7A1C
330
18
100
AcDbEntity
  8
0
100
AcDbLine
 10
386.4316797587017
 20
282.6804441809382
 30
0.0
 11
381.4316797587017
 21
282.6804441809382
 31
0.0
  0
LINE
  5
7A1D
330
18
100
AcDbEntity
  8
0
100
AcDbLine
 10
386.4316797587017
 20
287.6804441809382
 30
0.0
 11
381.4316797587017
 21
287.6804441809382
 31
0.0
  0
LINE
  5
7A1E
330
18
100
AcDbEntity
  8
0
100
AcDbLine
 10
376.4316797587017
 20
282.6804441809382
 30
0.0
 11
371.4316797587017
 21
282.6804441809382
 31
0.0
  0
LINE
  5
7A1F
330
18
100
AcDbEntity
  8
0
100
AcDbLine
 10
376.4316797587017
 20
287.6804441809382
 30
0.0
 11
371.4316797587017
 21
287.6804441809382
 31
0.0
  0
LINE
  5
7A20
330
18
100
AcDbEntity
  8
0
100
AcDbLine
 10
386.4316797587017
 20
262.6804441809382
 30
0.0
 11
381.4316797587017
 21
262.6804441809382
 31
0.0
  0
LINE
  5
7A21
330
18
100
AcDbEntity
  8
0
100
AcDbLine
 10
376.4316797587017
 20
262.6804441809382
 30
0.0
 11
371.4316797587017
 21
262.6804441809382
 31
0.0
  0
LINE
  5
7A22
330
18
100
AcDbEntity
  8
0
100
AcDbLine
 10
386.4316797587017
 20
282.6804441809382
 30
0.0
 11
386.4316797587017
 21
262.6804441809382
 31
0.0
  0
LINE
  5
7A23
330
18
100
AcDbEntity
  8
0
100
AcDbLine
 10
391.4316797587017
 20
282.6804441809382
 30
0.0
 11
391.4316797587017
 21
262.6804441809382
 31
0.0
  0
LINE
  5
7A24
330
18
100
AcDbEntity
  8
0
100
AcDbLine
 10
371.4316797587017
 20
282.6804441809382
 30
0.0
 11
371.4316797587017
 21
262.6804441809382
 31
0.0
  0
LINE
  5
7A25
330
18
100
AcDbEntity
  8
0
100
AcDbLine
 10
376.4316797587017
 20
282.6804441809382
 30
0.0
 11
376.4316797587017
 21
262.6804441809382
 31
0.0
  0
LINE
  5
7A26
330
18
100
AcDbEntity
  8
0
100
AcDbLine
 10
381.4316797587017
 20
282.6804441809382
 30
0.0
 11
381.4316797587017
 21
262.6804441809382
 31
0.0
  0
LINE
  5
7A27
330
18
100
AcDbEntity
  8
0
100
AcDbLine
 10
407.4316797587017
 20
262.6804441809382
 30
0.0
 11
406.4316797587017
 21
262.6804441809382
 31
0.0
  0
LINE
  5
7A28
330
18
100
AcDbEntity
  8
0
100
AcDbLine
 10
407.4316797587017
 20
264.6804441809382
 30
0.0
 11
404.4316797587018
 21
264.680444180938
 31
0.0
  0
LINE
  5
7A29
330
18
100
AcDbEntity
  8
0
100
AcDbLine
 10
407.4316797587017
 20
264.6804441809382
 30
0.0
 11
406.4316797587017
 21
264.6804441809382
 31
0.0
  0
LINE
  5
7A2A
330
18
100
AcDbEntity
  8
0
100
AcDbLine
 10
407.4316797587017
 20
262.6804441809382
 30
0.0
 11
406.4316797587017
 21
262.6804441809382
 31
0.0
  0
LINE
  5
7A2B
330
18
100
AcDbEntity
  8
0
100
AcDbLine
 10
396.4316797587017
 20
282.6804441809382
 30
0.0
 11
396.4316797587017
 21
262.6804441809382
 31
0.0
  0
LINE
  5
7A2C
330
18
100
AcDbEntity
  8
0
100
AcDbLine
 10
389.9316797587017
 20
320.680444180938
 30
0.0
 11
398.9316797587017
 21
320.680444180938
 31
0.0
  0
LINE
  5
7A2D
330
18
100
AcDbEntity
  8
0
100
AcDbLine
 10
396.4316797587017
 20
307.680444180938
 30
0.0
 11
391.4316797587017
 21
307.680444180938
 31
0.0
  0
LINE
  5
7A2E
330
18
100
AcDbEntity
  8
0
100
AcDbLine
 10
377.9316797587017
 20
320.680444180938
 30
0.0
 11
386.9316797587017
 21
320.680444180938
 31
0.0
  0
LINE
  5
7A2F
330
18
100
AcDbEntity
  8
0
100
AcDbLine
 10
386.4316797587017
 20
307.680444180938
 30
0.0
 11
381.4316797587017
 21
307.680444180938
 31
0.0
  0
LINE
  5
7A30
330
18
100
AcDbEntity
  8
0
100
AcDbLine
 10
376.4316797587017
 20
307.680444180938
 30
0.0
 11
371.4316797587017
 21
307.680444180938
 31
0.0
  0
LINE
  5
7A31
330
18
100
AcDbEntity
  8
0
100
AcDbLine
 10
401.6071062392448
 20
314.680444180938
 30
0.0
 11
395.2562532781588
 21
314.680444180938
 31
0.0
  0
LINE
  5
7A32
330
18
100
AcDbEntity
  8
0
100
AcDbLine
 10
395.2562532781588
 20
314.680444180938
 30
0.0
 11
395.2562532781588
 21
313.680444180938
 31
0.0
  0
LINE
  5
7A33
330
18
100
AcDbEntity
  8
0
100
AcDbLine
 10
396.8439665184302
 20
313.680444180938
 30
0.0
 11
396.8439665184304
 21
314.680444180938
 31
0.0
  0
LINE
  5
7A34
330
18
100
AcDbEntity
  8
0
100
AcDbLine
 10
400.0193929989735
 20
313.680444180938
 30
0.0
 11
400.0193929989733
 21
314.680444180938
 31
0.0
  0
LINE
  5
7A35
330
18
100
AcDbEntity
  8
0
100
AcDbLine
 10
401.6071062392448
 20
313.680444180938
 30
0.0
 11
401.6071062392448
 21
314.680444180938
 31
0.0
  0
LINE
  5
7A36
330
18
100
AcDbEntity
  8
0
100
AcDbLine
 10
398.4316797587017
 20
314.680444180938
 30
0.0
 11
398.4316797587017
 21
313.680444180938
 31
0.0
  0
LINE
  5
7A37
330
18
100
AcDbEntity
  8
0
100
AcDbLine
 10
406.4316797587017
 20
313.680444180938
 30
0.0
 11
407.4316797587017
 21
313.680444180938
 31
0.0
  0
LINE
  5
7A38
330
18
100
AcDbEntity
  8
0
100
AcDbLine
 10
365.9316797587017
 20
370.680444180938
 30
0.0
 11
374.9316797587017
 21
370.680444180938
 31
0.0
  0
LINE
  5
7A39
330
18
100
AcDbEntity
  8
0
100
AcDbLine
 10
341.9316797587017
 20
370.680444180938
 30
0.0
 11
350.9316797587017
 21
370.680444180938
 31
0.0
  0
LINE
  5
7A3A
330
18
100
AcDbEntity
  8
0
100
AcDbLine
 10
329.9316797587017
 20
370.680444180938
 30
0.0
 11
338.9316797587017
 21
370.680444180938
 31
0.0
  0
LINE
  5
7A3B
330
18
100
AcDbEntity
  8
0
100
AcDbLine
 10
353.9316797587017
 20
370.680444180938
 30
0.0
 11
362.9316797587017
 21
370.680444180938
 31
0.0
  0
LINE
  5
7A3C
330
18
100
AcDbEntity
  8
0
100
AcDbLine
 10
389.9316797587017
 20
370.680444180938
 30
0.0
 11
398.9316797587017
 21
370.680444180938
 31
0.0
  0
LINE
  5
7A3D
330
18
100
AcDbEntity
  8
0
100
AcDbLine
 10
377.9316797587017
 20
370.680444180938
 30
0.0
 11
386.9316797587017
 21
370.680444180938
 31
0.0
  0
LINE
  5
7A3E
330
18
100
AcDbEntity
  8
0
100
AcDbLine
 10
410.431679758702
 20
367.680444180938
 30
0.0
 11
407.4316797587021
 21
367.6804441809375
 31
0.0
  0
LINE
  5
80EB
330
18
100
AcDbEntity
  8
0
100
AcDbLine
 10
212.9316797587024
 20
85.23336983912225
 30
0.0
 11
212.9316797587024
 21
93.23336983912225
 31
0.0
  0
LINE
  5
80EC
330
18
100
AcDbEntity
  8
0
100
AcDbLine
 10
213.9316797587024
 20
84.73336983912224
 30
0.0
 11
213.9316797587024
 21
93.73336983912224
 31
0.0
  0
ARC
  5
80ED
330
18
100
AcDbEntity
  8
0
100
AcDbCircle
 10
214.2973989758446
 20
87.93479101340915
 30
0.0
 40
5.471757172276427
100
AcDbArc
 50
104.4535042664221
 51
142.926630785531
  0
LINE
  5
80EE
330
18
100
AcDbEntity
  8
0
100
AcDbLine
 10
220.4316797587015
 20
-32.76663016087798
 30
0.0
 11
220.4316797587015
 21
177.233369839122
 31
0.0
  0
LINE
  5
80EF
330
18
100
AcDbEntity
  8
0
100
AcDbLine
 10
223.4316797587015
 20
-32.76663016087798
 30
0.0
 11
223.4316797587015
 21
177.233369839122
 31
0.0
  0
LINE
  5
80FA
330
18
100
AcDbEntity
  8
0
100
AcDbLine
 10
407.4316797587015
 20
-47.76663016087797
 30
0.0
 11
407.4316797587015
 21
192.233369839122
 31
0.0
  0
LINE
  5
80FB
330
18
100
AcDbEntity
  8
0
100
AcDbLine
 10
410.431679758701
 20
-47.76663016087797
 30
0.0
 11
410.4316797587015
 21
192.233369839122
 31
0.0
  0
LINE
  5
80FC
330
18
100
AcDbEntity
  8
0
100
AcDbLine
 10
66.36083465698686
 20
-47.76663016087775
 30
0.0
 11
66.36083465698686
 21
192.233369839122
 31
0.0
  0
LINE
  5
80FD
330
18
100
AcDbEntity
  8
0
100
AcDbLine
 10
407.4316797587015
 20
-32.7666301608782
 30
0.0
 11
220.4316797587015
 21
-32.76663016087798
 31
0.0
  0
LINE
  5
8100
330
18
100
AcDbEntity
  8
0
100
AcDbLine
 10
24.36083465698686
 20
-47.76663016087775
 30
0.0
 11
-30.88916534301313
 21
-47.76663016087775
 31
0.0
  0
LINE
  5
8101
330
18
100
AcDbEntity
  8
0
100
AcDbLine
 10
-43.63916534301313
 20
-32.76663016087775
 30
0.0
 11
-43.63916534301313
 21
-47.76663016087775
 31
0.0
  0
LINE
  5
8102
330
18
100
AcDbEntity
  8
0
100
AcDbLine
 10
-36.38916534301313
 20
-42.76663016087775
 30
0.0
 11
-36.38916534301313
 21
-47.76663016087775
 31
0.0
  0
LINE
  5
8103
330
18
100
AcDbEntity
  8
0
100
AcDbLine
 10
-30.88916534301313
 20
-42.76663016087775
 30
0.0
 11
-30.88916534301313
 21
-47.76663016087775
 31
0.0
  0
LINE
  5
8104
330
18
100
AcDbEntity
  8
0
100
AcDbLine
 10
-36.38916534301313
 20
-47.76663016087775
 30
0.0
 11
-43.63916534301313
 21
-47.76663016087775
 31
0.0
  0
ARC
  5
8105
330
18
100
AcDbEntity
  8
0
100
AcDbCircle
 10
-33.63916534301313
 20
-42.76663016087775
 30
0.0
 40
2.75
100
AcDbArc
 50
0.0
 51
180.0
  0
LINE
  5
8116
330
18
100
AcDbEntity
  8
0
100
AcDbLine
 10
201.9316797587024
 20
5.733369839121792
 30
0.0
 11
201.9316797587024
 21
7.733369839122246
 31
0.0
  0
LINE
  5
811A
330
18
100
AcDbEntity
  8
0
 48
0.2
100
AcDbLine
 10
220.4316797587015
 20
-10.66663016087784
 30
0.0
 11
220.4316797587015
 21
32.83336983912238
 31
0.0
  0
LINE
  5
8125
330
18
100
AcDbEntity
  8
0
100
AcDbLine
 10
53.61083465698687
 20
-47.76663016087775
 30
0.0
 11
36.36083465698686
 21
-47.76663016087775
 31
0.0
  0
ARC
  5
8126
330
18
100
AcDbEntity
  8
0
100
AcDbCircle
 10
30.36083465698686
 20
-47.76663016087775
 30
0.0
 40
6.0
100
AcDbArc
 50
0.0
 51
180.0
  0
LINE
  5
8127
330
18
100
AcDbEntity
  8
0
100
AcDbLine
 10
53.61083465698687
 20
-42.76663016087775
 30
0.0
 11
53.61083465698687
 21
-47.76663016087775
 31
0.0
  0
LINE
  5
8128
330
18
100
AcDbEntity
  8
0
100
AcDbLine
 10
59.11083465698687
 20
-42.76663016087775
 30
0.0
 11
59.11083465698687
 21
-47.76663016087775
 31
0.0
  0
LINE
  5
8129
330
18
100
AcDbEntity
  8
0
100
AcDbLine
 10
66.36083465698686
 20
-47.76663016087775
 30
0.0
 11
59.11083465698687
 21
-47.76663016087775
 31
0.0
  0
ARC
  5
812A
330
18
100
AcDbEntity
  8
0
100
AcDbCircle
 10
56.36083465698686
 20
-42.76663016087775
 30
0.0
 40
2.75
100
AcDbArc
 50
0.0
 51
180.0
  0
LINE
  5
8194
330
18
100
AcDbEntity
  8
0
100
AcDbLine
 10
213.9316797587028
 20
5.433369839122065
 30
0.0
 11
220.4316797587015
 21
5.433369839122065
 31
0.0
  0
LINE
  5
8195
330
18
100
AcDbEntity
  8
0
100
AcDbLine
 10
213.9316797587028
 20
5.433369839122065
 30
0.0
 11
213.9316797587028
 21
5.733369839121792
 31
0.0
  0
LINE
  5
8196
330
18
100
AcDbEntity
  8
0
100
AcDbLine
 10
201.9316797587024
 20
5.733369839122246
 30
0.0
 11
220.4316797587015
 21
5.733369839121905
 31
0.0
  0
LINE
  5
8361
330
18
100
AcDbEntity
  8
0
100
AcDbLine
 10
213.9316797587028
 20
40.73336983912224
 30
0.0
 11
213.9316797587028
 21
49.73336983912179
 31
0.0
  0
ARC
  5
8362
330
18
100
AcDbEntity
  8
0
100
AcDbCircle
 10
214.2973989758446
 20
43.93479101340915
 30
0.0
 40
5.471757172276427
100
AcDbArc
 50
104.4535042664221
 51
142.926630785531
  0
LINE
  5
8363
330
18
100
AcDbEntity
  8
0
 48
0.2
100
AcDbLine
 10
181.4316797587011
 20
42.43336983912229
 30
0.0
 11
181.4316797587011
 21
58.23336983912202
 31
0.0
  0
LINE
  5
8364
330
18
100
AcDbEntity
  8
0
 48
0.2
100
AcDbLine
 10
220.4316797587011
 20
33.68336983912229
 30
0.0
 11
220.4316797587011
 21
66.98336983912202
 31
0.0
  0
LINE
  5
8365
330
18
100
AcDbEntity
  8
0
 48
0.2
100
AcDbLine
 10
197.431679758701
 20
42.43336983912229
 30
0.0
 11
197.431679758701
 21
58.23336983912202
 31
0.0
  0
LINE
  5
8366
330
18
100
AcDbEntity
  8
0
 48
0.2
100
AcDbLine
 10
202.431679758701
 20
42.43336983912229
 30
0.0
 11
202.431679758701
 21
58.23336983912202
 31
0.0
  0
LINE
  5
8367
330
18
100
AcDbEntity
  8
0
100
AcDbLine
 10
201.9316797587024
 20
16.73336983912224
 30
0.0
 11
201.9316797587024
 21
18.73336983912224
 31
0.0
  0
LINE
  5
8368
330
18
100
AcDbEntity
  8
0
100
AcDbLine
 10
209.9316797587024
 20
10.23336983912224
 30
0.0
 11
209.9316797587024
 21
14.23336983912179
 31
0.0
  0
LINE
  5
8369
330
18
100
AcDbEntity
  8
0
100
AcDbLine
 10
212.9316797587024
 20
19.23336983912224
 30
0.0
 11
213.9316797587024
 21
19.23336983912224
 31
0.0
  0
LINE
  5
836A
330
18
100
AcDbEntity
  8
0
100
AcDbLine
 10
212.9316797587024
 20
8.233369839121792
 30
0.0
 11
212.9316797587024
 21
16.23336983912179
 31
0.0
  0
LINE
  5
836B
330
18
100
AcDbEntity
  8
0
100
AcDbLine
 10
212.9316797587024
 20
8.233369839122246
 30
0.0
 11
213.9316797587024
 21
8.233369839122246
 31
0.0
  0
LINE
  5
836C
330
18
100
AcDbEntity
  8
0
100
AcDbLine
 10
212.9316797587024
 20
16.23336983912179
 30
0.0
 11
213.9316797587024
 21
16.23336983912179
 31
0.0
  0
LINE
  5
836D
330
18
100
AcDbEntity
  8
0
100
AcDbLine
 10
213.9316797587028
 20
7.733369839122246
 30
0.0
 11
213.9316797587024
 21
16.73336983912224
 31
0.0
  0
LINE
  5
836E
330
18
100
AcDbEntity
  8
0
100
AcDbLine
 10
201.9316797587024
 20
16.73336983912224
 30
0.0
 11
220.4316797587015
 21
16.73336983912224
 31
0.0
  0
LINE
  5
836F
330
18
100
AcDbEntity
  8
0
100
AcDbLine
 10
201.9316797587024
 20
18.73336983912224
 30
0.0
 11
220.4316797587015
 21
18.73336983912224
 31
0.0
  0
ARC
  5
8370
330
18
100
AcDbEntity
  8
0
100
AcDbCircle
 10
214.2973989758446
 20
13.53194866483397
 30
0.0
 40
5.471757172276427
100
AcDbArc
 50
217.0733692144689
 51
255.5464957335778
  0
LINE
  5
8371
330
18
100
AcDbEntity
  8
0
100
AcDbLine
 10
201.9316797587024
 20
7.733369839122246
 30
0.0
 11
220.4316797587015
 21
7.733369839122246
 31
0.0
  0
ARC
  5
8372
330
18
100
AcDbEntity
  8
0
100
AcDbCircle
 10
214.2973989758446
 20
10.93479101340915
 30
0.0
 40
5.471757172276427
100
AcDbArc
 50
104.4535042664221
 51
142.926630785531
  0
ARC
  5
8373
330
18
100
AcDbEntity
  8
0
100
AcDbCircle
 10
214.2973989758446
 20
24.53194866483397
 30
0.0
 40
5.471757172276427
100
AcDbArc
 50
217.0733692144689
 51
255.5464957335778
  0
LINE
  5
8374
330
18
100
AcDbEntity
  8
0
100
AcDbLine
 10
212.9316797587024
 20
30.23336983912225
 30
0.0
 11
212.9316797587024
 21
38.23336983912224
 31
0.0
  0
LINE
  5
8375
330
18
100
AcDbEntity
  8
0
100
AcDbLine
 10
213.9316797587028
 20
29.73336983912224
 30
0.0
 11
213.9316797587028
 21
38.73336983912224
 31
0.0
  0
ARC
  5
8376
330
18
100
AcDbEntity
  8
0
100
AcDbCircle
 10
214.2973989758446
 20
32.93479101340915
 30
0.0
 40
5.471757172276427
100
AcDbArc
 50
104.4535042664221
 51
142.926630785531
  0
LINE
  5
8377
330
18
100
AcDbEntity
  8
0
100
AcDbLine
 10
201.9316797587024
 20
27.73336983912225
 30
0.0
 11
201.9316797587024
 21
29.73336983912224
 31
0.0
  0
LINE
  5
8378
330
18
100
AcDbEntity
  8
0
100
AcDbLine
 10
209.9316797587024
 20
32.23336983912224
 30
0.0
 11
209.9316797587024
 21
36.23336983912224
 31
0.0
  0
LINE
  5
8379
330
18
100
AcDbEntity
  8
0
100
AcDbLine
 10
212.9316797587024
 20
30.23336983912225
 30
0.0
 11
213.9316797587024
 21
30.23336983912225
 31
0.0
  0
LINE
  5
837A
330
18
100
AcDbEntity
  8
0
100
AcDbLine
 10
212.9316797587024
 20
27.23336983912224
 30
0.0
 11
213.9316797587024
 21
27.23336983912224
 31
0.0
  0
LINE
  5
837B
330
18
100
AcDbEntity
  8
0
100
AcDbLine
 10
201.9316797587024
 20
29.73336983912224
 30
0.0
 11
220.4316797587015
 21
29.73336983912224
 31
0.0
  0
LINE
  5
837C
330
18
100
AcDbEntity
  8
0
100
AcDbLine
 10
201.9316797587024
 20
27.73336983912225
 30
0.0
 11
220.4316797587015
 21
27.73336983912225
 31
0.0
  0
ARC
  5
837D
330
18
100
AcDbEntity
  8
0
100
AcDbCircle
 10
214.2973989758446
 20
35.53194866483397
 30
0.0
 40
5.471757172276427
100
AcDbArc
 50
217.0733692144689
 51
255.5464957335778
  0
ARC
  5
837E
330
18
100
AcDbEntity
  8
0
100
AcDbCircle
 10
214.2973989758446
 20
21.93479101340915
 30
0.0
 40
5.471757172276427
100
AcDbArc
 50
104.4535042664221
 51
142.926630785531
  0
LINE
  5
837F
330
18
100
AcDbEntity
  8
0
100
AcDbLine
 10
201.9316797587024
 20
38.73336983912224
 30
0.0
 11
201.9316797587024
 21
40.73336983912224
 31
0.0
  0
LINE
  5
8380
330
18
100
AcDbEntity
  8
0
100
AcDbLine
 10
209.9316797587024
 20
43.23336983912224
 30
0.0
 11
209.9316797587024
 21
47.23336983912225
 31
0.0
  0
LINE
  5
8381
330
18
100
AcDbEntity
  8
0
100
AcDbLine
 10
212.9316797587024
 20
41.23336983912224
 30
0.0
 11
212.9316797587024
 21
49.23336983912225
 31
0.0
  0
LINE
  5
8382
330
18
100
AcDbEntity
  8
0
100
AcDbLine
 10
212.9316797587024
 20
41.23336983912224
 30
0.0
 11
213.9316797587024
 21
41.23336983912224
 31
0.0
  0
LINE
  5
8383
330
18
100
AcDbEntity
  8
0
100
AcDbLine
 10
212.9316797587024
 20
49.23336983912225
 30
0.0
 11
213.9316797587024
 21
49.23336983912225
 31
0.0
  0
LINE
  5
8384
330
18
100
AcDbEntity
  8
0
100
AcDbLine
 10
212.9316797587024
 20
38.23336983912224
 30
0.0
 11
213.9316797587024
 21
38.23336983912224
 31
0.0
  0
LINE
  5
8385
330
18
100
AcDbEntity
  8
0
100
AcDbLine
 10
201.9316797587024
 20
40.73336983912224
 30
0.0
 11
220.4316797587015
 21
40.73336983912224
 31
0.0
  0
LINE
  5
8386
330
18
100
AcDbEntity
  8
0
100
AcDbLine
 10
201.9316797587024
 20
38.73336983912224
 30
0.0
 11
220.4316797587015
 21
38.73336983912224
 31
0.0
  0
ARC
  5
8387
330
18
100
AcDbEntity
  8
0
100
AcDbCircle
 10
214.2973989758446
 20
46.53194866483397
 30
0.0
 40
5.471757172276427
100
AcDbArc
 50
217.0733692144689
 51
255.5464957335778
  0
LINE
  5
8388
330
18
100
AcDbEntity
  8
0
100
AcDbLine
 10
209.9316797587024
 20
21.23336983912224
 30
0.0
 11
209.9316797587024
 21
25.23336983912225
 31
0.0
  0
LINE
  5
8389
330
18
100
AcDbEntity
  8
0
100
AcDbLine
 10
212.9316797587024
 20
19.23336983912224
 30
0.0
 11
212.9316797587024
 21
27.23336983912224
 31
0.0
  0
LINE
  5
838A
330
18
100
AcDbEntity
  8
0
100
AcDbLine
 10
213.9316797587024
 20
18.73336983912224
 30
0.0
 11
213.9316797587028
 21
27.73336983912225
 31
0.0
  0
LINE
  5
8398
330
18
100
AcDbEntity
  8
0
 48
0.2
100
AcDbLine
 10
208.431679758701
 20
40.43336983912229
 30
0.0
 11
207.181679758701
 21
42.5984333485834
 31
0.0
  0
LINE
  5
8399
330
18
100
AcDbEntity
  8
0
 48
0.2
100
AcDbLine
 10
208.7203548932961
 20
40.43336983912229
 30
0.0
 11
207.3260173259985
 21
42.84843334858339
 31
0.0
  0
LINE
  5
839A
330
18
100
AcDbEntity
  8
0
 48
0.2
100
AcDbLine
 10
207.181679758701
 20
38.26830632966118
 30
0.0
 11
208.431679758701
 21
40.43336983912229
 31
0.0
  0
LINE
  5
839B
330
18
100
AcDbEntity
  8
0
 48
0.2
100
AcDbLine
 10
207.3260173259985
 20
38.01830632966118
 30
0.0
 11
208.7203548932961
 21
40.43336983912229
 31
0.0
  0
CIRCLE
  5
839C
330
18
100
AcDbEntity
  8
0
 48
0.2
100
AcDbCircle
 10
205.9316797587011
 20
40.43336983912252
 30
0.0
 40
1.5
  0
LINE
  5
839D
330
18
100
AcDbEntity
  8
0
 48
0.2
100
AcDbLine
 10
204.681679758701
 20
38.26830632966118
 30
0.0
 11
207.181679758701
 21
38.26830632966118
 31
0.0
  0
LINE
  5
839E
330
18
100
AcDbEntity
  8
0
 48
0.2
100
AcDbLine
 10
204.681679758701
 20
42.5984333485834
 30
0.0
 11
207.181679758701
 21
42.5984333485834
 31
0.0
  0
LINE
  5
839F
330
18
100
AcDbEntity
  8
0
 48
0.2
100
AcDbLine
 10
204.5373421914035
 20
42.84843334858339
 30
0.0
 11
207.3260173259985
 21
42.84843334858339
 31
0.0
  0
LINE
  5
83A0
330
18
100
AcDbEntity
  8
0
 48
0.2
100
AcDbLine
 10
204.5373421914035
 20
38.01830632966118
 30
0.0
 11
207.3260173259985
 21
38.01830632966118
 31
0.0
  0
LINE
  5
83A1
330
18
100
AcDbEntity
  8
0
 48
0.2
100
AcDbLine
 10
203.431679758701
 20
40.43336983912229
 30
0.0
 11
204.681679758701
 21
42.5984333485834
 31
0.0
  0
LINE
  5
83A2
330
18
100
AcDbEntity
  8
0
 48
0.2
100
AcDbLine
 10
203.1430046241065
 20
40.43336983912229
 30
0.0
 11
204.5373421914035
 21
42.84843334858339
 31
0.0
  0
LINE
  5
83A3
330
18
100
AcDbEntity
  8
0
 48
0.2
100
AcDbLine
 10
203.431679758701
 20
40.43336983912229
 30
0.0
 11
204.681679758701
 21
38.26830632966118
 31
0.0
  0
LINE
  5
83A4
330
18
100
AcDbEntity
  8
0
 48
0.2
100
AcDbLine
 10
203.1430046241065
 20
40.43336983912229
 30
0.0
 11
204.5373421914035
 21
38.01830632966118
 31
0.0
  0
ARC
  5
83A8
330
18
100
AcDbEntity
  8
0
 48
0.2
100
AcDbCircle
 10
184.5316797587014
 20
42.43336983912252
 30
0.0
 40
3.100000000000022
100
AcDbArc
 50
180.0
 51
319.1213648534934
  0
LINE
  5
83A9
330
18
100
AcDbEntity
  8
0
 48
0.2
100
AcDbLine
 10
188.6316797587013
 20
42.43336983912229
 30
0.0
 11
186.8755821977255
 21
40.40454718636635
 31
0.0
  0
ARC
  5
83AD
330
18
100
AcDbEntity
  8
0
 48
0.2
100
AcDbCircle
 10
197.8016797587009
 20
36.28336983912243
 30
0.0
 40
2.669999999999886
100
AcDbArc
 50
115.9892335838278
 51
244.0107664161721
  0
LINE
  5
83AE
330
18
100
AcDbEntity
  8
0
 48
0.2
100
AcDbLine
 10
196.6316797587009
 20
33.68336983912229
 30
0.0
 11
196.6316797587009
 21
39.33336983912238
 31
0.0
  0
LINE
  5
83AF
330
18
100
AcDbEntity
  8
0
 48
0.2
100
AcDbLine
 10
192.6316797587013
 20
42.43336983912229
 30
0.0
 11
196.6316797587013
 21
39.33336983912238
 31
0.0
  0
LINE
  5
83B0
330
18
100
AcDbEntity
  8
0
 48
0.2
100
AcDbLine
 10
220.4316797587011
 20
33.68336983912229
 30
0.0
 11
196.6316797587009
 21
33.68336983912229
 31
0.0
  0
LINE
  5
83B2
330
18
100
AcDbEntity
  8
0
 48
0.2
100
AcDbLine
 10
202.431679758701
 20
42.43336983912229
 30
0.0
 11
181.4316797587011
 21
42.43336983912229
 31
0.0
  0
LINE
  5
83B4
330
18
100
AcDbEntity
  8
0
100
AcDbLine
 10
201.9316797587024
 20
71.73336983912225
 30
0.0
 11
201.9316797587024
 21
73.73336983912224
 31
0.0
  0
LINE
  5
83B5
330
18
100
AcDbEntity
  8
0
100
AcDbLine
 10
209.9316797587024
 20
65.23336983912225
 30
0.0
 11
209.9316797587024
 21
69.23336983912225
 31
0.0
  0
LINE
  5
83B6
330
18
100
AcDbEntity
  8
0
100
AcDbLine
 10
201.9316797587024
 20
60.73336983912224
 30
0.0
 11
201.9316797587024
 21
62.73336983912225
 31
0.0
  0
LINE
  5
83B7
330
18
100
AcDbEntity
  8
0
100
AcDbLine
 10
209.9316797587024
 20
54.23336983912225
 30
0.0
 11
209.9316797587024
 21
58.23336983912224
 31
0.0
  0
LINE
  5
83B8
330
18
100
AcDbEntity
  8
0
100
AcDbLine
 10
201.9316797587024
 20
49.73336983912225
 30
0.0
 11
201.9316797587024
 21
51.73336983912225
 31
0.0
  0
LINE
  5
83B9
330
18
100
AcDbEntity
  8
0
100
AcDbLine
 10
201.9316797587024
 20
60.73336983912224
 30
0.0
 11
201.9316797587024
 21
62.73336983912225
 31
0.0
  0
LINE
  5
83BA
330
18
100
AcDbEntity
  8
0
100
AcDbLine
 10
212.9316797587024
 20
74.23336983912225
 30
0.0
 11
213.9316797587024
 21
74.23336983912225
 31
0.0
  0
LINE
  5
83BB
330
18
100
AcDbEntity
  8
0
100
AcDbLine
 10
212.9316797587024
 20
71.23336983912224
 30
0.0
 11
213.9316797587024
 21
71.23336983912224
 31
0.0
  0
LINE
  5
83BC
330
18
100
AcDbEntity
  8
0
100
AcDbLine
 10
212.9316797587024
 20
63.23336983912224
 30
0.0
 11
213.9316797587024
 21
63.23336983912224
 31
0.0
  0
LINE
  5
83BD
330
18
100
AcDbEntity
  8
0
100
AcDbLine
 10
212.9316797587024
 20
60.23336983912225
 30
0.0
 11
213.9316797587024
 21
60.23336983912225
 31
0.0
  0
LINE
  5
83BE
330
18
100
AcDbEntity
  8
0
100
AcDbLine
 10
212.9316797587024
 20
52.23336983912225
 30
0.0
 11
213.9316797587024
 21
52.23336983912225
 31
0.0
  0
LINE
  5
83BF
330
18
100
AcDbEntity
  8
0
100
AcDbLine
 10
212.9316797587024
 20
52.23336983912225
 30
0.0
 11
212.9316797587024
 21
60.23336983912225
 31
0.0
  0
LINE
  5
83C0
330
18
100
AcDbEntity
  8
0
100
AcDbLine
 10
213.9316797587028
 20
51.73336983912225
 30
0.0
 11
213.9316797587024
 21
60.73336983912224
 31
0.0
  0
LINE
  5
83C1
330
18
100
AcDbEntity
  8
0
100
AcDbLine
 10
212.9316797587024
 20
63.23336983912224
 30
0.0
 11
212.9316797587024
 21
71.23336983912224
 31
0.0
  0
LINE
  5
83C2
330
18
100
AcDbEntity
  8
0
100
AcDbLine
 10
213.9316797587024
 20
62.73336983912225
 30
0.0
 11
213.9316797587024
 21
71.73336983912225
 31
0.0
  0
LINE
  5
83C3
330
18
100
AcDbEntity
  8
0
100
AcDbLine
 10
201.9316797587024
 20
73.73336983912224
 30
0.0
 11
220.4316797587015
 21
73.73336983912224
 31
0.0
  0
LINE
  5
83C4
330
18
100
AcDbEntity
  8
0
100
AcDbLine
 10
201.9316797587024
 20
71.73336983912225
 30
0.0
 11
220.4316797587015
 21
71.73336983912225
 31
0.0
  0
LINE
  5
83C5
330
18
100
AcDbEntity
  8
0
100
AcDbLine
 10
201.9316797587024
 20
60.73336983912224
 30
0.0
 11
220.4316797587015
 21
60.73336983912224
 31
0.0
  0
LINE
  5
83C6
330
18
100
AcDbEntity
  8
0
100
AcDbLine
 10
201.9316797587024
 20
62.73336983912225
 30
0.0
 11
220.4316797587015
 21
62.73336983912225
 31
0.0
  0
ARC
  5
83C7
330
18
100
AcDbEntity
  8
0
100
AcDbCircle
 10
214.2973989758446
 20
65.93479101340915
 30
0.0
 40
5.471757172276427
100
AcDbArc
 50
104.4535042664221
 51
142.926630785531
  0
ARC
  5
83C8
330
18
100
AcDbEntity
  8
0
100
AcDbCircle
 10
214.2973989758446
 20
68.53194866483398
 30
0.0
 40
5.471757172276427
100
AcDbArc
 50
217.0733692144689
 51
255.5464957335778
  0
LINE
  5
83C9
330
18
100
AcDbEntity
  8
0
100
AcDbLine
 10
201.9316797587024
 20
49.73336983912225
 30
0.0
 11
220.4316797587015
 21
49.73336983912225
 31
0.0
  0
LINE
  5
83CA
330
18
100
AcDbEntity
  8
0
100
AcDbLine
 10
201.9316797587024
 20
51.73336983912225
 30
0.0
 11
220.4316797587015
 21
51.73336983912225
 31
0.0
  0
LINE
  5
83CB
330
18
100
AcDbEntity
  8
0
100
AcDbLine
 10
201.9316797587024
 20
62.73336983912225
 30
0.0
 11
220.4316797587015
 21
62.73336983912225
 31
0.0
  0
LINE
  5
83CC
330
18
100
AcDbEntity
  8
0
100
AcDbLine
 10
201.9316797587024
 20
60.73336983912224
 30
0.0
 11
220.4316797587015
 21
60.73336983912224
 31
0.0
  0
ARC
  5
83CD
330
18
100
AcDbEntity
  8
0
100
AcDbCircle
 10
214.2973989758446
 20
54.93479101340915
 30
0.0
 40
5.471757172276427
100
AcDbArc
 50
104.4535042664221
 51
142.926630785531
  0
ARC
  5
83CE
330
18
100
AcDbEntity
  8
0
100
AcDbCircle
 10
214.2973989758446
 20
57.53194866483397
 30
0.0
 40
5.471757172276427
100
AcDbArc
 50
217.0733692144689
 51
255.5464957335778
  0
ARC
  5
83CF
330
18
100
AcDbEntity
  8
0
100
AcDbCircle
 10
214.2973989758446
 20
76.93479101340916
 30
0.0
 40
5.471757172276427
100
AcDbArc
 50
104.4535042664221
 51
142.926630785531
  0
LINE
  5
83D0
330
18
100
AcDbEntity
  8
0
100
AcDbLine
 10
209.9316797587024
 20
76.23336983912224
 30
0.0
 11
209.9316797587024
 21
80.23336983912225
 31
0.0
  0
LINE
  5
83D1
330
18
100
AcDbEntity
  8
0
100
AcDbLine
 10
201.9316797587024
 20
82.73336983912225
 30
0.0
 11
201.9316797587024
 21
84.73336983912224
 31
0.0
  0
LINE
  5
83D2
330
18
100
AcDbEntity
  8
0
100
AcDbLine
 10
209.9316797587024
 20
87.23336983912224
 30
0.0
 11
209.9316797587024
 21
91.23336983912224
 31
0.0
  0
LINE
  5
83D3
330
18
100
AcDbEntity
  8
0
100
AcDbLine
 10
212.9316797587024
 20
85.23336983912225
 30
0.0
 11
213.9316797587024
 21
85.23336983912225
 31
0.0
  0
LINE
  5
83D4
330
18
100
AcDbEntity
  8
0
100
AcDbLine
 10
212.9316797587024
 20
82.23336983912224
 30
0.0
 11
213.9316797587024
 21
82.23336983912224
 31
0.0
  0
LINE
  5
83D5
330
18
100
AcDbEntity
  8
0
100
AcDbLine
 10
201.9316797587024
 20
84.73336983912224
 30
0.0
 11
220.4316797587015
 21
84.73336983912224
 31
0.0
  0
LINE
  5
83D6
330
18
100
AcDbEntity
  8
0
100
AcDbLine
 10
201.9316797587024
 20
82.73336983912225
 30
0.0
 11
220.4316797587015
 21
82.73336983912225
 31
0.0
  0
ARC
  5
83D7
330
18
100
AcDbEntity
  8
0
100
AcDbCircle
 10
214.2973989758446
 20
90.53194866483398
 30
0.0
 40
5.471757172276427
100
AcDbArc
 50
217.0733692144689
 51
255.5464957335778
  0
LINE
  5
83D8
330
18
100
AcDbEntity
  8
0
100
AcDbLine
 10
212.9316797587024
 20
74.23336983912225
 30
0.0
 11
212.9316797587024
 21
82.23336983912224
 31
0.0
  0
LINE
  5
83D9
330
18
100
AcDbEntity
  8
0
100
AcDbLine
 10
213.9316797587024
 20
73.73336983912224
 30
0.0
 11
213.9316797587024
 21
82.73336983912178
 31
0.0
  0
ARC
  5
83DA
330
18
100
AcDbEntity
  8
0
100
AcDbCircle
 10
214.2973989758446
 20
79.53194866483397
 30
0.0
 40
5.471757172276427
100
AcDbArc
 50
217.0733692144689
 51
255.5464957335778
  0
LINE
  5
83DB
330
18
100
AcDbEntity
  8
0
 48
0.2
100
AcDbLine
 10
207.3260173259985
 20
62.64843334858312
 30
0.0
 11
208.7203548932961
 21
60.23336983912201
 31
0.0
  0
LINE
  5
83DC
330
18
100
AcDbEntity
  8
0
 48
0.2
100
AcDbLine
 10
207.181679758701
 20
62.39843334858313
 30
0.0
 11
208.431679758701
 21
60.23336983912201
 31
0.0
  0
CIRCLE
  5
83DD
330
18
100
AcDbEntity
  8
0
 48
0.2
100
AcDbCircle
 10
205.9316797587011
 20
60.23336983912225
 30
0.0
 40
1.5
  0
LINE
  5
83DE
330
18
100
AcDbEntity
  8
0
 48
0.2
100
AcDbLine
 10
203.1430046241065
 20
60.23336983912201
 30
0.0
 11
204.5373421914035
 21
62.64843334858312
 31
0.0
  0
LINE
  5
83DF
330
18
100
AcDbEntity
  8
0
 48
0.2
100
AcDbLine
 10
203.431679758701
 20
60.23336983912201
 30
0.0
 11
204.681679758701
 21
62.39843334858313
 31
0.0
  0
LINE
  5
83E0
330
18
100
AcDbEntity
  8
0
 48
0.2
100
AcDbLine
 10
208.7203548932961
 20
60.23336983912201
 30
0.0
 11
207.3260173259985
 21
57.81830632966091
 31
0.0
  0
LINE
  5
83E1
330
18
100
AcDbEntity
  8
0
 48
0.2
100
AcDbLine
 10
208.431679758701
 20
60.23336983912201
 30
0.0
 11
207.181679758701
 21
58.06830632966091
 31
0.0
  0
LINE
  5
83E2
330
18
100
AcDbEntity
  8
0
 48
0.2
100
AcDbLine
 10
204.5373421914035
 20
57.81830632966091
 30
0.0
 11
207.3260173259985
 21
57.81830632966091
 31
0.0
  0
LINE
  5
83E3
330
18
100
AcDbEntity
  8
0
 48
0.2
100
AcDbLine
 10
204.681679758701
 20
58.06830632966091
 30
0.0
 11
207.181679758701
 21
58.06830632966091
 31
0.0
  0
LINE
  5
83E4
330
18
100
AcDbEntity
  8
0
 48
0.2
100
AcDbLine
 10
203.1430046241065
 20
60.23336983912201
 30
0.0
 11
204.5373421914035
 21
57.81830632966091
 31
0.0
  0
LINE
  5
83E5
330
18
100
AcDbEntity
  8
0
 48
0.2
100
AcDbLine
 10
203.431679758701
 20
60.23336983912201
 30
0.0
 11
204.681679758701
 21
58.06830632966091
 31
0.0
  0
LINE
  5
83E6
330
18
100
AcDbEntity
  8
0
 48
0.2
100
AcDbLine
 10
204.5373421914035
 20
62.64843334858312
 30
0.0
 11
207.3260173259985
 21
62.64843334858312
 31
0.0
  0
LINE
  5
83E7
330
18
100
AcDbEntity
  8
0
 48
0.2
100
AcDbLine
 10
204.681679758701
 20
62.39843334858313
 30
0.0
 11
207.181679758701
 21
62.39843334858313
 31
0.0
  0
ARC
  5
83E8
330
18
100
AcDbEntity
  8
0
 48
0.2
100
AcDbCircle
 10
184.5316797587009
 20
58.23336983912224
 30
0.0
 40
3.100000000000022
100
AcDbArc
 50
40.87863514650656
 51
180.0
  0
LINE
  5
83E9
330
18
100
AcDbEntity
  8
0
 48
0.2
100
AcDbLine
 10
188.6316797587008
 20
58.23336983912202
 30
0.0
 11
186.8755821977255
 21
60.26219249187795
 31
0.0
  0
LINE
  5
83EA
330
18
100
AcDbEntity
  8
0
 48
0.2
100
AcDbLine
 10
196.6316797587009
 20
61.33336983912238
 30
0.0
 11
196.6316797587009
 21
66.98336983912202
 31
0.0
  0
LINE
  5
83EB
330
18
100
AcDbEntity
  8
0
 48
0.2
100
AcDbLine
 10
192.6316797587008
 20
58.23336983912202
 30
0.0
 11
196.6316797587009
 21
61.33336983912193
 31
0.0
  0
ARC
  5
83EC
330
18
100
AcDbEntity
  8
0
 48
0.2
100
AcDbCircle
 10
197.8016797587009
 20
64.38336983912233
 30
0.0
 40
2.669999999999886
100
AcDbArc
 50
115.9892335838278
 51
244.0107664161721
  0
LINE
  5
83ED
330
18
100
AcDbEntity
  8
0
 48
0.2
100
AcDbLine
 10
220.4316797587011
 20
66.98336983912202
 30
0.0
 11
196.6316797587009
 21
66.98336983912202
 31
0.0
  0
LINE
  5
83EE
330
18
100
AcDbEntity
  8
0
 48
0.2
100
AcDbLine
 10
202.431679758701
 20
58.23336983912202
 30
0.0
 11
181.4316797587011
 21
58.23336983912202
 31
0.0
  0
LINE
  5
83EF
330
18
100
AcDbEntity
  8
0
100
AcDbLine
 10
407.4316797587015
 20
-47.76663016087775
 30
0.0
 11
410.4316797587006
 21
-47.76663016087775
 31
0.0
  0
LINE
  5
83F0
330
18
100
AcDbEntity
  8
0
100
AcDbLine
 10
407.4316797587015
 20
177.233369839122
 30
0.0
 11
220.4316797587015
 21
177.2333698391222
 31
0.0
  0
LINE
  5
83F4
330
18
100
AcDbEntity
  8
0
100
AcDbLine
 10
53.61083465698687
 20
192.233369839122
 30
0.0
 11
-30.88916534301313
 21
192.233369839122
 31
0.0
  0
LINE
  5
8400
330
18
100
AcDbEntity
  8
0
100
AcDbLine
 10
-43.63916534301313
 20
177.2333698391222
 30
0.0
 11
-43.63916534301313
 21
192.2333698391222
 31
0.0
  0
LINE
  5
841B
330
18
100
AcDbEntity
  8
0
100
AcDbLine
 10
-36.38916534301313
 20
192.2333698391217
 30
0.0
 11
-43.63916534301313
 21
192.233369839122
 31
0.0
  0
LINE
  5
841C
330
18
100
AcDbEntity
  8
0
100
AcDbLine
 10
-36.38916534301313
 20
187.233369839122
 30
0.0
 11
-36.38916534301313
 21
192.233369839122
 31
0.0
  0
LINE
  5
841D
330
18
100
AcDbEntity
  8
0
100
AcDbLine
 10
-30.88916534301313
 20
187.233369839122
 30
0.0
 11
-30.88916534301313
 21
192.233369839122
 31
0.0
  0
CIRCLE
  5
84F9
330
18
100
AcDbEntity
  8
0
100
AcDbCircle
 10
216.2316797587012
 20
137.7133698391222
 30
0.0
 40
2.0
  0
LINE
  5
84FA
330
18
100
AcDbEntity
  8
0
100
AcDbLine
 10
215.0455986476462
 20
136.1030246593555
 30
0.0
 11
217.8420249384684
 21
138.8994509501773
 31
0.0
  0
LINE
  5
84FB
330
18
100
AcDbEntity
  8
0
100
AcDbLine
 10
210.9316797587015
 20
145.3333698391226
 30
0.0
 11
210.9316797587015
 21
130.1333698391225
 31
0.0
  0
LINE
  5
84FC
330
18
100
AcDbEntity
  8
0
100
AcDbLine
 10
212.4316797587015
 20
145.3333698391226
 30
0.0
 11
212.4316797587015
 21
130.1333698391225
 31
0.0
  0
LINE
  5
84FD
330
18
100
AcDbEntity
  8
0
100
AcDbLine
 10
219.7316797587012
 20
145.3333698391223
 30
0.0
 11
219.7316797587012
 21
130.1333698391223
 31
0.0
  0
LINE
  5
84FE
330
18
100
AcDbEntity
  8
0
100
AcDbLine
 10
220.4316797587015
 20
145.3333698391223
 30
0.0
 11
220.4316797587015
 21
130.1333698391223
 31
0.0
  0
LINE
  5
84FF
330
18
100
AcDbEntity
  8
0
100
AcDbLine
 10
201.9316797587024
 20
93.73336983912224
 30
0.0
 11
201.9316797587029
 21
95.73336983912225
 31
0.0
  0
LINE
  5
8500
330
18
100
AcDbEntity
  8
0
100
AcDbLine
 10
213.9316797587024
 20
96.03336983912152
 30
0.0
 11
220.4316797587015
 21
96.03336983912152
 31
0.0
  0
LINE
  5
8501
330
18
100
AcDbEntity
  8
0
100
AcDbLine
 10
212.9316797587024
 20
93.23336983912225
 30
0.0
 11
213.9316797587024
 21
93.23336983912225
 31
0.0
  0
LINE
  5
8502
330
18
100
AcDbEntity
  8
0
100
AcDbLine
 10
213.9316797587024
 20
95.73336983912225
 30
0.0
 11
213.9316797587024
 21
96.03336983912152
 31
0.0
  0
LINE
  5
8503
330
18
100
AcDbEntity
  8
0
100
AcDbLine
 10
201.9316797587024
 20
95.73336983912225
 30
0.0
 11
220.4316797587015
 21
95.73336983912225
 31
0.0
  0
LINE
  5
8504
330
18
100
AcDbEntity
  8
0
100
AcDbLine
 10
201.9316797587024
 20
93.73336983912224
 30
0.0
 11
220.4316797587015
 21
93.73336983912224
 31
0.0
  0
LINE
  5
8505
330
18
100
AcDbEntity
  8
0
100
AcDbLine
 10
220.4316797587015
 20
130.1333698391223
 30
0.0
 11
210.931679758701
 21
130.1333698391225
 31
0.0
  0
CIRCLE
  5
8506
330
18
100
AcDbEntity
  8
0
100
AcDbCircle
 10
216.2316797587012
 20
132.6333698391223
 30
0.0
 40
2.0
  0
LINE
  5
8507
330
18
100
AcDbEntity
  8
0
100
AcDbLine
 10
215.0455986476462
 20
131.0230246593556
 30
0.0
 11
217.8420249384684
 21
133.8194509501773
 31
0.0
  0
LINE
  5
8508
330
18
100
AcDbEntity
  8
0
100
AcDbLine
 10
214.6213345789345
 20
131.4472887280673
 30
0.0
 11
217.4177608697563
 21
134.2437150188894
 31
0.0
  0
LINE
  5
8509
330
18
100
AcDbEntity
  8
0
100
AcDbLine
 10
214.6213345789345
 20
136.5272887280672
 30
0.0
 11
217.4177608697563
 21
139.3237150188894
 31
0.0
  0
CIRCLE
  5
850A
330
18
100
AcDbEntity
  8
0
100
AcDbCircle
 10
216.2316797587012
 20
142.7933698391224
 30
0.0
 40
2.0
  0
LINE
  5
850B
330
18
100
AcDbEntity
  8
0
100
AcDbLine
 10
215.0455986476462
 20
141.1830246593555
 30
0.0
 11
217.8420249384684
 21
143.9794509501772
 31
0.0
  0
LINE
  5
850C
330
18
100
AcDbEntity
  8
0
100
AcDbLine
 10
214.6213345789345
 20
141.6072887280673
 30
0.0
 11
217.4177608697563
 21
144.4037150188893
 31
0.0
  0
LINE
  5
850D
330
18
100
AcDbEntity
  8
0
100
AcDbLine
 10
220.4316797587015
 20
145.3333698391223
 30
0.0
 11
210.9316797587015
 21
145.3333698391226
 31
0.0
  0
LINE
  5
850F
330
18
100
AcDbEntity
  8
0
100
AcDbLine
 10
66.36083465698686
 20
192.233369839122
 30
0.0
 11
59.11083465698687
 21
192.233369839122
 31
0.0
  0
LINE
  5
8510
330
18
100
AcDbEntity
  8
0
100
AcDbLine
 10
59.11083465698687
 20
187.233369839122
 30
0.0
 11
59.11083465698687
 21
192.233369839122
 31
0.0
  0
LINE
  5
8511
330
18
100
AcDbEntity
  8
0
100
AcDbLine
 10
53.61083465698687
 20
187.233369839122
 30
0.0
 11
53.61083465698687
 21
192.233369839122
 31
0.0
  0
LINE
  5
8512
330
18
100
AcDbEntity
  8
0
100
AcDbLine
 10
407.4316797587015
 20
192.233369839122
 30
0.0
 11
410.4316797587015
 21
192.233369839122
 31
0.0
  0
LINE
  5
8545
330
18
100
AcDbEntity
  8
0
100
AcDbLine
 10
201.9316797587019
 20
316.6804441809375
 30
0.0
 11
220.4316797587018
 21
316.6804441809379
 31
0.0
  0
LINE
  5
8546
330
18
100
AcDbEntity
  8
0
100
AcDbLine
 10
201.9316797587022
 20
295.6804441809375
 30
0.0
 11
220.4316797587018
 21
295.6804441809379
 31
0.0
  0
LINE
  5
8547
330
18
100
AcDbEntity
  8
0
100
AcDbLine
 10
201.9316797587019
 20
316.6804441809375
 30
0.0
 11
201.9316797587022
 21
295.6804441809375
 31
0.0
  0
TEXT
  5
8A9B
330
18
100
AcDbEntity
  8
0
 48
5.0
100
AcDbText
 10
41.53036331913443
 20
95.63901929648205
 30
0.0
 40
3.0
  1
J1
  7
MSｺﾞｼｯｸ
 72
     1
 11
43.47960189781463
 21
97.13901929648205
 31
0.0
100
AcDbText
 73
     2
  0
LINE
  5
8A9C
330
18
100
AcDbEntity
  8
0
100
AcDbLine
 10
40.47960189781463
 20
110.139019296482
 30
0.0
 11
46.47960189781463
 21
110.139019296482
 31
0.0
  0
LINE
  5
8A9D
330
18
100
AcDbEntity
  8
0
100
AcDbLine
 10
46.47960189781463
 20
84.13901929648204
 30
0.0
 11
40.47960189781463
 21
84.13901929648204
 31
0.0
  0
LINE
  5
8A9E
330
18
100
AcDbEntity
  8
0
100
AcDbLine
 10
40.47960189781463
 20
84.13901929648204
 30
0.0
 11
40.47960189781463
 21
110.139019296482
 31
0.0
  0
LINE
  5
8A9F
330
18
100
AcDbEntity
  8
0
100
AcDbLine
 10
46.47960189781463
 20
110.139019296482
 30
0.0
 11
46.47960189781463
 21
84.13901929648204
 31
0.0
  0
CIRCLE
  5
8AA0
330
18
100
AcDbEntity
  8
0
100
AcDbCircle
 10
33.46083465698677
 20
-13.76663016087775
 30
0.0
 40
3.333333333333333
  0
CIRCLE
  5
8AA1
330
18
100
AcDbEntity
  8
0
100
AcDbCircle
 10
33.46083465698677
 20
-13.76663016087775
 30
0.0
 40
4.0
  0
LINE
  5
8AA2
330
18
100
AcDbEntity
  8
0
100
AcDbLine
 10
47.86083465698595
 20
65.23336983912225
 30
0.0
 11
47.86083465698687
 21
-13.26663016087729
 31
0.0
  0
LINE
  5
8AA3
330
18
100
AcDbEntity
  8
0
100
AcDbLine
 10
61.36083465698641
 20
127.7333698391224
 30
0.0
 11
61.36083465698686
 21
-13.26663016087729
 31
0.0
  0
LINE
  5
8AA4
330
18
100
AcDbEntity
  8
0
100
AcDbLine
 10
62.86083465698687
 20
-13.26663016087729
 30
0.0
 11
62.86083465698687
 21
127.7333698391224
 31
0.0
  0
LINE
  5
8AA5
330
18
100
AcDbEntity
  8
0
100
AcDbLine
 10
-54.63916534301313
 20
-32.76663016087775
 30
0.0
 11
-54.63916534301313
 21
177.2333698391222
 31
0.0
  0
LINE
  5
8AA6
330
18
100
AcDbEntity
  8
0
100
AcDbLine
 10
66.36083465698686
 20
-47.76663016087775
 30
0.0
 11
66.36083465698686
 21
192.233369839122
 31
0.0
  0
ARC
  5
8AA7
330
18
100
AcDbEntity
  8
0
100
AcDbCircle
 10
30.36083465698686
 20
-47.76663016087775
 30
0.0
 40
6.0
100
AcDbArc
 50
0.0
 51
180.0
  0
LINE
  5
8AA8
330
18
100
AcDbEntity
  8
0
100
AcDbLine
 10
-54.63916534301313
 20
-32.76663016087775
 30
0.0
 11
66.36083465698686
 21
-32.76663016087775
 31
0.0
  0
LINE
  5
8AA9
330
18
100
AcDbEntity
  8
0
100
AcDbLine
 10
-28.13916534301313
 20
-27.26663016087775
 30
0.0
 11
-26.70267366990936
 21
-27.26663016087775
 31
0.0
  0
LINE
  5
8AAA
330
18
100
AcDbEntity
  8
0
100
AcDbLine
 10
-28.13916534301313
 20
-26.26663016087775
 30
0.0
 11
-26.70267366990936
 21
-26.26663016087775
 31
0.0
  0
CIRCLE
  5
8AAB
330
18
100
AcDbEntity
  8
0
100
AcDbCircle
 10
-28.63916534301313
 20
-26.76663016087775
 30
0.0
 40
2.5
  0
CIRCLE
  5
8AAC
330
18
100
AcDbEntity
  8
0
100
AcDbCircle
 10
-28.63916534301313
 20
-26.76663016087775
 30
0.0
 40
3.0
  0
LINE
  5
8AAD
330
18
100
AcDbEntity
  8
0
100
AcDbLine
 10
24.36083465698686
 20
-47.76663016087775
 30
0.0
 11
-30.88916534301313
 21
-47.76663016087775
 31
0.0
  0
ARC
  5
8AAE
330
18
100
AcDbEntity
  8
0
100
AcDbCircle
 10
-33.63916534301313
 20
-42.76663016087775
 30
0.0
 40
2.75
100
AcDbArc
 50
0.0
 51
180.0
  0
LINE
  5
8AAF
330
18
100
AcDbEntity
  8
0
100
AcDbLine
 10
-43.63916534301404
 20
-39.6666301607753
 30
0.0
 11
-43.63916534301313
 21
-47.76663016087775
 31
0.0
  0
LINE
  5
8AB0
330
18
100
AcDbEntity
  8
0
100
AcDbLine
 10
-36.38916534301313
 20
-42.76663016087775
 30
0.0
 11
-36.38916534301313
 21
-47.76663016087775
 31
0.0
  0
LINE
  5
8AB1
330
18
100
AcDbEntity
  8
0
100
AcDbLine
 10
-30.88916534301313
 20
-42.76663016087775
 30
0.0
 11
-30.88916534301313
 21
-47.76663016087775
 31
0.0
  0
LINE
  5
8AB2
330
18
100
AcDbEntity
  8
0
100
AcDbLine
 10
-36.38916534301313
 20
-47.76663016087775
 30
0.0
 11
-43.63916534301313
 21
-47.76663016087775
 31
0.0
  0
LINE
  5
8AB3
330
18
100
AcDbEntity
  8
0
100
AcDbLine
 10
-28.13916534301313
 20
-28.70312183398152
 30
0.0
 11
-28.13916534301313
 21
-27.26663016087775
 31
0.0
  0
LINE
  5
8AB4
330
18
100
AcDbEntity
  8
0
100
AcDbLine
 10
-29.13916534301313
 20
-28.70312183398152
 30
0.0
 11
-29.13916534301313
 21
-27.26663016087775
 31
0.0
  0
ARC
  5
8AB5
330
18
100
AcDbEntity
  8
0
100
AcDbCircle
 10
-28.63916534301313
 20
-26.76663016087775
 30
0.0
 40
2.0
100
AcDbArc
 50
255.5224878140696
 51
284.4775121859303
  0
ARC
  5
8AB6
330
18
100
AcDbEntity
  8
0
100
AcDbCircle
 10
-28.63916534301313
 20
-26.76663016087775
 30
0.0
 40
2.0
100
AcDbArc
 50
75.52248781406973
 51
104.4775121859302
  0
LINE
  5
8AB7
330
18
100
AcDbEntity
  8
0
100
AcDbLine
 10
-29.13916534301313
 20
-26.26663016087775
 30
0.0
 11
-29.13916534301313
 21
-24.83013848777398
 31
0.0
  0
LINE
  5
8AB8
330
18
100
AcDbEntity
  8
0
100
AcDbLine
 10
-28.13916534301313
 20
-26.26663016087775
 30
0.0
 11
-28.13916534301313
 21
-24.83013848777398
 31
0.0
  0
ARC
  5
8AB9
330
18
100
AcDbEntity
  8
0
100
AcDbCircle
 10
-28.63916534301313
 20
-26.76663016087775
 30
0.0
 40
2.0
100
AcDbArc
 50
165.5224878140701
 51
194.4775121859298
  0
LINE
  5
8ABA
330
18
100
AcDbEntity
  8
0
 48
5.0
100
AcDbLine
 10
-40.63916534301313
 20
-12.766630160776
 30
0.0
 11
-40.63916534301313
 21
-15.766630160776
 31
0.0
  0
LINE
  5
8ABB
330
18
100
AcDbEntity
  8
0
 48
5.0
100
AcDbLine
 10
-40.63916534301313
 20
-12.766630160776
 30
0.0
 11
-40.63916534301313
 21
-15.766630160776
 31
0.0
  0
LINE
  5
8ABD
330
18
100
AcDbEntity
  8
0
 48
5.0
100
AcDbLine
 10
-39.13916534301313
 20
-14.266630160776
 30
0.0
 11
-42.13916534301313
 21
-14.266630160776
 31
0.0
  0
CIRCLE
  5
8ABE
330
18
100
AcDbEntity
  8
0
100
AcDbCircle
 10
-40.63916534301313
 20
-14.266630160776
 30
0.0
 40
2.5
  0
CIRCLE
  5
8ABF
330
18
100
AcDbEntity
  8
0
100
AcDbCircle
 10
-40.63916534301313
 20
-14.266630160776
 30
0.0
 40
3.0
  0
CIRCLE
  5
8AC0
330
18
100
AcDbEntity
  8
0
100
AcDbCircle
 10
-40.63916534301313
 20
-14.266630160776
 30
0.0
 40
2.5
  0
CIRCLE
  5
8AC1
330
18
100
AcDbEntity
  8
0
100
AcDbCircle
 10
-40.63916534301313
 20
-14.266630160776
 30
0.0
 40
3.0
  0
LINE
  5
8AC2
330
18
100
AcDbEntity
  8
0
100
AcDbLine
 10
-37.80519074679784
 20
-38.04842322953646
 30
0.0
 11
-37.80519074679784
 21
-38.26663016077486
 31
0.0
  0
LINE
  5
8AC3
330
18
100
AcDbEntity
  8
0
100
AcDbLine
 10
-37.80519074679784
 20
-38.26663016077486
 30
0.0
 11
-37.50519074679766
 21
-38.26663016077486
 31
0.0
  0
LINE
  5
8AC4
330
18
100
AcDbEntity
  8
0
100
AcDbLine
 10
-37.20519074679748
 20
-37.96663016077485
 30
0.0
 11
-37.20519074679748
 21
-35.81663016077493
 31
0.0
  0
LINE
  5
8AC5
330
18
100
AcDbEntity
  8
0
100
AcDbLine
 10
-37.20519074679748
 20
-35.81663016077493
 30
0.0
 11
-37.20519074679748
 21
-33.25663016077487
 31
0.0
  0
ARC
  5
8AC6
330
18
100
AcDbEntity
  8
0
100
AcDbCircle
 10
-37.50519074679766
 20
-37.96663016077485
 30
0.0
 40
0.3000000000000007
100
AcDbArc
 50
270.0
 51
0.0
  0
LINE
  5
8AC7
330
18
100
AcDbEntity
  8
0
100
AcDbLine
 10
-44.80519074679785
 20
-38.95583434819667
 30
0.0
 11
-44.80519074679785
 21
-36.37742597335267
 31
0.0
  0
LINE
  5
8AC8
330
18
100
AcDbEntity
  8
0
100
AcDbLine
 10
-45.13019927297853
 20
-36.66644499121588
 30
0.0
 11
-45.13019927297853
 21
-37.34306444005699
 31
0.0
  0
LINE
  5
8AC9
330
18
100
AcDbEntity
  8
0
100
AcDbLine
 10
-45.13019927297853
 20
-37.87988330730331
 30
0.0
 11
-45.13019927297853
 21
-37.89253495711728
 31
0.0
  0
LINE
  5
8ACA
330
18
100
AcDbEntity
  8
0
100
AcDbLine
 10
-42.30519074679785
 20
-40.2666301607748
 30
0.0
 11
-42.10519074679758
 21
-40.26663016077487
 31
0.0
  0
LINE
  5
8ACB
330
18
100
AcDbEntity
  8
0
100
AcDbLine
 10
-42.60519074679757
 20
-39.96663016077485
 30
0.0
 11
-42.60519074679757
 21
-39.66663016077541
 31
0.0
  0
LINE
  5
8ACC
330
18
100
AcDbEntity
  8
0
100
AcDbLine
 10
-41.60519074679757
 20
-39.76663016077475
 30
0.0
 11
-41.60519074679757
 21
-39.06663016077487
 31
0.0
  0
ARC
  5
8ACD
330
18
100
AcDbEntity
  8
0
100
AcDbCircle
 10
-45.01598655937584
 20
-36.37742597335267
 30
0.0
 40
0.2107958125779188
100
AcDbArc
 50
0.0
 51
90.0
  0
ARC
  5
8ACE
330
18
100
AcDbEntity
  8
0
100
AcDbCircle
 10
-45.28829613241157
 20
-37.34306444005699
 30
0.0
 40
0.1580968594336127
100
AcDbArc
 50
269.9999999999739
 51
0.0
  0
ARC
  5
8ACF
330
18
100
AcDbEntity
  8
0
100
AcDbCircle
 10
-45.28829613241157
 20
-36.66644499121588
 30
0.0
 40
0.1580968594334404
100
AcDbArc
 50
0.0
 51
90.0
  0
ARC
  5
8AD0
330
18
100
AcDbEntity
  8
0
100
AcDbCircle
 10
-45.28829613241157
 20
-37.87988330730331
 30
0.0
 40
0.1580968594334404
100
AcDbArc
 50
0.0
 51
90.00000000002605
  0
ARC
  5
8AD1
330
18
100
AcDbEntity
  8
0
100
AcDbCircle
 10
-42.30519074679785
 20
-39.96663016077485
 30
0.0
 40
0.3000000000000185
100
AcDbArc
 50
180.0
 51
270.0
  0
ARC
  5
8AD2
330
18
100
AcDbEntity
  8
0
100
AcDbCircle
 10
-45.01598655937584
 20
-38.95583434819667
 30
0.0
 40
0.2107958125780023
100
AcDbArc
 50
270.0
 51
0.0
  0
ARC
  5
8AD3
330
18
100
AcDbEntity
  8
0
100
AcDbCircle
 10
-42.10519074679758
 20
-39.76663016077486
 30
0.0
 40
0.5000000000000107
100
AcDbArc
 50
270.0
 51
0.0
  0
LINE
  5
8AD4
330
18
100
AcDbEntity
  8
0
100
AcDbLine
 10
-46.874469561635
 20
-37.72178644786993
 30
0.0
 11
-46.63452061066243
 21
-37.72178644786993
 31
0.0
  0
LINE
  5
8AD5
330
18
100
AcDbEntity
  8
0
100
AcDbLine
 10
-47.0325664210685
 20
-37.89253495711728
 30
0.0
 11
-47.0325664210685
 21
-37.87988330730331
 31
0.0
  0
LINE
  5
8AD6
330
18
100
AcDbEntity
  8
0
100
AcDbLine
 10
-46.63452061066243
 20
-37.50116129949026
 30
0.0
 11
-47.32208536117593
 21
-37.50116129949026
 31
0.0
  0
LINE
  5
8AD7
330
18
100
AcDbEntity
  8
0
100
AcDbLine
 10
-47.48018222060943
 20
-37.34306444005699
 30
0.0
 11
-47.48018222060943
 21
-36.66644499121588
 31
0.0
  0
LINE
  5
8AD8
330
18
100
AcDbEntity
  8
0
100
AcDbLine
 10
-48.30519074679784
 20
-32.76663016087775
 30
0.0
 11
-48.30519074679784
 21
-39.66663016077473
 31
0.0
  0
LINE
  5
8AD9
330
18
100
AcDbEntity
  8
0
100
AcDbLine
 10
-47.80519074679784
 20
-38.95583434819667
 30
0.0
 11
-47.80519074679784
 21
-36.37742597335267
 31
0.0
  0
LINE
  5
8ADA
330
18
100
AcDbEntity
  8
0
100
AcDbLine
 10
-48.30519074679784
 20
-39.66663016077473
 30
0.0
 11
-47.44108913166008
 21
-39.66663016077484
 31
0.0
  0
ARC
  5
8ADB
330
18
100
AcDbEntity
  8
0
100
AcDbCircle
 10
-46.63452061066243
 20
-37.34306444005699
 30
0.0
 40
0.1580968594333001
100
AcDbArc
 50
270.0
 51
334.1150755424294
  0
ARC
  5
8ADC
330
18
100
AcDbEntity
  8
0
100
AcDbCircle
 10
-46.08138284702351
 20
-37.61147387368009
 30
0.0
 40
0.4567242605855182
100
AcDbArc
 50
25.88492445757781
 51
154.1150755424221
  0
ARC
  5
8ADD
330
18
100
AcDbEntity
  8
0
100
AcDbCircle
 10
-45.5282450833846
 20
-37.34306444005699
 30
0.0
 40
0.1580968594334222
100
AcDbArc
 50
205.8849244575639
 51
270.0
  0
ARC
  5
8ADE
330
18
100
AcDbEntity
  8
0
100
AcDbCircle
 10
-46.08138284702351
 20
-37.61147387368009
 30
0.0
 40
0.4567242605854611
100
AcDbArc
 50
205.8849244575778
 51
334.1150755424221
  0
ARC
  5
8ADF
330
18
100
AcDbEntity
  8
0
100
AcDbCircle
 10
-45.5282450833846
 20
-37.87988330730331
 30
0.0
 40
0.1580968594335914
100
AcDbArc
 50
90.0
 51
154.1150755424185
  0
ARC
  5
8AE0
330
18
100
AcDbEntity
  8
0
100
AcDbCircle
 10
-46.87446956163547
 20
-37.87988330730331
 30
0.0
 40
0.1580968594333925
100
AcDbArc
 50
90.0
 51
180.0
  0
ARC
  5
8AE1
330
18
100
AcDbEntity
  8
0
100
AcDbCircle
 10
-46.63452061066243
 20
-37.87988330730331
 30
0.0
 40
0.1580968594334435
100
AcDbArc
 50
25.88492445758874
 51
90.0
  0
ARC
  5
8AE2
330
18
100
AcDbEntity
  8
0
100
AcDbCircle
 10
-47.32208536117593
 20
-36.66644499121588
 30
0.0
 40
0.158096859433499
100
AcDbArc
 50
90.0
 51
180.0
  0
ARC
  5
8AE3
330
18
100
AcDbEntity
  8
0
100
AcDbCircle
 10
-47.32208536117593
 20
-37.34306444005699
 30
0.0
 40
0.1580968594334404
100
AcDbArc
 50
180.0
 51
270.0
  0
ARC
  5
8AE4
330
18
100
AcDbEntity
  8
0
100
AcDbCircle
 10
-47.59439493421985
 20
-38.95583434819667
 30
0.0
 40
0.2107958125779206
100
AcDbArc
 50
180.0
 51
270.0
  0
ARC
  5
8AE5
330
18
100
AcDbEntity
  8
0
100
AcDbCircle
 10
-47.59439493421985
 20
-36.37742597335267
 30
0.0
 40
0.2107958125779987
100
AcDbArc
 50
90.0
 51
180.0
  0
CIRCLE
  5
8AE6
330
18
100
AcDbEntity
  8
0
100
AcDbCircle
 10
-46.08138284702351
 20
-37.61147387368009
 30
0.0
 40
0.2283621302927905
  0
LINE
  5
8AE7
330
18
100
AcDbEntity
  8
0
100
AcDbLine
 10
-45.28829613241202
 20
-37.5011612994906
 30
0.0
 11
-45.5282450833846
 21
-37.5011612994906
 31
0.0
  0
LINE
  5
8AE8
330
18
100
AcDbEntity
  8
0
100
AcDbLine
 10
-45.5282450833846
 20
-37.7217864478697
 30
0.0
 11
-45.28829613241202
 21
-37.7217864478697
 31
0.0
  0
LINE
  5
8AE9
330
18
100
AcDbEntity
  8
0
100
AcDbLine
 10
-47.32208536117593
 20
-36.50834813178238
 30
0.0
 11
-45.28829613241157
 21
-36.50834813178238
 31
0.0
  0
LINE
  5
8AEA
330
18
100
AcDbEntity
  8
0
100
AcDbLine
 10
-47.44108913166008
 20
-39.66663016077484
 30
0.0
 11
-42.60519074679757
 21
-39.66663016077541
 31
0.0
  0
LINE
  5
8AEB
330
18
100
AcDbEntity
  8
0
100
AcDbLine
 10
-45.01598655937584
 20
-39.16663016077467
 30
0.0
 11
-47.59439493421985
 21
-39.16663016077467
 31
0.0
  0
LINE
  5
8AEC
330
18
100
AcDbEntity
  8
0
100
AcDbLine
 10
-45.01598655937584
 20
-36.16663016077467
 30
0.0
 11
-47.59439493421985
 21
-36.16663016077467
 31
0.0
  0
ARC
  5
8AED
330
18
100
AcDbEntity
  8
0
100
AcDbCircle
 10
-46.08138284702351
 20
-37.89253495711728
 30
0.0
 40
0.9511835740452008
100
AcDbArc
 50
180.0
 51
0.0
  0
LINE
  5
8AEE
330
18
100
AcDbEntity
  8
0
100
AcDbLine
 10
-41.60519074679757
 20
-39.06663016077487
 30
0.0
 11
-37.80519074679784
 21
-38.04842322953646
 31
0.0
  0
LINE
  5
8AEF
330
18
100
AcDbEntity
  8
0
100
AcDbLine
 10
-30.57565701611645
 20
-27.26663016087775
 30
0.0
 11
-29.13916534301313
 21
-27.26663016087775
 31
0.0
  0
LINE
  5
8AF0
330
18
100
AcDbEntity
  8
0
100
AcDbLine
 10
-30.57565701611645
 20
-26.26663016087775
 30
0.0
 11
-29.13916534301313
 21
-26.26663016087775
 31
0.0
  0
ARC
  5
8AF1
330
18
100
AcDbEntity
  8
0
100
AcDbCircle
 10
-28.63916534301313
 20
-26.76663016087775
 30
0.0
 40
2.0
100
AcDbArc
 50
345.5224878140701
 51
14.47751218592986
  0
ARC
  5
8AF2
330
18
100
AcDbEntity
  8
0
100
AcDbCircle
 10
56.36083465698686
 20
-42.76663016087775
 30
0.0
 40
2.75
100
AcDbArc
 50
0.0
 51
180.0
  0
LINE
  5
8AF3
330
18
100
AcDbEntity
  8
0
100
AcDbLine
 10
53.61083465698687
 20
-42.76663016087775
 30
0.0
 11
53.61083465698687
 21
-47.76663016087775
 31
0.0
  0
LINE
  5
8AF4
330
18
100
AcDbEntity
  8
0
100
AcDbLine
 10
53.61083465698687
 20
-47.76663016087775
 30
0.0
 11
36.36083465698686
 21
-47.76663016087775
 31
0.0
  0
LINE
  5
8AF5
330
18
100
AcDbEntity
  8
0
100
AcDbLine
 10
59.11083465698687
 20
-42.76663016087775
 30
0.0
 11
59.11083465698687
 21
-47.76663016087775
 31
0.0
  0
LINE
  5
8AF6
330
18
100
AcDbEntity
  8
0
100
AcDbLine
 10
66.36083465698686
 20
-47.76663016087775
 30
0.0
 11
59.11083465698687
 21
-47.76663016087775
 31
0.0
  0
LINE
  5
8AF7
330
18
100
AcDbEntity
  8
0
100
AcDbLine
 10
47.86083465698687
 20
-13.26663016087729
 30
0.0
 11
62.86083465698687
 21
-13.26663016087729
 31
0.0
  0
LINE
  5
8AF8
330
18
100
AcDbEntity
  8
0
370
    50
100
AcDbLine
 10
43.36083465698687
 20
-11.76663016087707
 30
0.0
 11
43.36083465698687
 21
-13.36663016087697
 31
0.0
  0
LINE
  5
8AF9
330
18
100
AcDbEntity
  8
0
370
    50
100
AcDbLine
 10
43.86083465698686
 20
-15.76663016087707
 30
0.0
 11
42.86083465698687
 21
-15.76663016087707
 31
0.0
  0
ARC
  5
8AFA
330
18
100
AcDbEntity
  8
0
100
AcDbCircle
 10
41.36083465698686
 20
-26.76663016087775
 30
0.0
 40
2.0
100
AcDbArc
 50
345.5224878140701
 51
14.47751218592986
  0
ARC
  5
8AFB
330
18
100
AcDbEntity
  8
0
100
AcDbCircle
 10
33.46083465698677
 20
-13.76663016087775
 30
0.0
 40
2.666666666666666
100
AcDbArc
 50
345.5224878140701
 51
14.47751218592986
  0
LINE
  5
8AFC
330
18
100
AcDbEntity
  8
0
100
AcDbLine
 10
34.12750132365329
 20
-16.34861905834952
 30
0.0
 11
34.12750132365329
 21
-14.43329682754449
 31
0.0
  0
LINE
  5
8AFD
330
18
100
AcDbEntity
  8
0
100
AcDbLine
 10
34.12750132365329
 20
-14.43329682754449
 30
0.0
 11
36.04282355445832
 21
-14.43329682754449
 31
0.0
  0
LINE
  5
8AFE
330
18
100
AcDbEntity
  8
0
100
AcDbLine
 10
34.12750132365329
 20
-13.09996349421101
 30
0.0
 11
34.12750132365329
 21
-11.18464126340597
 31
0.0
  0
LINE
  5
8AFF
330
18
100
AcDbEntity
  8
0
100
AcDbLine
 10
34.12750132365329
 20
-13.09996349421101
 30
0.0
 11
36.04282355445832
 21
-13.09996349421101
 31
0.0
  0
LINE
  5
8B00
330
18
100
AcDbEntity
  8
0
100
AcDbLine
 10
32.79416799032026
 20
-16.34861905834952
 30
0.0
 11
32.79416799032026
 21
-14.43329682754449
 31
0.0
  0
LINE
  5
8B01
330
18
100
AcDbEntity
  8
0
100
AcDbLine
 10
32.79416799032026
 20
-13.09996349421101
 30
0.0
 11
32.79416799032026
 21
-11.18464126340597
 31
0.0
  0
ARC
  5
8B02
330
18
100
AcDbEntity
  8
0
100
AcDbCircle
 10
33.46083465698677
 20
-13.76663016087775
 30
0.0
 40
2.666666666666666
100
AcDbArc
 50
255.5224878140696
 51
284.4775121859303
  0
ARC
  5
8B03
330
18
100
AcDbEntity
  8
0
100
AcDbCircle
 10
33.46083465698677
 20
-13.76663016087775
 30
0.0
 40
2.666666666666666
100
AcDbArc
 50
75.52248781406973
 51
104.4775121859302
  0
LINE
  5
8B04
330
18
100
AcDbEntity
  8
0
100
AcDbLine
 10
41.86083465698686
 20
-28.70312183398152
 30
0.0
 11
41.86083465698686
 21
-27.26663016087775
 31
0.0
  0
LINE
  5
8B05
330
18
100
AcDbEntity
  8
0
100
AcDbLine
 10
40.86083465698687
 20
-28.70312183398152
 30
0.0
 11
40.86083465698687
 21
-27.26663016087775
 31
0.0
  0
ARC
  5
8B06
330
18
100
AcDbEntity
  8
0
100
AcDbCircle
 10
41.36083465698686
 20
-26.76663016087775
 30
0.0
 40
2.0
100
AcDbArc
 50
255.5224878140696
 51
284.4775121859303
  0
ARC
  5
8B07
330
18
100
AcDbEntity
  8
0
100
AcDbCircle
 10
41.36083465698686
 20
-26.76663016087775
 30
0.0
 40
2.0
100
AcDbArc
 50
75.52248781406973
 51
104.4775121859302
  0
LINE
  5
8B08
330
18
100
AcDbEntity
  8
0
100
AcDbLine
 10
40.86083465698687
 20
-26.26663016087775
 30
0.0
 11
40.86083465698687
 21
-24.83013848777398
 31
0.0
  0
LINE
  5
8B09
330
18
100
AcDbEntity
  8
0
100
AcDbLine
 10
41.86083465698686
 20
-26.26663016087775
 30
0.0
 11
41.86083465698686
 21
-24.83013848777398
 31
0.0
  0
ARC
  5
8B0A
330
18
100
AcDbEntity
  8
0
100
AcDbCircle
 10
41.36083465698686
 20
-26.76663016087775
 30
0.0
 40
2.0
100
AcDbArc
 50
165.5224878140701
 51
194.4775121859298
  0
LINE
  5
8B0B
330
18
100
AcDbEntity
  8
0
100
AcDbLine
 10
39.42434298388354
 20
-27.26663016087775
 30
0.0
 11
40.86083465698687
 21
-27.26663016087775
 31
0.0
  0
LINE
  5
8B0C
330
18
100
AcDbEntity
  8
0
100
AcDbLine
 10
39.42434298388354
 20
-26.26663016087775
 30
0.0
 11
40.86083465698687
 21
-26.26663016087775
 31
0.0
  0
LINE
  5
8B0D
330
18
100
AcDbEntity
  8
0
370
    50
100
AcDbLine
 10
45.36083465698687
 20
-13.36663016087697
 30
0.0
 11
41.36083465698686
 21
-13.36663016087697
 31
0.0
  0
LINE
  5
8B0E
330
18
100
AcDbEntity
  8
0
370
    50
100
AcDbLine
 10
42.11083465698687
 20
-14.56663016087725
 30
0.0
 11
44.61083465698687
 21
-14.56663016087725
 31
0.0
  0
CIRCLE
  5
8B0F
330
18
100
AcDbEntity
  8
0
370
    50
100
AcDbCircle
 10
43.36083465698687
 20
-13.76663016087707
 30
0.0
 40
3.0
  0
LINE
  5
8B10
330
18
100
AcDbEntity
  8
0
100
AcDbLine
 10
41.86083465698686
 20
-27.26663016087775
 30
0.0
 11
43.29732633009064
 21
-27.26663016087775
 31
0.0
  0
LINE
  5
8B11
330
18
100
AcDbEntity
  8
0
100
AcDbLine
 10
41.86083465698686
 20
-26.26663016087775
 30
0.0
 11
43.29732633009064
 21
-26.26663016087775
 31
0.0
  0
CIRCLE
  5
8B12
330
18
100
AcDbEntity
  8
0
100
AcDbCircle
 10
41.36083465698686
 20
-26.76663016087775
 30
0.0
 40
2.5
  0
CIRCLE
  5
8B13
330
18
100
AcDbEntity
  8
0
100
AcDbCircle
 10
41.36083465698686
 20
-26.76663016087775
 30
0.0
 40
3.0
  0
ARC
  5
8B14
330
18
100
AcDbEntity
  8
0
100
AcDbCircle
 10
33.46083465698677
 20
-13.76663016087775
 30
0.0
 40
2.666666666666666
100
AcDbArc
 50
165.5224878140701
 51
194.4775121859298
  0
LINE
  5
8B15
330
18
100
AcDbEntity
  8
0
100
AcDbLine
 10
30.87884575951568
 20
-14.43329682754449
 30
0.0
 11
32.79416799032026
 21
-14.43329682754449
 31
0.0
  0
LINE
  5
8B16
330
18
100
AcDbEntity
  8
0
100
AcDbLine
 10
30.87884575951568
 20
-13.09996349421101
 30
0.0
 11
32.79416799032026
 21
-13.09996349421101
 31
0.0
  0
LINE
  5
8B17
330
18
100
AcDbEntity
  8
0
100
AcDbLine
 10
30.36083465698686
 20
97.23336983912226
 30
0.0
 11
5.360834656986867
 21
97.23336983912226
 31
0.0
  0
LINE
  5
8B18
330
18
100
AcDbEntity
  8
0
100
AcDbLine
 10
-54.63916534301313
 20
177.2333698391222
 30
0.0
 11
66.36083465698686
 21
177.2333698391222
 31
0.0
  0
LINE
  5
8B19
330
18
100
AcDbEntity
  8
0
100
AcDbLine
 10
53.61083465698687
 20
192.233369839122
 30
0.0
 11
-30.88916534301313
 21
192.233369839122
 31
0.0
  0
LINE
  5
8B1A
330
18
100
AcDbEntity
  8
0
100
AcDbLine
 10
30.36083465698686
 20
4.233369839122246
 30
0.0
 11
5.360834656986867
 21
4.233369839122246
 31
0.0
  0
HATCH
  5
8B1D
330
18
100
AcDbEntity
  8
0
100
AcDbHatch
 10
0.0
 20
0.0
 30
0.0
210
0.0
220
0.0
230
1.0
  2
SOLID
 70
     1
 71
     0
 91
        2
 92
        7
 72
     1
 73
     1
 93
        8
 10
-5.139165343013132
 20
120.2333950094408
 42
0.4142135623730951
 10
-6.139165343013132
 20
119.2333950094408
 42
0.0
 10
-6.139165343013132
 20
113.2333950094408
 42
0.4142135623730951
 10
-5.139165343013132
 20
112.2333950094408
 42
0.0
 10
0.8608346569868672
 20
112.2333950094408
 42
0.4142135623730951
 10
1.860834656986867
 20
113.2333950094408
 42
0.0
 10
1.860834656986867
 20
119.2333950094408
 42
0.4142135623730951
 10
0.8608346569868672
 20
120.2333950094408
 42
0.0
 97
        0
 92
       22
 72
     1
 73
     1
 93
        8
 10
0.8608346569868672
 20
119.7333950094408
 42
-0.4142135623730951
 10
1.360834656986867
 20
119.2333950094408
 42
0.0
 10
1.360834656986867
 20
113.2333950094408
 42
-0.4142135623730951
 10
0.8608346569868672
 20
112.7333950094408
 42
0.0
 10
-5.139165343013132
 20
112.7333950094408
 42
-0.4142135623730951
 10
-5.639165343013132
 20
113.2333950094408
 42
0.0
 10
-5.639165343013132
 20
119.2333950094408
 42
-0.4142135623730951
 10
-5.139165343013132
 20
119.7333950094408
 42
0.0
 97
        0
 75
     0
 76
     1
 47
0.0112091961687951
 98
        2
 10
-0.8067418003778357
 20
119.9643858793762
 10
-0.8067418003778357
 20
119.9643858793762
  0
LINE
  5
8B1E
330
18
100
AcDbEntity
  8
0
100
AcDbLine
 10
9.360834656986867
 20
166.4833698391222
 30
0.0
 11
9.360834656986867
 21
106.4833698391222
 31
0.0
  0
HATCH
  5
8B24
330
18
100
AcDbEntity
  8
0
100
AcDbHatch
 10
0.0
 20
0.0
 30
0.0
210
0.0
220
0.0
230
1.0
  2
SOLID
 70
     1
 71
     0
 91
        6
 92
        7
 72
     1
 73
     1
 93
        8
 10
-21.13916534301313
 20
120.2333950094408
 42
0.0
 10
-27.13916534301313
 20
120.2333950094408
 42
0.4142135623730951
 10
-28.13916534301313
 20
119.2333950094408
 42
0.0
 10
-28.13916534301313
 20
113.2333950094408
 42
0.4142135623730951
 10
-27.13916534301313
 20
112.2333950094408
 42
0.0
 10
-21.13916534301313
 20
112.2333950094408
 42
0.4142135623730951
 10
-20.13916534301313
 20
113.2333950094408
 42
0.0
 10
-20.13916534301313
 20
119.2333950094408
 42
0.4142135623730951
 97
        0
 92
       22
 72
     1
 73
     1
 93
        8
 10
-21.13916534301313
 20
119.7333950094408
 42
-0.4142135623730951
 10
-20.63916534301313
 20
119.2333950094408
 42
0.0
 10
-20.63916534301313
 20
113.2333950094408
 42
-0.4142135623730951
 10
-21.13916534301313
 20
112.7333950094408
 42
0.0
 10
-27.13916534301313
 20
112.7333950094408
 42
-0.4142135623730951
 10
-27.63916534301313
 20
113.2333950094408
 42
0.0
 10
-27.63916534301313
 20
119.2333950094408
 42
-0.4142135623730951
 10
-27.13916534301313
 20
119.7333950094408
 42
0.0
 97
        0
 92
        6
 72
     0
 73
     1
 93
        3
 10
-26.1391644105123
 20
117.9654460861992
 10
-22.13916627551304
 20
117.9654460861989
 10
-24.13916534301268
 20
114.5013460861988
 97
        0
 92
        7
 72
     1
 73
     1
 93
        8
 10
-32.13916534301313
 20
120.2333950094408
 42
0.0
 10
-38.13916534301313
 20
120.2333950094408
 42
0.4142135623730951
 10
-39.13916534301313
 20
119.2333950094408
 42
0.0
 10
-39.13916534301313
 20
113.2333950094408
 42
0.4142135623730951
 10
-38.13916534301313
 20
112.2333950094408
 42
0.0
 10
-32.13916534301313
 20
112.2333950094408
 42
0.4142135623730951
 10
-31.13916534301313
 20
113.2333950094408
 42
0.0
 10
-31.13916534301313
 20
119.2333950094408
 42
0.4142135623730951
 97
        0
 92
       22
 72
     1
 73
     1
 93
        8
 10
-32.13916534301313
 20
119.7333950094408
 42
-0.4142135623730951
 10
-31.63916534301313
 20
119.2333950094408
 42
0.0
 10
-31.63916534301313
 20
113.2333950094408
 42
-0.4142135623730951
 10
-32.13916534301313
 20
112.7333950094408
 42
0.0
 10
-38.13916534301313
 20
112.7333950094408
 42
-0.4142135623730951
 10
-38.63916534301313
 20
113.2333950094408
 42
0.0
 10
-38.63916534301313
 20
119.2333950094408
 42
-0.4142135623730951
 10
-38.13916534301313
 20
119.7333950094408
 42
0.0
 97
        0
 92
        6
 72
     0
 73
     1
 93
        3
 10
-35.13916534301268
 20
117.9654450094407
 10
-33.13916627551259
 20
114.5013450094405
 10
-37.13916441051276
 20
114.5013450094408
 97
        0
 75
     0
 76
     1
 47
0.0188367729183999
 98
        6
 10
-26.4677382490421
 20
119.9478647797169
 10
-26.4677382490421
 20
119.9478647797169
 10
-26.4677382490421
 20
119.9478647797169
 10
-33.89204662074223
 20
119.9478647797169
 10
-33.89204662074223
 20
119.9478647797169
 10
-33.89204662074223
 20
119.9478647797169
  0
LINE
  5
8B25
330
18
100
AcDbEntity
  8
0
100
AcDbLine
 10
-46.63916534301313
 20
166.4833698391222
 30
0.0
 11
-46.63916534301313
 21
106.4833698391222
 31
0.0
  0
HATCH
  5
8B27
330
18
100
AcDbEntity
  8
0
100
AcDbHatch
 10
0.0
 20
0.0
 30
0.0
210
0.0
220
0.0
230
1.0
  2
SOLID
 70
     1
 71
     0
 91
        5
 92
        7
 72
     1
 73
     1
 93
        8
 10
-9.139165343013132
 20
119.2333950094408
 42
0.4142135623730951
 10
-10.13916534301313
 20
120.2333950094408
 42
0.0
 10
-16.13916534301313
 20
120.2333950094408
 42
0.4142135623730951
 10
-17.13916534301313
 20
119.2333950094408
 42
0.0
 10
-17.13916534301313
 20
113.2333950094408
 42
0.4142135623730951
 10
-16.13916534301313
 20
112.2333950094408
 42
0.0
 10
-10.13916534301313
 20
112.2333950094408
 42
0.4142135623730951
 10
-9.139165343013132
 20
113.2333950094408
 42
0.0
 97
        0
 92
       22
 72
     1
 73
     1
 93
        8
 10
-9.639165343013132
 20
113.2333950094408
 42
-0.4142135623730951
 10
-10.13916534301313
 20
112.7333950094408
 42
0.0
 10
-16.13916534301313
 20
112.7333950094408
 42
-0.4142135623730951
 10
-16.63916534301313
 20
113.2333950094408
 42
0.0
 10
-16.63916534301313
 20
119.2333950094408
 42
-0.4142135623730951
 10
-16.13916534301313
 20
119.7333950094408
 42
0.0
 10
-10.13916534301313
 20
119.7333950094408
 42
-0.4142135623730951
 10
-9.639165343013132
 20
119.2333950094408
 42
0.0
 97
        0
 92
        6
 72
     0
 73
     1
 93
        3
 10
-10.39844571813443
 20
114.4507716763245
 10
-12.13049652570305
 20
113.4507716763247
 10
-12.13049652570305
 20
115.4507716763245
 97
        0
 92
        6
 72
     0
 73
     1
 93
        4
 10
-11.2069357070053
 20
117.0478091621518
 10
-15.00663677542922
 20
114.8159664178648
 10
-15.13325372411543
 20
115.0315311373934
 10
-11.3335526556915
 20
117.2633738816801
 97
        0
 92
      136
 93
        4
 72
     1
 10
-16.3045683237982
 20
116.8647544998665
 11
-11.0233183237982
 21
116.8647544998665
 72
     1
 10
-11.0233183237982
 20
116.8647544998665
 11
-11.0233183237982
 21
119.1850669998665
 72
     1
 10
-11.0233183237982
 20
119.1850669998665
 11
-16.3045683237982
 21
119.1850669998665
 72
     1
 10
-16.3045683237982
 20
119.1850669998665
 11
-16.3045683237982
 21
116.8647544998665
 97
        0
 75
     0
 76
     1
 47
0.0316320572239519
 98
        4
 10
-9.498052009090656
 20
116.101332748428
 10
-9.498052009090656
 20
116.101332748428
 10
-9.498052009090656
 20
116.101332748428
 10
-9.498052009090656
 20
116.101332748428
  0
LINE
  5
8B28
330
18
100
AcDbEntity
  8
0
100
AcDbLine
 10
27.36083465698686
 20
49.73336983912225
 30
0.0
 11
27.36083465698686
 21
51.73336983912225
 31
0.0
  0
LINE
  5
8B29
330
18
100
AcDbEntity
  8
0
100
AcDbLine
 10
6.360834656987321
 20
49.73336983912225
 30
0.0
 11
6.360834656987321
 21
51.73336983912225
 31
0.0
  0
LINE
  5
8B2A
330
18
100
AcDbEntity
  8
0
100
AcDbLine
 10
27.36083465698732
 20
4.233369839122246
 30
0.0
 11
27.36083465698732
 21
97.23336983912226
 31
0.0
  0
LINE
  5
8B2B
330
18
100
AcDbEntity
  8
0
100
AcDbLine
 10
5.360834656986867
 20
4.233369839122246
 30
0.0
 11
5.360834656986867
 21
97.23336983912226
 31
0.0
  0
LINE
  5
8B2C
330
18
100
AcDbEntity
  8
0
 48
5.0
100
AcDbLine
 10
-40.63916534301313
 20
21.23336983922399
 30
0.0
 11
-40.63916534301313
 21
18.23336983922399
 31
0.0
  0
LINE
  5
8B2D
330
18
100
AcDbEntity
  8
0
 48
5.0
100
AcDbLine
 10
-40.63916534301313
 20
21.23336983922399
 30
0.0
 11
-40.63916534301313
 21
18.23336983922399
 31
0.0
  0
CIRCLE
  5
8B2E
330
18
100
AcDbEntity
  8
0
100
AcDbCircle
 10
-40.63916534301313
 20
19.73336983922399
 30
0.0
 40
2.5
  0
CIRCLE
  5
8B2F
330
18
100
AcDbEntity
  8
0
100
AcDbCircle
 10
-40.63916534301313
 20
19.73336983922399
 30
0.0
 40
3.0
  0
CIRCLE
  5
8B30
330
18
100
AcDbEntity
  8
0
100
AcDbCircle
 10
-40.63916534301313
 20
19.73336983922399
 30
0.0
 40
2.5
  0
CIRCLE
  5
8B31
330
18
100
AcDbEntity
  8
0
100
AcDbCircle
 10
-40.63916534301313
 20
19.73336983922399
 30
0.0
 40
3.0
  0
LINE
  5
8B32
330
18
100
AcDbEntity
  8
0
 48
5.0
100
AcDbLine
 10
-39.13916534301313
 20
19.73336983922399
 30
0.0
 11
-42.13916534301313
 21
19.73336983922399
 31
0.0
  0
LINE
  5
8B33
330
18
100
AcDbEntity
  8
0
100
AcDbLine
 10
24.86083465698686
 20
18.73336983912224
 30
0.0
 11
24.86083465698732
 21
27.73336983912225
 31
0.0
  0
CIRCLE
  5
8B34
330
18
100
AcDbEntity
  8
0
100
AcDbCircle
 10
16.86083465698686
 20
23.23336983912196
 30
0.0
 40
4.0
  0
LINE
  5
8B35
330
18
100
AcDbEntity
  8
0
100
AcDbLine
 10
8.860834656987321
 20
18.73336983912224
 30
0.0
 11
8.860834656987321
 21
27.73336983912225
 31
0.0
  0
TEXT
  5
8B36
330
18
100
AcDbEntity
  8
0
 48
5.0
100
AcDbText
 10
-0.5909872831838358
 20
20.8435727762984
 30
0.0
 40
5.0
  1
V
 41
1.199999999999999
  7
MSｺﾞｼｯｸ
 11
-0.5909872831838357
 21
23.3435727762984
 31
0.0
100
AcDbText
 73
     2
  0
TEXT
  5
8B37
330
18
100
AcDbEntity
  8
0
 48
5.0
100
AcDbText
 10
-0.5909872831838358
 20
9.843572776298401
 30
0.0
 40
5.0
  1
W
 41
1.199999999999999
  7
MSｺﾞｼｯｸ
 11
-0.5909872831838357
 21
12.3435727762984
 31
0.0
100
AcDbText
 73
     2
  0
LINE
  5
8B38
330
18
100
AcDbEntity
  8
0
100
AcDbLine
 10
27.36083465698686
 20
16.73336983912224
 30
0.0
 11
27.36083465698686
 21
18.73336983912224
 31
0.0
  0
LINE
  5
8B39
330
18
100
AcDbEntity
  8
0
100
AcDbLine
 10
27.36083465698732
 20
14.23336983912224
 30
0.0
 11
24.86083465698686
 21
14.2333698391227
 31
0.0
  0
LINE
  5
8B3A
330
18
100
AcDbEntity
  8
0
100
AcDbLine
 10
27.36083465698686
 20
5.733369839122246
 30
0.0
 11
27.36083465698686
 21
7.733369839122246
 31
0.0
  0
LINE
  5
8B3B
330
18
100
AcDbEntity
  8
0
100
AcDbLine
 10
27.36083465698732
 20
11.23336983912224
 30
0.0
 11
27.36083465698732
 21
10.23336983912224
 31
0.0
  0
LINE
  5
8B3C
330
18
100
AcDbEntity
  8
0
100
AcDbLine
 10
24.86083465698686
 20
5.433369839122065
 30
0.0
 11
24.86083465698686
 21
5.733369839122246
 31
0.0
  0
LINE
  5
8B3D
330
18
100
AcDbEntity
  8
0
100
AcDbLine
 10
27.36083465698732
 20
10.23336983912224
 30
0.0
 11
24.86083465698686
 21
10.23336983912224
 31
0.0
  0
CIRCLE
  5
8B3E
330
18
100
AcDbEntity
  8
0
100
AcDbCircle
 10
16.86083465698686
 20
12.23336983912196
 30
0.0
 40
4.0
  0
LINE
  5
8B3F
330
18
100
AcDbEntity
  8
0
100
AcDbLine
 10
24.86083465698686
 20
7.733369839122246
 30
0.0
 11
24.86083465698686
 21
16.73336983912224
 31
0.0
  0
LINE
  5
8B40
330
18
100
AcDbEntity
  8
0
100
AcDbLine
 10
27.36083465698686
 20
14.23336983912224
 30
0.0
 11
27.36083465698732
 21
13.23336983912224
 31
0.0
  0
LINE
  5
8B41
330
18
100
AcDbEntity
  8
0
100
AcDbLine
 10
6.360834656987321
 20
16.73336983912224
 30
0.0
 11
6.360834656987321
 21
18.73336983912224
 31
0.0
  0
LINE
  5
8B42
330
18
100
AcDbEntity
  8
0
100
AcDbLine
 10
6.360834656987321
 20
5.733369839122246
 30
0.0
 11
6.360834656987321
 21
7.733369839122246
 31
0.0
  0
LINE
  5
8B43
330
18
100
AcDbEntity
  8
0
100
AcDbLine
 10
8.860834656986867
 20
5.433369839122519
 30
0.0
 11
8.860834656986867
 21
5.733369839122246
 31
0.0
  0
LINE
  5
8B44
330
18
100
AcDbEntity
  8
0
100
AcDbLine
 10
8.860834656986867
 20
7.733369839122246
 30
0.0
 11
8.860834656987321
 21
16.73336983912224
 31
0.0
  0
LINE
  5
8B45
330
18
100
AcDbEntity
  8
0
100
AcDbLine
 10
8.860834656983229
 20
5.433369839122519
 30
0.0
 11
24.86083465698323
 21
5.433369839122065
 31
0.0
  0
LINE
  5
8B46
330
18
100
AcDbEntity
  8
0
100
AcDbLine
 10
6.360834656986867
 20
5.733369839122246
 30
0.0
 11
27.36083465698686
 21
5.733369839122246
 31
0.0
  0
LINE
  5
8B47
330
18
100
AcDbEntity
  8
0
100
AcDbLine
 10
6.360834656986867
 20
16.73336983912224
 30
0.0
 11
27.36083465698686
 21
16.73336983912224
 31
0.0
  0
LINE
  5
8B48
330
18
100
AcDbEntity
  8
0
100
AcDbLine
 10
6.360834656986867
 20
18.73336983912224
 30
0.0
 11
27.36083465698686
 21
18.73336983912224
 31
0.0
  0
LINE
  5
8B49
330
18
100
AcDbEntity
  8
0
100
AcDbLine
 10
6.360834656986867
 20
7.733369839122246
 30
0.0
 11
27.36083465698686
 21
7.733369839122246
 31
0.0
  0
TEXT
  5
8B4A
330
18
100
AcDbEntity
  8
0
 48
5.0
100
AcDbText
 10
-2.571027690357254
 20
42.84357277629839
 30
0.0
 40
5.0
  1
B2
 41
1.199999999999999
  7
MSｺﾞｼｯｸ
 11
-2.571027690357254
 21
45.34357277629839
 31
0.0
100
AcDbText
 73
     2
  0
TEXT
  5
8B4B
330
18
100
AcDbEntity
  8
0
 48
5.0
100
AcDbText
 10
-0.5909872831838358
 20
31.8435727762984
 30
0.0
 40
5.0
  1
U
 41
1.199999999999999
  7
MSｺﾞｼｯｸ
 11
-0.5909872831838357
 21
34.3435727762984
 31
0.0
100
AcDbText
 73
     2
  0
LINE
  5
8B4C
330
18
100
AcDbEntity
  8
0
100
AcDbLine
 10
27.36083465698686
 20
38.73336983912224
 30
0.0
 11
27.36083465698686
 21
40.73336983912224
 31
0.0
  0
LINE
  5
8B4D
330
18
100
AcDbEntity
  8
0
100
AcDbLine
 10
27.36083465698732
 20
47.23336983912225
 30
0.0
 11
27.36083465698732
 21
46.23336983912224
 31
0.0
  0
LINE
  5
8B4E
330
18
100
AcDbEntity
  8
0
100
AcDbLine
 10
27.36083465698778
 20
44.23336983912224
 30
0.0
 11
27.36083465698732
 21
43.23336983912224
 31
0.0
  0
LINE
  5
8B4F
330
18
100
AcDbEntity
  8
0
100
AcDbLine
 10
27.36083465698732
 20
47.23336983912225
 30
0.0
 11
24.86083465698732
 21
47.23336983912225
 31
0.0
  0
LINE
  5
8B50
330
18
100
AcDbEntity
  8
0
100
AcDbLine
 10
27.36083465698732
 20
43.23336983912224
 30
0.0
 11
24.86083465698732
 21
43.23336983912224
 31
0.0
  0
LINE
  5
8B51
330
18
100
AcDbEntity
  8
0
100
AcDbLine
 10
27.36083465698732
 20
47.23336983912225
 30
0.0
 11
24.86083465698686
 21
47.2333698391227
 31
0.0
  0
LINE
  5
8B52
330
18
100
AcDbEntity
  8
0
100
AcDbLine
 10
27.36083465698732
 20
43.23336983912224
 30
0.0
 11
24.86083465698686
 21
43.23336983912224
 31
0.0
  0
LINE
  5
8B53
330
18
100
AcDbEntity
  8
0
100
AcDbLine
 10
24.86083465698732
 20
40.73336983912224
 30
0.0
 11
24.86083465698732
 21
49.73336983912225
 31
0.0
  0
CIRCLE
  5
8B54
330
18
100
AcDbEntity
  8
0
100
AcDbCircle
 10
16.86083465698686
 20
45.23336983912196
 30
0.0
 40
4.0
  0
LINE
  5
8B55
330
18
100
AcDbEntity
  8
0
100
AcDbLine
 10
6.360834656987321
 20
38.73336983912224
 30
0.0
 11
6.360834656987321
 21
40.73336983912224
 31
0.0
  0
LINE
  5
8B56
330
18
100
AcDbEntity
  8
0
100
AcDbLine
 10
8.860834656987321
 20
40.73336983912224
 30
0.0
 11
8.860834656987321
 21
49.73336983912225
 31
0.0
  0
LINE
  5
8B57
330
18
100
AcDbEntity
  8
0
100
AcDbLine
 10
6.360834656986867
 20
40.73336983912224
 30
0.0
 11
27.36083465698686
 21
40.73336983912224
 31
0.0
  0
LINE
  5
8B58
330
18
100
AcDbEntity
  8
0
100
AcDbLine
 10
6.360834656986867
 20
38.73336983912224
 30
0.0
 11
27.36083465698686
 21
38.73336983912224
 31
0.0
  0
LINE
  5
8B59
330
18
100
AcDbEntity
  8
0
100
AcDbLine
 10
6.360834656986867
 20
49.73336983912225
 30
0.0
 11
27.36083465698686
 21
49.73336983912225
 31
0.0
  0
LINE
  5
8B5A
330
18
100
AcDbEntity
  8
0
100
AcDbLine
 10
27.36083465698686
 20
27.73336983912225
 30
0.0
 11
27.36083465698686
 21
29.73336983912224
 31
0.0
  0
LINE
  5
8B5B
330
18
100
AcDbEntity
  8
0
100
AcDbLine
 10
27.36083465698732
 20
36.23336983912224
 30
0.0
 11
27.36083465698732
 21
35.23336983912225
 31
0.0
  0
LINE
  5
8B5C
330
18
100
AcDbEntity
  8
0
100
AcDbLine
 10
27.36083465698778
 20
33.23336983912224
 30
0.0
 11
27.36083465698732
 21
32.23336983912224
 31
0.0
  0
LINE
  5
8B5D
330
18
100
AcDbEntity
  8
0
100
AcDbLine
 10
27.36083465698732
 20
36.23336983912224
 30
0.0
 11
24.86083465698732
 21
36.23336983912224
 31
0.0
  0
LINE
  5
8B5E
330
18
100
AcDbEntity
  8
0
100
AcDbLine
 10
27.36083465698732
 20
32.23336983912224
 30
0.0
 11
24.86083465698732
 21
32.23336983912224
 31
0.0
  0
LINE
  5
8B5F
330
18
100
AcDbEntity
  8
0
100
AcDbLine
 10
27.36083465698732
 20
36.23336983912224
 30
0.0
 11
24.86083465698686
 21
36.2333698391227
 31
0.0
  0
LINE
  5
8B60
330
18
100
AcDbEntity
  8
0
100
AcDbLine
 10
27.36083465698732
 20
32.23336983912224
 30
0.0
 11
24.86083465698686
 21
32.23336983912224
 31
0.0
  0
LINE
  5
8B61
330
18
100
AcDbEntity
  8
0
100
AcDbLine
 10
27.36083465698686
 20
25.23336983912225
 30
0.0
 11
27.36083465698732
 21
24.23336983912224
 31
0.0
  0
LINE
  5
8B62
330
18
100
AcDbEntity
  8
0
100
AcDbLine
 10
27.36083465698732
 20
22.23336983912224
 30
0.0
 11
27.36083465698732
 21
21.23336983912224
 31
0.0
  0
LINE
  5
8B63
330
18
100
AcDbEntity
  8
0
100
AcDbLine
 10
27.36083465698732
 20
21.23336983912224
 30
0.0
 11
24.86083465698686
 21
21.23336983912224
 31
0.0
  0
LINE
  5
8B64
330
18
100
AcDbEntity
  8
0
100
AcDbLine
 10
27.36083465698732
 20
25.23336983912225
 30
0.0
 11
24.86083465698686
 21
25.2333698391227
 31
0.0
  0
LINE
  5
8B65
330
18
100
AcDbEntity
  8
0
100
AcDbLine
 10
6.360834656987321
 20
27.73336983912225
 30
0.0
 11
6.360834656987321
 21
29.73336983912224
 31
0.0
  0
LINE
  5
8B66
330
18
100
AcDbEntity
  8
0
100
AcDbLine
 10
6.360834656986867
 20
27.73336983912225
 30
0.0
 11
27.36083465698686
 21
27.73336983912225
 31
0.0
  0
LINE
  5
8B67
330
18
100
AcDbEntity
  8
0
100
AcDbLine
 10
6.360834656986867
 20
29.73336983912224
 30
0.0
 11
27.36083465698686
 21
29.73336983912224
 31
0.0
  0
CIRCLE
  5
8B68
330
18
100
AcDbEntity
  8
0
100
AcDbCircle
 10
16.86083465698686
 20
34.23336983912196
 30
0.0
 40
4.0
  0
LINE
  5
8B69
330
18
100
AcDbEntity
  8
0
100
AcDbLine
 10
8.860834656987321
 20
29.7333698391227
 30
0.0
 11
8.860834656987321
 21
38.73336983912224
 31
0.0
  0
LINE
  5
8B6A
330
18
100
AcDbEntity
  8
0
100
AcDbLine
 10
24.86083465698732
 20
29.73336983912224
 30
0.0
 11
24.86083465698732
 21
38.73336983912224
 31
0.0
  0
LINE
  5
8B6B
330
18
100
AcDbEntity
  8
0
100
AcDbLine
 10
-44.63916534301313
 20
104.4833698391222
 30
0.0
 11
7.360834656986867
 21
104.4833698391222
 31
0.0
  0
ARC
  5
8B6C
330
18
100
AcDbEntity
  8
0
100
AcDbCircle
 10
-44.63916534301313
 20
106.4833698391222
 30
0.0
 40
2.0
100
AcDbArc
 50
180.0
 51
270.0
  0
LINE
  5
8B6D
330
18
100
AcDbEntity
  8
0
100
AcDbLine
 10
24.86083465698732
 20
73.73336983912224
 30
0.0
 11
24.86083465698732
 21
82.73336983912225
 31
0.0
  0
CIRCLE
  5
8B6E
330
18
100
AcDbEntity
  8
0
100
AcDbCircle
 10
16.86083465698686
 20
78.23336983912196
 30
0.0
 40
4.0
  0
LINE
  5
8B6F
330
18
100
AcDbEntity
  8
0
100
AcDbLine
 10
8.860834656987321
 20
73.73336983912224
 30
0.0
 11
8.860834656987321
 21
82.73336983912225
 31
0.0
  0
TEXT
  5
8B70
330
18
100
AcDbEntity
  8
0
 48
5.0
100
AcDbText
 10
-0.5909872831838358
 20
64.8435727762984
 30
0.0
 40
5.0
  1
T
 41
1.199999999999999
  7
MSｺﾞｼｯｸ
 11
-0.5909872831838357
 21
67.3435727762984
 31
0.0
100
AcDbText
 73
     2
  0
TEXT
  5
8B71
330
18
100
AcDbEntity
  8
0
 48
5.0
100
AcDbText
 10
-0.5909872831838358
 20
75.84357277629862
 30
0.0
 40
5.0
  1
S
 41
1.199999999999999
  7
MSｺﾞｼｯｸ
 11
-0.5909872831838357
 21
78.34357277629862
 31
0.0
100
AcDbText
 73
     2
  0
TEXT
  5
8B72
330
18
100
AcDbEntity
  8
0
 48
5.0
100
AcDbText
 10
-2.571027690357254
 20
53.8435727762984
 30
0.0
 40
5.0
  1
B1
 41
1.199999999999999
  7
MSｺﾞｼｯｸ
 11
-2.571027690357254
 21
56.3435727762984
 31
0.0
100
AcDbText
 73
     2
  0
LINE
  5
8B73
330
18
100
AcDbEntity
  8
0
100
AcDbLine
 10
27.36083465698732
 20
71.73336983912225
 30
0.0
 11
27.36083465698732
 21
73.73336983912224
 31
0.0
  0
LINE
  5
8B74
330
18
100
AcDbEntity
  8
0
100
AcDbLine
 10
27.36083465698732
 20
80.23336983912225
 30
0.0
 11
27.36083465698732
 21
79.23336983912225
 31
0.0
  0
LINE
  5
8B75
330
18
100
AcDbEntity
  8
0
100
AcDbLine
 10
27.36083465698778
 20
77.23336983912225
 30
0.0
 11
27.36083465698732
 21
76.23336983912224
 31
0.0
  0
LINE
  5
8B76
330
18
100
AcDbEntity
  8
0
100
AcDbLine
 10
27.36083465698732
 20
76.23336983912224
 30
0.0
 11
24.86083465698732
 21
76.23336983912224
 31
0.0
  0
LINE
  5
8B77
330
18
100
AcDbEntity
  8
0
100
AcDbLine
 10
27.36083465698732
 20
80.23336983912225
 30
0.0
 11
24.86083465698732
 21
80.23336983912271
 31
0.0
  0
LINE
  5
8B78
330
18
100
AcDbEntity
  8
0
100
AcDbLine
 10
27.36083465698686
 20
60.73336983912224
 30
0.0
 11
27.36083465698732
 21
62.73336983912225
 31
0.0
  0
LINE
  5
8B79
330
18
100
AcDbEntity
  8
0
100
AcDbLine
 10
27.36083465698732
 20
69.23336983912225
 30
0.0
 11
27.36083465698732
 21
68.23336983912224
 31
0.0
  0
LINE
  5
8B7A
330
18
100
AcDbEntity
  8
0
100
AcDbLine
 10
27.36083465698778
 20
66.23336983912224
 30
0.0
 11
27.36083465698732
 21
65.23336983912225
 31
0.0
  0
LINE
  5
8B7B
330
18
100
AcDbEntity
  8
0
100
AcDbLine
 10
27.36083465698732
 20
69.23336983912225
 30
0.0
 11
24.86083465698732
 21
69.2333698391227
 31
0.0
  0
LINE
  5
8B7C
330
18
100
AcDbEntity
  8
0
100
AcDbLine
 10
27.36083465698732
 20
65.23336983912225
 30
0.0
 11
24.86083465698732
 21
65.23336983912225
 31
0.0
  0
LINE
  5
8B7D
330
18
100
AcDbEntity
  8
0
100
AcDbLine
 10
24.86083465698732
 20
62.73336983912225
 30
0.0
 11
24.86083465698732
 21
71.73336983912225
 31
0.0
  0
CIRCLE
  5
8B7E
330
18
100
AcDbEntity
  8
0
100
AcDbCircle
 10
16.86083465698686
 20
67.23336983912196
 30
0.0
 40
4.0
  0
LINE
  5
8B7F
330
18
100
AcDbEntity
  8
0
100
AcDbLine
 10
27.36083465698732
 20
58.23336983912224
 30
0.0
 11
27.36083465698732
 21
57.23336983912225
 31
0.0
  0
LINE
  5
8B80
330
18
100
AcDbEntity
  8
0
100
AcDbLine
 10
27.36083465698778
 20
55.23336983912225
 30
0.0
 11
27.36083465698732
 21
54.23336983912225
 31
0.0
  0
LINE
  5
8B81
330
18
100
AcDbEntity
  8
0
100
AcDbLine
 10
27.36083465698732
 20
58.23336983912224
 30
0.0
 11
24.86083465698686
 21
58.2333698391227
 31
0.0
  0
LINE
  5
8B82
330
18
100
AcDbEntity
  8
0
100
AcDbLine
 10
27.36083465698732
 20
54.23336983912225
 30
0.0
 11
24.86083465698686
 21
54.23336983912225
 31
0.0
  0
CIRCLE
  5
8B83
330
18
100
AcDbEntity
  8
0
100
AcDbCircle
 10
16.86083465698686
 20
56.23336983912196
 30
0.0
 40
4.0
  0
LINE
  5
8B84
330
18
100
AcDbEntity
  8
0
100
AcDbLine
 10
24.86083465698732
 20
51.73336983912225
 30
0.0
 11
24.86083465698732
 21
60.73336983912224
 31
0.0
  0
LINE
  5
8B85
330
18
100
AcDbEntity
  8
0
100
AcDbLine
 10
6.360834656987321
 20
71.73336983912225
 30
0.0
 11
6.360834656987321
 21
73.73336983912224
 31
0.0
  0
LINE
  5
8B86
330
18
100
AcDbEntity
  8
0
100
AcDbLine
 10
6.360834656987321
 20
60.73336983912224
 30
0.0
 11
6.360834656987321
 21
62.73336983912225
 31
0.0
  0
LINE
  5
8B87
330
18
100
AcDbEntity
  8
0
100
AcDbLine
 10
8.860834656987321
 20
62.73336983912225
 30
0.0
 11
8.860834656987321
 21
71.73336983912225
 31
0.0
  0
LINE
  5
8B88
330
18
100
AcDbEntity
  8
0
100
AcDbLine
 10
8.860834656987321
 20
51.73336983912225
 30
0.0
 11
8.860834656987321
 21
60.73336983912224
 31
0.0
  0
LINE
  5
8B89
330
18
100
AcDbEntity
  8
0
100
AcDbLine
 10
6.360834656986867
 20
60.73336983912224
 30
0.0
 11
27.36083465698686
 21
60.73336983912224
 31
0.0
  0
LINE
  5
8B8A
330
18
100
AcDbEntity
  8
0
100
AcDbLine
 10
6.360834656987321
 20
62.73336983912225
 30
0.0
 11
27.36083465698732
 21
62.73336983912225
 31
0.0
  0
LINE
  5
8B8B
330
18
100
AcDbEntity
  8
0
100
AcDbLine
 10
6.360834656986867
 20
51.73336983912225
 30
0.0
 11
27.36083465698686
 21
51.73336983912225
 31
0.0
  0
LINE
  5
8B8C
330
18
100
AcDbEntity
  8
0
100
AcDbLine
 10
6.360834656987321
 20
73.73336983912224
 30
0.0
 11
27.36083465698732
 21
73.73336983912224
 31
0.0
  0
LINE
  5
8B8D
330
18
100
AcDbEntity
  8
0
100
AcDbLine
 10
6.360834656987321
 20
71.73336983912225
 30
0.0
 11
27.36083465698732
 21
71.73336983912225
 31
0.0
  0
TEXT
  5
8B8E
330
18
100
AcDbEntity
  8
0
 48
5.0
100
AcDbText
 10
-0.5909872831838358
 20
86.84357277629862
 30
0.0
 40
5.0
  1
R
 41
1.199999999999999
  7
MSｺﾞｼｯｸ
 11
-0.5909872831838357
 21
89.34357277629862
 31
0.0
100
AcDbText
 73
     2
  0
TEXT
  5
8B8F
330
18
100
AcDbEntity
  8
0
 48
5.0
100
AcDbText
 10
-1.542694182473237
 20
97.98383922870982
 30
0.0
 40
3.0
  1
TB2
  7
MSｺﾞｼｯｸ
 72
     2
 11
4.305021553567371
 21
99.48383922870982
 31
0.0
100
AcDbText
 73
     2
  0
LINE
  5
8B90
330
18
100
AcDbEntity
  8
0
100
AcDbLine
 10
24.86083465698732
 20
95.73336983912225
 30
0.0
 11
24.86083465698732
 21
96.03336983912152
 31
0.0
  0
LINE
  5
8B91
330
18
100
AcDbEntity
  8
0
100
AcDbLine
 10
27.36083465698732
 20
91.23336983912224
 30
0.0
 11
27.36083465698732
 21
90.23336983912225
 31
0.0
  0
LINE
  5
8B92
330
18
100
AcDbEntity
  8
0
100
AcDbLine
 10
27.36083465698778
 20
88.23336983912225
 30
0.0
 11
27.36083465698732
 21
87.23336983912224
 31
0.0
  0
LINE
  5
8B93
330
18
100
AcDbEntity
  8
0
100
AcDbLine
 10
24.86083465698732
 20
84.73336983912224
 30
0.0
 11
24.86083465698732
 21
93.73336983912224
 31
0.0
  0
LINE
  5
8B94
330
18
100
AcDbEntity
  8
0
100
AcDbLine
 10
27.36083465698732
 20
87.23336983912224
 30
0.0
 11
24.86083465698732
 21
87.23336983912224
 31
0.0
  0
LINE
  5
8B95
330
18
100
AcDbEntity
  8
0
100
AcDbLine
 10
27.36083465698732
 20
91.23336983912224
 30
0.0
 11
24.86083465698732
 21
91.2333698391227
 31
0.0
  0
LINE
  5
8B96
330
18
100
AcDbEntity
  8
0
100
AcDbLine
 10
27.36083465698732
 20
93.73336983912224
 30
0.0
 11
27.36083465698732
 21
95.73336983912225
 31
0.0
  0
CIRCLE
  5
8B97
330
18
100
AcDbEntity
  8
0
100
AcDbCircle
 10
16.86083465698686
 20
89.23336983912196
 30
0.0
 40
4.0
  0
LINE
  5
8B98
330
18
100
AcDbEntity
  8
0
100
AcDbLine
 10
8.860834656987321
 20
95.73336983912225
 30
0.0
 11
8.860834656987321
 21
96.03336983912242
 31
0.0
  0
LINE
  5
8B99
330
18
100
AcDbEntity
  8
0
100
AcDbLine
 10
8.860834656987321
 20
84.73336983912224
 30
0.0
 11
8.860834656987321
 21
93.73336983912224
 31
0.0
  0
LINE
  5
8B9A
330
18
100
AcDbEntity
  8
0
100
AcDbLine
 10
6.360834656987321
 20
93.73336983912224
 30
0.0
 11
6.360834656987321
 21
95.73336983912225
 31
0.0
  0
ARC
  5
8B9B
330
18
100
AcDbEntity
  8
0
100
AcDbCircle
 10
7.360834656986867
 20
106.4833698391222
 30
0.0
 40
2.0
100
AcDbArc
 50
270.0
 51
0.0
  0
LINE
  5
8B9C
330
18
100
AcDbEntity
  8
0
100
AcDbLine
 10
6.360834656987321
 20
84.73336983912224
 30
0.0
 11
27.36083465698732
 21
84.73336983912224
 31
0.0
  0
LINE
  5
8B9D
330
18
100
AcDbEntity
  8
0
100
AcDbLine
 10
8.860834656987321
 20
96.03336983912242
 30
0.0
 11
24.86083465698732
 21
96.03336983912152
 31
0.0
  0
LINE
  5
8B9E
330
18
100
AcDbEntity
  8
0
100
AcDbLine
 10
6.360834656987321
 20
95.73336983912225
 30
0.0
 11
27.36083465698732
 21
95.73336983912225
 31
0.0
  0
LINE
  5
8B9F
330
18
100
AcDbEntity
  8
0
100
AcDbLine
 10
6.360834656987321
 20
93.73336983912224
 30
0.0
 11
27.36083465698732
 21
93.73336983912224
 31
0.0
  0
LINE
  5
8BA0
330
18
100
AcDbEntity
  8
0
100
AcDbLine
 10
6.360834656987321
 20
82.73336983912225
 30
0.0
 11
27.36083465698732
 21
82.73336983912225
 31
0.0
  0
LINE
  5
8BA1
330
18
100
AcDbEntity
  8
0
100
AcDbLine
 10
27.36083465698732
 20
82.73336983912225
 30
0.0
 11
27.36083465698732
 21
84.73336983912224
 31
0.0
  0
LINE
  5
8BA2
330
18
100
AcDbEntity
  8
0
100
AcDbLine
 10
6.360834656987321
 20
82.73336983912225
 30
0.0
 11
6.360834656987321
 21
84.73336983912224
 31
0.0
  0
LINE
  5
8BA3
330
18
100
AcDbEntity
  8
0
100
AcDbLine
 10
-28.13916534301313
 20
170.7333698391222
 30
0.0
 11
-26.70267366990936
 21
170.7333698391222
 31
0.0
  0
LINE
  5
8BA4
330
18
100
AcDbEntity
  8
0
100
AcDbLine
 10
-28.13916534301313
 20
171.7333698391222
 30
0.0
 11
-26.70267366990936
 21
171.7333698391222
 31
0.0
  0
TEXT
  5
8BA5
330
18
100
AcDbEntity
  8
0
100
AcDbText
 10
-40.11545388120282
 20
163.5210404925222
 30
0.0
 40
2.0
  1
AC   SERVO  DRIVER
  7
MSｺﾞｼｯｸ
100
AcDbText
  0
CIRCLE
  5
8BA6
330
18
100
AcDbEntity
  8
0
100
AcDbCircle
 10
-28.63916534301313
 20
171.2333698391222
 30
0.0
 40
2.5
  0
CIRCLE
  5
8BA7
330
18
100
AcDbEntity
  8
0
100
AcDbCircle
 10
-28.63916534301313
 20
171.2333698391222
 30
0.0
 40
3.0
  0
HATCH
  5
8BA8
330
18
100
AcDbEntity
  8
0
100
AcDbHatch
 10
0.0
 20
0.0
 30
0.0
210
0.0
220
0.0
230
1.0
  2
SOLID
 70
     1
 71
     0
 91
        2
 92
        7
 72
     0
 73
     1
 93
        3
 10
-35.13916534301268
 20
117.9654450094409
 10
-37.1391644105123
 20
114.5013450094408
 10
-33.13916627551305
 20
114.5013450094408
 97
        0
 92
        7
 72
     0
 73
     1
 93
        3
 10
-24.13916534301268
 20
114.5013460861988
 10
-22.13916627551304
 20
117.9654460861989
 10
-26.1391644105123
 20
117.9654460861989
 97
        0
 75
     0
 76
     1
 47
0.0188367729183999
 98
        2
 10
-34.77768800615865
 20
116.0674852860112
 10
-24.45149174345203
 20
116.444220664891
  0
TEXT
  5
8BA9
330
18
100
AcDbEntity
  8
0
100
AcDbText
 10
-40.19371045326386
 20
155.9561058085281
 30
0.0
 40
6.5
  1
ACTUS POWER
 41
0.9300774284514773
  7
MSｺﾞｼｯｸ
 72
     5
 11
3.01475972535502
 21
155.9561058085281
 31
0.0
100
AcDbText
  0
LINE
  5
8BAA
330
18
100
AcDbEntity
  8
0
100
AcDbLine
 10
-44.63916534301313
 20
168.4833698391222
 30
0.0
 11
7.360834656986867
 21
168.4833698391222
 31
0.0
  0
HATCH
  5
8BAC
330
18
100
AcDbEntity
  8
0
100
AcDbHatch
 10
0.0
 20
0.0
 30
0.0
210
0.0
220
0.0
230
1.0
  2
SOLID
 70
     1
 71
     0
 91
        2
 92
        7
 72
     1
 73
     1
 93
        8
 10
0.7568934109527845
 20
152.4015950094409
 42
0.0
 10
-38.03522409697905
 20
152.4015950094409
 42
0.1885055804394898
 10
-38.55294659814251
 20
151.8895764586821
 42
0.0
 10
-38.55294659814251
 20
126.0771632195623
 42
0.2963712537857847
 10
-37.63916534301313
 20
125.4833698391222
 42
0.0
 10
0.3608346569868672
 20
125.4833698391222
 42
0.4142135623730951
 10
1.360834656986867
 20
126.4833698391222
 42
0.0
 10
1.360834656986867
 20
151.4833698391222
 42
0.299386580726798
 97
        0
 92
       22
 72
     1
 73
     1
 93
        8
 10
-0.6391653430131328
 20
151.4833698391222
 42
-0.4142135623730953
 10
0.3608346569868672
 20
150.4833698391222
 42
0.0
 10
0.3608346569868672
 20
127.4833698391222
 42
-0.4142135623730951
 10
-0.6391653430131328
 20
126.4833698391222
 42
0.0
 10
-36.63916534301313
 20
126.4833698391222
 42
-0.4142135623730951
 10
-37.63916534301313
 20
127.4833698391222
 42
0.0
 10
-37.63916534301313
 20
150.4833698391222
 42
-0.4142135623730949
 10
-36.63916534301313
 20
151.4833698391222
 42
0.0
 97
        0
 75
     0
 76
     1
 47
0.1122686005965
 98
        2
 10
-28.80668573637865
 20
152.1036382347853
 10
-28.80668573637865
 20
152.1036382347853
  0
LINE
  5
8BAF
330
18
100
AcDbEntity
  8
0
100
AcDbLine
 10
-28.13916534301313
 20
169.2968781660184
 30
0.0
 11
-28.13916534301313
 21
170.7333698391222
 31
0.0
  0
LINE
  5
8BB0
330
18
100
AcDbEntity
  8
0
100
AcDbLine
 10
-29.13916534301313
 20
169.2968781660184
 30
0.0
 11
-29.13916534301313
 21
170.7333698391222
 31
0.0
  0
ARC
  5
8BB1
330
18
100
AcDbEntity
  8
0
100
AcDbCircle
 10
-28.63916534301313
 20
171.2333698391222
 30
0.0
 40
2.0
100
AcDbArc
 50
255.5224878140696
 51
284.4775121859303
  0
ARC
  5
8BB2
330
18
100
AcDbEntity
  8
0
100
AcDbCircle
 10
-28.63916534301313
 20
171.2333698391222
 30
0.0
 40
2.0
100
AcDbArc
 50
75.52248781406973
 51
104.4775121859302
  0
LINE
  5
8BB3
330
18
100
AcDbEntity
  8
0
100
AcDbLine
 10
-29.13916534301313
 20
171.7333698391222
 30
0.0
 11
-29.13916534301313
 21
173.169861512226
 31
0.0
  0
LINE
  5
8BB4
330
18
100
AcDbEntity
  8
0
100
AcDbLine
 10
-28.13916534301313
 20
171.7333698391222
 30
0.0
 11
-28.13916534301313
 21
173.169861512226
 31
0.0
  0
ARC
  5
8BB5
330
18
100
AcDbEntity
  8
0
100
AcDbCircle
 10
-28.63916534301313
 20
171.2333698391222
 30
0.0
 40
2.0
100
AcDbArc
 50
165.5224878140701
 51
194.4775121859298
  0
ARC
  5
8BB6
330
18
100
AcDbEntity
  8
0
100
AcDbCircle
 10
-44.63916534301313
 20
166.4833698391222
 30
0.0
 40
2.0
100
AcDbArc
 50
90.0
 51
180.0
  0
LINE
  5
8BB7
330
18
100
AcDbEntity
  8
0
100
AcDbLine
 10
-30.57565701611645
 20
170.7333698391222
 30
0.0
 11
-29.13916534301313
 21
170.7333698391222
 31
0.0
  0
LINE
  5
8BB8
330
18
100
AcDbEntity
  8
0
100
AcDbLine
 10
-30.57565701611645
 20
171.7333698391222
 30
0.0
 11
-29.13916534301313
 21
171.7333698391222
 31
0.0
  0
TEXT
  5
8BB9
330
18
100
AcDbEntity
  8
0
100
AcDbText
 10
23.3176598682545
 20
141.5850307565714
 30
0.0
 40
4.0
  1
r
  7
MSｺﾞｼｯｸ
100
AcDbText
  0
TEXT
  5
8BBA
330
18
100
AcDbEntity
  8
0
100
AcDbText
 10
-4.575713566363386
 20
114.9833950094408
 30
0.0
 40
2.5
  1
ENT
  7
MSｺﾞｼｯｸ
 72
     1
 11
-2.139165343013132
 21
116.2333950094408
 31
0.0
100
AcDbText
 73
     2
  0
TEXT
  5
8BBD
330
18
100
AcDbEntity
  8
0
100
AcDbText
 10
-16.0350370737982
 20
117.2670982498665
 30
0.0
 40
1.5
  1
MOD
  7
MSｺﾞｼｯｸ
100
AcDbText
  0
TEXT
  5
8BBF
330
18
100
AcDbEntity
  8
0
100
AcDbText
 10
23.25695325422532
 20
136.2507335868175
 30
0.0
 40
4.0
  1
s
  7
MSｺﾞｼｯｸ
100
AcDbText
  0
ARC
  5
8BC0
330
18
100
AcDbEntity
  8
0
100
AcDbCircle
 10
-28.63916534301313
 20
171.2333698391222
 30
0.0
 40
2.0
100
AcDbArc
 50
345.5224878140701
 51
14.47751218592986
  0
TEXT
  5
8BC1
330
18
100
AcDbEntity
  8
0
 48
5.0
100
AcDbText
 10
21.41612475541868
 20
150.2599128522375
 30
0.0
 40
3.0
  1
TB1
  7
MSｺﾞｼｯｸ
 72
     2
 11
27.26384049145929
 21
151.7599128522375
 31
0.0
100
AcDbText
 73
     2
  0
ARC
  5
8BC2
330
18
100
AcDbEntity
  8
0
100
AcDbCircle
 10
7.360834656986867
 20
166.4833698391222
 30
0.0
 40
2.0
100
AcDbArc
 50
0.0
 51
90.0
  0
LINE
  5
8BC3
330
18
100
AcDbEntity
  8
0
100
AcDbLine
 10
-30.88916534301313
 20
187.233369839122
 30
0.0
 11
-30.88916534301313
 21
192.233369839122
 31
0.0
  0
LINE
  5
8BC4
330
18
100
AcDbEntity
  8
0
100
AcDbLine
 10
-36.38916534301313
 20
187.233369839122
 30
0.0
 11
-36.38916534301313
 21
192.233369839122
 31
0.0
  0
ARC
  5
8BC5
330
18
100
AcDbEntity
  8
0
100
AcDbCircle
 10
-33.63916534301313
 20
187.233369839122
 30
0.0
 40
2.75
100
AcDbArc
 50
180.0
 51
0.0
  0
LINE
  5
8BC6
330
18
100
AcDbEntity
  8
0
100
AcDbLine
 10
-43.63916534301313
 20
177.2333698391222
 30
0.0
 11
-43.63916534301313
 21
192.2333698391222
 31
0.0
  0
LINE
  5
8BC7
330
18
100
AcDbEntity
  8
0
100
AcDbLine
 10
-36.38916534301313
 20
192.2333698391217
 30
0.0
 11
-43.63916534301313
 21
192.233369839122
 31
0.0
  0
LINE
  5
8BC8
330
18
100
AcDbEntity
  8
0
100
AcDbLine
 10
47.86083465698687
 20
81.73336983912225
 30
0.0
 11
47.86083465698687
 21
127.7333698391224
 31
0.0
  0
LINE
  5
8BC9
330
18
100
AcDbEntity
  8
0
100
AcDbLine
 10
54.41083465698705
 20
50.30836983912229
 30
0.0
 11
54.41083465698705
 21
51.2833698391222
 31
0.0
  0
LINE
  5
8BCA
330
18
100
AcDbEntity
  8
0
100
AcDbLine
 10
54.06083465698668
 20
51.2833698391222
 30
0.0
 11
54.06083465698668
 21
50.30836983912229
 31
0.0
  0
LINE
  5
8BCB
330
18
100
AcDbEntity
  8
0
100
AcDbLine
 10
57.18583465698668
 20
50.30836983912229
 30
0.0
 11
57.18583465698668
 21
51.2833698391222
 31
0.0
  0
LINE
  5
8BCC
330
18
100
AcDbEntity
  8
0
100
AcDbLine
 10
56.83583465698723
 20
51.2833698391222
 30
0.0
 11
56.83583465698723
 21
50.30836983912229
 31
0.0
  0
LINE
  5
8BCD
330
18
100
AcDbEntity
  8
0
100
AcDbLine
 10
58.71083465698723
 20
43.20836983912215
 30
0.0
 11
58.71083465698723
 21
57.33336983912216
 31
0.0
  0
LINE
  5
8BCF
330
18
100
AcDbEntity
  8
0
100
AcDbLine
 10
52.58583465698723
 20
58.25836983912234
 30
0.0
 11
52.58583465698723
 21
42.1583698391222
 31
0.0
  0
LINE
  5
8BD0
330
18
100
AcDbEntity
  8
0
100
AcDbLine
 10
60.26083465698696
 20
33.4083698391222
 30
0.0
 11
60.26083465698696
 21
66.73336983912225
 31
0.0
  0
LINE
  5
8BD1
330
18
100
AcDbEntity
  8
0
100
AcDbLine
 10
51.03583465698704
 20
66.73336983912225
 30
0.0
 11
51.03583465698704
 21
33.4083698391222
 31
0.0
  0
LINE
  5
8BD2
330
18
100
AcDbEntity
  8
0
100
AcDbLine
 10
28.96083465698723
 20
4.233369839122246
 30
0.0
 11
28.96083465698677
 21
97.23336983912226
 31
0.0
  0
LINE
  5
8BD3
330
18
100
AcDbEntity
  8
0
100
AcDbLine
 10
30.36083465698686
 20
4.233369839122246
 30
0.0
 11
30.36083465698686
 21
97.23336983912226
 31
0.0
  0
LINE
  5
8BD4
330
18
100
AcDbEntity
  8
0
100
AcDbLine
 10
54.41083465698705
 20
20.13336983912256
 30
0.0
 11
54.41083465698705
 21
21.10836983912247
 31
0.0
  0
LINE
  5
8BD5
330
18
100
AcDbEntity
  8
0
100
AcDbLine
 10
54.06083465698668
 20
21.10836983912247
 30
0.0
 11
54.06083465698668
 21
20.13336983912256
 31
0.0
  0
LINE
  5
8BD6
330
18
100
AcDbEntity
  8
0
100
AcDbLine
 10
57.18583465698668
 20
20.13336983912256
 30
0.0
 11
57.18583465698668
 21
21.10836983912247
 31
0.0
  0
LINE
  5
8BD7
330
18
100
AcDbEntity
  8
0
100
AcDbLine
 10
56.83583465698723
 20
21.10836983912247
 30
0.0
 11
56.83583465698723
 21
20.13336983912256
 31
0.0
  0
LINE
  5
8BD8
330
18
100
AcDbEntity
  8
0
100
AcDbLine
 10
58.71083465698723
 20
-0.8416301608777985
 30
0.0
 11
58.71083465698723
 21
23.33336983912238
 31
0.0
  0
LINE
  5
8BDA
330
18
100
AcDbEntity
  8
0
100
AcDbLine
 10
52.58583465698723
 20
24.25836983912256
 30
0.0
 11
52.58583465698723
 21
-1.766630160877525
 31
0.0
  0
LINE
  5
8BDB
330
18
100
AcDbEntity
  8
0
100
AcDbLine
 10
60.26083465698696
 20
-10.5666301608777
 30
0.0
 11
60.26083465698696
 21
32.73336983912247
 31
0.0
  0
LINE
  5
8BDC
330
18
100
AcDbEntity
  8
0
100
AcDbLine
 10
51.03583465698704
 20
32.73336983912247
 30
0.0
 11
51.03583465698704
 21
-10.5666301608777
 31
0.0
  0
LINE
  5
8BDD
330
18
100
AcDbEntity
  8
0
100
AcDbLine
 10
54.08583465698723
 20
-2.841630160877798
 30
0.0
 11
57.78583465698705
 21
-1.866630160877434
 31
0.0
  0
LINE
  5
8BDE
330
18
100
AcDbEntity
  8
0
100
AcDbLine
 10
57.53583465698705
 20
-5.316630160877707
 30
0.0
 11
53.96083465698723
 21
-5.316630160877707
 31
0.0
  0
ELLIPSE
  5
8BDF
330
18
100
AcDbEntity
  8
0
100
AcDbEllipse
 10
55.66083465698705
 20
-7.191630160877707
 30
0.0
 11
0.0
 21
0.775
 31
0.0
210
0.0
220
0.0
230
1.0
 40
0.9677419999999999
 41
0.0
 42
6.283184999999999
  0
LINE
  5
8BE0
330
18
100
AcDbEntity
  8
0
100
AcDbLine
 10
59.46083465698723
 20
-4.216630160877798
 30
0.0
 11
51.83583465698723
 21
-4.216630160877798
 31
0.0
  0
LINE
  5
8BE1
330
18
100
AcDbEntity
  8
0
100
AcDbLine
 10
51.03583465698704
 20
-10.5666301608777
 30
0.0
 11
60.26083465698696
 21
-10.5666301608777
 31
0.0
  0
LINE
  5
8BE2
330
18
100
AcDbEntity
  8
0
100
AcDbLine
 10
54.41083465698705
 20
13.85836983912247
 30
0.0
 11
54.41083465698705
 21
14.83336983912238
 31
0.0
  0
LINE
  5
8BE3
330
18
100
AcDbEntity
  8
0
100
AcDbLine
 10
54.06083465698668
 20
13.85836983912247
 30
0.0
 11
54.41083465698705
 21
13.85836983912247
 31
0.0
  0
LINE
  5
8BE4
330
18
100
AcDbEntity
  8
0
100
AcDbLine
 10
54.06083465698668
 20
14.83336983912238
 30
0.0
 11
54.06083465698668
 21
13.85836983912247
 31
0.0
  0
LINE
  5
8BE5
330
18
100
AcDbEntity
  8
0
100
AcDbLine
 10
54.41083465698705
 20
14.83336983912238
 30
0.0
 11
54.06083465698668
 21
14.83336983912238
 31
0.0
  0
LINE
  5
8BE6
330
18
100
AcDbEntity
  8
0
100
AcDbLine
 10
54.41083465698705
 20
15.0333698391222
 30
0.0
 11
54.41083465698705
 21
16.00836983912256
 31
0.0
  0
LINE
  5
8BE7
330
18
100
AcDbEntity
  8
0
100
AcDbLine
 10
54.06083465698668
 20
15.0333698391222
 30
0.0
 11
54.41083465698705
 21
15.0333698391222
 31
0.0
  0
LINE
  5
8BE8
330
18
100
AcDbEntity
  8
0
100
AcDbLine
 10
54.06083465698668
 20
16.00836983912256
 30
0.0
 11
54.06083465698668
 21
15.0333698391222
 31
0.0
  0
LINE
  5
8BE9
330
18
100
AcDbEntity
  8
0
100
AcDbLine
 10
54.41083465698705
 20
16.00836983912256
 30
0.0
 11
54.06083465698668
 21
16.00836983912256
 31
0.0
  0
LINE
  5
8BEA
330
18
100
AcDbEntity
  8
0
100
AcDbLine
 10
54.41083465698705
 20
16.30836983912229
 30
0.0
 11
54.41083465698705
 21
17.2833698391222
 31
0.0
  0
LINE
  5
8BEB
330
18
100
AcDbEntity
  8
0
100
AcDbLine
 10
54.06083465698668
 20
16.30836983912229
 30
0.0
 11
54.41083465698705
 21
16.30836983912229
 31
0.0
  0
LINE
  5
8BEC
330
18
100
AcDbEntity
  8
0
100
AcDbLine
 10
54.06083465698668
 20
17.2833698391222
 30
0.0
 11
54.06083465698668
 21
16.30836983912229
 31
0.0
  0
LINE
  5
8BED
330
18
100
AcDbEntity
  8
0
100
AcDbLine
 10
54.41083465698705
 20
17.2833698391222
 30
0.0
 11
54.06083465698668
 21
17.2833698391222
 31
0.0
  0
LINE
  5
8BEE
330
18
100
AcDbEntity
  8
0
100
AcDbLine
 10
54.41083465698705
 20
17.6583698391222
 30
0.0
 11
54.41083465698705
 21
18.60836983912247
 31
0.0
  0
LINE
  5
8BEF
330
18
100
AcDbEntity
  8
0
100
AcDbLine
 10
54.06083465698668
 20
17.6583698391222
 30
0.0
 11
54.41083465698705
 21
17.6583698391222
 31
0.0
  0
LINE
  5
8BF0
330
18
100
AcDbEntity
  8
0
100
AcDbLine
 10
54.06083465698668
 20
18.60836983912247
 30
0.0
 11
54.06083465698668
 21
17.6583698391222
 31
0.0
  0
LINE
  5
8BF1
330
18
100
AcDbEntity
  8
0
100
AcDbLine
 10
54.41083465698705
 20
18.60836983912247
 30
0.0
 11
54.06083465698668
 21
18.60836983912247
 31
0.0
  0
LINE
  5
8BF2
330
18
100
AcDbEntity
  8
0
100
AcDbLine
 10
54.41083465698705
 20
18.9083698391222
 30
0.0
 11
54.41083465698705
 21
19.88336983912256
 31
0.0
  0
LINE
  5
8BF3
330
18
100
AcDbEntity
  8
0
100
AcDbLine
 10
54.06083465698668
 20
18.9083698391222
 30
0.0
 11
54.41083465698705
 21
18.9083698391222
 31
0.0
  0
LINE
  5
8BF4
330
18
100
AcDbEntity
  8
0
100
AcDbLine
 10
54.06083465698668
 20
19.88336983912256
 30
0.0
 11
54.06083465698668
 21
18.9083698391222
 31
0.0
  0
LINE
  5
8BF5
330
18
100
AcDbEntity
  8
0
100
AcDbLine
 10
54.41083465698705
 20
19.88336983912256
 30
0.0
 11
54.06083465698668
 21
19.88336983912256
 31
0.0
  0
LINE
  5
8BF6
330
18
100
AcDbEntity
  8
0
100
AcDbLine
 10
54.06083465698668
 20
20.13336983912256
 30
0.0
 11
54.41083465698705
 21
20.13336983912256
 31
0.0
  0
LINE
  5
8BF7
330
18
100
AcDbEntity
  8
0
100
AcDbLine
 10
54.38583465698695
 20
5.483369839122474
 30
0.0
 11
54.38583465698695
 21
6.458369839122383
 31
0.0
  0
LINE
  5
8BF8
330
18
100
AcDbEntity
  8
0
100
AcDbLine
 10
54.03583465698705
 20
6.458369839122383
 30
0.0
 11
54.03583465698705
 21
5.483369839122474
 31
0.0
  0
LINE
  5
8BF9
330
18
100
AcDbEntity
  8
0
100
AcDbLine
 10
54.38583465698695
 20
2.858369839122474
 30
0.0
 11
54.03583465698705
 21
2.858369839122474
 31
0.0
  0
LINE
  5
8BFA
330
18
100
AcDbEntity
  8
0
100
AcDbLine
 10
54.38583465698695
 20
4.308369839122292
 30
0.0
 11
54.38583465698695
 21
5.283369839122201
 31
0.0
  0
LINE
  5
8BFB
330
18
100
AcDbEntity
  8
0
100
AcDbLine
 10
54.03583465698705
 20
5.283369839122201
 30
0.0
 11
54.03583465698705
 21
4.308369839122292
 31
0.0
  0
LINE
  5
8BFC
330
18
100
AcDbEntity
  8
0
100
AcDbLine
 10
54.38583465698695
 20
3.108369839122474
 30
0.0
 11
54.38583465698695
 21
4.083369839122383
 31
0.0
  0
LINE
  5
8BFD
330
18
100
AcDbEntity
  8
0
100
AcDbLine
 10
54.03583465698705
 20
4.083369839122383
 30
0.0
 11
54.03583465698705
 21
3.108369839122474
 31
0.0
  0
LINE
  5
8BFE
330
18
100
AcDbEntity
  8
0
100
AcDbLine
 10
54.03583465698705
 20
3.108369839122474
 30
0.0
 11
54.38583465698695
 21
3.108369839122474
 31
0.0
  0
LINE
  5
8BFF
330
18
100
AcDbEntity
  8
0
100
AcDbLine
 10
54.38583465698695
 20
4.083369839122383
 30
0.0
 11
54.03583465698705
 21
4.083369839122383
 31
0.0
  0
LINE
  5
8C00
330
18
100
AcDbEntity
  8
0
100
AcDbLine
 10
54.03583465698705
 20
4.308369839122292
 30
0.0
 11
54.38583465698695
 21
4.308369839122292
 31
0.0
  0
LINE
  5
8C01
330
18
100
AcDbEntity
  8
0
100
AcDbLine
 10
54.03583465698705
 20
5.483369839122474
 30
0.0
 11
54.38583465698695
 21
5.483369839122474
 31
0.0
  0
LINE
  5
8C02
330
18
100
AcDbEntity
  8
0
100
AcDbLine
 10
54.38583465698695
 20
5.283369839122201
 30
0.0
 11
54.03583465698705
 21
5.283369839122201
 31
0.0
  0
LINE
  5
8C03
330
18
100
AcDbEntity
  8
0
100
AcDbLine
 10
54.38583465698695
 20
9.033369839122201
 30
0.0
 11
54.38583465698695
 21
10.00836983912256
 31
0.0
  0
LINE
  5
8C04
330
18
100
AcDbEntity
  8
0
100
AcDbLine
 10
54.03583465698705
 20
10.00836983912256
 30
0.0
 11
54.03583465698705
 21
9.033369839122201
 31
0.0
  0
LINE
  5
8C05
330
18
100
AcDbEntity
  8
0
100
AcDbLine
 10
54.38583465698695
 20
6.458369839122383
 30
0.0
 11
54.03583465698705
 21
6.458369839122383
 31
0.0
  0
LINE
  5
8C06
330
18
100
AcDbEntity
  8
0
100
AcDbLine
 10
54.38583465698695
 20
6.658369839122201
 30
0.0
 11
54.38583465698695
 21
7.633369839122565
 31
0.0
  0
LINE
  5
8C07
330
18
100
AcDbEntity
  8
0
100
AcDbLine
 10
54.03583465698705
 20
6.658369839122201
 30
0.0
 11
54.38583465698695
 21
6.658369839122201
 31
0.0
  0
LINE
  5
8C08
330
18
100
AcDbEntity
  8
0
100
AcDbLine
 10
54.03583465698705
 20
7.633369839122565
 30
0.0
 11
54.03583465698705
 21
6.658369839122201
 31
0.0
  0
LINE
  5
8C09
330
18
100
AcDbEntity
  8
0
100
AcDbLine
 10
54.38583465698695
 20
7.633369839122565
 30
0.0
 11
54.03583465698705
 21
7.633369839122565
 31
0.0
  0
LINE
  5
8C0A
330
18
100
AcDbEntity
  8
0
100
AcDbLine
 10
54.38583465698695
 20
7.833369839122383
 30
0.0
 11
54.38583465698695
 21
8.808369839122292
 31
0.0
  0
LINE
  5
8C0B
330
18
100
AcDbEntity
  8
0
100
AcDbLine
 10
54.03583465698705
 20
7.833369839122383
 30
0.0
 11
54.38583465698695
 21
7.833369839122383
 31
0.0
  0
LINE
  5
8C0C
330
18
100
AcDbEntity
  8
0
100
AcDbLine
 10
54.03583465698705
 20
8.808369839122292
 30
0.0
 11
54.03583465698705
 21
7.833369839122383
 31
0.0
  0
LINE
  5
8C0D
330
18
100
AcDbEntity
  8
0
100
AcDbLine
 10
54.38583465698695
 20
8.808369839122292
 30
0.0
 11
54.03583465698705
 21
8.808369839122292
 31
0.0
  0
LINE
  5
8C0E
330
18
100
AcDbEntity
  8
0
100
AcDbLine
 10
54.03583465698705
 20
9.033369839122201
 30
0.0
 11
54.38583465698695
 21
9.033369839122201
 31
0.0
  0
LINE
  5
8C0F
330
18
100
AcDbEntity
  8
0
100
AcDbLine
 10
54.38583465698695
 20
10.20836983912238
 30
0.0
 11
54.38583465698695
 21
11.18336983912229
 31
0.0
  0
LINE
  5
8C10
330
18
100
AcDbEntity
  8
0
100
AcDbLine
 10
54.03583465698705
 20
11.18336983912229
 30
0.0
 11
54.03583465698705
 21
10.20836983912238
 31
0.0
  0
LINE
  5
8C11
330
18
100
AcDbEntity
  8
0
100
AcDbLine
 10
54.38583465698695
 20
10.00836983912256
 30
0.0
 11
54.03583465698705
 21
10.00836983912256
 31
0.0
  0
LINE
  5
8C12
330
18
100
AcDbEntity
  8
0
100
AcDbLine
 10
54.03583465698705
 20
10.20836983912238
 30
0.0
 11
54.38583465698695
 21
10.20836983912238
 31
0.0
  0
LINE
  5
8C13
330
18
100
AcDbEntity
  8
0
100
AcDbLine
 10
54.38583465698695
 20
11.4083698391222
 30
0.0
 11
54.38583465698695
 21
12.38336983912256
 31
0.0
  0
LINE
  5
8C14
330
18
100
AcDbEntity
  8
0
100
AcDbLine
 10
54.03583465698705
 20
11.4083698391222
 30
0.0
 11
54.38583465698695
 21
11.4083698391222
 31
0.0
  0
LINE
  5
8C15
330
18
100
AcDbEntity
  8
0
100
AcDbLine
 10
54.03583465698705
 20
12.38336983912256
 30
0.0
 11
54.03583465698705
 21
11.4083698391222
 31
0.0
  0
LINE
  5
8C16
330
18
100
AcDbEntity
  8
0
100
AcDbLine
 10
54.38583465698695
 20
12.38336983912256
 30
0.0
 11
54.03583465698705
 21
12.38336983912256
 31
0.0
  0
LINE
  5
8C17
330
18
100
AcDbEntity
  8
0
100
AcDbLine
 10
54.41083465698705
 20
12.60836983912247
 30
0.0
 11
54.41083465698705
 21
13.58336983912238
 31
0.0
  0
LINE
  5
8C18
330
18
100
AcDbEntity
  8
0
100
AcDbLine
 10
54.06083465698668
 20
12.60836983912247
 30
0.0
 11
54.41083465698705
 21
12.60836983912247
 31
0.0
  0
LINE
  5
8C19
330
18
100
AcDbEntity
  8
0
100
AcDbLine
 10
54.06083465698668
 20
13.58336983912238
 30
0.0
 11
54.06083465698668
 21
12.60836983912247
 31
0.0
  0
LINE
  5
8C1A
330
18
100
AcDbEntity
  8
0
100
AcDbLine
 10
54.41083465698705
 20
13.58336983912238
 30
0.0
 11
54.06083465698668
 21
13.58336983912238
 31
0.0
  0
LINE
  5
8C1B
330
18
100
AcDbEntity
  8
0
100
AcDbLine
 10
54.38583465698695
 20
11.18336983912229
 30
0.0
 11
54.03583465698705
 21
11.18336983912229
 31
0.0
  0
LINE
  5
8C1C
330
18
100
AcDbEntity
  8
0
100
AcDbLine
 10
54.38583465698695
 20
1.633369839122565
 30
0.0
 11
54.03583465698705
 21
1.633369839122565
 31
0.0
  0
LINE
  5
8C1D
330
18
100
AcDbEntity
  8
0
100
AcDbLine
 10
54.03583465698705
 20
1.883369839122565
 30
0.0
 11
54.38583465698695
 21
1.883369839122565
 31
0.0
  0
LINE
  5
8C1E
330
18
100
AcDbEntity
  8
0
100
AcDbLine
 10
53.96083465698723
 20
-6.291630160877616
 30
0.0
 11
53.96083465698723
 21
-5.316630160877707
 31
0.0
  0
LINE
  5
8C1F
330
18
100
AcDbEntity
  8
0
100
AcDbLine
 10
54.03583465698705
 20
0.6583698391222015
 30
0.0
 11
54.38583465698695
 21
0.6583698391222015
 31
0.0
  0
LINE
  5
8C20
330
18
100
AcDbEntity
  8
0
100
AcDbLine
 10
54.38583465698695
 20
0.6583698391222015
 30
0.0
 11
54.38583465698695
 21
1.633369839122565
 31
0.0
  0
LINE
  5
8C21
330
18
100
AcDbEntity
  8
0
100
AcDbLine
 10
54.03583465698705
 20
1.633369839122565
 30
0.0
 11
54.03583465698705
 21
0.6583698391222015
 31
0.0
  0
LINE
  5
8C22
330
18
100
AcDbEntity
  8
0
100
AcDbLine
 10
54.38583465698695
 20
1.883369839122565
 30
0.0
 11
54.38583465698695
 21
2.858369839122474
 31
0.0
  0
LINE
  5
8C23
330
18
100
AcDbEntity
  8
0
100
AcDbLine
 10
54.03583465698705
 20
2.858369839122474
 30
0.0
 11
54.03583465698705
 21
1.883369839122565
 31
0.0
  0
LINE
  5
8C24
330
18
100
AcDbEntity
  8
0
100
AcDbLine
 10
51.83583465698723
 20
-6.291630160877616
 30
0.0
 11
51.83583465698723
 21
-4.216630160877798
 31
0.0
  0
LINE
  5
8C25
330
18
100
AcDbEntity
  8
0
370
    50
100
AcDbLine
 10
43.36083465698687
 20
0.2333698391229291
 30
0.0
 11
43.36083465698687
 21
-1.366630160876979
 31
0.0
  0
LINE
  5
8C26
330
18
100
AcDbEntity
  8
0
370
    50
100
AcDbLine
 10
43.86083465698686
 20
-3.76663016087707
 30
0.0
 11
42.86083465698687
 21
-3.76663016087707
 31
0.0
  0
ARC
  5
8C27
330
18
100
AcDbEntity
  8
0
100
AcDbCircle
 10
33.46083465698677
 20
-1.766630160877753
 30
0.0
 40
2.666666666666666
100
AcDbArc
 50
345.5224878140701
 51
14.47751218592986
  0
LINE
  5
8C28
330
18
100
AcDbEntity
  8
0
100
AcDbLine
 10
34.12750132365329
 20
-4.348619058349527
 30
0.0
 11
34.12750132365329
 21
-2.433296827544495
 31
0.0
  0
LINE
  5
8C29
330
18
100
AcDbEntity
  8
0
100
AcDbLine
 10
34.12750132365329
 20
-2.433296827544495
 30
0.0
 11
36.04282355445832
 21
-2.433296827544495
 31
0.0
  0
LINE
  5
8C2A
330
18
100
AcDbEntity
  8
0
100
AcDbLine
 10
34.12750132365329
 20
-1.09996349421101
 30
0.0
 11
34.12750132365329
 21
0.8153587365940211
 31
0.0
  0
LINE
  5
8C2B
330
18
100
AcDbEntity
  8
0
100
AcDbLine
 10
34.12750132365329
 20
-1.09996349421101
 30
0.0
 11
36.04282355445832
 21
-1.09996349421101
 31
0.0
  0
LINE
  5
8C2C
330
18
100
AcDbEntity
  8
0
100
AcDbLine
 10
32.79416799032026
 20
-4.348619058349527
 30
0.0
 11
32.79416799032026
 21
-2.433296827544495
 31
0.0
  0
LINE
  5
8C2D
330
18
100
AcDbEntity
  8
0
100
AcDbLine
 10
32.79416799032026
 20
-1.09996349421101
 30
0.0
 11
32.79416799032026
 21
0.8153587365940211
 31
0.0
  0
ARC
  5
8C2E
330
18
100
AcDbEntity
  8
0
100
AcDbCircle
 10
33.46083465698677
 20
-1.766630160877753
 30
0.0
 40
2.666666666666666
100
AcDbArc
 50
255.5224878140696
 51
284.4775121859303
  0
ARC
  5
8C2F
330
18
100
AcDbEntity
  8
0
100
AcDbCircle
 10
33.46083465698677
 20
-1.766630160877753
 30
0.0
 40
2.666666666666666
100
AcDbArc
 50
75.52248781406973
 51
104.4775121859302
  0
LINE
  5
8C30
330
18
100
AcDbEntity
  8
0
370
    50
100
AcDbLine
 10
45.36083465698687
 20
-1.366630160876979
 30
0.0
 11
41.36083465698686
 21
-1.366630160876979
 31
0.0
  0
LINE
  5
8C31
330
18
100
AcDbEntity
  8
0
370
    50
100
AcDbLine
 10
42.11083465698687
 20
-2.566630160877252
 30
0.0
 11
44.61083465698687
 21
-2.566630160877252
 31
0.0
  0
CIRCLE
  5
8C32
330
18
100
AcDbEntity
  8
0
370
    50
100
AcDbCircle
 10
43.36083465698687
 20
-1.76663016087707
 30
0.0
 40
3.0
  0
LINE
  5
8C34
330
18
100
AcDbEntity
  8
0
100
AcDbLine
 10
53.96083465698723
 20
-6.291630160877616
 30
0.0
 11
51.83583465698723
 21
-6.291630160877616
 31
0.0
  0
ELLIPSE
  5
8C35
330
18
100
AcDbEntity
  8
0
100
AcDbEllipse
 10
53.81083465698669
 20
-1.591630160877798
 30
0.0
 11
0.0
 21
1.25
 31
0.0
210
0.0
220
0.0
230
1.0
 40
0.98
 41
1.708854999999999
 42
3.380894
  0
ARC
  5
8C36
330
18
100
AcDbEntity
  8
0
100
AcDbCircle
 10
29.86083465698687
 20
12.23336983912196
 30
0.0
 40
1.0
100
AcDbArc
 50
59.99999999999946
 51
90.0
  0
LINE
  5
8C37
330
18
100
AcDbEntity
  8
0
100
AcDbLine
 10
28.96083465698768
 20
13.2333698391223
 30
0.0
 11
29.86083465698687
 21
13.23336983912224
 31
0.0
  0
LINE
  5
8C38
330
18
100
AcDbEntity
  8
0
100
AcDbLine
 10
28.96083465698768
 20
11.23336983912224
 30
0.0
 11
29.86083465698687
 21
11.23336983912224
 31
0.0
  0
ARC
  5
8C39
330
18
100
AcDbEntity
  8
0
100
AcDbCircle
 10
29.86083465698687
 20
12.23336983912196
 30
0.0
 40
1.0
100
AcDbArc
 50
270.0
 51
300.0000000000005
  0
ARC
  5
8C3A
330
18
100
AcDbEntity
  8
0
100
AcDbCircle
 10
33.46083465698677
 20
-1.766630160877753
 30
0.0
 40
2.666666666666666
100
AcDbArc
 50
165.5224878140701
 51
194.4775121859298
  0
LINE
  5
8C3B
330
18
100
AcDbEntity
  8
0
100
AcDbLine
 10
30.87884575951568
 20
-2.433296827544495
 30
0.0
 11
32.79416799032026
 21
-2.433296827544495
 31
0.0
  0
LINE
  5
8C3C
330
18
100
AcDbEntity
  8
0
100
AcDbLine
 10
30.87884575951568
 20
-1.09996349421101
 30
0.0
 11
32.79416799032026
 21
-1.09996349421101
 31
0.0
  0
CIRCLE
  5
8C3D
330
18
100
AcDbEntity
  8
0
100
AcDbCircle
 10
33.46083465698677
 20
-1.766630160877753
 30
0.0
 40
3.333333333333333
  0
CIRCLE
  5
8C3E
330
18
100
AcDbEntity
  8
0
100
AcDbCircle
 10
33.46083465698677
 20
-1.766630160877753
 30
0.0
 40
4.0
  0
LINE
  5
8C3F
330
18
100
AcDbEntity
  8
0
100
AcDbLine
 10
57.18583465698668
 20
13.85836983912247
 30
0.0
 11
57.18583465698668
 21
14.83336983912238
 31
0.0
  0
LINE
  5
8C40
330
18
100
AcDbEntity
  8
0
100
AcDbLine
 10
56.83583465698723
 20
13.85836983912247
 30
0.0
 11
57.18583465698668
 21
13.85836983912247
 31
0.0
  0
LINE
  5
8C41
330
18
100
AcDbEntity
  8
0
100
AcDbLine
 10
56.83583465698723
 20
14.83336983912238
 30
0.0
 11
56.83583465698723
 21
13.85836983912247
 31
0.0
  0
LINE
  5
8C42
330
18
100
AcDbEntity
  8
0
100
AcDbLine
 10
57.18583465698668
 20
14.83336983912238
 30
0.0
 11
56.83583465698723
 21
14.83336983912238
 31
0.0
  0
LINE
  5
8C43
330
18
100
AcDbEntity
  8
0
100
AcDbLine
 10
57.18583465698668
 20
15.0333698391222
 30
0.0
 11
57.18583465698668
 21
16.00836983912256
 31
0.0
  0
LINE
  5
8C44
330
18
100
AcDbEntity
  8
0
100
AcDbLine
 10
56.83583465698723
 20
15.0333698391222
 30
0.0
 11
57.18583465698668
 21
15.0333698391222
 31
0.0
  0
LINE
  5
8C45
330
18
100
AcDbEntity
  8
0
100
AcDbLine
 10
56.83583465698723
 20
16.00836983912256
 30
0.0
 11
56.83583465698723
 21
15.0333698391222
 31
0.0
  0
LINE
  5
8C46
330
18
100
AcDbEntity
  8
0
100
AcDbLine
 10
57.18583465698668
 20
16.00836983912256
 30
0.0
 11
56.83583465698723
 21
16.00836983912256
 31
0.0
  0
LINE
  5
8C47
330
18
100
AcDbEntity
  8
0
100
AcDbLine
 10
57.18583465698668
 20
16.30836983912229
 30
0.0
 11
57.18583465698668
 21
17.2833698391222
 31
0.0
  0
LINE
  5
8C48
330
18
100
AcDbEntity
  8
0
100
AcDbLine
 10
56.83583465698723
 20
16.30836983912229
 30
0.0
 11
57.18583465698668
 21
16.30836983912229
 31
0.0
  0
LINE
  5
8C49
330
18
100
AcDbEntity
  8
0
100
AcDbLine
 10
56.83583465698723
 20
17.2833698391222
 30
0.0
 11
56.83583465698723
 21
16.30836983912229
 31
0.0
  0
LINE
  5
8C4A
330
18
100
AcDbEntity
  8
0
100
AcDbLine
 10
57.18583465698668
 20
17.2833698391222
 30
0.0
 11
56.83583465698723
 21
17.2833698391222
 31
0.0
  0
LINE
  5
8C4B
330
18
100
AcDbEntity
  8
0
100
AcDbLine
 10
57.18583465698668
 20
17.6583698391222
 30
0.0
 11
57.18583465698668
 21
18.60836983912247
 31
0.0
  0
LINE
  5
8C4C
330
18
100
AcDbEntity
  8
0
100
AcDbLine
 10
56.83583465698723
 20
17.6583698391222
 30
0.0
 11
57.18583465698668
 21
17.6583698391222
 31
0.0
  0
LINE
  5
8C4D
330
18
100
AcDbEntity
  8
0
100
AcDbLine
 10
56.83583465698723
 20
18.60836983912247
 30
0.0
 11
56.83583465698723
 21
17.6583698391222
 31
0.0
  0
LINE
  5
8C4E
330
18
100
AcDbEntity
  8
0
100
AcDbLine
 10
57.18583465698668
 20
18.60836983912247
 30
0.0
 11
56.83583465698723
 21
18.60836983912247
 31
0.0
  0
LINE
  5
8C4F
330
18
100
AcDbEntity
  8
0
100
AcDbLine
 10
57.18583465698668
 20
18.9083698391222
 30
0.0
 11
57.18583465698668
 21
19.88336983912256
 31
0.0
  0
LINE
  5
8C50
330
18
100
AcDbEntity
  8
0
100
AcDbLine
 10
56.83583465698723
 20
18.9083698391222
 30
0.0
 11
57.18583465698668
 21
18.9083698391222
 31
0.0
  0
LINE
  5
8C51
330
18
100
AcDbEntity
  8
0
100
AcDbLine
 10
56.83583465698723
 20
19.88336983912256
 30
0.0
 11
56.83583465698723
 21
18.9083698391222
 31
0.0
  0
LINE
  5
8C52
330
18
100
AcDbEntity
  8
0
100
AcDbLine
 10
57.18583465698668
 20
19.88336983912256
 30
0.0
 11
56.83583465698723
 21
19.88336983912256
 31
0.0
  0
LINE
  5
8C53
330
18
100
AcDbEntity
  8
0
100
AcDbLine
 10
56.83583465698723
 20
20.13336983912256
 30
0.0
 11
57.18583465698668
 21
20.13336983912256
 31
0.0
  0
LINE
  5
8C54
330
18
100
AcDbEntity
  8
0
100
AcDbLine
 10
57.16083465698705
 20
5.483369839122474
 30
0.0
 11
57.16083465698705
 21
6.458369839122383
 31
0.0
  0
LINE
  5
8C55
330
18
100
AcDbEntity
  8
0
100
AcDbLine
 10
56.81083465698669
 20
6.458369839122383
 30
0.0
 11
56.81083465698669
 21
5.483369839122474
 31
0.0
  0
LINE
  5
8C56
330
18
100
AcDbEntity
  8
0
100
AcDbLine
 10
57.16083465698705
 20
2.858369839122474
 30
0.0
 11
56.81083465698669
 21
2.858369839122474
 31
0.0
  0
LINE
  5
8C57
330
18
100
AcDbEntity
  8
0
100
AcDbLine
 10
57.16083465698705
 20
4.308369839122292
 30
0.0
 11
57.16083465698705
 21
5.283369839122201
 31
0.0
  0
LINE
  5
8C58
330
18
100
AcDbEntity
  8
0
100
AcDbLine
 10
56.81083465698669
 20
5.283369839122201
 30
0.0
 11
56.81083465698669
 21
4.308369839122292
 31
0.0
  0
LINE
  5
8C59
330
18
100
AcDbEntity
  8
0
100
AcDbLine
 10
57.16083465698705
 20
3.108369839122474
 30
0.0
 11
57.16083465698705
 21
4.083369839122383
 31
0.0
  0
LINE
  5
8C5A
330
18
100
AcDbEntity
  8
0
100
AcDbLine
 10
56.81083465698669
 20
4.083369839122383
 30
0.0
 11
56.81083465698669
 21
3.108369839122474
 31
0.0
  0
LINE
  5
8C5B
330
18
100
AcDbEntity
  8
0
100
AcDbLine
 10
56.81083465698669
 20
3.108369839122474
 30
0.0
 11
57.16083465698705
 21
3.108369839122474
 31
0.0
  0
LINE
  5
8C5C
330
18
100
AcDbEntity
  8
0
100
AcDbLine
 10
57.16083465698705
 20
4.083369839122383
 30
0.0
 11
56.81083465698669
 21
4.083369839122383
 31
0.0
  0
LINE
  5
8C5D
330
18
100
AcDbEntity
  8
0
100
AcDbLine
 10
56.81083465698669
 20
4.308369839122292
 30
0.0
 11
57.16083465698705
 21
4.308369839122292
 31
0.0
  0
LINE
  5
8C5E
330
18
100
AcDbEntity
  8
0
100
AcDbLine
 10
56.81083465698669
 20
5.483369839122474
 30
0.0
 11
57.16083465698705
 21
5.483369839122474
 31
0.0
  0
LINE
  5
8C5F
330
18
100
AcDbEntity
  8
0
100
AcDbLine
 10
57.16083465698705
 20
5.283369839122201
 30
0.0
 11
56.81083465698669
 21
5.283369839122201
 31
0.0
  0
LINE
  5
8C60
330
18
100
AcDbEntity
  8
0
100
AcDbLine
 10
57.16083465698705
 20
9.033369839122201
 30
0.0
 11
57.16083465698705
 21
10.00836983912256
 31
0.0
  0
LINE
  5
8C61
330
18
100
AcDbEntity
  8
0
100
AcDbLine
 10
56.81083465698669
 20
10.00836983912256
 30
0.0
 11
56.81083465698669
 21
9.033369839122201
 31
0.0
  0
LINE
  5
8C62
330
18
100
AcDbEntity
  8
0
100
AcDbLine
 10
57.16083465698705
 20
6.458369839122383
 30
0.0
 11
56.81083465698669
 21
6.458369839122383
 31
0.0
  0
LINE
  5
8C63
330
18
100
AcDbEntity
  8
0
100
AcDbLine
 10
57.16083465698705
 20
6.658369839122201
 30
0.0
 11
57.16083465698705
 21
7.633369839122565
 31
0.0
  0
LINE
  5
8C64
330
18
100
AcDbEntity
  8
0
100
AcDbLine
 10
56.81083465698669
 20
6.658369839122201
 30
0.0
 11
57.16083465698705
 21
6.658369839122201
 31
0.0
  0
LINE
  5
8C65
330
18
100
AcDbEntity
  8
0
100
AcDbLine
 10
56.81083465698669
 20
7.633369839122565
 30
0.0
 11
56.81083465698669
 21
6.658369839122201
 31
0.0
  0
LINE
  5
8C66
330
18
100
AcDbEntity
  8
0
100
AcDbLine
 10
57.16083465698705
 20
7.633369839122565
 30
0.0
 11
56.81083465698669
 21
7.633369839122565
 31
0.0
  0
LINE
  5
8C67
330
18
100
AcDbEntity
  8
0
100
AcDbLine
 10
57.16083465698705
 20
7.833369839122383
 30
0.0
 11
57.16083465698705
 21
8.808369839122292
 31
0.0
  0
LINE
  5
8C68
330
18
100
AcDbEntity
  8
0
100
AcDbLine
 10
56.81083465698669
 20
7.833369839122383
 30
0.0
 11
57.16083465698705
 21
7.833369839122383
 31
0.0
  0
LINE
  5
8C69
330
18
100
AcDbEntity
  8
0
100
AcDbLine
 10
56.81083465698669
 20
8.808369839122292
 30
0.0
 11
56.81083465698669
 21
7.833369839122383
 31
0.0
  0
LINE
  5
8C6A
330
18
100
AcDbEntity
  8
0
100
AcDbLine
 10
57.16083465698705
 20
8.808369839122292
 30
0.0
 11
56.81083465698669
 21
8.808369839122292
 31
0.0
  0
LINE
  5
8C6B
330
18
100
AcDbEntity
  8
0
100
AcDbLine
 10
56.81083465698669
 20
9.033369839122201
 30
0.0
 11
57.16083465698705
 21
9.033369839122201
 31
0.0
  0
LINE
  5
8C6C
330
18
100
AcDbEntity
  8
0
100
AcDbLine
 10
57.16083465698705
 20
10.20836983912238
 30
0.0
 11
57.16083465698705
 21
11.18336983912229
 31
0.0
  0
LINE
  5
8C6D
330
18
100
AcDbEntity
  8
0
100
AcDbLine
 10
56.81083465698669
 20
11.18336983912229
 30
0.0
 11
56.81083465698669
 21
10.20836983912238
 31
0.0
  0
LINE
  5
8C6E
330
18
100
AcDbEntity
  8
0
100
AcDbLine
 10
57.16083465698705
 20
10.00836983912256
 30
0.0
 11
56.81083465698669
 21
10.00836983912256
 31
0.0
  0
LINE
  5
8C6F
330
18
100
AcDbEntity
  8
0
100
AcDbLine
 10
56.81083465698669
 20
10.20836983912238
 30
0.0
 11
57.16083465698705
 21
10.20836983912238
 31
0.0
  0
LINE
  5
8C70
330
18
100
AcDbEntity
  8
0
100
AcDbLine
 10
57.16083465698705
 20
11.4083698391222
 30
0.0
 11
57.16083465698705
 21
12.38336983912256
 31
0.0
  0
LINE
  5
8C71
330
18
100
AcDbEntity
  8
0
100
AcDbLine
 10
56.81083465698669
 20
11.4083698391222
 30
0.0
 11
57.16083465698705
 21
11.4083698391222
 31
0.0
  0
LINE
  5
8C72
330
18
100
AcDbEntity
  8
0
100
AcDbLine
 10
56.81083465698669
 20
12.38336983912256
 30
0.0
 11
56.81083465698669
 21
11.4083698391222
 31
0.0
  0
LINE
  5
8C73
330
18
100
AcDbEntity
  8
0
100
AcDbLine
 10
57.16083465698705
 20
12.38336983912256
 30
0.0
 11
56.81083465698669
 21
12.38336983912256
 31
0.0
  0
LINE
  5
8C74
330
18
100
AcDbEntity
  8
0
100
AcDbLine
 10
57.18583465698668
 20
12.60836983912247
 30
0.0
 11
57.18583465698668
 21
13.58336983912238
 31
0.0
  0
LINE
  5
8C75
330
18
100
AcDbEntity
  8
0
100
AcDbLine
 10
56.83583465698723
 20
12.60836983912247
 30
0.0
 11
57.18583465698668
 21
12.60836983912247
 31
0.0
  0
LINE
  5
8C76
330
18
100
AcDbEntity
  8
0
100
AcDbLine
 10
56.83583465698723
 20
13.58336983912238
 30
0.0
 11
56.83583465698723
 21
12.60836983912247
 31
0.0
  0
LINE
  5
8C77
330
18
100
AcDbEntity
  8
0
100
AcDbLine
 10
57.18583465698668
 20
13.58336983912238
 30
0.0
 11
56.83583465698723
 21
13.58336983912238
 31
0.0
  0
LINE
  5
8C78
330
18
100
AcDbEntity
  8
0
100
AcDbLine
 10
57.16083465698705
 20
11.18336983912229
 30
0.0
 11
56.81083465698669
 21
11.18336983912229
 31
0.0
  0
LINE
  5
8C79
330
18
100
AcDbEntity
  8
0
100
AcDbLine
 10
59.46083465698723
 20
-6.291630160877616
 30
0.0
 11
59.46083465698723
 21
-4.216630160877798
 31
0.0
  0
LINE
  5
8C7A
330
18
100
AcDbEntity
  8
0
100
AcDbLine
 10
57.16083465698705
 20
1.633369839122565
 30
0.0
 11
56.81083465698669
 21
1.633369839122565
 31
0.0
  0
LINE
  5
8C7B
330
18
100
AcDbEntity
  8
0
100
AcDbLine
 10
56.81083465698669
 20
1.883369839122565
 30
0.0
 11
57.16083465698705
 21
1.883369839122565
 31
0.0
  0
LINE
  5
8C7C
330
18
100
AcDbEntity
  8
0
100
AcDbLine
 10
57.53583465698705
 20
-6.316630160877707
 30
0.0
 11
57.53583465698705
 21
-5.341630160877798
 31
0.0
  0
LINE
  5
8C7D
330
18
100
AcDbEntity
  8
0
100
AcDbLine
 10
56.81083465698669
 20
0.6583698391222015
 30
0.0
 11
57.16083465698705
 21
0.6583698391222015
 31
0.0
  0
LINE
  5
8C7E
330
18
100
AcDbEntity
  8
0
100
AcDbLine
 10
57.16083465698705
 20
0.6583698391222015
 30
0.0
 11
57.16083465698705
 21
1.633369839122565
 31
0.0
  0
LINE
  5
8C7F
330
18
100
AcDbEntity
  8
0
100
AcDbLine
 10
56.81083465698669
 20
1.633369839122565
 30
0.0
 11
56.81083465698669
 21
0.6583698391222015
 31
0.0
  0
LINE
  5
8C80
330
18
100
AcDbEntity
  8
0
100
AcDbLine
 10
59.46083465698723
 20
-6.291630160877616
 30
0.0
 11
57.53583465698705
 21
-6.291630160877616
 31
0.0
  0
ELLIPSE
  5
8C81
330
18
100
AcDbEntity
  8
0
100
AcDbEllipse
 10
57.48583465698686
 20
-0.6166301608774348
 30
0.0
 11
0.0
 21
1.25
 31
0.0
210
0.0
220
0.0
230
1.0
 40
0.98
 41
3.380894
 42
4.528311
  0
LINE
  5
8C82
330
18
100
AcDbEntity
  8
0
100
AcDbLine
 10
57.16083465698705
 20
1.883369839122565
 30
0.0
 11
57.16083465698705
 21
2.858369839122474
 31
0.0
  0
LINE
  5
8C83
330
18
100
AcDbEntity
  8
0
100
AcDbLine
 10
56.81083465698669
 20
2.858369839122474
 30
0.0
 11
56.81083465698669
 21
1.883369839122565
 31
0.0
  0
LINE
  5
8C84
330
18
100
AcDbEntity
  8
0
100
AcDbLine
 10
57.53583465698705
 20
38.55836983912229
 30
0.0
 11
53.96083465698723
 21
38.55836983912229
 31
0.0
  0
LINE
  5
8C85
330
18
100
AcDbEntity
  8
0
100
AcDbLine
 10
54.08583465698723
 20
41.08336983912216
 30
0.0
 11
57.78583465698705
 21
42.05836983912229
 31
0.0
  0
LINE
  5
8C86
330
18
100
AcDbEntity
  8
0
100
AcDbLine
 10
59.46083465698723
 20
39.6583698391222
 30
0.0
 11
51.83583465698723
 21
39.6583698391222
 31
0.0
  0
LINE
  5
8C87
330
18
100
AcDbEntity
  8
0
100
AcDbLine
 10
57.53583465698705
 20
28.1583698391222
 30
0.0
 11
53.96083465698723
 21
28.1583698391222
 31
0.0
  0
ELLIPSE
  5
8C88
330
18
100
AcDbEntity
  8
0
100
AcDbEllipse
 10
55.66083465698705
 20
30.35836983912247
 30
0.0
 11
0.0
 21
0.775
 31
0.0
210
0.0
220
0.0
230
1.0
 40
0.9677419999999999
 41
0.0
 42
6.283184999999999
  0
LINE
  5
8C89
330
18
100
AcDbEntity
  8
0
100
AcDbLine
 10
57.78583465698705
 20
24.50836983912256
 30
0.0
 11
54.08583465698723
 21
25.43336983912229
 31
0.0
  0
LINE
  5
8C8A
330
18
100
AcDbEntity
  8
0
100
AcDbLine
 10
59.46083465698723
 20
27.05836983912229
 30
0.0
 11
51.83583465698723
 21
27.05836983912229
 31
0.0
  0
LINE
  5
8C8B
330
18
100
AcDbEntity
  8
0
100
AcDbLine
 10
60.26083465698696
 20
32.73336983912247
 30
0.0
 11
51.03583465698704
 21
32.73336983912247
 31
0.0
  0
LINE
  5
8C8C
330
18
100
AcDbEntity
  8
0
100
AcDbLine
 10
51.03583465698704
 20
33.4083698391222
 30
0.0
 11
60.26083465698696
 21
33.4083698391222
 31
0.0
  0
ELLIPSE
  5
8C8D
330
18
100
AcDbEntity
  8
0
100
AcDbEllipse
 10
55.66083465698705
 20
36.68336983912229
 30
0.0
 11
0.0
 21
0.775
 31
0.0
210
0.0
220
0.0
230
1.0
 40
0.9677419999999999
 41
0.0
 42
6.283184999999999
  0
LINE
  5
8C8E
330
18
100
AcDbEntity
  8
0
100
AcDbLine
 10
54.41083465698705
 20
49.0333698391222
 30
0.0
 11
54.41083465698705
 21
50.00836983912233
 31
0.0
  0
LINE
  5
8C8F
330
18
100
AcDbEntity
  8
0
100
AcDbLine
 10
54.06083465698668
 20
50.00836983912233
 30
0.0
 11
54.06083465698668
 21
49.0333698391222
 31
0.0
  0
LINE
  5
8C90
330
18
100
AcDbEntity
  8
0
100
AcDbLine
 10
54.41083465698705
 20
48.83336983912215
 30
0.0
 11
54.06083465698668
 21
48.83336983912215
 31
0.0
  0
LINE
  5
8C91
330
18
100
AcDbEntity
  8
0
100
AcDbLine
 10
54.06083465698668
 20
49.0333698391222
 30
0.0
 11
54.41083465698705
 21
49.0333698391222
 31
0.0
  0
LINE
  5
8C92
330
18
100
AcDbEntity
  8
0
100
AcDbLine
 10
54.06083465698668
 20
50.30836983912229
 30
0.0
 11
54.41083465698705
 21
50.30836983912229
 31
0.0
  0
LINE
  5
8C93
330
18
100
AcDbEntity
  8
0
100
AcDbLine
 10
54.41083465698705
 20
50.00836983912233
 30
0.0
 11
54.06083465698668
 21
50.00836983912233
 31
0.0
  0
LINE
  5
8C94
330
18
100
AcDbEntity
  8
0
100
AcDbLine
 10
54.38583465698695
 20
46.38336983912234
 30
0.0
 11
54.03583465698705
 21
46.38336983912234
 31
0.0
  0
LINE
  5
8C95
330
18
100
AcDbEntity
  8
0
100
AcDbLine
 10
54.41083465698705
 20
46.60836983912225
 30
0.0
 11
54.41083465698705
 21
47.58336983912215
 31
0.0
  0
LINE
  5
8C96
330
18
100
AcDbEntity
  8
0
100
AcDbLine
 10
54.06083465698668
 20
46.60836983912225
 30
0.0
 11
54.41083465698705
 21
46.60836983912225
 31
0.0
  0
LINE
  5
8C97
330
18
100
AcDbEntity
  8
0
100
AcDbLine
 10
54.06083465698668
 20
47.58336983912215
 30
0.0
 11
54.06083465698668
 21
46.60836983912225
 31
0.0
  0
LINE
  5
8C98
330
18
100
AcDbEntity
  8
0
100
AcDbLine
 10
54.41083465698705
 20
47.58336983912215
 30
0.0
 11
54.06083465698668
 21
47.58336983912215
 31
0.0
  0
LINE
  5
8C99
330
18
100
AcDbEntity
  8
0
100
AcDbLine
 10
54.06083465698668
 20
47.85836983912225
 30
0.0
 11
54.41083465698705
 21
47.85836983912225
 31
0.0
  0
LINE
  5
8C9A
330
18
100
AcDbEntity
  8
0
100
AcDbLine
 10
53.96083465698723
 20
37.58336983912215
 30
0.0
 11
53.96083465698723
 21
38.55836983912229
 31
0.0
  0
LINE
  5
8C9B
330
18
100
AcDbEntity
  8
0
100
AcDbLine
 10
54.38583465698695
 20
44.20836983912216
 30
0.0
 11
54.38583465698695
 21
45.18336983912229
 31
0.0
  0
LINE
  5
8C9C
330
18
100
AcDbEntity
  8
0
100
AcDbLine
 10
54.03583465698705
 20
45.18336983912229
 30
0.0
 11
54.03583465698705
 21
44.20836983912216
 31
0.0
  0
LINE
  5
8C9D
330
18
100
AcDbEntity
  8
0
100
AcDbLine
 10
54.03583465698705
 20
44.20836983912216
 30
0.0
 11
54.38583465698695
 21
44.20836983912216
 31
0.0
  0
LINE
  5
8C9E
330
18
100
AcDbEntity
  8
0
100
AcDbLine
 10
54.38583465698695
 20
45.18336983912229
 30
0.0
 11
54.03583465698705
 21
45.18336983912229
 31
0.0
  0
LINE
  5
8C9F
330
18
100
AcDbEntity
  8
0
100
AcDbLine
 10
54.03583465698705
 20
45.4083698391222
 30
0.0
 11
54.38583465698695
 21
45.4083698391222
 31
0.0
  0
LINE
  5
8CA0
330
18
100
AcDbEntity
  8
0
100
AcDbLine
 10
54.38583465698695
 20
45.4083698391222
 30
0.0
 11
54.38583465698695
 21
46.38336983912234
 31
0.0
  0
LINE
  5
8CA1
330
18
100
AcDbEntity
  8
0
100
AcDbLine
 10
54.03583465698705
 20
46.38336983912234
 30
0.0
 11
54.03583465698705
 21
45.4083698391222
 31
0.0
  0
LINE
  5
8CA2
330
18
100
AcDbEntity
  8
0
100
AcDbLine
 10
54.41083465698705
 20
47.85836983912225
 30
0.0
 11
54.41083465698705
 21
48.83336983912215
 31
0.0
  0
LINE
  5
8CA3
330
18
100
AcDbEntity
  8
0
100
AcDbLine
 10
54.06083465698668
 20
48.83336983912215
 30
0.0
 11
54.06083465698668
 21
47.85836983912225
 31
0.0
  0
LINE
  5
8CA4
330
18
100
AcDbEntity
  8
0
100
AcDbLine
 10
51.83583465698723
 20
37.58336983912215
 30
0.0
 11
51.83583465698723
 21
39.6583698391222
 31
0.0
  0
TEXT
  5
8CA5
330
18
100
AcDbEntity
  8
0
100
AcDbText
 10
38.56180305593182
 20
46.69303551636142
 30
0.0
 40
2.0
  1
ＣＮ２
  7
MSｺﾞｼｯｸ
100
AcDbText
  0
LINE
  5
8CA6
330
18
100
AcDbEntity
  8
0
100
AcDbLine
 10
53.96083465698723
 20
37.58336983912215
 30
0.0
 11
51.83583465698723
 21
37.58336983912215
 31
0.0
  0
ELLIPSE
  5
8CA7
330
18
100
AcDbEntity
  8
0
100
AcDbEllipse
 10
53.81083465698669
 20
42.33336983912216
 30
0.0
 11
0.0
 21
1.25
 31
0.0
210
0.0
220
0.0
230
1.0
 40
0.98
 41
1.708854999999999
 42
3.380894
  0
LINE
  5
8CA8
330
18
100
AcDbEntity
  8
0
100
AcDbLine
 10
53.96083465698723
 20
29.13336983912256
 30
0.0
 11
53.96083465698723
 21
28.1583698391222
 31
0.0
  0
LINE
  5
8CA9
330
18
100
AcDbEntity
  8
0
100
AcDbLine
 10
54.41083465698705
 20
21.10836983912247
 30
0.0
 11
54.06083465698668
 21
21.10836983912247
 31
0.0
  0
LINE
  5
8CAA
330
18
100
AcDbEntity
  8
0
100
AcDbLine
 10
54.41083465698705
 20
21.38336983912256
 30
0.0
 11
54.41083465698705
 21
22.38336983912256
 31
0.0
  0
LINE
  5
8CAB
330
18
100
AcDbEntity
  8
0
100
AcDbLine
 10
54.06083465698668
 20
21.38336983912256
 30
0.0
 11
54.41083465698705
 21
21.38336983912256
 31
0.0
  0
LINE
  5
8CAC
330
18
100
AcDbEntity
  8
0
100
AcDbLine
 10
54.06083465698668
 20
22.38336983912256
 30
0.0
 11
54.06083465698668
 21
21.38336983912256
 31
0.0
  0
LINE
  5
8CAD
330
18
100
AcDbEntity
  8
0
100
AcDbLine
 10
54.41083465698705
 20
22.38336983912256
 30
0.0
 11
54.06083465698668
 21
22.38336983912256
 31
0.0
  0
LINE
  5
8CAE
330
18
100
AcDbEntity
  8
0
100
AcDbLine
 10
51.83583465698723
 20
29.13336983912256
 30
0.0
 11
51.83583465698723
 21
27.05836983912229
 31
0.0
  0
LINE
  5
8CAF
330
18
100
AcDbEntity
  8
0
100
AcDbLine
 10
53.96083465698723
 20
29.13336983912256
 30
0.0
 11
51.83583465698723
 21
29.13336983912256
 31
0.0
  0
ELLIPSE
  5
8CB0
330
18
100
AcDbEntity
  8
0
100
AcDbEllipse
 10
53.81083465698669
 20
24.25836983912256
 30
0.0
 11
0.0
 21
1.25
 31
0.0
210
0.0
220
0.0
230
1.0
 40
0.98
 41
6.03468
 42
8.053399307179585
  0
ARC
  5
8CB1
330
18
100
AcDbEntity
  8
0
100
AcDbCircle
 10
29.86083465698687
 20
45.23336983912196
 30
0.0
 40
1.0
100
AcDbArc
 50
59.99999999999946
 51
90.0
  0
LINE
  5
8CB2
330
18
100
AcDbEntity
  8
0
100
AcDbLine
 10
28.96083465698677
 20
44.23336983912224
 30
0.0
 11
29.86083465698687
 21
44.23336983912224
 31
0.0
  0
LINE
  5
8CB3
330
18
100
AcDbEntity
  8
0
100
AcDbLine
 10
28.96083465698677
 20
46.2333698391223
 30
0.0
 11
29.86083465698687
 21
46.23336983912224
 31
0.0
  0
ARC
  5
8CB4
330
18
100
AcDbEntity
  8
0
100
AcDbCircle
 10
29.86083465698687
 20
45.23336983912196
 30
0.0
 40
1.0
100
AcDbArc
 50
270.0
 51
300.0000000000005
  0
ARC
  5
8CB5
330
18
100
AcDbEntity
  8
0
100
AcDbCircle
 10
29.86083465698687
 20
34.23336983912196
 30
0.0
 40
1.0
100
AcDbArc
 50
59.99999999999946
 51
90.0
  0
LINE
  5
8CB6
330
18
100
AcDbEntity
  8
0
100
AcDbLine
 10
28.96083465698677
 20
35.2333698391223
 30
0.0
 11
29.86083465698687
 21
35.23336983912225
 31
0.0
  0
LINE
  5
8CB7
330
18
100
AcDbEntity
  8
0
100
AcDbLine
 10
28.96083465698677
 20
33.23336983912224
 30
0.0
 11
29.86083465698687
 21
33.23336983912224
 31
0.0
  0
ARC
  5
8CB8
330
18
100
AcDbEntity
  8
0
100
AcDbCircle
 10
29.86083465698687
 20
34.23336983912196
 30
0.0
 40
1.0
100
AcDbArc
 50
270.0
 51
300.0000000000005
  0
ARC
  5
8CB9
330
18
100
AcDbEntity
  8
0
100
AcDbCircle
 10
29.86083465698687
 20
23.23336983912196
 30
0.0
 40
1.0
100
AcDbArc
 50
59.99999999999946
 51
90.0
  0
ARC
  5
8CBA
330
18
100
AcDbEntity
  8
0
100
AcDbCircle
 10
29.86083465698687
 20
23.23336983912196
 30
0.0
 40
1.0
100
AcDbArc
 50
270.0
 51
300.0000000000005
  0
LINE
  5
8CBB
330
18
100
AcDbEntity
  8
0
100
AcDbLine
 10
28.96083465698768
 20
22.23336983912224
 30
0.0
 11
29.86083465698687
 21
22.23336983912224
 31
0.0
  0
LINE
  5
8CBC
330
18
100
AcDbEntity
  8
0
100
AcDbLine
 10
28.96083465698768
 20
24.2333698391223
 30
0.0
 11
29.86083465698687
 21
24.23336983912224
 31
0.0
  0
LINE
  5
8CBD
330
18
100
AcDbEntity
  8
0
100
AcDbLine
 10
57.18583465698668
 20
49.0333698391222
 30
0.0
 11
57.18583465698668
 21
50.00836983912233
 31
0.0
  0
LINE
  5
8CBE
330
18
100
AcDbEntity
  8
0
100
AcDbLine
 10
56.83583465698723
 20
50.00836983912233
 30
0.0
 11
56.83583465698723
 21
49.0333698391222
 31
0.0
  0
LINE
  5
8CBF
330
18
100
AcDbEntity
  8
0
100
AcDbLine
 10
57.18583465698668
 20
48.83336983912215
 30
0.0
 11
56.83583465698723
 21
48.83336983912215
 31
0.0
  0
LINE
  5
8CC0
330
18
100
AcDbEntity
  8
0
100
AcDbLine
 10
56.83583465698723
 20
49.0333698391222
 30
0.0
 11
57.18583465698668
 21
49.0333698391222
 31
0.0
  0
LINE
  5
8CC1
330
18
100
AcDbEntity
  8
0
100
AcDbLine
 10
56.83583465698723
 20
50.30836983912229
 30
0.0
 11
57.18583465698668
 21
50.30836983912229
 31
0.0
  0
LINE
  5
8CC2
330
18
100
AcDbEntity
  8
0
100
AcDbLine
 10
57.18583465698668
 20
50.00836983912233
 30
0.0
 11
56.83583465698723
 21
50.00836983912233
 31
0.0
  0
LINE
  5
8CC3
330
18
100
AcDbEntity
  8
0
100
AcDbLine
 10
59.46083465698723
 20
37.58336983912215
 30
0.0
 11
59.46083465698723
 21
39.6583698391222
 31
0.0
  0
LINE
  5
8CC4
330
18
100
AcDbEntity
  8
0
100
AcDbLine
 10
57.16083465698705
 20
46.38336983912234
 30
0.0
 11
56.81083465698669
 21
46.38336983912234
 31
0.0
  0
LINE
  5
8CC5
330
18
100
AcDbEntity
  8
0
100
AcDbLine
 10
57.18583465698668
 20
46.60836983912225
 30
0.0
 11
57.18583465698668
 21
47.58336983912215
 31
0.0
  0
LINE
  5
8CC6
330
18
100
AcDbEntity
  8
0
100
AcDbLine
 10
56.83583465698723
 20
46.60836983912225
 30
0.0
 11
57.18583465698668
 21
46.60836983912225
 31
0.0
  0
LINE
  5
8CC7
330
18
100
AcDbEntity
  8
0
100
AcDbLine
 10
56.83583465698723
 20
47.58336983912215
 30
0.0
 11
56.83583465698723
 21
46.60836983912225
 31
0.0
  0
LINE
  5
8CC8
330
18
100
AcDbEntity
  8
0
100
AcDbLine
 10
57.18583465698668
 20
47.58336983912215
 30
0.0
 11
56.83583465698723
 21
47.58336983912215
 31
0.0
  0
LINE
  5
8CC9
330
18
100
AcDbEntity
  8
0
100
AcDbLine
 10
56.83583465698723
 20
47.85836983912225
 30
0.0
 11
57.18583465698668
 21
47.85836983912225
 31
0.0
  0
LINE
  5
8CCA
330
18
100
AcDbEntity
  8
0
100
AcDbLine
 10
57.53583465698705
 20
37.55836983912229
 30
0.0
 11
57.53583465698705
 21
38.5333698391222
 31
0.0
  0
LINE
  5
8CCB
330
18
100
AcDbEntity
  8
0
100
AcDbLine
 10
57.16083465698705
 20
44.20836983912216
 30
0.0
 11
57.16083465698705
 21
45.18336983912229
 31
0.0
  0
LINE
  5
8CCC
330
18
100
AcDbEntity
  8
0
100
AcDbLine
 10
56.81083465698669
 20
45.18336983912229
 30
0.0
 11
56.81083465698669
 21
44.20836983912216
 31
0.0
  0
LINE
  5
8CCD
330
18
100
AcDbEntity
  8
0
100
AcDbLine
 10
56.81083465698669
 20
44.20836983912216
 30
0.0
 11
57.16083465698705
 21
44.20836983912216
 31
0.0
  0
LINE
  5
8CCE
330
18
100
AcDbEntity
  8
0
100
AcDbLine
 10
57.16083465698705
 20
45.18336983912229
 30
0.0
 11
56.81083465698669
 21
45.18336983912229
 31
0.0
  0
LINE
  5
8CCF
330
18
100
AcDbEntity
  8
0
100
AcDbLine
 10
56.81083465698669
 20
45.4083698391222
 30
0.0
 11
57.16083465698705
 21
45.4083698391222
 31
0.0
  0
LINE
  5
8CD0
330
18
100
AcDbEntity
  8
0
100
AcDbLine
 10
57.16083465698705
 20
45.4083698391222
 30
0.0
 11
57.16083465698705
 21
46.38336983912234
 31
0.0
  0
LINE
  5
8CD1
330
18
100
AcDbEntity
  8
0
100
AcDbLine
 10
56.81083465698669
 20
46.38336983912234
 30
0.0
 11
56.81083465698669
 21
45.4083698391222
 31
0.0
  0
LINE
  5
8CD2
330
18
100
AcDbEntity
  8
0
100
AcDbLine
 10
59.46083465698723
 20
37.58336983912215
 30
0.0
 11
57.53583465698705
 21
37.58336983912215
 31
0.0
  0
ELLIPSE
  5
8CD3
330
18
100
AcDbEntity
  8
0
100
AcDbEllipse
 10
57.48583465698686
 20
43.30836983912229
 30
0.0
 11
0.0
 21
1.25
 31
0.0
210
0.0
220
0.0
230
1.0
 40
0.98
 41
3.380894
 42
4.528311
  0
LINE
  5
8CD4
330
18
100
AcDbEntity
  8
0
100
AcDbLine
 10
57.18583465698668
 20
47.85836983912225
 30
0.0
 11
57.18583465698668
 21
48.83336983912215
 31
0.0
  0
LINE
  5
8CD5
330
18
100
AcDbEntity
  8
0
100
AcDbLine
 10
56.83583465698723
 20
48.83336983912215
 30
0.0
 11
56.83583465698723
 21
47.85836983912225
 31
0.0
  0
LINE
  5
8CD6
330
18
100
AcDbEntity
  8
0
100
AcDbLine
 10
59.46083465698723
 20
29.13336983912256
 30
0.0
 11
59.46083465698723
 21
27.05836983912229
 31
0.0
  0
LINE
  5
8CD7
330
18
100
AcDbEntity
  8
0
100
AcDbLine
 10
57.53583465698705
 20
29.1583698391222
 30
0.0
 11
57.53583465698705
 21
28.18336983912229
 31
0.0
  0
LINE
  5
8CD8
330
18
100
AcDbEntity
  8
0
100
AcDbLine
 10
59.46083465698723
 20
29.13336983912256
 30
0.0
 11
57.53583465698705
 21
29.13336983912256
 31
0.0
  0
LINE
  5
8CD9
330
18
100
AcDbEntity
  8
0
100
AcDbLine
 10
57.18583465698668
 20
21.10836983912247
 30
0.0
 11
56.83583465698723
 21
21.10836983912247
 31
0.0
  0
LINE
  5
8CDA
330
18
100
AcDbEntity
  8
0
100
AcDbLine
 10
57.18583465698668
 20
21.38336983912256
 30
0.0
 11
57.18583465698668
 21
22.38336983912256
 31
0.0
  0
LINE
  5
8CDB
330
18
100
AcDbEntity
  8
0
100
AcDbLine
 10
56.83583465698723
 20
21.38336983912256
 30
0.0
 11
57.18583465698668
 21
21.38336983912256
 31
0.0
  0
LINE
  5
8CDC
330
18
100
AcDbEntity
  8
0
100
AcDbLine
 10
56.83583465698723
 20
22.38336983912256
 30
0.0
 11
56.83583465698723
 21
21.38336983912256
 31
0.0
  0
LINE
  5
8CDD
330
18
100
AcDbEntity
  8
0
100
AcDbLine
 10
57.18583465698668
 20
22.38336983912256
 30
0.0
 11
56.83583465698723
 21
22.38336983912256
 31
0.0
  0
ELLIPSE
  5
8CDE
330
18
100
AcDbEntity
  8
0
100
AcDbEllipse
 10
57.48583465698686
 20
23.33336983912238
 30
0.0
 11
0.0
 21
1.25
 31
0.0
210
0.0
220
0.0
230
1.0
 40
0.98
 41
4.509903999999999
 42
6.059223999999999
  0
LINE
  5
8CDF
330
18
100
AcDbEntity
  8
0
100
AcDbLine
 10
60.26083465698696
 20
81.55836983912228
 30
0.0
 11
60.26083465698696
 21
110.2333698391222
 31
0.0
  0
LINE
  5
8CE0
330
18
100
AcDbEntity
  8
0
100
AcDbLine
 10
51.03583465698704
 20
110.2333698391222
 30
0.0
 11
51.03583465698704
 21
81.55836983912228
 31
0.0
  0
LINE
  5
8CE1
330
18
100
AcDbEntity
  8
0
100
AcDbLine
 10
54.26083465698695
 20
79.23336983912225
 30
0.0
 11
56.26083465698695
 21
79.23336983912225
 31
0.0
  0
LINE
  5
8CE2
330
18
100
AcDbEntity
  8
0
100
AcDbLine
 10
58.26083465698696
 20
80.6583698391222
 30
0.0
 11
54.26083465698695
 21
80.6583698391222
 31
0.0
  0
LINE
  5
8CE3
330
18
100
AcDbEntity
  8
0
100
AcDbLine
 10
57.53583465698705
 20
62.1583698391222
 30
0.0
 11
53.96083465698723
 21
62.1583698391222
 31
0.0
  0
LINE
  5
8CE4
330
18
100
AcDbEntity
  8
0
100
AcDbLine
 10
56.26083465698695
 20
68.23336983912224
 30
0.0
 11
54.26083465698695
 21
68.23336983912224
 31
0.0
  0
ELLIPSE
  5
8CE5
330
18
100
AcDbEntity
  8
0
100
AcDbEllipse
 10
55.66083465698705
 20
64.35836983912224
 30
0.0
 11
0.0
 21
0.775
 31
0.0
210
0.0
220
0.0
230
1.0
 40
0.9677419999999999
 41
0.0
 42
6.283184999999999
  0
LINE
  5
8CE6
330
18
100
AcDbEntity
  8
0
100
AcDbLine
 10
58.26083465698696
 20
66.88336983912233
 30
0.0
 11
54.26083465698695
 21
66.88336983912233
 31
0.0
  0
LINE
  5
8CE7
330
18
100
AcDbEntity
  8
0
100
AcDbLine
 10
57.78583465698705
 20
58.50836983912234
 30
0.0
 11
54.08583465698723
 21
59.43336983912229
 31
0.0
  0
LINE
  5
8CE8
330
18
100
AcDbEntity
  8
0
100
AcDbLine
 10
59.26083465698695
 20
67.23336983912225
 30
0.0
 11
44.26083465698695
 21
67.23336983912225
 31
0.0
  0
LINE
  5
8CE9
330
18
100
AcDbEntity
  8
0
100
AcDbLine
 10
44.26083465698695
 20
80.23336983912225
 30
0.0
 11
59.26083465698695
 21
80.23336983912225
 31
0.0
  0
LINE
  5
8CEA
330
18
100
AcDbEntity
  8
0
100
AcDbLine
 10
59.46083465698723
 20
61.05836983912229
 30
0.0
 11
51.83583465698723
 21
61.05836983912229
 31
0.0
  0
LINE
  5
8CEB
330
18
100
AcDbEntity
  8
0
100
AcDbLine
 10
60.26083465698696
 20
66.73336983912225
 30
0.0
 11
51.03583465698704
 21
66.73336983912225
 31
0.0
  0
LINE
  5
8CEC
330
18
100
AcDbEntity
  8
0
100
AcDbLine
 10
51.03583465698704
 20
81.55836983912228
 30
0.0
 11
60.26083465698696
 21
81.55836983912228
 31
0.0
  0
LINE
  5
8CED
330
18
100
AcDbEntity
  8
0
100
AcDbLine
 10
53.96083465698723
 20
63.13336983912233
 30
0.0
 11
53.96083465698723
 21
62.1583698391222
 31
0.0
  0
LINE
  5
8CEE
330
18
100
AcDbEntity
  8
0
100
AcDbLine
 10
54.26083465698695
 20
68.23336983912224
 30
0.0
 11
54.26083465698695
 21
79.23336983912225
 31
0.0
  0
LINE
  5
8CEF
330
18
100
AcDbEntity
  8
0
100
AcDbLine
 10
53.26083465698696
 20
80.23336983912225
 30
0.0
 11
53.26083465698696
 21
67.23336983912225
 31
0.0
  0
LINE
  5
8CF0
330
18
100
AcDbEntity
  8
0
100
AcDbLine
 10
54.41083465698705
 20
52.9083698391222
 30
0.0
 11
54.41083465698705
 21
53.88336983912234
 31
0.0
  0
LINE
  5
8CF1
330
18
100
AcDbEntity
  8
0
100
AcDbLine
 10
54.06083465698668
 20
53.88336983912234
 30
0.0
 11
54.06083465698668
 21
52.9083698391222
 31
0.0
  0
LINE
  5
8CF2
330
18
100
AcDbEntity
  8
0
100
AcDbLine
 10
54.41083465698705
 20
51.2833698391222
 30
0.0
 11
54.06083465698668
 21
51.2833698391222
 31
0.0
  0
LINE
  5
8CF3
330
18
100
AcDbEntity
  8
0
100
AcDbLine
 10
54.41083465698705
 20
51.6583698391222
 30
0.0
 11
54.41083465698705
 21
52.60836983912224
 31
0.0
  0
LINE
  5
8CF4
330
18
100
AcDbEntity
  8
0
100
AcDbLine
 10
54.06083465698668
 20
51.6583698391222
 30
0.0
 11
54.41083465698705
 21
51.6583698391222
 31
0.0
  0
LINE
  5
8CF5
330
18
100
AcDbEntity
  8
0
100
AcDbLine
 10
54.06083465698668
 20
52.60836983912224
 30
0.0
 11
54.06083465698668
 21
51.6583698391222
 31
0.0
  0
LINE
  5
8CF6
330
18
100
AcDbEntity
  8
0
100
AcDbLine
 10
54.41083465698705
 20
52.60836983912224
 30
0.0
 11
54.06083465698668
 21
52.60836983912224
 31
0.0
  0
LINE
  5
8CF7
330
18
100
AcDbEntity
  8
0
100
AcDbLine
 10
54.06083465698668
 20
52.9083698391222
 30
0.0
 11
54.41083465698705
 21
52.9083698391222
 31
0.0
  0
LINE
  5
8CF8
330
18
100
AcDbEntity
  8
0
100
AcDbLine
 10
54.41083465698705
 20
54.13336983912234
 30
0.0
 11
54.41083465698705
 21
55.10836983912224
 31
0.0
  0
LINE
  5
8CF9
330
18
100
AcDbEntity
  8
0
100
AcDbLine
 10
54.06083465698668
 20
55.10836983912224
 30
0.0
 11
54.06083465698668
 21
54.13336983912234
 31
0.0
  0
LINE
  5
8CFA
330
18
100
AcDbEntity
  8
0
100
AcDbLine
 10
54.41083465698705
 20
53.88336983912234
 30
0.0
 11
54.06083465698668
 21
53.88336983912234
 31
0.0
  0
LINE
  5
8CFB
330
18
100
AcDbEntity
  8
0
100
AcDbLine
 10
54.06083465698668
 20
54.13336983912234
 30
0.0
 11
54.41083465698705
 21
54.13336983912234
 31
0.0
  0
LINE
  5
8CFC
330
18
100
AcDbEntity
  8
0
100
AcDbLine
 10
54.41083465698705
 20
55.38336983912234
 30
0.0
 11
54.41083465698705
 21
56.38336983912234
 31
0.0
  0
LINE
  5
8CFD
330
18
100
AcDbEntity
  8
0
100
AcDbLine
 10
54.06083465698668
 20
56.38336983912234
 30
0.0
 11
54.06083465698668
 21
55.38336983912234
 31
0.0
  0
LINE
  5
8CFE
330
18
100
AcDbEntity
  8
0
100
AcDbLine
 10
54.41083465698705
 20
55.10836983912224
 30
0.0
 11
54.06083465698668
 21
55.10836983912224
 31
0.0
  0
LINE
  5
8CFF
330
18
100
AcDbEntity
  8
0
100
AcDbLine
 10
54.06083465698668
 20
55.38336983912234
 30
0.0
 11
54.41083465698705
 21
55.38336983912234
 31
0.0
  0
LINE
  5
8D00
330
18
100
AcDbEntity
  8
0
100
AcDbLine
 10
54.41083465698705
 20
56.38336983912234
 30
0.0
 11
54.06083465698668
 21
56.38336983912234
 31
0.0
  0
LINE
  5
8D01
330
18
100
AcDbEntity
  8
0
100
AcDbLine
 10
47.81083465698668
 20
72.63336983912234
 30
0.0
 11
47.81083465698668
 21
71.63336983912234
 31
0.0
  0
LINE
  5
8D02
330
18
100
AcDbEntity
  8
0
100
AcDbLine
 10
47.81083465698668
 20
75.83336983912238
 30
0.0
 11
47.81083465698668
 21
74.83336983912238
 31
0.0
  0
LINE
  5
8D03
330
18
100
AcDbEntity
  8
0
100
AcDbLine
 10
47.81083465698668
 20
78.23336983912224
 30
0.0
 11
47.81083465698668
 21
77.23336983912225
 31
0.0
  0
LINE
  5
8D04
330
18
100
AcDbEntity
  8
0
100
AcDbLine
 10
47.26083465698695
 20
71.63336983912234
 30
0.0
 11
47.26083465698695
 21
72.63336983912234
 31
0.0
  0
LINE
  5
8D05
330
18
100
AcDbEntity
  8
0
100
AcDbLine
 10
45.26083465698696
 20
79.23336983912225
 30
0.0
 11
47.26083465698695
 21
79.23336983912225
 31
0.0
  0
LINE
  5
8D06
330
18
100
AcDbEntity
  8
0
100
AcDbLine
 10
47.26083465698695
 20
74.83336983912238
 30
0.0
 11
47.26083465698695
 21
75.83336983912238
 31
0.0
  0
LINE
  5
8D07
330
18
100
AcDbEntity
  8
0
100
AcDbLine
 10
47.26083465698695
 20
77.23336983912225
 30
0.0
 11
47.26083465698695
 21
78.23336983912224
 31
0.0
  0
LINE
  5
8D08
330
18
100
AcDbEntity
  8
0
100
AcDbLine
 10
43.86083465698686
 20
79.23336983912225
 30
0.0
 11
43.86083465698686
 21
75.23336983912225
 31
0.0
  0
LINE
  5
8D09
330
18
100
AcDbEntity
  8
0
100
AcDbLine
 10
42.86083465698687
 20
81.73336983912225
 30
0.0
 11
47.86083465698687
 21
81.73336983912225
 31
0.0
  0
LINE
  5
8D0A
330
18
100
AcDbEntity
  8
0
100
AcDbLine
 10
45.26083465698696
 20
80.6583698391222
 30
0.0
 11
49.26083465698695
 21
80.6583698391222
 31
0.0
  0
LINE
  5
8D0B
330
18
100
AcDbEntity
  8
0
100
AcDbLine
 10
47.26083465698695
 20
72.63336983912234
 30
0.0
 11
47.81083465698668
 21
72.63336983912234
 31
0.0
  0
LINE
  5
8D0C
330
18
100
AcDbEntity
  8
0
100
AcDbLine
 10
47.81083465698668
 20
71.63336983912234
 30
0.0
 11
47.26083465698695
 21
71.63336983912234
 31
0.0
  0
LINE
  5
8D0D
330
18
100
AcDbEntity
  8
0
100
AcDbLine
 10
47.26083465698695
 20
75.83336983912238
 30
0.0
 11
47.81083465698668
 21
75.83336983912238
 31
0.0
  0
LINE
  5
8D0E
330
18
100
AcDbEntity
  8
0
100
AcDbLine
 10
47.81083465698668
 20
74.83336983912238
 30
0.0
 11
47.26083465698695
 21
74.83336983912238
 31
0.0
  0
LINE
  5
8D0F
330
18
100
AcDbEntity
  8
0
100
AcDbLine
 10
47.26083465698695
 20
78.23336983912224
 30
0.0
 11
47.81083465698668
 21
78.23336983912224
 31
0.0
  0
LINE
  5
8D10
330
18
100
AcDbEntity
  8
0
100
AcDbLine
 10
47.81083465698668
 20
77.23336983912225
 30
0.0
 11
47.26083465698695
 21
77.23336983912225
 31
0.0
  0
LINE
  5
8D11
330
18
100
AcDbEntity
  8
0
100
AcDbLine
 10
47.81083465698668
 20
70.23336983912225
 30
0.0
 11
47.81083465698668
 21
69.23336983912225
 31
0.0
  0
LINE
  5
8D12
330
18
100
AcDbEntity
  8
0
100
AcDbLine
 10
51.83583465698723
 20
63.13336983912233
 30
0.0
 11
51.83583465698723
 21
61.05836983912229
 31
0.0
  0
LINE
  5
8D13
330
18
100
AcDbEntity
  8
0
100
AcDbLine
 10
47.26083465698695
 20
69.23336983912225
 30
0.0
 11
47.26083465698695
 21
70.23336983912225
 31
0.0
  0
LINE
  5
8D14
330
18
100
AcDbEntity
  8
0
100
AcDbLine
 10
47.26083465698695
 20
68.23336983912224
 30
0.0
 11
45.26083465698696
 21
68.23336983912224
 31
0.0
  0
LINE
  5
8D15
330
18
100
AcDbEntity
  8
0
100
AcDbLine
 10
42.86083465698595
 20
65.23336983912225
 30
0.0
 11
47.86083465698595
 21
65.23336983912225
 31
0.0
  0
LINE
  5
8D16
330
18
100
AcDbEntity
  8
0
100
AcDbLine
 10
45.26083465698696
 20
66.88336983912233
 30
0.0
 11
49.26083465698695
 21
66.88336983912233
 31
0.0
  0
LINE
  5
8D17
330
18
100
AcDbEntity
  8
0
100
AcDbLine
 10
47.26083465698695
 20
70.23336983912225
 30
0.0
 11
47.81083465698668
 21
70.23336983912225
 31
0.0
  0
LINE
  5
8D18
330
18
100
AcDbEntity
  8
0
100
AcDbLine
 10
47.81083465698668
 20
69.23336983912225
 30
0.0
 11
47.26083465698695
 21
69.23336983912225
 31
0.0
  0
LINE
  5
8D19
330
18
100
AcDbEntity
  8
0
100
AcDbLine
 10
42.86083465698687
 20
65.23336983912225
 30
0.0
 11
42.86083465698687
 21
81.73336983912225
 31
0.0
  0
LINE
  5
8D1A
330
18
100
AcDbEntity
  8
0
100
AcDbLine
 10
45.26083465698696
 20
68.23336983912224
 30
0.0
 11
45.26083465698696
 21
79.23336983912225
 31
0.0
  0
LINE
  5
8D1B
330
18
100
AcDbEntity
  8
0
100
AcDbLine
 10
44.26083465698695
 20
67.23336983912225
 30
0.0
 11
44.26083465698695
 21
80.23336983912225
 31
0.0
  0
LINE
  5
8D1C
330
18
100
AcDbEntity
  8
0
100
AcDbLine
 10
47.26083465698695
 20
79.23336983912225
 30
0.0
 11
47.26083465698695
 21
68.23336983912224
 31
0.0
  0
LINE
  5
8D1D
330
18
100
AcDbEntity
  8
0
100
AcDbLine
 10
43.86083465698686
 20
68.23336983912224
 30
0.0
 11
43.86083465698686
 21
72.23336983912225
 31
0.0
  0
LINE
  5
8D1E
330
18
100
AcDbEntity
  8
0
100
AcDbLine
 10
50.26083465698696
 20
80.23336983912225
 30
0.0
 11
50.26083465698696
 21
67.23336983912225
 31
0.0
  0
TEXT
  5
8D1F
330
18
100
AcDbEntity
  8
0
100
AcDbText
 10
36.53666915845281
 20
72.49920376149259
 30
0.0
 40
2.0
  1
Ｊ２
  7
MSｺﾞｼｯｸ
100
AcDbText
  0
LINE
  5
8D20
330
18
100
AcDbEntity
  8
0
100
AcDbLine
 10
53.96083465698723
 20
63.13336983912233
 30
0.0
 11
51.83583465698723
 21
63.13336983912233
 31
0.0
  0
ELLIPSE
  5
8D21
330
18
100
AcDbEntity
  8
0
100
AcDbEllipse
 10
53.81083465698669
 20
58.25836983912234
 30
0.0
 11
0.0
 21
1.25
 31
0.0
210
0.0
220
0.0
230
1.0
 40
0.98
 41
6.03468
 42
8.053399307179585
  0
ARC
  5
8D22
330
18
100
AcDbEntity
  8
0
100
AcDbCircle
 10
29.86083465698687
 20
78.23336983912196
 30
0.0
 40
1.0
100
AcDbArc
 50
59.99999999999946
 51
90.0
  0
LINE
  5
8D23
330
18
100
AcDbEntity
  8
0
100
AcDbLine
 10
28.96083465698677
 20
79.23336983912225
 30
0.0
 11
29.86083465698687
 21
79.23336983912225
 31
0.0
  0
LINE
  5
8D24
330
18
100
AcDbEntity
  8
0
100
AcDbLine
 10
28.96083465698677
 20
77.23336983912225
 30
0.0
 11
29.86083465698687
 21
77.23336983912225
 31
0.0
  0
ARC
  5
8D25
330
18
100
AcDbEntity
  8
0
100
AcDbCircle
 10
29.86083465698687
 20
78.23336983912196
 30
0.0
 40
1.0
100
AcDbArc
 50
270.0
 51
300.0000000000005
  0
ARC
  5
8D26
330
18
100
AcDbEntity
  8
0
100
AcDbCircle
 10
29.86083465698687
 20
67.23336983912196
 30
0.0
 40
1.0
100
AcDbArc
 50
59.99999999999946
 51
90.0
  0
LINE
  5
8D27
330
18
100
AcDbEntity
  8
0
100
AcDbLine
 10
28.96083465698677
 20
68.23336983912231
 30
0.0
 11
29.86083465698687
 21
68.23336983912224
 31
0.0
  0
LINE
  5
8D28
330
18
100
AcDbEntity
  8
0
100
AcDbLine
 10
28.96083465698677
 20
66.23336983912224
 30
0.0
 11
29.86083465698687
 21
66.23336983912224
 31
0.0
  0
ARC
  5
8D29
330
18
100
AcDbEntity
  8
0
100
AcDbCircle
 10
29.86083465698687
 20
67.23336983912196
 30
0.0
 40
1.0
100
AcDbArc
 50
270.0
 51
300.0000000000005
  0
ARC
  5
8D2A
330
18
100
AcDbEntity
  8
0
100
AcDbCircle
 10
29.86083465698687
 20
56.23336983912196
 30
0.0
 40
1.0
100
AcDbArc
 50
59.99999999999946
 51
90.0
  0
LINE
  5
8D2B
330
18
100
AcDbEntity
  8
0
100
AcDbLine
 10
28.96083465698677
 20
57.2333698391223
 30
0.0
 11
29.86083465698687
 21
57.23336983912225
 31
0.0
  0
LINE
  5
8D2C
330
18
100
AcDbEntity
  8
0
100
AcDbLine
 10
28.96083465698677
 20
55.23336983912225
 30
0.0
 11
29.86083465698687
 21
55.23336983912225
 31
0.0
  0
ARC
  5
8D2D
330
18
100
AcDbEntity
  8
0
100
AcDbCircle
 10
29.86083465698687
 20
56.23336983912196
 30
0.0
 40
1.0
100
AcDbArc
 50
270.0
 51
300.0000000000005
  0
LINE
  5
8D2E
330
18
100
AcDbEntity
  8
0
100
AcDbLine
 10
59.66083465698705
 20
79.23336983912225
 30
0.0
 11
59.66083465698705
 21
75.23336983912225
 31
0.0
  0
LINE
  5
8D2F
330
18
100
AcDbEntity
  8
0
100
AcDbLine
 10
56.26083465698695
 20
72.63336983912234
 30
0.0
 11
56.81083465698669
 21
72.63336983912234
 31
0.0
  0
LINE
  5
8D30
330
18
100
AcDbEntity
  8
0
100
AcDbLine
 10
56.26083465698695
 20
71.63336983912234
 30
0.0
 11
56.26083465698695
 21
72.63336983912234
 31
0.0
  0
LINE
  5
8D31
330
18
100
AcDbEntity
  8
0
100
AcDbLine
 10
56.81083465698669
 20
71.63336983912234
 30
0.0
 11
56.26083465698695
 21
71.63336983912234
 31
0.0
  0
LINE
  5
8D32
330
18
100
AcDbEntity
  8
0
100
AcDbLine
 10
56.81083465698669
 20
72.63336983912234
 30
0.0
 11
56.81083465698669
 21
71.63336983912234
 31
0.0
  0
LINE
  5
8D33
330
18
100
AcDbEntity
  8
0
100
AcDbLine
 10
56.26083465698695
 20
75.83336983912238
 30
0.0
 11
56.81083465698669
 21
75.83336983912238
 31
0.0
  0
LINE
  5
8D34
330
18
100
AcDbEntity
  8
0
100
AcDbLine
 10
56.26083465698695
 20
74.83336983912238
 30
0.0
 11
56.26083465698695
 21
75.83336983912238
 31
0.0
  0
LINE
  5
8D35
330
18
100
AcDbEntity
  8
0
100
AcDbLine
 10
56.81083465698669
 20
74.83336983912238
 30
0.0
 11
56.26083465698695
 21
74.83336983912238
 31
0.0
  0
LINE
  5
8D36
330
18
100
AcDbEntity
  8
0
100
AcDbLine
 10
56.81083465698669
 20
75.83336983912238
 30
0.0
 11
56.81083465698669
 21
74.83336983912238
 31
0.0
  0
LINE
  5
8D37
330
18
100
AcDbEntity
  8
0
100
AcDbLine
 10
56.26083465698695
 20
78.23336983912224
 30
0.0
 11
56.81083465698669
 21
78.23336983912224
 31
0.0
  0
LINE
  5
8D38
330
18
100
AcDbEntity
  8
0
100
AcDbLine
 10
56.26083465698695
 20
77.23336983912225
 30
0.0
 11
56.26083465698695
 21
78.23336983912224
 31
0.0
  0
LINE
  5
8D39
330
18
100
AcDbEntity
  8
0
100
AcDbLine
 10
56.81083465698669
 20
77.23336983912225
 30
0.0
 11
56.26083465698695
 21
77.23336983912225
 31
0.0
  0
LINE
  5
8D3A
330
18
100
AcDbEntity
  8
0
100
AcDbLine
 10
56.81083465698669
 20
78.23336983912224
 30
0.0
 11
56.81083465698669
 21
77.23336983912225
 31
0.0
  0
LINE
  5
8D3B
330
18
100
AcDbEntity
  8
0
100
AcDbLine
 10
59.46083465698723
 20
63.13336983912233
 30
0.0
 11
59.46083465698723
 21
61.05836983912229
 31
0.0
  0
LINE
  5
8D3C
330
18
100
AcDbEntity
  8
0
100
AcDbLine
 10
57.53583465698705
 20
63.1583698391222
 30
0.0
 11
57.53583465698705
 21
62.18336983912229
 31
0.0
  0
LINE
  5
8D3D
330
18
100
AcDbEntity
  8
0
100
AcDbLine
 10
56.26083465698695
 20
70.23336983912225
 30
0.0
 11
56.81083465698669
 21
70.23336983912225
 31
0.0
  0
LINE
  5
8D3E
330
18
100
AcDbEntity
  8
0
100
AcDbLine
 10
56.26083465698695
 20
69.23336983912225
 30
0.0
 11
56.26083465698695
 21
70.23336983912225
 31
0.0
  0
LINE
  5
8D3F
330
18
100
AcDbEntity
  8
0
100
AcDbLine
 10
56.81083465698669
 20
69.23336983912225
 30
0.0
 11
56.26083465698695
 21
69.23336983912225
 31
0.0
  0
LINE
  5
8D40
330
18
100
AcDbEntity
  8
0
100
AcDbLine
 10
56.81083465698669
 20
70.23336983912225
 30
0.0
 11
56.81083465698669
 21
69.23336983912225
 31
0.0
  0
LINE
  5
8D41
330
18
100
AcDbEntity
  8
0
100
AcDbLine
 10
59.46083465698723
 20
63.13336983912233
 30
0.0
 11
57.53583465698705
 21
63.13336983912233
 31
0.0
  0
LINE
  5
8D42
330
18
100
AcDbEntity
  8
0
100
AcDbLine
 10
56.26083465698695
 20
79.23336983912225
 30
0.0
 11
56.26083465698695
 21
68.23336983912224
 31
0.0
  0
LINE
  5
8D43
330
18
100
AcDbEntity
  8
0
100
AcDbLine
 10
59.26083465698695
 20
80.23336983912225
 30
0.0
 11
59.26083465698695
 21
67.23336983912225
 31
0.0
  0
LINE
  5
8D44
330
18
100
AcDbEntity
  8
0
100
AcDbLine
 10
59.66083465698705
 20
68.23336983912224
 30
0.0
 11
59.66083465698705
 21
72.23336983912225
 31
0.0
  0
LINE
  5
8D45
330
18
100
AcDbEntity
  8
0
100
AcDbLine
 10
57.18583465698668
 20
52.9083698391222
 30
0.0
 11
57.18583465698668
 21
53.88336983912234
 31
0.0
  0
LINE
  5
8D46
330
18
100
AcDbEntity
  8
0
100
AcDbLine
 10
56.83583465698723
 20
53.88336983912234
 30
0.0
 11
56.83583465698723
 21
52.9083698391222
 31
0.0
  0
LINE
  5
8D47
330
18
100
AcDbEntity
  8
0
100
AcDbLine
 10
57.18583465698668
 20
51.2833698391222
 30
0.0
 11
56.83583465698723
 21
51.2833698391222
 31
0.0
  0
LINE
  5
8D48
330
18
100
AcDbEntity
  8
0
100
AcDbLine
 10
57.18583465698668
 20
51.6583698391222
 30
0.0
 11
57.18583465698668
 21
52.60836983912224
 31
0.0
  0
LINE
  5
8D49
330
18
100
AcDbEntity
  8
0
100
AcDbLine
 10
56.83583465698723
 20
51.6583698391222
 30
0.0
 11
57.18583465698668
 21
51.6583698391222
 31
0.0
  0
LINE
  5
8D4A
330
18
100
AcDbEntity
  8
0
100
AcDbLine
 10
56.83583465698723
 20
52.60836983912224
 30
0.0
 11
56.83583465698723
 21
51.6583698391222
 31
0.0
  0
LINE
  5
8D4B
330
18
100
AcDbEntity
  8
0
100
AcDbLine
 10
57.18583465698668
 20
52.60836983912224
 30
0.0
 11
56.83583465698723
 21
52.60836983912224
 31
0.0
  0
LINE
  5
8D4C
330
18
100
AcDbEntity
  8
0
100
AcDbLine
 10
56.83583465698723
 20
52.9083698391222
 30
0.0
 11
57.18583465698668
 21
52.9083698391222
 31
0.0
  0
LINE
  5
8D4D
330
18
100
AcDbEntity
  8
0
100
AcDbLine
 10
57.18583465698668
 20
54.13336983912234
 30
0.0
 11
57.18583465698668
 21
55.10836983912224
 31
0.0
  0
LINE
  5
8D4E
330
18
100
AcDbEntity
  8
0
100
AcDbLine
 10
56.83583465698723
 20
55.10836983912224
 30
0.0
 11
56.83583465698723
 21
54.13336983912234
 31
0.0
  0
LINE
  5
8D4F
330
18
100
AcDbEntity
  8
0
100
AcDbLine
 10
57.18583465698668
 20
53.88336983912234
 30
0.0
 11
56.83583465698723
 21
53.88336983912234
 31
0.0
  0
LINE
  5
8D50
330
18
100
AcDbEntity
  8
0
100
AcDbLine
 10
56.83583465698723
 20
54.13336983912234
 30
0.0
 11
57.18583465698668
 21
54.13336983912234
 31
0.0
  0
LINE
  5
8D51
330
18
100
AcDbEntity
  8
0
100
AcDbLine
 10
57.18583465698668
 20
55.38336983912234
 30
0.0
 11
57.18583465698668
 21
56.38336983912234
 31
0.0
  0
LINE
  5
8D52
330
18
100
AcDbEntity
  8
0
100
AcDbLine
 10
56.83583465698723
 20
56.38336983912234
 30
0.0
 11
56.83583465698723
 21
55.38336983912234
 31
0.0
  0
LINE
  5
8D53
330
18
100
AcDbEntity
  8
0
100
AcDbLine
 10
57.18583465698668
 20
55.10836983912224
 30
0.0
 11
56.83583465698723
 21
55.10836983912224
 31
0.0
  0
LINE
  5
8D54
330
18
100
AcDbEntity
  8
0
100
AcDbLine
 10
56.83583465698723
 20
55.38336983912234
 30
0.0
 11
57.18583465698668
 21
55.38336983912234
 31
0.0
  0
LINE
  5
8D55
330
18
100
AcDbEntity
  8
0
100
AcDbLine
 10
57.18583465698668
 20
56.38336983912234
 30
0.0
 11
56.83583465698723
 21
56.38336983912234
 31
0.0
  0
ELLIPSE
  5
8D56
330
18
100
AcDbEntity
  8
0
100
AcDbEllipse
 10
57.48583465698686
 20
57.33336983912216
 30
0.0
 11
0.0
 21
1.25
 31
0.0
210
0.0
220
0.0
230
1.0
 40
0.98
 41
4.509903999999999
 42
6.059223999999999
  0
ELLIPSE
  5
8D57
330
18
100
AcDbEntity
  8
0
100
AcDbEllipse
 10
55.66083465698705
 20
107.8583698391222
 30
0.0
 11
0.0
 21
0.775
 31
0.0
210
0.0
220
0.0
230
1.0
 40
0.9677419999999999
 41
0.0
 42
6.283184999999999
  0
LINE
  5
8D58
330
18
100
AcDbEntity
  8
0
100
AcDbLine
 10
57.78583465698705
 20
102.0083698391223
 30
0.0
 11
54.08583465698723
 21
102.9333698391222
 31
0.0
  0
LINE
  5
8D59
330
18
100
AcDbEntity
  8
0
100
AcDbLine
 10
57.53583465698705
 20
105.6583698391222
 30
0.0
 11
53.96083465698723
 21
105.6583698391222
 31
0.0
  0
LINE
  5
8D5A
330
18
100
AcDbEntity
  8
0
100
AcDbLine
 10
57.53583465698705
 20
86.73336983912225
 30
0.0
 11
53.96083465698723
 21
86.73336983912225
 31
0.0
  0
ELLIPSE
  5
8D5B
330
18
100
AcDbEntity
  8
0
100
AcDbEllipse
 10
55.66083465698705
 20
84.85836983912225
 30
0.0
 11
0.0
 21
0.775
 31
0.0
210
0.0
220
0.0
230
1.0
 40
0.9677419999999999
 41
0.0
 42
6.283184999999999
  0
LINE
  5
8D5C
330
18
100
AcDbEntity
  8
0
100
AcDbLine
 10
54.08583465698723
 20
89.25836983912233
 30
0.0
 11
57.78583465698705
 21
90.23336983912225
 31
0.0
  0
LINE
  5
8D5E
330
18
100
AcDbEntity
  8
0
100
AcDbLine
 10
59.46083465698723
 20
87.83336983912215
 30
0.0
 11
51.83583465698723
 21
87.83336983912215
 31
0.0
  0
LINE
  5
8D5F
330
18
100
AcDbEntity
  8
0
100
AcDbLine
 10
59.46083465698723
 20
104.5583698391223
 30
0.0
 11
51.83583465698723
 21
104.5583698391223
 31
0.0
  0
LINE
  5
8D60
330
18
100
AcDbEntity
  8
0
100
AcDbLine
 10
60.26083465698696
 20
110.2333698391222
 30
0.0
 11
51.03583465698704
 21
110.2333698391222
 31
0.0
  0
LINE
  5
8D61
330
18
100
AcDbEntity
  8
0
100
AcDbLine
 10
54.41083465698705
 20
99.0333698391222
 30
0.0
 11
54.06083465698668
 21
99.0333698391222
 31
0.0
  0
LINE
  5
8D62
330
18
100
AcDbEntity
  8
0
100
AcDbLine
 10
54.41083465698705
 20
99.30836983912229
 30
0.0
 11
54.41083465698705
 21
100.3083698391223
 31
0.0
  0
LINE
  5
8D63
330
18
100
AcDbEntity
  8
0
100
AcDbLine
 10
54.06083465698668
 20
100.3083698391223
 30
0.0
 11
54.06083465698668
 21
99.30836983912229
 31
0.0
  0
LINE
  5
8D64
330
18
100
AcDbEntity
  8
0
100
AcDbLine
 10
54.06083465698668
 20
99.30836983912229
 30
0.0
 11
54.41083465698705
 21
99.30836983912229
 31
0.0
  0
LINE
  5
8D65
330
18
100
AcDbEntity
  8
0
100
AcDbLine
 10
54.41083465698705
 20
100.3083698391223
 30
0.0
 11
54.06083465698668
 21
100.3083698391223
 31
0.0
  0
LINE
  5
8D66
330
18
100
AcDbEntity
  8
0
100
AcDbLine
 10
54.41083465698705
 20
95.20836983912216
 30
0.0
 11
54.06083465698668
 21
95.20836983912216
 31
0.0
  0
LINE
  5
8D67
330
18
100
AcDbEntity
  8
0
100
AcDbLine
 10
54.41083465698705
 20
95.58336983912216
 30
0.0
 11
54.41083465698705
 21
96.5333698391222
 31
0.0
  0
LINE
  5
8D68
330
18
100
AcDbEntity
  8
0
100
AcDbLine
 10
54.06083465698668
 20
95.58336983912216
 30
0.0
 11
54.41083465698705
 21
95.58336983912216
 31
0.0
  0
LINE
  5
8D69
330
18
100
AcDbEntity
  8
0
100
AcDbLine
 10
54.06083465698668
 20
96.5333698391222
 30
0.0
 11
54.06083465698668
 21
95.58336983912216
 31
0.0
  0
LINE
  5
8D6A
330
18
100
AcDbEntity
  8
0
100
AcDbLine
 10
54.41083465698705
 20
96.5333698391222
 30
0.0
 11
54.06083465698668
 21
96.5333698391222
 31
0.0
  0
LINE
  5
8D6B
330
18
100
AcDbEntity
  8
0
100
AcDbLine
 10
54.41083465698705
 20
96.83336983912216
 30
0.0
 11
54.41083465698705
 21
97.8083698391223
 31
0.0
  0
LINE
  5
8D6C
330
18
100
AcDbEntity
  8
0
100
AcDbLine
 10
54.06083465698668
 20
96.83336983912216
 30
0.0
 11
54.41083465698705
 21
96.83336983912216
 31
0.0
  0
LINE
  5
8D6D
330
18
100
AcDbEntity
  8
0
100
AcDbLine
 10
54.06083465698668
 20
97.8083698391223
 30
0.0
 11
54.06083465698668
 21
96.83336983912216
 31
0.0
  0
LINE
  5
8D6E
330
18
100
AcDbEntity
  8
0
100
AcDbLine
 10
54.41083465698705
 20
97.8083698391223
 30
0.0
 11
54.06083465698668
 21
97.8083698391223
 31
0.0
  0
LINE
  5
8D6F
330
18
100
AcDbEntity
  8
0
100
AcDbLine
 10
54.06083465698668
 20
98.05836983912229
 30
0.0
 11
54.41083465698705
 21
98.05836983912229
 31
0.0
  0
LINE
  5
8D70
330
18
100
AcDbEntity
  8
0
100
AcDbLine
 10
54.41083465698705
 20
98.05836983912229
 30
0.0
 11
54.41083465698705
 21
99.0333698391222
 31
0.0
  0
LINE
  5
8D71
330
18
100
AcDbEntity
  8
0
100
AcDbLine
 10
54.06083465698668
 20
99.0333698391222
 30
0.0
 11
54.06083465698668
 21
98.05836983912229
 31
0.0
  0
LINE
  5
8D72
330
18
100
AcDbEntity
  8
0
100
AcDbLine
 10
54.41083465698705
 20
91.7833698391222
 30
0.0
 11
54.41083465698705
 21
92.75836983912233
 31
0.0
  0
LINE
  5
8D73
330
18
100
AcDbEntity
  8
0
100
AcDbLine
 10
54.06083465698668
 20
92.75836983912233
 30
0.0
 11
54.06083465698668
 21
91.7833698391222
 31
0.0
  0
LINE
  5
8D74
330
18
100
AcDbEntity
  8
0
100
AcDbLine
 10
54.06083465698668
 20
91.7833698391222
 30
0.0
 11
54.41083465698705
 21
91.7833698391222
 31
0.0
  0
LINE
  5
8D75
330
18
100
AcDbEntity
  8
0
100
AcDbLine
 10
54.41083465698705
 20
92.75836983912233
 30
0.0
 11
54.06083465698668
 21
92.75836983912233
 31
0.0
  0
LINE
  5
8D76
330
18
100
AcDbEntity
  8
0
100
AcDbLine
 10
53.96083465698723
 20
85.75836983912234
 30
0.0
 11
53.96083465698723
 21
86.73336983912225
 31
0.0
  0
LINE
  5
8D77
330
18
100
AcDbEntity
  8
0
100
AcDbLine
 10
54.41083465698705
 20
92.95836983912215
 30
0.0
 11
54.41083465698705
 21
93.93336983912229
 31
0.0
  0
LINE
  5
8D78
330
18
100
AcDbEntity
  8
0
100
AcDbLine
 10
54.06083465698668
 20
93.93336983912229
 30
0.0
 11
54.06083465698668
 21
92.95836983912215
 31
0.0
  0
LINE
  5
8D79
330
18
100
AcDbEntity
  8
0
100
AcDbLine
 10
54.06083465698668
 20
92.95836983912215
 30
0.0
 11
54.41083465698705
 21
92.95836983912215
 31
0.0
  0
LINE
  5
8D7A
330
18
100
AcDbEntity
  8
0
100
AcDbLine
 10
54.06083465698668
 20
94.23336983912225
 30
0.0
 11
54.41083465698705
 21
94.23336983912225
 31
0.0
  0
LINE
  5
8D7B
330
18
100
AcDbEntity
  8
0
100
AcDbLine
 10
54.41083465698705
 20
93.93336983912229
 30
0.0
 11
54.06083465698668
 21
93.93336983912229
 31
0.0
  0
LINE
  5
8D7C
330
18
100
AcDbEntity
  8
0
100
AcDbLine
 10
54.41083465698705
 20
94.23336983912225
 30
0.0
 11
54.41083465698705
 21
95.20836983912216
 31
0.0
  0
LINE
  5
8D7D
330
18
100
AcDbEntity
  8
0
100
AcDbLine
 10
54.06083465698668
 20
95.20836983912216
 30
0.0
 11
54.06083465698668
 21
94.23336983912225
 31
0.0
  0
LINE
  5
8D7E
330
18
100
AcDbEntity
  8
0
100
AcDbLine
 10
53.96083465698723
 20
106.6333698391223
 30
0.0
 11
53.96083465698723
 21
105.6583698391222
 31
0.0
  0
LINE
  5
8D7F
330
18
100
AcDbEntity
  8
0
100
AcDbLine
 10
51.83583465698723
 20
85.75836983912234
 30
0.0
 11
51.83583465698723
 21
87.83336983912215
 31
0.0
  0
LINE
  5
8D80
330
18
100
AcDbEntity
  8
0
100
AcDbLine
 10
52.58583465698723
 20
101.7583698391223
 30
0.0
 11
52.58583465698723
 21
90.40836983912219
 31
0.0
  0
LINE
  5
8D81
330
18
100
AcDbEntity
  8
0
100
AcDbLine
 10
51.83583465698723
 20
106.6333698391223
 30
0.0
 11
51.83583465698723
 21
104.5583698391223
 31
0.0
  0
LINE
  5
8D82
330
18
100
AcDbEntity
  8
0
100
AcDbLine
 10
53.96083465698723
 20
85.75836983912234
 30
0.0
 11
51.83583465698723
 21
85.75836983912234
 31
0.0
  0
ELLIPSE
  5
8D83
330
18
100
AcDbEntity
  8
0
100
AcDbEllipse
 10
53.81083465698669
 20
90.50836983912233
 30
0.0
 11
0.0
 21
1.25
 31
0.0
210
0.0
220
0.0
230
1.0
 40
0.98
 41
1.708854999999999
 42
3.380894
  0
LINE
  5
8D84
330
18
100
AcDbEntity
  8
0
100
AcDbLine
 10
53.96083465698723
 20
106.6333698391223
 30
0.0
 11
51.83583465698723
 21
106.6333698391223
 31
0.0
  0
ELLIPSE
  5
8D85
330
18
100
AcDbEntity
  8
0
100
AcDbEllipse
 10
53.81083465698669
 20
101.7583698391223
 30
0.0
 11
0.0
 21
1.25
 31
0.0
210
0.0
220
0.0
230
1.0
 40
0.98
 41
6.03468
 42
8.053399307179585
  0
ARC
  5
8D86
330
18
100
AcDbEntity
  8
0
100
AcDbCircle
 10
29.86083465698687
 20
89.23336983912196
 30
0.0
 40
1.0
100
AcDbArc
 50
59.99999999999946
 51
90.0
  0
LINE
  5
8D87
330
18
100
AcDbEntity
  8
0
100
AcDbLine
 10
28.96083465698677
 20
90.23336983912219
 30
0.0
 11
29.86083465698687
 21
90.23336983912225
 31
0.0
  0
LINE
  5
8D88
330
18
100
AcDbEntity
  8
0
100
AcDbLine
 10
28.96083465698677
 20
88.23336983912231
 30
0.0
 11
29.86083465698687
 21
88.23336983912225
 31
0.0
  0
ARC
  5
8D89
330
18
100
AcDbEntity
  8
0
100
AcDbCircle
 10
29.86083465698687
 20
89.23336983912196
 30
0.0
 40
1.0
100
AcDbArc
 50
270.0
 51
300.0000000000005
  0
LINE
  5
8D8A
330
18
100
AcDbEntity
  8
0
100
AcDbLine
 10
59.46083465698723
 20
106.6333698391223
 30
0.0
 11
57.53583465698705
 21
106.6333698391223
 31
0.0
  0
LINE
  5
8D8B
330
18
100
AcDbEntity
  8
0
100
AcDbLine
 10
57.18583465698668
 20
99.0333698391222
 30
0.0
 11
56.83583465698723
 21
99.0333698391222
 31
0.0
  0
LINE
  5
8D8C
330
18
100
AcDbEntity
  8
0
100
AcDbLine
 10
57.18583465698668
 20
99.30836983912229
 30
0.0
 11
57.18583465698668
 21
100.3083698391223
 31
0.0
  0
LINE
  5
8D8D
330
18
100
AcDbEntity
  8
0
100
AcDbLine
 10
56.83583465698723
 20
100.3083698391223
 30
0.0
 11
56.83583465698723
 21
99.30836983912229
 31
0.0
  0
LINE
  5
8D8E
330
18
100
AcDbEntity
  8
0
100
AcDbLine
 10
56.83583465698723
 20
99.30836983912229
 30
0.0
 11
57.18583465698668
 21
99.30836983912229
 31
0.0
  0
LINE
  5
8D8F
330
18
100
AcDbEntity
  8
0
100
AcDbLine
 10
57.18583465698668
 20
100.3083698391223
 30
0.0
 11
56.83583465698723
 21
100.3083698391223
 31
0.0
  0
LINE
  5
8D90
330
18
100
AcDbEntity
  8
0
100
AcDbLine
 10
57.18583465698668
 20
95.20836983912216
 30
0.0
 11
56.83583465698723
 21
95.20836983912216
 31
0.0
  0
LINE
  5
8D91
330
18
100
AcDbEntity
  8
0
100
AcDbLine
 10
57.18583465698668
 20
95.58336983912216
 30
0.0
 11
57.18583465698668
 21
96.5333698391222
 31
0.0
  0
LINE
  5
8D92
330
18
100
AcDbEntity
  8
0
100
AcDbLine
 10
56.83583465698723
 20
95.58336983912216
 30
0.0
 11
57.18583465698668
 21
95.58336983912216
 31
0.0
  0
LINE
  5
8D93
330
18
100
AcDbEntity
  8
0
100
AcDbLine
 10
56.83583465698723
 20
96.5333698391222
 30
0.0
 11
56.83583465698723
 21
95.58336983912216
 31
0.0
  0
LINE
  5
8D94
330
18
100
AcDbEntity
  8
0
100
AcDbLine
 10
57.18583465698668
 20
96.5333698391222
 30
0.0
 11
56.83583465698723
 21
96.5333698391222
 31
0.0
  0
LINE
  5
8D95
330
18
100
AcDbEntity
  8
0
100
AcDbLine
 10
57.18583465698668
 20
96.83336983912216
 30
0.0
 11
57.18583465698668
 21
97.8083698391223
 31
0.0
  0
LINE
  5
8D96
330
18
100
AcDbEntity
  8
0
100
AcDbLine
 10
56.83583465698723
 20
96.83336983912216
 30
0.0
 11
57.18583465698668
 21
96.83336983912216
 31
0.0
  0
LINE
  5
8D97
330
18
100
AcDbEntity
  8
0
100
AcDbLine
 10
56.83583465698723
 20
97.8083698391223
 30
0.0
 11
56.83583465698723
 21
96.83336983912216
 31
0.0
  0
LINE
  5
8D98
330
18
100
AcDbEntity
  8
0
100
AcDbLine
 10
57.18583465698668
 20
97.8083698391223
 30
0.0
 11
56.83583465698723
 21
97.8083698391223
 31
0.0
  0
LINE
  5
8D99
330
18
100
AcDbEntity
  8
0
100
AcDbLine
 10
56.83583465698723
 20
98.05836983912229
 30
0.0
 11
57.18583465698668
 21
98.05836983912229
 31
0.0
  0
LINE
  5
8D9A
330
18
100
AcDbEntity
  8
0
100
AcDbLine
 10
57.18583465698668
 20
98.05836983912229
 30
0.0
 11
57.18583465698668
 21
99.0333698391222
 31
0.0
  0
LINE
  5
8D9B
330
18
100
AcDbEntity
  8
0
100
AcDbLine
 10
56.83583465698723
 20
99.0333698391222
 30
0.0
 11
56.83583465698723
 21
98.05836983912229
 31
0.0
  0
ELLIPSE
  5
8D9C
330
18
100
AcDbEntity
  8
0
100
AcDbEllipse
 10
57.48583465698686
 20
100.8333698391221
 30
0.0
 11
0.0
 21
1.25
 31
0.0
210
0.0
220
0.0
230
1.0
 40
0.98
 41
4.509903999999999
 42
6.059223999999999
  0
LINE
  5
8D9D
330
18
100
AcDbEntity
  8
0
100
AcDbLine
 10
59.46083465698723
 20
85.75836983912234
 30
0.0
 11
59.46083465698723
 21
87.83336983912215
 31
0.0
  0
LINE
  5
8D9E
330
18
100
AcDbEntity
  8
0
100
AcDbLine
 10
57.18583465698668
 20
91.7833698391222
 30
0.0
 11
57.18583465698668
 21
92.75836983912233
 31
0.0
  0
LINE
  5
8D9F
330
18
100
AcDbEntity
  8
0
100
AcDbLine
 10
56.83583465698723
 20
92.75836983912233
 30
0.0
 11
56.83583465698723
 21
91.7833698391222
 31
0.0
  0
LINE
  5
8DA0
330
18
100
AcDbEntity
  8
0
100
AcDbLine
 10
56.83583465698723
 20
91.7833698391222
 30
0.0
 11
57.18583465698668
 21
91.7833698391222
 31
0.0
  0
LINE
  5
8DA1
330
18
100
AcDbEntity
  8
0
100
AcDbLine
 10
57.18583465698668
 20
92.75836983912233
 30
0.0
 11
56.83583465698723
 21
92.75836983912233
 31
0.0
  0
LINE
  5
8DA2
330
18
100
AcDbEntity
  8
0
100
AcDbLine
 10
57.53583465698705
 20
85.73336983912225
 30
0.0
 11
57.53583465698705
 21
86.70836983912215
 31
0.0
  0
LINE
  5
8DA3
330
18
100
AcDbEntity
  8
0
100
AcDbLine
 10
57.18583465698668
 20
92.95836983912215
 30
0.0
 11
57.18583465698668
 21
93.93336983912229
 31
0.0
  0
LINE
  5
8DA4
330
18
100
AcDbEntity
  8
0
100
AcDbLine
 10
56.83583465698723
 20
93.93336983912229
 30
0.0
 11
56.83583465698723
 21
92.95836983912215
 31
0.0
  0
LINE
  5
8DA5
330
18
100
AcDbEntity
  8
0
100
AcDbLine
 10
56.83583465698723
 20
92.95836983912215
 30
0.0
 11
57.18583465698668
 21
92.95836983912215
 31
0.0
  0
LINE
  5
8DA6
330
18
100
AcDbEntity
  8
0
100
AcDbLine
 10
56.83583465698723
 20
94.23336983912225
 30
0.0
 11
57.18583465698668
 21
94.23336983912225
 31
0.0
  0
LINE
  5
8DA7
330
18
100
AcDbEntity
  8
0
100
AcDbLine
 10
57.18583465698668
 20
93.93336983912229
 30
0.0
 11
56.83583465698723
 21
93.93336983912229
 31
0.0
  0
ELLIPSE
  5
8DA8
330
18
100
AcDbEntity
  8
0
100
AcDbEllipse
 10
57.48583465698686
 20
91.48336983912225
 30
0.0
 11
0.0
 21
1.25
 31
0.0
210
0.0
220
0.0
230
1.0
 40
0.98
 41
3.380894
 42
4.528311
  0
LINE
  5
8DA9
330
18
100
AcDbEntity
  8
0
100
AcDbLine
 10
59.46083465698723
 20
85.75836983912234
 30
0.0
 11
57.53583465698705
 21
85.75836983912234
 31
0.0
  0
LINE
  5
8DAA
330
18
100
AcDbEntity
  8
0
100
AcDbLine
 10
58.71083465698723
 20
91.48336983912225
 30
0.0
 11
58.71083465698723
 21
100.8333698391221
 31
0.0
  0
LINE
  5
8DAB
330
18
100
AcDbEntity
  8
0
100
AcDbLine
 10
57.18583465698668
 20
94.23336983912225
 30
0.0
 11
57.18583465698668
 21
95.20836983912216
 31
0.0
  0
LINE
  5
8DAC
330
18
100
AcDbEntity
  8
0
100
AcDbLine
 10
56.83583465698723
 20
95.20836983912216
 30
0.0
 11
56.83583465698723
 21
94.23336983912225
 31
0.0
  0
LINE
  5
8DAD
330
18
100
AcDbEntity
  8
0
100
AcDbLine
 10
59.46083465698723
 20
106.6333698391223
 30
0.0
 11
59.46083465698723
 21
104.5583698391223
 31
0.0
  0
LINE
  5
8DAE
330
18
100
AcDbEntity
  8
0
100
AcDbLine
 10
57.53583465698705
 20
106.6583698391222
 30
0.0
 11
57.53583465698705
 21
105.6833698391222
 31
0.0
  0
LINE
  5
8DAF
330
18
100
AcDbEntity
  8
0
100
AcDbLine
 10
43.96083465698677
 20
145.3533698391225
 30
0.0
 11
43.96083465698677
 21
130.1133698391225
 31
0.0
  0
LINE
  5
8DB0
330
18
100
AcDbEntity
  8
0
100
AcDbLine
 10
43.46083465698677
 20
145.3533698391225
 30
0.0
 11
43.46083465698677
 21
130.1133698391225
 31
0.0
  0
LINE
  5
8DB1
330
18
100
AcDbEntity
  8
0
100
AcDbLine
 10
37.96083465698677
 20
144.8533698391226
 30
0.0
 11
37.96083465698677
 21
140.7733698391224
 31
0.0
  0
LINE
  5
8DB2
330
18
100
AcDbEntity
  8
0
100
AcDbLine
 10
35.36083465698686
 20
144.1133698391223
 30
0.0
 11
37.96083465698677
 21
144.8533698391226
 31
0.0
  0
LINE
  5
8DB3
330
18
100
AcDbEntity
  8
0
100
AcDbLine
 10
38.46083465698677
 20
145.3533698391223
 30
0.0
 11
38.46083465698677
 21
130.1133698391225
 31
0.0
  0
LINE
  5
8DB4
330
18
100
AcDbEntity
  8
0
100
AcDbLine
 10
30.96083465698677
 20
144.8533698391223
 30
0.0
 11
31.46083465698677
 21
144.1133698391221
 31
0.0
  0
LINE
  5
8DB5
330
18
100
AcDbEntity
  8
0
100
AcDbLine
 10
30.96083465698677
 20
144.8533698391226
 30
0.0
 11
30.96083465698677
 21
140.7733698391224
 31
0.0
  0
LINE
  5
8DB6
330
18
100
AcDbEntity
  8
0
100
AcDbLine
 10
28.96083465698677
 20
146.2333698391222
 30
0.0
 11
28.96083465698677
 21
129.2333698391222
 31
0.0
  0
LINE
  5
8DB7
330
18
100
AcDbEntity
  8
0
100
AcDbLine
 10
28.96083465698677
 20
145.3533698391223
 30
0.0
 11
28.96083465698677
 21
130.1133698391223
 31
0.0
  0
LINE
  5
8DB8
330
18
100
AcDbEntity
  8
0
100
AcDbLine
 10
27.96083465698677
 20
128.7333698391222
 30
0.0
 11
27.96083465698677
 21
146.7333698391222
 31
0.0
  0
TEXT
  5
8DB9
330
18
100
AcDbEntity
  8
0
100
AcDbText
 10
49.24569986066228
 20
130.3206055432045
 30
0.0
 40
2.0
  1
ＳＴＡＴＵＳ
  7
MSｺﾞｼｯｸ
100
AcDbText
  0
LINE
  5
8DBA
330
18
100
AcDbEntity
  8
0
100
AcDbLine
 10
55.51083465698695
 20
123.6583698391221
 30
0.0
 11
55.06083465698669
 21
124.0583698391222
 31
0.0
  0
LINE
  5
8DBB
330
18
100
AcDbEntity
  8
0
100
AcDbLine
 10
55.06083465698669
 20
120.8583698391224
 30
0.0
 11
55.51083465698695
 21
123.6583698391221
 31
0.0
  0
LINE
  5
8DBC
330
18
100
AcDbEntity
  8
0
100
AcDbLine
 10
54.91083465698705
 20
120.4583698391223
 30
0.0
 11
55.36083465698687
 21
120.0583698391223
 31
0.0
  0
LINE
  5
8DBD
330
18
100
AcDbEntity
  8
0
100
AcDbLine
 10
55.36083465698687
 20
120.8583698391224
 30
0.0
 11
54.91083465698705
 21
120.4583698391223
 31
0.0
  0
LINE
  5
8DBE
330
18
100
AcDbEntity
  8
0
100
AcDbLine
 10
52.73583465698687
 20
126.7333698391224
 30
0.0
 11
60.26083465698696
 21
126.7333698391224
 31
0.0
  0
LINE
  5
8DBF
330
18
100
AcDbEntity
  8
0
100
AcDbLine
 10
56.91083465698705
 20
117.1583698391222
 30
0.0
 11
54.81083465698668
 21
117.1583698391222
 31
0.0
  0
LINE
  5
8DC0
330
18
100
AcDbEntity
  8
0
100
AcDbLine
 10
54.81083465698668
 20
116.3333698391223
 30
0.0
 11
56.91083465698705
 21
116.3333698391223
 31
0.0
  0
LINE
  5
8DC1
330
18
100
AcDbEntity
  8
0
100
AcDbLine
 10
60.26083465698696
 20
113.7333698391224
 30
0.0
 11
52.73583465698687
 21
113.7333698391224
 31
0.0
  0
LINE
  5
8DC2
330
18
100
AcDbEntity
  8
0
100
AcDbLine
 10
47.86083465698687
 20
127.7333698391224
 30
0.0
 11
62.86083465698687
 21
127.7333698391224
 31
0.0
  0
LINE
  5
8DC3
330
18
100
AcDbEntity
  8
0
100
AcDbLine
 10
35.36083465698686
 20
144.1133698391223
 30
0.0
 11
35.36083465698686
 21
141.5133698391224
 31
0.0
  0
LINE
  5
8DC4
330
18
100
AcDbEntity
  8
0
100
AcDbLine
 10
35.36083465698686
 20
141.5133698391222
 30
0.0
 11
37.96083465698677
 21
140.7733698391224
 31
0.0
  0
LINE
  5
8DC5
330
18
100
AcDbEntity
  8
0
100
AcDbLine
 10
37.96083465698677
 20
139.7733698391224
 30
0.0
 11
37.96083465698677
 21
135.6933698391225
 31
0.0
  0
LINE
  5
8DC6
330
18
100
AcDbEntity
  8
0
100
AcDbLine
 10
37.26083465698696
 20
130.1133698391221
 30
0.0
 11
37.26083465698696
 21
129.2333698391222
 31
0.0
  0
LINE
  5
8DC7
330
18
100
AcDbEntity
  8
0
100
AcDbLine
 10
37.96083465698677
 20
134.6933698391225
 30
0.0
 11
37.96083465698677
 21
130.6133698391223
 31
0.0
  0
LINE
  5
8DC8
330
18
100
AcDbEntity
  8
0
100
AcDbLine
 10
35.36083465698686
 20
133.9533698391222
 30
0.0
 11
35.36083465698686
 21
131.3533698391223
 31
0.0
  0
LINE
  5
8DC9
330
18
100
AcDbEntity
  8
0
100
AcDbLine
 10
35.36083465698686
 20
139.0333698391222
 30
0.0
 11
35.36083465698686
 21
136.4333698391222
 31
0.0
  0
LINE
  5
8DCA
330
18
100
AcDbEntity
  8
0
100
AcDbLine
 10
35.36083465698686
 20
136.4333698391222
 30
0.0
 11
37.96083465698677
 21
135.6933698391225
 31
0.0
  0
LINE
  5
8DCB
330
18
100
AcDbEntity
  8
0
100
AcDbLine
 10
35.36083465698686
 20
133.9533698391222
 30
0.0
 11
37.96083465698677
 21
134.6933698391225
 31
0.0
  0
LINE
  5
8DCC
330
18
100
AcDbEntity
  8
0
100
AcDbLine
 10
35.36083465698686
 20
131.3533698391221
 30
0.0
 11
37.96083465698677
 21
130.6133698391223
 31
0.0
  0
LINE
  5
8DCD
330
18
100
AcDbEntity
  8
0
100
AcDbLine
 10
35.36083465698686
 20
139.0333698391222
 30
0.0
 11
37.96083465698677
 21
139.7733698391224
 31
0.0
  0
LINE
  5
8DCE
330
18
100
AcDbEntity
  8
0
100
AcDbLine
 10
54.23583465698687
 20
120.8583698391224
 30
0.0
 11
54.66083465698705
 21
120.4583698391223
 31
0.0
  0
LINE
  5
8DCF
330
18
100
AcDbEntity
  8
0
100
AcDbLine
 10
54.66083465698705
 20
123.6583698391221
 30
0.0
 11
54.23583465698687
 21
120.8583698391224
 31
0.0
  0
LINE
  5
8DD0
330
18
100
AcDbEntity
  8
0
100
AcDbLine
 10
54.93583465698669
 20
119.9083698391222
 30
0.0
 11
54.51083465698696
 21
120.3333698391223
 31
0.0
  0
LINE
  5
8DD1
330
18
100
AcDbEntity
  8
0
100
AcDbLine
 10
54.51083465698696
 20
120.3333698391223
 30
0.0
 11
54.08583465698723
 21
119.9083698391222
 31
0.0
  0
LINE
  5
8DD2
330
18
100
AcDbEntity
  8
0
100
AcDbLine
 10
54.66083465698705
 20
120.4583698391223
 30
0.0
 11
55.06083465698669
 21
120.8583698391224
 31
0.0
  0
LINE
  5
8DD3
330
18
100
AcDbEntity
  8
0
100
AcDbLine
 10
55.06083465698669
 20
124.0583698391222
 30
0.0
 11
54.66083465698705
 21
123.6583698391221
 31
0.0
  0
LINE
  5
8DD4
330
18
100
AcDbEntity
  8
0
100
AcDbLine
 10
54.36083465698686
 20
116.7333698391224
 30
0.0
 11
54.81083465698668
 21
116.3333698391223
 31
0.0
  0
LINE
  5
8DD5
330
18
100
AcDbEntity
  8
0
100
AcDbLine
 10
54.81083465698668
 20
117.1583698391222
 30
0.0
 11
54.36083465698686
 21
116.7333698391224
 31
0.0
  0
LINE
  5
8DD6
330
18
100
AcDbEntity
  8
0
100
AcDbLine
 10
54.08583465698723
 20
116.7333698391224
 30
0.0
 11
54.51083465698696
 21
117.1333698391225
 31
0.0
  0
LINE
  5
8DD7
330
18
100
AcDbEntity
  8
0
100
AcDbLine
 10
53.68583465698669
 20
117.1333698391225
 30
0.0
 11
54.08583465698723
 21
116.7333698391224
 31
0.0
  0
LINE
  5
8DD8
330
18
100
AcDbEntity
  8
0
100
AcDbLine
 10
54.51083465698696
 20
117.1333698391225
 30
0.0
 11
54.93583465698669
 21
119.9083698391222
 31
0.0
  0
LINE
  5
8DD9
330
18
100
AcDbEntity
  8
0
100
AcDbLine
 10
54.08583465698723
 20
119.9083698391222
 30
0.0
 11
53.68583465698669
 21
117.1333698391225
 31
0.0
  0
LINE
  5
8DDA
330
18
100
AcDbEntity
  8
0
100
AcDbLine
 10
52.73583465698687
 20
113.7333698391224
 30
0.0
 11
52.73583465698687
 21
126.7333698391224
 31
0.0
  0
ARC
  5
8DDB
330
18
100
AcDbEntity
  8
0
100
AcDbCircle
 10
33.46083465698677
 20
122.2333698391222
 30
0.0
 40
2.666666666666666
100
AcDbArc
 50
345.5224878140701
 51
14.47751218592986
  0
LINE
  5
8DDC
330
18
100
AcDbEntity
  8
0
100
AcDbLine
 10
34.12750132365329
 20
119.6513809416504
 30
0.0
 11
34.12750132365329
 21
121.5667031724555
 31
0.0
  0
LINE
  5
8DDD
330
18
100
AcDbEntity
  8
0
100
AcDbLine
 10
34.12750132365329
 20
121.5667031724555
 30
0.0
 11
36.04282355445832
 21
121.5667031724555
 31
0.0
  0
LINE
  5
8DDE
330
18
100
AcDbEntity
  8
0
100
AcDbLine
 10
34.12750132365329
 20
122.900036505789
 30
0.0
 11
34.12750132365329
 21
124.815358736594
 31
0.0
  0
LINE
  5
8DDF
330
18
100
AcDbEntity
  8
0
100
AcDbLine
 10
34.12750132365329
 20
122.900036505789
 30
0.0
 11
36.04282355445832
 21
122.900036505789
 31
0.0
  0
LINE
  5
8DE0
330
18
100
AcDbEntity
  8
0
100
AcDbLine
 10
32.79416799032026
 20
119.6513809416504
 30
0.0
 11
32.79416799032026
 21
121.5667031724555
 31
0.0
  0
LINE
  5
8DE1
330
18
100
AcDbEntity
  8
0
100
AcDbLine
 10
32.79416799032026
 20
122.900036505789
 30
0.0
 11
32.79416799032026
 21
124.815358736594
 31
0.0
  0
ARC
  5
8DE2
330
18
100
AcDbEntity
  8
0
100
AcDbCircle
 10
33.46083465698677
 20
122.2333698391222
 30
0.0
 40
2.666666666666666
100
AcDbArc
 50
255.5224878140696
 51
284.4775121859303
  0
ARC
  5
8DE3
330
18
100
AcDbEntity
  8
0
100
AcDbCircle
 10
33.46083465698677
 20
122.2333698391222
 30
0.0
 40
2.666666666666666
100
AcDbArc
 50
75.52248781406973
 51
104.4775121859302
  0
LINE
  5
8DE4
330
18
100
AcDbEntity
  8
0
100
AcDbLine
 10
42.96083465698678
 20
128.733369839124
 30
0.0
 11
42.96083465698678
 21
130.1133698391221
 31
0.0
  0
LINE
  5
8DE5
330
18
100
AcDbEntity
  8
0
100
AcDbLine
 10
31.46083465698677
 20
141.5133698391224
 30
0.0
 11
30.96083465698677
 21
140.7733698391224
 31
0.0
  0
LINE
  5
8DE6
330
18
100
AcDbEntity
  8
0
100
AcDbLine
 10
31.46083465698677
 20
144.1133698391221
 30
0.0
 11
31.46083465698677
 21
141.5133698391224
 31
0.0
  0
LINE
  5
8DE7
330
18
100
AcDbEntity
  8
0
100
AcDbLine
 10
30.96083465698677
 20
139.7733698391224
 30
0.0
 11
30.96083465698677
 21
135.6933698391222
 31
0.0
  0
LINE
  5
8DE8
330
18
100
AcDbEntity
  8
0
100
AcDbLine
 10
31.46083465698677
 20
136.4333698391222
 30
0.0
 11
30.96083465698677
 21
135.6933698391222
 31
0.0
  0
LINE
  5
8DE9
330
18
100
AcDbEntity
  8
0
100
AcDbLine
 10
30.96083465698677
 20
134.6933698391222
 30
0.0
 11
31.46083465698677
 21
133.953369839122
 31
0.0
  0
LINE
  5
8DEA
330
18
100
AcDbEntity
  8
0
100
AcDbLine
 10
31.46083465698677
 20
131.3533698391223
 30
0.0
 11
30.96083465698677
 21
130.6133698391223
 31
0.0
  0
LINE
  5
8DEB
330
18
100
AcDbEntity
  8
0
100
AcDbLine
 10
31.46083465698677
 20
133.953369839122
 30
0.0
 11
31.46083465698677
 21
131.3533698391223
 31
0.0
  0
LINE
  5
8DEC
330
18
100
AcDbEntity
  8
0
100
AcDbLine
 10
30.96083465698677
 20
134.6933698391225
 30
0.0
 11
30.96083465698677
 21
130.6133698391223
 31
0.0
  0
LINE
  5
8DED
330
18
100
AcDbEntity
  8
0
100
AcDbLine
 10
31.46083465698677
 20
139.0333698391219
 30
0.0
 11
31.46083465698677
 21
136.4333698391222
 31
0.0
  0
LINE
  5
8DEE
330
18
100
AcDbEntity
  8
0
100
AcDbLine
 10
30.96083465698677
 20
139.7733698391224
 30
0.0
 11
31.46083465698677
 21
139.0333698391219
 31
0.0
  0
ARC
  5
8DEF
330
18
100
AcDbEntity
  8
0
100
AcDbCircle
 10
33.46083465698677
 20
122.2333698391222
 30
0.0
 40
2.666666666666666
100
AcDbArc
 50
165.5224878140701
 51
194.4775121859298
  0
LINE
  5
8DF0
330
18
100
AcDbEntity
  8
0
100
AcDbLine
 10
30.96083465698677
 20
135.6933698391222
 30
0.0
 11
37.96083465698677
 21
135.6933698391225
 31
0.0
  0
LINE
  5
8DF1
330
18
100
AcDbEntity
  8
0
100
AcDbLine
 10
31.46083465698677
 20
133.953369839122
 30
0.0
 11
35.36083465698686
 21
133.9533698391222
 31
0.0
  0
LINE
  5
8DF2
330
18
100
AcDbEntity
  8
0
100
AcDbLine
 10
30.96083465698677
 20
134.6933698391225
 30
0.0
 11
37.96083465698677
 21
134.6933698391225
 31
0.0
  0
LINE
  5
8DF3
330
18
100
AcDbEntity
  8
0
100
AcDbLine
 10
37.26083465698696
 20
129.2333698391222
 30
0.0
 11
28.96083465698677
 21
129.2333698391222
 31
0.0
  0
LINE
  5
8DF4
330
18
100
AcDbEntity
  8
0
100
AcDbLine
 10
30.87884575951568
 20
121.5667031724555
 30
0.0
 11
32.79416799032026
 21
121.5667031724555
 31
0.0
  0
LINE
  5
8DF5
330
18
100
AcDbEntity
  8
0
100
AcDbLine
 10
30.87884575951568
 20
122.900036505789
 30
0.0
 11
32.79416799032026
 21
122.900036505789
 31
0.0
  0
CIRCLE
  5
8DF6
330
18
100
AcDbEntity
  8
0
100
AcDbCircle
 10
33.46083465698677
 20
122.2333698391222
 30
0.0
 40
3.333333333333333
  0
CIRCLE
  5
8DF7
330
18
100
AcDbEntity
  8
0
100
AcDbCircle
 10
33.46083465698677
 20
122.2333698391222
 30
0.0
 40
4.0
  0
LINE
  5
8DF8
330
18
100
AcDbEntity
  8
0
100
AcDbLine
 10
31.46083465698677
 20
131.3533698391223
 30
0.0
 11
35.36083465698686
 21
131.3533698391221
 31
0.0
  0
LINE
  5
8DF9
330
18
100
AcDbEntity
  8
0
100
AcDbLine
 10
30.96083465698677
 20
130.6133698391223
 30
0.0
 11
37.96083465698677
 21
130.6133698391223
 31
0.0
  0
LINE
  5
8DFA
330
18
100
AcDbEntity
  8
0
100
AcDbLine
 10
42.96083465698678
 20
128.733369839124
 30
0.0
 11
27.96083465698677
 21
128.7333698391222
 31
0.0
  0
LINE
  5
8DFB
330
18
100
AcDbEntity
  8
0
100
AcDbLine
 10
28.96083465698723
 20
130.1133698391223
 30
0.0
 11
43.96083465698723
 21
130.1133698391223
 31
0.0
  0
LINE
  5
8DFC
330
18
100
AcDbEntity
  8
0
100
AcDbLine
 10
31.46083465698677
 20
136.4333698391222
 30
0.0
 11
35.36083465698686
 21
136.4333698391222
 31
0.0
  0
LINE
  5
8DFD
330
18
100
AcDbEntity
  8
0
100
AcDbLine
 10
31.46083465698677
 20
139.0333698391219
 30
0.0
 11
35.36083465698686
 21
139.0333698391224
 31
0.0
  0
LINE
  5
8DFE
330
18
100
AcDbEntity
  8
0
100
AcDbLine
 10
31.46083465698677
 20
144.1133698391221
 30
0.0
 11
35.36083465698686
 21
144.1133698391223
 31
0.0
  0
LINE
  5
8DFF
330
18
100
AcDbEntity
  8
0
100
AcDbLine
 10
31.46083465698677
 20
141.5133698391224
 30
0.0
 11
35.36083465698686
 21
141.5133698391222
 31
0.0
  0
LINE
  5
8E00
330
18
100
AcDbEntity
  8
0
100
AcDbLine
 10
30.96083465698677
 20
139.7733698391224
 30
0.0
 11
37.96083465698677
 21
139.7733698391224
 31
0.0
  0
LINE
  5
8E01
330
18
100
AcDbEntity
  8
0
100
AcDbLine
 10
30.96083465698677
 20
140.7733698391224
 30
0.0
 11
37.96083465698677
 21
140.7733698391224
 31
0.0
  0
LINE
  5
8E02
330
18
100
AcDbEntity
  8
0
100
AcDbLine
 10
59.16083465698704
 20
123.6583698391221
 30
0.0
 11
58.73583465698686
 21
124.0583698391222
 31
0.0
  0
LINE
  5
8E03
330
18
100
AcDbEntity
  8
0
100
AcDbLine
 10
58.73583465698686
 20
120.8583698391224
 30
0.0
 11
59.16083465698704
 21
123.6583698391221
 31
0.0
  0
LINE
  5
8E04
330
18
100
AcDbEntity
  8
0
100
AcDbLine
 10
58.31083465698668
 20
120.4583698391223
 30
0.0
 11
58.73583465698686
 21
120.8583698391224
 31
0.0
  0
LINE
  5
8E05
330
18
100
AcDbEntity
  8
0
100
AcDbLine
 10
57.91083465698704
 20
120.8583698391224
 30
0.0
 11
58.31083465698668
 21
120.4583698391223
 31
0.0
  0
LINE
  5
8E06
330
18
100
AcDbEntity
  8
0
100
AcDbLine
 10
58.31083465698668
 20
123.6583698391221
 30
0.0
 11
57.91083465698704
 21
120.8583698391224
 31
0.0
  0
LINE
  5
8E07
330
18
100
AcDbEntity
  8
0
100
AcDbLine
 10
58.73583465698686
 20
124.0583698391222
 30
0.0
 11
58.31083465698668
 21
123.6583698391221
 31
0.0
  0
LINE
  5
8E08
330
18
100
AcDbEntity
  8
0
100
AcDbLine
 10
58.61083465698687
 20
119.9083698391222
 30
0.0
 11
58.16083465698705
 21
120.3333698391223
 31
0.0
  0
LINE
  5
8E09
330
18
100
AcDbEntity
  8
0
100
AcDbLine
 10
58.41083465698705
 20
124.0583698391222
 30
0.0
 11
58.01083465698695
 21
124.4333698391222
 31
0.0
  0
LINE
  5
8E0A
330
18
100
AcDbEntity
  8
0
100
AcDbLine
 10
58.01083465698695
 20
123.6333698391225
 30
0.0
 11
58.41083465698705
 21
124.0583698391222
 31
0.0
  0
LINE
  5
8E0B
330
18
100
AcDbEntity
  8
0
100
AcDbLine
 10
55.46083465698723
 20
124.0583698391222
 30
0.0
 11
55.88583465698696
 21
123.6333698391225
 31
0.0
  0
LINE
  5
8E0C
330
18
100
AcDbEntity
  8
0
100
AcDbLine
 10
55.88583465698696
 20
124.4333698391222
 30
0.0
 11
55.46083465698723
 21
124.0583698391222
 31
0.0
  0
LINE
  5
8E0D
330
18
100
AcDbEntity
  8
0
100
AcDbLine
 10
57.46083465698723
 20
120.8583698391224
 30
0.0
 11
55.36083465698687
 21
120.8583698391224
 31
0.0
  0
LINE
  5
8E0E
330
18
100
AcDbEntity
  8
0
100
AcDbLine
 10
55.36083465698687
 20
120.0583698391223
 30
0.0
 11
57.46083465698723
 21
120.0583698391223
 31
0.0
  0
LINE
  5
8E0F
330
18
100
AcDbEntity
  8
0
100
AcDbLine
 10
58.16083465698705
 20
120.3333698391223
 30
0.0
 11
57.76083465698696
 21
119.9083698391222
 31
0.0
  0
LINE
  5
8E10
330
18
100
AcDbEntity
  8
0
100
AcDbLine
 10
58.01083465698695
 20
124.4333698391222
 30
0.0
 11
55.88583465698696
 21
124.4333698391222
 31
0.0
  0
LINE
  5
8E11
330
18
100
AcDbEntity
  8
0
100
AcDbLine
 10
55.88583465698696
 20
123.6333698391225
 30
0.0
 11
58.01083465698695
 21
123.6333698391225
 31
0.0
  0
LINE
  5
8E12
330
18
100
AcDbEntity
  8
0
100
AcDbLine
 10
57.86083465698687
 20
120.4583698391223
 30
0.0
 11
57.46083465698723
 21
120.8583698391224
 31
0.0
  0
LINE
  5
8E13
330
18
100
AcDbEntity
  8
0
100
AcDbLine
 10
57.46083465698723
 20
120.0583698391223
 30
0.0
 11
57.86083465698687
 21
120.4583698391223
 31
0.0
  0
ELLIPSE
  5
8E14
330
18
100
AcDbEntity
  8
0
100
AcDbEllipse
 10
58.76083465698695
 20
116.7083698391223
 30
0.0
 11
0.5
 21
0.0
 31
0.0
210
0.0
220
0.0
230
1.0
 40
0.95
 41
0.0
 42
6.283184999999999
  0
LINE
  5
8E15
330
18
100
AcDbEntity
  8
0
100
AcDbLine
 10
57.33583465698723
 20
117.1333698391225
 30
0.0
 11
57.76083465698696
 21
116.7333698391224
 31
0.0
  0
LINE
  5
8E16
330
18
100
AcDbEntity
  8
0
100
AcDbLine
 10
57.33583465698723
 20
116.7333698391224
 30
0.0
 11
56.91083465698705
 21
117.1583698391222
 31
0.0
  0
LINE
  5
8E17
330
18
100
AcDbEntity
  8
0
100
AcDbLine
 10
56.91083465698705
 20
116.3333698391223
 30
0.0
 11
57.33583465698723
 21
116.7333698391224
 31
0.0
  0
LINE
  5
8E18
330
18
100
AcDbEntity
  8
0
100
AcDbLine
 10
57.76083465698696
 20
116.7333698391224
 30
0.0
 11
58.16083465698705
 21
117.1333698391225
 31
0.0
  0
LINE
  5
8E19
330
18
100
AcDbEntity
  8
0
100
AcDbLine
 10
60.26083465698696
 20
126.7333698391224
 30
0.0
 11
60.26083465698696
 21
113.7333698391224
 31
0.0
  0
LINE
  5
8E1A
330
18
100
AcDbEntity
  8
0
100
AcDbLine
 10
58.16083465698705
 20
117.1333698391225
 30
0.0
 11
58.61083465698687
 21
119.9083698391222
 31
0.0
  0
LINE
  5
8E1B
330
18
100
AcDbEntity
  8
0
100
AcDbLine
 10
57.76083465698696
 20
119.9083698391222
 30
0.0
 11
57.33583465698723
 21
117.1333698391225
 31
0.0
  0
ARC
  5
8E1C
330
18
100
AcDbEntity
  8
0
100
AcDbCircle
 10
41.36083465698686
 20
171.2333698391222
 30
0.0
 40
2.0
100
AcDbArc
 50
345.5224878140701
 51
14.47751218592986
  0
LINE
  5
8E1D
330
18
100
AcDbEntity
  8
0
100
AcDbLine
 10
41.86083465698686
 20
169.2968781660184
 30
0.0
 11
41.86083465698686
 21
170.7333698391222
 31
0.0
  0
LINE
  5
8E1E
330
18
100
AcDbEntity
  8
0
100
AcDbLine
 10
40.86083465698687
 20
169.2968781660184
 30
0.0
 11
40.86083465698687
 21
170.7333698391222
 31
0.0
  0
ARC
  5
8E1F
330
18
100
AcDbEntity
  8
0
100
AcDbCircle
 10
41.36083465698686
 20
171.2333698391222
 30
0.0
 40
2.0
100
AcDbArc
 50
255.5224878140696
 51
284.4775121859303
  0
ARC
  5
8E20
330
18
100
AcDbEntity
  8
0
100
AcDbCircle
 10
41.36083465698686
 20
171.2333698391222
 30
0.0
 40
2.0
100
AcDbArc
 50
75.52248781406973
 51
104.4775121859302
  0
LINE
  5
8E21
330
18
100
AcDbEntity
  8
0
100
AcDbLine
 10
40.86083465698687
 20
171.7333698391222
 30
0.0
 11
40.86083465698687
 21
173.169861512226
 31
0.0
  0
LINE
  5
8E22
330
18
100
AcDbEntity
  8
0
100
AcDbLine
 10
41.86083465698686
 20
171.7333698391222
 30
0.0
 11
41.86083465698686
 21
173.169861512226
 31
0.0
  0
ARC
  5
8E23
330
18
100
AcDbEntity
  8
0
100
AcDbCircle
 10
41.36083465698686
 20
171.2333698391222
 30
0.0
 40
2.0
100
AcDbArc
 50
165.5224878140701
 51
194.4775121859298
  0
LINE
  5
8E24
330
18
100
AcDbEntity
  8
0
100
AcDbLine
 10
39.42434298388354
 20
170.7333698391222
 30
0.0
 11
40.86083465698687
 21
170.7333698391222
 31
0.0
  0
LINE
  5
8E25
330
18
100
AcDbEntity
  8
0
100
AcDbLine
 10
39.42434298388354
 20
171.7333698391222
 30
0.0
 11
40.86083465698687
 21
171.7333698391222
 31
0.0
  0
LINE
  5
8E26
330
18
100
AcDbEntity
  8
0
100
AcDbLine
 10
41.86083465698686
 20
170.7333698391222
 30
0.0
 11
43.29732633009064
 21
170.7333698391222
 31
0.0
  0
LINE
  5
8E27
330
18
100
AcDbEntity
  8
0
100
AcDbLine
 10
41.86083465698686
 20
171.7333698391222
 30
0.0
 11
43.29732633009064
 21
171.7333698391222
 31
0.0
  0
CIRCLE
  5
8E28
330
18
100
AcDbEntity
  8
0
100
AcDbCircle
 10
41.36083465698686
 20
171.2333698391222
 30
0.0
 40
2.5
  0
CIRCLE
  5
8E29
330
18
100
AcDbEntity
  8
0
100
AcDbCircle
 10
41.36083465698686
 20
171.2333698391222
 30
0.0
 40
3.0
  0
LINE
  5
8E2A
330
18
100
AcDbEntity
  8
0
100
AcDbLine
 10
42.96083465698678
 20
145.3533698391228
 30
0.0
 11
42.96083465698678
 21
146.7333698391222
 31
0.0
  0
LINE
  5
8E2B
330
18
100
AcDbEntity
  8
0
100
AcDbLine
 10
37.26083465698696
 20
146.2333698391222
 30
0.0
 11
37.26083465698696
 21
145.3533698391223
 31
0.0
  0
LINE
  5
8E2C
330
18
100
AcDbEntity
  8
0
100
AcDbLine
 10
37.26083465698696
 20
146.2333698391224
 30
0.0
 11
28.96083465698677
 21
146.2333698391222
 31
0.0
  0
LINE
  5
8E2D
330
18
100
AcDbEntity
  8
0
100
AcDbLine
 10
30.96083465698677
 20
144.8533698391226
 30
0.0
 11
37.96083465698677
 21
144.8533698391226
 31
0.0
  0
LINE
  5
8E2E
330
18
100
AcDbEntity
  8
0
100
AcDbLine
 10
42.96083465698678
 20
146.7333698391222
 30
0.0
 11
27.96083465698677
 21
146.7333698391222
 31
0.0
  0
LINE
  5
8E2F
330
18
100
AcDbEntity
  8
0
100
AcDbLine
 10
28.96083465698677
 20
145.3533698391223
 30
0.0
 11
43.96083465698677
 21
145.3533698391225
 31
0.0
  0
ARC
  5
8E30
330
18
100
AcDbEntity
  8
0
100
AcDbCircle
 10
56.36083465698686
 20
187.233369839122
 30
0.0
 40
2.75
100
AcDbArc
 50
180.0
 51
0.0
  0
LINE
  5
8E31
330
18
100
AcDbEntity
  8
0
100
AcDbLine
 10
53.61083465698687
 20
187.233369839122
 30
0.0
 11
53.61083465698687
 21
192.233369839122
 31
0.0
  0
LINE
  5
8E32
330
18
100
AcDbEntity
  8
0
100
AcDbLine
 10
59.11083465698687
 20
187.233369839122
 30
0.0
 11
59.11083465698687
 21
192.233369839122
 31
0.0
  0
LINE
  5
8E33
330
18
100
AcDbEntity
  8
0
100
AcDbLine
 10
66.36083465698686
 20
192.233369839122
 30
0.0
 11
59.11083465698687
 21
192.233369839122
 31
0.0
  0
MTEXT
  5
8E6E
330
18
100
AcDbEntity
  8
0
100
AcDbMText
 10
420.5975924485216
 20
-78.55899708266439
 30
0.0
 40
6.0
 41
39.7426
 71
     1
 72
     5
  1
VC外形図
  7
MSｺﾞｼｯｸ
 73
     1
 44
1.0
  0
TEXT
  5
8E6F
330
18
100
AcDbEntity
  8
0
100
AcDbText
 10
422.4836476808489
 20
-94.87558648279364
 30
0.0
 40
7.0
  1
ＳＥ－３７６２１
 41
0.9530000000000001
  7
MSｺﾞｼｯｸ
100
AcDbText
  0
TEXT
  5
8E70
330
18
100
AcDbEntity
  8
0
100
AcDbText
 10
385.6156340533105
 20
-71.19586313251679
 30
0.0
 40
6.0
  1
ＮＣＲ－＊Ａ＊＊Ａ２Ｄ－１５２／２２２－ＵＬ
 41
0.6
  7
MSｺﾞｼｯｸ
100
AcDbText
  0
TEXT
  5
8E7D
330
18
100
AcDbEntity
  8
0
100
AcDbText
 10
38.51854673517857
 20
11.92964748143106
 30
0.0
 40
2.0
  1
ＣＮ１
  7
MSｺﾞｼｯｸ
100
AcDbText
  0
TEXT
  5
8E7E
330
18
100
AcDbEntity
  8
0
100
AcDbText
 10
-47.50947553613483
 20
-26.30841953057438
 30
0.0
 40
3.0
  1
TB3
  7
MSｺﾞｼｯｸ
100
AcDbText
  0
LINE
  5
8E7F
330
18
100
AcDbEntity
  8
0
100
AcDbLine
 10
1.360834656986867
 20
151.4833698391222
 30
0.0
 11
1.360834656986867
 21
126.4833698391222
 31
0.0
  0
ARC
  5
8E80
330
18
100
AcDbEntity
  8
0
100
AcDbCircle
 10
0.3608346569868672
 20
126.4833698391222
 30
0.0
 40
1.0
100
AcDbArc
 50
270.0
 51
0.0
  0
LINE
  5
8E81
330
18
100
AcDbEntity
  8
0
100
AcDbLine
 10
0.3608346569868672
 20
125.4833698391222
 30
0.0
 11
-37.63916534301313
 21
125.4833698391222
 31
0.0
  0
ARC
  5
8E82
330
18
100
AcDbEntity
  8
0
100
AcDbCircle
 10
-37.63916534301313
 20
126.4833698391222
 30
0.0
 40
1.0
100
AcDbArc
 50
180.0
 51
270.0
  0
LINE
  5
8E83
330
18
100
AcDbEntity
  8
0
100
AcDbLine
 10
-38.63916534301313
 20
126.4833698391222
 30
0.0
 11
-38.63916534301313
 21
151.4833698391222
 31
0.0
  0
ARC
  5
8E84
330
18
100
AcDbEntity
  8
0
100
AcDbCircle
 10
-37.63916534301313
 20
151.4833698391222
 30
0.0
 40
1.0
100
AcDbArc
 50
90.0
 51
180.0
  0
LINE
  5
8E85
330
18
100
AcDbEntity
  8
0
100
AcDbLine
 10
-37.63916534301313
 20
152.4833698391222
 30
0.0
 11
0.3608346569868672
 21
152.4833698391222
 31
0.0
  0
ARC
  5
8E86
330
18
100
AcDbEntity
  8
0
100
AcDbCircle
 10
0.3608346569868672
 20
151.4833698391222
 30
0.0
 40
1.0
100
AcDbArc
 50
0.0
 51
90.0
  0
LINE
  5
8E87
330
18
100
AcDbEntity
  8
0
100
AcDbLine
 10
0.3608346569868672
 20
150.4833698391222
 30
0.0
 11
0.3608346569868672
 21
127.4833698391222
 31
0.0
  0
ARC
  5
8E88
330
18
100
AcDbEntity
  8
0
100
AcDbCircle
 10
-0.6391653430131328
 20
127.4833698391222
 30
0.0
 40
1.0
100
AcDbArc
 50
270.0
 51
0.0
  0
LINE
  5
8E89
330
18
100
AcDbEntity
  8
0
100
AcDbLine
 10
-0.6391653430131328
 20
126.4833698391222
 30
0.0
 11
-36.63916534301313
 21
126.4833698391222
 31
0.0
  0
ARC
  5
8E8A
330
18
100
AcDbEntity
  8
0
100
AcDbCircle
 10
-36.63916534301313
 20
127.4833698391222
 30
0.0
 40
1.0
100
AcDbArc
 50
180.0
 51
270.0
  0
LINE
  5
8E8B
330
18
100
AcDbEntity
  8
0
100
AcDbLine
 10
-37.63916534301313
 20
127.4833698391222
 30
0.0
 11
-37.63916534301313
 21
150.4833698391222
 31
0.0
  0
ARC
  5
8E8C
330
18
100
AcDbEntity
  8
0
100
AcDbCircle
 10
-36.63916534301313
 20
150.4833698391222
 30
0.0
 40
1.0
100
AcDbArc
 50
90.0
 51
180.0
  0
LINE
  5
8E8D
330
18
100
AcDbEntity
  8
0
100
AcDbLine
 10
-36.63916534301313
 20
151.4833698391222
 30
0.0
 11
-0.6391653430131328
 21
151.4833698391222
 31
0.0
  0
ARC
  5
8E8E
330
18
100
AcDbEntity
  8
0
100
AcDbCircle
 10
-0.6391653430131324
 20
150.4833698391222
 30
0.0
 40
1.0
100
AcDbArc
 50
0.0
 51
90.00000000000003
  0
LINE
  5
8E8F
330
18
100
AcDbEntity
  8
0
100
AcDbLine
 10
1.860834656986867
 20
119.2333950094408
 30
0.0
 11
1.860834656986867
 21
113.2333950094408
 31
0.0
  0
ARC
  5
8E90
330
18
100
AcDbEntity
  8
0
100
AcDbCircle
 10
0.8608346569868672
 20
113.2333950094408
 30
0.0
 40
1.0
100
AcDbArc
 50
270.0
 51
0.0
  0
LINE
  5
8E91
330
18
100
AcDbEntity
  8
0
100
AcDbLine
 10
0.8608346569868672
 20
112.2333950094408
 30
0.0
 11
-5.139165343013132
 21
112.2333950094408
 31
0.0
  0
ARC
  5
8E92
330
18
100
AcDbEntity
  8
0
100
AcDbCircle
 10
-5.139165343013132
 20
113.2333950094408
 30
0.0
 40
1.0
100
AcDbArc
 50
180.0
 51
270.0
  0
LINE
  5
8E93
330
18
100
AcDbEntity
  8
0
100
AcDbLine
 10
-6.139165343013132
 20
113.2333950094408
 30
0.0
 11
-6.139165343013132
 21
119.2333950094408
 31
0.0
  0
ARC
  5
8E94
330
18
100
AcDbEntity
  8
0
100
AcDbCircle
 10
-5.139165343013132
 20
119.2333950094408
 30
0.0
 40
1.0
100
AcDbArc
 50
90.0
 51
180.0
  0
LINE
  5
8E95
330
18
100
AcDbEntity
  8
0
100
AcDbLine
 10
-5.139165343013132
 20
120.2333950094408
 30
0.0
 11
0.8608346569868672
 21
120.2333950094408
 31
0.0
  0
ARC
  5
8E96
330
18
100
AcDbEntity
  8
0
100
AcDbCircle
 10
0.8608346569868672
 20
119.2333950094408
 30
0.0
 40
1.0
100
AcDbArc
 50
0.0
 51
90.0
  0
LINE
  5
8E97
330
18
100
AcDbEntity
  8
0
100
AcDbLine
 10
1.360834656986867
 20
119.2333950094408
 30
0.0
 11
1.360834656986867
 21
113.2333950094408
 31
0.0
  0
ARC
  5
8E98
330
18
100
AcDbEntity
  8
0
100
AcDbCircle
 10
0.8608346569868672
 20
113.2333950094408
 30
0.0
 40
0.5
100
AcDbArc
 50
270.0
 51
0.0
  0
LINE
  5
8E99
330
18
100
AcDbEntity
  8
0
100
AcDbLine
 10
0.8608346569868672
 20
112.7333950094408
 30
0.0
 11
-5.139165343013132
 21
112.7333950094408
 31
0.0
  0
ARC
  5
8E9A
330
18
100
AcDbEntity
  8
0
100
AcDbCircle
 10
-5.139165343013132
 20
113.2333950094408
 30
0.0
 40
0.5
100
AcDbArc
 50
180.0
 51
270.0
  0
LINE
  5
8E9B
330
18
100
AcDbEntity
  8
0
100
AcDbLine
 10
-5.639165343013132
 20
113.2333950094408
 30
0.0
 11
-5.639165343013132
 21
119.2333950094408
 31
0.0
  0
ARC
  5
8E9C
330
18
100
AcDbEntity
  8
0
100
AcDbCircle
 10
-5.139165343013132
 20
119.2333950094408
 30
0.0
 40
0.5
100
AcDbArc
 50
90.0
 51
180.0
  0
LINE
  5
8E9D
330
18
100
AcDbEntity
  8
0
100
AcDbLine
 10
-5.139165343013132
 20
119.7333950094408
 30
0.0
 11
0.8608346569868672
 21
119.7333950094408
 31
0.0
  0
ARC
  5
8E9E
330
18
100
AcDbEntity
  8
0
100
AcDbCircle
 10
0.8608346569868672
 20
119.2333950094408
 30
0.0
 40
0.5
100
AcDbArc
 50
0.0
 51
90.0
  0
LINE
  5
8E9F
330
18
100
AcDbEntity
  8
0
100
AcDbLine
 10
-24.13916534301268
 20
114.5013460861988
 30
0.0
 11
-26.1391644105123
 21
117.9654460861989
 31
0.0
  0
LINE
  5
8EA0
330
18
100
AcDbEntity
  8
0
100
AcDbLine
 10
-26.1391644105123
 20
117.9654460861989
 30
0.0
 11
-22.13916627551304
 21
117.9654460861989
 31
0.0
  0
LINE
  5
8EA1
330
18
100
AcDbEntity
  8
0
100
AcDbLine
 10
-22.13916627551304
 20
117.9654460861989
 30
0.0
 11
-24.13916534301268
 21
114.5013460861988
 31
0.0
  0
LINE
  5
8EA2
330
18
100
AcDbEntity
  8
0
100
AcDbLine
 10
-20.63916534301313
 20
119.2333950094408
 30
0.0
 11
-20.63916534301313
 21
113.2333950094408
 31
0.0
  0
ARC
  5
8EA3
330
18
100
AcDbEntity
  8
0
100
AcDbCircle
 10
-21.13916534301313
 20
113.2333950094408
 30
0.0
 40
0.5
100
AcDbArc
 50
270.0
 51
0.0
  0
LINE
  5
8EA4
330
18
100
AcDbEntity
  8
0
100
AcDbLine
 10
-21.13916534301313
 20
112.7333950094408
 30
0.0
 11
-27.13916534301313
 21
112.7333950094408
 31
0.0
  0
ARC
  5
8EA5
330
18
100
AcDbEntity
  8
0
100
AcDbCircle
 10
-27.13916534301313
 20
113.2333950094408
 30
0.0
 40
0.5
100
AcDbArc
 50
180.0
 51
270.0
  0
LINE
  5
8EA6
330
18
100
AcDbEntity
  8
0
100
AcDbLine
 10
-27.63916534301313
 20
113.2333950094408
 30
0.0
 11
-27.63916534301313
 21
119.2333950094408
 31
0.0
  0
ARC
  5
8EA7
330
18
100
AcDbEntity
  8
0
100
AcDbCircle
 10
-27.13916534301313
 20
119.2333950094408
 30
0.0
 40
0.5
100
AcDbArc
 50
90.0
 51
180.0
  0
LINE
  5
8EA8
330
18
100
AcDbEntity
  8
0
100
AcDbLine
 10
-27.13916534301313
 20
119.7333950094408
 30
0.0
 11
-21.13916534301313
 21
119.7333950094408
 31
0.0
  0
ARC
  5
8EA9
330
18
100
AcDbEntity
  8
0
100
AcDbCircle
 10
-21.13916534301313
 20
119.2333950094408
 30
0.0
 40
0.5
100
AcDbArc
 50
0.0
 51
90.0
  0
LINE
  5
8EAA
330
18
100
AcDbEntity
  8
0
100
AcDbLine
 10
-20.13916534301313
 20
119.2333950094408
 30
0.0
 11
-20.13916534301313
 21
113.2333950094408
 31
0.0
  0
ARC
  5
8EAB
330
18
100
AcDbEntity
  8
0
100
AcDbCircle
 10
-21.13916534301313
 20
113.2333950094408
 30
0.0
 40
1.0
100
AcDbArc
 50
270.0
 51
0.0
  0
LINE
  5
8EAC
330
18
100
AcDbEntity
  8
0
100
AcDbLine
 10
-21.13916534301313
 20
112.2333950094408
 30
0.0
 11
-27.13916534301313
 21
112.2333950094408
 31
0.0
  0
ARC
  5
8EAD
330
18
100
AcDbEntity
  8
0
100
AcDbCircle
 10
-27.13916534301313
 20
113.2333950094408
 30
0.0
 40
1.0
100
AcDbArc
 50
180.0
 51
270.0
  0
LINE
  5
8EAE
330
18
100
AcDbEntity
  8
0
100
AcDbLine
 10
-28.13916534301313
 20
113.2333950094408
 30
0.0
 11
-28.13916534301313
 21
119.2333950094408
 31
0.0
  0
ARC
  5
8EAF
330
18
100
AcDbEntity
  8
0
100
AcDbCircle
 10
-27.13916534301313
 20
119.2333950094408
 30
0.0
 40
1.0
100
AcDbArc
 50
90.0
 51
180.0
  0
LINE
  5
8EB0
330
18
100
AcDbEntity
  8
0
100
AcDbLine
 10
-27.13916534301313
 20
120.2333950094408
 30
0.0
 11
-21.13916534301313
 21
120.2333950094408
 31
0.0
  0
ARC
  5
8EB1
330
18
100
AcDbEntity
  8
0
100
AcDbCircle
 10
-21.13916534301313
 20
119.2333950094408
 30
0.0
 40
1.0
100
AcDbArc
 50
0.0
 51
90.0
  0
LINE
  5
8EB2
330
18
100
AcDbEntity
  8
0
100
AcDbLine
 10
-35.13916534301268
 20
117.9654450094409
 30
0.0
 11
-37.1391644105123
 21
114.5013450094408
 31
0.0
  0
LINE
  5
8EB3
330
18
100
AcDbEntity
  8
0
100
AcDbLine
 10
-37.1391644105123
 20
114.5013450094408
 30
0.0
 11
-33.13916627551305
 21
114.5013450094408
 31
0.0
  0
LINE
  5
8EB4
330
18
100
AcDbEntity
  8
0
100
AcDbLine
 10
-33.13916627551305
 20
114.5013450094408
 30
0.0
 11
-35.13916534301268
 21
117.9654450094409
 31
0.0
  0
LINE
  5
8EB5
330
18
100
AcDbEntity
  8
0
100
AcDbLine
 10
-31.63916534301313
 20
119.2333950094408
 30
0.0
 11
-31.63916534301313
 21
113.2333950094408
 31
0.0
  0
ARC
  5
8EB6
330
18
100
AcDbEntity
  8
0
100
AcDbCircle
 10
-32.13916534301313
 20
113.2333950094408
 30
0.0
 40
0.5
100
AcDbArc
 50
270.0
 51
0.0
  0
LINE
  5
8EB7
330
18
100
AcDbEntity
  8
0
100
AcDbLine
 10
-32.13916534301313
 20
112.7333950094408
 30
0.0
 11
-38.13916534301313
 21
112.7333950094408
 31
0.0
  0
ARC
  5
8EB8
330
18
100
AcDbEntity
  8
0
100
AcDbCircle
 10
-38.13916534301313
 20
113.2333950094408
 30
0.0
 40
0.5
100
AcDbArc
 50
180.0
 51
270.0
  0
LINE
  5
8EB9
330
18
100
AcDbEntity
  8
0
100
AcDbLine
 10
-38.63916534301313
 20
113.2333950094408
 30
0.0
 11
-38.63916534301313
 21
119.2333950094408
 31
0.0
  0
ARC
  5
8EBA
330
18
100
AcDbEntity
  8
0
100
AcDbCircle
 10
-38.13916534301313
 20
119.2333950094408
 30
0.0
 40
0.5
100
AcDbArc
 50
90.0
 51
180.0
  0
LINE
  5
8EBB
330
18
100
AcDbEntity
  8
0
100
AcDbLine
 10
-38.13916534301313
 20
119.7333950094408
 30
0.0
 11
-32.13916534301313
 21
119.7333950094408
 31
0.0
  0
ARC
  5
8EBC
330
18
100
AcDbEntity
  8
0
100
AcDbCircle
 10
-32.13916534301313
 20
119.2333950094408
 30
0.0
 40
0.5
100
AcDbArc
 50
0.0
 51
90.0
  0
LINE
  5
8EBD
330
18
100
AcDbEntity
  8
0
100
AcDbLine
 10
-31.13916534301313
 20
119.2333950094408
 30
0.0
 11
-31.13916534301313
 21
113.2333950094408
 31
0.0
  0
ARC
  5
8EBE
330
18
100
AcDbEntity
  8
0
100
AcDbCircle
 10
-32.13916534301313
 20
113.2333950094408
 30
0.0
 40
1.0
100
AcDbArc
 50
270.0
 51
0.0
  0
LINE
  5
8EBF
330
18
100
AcDbEntity
  8
0
100
AcDbLine
 10
-32.13916534301313
 20
112.2333950094408
 30
0.0
 11
-38.13916534301313
 21
112.2333950094408
 31
0.0
  0
ARC
  5
8EC0
330
18
100
AcDbEntity
  8
0
100
AcDbCircle
 10
-38.13916534301313
 20
113.2333950094408
 30
0.0
 40
1.0
100
AcDbArc
 50
180.0
 51
270.0
  0
LINE
  5
8EC1
330
18
100
AcDbEntity
  8
0
100
AcDbLine
 10
-39.13916534301313
 20
113.2333950094408
 30
0.0
 11
-39.13916534301313
 21
119.2333950094408
 31
0.0
  0
ARC
  5
8EC2
330
18
100
AcDbEntity
  8
0
100
AcDbCircle
 10
-38.13916534301313
 20
119.2333950094408
 30
0.0
 40
1.0
100
AcDbArc
 50
90.0
 51
180.0
  0
LINE
  5
8EC3
330
18
100
AcDbEntity
  8
0
100
AcDbLine
 10
-38.13916534301313
 20
120.2333950094408
 30
0.0
 11
-32.13916534301313
 21
120.2333950094408
 31
0.0
  0
ARC
  5
8EC4
330
18
100
AcDbEntity
  8
0
100
AcDbCircle
 10
-32.13916534301313
 20
119.2333950094408
 30
0.0
 40
1.0
100
AcDbArc
 50
0.0
 51
90.0
  0
LINE
  5
8EC5
330
18
100
AcDbEntity
  8
0
100
AcDbLine
 10
-11.20693570700484
 20
117.047809162152
 30
0.0
 11
-15.00663677542922
 21
114.8159664178648
 31
0.0
  0
LINE
  5
8EC6
330
18
100
AcDbEntity
  8
0
100
AcDbLine
 10
-15.00663677542922
 20
114.8159664178648
 30
0.0
 11
-15.13325372411543
 21
115.0315311373932
 31
0.0
  0
LINE
  5
8EC7
330
18
100
AcDbEntity
  8
0
100
AcDbLine
 10
-15.13325372411543
 20
115.0315311373932
 30
0.0
 11
-11.3335526556915
 21
117.2633738816804
 31
0.0
  0
LINE
  5
8EC8
330
18
100
AcDbEntity
  8
0
100
AcDbLine
 10
-11.3335526556915
 20
117.2633738816804
 30
0.0
 11
-11.20693570700484
 21
117.047809162152
 31
0.0
  0
LINE
  5
8EC9
330
18
100
AcDbEntity
  8
0
100
AcDbLine
 10
-9.139165343013132
 20
119.2333950094408
 30
0.0
 11
-9.139165343013132
 21
113.2333950094408
 31
0.0
  0
ARC
  5
8ECA
330
18
100
AcDbEntity
  8
0
100
AcDbCircle
 10
-10.13916534301313
 20
113.2333950094408
 30
0.0
 40
1.0
100
AcDbArc
 50
270.0
 51
0.0
  0
LINE
  5
8ECB
330
18
100
AcDbEntity
  8
0
100
AcDbLine
 10
-10.13916534301313
 20
112.2333950094408
 30
0.0
 11
-16.13916534301313
 21
112.2333950094408
 31
0.0
  0
ARC
  5
8ECC
330
18
100
AcDbEntity
  8
0
100
AcDbCircle
 10
-16.13916534301313
 20
113.2333950094408
 30
0.0
 40
1.0
100
AcDbArc
 50
180.0
 51
270.0
  0
LINE
  5
8ECD
330
18
100
AcDbEntity
  8
0
100
AcDbLine
 10
-17.13916534301313
 20
113.2333950094408
 30
0.0
 11
-17.13916534301313
 21
119.2333950094408
 31
0.0
  0
ARC
  5
8ECE
330
18
100
AcDbEntity
  8
0
100
AcDbCircle
 10
-16.13916534301313
 20
119.2333950094408
 30
0.0
 40
1.0
100
AcDbArc
 50
90.0
 51
180.0
  0
LINE
  5
8ECF
330
18
100
AcDbEntity
  8
0
100
AcDbLine
 10
-16.13916534301313
 20
120.2333950094408
 30
0.0
 11
-10.13916534301313
 21
120.2333950094408
 31
0.0
  0
ARC
  5
8ED0
330
18
100
AcDbEntity
  8
0
100
AcDbCircle
 10
-10.13916534301313
 20
119.2333950094408
 30
0.0
 40
1.0
100
AcDbArc
 50
0.0
 51
90.0
  0
LINE
  5
8ED1
330
18
100
AcDbEntity
  8
0
100
AcDbLine
 10
-9.639165343013132
 20
119.2333950094408
 30
0.0
 11
-9.639165343013132
 21
113.2333950094408
 31
0.0
  0
ARC
  5
8ED2
330
18
100
AcDbEntity
  8
0
100
AcDbCircle
 10
-10.13916534301313
 20
113.2333950094408
 30
0.0
 40
0.5
100
AcDbArc
 50
270.0
 51
0.0
  0
LINE
  5
8ED3
330
18
100
AcDbEntity
  8
0
100
AcDbLine
 10
-10.13916534301313
 20
112.7333950094408
 30
0.0
 11
-16.13916534301313
 21
112.7333950094408
 31
0.0
  0
ARC
  5
8ED4
330
18
100
AcDbEntity
  8
0
100
AcDbCircle
 10
-16.13916534301313
 20
113.2333950094408
 30
0.0
 40
0.5
100
AcDbArc
 50
180.0
 51
270.0
  0
LINE
  5
8ED5
330
18
100
AcDbEntity
  8
0
100
AcDbLine
 10
-16.63916534301313
 20
113.2333950094408
 30
0.0
 11
-16.63916534301313
 21
119.2333950094408
 31
0.0
  0
ARC
  5
8ED6
330
18
100
AcDbEntity
  8
0
100
AcDbCircle
 10
-16.13916534301313
 20
119.2333950094408
 30
0.0
 40
0.5
100
AcDbArc
 50
90.0
 51
180.0
  0
LINE
  5
8ED7
330
18
100
AcDbEntity
  8
0
100
AcDbLine
 10
-16.13916534301313
 20
119.7333950094408
 30
0.0
 11
-10.13916534301313
 21
119.7333950094408
 31
0.0
  0
ARC
  5
8ED8
330
18
100
AcDbEntity
  8
0
100
AcDbCircle
 10
-10.13916534301313
 20
119.2333950094408
 30
0.0
 40
0.5
100
AcDbArc
 50
0.0
 51
90.0
  0
LINE
  5
8ED9
330
18
100
AcDbEntity
  8
0
100
AcDbLine
 10
-12.13049652570305
 20
113.4507716763245
 30
0.0
 11
-10.39844571813443
 21
114.4507716763245
 31
0.0
  0
LINE
  5
8EDA
330
18
100
AcDbEntity
  8
0
100
AcDbLine
 10
-10.39844571813443
 20
114.4507716763245
 30
0.0
 11
-12.13049652570305
 21
115.4507716763245
 31
0.0
  0
LINE
  5
8EDB
330
18
100
AcDbEntity
  8
0
100
AcDbLine
 10
-12.13049652570305
 20
115.4507716763245
 30
0.0
 11
-12.13049652570305
 21
113.4507716763245
 31
0.0
  0
LINE
  5
8EDC
330
18
100
AcDbEntity
  8
0
100
AcDbLine
 10
57.53583465698705
 20
23.4083698391222
 30
0.0
 11
53.83583465698723
 21
23.4083698391222
 31
0.0
  0
LINE
  5
8EDD
330
18
100
AcDbEntity
  8
0
100
AcDbLine
 10
53.83583465698723
 20
23.4083698391222
 30
0.0
 11
53.83583465698723
 21
-0.3916301608775257
 31
0.0
  0
LINE
  5
8EDE
330
18
100
AcDbEntity
  8
0
100
AcDbLine
 10
53.83583465698723
 20
-0.3916301608775257
 30
0.0
 11
57.53583465698705
 21
-0.3916301608775257
 31
0.0
  0
LINE
  5
8EDF
330
18
100
AcDbEntity
  8
0
100
AcDbLine
 10
57.53583465698705
 20
-0.3916301608775257
 30
0.0
 11
57.53583465698705
 21
23.4083698391222
 31
0.0
  0
LINE
  5
8EE0
330
18
100
AcDbEntity
  8
0
100
AcDbLine
 10
57.53583465698705
 20
57.4083698391222
 30
0.0
 11
53.83583465698723
 21
57.4083698391222
 31
0.0
  0
LINE
  5
8EE1
330
18
100
AcDbEntity
  8
0
100
AcDbLine
 10
53.83583465698723
 20
57.4083698391222
 30
0.0
 11
53.83583465698723
 21
43.25836983912234
 31
0.0
  0
LINE
  5
8EE2
330
18
100
AcDbEntity
  8
0
100
AcDbLine
 10
53.83583465698723
 20
43.25836983912234
 30
0.0
 11
57.53583465698705
 21
43.25836983912234
 31
0.0
  0
LINE
  5
8EE3
330
18
100
AcDbEntity
  8
0
100
AcDbLine
 10
57.53583465698705
 20
43.25836983912234
 30
0.0
 11
57.53583465698705
 21
57.4083698391222
 31
0.0
  0
LINE
  5
8EE4
330
18
100
AcDbEntity
  8
0
100
AcDbLine
 10
57.53583465698705
 20
101.1583698391222
 30
0.0
 11
53.83583465698723
 21
101.1583698391222
 31
0.0
  0
LINE
  5
8EE5
330
18
100
AcDbEntity
  8
0
100
AcDbLine
 10
53.83583465698723
 20
101.1583698391222
 30
0.0
 11
53.83583465698723
 21
90.93336983912228
 31
0.0
  0
LINE
  5
8EE6
330
18
100
AcDbEntity
  8
0
100
AcDbLine
 10
53.83583465698723
 20
90.93336983912228
 30
0.0
 11
57.53583465698705
 21
90.93336983912228
 31
0.0
  0
LINE
  5
8EE7
330
18
100
AcDbEntity
  8
0
100
AcDbLine
 10
57.53583465698705
 20
90.93336983912228
 30
0.0
 11
57.53583465698705
 21
101.1583698391222
 31
0.0
  0
VIEWPORT
  5
8F34
330
8F30
100
AcDbEntity
 67
     1
  8
0
100
AcDbViewport
 10
202.4999999999999
 20
128.4999999999999
 30
0.0
 40
486.0
 41
308.3999999999999
 68
     1
 69
     1
 12
202.4999999999999
 22
128.4999999999999
 13
0.0
 23
0.0
 14
0.5
 24
0.5
 15
0.0
 25
0.0
 16
0.0
 26
0.0
 36
1.0
 17
0.0
 27
0.0
 37
0.0
 42
50.0
 43
0.0
 44
0.0
 45
308.3999999999999
 50
0.0
 51
0.0
 72
   100
 90
    32864
  1

281
     0
 71
     1
 74
     0
110
0.0
120
0.0
130
0.0
111
1.0
121
0.0
131
0.0
112
0.0
122
1.0
132
0.0
 79
     0
146
0.0
  0
VIEWPORT
  5
8F35
330
8F30
100
AcDbEntity
 67
     1
  8
0
100
AcDbViewport
 10
202.4999999999999
 20
128.4999999999999
 30
0.0
 40
324.0
 41
205.6
 68
     2
 69
     2
 12
216.5182343551486
 22
141.8690955157388
 13
0.0
 23
0.0
 14
0.5
 24
0.5
 15
0.0
 25
0.0
 16
0.0
 26
0.0
 36
1.0
 17
0.0
 27
0.0
 37
0.0
 42
50.0
 43
0.0
 44
0.0
 45
481.0551512770062
 50
0.0
 51
0.0
 72
   100
 90
    32864
  1

281
     0
 71
     1
 74
     0
110
0.0
120
0.0
130
0.0
111
1.0
121
0.0
131
0.0
112
0.0
122
1.0
132
0.0
 79
     0
146
0.0
  0
ENDSEC
  0
SECTION
  2
OBJECTS
  0
DICTIONARY
  5
C
330
0
100
AcDbDictionary
281
     1
  3
ACAD_GROUP
350
D
  3
ACAD_IMAGE_VARS
350
8F2E
  3
ACAD_LAYOUT
350
73F
  3
ACAD_MLINESTYLE
350
1B
  3
ACAD_PLOTSETTINGS
350
740
  3
ACAD_PLOTSTYLENAME
350
73D
  3
ACAD_SCALELIST
350
8F02
  3
AcadDim
350
61D4
  3
AcDbVariableDictionary
350
7046
  3
APPDATA
350
8F2C
  3
DWGPROPS
350
8F38
  0
DICTIONARY
  5
D
102
{ACAD_REACTORS
330
C
102
}
330
C
100
AcDbDictionary
281
     1
  0
RASTERVARIABLES
  5
8F2E
102
{ACAD_REACTORS
330
C
102
}
330
C
100
AcDbRasterVariables
 90
        0
 70
     1
 71
     1
 72
     0
  0
DICTIONARY
  5
73F
102
{ACAD_REACTORS
330
C
102
}
330
C
100
AcDbDictionary
281
     1
  3
Model
350
741
  3
Sheet1
350
8F31
  0
DICTIONARY
  5
1B
102
{ACAD_REACTORS
330
C
102
}
330
C
100
AcDbDictionary
281
     1
  3
STANDARD
350
1C
  0
DICTIONARY
  5
740
102
{ACAD_REACTORS
330
C
102
}
330
C
100
AcDbDictionary
281
     1
  0
ACDBDICTIONARYWDFLT
  5
73D
102
{ACAD_REACTORS
330
C
102
}
330
C
100
AcDbDictionary
281
     1
  3
Normal
350
73E
100
AcDbDictionaryWithDefault
340
73E
  0
DICTIONARY
  5
8F02
102
{ACAD_REACTORS
330
C
102
}
330
C
100
AcDbDictionary
281
     1
  3
A0
350
8F03
  3
A1
350
8F04
  3
A2
350
8F05
  3
A3
350
8F06
  3
A4
350
8F07
  3
A5
350
8F08
  3
A6
350
8F09
  3
A7
350
8F0A
  3
A8
350
8F0B
  3
A9
350
8F0C
  3
B0
350
8F0D
  3
B1
350
8F0E
  3
B2
350
8F0F
  3
B3
350
8F10
  3
B4
350
8F11
  3
B5
350
8F12
  3
B6
350
8F13
  3
B7
350
8F14
  3
B8
350
8F15
  3
B9
350
8F16
  3
C0
350
8F17
  3
C1
350
8F18
  3
C2
350
8F19
  3
C3
350
8F1A
  3
C4
350
8F1B
  3
C5
350
8F1C
  3
C6
350
8F1D
  3
C7
350
8F1E
  3
C8
350
8F1F
  3
C9
350
8F20
  3
D0
350
8F21
  3
D1
350
8F22
  3
D2
350
8F23
  0
XRECORD
  5
61D4
102
{ACAD_REACTORS
330
C
102
}
330
C
100
AcDbXrecord
280
     1
 90
   990106
  3

 60
     0
 61
     0
 62
     1
 63
     3
 64
     0
 65
     0
 66
     0
 67
     3
 68
     1
 69
     0
 70
     0
 71
     0
 72
     0
 40
0.0
170
     0
  0
DICTIONARY
  5
7046
102
{ACAD_REACTORS
330
C
102
}
330
C
100
AcDbDictionary
281
     1
  3
DIMASSOC
350
7047
  0
DICTIONARY
  5
8F2C
102
{ACAD_REACTORS
330
C
102
}
330
C
100
AcDbDictionary
281
     1
  0
XRECORD
  5
8F38
102
{ACAD_REACTORS
330
C
102
}
330
C
100
AcDbXrecord
280
     1
  1
DWGPROPS COOKIE
  2

  3

  4

  6

  7

  8
k-yoshida
  9

300
=
301
=
302
=
303
=
304
=
305
=
306
=
307
=
308
=
309
=
 40
0.0
 41
2451224.285162384
 42
2457315.085524421
  1

 90
        0
  0
LAYOUT
  5
741
102
{ACAD_REACTORS
330
73F
102
}
330
73F
100
AcDbPlotSettings
  1

  2
HP DesignJet 750C (D/A1) Color
  4
ISO_A3_(420.00_x_297.00_MM)
  6

 40
7.5
 41
20.0
 42
7.5
 43
20.0
 44
420.0
 45
297.0
 46
0.0
 47
0.0
 48
0.0
 49
0.0
140
0.0
141
0.0
142
1.0
143
2.081210886327633
 70
  1712
 72
     1
 73
     0
 74
     0
  7

 75
     0
147
0.4804895104909497
148
204.5102398240297
149
108.1027440438357
100
AcDbLayout
  1
Model
 70
     1
 71
     0
 10
0.0
 20
0.0
 11
12.0
 21
9.0
 12
0.0
 22
0.0
 32
0.0
 14
-54.63916534301313
 24
-94.87558648279364
 34
0.0
 15
488.4398246808489
 25
377.680444180938
 35
0.0
146
0.0
 13
0.0
 23
0.0
 33
0.0
 16
1.0
 26
0.0
 36
0.0
 17
0.0
 27
1.0
 37
0.0
 76
     0
330
18
  0
LAYOUT
  5
8F31
102
{ACAD_REACTORS
330
73F
102
}
330
73F
100
AcDbPlotSettings
  1

  2
none_device
  4
ISO_A3_(420.00_x_297.00_MM)
  6

 40
7.5
 41
20.0
 42
7.5
 43
20.0
 44
420.0
 45
297.0
 46
0.0
 47
0.0
 48
0.0
 49
0.0
140
0.0
141
0.0
142
1.0
143
1.0
 70
   688
 72
     1
 73
     0
 74
     5
  7

 75
    16
147
1.0
148
0.0
149
0.0
100
AcDbLayout
  1
Sheet1
 70
     1
 71
     1
 10
0.0
 20
0.0
 11
0.0
 21
0.0
 12
0.0
 22
0.0
 32
0.0
 14
40.49999999999999
 24
25.69999999999998
 34
0.0
 15
364.5
 25
231.3
 35
0.0
146
0.0
 13
0.0
 23
0.0
 33
0.0
 16
1.0
 26
0.0
 36
0.0
 17
0.0
 27
1.0
 37
0.0
 76
     0
330
8F30
331
8F34
  0
MLINESTYLE
  5
1C
102
{ACAD_REACTORS
330
1B
102
}
330
1B
100
AcDbMlineStyle
  2
STANDARD
 70
     0
  3

 62
   256
 51
90.0
 52
90.0
 71
     2
 49
0.5
 62
   256
  6
BYLAYER
 49
-0.5
 62
   256
  6
BYLAYER
  0
ACDBPLACEHOLDER
  5
73E
102
{ACAD_REACTORS
330
73D
102
}
330
73D
  0
ACAD_PROXY_OBJECT
  5
8F03
102
{ACAD_REACTORS
330
8F02
102
}
330
8F02
100
AcDbProxyObject
 90
      499
 91
      507
 95
   655383
 70
     0
 93
       41
310
903313A31581
 94
        0
  0
ACAD_PROXY_OBJECT
  5
8F04
102
{ACAD_REACTORS
330
8F02
102
}
330
8F02
100
AcDbProxyObject
 90
      499
 91
      507
 95
   655383
 70
     0
 93
      105
310
903313A324000000000000004000
 94
        0
  0
ACAD_PROXY_OBJECT
  5
8F05
102
{ACAD_REACTORS
330
8F02
102
}
330
8F02
100
AcDbProxyObject
 90
      499
 91
      507
 95
   655383
 70
     0
 93
      105
310
903313A344000000000000104000
 94
        0
  0
ACAD_PROXY_OBJECT
  5
8F06
102
{ACAD_REACTORS
330
8F02
102
}
330
8F02
100
AcDbProxyObject
 90
      499
 91
      507
 95
   655383
 70
     0
 93
      105
310
903313A354000000000000144000
 94
        0
  0
ACAD_PROXY_OBJECT
  5
8F07
102
{ACAD_REACTORS
330
8F02
102
}
330
8F02
100
AcDbProxyObject
 90
      499
 91
      507
 95
   655383
 70
     0
 93
      105
310
903313A384000000000000204000
 94
        0
  0
ACAD_PROXY_OBJECT
  5
8F08
102
{ACAD_REACTORS
330
8F02
102
}
330
8F02
100
AcDbProxyObject
 90
      499
 91
      507
 95
   655383
 70
     0
 93
      113
310
904313A31304000000000000244003
 94
        0
  0
ACAD_PROXY_OBJECT
  5
8F09
102
{ACAD_REACTORS
330
8F02
102
}
330
8F02
100
AcDbProxyObject
 90
      499
 91
      507
 95
   655383
 70
     0
 93
      113
310
904313A31364000000000000304003
 94
        0
  0
ACAD_PROXY_OBJECT
  5
8F0A
102
{ACAD_REACTORS
330
8F02
102
}
330
8F02
100
AcDbProxyObject
 90
      499
 91
      507
 95
   655383
 70
     0
 93
      113
310
904313A32304000000000000344003
 94
        0
  0
ACAD_PROXY_OBJECT
  5
8F0B
102
{ACAD_REACTORS
330
8F02
102
}
330
8F02
100
AcDbProxyObject
 90
      499
 91
      507
 95
   655383
 70
     0
 93
      113
310
904313A333040000000000003E4003
 94
        0
  0
ACAD_PROXY_OBJECT
  5
8F0C
102
{ACAD_REACTORS
330
8F02
102
}
330
8F02
100
AcDbProxyObject
 90
      499
 91
      507
 95
   655383
 70
     0
 93
      113
310
904313A34304000000000000444003
 94
        0
  0
ACAD_PROXY_OBJECT
  5
8F0D
102
{ACAD_REACTORS
330
8F02
102
}
330
8F02
100
AcDbProxyObject
 90
      499
 91
      507
 95
   655383
 70
     0
 93
      113
310
904313A35304000000000000494003
 94
        0
  0
ACAD_PROXY_OBJECT
  5
8F0E
102
{ACAD_REACTORS
330
8F02
102
}
330
8F02
100
AcDbProxyObject
 90
      499
 91
      507
 95
   655383
 70
     0
 93
      121
310
905313A3130304000000000000594000
 94
        0
  0
ACAD_PROXY_OBJECT
  5
8F0F
102
{ACAD_REACTORS
330
8F02
102
}
330
8F02
100
AcDbProxyObject
 90
      499
 91
      507
 95
   655383
 70
     0
 93
      105
310
903323A310000000000000010159
 94
        0
  0
ACAD_PROXY_OBJECT
  5
8F10
102
{ACAD_REACTORS
330
8F02
102
}
330
8F02
100
AcDbProxyObject
 90
      499
 91
      507
 95
   655383
 70
     0
 93
      105
310
903343A310000000000000410159
 94
        0
  0
ACAD_PROXY_OBJECT
  5
8F11
102
{ACAD_REACTORS
330
8F02
102
}
330
8F02
100
AcDbProxyObject
 90
      499
 91
      507
 95
   655383
 70
     0
 93
      105
310
903383A310000000000000810159
 94
        0
  0
ACAD_PROXY_OBJECT
  5
8F12
102
{ACAD_REACTORS
330
8F02
102
}
330
8F02
100
AcDbProxyObject
 90
      499
 91
      507
 95
   655383
 70
     0
 93
      113
310
90431303A310000000000000910140
 94
        0
  0
ACAD_PROXY_OBJECT
  5
8F13
102
{ACAD_REACTORS
330
8F02
102
}
330
8F02
100
AcDbProxyObject
 90
      499
 91
      507
 95
   655383
 70
     0
 93
      121
310
9053130303A310000000000001650100
 94
        0
  0
ACAD_PROXY_OBJECT
  5
8F14
102
{ACAD_REACTORS
330
8F02
102
}
330
8F02
100
AcDbProxyObject
 90
      499
 91
      507
 95
   655383
 70
     0
 93
      257
310
90E312F31323822203D2031272D3022000000000000200FC000000000000284000
 94
        0
  0
ACAD_PROXY_OBJECT
  5
8F15
102
{ACAD_REACTORS
330
8F02
102
}
330
8F02
100
AcDbProxyObject
 90
      499
 91
      507
 95
   655383
 70
     0
 93
      249
310
90D312F363422203D2031272D3022000000000000240FC000000000000284040
 94
        0
  0
ACAD_PROXY_OBJECT
  5
8F16
102
{ACAD_REACTORS
330
8F02
102
}
330
8F02
100
AcDbProxyObject
 90
      499
 91
      507
 95
   655383
 70
     0
 93
      249
310
90D312F333222203D2031272D3022000000000000280FC000000000000284040
 94
        0
  0
ACAD_PROXY_OBJECT
  5
8F17
102
{ACAD_REACTORS
330
8F02
102
}
330
8F02
100
AcDbProxyObject
 90
      499
 91
      507
 95
   655383
 70
     0
 93
      249
310
90D312F313622203D2031272D30220000000000002C0FC000000000000284040
 94
        0
  0
ACAD_PROXY_OBJECT
  5
8F18
102
{ACAD_REACTORS
330
8F02
102
}
330
8F02
100
AcDbProxyObject
 90
      499
 91
      507
 95
   655383
 70
     0
 93
      249
310
90D332F333222203D2031272D30220000000000002E0FC000000000000284040
 94
        0
  0
ACAD_PROXY_OBJECT
  5
8F19
102
{ACAD_REACTORS
330
8F02
102
}
330
8F02
100
AcDbProxyObject
 90
      499
 91
      507
 95
   655383
 70
     0
 93
      241
310
90C312F3822203D2031272D3022000000000000300FC000000000000284040
 94
        0
  0
ACAD_PROXY_OBJECT
  5
8F1A
102
{ACAD_REACTORS
330
8F02
102
}
330
8F02
100
AcDbProxyObject
 90
      499
 91
      507
 95
   655383
 70
     0
 93
      249
310
90D332F313622203D2031272D3022000000000000320FC000000000000284040
 94
        0
  0
ACAD_PROXY_OBJECT
  5
8F1B
102
{ACAD_REACTORS
330
8F02
102
}
330
8F02
100
AcDbProxyObject
 90
      499
 91
      507
 95
   655383
 70
     0
 93
      241
310
90C312F3422203D2031272D3022000000000000340FC000000000000284040
 94
        0
  0
ACAD_PROXY_OBJECT
  5
8F1C
102
{ACAD_REACTORS
330
8F02
102
}
330
8F02
100
AcDbProxyObject
 90
      499
 91
      507
 95
   655383
 70
     0
 93
      241
310
90C332F3822203D2031272D3022000000000000360FC000000000000284040
 94
        0
  0
ACAD_PROXY_OBJECT
  5
8F1D
102
{ACAD_REACTORS
330
8F02
102
}
330
8F02
100
AcDbProxyObject
 90
      499
 91
      507
 95
   655383
 70
     0
 93
      241
310
90C312F3222203D2031272D3022000000000000380FC000000000000284040
 94
        0
  0
ACAD_PROXY_OBJECT
  5
8F1E
102
{ACAD_REACTORS
330
8F02
102
}
330
8F02
100
AcDbProxyObject
 90
      499
 91
      507
 95
   655383
 70
     0
 93
      241
310
90C332F3422203D2031272D30220000000000003A0FC000000000000284040
 94
        0
  0
ACAD_PROXY_OBJECT
  5
8F1F
102
{ACAD_REACTORS
330
8F02
102
}
330
8F02
100
AcDbProxyObject
 90
      499
 91
      507
 95
   655383
 70
     0
 93
      161
310
90A3122203D2031272D30224000000000000284020
 94
        0
  0
ACAD_PROXY_OBJECT
  5
8F20
102
{ACAD_REACTORS
330
8F02
102
}
330
8F02
100
AcDbProxyObject
 90
      499
 91
      507
 95
   655383
 70
     0
 93
      257
310
90E312D312F3222203D2031272D30220000000000003E0FC000000000000284000
 94
        0
  0
ACAD_PROXY_OBJECT
  5
8F21
102
{ACAD_REACTORS
330
8F02
102
}
330
8F02
100
AcDbProxyObject
 90
      499
 91
      507
 95
   655383
 70
     0
 93
      225
310
90A3322203D2031272D302200000000000002100000000000000284000
 94
        0
  0
ACAD_PROXY_OBJECT
  5
8F22
102
{ACAD_REACTORS
330
8F02
102
}
330
8F02
100
AcDbProxyObject
 90
      499
 91
      507
 95
   655383
 70
     0
 93
      225
310
90A3622203D2031272D302200000000000006100000000000000284000
 94
        0
  0
ACAD_PROXY_OBJECT
  5
8F23
102
{ACAD_REACTORS
330
8F02
102
}
330
8F02
100
AcDbProxyObject
 90
      499
 91
      507
 95
   655383
 70
     0
 93
      249
310
90D31272D3022203D2031272D30220000000000000A100000000000000284040
 94
        0
  0
DICTIONARYVAR
  5
7047
102
{ACAD_REACTORS
330
7046
102
}
330
7046
100
DictionaryVariables
280
     0
  1
1
  0
ENDSEC
  0
EOF
