  0
SECTION
  2
HEADER
  9
$ACADVER
  1
AC1015
  9
$ACADMAINTVER
 70
    10
  9
$DWGCODEPAGE
  3
ANSI_932
  9
$INSBASE
 10
0.0
 20
0.0
 30
0.0
  9
$EXTMIN
 10
110.42827895866
 20
241.4926376734718
 30
0.0
  9
$EXTMAX
 10
314.8108730315978
 20
399.958788511424
 30
0.0
  9
$LIMMIN
 10
0.0
 20
0.0
  9
$LIMMAX
 10
420.0
 20
297.0
  9
$ORTHOMODE
 70
     1
  9
$REGENMODE
 70
     1
  9
$FILLMODE
 70
     1
  9
$QTEXTMODE
 70
     0
  9
$MIRRTEXT
 70
     1
  9
$LTSCALE
 40
1.0
  9
$ATTMODE
 70
     1
  9
$TEXTSIZE
 40
3.0
  9
$TRACEWID
 40
1.0
  9
$TEXTSTYLE
  7
STANDARD
  9
$CLAYER
  8
0
  9
$CELTYPE
  6
BYLAYER
  9
$CECOLOR
 62
   256
  9
$CELTSCALE
 40
1.0
  9
$DISPSILH
 70
     0
  9
$DIMSCALE
 40
1.0
  9
$DIMASZ
 40
3.0
  9
$DIMEXO
 40
2.0
  9
$DIMDLI
 40
5.0
  9
$DIMRND
 40
0.0
  9
$DIMDLE
 40
0.0
  9
$DIMEXE
 40
0.75
  9
$DIMTP
 40
0.0
  9
$DIMTM
 40
0.0
  9
$DIMTXT
 40
6.0
  9
$DIMCEN
 40
2.5
  9
$DIMTSZ
 40
0.0
  9
$DIMTOL
 70
     0
  9
$DIMLIM
 70
     0
  9
$DIMTIH
 70
     0
  9
$DIMTOH
 70
     0
  9
$DIMSE1
 70
     0
  9
$DIMSE2
 70
     0
  9
$DIMTAD
 70
     1
  9
$DIMZIN
 70
     9
  9
$DIMBLK
  1

  9
$DIMASO
 70
     1
  9
$DIMSHO
 70
     1
  9
$DIMPOST
  1

  9
$DIMAPOST
  1

  9
$DIMALT
 70
     0
  9
$DIMALTD
 70
     4
  9
$DIMALTF
 40
0.0394
  9
$DIMLFAC
 40
1.0
  9
$DIMTOFL
 70
     1
  9
$DIMTVP
 40
0.0
  9
$DIMTIX
 70
     0
  9
$DIMSOXD
 70
     0
  9
$DIMSAH
 70
     1
  9
$DIMBLK1
  1
OPEN
  9
$DIMBLK2
  1
OPEN
  9
$DIMSTYLE
  2
STANDARD
  9
$DIMCLRD
 70
     0
  9
$DIMCLRE
 70
     0
  9
$DIMCLRT
 70
     7
  9
$DIMTFAC
 40
1.0
  9
$DIMGAP
 40
1.0
  9
$DIMJUST
 70
     0
  9
$DIMSD1
 70
     0
  9
$DIMSD2
 70
     0
  9
$DIMTOLJ
 70
     1
  9
$DIMTZIN
 70
     9
  9
$DIMALTZ
 70
     0
  9
$DIMALTTZ
 70
     0
  9
$DIMUPT
 70
     0
  9
$DIMDEC
 70
     4
  9
$DIMTDEC
 70
     4
  9
$DIMALTU
 70
     8
  9
$DIMALTTD
 70
     4
  9
$DIMTXSTY
  7
STANDARD
  9
$DIMAUNIT
 70
     0
  9
$DIMADEC
 70
     0
  9
$DIMALTRND
 40
0.0
  9
$DIMAZIN
 70
     2
  9
$DIMDSEP
 70
    46
  9
$DIMATFIT
 70
     3
  9
$DIMFRAC
 70
     0
  9
$DIMLDRBLK
  1
OPEN
  9
$DIMLUNIT
 70
     2
  9
$DIMLWD
 70
    -2
  9
$DIMLWE
 70
    -2
  9
$DIMTMOVE
 70
     2
  9
$LUNITS
 70
     2
  9
$LUPREC
 70
     4
  9
$SKETCHINC
 40
1.0
  9
$FILLETRAD
 40
10.0
  9
$AUNITS
 70
     0
  9
$AUPREC
 70
     0
  9
$MENU
  1
.
  9
$ELEVATION
 40
0.0
  9
$PELEVATION
 40
0.0
  9
$THICKNESS
 40
0.0
  9
$LIMCHECK
 70
     0
  9
$CHAMFERA
 40
10.0
  9
$CHAMFERB
 40
10.0
  9
$CHAMFERC
 40
20.0
  9
$CHAMFERD
 40
0.0
  9
$SKPOLY
 70
     0
  9
$TDCREATE
 40
2451224.660162384
  9
$TDUCREATE
 40
2451224.285162384
  9
$TDUPDATE
 40
2457366.586146550
  9
$TDUUPDATE
 40
2457366.211146550
  9
$TDINDWG
 40
0.7851292708
  9
$TDUSRTIMER
 40
2457352.096052754
  9
$USRTIMER
 70
     1
  9
$ANGBASE
 50
0.0
  9
$ANGDIR
 70
     0
  9
$PDMODE
 70
     0
  9
$PDSIZE
 40
0.0
  9
$PLINEWID
 40
0.0
  9
$SPLFRAME
 70
     0
  9
$SPLINETYPE
 70
     6
  9
$SPLINESEGS
 70
     8
  9
$HANDSEED
  5
7D96
  9
$SURFTAB1
 70
     6
  9
$SURFTAB2
 70
     6
  9
$SURFTYPE
 70
     6
  9
$SURFU
 70
     6
  9
$SURFV
 70
     6
  9
$UCSBASE
  2

  9
$UCSNAME
  2

  9
$UCSORG
 10
0.0
 20
0.0
 30
0.0
  9
$UCSXDIR
 10
1.0
 20
0.0
 30
0.0
  9
$UCSYDIR
 10
0.0
 20
1.0
 30
0.0
  9
$UCSORTHOREF
  2

  9
$UCSORTHOVIEW
 70
     0
  9
$UCSORGTOP
 10
0.0
 20
0.0
 30
0.0
  9
$UCSORGBOTTOM
 10
0.0
 20
0.0
 30
0.0
  9
$UCSORGLEFT
 10
0.0
 20
0.0
 30
0.0
  9
$UCSORGRIGHT
 10
0.0
 20
0.0
 30
0.0
  9
$UCSORGFRONT
 10
0.0
 20
0.0
 30
0.0
  9
$UCSORGBACK
 10
0.0
 20
0.0
 30
0.0
  9
$PUCSBASE
  2

  9
$PUCSNAME
  2

  9
$PUCSORG
 10
0.0
 20
0.0
 30
0.0
  9
$PUCSXDIR
 10
1.0
 20
0.0
 30
0.0
  9
$PUCSYDIR
 10
0.0
 20
1.0
 30
0.0
  9
$PUCSORTHOREF
  2

  9
$PUCSORTHOVIEW
 70
     0
  9
$PUCSORGTOP
 10
0.0
 20
0.0
 30
0.0
  9
$PUCSORGBOTTOM
 10
0.0
 20
0.0
 30
0.0
  9
$PUCSORGLEFT
 10
0.0
 20
0.0
 30
0.0
  9
$PUCSORGRIGHT
 10
0.0
 20
0.0
 30
0.0
  9
$PUCSORGFRONT
 10
0.0
 20
0.0
 30
0.0
  9
$PUCSORGBACK
 10
0.0
 20
0.0
 30
0.0
  9
$USERI1
 70
     0
  9
$USERI2
 70
     0
  9
$USERI3
 70
     0
  9
$USERI4
 70
     0
  9
$USERI5
 70
     0
  9
$USERR1
 40
0.0
  9
$USERR2
 40
0.0
  9
$USERR3
 40
0.0
  9
$USERR4
 40
0.0
  9
$USERR5
 40
0.0
  9
$WORLDVIEW
 70
     1
  9
$SHADEDGE
 70
     3
  9
$SHADEDIF
 70
    70
  9
$TILEMODE
 70
     1
  9
$MAXACTVP
 70
    48
  9
$PINSBASE
 10
0.0
 20
0.0
 30
0.0
  9
$PLIMCHECK
 70
     0
  9
$PEXTMIN
 10
1.000000000000000E+20
 20
1.000000000000000E+20
 30
1.000000000000000E+20
  9
$PEXTMAX
 10
-1.000000000000000E+20
 20
-1.000000000000000E+20
 30
-1.000000000000000E+20
  9
$PLIMMIN
 10
-3.201144219425714
 20
-3.185999808670885
  9
$PLIMMAX
 10
416.7455110540116
 20
293.7399950643759
  9
$UNITMODE
 70
     0
  9
$VISRETAIN
 70
     1
  9
$PLINEGEN
 70
     0
  9
$PSLTSCALE
 70
     0
  9
$TREEDEPTH
 70
  3020
  9
$CMLSTYLE
  2
STANDARD
  9
$CMLJUST
 70
     0
  9
$CMLSCALE
 40
20.0
  9
$PROXYGRAPHICS
 70
     1
  9
$MEASUREMENT
 70
     1
  9
$CELWEIGHT
370
    -1
  9
$ENDCAPS
280
     0
  9
$JOINSTYLE
280
     0
  9
$LWDISPLAY
290
     1
  9
$INSUNITS
 70
     0
  9
$HYPERLINKBASE
  1

  9
$STYLESHEET
  1

  9
$XEDIT
290
     1
  9
$CEPSNTYPE
380
     0
  9
$PSTYLEMODE
290
     1
  9
$FINGERPRINTGUID
  2
{6B368F64-F7EB-11D4-BFBA-00004C030E53}
  9
$VERSIONGUID
  2
{9801A18A-FE5D-4256-BD0C-0C27451335B7}
  9
$EXTNAMES
290
     1
  9
$PSVPSCALE
 40
0.0
  9
$OLESTARTUP
290
     0
  0
ENDSEC
  0
SECTION
  2
CLASSES
  0
CLASS
  1
HATCH
  2
AcDbHatch
  3
AutoCAD 2000
 90
    32768
280
     0
281
     1
  0
CLASS
  1
LWPOLYLINE
  2
AcDbPolyline
  3
AutoCAD 2000
 90
    32768
280
     0
281
     1
  0
CLASS
  1
ACDBDICTIONARYWDFLT
  2
AcDbDictionaryWithDefault
  3
AutoCAD 2000
 90
        0
280
     0
281
     0
  0
CLASS
  1
ACDBPLACEHOLDER
  2
AcDbPlaceHolder
  3
AutoCAD 2000
 90
        0
280
     0
281
     0
  0
CLASS
  1
LAYOUT
  2
AcDbLayout
  3
AutoCAD 2000
 90
        0
280
     0
281
     0
  0
CLASS
  1
DICTIONARYVAR
  2
AcDbDictionaryVar
  3
AutoCAD 2000
 90
        0
280
     0
281
     0
  0
CLASS
  1
VISUALSTYLE
  2
AcDbVisualStyle
  3
ObjectDBX Classes
 90
    36863
280
     0
281
     0
  0
CLASS
  1
SCALE
  2
AcDbScale
  3
ObjectDBX Classes
 90
     1153
280
     0
281
     0
  0
CLASS
  1
MATERIAL
  2
AcDbMaterial
  3
ObjectDBX Classes
 90
    33921
280
     0
281
     0
  0
CLASS
  1
TABLESTYLE
  2
AcDbTableStyle
  3
ObjectDBX Classes
 90
    36863
280
     0
281
     0
  0
CLASS
  1
MLEADERSTYLE
  2
AcDbMLeaderStyle
  3
ACDB_MLEADERSTYLE_CLASS
 90
    36863
280
     0
281
     0
  0
CLASS
  1
SUN
  2
AcDbSun
  3
SCENEOE
 90
     1153
280
     0
281
     0
  0
CLASS
  1
RASTERVARIABLES
  2
AcDbRasterVariables
  3
ISM
 90
        0
280
     0
281
     0
  0
ENDSEC
  0
SECTION
  2
TABLES
  0
TABLE
  2
VPORT
  5
8
330
0
100
AcDbSymbolTable
 70
     2
  0
VPORT
  5
7D95
330
8
100
AcDbSymbolTableRecord
100
AcDbViewportTableRecord
  2
*Active
 70
     0
 10
0.0
 20
0.0
 11
1.0
 21
1.0
 12
212.1714186347228
 22
331.9462764661342
 13
0.0
 23
0.0
 14
10.0
 24
10.0
 15
10.0
 25
10.0
 16
0.0
 26
0.0
 36
1.0
 17
0.0
 27
0.0
 37
0.0
 40
181.4926412112209
 41
1.562182741116751
 42
50.0
 43
0.0
 44
0.0
 50
0.0
 51
0.0
 71
    16
 72
   100
 73
     1
 74
     0
 75
     0
 76
     0
 77
     0
 78
     0
281
     0
 65
     1
110
0.0
120
0.0
130
0.0
111
1.0
121
0.0
131
0.0
112
0.0
122
1.0
132
0.0
 79
     0
146
0.0
  0
ENDTAB
  0
TABLE
  2
LTYPE
  5
5
330
0
100
AcDbSymbolTable
 70
     1
  0
LTYPE
  5
12
330
5
100
AcDbSymbolTableRecord
100
AcDbLinetypeTableRecord
  2
BYBLOCK
 70
     0
  3

 72
    65
 73
     0
 40
0.0
  0
LTYPE
  5
13
330
5
100
AcDbSymbolTableRecord
100
AcDbLinetypeTableRecord
  2
BYLAYER
 70
     0
  3

 72
    65
 73
     0
 40
0.0
  0
LTYPE
  5
14
330
5
100
AcDbSymbolTableRecord
100
AcDbLinetypeTableRecord
  2
CONTINUOUS
 70
     0
  3
Solid line
 72
    65
 73
     0
 40
0.0
  0
ENDTAB
  0
TABLE
  2
LAYER
  5
2
102
{ACAD_XDICTIONARY
360
7D2B
102
}
330
0
100
AcDbSymbolTable
 70
     1
  0
LAYER
  5
E
330
2
100
AcDbSymbolTableRecord
100
AcDbLayerTableRecord
  2
0
 70
     0
 62
     7
  6
CONTINUOUS
370
    -3
390
73E
  0
ENDTAB
  0
TABLE
  2
STYLE
  5
3
330
0
100
AcDbSymbolTable
 70
     2
  0
STYLE
  5
F
330
3
100
AcDbSymbolTableRecord
100
AcDbTextStyleTableRecord
  2
STANDARD
 70
     0
 40
0.0
 41
1.0
 50
0.0
 71
     0
 42
3.0
  3
MS Gothic.ttf
  4

1001
ACAD
1000
MS Gothic
1071
    32817
  0
STYLE
  5
35
330
3
100
AcDbSymbolTableRecord
100
AcDbTextStyleTableRecord
  2
MSｺﾞｼｯｸ
 70
     0
 40
0.0
 41
1.0
 50
0.0
 71
     0
 42
5.0
  3
MS Gothic.ttf
  4

1001
ACAD
1000
MS Gothic
1071
    32817
  0
ENDTAB
  0
TABLE
  2
VIEW
  5
6
330
0
100
AcDbSymbolTable
 70
     0
  0
ENDTAB
  0
TABLE
  2
UCS
  5
7
330
0
100
AcDbSymbolTable
 70
     0
  0
ENDTAB
  0
TABLE
  2
APPID
  5
9
330
0
100
AcDbSymbolTable
 70
     1
  0
APPID
  5
10
330
9
100
AcDbSymbolTableRecord
100
AcDbRegAppTableRecord
  2
ACAD
 70
     0
  0
ENDTAB
  0
TABLE
  2
DIMSTYLE
  5
A
330
0
100
AcDbSymbolTable
 70
     1
100
AcDbDimStyleTable
 71
     0
  0
DIMSTYLE
105
1D
330
A
100
AcDbSymbolTableRecord
100
AcDbDimStyleTableRecord
  2
STANDARD
 70
     0
 78
     8
 79
     2
140
3.0
340
F
341
89E
342
89E
  0
ENDTAB
  0
TABLE
  2
BLOCK_RECORD
  5
1
330
0
100
AcDbSymbolTable
 70
     2
  0
BLOCK_RECORD
  5
18
330
1
100
AcDbSymbolTableRecord
100
AcDbBlockTableRecord
  2
*MODEL_SPACE
340
741
  0
BLOCK_RECORD
  5
15
330
1
100
AcDbSymbolTableRecord
100
AcDbBlockTableRecord
  2
*PAPER_SPACE
340
742
  0
BLOCK_RECORD
  5
24
330
1
100
AcDbSymbolTableRecord
100
AcDbBlockTableRecord
  2
_OPEN
340
0
  0
BLOCK_RECORD
  5
89E
330
1
100
AcDbSymbolTableRecord
100
AcDbBlockTableRecord
  2
_Open30
340
0
  0
ENDTAB
  0
ENDSEC
  0
SECTION
  2
BLOCKS
  0
BLOCK
  5
19
330
18
100
AcDbEntity
  8
0
100
AcDbBlockBegin
  2
*MODEL_SPACE
 70
     0
 10
0.0
 20
0.0
 30
0.0
  3
*MODEL_SPACE
  1

  0
ENDBLK
  5
1A
330
18
100
AcDbEntity
  8
0
100
AcDbBlockEnd
  0
BLOCK
  5
16
330
15
100
AcDbEntity
 67
     1
  8
0
100
AcDbBlockBegin
  2
*PAPER_SPACE
 70
     0
 10
0.0
 20
0.0
 30
0.0
  3
*PAPER_SPACE
  1

  0
ENDBLK
  5
17
330
15
100
AcDbEntity
 67
     1
  8
0
100
AcDbBlockEnd
  0
BLOCK
  5
25
330
24
100
AcDbEntity
  8
0
100
AcDbBlockBegin
  2
_OPEN
 70
     0
 10
0.0
 20
0.0
 30
0.0
  3
_OPEN
  1

  0
LINE
  5
26
330
24
100
AcDbEntity
  8
0
  6
ByBlock
 62
     0
100
AcDbLine
 10
-1.0
 20
0.1666666666666666
 30
0.0
 11
0.0
 21
0.0
 31
0.0
  0
LINE
  5
27
330
24
100
AcDbEntity
  8
0
  6
ByBlock
 62
     0
100
AcDbLine
 10
0.0
 20
0.0
 30
0.0
 11
-1.0
 21
-0.1666666666666666
 31
0.0
  0
LINE
  5
28
330
24
100
AcDbEntity
  8
0
  6
ByBlock
 62
     0
100
AcDbLine
 10
0.0
 20
0.0
 30
0.0
 11
-1.0
 21
0.0
 31
0.0
  0
ENDBLK
  5
29
330
24
100
AcDbEntity
  8
0
100
AcDbBlockEnd
  0
BLOCK
  5
8A2
330
89E
100
AcDbEntity
  8
0
100
AcDbBlockBegin
  2
_Open30
 70
     0
 10
0.0
 20
0.0
 30
0.0
  3
_Open30
  1

  0
LINE
  5
89F
330
89E
100
AcDbEntity
  8
0
  6
ByBlock
 62
     0
370
    -2
100
AcDbLine
 10
-1.0
 20
0.26794919
 30
0.0
 11
0.0
 21
0.0
 31
0.0
  0
LINE
  5
8A0
330
89E
100
AcDbEntity
  8
0
  6
ByBlock
 62
     0
370
    -2
100
AcDbLine
 10
0.0
 20
0.0
 30
0.0
 11
-1.0
 21
-0.26794919
 31
0.0
  0
LINE
  5
8A1
330
89E
100
AcDbEntity
  8
0
  6
ByBlock
 62
     0
370
    -2
100
AcDbLine
 10
0.0
 20
0.0
 30
0.0
 11
-1.0
 21
0.0
 31
0.0
  0
ENDBLK
  5
8A3
330
89E
100
AcDbEntity
  8
0
100
AcDbBlockEnd
  0
ENDSEC
  0
SECTION
  2
ENTITIES
  0
ARC
  5
7A30
330
18
100
AcDbEntity
  8
0
100
AcDbCircle
 10
130.4282789586691
 20
395.9587885114238
 30
0.0
 40
2.25
100
AcDbArc
 50
180.0
 51
0.0
  0
LINE
  5
7A31
330
18
100
AcDbEntity
  8
0
100
AcDbLine
 10
115.428278958669
 20
399.9587885114238
 30
0.0
 11
115.4282789586686
 21
389.9587885114241
 31
0.0
  0
LINE
  5
7A32
330
18
100
AcDbEntity
  8
0
100
AcDbLine
 10
145.4282789586694
 20
399.9587885114235
 30
0.0
 11
145.4282789586576
 21
279.9587885114232
 31
0.0
  0
LINE
  5
7A33
330
18
100
AcDbEntity
  8
0
100
AcDbLine
 10
110.4282789586681
 20
389.9587885114237
 30
0.0
 11
110.42827895866
 21
289.9587885114236
 31
0.0
  0
LINE
  5
7A34
330
18
100
AcDbEntity
  8
0
100
AcDbLine
 10
145.4282789586681
 20
389.958788511424
 30
0.0
 11
145.4282789586594
 21
289.9587885114236
 31
0.0
  0
LINE
  5
7A35
330
18
100
AcDbEntity
  8
0
100
AcDbLine
 10
127.0282789586671
 20
313.7587885114238
 30
0.0
 11
127.0282789586671
 21
313.4537885114238
 31
0.0
  0
LINE
  5
7A36
330
18
100
AcDbEntity
  8
0
100
AcDbLine
 10
127.0282789586671
 20
313.7587885114238
 30
0.0
 11
127.0282789586671
 21
312.9587885114236
 31
0.0
  0
LINE
  5
7A37
330
18
100
AcDbEntity
  8
0
100
AcDbLine
 10
125.4282789586673
 20
313.7587885114238
 30
0.0
 11
125.4282789586673
 21
312.9587885114236
 31
0.0
  0
LINE
  5
7A38
330
18
100
AcDbEntity
  8
0
100
AcDbLine
 10
124.928278958665
 20
313.7587885114238
 30
0.0
 11
124.9282789586654
 21
312.9587885114237
 31
0.0
  0
LINE
  5
7A39
330
18
100
AcDbEntity
  8
0
100
AcDbLine
 10
134.2782789586672
 20
313.7587885114238
 30
0.0
 11
134.2782789586672
 21
313.4537885114238
 31
0.0
  0
LINE
  5
7A3A
330
18
100
AcDbEntity
  8
0
100
AcDbLine
 10
128.6816537981894
 20
321.0637885114238
 30
0.0
 11
129.6816537981894
 21
321.3637885114237
 31
0.0
  0
LINE
  5
7A3B
330
18
100
AcDbEntity
  8
0
100
AcDbLine
 10
128.6816537981894
 20
318.6637885114237
 30
0.0
 11
129.6816537981894
 21
318.3637885114237
 31
0.0
  0
LINE
  5
7A3C
330
18
100
AcDbEntity
  8
0
100
AcDbLine
 10
128.6816537981894
 20
314.8537885114237
 30
0.0
 11
129.6816537981894
 21
314.5537885114238
 31
0.0
  0
LINE
  5
7A3D
330
18
100
AcDbEntity
  8
0
100
AcDbLine
 10
128.6816537981894
 20
317.2537885114238
 30
0.0
 11
129.6816537981894
 21
317.5537885114238
 31
0.0
  0
LINE
  5
7A3E
330
18
100
AcDbEntity
  8
0
100
AcDbLine
 10
125.6816537981894
 20
321.0637885114238
 30
0.0
 11
128.6816537981894
 21
321.0637885114238
 31
0.0
  0
LINE
  5
7A3F
330
18
100
AcDbEntity
  8
0
100
AcDbLine
 10
125.6816537981894
 20
318.6637885114237
 30
0.0
 11
128.6816537981894
 21
318.6637885114237
 31
0.0
  0
LINE
  5
7A40
330
18
100
AcDbEntity
  8
0
100
AcDbLine
 10
125.6816537981894
 20
321.0637885114238
 30
0.0
 11
125.6816537981894
 21
318.6637885114237
 31
0.0
  0
LINE
  5
7A41
330
18
100
AcDbEntity
  8
0
100
AcDbLine
 10
128.6816537981894
 20
321.0637885114238
 30
0.0
 11
128.6816537981894
 21
318.6637885114237
 31
0.0
  0
LINE
  5
7A42
330
18
100
AcDbEntity
  8
0
100
AcDbLine
 10
125.6816537981894
 20
317.2537885114238
 30
0.0
 11
128.6816537981894
 21
317.2537885114238
 31
0.0
  0
LINE
  5
7A43
330
18
100
AcDbEntity
  8
0
100
AcDbLine
 10
125.6816537981894
 20
314.8537885114237
 30
0.0
 11
128.6816537981894
 21
314.8537885114237
 31
0.0
  0
LINE
  5
7A44
330
18
100
AcDbEntity
  8
0
100
AcDbLine
 10
125.6816537981894
 20
317.2537885114238
 30
0.0
 11
125.6816537981894
 21
314.8537885114237
 31
0.0
  0
LINE
  5
7A45
330
18
100
AcDbEntity
  8
0
100
AcDbLine
 10
128.6816537981894
 20
317.2537885114238
 30
0.0
 11
128.6816537981894
 21
314.8537885114237
 31
0.0
  0
LINE
  5
7A46
330
18
100
AcDbEntity
  8
0
100
AcDbLine
 10
125.1816537981894
 20
321.3637885114237
 30
0.0
 11
125.1816537981894
 21
318.3637885114237
 31
0.0
  0
LINE
  5
7A47
330
18
100
AcDbEntity
  8
0
100
AcDbLine
 10
125.1816537981894
 20
317.5537885114238
 30
0.0
 11
125.1816537981894
 21
314.5537885114238
 31
0.0
  0
LINE
  5
7A48
330
18
100
AcDbEntity
  8
0
100
AcDbLine
 10
125.1816537981894
 20
317.5537885114238
 30
0.0
 11
129.6816537981894
 21
317.5537885114238
 31
0.0
  0
LINE
  5
7A49
330
18
100
AcDbEntity
  8
0
100
AcDbLine
 10
125.1816537981894
 20
321.3637885114237
 30
0.0
 11
129.6816537981894
 21
321.3637885114237
 31
0.0
  0
LINE
  5
7A4A
330
18
100
AcDbEntity
  8
0
100
AcDbLine
 10
125.1816537981894
 20
318.3637885114237
 30
0.0
 11
129.6816537981894
 21
318.3637885114238
 31
0.0
  0
LINE
  5
7A4B
330
18
100
AcDbEntity
  8
0
100
AcDbLine
 10
124.6816537981894
 20
322.1587885114237
 30
0.0
 11
135.7816537981892
 21
322.1587885114237
 31
0.0
  0
LINE
  5
7A4C
330
18
100
AcDbEntity
  8
0
100
AcDbLine
 10
125.1816537981894
 20
314.5537885114238
 30
0.0
 11
129.6816537981894
 21
314.5537885114238
 31
0.0
  0
LINE
  5
7A4D
330
18
100
AcDbEntity
  8
0
100
AcDbLine
 10
125.6816537981894
 20
321.0637885114238
 30
0.0
 11
125.1816537981894
 21
321.3637885114237
 31
0.0
  0
LINE
  5
7A4E
330
18
100
AcDbEntity
  8
0
100
AcDbLine
 10
125.1816537981894
 20
318.3637885114237
 30
0.0
 11
125.6816537981894
 21
318.6637885114237
 31
0.0
  0
LINE
  5
7A4F
330
18
100
AcDbEntity
  8
0
100
AcDbLine
 10
125.1816537981894
 20
314.5537885114238
 30
0.0
 11
125.6816537981894
 21
314.8537885114237
 31
0.0
  0
LINE
  5
7A50
330
18
100
AcDbEntity
  8
0
100
AcDbLine
 10
125.6816537981894
 20
317.2537885114238
 30
0.0
 11
125.1816537981894
 21
317.5537885114238
 31
0.0
  0
LINE
  5
7A51
330
18
100
AcDbEntity
  8
0
100
AcDbLine
 10
124.6816537981894
 20
313.7587885114238
 30
0.0
 11
135.7816537981892
 21
313.7587885114238
 31
0.0
  0
LINE
  5
7A52
330
18
100
AcDbEntity
  8
0
100
AcDbLine
 10
124.6816537981894
 20
322.1587885114237
 30
0.0
 11
124.6816537981894
 21
313.7587885114238
 31
0.0
  0
LINE
  5
7A53
330
18
100
AcDbEntity
  8
0
100
AcDbLine
 10
135.7816537981892
 20
322.1587885114237
 30
0.0
 11
135.7816537981892
 21
313.7587885114238
 31
0.0
  0
LINE
  5
7A54
330
18
100
AcDbEntity
  8
0
100
AcDbLine
 10
134.7816537981892
 20
322.1587885114237
 30
0.0
 11
134.7816537981892
 21
313.7587885114238
 31
0.0
  0
LINE
  5
7A55
330
18
100
AcDbEntity
  8
0
100
AcDbLine
 10
130.6816537981894
 20
322.1587885114237
 30
0.0
 11
130.6816537981894
 21
313.7587885114238
 31
0.0
  0
LINE
  5
7A56
330
18
100
AcDbEntity
  8
0
100
AcDbLine
 10
129.6816537981894
 20
322.1587885114237
 30
0.0
 11
129.6816537981894
 21
313.7587885114238
 31
0.0
  0
LINE
  5
7A57
330
18
100
AcDbEntity
  8
0
100
AcDbLine
 10
125.4282789586673
 20
322.9587885114237
 30
0.0
 11
125.4282789586673
 21
322.1587885114239
 31
0.0
  0
LINE
  5
7A58
330
18
100
AcDbEntity
  8
0
100
AcDbLine
 10
127.0282789586671
 20
322.9587885114237
 30
0.0
 11
127.0282789586671
 21
322.1587885114239
 31
0.0
  0
LINE
  5
7A59
330
18
100
AcDbEntity
  8
0
100
AcDbLine
 10
134.2782789586672
 20
322.4637885114236
 30
0.0
 11
127.0282789586671
 21
322.4637885114236
 31
0.0
  0
LINE
  5
7A5A
330
18
100
AcDbEntity
  8
0
100
AcDbLine
 10
135.9282789586659
 20
322.9587885114237
 30
0.0
 11
124.9282789586654
 21
322.9587885114237
 31
0.0
  0
MTEXT
  5
7A5B
330
18
100
AcDbEntity
  8
0
100
AcDbMText
 10
126.5460391854599
 20
329.0434503602774
 30
0.0
 40
4.0
 41
13.7408
 71
     1
 72
     5
  1
TB2
 73
     1
 44
1.0
  0
LINE
  5
7A5C
330
18
100
AcDbEntity
  8
0
100
AcDbLine
 10
134.2782789586672
 20
313.4537885114243
 30
0.0
 11
127.0282789586671
 21
313.4537885114243
 31
0.0
  0
CIRCLE
  5
7A5D
330
18
100
AcDbEntity
  8
0
100
AcDbCircle
 10
130.42827895866
 20
296.9587885114238
 30
0.0
 40
3.0
  0
LINE
  5
7A5E
330
18
100
AcDbEntity
  8
0
100
AcDbLine
 10
131.6782789586599
 20
296.1587885114236
 30
0.0
 11
129.17827895866
 21
296.1587885114236
 31
0.0
  0
LINE
  5
7A5F
330
18
100
AcDbEntity
  8
0
100
AcDbLine
 10
130.9282789586599
 20
294.9587885114238
 30
0.0
 11
129.92827895866
 21
294.9587885114238
 31
0.0
  0
LINE
  5
7A60
330
18
100
AcDbEntity
  8
0
100
AcDbLine
 10
132.42827895866
 20
297.3587885114235
 30
0.0
 11
128.42827895866
 21
297.3587885114237
 31
0.0
  0
LINE
  5
7A61
330
18
100
AcDbEntity
  8
0
100
AcDbLine
 10
130.42827895866
 20
298.9587885114238
 30
0.0
 11
130.42827895866
 21
297.3587885114235
 31
0.0
  0
ARC
  5
7A62
330
18
100
AcDbEntity
  8
0
100
AcDbCircle
 10
121.42827895866
 20
296.9587885114238
 30
0.0
 40
2.666666666666666
100
AcDbArc
 50
255.52248781407
 51
284.4775121859298
  0
ARC
  5
7A63
330
18
100
AcDbEntity
  8
0
100
AcDbCircle
 10
121.42827895866
 20
296.9587885114238
 30
0.0
 40
2.666666666666666
100
AcDbArc
 50
75.52248781407017
 51
104.4775121859297
  0
CIRCLE
  5
7A64
330
18
100
AcDbEntity
  8
0
100
AcDbCircle
 10
121.42827895866
 20
296.9587885114238
 30
0.0
 40
3.333333333333333
  0
CIRCLE
  5
7A65
330
18
100
AcDbEntity
  8
0
100
AcDbCircle
 10
121.42827895866
 20
296.9587885114238
 30
0.0
 40
4.0
  0
ARC
  5
7A66
330
18
100
AcDbEntity
  8
0
100
AcDbCircle
 10
121.42827895866
 20
296.9587885114238
 30
0.0
 40
2.666666666666666
100
AcDbArc
 50
165.5224878140709
 51
194.4775121859289
  0
LINE
  5
7A67
330
18
100
AcDbEntity
  8
0
100
AcDbLine
 10
120.761612291993
 20
294.376799613952
 30
0.0
 11
120.761612291993
 21
296.2921218447569
 31
0.0
  0
LINE
  5
7A68
330
18
100
AcDbEntity
  8
0
100
AcDbLine
 10
118.8462900611889
 20
296.2921218447569
 30
0.0
 11
120.761612291993
 21
296.2921218447569
 31
0.0
  0
LINE
  5
7A69
330
18
100
AcDbEntity
  8
0
100
AcDbLine
 10
118.8462900611889
 20
297.6254551780905
 30
0.0
 11
120.761612291993
 21
297.6254551780905
 31
0.0
  0
LINE
  5
7A6A
330
18
100
AcDbEntity
  8
0
100
AcDbLine
 10
120.761612291993
 20
297.6254551780905
 30
0.0
 11
120.761612291993
 21
299.5407774088955
 31
0.0
  0
ARC
  5
7A6B
330
18
100
AcDbEntity
  8
0
100
AcDbCircle
 10
121.42827895866
 20
296.9587885114238
 30
0.0
 40
2.666666666666666
100
AcDbArc
 50
345.5224878140708
 51
14.47751218592907
  0
LINE
  5
7A6C
330
18
100
AcDbEntity
  8
0
100
AcDbLine
 10
122.0949456253265
 20
294.376799613952
 30
0.0
 11
122.0949456253265
 21
296.2921218447569
 31
0.0
  0
LINE
  5
7A6D
330
18
100
AcDbEntity
  8
0
100
AcDbLine
 10
122.0949456253265
 20
296.2921218447569
 30
0.0
 11
124.0102678561314
 21
296.2921218447569
 31
0.0
  0
LINE
  5
7A6E
330
18
100
AcDbEntity
  8
0
100
AcDbLine
 10
122.0949456253265
 20
297.6254551780905
 30
0.0
 11
122.0949456253265
 21
299.5407774088955
 31
0.0
  0
LINE
  5
7A6F
330
18
100
AcDbEntity
  8
0
100
AcDbLine
 10
122.0949456253265
 20
297.6254551780905
 30
0.0
 11
124.0102678561314
 21
297.6254551780905
 31
0.0
  0
LINE
  5
7A70
330
18
100
AcDbEntity
  8
0
100
AcDbLine
 10
135.9282789586659
 20
312.9587885114236
 30
0.0
 11
124.9282789586654
 21
312.9587885114236
 31
0.0
  0
ARC
  5
7A71
330
18
100
AcDbEntity
  8
0
100
AcDbCircle
 10
130.4282789586691
 20
283.9587885114236
 30
0.0
 40
2.25
100
AcDbArc
 50
0.0
 51
180.0
  0
ARC
  5
7A72
330
18
100
AcDbEntity
  8
0
100
AcDbCircle
 10
139.42827895866
 20
296.9587885114238
 30
0.0
 40
2.666666666666666
100
AcDbArc
 50
255.52248781407
 51
284.4775121859298
  0
ARC
  5
7A73
330
18
100
AcDbEntity
  8
0
100
AcDbCircle
 10
139.42827895866
 20
296.9587885114238
 30
0.0
 40
2.666666666666666
100
AcDbArc
 50
75.52248781407017
 51
104.4775121859297
  0
CIRCLE
  5
7A74
330
18
100
AcDbEntity
  8
0
100
AcDbCircle
 10
139.42827895866
 20
296.9587885114238
 30
0.0
 40
3.333333333333333
  0
CIRCLE
  5
7A75
330
18
100
AcDbEntity
  8
0
100
AcDbCircle
 10
139.42827895866
 20
296.9587885114238
 30
0.0
 40
4.0
  0
ARC
  5
7A76
330
18
100
AcDbEntity
  8
0
100
AcDbCircle
 10
139.42827895866
 20
296.9587885114238
 30
0.0
 40
2.666666666666666
100
AcDbArc
 50
165.5224878140709
 51
194.4775121859289
  0
LINE
  5
7A77
330
18
100
AcDbEntity
  8
0
100
AcDbLine
 10
138.7616122919929
 20
294.376799613952
 30
0.0
 11
138.7616122919929
 21
296.2921218447569
 31
0.0
  0
LINE
  5
7A78
330
18
100
AcDbEntity
  8
0
100
AcDbLine
 10
136.8462900611889
 20
296.2921218447569
 30
0.0
 11
138.7616122919929
 21
296.2921218447569
 31
0.0
  0
LINE
  5
7A79
330
18
100
AcDbEntity
  8
0
100
AcDbLine
 10
136.8462900611889
 20
297.6254551780905
 30
0.0
 11
138.7616122919929
 21
297.6254551780905
 31
0.0
  0
LINE
  5
7A7A
330
18
100
AcDbEntity
  8
0
100
AcDbLine
 10
138.7616122919929
 20
297.6254551780905
 30
0.0
 11
138.7616122919929
 21
299.5407774088955
 31
0.0
  0
ARC
  5
7A7B
330
18
100
AcDbEntity
  8
0
100
AcDbCircle
 10
139.42827895866
 20
296.9587885114238
 30
0.0
 40
2.666666666666666
100
AcDbArc
 50
345.5224878140708
 51
14.47751218592907
  0
LINE
  5
7A7C
330
18
100
AcDbEntity
  8
0
100
AcDbLine
 10
140.0949456253264
 20
294.376799613952
 30
0.0
 11
140.0949456253264
 21
296.2921218447569
 31
0.0
  0
LINE
  5
7A7D
330
18
100
AcDbEntity
  8
0
100
AcDbLine
 10
140.0949456253264
 20
296.2921218447569
 30
0.0
 11
142.0102678561314
 21
296.2921218447569
 31
0.0
  0
LINE
  5
7A7E
330
18
100
AcDbEntity
  8
0
100
AcDbLine
 10
140.0949456253264
 20
297.6254551780905
 30
0.0
 11
140.0949456253264
 21
299.5407774088955
 31
0.0
  0
LINE
  5
7A7F
330
18
100
AcDbEntity
  8
0
100
AcDbLine
 10
140.0949456253264
 20
297.6254551780905
 30
0.0
 11
142.0102678561314
 21
297.6254551780905
 31
0.0
  0
MTEXT
  5
7A80
330
18
100
AcDbEntity
  8
0
100
AcDbMText
 10
122.8936903678822
 20
316.8269696346058
 30
0.0
 40
2.399999999999999
 41
7.047999999999999
 71
     3
 72
     5
  1
DBC
 73
     1
 44
1.0
  0
LINE
  5
7A81
330
18
100
AcDbEntity
  8
0
100
AcDbLine
 10
145.4282789586586
 20
289.9587885114237
 30
0.0
 11
110.42827895866
 21
289.9587885114236
 31
0.0
  0
LINE
  5
7A82
330
18
100
AcDbEntity
  8
0
100
AcDbLine
 10
145.4282789586594
 20
289.9587885114236
 30
0.0
 11
112.4282789586618
 21
289.9587885114236
 31
0.0
  0
LINE
  5
7A83
330
18
100
AcDbEntity
  8
0
100
AcDbLine
 10
128.1782789586685
 20
279.9587885114238
 30
0.0
 11
115.4282789586581
 21
279.9587885114238
 31
0.0
  0
LINE
  5
7A84
330
18
100
AcDbEntity
  8
0
100
AcDbLine
 10
145.4282789586576
 20
279.9587885114238
 30
0.0
 11
132.6782789586691
 21
279.9587885114238
 31
0.0
  0
LINE
  5
7A85
330
18
100
AcDbEntity
  8
0
100
AcDbLine
 10
115.4282789586591
 20
289.9587885114243
 30
0.0
 11
115.4282789586581
 21
279.9587885114238
 31
0.0
  0
LINE
  5
7A86
330
18
100
AcDbEntity
  8
0
100
AcDbLine
 10
132.6782789586691
 20
283.9587885114236
 30
0.0
 11
132.6782789586691
 21
279.9587885114238
 31
0.0
  0
LINE
  5
7A87
330
18
100
AcDbEntity
  8
0
100
AcDbLine
 10
128.178278958669
 20
283.9587885114236
 30
0.0
 11
128.1782789586685
 21
279.9587885114238
 31
0.0
  0
LINE
  5
7A88
330
18
100
AcDbEntity
  8
0
100
AcDbLine
 10
127.0282789586671
 20
322.4637885114236
 30
0.0
 11
127.0282789586671
 21
322.1587885114239
 31
0.0
  0
LINE
  5
7A89
330
18
100
AcDbEntity
  8
0
100
AcDbLine
 10
134.2782789586672
 20
322.4637885114236
 30
0.0
 11
134.2782789586672
 21
322.1587885114239
 31
0.0
  0
LINE
  5
7A8A
330
18
100
AcDbEntity
  8
0
100
AcDbLine
 10
124.928278958665
 20
322.9587885114237
 30
0.0
 11
124.9282789586644
 21
322.1587885114237
 31
0.0
  0
LINE
  5
7A8B
330
18
100
AcDbEntity
  8
0
100
AcDbLine
 10
135.9282789586653
 20
322.9587885114237
 30
0.0
 11
135.9282789586659
 21
312.9587885114237
 31
0.0
  0
MTEXT
  5
7A8C
330
18
100
AcDbEntity
  8
0
100
AcDbMText
 10
123.0584277408542
 20
321.8269696346058
 30
0.0
 40
2.399999999999999
 41
7.047999999999999
 71
     3
 72
     5
  1
DBK
 73
     1
 44
1.0
  0
MTEXT
  5
7A99
330
18
100
AcDbEntity
  8
0
100
AcDbMText
 10
128.291945711864
 20
375.1036486478195
 30
0.0
 40
4.0
 41
13.7408
 71
     1
 72
     5
  1
TB1
 73
     1
 44
1.0
  0
LINE
  5
7A9B
330
18
100
AcDbEntity
  8
0
100
AcDbLine
 10
135.3282789586668
 20
353.4387885114242
 30
0.0
 11
135.3282789586664
 21
352.4587885114238
 31
0.0
  0
LINE
  5
7A9C
330
18
100
AcDbEntity
  8
0
100
AcDbLine
 10
135.3282789586668
 20
335.6987885114243
 30
0.0
 11
135.3282789586664
 21
334.718788511424
 31
0.0
  0
LINE
  5
7A9D
330
18
100
AcDbEntity
  8
0
100
AcDbLine
 10
139.928278958664
 20
335.6987885114243
 30
0.0
 11
139.928278958664
 21
334.1387885114243
 31
0.0
  0
LINE
  5
7A9E
330
18
100
AcDbEntity
  8
0
100
AcDbLine
 10
139.9282789586663
 20
353.4387885114243
 30
0.0
 11
139.9282789586667
 21
350.9387885114244
 31
0.0
  0
LINE
  5
7A9F
330
18
100
AcDbEntity
  8
0
100
AcDbLine
 10
135.3282789586664
 20
369.6587885114246
 30
0.0
 11
127.0282789586667
 21
369.6587885114246
 31
0.0
  0
LINE
  5
7AA0
330
18
100
AcDbEntity
  8
0
100
AcDbLine
 10
139.9282789586673
 20
370.138788511424
 30
0.0
 11
124.9282789586664
 21
370.138788511424
 31
0.0
  0
MTEXT
  5
7AA1
330
18
100
AcDbEntity
  8
0
100
AcDbMText
 10
120.1302498357781
 20
367.5929238553228
 30
0.0
 40
2.799999999999998
 41
4.654799999999998
 71
     1
 72
     5
  1
U
  7
MSｺﾞｼｯｸ
 73
     1
 44
1.0
  0
LINE
  5
7AA2
330
18
100
AcDbEntity
  8
0
100
AcDbLine
 10
132.0282789586667
 20
367.0587885114241
 30
0.0
 11
134.0282789586667
 21
368.0587885114241
 31
0.0
  0
LINE
  5
7AA3
330
18
100
AcDbEntity
  8
0
100
AcDbLine
 10
130.0282789586667
 20
367.0587885114241
 30
0.0
 11
129.0282789586667
 21
368.0587885114241
 31
0.0
  0
LINE
  5
7AA4
330
18
100
AcDbEntity
  8
0
100
AcDbLine
 10
132.0282789586667
 20
362.0587885114241
 30
0.0
 11
134.0282789586667
 21
363.0587885114241
 31
0.0
  0
LINE
  5
7AA5
330
18
100
AcDbEntity
  8
0
100
AcDbLine
 10
130.0282789586667
 20
362.0587885114241
 30
0.0
 11
129.0282789586667
 21
363.0587885114241
 31
0.0
  0
LINE
  5
7AA6
330
18
100
AcDbEntity
  8
0
100
AcDbLine
 10
132.0282789586667
 20
365.0587885114241
 30
0.0
 11
134.0282789586667
 21
364.0587885114241
 31
0.0
  0
LINE
  5
7AA7
330
18
100
AcDbEntity
  8
0
100
AcDbLine
 10
130.0282789586667
 20
365.0587885114241
 30
0.0
 11
129.0282789586667
 21
364.0587885114241
 31
0.0
  0
LINE
  5
7AA8
330
18
100
AcDbEntity
  8
0
100
AcDbLine
 10
127.0282789586667
 20
368.6787885114241
 30
0.0
 11
142.0282789586666
 21
368.6787885114241
 31
0.0
  0
LINE
  5
7AA9
330
18
100
AcDbEntity
  8
0
100
AcDbLine
 10
129.0282789586667
 20
363.0587885114241
 30
0.0
 11
134.0282789586667
 21
363.0587885114241
 31
0.0
  0
LINE
  5
7AAA
330
18
100
AcDbEntity
  8
0
100
AcDbLine
 10
130.0282789586667
 20
362.0587885114241
 30
0.0
 11
132.0282789586667
 21
362.0587885114241
 31
0.0
  0
LINE
  5
7AAB
330
18
100
AcDbEntity
  8
0
100
AcDbLine
 10
132.0282789586667
 20
362.0587885114241
 30
0.0
 11
132.0282789586667
 21
360.0587885114241
 31
0.0
  0
LINE
  5
7AAC
330
18
100
AcDbEntity
  8
0
100
AcDbLine
 10
132.0282789586667
 20
360.0587885114241
 30
0.0
 11
130.0282789586667
 21
360.0587885114241
 31
0.0
  0
LINE
  5
7AAD
330
18
100
AcDbEntity
  8
0
100
AcDbLine
 10
130.0282789586667
 20
360.0587885114241
 30
0.0
 11
130.0282789586667
 21
362.0587885114241
 31
0.0
  0
LINE
  5
7AAE
330
18
100
AcDbEntity
  8
0
100
AcDbLine
 10
130.0282789586667
 20
367.0587885114241
 30
0.0
 11
132.0282789586667
 21
367.0587885114241
 31
0.0
  0
LINE
  5
7AAF
330
18
100
AcDbEntity
  8
0
100
AcDbLine
 10
132.0282789586667
 20
367.0587885114241
 30
0.0
 11
132.0282789586667
 21
365.0587885114241
 31
0.0
  0
LINE
  5
7AB0
330
18
100
AcDbEntity
  8
0
100
AcDbLine
 10
132.0282789586667
 20
365.0587885114241
 30
0.0
 11
130.0282789586667
 21
365.0587885114241
 31
0.0
  0
LINE
  5
7AB1
330
18
100
AcDbEntity
  8
0
100
AcDbLine
 10
130.0282789586667
 20
365.0587885114241
 30
0.0
 11
130.0282789586667
 21
367.0587885114241
 31
0.0
  0
LINE
  5
7AB2
330
18
100
AcDbEntity
  8
0
100
AcDbLine
 10
129.0282789586667
 20
368.0587885114241
 30
0.0
 11
134.0282789586667
 21
368.0587885114241
 31
0.0
  0
LINE
  5
7AB3
330
18
100
AcDbEntity
  8
0
100
AcDbLine
 10
134.0282789586667
 20
368.0587885114241
 30
0.0
 11
134.0282789586667
 21
364.0587885114241
 31
0.0
  0
LINE
  5
7AB4
330
18
100
AcDbEntity
  8
0
100
AcDbLine
 10
134.0282789586667
 20
364.0587885114241
 30
0.0
 11
129.0282789586667
 21
364.0587885114241
 31
0.0
  0
LINE
  5
7AB5
330
18
100
AcDbEntity
  8
0
100
AcDbLine
 10
129.0282789586667
 20
364.0587885114241
 30
0.0
 11
129.0282789586667
 21
368.0587885114241
 31
0.0
  0
LINE
  5
7AB6
330
18
100
AcDbEntity
  8
0
100
AcDbLine
 10
145.4282789586681
 20
389.958788511424
 30
0.0
 11
110.4282789586681
 21
389.9587885114237
 31
0.0
  0
LINE
  5
7AB7
330
18
100
AcDbEntity
  8
0
100
AcDbLine
 10
112.4282789586681
 20
389.9587885114237
 30
0.0
 11
145.4282789586681
 21
389.958788511424
 31
0.0
  0
LINE
  5
7AB8
330
18
100
AcDbEntity
  8
0
100
AcDbLine
 10
135.3282789586664
 20
352.4587885114238
 30
0.0
 11
127.0282789586667
 21
352.4587885114238
 31
0.0
  0
LINE
  5
7AB9
330
18
100
AcDbEntity
  8
0
100
AcDbLine
 10
139.928278958664
 20
334.1387885114243
 30
0.0
 11
124.928278958665
 21
334.1387885114242
 31
0.0
  0
MTEXT
  5
7ABA
330
18
100
AcDbEntity
  8
0
100
AcDbMText
 10
120.0664255566888
 20
357.4971109577003
 30
0.0
 40
2.799999999999998
 41
4.654799999999998
 71
     1
 72
     5
  1
W
  7
MSｺﾞｼｯｸ
 73
     1
 44
1.0
  0
MTEXT
  5
7ABB
330
18
100
AcDbEntity
  8
0
100
AcDbMText
 10
120.0569610967386
 20
344.652923855323
 30
0.0
 40
2.799999999999998
 41
4.654799999999998
 71
     1
 72
     5
  1
V
  7
MSｺﾞｼｯｸ
 73
     1
 44
1.0
  0
MTEXT
  5
7ABC
330
18
100
AcDbEntity
  8
0
100
AcDbMText
 10
120.0664255566888
 20
339.7571109577004
 30
0.0
 40
2.799999999999998
 41
4.654799999999998
 71
     1
 72
     5
  1
W
  7
MSｺﾞｼｯｸ
 73
     1
 44
1.0
  0
MTEXT
  5
7ABD
330
18
100
AcDbEntity
  8
0
100
AcDbMText
 10
120.1302498357781
 20
349.852923855323
 30
0.0
 40
2.799999999999998
 41
4.654799999999998
 71
     1
 72
     5
  1
U
  7
MSｺﾞｼｯｸ
 73
     1
 44
1.0
  0
LINE
  5
7ABE
330
18
100
AcDbEntity
  8
0
100
AcDbLine
 10
132.0282789586667
 20
357.0587885114241
 30
0.0
 11
134.0282789586667
 21
358.0587885114241
 31
0.0
  0
LINE
  5
7ABF
330
18
100
AcDbEntity
  8
0
100
AcDbLine
 10
132.0282789586667
 20
355.0587885114241
 30
0.0
 11
134.0282789586667
 21
354.0587885114241
 31
0.0
  0
LINE
  5
7AC0
330
18
100
AcDbEntity
  8
0
100
AcDbLine
 10
130.0282789586667
 20
355.0587885114241
 30
0.0
 11
129.0282789586667
 21
354.0587885114241
 31
0.0
  0
LINE
  5
7AC1
330
18
100
AcDbEntity
  8
0
100
AcDbLine
 10
130.0282789586667
 20
357.0587885114241
 30
0.0
 11
129.0282789586667
 21
358.0587885114241
 31
0.0
  0
LINE
  5
7AC2
330
18
100
AcDbEntity
  8
0
100
AcDbLine
 10
142.0282789586666
 20
353.4387885114242
 30
0.0
 11
127.0282789586667
 21
353.4387885114242
 31
0.0
  0
LINE
  5
7AC3
330
18
100
AcDbEntity
  8
0
100
AcDbLine
 10
134.0282789586667
 20
359.0587885114241
 30
0.0
 11
129.0282789586667
 21
359.0587885114241
 31
0.0
  0
LINE
  5
7AC4
330
18
100
AcDbEntity
  8
0
100
AcDbLine
 10
129.0282789586667
 20
358.0587885114241
 30
0.0
 11
134.0282789586667
 21
358.0587885114241
 31
0.0
  0
LINE
  5
7AC5
330
18
100
AcDbEntity
  8
0
100
AcDbLine
 10
134.0282789586667
 20
358.0587885114241
 30
0.0
 11
134.0282789586667
 21
354.0587885114241
 31
0.0
  0
LINE
  5
7AC6
330
18
100
AcDbEntity
  8
0
100
AcDbLine
 10
134.0282789586667
 20
354.0587885114241
 30
0.0
 11
129.0282789586667
 21
354.0587885114241
 31
0.0
  0
LINE
  5
7AC7
330
18
100
AcDbEntity
  8
0
100
AcDbLine
 10
129.0282789586667
 20
354.0587885114241
 30
0.0
 11
129.0282789586667
 21
358.0587885114241
 31
0.0
  0
LINE
  5
7AC8
330
18
100
AcDbEntity
  8
0
100
AcDbLine
 10
130.0282789586667
 20
357.0587885114241
 30
0.0
 11
132.0282789586667
 21
357.0587885114241
 31
0.0
  0
LINE
  5
7AC9
330
18
100
AcDbEntity
  8
0
100
AcDbLine
 10
132.0282789586667
 20
357.0587885114241
 30
0.0
 11
132.0282789586667
 21
355.0587885114241
 31
0.0
  0
LINE
  5
7ACA
330
18
100
AcDbEntity
  8
0
100
AcDbLine
 10
132.0282789586667
 20
355.0587885114241
 30
0.0
 11
130.0282789586667
 21
355.0587885114241
 31
0.0
  0
LINE
  5
7ACB
330
18
100
AcDbEntity
  8
0
100
AcDbLine
 10
130.0282789586667
 20
355.0587885114241
 30
0.0
 11
130.0282789586667
 21
357.0587885114241
 31
0.0
  0
LINE
  5
7ACC
330
18
100
AcDbEntity
  8
0
100
AcDbLine
 10
127.0282789586667
 20
351.9187885114247
 30
0.0
 11
127.0282789586667
 21
334.718788511424
 31
0.0
  0
LINE
  5
7ACD
330
18
100
AcDbEntity
  8
0
100
AcDbLine
 10
135.3282789586664
 20
351.9187885114247
 30
0.0
 11
135.3282789586668
 21
350.9387885114244
 31
0.0
  0
LINE
  5
7ACE
330
18
100
AcDbEntity
  8
0
100
AcDbLine
 10
135.3282789586664
 20
334.718788511424
 30
0.0
 11
127.0282789586667
 21
334.718788511424
 31
0.0
  0
LINE
  5
7ACF
330
18
100
AcDbEntity
  8
0
100
AcDbLine
 10
135.3282789586664
 20
351.9187885114247
 30
0.0
 11
127.0282789586667
 21
351.9187885114247
 31
0.0
  0
LINE
  5
7AD0
330
18
100
AcDbEntity
  8
0
100
AcDbLine
 10
130.0282789586667
 20
342.3187885114243
 30
0.0
 11
129.0282789586667
 21
341.3187885114243
 31
0.0
  0
LINE
  5
7AD1
330
18
100
AcDbEntity
  8
0
100
AcDbLine
 10
132.0282789586667
 20
342.3187885114243
 30
0.0
 11
134.0282789586667
 21
341.3187885114243
 31
0.0
  0
LINE
  5
7AD2
330
18
100
AcDbEntity
  8
0
100
AcDbLine
 10
127.0282789586667
 20
335.6987885114243
 30
0.0
 11
127.0282789586667
 21
350.9387885114244
 31
0.0
  0
LINE
  5
7AD3
330
18
100
AcDbEntity
  8
0
100
AcDbLine
 10
142.0282789586666
 20
350.9387885114244
 30
0.0
 11
142.0282789586666
 21
335.6987885114243
 31
0.0
  0
LINE
  5
7AD4
330
18
100
AcDbEntity
  8
0
100
AcDbLine
 10
137.0282789586667
 20
350.9387885114244
 30
0.0
 11
137.0282789586667
 21
335.6987885114243
 31
0.0
  0
LINE
  5
7AD5
330
18
100
AcDbEntity
  8
0
100
AcDbLine
 10
129.0282789586667
 20
341.3187885114243
 30
0.0
 11
129.0282789586667
 21
345.3187885114244
 31
0.0
  0
LINE
  5
7AD6
330
18
100
AcDbEntity
  8
0
100
AcDbLine
 10
134.0282789586667
 20
345.3187885114244
 30
0.0
 11
134.0282789586667
 21
341.3187885114243
 31
0.0
  0
LINE
  5
7AD7
330
18
100
AcDbEntity
  8
0
100
AcDbLine
 10
142.0282789586666
 20
335.6987885114243
 30
0.0
 11
127.0282789586667
 21
335.6987885114243
 31
0.0
  0
LINE
  5
7AD8
330
18
100
AcDbEntity
  8
0
100
AcDbLine
 10
130.0282789586667
 20
337.3187885114243
 30
0.0
 11
130.0282789586667
 21
339.3187885114243
 31
0.0
  0
LINE
  5
7AD9
330
18
100
AcDbEntity
  8
0
100
AcDbLine
 10
132.0282789586667
 20
337.3187885114243
 30
0.0
 11
130.0282789586667
 21
337.3187885114243
 31
0.0
  0
LINE
  5
7ADA
330
18
100
AcDbEntity
  8
0
100
AcDbLine
 10
132.0282789586667
 20
339.3187885114243
 30
0.0
 11
132.0282789586667
 21
337.3187885114243
 31
0.0
  0
LINE
  5
7ADB
330
18
100
AcDbEntity
  8
0
100
AcDbLine
 10
130.0282789586667
 20
339.3187885114243
 30
0.0
 11
132.0282789586667
 21
339.3187885114243
 31
0.0
  0
LINE
  5
7ADC
330
18
100
AcDbEntity
  8
0
100
AcDbLine
 10
129.0282789586667
 20
336.3187885114243
 30
0.0
 11
129.0282789586667
 21
340.3187885114243
 31
0.0
  0
LINE
  5
7ADD
330
18
100
AcDbEntity
  8
0
100
AcDbLine
 10
134.0282789586667
 20
336.3187885114243
 30
0.0
 11
129.0282789586667
 21
336.3187885114243
 31
0.0
  0
LINE
  5
7ADE
330
18
100
AcDbEntity
  8
0
100
AcDbLine
 10
134.0282789586667
 20
340.3187885114243
 30
0.0
 11
134.0282789586667
 21
336.3187885114243
 31
0.0
  0
LINE
  5
7ADF
330
18
100
AcDbEntity
  8
0
100
AcDbLine
 10
129.0282789586667
 20
340.3187885114243
 30
0.0
 11
134.0282789586667
 21
340.3187885114243
 31
0.0
  0
LINE
  5
7AE0
330
18
100
AcDbEntity
  8
0
100
AcDbLine
 10
134.0282789586667
 20
341.3187885114243
 30
0.0
 11
129.0282789586667
 21
341.3187885114243
 31
0.0
  0
LINE
  5
7AE1
330
18
100
AcDbEntity
  8
0
100
AcDbLine
 10
130.0282789586667
 20
339.3187885114243
 30
0.0
 11
129.0282789586667
 21
340.3187885114243
 31
0.0
  0
LINE
  5
7AE2
330
18
100
AcDbEntity
  8
0
100
AcDbLine
 10
130.0282789586667
 20
337.3187885114243
 30
0.0
 11
129.0282789586667
 21
336.3187885114243
 31
0.0
  0
LINE
  5
7AE3
330
18
100
AcDbEntity
  8
0
100
AcDbLine
 10
132.0282789586667
 20
337.3187885114243
 30
0.0
 11
134.0282789586667
 21
336.3187885114243
 31
0.0
  0
LINE
  5
7AE4
330
18
100
AcDbEntity
  8
0
100
AcDbLine
 10
132.0282789586667
 20
339.3187885114243
 30
0.0
 11
134.0282789586667
 21
340.3187885114243
 31
0.0
  0
LINE
  5
7AE5
330
18
100
AcDbEntity
  8
0
100
AcDbLine
 10
129.0282789586667
 20
346.3187885114244
 30
0.0
 11
129.0282789586667
 21
350.3187885114244
 31
0.0
  0
LINE
  5
7AE6
330
18
100
AcDbEntity
  8
0
100
AcDbLine
 10
134.0282789586667
 20
346.3187885114244
 30
0.0
 11
129.0282789586667
 21
346.3187885114244
 31
0.0
  0
LINE
  5
7AE7
330
18
100
AcDbEntity
  8
0
100
AcDbLine
 10
134.0282789586667
 20
350.3187885114244
 30
0.0
 11
134.0282789586667
 21
346.3187885114244
 31
0.0
  0
LINE
  5
7AE8
330
18
100
AcDbEntity
  8
0
100
AcDbLine
 10
129.0282789586667
 20
350.3187885114244
 30
0.0
 11
134.0282789586667
 21
350.3187885114244
 31
0.0
  0
LINE
  5
7AE9
330
18
100
AcDbEntity
  8
0
100
AcDbLine
 10
130.0282789586667
 20
347.3187885114244
 30
0.0
 11
130.0282789586667
 21
349.3187885114244
 31
0.0
  0
LINE
  5
7AEA
330
18
100
AcDbEntity
  8
0
100
AcDbLine
 10
132.0282789586667
 20
347.3187885114244
 30
0.0
 11
130.0282789586667
 21
347.3187885114244
 31
0.0
  0
LINE
  5
7AEB
330
18
100
AcDbEntity
  8
0
100
AcDbLine
 10
132.0282789586667
 20
349.3187885114244
 30
0.0
 11
132.0282789586667
 21
347.3187885114244
 31
0.0
  0
LINE
  5
7AEC
330
18
100
AcDbEntity
  8
0
100
AcDbLine
 10
130.0282789586667
 20
349.3187885114244
 30
0.0
 11
132.0282789586667
 21
349.3187885114244
 31
0.0
  0
LINE
  5
7AED
330
18
100
AcDbEntity
  8
0
100
AcDbLine
 10
130.0282789586667
 20
344.3187885114244
 30
0.0
 11
132.0282789586667
 21
344.3187885114244
 31
0.0
  0
LINE
  5
7AEE
330
18
100
AcDbEntity
  8
0
100
AcDbLine
 10
129.0282789586667
 20
345.3187885114244
 30
0.0
 11
134.0282789586667
 21
345.3187885114244
 31
0.0
  0
LINE
  5
7AEF
330
18
100
AcDbEntity
  8
0
100
AcDbLine
 10
127.0282789586667
 20
350.9387885114244
 30
0.0
 11
142.0282789586666
 21
350.9387885114244
 31
0.0
  0
LINE
  5
7AF0
330
18
100
AcDbEntity
  8
0
100
AcDbLine
 10
130.0282789586667
 20
347.3187885114244
 30
0.0
 11
129.0282789586667
 21
346.3187885114244
 31
0.0
  0
LINE
  5
7AF1
330
18
100
AcDbEntity
  8
0
100
AcDbLine
 10
132.0282789586667
 20
347.3187885114244
 30
0.0
 11
134.0282789586667
 21
346.3187885114244
 31
0.0
  0
LINE
  5
7AF2
330
18
100
AcDbEntity
  8
0
100
AcDbLine
 10
130.0282789586667
 20
344.3187885114244
 30
0.0
 11
129.0282789586667
 21
345.3187885114244
 31
0.0
  0
LINE
  5
7AF3
330
18
100
AcDbEntity
  8
0
100
AcDbLine
 10
132.0282789586667
 20
344.3187885114244
 30
0.0
 11
134.0282789586667
 21
345.3187885114244
 31
0.0
  0
LINE
  5
7AF4
330
18
100
AcDbEntity
  8
0
100
AcDbLine
 10
130.0282789586667
 20
349.3187885114244
 30
0.0
 11
129.0282789586667
 21
350.3187885114244
 31
0.0
  0
LINE
  5
7AF5
330
18
100
AcDbEntity
  8
0
100
AcDbLine
 10
132.0282789586667
 20
349.3187885114244
 30
0.0
 11
134.0282789586667
 21
350.3187885114244
 31
0.0
  0
LINE
  5
7AF6
330
18
100
AcDbEntity
  8
0
100
AcDbLine
 10
132.0282789586667
 20
342.3187885114243
 30
0.0
 11
130.0282789586667
 21
342.3187885114243
 31
0.0
  0
LINE
  5
7AF7
330
18
100
AcDbEntity
  8
0
100
AcDbLine
 10
130.0282789586667
 20
342.3187885114243
 30
0.0
 11
130.0282789586667
 21
344.3187885114244
 31
0.0
  0
LINE
  5
7AF8
330
18
100
AcDbEntity
  8
0
100
AcDbLine
 10
132.0282789586667
 20
344.3187885114244
 30
0.0
 11
132.0282789586667
 21
342.3187885114243
 31
0.0
  0
LINE
  5
7AF9
330
18
100
AcDbEntity
  8
0
100
AcDbLine
 10
127.0282789586667
 20
369.6587885114246
 30
0.0
 11
127.0282789586667
 21
352.4587885114238
 31
0.0
  0
LINE
  5
7AFA
330
18
100
AcDbEntity
  8
0
100
AcDbLine
 10
135.3282789586664
 20
369.6587885114246
 30
0.0
 11
135.3282789586668
 21
368.6787885114241
 31
0.0
  0
LINE
  5
7AFB
330
18
100
AcDbEntity
  8
0
100
AcDbLine
 10
124.9282789586664
 20
370.138788511424
 30
0.0
 11
124.928278958665
 21
334.1387885114242
 31
0.0
  0
LINE
  5
7AFC
330
18
100
AcDbEntity
  8
0
100
AcDbLine
 10
139.9282789586673
 20
370.138788511424
 30
0.0
 11
139.9282789586677
 21
368.6787885114241
 31
0.0
  0
MTEXT
  5
7AFD
330
18
100
AcDbEntity
  8
0
100
AcDbMText
 10
120.0569610967386
 20
362.3929238553228
 30
0.0
 40
2.799999999999998
 41
4.654799999999998
 71
     1
 72
     5
  1
V
  7
MSｺﾞｼｯｸ
 73
     1
 44
1.0
  0
LINE
  5
7AFE
330
18
100
AcDbEntity
  8
0
100
AcDbLine
 10
137.0282789586667
 20
368.6787885114241
 30
0.0
 11
137.0282789586667
 21
353.4387885114242
 31
0.0
  0
LINE
  5
7AFF
330
18
100
AcDbEntity
  8
0
100
AcDbLine
 10
132.0282789586667
 20
360.0587885114241
 30
0.0
 11
134.0282789586667
 21
359.0587885114241
 31
0.0
  0
LINE
  5
7B00
330
18
100
AcDbEntity
  8
0
100
AcDbLine
 10
130.0282789586667
 20
360.0587885114241
 30
0.0
 11
129.0282789586667
 21
359.0587885114241
 31
0.0
  0
LINE
  5
7B01
330
18
100
AcDbEntity
  8
0
100
AcDbLine
 10
142.0282789586666
 20
368.6787885114241
 30
0.0
 11
142.0282789586666
 21
353.4387885114242
 31
0.0
  0
LINE
  5
7B02
330
18
100
AcDbEntity
  8
0
100
AcDbLine
 10
127.0282789586667
 20
353.4387885114242
 30
0.0
 11
127.0282789586667
 21
368.6787885114241
 31
0.0
  0
LINE
  5
7B03
330
18
100
AcDbEntity
  8
0
100
AcDbLine
 10
134.0282789586667
 20
363.0587885114241
 30
0.0
 11
134.0282789586667
 21
359.0587885114241
 31
0.0
  0
LINE
  5
7B04
330
18
100
AcDbEntity
  8
0
100
AcDbLine
 10
129.0282789586667
 20
359.0587885114241
 30
0.0
 11
129.0282789586667
 21
363.0587885114241
 31
0.0
  0
LINE
  5
7B05
330
18
100
AcDbEntity
  8
0
100
AcDbLine
 10
127.0282789586667
 20
370.138788511424
 30
0.0
 11
127.0282789586663
 21
334.1387885114242
 31
0.0
  0
LINE
  5
7B06
330
18
100
AcDbEntity
  8
0
100
AcDbLine
 10
125.4282789586667
 20
370.138788511424
 30
0.0
 11
125.4282789586673
 21
334.1387885114242
 31
0.0
  0
LINE
  5
7B07
330
18
100
AcDbEntity
  8
0
100
AcDbLine
 10
128.1782789586685
 20
399.9587885114238
 30
0.0
 11
115.428278958669
 21
399.9587885114238
 31
0.0
  0
LINE
  5
7B08
330
18
100
AcDbEntity
  8
0
100
AcDbLine
 10
145.4282789586694
 20
399.958788511424
 30
0.0
 11
132.6782789586691
 21
399.9587885114238
 31
0.0
  0
LINE
  5
7B09
330
18
100
AcDbEntity
  8
0
100
AcDbLine
 10
132.6782789586691
 20
395.9587885114238
 30
0.0
 11
132.6782789586691
 21
399.9587885114238
 31
0.0
  0
LINE
  5
7B0A
330
18
100
AcDbEntity
  8
0
100
AcDbLine
 10
128.178278958669
 20
395.9587885114238
 30
0.0
 11
128.1782789586685
 21
399.9587885114238
 31
0.0
  0
LINE
  5
7B0B
330
18
100
AcDbEntity
  8
0
100
AcDbLine
 10
313.4093398557793
 20
399.958788511424
 30
0.0
 11
313.4093398557793
 21
279.9587885114238
 31
0.0
  0
LINE
  5
7B0C
330
18
100
AcDbEntity
  8
0
100
AcDbLine
 10
311.4093398557796
 20
399.958788511424
 30
0.0
 11
311.4093398557792
 21
279.9587885114238
 31
0.0
  0
LINE
  5
7B0D
330
18
100
AcDbEntity
  8
0
100
AcDbLine
 10
239.4093398557787
 20
389.958788511424
 30
0.0
 11
239.4093398557793
 21
289.9587885114236
 31
0.0
  0
LINE
  5
7B0E
330
18
100
AcDbEntity
  8
0
100
AcDbLine
 10
241.4093398557787
 20
389.958788511424
 30
0.0
 11
241.4093398557793
 21
289.9587885114236
 31
0.0
  0
LINE
  5
7B0F
330
18
100
AcDbEntity
  8
0
100
AcDbLine
 10
241.4093398557793
 20
289.9587885114236
 30
0.0
 11
241.4093398557787
 21
389.958788511424
 31
0.0
  0
LINE
  5
7B10
330
18
100
AcDbEntity
  8
0
100
AcDbLine
 10
311.4093398557796
 20
389.958788511424
 30
0.0
 11
311.4093398557792
 21
289.9587885114236
 31
0.0
  0
LINE
  5
7B11
330
18
100
AcDbEntity
  8
0
100
AcDbLine
 10
239.4093398557793
 20
289.9587885114236
 30
0.0
 11
311.4093398557796
 21
289.9587885114237
 31
0.0
  0
LINE
  5
7B12
330
18
100
AcDbEntity
  8
0
100
AcDbLine
 10
311.4093398557792
 20
289.9587885114236
 30
0.0
 11
241.4093398557793
 21
289.9587885114236
 31
0.0
  0
CIRCLE
  5
7B13
330
18
100
AcDbEntity
  8
0
100
AcDbCircle
 10
235.6452995952358
 20
316.0537885114238
 30
0.0
 40
1.199999999999999
  0
CIRCLE
  5
7B14
330
18
100
AcDbEntity
  8
0
100
AcDbCircle
 10
235.6452995952358
 20
319.8637885114237
 30
0.0
 40
1.199999999999999
  0
LINE
  5
7B15
330
18
100
AcDbEntity
  8
0
100
AcDbLine
 10
236.5223205007227
 20
319.0447437438204
 30
0.0
 11
235.3744964723977
 21
321.0328332790274
 31
0.0
  0
LINE
  5
7B16
330
18
100
AcDbEntity
  8
0
100
AcDbLine
 10
235.9161027180739
 20
318.6947437438202
 30
0.0
 11
234.7682786897489
 21
320.6828332790273
 31
0.0
  0
LINE
  5
7B17
330
18
100
AcDbEntity
  8
0
100
AcDbLine
 10
235.9161027180739
 20
314.8847437438202
 30
0.0
 11
234.7682786897489
 21
316.8728332790273
 31
0.0
  0
LINE
  5
7B18
330
18
100
AcDbEntity
  8
0
100
AcDbLine
 10
236.5223205007227
 20
315.2347437438204
 30
0.0
 11
235.3744964723977
 21
317.2228332790274
 31
0.0
  0
LINE
  5
7B19
330
18
100
AcDbEntity
  8
0
100
AcDbLine
 10
239.1452995952358
 20
322.1587885114237
 30
0.0
 11
230.2452995952358
 21
322.1587885114237
 31
0.0
  0
LINE
  5
7B1A
330
18
100
AcDbEntity
  8
0
100
AcDbLine
 10
239.1452995952358
 20
313.7587885114238
 30
0.0
 11
230.2452995952358
 21
313.7587885114238
 31
0.0
  0
LINE
  5
7B1B
330
18
100
AcDbEntity
  8
0
100
AcDbLine
 10
230.2452995952358
 20
322.1587885114237
 30
0.0
 11
230.2452995952358
 21
313.7587885114238
 31
0.0
  0
LINE
  5
7B1C
330
18
100
AcDbEntity
  8
0
100
AcDbLine
 10
231.2452995952356
 20
322.1587885114237
 30
0.0
 11
231.2452995952356
 21
313.7587885114238
 31
0.0
  0
LINE
  5
7B1D
330
18
100
AcDbEntity
  8
0
100
AcDbLine
 10
238.6452995952359
 20
322.1587885114237
 30
0.0
 11
238.6452995952359
 21
313.7587885114238
 31
0.0
  0
LINE
  5
7B1E
330
18
100
AcDbEntity
  8
0
100
AcDbLine
 10
239.1452995952358
 20
322.1587885114237
 30
0.0
 11
239.1452995952358
 21
313.7587885114238
 31
0.0
  0
LINE
  5
7B1F
330
18
100
AcDbEntity
  8
0
100
AcDbLine
 10
239.4093398557793
 20
322.4637885114236
 30
0.0
 11
239.4093398557793
 21
313.4537885114238
 31
0.0
  0
LINE
  5
7B20
330
18
100
AcDbEntity
  8
0
100
AcDbLine
 10
311.4093398557792
 20
279.9587885114238
 30
0.0
 11
313.4093398557793
 21
279.9587885114238
 31
0.0
  0
LINE
  5
7B21
330
18
100
AcDbEntity
  8
0
100
AcDbLine
 10
239.4093398557787
 20
389.958788511424
 30
0.0
 11
311.4093398557796
 21
389.958788511424
 31
0.0
  0
LINE
  5
7B22
330
18
100
AcDbEntity
  8
0
100
AcDbLine
 10
241.4093398557787
 20
389.958788511424
 30
0.0
 11
311.4093398557796
 21
389.958788511424
 31
0.0
  0
LINE
  5
7B44
330
18
100
AcDbEntity
  8
0
100
AcDbLine
 10
238.9093398557788
 20
368.6587885114246
 30
0.0
 11
229.4093398557787
 21
368.6587885114246
 31
0.0
  0
LINE
  5
7B45
330
18
100
AcDbEntity
  8
0
100
AcDbLine
 10
233.5232587447235
 20
364.5084433316574
 30
0.0
 11
236.3196850355457
 21
367.3048696224791
 31
0.0
  0
LINE
  5
7B46
330
18
100
AcDbEntity
  8
0
100
AcDbLine
 10
233.0989946760118
 20
364.9327074003691
 30
0.0
 11
235.8954209668336
 21
367.7291336911918
 31
0.0
  0
CIRCLE
  5
7B47
330
18
100
AcDbEntity
  8
0
100
AcDbCircle
 10
234.7093398557785
 20
366.1187885114236
 30
0.0
 40
2.0
  0
CIRCLE
  5
7B48
330
18
100
AcDbEntity
  8
0
100
AcDbCircle
 10
234.7093398557785
 20
348.3787885114238
 30
0.0
 40
2.0
  0
LINE
  5
7B49
330
18
100
AcDbEntity
  8
0
100
AcDbLine
 10
233.0989946760118
 20
347.1927074003693
 30
0.0
 11
235.8954209668336
 21
349.9891336911918
 31
0.0
  0
LINE
  5
7B4A
330
18
100
AcDbEntity
  8
0
100
AcDbLine
 10
233.5232587447235
 20
346.7684433316577
 30
0.0
 11
236.3196850355457
 21
349.5648696224794
 31
0.0
  0
LINE
  5
7B4B
330
18
100
AcDbEntity
  8
0
100
AcDbLine
 10
239.4093398557787
 20
351.9187885114248
 30
0.0
 11
239.4093398557787
 21
334.718788511424
 31
0.0
  0
LINE
  5
7B4C
330
18
100
AcDbEntity
  8
0
100
AcDbLine
 10
238.9093398557788
 20
350.9187885114247
 30
0.0
 11
238.9093398557788
 21
335.718788511424
 31
0.0
  0
LINE
  5
7B4D
330
18
100
AcDbEntity
  8
0
100
AcDbLine
 10
238.2093398557784
 20
350.9187885114247
 30
0.0
 11
238.2093398557784
 21
335.718788511424
 31
0.0
  0
LINE
  5
7B4E
330
18
100
AcDbEntity
  8
0
100
AcDbLine
 10
229.4093398557787
 20
350.9187885114247
 30
0.0
 11
229.4093398557787
 21
335.718788511424
 31
0.0
  0
LINE
  5
7B4F
330
18
100
AcDbEntity
  8
0
100
AcDbLine
 10
230.9093398557787
 20
350.9187885114247
 30
0.0
 11
230.9093398557787
 21
335.718788511424
 31
0.0
  0
LINE
  5
7B50
330
18
100
AcDbEntity
  8
0
100
AcDbLine
 10
233.0989946760118
 20
342.1127074003694
 30
0.0
 11
235.8954209668336
 21
344.909133691191
 31
0.0
  0
LINE
  5
7B51
330
18
100
AcDbEntity
  8
0
100
AcDbLine
 10
233.5232587447235
 20
336.6084433316578
 30
0.0
 11
236.3196850355457
 21
339.4048696224795
 31
0.0
  0
CIRCLE
  5
7B52
330
18
100
AcDbEntity
  8
0
100
AcDbCircle
 10
234.7093398557785
 20
338.218788511424
 30
0.0
 40
2.0
  0
LINE
  5
7B53
330
18
100
AcDbEntity
  8
0
100
AcDbLine
 10
233.0989946760118
 20
337.0327074003693
 30
0.0
 11
235.8954209668336
 21
339.8291336911912
 31
0.0
  0
LINE
  5
7B54
330
18
100
AcDbEntity
  8
0
100
AcDbLine
 10
238.9093398557784
 20
335.718788511424
 30
0.0
 11
229.4093398557783
 21
335.718788511424
 31
0.0
  0
CIRCLE
  5
7B55
330
18
100
AcDbEntity
  8
0
100
AcDbCircle
 10
234.7093398557785
 20
343.2987885114239
 30
0.0
 40
2.0
  0
LINE
  5
7B56
330
18
100
AcDbEntity
  8
0
100
AcDbLine
 10
233.5232587447235
 20
341.6884433316576
 30
0.0
 11
236.3196850355457
 21
344.4848696224795
 31
0.0
  0
LINE
  5
7B57
330
18
100
AcDbEntity
  8
0
100
AcDbLine
 10
238.9093398557788
 20
350.9187885114247
 30
0.0
 11
229.4093398557787
 21
350.9187885114247
 31
0.0
  0
LINE
  5
7B58
330
18
100
AcDbEntity
  8
0
100
AcDbLine
 10
238.9093398557784
 20
353.4587885114238
 30
0.0
 11
229.4093398557783
 21
353.4587885114238
 31
0.0
  0
LINE
  5
7B59
330
18
100
AcDbEntity
  8
0
100
AcDbLine
 10
233.0989946760118
 20
354.7727074003693
 30
0.0
 11
235.8954209668336
 21
357.569133691191
 31
0.0
  0
CIRCLE
  5
7B5A
330
18
100
AcDbEntity
  8
0
100
AcDbCircle
 10
234.7093398557785
 20
355.9587885114238
 30
0.0
 40
2.0
  0
LINE
  5
7B5B
330
18
100
AcDbEntity
  8
0
100
AcDbLine
 10
233.5232587447235
 20
354.3484433316576
 30
0.0
 11
236.3196850355457
 21
357.1448696224793
 31
0.0
  0
LINE
  5
7B5C
330
18
100
AcDbEntity
  8
0
100
AcDbLine
 10
233.5232587447235
 20
359.4284433316575
 30
0.0
 11
236.3196850355457
 21
362.2248696224793
 31
0.0
  0
CIRCLE
  5
7B5D
330
18
100
AcDbEntity
  8
0
100
AcDbCircle
 10
234.7093398557785
 20
361.0387885114237
 30
0.0
 40
2.0
  0
LINE
  5
7B5E
330
18
100
AcDbEntity
  8
0
100
AcDbLine
 10
233.0989946760118
 20
359.8527074003691
 30
0.0
 11
235.8954209668336
 21
362.6491336911908
 31
0.0
  0
LINE
  5
7B5F
330
18
100
AcDbEntity
  8
0
100
AcDbLine
 10
230.9093398557787
 20
368.6587885114246
 30
0.0
 11
230.9093398557787
 21
353.4587885114238
 31
0.0
  0
LINE
  5
7B60
330
18
100
AcDbEntity
  8
0
100
AcDbLine
 10
229.4093398557787
 20
368.6587885114246
 30
0.0
 11
229.4093398557787
 21
353.4587885114238
 31
0.0
  0
LINE
  5
7B61
330
18
100
AcDbEntity
  8
0
100
AcDbLine
 10
238.2093398557784
 20
368.6587885114246
 30
0.0
 11
238.2093398557784
 21
353.4587885114238
 31
0.0
  0
LINE
  5
7B62
330
18
100
AcDbEntity
  8
0
100
AcDbLine
 10
238.9093398557788
 20
368.6587885114246
 30
0.0
 11
238.9093398557788
 21
353.4587885114238
 31
0.0
  0
LINE
  5
7B63
330
18
100
AcDbEntity
  8
0
100
AcDbLine
 10
239.4093398557787
 20
369.6587885114246
 30
0.0
 11
239.4093398557787
 21
352.4587885114238
 31
0.0
  0
LINE
  5
7B64
330
18
100
AcDbEntity
  8
0
100
AcDbLine
 10
311.4093398557796
 20
399.958788511424
 30
0.0
 11
313.4093398557793
 21
399.958788511424
 31
0.0
  0
TEXT
  5
7D62
330
18
100
AcDbEntity
  8
0
100
AcDbText
 10
195.9635362909644
 20
242.7718254907307
 30
0.0
 40
7.0
  1
ＳＥ－４２９００
 41
0.9529999999999999
100
AcDbText
  0
MTEXT
  5
7D63
330
18
100
AcDbEntity
  8
0
100
AcDbMText
 10
197.8565583107856
 20
282.5372823708764
 30
0.0
 40
6.0
 41
0.6
 71
     1
 72
     5
  1
{ダイナミックブレーキユニット　\PNCR-XABCA2B-801-UL}
  7
MSｺﾞｼｯｸ
 73
     1
 44
1.0
1001
ACAD
1000
ACAD_MTEXT_DEFINED_HEIGHT_BEGIN
1070
    46
1040
16.0
1000
ACAD_MTEXT_DEFINED_HEIGHT_END
  0
MTEXT
  5
7D64
330
18
100
AcDbEntity
  8
0
100
AcDbMText
 10
200.4941543435029
 20
261.0597146758926
 30
0.0
 40
6.0
 41
29.76715522638091
 71
     1
 72
     5
  1
{外形図}
 73
     1
 44
1.0
1001
ACAD
1000
ACAD_MTEXT_DEFINED_HEIGHT_BEGIN
1070
    46
1040
6.576
1000
ACAD_MTEXT_DEFINED_HEIGHT_END
  0
VIEWPORT
  5
23
330
15
100
AcDbEntity
 67
     1
  8
0
100
AcDbViewport
 10
0.0
 20
0.0
 30
0.0
 40
580.5770672049528
 41
344.0321286145218
 68
     1
 69
     1
 12
199.9958540046056
 22
144.0083936032869
 13
0.0
 23
0.0
 14
10.0
 24
10.0
 15
10.0
 25
10.0
 16
0.0
 26
0.0
 36
1.0
 17
0.0
 27
0.0
 37
0.0
 42
50.0
 43
0.0
 44
0.0
 45
344.0321286145218
 50
0.0
 51
0.0
 72
   100
 90
    32784
  1

281
     0
 71
     1
 74
     0
110
0.0
120
0.0
130
0.0
111
1.0
121
0.0
131
0.0
112
0.0
122
1.0
132
0.0
 79
     0
146
0.0
  0
ENDSEC
  0
SECTION
  2
OBJECTS
  0
DICTIONARY
  5
C
330
0
100
AcDbDictionary
281
     1
  3
ACAD_DETAILVIEWSTYLE
350
7D6C
  3
ACAD_GROUP
350
D
  3
ACAD_IMAGE_VARS
350
7D29
  3
ACAD_LAYOUT
350
73F
  3
ACAD_MLINESTYLE
350
1B
  3
ACAD_PLOTSETTINGS
350
740
  3
ACAD_PLOTSTYLENAME
350
73D
  3
ACAD_SCALELIST
350
7CFD
  3
ACAD_SECTIONVIEWSTYLE
350
7D6D
  3
AcadDim
350
61D4
  3
AcDbVariableDictionary
350
7046
  3
APPDATA
350
7D27
  3
DWGPROPS
350
7D91
  0
DICTIONARY
  5
7D2B
330
2
100
AcDbDictionary
280
     1
281
     1
  3
ACAD_LAYERSTATES
360
7D2C
  0
DICTIONARY
  5
7D6C
102
{ACAD_REACTORS
330
C
102
}
330
C
100
AcDbDictionary
281
     1
  0
DICTIONARY
  5
D
102
{ACAD_REACTORS
330
C
102
}
330
C
100
AcDbDictionary
281
     1
  0
RASTERVARIABLES
  5
7D29
102
{ACAD_REACTORS
330
C
102
}
330
C
100
AcDbRasterVariables
 90
        0
 70
     1
 71
     1
 72
     0
  0
DICTIONARY
  5
73F
102
{ACAD_REACTORS
330
C
102
}
330
C
100
AcDbDictionary
281
     1
  3
Model
350
741
  3
ﾚｲｱｳﾄ1
350
742
  0
DICTIONARY
  5
1B
102
{ACAD_REACTORS
330
C
102
}
330
C
100
AcDbDictionary
281
     1
  3
STANDARD
350
1C
  0
DICTIONARY
  5
740
102
{ACAD_REACTORS
330
C
102
}
330
C
100
AcDbDictionary
281
     1
  0
ACDBDICTIONARYWDFLT
  5
73D
102
{ACAD_REACTORS
330
C
102
}
330
C
100
AcDbDictionary
281
     1
  3
Normal
350
73E
100
AcDbDictionaryWithDefault
340
73E
  0
DICTIONARY
  5
7CFD
102
{ACAD_REACTORS
330
C
102
}
330
C
100
AcDbDictionary
281
     1
  3
A0
350
7CFE
  3
A1
350
7CFF
  3
A2
350
7D00
  3
A3
350
7D01
  3
A4
350
7D02
  3
A5
350
7D03
  3
A6
350
7D04
  3
A7
350
7D05
  3
A8
350
7D06
  3
A9
350
7D07
  3
B0
350
7D08
  3
B1
350
7D09
  3
B2
350
7D0A
  3
B3
350
7D0B
  3
B4
350
7D0C
  3
B5
350
7D0D
  3
B6
350
7D0E
  3
B7
350
7D0F
  3
B8
350
7D10
  3
B9
350
7D11
  3
C0
350
7D12
  3
C1
350
7D13
  3
C2
350
7D14
  3
C3
350
7D15
  3
C4
350
7D16
  3
C5
350
7D17
  3
C6
350
7D18
  3
C7
350
7D19
  3
C8
350
7D1A
  3
C9
350
7D1B
  3
D0
350
7D1C
  3
D1
350
7D1D
  3
D2
350
7D1E
  0
DICTIONARY
  5
7D6D
102
{ACAD_REACTORS
330
C
102
}
330
C
100
AcDbDictionary
281
     1
  0
XRECORD
  5
61D4
102
{ACAD_REACTORS
330
C
102
}
330
C
100
AcDbXrecord
280
     1
 90
   990106
  3

 60
     0
 61
     0
 62
     1
 63
     3
 64
     0
 65
     0
 66
     0
 67
     3
 68
     1
 69
     0
 70
     0
 71
     0
 72
     0
 40
0.0
170
     0
  0
DICTIONARY
  5
7046
102
{ACAD_REACTORS
330
C
102
}
330
C
100
AcDbDictionary
281
     1
  3
DIMASSOC
350
7047
  0
DICTIONARY
  5
7D27
102
{ACAD_REACTORS
330
C
102
}
330
C
100
AcDbDictionary
281
     1
  0
XRECORD
  5
7D91
102
{ACAD_REACTORS
330
C
102
}
330
C
100
AcDbXrecord
280
     1
  1
DWGPROPS COOKIE
  2

  3

  4

  6

  7

  8
takada
  9

300
=
301
=
302
=
303
=
304
=
305
=
306
=
307
=
308
=
309
=
 40
0.0
 41
2451224.285162384
 42
2457352.096190057
  1

 90
        0
  0
DICTIONARY
  5
7D2C
102
{ACAD_REACTORS
330
7D2B
102
}
330
7D2B
100
AcDbDictionary
281
     1
  3
ARGON_LAYERP_1
350
7D2D
  3
ARGON_LAYERP_2
350
7D67
  0
LAYOUT
  5
741
102
{ACAD_REACTORS
330
73F
102
}
330
73F
100
AcDbPlotSettings
  1

  2
HP DesignJet 750C (D/A1) Color
  4
ISO_A3_(420.00_x_297.00_MM)
  6

 40
7.5
 41
20.0
 42
7.5
 43
20.0
 44
420.0
 45
297.0
 46
0.0
 47
0.0
 48
0.0
 49
0.0
140
0.0
141
0.0
142
1.0
143
2.28567873919673
 70
  1712
 72
     1
 73
     0
 74
     0
  7

 75
     0
147
0.4375068039314379
148
82.6495334453358
149
-143.8407396594012
100
AcDbLayout
  1
Model
 70
     1
 71
     0
 10
0.0
 20
0.0
 11
12.0
 21
9.0
 12
0.0
 22
0.0
 32
0.0
 14
110.42827895866
 24
242.7718254907307
 34
0.0
 15
313.9145583107856
 25
399.958788511424
 35
0.0
146
0.0
 13
0.0
 23
0.0
 33
0.0
 16
1.0
 26
0.0
 36
0.0
 17
0.0
 27
1.0
 37
0.0
 76
     0
330
18
  0
LAYOUT
  5
742
102
{ACAD_REACTORS
330
73F
102
}
330
73F
100
AcDbPlotSettings
  1

  2
SII LP-1010_A3.pc3
  4
A3
  6

 40
3.174999952316283
 41
3.174999952316283
 42
3.17498779296875
 43
3.17498779296875
 44
296.9259948730469
 45
419.9466552734373
 46
0.0
 47
0.0
 48
0.0
 49
0.0
140
0.0
141
0.0
142
1.0
143
1.0
 70
   688
 72
     1
 73
     1
 74
     1
  7
monochrome.ctb
 75
    16
147
1.0
148
0.0261564264569643
149
0.0109998563546014
100
AcDbLayout
  1
ﾚｲｱｳﾄ1
 70
     0
 71
     1
 10
-3.201144219425714
 20
-3.185999808670885
 11
416.7455110540116
 21
293.7399950643759
 12
0.0
 22
0.0
 32
0.0
 14
1.000000000000000E+20
 24
1.000000000000000E+20
 34
1.000000000000000E+20
 15
-1.000000000000000E+20
 25
-1.000000000000000E+20
 35
-1.000000000000000E+20
146
0.0
 13
0.0
 23
0.0
 33
0.0
 16
1.0
 26
0.0
 36
0.0
 17
0.0
 27
1.0
 37
0.0
 76
     0
330
15
331
23
  0
MLINESTYLE
  5
1C
102
{ACAD_REACTORS
330
1B
102
}
330
1B
100
AcDbMlineStyle
  2
STANDARD
 70
     0
  3

 62
   256
 51
90.0
 52
90.0
 71
     2
 49
0.5
 62
   256
  6
BYLAYER
 49
-0.5
 62
   256
  6
BYLAYER
  0
ACDBPLACEHOLDER
  5
73E
102
{ACAD_REACTORS
330
73D
102
}
330
73D
  0
ACAD_PROXY_OBJECT
  5
7CFE
102
{ACAD_REACTORS
330
7CFD
102
}
330
7CFD
100
AcDbProxyObject
 90
      499
 91
      507
 95
   655383
 70
     0
 93
       41
310
903313A31581
 94
        0
  0
ACAD_PROXY_OBJECT
  5
7CFF
102
{ACAD_REACTORS
330
7CFD
102
}
330
7CFD
100
AcDbProxyObject
 90
      499
 91
      507
 95
   655383
 70
     0
 93
      105
310
903313A324000000000000004000
 94
        0
  0
ACAD_PROXY_OBJECT
  5
7D00
102
{ACAD_REACTORS
330
7CFD
102
}
330
7CFD
100
AcDbProxyObject
 90
      499
 91
      507
 95
   655383
 70
     0
 93
      105
310
903313A344000000000000104000
 94
        0
  0
ACAD_PROXY_OBJECT
  5
7D01
102
{ACAD_REACTORS
330
7CFD
102
}
330
7CFD
100
AcDbProxyObject
 90
      499
 91
      507
 95
   655383
 70
     0
 93
      105
310
903313A354000000000000144000
 94
        0
  0
ACAD_PROXY_OBJECT
  5
7D02
102
{ACAD_REACTORS
330
7CFD
102
}
330
7CFD
100
AcDbProxyObject
 90
      499
 91
      507
 95
   655383
 70
     0
 93
      105
310
903313A384000000000000204000
 94
        0
  0
ACAD_PROXY_OBJECT
  5
7D03
102
{ACAD_REACTORS
330
7CFD
102
}
330
7CFD
100
AcDbProxyObject
 90
      499
 91
      507
 95
   655383
 70
     0
 93
      113
310
904313A3130400000000000024407F
 94
        0
  0
ACAD_PROXY_OBJECT
  5
7D04
102
{ACAD_REACTORS
330
7CFD
102
}
330
7CFD
100
AcDbProxyObject
 90
      499
 91
      507
 95
   655383
 70
     0
 93
      113
310
904313A3136400000000000030407F
 94
        0
  0
ACAD_PROXY_OBJECT
  5
7D05
102
{ACAD_REACTORS
330
7CFD
102
}
330
7CFD
100
AcDbProxyObject
 90
      499
 91
      507
 95
   655383
 70
     0
 93
      113
310
904313A3230400000000000034407F
 94
        0
  0
ACAD_PROXY_OBJECT
  5
7D06
102
{ACAD_REACTORS
330
7CFD
102
}
330
7CFD
100
AcDbProxyObject
 90
      499
 91
      507
 95
   655383
 70
     0
 93
      113
310
904313A333040000000000003E407F
 94
        0
  0
ACAD_PROXY_OBJECT
  5
7D07
102
{ACAD_REACTORS
330
7CFD
102
}
330
7CFD
100
AcDbProxyObject
 90
      499
 91
      507
 95
   655383
 70
     0
 93
      113
310
904313A3430400000000000044407F
 94
        0
  0
ACAD_PROXY_OBJECT
  5
7D08
102
{ACAD_REACTORS
330
7CFD
102
}
330
7CFD
100
AcDbProxyObject
 90
      499
 91
      507
 95
   655383
 70
     0
 93
      113
310
904313A3530400000000000049407F
 94
        0
  0
ACAD_PROXY_OBJECT
  5
7D09
102
{ACAD_REACTORS
330
7CFD
102
}
330
7CFD
100
AcDbProxyObject
 90
      499
 91
      507
 95
   655383
 70
     0
 93
      121
310
905313A313030400000000000059407F
 94
        0
  0
ACAD_PROXY_OBJECT
  5
7D0A
102
{ACAD_REACTORS
330
7CFD
102
}
330
7CFD
100
AcDbProxyObject
 90
      499
 91
      507
 95
   655383
 70
     0
 93
      105
310
903323A310000000000000010159
 94
        0
  0
ACAD_PROXY_OBJECT
  5
7D0B
102
{ACAD_REACTORS
330
7CFD
102
}
330
7CFD
100
AcDbProxyObject
 90
      499
 91
      507
 95
   655383
 70
     0
 93
      105
310
903343A310000000000000410159
 94
        0
  0
ACAD_PROXY_OBJECT
  5
7D0C
102
{ACAD_REACTORS
330
7CFD
102
}
330
7CFD
100
AcDbProxyObject
 90
      499
 91
      507
 95
   655383
 70
     0
 93
      105
310
903383A310000000000000810159
 94
        0
  0
ACAD_PROXY_OBJECT
  5
7D0D
102
{ACAD_REACTORS
330
7CFD
102
}
330
7CFD
100
AcDbProxyObject
 90
      499
 91
      507
 95
   655383
 70
     0
 93
      113
310
90431303A310000000000000910140
 94
        0
  0
ACAD_PROXY_OBJECT
  5
7D0E
102
{ACAD_REACTORS
330
7CFD
102
}
330
7CFD
100
AcDbProxyObject
 90
      499
 91
      507
 95
   655383
 70
     0
 93
      121
310
9053130303A31000000000000165017F
 94
        0
  0
ACAD_PROXY_OBJECT
  5
7D0F
102
{ACAD_REACTORS
330
7CFD
102
}
330
7CFD
100
AcDbProxyObject
 90
      499
 91
      507
 95
   655383
 70
     0
 93
      257
310
90E312F31323822203D2031272D3022000000000000200FC00000000000028407F
 94
        0
  0
ACAD_PROXY_OBJECT
  5
7D10
102
{ACAD_REACTORS
330
7CFD
102
}
330
7CFD
100
AcDbProxyObject
 90
      499
 91
      507
 95
   655383
 70
     0
 93
      249
310
90D312F363422203D2031272D3022000000000000240FC000000000000284040
 94
        0
  0
ACAD_PROXY_OBJECT
  5
7D11
102
{ACAD_REACTORS
330
7CFD
102
}
330
7CFD
100
AcDbProxyObject
 90
      499
 91
      507
 95
   655383
 70
     0
 93
      249
310
90D312F333222203D2031272D3022000000000000280FC000000000000284040
 94
        0
  0
ACAD_PROXY_OBJECT
  5
7D12
102
{ACAD_REACTORS
330
7CFD
102
}
330
7CFD
100
AcDbProxyObject
 90
      499
 91
      507
 95
   655383
 70
     0
 93
      249
310
90D312F313622203D2031272D30220000000000002C0FC000000000000284040
 94
        0
  0
ACAD_PROXY_OBJECT
  5
7D13
102
{ACAD_REACTORS
330
7CFD
102
}
330
7CFD
100
AcDbProxyObject
 90
      499
 91
      507
 95
   655383
 70
     0
 93
      249
310
90D332F333222203D2031272D30220000000000002E0FC000000000000284040
 94
        0
  0
ACAD_PROXY_OBJECT
  5
7D14
102
{ACAD_REACTORS
330
7CFD
102
}
330
7CFD
100
AcDbProxyObject
 90
      499
 91
      507
 95
   655383
 70
     0
 93
      241
310
90C312F3822203D2031272D3022000000000000300FC000000000000284040
 94
        0
  0
ACAD_PROXY_OBJECT
  5
7D15
102
{ACAD_REACTORS
330
7CFD
102
}
330
7CFD
100
AcDbProxyObject
 90
      499
 91
      507
 95
   655383
 70
     0
 93
      249
310
90D332F313622203D2031272D3022000000000000320FC000000000000284040
 94
        0
  0
ACAD_PROXY_OBJECT
  5
7D16
102
{ACAD_REACTORS
330
7CFD
102
}
330
7CFD
100
AcDbProxyObject
 90
      499
 91
      507
 95
   655383
 70
     0
 93
      241
310
90C312F3422203D2031272D3022000000000000340FC000000000000284040
 94
        0
  0
ACAD_PROXY_OBJECT
  5
7D17
102
{ACAD_REACTORS
330
7CFD
102
}
330
7CFD
100
AcDbProxyObject
 90
      499
 91
      507
 95
   655383
 70
     0
 93
      241
310
90C332F3822203D2031272D3022000000000000360FC000000000000284040
 94
        0
  0
ACAD_PROXY_OBJECT
  5
7D18
102
{ACAD_REACTORS
330
7CFD
102
}
330
7CFD
100
AcDbProxyObject
 90
      499
 91
      507
 95
   655383
 70
     0
 93
      241
310
90C312F3222203D2031272D3022000000000000380FC000000000000284040
 94
        0
  0
ACAD_PROXY_OBJECT
  5
7D19
102
{ACAD_REACTORS
330
7CFD
102
}
330
7CFD
100
AcDbProxyObject
 90
      499
 91
      507
 95
   655383
 70
     0
 93
      241
310
90C332F3422203D2031272D30220000000000003A0FC000000000000284040
 94
        0
  0
ACAD_PROXY_OBJECT
  5
7D1A
102
{ACAD_REACTORS
330
7CFD
102
}
330
7CFD
100
AcDbProxyObject
 90
      499
 91
      507
 95
   655383
 70
     0
 93
      161
310
90A3122203D2031272D30224000000000000284020
 94
        0
  0
ACAD_PROXY_OBJECT
  5
7D1B
102
{ACAD_REACTORS
330
7CFD
102
}
330
7CFD
100
AcDbProxyObject
 90
      499
 91
      507
 95
   655383
 70
     0
 93
      257
310
90E312D312F3222203D2031272D30220000000000003E0FC00000000000028407F
 94
        0
  0
ACAD_PROXY_OBJECT
  5
7D1C
102
{ACAD_REACTORS
330
7CFD
102
}
330
7CFD
100
AcDbProxyObject
 90
      499
 91
      507
 95
   655383
 70
     0
 93
      225
310
90A3322203D2031272D302200000000000002100000000000000284000
 94
        0
  0
ACAD_PROXY_OBJECT
  5
7D1D
102
{ACAD_REACTORS
330
7CFD
102
}
330
7CFD
100
AcDbProxyObject
 90
      499
 91
      507
 95
   655383
 70
     0
 93
      225
310
90A3622203D2031272D302200000000000006100000000000000284000
 94
        0
  0
ACAD_PROXY_OBJECT
  5
7D1E
102
{ACAD_REACTORS
330
7CFD
102
}
330
7CFD
100
AcDbProxyObject
 90
      499
 91
      507
 95
   655383
 70
     0
 93
      249
310
90D31272D3022203D2031272D30220000000000000A100000000000000284040
 94
        0
  0
DICTIONARYVAR
  5
7047
102
{ACAD_REACTORS
330
7046
102
}
330
7046
100
DictionaryVariables
280
     0
  1
1
  0
XRECORD
  5
7D2D
102
{ACAD_REACTORS
330
7D2C
102
}
330
7D2C
100
AcDbXrecord
280
     1
 91
     1023
301

290
     0
302
DEMENTION
330
E
 90
        8
 62
     7
370
    -3
331
14
  1
Color_7
330
0
 90
        9
 62
     1
370
    -3
331
14
  1
Color_1
330
0
 90
        8
 62
     7
370
    -3
331
14
  1
Color_7
330
0
 90
        0
 62
     7
370
    -3
331
14
  1
Color_7
330
0
 90
        8
 62
     4
370
    15
331
14
  1
Color_4
330
0
 90
        8
 62
    10
370
    -3
331
14
  1
Color_10
330
0
 90
        8
 62
     7
370
    -3
331
14
  1
Color_7
330
0
 90
        8
 62
     7
370
    -3
331
14
  1
Color_7
330
0
 90
        8
 62
     7
370
    -3
331
14
  1
Color_7
330
0
 90
        8
 62
     9
370
    -3
331
14
  1
Color_9
330
0
 90
        8
 62
     7
370
    -3
331
14
  1
Color_7
330
0
 90
        8
 62
   161
370
    -3
331
14
  1
Color_161
330
0
 90
        8
 62
     7
370
    -3
331
14
  1
Color_7
330
0
 90
        8
 62
   141
370
    13
331
14
  1
Color_141
  0
XRECORD
  5
7D67
102
{ACAD_REACTORS
330
7D2C
102
}
330
7D2C
100
AcDbXrecord
280
     1
 91
     1023
301

290
     0
302
DEMENTION
330
E
 90
        8
 62
     7
370
    -3
331
14
  1
Color_7
330
0
 90
        8
 62
     1
370
    -3
331
14
  1
Color_1
330
0
 90
        8
 62
     7
370
    -3
331
14
  1
Color_7
330
0
 90
        0
 62
     7
370
    -3
331
14
  1
Color_7
330
0
 90
        8
 62
     4
370
    15
331
14
  1
Color_4
330
0
 90
        8
 62
    10
370
    -3
331
14
  1
Color_10
330
0
 90
        8
 62
     7
370
    -3
331
14
  1
Color_7
330
0
 90
        8
 62
     7
370
    -3
331
14
  1
Color_7
330
0
 90
        8
 62
     7
370
    -3
331
14
  1
Color_7
330
0
 90
        8
 62
     9
370
    -3
331
14
  1
Color_9
330
0
 90
        8
 62
     7
370
    -3
331
14
  1
Color_7
330
0
 90
        8
 62
   161
370
    -3
331
14
  1
Color_161
330
0
 90
        8
 62
     7
370
    -3
331
14
  1
Color_7
330
0
 90
        8
 62
   141
370
    13
331
14
  1
Color_141
  0
ENDSEC
  0
EOF
