  0
SECTION
  2
HEADER
  9
$ACADVER
  1
AC1015
  9
$ACADMAINTVER
 70
    10
  9
$DWGCODEPAGE
  3
ANSI_932
  9
$INSBASE
 10
0.0
 20
0.0
 30
0.0
  9
$EXTMIN
 10
108.0312156897097
 20
-190.3296677981003
 30
0.0
  9
$EXTMAX
 10
409.0158305884259
 20
-12.49735183085666
 30
0.0
  9
$LIMMIN
 10
0.0
 20
0.0
  9
$LIMMAX
 10
420.0
 20
297.0
  9
$ORTHOMODE
 70
     1
  9
$REGENMODE
 70
     1
  9
$FILLMODE
 70
     1
  9
$QTEXTMODE
 70
     0
  9
$MIRRTEXT
 70
     1
  9
$LTSCALE
 40
1.0
  9
$ATTMODE
 70
     1
  9
$TEXTSIZE
 40
3.0
  9
$TRACEWID
 40
1.0
  9
$TEXTSTYLE
  7
STANDARD
  9
$CLAYER
  8
0
  9
$CELTYPE
  6
BYLAYER
  9
$CECOLOR
 62
   256
  9
$CELTSCALE
 40
1.0
  9
$DISPSILH
 70
     0
  9
$DIMSCALE
 40
1.0
  9
$DIMASZ
 40
3.0
  9
$DIMEXO
 40
2.0
  9
$DIMDLI
 40
5.0
  9
$DIMRND
 40
0.0
  9
$DIMDLE
 40
0.0
  9
$DIMEXE
 40
0.75
  9
$DIMTP
 40
0.0
  9
$DIMTM
 40
0.0
  9
$DIMTXT
 40
6.0
  9
$DIMCEN
 40
2.5
  9
$DIMTSZ
 40
0.0
  9
$DIMTOL
 70
     0
  9
$DIMLIM
 70
     0
  9
$DIMTIH
 70
     0
  9
$DIMTOH
 70
     0
  9
$DIMSE1
 70
     0
  9
$DIMSE2
 70
     0
  9
$DIMTAD
 70
     1
  9
$DIMZIN
 70
     9
  9
$DIMBLK
  1

  9
$DIMASO
 70
     1
  9
$DIMSHO
 70
     1
  9
$DIMPOST
  1

  9
$DIMAPOST
  1

  9
$DIMALT
 70
     0
  9
$DIMALTD
 70
     4
  9
$DIMALTF
 40
0.0394
  9
$DIMLFAC
 40
1.0
  9
$DIMTOFL
 70
     1
  9
$DIMTVP
 40
0.0
  9
$DIMTIX
 70
     0
  9
$DIMSOXD
 70
     0
  9
$DIMSAH
 70
     1
  9
$DIMBLK1
  1
OPEN
  9
$DIMBLK2
  1
OPEN
  9
$DIMSTYLE
  2
STANDARD
  9
$DIMCLRD
 70
     0
  9
$DIMCLRE
 70
     0
  9
$DIMCLRT
 70
     7
  9
$DIMTFAC
 40
1.0
  9
$DIMGAP
 40
1.0
  9
$DIMJUST
 70
     0
  9
$DIMSD1
 70
     0
  9
$DIMSD2
 70
     0
  9
$DIMTOLJ
 70
     1
  9
$DIMTZIN
 70
     9
  9
$DIMALTZ
 70
     0
  9
$DIMALTTZ
 70
     0
  9
$DIMUPT
 70
     0
  9
$DIMDEC
 70
     4
  9
$DIMTDEC
 70
     4
  9
$DIMALTU
 70
     8
  9
$DIMALTTD
 70
     4
  9
$DIMTXSTY
  7
STANDARD
  9
$DIMAUNIT
 70
     0
  9
$DIMADEC
 70
     0
  9
$DIMALTRND
 40
0.0
  9
$DIMAZIN
 70
     2
  9
$DIMDSEP
 70
    46
  9
$DIMATFIT
 70
     3
  9
$DIMFRAC
 70
     0
  9
$DIMLDRBLK
  1
OPEN
  9
$DIMLUNIT
 70
     2
  9
$DIMLWD
 70
    -2
  9
$DIMLWE
 70
    -2
  9
$DIMTMOVE
 70
     2
  9
$LUNITS
 70
     2
  9
$LUPREC
 70
     4
  9
$SKETCHINC
 40
1.0
  9
$FILLETRAD
 40
10.0
  9
$AUNITS
 70
     0
  9
$AUPREC
 70
     0
  9
$MENU
  1
.
  9
$ELEVATION
 40
0.0
  9
$PELEVATION
 40
0.0
  9
$THICKNESS
 40
0.0
  9
$LIMCHECK
 70
     0
  9
$CHAMFERA
 40
10.0
  9
$CHAMFERB
 40
10.0
  9
$CHAMFERC
 40
20.0
  9
$CHAMFERD
 40
0.0
  9
$SKPOLY
 70
     0
  9
$TDCREATE
 40
2451224.660162384
  9
$TDUCREATE
 40
2451224.285162384
  9
$TDUPDATE
 40
2457366.585670023
  9
$TDUUPDATE
 40
2457366.210670023
  9
$TDINDWG
 40
0.8014250347
  9
$TDUSRTIMER
 40
2457352.096395335
  9
$USRTIMER
 70
     1
  9
$ANGBASE
 50
0.0
  9
$ANGDIR
 70
     0
  9
$PDMODE
 70
     0
  9
$PDSIZE
 40
0.0
  9
$PLINEWID
 40
0.0
  9
$SPLFRAME
 70
     0
  9
$SPLINETYPE
 70
     6
  9
$SPLINESEGS
 70
     8
  9
$HANDSEED
  5
7B52
  9
$SURFTAB1
 70
     6
  9
$SURFTAB2
 70
     6
  9
$SURFTYPE
 70
     6
  9
$SURFU
 70
     6
  9
$SURFV
 70
     6
  9
$UCSBASE
  2

  9
$UCSNAME
  2

  9
$UCSORG
 10
0.0
 20
0.0
 30
0.0
  9
$UCSXDIR
 10
1.0
 20
0.0
 30
0.0
  9
$UCSYDIR
 10
0.0
 20
1.0
 30
0.0
  9
$UCSORTHOREF
  2

  9
$UCSORTHOVIEW
 70
     0
  9
$UCSORGTOP
 10
0.0
 20
0.0
 30
0.0
  9
$UCSORGBOTTOM
 10
0.0
 20
0.0
 30
0.0
  9
$UCSORGLEFT
 10
0.0
 20
0.0
 30
0.0
  9
$UCSORGRIGHT
 10
0.0
 20
0.0
 30
0.0
  9
$UCSORGFRONT
 10
0.0
 20
0.0
 30
0.0
  9
$UCSORGBACK
 10
0.0
 20
0.0
 30
0.0
  9
$PUCSBASE
  2

  9
$PUCSNAME
  2

  9
$PUCSORG
 10
0.0
 20
0.0
 30
0.0
  9
$PUCSXDIR
 10
1.0
 20
0.0
 30
0.0
  9
$PUCSYDIR
 10
0.0
 20
1.0
 30
0.0
  9
$PUCSORTHOREF
  2

  9
$PUCSORTHOVIEW
 70
     0
  9
$PUCSORGTOP
 10
0.0
 20
0.0
 30
0.0
  9
$PUCSORGBOTTOM
 10
0.0
 20
0.0
 30
0.0
  9
$PUCSORGLEFT
 10
0.0
 20
0.0
 30
0.0
  9
$PUCSORGRIGHT
 10
0.0
 20
0.0
 30
0.0
  9
$PUCSORGFRONT
 10
0.0
 20
0.0
 30
0.0
  9
$PUCSORGBACK
 10
0.0
 20
0.0
 30
0.0
  9
$USERI1
 70
     0
  9
$USERI2
 70
     0
  9
$USERI3
 70
     0
  9
$USERI4
 70
     0
  9
$USERI5
 70
     0
  9
$USERR1
 40
0.0
  9
$USERR2
 40
0.0
  9
$USERR3
 40
0.0
  9
$USERR4
 40
0.0
  9
$USERR5
 40
0.0
  9
$WORLDVIEW
 70
     1
  9
$SHADEDGE
 70
     3
  9
$SHADEDIF
 70
    70
  9
$TILEMODE
 70
     1
  9
$MAXACTVP
 70
    48
  9
$PINSBASE
 10
0.0
 20
0.0
 30
0.0
  9
$PLIMCHECK
 70
     0
  9
$PEXTMIN
 10
1.000000000000000E+20
 20
1.000000000000000E+20
 30
1.000000000000000E+20
  9
$PEXTMAX
 10
-1.000000000000000E+20
 20
-1.000000000000000E+20
 30
-1.000000000000000E+20
  9
$PLIMMIN
 10
-3.185008070615708
 20
-3.175895086517129
  9
$PLIMMAX
 10
416.7616472028216
 20
293.7500997865297
  9
$UNITMODE
 70
     0
  9
$VISRETAIN
 70
     1
  9
$PLINEGEN
 70
     0
  9
$PSLTSCALE
 70
     0
  9
$TREEDEPTH
 70
  3020
  9
$CMLSTYLE
  2
STANDARD
  9
$CMLJUST
 70
     0
  9
$CMLSCALE
 40
20.0
  9
$PROXYGRAPHICS
 70
     1
  9
$MEASUREMENT
 70
     1
  9
$CELWEIGHT
370
    -1
  9
$ENDCAPS
280
     0
  9
$JOINSTYLE
280
     0
  9
$LWDISPLAY
290
     1
  9
$INSUNITS
 70
     0
  9
$HYPERLINKBASE
  1

  9
$STYLESHEET
  1

  9
$XEDIT
290
     1
  9
$CEPSNTYPE
380
     0
  9
$PSTYLEMODE
290
     1
  9
$FINGERPRINTGUID
  2
{6B368F64-F7EB-11D4-BFBA-00004C030E53}
  9
$VERSIONGUID
  2
{CADF0CCC-C66E-4901-A8EC-F5D0DF26E326}
  9
$EXTNAMES
290
     1
  9
$PSVPSCALE
 40
0.0
  9
$OLESTARTUP
290
     0
  0
ENDSEC
  0
SECTION
  2
CLASSES
  0
CLASS
  1
HATCH
  2
AcDbHatch
  3
AutoCAD 2000
 90
    32768
280
     0
281
     1
  0
CLASS
  1
LWPOLYLINE
  2
AcDbPolyline
  3
AutoCAD 2000
 90
    32768
280
     0
281
     1
  0
CLASS
  1
ACDBDICTIONARYWDFLT
  2
AcDbDictionaryWithDefault
  3
AutoCAD 2000
 90
        0
280
     0
281
     0
  0
CLASS
  1
ACDBPLACEHOLDER
  2
AcDbPlaceHolder
  3
AutoCAD 2000
 90
        0
280
     0
281
     0
  0
CLASS
  1
LAYOUT
  2
AcDbLayout
  3
AutoCAD 2000
 90
        0
280
     0
281
     0
  0
CLASS
  1
DICTIONARYVAR
  2
AcDbDictionaryVar
  3
AutoCAD 2000
 90
        0
280
     0
281
     0
  0
CLASS
  1
VISUALSTYLE
  2
AcDbVisualStyle
  3
ObjectDBX Classes
 90
    36863
280
     0
281
     0
  0
CLASS
  1
SCALE
  2
AcDbScale
  3
ObjectDBX Classes
 90
     1153
280
     0
281
     0
  0
CLASS
  1
MATERIAL
  2
AcDbMaterial
  3
ObjectDBX Classes
 90
    33921
280
     0
281
     0
  0
CLASS
  1
TABLESTYLE
  2
AcDbTableStyle
  3
ObjectDBX Classes
 90
    36863
280
     0
281
     0
  0
CLASS
  1
MLEADERSTYLE
  2
AcDbMLeaderStyle
  3
ACDB_MLEADERSTYLE_CLASS
 90
    36863
280
     0
281
     0
  0
CLASS
  1
SUN
  2
AcDbSun
  3
SCENEOE
 90
     1153
280
     0
281
     0
  0
CLASS
  1
RASTERVARIABLES
  2
AcDbRasterVariables
  3
ISM
 90
        0
280
     0
281
     0
  0
ENDSEC
  0
SECTION
  2
TABLES
  0
TABLE
  2
VPORT
  5
8
330
0
100
AcDbSymbolTable
 70
     2
  0
VPORT
  5
7B51
330
8
100
AcDbSymbolTableRecord
100
AcDbViewportTableRecord
  2
*Active
 70
     0
 10
0.0
 20
0.0
 11
1.0
 21
1.0
 12
258.5235231390678
 22
-89.29136782669315
 13
0.0
 23
0.0
 14
10.0
 24
10.0
 15
10.0
 25
10.0
 16
0.0
 26
0.0
 36
1.0
 17
0.0
 27
0.0
 37
0.0
 40
204.9262462621593
 41
1.562182741116751
 42
50.0
 43
0.0
 44
0.0
 50
0.0
 51
0.0
 71
    16
 72
   100
 73
     1
 74
     0
 75
     0
 76
     0
 77
     0
 78
     0
281
     0
 65
     1
110
0.0
120
0.0
130
0.0
111
1.0
121
0.0
131
0.0
112
0.0
122
1.0
132
0.0
 79
     0
146
0.0
  0
ENDTAB
  0
TABLE
  2
LTYPE
  5
5
330
0
100
AcDbSymbolTable
 70
     1
  0
LTYPE
  5
12
330
5
100
AcDbSymbolTableRecord
100
AcDbLinetypeTableRecord
  2
BYBLOCK
 70
     0
  3

 72
    65
 73
     0
 40
0.0
  0
LTYPE
  5
13
330
5
100
AcDbSymbolTableRecord
100
AcDbLinetypeTableRecord
  2
BYLAYER
 70
     0
  3

 72
    65
 73
     0
 40
0.0
  0
LTYPE
  5
14
330
5
100
AcDbSymbolTableRecord
100
AcDbLinetypeTableRecord
  2
CONTINUOUS
 70
     0
  3
Solid line
 72
    65
 73
     0
 40
0.0
  0
ENDTAB
  0
TABLE
  2
LAYER
  5
2
102
{ACAD_XDICTIONARY
360
7B13
102
}
330
0
100
AcDbSymbolTable
 70
     1
  0
LAYER
  5
E
330
2
100
AcDbSymbolTableRecord
100
AcDbLayerTableRecord
  2
0
 70
     0
 62
     7
  6
CONTINUOUS
370
    -3
390
73E
  0
ENDTAB
  0
TABLE
  2
STYLE
  5
3
330
0
100
AcDbSymbolTable
 70
     2
  0
STYLE
  5
F
330
3
100
AcDbSymbolTableRecord
100
AcDbTextStyleTableRecord
  2
STANDARD
 70
     0
 40
0.0
 41
1.0
 50
0.0
 71
     0
 42
3.0
  3
isocp.shx
  4
bigfont.shx
  0
STYLE
  5
73D4
330
3
100
AcDbSymbolTableRecord
100
AcDbTextStyleTableRecord
  2
STYLE1
 70
     0
 40
0.0
 41
1.0
 50
0.0
 71
     0
 42
8.0
  3
isocp.shx
  4
bigfont.shx
  0
ENDTAB
  0
TABLE
  2
VIEW
  5
6
330
0
100
AcDbSymbolTable
 70
     0
  0
ENDTAB
  0
TABLE
  2
UCS
  5
7
330
0
100
AcDbSymbolTable
 70
     0
  0
ENDTAB
  0
TABLE
  2
APPID
  5
9
330
0
100
AcDbSymbolTable
 70
     1
  0
APPID
  5
10
330
9
100
AcDbSymbolTableRecord
100
AcDbRegAppTableRecord
  2
ACAD
 70
     0
  0
ENDTAB
  0
TABLE
  2
DIMSTYLE
  5
A
330
0
100
AcDbSymbolTable
 70
     1
100
AcDbDimStyleTable
 71
     0
  0
DIMSTYLE
105
1D
330
A
100
AcDbSymbolTableRecord
100
AcDbDimStyleTableRecord
  2
STANDARD
 70
     0
 78
     8
 79
     2
140
3.0
340
F
341
89E
342
89E
  0
ENDTAB
  0
TABLE
  2
BLOCK_RECORD
  5
1
330
0
100
AcDbSymbolTable
 70
     2
  0
BLOCK_RECORD
  5
18
330
1
100
AcDbSymbolTableRecord
100
AcDbBlockTableRecord
  2
*MODEL_SPACE
340
741
  0
BLOCK_RECORD
  5
15
330
1
100
AcDbSymbolTableRecord
100
AcDbBlockTableRecord
  2
*PAPER_SPACE
340
742
  0
BLOCK_RECORD
  5
24
330
1
100
AcDbSymbolTableRecord
100
AcDbBlockTableRecord
  2
_OPEN
340
0
  0
BLOCK_RECORD
  5
89E
330
1
100
AcDbSymbolTableRecord
100
AcDbBlockTableRecord
  2
_Open30
340
0
  0
ENDTAB
  0
ENDSEC
  0
SECTION
  2
BLOCKS
  0
BLOCK
  5
19
330
18
100
AcDbEntity
  8
0
100
AcDbBlockBegin
  2
*MODEL_SPACE
 70
     0
 10
0.0
 20
0.0
 30
0.0
  3
*MODEL_SPACE
  1

  0
ENDBLK
  5
1A
330
18
100
AcDbEntity
  8
0
100
AcDbBlockEnd
  0
BLOCK
  5
16
330
15
100
AcDbEntity
 67
     1
  8
0
100
AcDbBlockBegin
  2
*PAPER_SPACE
 70
     0
 10
0.0
 20
0.0
 30
0.0
  3
*PAPER_SPACE
  1

  0
ENDBLK
  5
17
330
15
100
AcDbEntity
 67
     1
  8
0
100
AcDbBlockEnd
  0
BLOCK
  5
25
330
24
100
AcDbEntity
  8
0
100
AcDbBlockBegin
  2
_OPEN
 70
     0
 10
0.0
 20
0.0
 30
0.0
  3
_OPEN
  1

  0
LINE
  5
26
330
24
100
AcDbEntity
  8
0
  6
ByBlock
 62
     0
100
AcDbLine
 10
-1.0
 20
0.1666666666666666
 30
0.0
 11
0.0
 21
0.0
 31
0.0
  0
LINE
  5
27
330
24
100
AcDbEntity
  8
0
  6
ByBlock
 62
     0
100
AcDbLine
 10
0.0
 20
0.0
 30
0.0
 11
-1.0
 21
-0.1666666666666666
 31
0.0
  0
LINE
  5
28
330
24
100
AcDbEntity
  8
0
  6
ByBlock
 62
     0
100
AcDbLine
 10
0.0
 20
0.0
 30
0.0
 11
-1.0
 21
0.0
 31
0.0
  0
ENDBLK
  5
29
330
24
100
AcDbEntity
  8
0
100
AcDbBlockEnd
  0
BLOCK
  5
8A2
330
89E
100
AcDbEntity
  8
0
100
AcDbBlockBegin
  2
_Open30
 70
     0
 10
0.0
 20
0.0
 30
0.0
  3
_Open30
  1

  0
LINE
  5
89F
330
89E
100
AcDbEntity
  8
0
  6
ByBlock
 62
     0
370
    -2
100
AcDbLine
 10
-1.0
 20
0.26794919
 30
0.0
 11
0.0
 21
0.0
 31
0.0
  0
LINE
  5
8A0
330
89E
100
AcDbEntity
  8
0
  6
ByBlock
 62
     0
370
    -2
100
AcDbLine
 10
0.0
 20
0.0
 30
0.0
 11
-1.0
 21
-0.26794919
 31
0.0
  0
LINE
  5
8A1
330
89E
100
AcDbEntity
  8
0
  6
ByBlock
 62
     0
370
    -2
100
AcDbLine
 10
0.0
 20
0.0
 30
0.0
 11
-1.0
 21
0.0
 31
0.0
  0
ENDBLK
  5
8A3
330
89E
100
AcDbEntity
  8
0
100
AcDbBlockEnd
  0
ENDSEC
  0
SECTION
  2
ENTITIES
  0
LINE
  5
75E0
330
18
100
AcDbEntity
  8
0
100
AcDbLine
 10
409.0158305884214
 20
-160.4973518308583
 30
0.0
 11
409.0158305884259
 21
-12.49735183085829
 31
0.0
  0
LINE
  5
75E1
330
18
100
AcDbEntity
  8
0
100
AcDbLine
 10
407.0158305884215
 20
-160.4973518308583
 30
0.0
 11
407.0158305884261
 21
-12.49735183085817
 31
0.0
  0
LINE
  5
75E2
330
18
100
AcDbEntity
  8
0
100
AcDbLine
 10
407.0158305884242
 20
-160.4973518308581
 30
0.0
 11
409.0158305884251
 21
-160.4973518308581
 31
0.0
  0
LINE
  5
75E3
330
18
100
AcDbEntity
  8
0
100
AcDbLine
 10
407.0158305884261
 20
-25.49735183086282
 30
0.0
 11
274.015830588426
 21
-25.49735183085818
 31
0.0
  0
LINE
  5
75E4
330
18
100
AcDbEntity
  8
0
100
AcDbLine
 10
276.015830588426
 20
-25.49735183085818
 30
0.0
 11
407.0158305884261
 21
-25.49735183085818
 31
0.0
  0
LINE
  5
75E5
330
18
100
AcDbEntity
  8
0
100
AcDbLine
 10
274.0158305884223
 20
-145.497351830858
 30
0.0
 11
407.0158305884223
 21
-145.4973518308628
 31
0.0
  0
LINE
  5
75E6
330
18
100
AcDbEntity
  8
0
100
AcDbLine
 10
407.0158305884223
 20
-145.497351830858
 30
0.0
 11
276.0158305884223
 21
-145.497351830858
 31
0.0
  0
LINE
  5
75F0
330
18
100
AcDbEntity
  8
0
100
AcDbLine
 10
276.0158305884223
 20
-145.4973518308581
 30
0.0
 11
276.015830588426
 21
-25.49735183085829
 31
0.0
  0
LINE
  5
75F1
330
18
100
AcDbEntity
  8
0
100
AcDbLine
 10
274.0158305884223
 20
-145.497351830858
 30
0.0
 11
274.015830588426
 21
-25.49735183085818
 31
0.0
  0
LINE
  5
75F2
330
18
100
AcDbEntity
  8
0
100
AcDbLine
 10
276.0158305884223
 20
-145.497351830858
 30
0.0
 11
276.015830588426
 21
-25.49735183085818
 31
0.0
  0
LINE
  5
75F3
330
18
100
AcDbEntity
  8
0
100
AcDbLine
 10
262.9237315945402
 20
-94.25269701062438
 30
0.0
 11
265.7201578853628
 21
-91.45627071980266
 31
0.0
  0
CIRCLE
  5
75F4
330
18
100
AcDbEntity
  8
0
100
AcDbCircle
 10
264.1098127055955
 20
-92.64235183085816
 30
0.0
 40
2.0
  0
LINE
  5
75F5
330
18
100
AcDbEntity
  8
0
100
AcDbLine
 10
260.6098127055957
 20
-81.37235183085818
 30
0.0
 11
260.6098127055957
 21
-103.8623518308582
 31
0.0
  0
LINE
  5
75F6
330
18
100
AcDbEntity
  8
0
100
AcDbLine
 10
270.1098127055955
 20
-81.37235183085818
 30
0.0
 11
270.1098127055955
 21
-103.8623518308582
 31
0.0
  0
LINE
  5
75F7
330
18
100
AcDbEntity
  8
0
100
AcDbLine
 10
270.6098127055955
 20
-81.37235183085818
 30
0.0
 11
270.6098127055955
 21
-103.8623518308582
 31
0.0
  0
LINE
  5
75F8
330
18
100
AcDbEntity
  8
0
100
AcDbLine
 10
257.6098127055955
 20
-81.37235183085818
 30
0.0
 11
257.6098127055955
 21
-103.8623518308581
 31
0.0
  0
LINE
  5
75F9
330
18
100
AcDbEntity
  8
0
100
AcDbLine
 10
273.6098127055957
 20
-81.37235183085829
 30
0.0
 11
273.6098127055957
 21
-103.8623518308582
 31
0.0
  0
CIRCLE
  5
75FA
330
18
100
AcDbEntity
  8
0
100
AcDbCircle
 10
264.1098127055955
 20
-100.262351830858
 30
0.0
 40
2.0
  0
LINE
  5
75FB
330
18
100
AcDbEntity
  8
0
100
AcDbLine
 10
262.9237315945402
 20
-101.8726970106244
 30
0.0
 11
265.7201578853628
 21
-99.07627071980266
 31
0.0
  0
LINE
  5
75FC
330
18
100
AcDbEntity
  8
0
100
AcDbLine
 10
262.4994675258284
 20
-101.4484329419127
 30
0.0
 11
265.295893816651
 21
-98.65200665109014
 31
0.0
  0
LINE
  5
75FD
330
18
100
AcDbEntity
  8
0
100
AcDbLine
 10
257.6098127055955
 20
-103.8623518308581
 30
0.0
 11
273.6098127055957
 21
-103.8623518308582
 31
0.0
  0
CIRCLE
  5
75FE
330
18
100
AcDbEntity
  8
0
100
AcDbCircle
 10
270.251790327882
 20
-117.4023518308579
 30
0.0
 40
1.199999999999999
  0
CIRCLE
  5
75FF
330
18
100
AcDbEntity
  8
0
100
AcDbCircle
 10
270.251790327882
 20
-113.5923518308579
 30
0.0
 40
1.199999999999999
  0
LINE
  5
7600
330
18
100
AcDbEntity
  8
0
100
AcDbLine
 10
271.1288112333686
 20
-114.4113965984613
 30
0.0
 11
269.9809872050436
 21
-112.4233070632542
 31
0.0
  0
LINE
  5
7601
330
18
100
AcDbEntity
  8
0
100
AcDbLine
 10
270.5225934507206
 20
-114.7613965984614
 30
0.0
 11
269.3747694223957
 21
-112.7733070632543
 31
0.0
  0
LINE
  5
7602
330
18
100
AcDbEntity
  8
0
100
AcDbLine
 10
270.5225934507206
 20
-118.5713965984614
 30
0.0
 11
269.3747694223957
 21
-116.5833070632543
 31
0.0
  0
LINE
  5
7603
330
18
100
AcDbEntity
  8
0
100
AcDbLine
 10
271.1288112333686
 20
-118.2213965984612
 30
0.0
 11
269.9809872050436
 21
-116.233307063254
 31
0.0
  0
LINE
  5
7604
330
18
100
AcDbEntity
  8
0
100
AcDbLine
 10
273.751790327882
 20
-111.2973518308579
 30
0.0
 11
264.8517903278815
 21
-111.2973518308579
 31
0.0
  0
LINE
  5
7605
330
18
100
AcDbEntity
  8
0
100
AcDbLine
 10
273.751790327882
 20
-119.6973518308577
 30
0.0
 11
264.8517903278815
 21
-119.6973518308577
 31
0.0
  0
LINE
  5
7606
330
18
100
AcDbEntity
  8
0
100
AcDbLine
 10
264.8517903278815
 20
-111.2973518308579
 30
0.0
 11
264.8517903278815
 21
-119.6973518308577
 31
0.0
  0
LINE
  5
7607
330
18
100
AcDbEntity
  8
0
100
AcDbLine
 10
265.8517903278815
 20
-111.2973518308579
 30
0.0
 11
265.8517903278815
 21
-119.6973518308577
 31
0.0
  0
LINE
  5
7608
330
18
100
AcDbEntity
  8
0
100
AcDbLine
 10
273.2517903278822
 20
-111.2973518308579
 30
0.0
 11
273.2517903278822
 21
-119.6973518308577
 31
0.0
  0
LINE
  5
7609
330
18
100
AcDbEntity
  8
0
100
AcDbLine
 10
273.751790327882
 20
-111.2973518308579
 30
0.0
 11
273.751790327882
 21
-119.6973518308577
 31
0.0
  0
LINE
  5
761A
330
18
100
AcDbEntity
  8
0
100
AcDbLine
 10
273.5725854754381
 20
-57.63235183085829
 30
0.0
 11
273.5725854754381
 21
-80.12235183085829
 31
0.0
  0
LINE
  5
761B
330
18
100
AcDbEntity
  8
0
100
AcDbLine
 10
270.5725854754382
 20
-57.63235183085818
 30
0.0
 11
270.5725854754382
 21
-80.12235183085829
 31
0.0
  0
LINE
  5
761C
330
18
100
AcDbEntity
  8
0
100
AcDbLine
 10
270.0725854754381
 20
-57.63235183085818
 30
0.0
 11
270.0725854754381
 21
-80.12235183085829
 31
0.0
  0
LINE
  5
761D
330
18
100
AcDbEntity
  8
0
100
AcDbLine
 10
257.5725854754381
 20
-57.63235183085818
 30
0.0
 11
257.5725854754381
 21
-80.12235183085818
 31
0.0
  0
LINE
  5
761E
330
18
100
AcDbEntity
  8
0
100
AcDbLine
 10
260.5725854754382
 20
-57.63235183085818
 30
0.0
 11
260.5725854754382
 21
-80.12235183085829
 31
0.0
  0
LINE
  5
761F
330
18
100
AcDbEntity
  8
0
100
AcDbLine
 10
262.4622402956711
 20
-62.46843294191275
 30
0.0
 11
265.2586665864936
 21
-59.6720066510901
 31
0.0
  0
LINE
  5
7620
330
18
100
AcDbEntity
  8
0
100
AcDbLine
 10
262.8865043643827
 20
-62.89269701062437
 30
0.0
 11
265.6829306552054
 21
-60.09627071980265
 31
0.0
  0
CIRCLE
  5
7621
330
18
100
AcDbEntity
  8
0
100
AcDbCircle
 10
264.0725854754382
 20
-61.28235183085815
 30
0.0
 40
2.0
  0
CIRCLE
  5
7622
330
18
100
AcDbEntity
  8
0
100
AcDbCircle
 10
264.0725854754382
 20
-68.90235183085815
 30
0.0
 40
2.0
  0
LINE
  5
7623
330
18
100
AcDbEntity
  8
0
100
AcDbLine
 10
262.8865043643827
 20
-70.51269701062437
 30
0.0
 11
265.6829306552054
 21
-67.71627071980265
 31
0.0
  0
LINE
  5
7624
330
18
100
AcDbEntity
  8
0
100
AcDbLine
 10
262.4622402956711
 20
-70.08843294191274
 30
0.0
 11
265.2586665864936
 21
-67.29200665109011
 31
0.0
  0
LINE
  5
7625
330
18
100
AcDbEntity
  8
0
100
AcDbLine
 10
262.4622402956711
 20
-77.70843294191275
 30
0.0
 11
265.2586665864936
 21
-74.91200665109011
 31
0.0
  0
LINE
  5
7626
330
18
100
AcDbEntity
  8
0
100
AcDbLine
 10
262.8865043643827
 20
-78.13269701062437
 30
0.0
 11
265.6829306552054
 21
-75.33627071980266
 31
0.0
  0
CIRCLE
  5
7627
330
18
100
AcDbEntity
  8
0
100
AcDbCircle
 10
264.0725854754382
 20
-76.52235183085815
 30
0.0
 40
2.0
  0
LINE
  5
7628
330
18
100
AcDbEntity
  8
0
100
AcDbLine
 10
257.5725854754381
 20
-80.12235183085818
 30
0.0
 11
273.5725854754381
 21
-80.12235183085829
 31
0.0
  0
LINE
  5
7629
330
18
100
AcDbEntity
  8
0
100
AcDbLine
 10
257.5725854754381
 20
-57.63235183085818
 30
0.0
 11
273.5725854754381
 21
-57.63235183085829
 31
0.0
  0
LINE
  5
762A
330
18
100
AcDbEntity
  8
0
100
AcDbLine
 10
262.4994675258284
 20
-93.82843294191276
 30
0.0
 11
265.295893816651
 21
-91.03200665109012
 31
0.0
  0
CIRCLE
  5
762B
330
18
100
AcDbEntity
  8
0
100
AcDbCircle
 10
264.1098127055955
 20
-85.02235183085815
 30
0.0
 40
2.0
  0
LINE
  5
762C
330
18
100
AcDbEntity
  8
0
100
AcDbLine
 10
262.9237315945402
 20
-86.63269701062437
 30
0.0
 11
265.7201578853628
 21
-83.83627071980265
 31
0.0
  0
LINE
  5
762D
330
18
100
AcDbEntity
  8
0
100
AcDbLine
 10
262.4994675258284
 20
-86.20843294191272
 30
0.0
 11
265.295893816651
 21
-83.41200665109012
 31
0.0
  0
LINE
  5
762E
330
18
100
AcDbEntity
  8
0
100
AcDbLine
 10
257.6098127055955
 20
-81.37235183085818
 30
0.0
 11
273.6098127055957
 21
-81.37235183085829
 31
0.0
  0
LINE
  5
7635
330
18
100
AcDbEntity
  8
0
100
AcDbLine
 10
407.0158305884261
 20
-25.49735183085818
 30
0.0
 11
407.0158305884223
 21
-145.497351830858
 31
0.0
  0
LINE
  5
7636
330
18
100
AcDbEntity
  8
0
100
AcDbLine
 10
407.0158305884251
 20
-12.49735183085829
 30
0.0
 11
409.0158305884259
 21
-12.49735183085829
 31
0.0
  0
LINE
  5
7637
330
18
100
AcDbEntity
  8
0
100
AcDbLine
 10
173.3357583057918
 20
-158.4973518308583
 30
0.0
 11
173.3357583057973
 21
-12.49735183085825
 31
0.0
  0
LINE
  5
7638
330
18
100
AcDbEntity
  8
0
100
AcDbLine
 10
140.5857583057971
 20
-153.4973518308583
 30
0.0
 11
140.5857583057971
 21
-158.4973518308594
 31
0.0
  0
LINE
  5
7639
330
18
100
AcDbEntity
  8
0
100
AcDbLine
 10
146.0857583057973
 20
-153.4973518308583
 30
0.0
 11
146.0857583057973
 21
-158.497351830859
 31
0.0
  0
LINE
  5
763A
330
18
100
AcDbEntity
  8
0
100
AcDbLine
 10
123.3357583057932
 20
-158.4973518308583
 30
0.0
 11
123.3357583057923
 21
-145.4973518308581
 31
0.0
  0
LINE
  5
763B
330
18
100
AcDbEntity
  8
0
100
AcDbLine
 10
140.5857583057971
 20
-158.4973518308583
 30
0.0
 11
123.3357583057932
 21
-158.4973518308583
 31
0.0
  0
LINE
  5
763C
330
18
100
AcDbEntity
  8
0
100
AcDbLine
 10
173.3357583057918
 20
-158.4973518308583
 30
0.0
 11
146.0857583057973
 21
-158.4973518308583
 31
0.0
  0
LINE
  5
7642
330
18
100
AcDbEntity
  8
0
100
AcDbLine
 10
173.3357583057963
 20
-25.49735183085826
 30
0.0
 11
173.3357583057927
 21
-145.4973518308581
 31
0.0
  0
LINE
  5
7643
330
18
100
AcDbEntity
  8
0
100
AcDbLine
 10
113.3357583057926
 20
-145.4973518308581
 30
0.0
 11
113.3357583057972
 21
-25.49735183085826
 31
0.0
  0
CIRCLE
  5
764A
330
18
100
AcDbEntity
  8
0
100
AcDbCircle
 10
134.3357583057932
 20
-135.4973518308582
 30
0.0
 40
3.333333333333333
  0
CIRCLE
  5
764B
330
18
100
AcDbEntity
  8
0
100
AcDbCircle
 10
134.3357583057932
 20
-135.4973518308582
 30
0.0
 40
4.0
  0
LINE
  5
764C
330
18
100
AcDbEntity
  8
0
100
AcDbLine
 10
131.753769408322
 20
-134.8306851641914
 30
0.0
 11
133.6690916391262
 21
-134.8306851641914
 31
0.0
  0
LINE
  5
764D
330
18
100
AcDbEntity
  8
0
100
AcDbLine
 10
131.753769408322
 20
-136.164018497525
 30
0.0
 11
133.6690916391262
 21
-136.164018497525
 31
0.0
  0
LINE
  5
7650
330
18
100
AcDbEntity
  8
0
100
AcDbLine
 10
113.3357583057926
 20
-145.4973518308581
 30
0.0
 11
173.3357583057927
 21
-145.4973518308581
 31
0.0
  0
LINE
  5
7651
330
18
100
AcDbEntity
  8
0
100
AcDbLine
 10
173.3357583057927
 20
-145.4973518308581
 30
0.0
 11
115.3357583057927
 21
-145.4973518308581
 31
0.0
  0
ARC
  5
7657
330
18
100
AcDbEntity
  8
0
100
AcDbCircle
 10
134.3357583057932
 20
-135.4973518308582
 30
0.0
 40
2.666666666666666
100
AcDbArc
 50
165.5224878140701
 51
194.4775121859297
  0
LINE
  5
7660
330
18
100
AcDbEntity
  8
0
100
AcDbLine
 10
138.3357583057932
 20
-104.807351830858
 30
0.0
 11
138.3357583057945
 21
-56.80735183085821
 31
0.0
  0
LINE
  5
7661
330
18
100
AcDbEntity
  8
0
100
AcDbLine
 10
139.9357583057939
 20
-104.807351830858
 30
0.0
 11
139.9357583057958
 21
-56.80735183085821
 31
0.0
  0
LINE
  5
7662
330
18
100
AcDbEntity
  8
0
100
AcDbLine
 10
161.3357583057954
 20
-104.807351830858
 30
0.0
 11
161.3357583057954
 21
-56.80735183085821
 31
0.0
  0
LINE
  5
7663
330
18
100
AcDbEntity
  8
0
100
AcDbLine
 10
139.9357583057939
 20
-104.0373518308592
 30
0.0
 11
139.9357583057939
 21
-81.19735183085955
 31
0.0
  0
LINE
  5
7666
330
18
100
AcDbEntity
  8
0
100
AcDbLine
 10
138.3357583057959
 20
-104.807351830858
 30
0.0
 11
138.3357583057953
 21
-56.80735183085821
 31
0.0
  0
LINE
  5
7667
330
18
100
AcDbEntity
  8
0
100
AcDbLine
 10
138.3357583057945
 20
-111.2441927492717
 30
0.0
 11
138.335758305794
 21
-110.4973518308582
 31
0.0
  0
LINE
  5
7668
330
18
100
AcDbEntity
  8
0
100
AcDbLine
 10
138.335758305794
 20
-119.6441927492716
 30
0.0
 11
138.335758305794
 21
-120.4973518308582
 31
0.0
  0
LINE
  5
7669
330
18
100
AcDbEntity
  8
0
100
AcDbLine
 10
147.1857583057949
 20
-119.6441927492716
 30
0.0
 11
147.1857583057939
 21
-120.0023518308615
 31
0.0
  0
LINE
  5
766A
330
18
100
AcDbEntity
  8
0
100
AcDbLine
 10
139.9357583057948
 20
-111.2441927492717
 30
0.0
 11
139.9357583057939
 21
-110.4973518308582
 31
0.0
  0
LINE
  5
766B
330
18
100
AcDbEntity
  8
0
100
AcDbLine
 10
139.9357583057939
 20
-119.6441927492716
 30
0.0
 11
139.9357583057939
 21
-120.0023518308615
 31
0.0
  0
LINE
  5
767A
330
18
100
AcDbEntity
  8
0
100
AcDbLine
 10
138.0943410149165
 20
-111.2441927492717
 30
0.0
 11
138.0943410149165
 21
-119.6441927492718
 31
0.0
  0
LINE
  5
767B
330
18
100
AcDbEntity
  8
0
100
AcDbLine
 10
139.0943410149165
 20
-116.1491927492718
 30
0.0
 11
138.5943410149165
 21
-115.8491927492717
 31
0.0
  0
LINE
  5
767C
330
18
100
AcDbEntity
  8
0
100
AcDbLine
 10
138.5943410149165
 20
-118.8491927492717
 30
0.0
 11
139.0943410149165
 21
-118.5491927492716
 31
0.0
  0
LINE
  5
767D
330
18
100
AcDbEntity
  8
0
100
AcDbLine
 10
138.5943410149165
 20
-115.0391927492719
 30
0.0
 11
139.0943410149165
 21
-114.7391927492718
 31
0.0
  0
LINE
  5
767E
330
18
100
AcDbEntity
  8
0
100
AcDbLine
 10
139.0943410149165
 20
-112.3391927492717
 30
0.0
 11
138.5943410149165
 21
-112.0391927492717
 31
0.0
  0
LINE
  5
767F
330
18
100
AcDbEntity
  8
0
100
AcDbLine
 10
138.5943410149165
 20
-118.8491927492717
 30
0.0
 11
143.094341014916
 21
-118.8491927492717
 31
0.0
  0
LINE
  5
7680
330
18
100
AcDbEntity
  8
0
100
AcDbLine
 10
138.5943410149165
 20
-115.0391927492719
 30
0.0
 11
143.094341014916
 21
-115.0391927492717
 31
0.0
  0
LINE
  5
7681
330
18
100
AcDbEntity
  8
0
100
AcDbLine
 10
138.5943410149165
 20
-112.0391927492717
 30
0.0
 11
143.094341014916
 21
-112.0391927492717
 31
0.0
  0
LINE
  5
7682
330
18
100
AcDbEntity
  8
0
100
AcDbLine
 10
138.5943410149165
 20
-115.8491927492717
 30
0.0
 11
143.094341014916
 21
-115.8491927492717
 31
0.0
  0
LINE
  5
7683
330
18
100
AcDbEntity
  8
0
100
AcDbLine
 10
138.5943410149165
 20
-115.8491927492717
 30
0.0
 11
138.5943410149165
 21
-118.8491927492717
 31
0.0
  0
LINE
  5
7684
330
18
100
AcDbEntity
  8
0
100
AcDbLine
 10
138.5943410149165
 20
-112.0391927492717
 30
0.0
 11
138.5943410149165
 21
-115.0391927492719
 31
0.0
  0
LINE
  5
7685
330
18
100
AcDbEntity
  8
0
100
AcDbLine
 10
142.094341014916
 20
-116.1491927492718
 30
0.0
 11
142.094341014916
 21
-118.5491927492716
 31
0.0
  0
LINE
  5
7686
330
18
100
AcDbEntity
  8
0
100
AcDbLine
 10
139.0943410149165
 20
-116.1491927492718
 30
0.0
 11
139.0943410149165
 21
-118.5491927492716
 31
0.0
  0
LINE
  5
7687
330
18
100
AcDbEntity
  8
0
100
AcDbLine
 10
139.0943410149165
 20
-118.5491927492716
 30
0.0
 11
142.094341014916
 21
-118.5491927492716
 31
0.0
  0
LINE
  5
7688
330
18
100
AcDbEntity
  8
0
100
AcDbLine
 10
139.0943410149165
 20
-116.1491927492718
 30
0.0
 11
142.094341014916
 21
-116.1491927492718
 31
0.0
  0
LINE
  5
7689
330
18
100
AcDbEntity
  8
0
100
AcDbLine
 10
142.094341014916
 20
-112.3391927492717
 30
0.0
 11
142.094341014916
 21
-114.7391927492718
 31
0.0
  0
LINE
  5
768A
330
18
100
AcDbEntity
  8
0
100
AcDbLine
 10
139.0943410149165
 20
-112.3391927492717
 30
0.0
 11
139.0943410149165
 21
-114.7391927492718
 31
0.0
  0
LINE
  5
768B
330
18
100
AcDbEntity
  8
0
100
AcDbLine
 10
139.0943410149165
 20
-114.7391927492718
 30
0.0
 11
142.094341014916
 21
-114.7391927492718
 31
0.0
  0
LINE
  5
768C
330
18
100
AcDbEntity
  8
0
100
AcDbLine
 10
139.0943410149165
 20
-112.3391927492717
 30
0.0
 11
142.094341014916
 21
-112.3391927492717
 31
0.0
  0
LINE
  5
768D
330
18
100
AcDbEntity
  8
0
100
AcDbLine
 10
142.094341014916
 20
-116.1491927492718
 30
0.0
 11
143.094341014916
 21
-115.8491927492717
 31
0.0
  0
LINE
  5
768E
330
18
100
AcDbEntity
  8
0
100
AcDbLine
 10
142.094341014916
 20
-118.5491927492716
 30
0.0
 11
143.094341014916
 21
-118.8491927492717
 31
0.0
  0
LINE
  5
768F
330
18
100
AcDbEntity
  8
0
100
AcDbLine
 10
142.094341014916
 20
-114.7391927492718
 30
0.0
 11
143.094341014916
 21
-115.0391927492719
 31
0.0
  0
LINE
  5
7690
330
18
100
AcDbEntity
  8
0
100
AcDbLine
 10
142.094341014916
 20
-112.3391927492717
 30
0.0
 11
143.094341014916
 21
-112.0391927492717
 31
0.0
  0
LINE
  5
7691
330
18
100
AcDbEntity
  8
0
100
AcDbLine
 10
143.094341014916
 20
-111.2441927492717
 30
0.0
 11
143.094341014916
 21
-119.6441927492718
 31
0.0
  0
LINE
  5
7692
330
18
100
AcDbEntity
  8
0
100
AcDbLine
 10
144.094341014916
 20
-111.2441927492717
 30
0.0
 11
144.094341014916
 21
-119.6441927492718
 31
0.0
  0
LINE
  5
7693
330
18
100
AcDbEntity
  8
0
100
AcDbLine
 10
138.0943410149165
 20
-119.6441927492718
 30
0.0
 11
149.1943410149164
 21
-119.6441927492716
 31
0.0
  0
LINE
  5
7694
330
18
100
AcDbEntity
  8
0
100
AcDbLine
 10
148.1943410149164
 20
-111.2441927492717
 30
0.0
 11
148.1943410149164
 21
-119.6441927492716
 31
0.0
  0
LINE
  5
7695
330
18
100
AcDbEntity
  8
0
100
AcDbLine
 10
149.1943410149164
 20
-111.2441927492717
 30
0.0
 11
149.1943410149164
 21
-119.6441927492716
 31
0.0
  0
LINE
  5
7696
330
18
100
AcDbEntity
  8
0
100
AcDbLine
 10
138.0943410149165
 20
-111.2441927492717
 30
0.0
 11
149.1943410149164
 21
-111.2441927492717
 31
0.0
  0
LINE
  5
769A
330
18
100
AcDbEntity
  8
0
100
AcDbLine
 10
154.935758305794
 20
-104.0373518308592
 30
0.0
 11
139.9357583057939
 21
-104.0373518308592
 31
0.0
  0
CIRCLE
  5
769E
330
18
100
AcDbEntity
  8
0
100
AcDbCircle
 10
146.3357583057936
 20
-135.4973518308582
 30
0.0
 40
4.0
  0
CIRCLE
  5
769F
330
18
100
AcDbEntity
  8
0
100
AcDbCircle
 10
146.3357583057936
 20
-135.4973518308582
 30
0.0
 40
3.333333333333333
  0
LINE
  5
76A0
330
18
100
AcDbEntity
  8
0
100
AcDbLine
 10
149.3357583057935
 20
-110.4973518308582
 30
0.0
 11
149.3357583057935
 21
-120.4973518308582
 31
0.0
  0
LINE
  5
76A1
330
18
100
AcDbEntity
  8
0
100
AcDbLine
 10
138.335758305794
 20
-110.4973518308582
 30
0.0
 11
138.335758305794
 21
-111.2441927492717
 31
0.0
  0
LINE
  5
76A2
330
18
100
AcDbEntity
  8
0
100
AcDbLine
 10
139.9357583057939
 20
-110.9923518308619
 30
0.0
 11
139.9357583057939
 21
-111.2441927492717
 31
0.0
  0
LINE
  5
76A3
330
18
100
AcDbEntity
  8
0
100
AcDbLine
 10
147.1857583057939
 20
-110.9923518308619
 30
0.0
 11
147.1857583057949
 21
-111.2441927492717
 31
0.0
  0
LINE
  5
76A4
330
18
100
AcDbEntity
  8
0
100
AcDbLine
 10
138.3357583057945
 20
-120.4973518308583
 30
0.0
 11
149.3357583057935
 21
-120.4973518308582
 31
0.0
  0
LINE
  5
76A5
330
18
100
AcDbEntity
  8
0
100
AcDbLine
 10
147.1857583057939
 20
-120.0023518308612
 30
0.0
 11
139.9357583057939
 21
-120.0023518308612
 31
0.0
  0
LINE
  5
76A6
330
18
100
AcDbEntity
  8
0
100
AcDbLine
 10
138.3357583057945
 20
-110.4973518308582
 30
0.0
 11
149.3357583057935
 21
-110.4973518308582
 31
0.0
  0
LINE
  5
76A7
330
18
100
AcDbEntity
  8
0
100
AcDbLine
 10
147.1857583057939
 20
-110.9923518308619
 30
0.0
 11
139.9357583057939
 21
-110.9923518308619
 31
0.0
  0
LINE
  5
76A8
330
18
100
AcDbEntity
  8
0
100
AcDbLine
 10
135.0024249724596
 20
-134.8306851641914
 30
0.0
 11
136.9177472032647
 21
-134.8306851641914
 31
0.0
  0
LINE
  5
76A9
330
18
100
AcDbEntity
  8
0
100
AcDbLine
 10
135.0024249724596
 20
-134.8306851641914
 30
0.0
 11
135.0024249724596
 21
-132.9153629333864
 31
0.0
  0
LINE
  5
76AA
330
18
100
AcDbEntity
  8
0
100
AcDbLine
 10
135.0024249724596
 20
-136.164018497525
 30
0.0
 11
136.9177472032647
 21
-136.164018497525
 31
0.0
  0
LINE
  5
76AB
330
18
100
AcDbEntity
  8
0
100
AcDbLine
 10
135.0024249724596
 20
-138.07934072833
 30
0.0
 11
135.0024249724596
 21
-136.164018497525
 31
0.0
  0
ARC
  5
76AC
330
18
100
AcDbEntity
  8
0
100
AcDbCircle
 10
134.3357583057932
 20
-135.4973518308582
 30
0.0
 40
2.666666666666666
100
AcDbArc
 50
345.5224878140701
 51
14.47751218592986
  0
LINE
  5
76AD
330
18
100
AcDbEntity
  8
0
100
AcDbLine
 10
133.6690916391262
 20
-134.8306851641914
 30
0.0
 11
133.6690916391262
 21
-132.9153629333864
 31
0.0
  0
LINE
  5
76AE
330
18
100
AcDbEntity
  8
0
100
AcDbLine
 10
133.6690916391262
 20
-138.07934072833
 30
0.0
 11
133.6690916391262
 21
-136.164018497525
 31
0.0
  0
ARC
  5
76AF
330
18
100
AcDbEntity
  8
0
100
AcDbCircle
 10
134.3357583057932
 20
-135.4973518308582
 30
0.0
 40
2.666666666666666
100
AcDbArc
 50
75.52248781407017
 51
104.4775121859297
  0
ARC
  5
76B0
330
18
100
AcDbEntity
  8
0
100
AcDbCircle
 10
134.3357583057932
 20
-135.4973518308582
 30
0.0
 40
2.666666666666666
100
AcDbArc
 50
255.52248781407
 51
284.4775121859298
  0
ARC
  5
76B1
330
18
100
AcDbEntity
  8
0
100
AcDbCircle
 10
146.3357583057936
 20
-135.4973518308582
 30
0.0
 40
2.666666666666666
100
AcDbArc
 50
255.52248781407
 51
284.4775121859298
  0
ARC
  5
76B2
330
18
100
AcDbEntity
  8
0
100
AcDbCircle
 10
146.3357583057936
 20
-135.4973518308582
 30
0.0
 40
2.666666666666666
100
AcDbArc
 50
75.52248781407017
 51
104.4775121859297
  0
ARC
  5
76B3
330
18
100
AcDbEntity
  8
0
100
AcDbCircle
 10
146.3357583057936
 20
-135.4973518308582
 30
0.0
 40
2.666666666666666
100
AcDbArc
 50
165.5224878140701
 51
194.4775121859297
  0
LINE
  5
76B4
330
18
100
AcDbEntity
  8
0
100
AcDbLine
 10
145.6690916391256
 20
-138.07934072833
 30
0.0
 11
145.6690916391256
 21
-136.164018497525
 31
0.0
  0
LINE
  5
76B5
330
18
100
AcDbEntity
  8
0
100
AcDbLine
 10
143.7537694083225
 20
-136.164018497525
 30
0.0
 11
145.6690916391256
 21
-136.164018497525
 31
0.0
  0
LINE
  5
76B6
330
18
100
AcDbEntity
  8
0
100
AcDbLine
 10
143.7537694083225
 20
-134.8306851641914
 30
0.0
 11
145.6690916391256
 21
-134.8306851641914
 31
0.0
  0
LINE
  5
76B7
330
18
100
AcDbEntity
  8
0
100
AcDbLine
 10
145.6690916391256
 20
-134.8306851641914
 30
0.0
 11
145.6690916391256
 21
-132.9153629333864
 31
0.0
  0
ARC
  5
76B8
330
18
100
AcDbEntity
  8
0
100
AcDbCircle
 10
146.3357583057936
 20
-135.4973518308582
 30
0.0
 40
2.666666666666666
100
AcDbArc
 50
345.5224878140701
 51
14.47751218592986
  0
LINE
  5
76B9
330
18
100
AcDbEntity
  8
0
100
AcDbLine
 10
147.0024249724596
 20
-138.07934072833
 30
0.0
 11
147.0024249724596
 21
-136.164018497525
 31
0.0
  0
LINE
  5
76BA
330
18
100
AcDbEntity
  8
0
100
AcDbLine
 10
147.0024249724596
 20
-136.164018497525
 30
0.0
 11
148.9177472032646
 21
-136.164018497525
 31
0.0
  0
LINE
  5
76BB
330
18
100
AcDbEntity
  8
0
100
AcDbLine
 10
147.0024249724596
 20
-134.8306851641914
 30
0.0
 11
147.0024249724596
 21
-132.9153629333864
 31
0.0
  0
LINE
  5
76BC
330
18
100
AcDbEntity
  8
0
100
AcDbLine
 10
147.0024249724596
 20
-134.8306851641914
 30
0.0
 11
148.9177472032646
 21
-134.8306851641914
 31
0.0
  0
ARC
  5
76BD
330
18
100
AcDbEntity
  8
0
100
AcDbCircle
 10
143.3357583057973
 20
-153.4973518308583
 30
0.0
 40
2.75
100
AcDbArc
 50
0.0
 51
180.0
  0
LINE
  5
76BE
330
18
100
AcDbEntity
  8
0
100
AcDbLine
 10
139.935758305793
 20
-120.4973518308582
 30
0.0
 11
139.9357583057939
 21
-119.6441927492716
 31
0.0
  0
LINE
  5
76BF
330
18
100
AcDbEntity
  8
0
100
AcDbLine
 10
138.3357583057932
 20
-120.4973518308582
 30
0.0
 11
138.3357583057936
 21
-119.6441927492716
 31
0.0
  0
LINE
  5
76C0
330
18
100
AcDbEntity
  8
0
100
AcDbLine
 10
161.3357583057954
 20
-104.807351830858
 30
0.0
 11
138.3357583057959
 21
-104.807351830858
 31
0.0
  0
LINE
  5
770D
330
18
100
AcDbEntity
  8
0
100
AcDbLine
 10
154.9357583057949
 20
-57.45735183085876
 30
0.0
 11
139.9357583057948
 21
-57.45735183085876
 31
0.0
  0
LINE
  5
7710
330
18
100
AcDbEntity
  8
0
100
AcDbLine
 10
154.9357583057949
 20
-80.29735183085797
 30
0.0
 11
139.9357583057948
 21
-80.29735183085797
 31
0.0
  0
LINE
  5
7716
330
18
100
AcDbEntity
  8
0
100
AcDbLine
 10
154.935758305794
 20
-81.19735183086001
 30
0.0
 11
139.9357583057939
 21
-81.19735183086001
 31
0.0
  0
LINE
  5
771D
330
18
100
AcDbEntity
  8
0
100
AcDbLine
 10
139.9357583057948
 20
-80.29735183085797
 30
0.0
 11
139.9357583057948
 21
-57.4573518308583
 31
0.0
  0
LINE
  5
7720
330
18
100
AcDbEntity
  8
0
100
AcDbLine
 10
161.3357583057954
 20
-56.80735183085821
 30
0.0
 11
138.335758305795
 21
-56.80735183085821
 31
0.0
  0
LINE
  5
7721
330
18
100
AcDbEntity
  8
0
100
AcDbLine
 10
140.5857583057971
 20
-12.49735183085825
 30
0.0
 11
123.3357583057972
 21
-12.49735183085825
 31
0.0
  0
LINE
  5
7722
330
18
100
AcDbEntity
  8
0
100
AcDbLine
 10
113.3357583057972
 20
-25.49735183085826
 30
0.0
 11
173.3357583057963
 21
-25.49735183085826
 31
0.0
  0
LINE
  5
7723
330
18
100
AcDbEntity
  8
0
100
AcDbLine
 10
115.3357583057968
 20
-25.49735183085838
 30
0.0
 11
173.3357583057963
 21
-25.49735183085826
 31
0.0
  0
LINE
  5
7724
330
18
100
AcDbEntity
  8
0
100
AcDbLine
 10
123.3357583057954
 20
-25.49735183085826
 30
0.0
 11
123.3357583057967
 21
-12.49735183085666
 31
0.0
  0
LINE
  5
7726
330
18
100
AcDbEntity
  8
0
100
AcDbLine
 10
146.0857583057973
 20
-17.49735183085826
 30
0.0
 11
146.0857583057973
 21
-12.49735183085735
 31
0.0
  0
LINE
  5
7727
330
18
100
AcDbEntity
  8
0
100
AcDbLine
 10
140.5857583057971
 20
-17.49735183085826
 30
0.0
 11
140.5857583057971
 21
-12.49735183085724
 31
0.0
  0
ARC
  5
7728
330
18
100
AcDbEntity
  8
0
100
AcDbCircle
 10
143.3357583057973
 20
-17.49735183085826
 30
0.0
 40
2.75
100
AcDbArc
 50
180.0
 51
0.0
  0
LINE
  5
7729
330
18
100
AcDbEntity
  8
0
100
AcDbLine
 10
173.3357583057973
 20
-12.49735183085825
 30
0.0
 11
146.0857583057973
 21
-12.49735183085825
 31
0.0
  0
MTEXT
  5
773D
330
18
100
AcDbEntity
  8
0
100
AcDbMText
 10
146.0073544771398
 20
-51.55715060516818
 30
0.0
 40
4.0
 41
13.7408
 71
     1
 72
     5
  1
TB1
 73
     1
 44
1.0
  0
MTEXT
  5
773E
330
18
100
AcDbEntity
  8
0
100
AcDbMText
 10
132.4246779386521
 20
-59.66983315804604
 30
0.0
 40
4.0
 41
13.7408
 71
     1
 72
     5
  1
U
 73
     1
 44
1.0
  0
MTEXT
  5
773F
330
18
100
AcDbEntity
  8
0
100
AcDbMText
 10
132.1494847056624
 20
-67.16983315804603
 30
0.0
 40
4.0
 41
13.7408
 71
     1
 72
     5
  1
V
 73
     1
 44
1.0
  0
MTEXT
  5
7740
330
18
100
AcDbEntity
  8
0
100
AcDbMText
 10
131.782562105987
 20
-74.66983315804603
 30
0.0
 40
4.0
 41
13.7408
 71
     1
 72
     5
  1
W
 73
     1
 44
1.0
  0
MTEXT
  5
7741
330
18
100
AcDbEntity
  8
0
100
AcDbMText
 10
132.4246779386521
 20
-83.66983315804603
 30
0.0
 40
4.0
 41
13.7408
 71
     1
 72
     5
  1
U
 73
     1
 44
1.0
  0
MTEXT
  5
7742
330
18
100
AcDbEntity
  8
0
100
AcDbMText
 10
132.1494847056624
 20
-91.16983315804606
 30
0.0
 40
4.0
 41
13.7408
 71
     1
 72
     5
  1
V
 73
     1
 44
1.0
  0
MTEXT
  5
7743
330
18
100
AcDbEntity
  8
0
100
AcDbMText
 10
131.782562105987
 20
-98.66983315804606
 30
0.0
 40
4.0
 41
13.7408
 71
     1
 72
     5
  1
W
 73
     1
 44
1.0
  0
MTEXT
  5
7744
330
18
100
AcDbEntity
  8
0
100
AcDbMText
 10
136.9636325516337
 20
-111.8106372631159
 30
0.0
 40
2.399999999999999
 41
7.047999999999999
 71
     3
 72
     5
  1
DBK
 73
     1
 44
1.0
  0
MTEXT
  5
7745
330
18
100
AcDbEntity
  8
0
100
AcDbMText
 10
136.7988951786618
 20
-116.810637263116
 30
0.0
 40
2.399999999999999
 41
7.047999999999999
 71
     3
 72
     5
  1
DBC
 73
     1
 44
1.0
  0
MTEXT
  5
7746
330
18
100
AcDbEntity
  8
0
100
AcDbMText
 10
152.1665298351846
 20
-113.4740555423209
 30
0.0
 40
4.0
 41
13.7408
 71
     1
 72
     5
  1
TB2
 73
     1
 44
1.0
  0
CIRCLE
  5
7747
330
18
100
AcDbEntity
  8
0
100
AcDbCircle
 10
124.3357583057929
 20
-135.4973518308582
 30
0.0
 40
3.0
  0
LINE
  5
7748
330
18
100
AcDbEntity
  8
0
100
AcDbLine
 10
124.8357583057929
 20
-137.4973518308582
 30
0.0
 11
123.8357583057929
 21
-137.4973518308582
 31
0.0
  0
LINE
  5
7749
330
18
100
AcDbEntity
  8
0
100
AcDbLine
 10
124.3357583057929
 20
-133.4973518308582
 30
0.0
 11
124.3357583057929
 21
-135.0973518308584
 31
0.0
  0
LINE
  5
774A
330
18
100
AcDbEntity
  8
0
100
AcDbLine
 10
123.085758305793
 20
-136.2973518308583
 30
0.0
 11
125.5857583057931
 21
-136.2973518308583
 31
0.0
  0
LINE
  5
774B
330
18
100
AcDbEntity
  8
0
100
AcDbLine
 10
126.335758305793
 20
-135.0973518308584
 30
0.0
 11
122.3357583057929
 21
-135.0973518308584
 31
0.0
  0
LINE
  5
7927
330
18
100
AcDbEntity
  8
0
100
AcDbLine
 10
143.4100730062842
 20
-96.11735183085921
 30
0.0
 11
153.3291312354444
 21
-96.11735183085921
 31
0.0
  0
LINE
  5
7928
330
18
100
AcDbEntity
  8
0
100
AcDbLine
 10
143.4100730062842
 20
-96.73735183085952
 30
0.0
 11
153.3291312354444
 21
-96.73735183085952
 31
0.0
  0
LINE
  5
7929
330
18
100
AcDbEntity
  8
0
100
AcDbLine
 10
143.4100730062842
 20
-103.7373518308589
 30
0.0
 11
153.3291312354444
 21
-103.7373518308589
 31
0.0
  0
LINE
  5
792A
330
18
100
AcDbEntity
  8
0
100
AcDbLine
 10
143.4100730062842
 20
-81.4973518308602
 30
0.0
 11
153.3291312354444
 21
-81.4973518308602
 31
0.0
  0
LINE
  5
792B
330
18
100
AcDbEntity
  8
0
100
AcDbLine
 10
143.4100730062842
 20
-89.11735183085964
 30
0.0
 11
153.3291312354444
 21
-89.11735183085964
 31
0.0
  0
LINE
  5
792C
330
18
100
AcDbEntity
  8
0
100
AcDbLine
 10
143.4100730062842
 20
-88.49735183085973
 30
0.0
 11
153.3291312354444
 21
-88.49735183085973
 31
0.0
  0
LINE
  5
792F
330
18
100
AcDbEntity
  8
0
100
AcDbLine
 10
141.4143908336795
 20
-103.8623518308594
 30
0.0
 11
159.9143908336805
 21
-103.8623518308595
 31
0.0
  0
LINE
  5
793A
330
18
100
AcDbEntity
  8
0
100
AcDbLine
 10
141.4143908336795
 20
-81.37235183085939
 30
0.0
 11
159.9143908336795
 21
-81.37235183085939
 31
0.0
  0
LINE
  5
793C
330
18
100
AcDbEntity
  8
0
100
AcDbLine
 10
141.4143908336795
 20
-81.37235183085939
 30
0.0
 11
141.4143908336795
 21
-103.8623518308594
 31
0.0
  0
LINE
  5
793D
330
18
100
AcDbEntity
  8
0
100
AcDbLine
 10
143.4143908336795
 20
-89.64235183085952
 30
0.0
 11
143.4143908336795
 21
-95.64235183085941
 31
0.0
  0
LINE
  5
793E
330
18
100
AcDbEntity
  8
0
100
AcDbLine
 10
148.4143908336805
 20
-91.44235183085934
 30
0.0
 11
148.4143908336805
 21
-93.84235183085943
 31
0.0
  0
LINE
  5
793F
330
18
100
AcDbEntity
  8
0
100
AcDbLine
 10
144.9143908336795
 20
-91.44235183085944
 30
0.0
 11
144.9143908336795
 21
-93.84235183085943
 31
0.0
  0
LINE
  5
7940
330
18
100
AcDbEntity
  8
0
100
AcDbLine
 10
144.9143908336795
 20
-101.4623518308594
 30
0.0
 11
148.4143908336805
 21
-101.4623518308594
 31
0.0
  0
LINE
  5
7941
330
18
100
AcDbEntity
  8
0
100
AcDbLine
 10
144.9143908336795
 20
-99.06235183085934
 30
0.0
 11
148.4143908336805
 21
-99.06235183085934
 31
0.0
  0
LINE
  5
7942
330
18
100
AcDbEntity
  8
0
100
AcDbLine
 10
144.9143908336795
 20
-93.84235183085943
 30
0.0
 11
148.4143908336805
 21
-93.84235183085943
 31
0.0
  0
LINE
  5
7945
330
18
100
AcDbEntity
  8
0
100
AcDbLine
 10
143.4143908336795
 20
-97.26235183085952
 30
0.0
 11
143.4143908336795
 21
-103.2623518308593
 31
0.0
  0
LINE
  5
7946
330
18
100
AcDbEntity
  8
0
100
AcDbLine
 10
144.9143908336795
 20
-99.06235183085946
 30
0.0
 11
144.9143908336795
 21
-101.4623518308594
 31
0.0
  0
LINE
  5
7949
330
18
100
AcDbEntity
  8
0
100
AcDbLine
 10
148.4143908336805
 20
-99.06235183085934
 30
0.0
 11
148.4143908336805
 21
-101.4623518308594
 31
0.0
  0
LINE
  5
794A
330
18
100
AcDbEntity
  8
0
100
AcDbLine
 10
144.9143908336795
 20
-86.2223518308594
 30
0.0
 11
148.4143908336805
 21
-86.2223518308594
 31
0.0
  0
LINE
  5
794B
330
18
100
AcDbEntity
  8
0
100
AcDbLine
 10
144.9143908336795
 20
-83.82235183085933
 30
0.0
 11
148.4143908336805
 21
-83.82235183085933
 31
0.0
  0
LINE
  5
794C
330
18
100
AcDbEntity
  8
0
100
AcDbLine
 10
144.9143908336795
 20
-91.44235183085934
 30
0.0
 11
148.4143908336805
 21
-91.44235183085934
 31
0.0
  0
LINE
  5
794E
330
18
100
AcDbEntity
  8
0
100
AcDbLine
 10
144.9143908336795
 20
-83.82235183085944
 30
0.0
 11
144.9143908336795
 21
-86.2223518308594
 31
0.0
  0
LINE
  5
7951
330
18
100
AcDbEntity
  8
0
100
AcDbLine
 10
143.4143908336795
 20
-82.02235183085948
 30
0.0
 11
143.4143908336795
 21
-88.02235183085938
 31
0.0
  0
LINE
  5
7953
330
18
100
AcDbEntity
  8
0
100
AcDbLine
 10
148.4143908336805
 20
-83.82235183085933
 30
0.0
 11
148.4143908336805
 21
-86.2223518308594
 31
0.0
  0
LINE
  5
7954
330
18
100
AcDbEntity
  8
0
100
AcDbLine
 10
153.3291312354444
 20
-96.11735183085921
 30
0.0
 11
153.3291312354444
 21
-89.11735183085964
 31
0.0
  0
LINE
  5
7955
330
18
100
AcDbEntity
  8
0
100
AcDbLine
 10
158.6143908336794
 20
-81.37235183085939
 30
0.0
 11
158.6143908336794
 21
-103.8623518308594
 31
0.0
  0
LINE
  5
7956
330
18
100
AcDbEntity
  8
0
100
AcDbLine
 10
159.9143908336795
 20
-81.37235183085939
 30
0.0
 11
159.9143908336795
 21
-103.8623518308594
 31
0.0
  0
LINE
  5
7958
330
18
100
AcDbEntity
  8
0
100
AcDbLine
 10
154.3964374107249
 20
-81.37235183085939
 30
0.0
 11
154.3964374107249
 21
-103.8623518308594
 31
0.0
  0
LINE
  5
795A
330
18
100
AcDbEntity
  8
0
100
AcDbLine
 10
153.3291312354444
 20
-103.7373518308589
 30
0.0
 11
153.3291312354444
 21
-96.73735183085952
 31
0.0
  0
LINE
  5
795C
330
18
100
AcDbEntity
  8
0
100
AcDbLine
 10
153.3291312354444
 20
-81.4973518308602
 30
0.0
 11
153.3291312354444
 21
-88.49735183085973
 31
0.0
  0
LINE
  5
795F
330
18
100
AcDbEntity
  8
0
100
AcDbLine
 10
143.4100730062842
 20
-81.37235183085939
 30
0.0
 11
143.4100730062842
 21
-88.49735183085973
 31
0.0
  0
LINE
  5
7960
330
18
100
AcDbEntity
  8
0
100
AcDbLine
 10
153.3057207559911
 20
-81.37235183085939
 30
0.0
 11
153.3057207559911
 21
-88.49735183085973
 31
0.0
  0
LINE
  5
7961
330
18
100
AcDbEntity
  8
0
100
AcDbLine
 10
148.4143908336805
 20
-101.4623518308594
 30
0.0
 11
153.3057207559911
 21
-103.7373518308589
 31
0.0
  0
LINE
  5
7962
330
18
100
AcDbEntity
  8
0
100
AcDbLine
 10
148.4143908336805
 20
-99.06235183085934
 30
0.0
 11
153.3057207559911
 21
-96.73735183085952
 31
0.0
  0
LINE
  5
7963
330
18
100
AcDbEntity
  8
0
100
AcDbLine
 10
144.9143908336795
 20
-101.4623518308594
 30
0.0
 11
143.4100730062842
 21
-103.7373518308589
 31
0.0
  0
LINE
  5
7964
330
18
100
AcDbEntity
  8
0
100
AcDbLine
 10
144.9143908336795
 20
-99.06235183085946
 30
0.0
 11
143.4100730062842
 21
-96.73735183085952
 31
0.0
  0
LINE
  5
7965
330
18
100
AcDbEntity
  8
0
100
AcDbLine
 10
148.4143908336805
 20
-93.84235183085943
 30
0.0
 11
153.3057207559911
 21
-96.11735183085921
 31
0.0
  0
LINE
  5
7966
330
18
100
AcDbEntity
  8
0
100
AcDbLine
 10
148.4143908336805
 20
-91.44235183085934
 30
0.0
 11
153.3057207559911
 21
-89.11735183085964
 31
0.0
  0
LINE
  5
7967
330
18
100
AcDbEntity
  8
0
100
AcDbLine
 10
148.4143908336805
 20
-86.2223518308594
 30
0.0
 11
153.3057207559911
 21
-88.49735183085973
 31
0.0
  0
LINE
  5
7968
330
18
100
AcDbEntity
  8
0
100
AcDbLine
 10
148.4143908336805
 20
-83.82235183085933
 30
0.0
 11
153.3057207559911
 21
-81.4973518308602
 31
0.0
  0
LINE
  5
7969
330
18
100
AcDbEntity
  8
0
100
AcDbLine
 10
144.9143908336795
 20
-86.2223518308594
 30
0.0
 11
143.4100730062842
 21
-88.49735183085973
 31
0.0
  0
LINE
  5
796A
330
18
100
AcDbEntity
  8
0
100
AcDbLine
 10
144.9143908336795
 20
-83.82235183085944
 30
0.0
 11
143.4100730062842
 21
-81.4973518308602
 31
0.0
  0
LINE
  5
796B
330
18
100
AcDbEntity
  8
0
100
AcDbLine
 10
144.9143908336795
 20
-93.84235183085943
 30
0.0
 11
143.4100730062842
 21
-96.11735183085921
 31
0.0
  0
LINE
  5
796C
330
18
100
AcDbEntity
  8
0
100
AcDbLine
 10
144.9143908336795
 20
-91.44235183085934
 30
0.0
 11
143.4100730062842
 21
-89.11735183085964
 31
0.0
  0
LINE
  5
796D
330
18
100
AcDbEntity
  8
0
100
AcDbLine
 10
153.3057207559911
 20
-89.11735183085962
 30
0.0
 11
153.3057207559911
 21
-96.11735183085921
 31
0.0
  0
LINE
  5
796E
330
18
100
AcDbEntity
  8
0
100
AcDbLine
 10
153.3057207559911
 20
-96.73735183085955
 30
0.0
 11
153.3057207559911
 21
-103.8623518308594
 31
0.0
  0
LINE
  5
796F
330
18
100
AcDbEntity
  8
0
100
AcDbLine
 10
143.4100730062842
 20
-96.73735183085952
 30
0.0
 11
143.4100730062842
 21
-103.8623518308594
 31
0.0
  0
LINE
  5
7970
330
18
100
AcDbEntity
  8
0
100
AcDbLine
 10
143.4100730062842
 20
-89.11735183085964
 30
0.0
 11
143.4100730062842
 21
-96.11735183085921
 31
0.0
  0
LINE
  5
79A4
330
18
100
AcDbEntity
  8
0
100
AcDbLine
 10
141.521017904029
 20
-80.12235183085815
 30
0.0
 11
160.02101790403
 21
-80.12235183085826
 31
0.0
  0
LINE
  5
79A5
330
18
100
AcDbEntity
  8
0
100
AcDbLine
 10
141.521017904029
 20
-57.63235183085814
 30
0.0
 11
160.021017904029
 21
-57.63235183085814
 31
0.0
  0
LINE
  5
79A6
330
18
100
AcDbEntity
  8
0
100
AcDbLine
 10
153.4357583057939
 20
-72.37735183085792
 30
0.0
 11
153.4357583057939
 21
-65.37735183085835
 31
0.0
  0
LINE
  5
79A7
330
18
100
AcDbEntity
  8
0
100
AcDbLine
 10
153.4123478263406
 20
-65.37735183085835
 30
0.0
 11
153.4123478263406
 21
-72.37735183085792
 31
0.0
  0
LINE
  5
79A8
330
18
100
AcDbEntity
  8
0
100
AcDbLine
 10
145.0210179040291
 20
-67.70235183085818
 30
0.0
 11
145.0210179040291
 21
-70.10235183085817
 31
0.0
  0
LINE
  5
79A9
330
18
100
AcDbEntity
  8
0
100
AcDbLine
 10
148.52101790403
 20
-67.70235183085808
 30
0.0
 11
148.52101790403
 21
-70.10235183085817
 31
0.0
  0
LINE
  5
79AA
330
18
100
AcDbEntity
  8
0
100
AcDbLine
 10
143.521017904029
 20
-65.90235183085823
 30
0.0
 11
143.521017904029
 21
-71.90235183085812
 31
0.0
  0
LINE
  5
79AB
330
18
100
AcDbEntity
  8
0
100
AcDbLine
 10
143.5167000766339
 20
-65.37735183085835
 30
0.0
 11
143.5167000766339
 21
-72.37735183085792
 31
0.0
  0
LINE
  5
79AC
330
18
100
AcDbEntity
  8
0
100
AcDbLine
 10
154.5030644810744
 20
-57.63235183085814
 30
0.0
 11
154.5030644810744
 21
-80.12235183085815
 31
0.0
  0
LINE
  5
79AD
330
18
100
AcDbEntity
  8
0
100
AcDbLine
 10
141.521017904029
 20
-57.63235183085814
 30
0.0
 11
141.521017904029
 21
-80.12235183085815
 31
0.0
  0
LINE
  5
79AE
330
18
100
AcDbEntity
  8
0
100
AcDbLine
 10
143.5167000766339
 20
-79.99735183085781
 30
0.0
 11
153.4357583057939
 21
-79.99735183085781
 31
0.0
  0
LINE
  5
79AF
330
18
100
AcDbEntity
  8
0
100
AcDbLine
 10
145.0210179040291
 20
-70.10235183085817
 30
0.0
 11
143.5167000766339
 21
-72.37735183085792
 31
0.0
  0
LINE
  5
79B0
330
18
100
AcDbEntity
  8
0
100
AcDbLine
 10
145.0210179040291
 20
-75.3223518308582
 30
0.0
 11
143.5167000766339
 21
-72.99735183085826
 31
0.0
  0
LINE
  5
79B1
330
18
100
AcDbEntity
  8
0
100
AcDbLine
 10
143.5167000766339
 20
-72.99735183085826
 30
0.0
 11
153.4357583057939
 21
-72.99735183085826
 31
0.0
  0
LINE
  5
79B2
330
18
100
AcDbEntity
  8
0
100
AcDbLine
 10
143.5167000766339
 20
-72.37735183085792
 30
0.0
 11
153.4357583057939
 21
-72.37735183085792
 31
0.0
  0
LINE
  5
79B3
330
18
100
AcDbEntity
  8
0
100
AcDbLine
 10
145.0210179040291
 20
-77.72235183085817
 30
0.0
 11
143.5167000766339
 21
-79.99735183085781
 31
0.0
  0
LINE
  5
79B4
330
18
100
AcDbEntity
  8
0
100
AcDbLine
 10
143.521017904029
 20
-73.52235183085823
 30
0.0
 11
143.521017904029
 21
-79.52235183085813
 31
0.0
  0
LINE
  5
79B5
330
18
100
AcDbEntity
  8
0
100
AcDbLine
 10
143.5167000766339
 20
-72.99735183085826
 30
0.0
 11
143.5167000766339
 21
-80.12235183085815
 31
0.0
  0
LINE
  5
79B6
330
18
100
AcDbEntity
  8
0
100
AcDbLine
 10
148.52101790403
 20
-75.32235183085808
 30
0.0
 11
153.4123478263406
 21
-72.99735183085826
 31
0.0
  0
LINE
  5
79B7
330
18
100
AcDbEntity
  8
0
100
AcDbLine
 10
148.52101790403
 20
-70.10235183085817
 30
0.0
 11
153.4123478263406
 21
-72.37735183085792
 31
0.0
  0
LINE
  5
79B8
330
18
100
AcDbEntity
  8
0
100
AcDbLine
 10
148.52101790403
 20
-77.72235183085817
 30
0.0
 11
153.4123478263406
 21
-79.99735183085781
 31
0.0
  0
LINE
  5
79B9
330
18
100
AcDbEntity
  8
0
100
AcDbLine
 10
145.0210179040291
 20
-75.32235183085808
 30
0.0
 11
148.52101790403
 21
-75.32235183085808
 31
0.0
  0
LINE
  5
79BA
330
18
100
AcDbEntity
  8
0
100
AcDbLine
 10
145.0210179040291
 20
-77.72235183085817
 30
0.0
 11
148.52101790403
 21
-77.72235183085817
 31
0.0
  0
LINE
  5
79BB
330
18
100
AcDbEntity
  8
0
100
AcDbLine
 10
145.0210179040291
 20
-75.3223518308582
 30
0.0
 11
145.0210179040291
 21
-77.72235183085817
 31
0.0
  0
LINE
  5
79BC
330
18
100
AcDbEntity
  8
0
100
AcDbLine
 10
148.52101790403
 20
-75.32235183085808
 30
0.0
 11
148.52101790403
 21
-77.72235183085817
 31
0.0
  0
LINE
  5
79BD
330
18
100
AcDbEntity
  8
0
100
AcDbLine
 10
145.0210179040291
 20
-70.10235183085817
 30
0.0
 11
148.52101790403
 21
-70.10235183085817
 31
0.0
  0
LINE
  5
79BE
330
18
100
AcDbEntity
  8
0
100
AcDbLine
 10
153.4357583057939
 20
-79.99735183085781
 30
0.0
 11
153.4357583057939
 21
-72.99735183085826
 31
0.0
  0
LINE
  5
79BF
330
18
100
AcDbEntity
  8
0
100
AcDbLine
 10
153.4123478263406
 20
-72.99735183085828
 30
0.0
 11
153.4123478263406
 21
-80.12235183085815
 31
0.0
  0
LINE
  5
79C0
330
18
100
AcDbEntity
  8
0
100
AcDbLine
 10
145.0210179040291
 20
-67.70235183085808
 30
0.0
 11
143.5167000766339
 21
-65.37735183085835
 31
0.0
  0
LINE
  5
79C1
330
18
100
AcDbEntity
  8
0
100
AcDbLine
 10
145.0210179040291
 20
-60.08235183085818
 30
0.0
 11
143.5167000766339
 21
-57.75735183085894
 31
0.0
  0
LINE
  5
79C2
330
18
100
AcDbEntity
  8
0
100
AcDbLine
 10
145.0210179040291
 20
-62.48235183085816
 30
0.0
 11
143.5167000766339
 21
-64.75735183085847
 31
0.0
  0
LINE
  5
79C3
330
18
100
AcDbEntity
  8
0
100
AcDbLine
 10
143.5167000766339
 20
-65.37735183085835
 30
0.0
 11
153.4357583057939
 21
-65.37735183085835
 31
0.0
  0
LINE
  5
79C4
330
18
100
AcDbEntity
  8
0
100
AcDbLine
 10
143.5167000766339
 20
-64.75735183085847
 30
0.0
 11
153.4357583057939
 21
-64.75735183085848
 31
0.0
  0
LINE
  5
79C5
330
18
100
AcDbEntity
  8
0
100
AcDbLine
 10
143.5167000766339
 20
-57.75735183085894
 30
0.0
 11
153.4357583057939
 21
-57.75735183085894
 31
0.0
  0
LINE
  5
79C6
330
18
100
AcDbEntity
  8
0
100
AcDbLine
 10
143.521017904029
 20
-58.28235183085824
 30
0.0
 11
143.521017904029
 21
-64.28235183085812
 31
0.0
  0
LINE
  5
79C7
330
18
100
AcDbEntity
  8
0
100
AcDbLine
 10
143.5167000766339
 20
-57.63235183085814
 30
0.0
 11
143.5167000766339
 21
-64.75735183085847
 31
0.0
  0
LINE
  5
79C8
330
18
100
AcDbEntity
  8
0
100
AcDbLine
 10
148.52101790403
 20
-67.70235183085808
 30
0.0
 11
153.4123478263406
 21
-65.37735183085835
 31
0.0
  0
LINE
  5
79C9
330
18
100
AcDbEntity
  8
0
100
AcDbLine
 10
148.52101790403
 20
-62.48235183085816
 30
0.0
 11
153.4123478263406
 21
-64.75735183085848
 31
0.0
  0
LINE
  5
79CA
330
18
100
AcDbEntity
  8
0
100
AcDbLine
 10
148.52101790403
 20
-60.08235183085806
 30
0.0
 11
153.4123478263406
 21
-57.75735183085894
 31
0.0
  0
LINE
  5
79CB
330
18
100
AcDbEntity
  8
0
100
AcDbLine
 10
145.0210179040291
 20
-67.70235183085808
 30
0.0
 11
148.52101790403
 21
-67.70235183085808
 31
0.0
  0
LINE
  5
79CC
330
18
100
AcDbEntity
  8
0
100
AcDbLine
 10
145.0210179040291
 20
-60.08235183085806
 30
0.0
 11
148.52101790403
 21
-60.08235183085806
 31
0.0
  0
LINE
  5
79CD
330
18
100
AcDbEntity
  8
0
100
AcDbLine
 10
145.0210179040291
 20
-62.48235183085816
 30
0.0
 11
148.52101790403
 21
-62.48235183085816
 31
0.0
  0
LINE
  5
79CE
330
18
100
AcDbEntity
  8
0
100
AcDbLine
 10
145.0210179040291
 20
-60.08235183085818
 30
0.0
 11
145.0210179040291
 21
-62.48235183085816
 31
0.0
  0
LINE
  5
79CF
330
18
100
AcDbEntity
  8
0
100
AcDbLine
 10
148.52101790403
 20
-60.08235183085806
 30
0.0
 11
148.52101790403
 21
-62.48235183085816
 31
0.0
  0
LINE
  5
79D0
330
18
100
AcDbEntity
  8
0
100
AcDbLine
 10
153.4357583057939
 20
-57.75735183085894
 30
0.0
 11
153.4357583057939
 21
-64.75735183085848
 31
0.0
  0
LINE
  5
79D1
330
18
100
AcDbEntity
  8
0
100
AcDbLine
 10
153.4123478263406
 20
-57.63235183085814
 30
0.0
 11
153.4123478263406
 21
-64.75735183085848
 31
0.0
  0
LINE
  5
79D2
330
18
100
AcDbEntity
  8
0
100
AcDbLine
 10
160.021017904029
 20
-57.63235183085814
 30
0.0
 11
160.021017904029
 21
-80.12235183085815
 31
0.0
  0
LINE
  5
79D3
330
18
100
AcDbEntity
  8
0
100
AcDbLine
 10
158.7210179040289
 20
-57.63235183085814
 30
0.0
 11
158.7210179040289
 21
-80.12235183085815
 31
0.0
  0
LINE
  5
7A1E
330
18
100
AcDbEntity
  8
0
100
AcDbLine
 10
112.0857583057965
 20
-46.24735183085836
 30
0.0
 11
112.0857583057965
 21
-38.74735183085835
 31
0.0
  0
LINE
  5
7A1F
330
18
100
AcDbEntity
  8
0
100
AcDbLine
 10
113.3357583057965
 20
-46.24735183085836
 30
0.0
 11
113.3357583057965
 21
-38.74735183085835
 31
0.0
  0
ARC
  5
7A20
330
18
100
AcDbEntity
  8
0
100
AcDbCircle
 10
110.5857583057972
 20
-42.49735183085837
 30
0.0
 40
2.554542616084489
100
AcDbArc
 50
89.99999999999998
 51
270.0
  0
LINE
  5
7A21
330
18
100
AcDbEntity
  8
0
100
AcDbLine
 10
110.5857583057975
 20
-45.05189444694265
 30
0.0
 11
110.5857583057975
 21
-39.94280921477407
 31
0.0
  0
LINE
  5
7A22
330
18
100
AcDbEntity
  8
0
100
AcDbLine
 10
112.0857583057965
 20
-38.74735183085835
 30
0.0
 11
113.3357583057965
 21
-38.74735183085835
 31
0.0
  0
LINE
  5
7A23
330
18
100
AcDbEntity
  8
0
100
AcDbLine
 10
110.5857583057975
 20
-39.94280921477407
 30
0.0
 11
112.0857583057965
 21
-39.94280921477407
 31
0.0
  0
LINE
  5
7A24
330
18
100
AcDbEntity
  8
0
100
AcDbLine
 10
110.5857583057975
 20
-45.05189444694265
 30
0.0
 11
112.0857583057965
 21
-45.05189444694265
 31
0.0
  0
LINE
  5
7A25
330
18
100
AcDbEntity
  8
0
100
AcDbLine
 10
112.0857583057965
 20
-46.24735183085836
 30
0.0
 11
113.3357583057965
 21
-46.24735183085836
 31
0.0
  0
LINE
  5
7A29
330
18
100
AcDbEntity
  8
0
100
AcDbLine
 10
113.3357583057934
 20
-128.2473518308582
 30
0.0
 11
113.3357583057934
 21
-120.7473518308582
 31
0.0
  0
LINE
  5
7A2A
330
18
100
AcDbEntity
  8
0
100
AcDbLine
 10
112.0857583057935
 20
-128.2473518308582
 30
0.0
 11
112.0857583057935
 21
-120.7473518308582
 31
0.0
  0
LINE
  5
7A2B
330
18
100
AcDbEntity
  8
0
100
AcDbLine
 10
112.0857583057935
 20
-128.2473518308582
 30
0.0
 11
113.3357583057934
 21
-128.2473518308582
 31
0.0
  0
ARC
  5
7A2C
330
18
100
AcDbEntity
  8
0
100
AcDbCircle
 10
110.5857583057942
 20
-124.4973518308583
 30
0.0
 40
2.554542616084489
100
AcDbArc
 50
89.99999999999998
 51
270.0
  0
LINE
  5
7A2D
330
18
100
AcDbEntity
  8
0
100
AcDbLine
 10
110.5857583057944
 20
-127.0518944469426
 30
0.0
 11
110.5857583057944
 21
-121.942809214774
 31
0.0
  0
LINE
  5
7A2E
330
18
100
AcDbEntity
  8
0
100
AcDbLine
 10
110.5857583057944
 20
-121.942809214774
 30
0.0
 11
112.0857583057935
 21
-121.942809214774
 31
0.0
  0
LINE
  5
7A2F
330
18
100
AcDbEntity
  8
0
100
AcDbLine
 10
110.5857583057944
 20
-127.0518944469426
 30
0.0
 11
112.0857583057935
 21
-127.0518944469426
 31
0.0
  0
LINE
  5
7A30
330
18
100
AcDbEntity
  8
0
100
AcDbLine
 10
112.0857583057935
 20
-120.7473518308582
 30
0.0
 11
113.3357583057934
 21
-120.7473518308582
 31
0.0
  0
MTEXT
  5
7AEF
330
18
100
AcDbEntity
  8
0
100
AcDbMText
 10
306.0266392302818
 20
-161.4416084666376
 30
0.0
 40
6.0
 41
0.6
 71
     4
 72
     5
  1
{ダイナミックブレーキユニット\P　NCR-XABCA2B-222-UL}
 73
     1
 44
1.0
1001
ACAD
1000
ACAD_MTEXT_DEFINED_HEIGHT_BEGIN
1070
    46
1040
16.0
1000
ACAD_MTEXT_DEFINED_HEIGHT_END
  0
TEXT
  5
7AF0
330
18
100
AcDbEntity
  8
0
100
AcDbText
 10
315.3928269094206
 20
-190.796334464767
 30
0.0
 40
7.0
  1
ＳＥ－４２９１０
 41
0.9529999999999999
100
AcDbText
  0
LINE
  5
7AF1
330
18
100
AcDbEntity
  8
0
100
AcDbLine
 10
325.7054541099145
 20
-68.75615809007637
 30
0.0
 11
360.7054541099145
 21
-68.75615809007637
 31
0.0
  0
TEXT
  5
7AF4
330
18
100
AcDbEntity
  8
0
100
AcDbText
 10
326.5348872541296
 20
-113.060154972528
 30
0.0
 40
3.375
  1
NIKKI DENSO CO.,LTD
 41
0.8
  7
STYLE1
100
AcDbText
  0
LINE
  5
7AF6
330
18
100
AcDbEntity
  8
0
100
AcDbLine
 10
360.7054541099145
 20
-118.7561580900762
 30
0.0
 11
325.7054541099145
 21
-118.7561580900762
 31
0.0
  0
TEXT
  5
7AF7
330
18
100
AcDbEntity
  8
0
100
AcDbText
 10
334.5088582969296
 20
-117.0161493794347
 30
0.0
 40
3.375
  1
MADE IN JAPAN
 41
0.8
  7
STYLE1
100
AcDbText
  0
TEXT
  5
7AF8
330
18
100
AcDbEntity
  8
0
100
AcDbText
 10
329.1627439520061
 20
-82.54362663530827
 30
0.0
 40
4.125
  1
＊＊＊
 41
0.8
100
AcDbText
  0
LINE
  5
7AFA
330
18
100
AcDbEntity
  8
0
100
AcDbLine
 10
347.5804541099145
 20
-83.75615809007639
 30
0.0
 11
347.5804541099145
 21
-76.88115809007628
 31
0.0
  0
LINE
  5
7AFB
330
18
100
AcDbEntity
  8
0
100
AcDbLine
 10
359.4554541099145
 20
-76.88115809007628
 30
0.0
 11
359.4554541099145
 21
-83.75615809007639
 31
0.0
  0
LINE
  5
7AFC
330
18
100
AcDbEntity
  8
0
100
AcDbLine
 10
345.0804541099145
 20
-76.88115809007628
 30
0.0
 11
345.0804541099145
 21
-83.75615809007639
 31
0.0
  0
LINE
  5
7AFD
330
18
100
AcDbEntity
  8
0
100
AcDbLine
 10
326.9554541099146
 20
-83.75615809007639
 30
0.0
 11
326.9554541099146
 21
-76.88115809007628
 31
0.0
  0
LINE
  5
7AFE
330
18
100
AcDbEntity
  8
0
100
AcDbLine
 10
324.4554541099144
 20
-70.00615809007637
 30
0.0
 11
324.4554541099144
 21
-117.5061580900762
 31
0.0
  0
LINE
  5
7AFF
330
18
100
AcDbEntity
  8
0
100
AcDbLine
 10
345.0804541099145
 20
-83.75615809007639
 30
0.0
 11
326.9554541099146
 21
-83.75615809007639
 31
0.0
  0
LINE
  5
7B00
330
18
100
AcDbEntity
  8
0
100
AcDbLine
 10
359.4554541099145
 20
-95.00615809007639
 30
0.0
 11
326.9554541099146
 21
-95.00615809007639
 31
0.0
  0
LINE
  5
7B01
330
18
100
AcDbEntity
  8
0
100
AcDbLine
 10
326.9554541099146
 20
-90.00615809007639
 30
0.0
 11
359.4554541099145
 21
-90.00615809007639
 31
0.0
  0
LINE
  5
7B02
330
18
100
AcDbEntity
  8
0
100
AcDbLine
 10
359.4554541099145
 20
-108.7561580900762
 30
0.0
 11
326.9554541099146
 21
-108.7561580900762
 31
0.0
  0
LINE
  5
7B03
330
18
100
AcDbEntity
  8
0
100
AcDbLine
 10
326.9554541099146
 20
-85.00615809007639
 30
0.0
 11
359.4554541099145
 21
-85.00615809007639
 31
0.0
  0
LINE
  5
7B04
330
18
100
AcDbEntity
  8
0
100
AcDbLine
 10
326.9554541099146
 20
-108.7561580900762
 30
0.0
 11
326.9554541099146
 21
-85.00615809007639
 31
0.0
  0
ARC
  5
7B05
330
18
100
AcDbEntity
  8
0
100
AcDbCircle
 10
325.7054541099145
 20
-117.5061580900762
 30
0.0
 40
1.25
100
AcDbArc
 50
180.0
 51
270.0
  0
LINE
  5
7B06
330
18
100
AcDbEntity
  8
0
100
AcDbLine
 10
359.4554541099145
 20
-85.00615809007639
 30
0.0
 11
359.4554541099145
 21
-108.7561580900762
 31
0.0
  0
TEXT
  5
7B07
330
18
100
AcDbEntity
  8
0
100
AcDbText
 10
327.760182277413
 20
-103.6718255916251
 30
0.0
 40
3.125
  1
ＮＣＲ－＊ＡＤ（Ｅ）＊Ａ２＊
 41
0.45
100
AcDbText
  0
TEXT
  5
7B08
330
18
100
AcDbEntity
  8
0
100
AcDbText
 10
327.760182277413
 20
-99.20973558148787
 30
0.0
 40
3.125
  1
ADAPUT　ＥＱＵＩＰＭＥＮＴ
 41
0.6
100
AcDbText
  0
LINE
  5
7B09
330
18
100
AcDbEntity
  8
0
100
AcDbLine
 10
359.4554541099145
 20
-83.75615809007639
 30
0.0
 11
347.5804541099145
 21
-83.75615809007639
 31
0.0
  0
LINE
  5
7B0A
330
18
100
AcDbEntity
  8
0
100
AcDbLine
 10
326.9554541099146
 20
-76.88115809007628
 30
0.0
 11
345.0804541099145
 21
-76.88115809007628
 31
0.0
  0
ARC
  5
7B0B
330
18
100
AcDbEntity
  8
0
100
AcDbCircle
 10
325.7054541099145
 20
-70.00615809007637
 30
0.0
 40
1.25
100
AcDbArc
 50
90.0
 51
180.0
  0
TEXT
  5
7B0C
330
18
100
AcDbEntity
  8
0
100
AcDbText
 10
328.9783677236965
 20
-75.82900740670048
 30
0.0
 40
4.125
  1
ＮＣＲ－ＸＡＢＣＡ２＊－
 41
0.5
100
AcDbText
  0
LINE
  5
7B0D
330
18
100
AcDbEntity
  8
0
100
AcDbLine
 10
347.5804541099145
 20
-76.88115809007628
 30
0.0
 11
359.4554541099145
 21
-76.88115809007628
 31
0.0
  0
LINE
  5
7B0E
330
18
100
AcDbEntity
  8
0
100
AcDbLine
 10
345.3929541099145
 20
-80.31865809007639
 30
0.0
 11
347.2679541099146
 21
-80.31865809007639
 31
0.0
  0
LINE
  5
7B0F
330
18
100
AcDbEntity
  8
0
100
AcDbLine
 10
361.9554541099144
 20
-70.00615809007637
 30
0.0
 11
361.9554541099144
 21
-117.5061580900762
 31
0.0
  0
ARC
  5
7B10
330
18
100
AcDbEntity
  8
0
100
AcDbCircle
 10
360.7054541099145
 20
-117.5061580900762
 30
0.0
 40
1.25
100
AcDbArc
 50
270.0
 51
0.0
  0
ARC
  5
7B11
330
18
100
AcDbEntity
  8
0
100
AcDbCircle
 10
360.7054541099145
 20
-70.00615809007637
 30
0.0
 40
1.25
100
AcDbArc
 50
0.0
 51
90.0
  0
TEXT
  5
7B12
330
18
100
AcDbEntity
  8
0
100
AcDbText
 10
327.760182277413
 20
-107.7922961417916
 30
0.0
 40
3.125
  1
－＊＊＊／＊＊＊
 41
0.45
100
AcDbText
  0
TEXT
  5
7B26
330
18
100
AcDbEntity
  8
0
100
AcDbText
 10
316.0716453593914
 20
-180.2746484902201
 30
0.0
 40
6.0
  1
外形図
100
AcDbText
  0
VIEWPORT
  5
23
330
15
100
AcDbEntity
 67
     1
  8
0
100
AcDbViewport
 10
0.0
 20
0.0
 30
0.0
 40
580.5770667502908
 41
344.0321283451031
 68
     1
 69
     1
 12
199.995970106236
 22
144.3949690368826
 13
0.0
 23
0.0
 14
10.0
 24
10.0
 15
10.0
 25
10.0
 16
0.0
 26
0.0
 36
1.0
 17
0.0
 27
0.0
 37
0.0
 42
50.0
 43
0.0
 44
0.0
 45
344.0321283451031
 50
0.0
 51
0.0
 72
   100
 90
    32784
  1

281
     0
 71
     1
 74
     0
110
0.0
120
0.0
130
0.0
111
1.0
121
0.0
131
0.0
112
0.0
122
1.0
132
0.0
 79
     0
146
0.0
  0
ENDSEC
  0
SECTION
  2
OBJECTS
  0
DICTIONARY
  5
C
330
0
100
AcDbDictionary
281
     1
  3
ACAD_DETAILVIEWSTYLE
350
7B1F
  3
ACAD_GROUP
350
D
  3
ACAD_IMAGE_VARS
350
7AB9
  3
ACAD_LAYOUT
350
73F
  3
ACAD_MLINESTYLE
350
1B
  3
ACAD_PLOTSETTINGS
350
740
  3
ACAD_PLOTSTYLENAME
350
73D
  3
ACAD_SCALELIST
350
7A8D
  3
ACAD_SECTIONVIEWSTYLE
350
7B20
  3
AcadDim
350
61D4
  3
AcDbVariableDictionary
350
7046
  3
APPDATA
350
7AB7
  3
DWGPROPS
350
7B4C
  0
DICTIONARY
  5
7B13
330
2
100
AcDbDictionary
280
     1
281
     1
  3
ACAD_LAYERSTATES
360
7B14
  3
ACLYDICTIONARY
360
7B19
  0
DICTIONARY
  5
7B1F
102
{ACAD_REACTORS
330
C
102
}
330
C
100
AcDbDictionary
281
     1
  0
DICTIONARY
  5
D
102
{ACAD_REACTORS
330
C
102
}
330
C
100
AcDbDictionary
281
     1
  0
RASTERVARIABLES
  5
7AB9
102
{ACAD_REACTORS
330
C
102
}
330
C
100
AcDbRasterVariables
 90
        0
 70
     1
 71
     1
 72
     0
  0
DICTIONARY
  5
73F
102
{ACAD_REACTORS
330
C
102
}
330
C
100
AcDbDictionary
281
     1
  3
Model
350
741
  3
ﾚｲｱｳﾄ1
350
742
  0
DICTIONARY
  5
1B
102
{ACAD_REACTORS
330
C
102
}
330
C
100
AcDbDictionary
281
     1
  3
STANDARD
350
1C
  0
DICTIONARY
  5
740
102
{ACAD_REACTORS
330
C
102
}
330
C
100
AcDbDictionary
281
     1
  0
ACDBDICTIONARYWDFLT
  5
73D
102
{ACAD_REACTORS
330
C
102
}
330
C
100
AcDbDictionary
281
     1
  3
Normal
350
73E
100
AcDbDictionaryWithDefault
340
73E
  0
DICTIONARY
  5
7A8D
102
{ACAD_REACTORS
330
C
102
}
330
C
100
AcDbDictionary
281
     1
  3
A0
350
7A8E
  3
A1
350
7A8F
  3
A2
350
7A90
  3
A3
350
7A91
  3
A4
350
7A92
  3
A5
350
7A93
  3
A6
350
7A94
  3
A7
350
7A95
  3
A8
350
7A96
  3
A9
350
7A97
  3
B0
350
7A98
  3
B1
350
7A99
  3
B2
350
7A9A
  3
B3
350
7A9B
  3
B4
350
7A9C
  3
B5
350
7A9D
  3
B6
350
7A9E
  3
B7
350
7A9F
  3
B8
350
7AA0
  3
B9
350
7AA1
  3
C0
350
7AA2
  3
C1
350
7AA3
  3
C2
350
7AA4
  3
C3
350
7AA5
  3
C4
350
7AA6
  3
C5
350
7AA7
  3
C6
350
7AA8
  3
C7
350
7AA9
  3
C8
350
7AAA
  3
C9
350
7AAB
  3
D0
350
7AAC
  3
D1
350
7AAD
  3
D2
350
7AAE
  0
DICTIONARY
  5
7B20
102
{ACAD_REACTORS
330
C
102
}
330
C
100
AcDbDictionary
281
     1
  0
XRECORD
  5
61D4
102
{ACAD_REACTORS
330
C
102
}
330
C
100
AcDbXrecord
280
     1
 90
   990106
  3

 60
     0
 61
     0
 62
     1
 63
     3
 64
     0
 65
     0
 66
     0
 67
     3
 68
     1
 69
     0
 70
     0
 71
     0
 72
     0
 40
0.0
170
     0
  0
DICTIONARY
  5
7046
102
{ACAD_REACTORS
330
C
102
}
330
C
100
AcDbDictionary
281
     1
  3
DIMASSOC
350
7047
  0
DICTIONARY
  5
7AB7
102
{ACAD_REACTORS
330
C
102
}
330
C
100
AcDbDictionary
281
     1
  0
XRECORD
  5
7B4C
102
{ACAD_REACTORS
330
C
102
}
330
C
100
AcDbXrecord
280
     1
  1
DWGPROPS COOKIE
  2

  3

  4

  6

  7

  8
takada
  9

300
=
301
=
302
=
303
=
304
=
305
=
306
=
307
=
308
=
309
=
 40
0.0
 41
2451224.285162384
 42
2457352.096476238
  1

 90
        0
  0
DICTIONARY
  5
7B14
102
{ACAD_REACTORS
330
7B13
102
}
330
7B13
100
AcDbDictionary
281
     1
  3
ARGON_LAYERP_1
350
7B15
  3
ARGON_LAYERP_2
350
7B18
  3
ARGON_LAYERP_3
350
7B1A
  3
ARGON_LAYERP_4
350
7B22
  0
DICTIONARY
  5
7B19
102
{ACAD_REACTORS
330
7B13
102
}
330
7B13
100
AcDbDictionary
281
     1
1001
ACAD
1000
<All
  0
LAYOUT
  5
741
102
{ACAD_REACTORS
330
73F
102
}
330
73F
100
AcDbPlotSettings
  1

  2
HP DesignJet 750C (D/A1) Color
  4
ISO_A3_(420.00_x_297.00_MM)
  6

 40
7.5
 41
20.0
 42
7.5
 43
20.0
 44
420.0
 45
297.0
 46
0.0
 47
0.0
 48
0.0
 49
0.0
140
0.0
141
0.0
142
1.0
143
1.054140625134093
 70
  1712
 72
     1
 73
     0
 74
     0
  7

 75
     0
147
0.9486400354533286
148
96.27895945382743
149
175.016957954521
100
AcDbLayout
  1
Model
 70
     1
 71
     0
 10
0.0
 20
0.0
 11
12.0
 21
9.0
 12
0.0
 22
0.0
 32
0.0
 14
108.0312156897097
 24
-189.9796677981004
 34
0.0
 15
409.0158305884259
 25
-12.49735183085666
 35
0.0
146
0.0
 13
0.0
 23
0.0
 33
0.0
 16
1.0
 26
0.0
 36
0.0
 17
0.0
 27
1.0
 37
0.0
 76
     0
330
18
  0
LAYOUT
  5
742
102
{ACAD_REACTORS
330
73F
102
}
330
73F
100
AcDbPlotSettings
  1

  2
SII LP-1010_A3.pc3
  4
A3
  6

 40
3.174999952316283
 41
3.174999952316283
 42
3.17498779296875
 43
3.17498779296875
 44
296.9259948730469
 45
419.9466552734373
 46
0.0
 47
0.0
 48
0.0
 49
0.0
140
0.0
141
0.0
142
1.0
143
1.0
 70
   688
 72
     1
 73
     1
 74
     1
  7
monochrome.ctb
 75
    16
147
1.0
148
0.0100202776469587
149
0.0008951342008459
100
AcDbLayout
  1
ﾚｲｱｳﾄ1
 70
     0
 71
     1
 10
-3.185008070615708
 20
-3.175895086517129
 11
416.7616472028216
 21
293.7500997865297
 12
0.0
 22
0.0
 32
0.0
 14
1.000000000000000E+20
 24
1.000000000000000E+20
 34
1.000000000000000E+20
 15
-1.000000000000000E+20
 25
-1.000000000000000E+20
 35
-1.000000000000000E+20
146
0.0
 13
0.0
 23
0.0
 33
0.0
 16
1.0
 26
0.0
 36
0.0
 17
0.0
 27
1.0
 37
0.0
 76
     0
330
15
331
23
  0
MLINESTYLE
  5
1C
102
{ACAD_REACTORS
330
1B
102
}
330
1B
100
AcDbMlineStyle
  2
STANDARD
 70
     0
  3

 62
   256
 51
90.0
 52
90.0
 71
     2
 49
0.5
 62
   256
  6
BYLAYER
 49
-0.5
 62
   256
  6
BYLAYER
  0
ACDBPLACEHOLDER
  5
73E
102
{ACAD_REACTORS
330
73D
102
}
330
73D
  0
ACAD_PROXY_OBJECT
  5
7A8E
102
{ACAD_REACTORS
330
7A8D
102
}
330
7A8D
100
AcDbProxyObject
 90
      499
 91
      507
 95
   655383
 70
     0
 93
       41
310
903313A31581
 94
        0
  0
ACAD_PROXY_OBJECT
  5
7A8F
102
{ACAD_REACTORS
330
7A8D
102
}
330
7A8D
100
AcDbProxyObject
 90
      499
 91
      507
 95
   655383
 70
     0
 93
      105
310
903313A324000000000000004000
 94
        0
  0
ACAD_PROXY_OBJECT
  5
7A90
102
{ACAD_REACTORS
330
7A8D
102
}
330
7A8D
100
AcDbProxyObject
 90
      499
 91
      507
 95
   655383
 70
     0
 93
      105
310
903313A344000000000000104000
 94
        0
  0
ACAD_PROXY_OBJECT
  5
7A91
102
{ACAD_REACTORS
330
7A8D
102
}
330
7A8D
100
AcDbProxyObject
 90
      499
 91
      507
 95
   655383
 70
     0
 93
      105
310
903313A354000000000000144000
 94
        0
  0
ACAD_PROXY_OBJECT
  5
7A92
102
{ACAD_REACTORS
330
7A8D
102
}
330
7A8D
100
AcDbProxyObject
 90
      499
 91
      507
 95
   655383
 70
     0
 93
      105
310
903313A384000000000000204000
 94
        0
  0
ACAD_PROXY_OBJECT
  5
7A93
102
{ACAD_REACTORS
330
7A8D
102
}
330
7A8D
100
AcDbProxyObject
 90
      499
 91
      507
 95
   655383
 70
     0
 93
      113
310
904313A3130400000000000024404D
 94
        0
  0
ACAD_PROXY_OBJECT
  5
7A94
102
{ACAD_REACTORS
330
7A8D
102
}
330
7A8D
100
AcDbProxyObject
 90
      499
 91
      507
 95
   655383
 70
     0
 93
      113
310
904313A3136400000000000030404D
 94
        0
  0
ACAD_PROXY_OBJECT
  5
7A95
102
{ACAD_REACTORS
330
7A8D
102
}
330
7A8D
100
AcDbProxyObject
 90
      499
 91
      507
 95
   655383
 70
     0
 93
      113
310
904313A3230400000000000034404D
 94
        0
  0
ACAD_PROXY_OBJECT
  5
7A96
102
{ACAD_REACTORS
330
7A8D
102
}
330
7A8D
100
AcDbProxyObject
 90
      499
 91
      507
 95
   655383
 70
     0
 93
      113
310
904313A333040000000000003E404D
 94
        0
  0
ACAD_PROXY_OBJECT
  5
7A97
102
{ACAD_REACTORS
330
7A8D
102
}
330
7A8D
100
AcDbProxyObject
 90
      499
 91
      507
 95
   655383
 70
     0
 93
      113
310
904313A3430400000000000044404D
 94
        0
  0
ACAD_PROXY_OBJECT
  5
7A98
102
{ACAD_REACTORS
330
7A8D
102
}
330
7A8D
100
AcDbProxyObject
 90
      499
 91
      507
 95
   655383
 70
     0
 93
      113
310
904313A3530400000000000049404D
 94
        0
  0
ACAD_PROXY_OBJECT
  5
7A99
102
{ACAD_REACTORS
330
7A8D
102
}
330
7A8D
100
AcDbProxyObject
 90
      499
 91
      507
 95
   655383
 70
     0
 93
      121
310
905313A313030400000000000059404D
 94
        0
  0
ACAD_PROXY_OBJECT
  5
7A9A
102
{ACAD_REACTORS
330
7A8D
102
}
330
7A8D
100
AcDbProxyObject
 90
      499
 91
      507
 95
   655383
 70
     0
 93
      105
310
903323A310000000000000010159
 94
        0
  0
ACAD_PROXY_OBJECT
  5
7A9B
102
{ACAD_REACTORS
330
7A8D
102
}
330
7A8D
100
AcDbProxyObject
 90
      499
 91
      507
 95
   655383
 70
     0
 93
      105
310
903343A310000000000000410159
 94
        0
  0
ACAD_PROXY_OBJECT
  5
7A9C
102
{ACAD_REACTORS
330
7A8D
102
}
330
7A8D
100
AcDbProxyObject
 90
      499
 91
      507
 95
   655383
 70
     0
 93
      105
310
903383A310000000000000810159
 94
        0
  0
ACAD_PROXY_OBJECT
  5
7A9D
102
{ACAD_REACTORS
330
7A8D
102
}
330
7A8D
100
AcDbProxyObject
 90
      499
 91
      507
 95
   655383
 70
     0
 93
      113
310
90431303A310000000000000910140
 94
        0
  0
ACAD_PROXY_OBJECT
  5
7A9E
102
{ACAD_REACTORS
330
7A8D
102
}
330
7A8D
100
AcDbProxyObject
 90
      499
 91
      507
 95
   655383
 70
     0
 93
      121
310
9053130303A31000000000000165014D
 94
        0
  0
ACAD_PROXY_OBJECT
  5
7A9F
102
{ACAD_REACTORS
330
7A8D
102
}
330
7A8D
100
AcDbProxyObject
 90
      499
 91
      507
 95
   655383
 70
     0
 93
      257
310
90E312F31323822203D2031272D3022000000000000200FC000000000000284000
 94
        0
  0
ACAD_PROXY_OBJECT
  5
7AA0
102
{ACAD_REACTORS
330
7A8D
102
}
330
7A8D
100
AcDbProxyObject
 90
      499
 91
      507
 95
   655383
 70
     0
 93
      249
310
90D312F363422203D2031272D3022000000000000240FC000000000000284040
 94
        0
  0
ACAD_PROXY_OBJECT
  5
7AA1
102
{ACAD_REACTORS
330
7A8D
102
}
330
7A8D
100
AcDbProxyObject
 90
      499
 91
      507
 95
   655383
 70
     0
 93
      249
310
90D312F333222203D2031272D3022000000000000280FC000000000000284040
 94
        0
  0
ACAD_PROXY_OBJECT
  5
7AA2
102
{ACAD_REACTORS
330
7A8D
102
}
330
7A8D
100
AcDbProxyObject
 90
      499
 91
      507
 95
   655383
 70
     0
 93
      249
310
90D312F313622203D2031272D30220000000000002C0FC000000000000284040
 94
        0
  0
ACAD_PROXY_OBJECT
  5
7AA3
102
{ACAD_REACTORS
330
7A8D
102
}
330
7A8D
100
AcDbProxyObject
 90
      499
 91
      507
 95
   655383
 70
     0
 93
      249
310
90D332F333222203D2031272D30220000000000002E0FC000000000000284040
 94
        0
  0
ACAD_PROXY_OBJECT
  5
7AA4
102
{ACAD_REACTORS
330
7A8D
102
}
330
7A8D
100
AcDbProxyObject
 90
      499
 91
      507
 95
   655383
 70
     0
 93
      241
310
90C312F3822203D2031272D3022000000000000300FC000000000000284040
 94
        0
  0
ACAD_PROXY_OBJECT
  5
7AA5
102
{ACAD_REACTORS
330
7A8D
102
}
330
7A8D
100
AcDbProxyObject
 90
      499
 91
      507
 95
   655383
 70
     0
 93
      249
310
90D332F313622203D2031272D3022000000000000320FC000000000000284040
 94
        0
  0
ACAD_PROXY_OBJECT
  5
7AA6
102
{ACAD_REACTORS
330
7A8D
102
}
330
7A8D
100
AcDbProxyObject
 90
      499
 91
      507
 95
   655383
 70
     0
 93
      241
310
90C312F3422203D2031272D3022000000000000340FC000000000000284040
 94
        0
  0
ACAD_PROXY_OBJECT
  5
7AA7
102
{ACAD_REACTORS
330
7A8D
102
}
330
7A8D
100
AcDbProxyObject
 90
      499
 91
      507
 95
   655383
 70
     0
 93
      241
310
90C332F3822203D2031272D3022000000000000360FC000000000000284040
 94
        0
  0
ACAD_PROXY_OBJECT
  5
7AA8
102
{ACAD_REACTORS
330
7A8D
102
}
330
7A8D
100
AcDbProxyObject
 90
      499
 91
      507
 95
   655383
 70
     0
 93
      241
310
90C312F3222203D2031272D3022000000000000380FC000000000000284040
 94
        0
  0
ACAD_PROXY_OBJECT
  5
7AA9
102
{ACAD_REACTORS
330
7A8D
102
}
330
7A8D
100
AcDbProxyObject
 90
      499
 91
      507
 95
   655383
 70
     0
 93
      241
310
90C332F3422203D2031272D30220000000000003A0FC000000000000284040
 94
        0
  0
ACAD_PROXY_OBJECT
  5
7AAA
102
{ACAD_REACTORS
330
7A8D
102
}
330
7A8D
100
AcDbProxyObject
 90
      499
 91
      507
 95
   655383
 70
     0
 93
      161
310
90A3122203D2031272D30224000000000000284020
 94
        0
  0
ACAD_PROXY_OBJECT
  5
7AAB
102
{ACAD_REACTORS
330
7A8D
102
}
330
7A8D
100
AcDbProxyObject
 90
      499
 91
      507
 95
   655383
 70
     0
 93
      257
310
90E312D312F3222203D2031272D30220000000000003E0FC000000000000284000
 94
        0
  0
ACAD_PROXY_OBJECT
  5
7AAC
102
{ACAD_REACTORS
330
7A8D
102
}
330
7A8D
100
AcDbProxyObject
 90
      499
 91
      507
 95
   655383
 70
     0
 93
      225
310
90A3322203D2031272D302200000000000002100000000000000284000
 94
        0
  0
ACAD_PROXY_OBJECT
  5
7AAD
102
{ACAD_REACTORS
330
7A8D
102
}
330
7A8D
100
AcDbProxyObject
 90
      499
 91
      507
 95
   655383
 70
     0
 93
      225
310
90A3622203D2031272D302200000000000006100000000000000284000
 94
        0
  0
ACAD_PROXY_OBJECT
  5
7AAE
102
{ACAD_REACTORS
330
7A8D
102
}
330
7A8D
100
AcDbProxyObject
 90
      499
 91
      507
 95
   655383
 70
     0
 93
      249
310
90D31272D3022203D2031272D30220000000000000A100000000000000284040
 94
        0
  0
DICTIONARYVAR
  5
7047
102
{ACAD_REACTORS
330
7046
102
}
330
7046
100
DictionaryVariables
280
     0
  1
1
  0
XRECORD
  5
7B15
102
{ACAD_REACTORS
330
7B14
102
}
330
7B14
100
AcDbXrecord
280
     1
 91
     1023
301

290
     0
302
DEMENTION
330
E
 90
        8
 62
     7
370
    -3
331
14
  1
Color_7
330
0
 90
        9
 62
     1
370
    -3
331
14
  1
Color_1
330
0
 90
        8
 62
     7
370
    -3
331
14
  1
Color_7
330
0
 90
        0
 62
     7
370
    -3
331
14
  1
Color_7
330
0
 90
        8
 62
     4
370
    15
331
14
  1
Color_4
330
0
 90
        8
 62
    10
370
    -3
331
14
  1
Color_10
330
0
 90
        8
 62
     7
370
    -3
331
14
  1
Color_7
330
0
 90
        8
 62
     7
370
    -3
331
14
  1
Color_7
330
0
 90
        8
 62
     7
370
    -3
331
14
  1
Color_7
330
0
 90
        8
 62
     9
370
    -3
331
14
  1
Color_9
330
0
 90
        8
 62
     7
370
    -3
331
14
  1
Color_7
330
0
 90
        8
 62
   161
370
    -3
331
14
  1
Color_161
330
0
 90
        8
 62
     7
370
    -3
331
14
  1
Color_7
  0
XRECORD
  5
7B18
102
{ACAD_REACTORS
330
7B14
102
}
330
7B14
100
AcDbXrecord
280
     1
 91
     1023
301

290
     0
302
DEMENTION
330
E
 90
       12
 62
     7
370
    -3
331
14
  1
Color_7
330
0
 90
       13
 62
     1
370
    -3
331
14
  1
Color_1
330
0
 90
       12
 62
     7
370
    -3
331
14
  1
Color_7
330
0
 90
        4
 62
     7
370
    -3
331
14
  1
Color_7
330
0
 90
        8
 62
     4
370
    15
331
14
  1
Color_4
330
0
 90
       12
 62
    10
370
    -3
331
14
  1
Color_10
330
0
 90
       12
 62
     7
370
    -3
331
14
  1
Color_7
330
0
 90
       12
 62
     7
370
    -3
331
14
  1
Color_7
330
0
 90
       12
 62
     7
370
    -3
331
14
  1
Color_7
330
0
 90
       12
 62
     9
370
    -3
331
14
  1
Color_9
330
0
 90
       12
 62
     7
370
    -3
331
14
  1
Color_7
330
0
 90
       12
 62
   161
370
    -3
331
14
  1
Color_161
330
0
 90
       12
 62
     7
370
    -3
331
14
  1
Color_7
  0
XRECORD
  5
7B1A
102
{ACAD_REACTORS
330
7B14
102
}
330
7B14
100
AcDbXrecord
280
     1
 91
     1023
301

290
     0
302
DEMENTION
330
E
 90
        8
 62
     7
370
    -3
331
14
  1
Color_7
330
0
 90
        9
 62
     1
370
    -3
331
14
  1
Color_1
330
0
 90
        8
 62
     7
370
    -3
331
14
  1
Color_7
330
0
 90
        0
 62
     7
370
    -3
331
14
  1
Color_7
330
0
 90
        8
 62
     4
370
    15
331
14
  1
Color_4
330
0
 90
        8
 62
    10
370
    -3
331
14
  1
Color_10
330
0
 90
        8
 62
     7
370
    -3
331
14
  1
Color_7
330
0
 90
        8
 62
     7
370
    -3
331
14
  1
Color_7
330
0
 90
        8
 62
     7
370
    -3
331
14
  1
Color_7
330
0
 90
        8
 62
     9
370
    -3
331
14
  1
Color_9
330
0
 90
        8
 62
     7
370
    -3
331
14
  1
Color_7
330
0
 90
        8
 62
   161
370
    -3
331
14
  1
Color_161
330
0
 90
        8
 62
     7
370
    -3
331
14
  1
Color_7
  0
XRECORD
  5
7B22
102
{ACAD_REACTORS
330
7B14
102
}
330
7B14
100
AcDbXrecord
280
     1
 91
     1023
301

290
     0
302
0
330
E
 90
        8
 62
     7
370
    -3
331
14
  1
Color_7
330
0
 90
        9
 62
     1
370
    -3
331
14
  1
Color_1
330
0
 90
        8
 62
     7
370
    -3
331
14
  1
Color_7
  0
ENDSEC
  0
EOF
