  0
SECTION
  2
HEADER
  9
$ACADVER
  1
AC1015
  9
$ACADMAINTVER
 70
    10
  9
$DWGCODEPAGE
  3
ANSI_932
  9
$INSBASE
 10
0.0
 20
0.0
 30
0.0
  9
$EXTMIN
 10
-397.8746537940051
 20
487.6068173732626
 30
0.0
  9
$EXTMAX
 10
129.670054996553
 20
727.4105735459277
 30
0.0
  9
$LIMMIN
 10
0.0
 20
0.0
  9
$LIMMAX
 10
420.0
 20
297.0
  9
$ORTHOMODE
 70
     1
  9
$REGENMODE
 70
     1
  9
$FILLMODE
 70
     1
  9
$QTEXTMODE
 70
     0
  9
$MIRRTEXT
 70
     0
  9
$LTSCALE
 40
1.0
  9
$ATTMODE
 70
     1
  9
$TEXTSIZE
 40
2.5
  9
$TRACEWID
 40
1.0
  9
$TEXTSTYLE
  7
STANDARD
  9
$CLAYER
  8
文字
  9
$CELTYPE
  6
BYLAYER
  9
$CECOLOR
 62
   256
  9
$CELTSCALE
 40
1.0
  9
$DISPSILH
 70
     0
  9
$DIMSCALE
 40
1.0
  9
$DIMASZ
 40
1.5
  9
$DIMEXO
 40
0.5
  9
$DIMDLI
 40
0.38
  9
$DIMRND
 40
0.0
  9
$DIMDLE
 40
0.0
  9
$DIMEXE
 40
0.8
  9
$DIMTP
 40
0.0
  9
$DIMTM
 40
0.0
  9
$DIMTXT
 40
2.0
  9
$DIMCEN
 40
0.0
  9
$DIMTSZ
 40
0.0
  9
$DIMTOL
 70
     0
  9
$DIMLIM
 70
     0
  9
$DIMTIH
 70
     0
  9
$DIMTOH
 70
     0
  9
$DIMSE1
 70
     0
  9
$DIMSE2
 70
     0
  9
$DIMTAD
 70
     3
  9
$DIMZIN
 70
     8
  9
$DIMBLK
  1
OPEN30
  9
$DIMASO
 70
     1
  9
$DIMSHO
 70
     1
  9
$DIMPOST
  1

  9
$DIMAPOST
  1

  9
$DIMALT
 70
     0
  9
$DIMALTD
 70
     2
  9
$DIMALTF
 40
25.4
  9
$DIMLFAC
 40
1.0
  9
$DIMTOFL
 70
     0
  9
$DIMTVP
 40
0.0
  9
$DIMTIX
 70
     0
  9
$DIMSOXD
 70
     0
  9
$DIMSAH
 70
     0
  9
$DIMBLK1
  1

  9
$DIMBLK2
  1

  9
$DIMSTYLE
  2
まこ-10
  9
$DIMCLRD
 70
     4
  9
$DIMCLRE
 70
     4
  9
$DIMCLRT
 70
   256
  9
$DIMTFAC
 40
1.0
  9
$DIMGAP
 40
0.5
  9
$DIMJUST
 70
     0
  9
$DIMSD1
 70
     0
  9
$DIMSD2
 70
     0
  9
$DIMTOLJ
 70
     1
  9
$DIMTZIN
 70
     0
  9
$DIMALTZ
 70
     0
  9
$DIMALTTZ
 70
     0
  9
$DIMUPT
 70
     0
  9
$DIMDEC
 70
     2
  9
$DIMTDEC
 70
     2
  9
$DIMALTU
 70
     2
  9
$DIMALTTD
 70
     2
  9
$DIMTXSTY
  7
MSｺ_ｼｯｸ-0
  9
$DIMAUNIT
 70
     0
  9
$DIMADEC
 70
     2
  9
$DIMALTRND
 40
0.0
  9
$DIMAZIN
 70
     2
  9
$DIMDSEP
 70
    46
  9
$DIMATFIT
 70
     3
  9
$DIMFRAC
 70
     0
  9
$DIMLDRBLK
  1
OPEN30
  9
$DIMLUNIT
 70
     2
  9
$DIMLWD
 70
    13
  9
$DIMLWE
 70
    13
  9
$DIMTMOVE
 70
     0
  9
$LUNITS
 70
     2
  9
$LUPREC
 70
     4
  9
$SKETCHINC
 40
1.0
  9
$FILLETRAD
 40
35.0
  9
$AUNITS
 70
     0
  9
$AUPREC
 70
     0
  9
$MENU
  1
.
  9
$ELEVATION
 40
0.0
  9
$PELEVATION
 40
0.0
  9
$THICKNESS
 40
0.0
  9
$LIMCHECK
 70
     0
  9
$CHAMFERA
 40
0.3
  9
$CHAMFERB
 40
0.3
  9
$CHAMFERC
 40
20.0
  9
$CHAMFERD
 40
0.0
  9
$SKPOLY
 70
     0
  9
$TDCREATE
 40
2452479.723123183
  9
$TDUCREATE
 40
2452479.348123183
  9
$TDUPDATE
 40
2455905.595092755
  9
$TDUUPDATE
 40
2455905.220092755
  9
$TDINDWG
 40
7.5545995718
  9
$TDUSRTIMER
 40
7.5545957755
  9
$USRTIMER
 70
     1
  9
$ANGBASE
 50
0.0
  9
$ANGDIR
 70
     0
  9
$PDMODE
 70
     0
  9
$PDSIZE
 40
0.0
  9
$PLINEWID
 40
0.0
  9
$SPLFRAME
 70
     0
  9
$SPLINETYPE
 70
     6
  9
$SPLINESEGS
 70
     8
  9
$HANDSEED
  5
21959
  9
$SURFTAB1
 70
     6
  9
$SURFTAB2
 70
     6
  9
$SURFTYPE
 70
     6
  9
$SURFU
 70
     6
  9
$SURFV
 70
     6
  9
$UCSBASE
  2

  9
$UCSNAME
  2

  9
$UCSORG
 10
0.0
 20
0.0
 30
0.0
  9
$UCSXDIR
 10
1.0
 20
0.0
 30
0.0
  9
$UCSYDIR
 10
0.0
 20
1.0
 30
0.0
  9
$UCSORTHOREF
  2

  9
$UCSORTHOVIEW
 70
     0
  9
$UCSORGTOP
 10
0.0
 20
0.0
 30
0.0
  9
$UCSORGBOTTOM
 10
0.0
 20
0.0
 30
0.0
  9
$UCSORGLEFT
 10
0.0
 20
0.0
 30
0.0
  9
$UCSORGRIGHT
 10
0.0
 20
0.0
 30
0.0
  9
$UCSORGFRONT
 10
0.0
 20
0.0
 30
0.0
  9
$UCSORGBACK
 10
0.0
 20
0.0
 30
0.0
  9
$PUCSBASE
  2

  9
$PUCSNAME
  2

  9
$PUCSORG
 10
0.0
 20
0.0
 30
0.0
  9
$PUCSXDIR
 10
1.0
 20
0.0
 30
0.0
  9
$PUCSYDIR
 10
0.0
 20
1.0
 30
0.0
  9
$PUCSORTHOREF
  2

  9
$PUCSORTHOVIEW
 70
     0
  9
$PUCSORGTOP
 10
0.0
 20
0.0
 30
0.0
  9
$PUCSORGBOTTOM
 10
0.0
 20
0.0
 30
0.0
  9
$PUCSORGLEFT
 10
0.0
 20
0.0
 30
0.0
  9
$PUCSORGRIGHT
 10
0.0
 20
0.0
 30
0.0
  9
$PUCSORGFRONT
 10
0.0
 20
0.0
 30
0.0
  9
$PUCSORGBACK
 10
0.0
 20
0.0
 30
0.0
  9
$USERI1
 70
     0
  9
$USERI2
 70
     0
  9
$USERI3
 70
     0
  9
$USERI4
 70
     0
  9
$USERI5
 70
     0
  9
$USERR1
 40
10.0
  9
$USERR2
 40
0.0
  9
$USERR3
 40
0.0
  9
$USERR4
 40
0.0
  9
$USERR5
 40
0.0
  9
$WORLDVIEW
 70
     1
  9
$SHADEDGE
 70
     3
  9
$SHADEDIF
 70
    70
  9
$TILEMODE
 70
     0
  9
$MAXACTVP
 70
    48
  9
$PINSBASE
 10
0.0
 20
0.0
 30
0.0
  9
$PLIMCHECK
 70
     0
  9
$PEXTMIN
 10
0.0
 20
0.0
 30
0.0
  9
$PEXTMAX
 10
400.0
 20
288.0
 30
0.0
  9
$PLIMMIN
 10
-8.555312243085717
 20
-8.541945350945768
  9
$PLIMMAX
 10
422.8575496543485
 20
296.5347261496916
  9
$UNITMODE
 70
     0
  9
$VISRETAIN
 70
     1
  9
$PLINEGEN
 70
     0
  9
$PSLTSCALE
 70
     0
  9
$TREEDEPTH
 70
  3020
  9
$CMLSTYLE
  2
STANDARD
  9
$CMLJUST
 70
     0
  9
$CMLSCALE
 40
20.0
  9
$PROXYGRAPHICS
 70
     1
  9
$MEASUREMENT
 70
     0
  9
$CELWEIGHT
370
    -1
  9
$ENDCAPS
280
     0
  9
$JOINSTYLE
280
     0
  9
$LWDISPLAY
290
     1
  9
$INSUNITS
 70
     0
  9
$HYPERLINKBASE
  1

  9
$STYLESHEET
  1

  9
$XEDIT
290
     1
  9
$CEPSNTYPE
380
     0
  9
$PSTYLEMODE
290
     1
  9
$FINGERPRINTGUID
  2
{6B368F64-F7EB-11D4-BFBA-00004C030E53}
  9
$VERSIONGUID
  2
{97E252B3-1867-4F86-853D-CDB235C72CBD}
  9
$EXTNAMES
290
     1
  9
$PSVPSCALE
 40
0.0
  9
$OLESTARTUP
290
     0
  0
ENDSEC
  0
SECTION
  2
CLASSES
  0
CLASS
  1
HATCH
  2
AcDbHatch
  3
AutoCAD 2000
 90
    32768
280
     0
281
     1
  0
CLASS
  1
LWPOLYLINE
  2
AcDbPolyline
  3
AutoCAD 2000
 90
    32768
280
     0
281
     1
  0
CLASS
  1
ACDBDICTIONARYWDFLT
  2
AcDbDictionaryWithDefault
  3
AutoCAD 2000
 90
        0
280
     0
281
     0
  0
CLASS
  1
ACDBPLACEHOLDER
  2
AcDbPlaceHolder
  3
AutoCAD 2000
 90
        0
280
     0
281
     0
  0
CLASS
  1
LAYOUT
  2
AcDbLayout
  3
AutoCAD 2000
 90
        0
280
     0
281
     0
  0
CLASS
  1
DICTIONARYVAR
  2
AcDbDictionaryVar
  3
AutoCAD 2000
 90
        0
280
     0
281
     0
  0
CLASS
  1
LONG_TRANSACTION
  2
AcDbLongTransaction
  3
AutoCAD 2000
 90
    32768
280
     0
281
     0
  0
CLASS
  1
LWPOLYLINE
  2
AcDbPolyline
  3
AutoCAD 2000
 90
    32768
280
     0
281
     1
  0
CLASS
  1
HATCH
  2
AcDbHatch
  3
AutoCAD 2000
 90
    32768
280
     0
281
     1
  0
CLASS
  1
XRECORD
  2
AcDbXrecord
  3
AutoCAD 2000
 90
    32768
280
     0
281
     0
  0
CLASS
  1
LONG_TRANSACTION
  2
AcDbLongTransaction
  3
AutoCAD 2000
 90
    32768
280
     0
281
     0
  0
CLASS
  1
LWPOLYLINE
  2
AcDbPolyline
  3
AutoCAD 2000
 90
    32768
280
     0
281
     1
  0
CLASS
  1
HATCH
  2
AcDbHatch
  3
AutoCAD 2000
 90
    32768
280
     0
281
     1
  0
CLASS
  1
XRECORD
  2
AcDbXrecord
  3
AutoCAD 2000
 90
    32768
280
     0
281
     0
  0
CLASS
  1
LONG_TRANSACTION
  2
AcDbLongTransaction
  3
AutoCAD 2000
 90
    32768
280
     0
281
     0
  0
CLASS
  1
LWPOLYLINE
  2
AcDbPolyline
  3
AutoCAD 2000
 90
    32768
280
     0
281
     1
  0
CLASS
  1
HATCH
  2
AcDbHatch
  3
AutoCAD 2000
 90
    32768
280
     0
281
     1
  0
CLASS
  1
XRECORD
  2
AcDbXrecord
  3
AutoCAD 2000
 90
    32768
280
     0
281
     0
  0
ENDSEC
  0
SECTION
  2
TABLES
  0
TABLE
  2
VPORT
  5
8
330
0
100
AcDbSymbolTable
 70
     1
  0
VPORT
  5
218E1
330
8
100
AcDbSymbolTableRecord
100
AcDbViewportTableRecord
  2
*ACTIVE
 70
     0
 10
0.0
 20
0.0
 11
1.0
 21
1.0
 12
-134.1083290414217
 22
607.5037086713205
 13
-147.946845867692
 23
19.55743956420332
 14
10.0
 24
10.0
 15
10.0
 25
10.0
 16
0.0
 26
0.0
 36
1.0
 17
0.0
 27
0.0
 37
0.0
 40
347.0134590166986
 41
1.527918781725888
 42
50.0
 43
0.0
 44
0.0
 50
0.0
 51
0.0
 71
     0
 72
   100
 73
     1
 74
     0
 75
     0
 76
     0
 77
     0
 78
     0
281
     0
 65
     1
110
0.0
120
0.0
130
0.0
111
1.0
121
0.0
131
0.0
112
0.0
122
1.0
132
0.0
 79
     0
146
0.0
  0
ENDTAB
  0
TABLE
  2
LTYPE
  5
5
330
0
100
AcDbSymbolTable
 70
     3
  0
LTYPE
  5
12
330
5
100
AcDbSymbolTableRecord
100
AcDbLinetypeTableRecord
  2
BYBLOCK
 70
     0
  3

 72
    65
 73
     0
 40
0.0
  0
LTYPE
  5
13
330
5
100
AcDbSymbolTableRecord
100
AcDbLinetypeTableRecord
  2
BYLAYER
 70
     0
  3

 72
    65
 73
     0
 40
0.0
  0
LTYPE
  5
14
330
5
100
AcDbSymbolTableRecord
100
AcDbLinetypeTableRecord
  2
CONTINUOUS
 70
     0
  3
Solid line
 72
    65
 73
     0
 40
0.0
  0
LTYPE
  5
969
330
5
100
AcDbSymbolTableRecord
100
AcDbLinetypeTableRecord
  2
CENTER2
 70
     0
  3
Center (.5x) ___ _ ___ _ ___ _ ___ _ ___ _ ___
 72
    65
 73
     4
 40
28.57499999999999
 49
19.05
 74
     0
 49
-3.174999999999998
 74
     0
 49
3.174999999999998
 74
     0
 49
-3.174999999999998
 74
     0
  0
LTYPE
  5
BB7
330
5
100
AcDbSymbolTableRecord
100
AcDbLinetypeTableRecord
  2
HIDDEN
 70
     0
  3
Hidden __ __ __ __ __ __ __ __ __ __ __ __ __ _
 72
    65
 73
     2
 40
9.524999999999996
 49
6.349999999999997
 74
     0
 49
-3.174999999999998
 74
     0
  0
ENDTAB
  0
TABLE
  2
LAYER
  5
2
330
0
100
AcDbSymbolTable
 70
    13
  0
LAYER
  5
E
330
2
100
AcDbSymbolTableRecord
100
AcDbLayerTableRecord
  2
0
 70
     2
 62
     7
  6
CONTINUOUS
370
    -3
390
73E
  0
LAYER
  5
2C
330
2
100
AcDbSymbolTableRecord
100
AcDbLayerTableRecord
  2
M_VIEW
 70
     0
 62
    -1
  6
CONTINUOUS
370
    -3
390
73E
  0
LAYER
  5
12B
330
2
100
AcDbSymbolTableRecord
100
AcDbLayerTableRecord
  2
DEFPOINTS
 70
     0
 62
    -7
  6
CONTINUOUS
290
     0
370
    -3
390
73E
  0
LAYER
  5
86A
330
2
100
AcDbSymbolTableRecord
100
AcDbLayerTableRecord
  2
文字改
 70
     0
 62
    40
  6
CONTINUOUS
370
    -3
390
73E
  0
LAYER
  5
8C6
330
2
100
AcDbSymbolTableRecord
100
AcDbLayerTableRecord
  2
文字
 70
     0
 62
     7
  6
CONTINUOUS
370
    -3
390
73E
  0
LAYER
  5
96A
330
2
100
AcDbSymbolTableRecord
100
AcDbLayerTableRecord
  2
中心線
 70
     0
 62
     7
  6
CENTER2
370
    -3
390
73E
  0
LAYER
  5
1521
330
2
100
AcDbSymbolTableRecord
100
AcDbLayerTableRecord
  2
実線
 70
     0
 62
     7
  6
CONTINUOUS
370
    -3
390
73E
  0
LAYER
  5
1522
330
2
100
AcDbSymbolTableRecord
100
AcDbLayerTableRecord
  2
隠れ線
 70
     0
 62
     7
  6
HIDDEN
370
    -3
390
73E
  0
LAYER
  5
1523
330
2
100
AcDbSymbolTableRecord
100
AcDbLayerTableRecord
  2
細線
 70
     0
 62
     7
  6
CONTINUOUS
370
    -3
390
73E
  0
LAYER
  5
1526
330
2
100
AcDbSymbolTableRecord
100
AcDbLayerTableRecord
  2
ｷｬｯﾌ_ﾎ_ﾙﾄ
 70
     0
 62
     7
  6
CONTINUOUS
370
    -3
390
73E
  0
LAYER
  5
44F0
330
2
100
AcDbSymbolTableRecord
100
AcDbLayerTableRecord
  2
ｺﾈｸﾀ
 70
     0
 62
     7
  6
CONTINUOUS
370
    -3
390
73E
  0
LAYER
  5
E02B
330
2
100
AcDbSymbolTableRecord
100
AcDbLayerTableRecord
  2
本体
 70
     0
 62
     7
  6
CONTINUOUS
370
    -3
390
73E
  0
LAYER
  5
135D7
330
2
100
AcDbSymbolTableRecord
100
AcDbLayerTableRecord
  2
ﾎ_ﾋ_ﾝ
 70
     0
 62
     7
  6
CONTINUOUS
370
    -3
390
73E
  0
ENDTAB
  0
TABLE
  2
STYLE
  5
3
330
0
100
AcDbSymbolTable
 70
     2
  0
STYLE
  5
F
330
3
100
AcDbSymbolTableRecord
100
AcDbTextStyleTableRecord
  2
STANDARD
 70
     0
 40
0.0
 41
1.0
 50
0.0
 71
     0
 42
2.5
  3
isocp.shx
  4
bigfont.shx
  0
STYLE
  5
8D7
330
3
100
AcDbSymbolTableRecord
100
AcDbTextStyleTableRecord
  2
MSｺ_ｼｯｸ-0
 70
     0
 40
0.0
 41
1.0
 50
0.0
 71
     0
 42
4.0
  3
simplex.shx
  4
bigfont.shx
  0
ENDTAB
  0
TABLE
  2
VIEW
  5
6
330
0
100
AcDbSymbolTable
 70
     0
  0
ENDTAB
  0
TABLE
  2
UCS
  5
7
330
0
100
AcDbSymbolTable
 70
     0
  0
ENDTAB
  0
TABLE
  2
APPID
  5
9
330
0
100
AcDbSymbolTable
 70
     2
  0
APPID
  5
10
330
9
100
AcDbSymbolTableRecord
100
AcDbRegAppTableRecord
  2
ACAD
 70
     0
  0
APPID
  5
21640
330
9
100
AcDbSymbolTableRecord
100
AcDbRegAppTableRecord
  2
CONTENTBLOCKICON
 70
     0
  0
ENDTAB
  0
TABLE
  2
DIMSTYLE
  5
A
330
0
100
AcDbSymbolTable
 70
     2
100
AcDbDimStyleTable
 71
     0
  0
DIMSTYLE
105
1D
330
A
100
AcDbSymbolTableRecord
100
AcDbDimStyleTableRecord
  2
STANDARD
 70
     0
 41
3.0
 42
0.8
 44
0.8
 73
     0
 74
     0
 77
     3
 78
     8
140
3.0
141
0.0
147
0.5
176
     4
177
     4
178
   256
340
8D7
341
89E
342
89E
  0
DIMSTYLE
105
8264
330
A
100
AcDbSymbolTableRecord
100
AcDbDimStyleTableRecord
  2
まこ-10
 70
     0
 41
1.5
 42
0.5
 44
0.8
 73
     0
 74
     0
 77
     3
 78
     8
140
2.0
141
0.0
147
0.5
176
     4
177
     4
178
   256
271
     2
272
     2
340
8D7
341
89E
342
89E
  0
ENDTAB
  0
TABLE
  2
BLOCK_RECORD
  5
1
330
0
100
AcDbSymbolTable
 70
     1
  0
BLOCK_RECORD
  5
18
102
{ACAD_XDICTIONARY
360
2163E
102
}
330
1
100
AcDbSymbolTableRecord
100
AcDbBlockTableRecord
  2
*MODEL_SPACE
340
21952
  0
BLOCK_RECORD
  5
15
102
{ACAD_XDICTIONARY
360
2163C
102
}
330
1
100
AcDbSymbolTableRecord
100
AcDbBlockTableRecord
  2
*PAPER_SPACE
340
21953
  0
BLOCK_RECORD
  5
89E
330
1
100
AcDbSymbolTableRecord
100
AcDbBlockTableRecord
  2
_OPEN30
340
0
  0
ENDTAB
  0
ENDSEC
  0
SECTION
  2
BLOCKS
  0
BLOCK
  5
19
330
18
100
AcDbEntity
  8
0
100
AcDbBlockBegin
  2
*MODEL_SPACE
 70
     0
 10
0.0
 20
0.0
 30
0.0
  3
*MODEL_SPACE
  1

  0
ENDBLK
  5
1A
330
18
100
AcDbEntity
  8
0
100
AcDbBlockEnd
  0
BLOCK
  5
16
330
15
100
AcDbEntity
 67
     1
  8
0
100
AcDbBlockBegin
  2
*PAPER_SPACE
 70
     0
 10
0.0
 20
0.0
 30
0.0
  3
*PAPER_SPACE
  1

  0
ENDBLK
  5
17
330
15
100
AcDbEntity
 67
     1
  8
0
100
AcDbBlockEnd
  0
BLOCK
  5
8A2
330
89E
100
AcDbEntity
  8
0
100
AcDbBlockBegin
  2
_OPEN30
 70
     0
 10
0.0
 20
0.0
 30
0.0
  3
_OPEN30
  1

  0
LINE
  5
89F
330
89E
100
AcDbEntity
  8
0
  6
ByBlock
 62
     0
100
AcDbLine
 10
-1.0
 20
0.26794919
 30
0.0
 11
0.0
 21
0.0
 31
0.0
  0
LINE
  5
8A0
330
89E
100
AcDbEntity
  8
0
  6
ByBlock
 62
     0
100
AcDbLine
 10
0.0
 20
0.0
 30
0.0
 11
-1.0
 21
-0.26794919
 31
0.0
  0
LINE
  5
8A1
330
89E
100
AcDbEntity
  8
0
  6
ByBlock
 62
     0
100
AcDbLine
 10
0.0
 20
0.0
 30
0.0
 11
-1.0
 21
0.0
 31
0.0
  0
ENDBLK
  5
8A3
330
89E
100
AcDbEntity
  8
0
100
AcDbBlockEnd
  0
ENDSEC
  0
SECTION
  2
ENTITIES
  0
LINE
  5
1B079
330
18
100
AcDbEntity
  8
中心線
 48
0.7
100
AcDbLine
 10
-337.8746537940051
 20
664.1404202747585
 30
0.0
 11
-337.8746537940051
 21
594.8257056356546
 31
0.0
  0
LINE
  5
1B090
330
18
100
AcDbEntity
  8
中心線
 48
0.7
100
AcDbLine
 10
-397.8746537940051
 20
604.140420274759
 30
0.0
 11
-277.8746537940051
 21
604.1404202747585
 31
0.0
  0
LINE
  5
1B091
330
18
100
AcDbEntity
  8
ｷｬｯﾌ_ﾎ_ﾙﾄ
100
AcDbLine
 10
-365.3746538572031
 20
604.8621080747558
 30
0.0
 11
-365.3746538862268
 21
603.4187323850251
 31
0.0
  0
ARC
  5
1B092
330
18
100
AcDbEntity
  8
文字
100
AcDbCircle
 10
-337.8746537940051
 20
552.1404202747588
 30
0.0
 40
0.7100001638462447
100
AcDbArc
 50
12.7957610368563
 51
17.20421604482362
  0
ARC
  5
1B093
330
18
100
AcDbEntity
  8
文字
100
AcDbCircle
 10
-337.8746537940051
 20
552.1404202747588
 30
0.0
 40
0.7100001638462447
100
AcDbArc
 50
72.79576103685548
 51
77.20421604481416
  0
ARC
  5
1B094
330
18
100
AcDbEntity
  8
文字
100
AcDbCircle
 10
-337.8746537940051
 20
552.1404202747588
 30
0.0
 40
0.7100001638462447
100
AcDbArc
 50
192.7957610368674
 51
197.2042160448011
  0
ARC
  5
1B095
330
18
100
AcDbEntity
  8
文字
100
AcDbCircle
 10
-337.8746537940051
 20
552.1404202747588
 30
0.0
 40
0.7100001638462447
100
AcDbArc
 50
252.7957610368555
 51
257.2042160448141
  0
ARC
  5
1B096
330
18
100
AcDbEntity
  8
文字
100
AcDbCircle
 10
-338.4539376758218
 20
551.5611366246542
 30
0.0
 40
0.3823077805325932
100
AcDbArc
 50
344.9999885408463
 51
104.9999885408436
  0
ARC
  5
1B097
330
18
100
AcDbEntity
  8
文字
100
AcDbCircle
 10
-337.6626213779268
 20
551.3491038920498
 30
0.0
 40
0.3823077805325932
100
AcDbArc
 50
44.99998854083503
 51
164.9999885408746
  0
ARC
  5
1B098
330
18
100
AcDbEntity
  8
文字
100
AcDbCircle
 10
-338.6659700919001
 20
552.352453007363
 30
0.0
 40
0.3823077805325932
100
AcDbArc
 50
284.9999885408436
 51
44.99998854083503
  0
ARC
  5
1B099
330
18
100
AcDbEntity
  8
文字
100
AcDbCircle
 10
-337.8746537940051
 20
552.1404202747588
 30
0.0
 40
0.7100001638462447
100
AcDbArc
 50
132.7957610368583
 51
137.2042160447899
  0
ARC
  5
1B09A
330
18
100
AcDbEntity
  8
文字
100
AcDbCircle
 10
-337.8746537940051
 20
552.1404202747588
 30
0.0
 40
0.7100001638462447
100
AcDbArc
 50
312.7957610368583
 51
317.2042160447896
  0
ARC
  5
1B09B
330
18
100
AcDbEntity
  8
文字
100
AcDbCircle
 10
-338.0866862100833
 20
552.9317366574671
 30
0.0
 40
0.3823077805325932
100
AcDbArc
 50
224.999988540835
 51
344.9999885408463
  0
ARC
  5
1B09C
330
18
100
AcDbEntity
  8
文字
100
AcDbCircle
 10
-337.0833374961096
 20
551.9283875421534
 30
0.0
 40
0.3823077805325932
100
AcDbArc
 50
104.9999885408152
 51
224.999988540835
  0
ARC
  5
1B09D
330
18
100
AcDbEntity
  8
文字
100
AcDbCircle
 10
-337.2953699121873
 20
552.7197039248624
 30
0.0
 40
0.3823077805325932
100
AcDbArc
 50
164.9999885408463
 51
284.9999885408436
  0
CIRCLE
  5
1B09F
330
18
100
AcDbEntity
  8
ｷｬｯﾌ_ﾎ_ﾙﾄ
100
AcDbCircle
 10
-337.8746539098613
 20
552.140420390615
 30
0.0
 40
2.450000000000001
  0
CIRCLE
  5
1B0A0
330
18
100
AcDbEntity
  8
ｷｬｯﾌ_ﾎ_ﾙﾄ
100
AcDbCircle
 10
-337.8746539098613
 20
552.140420390615
 30
0.0
 40
3.0
  0
LINE
  5
1B0A1
330
18
100
AcDbEntity
  8
ｷｬｯﾌ_ﾎ_ﾙﾄ
100
AcDbLine
 10
-367.874653730807
 20
603.4187324747557
 30
0.0
 11
-366.6246537017848
 21
602.6970446550254
 31
0.0
  0
LINE
  5
1B0A2
330
18
100
AcDbEntity
  8
ｷｬｯﾌ_ﾎ_ﾙﾄ
100
AcDbLine
 10
-367.8746538174109
 20
603.4187324247555
 30
0.0
 11
-367.8746536576691
 21
604.8621077280768
 31
0.0
  0
LINE
  5
1B0A3
330
18
100
AcDbEntity
  8
ｷｬｯﾌ_ﾎ_ﾙﾄ
100
AcDbLine
 10
-367.8746536057078
 20
604.8621077580762
 30
0.0
 11
-366.6246535303416
 21
605.5837956380765
 31
0.0
  0
LINE
  5
1B0A4
330
18
100
AcDbEntity
  8
ｷｬｯﾌ_ﾎ_ﾙﾄ
100
AcDbLine
 10
-366.6246538057074
 20
602.6970445950251
 30
0.0
 11
-365.3746538862268
 21
603.4187323850251
 31
0.0
  0
CIRCLE
  5
1B0A5
330
18
100
AcDbEntity
  8
ｷｬｯﾌ_ﾎ_ﾙﾄ
100
AcDbCircle
 10
-366.6246537940063
 20
604.1404202747582
 30
0.0
 40
2.75
  0
LINE
  5
1B0A6
330
18
100
AcDbEntity
  8
ｷｬｯﾌ_ﾎ_ﾙﾄ
100
AcDbLine
 10
-366.6246535303416
 20
605.5837956380765
 30
0.0
 11
-365.3746537706008
 21
604.8621081247552
 31
0.0
  0
CIRCLE
  5
1B0A7
330
18
100
AcDbEntity
  8
本体
  6
Continuous
100
AcDbCircle
 10
-366.6246537940063
 20
604.1404202747582
 30
0.0
 40
3.0
  0
ARC
  5
1B0A8
330
18
100
AcDbEntity
  8
文字
100
AcDbCircle
 10
-390.4539376758346
 20
603.5611366246546
 30
0.0
 40
0.3823077805325932
100
AcDbArc
 50
344.9999885408463
 51
104.9999885408436
  0
ARC
  5
1B0A9
330
18
100
AcDbEntity
  8
文字
100
AcDbCircle
 10
-389.8746537940177
 20
604.1404202747591
 30
0.0
 40
0.7100001638462447
100
AcDbArc
 50
252.7957610368555
 51
257.2042160448141
  0
ARC
  5
1B0AA
330
18
100
AcDbEntity
  8
文字
100
AcDbCircle
 10
-389.6626213779395
 20
603.3491038920502
 30
0.0
 40
0.3823077805325932
100
AcDbArc
 50
44.99998854083503
 51
164.9999885408746
  0
ARC
  5
1B0AB
330
18
100
AcDbEntity
  8
文字
100
AcDbCircle
 10
-389.8746537940177
 20
604.1404202747591
 30
0.0
 40
0.7100001638462447
100
AcDbArc
 50
192.7957610368674
 51
197.2042160448011
  0
ARC
  5
1B0AC
330
18
100
AcDbEntity
  8
文字
100
AcDbCircle
 10
-390.6659700919128
 20
604.3524530073632
 30
0.0
 40
0.3823077805325932
100
AcDbArc
 50
284.9999885408436
 51
44.99998854083503
  0
ARC
  5
1B0AD
330
18
100
AcDbEntity
  8
文字
100
AcDbCircle
 10
-389.2953699122001
 20
604.7197039248628
 30
0.0
 40
0.3823077805325932
100
AcDbArc
 50
164.9999885408463
 51
284.9999885408436
  0
ARC
  5
1B0AE
330
18
100
AcDbEntity
  8
文字
100
AcDbCircle
 10
-389.8746537940177
 20
604.1404202747591
 30
0.0
 40
0.7100001638462447
100
AcDbArc
 50
12.7957610368563
 51
17.20421604482362
  0
ARC
  5
1B0AF
330
18
100
AcDbEntity
  8
文字
100
AcDbCircle
 10
-389.0833374961222
 20
603.9283875421538
 30
0.0
 40
0.3823077805325932
100
AcDbArc
 50
104.9999885408152
 51
224.999988540835
  0
ARC
  5
1B0B0
330
18
100
AcDbEntity
  8
文字
100
AcDbCircle
 10
-389.8746537940177
 20
604.1404202747591
 30
0.0
 40
0.7100001638462447
100
AcDbArc
 50
72.79576103685548
 51
77.20421604481416
  0
ARC
  5
1B0B1
330
18
100
AcDbEntity
  8
文字
100
AcDbCircle
 10
-390.0866862100962
 20
604.9317366574674
 30
0.0
 40
0.3823077805325932
100
AcDbArc
 50
224.999988540835
 51
344.9999885408463
  0
CIRCLE
  5
1B0B2
330
18
100
AcDbEntity
  8
ｷｬｯﾌ_ﾎ_ﾙﾄ
100
AcDbCircle
 10
-389.8746539098738
 20
604.1404203906152
 30
0.0
 40
2.450000000000001
  0
CIRCLE
  5
1B0B3
330
18
100
AcDbEntity
  8
ｷｬｯﾌ_ﾎ_ﾙﾄ
100
AcDbCircle
 10
-389.8746539098738
 20
604.1404203906152
 30
0.0
 40
3.0
  0
CIRCLE
  5
1B0B4
330
18
100
AcDbEntity
  8
中心線
 48
0.2
100
AcDbCircle
 10
-337.8746537940064
 20
604.1404202747577
 30
0.0
 40
17.49999999999953
  0
LINE
  5
1B0B5
330
18
100
AcDbEntity
  8
ｷｬｯﾌ_ﾎ_ﾙﾄ
100
AcDbLine
 10
-310.3746536057077
 20
604.8621077580762
 30
0.0
 11
-309.1246535303416
 21
605.5837956380765
 31
0.0
  0
LINE
  5
1B0B6
330
18
100
AcDbEntity
  8
ｷｬｯﾌ_ﾎ_ﾙﾄ
100
AcDbLine
 10
-310.3746537308068
 20
603.4187324747557
 30
0.0
 11
-309.124653701785
 21
602.6970446550254
 31
0.0
  0
CIRCLE
  5
1B0B7
330
18
100
AcDbEntity
  8
ｷｬｯﾌ_ﾎ_ﾙﾄ
100
AcDbCircle
 10
-309.1246537940063
 20
604.1404202747582
 30
0.0
 40
2.75
  0
CIRCLE
  5
1B0B8
330
18
100
AcDbEntity
  8
本体
  6
Continuous
100
AcDbCircle
 10
-309.1246537940063
 20
604.1404202747582
 30
0.0
 40
3.0
  0
CIRCLE
  5
1B0BA
330
18
100
AcDbEntity
  8
実線
100
AcDbCircle
 10
-337.8746537940064
 20
586.6404202747587
 30
0.0
 40
1.875000000000681
  0
CIRCLE
  5
1B0BB
330
18
100
AcDbEntity
  8
細線
100
AcDbCircle
 10
-337.8746537940064
 20
586.6404202747587
 30
0.0
 40
2.500000000000454
  0
CIRCLE
  5
1B0BC
330
18
100
AcDbEntity
  8
実線
100
AcDbCircle
 10
-337.8746537940055
 20
604.1404202747587
 30
0.0
 40
9.5
  0
LINE
  5
1B0BD
330
18
100
AcDbEntity
  8
ｷｬｯﾌ_ﾎ_ﾙﾄ
100
AcDbLine
 10
-352.2496538057073
 20
577.7988142362223
 30
0.0
 11
-350.9996538862269
 21
578.5205020262224
 31
0.0
  0
LINE
  5
1B0BE
330
18
100
AcDbEntity
  8
ｷｬｯﾌ_ﾎ_ﾙﾄ
100
AcDbLine
 10
-350.9996538572031
 20
579.963877715953
 30
0.0
 11
-350.9996538862269
 21
578.5205020262224
 31
0.0
  0
LINE
  5
1B0BF
330
18
100
AcDbEntity
  8
ｷｬｯﾌ_ﾎ_ﾙﾄ
100
AcDbLine
 10
-353.4996538174108
 20
578.5205020659527
 30
0.0
 11
-353.4996536576691
 21
579.9638773692739
 31
0.0
  0
LINE
  5
1B0C0
330
18
100
AcDbEntity
  8
ｷｬｯﾌ_ﾎ_ﾙﾄ
100
AcDbLine
 10
-353.499653730807
 20
578.5205021159531
 30
0.0
 11
-352.2496537017849
 21
577.7988142962226
 31
0.0
  0
CIRCLE
  5
1B0C1
330
18
100
AcDbEntity
  8
ｷｬｯﾌ_ﾎ_ﾙﾄ
100
AcDbCircle
 10
-352.2496537940063
 20
579.2421899159552
 30
0.0
 40
2.75
  0
LINE
  5
1B0C2
330
18
100
AcDbEntity
  8
ｷｬｯﾌ_ﾎ_ﾙﾄ
100
AcDbLine
 10
-353.4996536057078
 20
579.9638773992738
 30
0.0
 11
-352.2496535303416
 21
580.6855652792737
 31
0.0
  0
LINE
  5
1B0C3
330
18
100
AcDbEntity
  8
ｷｬｯﾌ_ﾎ_ﾙﾄ
100
AcDbLine
 10
-352.2496535303416
 20
580.6855652792737
 30
0.0
 11
-350.9996537706009
 21
579.9638777659525
 31
0.0
  0
CIRCLE
  5
1B0C4
330
18
100
AcDbEntity
  8
本体
  6
Continuous
100
AcDbCircle
 10
-352.2496537940063
 20
579.2421899159559
 30
0.0
 40
3.0
  0
LINE
  5
1B0C5
330
18
100
AcDbEntity
  8
中心線
 48
0.2
100
AcDbLine
 10
-349.5659967450956
 20
597.3904202747577
 30
0.0
 11
-356.4941999753707
 21
593.3904202747577
 31
0.0
  0
CIRCLE
  5
1B0C6
330
18
100
AcDbEntity
  8
細線
100
AcDbCircle
 10
-353.0300983602342
 20
595.3904202747581
 30
0.0
 40
2.500000000000454
  0
CIRCLE
  5
1B0C7
330
18
100
AcDbEntity
  8
実線
100
AcDbCircle
 10
-353.0300983602342
 20
595.3904202747581
 30
0.0
 40
1.875000000000681
  0
CIRCLE
  5
1B0C8
330
18
100
AcDbEntity
  8
実線
100
AcDbCircle
 10
-353.0300983602332
 20
612.8904202747577
 30
0.0
 40
1.875000000000681
  0
CIRCLE
  5
1B0C9
330
18
100
AcDbEntity
  8
細線
100
AcDbCircle
 10
-353.0300983602332
 20
612.8904202747577
 30
0.0
 40
2.500000000000454
  0
LINE
  5
1B0CA
330
18
100
AcDbEntity
  8
中心線
 48
0.2
100
AcDbLine
 10
-349.5659967450956
 20
610.8904202747575
 30
0.0
 11
-356.4941999753707
 21
614.8904202747575
 31
0.0
  0
LINE
  5
1B0CB
330
18
100
AcDbEntity
  8
ｷｬｯﾌ_ﾎ_ﾙﾄ
100
AcDbLine
 10
-310.3746538174108
 20
603.4187324247555
 30
0.0
 11
-310.3746536576691
 21
604.8621077280768
 31
0.0
  0
LINE
  5
1B0CC
330
18
100
AcDbEntity
  8
ｷｬｯﾌ_ﾎ_ﾙﾄ
100
AcDbLine
 10
-323.4996538057075
 20
577.7988142362227
 30
0.0
 11
-322.2496538862269
 21
578.5205020262227
 31
0.0
  0
LINE
  5
1B0CD
330
18
100
AcDbEntity
  8
ｷｬｯﾌ_ﾎ_ﾙﾄ
100
AcDbLine
 10
-322.2496538572031
 20
579.9638777159532
 30
0.0
 11
-322.2496538862269
 21
578.5205020262227
 31
0.0
  0
LINE
  5
1B0CE
330
18
100
AcDbEntity
  8
ｷｬｯﾌ_ﾎ_ﾙﾄ
100
AcDbLine
 10
-324.7496538174108
 20
578.5205020659532
 30
0.0
 11
-324.7496536576691
 21
579.9638773692745
 31
0.0
  0
LINE
  5
1B0CF
330
18
100
AcDbEntity
  8
ｷｬｯﾌ_ﾎ_ﾙﾄ
100
AcDbLine
 10
-324.7496537308068
 20
578.5205021159534
 30
0.0
 11
-323.4996537017848
 21
577.7988142962231
 31
0.0
  0
CIRCLE
  5
1B0D0
330
18
100
AcDbEntity
  8
ｷｬｯﾌ_ﾎ_ﾙﾄ
100
AcDbCircle
 10
-323.4996537940064
 20
579.2421899159559
 30
0.0
 40
2.75
  0
LINE
  5
1B0D1
330
18
100
AcDbEntity
  8
ｷｬｯﾌ_ﾎ_ﾙﾄ
100
AcDbLine
 10
-324.7496536057078
 20
579.9638773992742
 30
0.0
 11
-323.4996535303416
 21
580.6855652792742
 31
0.0
  0
LINE
  5
1B0D2
330
18
100
AcDbEntity
  8
ｷｬｯﾌ_ﾎ_ﾙﾄ
100
AcDbLine
 10
-323.4996535303416
 20
580.6855652792742
 30
0.0
 11
-322.249653770601
 21
579.9638777659529
 31
0.0
  0
CIRCLE
  5
1B0D3
330
18
100
AcDbEntity
  8
本体
  6
Continuous
100
AcDbCircle
 10
-323.4996537940064
 20
579.2421899159559
 30
0.0
 40
3.0
  0
CIRCLE
  5
1B0D4
330
18
100
AcDbEntity
  8
細線
100
AcDbCircle
 10
-322.7192092277787
 20
612.8904202747577
 30
0.0
 40
2.500000000000454
  0
CIRCLE
  5
1B0D5
330
18
100
AcDbEntity
  8
実線
100
AcDbCircle
 10
-322.7192092277787
 20
612.8904202747577
 30
0.0
 40
1.875000000000681
  0
CIRCLE
  5
1B0D6
330
18
100
AcDbEntity
  8
細線
100
AcDbCircle
 10
-322.7192092277787
 20
595.3904202747581
 30
0.0
 40
2.500000000000454
  0
CIRCLE
  5
1B0D7
330
18
100
AcDbEntity
  8
実線
100
AcDbCircle
 10
-322.7192092277787
 20
595.3904202747581
 30
0.0
 40
1.875000000000681
  0
LINE
  5
1B0D8
330
18
100
AcDbEntity
  8
中心線
 48
0.2
100
AcDbLine
 10
-326.1833108429164
 20
610.8904202747575
 30
0.0
 11
-319.2551076126408
 21
614.8904202747575
 31
0.0
  0
LINE
  5
1B0D9
330
18
100
AcDbEntity
  8
中心線
 48
0.2
100
AcDbLine
 10
-326.1833108429164
 20
597.3904202747577
 30
0.0
 11
-319.2551076126408
 21
593.3904202747577
 31
0.0
  0
CIRCLE
  5
1B0DC
330
18
100
AcDbEntity
  8
ｷｬｯﾌ_ﾎ_ﾙﾄ
100
AcDbCircle
 10
-285.8746537940176
 20
604.1404202747586
 30
0.0
 40
2.450000000000001
  0
CIRCLE
  5
1B0DD
330
18
100
AcDbEntity
  8
ｷｬｯﾌ_ﾎ_ﾙﾄ
100
AcDbCircle
 10
-285.8746537940176
 20
604.1404202747586
 30
0.0
 40
3.0
  0
ARC
  5
1B0DE
330
18
100
AcDbEntity
  8
文字
100
AcDbCircle
 10
-285.8746536781609
 20
604.1404201589017
 30
0.0
 40
0.7100001638462447
100
AcDbArc
 50
12.7957610368563
 51
17.20421604482362
  0
ARC
  5
1B0DF
330
18
100
AcDbEntity
  8
文字
100
AcDbCircle
 10
-285.8746536781609
 20
604.1404201589017
 30
0.0
 40
0.7100001638462447
100
AcDbArc
 50
72.79576103685548
 51
77.20421604481416
  0
ARC
  5
1B0E0
330
18
100
AcDbEntity
  8
文字
100
AcDbCircle
 10
-285.8746536781609
 20
604.1404201589017
 30
0.0
 40
0.7100001638462447
100
AcDbArc
 50
192.7957610368674
 51
197.2042160448011
  0
ARC
  5
1B0E1
330
18
100
AcDbEntity
  8
文字
100
AcDbCircle
 10
-285.8746536781609
 20
604.1404201589017
 30
0.0
 40
0.7100001638462447
100
AcDbArc
 50
252.7957610368555
 51
257.2042160448141
  0
ARC
  5
1B0E2
330
18
100
AcDbEntity
  8
文字
100
AcDbCircle
 10
-286.4539375599781
 20
603.5611365087977
 30
0.0
 40
0.3823077805325932
100
AcDbArc
 50
344.9999885408463
 51
104.9999885408436
  0
ARC
  5
1B0E3
330
18
100
AcDbEntity
  8
文字
100
AcDbCircle
 10
-285.6626212620824
 20
603.3491037761932
 30
0.0
 40
0.3823077805325932
100
AcDbArc
 50
44.99998854083503
 51
164.9999885408746
  0
ARC
  5
1B0E4
330
18
100
AcDbEntity
  8
文字
100
AcDbCircle
 10
-286.6659699760566
 20
604.3524528915066
 30
0.0
 40
0.3823077805325932
100
AcDbArc
 50
284.9999885408436
 51
44.99998854083503
  0
ARC
  5
1B0E5
330
18
100
AcDbEntity
  8
文字
100
AcDbCircle
 10
-285.8746536781609
 20
604.1404201589017
 30
0.0
 40
0.7100001638462447
100
AcDbArc
 50
132.7957610368583
 51
137.2042160447899
  0
ARC
  5
1B0E6
330
18
100
AcDbEntity
  8
文字
100
AcDbCircle
 10
-285.8746536781609
 20
604.1404201589017
 30
0.0
 40
0.7100001638462447
100
AcDbArc
 50
312.7957610368583
 51
317.2042160447896
  0
ARC
  5
1B0E7
330
18
100
AcDbEntity
  8
文字
100
AcDbCircle
 10
-286.0866860942388
 20
604.9317365416104
 30
0.0
 40
0.3823077805325932
100
AcDbArc
 50
224.999988540835
 51
344.9999885408463
  0
ARC
  5
1B0E8
330
18
100
AcDbEntity
  8
文字
100
AcDbCircle
 10
-285.0833373802651
 20
603.9283874262967
 30
0.0
 40
0.3823077805325932
100
AcDbArc
 50
104.9999885408152
 51
224.999988540835
  0
ARC
  5
1B0E9
330
18
100
AcDbEntity
  8
文字
100
AcDbCircle
 10
-285.2953697963433
 20
604.7197038090056
 30
0.0
 40
0.3823077805325932
100
AcDbArc
 50
164.9999885408463
 51
284.9999885408436
  0
LINE
  5
1B0EA
330
18
100
AcDbEntity
  8
ｷｬｯﾌ_ﾎ_ﾙﾄ
100
AcDbLine
 10
-309.1246535303416
 20
605.5837956380765
 30
0.0
 11
-307.874653770601
 21
604.8621081247552
 31
0.0
  0
LINE
  5
1B0EB
330
18
100
AcDbEntity
  8
ｷｬｯﾌ_ﾎ_ﾙﾄ
100
AcDbLine
 10
-309.1246538057075
 20
602.6970445950251
 30
0.0
 11
-307.8746538862269
 21
603.4187323850251
 31
0.0
  0
LINE
  5
1B0EC
330
18
100
AcDbEntity
  8
ｷｬｯﾌ_ﾎ_ﾙﾄ
100
AcDbLine
 10
-307.8746538572031
 20
604.8621080747558
 30
0.0
 11
-307.8746538862269
 21
603.4187323850251
 31
0.0
  0
SOLID
  5
1B0ED
330
18
100
AcDbEntity
  8
0
  6
ByBlock
 62
     0
100
AcDbTrace
 10
-339.4912345529826
 20
639.4404202720266
 30
0.0
 11
-337.8746537968568
 21
636.6404202720993
 31
0.0
 12
-336.2580730409832
 22
639.4404202721717
 32
0.0
 13
-336.2580730409832
 23
639.4404202721717
 33
0.0
  0
SOLID
  5
1B0EE
330
18
100
AcDbEntity
  8
0
  6
ByBlock
 62
     0
100
AcDbTrace
 10
-339.4912345527163
 20
633.4904202720279
 30
0.0
 11
-337.8746537968403
 21
636.2904202721002
 31
0.0
 12
-336.258073040717
 22
633.4904202721729
 32
0.0
 13
-336.258073040717
 23
633.4904202721729
 33
0.0
  0
CIRCLE
  5
1B0EF
330
18
100
AcDbEntity
  8
実線
100
AcDbCircle
 10
-337.8746537940064
 20
621.6404202747577
 30
0.0
 40
1.875000000000681
  0
CIRCLE
  5
1B0F0
330
18
100
AcDbEntity
  8
細線
100
AcDbCircle
 10
-337.8746537940064
 20
621.6404202747577
 30
0.0
 40
2.500000000000454
  0
CIRCLE
  5
1B0F2
330
18
100
AcDbEntity
  8
実線
100
AcDbCircle
 10
-352.2496537940063
 20
629.038650633561
 30
0.0
 40
2.75
  0
CIRCLE
  5
1B0F3
330
18
100
AcDbEntity
  8
実線
100
AcDbCircle
 10
-352.2496537940063
 20
629.038650633561
 30
0.0
 40
3.0
  0
LINE
  5
1B0F4
330
18
100
AcDbEntity
  8
実線
100
AcDbLine
 10
-352.2496538057073
 20
627.5952749538276
 30
0.0
 11
-350.9996538862269
 21
628.3169627438277
 31
0.0
  0
LINE
  5
1B0F5
330
18
100
AcDbEntity
  8
実線
100
AcDbLine
 10
-350.9996538572031
 20
629.7603384335582
 30
0.0
 11
-350.9996538862269
 21
628.3169627438277
 31
0.0
  0
LINE
  5
1B0F6
330
18
100
AcDbEntity
  8
実線
100
AcDbLine
 10
-353.4996538174108
 20
628.3169627835583
 30
0.0
 11
-353.4996536576691
 21
629.7603380868795
 31
0.0
  0
LINE
  5
1B0F7
330
18
100
AcDbEntity
  8
実線
100
AcDbLine
 10
-353.499653730807
 20
628.3169628335587
 30
0.0
 11
-352.2496537017849
 21
627.5952750138277
 31
0.0
  0
LINE
  5
1B0F8
330
18
100
AcDbEntity
  8
実線
100
AcDbLine
 10
-353.4996536057078
 20
629.7603381168793
 30
0.0
 11
-352.2496535303416
 21
630.4820259968793
 31
0.0
  0
LINE
  5
1B0F9
330
18
100
AcDbEntity
  8
実線
100
AcDbLine
 10
-352.2496535303416
 20
630.4820259968793
 30
0.0
 11
-350.9996537706009
 21
629.7603384835579
 31
0.0
  0
LINE
  5
1B0FA
330
18
100
AcDbEntity
  8
ﾎ_ﾋ_ﾝ
 48
0.051
100
AcDbLine
 10
-337.8746537969803
 20
639.2812948258935
 30
0.0
 11
-338.5746537969803
 21
639.2812948258622
 31
0.0
  0
CIRCLE
  5
1B0FB
330
18
100
AcDbEntity
  8
実線
100
AcDbCircle
 10
-323.4996537940064
 20
629.038650633561
 30
0.0
 40
2.75
  0
CIRCLE
  5
1B0FC
330
18
100
AcDbEntity
  8
実線
100
AcDbCircle
 10
-323.4996537940064
 20
629.038650633561
 30
0.0
 40
3.0
  0
LINE
  5
1B0FD
330
18
100
AcDbEntity
  8
実線
100
AcDbLine
 10
-323.4996538057075
 20
627.5952749538276
 30
0.0
 11
-322.2496538862269
 21
628.3169627438277
 31
0.0
  0
LINE
  5
1B0FE
330
18
100
AcDbEntity
  8
実線
100
AcDbLine
 10
-322.2496538572031
 20
629.7603384335582
 30
0.0
 11
-322.2496538862269
 21
628.3169627438277
 31
0.0
  0
LINE
  5
1B0FF
330
18
100
AcDbEntity
  8
実線
100
AcDbLine
 10
-324.7496538174108
 20
628.3169627835583
 30
0.0
 11
-324.7496536576691
 21
629.7603380868795
 31
0.0
  0
LINE
  5
1B100
330
18
100
AcDbEntity
  8
実線
100
AcDbLine
 10
-324.7496537308068
 20
628.3169628335587
 30
0.0
 11
-323.4996537017848
 21
627.5952750138277
 31
0.0
  0
LINE
  5
1B101
330
18
100
AcDbEntity
  8
実線
100
AcDbLine
 10
-324.7496536057078
 20
629.7603381168793
 30
0.0
 11
-323.4996535303416
 21
630.4820259968793
 31
0.0
  0
LINE
  5
1B102
330
18
100
AcDbEntity
  8
実線
100
AcDbLine
 10
-323.4996535303416
 20
630.4820259968793
 30
0.0
 11
-322.249653770601
 21
629.7603384835579
 31
0.0
  0
ARC
  5
1B103
330
18
100
AcDbEntity
  8
文字
100
AcDbCircle
 10
-338.4539376758223
 20
655.5611366246552
 30
0.0
 40
0.3823077805325932
100
AcDbArc
 50
344.9999885408463
 51
104.9999885408436
  0
ARC
  5
1B104
330
18
100
AcDbEntity
  8
文字
100
AcDbCircle
 10
-337.2953699121872
 20
656.7197039248627
 30
0.0
 40
0.3823077805325932
100
AcDbArc
 50
164.9999885408463
 51
284.9999885408436
  0
CIRCLE
  5
1B105
330
18
100
AcDbEntity
  8
ｷｬｯﾌ_ﾎ_ﾙﾄ
100
AcDbCircle
 10
-337.8746539098618
 20
656.1404203906156
 30
0.0
 40
2.450000000000001
  0
CIRCLE
  5
1B106
330
18
100
AcDbEntity
  8
ｷｬｯﾌ_ﾎ_ﾙﾄ
100
AcDbCircle
 10
-337.8746539098618
 20
656.1404203906156
 30
0.0
 40
3.0
  0
ARC
  5
1B107
330
18
100
AcDbEntity
  8
文字
100
AcDbCircle
 10
-337.8746537940051
 20
656.1404202747588
 30
0.0
 40
0.7100001638462447
100
AcDbArc
 50
12.7957610368563
 51
17.20421604482362
  0
ARC
  5
1B108
330
18
100
AcDbEntity
  8
文字
100
AcDbCircle
 10
-337.8746537940051
 20
656.1404202747588
 30
0.0
 40
0.7100001638462447
100
AcDbArc
 50
252.7957610368555
 51
257.2042160448141
  0
ARC
  5
1B109
330
18
100
AcDbEntity
  8
文字
100
AcDbCircle
 10
-337.6626213779266
 20
655.3491038920502
 30
0.0
 40
0.3823077805325932
100
AcDbArc
 50
44.99998854083503
 51
164.9999885408746
  0
ARC
  5
1B10A
330
18
100
AcDbEntity
  8
文字
100
AcDbCircle
 10
-337.8746537940051
 20
656.1404202747588
 30
0.0
 40
0.7100001638462447
100
AcDbArc
 50
312.7957610368583
 51
317.2042160447896
  0
ARC
  5
1B10B
330
18
100
AcDbEntity
  8
文字
100
AcDbCircle
 10
-337.0833374961093
 20
655.9283875421535
 30
0.0
 40
0.3823077805325932
100
AcDbArc
 50
104.9999885408152
 51
224.999988540835
  0
ARC
  5
1B10C
330
18
100
AcDbEntity
  8
文字
100
AcDbCircle
 10
-337.8746537940051
 20
656.1404202747588
 30
0.0
 40
0.7100001638462447
100
AcDbArc
 50
72.79576103685548
 51
77.20421604481416
  0
ARC
  5
1B10D
330
18
100
AcDbEntity
  8
文字
100
AcDbCircle
 10
-337.8746537940051
 20
656.1404202747588
 30
0.0
 40
0.7100001638462447
100
AcDbArc
 50
192.7957610368674
 51
197.2042160448011
  0
ARC
  5
1B10E
330
18
100
AcDbEntity
  8
文字
100
AcDbCircle
 10
-338.6659700919003
 20
656.3524530073639
 30
0.0
 40
0.3823077805325932
100
AcDbArc
 50
284.9999885408436
 51
44.99998854083503
  0
ARC
  5
1B10F
330
18
100
AcDbEntity
  8
文字
100
AcDbCircle
 10
-337.8746537940051
 20
656.1404202747588
 30
0.0
 40
0.7100001638462447
100
AcDbArc
 50
132.7957610368583
 51
137.2042160447899
  0
ARC
  5
1B110
330
18
100
AcDbEntity
  8
文字
100
AcDbCircle
 10
-338.0866862100833
 20
656.9317366574672
 30
0.0
 40
0.3823077805325932
100
AcDbArc
 50
224.999988540835
 51
344.9999885408463
  0
LINE
  5
1B1D6
330
18
100
AcDbEntity
  8
実線
100
AcDbLine
 10
-136.291761833742
 20
660.1404202747584
 30
0.0
 11
-207.7917618337421
 21
660.1404202747585
 31
0.0
  0
LINE
  5
1B1D7
330
18
100
AcDbEntity
  8
実線
100
AcDbLine
 10
-207.7917618337428
 20
548.1404202747585
 30
0.0
 11
-136.2917618337426
 21
548.1404202747584
 31
0.0
  0
LINE
  5
1B1DA
330
18
100
AcDbEntity
  8
隠れ線
 48
0.7
100
AcDbLine
 10
-211.2917618337428
 20
594.6404202747577
 30
0.0
 11
-115.7917618337428
 21
594.6404202747585
 31
0.0
  0
LINE
  5
1B1DB
330
18
100
AcDbEntity
  8
隠れ線
 48
0.7
100
AcDbLine
 10
-211.2917618337422
 20
613.6404202747582
 30
0.0
 11
-115.7917618337428
 21
613.6404202747582
 31
0.0
  0
LINE
  5
1B1DC
330
18
100
AcDbEntity
  8
中心線
 48
0.7
100
AcDbLine
 10
-215.4401481956198
 20
604.1404202747585
 30
0.0
 11
-103.917990981075
 21
604.140420274759
 31
0.0
  0
LINE
  5
1B1E0
330
18
100
AcDbEntity
  8
実線
100
AcDbLine
 10
-211.2917618337428
 20
628.8404202747592
 30
0.0
 11
-211.2917618337428
 21
579.4404202747585
 31
0.0
  0
LINE
  5
1B1E1
330
18
100
AcDbEntity
  8
実線
100
AcDbLine
 10
-209.7917618337428
 20
636.6404202747577
 30
0.0
 11
-209.7917618337428
 21
571.6404202747585
 31
0.0
  0
LINE
  5
1B1E2
330
18
100
AcDbEntity
  8
実線
100
AcDbLine
 10
-207.7917618337421
 20
660.1404202747585
 30
0.0
 11
-207.7917618337428
 21
548.1404202747585
 31
0.0
  0
LINE
  5
1B1E3
330
18
100
AcDbEntity
  8
実線
100
AcDbLine
 10
-208.2917618337424
 20
659.6404202747587
 30
0.0
 11
-208.2917618337428
 21
548.640420390615
 31
0.0
  0
LINE
  5
1B1E4
330
18
100
AcDbEntity
  8
中心線
 48
0.7
100
AcDbLine
 10
-210.7917618337426
 20
552.140420390615
 30
0.0
 11
-204.7917618337428
 21
552.140420390615
 31
0.0
  0
LINE
  5
1B1E7
330
18
100
AcDbEntity
  8
実線
100
AcDbLine
 10
-210.9917618337428
 20
579.1404202747584
 30
0.0
 11
-209.7917618337428
 21
579.1404202747584
 31
0.0
  0
LINE
  5
1B1E8
330
18
100
AcDbEntity
  8
実線
100
AcDbLine
 10
-209.7917618337428
 20
571.6404202747585
 30
0.0
 11
-208.2917618337428
 21
571.640420274759
 31
0.0
  0
LINE
  5
1B1EA
330
18
100
AcDbEntity
  8
実線
100
AcDbLine
 10
-208.2917618337428
 20
548.640420390615
 30
0.0
 11
-207.7917618337428
 21
548.640420390615
 31
0.0
  0
LINE
  5
1B1EB
330
18
100
AcDbEntity
  8
文字
100
AcDbLine
 10
-208.2917618337428
 20
555.1404203906147
 30
0.0
 11
-208.2917618337428
 21
549.1404203906149
 31
0.0
  0
LINE
  5
1B1EC
330
18
100
AcDbEntity
  8
ｷｬｯﾌ_ﾎ_ﾙﾄ
100
AcDbLine
 10
-209.0917618337428
 20
549.3404203906147
 30
0.0
 11
-209.0917618337428
 21
554.9404203906147
 31
0.0
  0
LINE
  5
1B1ED
330
18
100
AcDbEntity
  8
ｷｬｯﾌ_ﾎ_ﾙﾄ
100
AcDbLine
 10
-208.8917618337428
 20
549.1404203906149
 30
0.0
 11
-208.8917618337428
 21
555.1404203906147
 31
0.0
  0
LINE
  5
1B1EE
330
18
100
AcDbEntity
  8
文字
100
AcDbLine
 10
-208.8917618337428
 20
549.1404203906149
 30
0.0
 11
-208.2917618337428
 21
549.1404203906149
 31
0.0
  0
LINE
  5
1B1EF
330
18
100
AcDbEntity
  8
ｷｬｯﾌ_ﾎ_ﾙﾄ
100
AcDbLine
 10
-208.8917618337428
 20
549.1404203906149
 30
0.0
 11
-209.0917618337428
 21
549.3404203906147
 31
0.0
  0
LINE
  5
1B1F0
330
18
100
AcDbEntity
  8
ｷｬｯﾌ_ﾎ_ﾙﾄ
100
AcDbLine
 10
-208.8917618337428
 20
555.1404203906147
 30
0.0
 11
-208.2917618337428
 21
555.1404203906147
 31
0.0
  0
LINE
  5
1B1F1
330
18
100
AcDbEntity
  8
ｷｬｯﾌ_ﾎ_ﾙﾄ
100
AcDbLine
 10
-208.8917618337428
 20
555.1404203906147
 30
0.0
 11
-209.0917618337428
 21
554.9404203906147
 31
0.0
  0
LINE
  5
1B1F8
330
18
100
AcDbEntity
  8
中心線
 48
0.7
100
AcDbLine
 10
-210.7917618337419
 20
656.1404202747588
 30
0.0
 11
-204.7917618337421
 21
656.1404202747592
 31
0.0
  0
LINE
  5
1B1FA
330
18
100
AcDbEntity
  8
実線
100
AcDbLine
 10
-208.291761833742
 20
659.6404202747587
 30
0.0
 11
-207.7917618337421
 21
659.6404202747587
 31
0.0
  0
LINE
  5
1B1FB
330
18
100
AcDbEntity
  8
ｷｬｯﾌ_ﾎ_ﾙﾄ
100
AcDbLine
 10
-208.8917618337421
 20
659.1404202747587
 30
0.0
 11
-209.091761833742
 21
658.9404202747584
 31
0.0
  0
LINE
  5
1B1FC
330
18
100
AcDbEntity
  8
ｷｬｯﾌ_ﾎ_ﾙﾄ
100
AcDbLine
 10
-208.8917618337421
 20
659.1404202747587
 30
0.0
 11
-208.291761833742
 21
659.1404202747587
 31
0.0
  0
LINE
  5
1B1FD
330
18
100
AcDbEntity
  8
ｷｬｯﾌ_ﾎ_ﾙﾄ
100
AcDbLine
 10
-208.8917618337425
 20
653.1404202747587
 30
0.0
 11
-209.0917618337428
 21
653.3404202747585
 31
0.0
  0
LINE
  5
1B1FE
330
18
100
AcDbEntity
  8
文字
100
AcDbLine
 10
-208.8917618337425
 20
653.1404202747587
 30
0.0
 11
-208.2917618337426
 21
653.1404202747587
 31
0.0
  0
LINE
  5
1B1FF
330
18
100
AcDbEntity
  8
ｷｬｯﾌ_ﾎ_ﾙﾄ
100
AcDbLine
 10
-208.8917618337425
 20
653.1404202747587
 30
0.0
 11
-208.8917618337421
 21
659.1404202747587
 31
0.0
  0
LINE
  5
1B200
330
18
100
AcDbEntity
  8
ｷｬｯﾌ_ﾎ_ﾙﾄ
100
AcDbLine
 10
-209.0917618337428
 20
653.3404202747585
 30
0.0
 11
-209.091761833742
 21
658.9404202747584
 31
0.0
  0
LINE
  5
1B201
330
18
100
AcDbEntity
  8
文字
100
AcDbLine
 10
-208.291761833742
 20
659.1404202747587
 30
0.0
 11
-208.2917618337426
 21
653.1404202747587
 31
0.0
  0
LINE
  5
1B202
330
18
100
AcDbEntity
  8
実線
100
AcDbLine
 10
-209.7917618337428
 20
636.6404202747585
 30
0.0
 11
-208.2917618337428
 21
636.6404202747587
 31
0.0
  0
LINE
  5
1B203
330
18
100
AcDbEntity
  8
実線
100
AcDbLine
 10
-210.9917618337428
 20
629.1404202747592
 30
0.0
 11
-209.7917618337428
 21
629.1404202747577
 31
0.0
  0
LINE
  5
1B20B
330
18
100
AcDbEntity
  8
隠れ線
100
AcDbLine
 10
-115.7917618337428
 20
569.1404202747577
 30
0.0
 11
-115.7917618337428
 21
639.1404202747581
 31
0.0
  0
LINE
  5
1B20C
330
18
100
AcDbEntity
  8
実線
100
AcDbLine
 10
-114.2917618337426
 20
563.6404202747576
 30
0.0
 11
-114.2917618337432
 21
644.6404202747585
 31
0.0
  0
LINE
  5
1B20D
330
18
100
AcDbEntity
  8
実線
100
AcDbLine
 10
-116.2917618337427
 20
548.1404202747585
 30
0.0
 11
-116.2917618337423
 21
660.1404202747585
 31
0.0
  0
LINE
  5
1B20E
330
18
100
AcDbEntity
  8
実線
100
AcDbLine
 10
-136.2917618337426
 20
548.1404202747585
 30
0.0
 11
-136.291761833742
 21
660.1404202747585
 31
0.0
  0
LINE
  5
1B218
330
18
100
AcDbEntity
  8
実線
100
AcDbLine
 10
-136.2917618337426
 20
548.1404202747585
 30
0.0
 11
-116.2917618337427
 21
548.1404202747585
 31
0.0
  0
LINE
  5
1B221
330
18
100
AcDbEntity
  8
隠れ線
 48
0.7
100
AcDbLine
 10
-115.7917618337428
 20
569.1404202747577
 30
0.0
 11
-114.2917618337426
 21
569.1404202747577
 31
0.0
  0
LINE
  5
1B222
330
18
100
AcDbEntity
  8
実線
100
AcDbLine
 10
-114.2917618337426
 20
563.6404202747576
 30
0.0
 11
-114.7917618337428
 21
563.1404202747575
 31
0.0
  0
LINE
  5
1B223
330
18
100
AcDbEntity
  8
実線
100
AcDbLine
 10
-116.2917618337427
 20
563.1404202747585
 30
0.0
 11
-114.7917618337428
 21
563.1404202747575
 31
0.0
  0
LINE
  5
1B236
330
18
100
AcDbEntity
  8
ｺﾈｸﾀ
100
AcDbLine
 10
-105.789707700001
 20
635.7942202746794
 30
0.0
 11
-97.78970770000114
 21
635.7942202746047
 31
0.0
  0
LINE
  5
1B237
330
18
100
AcDbEntity
  8
ｺﾈｸﾀ
100
AcDbLine
 10
-105.7897077001648
 20
618.4866202746792
 30
0.0
 11
-97.78970770016485
 21
618.4866202746047
 31
0.0
  0
LINE
  5
1B238
330
18
100
AcDbEntity
  8
中心線
 48
0.7
100
AcDbLine
 10
-119.7114278774014
 20
627.1404202747588
 30
0.0
 11
-96.30499771355928
 21
627.1404202747588
 31
0.0
  0
LINE
  5
1B23A
330
18
100
AcDbEntity
  8
ｺﾈｸﾀ
100
AcDbLine
 10
-105.78970770013
 20
622.0535202746791
 30
0.0
 11
-98.62889598706306
 21
622.0535202746122
 31
0.0
  0
LINE
  5
1B23B
330
18
100
AcDbEntity
  8
ｺﾈｸﾀ
100
AcDbLine
 10
-105.7897077001157
 20
623.5735202746796
 30
0.0
 11
-98.62889598704851
 21
623.5735202746127
 31
0.0
  0
LINE
  5
1B23C
330
18
100
AcDbEntity
  8
ｺﾈｸﾀ
100
AcDbLine
 10
-105.7897077000502
 20
630.7073202746792
 30
0.0
 11
-98.62889598698302
 21
630.7073202746122
 31
0.0
  0
LINE
  5
1B23D
330
18
100
AcDbEntity
  8
ｺﾈｸﾀ
100
AcDbLine
 10
-105.7897077000357
 20
632.2273202746796
 30
0.0
 11
-98.62889598696847
 21
632.2273202746126
 31
0.0
  0
LINE
  5
1B240
330
18
100
AcDbEntity
  8
実線
100
AcDbLine
 10
-116.2917618337423
 20
660.1404202747585
 30
0.0
 11
-136.2917618337426
 21
660.1404202747584
 31
0.0
  0
LINE
  5
1B243
330
18
100
AcDbEntity
  8
ｺﾈｸﾀ
100
AcDbLine
 10
-114.2917618337426
 20
635.7942202747586
 30
0.0
 11
-110.7897077000009
 21
635.7942202747267
 31
0.0
  0
LINE
  5
1B245
330
18
100
AcDbEntity
  8
ｺﾈｸﾀ
100
AcDbLine
 10
-114.2917618337426
 20
618.4866202747589
 30
0.0
 11
-110.7897077001648
 21
618.4866202747266
 31
0.0
  0
LINE
  5
1B246
330
18
100
AcDbEntity
  8
ｺﾈｸﾀ
100
AcDbLine
 10
-114.2917618337426
 20
623.5735202747592
 30
0.0
 11
-110.7897077001155
 21
623.5735202747267
 31
0.0
  0
LINE
  5
1B247
330
18
100
AcDbEntity
  8
ｺﾈｸﾀ
100
AcDbLine
 10
-114.2917618337426
 20
622.0535202747587
 30
0.0
 11
-110.7897077001303
 21
622.0535202747264
 31
0.0
  0
LINE
  5
1B248
330
18
100
AcDbEntity
  8
ｺﾈｸﾀ
100
AcDbLine
 10
-110.7897077001412
 20
621.1404215363594
 30
0.0
 11
-105.7897077001412
 21
621.1404227979468
 31
0.0
  0
LINE
  5
1B249
330
18
100
AcDbEntity
  8
ｺﾈｸﾀ
100
AcDbLine
 10
-114.2917618337426
 20
632.2273202747592
 30
0.0
 11
-110.7897077000357
 21
632.2273202747267
 31
0.0
  0
LINE
  5
1B24A
330
18
100
AcDbEntity
  8
ｺﾈｸﾀ
100
AcDbLine
 10
-110.7897077000264
 20
633.1404215363614
 30
0.0
 11
-105.7897077000264
 21
633.1404227979487
 31
0.0
  0
LINE
  5
1B24B
330
18
100
AcDbEntity
  8
ｺﾈｸﾀ
100
AcDbLine
 10
-105.789707700001
 20
635.7942202746794
 30
0.0
 11
-105.7897077001648
 21
618.4866202746792
 31
0.0
  0
LINE
  5
1B24C
330
18
100
AcDbEntity
  8
ｺﾈｸﾀ
100
AcDbLine
 10
-110.7897077000009
 20
635.7942202747267
 30
0.0
 11
-110.7897077001648
 21
618.4866202747266
 31
0.0
  0
LINE
  5
1B24D
330
18
100
AcDbEntity
  8
隠れ線
 48
0.7
100
AcDbLine
 10
-115.7917618337428
 20
639.1404202747585
 30
0.0
 11
-114.2917618337426
 21
639.1404202747581
 31
0.0
  0
LINE
  5
1B24E
330
18
100
AcDbEntity
  8
実線
100
AcDbLine
 10
-114.7917618337432
 20
645.1404202747585
 30
0.0
 11
-114.2917618337432
 21
644.6404202747585
 31
0.0
  0
LINE
  5
1B24F
330
18
100
AcDbEntity
  8
実線
100
AcDbLine
 10
-116.2917618337427
 20
645.1404202747577
 30
0.0
 11
-114.7917618337432
 21
645.1404202747585
 31
0.0
  0
ARC
  5
1B255
330
18
100
AcDbEntity
  8
ｺﾈｸﾀ
100
AcDbCircle
 10
-105.7897077000824
 20
627.1404202746793
 30
0.0
 40
8.0
100
AcDbArc
 50
333.5214655204063
 51
26.47853447854534
  0
ARC
  5
1B256
330
18
100
AcDbEntity
  8
ｺﾈｸﾀ
100
AcDbCircle
 10
-105.7897077001644
 20
618.4866202746792
 30
0.0
 40
8.0
100
AcDbArc
 50
359.9999999994528
 51
26.47853447854534
  0
ARC
  5
1B257
330
18
100
AcDbEntity
  8
ｺﾈｸﾀ
100
AcDbCircle
 10
-105.7897077000006
 20
635.7942202746794
 30
0.0
 40
8.0
100
AcDbArc
 50
333.5214655204063
 51
359.9999999994528
  0
LINE
  5
1B258
330
18
100
AcDbEntity
  8
ｺﾈｸﾀ
100
AcDbLine
 10
-98.62889598706306
 20
622.0535202746122
 30
0.0
 11
-98.62889598704851
 21
623.5735202746127
 31
0.0
  0
LINE
  5
1B259
330
18
100
AcDbEntity
  8
ｺﾈｸﾀ
100
AcDbLine
 10
-98.62889598698302
 20
630.7073202746122
 30
0.0
 11
-98.62889598696847
 21
632.2273202746126
 31
0.0
  0
LINE
  5
1B25A
330
18
100
AcDbEntity
  8
ｺﾈｸﾀ
100
AcDbLine
 10
-93.7897077000357
 20
632.4378217498579
 30
0.0
 11
-93.78970770013394
 21
621.8430187992762
 31
0.0
  0
LINE
  5
1B25B
330
18
100
AcDbEntity
  8
ｺﾈｸﾀ
100
AcDbLine
 10
-97.78970770016485
 20
618.4866202746047
 30
0.0
 11
-93.78970770013394
 21
621.8430187992762
 31
0.0
  0
LINE
  5
1B260
330
18
100
AcDbEntity
  8
ｺﾈｸﾀ
100
AcDbLine
 10
-97.78970770000114
 20
635.7942202746047
 30
0.0
 11
-97.78970770016485
 21
618.4866202746047
 31
0.0
  0
LINE
  5
1B261
330
18
100
AcDbEntity
  8
ｺﾈｸﾀ
100
AcDbLine
 10
-97.78970770000114
 20
635.7942202746047
 30
0.0
 11
-93.7897077000357
 21
632.4378217498579
 31
0.0
  0
LINE
  5
1B262
330
18
100
AcDbEntity
  8
中心線
 48
0.7
100
AcDbLine
 10
69.67005499655261
 20
544.1404202747588
 30
0.0
 11
69.67005499655306
 21
664.1404202747589
 31
0.0
  0
LINE
  5
1B2F9
330
18
100
AcDbEntity
  8
中心線
 48
0.7
100
AcDbLine
 10
9.670054996553062
 20
604.140420274759
 30
0.0
 11
129.670054996553
 21
604.140420274759
 31
0.0
  0
CIRCLE
  5
1B2FA
330
18
100
AcDbEntity
  8
実線
100
AcDbCircle
 10
69.67005499655761
 20
604.140420274759
 30
0.0
 40
56.0
  0
CIRCLE
  5
1B2FB
330
18
100
AcDbEntity
  8
中心線
 48
0.7
100
AcDbCircle
 10
69.67005499655215
 20
604.140420274759
 30
0.0
 40
48.0
  0
ARC
  5
1B308
330
18
100
AcDbEntity
  8
文字
100
AcDbCircle
 10
69.67005499655195
 20
573.6404202747646
 30
0.0
 40
0.7100001638462447
100
AcDbArc
 50
57.79576103685631
 51
62.20421604482362
  0
ARC
  5
1B309
330
18
100
AcDbEntity
  8
文字
100
AcDbCircle
 10
69.67005499655195
 20
573.6404202747646
 30
0.0
 40
0.7100001638462447
100
AcDbArc
 50
117.7957610368554
 51
122.2042160448141
  0
ARC
  5
1B30A
330
18
100
AcDbEntity
  8
文字
100
AcDbCircle
 10
69.67005499655195
 20
573.6404202747646
 30
0.0
 40
0.7100001638462447
100
AcDbArc
 50
237.7957610368674
 51
242.2042160448011
  0
ARC
  5
1B30B
330
18
100
AcDbEntity
  8
文字
100
AcDbCircle
 10
69.67005499655195
 20
573.6404202747646
 30
0.0
 40
0.7100001638462447
100
AcDbArc
 50
297.7957610368552
 51
302.2042160448141
  0
ARC
  5
1B30C
330
18
100
AcDbEntity
  8
文字
100
AcDbCircle
 10
69.67005483270648
 20
572.8211893164805
 30
0.0
 40
0.3823077805325932
100
AcDbArc
 50
29.99998854084634
 51
149.9999885408436
  0
ARC
  5
1B30D
330
18
100
AcDbEntity
  8
文字
100
AcDbCircle
 10
70.3795297360696
 20
573.2308046537275
 30
0.0
 40
0.3823077805325932
100
AcDbArc
 50
89.99998854083502
 51
209.9999885408744
  0
ARC
  5
1B30E
330
18
100
AcDbEntity
  8
文字
100
AcDbCircle
 10
68.96058009318885
 20
573.2308049375176
 30
0.0
 40
0.3823077805325932
100
AcDbArc
 50
329.9999885408436
 51
89.99998854083502
  0
ARC
  5
1B30F
330
18
100
AcDbEntity
  8
文字
100
AcDbCircle
 10
69.67005499655195
 20
573.6404202747646
 30
0.0
 40
0.7100001638462447
100
AcDbArc
 50
177.7957610368583
 51
182.20421604479
  0
ARC
  5
1B310
330
18
100
AcDbEntity
  8
文字
100
AcDbCircle
 10
69.67005499655195
 20
573.6404202747646
 30
0.0
 40
0.7100001638462447
100
AcDbArc
 50
357.7957610368581
 51
2.204216044790106
  0
ARC
  5
1B311
330
18
100
AcDbEntity
  8
文字
100
AcDbCircle
 10
68.96058025703431
 20
574.0500358958012
 30
0.0
 40
0.3823077805325932
100
AcDbArc
 50
269.999988540835
 51
29.99998854084634
  0
ARC
  5
1B312
330
18
100
AcDbEntity
  8
文字
100
AcDbCircle
 10
70.37952989991598
 20
574.0500356120112
 30
0.0
 40
0.3823077805325932
100
AcDbArc
 50
149.999988540815
 51
269.999988540835
  0
ARC
  5
1B313
330
18
100
AcDbEntity
  8
文字
100
AcDbCircle
 10
69.67005516039833
 20
574.4596512330487
 30
0.0
 40
0.3823077805325932
100
AcDbArc
 50
209.9999885408463
 51
329.9999885408436
  0
CIRCLE
  5
1B314
330
18
100
AcDbEntity
  8
ｷｬｯﾌ_ﾎ_ﾙﾄ
100
AcDbCircle
 10
69.67005483270648
 20
573.6404202747646
 30
0.0
 40
2.450000000000001
  0
CIRCLE
  5
1B315
330
18
100
AcDbEntity
  8
ｷｬｯﾌ_ﾎ_ﾙﾄ
100
AcDbCircle
 10
69.67005483270648
 20
573.6404202747646
 30
0.0
 40
3.0
  0
CIRCLE
  5
1B316
330
18
100
AcDbEntity
  8
ｷｬｯﾌ_ﾎ_ﾙﾄ
100
AcDbCircle
 10
49.67484565547739
 20
555.8677147010426
 30
0.0
 40
2.75
  0
ARC
  5
1B317
330
18
100
AcDbEntity
  8
実線
100
AcDbCircle
 10
49.67484565547739
 20
555.8677147010426
 30
0.0
 40
3.0
100
AcDbArc
 50
337.5000000000007
 51
157.499999999999
  0
LINE
  5
1B318
330
18
100
AcDbEntity
  8
ｷｬｯﾌ_ﾎ_ﾙﾄ
100
AcDbLine
 10
51.00835089922974
 20
555.3153587309196
 30
0.0
 11
50.81995258082815
 21
556.7463860327424
 31
0.0
  0
LINE
  5
1B319
330
18
100
AcDbEntity
  8
ｷｬｯﾌ_ﾎ_ﾙﾄ
100
AcDbLine
 10
49.48644733446826
 20
557.2987420226946
 30
0.0
 11
50.81995258082815
 21
556.7463860327424
 31
0.0
  0
LINE
  5
1B31A
330
18
100
AcDbEntity
  8
ｷｬｯﾌ_ﾎ_ﾙﾄ
100
AcDbLine
 10
49.86324398954412
 20
554.4366872802457
 30
0.0
 11
48.52973915020311
 21
554.9890432430937
 31
0.0
  0
LINE
  5
1B31B
330
18
100
AcDbEntity
  8
ｷｬｯﾌ_ﾎ_ﾙﾄ
100
AcDbLine
 10
49.86324397649195
 20
554.4366873793904
 30
0.0
 11
51.00835088356554
 21
555.3153588498921
 31
0.0
  0
LINE
  5
1B31C
330
18
100
AcDbEntity
  8
ｷｬｯﾌ_ﾎ_ﾙﾄ
100
AcDbLine
 10
48.52973914237235
 20
554.9890433025803
 30
0.0
 11
48.34134080047579
 21
556.4200707828631
 31
0.0
  0
LINE
  5
1B31D
330
18
100
AcDbEntity
  8
ｷｬｯﾌ_ﾎ_ﾙﾄ
100
AcDbLine
 10
48.34134080047579
 20
556.4200707828631
 30
0.0
 11
49.48644732141611
 21
557.2987421218381
 31
0.0
  0
CIRCLE
  5
1B31E
330
18
100
AcDbEntity
  8
ｷｬｯﾌ_ﾎ_ﾙﾄ
100
AcDbCircle
 10
21.39734942283848
 20
584.145210933681
 30
0.0
 40
2.75
  0
ARC
  5
1B31F
330
18
100
AcDbEntity
  8
実線
100
AcDbCircle
 10
21.39734942283848
 20
584.145210933681
 30
0.0
 40
3.0
100
AcDbArc
 50
292.4999999999998
 51
112.4999999999998
  0
LINE
  5
1B320
330
18
100
AcDbEntity
  8
ｷｬｯﾌ_ﾎ_ﾙﾄ
100
AcDbLine
 10
21.94970537134122
 20
582.8117056809722
 30
0.0
 11
22.82837675201607
 21
583.9568125186601
 31
0.0
  0
LINE
  5
1B321
330
18
100
AcDbEntity
  8
ｷｬｯﾌ_ﾎ_ﾙﾄ
100
AcDbLine
 10
22.27602081569239
 20
585.2903177872335
 30
0.0
 11
22.82837675201607
 21
583.9568125186601
 31
0.0
  0
LINE
  5
1B322
330
18
100
AcDbEntity
  8
ｷｬｯﾌ_ﾎ_ﾙﾄ
100
AcDbLine
 10
20.5186779691121
 20
583.0001040007882
 30
0.0
 11
19.96632230142767
 21
584.3336089623899
 31
0.0
  0
LINE
  5
1B323
330
18
100
AcDbEntity
  8
ｷｬｯﾌ_ﾎ_ﾙﾄ
100
AcDbLine
 10
20.51867802998867
 20
583.0001040801247
 30
0.0
 11
21.94970544439138
 21
582.8117057761751
 31
0.0
  0
LINE
  5
1B324
330
18
100
AcDbEntity
  8
ｷｬｯﾌ_ﾎ_ﾙﾄ
100
AcDbLine
 10
19.96632233795389
 20
584.3336090099906
 30
0.0
 11
20.84499382820694
 21
585.4787159904817
 31
0.0
  0
LINE
  5
1B325
330
18
100
AcDbEntity
  8
ｷｬｯﾌ_ﾎ_ﾙﾄ
100
AcDbLine
 10
20.84499382820694
 20
585.4787159904817
 30
0.0
 11
22.27602087656851
 21
585.2903178665679
 31
0.0
  0
CIRCLE
  5
1B326
330
18
100
AcDbEntity
  8
細線
 48
5.0
100
AcDbCircle
 10
21.67005499655215
 20
604.140420274759
 30
0.0
 40
2.5
  0
CIRCLE
  5
1B327
330
18
100
AcDbEntity
  8
実線
100
AcDbCircle
 10
21.67005499655215
 20
604.140420274759
 30
0.0
 40
2.0
  0
CIRCLE
  5
1B330
330
18
100
AcDbEntity
  8
ｷｬｯﾌ_ﾎ_ﾙﾄ
100
AcDbCircle
 10
49.67484565547827
 20
652.4131258484715
 30
0.0
 40
2.75
  0
ARC
  5
1B331
330
18
100
AcDbEntity
  8
実線
100
AcDbCircle
 10
49.67484565547827
 20
652.4131258484715
 30
0.0
 40
3.0
100
AcDbArc
 50
202.4999999999994
 51
22.49999999999916
  0
LINE
  5
1B332
330
18
100
AcDbEntity
  8
ｷｬｯﾌ_ﾎ_ﾙﾄ
100
AcDbLine
 10
50.22720160398012
 20
651.0796205957632
 30
0.0
 11
51.10587298465635
 21
652.2247274334509
 31
0.0
  0
LINE
  5
1B333
330
18
100
AcDbEntity
  8
ｷｬｯﾌ_ﾎ_ﾙﾄ
100
AcDbLine
 10
50.55351704833173
 20
653.5582327020242
 30
0.0
 11
51.10587298465635
 21
652.2247274334509
 31
0.0
  0
LINE
  5
1B334
330
18
100
AcDbEntity
  8
ｷｬｯﾌ_ﾎ_ﾙﾄ
100
AcDbLine
 10
48.79617420175144
 20
651.2680189155794
 30
0.0
 11
48.24381853406703
 21
652.6015238771806
 31
0.0
  0
LINE
  5
1B335
330
18
100
AcDbEntity
  8
ｷｬｯﾌ_ﾎ_ﾙﾄ
100
AcDbLine
 10
48.79617426262803
 20
651.2680189949151
 30
0.0
 11
50.22720167703118
 21
651.0796206909657
 31
0.0
  0
LINE
  5
1B336
330
18
100
AcDbEntity
  8
ｷｬｯﾌ_ﾎ_ﾙﾄ
100
AcDbLine
 10
48.24381857059279
 20
652.6015239247812
 30
0.0
 11
49.12249006084675
 21
653.746630905272
 31
0.0
  0
LINE
  5
1B337
330
18
100
AcDbEntity
  8
ｷｬｯﾌ_ﾎ_ﾙﾄ
100
AcDbLine
 10
49.12249006084675
 20
653.746630905272
 30
0.0
 11
50.55351710920786
 21
653.5582327813592
 31
0.0
  0
LINE
  5
1B338
330
18
100
AcDbEntity
  8
ｷｬｯﾌ_ﾎ_ﾙﾄ
100
AcDbLine
 10
20.06384456783917
 20
624.6879856976548
 30
0.0
 11
21.20895108877765
 21
625.5666570366302
 31
0.0
  0
LINE
  5
1B339
330
18
100
AcDbEntity
  8
ｷｬｯﾌ_ﾎ_ﾙﾄ
100
AcDbLine
 10
20.25224290973392
 20
623.2569582173717
 30
0.0
 11
20.06384456783917
 21
624.6879856976548
 31
0.0
  0
LINE
  5
1B33A
330
18
100
AcDbEntity
  8
ｷｬｯﾌ_ﾎ_ﾙﾄ
100
AcDbLine
 10
21.58574774385261
 20
622.7046022941823
 30
0.0
 11
22.73085465092798
 21
623.5832737646842
 31
0.0
  0
LINE
  5
1B33B
330
18
100
AcDbEntity
  8
ｷｬｯﾌ_ﾎ_ﾙﾄ
100
AcDbLine
 10
21.58574775690657
 20
622.7046021950367
 30
0.0
 11
20.25224291756467
 21
623.2569581578847
 31
0.0
  0
LINE
  5
1B33C
330
18
100
AcDbEntity
  8
ｷｬｯﾌ_ﾎ_ﾙﾄ
100
AcDbLine
 10
21.20895110183073
 20
625.5666569374866
 30
0.0
 11
22.5424563481888
 21
625.014300947533
 31
0.0
  0
LINE
  5
1B33D
330
18
100
AcDbEntity
  8
ｷｬｯﾌ_ﾎ_ﾙﾄ
100
AcDbLine
 10
22.7308546665913
 20
623.5832736457116
 30
0.0
 11
22.5424563481888
 21
625.014300947533
 31
0.0
  0
ARC
  5
1B33E
330
18
100
AcDbEntity
  8
実線
100
AcDbCircle
 10
21.39734942283892
 20
624.1356296158346
 30
0.0
 40
3.0
100
AcDbArc
 50
247.4999999999995
 51
67.49999999999943
  0
CIRCLE
  5
1B33F
330
18
100
AcDbEntity
  8
ｷｬｯﾌ_ﾎ_ﾙﾄ
100
AcDbCircle
 10
21.39734942283892
 20
624.1356296158346
 30
0.0
 40
2.75
  0
LINE
  5
1B341
330
18
100
AcDbEntity
  8
ｺﾈｸﾀ
100
AcDbLine
 10
69.67005499655261
 20
616.7688216149904
 30
0.0
 11
78.6521229137752
 21
621.9546209448776
 31
0.0
  0
LINE
  5
1B342
330
18
100
AcDbEntity
  8
ｺﾈｸﾀ
100
AcDbLine
 10
60.6879870793282
 20
621.9546209448776
 30
0.0
 11
69.67005499655261
 21
616.7688216149904
 31
0.0
  0
LINE
  5
1B343
102
{ACAD_REACTORS
330
1B963
102
}
330
18
100
AcDbEntity
  8
ｺﾈｸﾀ
100
AcDbLine
 10
60.74042677333061
 20
580.5431365633832
 30
0.0
 11
63.42479403464094
 21
590.561331568768
 31
0.0
  0
LINE
  5
1B344
102
{ACAD_REACTORS
330
1B962
330
1B963
102
}
330
18
100
AcDbEntity
  8
ｺﾈｸﾀ
100
AcDbLine
 10
50.72223176794647
 20
577.858769302077
 30
0.0
 11
60.7404267733299
 21
580.543136563386
 31
0.0
  0
LINE
  5
1B345
102
{ACAD_REACTORS
330
1B962
330
1B963
102
}
330
18
100
AcDbEntity
  8
ｺﾈｸﾀ
100
AcDbLine
 10
43.38840402387202
 20
585.1925970461514
 30
0.0
 11
50.72223176794647
 21
577.858769302077
 31
0.0
  0
HATCH
  5
1B346
102
{ACAD_REACTORS
330
1B962
330
1B963
102
}
330
18
100
AcDbEntity
  8
ｺﾈｸﾀ
100
AcDbHatch
 10
0.0
 20
0.0
 30
0.0
210
0.0
220
0.0
230
1.0
  2
SOLID
 70
     1
 71
     0
 91
        2
 92
        7
 72
     1
 73
     1
 93
        3
 10
51.10815714865481
 20
590.1754202193599
 42
0.0
 10
53.40660672266679
 20
587.8769706453482
 42
0.0
 10
51.10815714865473
 20
585.5785210713361
 42
-0.4142135623730913
 97
        0
 92
        7
 72
     1
 73
     1
 93
        3
 10
53.40660672266679
 20
587.8769706453482
 42
0.0
 10
55.70505629667948
 20
590.1754202193602
 42
-0.4142135623730913
 10
55.70505629667926
 20
585.5785210713357
 42
0.0
 97
        0
 75
     0
 76
     1
 47
0.0093541955041491
 98
        2
 10
51.37989453474478
 20
587.6334292870517
 10
55.0982188806872
 20
587.4548505647802
  0
CIRCLE
  5
1B347
102
{ACAD_REACTORS
330
1B962
330
1B963
102
}
330
18
100
AcDbEntity
  8
ｺﾈｸﾀ
100
AcDbCircle
 10
53.40659902925441
 20
587.8769643074614
 30
0.0
 40
7.564530200546902
  0
CIRCLE
  5
1B348
102
{ACAD_REACTORS
330
1B962
330
1B963
102
}
330
18
100
AcDbEntity
  8
ｺﾈｸﾀ
100
AcDbCircle
 10
53.40659902925441
 20
587.8769643074614
 30
0.0
 40
4.607142416979685
  0
CIRCLE
  5
1B349
102
{ACAD_REACTORS
330
1B962
330
1B963
102
}
330
18
100
AcDbEntity
  8
ｺﾈｸﾀ
100
AcDbCircle
 10
53.40660672266707
 20
587.876970645348
 30
0.0
 40
3.250498559999674
  0
LINE
  5
1B34A
102
{ACAD_REACTORS
330
1B962
330
1B963
102
}
330
18
100
AcDbEntity
  8
ｺﾈｸﾀ
100
AcDbLine
 10
56.09096629056582
 20
597.8951593128447
 30
0.0
 11
46.07277128518272
 21
595.2107920515336
 31
0.0
  0
LINE
  5
1B34B
102
{ACAD_REACTORS
330
1B962
330
1B963
102
}
330
18
100
AcDbEntity
  8
ｺﾈｸﾀ
100
AcDbLine
 10
46.07277128518272
 20
595.2107920515336
 30
0.0
 11
43.38840402387202
 21
585.1925970461514
 31
0.0
  0
ARC
  5
1B34C
330
18
100
AcDbEntity
  8
文字
100
AcDbCircle
 10
96.0838299758214
 20
620.2096512330427
 30
0.0
 40
0.3823077805325932
100
AcDbArc
 50
209.9999885408463
 51
329.9999885408436
  0
ARC
  5
1B34D
330
18
100
AcDbEntity
  8
文字
100
AcDbCircle
 10
96.79330471533905
 20
619.8000356120058
 30
0.0
 40
0.3823077805325932
100
AcDbArc
 50
149.999988540815
 51
269.999988540835
  0
ARC
  5
1B34E
330
18
100
AcDbEntity
  8
文字
100
AcDbCircle
 10
95.37435507245735
 20
619.8000358957957
 30
0.0
 40
0.3823077805325932
100
AcDbArc
 50
269.999988540835
 51
29.99998854084634
  0
ARC
  5
1B34F
330
18
100
AcDbEntity
  8
文字
100
AcDbCircle
 10
96.083829811975
 20
619.3904202747587
 30
0.0
 40
0.7100001638462447
100
AcDbArc
 50
357.7957610368581
 51
2.204216044790106
  0
ARC
  5
1B350
330
18
100
AcDbEntity
  8
文字
100
AcDbCircle
 10
96.083829811975
 20
619.3904202747587
 30
0.0
 40
0.7100001638462447
100
AcDbArc
 50
177.7957610368583
 51
182.20421604479
  0
ARC
  5
1B351
330
18
100
AcDbEntity
  8
文字
100
AcDbCircle
 10
95.37435490861096
 20
618.9808049375117
 30
0.0
 40
0.3823077805325932
100
AcDbArc
 50
329.9999885408436
 51
89.99998854083502
  0
ARC
  5
1B352
330
18
100
AcDbEntity
  8
文字
100
AcDbCircle
 10
96.79330455149266
 20
618.9808046537222
 30
0.0
 40
0.3823077805325932
100
AcDbArc
 50
89.99998854083502
 51
209.9999885408744
  0
ARC
  5
1B353
330
18
100
AcDbEntity
  8
文字
100
AcDbCircle
 10
96.08382964812864
 20
618.5711893164746
 30
0.0
 40
0.3823077805325932
100
AcDbArc
 50
29.99998854084634
 51
149.9999885408436
  0
ARC
  5
1B354
330
18
100
AcDbEntity
  8
文字
100
AcDbCircle
 10
96.083829811975
 20
619.3904202747587
 30
0.0
 40
0.7100001638462447
100
AcDbArc
 50
297.7957610368552
 51
302.2042160448141
  0
ARC
  5
1B355
330
18
100
AcDbEntity
  8
文字
100
AcDbCircle
 10
96.083829811975
 20
619.3904202747587
 30
0.0
 40
0.7100001638462447
100
AcDbArc
 50
237.7957610368674
 51
242.2042160448011
  0
ARC
  5
1B356
330
18
100
AcDbEntity
  8
文字
100
AcDbCircle
 10
96.083829811975
 20
619.3904202747587
 30
0.0
 40
0.7100001638462447
100
AcDbArc
 50
117.7957610368554
 51
122.2042160448141
  0
ARC
  5
1B357
330
18
100
AcDbEntity
  8
文字
100
AcDbCircle
 10
96.083829811975
 20
619.3904202747587
 30
0.0
 40
0.7100001638462447
100
AcDbArc
 50
57.79576103685631
 51
62.20421604482362
  0
CIRCLE
  5
1B358
330
18
100
AcDbEntity
  8
ｷｬｯﾌ_ﾎ_ﾙﾄ
100
AcDbCircle
 10
96.08382964812864
 20
619.3904202747587
 30
0.0
 40
2.450000000000001
  0
CIRCLE
  5
1B359
330
18
100
AcDbEntity
  8
ｷｬｯﾌ_ﾎ_ﾙﾄ
100
AcDbCircle
 10
89.66526433762966
 20
555.8677147010412
 30
0.0
 40
2.75
  0
ARC
  5
1B35A
330
18
100
AcDbEntity
  8
実線
100
AcDbCircle
 10
89.66526433762966
 20
555.8677147010412
 30
0.0
 40
3.0
100
AcDbArc
 50
22.49999999999923
 51
202.499999999999
  0
LINE
  5
1B35B
330
18
100
AcDbEntity
  8
ｷｬｯﾌ_ﾎ_ﾙﾄ
100
AcDbLine
 10
90.21762028613148
 20
554.534209448334
 30
0.0
 11
91.09629166680774
 21
555.6793162860214
 31
0.0
  0
LINE
  5
1B35C
330
18
100
AcDbEntity
  8
ｷｬｯﾌ_ﾎ_ﾙﾄ
100
AcDbLine
 10
90.54393573048356
 20
557.0128215545942
 30
0.0
 11
91.09629166680774
 21
555.6793162860214
 31
0.0
  0
LINE
  5
1B35D
330
18
100
AcDbEntity
  8
ｷｬｯﾌ_ﾎ_ﾙﾄ
100
AcDbLine
 10
88.78659288390236
 20
554.7226077681493
 30
0.0
 11
88.23423721621885
 21
556.056112729751
 31
0.0
  0
LINE
  5
1B35E
330
18
100
AcDbEntity
  8
ｷｬｯﾌ_ﾎ_ﾙﾄ
100
AcDbLine
 10
88.7865929447803
 20
554.7226078474855
 30
0.0
 11
90.21762035918255
 21
554.5342095435366
 31
0.0
  0
LINE
  5
1B35F
330
18
100
AcDbEntity
  8
ｷｬｯﾌ_ﾎ_ﾙﾄ
100
AcDbLine
 10
88.23423725274459
 20
556.0561127773521
 30
0.0
 11
89.11290874299814
 21
557.2012197578433
 31
0.0
  0
LINE
  5
1B360
330
18
100
AcDbEntity
  8
ｷｬｯﾌ_ﾎ_ﾙﾄ
100
AcDbLine
 10
89.11290874299814
 20
557.2012197578433
 30
0.0
 11
90.54393579136013
 21
557.0128216339293
 31
0.0
  0
CIRCLE
  5
1B361
330
18
100
AcDbEntity
  8
細線
 48
5.0
100
AcDbCircle
 10
69.67005499655261
 20
556.1404202747588
 30
0.0
 40
2.5
  0
CIRCLE
  5
1B362
330
18
100
AcDbEntity
  8
実線
100
AcDbCircle
 10
69.67005499655261
 20
556.1404202747588
 30
0.0
 40
2.0
  0
LINE
  5
1B363
330
18
100
AcDbEntity
  8
中心線
 48
0.7
100
AcDbLine
 10
69.67005499655389
 20
604.1404202747577
 30
0.0
 11
42.79999731145514
 21
577.2703625896641
 31
0.0
  0
LINE
  5
1B364
102
{ACAD_REACTORS
330
1B962
330
1B963
102
}
330
18
100
AcDbEntity
  8
ｺﾈｸﾀ
100
AcDbLine
 10
63.42479403464024
 20
590.5613315687705
 30
0.0
 11
56.09096629056582
 21
597.8951593128447
 31
0.0
  0
CIRCLE
  5
1B365
330
18
100
AcDbEntity
  8
ｷｬｯﾌ_ﾎ_ﾙﾄ
100
AcDbCircle
 10
96.08382964812864
 20
619.3904202747587
 30
0.0
 40
3.0
  0
CIRCLE
  5
1B366
330
18
100
AcDbEntity
  8
細線
 48
5.0
100
AcDbCircle
 10
117.670054996552
 20
604.140420274759
 30
0.0
 40
2.5
  0
CIRCLE
  5
1B367
330
18
100
AcDbEntity
  8
実線
100
AcDbCircle
 10
117.670054996552
 20
604.140420274759
 30
0.0
 40
2.0
  0
ARC
  5
1B368
330
18
100
AcDbEntity
  8
実線
100
AcDbCircle
 10
117.942760570268
 20
584.1452109336817
 30
0.0
 40
3.0
100
AcDbArc
 50
67.49999999999957
 51
247.4999999999998
  0
CIRCLE
  5
1B369
330
18
100
AcDbEntity
  8
ｷｬｯﾌ_ﾎ_ﾙﾄ
100
AcDbCircle
 10
117.942760570268
 20
584.1452109336817
 30
0.0
 40
2.75
  0
LINE
  5
1B36A
330
18
100
AcDbEntity
  8
ｷｬｯﾌ_ﾎ_ﾙﾄ
100
AcDbLine
 10
118.1311588912822
 20
582.7141836120297
 30
0.0
 11
119.2762657983564
 21
583.5928550825317
 31
0.0
  0
LINE
  5
1B36B
330
18
100
AcDbEntity
  8
ｷｬｯﾌ_ﾎ_ﾙﾄ
100
AcDbLine
 10
117.7543622492589
 20
585.5762382553337
 30
0.0
 11
119.0878674956187
 21
585.023882265381
 31
0.0
  0
LINE
  5
1B36C
330
18
100
AcDbEntity
  8
ｷｬｯﾌ_ﾎ_ﾙﾄ
100
AcDbLine
 10
116.6092557152683
 20
584.697567015502
 30
0.0
 11
117.7543622362072
 21
585.5762383544778
 31
0.0
  0
LINE
  5
1B36D
330
18
100
AcDbEntity
  8
ｷｬｯﾌ_ﾎ_ﾙﾄ
100
AcDbLine
 10
116.7976540571629
 20
583.2665395352196
 30
0.0
 11
116.6092557152683
 21
584.697567015502
 31
0.0
  0
LINE
  5
1B36E
330
18
100
AcDbEntity
  8
ｷｬｯﾌ_ﾎ_ﾙﾄ
100
AcDbLine
 10
118.131158904335
 20
582.7141835128839
 30
0.0
 11
116.7976540649947
 21
583.2665394757327
 31
0.0
  0
LINE
  5
1B36F
330
18
100
AcDbEntity
  8
ｷｬｯﾌ_ﾎ_ﾙﾄ
100
AcDbLine
 10
119.27626581402
 20
583.5928549635591
 30
0.0
 11
119.0878674956187
 21
585.023882265381
 31
0.0
  0
ARC
  5
1B373
330
18
100
AcDbEntity
  8
文字
100
AcDbCircle
 10
42.54680544160081
 20
619.8000358957981
 30
0.0
 40
0.3823077805325932
100
AcDbArc
 50
269.999988540835
 51
29.99998854084634
  0
ARC
  5
1B374
330
18
100
AcDbEntity
  8
文字
100
AcDbCircle
 10
43.25628018111846
 20
619.390420274761
 30
0.0
 40
0.7100001638462447
100
AcDbArc
 50
177.7957610368583
 51
182.20421604479
  0
ARC
  5
1B375
330
18
100
AcDbEntity
  8
文字
100
AcDbCircle
 10
42.54680527775444
 20
618.9808049375145
 30
0.0
 40
0.3823077805325932
100
AcDbArc
 50
329.9999885408436
 51
89.99998854083502
  0
ARC
  5
1B376
330
18
100
AcDbEntity
  8
文字
100
AcDbCircle
 10
43.25628018111846
 20
619.390420274761
 30
0.0
 40
0.7100001638462447
100
AcDbArc
 50
237.7957610368674
 51
242.2042160448011
  0
ARC
  5
1B377
330
18
100
AcDbEntity
  8
文字
100
AcDbCircle
 10
43.25628018111846
 20
619.390420274761
 30
0.0
 40
0.7100001638462447
100
AcDbArc
 50
117.7957610368554
 51
122.2042160448141
  0
ARC
  5
1B378
330
18
100
AcDbEntity
  8
文字
100
AcDbCircle
 10
43.96575508448249
 20
619.8000356120079
 30
0.0
 40
0.3823077805325932
100
AcDbArc
 50
149.999988540815
 51
269.999988540835
  0
ARC
  5
1B379
330
18
100
AcDbEntity
  8
文字
100
AcDbCircle
 10
43.25628018111846
 20
619.390420274761
 30
0.0
 40
0.7100001638462447
100
AcDbArc
 50
357.7957610368581
 51
2.204216044790106
  0
ARC
  5
1B37A
330
18
100
AcDbEntity
  8
文字
100
AcDbCircle
 10
43.9657549206361
 20
618.9808046537242
 30
0.0
 40
0.3823077805325932
100
AcDbArc
 50
89.99998854083502
 51
209.9999885408744
  0
ARC
  5
1B37B
330
18
100
AcDbEntity
  8
文字
100
AcDbCircle
 10
43.25628018111846
 20
619.390420274761
 30
0.0
 40
0.7100001638462447
100
AcDbArc
 50
297.7957610368552
 51
302.2042160448141
  0
ARC
  5
1B37C
330
18
100
AcDbEntity
  8
文字
100
AcDbCircle
 10
43.25628018111846
 20
619.390420274761
 30
0.0
 40
0.7100001638462447
100
AcDbArc
 50
57.79576103685631
 51
62.20421604482362
  0
CIRCLE
  5
1B37D
330
18
100
AcDbEntity
  8
ｷｬｯﾌ_ﾎ_ﾙﾄ
100
AcDbCircle
 10
43.25628001727208
 20
619.390420274761
 30
0.0
 40
2.450000000000001
  0
ARC
  5
1B37E
330
18
100
AcDbEntity
  8
文字
100
AcDbCircle
 10
43.25628034496484
 20
620.2096512330456
 30
0.0
 40
0.3823077805325932
100
AcDbArc
 50
209.9999885408463
 51
329.9999885408436
  0
ARC
  5
1B37F
330
18
100
AcDbEntity
  8
文字
100
AcDbCircle
 10
43.25628001727208
 20
618.5711893164773
 30
0.0
 40
0.3823077805325932
100
AcDbArc
 50
29.99998854084634
 51
149.9999885408436
  0
CIRCLE
  5
1B380
330
18
100
AcDbEntity
  8
ｷｬｯﾌ_ﾎ_ﾙﾄ
100
AcDbCircle
 10
89.66526433762966
 20
652.4131258484731
 30
0.0
 40
2.75
  0
ARC
  5
1B381
330
18
100
AcDbEntity
  8
実線
100
AcDbCircle
 10
89.66526433762966
 20
652.4131258484731
 30
0.0
 40
3.0
100
AcDbArc
 50
157.499999999999
 51
337.5000000000007
  0
LINE
  5
1B382
330
18
100
AcDbEntity
  8
ｷｬｯﾌ_ﾎ_ﾙﾄ
100
AcDbLine
 10
90.99876958138157
 20
651.8607698783494
 30
0.0
 11
90.81037126298042
 21
653.2917971801713
 31
0.0
  0
LINE
  5
1B383
330
18
100
AcDbEntity
  8
ｷｬｯﾌ_ﾎ_ﾙﾄ
100
AcDbLine
 10
89.47686601662054
 20
653.8441531701237
 30
0.0
 11
90.81037126298042
 21
653.2917971801713
 31
0.0
  0
LINE
  5
1B384
330
18
100
AcDbEntity
  8
ｷｬｯﾌ_ﾎ_ﾙﾄ
100
AcDbLine
 10
89.85366267169638
 20
650.982098427675
 30
0.0
 11
88.52015783235536
 21
651.5344543905225
 31
0.0
  0
LINE
  5
1B385
330
18
100
AcDbEntity
  8
ｷｬｯﾌ_ﾎ_ﾙﾄ
100
AcDbLine
 10
89.85366265864376
 20
650.9820985268202
 30
0.0
 11
90.99876956571824
 21
651.8607699973214
 31
0.0
  0
LINE
  5
1B386
330
18
100
AcDbEntity
  8
ｷｬｯﾌ_ﾎ_ﾙﾄ
100
AcDbLine
 10
88.52015782452417
 20
651.5344544500099
 30
0.0
 11
88.33175948262804
 21
652.965481930293
 31
0.0
  0
LINE
  5
1B387
330
18
100
AcDbEntity
  8
ｷｬｯﾌ_ﾎ_ﾙﾄ
100
AcDbLine
 10
88.33175948262804
 20
652.965481930293
 30
0.0
 11
89.47686600356792
 21
653.844153269268
 31
0.0
  0
LINE
  5
1B388
330
18
100
AcDbEntity
  8
ｺﾈｸﾀ
100
AcDbLine
 10
78.6521229137752
 20
632.3262196046557
 30
0.0
 11
69.67005499655261
 21
637.5120189345444
 31
0.0
  0
HATCH
  5
1B389
330
18
100
AcDbEntity
  8
ｺﾈｸﾀ
100
AcDbHatch
 10
0.0
 20
0.0
 30
0.0
210
0.0
220
0.0
230
1.0
  2
SOLID
 70
     1
 71
     0
 91
        2
 92
        7
 72
     1
 73
     1
 93
        3
 10
69.67004507492584
 20
623.8899226732677
 42
0.0
 10
69.67004507492584
 20
627.1404212332668
 42
0.0
 10
72.92054363492479
 20
627.1404212332668
 42
-0.4142135623730913
 97
        0
 92
        7
 72
     1
 73
     1
 93
        3
 10
69.67004507492584
 20
627.1404212332668
 42
0.0
 10
66.41954651492688
 20
627.1404212332668
 42
-0.4142135623730913
 10
69.67004507492584
 20
630.3909197932657
 42
0.0
 97
        0
 75
     0
 76
     1
 47
0.0093541955041491
 98
        2
 10
71.27535675246964
 20
625.8795290476241
 10
68.7723786182969
 20
628.6350556327847
  0
CIRCLE
  5
1B38A
330
18
100
AcDbEntity
  8
ｺﾈｸﾀ
100
AcDbCircle
 10
69.67005499655261
 20
627.1404202747649
 30
0.0
 40
7.564530200546902
  0
CIRCLE
  5
1B38B
330
18
100
AcDbEntity
  8
ｺﾈｸﾀ
100
AcDbCircle
 10
69.67005499655261
 20
627.1404202747649
 30
0.0
 40
4.607142416979685
  0
CIRCLE
  5
1B38C
330
18
100
AcDbEntity
  8
ｺﾈｸﾀ
100
AcDbCircle
 10
69.67004507492584
 20
627.1404212332668
 30
0.0
 40
3.250498559999674
  0
CIRCLE
  5
1B38D
330
18
100
AcDbEntity
  8
実線
100
AcDbCircle
 10
69.67005499655261
 20
652.1404202747588
 30
0.0
 40
2.0
  0
CIRCLE
  5
1B38E
330
18
100
AcDbEntity
  8
細線
 48
5.0
100
AcDbCircle
 10
69.67005499655261
 20
652.1404202747588
 30
0.0
 40
2.5
  0
LINE
  5
1B38F
330
18
100
AcDbEntity
  8
ｺﾈｸﾀ
100
AcDbLine
 10
60.6879870793282
 20
632.3262196046557
 30
0.0
 11
60.6879870793282
 21
621.9546209448776
 31
0.0
  0
LINE
  5
1B390
330
18
100
AcDbEntity
  8
ｺﾈｸﾀ
100
AcDbLine
 10
69.67005499655261
 20
637.5120189345444
 30
0.0
 11
60.6879870793282
 21
632.3262196046557
 31
0.0
  0
LINE
  5
1B391
330
18
100
AcDbEntity
  8
ｺﾈｸﾀ
100
AcDbLine
 10
78.6521229137752
 20
621.9546209448776
 30
0.0
 11
78.6521229137752
 21
632.3262196046557
 31
0.0
  0
CIRCLE
  5
1B392
330
18
100
AcDbEntity
  8
ｷｬｯﾌ_ﾎ_ﾙﾄ
100
AcDbCircle
 10
43.25628001727208
 20
619.390420274761
 30
0.0
 40
3.0
  0
ARC
  5
1B393
330
18
100
AcDbEntity
  8
実線
100
AcDbCircle
 10
117.942760570268
 20
624.1356296158321
 30
0.0
 40
3.0
100
AcDbArc
 50
112.4999999999994
 51
292.4999999999993
  0
CIRCLE
  5
1B394
330
18
100
AcDbEntity
  8
ｷｬｯﾌ_ﾎ_ﾙﾄ
100
AcDbCircle
 10
117.942760570268
 20
624.1356296158321
 30
0.0
 40
2.75
  0
LINE
  5
1B395
330
18
100
AcDbEntity
  8
ｷｬｯﾌ_ﾎ_ﾙﾄ
100
AcDbLine
 10
118.821431963122
 20
625.2807364693848
 30
0.0
 11
119.3737878994454
 21
623.9472312008122
 31
0.0
  0
LINE
  5
1B396
330
18
100
AcDbEntity
  8
ｷｬｯﾌ_ﾎ_ﾙﾄ
100
AcDbLine
 10
118.4951165187706
 20
622.8021243631242
 30
0.0
 11
119.3737878994454
 21
623.9472312008122
 31
0.0
  0
LINE
  5
1B397
330
18
100
AcDbEntity
  8
ｷｬｯﾌ_ﾎ_ﾙﾄ
100
AcDbLine
 10
117.3904049756365
 20
625.4691346726342
 30
0.0
 11
118.8214320239975
 21
625.2807365487192
 31
0.0
  0
LINE
  5
1B398
330
18
100
AcDbEntity
  8
ｷｬｯﾌ_ﾎ_ﾙﾄ
100
AcDbLine
 10
116.5117334853829
 20
624.3240276921424
 30
0.0
 11
117.3904049756365
 21
625.4691346726342
 31
0.0
  0
LINE
  5
1B399
330
18
100
AcDbEntity
  8
ｷｬｯﾌ_ﾎ_ﾙﾄ
100
AcDbLine
 10
117.0640891774181
 20
622.9905227622765
 30
0.0
 11
118.4951165918209
 21
622.8021244583267
 31
0.0
  0
LINE
  5
1B39A
330
18
100
AcDbEntity
  8
ｷｬｯﾌ_ﾎ_ﾙﾄ
100
AcDbLine
 10
117.0640891165412
 20
622.9905226829401
 30
0.0
 11
116.5117334488577
 21
624.3240276445417
 31
0.0
  0
LINE
  5
1B671
102
{ACAD_REACTORS
330
1B6AC
102
}
330
18
100
AcDbEntity
  8
細線
100
AcDbLine
 10
-133.2917618337405
 20
621.140420274759
 30
0.0
 11
-133.2917618337405
 21
587.140420274759
 31
0.0
  0
LINE
  5
1B672
102
{ACAD_REACTORS
330
1B6AC
102
}
330
18
100
AcDbEntity
  8
細線
100
AcDbLine
 10
-126.2917618337404
 20
586.6404202747587
 30
0.0
 11
-126.2917618337404
 21
621.640420274759
 31
0.0
  0
LINE
  5
1B673
102
{ACAD_REACTORS
330
1B6AC
102
}
330
18
100
AcDbEntity
  8
細線
100
AcDbLine
 10
-121.2917618337405
 20
587.140420274759
 30
0.0
 11
-121.2917618337405
 21
621.140420274759
 31
0.0
  0
LINE
  5
1B674
102
{ACAD_REACTORS
330
1B6AC
102
}
330
18
100
AcDbEntity
  8
細線
100
AcDbLine
 10
-132.7917618337405
 20
586.6404202747587
 30
0.0
 11
-121.7917618337404
 21
586.6404202747587
 31
0.0
  0
LWPOLYLINE
  5
1B676
102
{ACAD_REACTORS
330
1B6AC
102
}
330
18
100
AcDbEntity
  8
細線
100
AcDbPolyline
 90
        8
 70
     1
 43
0.0
 10
-121.2917618337442
 20
567.140420274759
 10
-121.2917618337405
 20
581.1404202747588
 42
0.4142135623730951
 10
-121.7917618337404
 20
581.6404202747587
 10
-130.7917618337405
 20
581.6404202747587
 42
0.4142135623730951
 10
-131.2917618337405
 20
581.1404202747588
 10
-131.2917618337405
 20
567.140420274759
 42
0.4142135623730996
 10
-130.7917618337405
 20
566.640420274759
 10
-121.7917618337442
 20
566.640420274759
 42
0.4142135623730904
  0
ARC
  5
1B682
102
{ACAD_REACTORS
330
1B6AC
102
}
330
18
100
AcDbEntity
  8
細線
100
AcDbCircle
 10
-121.7917618337424
 20
587.140420274759
 30
0.0
 40
0.5
100
AcDbArc
 50
270.0
 51
0.0
  0
LINE
  5
1B684
102
{ACAD_REACTORS
330
1B6AC
102
}
330
18
100
AcDbEntity
  8
細線
100
AcDbLine
 10
-127.2917618337439
 20
566.640420274759
 30
0.0
 11
-127.2917618337439
 21
581.6404202747587
 31
0.0
  0
ARC
  5
1B685
102
{ACAD_REACTORS
330
1B6AC
102
}
330
18
100
AcDbEntity
  8
細線
100
AcDbCircle
 10
-132.7917618337424
 20
587.140420274759
 30
0.0
 40
0.5
100
AcDbArc
 50
180.0
 51
270.0
  0
LINE
  5
1B686
102
{ACAD_REACTORS
330
1B6AC
102
}
330
18
100
AcDbEntity
  8
細線
100
AcDbLine
 10
-126.2917618337404
 20
626.6404202747573
 30
0.0
 11
-126.2917618337404
 21
660.1404202747592
 31
0.0
  0
LINE
  5
1B687
102
{ACAD_REACTORS
330
1B6AC
102
}
330
18
100
AcDbEntity
  8
細線
100
AcDbLine
 10
-121.2917618337405
 20
627.1404202747572
 30
0.0
 11
-121.2917618337405
 21
660.1404202747588
 31
0.0
  0
LINE
  5
1B688
102
{ACAD_REACTORS
330
1B6AC
102
}
330
18
100
AcDbEntity
  8
細線
100
AcDbLine
 10
-133.2917618337405
 20
660.1404202747588
 30
0.0
 11
-133.2917618337405
 21
627.1404202747572
 31
0.0
  0
LINE
  5
1B695
102
{ACAD_REACTORS
330
1B6AC
102
}
330
18
100
AcDbEntity
  8
細線
100
AcDbLine
 10
-132.7917618337405
 20
626.6404202747573
 30
0.0
 11
-121.7917618337404
 21
626.6404202747573
 31
0.0
  0
LINE
  5
1B696
102
{ACAD_REACTORS
330
1B6AC
102
}
330
18
100
AcDbEntity
  8
細線
100
AcDbLine
 10
-121.7917618337404
 20
621.640420274759
 30
0.0
 11
-132.7917618337405
 21
621.640420274759
 31
0.0
  0
ARC
  5
1B698
102
{ACAD_REACTORS
330
1B6AC
102
}
330
18
100
AcDbEntity
  8
細線
100
AcDbCircle
 10
-121.7917618337424
 20
627.1404202747572
 30
0.0
 40
0.5
100
AcDbArc
 50
270.0
 51
0.0
  0
ARC
  5
1B699
102
{ACAD_REACTORS
330
1B6AC
102
}
330
18
100
AcDbEntity
  8
細線
100
AcDbCircle
 10
-121.7917618337424
 20
621.140420274759
 30
0.0
 40
0.5
100
AcDbArc
 50
0.0
 51
90.0
  0
ARC
  5
1B6A6
102
{ACAD_REACTORS
330
1B6AC
102
}
330
18
100
AcDbEntity
  8
細線
100
AcDbCircle
 10
-132.7917618337424
 20
621.140420274759
 30
0.0
 40
0.5
100
AcDbArc
 50
90.0
 51
180.0
  0
ARC
  5
1B6A7
102
{ACAD_REACTORS
330
1B6AC
102
}
330
18
100
AcDbEntity
  8
細線
100
AcDbCircle
 10
-132.7917618337424
 20
627.1404202747572
 30
0.0
 40
0.5
100
AcDbArc
 50
180.0
 51
270.0
  0
ARC
  5
1B7D3
330
18
100
AcDbEntity
  8
中心線
 48
0.7
100
AcDbCircle
 10
69.67005499659058
 20
604.1404202748092
 30
0.0
 40
23.0
100
AcDbArc
 50
55.44370985252156
 51
320.0158483004849
  0
LINE
  5
1B7DC
330
18
100
AcDbEntity
  8
中心線
 48
0.7
100
AcDbLine
 10
-337.8746537940051
 20
589.7136453419674
 30
0.0
 11
-337.8746537940051
 21
544.1404202747585
 31
0.0
  0
ARC
  5
1B9AD
330
18
100
AcDbEntity
  8
中心線
 48
0.7
100
AcDbCircle
 10
69.67005499659058
 20
604.1404202748092
 30
0.0
 40
23.0
100
AcDbArc
 50
337.879119233242
 51
36.52043111555485
  0
LINE
  5
1B9BA
330
18
100
AcDbEntity
  8
ｺﾈｸﾀ
100
AcDbLine
 10
-105.7897077001644
 20
579.2231706452684
 30
0.0
 11
-97.78970770016449
 21
579.2231706451937
 31
0.0
  0
LINE
  5
1B9BB
330
18
100
AcDbEntity
  8
ｺﾈｸﾀ
100
AcDbLine
 10
-97.78970770000078
 20
596.5307706451937
 30
0.0
 11
-93.78970770003537
 21
593.1743721204468
 31
0.0
  0
LINE
  5
1B9BC
330
18
100
AcDbEntity
  8
ｺﾈｸﾀ
100
AcDbLine
 10
-97.78970770016449
 20
579.2231706451937
 30
0.0
 11
-93.78970770013358
 21
582.5795691698653
 31
0.0
  0
ARC
  5
1B9BD
330
18
100
AcDbEntity
  8
ｺﾈｸﾀ
100
AcDbCircle
 10
-105.7897077000003
 20
596.5307706452684
 30
0.0
 40
8.0
100
AcDbArc
 50
333.5214655204063
 51
359.9999999994528
  0
LINE
  5
1B9BE
330
18
100
AcDbEntity
  8
ｺﾈｸﾀ
100
AcDbLine
 10
-97.78970770000078
 20
596.5307706451937
 30
0.0
 11
-97.78970770016449
 21
579.2231706451937
 31
0.0
  0
LINE
  5
1B9BF
330
18
100
AcDbEntity
  8
ｺﾈｸﾀ
100
AcDbLine
 10
-110.7897077000007
 20
596.5307706453158
 30
0.0
 11
-110.7897077001644
 21
579.2231706453158
 31
0.0
  0
LINE
  5
1B9C0
330
18
100
AcDbEntity
  8
ｺﾈｸﾀ
100
AcDbLine
 10
-105.7897077000008
 20
596.5307706452684
 30
0.0
 11
-105.7897077001644
 21
579.2231706452684
 31
0.0
  0
LINE
  5
1B9C1
330
18
100
AcDbEntity
  8
ｺﾈｸﾀ
100
AcDbLine
 10
-114.2917618337424
 20
592.9638706453483
 30
0.0
 11
-110.7897077000353
 21
592.9638706453157
 31
0.0
  0
LINE
  5
1B9C2
330
18
100
AcDbEntity
  8
ｺﾈｸﾀ
100
AcDbLine
 10
-114.2917618337424
 20
582.7900706453477
 30
0.0
 11
-110.7897077001299
 21
582.7900706453155
 31
0.0
  0
LINE
  5
1B9C3
330
18
100
AcDbEntity
  8
ｺﾈｸﾀ
100
AcDbLine
 10
-114.2917618337424
 20
584.3100706453483
 30
0.0
 11
-110.7897077001153
 21
584.3100706453157
 31
0.0
  0
LINE
  5
1B9C4
330
18
100
AcDbEntity
  8
ｺﾈｸﾀ
100
AcDbLine
 10
-114.2917618337424
 20
579.2231706453477
 30
0.0
 11
-110.7897077001644
 21
579.2231706453158
 31
0.0
  0
LINE
  5
1B9C5
330
18
100
AcDbEntity
  8
ｺﾈｸﾀ
100
AcDbLine
 10
-105.7897077000353
 20
592.9638706452688
 30
0.0
 11
-98.62889598696812
 21
592.9638706452017
 31
0.0
  0
LINE
  5
1B9C6
330
18
100
AcDbEntity
  8
ｺﾈｸﾀ
100
AcDbLine
 10
-105.7897077000498
 20
591.4438706452682
 30
0.0
 11
-98.62889598698266
 21
591.4438706452012
 31
0.0
  0
LINE
  5
1B9C7
330
18
100
AcDbEntity
  8
ｺﾈｸﾀ
100
AcDbLine
 10
-105.7897077001153
 20
584.3100706452686
 30
0.0
 11
-98.62889598704816
 21
584.3100706452016
 31
0.0
  0
LINE
  5
1B9C8
330
18
100
AcDbEntity
  8
ｺﾈｸﾀ
100
AcDbLine
 10
-105.7897077001299
 20
582.7900706452679
 30
0.0
 11
-98.62889598706273
 21
582.7900706452012
 31
0.0
  0
LINE
  5
1B9C9
330
18
100
AcDbEntity
  8
ｺﾈｸﾀ
100
AcDbLine
 10
-110.7897077001408
 20
581.8769719069486
 30
0.0
 11
-105.7897077001408
 21
581.8769731685359
 31
0.0
  0
LINE
  5
1B9CA
330
18
100
AcDbEntity
  8
ｺﾈｸﾀ
100
AcDbLine
 10
-98.62889598698266
 20
591.4438706452012
 30
0.0
 11
-98.62889598696812
 21
592.9638706452017
 31
0.0
  0
LINE
  5
1B9CB
330
18
100
AcDbEntity
  8
ｺﾈｸﾀ
100
AcDbLine
 10
-98.62889598706273
 20
582.7900706452012
 30
0.0
 11
-98.62889598704816
 21
584.3100706452016
 31
0.0
  0
ARC
  5
1B9CC
330
18
100
AcDbEntity
  8
ｺﾈｸﾀ
100
AcDbCircle
 10
-105.7897077001638
 20
579.2231706452684
 30
0.0
 40
8.0
100
AcDbArc
 50
359.9999999994528
 51
26.47853447854534
  0
ARC
  5
1B9CD
330
18
100
AcDbEntity
  8
ｺﾈｸﾀ
100
AcDbCircle
 10
-105.789707700082
 20
587.8769706452684
 30
0.0
 40
8.0
100
AcDbArc
 50
333.5214655204063
 51
26.47853447854534
  0
LINE
  5
1B9CE
330
18
100
AcDbEntity
  8
ｺﾈｸﾀ
100
AcDbLine
 10
-114.2917618337424
 20
596.5307706453476
 30
0.0
 11
-110.7897077000007
 21
596.5307706453158
 31
0.0
  0
LINE
  5
1B9CF
330
18
100
AcDbEntity
  8
ｺﾈｸﾀ
100
AcDbLine
 10
-105.7897077000008
 20
596.5307706452684
 30
0.0
 11
-97.78970770000078
 21
596.5307706451937
 31
0.0
  0
LINE
  5
1B9D0
330
18
100
AcDbEntity
  8
ｺﾈｸﾀ
100
AcDbLine
 10
-110.7897077000262
 20
593.8769719069504
 30
0.0
 11
-105.7897077000262
 21
593.8769731685377
 31
0.0
  0
LINE
  5
1B9D5
330
18
100
AcDbEntity
  8
ｺﾈｸﾀ
100
AcDbLine
 10
-93.78970770003537
 20
593.1743721204468
 30
0.0
 11
-93.78970770013358
 21
582.5795691698653
 31
0.0
  0
LINE
  5
1B9D6
330
18
100
AcDbEntity
  8
中心線
 48
0.7
100
AcDbLine
 10
-119.711427877401
 20
587.876970645348
 30
0.0
 11
-96.30499771355893
 21
587.876970645348
 31
0.0
  0
ARC
  5
1BC2C
102
{ACAD_REACTORS
330
1BC31
330
210C5
102
}
330
18
100
AcDbEntity
  8
ｺﾈｸﾀ
 48
0.5
100
AcDbCircle
 10
-90.3381559386212
 20
625.8904202728607
 30
0.0
 40
1.880656636903949
100
AcDbArc
 50
318.3436407292453
 51
41.65635927073739
  0
LINE
  5
1BC2D
102
{ACAD_REACTORS
330
1BC31
330
210C5
102
}
330
18
100
AcDbEntity
  8
ｺﾈｸﾀ
 48
0.5
100
AcDbLine
 10
-93.789707700108
 20
624.640420274512
 30
0.0
 11
-88.93303338522764
 21
624.6404202745114
 31
0.0
  0
LINE
  5
1BC2E
102
{ACAD_REACTORS
330
1BC31
330
210C5
102
}
330
18
100
AcDbEntity
  8
ｺﾈｸﾀ
 48
0.5
100
AcDbLine
 10
-93.78970770006162
 20
629.6404202679092
 30
0.0
 11
-88.93303338522946
 21
629.6404202679107
 31
0.0
  0
ARC
  5
1BC2F
102
{ACAD_REACTORS
330
1BC31
330
210C5
102
}
330
18
100
AcDbEntity
  8
ｺﾈｸﾀ
 48
0.5
100
AcDbCircle
 10
-87.52791083183456
 20
628.3904202695612
 30
0.0
 40
1.880656636903949
100
AcDbArc
 50
138.3436407292452
 51
221.6563592707374
  0
ARC
  5
1BC30
102
{ACAD_REACTORS
330
1BC31
330
210C5
102
}
330
18
100
AcDbEntity
  8
ｺﾈｸﾀ
 48
0.5
100
AcDbCircle
 10
-90.33815593862163
 20
628.3904202695612
 30
0.0
 40
1.880656636903949
100
AcDbArc
 50
318.3436407292453
 51
41.65635927073739
  0
LINE
  5
1BCDA
330
18
100
AcDbEntity
  8
実線
100
AcDbLine
 10
16.85904454051262
 20
622.7682804474011
 30
0.0
 11
20.24929912574366
 21
621.3639910183007
 31
0.0
  0
LINE
  5
1BCDB
330
18
100
AcDbEntity
  8
実線
100
AcDbLine
 10
88.29791516919684
 20
551.3294098187128
 30
0.0
 11
86.89362574009576
 21
554.719664403946
 31
0.0
  0
LINE
  5
1BCDC
330
18
100
AcDbEntity
  8
実線
100
AcDbLine
 10
93.84119236426599
 20
654.6553301366142
 30
0.0
 11
92.43690293516348
 21
651.2650755513779
 31
0.0
  0
LINE
  5
1BCDD
330
18
100
AcDbEntity
  8
実線
100
AcDbLine
 10
16.85904454051324
 20
585.5125601021151
 30
0.0
 11
20.24929912574326
 21
586.9168495312147
 31
0.0
  0
LINE
  5
1BCE2
330
18
100
AcDbEntity
  8
実線
100
AcDbLine
 10
93.84119236426474
 20
553.6255104129029
 30
0.0
 11
92.43690293516348
 21
557.0157649981362
 31
0.0
  0
LINE
  5
1BCE3
330
18
100
AcDbEntity
  8
実線
100
AcDbLine
 10
19.15514513470297
 20
628.3115576424687
 30
0.0
 11
22.54539971993423
 21
626.9072682133685
 31
0.0
  0
LINE
  5
1BCE4
330
18
100
AcDbEntity
  8
実線
100
AcDbLine
 10
19.1551451347038
 20
579.9692829070473
 30
0.0
 11
22.5453997199337
 21
581.3735723361473
 31
0.0
  0
LINE
  5
1BCE5
330
18
100
AcDbEntity
  8
実線
100
AcDbLine
 10
88.29791516919819
 20
656.9514307308045
 30
0.0
 11
86.89362574009578
 21
653.5611761455684
 31
0.0
  0
LINE
  5
1BCE9
330
18
100
AcDbEntity
  8
実線
100
AcDbLine
 10
52.44648425301211
 20
653.5611761455668
 30
0.0
 11
51.04219482391012
 21
656.951430730802
 31
0.0
  0
LINE
  5
1BCEA
330
18
100
AcDbEntity
  8
実線
100
AcDbLine
 10
46.9032070579445
 20
651.2650755513763
 30
0.0
 11
45.49891762884266
 21
654.6553301366111
 31
0.0
  0
LINE
  5
1BCED
330
18
100
AcDbEntity
  8
実線
100
AcDbLine
 10
116.7947102731728
 20
626.907268213366
 30
0.0
 11
120.1849648584119
 21
628.3115576424694
 31
0.0
  0
LINE
  5
1BCEE
330
18
100
AcDbEntity
  8
実線
100
AcDbLine
 10
119.0908108673633
 20
621.3639910182982
 30
0.0
 11
122.4810654526022
 21
622.7682804474016
 31
0.0
  0
LINE
  5
1BCEF
330
18
100
AcDbEntity
  8
実線
100
AcDbLine
 10
119.0908108673633
 20
586.9168495312155
 30
0.0
 11
122.481065452601
 21
585.5125601021127
 31
0.0
  0
LINE
  5
1BCF0
330
18
100
AcDbEntity
  8
実線
100
AcDbLine
 10
116.7947102731728
 20
581.3735723361482
 30
0.0
 11
120.1849648584103
 21
579.9692829070449
 31
0.0
  0
LINE
  5
1BCF3
330
18
100
AcDbEntity
  8
実線
100
AcDbLine
 10
52.44648425301125
 20
554.7196644039472
 30
0.0
 11
51.04219482391072
 21
551.3294098187157
 31
0.0
  0
LINE
  5
1BCF4
330
18
100
AcDbEntity
  8
実線
100
AcDbLine
 10
46.90320705794349
 20
557.0157649981378
 30
0.0
 11
45.49891762884313
 21
553.6255104129065
 31
0.0
  0
ARC
  5
1C9CE
330
18
100
AcDbEntity
  8
実線
100
AcDbCircle
 10
69.6700549965786
 20
604.1404202747822
 30
0.0
 40
9.5
100
AcDbArc
 50
87.98397785795684
 51
35.4973171609539
  0
LINE
  5
1D123
330
18
100
AcDbEntity
  8
実線
100
AcDbLine
 10
-211.2917618337428
 20
579.4404202747585
 30
0.0
 11
-210.9917618337428
 21
579.1404202747584
 31
0.0
  0
LINE
  5
1D125
330
18
100
AcDbEntity
  8
実線
100
AcDbLine
 10
-211.2917618337428
 20
628.8404202747592
 30
0.0
 11
-210.9917618337428
 21
629.1404202747592
 31
0.0
  0
SPLINE
  5
1D212
102
{ACAD_REACTORS
330
210C6
102
}
330
18
100
AcDbEntity
  8
ｺﾈｸﾀ
100
AcDbSpline
210
0.0
220
0.0
230
1.0
 70
     8
 71
     3
 72
    13
 73
     9
 74
     7
 42
0.0000000001
 43
0.0000000001
 44
0.0000000001
 40
0.0
 40
0.0
 40
0.0
 40
0.0
 40
1.600774174250598
 40
3.201555669530199
 40
4.802337164809622
 40
6.403117788246699
 40
8.003899283526379
 40
9.604676970414249
 40
9.604676970414249
 40
9.604676970414249
 40
9.604676970414249
 10
-88.64292988331476
 20
585.3769789034337
 30
0.0
 10
-88.14293059824866
 20
585.7893688306377
 30
0.0
 10
-87.14292974140457
 20
586.6141505710823
 30
0.0
 10
-88.64293045093058
 20
587.9282529420473
 30
0.0
 10
-90.14292976915289
 20
588.9346633479318
 30
0.0
 10
-88.64292950002919
 20
591.0949192623926
 30
0.0
 10
-87.14293108625318
 20
588.9474847880364
 30
0.0
 10
-88.14292754695335
 20
588.2338084093164
 30
0.0
 10
-88.64292518253412
 20
587.8769706444308
 30
0.0
 11
-88.64292988331476
 21
585.3769789034337
 31
0.0
 11
-87.64292988331476
 21
586.6269700861817
 31
0.0
 11
-88.64292988331476
 21
587.8769706444334
 31
0.0
 11
-89.64292988331477
 21
589.1269712026849
 31
0.0
 11
-88.64292988331476
 21
590.3769706444334
 31
0.0
 11
-87.64292988331478
 21
589.1269700861816
 31
0.0
 11
-88.64292518253412
 21
587.8769706444308
 31
0.0
  0
LINE
  5
1D213
102
{ACAD_REACTORS
330
210C6
102
}
330
18
100
AcDbEntity
  8
ｺﾈｸﾀ
100
AcDbLine
 10
-88.64292518253412
 20
590.3769706444307
 30
0.0
 11
-93.7897077000613
 21
590.3769735176297
 31
0.0
  0
LINE
  5
1D214
102
{ACAD_REACTORS
330
210C6
102
}
330
18
100
AcDbEntity
  8
ｺﾈｸﾀ
100
AcDbLine
 10
-88.64292518253504
 20
585.3769789034337
 30
0.0
 11
-93.78970770010763
 21
585.3769789034337
 31
0.0
  0
ARC
  5
21176
330
18
100
AcDbEntity
  8
ｺﾈｸﾀ
 48
0.5
100
AcDbCircle
 10
-56.97461087567674
 20
660.6403465207197
 30
0.0
 40
36.0
100
AcDbArc
 50
270.0
 51
0.0
  0
ARC
  5
21177
330
18
100
AcDbEntity
  8
ｺﾈｸﾀ
 48
0.5
100
AcDbCircle
 10
-55.97461087567721
 20
659.6403465141186
 30
0.0
 40
30.0
100
AcDbArc
 50
270.0
 51
0.0
  0
LINE
  5
21178
330
18
100
AcDbEntity
  8
ｺﾈｸﾀ
 48
0.5
100
AcDbLine
 10
-73.20778191673669
 20
624.6404202745114
 30
0.0
 11
-56.9017392927531
 21
624.6404202745117
 31
0.0
  0
LINE
  5
21179
330
18
100
AcDbEntity
  8
ｺﾈｸﾀ
 48
0.5
100
AcDbLine
 10
-73.2077819167365
 20
629.6404202679111
 30
0.0
 11
-55.90808853300226
 21
629.6404202679107
 31
0.0
  0
ARC
  5
2117A
330
18
100
AcDbEntity
  8
ｺﾈｸﾀ
 48
0.5
100
AcDbCircle
 10
-71.8026593633422
 20
628.390420269561
 30
0.0
 40
1.880656636903949
100
AcDbArc
 50
138.3436407292266
 51
221.6563592707733
  0
ARC
  5
2117B
330
18
100
AcDbEntity
  8
ｺﾈｸﾀ
 48
0.5
100
AcDbCircle
 10
-74.61290447013019
 20
628.390420269561
 30
0.0
 40
1.880656636903949
100
AcDbArc
 50
318.3436407292266
 51
41.65635927077338
  0
ARC
  5
2117C
330
18
100
AcDbEntity
  8
ｺﾈｸﾀ
 48
0.5
100
AcDbCircle
 10
-71.8026593633422
 20
625.8904202728606
 30
0.0
 40
1.880656636903949
100
AcDbArc
 50
138.3436407292266
 51
221.6563592707733
  0
LINE
  5
2117F
330
18
100
AcDbEntity
  8
ｺﾈｸﾀ
100
AcDbLine
 10
-18.47461087567807
 20
681.3105284444517
 30
0.0
 11
-28.47461087567808
 21
681.3105284444517
 31
0.0
  0
LINE
  5
21180
330
18
100
AcDbEntity
  8
ｺﾈｸﾀ
100
AcDbLine
 10
-19.12461087568044
 20
666.3105284444517
 30
0.0
 11
-27.82461087567571
 21
666.3105284444517
 31
0.0
  0
LINE
  5
21181
330
18
100
AcDbEntity
  8
ｺﾈｸﾀ
100
AcDbLine
 10
-18.47461087567807
 20
666.3105284444517
 30
0.0
 11
-28.47461087567808
 21
666.3105284444517
 31
0.0
  0
LINE
  5
21182
330
18
100
AcDbEntity
  8
ｺﾈｸﾀ
 48
0.5
100
AcDbLine
 10
-25.84960482263068
 20
727.4105735459277
 30
0.0
 11
-29.29960482263139
 21
727.4105735459277
 31
0.0
  0
LINE
  5
21183
330
18
100
AcDbEntity
  8
ｺﾈｸﾀ
 48
0.5
100
AcDbLine
 10
-15.67461087567425
 20
703.7105284444533
 30
0.0
 11
-31.27461087567461
 21
703.7105284444514
 31
0.0
  0
LINE
  5
21184
330
18
100
AcDbEntity
  8
ｺﾈｸﾀ
 48
0.5
100
AcDbLine
 10
-16.67460482263232
 20
717.9105735459268
 30
0.0
 11
-30.27460482263176
 21
717.9105735459268
 31
0.0
  0
LINE
  5
21185
330
18
100
AcDbEntity
  8
ｺﾈｸﾀ
 48
0.5
100
AcDbLine
 10
-24.76582092133956
 20
681.3105284444517
 30
0.0
 11
-28.55029580718474
 21
703.7105284444524
 31
0.0
  0
LINE
  5
21186
330
18
100
AcDbEntity
  8
ｺﾈｸﾀ
 48
0.5
100
AcDbLine
 10
-30.27460482263176
 20
704.8105284444517
 30
0.0
 11
-30.27460482263176
 21
717.9105735459268
 31
0.0
  0
LINE
  5
21187
330
18
100
AcDbEntity
  8
ｺﾈｸﾀ
 48
0.5
100
AcDbLine
 10
-28.47461087567808
 20
681.3105284444517
 30
0.0
 11
-28.47461087567808
 21
666.3105284444517
 31
0.0
  0
LINE
  5
21188
330
18
100
AcDbEntity
  8
ｺﾈｸﾀ
 48
0.5
100
AcDbLine
 10
-31.27461087567461
 20
703.7105284444514
 30
0.0
 11
-31.27461087567461
 21
704.8105284444517
 31
0.0
  0
LINE
  5
21189
330
18
100
AcDbEntity
  8
ｺﾈｸﾀ
 48
0.5
100
AcDbLine
 10
-30.27460482263176
 20
704.8105284444517
 30
0.0
 11
-31.27461087567461
 21
704.8105284444517
 31
0.0
  0
LINE
  5
2118A
330
18
100
AcDbEntity
  8
ｺﾈｸﾀ
 48
0.5
100
AcDbLine
 10
-30.27460482263176
 20
717.9105735459268
 30
0.0
 11
-34.09231910834569
 21
717.9105735459268
 31
0.0
  0
LINE
  5
2118B
330
18
100
AcDbEntity
  8
ｺﾈｸﾀ
 48
0.5
100
AcDbLine
 10
-32.70317625120242
 20
710.4305735459274
 30
0.0
 11
-34.09231910834569
 21
710.4305735459274
 31
0.0
  0
LINE
  5
2118C
330
18
100
AcDbEntity
  8
ｺﾈｸﾀ
 48
0.5
100
AcDbLine
 10
-33.67460482263139
 20
711.4020021173566
 30
0.0
 11
-34.09231910834569
 21
711.4020021173566
 31
0.0
  0
LINE
  5
2118D
330
18
100
AcDbEntity
  8
ｺﾈｸﾀ
 48
0.5
100
AcDbLine
 10
-31.73936280300039
 20
715.8966312322227
 30
0.0
 11
-32.70317625120242
 21
710.4305735459274
 31
0.0
  0
LINE
  5
2118E
330
18
100
AcDbEntity
  8
ｺﾈｸﾀ
 48
0.5
100
AcDbLine
 10
-30.76031910834535
 20
716.2980021173551
 30
0.0
 11
-31.26102760867979
 21
716.2980021173559
 31
0.0
  0
ARC
  5
2118F
330
18
100
AcDbEntity
  8
ｺﾈｸﾀ
 48
0.5
100
AcDbCircle
 10
-30.76031910834626
 20
715.8122878316412
 30
0.0
 40
0.4857142857142857
100
AcDbArc
 50
0.0
 51
90.00000000000005
  0
ARC
  5
21190
330
18
100
AcDbEntity
  8
ｺﾈｸﾀ
 48
0.5
100
AcDbCircle
 10
-31.2610276086816
 20
715.812287831643
 30
0.0
 40
0.4857142857142857
100
AcDbArc
 50
90.00000000000005
 51
169.9999999999945
  0
LINE
  5
21191
330
18
100
AcDbEntity
  8
ｺﾈｸﾀ
 48
0.5
100
AcDbLine
 10
-33.67460482263139
 20
722.6705735459272
 30
0.0
 11
-32.70317625120242
 21
723.6420021173562
 31
0.0
  0
LINE
  5
21192
330
18
100
AcDbEntity
  8
ｺﾈｸﾀ
 48
0.5
100
AcDbLine
 10
-32.70317625120242
 20
721.2134306887848
 30
0.0
 11
-33.67460482263139
 21
721.2134306887848
 31
0.0
  0
LINE
  5
21193
330
18
100
AcDbEntity
  8
ｺﾈｸﾀ
 48
0.5
100
AcDbLine
 10
-33.67460482263139
 20
721.2134306887848
 30
0.0
 11
-34.09231910834569
 21
720.7957164030704
 31
0.0
  0
LINE
  5
21194
330
18
100
AcDbEntity
  8
ｺﾈｸﾀ
 48
0.5
100
AcDbLine
 10
-31.44031910834565
 20
723.6420021173562
 30
0.0
 11
-30.46889053691756
 21
722.6705735459272
 31
0.0
  0
LINE
  5
21195
330
18
100
AcDbEntity
  8
ｺﾈｸﾀ
 48
0.5
100
AcDbLine
 10
-31.44031910834565
 20
723.6420021173562
 30
0.0
 11
-32.70317625120242
 21
723.6420021173562
 31
0.0
  0
LINE
  5
21196
330
18
100
AcDbEntity
  8
ｺﾈｸﾀ
 48
0.5
100
AcDbLine
 10
-30.46889053691756
 20
722.6705735459272
 30
0.0
 11
-30.46889053691756
 21
721.2134306887856
 31
0.0
  0
LINE
  5
21197
330
18
100
AcDbEntity
  8
ｺﾈｸﾀ
 48
0.5
100
AcDbLine
 10
-30.46889053691756
 20
721.2134306887848
 30
0.0
 11
-31.53746196548854
 21
721.3105735459285
 31
0.0
  0
LINE
  5
21198
330
18
100
AcDbEntity
  8
ｺﾈｸﾀ
 48
0.5
100
AcDbLine
 10
-33.67460482263139
 20
722.6705735459272
 30
0.0
 11
-33.67460482263139
 21
711.4020021173566
 31
0.0
  0
LINE
  5
21199
330
18
100
AcDbEntity
  8
ｺﾈｸﾀ
 48
0.5
100
AcDbLine
 10
-34.09231910834569
 20
720.7957164030704
 30
0.0
 11
-34.09231910834569
 21
710.4305735459274
 31
0.0
  0
LINE
  5
2119A
330
18
100
AcDbEntity
  8
ｺﾈｸﾀ
 48
0.5
100
AcDbLine
 10
-29.29960482263139
 20
727.4105735459277
 30
0.0
 11
-29.29960482263139
 21
717.9105735459268
 31
0.0
  0
LINE
  5
2119B
330
18
100
AcDbEntity
  8
ｺﾈｸﾀ
 48
0.5
100
AcDbLine
 10
-32.70317625120242
 20
721.2134306887848
 30
0.0
 11
-32.70317625120242
 21
717.9105735459268
 31
0.0
  0
LINE
  5
2119C
330
18
100
AcDbEntity
  8
ｺﾈｸﾀ
 48
0.5
100
AcDbLine
 10
-31.53746196548854
 20
721.3105735459285
 30
0.0
 11
-31.53746196548854
 21
717.9105735459268
 31
0.0
  0
LINE
  5
2119F
330
18
100
AcDbEntity
  8
ｺﾈｸﾀ
 48
0.5
100
AcDbLine
 10
-16.67460482263232
 20
704.8105284444528
 30
0.0
 11
-16.67460482263232
 21
717.9105735459268
 31
0.0
  0
LINE
  5
211A1
330
18
100
AcDbEntity
  8
ｺﾈｸﾀ
 48
0.5
100
AcDbLine
 10
-23.47461087567807
 20
703.7105284444524
 30
0.0
 11
-23.47461087567807
 21
681.3105284444517
 31
0.0
  0
LINE
  5
211A2
330
18
100
AcDbEntity
  8
ｺﾈｸﾀ
 48
0.5
100
AcDbLine
 10
-22.18340083001567
 20
681.3105284444517
 30
0.0
 11
-18.39892594417142
 21
703.7105284444524
 31
0.0
  0
LINE
  5
211A3
330
18
100
AcDbEntity
  8
ｺﾈｸﾀ
 48
0.5
100
AcDbLine
 10
-20.97461087567807
 20
666.3105284444517
 30
0.0
 11
-20.97461087567807
 21
660.4801269144722
 31
0.0
  0
LINE
  5
211A4
330
18
100
AcDbEntity
  8
ｺﾈｸﾀ
 48
0.5
100
AcDbLine
 10
-25.97461087567808
 20
666.3105284444517
 30
0.0
 11
-25.97461087567852
 21
659.4801269078724
 31
0.0
  0
LINE
  5
211A5
330
18
100
AcDbEntity
  8
ｺﾈｸﾀ
 48
0.5
100
AcDbLine
 10
-18.47461087567807
 20
681.3105284444517
 30
0.0
 11
-18.47461087567807
 21
666.3105284444517
 31
0.0
  0
LINE
  5
211A6
330
18
100
AcDbEntity
  8
ｺﾈｸﾀ
 48
0.5
100
AcDbLine
 10
-15.67461087567425
 20
704.8105284444517
 30
0.0
 11
-16.67460482263232
 21
704.8105284444528
 31
0.0
  0
LINE
  5
211A7
330
18
100
AcDbEntity
  8
ｺﾈｸﾀ
 48
0.5
100
AcDbLine
 10
-15.67461087567425
 20
703.7105284444514
 30
0.0
 11
-15.67461087567425
 21
704.8105284444517
 31
0.0
  0
LINE
  5
211A8
330
18
100
AcDbEntity
  8
ｺﾈｸﾀ
 48
0.5
100
AcDbLine
 10
-21.74960482263121
 20
727.4105735459277
 30
0.0
 11
-25.19960482263103
 21
727.4105735459277
 31
0.0
  0
LINE
  5
211A9
330
18
100
AcDbEntity
  8
ｺﾈｸﾀ
 48
0.5
100
AcDbLine
 10
-17.64960482263177
 20
727.4105735459268
 30
0.0
 11
-21.0996048226325
 21
727.4105735459277
 31
0.0
  0
LINE
  5
211AA
330
18
100
AcDbEntity
  8
ｺﾈｸﾀ
 48
0.5
100
AcDbLine
 10
-21.74960482263121
 20
727.4105735459277
 30
0.0
 11
-21.74960482263212
 21
717.9105735459268
 31
0.0
  0
LINE
  5
211AB
330
18
100
AcDbEntity
  8
ｺﾈｸﾀ
 48
0.5
100
AcDbLine
 10
-21.09960482263159
 20
727.4105735459277
 30
0.0
 11
-21.09960482263159
 21
717.9105735459268
 31
0.0
  0
LINE
  5
211AC
330
18
100
AcDbEntity
  8
ｺﾈｸﾀ
 48
0.5
100
AcDbLine
 10
-25.19960482263103
 20
727.4105735459277
 30
0.0
 11
-25.19960482263103
 21
717.9105735459268
 31
0.0
  0
LINE
  5
211AD
330
18
100
AcDbEntity
  8
ｺﾈｸﾀ
 48
0.5
100
AcDbLine
 10
-17.64960482263177
 20
727.4105735459277
 30
0.0
 11
-17.64960482263177
 21
717.9105735459268
 31
0.0
  0
LINE
  5
211AE
330
18
100
AcDbEntity
  8
ｺﾈｸﾀ
 48
0.5
100
AcDbLine
 10
-25.84960482263068
 20
727.4105735459277
 30
0.0
 11
-25.84960482263068
 21
717.9105735459268
 31
0.0
  0
ARC
  5
21289
330
18
100
AcDbEntity
  8
ｺﾈｸﾀ
100
AcDbCircle
 10
-53.41337268573598
 20
555.376978903434
 30
0.0
 40
30.0
100
AcDbArc
 50
0.0
 51
90.00000000000005
  0
ARC
  5
2128A
330
18
100
AcDbEntity
  8
ｺﾈｸﾀ
100
AcDbCircle
 10
-53.41337268573416
 20
555.3769816946843
 30
0.0
 40
35.0
100
AcDbArc
 50
0.0
 51
90.00003198545591
  0
LINE
  5
2128C
330
18
100
AcDbEntity
  8
ｺﾈｸﾀ
 48
0.5
100
AcDbLine
 10
-16.03144820213283
 20
496.9068173732629
 30
0.0
 11
-26.03144820213282
 21
496.9068173732629
 31
0.0
  0
LINE
  5
2128D
330
18
100
AcDbEntity
  8
ｺﾈｸﾀ
 48
0.5
100
AcDbLine
 10
-23.27937605638068
 20
533.1870342268286
 30
0.0
 11
-26.03144820517555
 21
511.3068624747381
 31
0.0
  0
LINE
  5
2128E
330
18
100
AcDbEntity
  8
ｺﾈｸﾀ
 48
0.5
100
AcDbLine
 10
-15.03144820517464
 20
511.3068624747381
 30
0.0
 11
-27.03144820517555
 21
511.3068624747381
 31
0.0
  0
LINE
  5
2128F
330
18
100
AcDbEntity
  8
ｺﾈｸﾀ
 48
0.5
100
AcDbLine
 10
-29.84916248784675
 20
494.0216745161205
 30
0.0
 11
-29.84916248784675
 21
504.3868173732625
 31
0.0
  0
LINE
  5
21290
330
18
100
AcDbEntity
  8
ｺﾈｸﾀ
 48
0.5
100
AcDbLine
 10
-27.29430534498961
 20
493.5068173732632
 30
0.0
 11
-27.29430534498961
 21
496.9068173732629
 31
0.0
  0
LINE
  5
21291
330
18
100
AcDbEntity
  8
ｺﾈｸﾀ
 48
0.5
100
AcDbLine
 10
-28.46001963070438
 20
493.6039602304061
 30
0.0
 11
-28.46001963070438
 21
496.9068173732629
 31
0.0
  0
LINE
  5
21292
330
18
100
AcDbEntity
  8
ｺﾈｸﾀ
 48
0.5
100
AcDbLine
 10
-29.43144820213245
 20
492.1468173732627
 30
0.0
 11
-29.43144820213337
 21
503.4153888018351
 31
0.0
  0
LINE
  5
21293
330
18
100
AcDbEntity
  8
ｺﾈｸﾀ
 48
0.5
100
AcDbLine
 10
-27.19716248784671
 20
491.1753888018346
 30
0.0
 11
-26.22573391641862
 21
492.1468173732627
 31
0.0
  0
LINE
  5
21294
330
18
100
AcDbEntity
  8
ｺﾈｸﾀ
 48
0.5
100
AcDbLine
 10
-29.43144820213245
 20
492.1468173732627
 30
0.0
 11
-28.46001963070438
 21
491.1753888018346
 31
0.0
  0
LINE
  5
21295
330
18
100
AcDbEntity
  8
ｺﾈｸﾀ
 48
0.5
100
AcDbLine
 10
-29.43144820213245
 20
493.6039602304061
 30
0.0
 11
-29.84916248784675
 21
494.0216745161205
 31
0.0
  0
LINE
  5
21296
330
18
100
AcDbEntity
  8
ｺﾈｸﾀ
 48
0.5
100
AcDbLine
 10
-26.22573391641862
 20
493.6039602304061
 30
0.0
 11
-27.29430534498961
 21
493.5068173732632
 31
0.0
  0
LINE
  5
21297
330
18
100
AcDbEntity
  8
ｺﾈｸﾀ
 48
0.5
100
AcDbLine
 10
-26.22573391641862
 20
492.1468173732627
 30
0.0
 11
-26.22573391641862
 21
493.6039602304061
 31
0.0
  0
LINE
  5
21298
330
18
100
AcDbEntity
  8
ｺﾈｸﾀ
 48
0.5
100
AcDbLine
 10
-28.46001963070438
 20
493.6039602304061
 30
0.0
 11
-29.43144820213245
 21
493.6039602304061
 31
0.0
  0
LINE
  5
21299
330
18
100
AcDbEntity
  8
ｺﾈｸﾀ
 48
0.5
100
AcDbLine
 10
-27.19716248784671
 20
491.1753888018346
 30
0.0
 11
-28.46001963070438
 21
491.1753888018346
 31
0.0
  0
LINE
  5
2129A
330
18
100
AcDbEntity
  8
ｺﾈｸﾀ
 48
0.5
100
AcDbLine
 10
-26.03144820213282
 20
510.2068624747396
 30
0.0
 11
-26.03144820213282
 21
496.9068173732629
 31
0.0
  0
LINE
  5
2129B
330
18
100
AcDbEntity
  8
ｺﾈｸﾀ
 48
0.5
100
AcDbLine
 10
-26.03144215213269
 20
510.2068624747396
 30
0.0
 11
-27.03144820517555
 21
510.2068624747396
 31
0.0
  0
LINE
  5
2129C
330
18
100
AcDbEntity
  8
ｺﾈｸﾀ
 48
0.5
100
AcDbLine
 10
-29.43144820213337
 20
503.4153888018351
 30
0.0
 11
-29.84916248784675
 21
503.4153888018351
 31
0.0
  0
LINE
  5
2129D
330
18
100
AcDbEntity
  8
ｺﾈｸﾀ
 48
0.5
100
AcDbLine
 10
-28.46001963070438
 20
504.3868173732643
 30
0.0
 11
-29.84916248784675
 21
504.3868173732634
 31
0.0
  0
LINE
  5
2129E
330
18
100
AcDbEntity
  8
ｺﾈｸﾀ
 48
0.5
100
AcDbLine
 10
-26.03144820213282
 20
496.9068173732629
 30
0.0
 11
-29.84916248784675
 21
496.9068173732629
 31
0.0
  0
LINE
  5
2129F
330
18
100
AcDbEntity
  8
ｺﾈｸﾀ
 48
0.5
100
AcDbLine
 10
-26.51716248784642
 20
498.5193888018346
 30
0.0
 11
-27.01787098818086
 21
498.5193888018346
 31
0.0
  0
ARC
  5
212A0
330
18
100
AcDbEntity
  8
ｺﾈｸﾀ
 48
0.5
100
AcDbCircle
 10
-26.51716248784595
 20
499.0051030875489
 30
0.0
 40
0.4857142857142857
100
AcDbArc
 50
270.0
 51
0.0
  0
ARC
  5
212A1
330
18
100
AcDbEntity
  8
ｺﾈｸﾀ
 48
0.5
100
AcDbCircle
 10
-27.01787098818131
 20
499.0051030875489
 30
0.0
 40
0.4857142857142857
100
AcDbArc
 50
190.0000000000051
 51
270.0
  0
LINE
  5
212A2
330
18
100
AcDbEntity
  8
ｺﾈｸﾀ
 48
0.5
100
AcDbLine
 10
-27.49620618250146
 20
498.9207596869672
 30
0.0
 11
-28.46001963070438
 21
504.3868173732643
 31
0.0
  0
LINE
  5
212A3
330
18
100
AcDbEntity
  8
ｺﾈｸﾀ
 48
0.5
100
AcDbLine
 10
-27.03144820517555
 20
511.3068624747381
 30
0.0
 11
-27.03144820517555
 21
510.2068624747396
 31
0.0
  0
LINE
  5
212A4
330
18
100
AcDbEntity
  8
ｺﾈｸﾀ
 48
0.5
100
AcDbLine
 10
-20.06570550216311
 20
523.7445672747333
 30
0.0
 11
-18.50056347619028
 21
511.301006752641
 31
0.0
  0
LINE
  5
212A5
330
18
100
AcDbEntity
  8
ｺﾈｸﾀ
 48
0.5
100
AcDbLine
 10
-21.2787682356883
 20
533.1870342268286
 30
0.0
 11
-24.03145415821946
 21
511.3019827063233
 31
0.0
  0
LINE
  5
212A6
330
18
100
AcDbEntity
  8
ｺﾈｸﾀ
 48
0.5
100
AcDbLine
 10
-20.8786466715501
 20
533.1870342268286
 30
0.0
 11
-23.63145534882842
 21
511.301006752641
 31
0.0
  0
LINE
  5
212A7
330
18
100
AcDbEntity
  8
ｺﾈｸﾀ
 48
0.5
100
AcDbLine
 10
-18.87803885085867
 20
533.1870342268283
 30
0.0
 11
-21.63146130187233
 21
511.2961269842251
 31
0.0
  0
LINE
  5
212A8
330
18
100
AcDbEntity
  8
ｺﾈｸﾀ
 48
0.5
100
AcDbLine
 10
-18.852642768639
 20
533.1870342268291
 30
0.0
 11
-16.10057061984316
 21
511.3068624747381
 31
0.0
  0
LINE
  5
212A9
330
18
100
AcDbEntity
  8
ｺﾈｸﾀ
 48
0.5
100
AcDbLine
 10
-19.86564472009486
 20
525.3351375926111
 30
0.0
 11
-18.10056466679925
 21
511.3019827063233
 31
0.0
  0
LINE
  5
212AB
330
18
100
AcDbEntity
  8
ｺﾈｸﾀ
 48
0.5
100
AcDbLine
 10
-25.05644820213245
 20
487.6068173732626
 30
0.0
 11
-25.05644820213245
 21
496.9068173732629
 31
0.0
  0
LINE
  5
212AC
330
18
100
AcDbEntity
  8
ｺﾈｸﾀ
 48
0.5
100
AcDbLine
 10
-17.50644820213229
 20
487.6068173732626
 30
0.0
 11
-17.50644820213318
 21
496.9068173732629
 31
0.0
  0
LINE
  5
212AD
330
18
100
AcDbEntity
  8
ｺﾈｸﾀ
 48
0.5
100
AcDbLine
 10
-21.60644820213265
 20
487.6068173732626
 30
0.0
 11
-21.60644820213265
 21
496.9068173732629
 31
0.0
  0
LINE
  5
212AE
330
18
100
AcDbEntity
  8
ｺﾈｸﾀ
 48
0.5
100
AcDbLine
 10
-20.95644820213301
 20
487.6068173732626
 30
0.0
 11
-20.95644820213301
 21
496.9068173732629
 31
0.0
  0
LINE
  5
212AF
330
18
100
AcDbEntity
  8
ｺﾈｸﾀ
 48
0.5
100
AcDbLine
 10
-21.60644820213265
 20
487.6068173732626
 30
0.0
 11
-25.05644820213245
 21
487.6068173732626
 31
0.0
  0
LINE
  5
212B0
330
18
100
AcDbEntity
  8
ｺﾈｸﾀ
 48
0.5
100
AcDbLine
 10
-17.50644820213229
 20
487.6068173732626
 30
0.0
 11
-20.95644820213301
 21
487.6068173732626
 31
0.0
  0
LINE
  5
212B1
330
18
100
AcDbEntity
  8
ｺﾈｸﾀ
 48
0.5
100
AcDbLine
 10
-16.03144820213283
 20
510.2068624747396
 30
0.0
 11
-16.03144820213283
 21
496.9068173732629
 31
0.0
  0
LINE
  5
212B2
330
18
100
AcDbEntity
  8
ｺﾈｸﾀ
 48
0.5
100
AcDbLine
 10
-15.03144820517464
 20
510.2068624747379
 30
0.0
 11
-16.03144215213269
 21
510.2068624747379
 31
0.0
  0
LINE
  5
212B3
330
18
100
AcDbEntity
  8
ｺﾈｸﾀ
 48
0.5
100
AcDbLine
 10
-21.0660094125098
 20
515.7917156853478
 30
0.0
 11
-20.50055752314638
 21
511.2961269842251
 31
0.0
  0
LINE
  5
212B4
330
18
100
AcDbEntity
  8
ｺﾈｸﾀ
 48
0.5
100
AcDbLine
 10
-15.03144820517464
 20
511.3068624747381
 30
0.0
 11
-15.03144820517464
 21
510.2068624747388
 31
0.0
  0
LINE
  5
212B5
330
18
100
AcDbEntity
  8
ｺﾈｸﾀ
100
AcDbLine
 10
-18.41337268573416
 20
533.1870342268293
 30
0.0
 11
-18.41337268573416
 21
555.3769816946843
 31
0.0
  0
LINE
  5
212B6
330
18
100
AcDbEntity
  8
ｺﾈｸﾀ
100
AcDbLine
 10
-23.41337268573596
 20
533.1870342268293
 30
0.0
 11
-23.41337268573596
 21
555.376978903434
 31
0.0
  0
LINE
  5
212B7
330
18
100
AcDbEntity
  8
ｺﾈｸﾀ
 48
0.5
100
AcDbLine
 10
-23.41337268573416
 20
533.1870342268293
 30
0.0
 11
-18.41337268573416
 21
533.1870342268293
 31
0.0
  0
LINE
  5
212B8
330
18
100
AcDbEntity
  8
ｺﾈｸﾀ
 48
0.5
100
AcDbLine
 10
-18.41337268573416
 20
533.187034226829
 30
0.0
 11
-23.41337268573325
 21
533.1870342268283
 31
0.0
  0
LINE
  5
212B9
330
18
100
AcDbEntity
  8
ｺﾈｸﾀ
 48
0.5
100
AcDbLine
 10
-21.47916676614193
 20
525.1749179837328
 30
0.0
 11
-21.27910598407189
 21
523.584347665855
 31
0.0
  0
LINE
  5
212BA
330
18
100
AcDbEntity
  8
ｺﾈｸﾀ
100
AcDbLine
 10
-73.20778191673588
 20
585.3769789034337
 30
0.0
 11
-53.41337268573598
 21
585.3769789034337
 31
0.0
  0
LINE
  5
212BB
330
18
100
AcDbEntity
  8
ｺﾈｸﾀ
100
AcDbLine
 10
-73.20778191673681
 20
590.3769706444307
 30
0.0
 11
-53.41339222453729
 21
590.3769816946788
 31
0.0
  0
SPLINE
  5
212BC
330
18
100
AcDbEntity
  8
ｺﾈｸﾀ
100
AcDbSpline
210
0.0
220
0.0
230
1.0
 70
     8
 71
     3
 72
    13
 73
     9
 74
     7
 42
0.0000000001
 43
0.0000000001
 44
0.0000000001
 40
0.0
 40
0.0
 40
0.0
 40
0.0
 40
1.600774174250598
 40
3.201555669530199
 40
4.802337164809622
 40
6.403117788246699
 40
8.00389928352639
 40
9.604676970414251
 40
9.604676970414251
 40
9.604676970414251
 40
9.604676970414251
 10
-73.20777721595614
 20
585.3769789034337
 30
0.0
 10
-73.70777650102225
 20
585.7893688306377
 30
0.0
 10
-74.7077773578663
 20
586.6141505710823
 30
0.0
 10
-73.20777664834036
 20
587.9282529420473
 30
0.0
 10
-71.70777733011796
 20
588.9346633479319
 30
0.0
 10
-73.20777759924173
 20
591.0949192623926
 30
0.0
 10
-74.70777601301773
 20
588.9474847880364
 30
0.0
 10
-73.70777955231756
 20
588.2338084093164
 30
0.0
 10
-73.20778191673681
 20
587.8769706444308
 30
0.0
 11
-73.20777721595614
 21
585.3769789034337
 31
0.0
 11
-74.20777721595614
 21
586.6269700861817
 31
0.0
 11
-73.20777721595614
 21
587.8769706444334
 31
0.0
 11
-72.20777721595614
 21
589.1269712026849
 31
0.0
 11
-73.20777721595614
 21
590.3769706444334
 31
0.0
 11
-74.20777721595614
 21
589.1269700861816
 31
0.0
 11
-73.20778191673681
 21
587.8769706444308
 31
0.0
  0
CIRCLE
  5
218D9
330
18
100
AcDbEntity
  8
実線
100
AcDbCircle
 10
-337.8746537940064
 20
604.1404202747577
 30
0.0
 40
25.00000000000053
  0
CIRCLE
  5
218DA
330
18
100
AcDbEntity
  8
実線
100
AcDbCircle
 10
-337.8746537940064
 20
604.1404202747577
 30
0.0
 40
32.50000000000057
  0
CIRCLE
  5
218DB
330
18
100
AcDbEntity
  8
実線
100
AcDbCircle
 10
-337.8746537940064
 20
604.1404202747577
 30
0.0
 40
55.50000000000089
  0
CIRCLE
  5
218DC
330
18
100
AcDbEntity
  8
実線
100
AcDbCircle
 10
-337.8746537940064
 20
604.1404202747577
 30
0.0
 40
56.00000000000072
  0
CIRCLE
  5
218DE
330
18
100
AcDbEntity
  8
実線
100
AcDbCircle
 10
69.67005499659058
 20
604.1404202748092
 30
0.0
 40
34.99999999999719
  0
CIRCLE
  5
218DF
330
18
100
AcDbEntity
  8
実線
100
AcDbCircle
 10
69.67005499659058
 20
604.1404202748092
 30
0.0
 40
41.99999999999922
  0
VIEWPORT
  5
23
330
15
100
AcDbEntity
 67
     1
  8
0
100
AcDbViewport
 10
252.0438695318036
 20
143.9963910921841
 30
0.0
 40
547.6886889241245
 41
290.3234731553545
 68
     1
 69
     1
 12
252.0438695318036
 22
143.9963910921841
 13
0.0
 23
0.0
 14
10.0
 24
10.0
 15
10.0
 25
10.0
 16
0.0
 26
0.0
 36
1.0
 17
0.0
 27
0.0
 37
0.0
 42
50.0
 43
0.0
 44
0.0
 45
290.3234731553545
 50
0.0
 51
0.0
 72
   100
 90
    32768
  1

281
     0
 71
     1
 74
     0
110
0.0
120
0.0
130
0.0
111
1.0
121
0.0
131
0.0
112
0.0
122
1.0
132
0.0
 79
     0
146
0.0
  0
VIEWPORT
  5
2E
330
15
100
AcDbEntity
 67
     1
  8
M_VIEW
100
AcDbViewport
 10
200.0
 20
144.0
 30
0.0
 40
400.0
 41
288.0
 68
     2
 69
     2
 12
-134.428591988936
 22
538.9429500527362
 13
0.0
 23
0.0
 14
10.0
 24
10.0
 15
10.0
 25
10.0
 16
0.0
 26
0.0
 36
1.0
 17
0.0
 27
0.0
 37
0.0
 42
50.0
 43
0.0
 44
0.0
 45
432.0
 50
0.0
 51
0.0
 72
   100
 90
    32768
  1

281
     0
 71
     1
 74
     0
110
0.0
120
0.0
130
0.0
111
1.0
121
0.0
131
0.0
112
0.0
122
1.0
132
0.0
 79
     0
146
0.0
  0
TEXT
  5
6DC
330
15
100
AcDbEntity
 67
     1
  8
文字改
  6
Continuous
100
AcDbText
 10
387.4022848534178
 20
5.981155417998706
 30
0.0
 40
7.0
  1

 41
0.9529999999999999
100
AcDbText
  0
TEXT
  5
2442
330
15
100
AcDbEntity
 67
     1
  8
文字
100
AcDbText
 10
323.402284853418
 20
6.326609872841799
 30
0.0
 40
7.0
  1
ＳＥ－４３３２２
 41
0.9529999999999999
100
AcDbText
  0
MTEXT
  5
218B8
330
15
100
AcDbEntity
 67
     1
  8
文字
100
AcDbMText
 10
212.2970313077788
 20
24.38056284970512
 30
0.0
 40
6.0
 41
178.8437498150341
 71
     1
 72
     5
  1
τDISCﾓｰﾀ ND110-100-L(INC) NMR-NPEBA2A-201A
 73
     1
 44
1.0
1001
ACAD
1000
MTEXTBEGIN
1070
    73
1070
     1
1070
    44
1040
1.0
1070
    74
1070
     0
1000
MTEXTEND
  0
ENDSEC
  0
SECTION
  2
OBJECTS
  0
DICTIONARY
  5
C
330
0
100
AcDbDictionary
281
     1
  3
ACAD_GROUP
350
D
  3
ACAD_LAYOUT
350
73F
  3
ACAD_MLINESTYLE
350
1B
  3
ACAD_PLOTSETTINGS
350
740
  3
ACAD_PLOTSTYLENAME
350
73D
  3
ACADDIM
350
15E25
  3
ACDBVARIABLEDICTIONARY
350
11AC
  0
DICTIONARY
  5
2163E
330
18
100
AcDbDictionary
280
     1
281
     1
  3
ACAD_LAYOUTSELFREF
360
2194A
  0
DICTIONARY
  5
2163C
330
15
100
AcDbDictionary
280
     1
281
     1
  3
ACAD_LAYOUTSELFREF
360
21949
  0
DICTIONARY
  5
D
102
{ACAD_REACTORS
330
C
102
}
330
C
100
AcDbDictionary
281
     1
  3
*A1
350
DCF
  3
*A10
350
15AD9
  3
*A100
350
1CC78
  3
*A101
350
33A2
  3
*A102
350
4ABC
  3
*A103
350
A62F
  3
*A104
350
1CC9A
  3
*A105
350
B6E5
  3
*A106
350
1CB87
  3
*A107
350
A633
  3
*A108
350
1CB78
  3
*A109
350
15AD7
  3
*A11
350
8213
  3
*A110
350
1CBDA
  3
*A111
350
4214
  3
*A112
350
1CC14
  3
*A113
350
1CC61
  3
*A114
350
1CBD9
  3
*A115
350
15AD6
  3
*A116
350
B6E4
  3
*A117
350
15DAB
  3
*A118
350
B6E7
  3
*A119
350
B6F1
  3
*A12
350
880A
  3
*A120
350
1CBD8
  3
*A121
350
1CC3B
  3
*A122
350
1CC9E
  3
*A123
350
1CC03
  3
*A124
350
16D8F
  3
*A125
350
1CC63
  3
*A126
350
42D2
  3
*A127
350
1CBA6
  3
*A128
350
57B9
  3
*A129
350
10EC
  3
*A13
350
818C
  3
*A130
350
1CB67
  3
*A131
350
1CC64
  3
*A132
350
1CBEC
  3
*A133
350
1CC94
  3
*A134
350
1CBA2
  3
*A135
350
1CC79
  3
*A136
350
6400
  3
*A137
350
1CBC0
  3
*A138
350
1CBA7
  3
*A139
350
1CC80
  3
*A14
350
1CB9F
  3
*A140
350
1CBD1
  3
*A141
350
1CC23
  3
*A142
350
1CB97
  3
*A143
350
1CB7E
  3
*A144
350
8823
  3
*A145
350
339E
  3
*A146
350
1CB8C
  3
*A147
350
1CC6A
  3
*A148
350
5DEC
  3
*A149
350
1CC3C
  3
*A15
350
15AD2
  3
*A150
350
1CB72
  3
*A151
350
2FF6
  3
*A152
350
1CBD2
  3
*A153
350
1CC87
  3
*A154
350
1CC6B
  3
*A155
350
5DF8
  3
*A156
350
1CB80
  3
*A157
350
1CC6C
  3
*A158
350
1CC19
  3
*A159
350
4A14
  3
*A16
350
1CCA2
  3
*A160
350
1CBFE
  3
*A161
350
1CBAF
  3
*A162
350
1CC71
  3
*A163
350
B985
  3
*A164
350
10BF
  3
*A165
350
15AD0
  3
*A166
350
42C0
  3
*A167
350
8809
  3
*A168
350
83B1
  3
*A169
350
1CBE1
  3
*A17
350
1CC35
  3
*A170
350
8804
  3
*A171
350
1CC6F
  3
*A172
350
1CC46
  3
*A173
350
1CC7F
  3
*A174
350
2FF7
  3
*A175
350
1CC89
  3
*A176
350
4AB4
  3
*A177
350
317C
  3
*A178
350
1519E
  3
*A179
350
1CBD6
  3
*A18
350
1CB9E
  3
*A180
350
8217
  3
*A181
350
1CC66
  3
*A182
350
81E6
  3
*A183
350
1CBF7
  3
*A184
350
1CC95
  3
*A185
350
1520F
  3
*A186
350
31CE
  3
*A187
350
2CA5
  3
*A188
350
1CB6D
  3
*A189
350
1CC9D
  3
*A19
350
5E62
  3
*A190
350
1CC43
  3
*A191
350
49DB
  3
*A192
350
8187
  3
*A193
350
B6F2
  3
*A194
350
1CBC4
  3
*A195
350
2C9E
  3
*A196
350
A393
  3
*A197
350
1CC9C
  3
*A198
350
1CC0F
  3
*A199
350
2FF1
  3
*A2
350
5E34
  3
*A20
350
1CC88
  3
*A200
350
1CC0E
  3
*A201
350
1CB90
  3
*A202
350
B6F6
  3
*A203
350
B6E1
  3
*A204
350
1146
  3
*A205
350
116A
  3
*A206
350
1CC0D
  3
*A207
350
1CC67
  3
*A208
350
9650
  3
*A209
350
1CC34
  3
*A21
350
1CB8D
  3
*A210
350
1CC8A
  3
*A211
350
7C28
  3
*A212
350
1CBE0
  3
*A213
350
1122
  3
*A214
350
15D8D
  3
*A215
350
49C1
  3
*A216
350
1CC8B
  3
*A217
350
1CC1F
  3
*A218
350
1CBBC
  3
*A219
350
1110
  3
*A22
350
5E55
  3
*A220
350
20F0B
  3
*A221
350
1CBF8
  3
*A222
350
3183
  3
*A223
350
1CCA5
  3
*A224
350
1CC06
  3
*A225
350
2FE3
  3
*A226
350
1CBD3
  3
*A227
350
1CC51
  3
*A228
350
A5E5
  3
*A229
350
1CB75
  3
*A23
350
A37F
  3
*A230
350
1CC91
  3
*A231
350
178CE
  3
*A232
350
1CC68
  3
*A233
350
1CBB1
  3
*A234
350
B6F5
  3
*A235
350
1CC07
  3
*A236
350
A38F
  3
*A237
350
B6E6
  3
*A238
350
BE9C
  3
*A239
350
1CBBE
  3
*A24
350
1CC92
  3
*A240
350
20F0C
  3
*A241
350
5E29
  3
*A242
350
1CC2F
  3
*A243
350
1CBE8
  3
*A244
350
1CC97
  3
*A245
350
1CC2C
  3
*A246
350
818B
  3
*A247
350
6062
  3
*A248
350
10C8
  3
*A249
350
16D41
  3
*A25
350
1CB9D
  3
*A250
350
1CC15
  3
*A251
350
178D7
  3
*A252
350
1CC25
  3
*A253
350
1CC70
  3
*A254
350
1CCA4
  3
*A255
350
1CC82
  3
*A256
350
109B
  3
*A257
350
81E4
  3
*A258
350
77B9
  3
*A259
350
8818
  3
*A26
350
1CC0B
  3
*A260
350
57BB
  3
*A261
350
1CC8D
  3
*A262
350
106E
  3
*A263
350
1CC29
  3
*A264
350
8222
  3
*A265
350
4AA4
  3
*A266
350
B6EA
  3
*A267
350
8218
  3
*A268
350
1CBAC
  3
*A269
350
15217
  3
*A27
350
1CC6D
  3
*A270
350
1CB8F
  3
*A271
350
B6F0
  3
*A272
350
1CB84
  3
*A273
350
1D0B7
  3
*A274
350
16D1D
  3
*A275
350
1CC00
  3
*A276
350
339B
  3
*A277
350
1CC3F
  3
*A278
350
1CB6C
  3
*A279
350
1CC3E
  3
*A28
350
1CBCC
  3
*A280
350
20F0D
  3
*A281
350
5E4A
  3
*A282
350
4A97
  3
*A283
350
7555
  3
*A284
350
57BC
  3
*A285
350
1CC8E
  3
*A286
350
8221
  3
*A287
350
1CC60
  3
*A288
350
1B66F
  3
*A289
350
B6EE
  3
*A29
350
B980
  3
*A290
350
1CB6E
  3
*A291
350
A3C5
  3
*A292
350
7556
  3
*A293
350
64A5
  3
*A294
350
1CC4D
  3
*A295
350
1CBF4
  3
*A296
350
49E1
  3
*A297
350
4F1E
  3
*A298
350
A37B
  3
*A299
350
57BD
  3
*A3
350
1CC4F
  3
*A30
350
1CC37
  3
*A300
350
5D38
  3
*A301
350
1CC08
  3
*A302
350
1CC7A
  3
*A303
350
1CC9F
  3
*A304
350
1CBB4
  3
*A305
350
114F
  3
*A306
350
1CB5F
  3
*A307
350
1CC8F
  3
*A308
350
1CBEA
  3
*A309
350
1CB64
  3
*A31
350
B982
  3
*A310
350
1CC1B
  3
*A311
350
980E
  3
*A312
350
1CB74
  3
*A313
350
1CBF6
  3
*A314
350
1CBFA
  3
*A315
350
821C
  3
*A316
350
1CC5C
  3
*A317
350
2FE8
  3
*A318
350
4AAE
  3
*A319
350
1CC59
  3
*A32
350
1CC54
  3
*A320
350
1CBB6
  3
*A321
350
1CC24
  3
*A322
350
1D0BB
  3
*A323
350
1CC44
  3
*A324
350
4989
  3
*A325
350
1CC53
  3
*A326
350
1CC96
  3
*A327
350
10B6
  3
*A328
350
1CCA6
  3
*A329
350
113D
  3
*A33
350
151DD
  3
*A330
350
1CBF9
  3
*A331
350
10D1
  3
*A332
350
156A8
  3
*A333
350
8805
  3
*A334
350
B981
  3
*A335
350
1CC93
  3
*A336
350
20F0E
  3
*A337
350
A3CD
  3
*A338
350
151CD
  3
*A339
350
1134
  3
*A34
350
1CBE6
  3
*A340
350
A3C1
  3
*A341
350
1CBCB
  3
*A342
350
9656
  3
*A343
350
1CBC1
  3
*A344
350
1CB65
  3
*A345
350
57BF
  3
*A346
350
1CC31
  3
*A347
350
1065
  3
*A348
350
9808
  3
*A349
350
820D
  3
*A35
350
1161
  3
*A350
350
42D1
  3
*A351
350
A63B
  3
*A352
350
328C
  3
*A353
350
10DA
  3
*A354
350
B6EB
  3
*A355
350
B6F9
  3
*A356
350
1092
  3
*A357
350
512A
  3
*A358
350
B6F3
  3
*A359
350
1CB88
  3
*A36
350
1CBAD
  3
*A360
350
1089
  3
*A361
350
1CB79
  3
*A362
350
B984
  3
*A363
350
1CC76
  3
*A364
350
1CC26
  3
*A365
350
1CC56
  3
*A366
350
B6E2
  3
*A367
350
1CB5E
  3
*A368
350
1CB73
  3
*A369
350
5C9F
  3
*A37
350
1CC38
  3
*A370
350
4AB1
  3
*A371
350
33BA
  3
*A372
350
1CBED
  3
*A373
350
820E
  3
*A374
350
1CBA1
  3
*A375
350
A397
  3
*A376
350
1CC2D
  3
*A377
350
1CBA4
  3
*A378
350
1CC4A
  3
*A379
350
606A
  3
*A38
350
1CBB3
  3
*A380
350
1CC28
  3
*A381
350
605A
  3
*A382
350
4992
  3
*A383
350
1CC84
  3
*A384
350
B986
  3
*A385
350
1CB66
  3
*A386
350
1CC81
  3
*A387
350
1CBEF
  3
*A388
350
1CC52
  3
*A389
350
49DE
  3
*A39
350
1CC6E
  3
*A390
350
1CC2B
  3
*A391
350
2FE9
  3
*A392
350
151E6
  3
*A393
350
1CC75
  3
*A394
350
1CC3D
  3
*A395
350
20F0F
  3
*A396
350
1CBB0
  3
*A397
350
1CB85
  3
*A398
350
5134
  3
*A399
350
881D
  3
*A4
350
806F
  3
*A40
350
1CB62
  3
*A400
350
5129
  3
*A401
350
10F5
  3
*A402
350
15AD5
  3
*A403
350
20F10
  3
*A404
350
5E04
  3
*A405
350
1CC02
  3
*A406
350
1CBAE
  3
*A407
350
20F11
  3
*A408
350
1CBA5
  3
*A409
350
2105C
  3
*A41
350
1CC50
  3
*A410
350
49C7
  3
*A411
350
B97C
  3
*A412
350
57BE
  3
*A413
350
1CB77
  3
*A414
350
1CB82
  3
*A415
350
151BD
  3
*A416
350
881E
  3
*A417
350
10A4
  3
*A418
350
1107
  3
*A419
350
8212
  3
*A42
350
7C29
  3
*A420
350
1BB46
  3
*A421
350
210C5
  3
*A422
350
4A96
  3
*A423
350
1CBB7
  3
*A424
350
210C6
  3
*A425
350
1CC48
  3
*A426
350
178CD
  3
*A427
350
1CC7E
  3
*A428
350
9655
  3
*A429
350
1CBA0
  3
*A43
350
1CBB2
  3
*A430
350
5133
  3
*A431
350
5E5F
  3
*A432
350
1080
  3
*A433
350
1CC20
  3
*A434
350
822C
  3
*A435
350
1CBDC
  3
*A436
350
5DE0
  3
*A437
350
1CC5A
  3
*A438
350
1CBDE
  3
*A439
350
822B
  3
*A44
350
1CBB9
  3
*A440
350
7AE6
  3
*A441
350
33B9
  3
*A442
350
1BC31
  3
*A443
350
7C2A
  3
*A444
350
1CBC8
  3
*A445
350
A3B9
  3
*A446
350
880E
  3
*A447
350
1CC22
  3
*A448
350
317D
  3
*A449
350
10E3
  3
*A45
350
1CC58
  3
*A450
350
1CB91
  3
*A451
350
8814
  3
*A452
350
1CC9B
  3
*A453
350
1CC69
  3
*A454
350
1CC55
  3
*A455
350
1CB93
  3
*A456
350
1CBC2
  3
*A457
350
1CB7D
  3
*A458
350
1CB71
  3
*A459
350
151EE
  3
*A46
350
1CB5D
  3
*A460
350
1CB9C
  3
*A461
350
A3D1
  3
*A462
350
8819
  3
*A463
350
1CC33
  3
*A464
350
8072
  3
*A465
350
1CBE7
  3
*A466
350
1CBDF
  3
*A467
350
1CBC6
  3
*A468
350
498F
  3
*A469
350
5E65
  3
*A47
350
1CB95
  3
*A470
350
B6FC
  3
*A471
350
8043
  3
*A472
350
A383
  3
*A473
350
B6ED
  3
*A474
350
1CB7C
  3
*A475
350
16DB8
  3
*A476
350
1CB98
  3
*A477
350
964C
  3
*A478
350
A387
  3
*A479
350
A3EA
  3
*A48
350
1CBF0
  3
*A480
350
8065
  3
*A481
350
1CC72
  3
*A482
350
1BC2B
  3
*A483
350
1CCA3
  3
*A484
350
1CBC9
  3
*A485
350
1CBDB
  3
*A486
350
1CB99
  3
*A487
350
A637
  3
*A488
350
5F9B
  3
*A489
350
1CC4E
  3
*A49
350
818A
  3
*A490
350
1CC10
  3
*A491
350
1CBC5
  3
*A492
350
A63F
  3
*A493
350
1CC12
  3
*A494
350
9807
  3
*A495
350
3289
  3
*A496
350
81E1
  3
*A497
350
77C8
  3
*A498
350
1CB7F
  3
*A499
350
1CBFF
  3
*A5
350
498C
  3
*A50
350
B6FD
  3
*A500
350
1CC5E
  3
*A501
350
1CB63
  3
*A502
350
980D
  3
*A503
350
B6EC
  3
*A504
350
1CB76
  3
*A505
350
151FF
  3
*A506
350
1CC90
  3
*A507
350
1CB8E
  3
*A508
350
1CBCF
  3
*A509
350
4986
  3
*A51
350
1CBBB
  3
*A510
350
A3B5
  3
*A511
350
1A86F
  3
*A512
350
1CBD7
  3
*A513
350
1CC1A
  3
*A514
350
A3C9
  3
*A515
350
33BD
  3
*A516
350
4995
  3
*A517
350
1CBFD
  3
*A518
350
1CC13
  3
*A519
350
5E6B
  3
*A52
350
DED1
  3
*A520
350
1077
  3
*A521
350
1CC01
  3
*A522
350
1CBBD
  3
*A523
350
B6E8
  3
*A524
350
15AD3
  3
*A525
350
1CBBA
  3
*A526
350
1CBFC
  3
*A527
350
499B
  3
*A528
350
1CB68
  3
*A529
350
8227
  3
*A53
350
4F1D
  3
*A530
350
1158
  3
*A531
350
1CC98
  3
*A532
350
1CB92
  3
*A533
350
1CBDD
  3
*A534
350
15AD1
  3
*A535
350
64A1
  3
*A536
350
1CBD4
  3
*A537
350
8051
  3
*A538
350
5128
  3
*A539
350
1CC77
  3
*A54
350
1CC40
  3
*A540
350
15D9C
  3
*A541
350
B6FA
  3
*A542
350
B6F4
  3
*A543
350
B6FB
  3
*A544
350
1CB6A
  3
*A545
350
B6E9
  3
*A546
350
49E4
  3
*A547
350
A38B
  3
*A548
350
1CC30
  3
*A549
350
1CC86
  3
*A55
350
10AD
  3
*A550
350
2A28
  3
*A551
350
5E1D
  3
*A552
350
1CBB5
  3
*A553
350
64AD
  3
*A554
350
112B
  3
*A555
350
1CBCA
  3
*A556
350
7AE5
  3
*A557
350
8822
  3
*A558
350
1CBE9
  3
*A559
350
1A62E
  3
*A56
350
1CC0C
  3
*A560
350
1CC49
  3
*A561
350
1CBAA
  3
*A562
350
6F78
  3
*A563
350
1B962
  3
*A564
350
1CC2E
  3
*A565
350
64A9
  3
*A566
350
15DBA
  3
*A567
350
16041
  3
*A568
350
1CC32
  3
*A569
350
1CBF5
  3
*A57
350
83B2
  3
*A570
350
4980
  3
*A571
350
1CBF2
  3
*A572
350
8062
  3
*A573
350
7AD2
  3
*A574
350
1CBA8
  3
*A575
350
1CB69
  3
*A576
350
65A8
  3
*A577
350
A3BD
  3
*A578
350
1CBCE
  3
*A579
350
1CC11
  3
*A58
350
3286
  3
*A580
350
880F
  3
*A581
350
1CC09
  3
*A582
350
1CB83
  3
*A583
350
1CB6B
  3
*A584
350
B6EF
  3
*A585
350
1CB94
  3
*A586
350
B6FE
  3
*A587
350
1A74B
  3
*A588
350
1CB9A
  3
*A589
350
77D2
  3
*A59
350
5CA6
  3
*A590
350
8189
  3
*A591
350
5E3F
  3
*A592
350
1CC5D
  3
*A593
350
7AF2
  3
*A594
350
1CB7A
  3
*A595
350
42BF
  3
*A596
350
1CBEE
  3
*A597
350
3398
  3
*A598
350
1B6AC
  3
*A599
350
15AD8
  3
*A6
350
6221
  3
*A60
350
1CB96
  3
*A600
350
1CC1C
  3
*A601
350
A3EB
  3
*A602
350
1CC73
  3
*A603
350
1CBE4
  3
*A604
350
10FE
  3
*A605
350
B6E3
  3
*A606
350
1CC5B
  3
*A607
350
8813
  3
*A608
350
BE9B
  3
*A609
350
1CB86
  3
*A61
350
1CC5F
  3
*A610
350
1CC27
  3
*A611
350
1CB81
  3
*A612
350
4998
  3
*A613
350
5DD4
  3
*A614
350
5DC8
  3
*A615
350
1CBE2
  3
*A616
350
1CBA9
  3
*A617
350
2FE2
  3
*A618
350
3522
  3
*A619
350
1CC05
  3
*A62
350
1CC41
  3
*A620
350
1CC7B
  3
*A621
350
1CC39
  3
*A622
350
1CBEB
  3
*A623
350
1CBAB
  3
*A624
350
4ABD
  3
*A625
350
1CBD0
  3
*A626
350
16D65
  3
*A627
350
5F9C
  3
*A628
350
1CBD5
  3
*A629
350
1CB8A
  3
*A63
350
5D44
  3
*A630
350
1CC7C
  3
*A631
350
1CC85
  3
*A632
350
B6E0
  3
*A633
350
1CBB8
  3
*A634
350
1CB60
  3
*A635
350
1CC21
  3
*A636
350
B6F8
  3
*A637
350
15AD4
  3
*A638
350
4A10
  3
*A639
350
1CC4B
  3
*A64
350
1B963
  3
*A640
350
1CC83
  3
*A641
350
1CC18
  3
*A642
350
1BB28
  3
*A643
350
B97D
  3
*A644
350
1CC99
  3
*A645
350
3487
  3
*A646
350
83DB
  3
*A647
350
1CBC3
  3
*A648
350
B983
  3
*A649
350
1CBBF
  3
*A65
350
1CC42
  3
*A650
350
619C
  3
*A651
350
7AC6
  3
*A652
350
1CC16
  3
*A653
350
1CBE3
  3
*A654
350
1CC2A
  3
*A655
350
2C9A
  3
*A656
350
1CC36
  3
*A657
350
1CCA0
  3
*A658
350
1CC65
  3
*A659
350
1CC1E
  3
*A66
350
1CBE5
  3
*A660
350
5E6E
  3
*A661
350
8226
  3
*A662
350
1CB6F
  3
*A663
350
57BA
  3
*A664
350
1CC0A
  3
*A665
350
49A1
  3
*A666
350
1CCA1
  3
*A667
350
5E68
  3
*A668
350
1119
  3
*A669
350
1CBF1
  3
*A67
350
15207
  3
*A670
350
6F77
  3
*A671
350
965C
  3
*A68
350
1CC7D
  3
*A69
350
1CBC7
  3
*A7
350
1CC74
  3
*A70
350
4983
  3
*A71
350
1CC47
  3
*A72
350
1CB89
  3
*A73
350
151F7
  3
*A74
350
151AD
  3
*A75
350
49C4
  3
*A76
350
1CB70
  3
*A77
350
1CBFB
  3
*A78
350
8375
  3
*A79
350
1CC04
  3
*A8
350
3305
  3
*A80
350
B6F7
  3
*A81
350
1CC45
  3
*A82
350
1CC17
  3
*A83
350
1CC57
  3
*A84
350
1CC1D
  3
*A85
350
1CC62
  3
*A86
350
1CBA3
  3
*A87
350
1CC8C
  3
*A88
350
1CC4C
  3
*A89
350
1CB9B
  3
*A9
350
2CA6
  3
*A90
350
49CA
  3
*A91
350
1CB8B
  3
*A92
350
1CC3A
  3
*A93
350
1CB61
  3
*A94
350
1CBCD
  3
*A95
350
1CBF3
  3
*A96
350
1CB7B
  3
*A97
350
821D
  3
*A98
350
512B
  3
*A99
350
499E
  0
DICTIONARY
  5
73F
102
{ACAD_REACTORS
330
C
102
}
330
C
100
AcDbDictionary
281
     1
  3
Model
350
21952
  3
ﾚｲｱｳﾄ1
350
21953
  0
DICTIONARY
  5
1B
102
{ACAD_REACTORS
330
C
102
}
330
C
100
AcDbDictionary
281
     1
  3
STANDARD
350
1C
  0
DICTIONARY
  5
740
102
{ACAD_REACTORS
330
C
102
}
330
C
100
AcDbDictionary
281
     1
  0
ACDBDICTIONARYWDFLT
  5
73D
102
{ACAD_REACTORS
330
C
102
}
330
C
100
AcDbDictionary
281
     1
  3
Normal
350
73E
100
AcDbDictionaryWithDefault
340
73E
  0
XRECORD
  5
15E25
102
{ACAD_REACTORS
330
C
102
}
330
C
100
AcDbXrecord
280
     1
 90
   990106
  3

 60
     0
 61
     0
 62
     4
 63
     4
 64
     1
 65
     0
 66
     0
 67
     3
 68
     1
 69
     0
 70
     0
 71
     0
 72
     0
 40
0.0
170
     2
  0
DICTIONARY
  5
11AC
102
{ACAD_REACTORS
330
C
102
}
330
C
100
AcDbDictionary
281
     1
  3
DIMASSOC
350
11AD
  3
SORTENTS
350
AD08
  0
XRECORD
  5
2194A
102
{ACAD_REACTORS
330
2163E
102
}
330
2163E
100
AcDbXrecord
280
     1
340
18
  0
XRECORD
  5
21949
102
{ACAD_REACTORS
330
2163C
102
}
330
2163C
100
AcDbXrecord
280
     1
340
15
  0
GROUP
  5
DCF
102
{ACAD_REACTORS
330
D
102
}
330
D
100
AcDbGroup
300

 70
     1
 71
     1
  0
GROUP
  5
15AD9
102
{ACAD_REACTORS
330
D
102
}
330
D
100
AcDbGroup
300

 70
     1
 71
     1
  0
GROUP
  5
1CC78
102
{ACAD_REACTORS
330
D
102
}
330
D
100
AcDbGroup
300

 70
     1
 71
     1
  0
GROUP
  5
33A2
102
{ACAD_REACTORS
330
D
102
}
330
D
100
AcDbGroup
300

 70
     1
 71
     1
  0
GROUP
  5
4ABC
102
{ACAD_REACTORS
330
D
102
}
330
D
100
AcDbGroup
300

 70
     1
 71
     1
  0
GROUP
  5
A62F
102
{ACAD_REACTORS
330
D
102
}
330
D
100
AcDbGroup
300

 70
     1
 71
     1
  0
GROUP
  5
1CC9A
102
{ACAD_REACTORS
330
D
102
}
330
D
100
AcDbGroup
300

 70
     1
 71
     1
  0
GROUP
  5
B6E5
102
{ACAD_REACTORS
330
D
102
}
330
D
100
AcDbGroup
300

 70
     1
 71
     1
  0
GROUP
  5
1CB87
102
{ACAD_REACTORS
330
D
102
}
330
D
100
AcDbGroup
300

 70
     1
 71
     1
  0
GROUP
  5
A633
102
{ACAD_REACTORS
330
D
102
}
330
D
100
AcDbGroup
300

 70
     1
 71
     1
  0
GROUP
  5
1CB78
102
{ACAD_REACTORS
330
D
102
}
330
D
100
AcDbGroup
300

 70
     1
 71
     1
  0
GROUP
  5
15AD7
102
{ACAD_REACTORS
330
D
102
}
330
D
100
AcDbGroup
300

 70
     1
 71
     1
  0
GROUP
  5
8213
102
{ACAD_REACTORS
330
D
102
}
330
D
100
AcDbGroup
300

 70
     1
 71
     1
  0
GROUP
  5
1CBDA
102
{ACAD_REACTORS
330
D
102
}
330
D
100
AcDbGroup
300

 70
     1
 71
     1
  0
GROUP
  5
4214
102
{ACAD_REACTORS
330
D
102
}
330
D
100
AcDbGroup
300

 70
     1
 71
     1
  0
GROUP
  5
1CC14
102
{ACAD_REACTORS
330
D
102
}
330
D
100
AcDbGroup
300

 70
     1
 71
     1
  0
GROUP
  5
1CC61
102
{ACAD_REACTORS
330
D
102
}
330
D
100
AcDbGroup
300

 70
     1
 71
     1
  0
GROUP
  5
1CBD9
102
{ACAD_REACTORS
330
D
102
}
330
D
100
AcDbGroup
300

 70
     1
 71
     1
  0
GROUP
  5
15AD6
102
{ACAD_REACTORS
330
D
102
}
330
D
100
AcDbGroup
300

 70
     1
 71
     1
  0
GROUP
  5
B6E4
102
{ACAD_REACTORS
330
D
102
}
330
D
100
AcDbGroup
300

 70
     1
 71
     1
  0
GROUP
  5
15DAB
102
{ACAD_REACTORS
330
D
102
}
330
D
100
AcDbGroup
300

 70
     1
 71
     1
  0
GROUP
  5
B6E7
102
{ACAD_REACTORS
330
D
102
}
330
D
100
AcDbGroup
300

 70
     1
 71
     1
  0
GROUP
  5
B6F1
102
{ACAD_REACTORS
330
D
102
}
330
D
100
AcDbGroup
300

 70
     1
 71
     1
  0
GROUP
  5
880A
102
{ACAD_REACTORS
330
D
102
}
330
D
100
AcDbGroup
300

 70
     1
 71
     1
  0
GROUP
  5
1CBD8
102
{ACAD_REACTORS
330
D
102
}
330
D
100
AcDbGroup
300

 70
     1
 71
     1
  0
GROUP
  5
1CC3B
102
{ACAD_REACTORS
330
D
102
}
330
D
100
AcDbGroup
300

 70
     1
 71
     1
  0
GROUP
  5
1CC9E
102
{ACAD_REACTORS
330
D
102
}
330
D
100
AcDbGroup
300

 70
     1
 71
     1
  0
GROUP
  5
1CC03
102
{ACAD_REACTORS
330
D
102
}
330
D
100
AcDbGroup
300

 70
     1
 71
     1
  0
GROUP
  5
16D8F
102
{ACAD_REACTORS
330
D
102
}
330
D
100
AcDbGroup
300

 70
     1
 71
     1
  0
GROUP
  5
1CC63
102
{ACAD_REACTORS
330
D
102
}
330
D
100
AcDbGroup
300

 70
     1
 71
     1
  0
GROUP
  5
42D2
102
{ACAD_REACTORS
330
D
102
}
330
D
100
AcDbGroup
300

 70
     1
 71
     1
  0
GROUP
  5
1CBA6
102
{ACAD_REACTORS
330
D
102
}
330
D
100
AcDbGroup
300

 70
     1
 71
     1
  0
GROUP
  5
57B9
102
{ACAD_REACTORS
330
D
102
}
330
D
100
AcDbGroup
300

 70
     1
 71
     1
  0
GROUP
  5
10EC
102
{ACAD_REACTORS
330
D
102
}
330
D
100
AcDbGroup
300

 70
     1
 71
     1
  0
GROUP
  5
818C
102
{ACAD_REACTORS
330
D
102
}
330
D
100
AcDbGroup
300

 70
     1
 71
     1
  0
GROUP
  5
1CB67
102
{ACAD_REACTORS
330
D
102
}
330
D
100
AcDbGroup
300

 70
     1
 71
     1
  0
GROUP
  5
1CC64
102
{ACAD_REACTORS
330
D
102
}
330
D
100
AcDbGroup
300

 70
     1
 71
     1
  0
GROUP
  5
1CBEC
102
{ACAD_REACTORS
330
D
102
}
330
D
100
AcDbGroup
300

 70
     1
 71
     1
  0
GROUP
  5
1CC94
102
{ACAD_REACTORS
330
D
102
}
330
D
100
AcDbGroup
300

 70
     1
 71
     1
  0
GROUP
  5
1CBA2
102
{ACAD_REACTORS
330
D
102
}
330
D
100
AcDbGroup
300

 70
     1
 71
     1
  0
GROUP
  5
1CC79
102
{ACAD_REACTORS
330
D
102
}
330
D
100
AcDbGroup
300

 70
     1
 71
     1
  0
GROUP
  5
6400
102
{ACAD_REACTORS
330
D
102
}
330
D
100
AcDbGroup
300

 70
     1
 71
     1
  0
GROUP
  5
1CBC0
102
{ACAD_REACTORS
330
D
102
}
330
D
100
AcDbGroup
300

 70
     1
 71
     1
  0
GROUP
  5
1CBA7
102
{ACAD_REACTORS
330
D
102
}
330
D
100
AcDbGroup
300

 70
     1
 71
     1
  0
GROUP
  5
1CC80
102
{ACAD_REACTORS
330
D
102
}
330
D
100
AcDbGroup
300

 70
     1
 71
     1
  0
GROUP
  5
1CB9F
102
{ACAD_REACTORS
330
D
102
}
330
D
100
AcDbGroup
300

 70
     1
 71
     1
  0
GROUP
  5
1CBD1
102
{ACAD_REACTORS
330
D
102
}
330
D
100
AcDbGroup
300

 70
     1
 71
     1
  0
GROUP
  5
1CC23
102
{ACAD_REACTORS
330
D
102
}
330
D
100
AcDbGroup
300

 70
     1
 71
     1
  0
GROUP
  5
1CB97
102
{ACAD_REACTORS
330
D
102
}
330
D
100
AcDbGroup
300

 70
     1
 71
     1
  0
GROUP
  5
1CB7E
102
{ACAD_REACTORS
330
D
102
}
330
D
100
AcDbGroup
300

 70
     1
 71
     1
  0
GROUP
  5
8823
102
{ACAD_REACTORS
330
D
102
}
330
D
100
AcDbGroup
300

 70
     1
 71
     1
  0
GROUP
  5
339E
102
{ACAD_REACTORS
330
D
102
}
330
D
100
AcDbGroup
300

 70
     1
 71
     1
  0
GROUP
  5
1CB8C
102
{ACAD_REACTORS
330
D
102
}
330
D
100
AcDbGroup
300

 70
     1
 71
     1
  0
GROUP
  5
1CC6A
102
{ACAD_REACTORS
330
D
102
}
330
D
100
AcDbGroup
300

 70
     1
 71
     1
  0
GROUP
  5
5DEC
102
{ACAD_REACTORS
330
D
102
}
330
D
100
AcDbGroup
300

 70
     1
 71
     1
  0
GROUP
  5
1CC3C
102
{ACAD_REACTORS
330
D
102
}
330
D
100
AcDbGroup
300

 70
     1
 71
     1
  0
GROUP
  5
15AD2
102
{ACAD_REACTORS
330
D
102
}
330
D
100
AcDbGroup
300

 70
     1
 71
     1
  0
GROUP
  5
1CB72
102
{ACAD_REACTORS
330
D
102
}
330
D
100
AcDbGroup
300

 70
     1
 71
     1
  0
GROUP
  5
2FF6
102
{ACAD_REACTORS
330
D
102
}
330
D
100
AcDbGroup
300

 70
     1
 71
     1
  0
GROUP
  5
1CBD2
102
{ACAD_REACTORS
330
D
102
}
330
D
100
AcDbGroup
300

 70
     1
 71
     1
  0
GROUP
  5
1CC87
102
{ACAD_REACTORS
330
D
102
}
330
D
100
AcDbGroup
300

 70
     1
 71
     1
  0
GROUP
  5
1CC6B
102
{ACAD_REACTORS
330
D
102
}
330
D
100
AcDbGroup
300

 70
     1
 71
     1
  0
GROUP
  5
5DF8
102
{ACAD_REACTORS
330
D
102
}
330
D
100
AcDbGroup
300

 70
     1
 71
     1
  0
GROUP
  5
1CB80
102
{ACAD_REACTORS
330
D
102
}
330
D
100
AcDbGroup
300

 70
     1
 71
     1
  0
GROUP
  5
1CC6C
102
{ACAD_REACTORS
330
D
102
}
330
D
100
AcDbGroup
300

 70
     1
 71
     1
  0
GROUP
  5
1CC19
102
{ACAD_REACTORS
330
D
102
}
330
D
100
AcDbGroup
300

 70
     1
 71
     1
  0
GROUP
  5
4A14
102
{ACAD_REACTORS
330
D
102
}
330
D
100
AcDbGroup
300

 70
     1
 71
     1
  0
GROUP
  5
1CCA2
102
{ACAD_REACTORS
330
D
102
}
330
D
100
AcDbGroup
300

 70
     1
 71
     1
  0
GROUP
  5
1CBFE
102
{ACAD_REACTORS
330
D
102
}
330
D
100
AcDbGroup
300

 70
     1
 71
     1
  0
GROUP
  5
1CBAF
102
{ACAD_REACTORS
330
D
102
}
330
D
100
AcDbGroup
300

 70
     1
 71
     1
  0
GROUP
  5
1CC71
102
{ACAD_REACTORS
330
D
102
}
330
D
100
AcDbGroup
300

 70
     1
 71
     1
  0
GROUP
  5
B985
102
{ACAD_REACTORS
330
D
102
}
330
D
100
AcDbGroup
300

 70
     1
 71
     1
  0
GROUP
  5
10BF
102
{ACAD_REACTORS
330
D
102
}
330
D
100
AcDbGroup
300

 70
     1
 71
     1
  0
GROUP
  5
15AD0
102
{ACAD_REACTORS
330
D
102
}
330
D
100
AcDbGroup
300

 70
     1
 71
     1
  0
GROUP
  5
42C0
102
{ACAD_REACTORS
330
D
102
}
330
D
100
AcDbGroup
300

 70
     1
 71
     1
  0
GROUP
  5
8809
102
{ACAD_REACTORS
330
D
102
}
330
D
100
AcDbGroup
300

 70
     1
 71
     1
  0
GROUP
  5
83B1
102
{ACAD_REACTORS
330
D
102
}
330
D
100
AcDbGroup
300

 70
     1
 71
     1
  0
GROUP
  5
1CBE1
102
{ACAD_REACTORS
330
D
102
}
330
D
100
AcDbGroup
300

 70
     1
 71
     1
  0
GROUP
  5
1CC35
102
{ACAD_REACTORS
330
D
102
}
330
D
100
AcDbGroup
300

 70
     1
 71
     1
  0
GROUP
  5
8804
102
{ACAD_REACTORS
330
D
102
}
330
D
100
AcDbGroup
300

 70
     1
 71
     1
  0
GROUP
  5
1CC6F
102
{ACAD_REACTORS
330
D
102
}
330
D
100
AcDbGroup
300

 70
     1
 71
     1
  0
GROUP
  5
1CC46
102
{ACAD_REACTORS
330
D
102
}
330
D
100
AcDbGroup
300

 70
     1
 71
     1
  0
GROUP
  5
1CC7F
102
{ACAD_REACTORS
330
D
102
}
330
D
100
AcDbGroup
300

 70
     1
 71
     1
  0
GROUP
  5
2FF7
102
{ACAD_REACTORS
330
D
102
}
330
D
100
AcDbGroup
300

 70
     1
 71
     1
  0
GROUP
  5
1CC89
102
{ACAD_REACTORS
330
D
102
}
330
D
100
AcDbGroup
300

 70
     1
 71
     1
  0
GROUP
  5
4AB4
102
{ACAD_REACTORS
330
D
102
}
330
D
100
AcDbGroup
300

 70
     1
 71
     1
  0
GROUP
  5
317C
102
{ACAD_REACTORS
330
D
102
}
330
D
100
AcDbGroup
300

 70
     1
 71
     1
  0
GROUP
  5
1519E
102
{ACAD_REACTORS
330
D
102
}
330
D
100
AcDbGroup
300

 70
     1
 71
     1
  0
GROUP
  5
1CBD6
102
{ACAD_REACTORS
330
D
102
}
330
D
100
AcDbGroup
300

 70
     1
 71
     1
  0
GROUP
  5
1CB9E
102
{ACAD_REACTORS
330
D
102
}
330
D
100
AcDbGroup
300

 70
     1
 71
     1
  0
GROUP
  5
8217
102
{ACAD_REACTORS
330
D
102
}
330
D
100
AcDbGroup
300

 70
     1
 71
     1
  0
GROUP
  5
1CC66
102
{ACAD_REACTORS
330
D
102
}
330
D
100
AcDbGroup
300

 70
     1
 71
     1
  0
GROUP
  5
81E6
102
{ACAD_REACTORS
330
D
102
}
330
D
100
AcDbGroup
300

 70
     1
 71
     1
  0
GROUP
  5
1CBF7
102
{ACAD_REACTORS
330
D
102
}
330
D
100
AcDbGroup
300

 70
     1
 71
     1
  0
GROUP
  5
1CC95
102
{ACAD_REACTORS
330
D
102
}
330
D
100
AcDbGroup
300

 70
     1
 71
     1
  0
GROUP
  5
1520F
102
{ACAD_REACTORS
330
D
102
}
330
D
100
AcDbGroup
300

 70
     1
 71
     1
  0
GROUP
  5
31CE
102
{ACAD_REACTORS
330
D
102
}
330
D
100
AcDbGroup
300

 70
     1
 71
     1
  0
GROUP
  5
2CA5
102
{ACAD_REACTORS
330
D
102
}
330
D
100
AcDbGroup
300

 70
     1
 71
     1
  0
GROUP
  5
1CB6D
102
{ACAD_REACTORS
330
D
102
}
330
D
100
AcDbGroup
300

 70
     1
 71
     1
  0
GROUP
  5
1CC9D
102
{ACAD_REACTORS
330
D
102
}
330
D
100
AcDbGroup
300

 70
     1
 71
     1
  0
GROUP
  5
5E62
102
{ACAD_REACTORS
330
D
102
}
330
D
100
AcDbGroup
300

 70
     1
 71
     1
  0
GROUP
  5
1CC43
102
{ACAD_REACTORS
330
D
102
}
330
D
100
AcDbGroup
300

 70
     1
 71
     1
  0
GROUP
  5
49DB
102
{ACAD_REACTORS
330
D
102
}
330
D
100
AcDbGroup
300

 70
     1
 71
     1
  0
GROUP
  5
8187
102
{ACAD_REACTORS
330
D
102
}
330
D
100
AcDbGroup
300

 70
     1
 71
     1
  0
GROUP
  5
B6F2
102
{ACAD_REACTORS
330
D
102
}
330
D
100
AcDbGroup
300

 70
     1
 71
     1
  0
GROUP
  5
1CBC4
102
{ACAD_REACTORS
330
D
102
}
330
D
100
AcDbGroup
300

 70
     1
 71
     1
  0
GROUP
  5
2C9E
102
{ACAD_REACTORS
330
D
102
}
330
D
100
AcDbGroup
300

 70
     1
 71
     1
  0
GROUP
  5
A393
102
{ACAD_REACTORS
330
D
102
}
330
D
100
AcDbGroup
300

 70
     1
 71
     1
  0
GROUP
  5
1CC9C
102
{ACAD_REACTORS
330
D
102
}
330
D
100
AcDbGroup
300

 70
     1
 71
     1
  0
GROUP
  5
1CC0F
102
{ACAD_REACTORS
330
D
102
}
330
D
100
AcDbGroup
300

 70
     1
 71
     1
  0
GROUP
  5
2FF1
102
{ACAD_REACTORS
330
D
102
}
330
D
100
AcDbGroup
300

 70
     1
 71
     1
  0
GROUP
  5
5E34
102
{ACAD_REACTORS
330
D
102
}
330
D
100
AcDbGroup
300

 70
     1
 71
     1
  0
GROUP
  5
1CC88
102
{ACAD_REACTORS
330
D
102
}
330
D
100
AcDbGroup
300

 70
     1
 71
     1
  0
GROUP
  5
1CC0E
102
{ACAD_REACTORS
330
D
102
}
330
D
100
AcDbGroup
300

 70
     1
 71
     1
  0
GROUP
  5
1CB90
102
{ACAD_REACTORS
330
D
102
}
330
D
100
AcDbGroup
300

 70
     1
 71
     1
  0
GROUP
  5
B6F6
102
{ACAD_REACTORS
330
D
102
}
330
D
100
AcDbGroup
300

 70
     1
 71
     1
  0
GROUP
  5
B6E1
102
{ACAD_REACTORS
330
D
102
}
330
D
100
AcDbGroup
300

 70
     1
 71
     1
  0
GROUP
  5
1146
102
{ACAD_REACTORS
330
D
102
}
330
D
100
AcDbGroup
300

 70
     1
 71
     1
  0
GROUP
  5
116A
102
{ACAD_REACTORS
330
D
102
}
330
D
100
AcDbGroup
300

 70
     1
 71
     1
  0
GROUP
  5
1CC0D
102
{ACAD_REACTORS
330
D
102
}
330
D
100
AcDbGroup
300

 70
     1
 71
     1
  0
GROUP
  5
1CC67
102
{ACAD_REACTORS
330
D
102
}
330
D
100
AcDbGroup
300

 70
     1
 71
     1
  0
GROUP
  5
9650
102
{ACAD_REACTORS
330
D
102
}
330
D
100
AcDbGroup
300

 70
     1
 71
     1
  0
GROUP
  5
1CC34
102
{ACAD_REACTORS
330
D
102
}
330
D
100
AcDbGroup
300

 70
     1
 71
     1
  0
GROUP
  5
1CB8D
102
{ACAD_REACTORS
330
D
102
}
330
D
100
AcDbGroup
300

 70
     1
 71
     1
  0
GROUP
  5
1CC8A
102
{ACAD_REACTORS
330
D
102
}
330
D
100
AcDbGroup
300

 70
     3
 71
     1
  0
GROUP
  5
7C28
102
{ACAD_REACTORS
330
D
102
}
330
D
100
AcDbGroup
300

 70
     1
 71
     1
  0
GROUP
  5
1CBE0
102
{ACAD_REACTORS
330
D
102
}
330
D
100
AcDbGroup
300

 70
     1
 71
     1
  0
GROUP
  5
1122
102
{ACAD_REACTORS
330
D
102
}
330
D
100
AcDbGroup
300

 70
     1
 71
     1
  0
GROUP
  5
15D8D
102
{ACAD_REACTORS
330
D
102
}
330
D
100
AcDbGroup
300

 70
     1
 71
     1
  0
GROUP
  5
49C1
102
{ACAD_REACTORS
330
D
102
}
330
D
100
AcDbGroup
300

 70
     1
 71
     1
  0
GROUP
  5
1CC8B
102
{ACAD_REACTORS
330
D
102
}
330
D
100
AcDbGroup
300

 70
     1
 71
     1
  0
GROUP
  5
1CC1F
102
{ACAD_REACTORS
330
D
102
}
330
D
100
AcDbGroup
300

 70
     1
 71
     1
  0
GROUP
  5
1CBBC
102
{ACAD_REACTORS
330
D
102
}
330
D
100
AcDbGroup
300

 70
     1
 71
     1
  0
GROUP
  5
1110
102
{ACAD_REACTORS
330
D
102
}
330
D
100
AcDbGroup
300

 70
     1
 71
     1
  0
GROUP
  5
5E55
102
{ACAD_REACTORS
330
D
102
}
330
D
100
AcDbGroup
300

 70
     1
 71
     1
  0
GROUP
  5
20F0B
102
{ACAD_REACTORS
330
D
102
}
330
D
100
AcDbGroup
300

 70
     1
 71
     1
  0
GROUP
  5
1CBF8
102
{ACAD_REACTORS
330
D
102
}
330
D
100
AcDbGroup
300

 70
     1
 71
     1
  0
GROUP
  5
3183
102
{ACAD_REACTORS
330
D
102
}
330
D
100
AcDbGroup
300

 70
     1
 71
     1
  0
GROUP
  5
1CCA5
102
{ACAD_REACTORS
330
D
102
}
330
D
100
AcDbGroup
300

 70
     1
 71
     1
  0
GROUP
  5
1CC06
102
{ACAD_REACTORS
330
D
102
}
330
D
100
AcDbGroup
300

 70
     1
 71
     1
  0
GROUP
  5
2FE3
102
{ACAD_REACTORS
330
D
102
}
330
D
100
AcDbGroup
300

 70
     1
 71
     1
  0
GROUP
  5
1CBD3
102
{ACAD_REACTORS
330
D
102
}
330
D
100
AcDbGroup
300

 70
     1
 71
     1
  0
GROUP
  5
1CC51
102
{ACAD_REACTORS
330
D
102
}
330
D
100
AcDbGroup
300

 70
     1
 71
     1
  0
GROUP
  5
A5E5
102
{ACAD_REACTORS
330
D
102
}
330
D
100
AcDbGroup
300

 70
     1
 71
     1
  0
GROUP
  5
1CB75
102
{ACAD_REACTORS
330
D
102
}
330
D
100
AcDbGroup
300

 70
     1
 71
     1
  0
GROUP
  5
A37F
102
{ACAD_REACTORS
330
D
102
}
330
D
100
AcDbGroup
300

 70
     1
 71
     1
  0
GROUP
  5
1CC91
102
{ACAD_REACTORS
330
D
102
}
330
D
100
AcDbGroup
300

 70
     1
 71
     1
  0
GROUP
  5
178CE
102
{ACAD_REACTORS
330
D
102
}
330
D
100
AcDbGroup
300

 70
     1
 71
     1
  0
GROUP
  5
1CC68
102
{ACAD_REACTORS
330
D
102
}
330
D
100
AcDbGroup
300

 70
     1
 71
     1
  0
GROUP
  5
1CBB1
102
{ACAD_REACTORS
330
D
102
}
330
D
100
AcDbGroup
300

 70
     1
 71
     1
  0
GROUP
  5
B6F5
102
{ACAD_REACTORS
330
D
102
}
330
D
100
AcDbGroup
300

 70
     1
 71
     1
  0
GROUP
  5
1CC07
102
{ACAD_REACTORS
330
D
102
}
330
D
100
AcDbGroup
300

 70
     1
 71
     1
  0
GROUP
  5
A38F
102
{ACAD_REACTORS
330
D
102
}
330
D
100
AcDbGroup
300

 70
     1
 71
     1
  0
GROUP
  5
B6E6
102
{ACAD_REACTORS
330
D
102
}
330
D
100
AcDbGroup
300

 70
     1
 71
     1
  0
GROUP
  5
BE9C
102
{ACAD_REACTORS
330
D
102
}
330
D
100
AcDbGroup
300

 70
     1
 71
     1
  0
GROUP
  5
1CBBE
102
{ACAD_REACTORS
330
D
102
}
330
D
100
AcDbGroup
300

 70
     1
 71
     1
  0
GROUP
  5
1CC92
102
{ACAD_REACTORS
330
D
102
}
330
D
100
AcDbGroup
300

 70
     1
 71
     1
  0
GROUP
  5
20F0C
102
{ACAD_REACTORS
330
D
102
}
330
D
100
AcDbGroup
300

 70
     1
 71
     1
  0
GROUP
  5
5E29
102
{ACAD_REACTORS
330
D
102
}
330
D
100
AcDbGroup
300

 70
     1
 71
     1
  0
GROUP
  5
1CC2F
102
{ACAD_REACTORS
330
D
102
}
330
D
100
AcDbGroup
300

 70
     1
 71
     1
  0
GROUP
  5
1CBE8
102
{ACAD_REACTORS
330
D
102
}
330
D
100
AcDbGroup
300

 70
     3
 71
     1
  0
GROUP
  5
1CC97
102
{ACAD_REACTORS
330
D
102
}
330
D
100
AcDbGroup
300

 70
     1
 71
     1
  0
GROUP
  5
1CC2C
102
{ACAD_REACTORS
330
D
102
}
330
D
100
AcDbGroup
300

 70
     1
 71
     1
  0
GROUP
  5
818B
102
{ACAD_REACTORS
330
D
102
}
330
D
100
AcDbGroup
300

 70
     1
 71
     1
  0
GROUP
  5
6062
102
{ACAD_REACTORS
330
D
102
}
330
D
100
AcDbGroup
300

 70
     1
 71
     1
  0
GROUP
  5
10C8
102
{ACAD_REACTORS
330
D
102
}
330
D
100
AcDbGroup
300

 70
     1
 71
     1
  0
GROUP
  5
16D41
102
{ACAD_REACTORS
330
D
102
}
330
D
100
AcDbGroup
300

 70
     1
 71
     1
  0
GROUP
  5
1CB9D
102
{ACAD_REACTORS
330
D
102
}
330
D
100
AcDbGroup
300

 70
     1
 71
     1
  0
GROUP
  5
1CC15
102
{ACAD_REACTORS
330
D
102
}
330
D
100
AcDbGroup
300

 70
     1
 71
     1
  0
GROUP
  5
178D7
102
{ACAD_REACTORS
330
D
102
}
330
D
100
AcDbGroup
300

 70
     1
 71
     1
  0
GROUP
  5
1CC25
102
{ACAD_REACTORS
330
D
102
}
330
D
100
AcDbGroup
300

 70
     3
 71
     1
  0
GROUP
  5
1CC70
102
{ACAD_REACTORS
330
D
102
}
330
D
100
AcDbGroup
300

 70
     1
 71
     1
  0
GROUP
  5
1CCA4
102
{ACAD_REACTORS
330
D
102
}
330
D
100
AcDbGroup
300

 70
     1
 71
     1
  0
GROUP
  5
1CC82
102
{ACAD_REACTORS
330
D
102
}
330
D
100
AcDbGroup
300

 70
     1
 71
     1
  0
GROUP
  5
109B
102
{ACAD_REACTORS
330
D
102
}
330
D
100
AcDbGroup
300

 70
     1
 71
     1
  0
GROUP
  5
81E4
102
{ACAD_REACTORS
330
D
102
}
330
D
100
AcDbGroup
300

 70
     1
 71
     1
  0
GROUP
  5
77B9
102
{ACAD_REACTORS
330
D
102
}
330
D
100
AcDbGroup
300

 70
     1
 71
     1
  0
GROUP
  5
8818
102
{ACAD_REACTORS
330
D
102
}
330
D
100
AcDbGroup
300

 70
     1
 71
     1
  0
GROUP
  5
1CC0B
102
{ACAD_REACTORS
330
D
102
}
330
D
100
AcDbGroup
300

 70
     1
 71
     1
  0
GROUP
  5
57BB
102
{ACAD_REACTORS
330
D
102
}
330
D
100
AcDbGroup
300

 70
     1
 71
     1
  0
GROUP
  5
1CC8D
102
{ACAD_REACTORS
330
D
102
}
330
D
100
AcDbGroup
300

 70
     1
 71
     1
  0
GROUP
  5
106E
102
{ACAD_REACTORS
330
D
102
}
330
D
100
AcDbGroup
300

 70
     1
 71
     1
  0
GROUP
  5
1CC29
102
{ACAD_REACTORS
330
D
102
}
330
D
100
AcDbGroup
300

 70
     1
 71
     1
  0
GROUP
  5
8222
102
{ACAD_REACTORS
330
D
102
}
330
D
100
AcDbGroup
300

 70
     1
 71
     1
  0
GROUP
  5
4AA4
102
{ACAD_REACTORS
330
D
102
}
330
D
100
AcDbGroup
300

 70
     1
 71
     1
  0
GROUP
  5
B6EA
102
{ACAD_REACTORS
330
D
102
}
330
D
100
AcDbGroup
300

 70
     1
 71
     1
  0
GROUP
  5
8218
102
{ACAD_REACTORS
330
D
102
}
330
D
100
AcDbGroup
300

 70
     1
 71
     1
  0
GROUP
  5
1CBAC
102
{ACAD_REACTORS
330
D
102
}
330
D
100
AcDbGroup
300

 70
     1
 71
     1
  0
GROUP
  5
15217
102
{ACAD_REACTORS
330
D
102
}
330
D
100
AcDbGroup
300

 70
     1
 71
     1
  0
GROUP
  5
1CC6D
102
{ACAD_REACTORS
330
D
102
}
330
D
100
AcDbGroup
300

 70
     1
 71
     1
  0
GROUP
  5
1CB8F
102
{ACAD_REACTORS
330
D
102
}
330
D
100
AcDbGroup
300

 70
     1
 71
     1
  0
GROUP
  5
B6F0
102
{ACAD_REACTORS
330
D
102
}
330
D
100
AcDbGroup
300

 70
     1
 71
     1
  0
GROUP
  5
1CB84
102
{ACAD_REACTORS
330
D
102
}
330
D
100
AcDbGroup
300

 70
     1
 71
     1
  0
GROUP
  5
1D0B7
102
{ACAD_REACTORS
330
D
102
}
330
D
100
AcDbGroup
300

 70
     1
 71
     1
  0
GROUP
  5
16D1D
102
{ACAD_REACTORS
330
D
102
}
330
D
100
AcDbGroup
300

 70
     1
 71
     1
  0
GROUP
  5
1CC00
102
{ACAD_REACTORS
330
D
102
}
330
D
100
AcDbGroup
300

 70
     1
 71
     1
  0
GROUP
  5
339B
102
{ACAD_REACTORS
330
D
102
}
330
D
100
AcDbGroup
300

 70
     1
 71
     1
  0
GROUP
  5
1CC3F
102
{ACAD_REACTORS
330
D
102
}
330
D
100
AcDbGroup
300

 70
     1
 71
     1
  0
GROUP
  5
1CB6C
102
{ACAD_REACTORS
330
D
102
}
330
D
100
AcDbGroup
300

 70
     1
 71
     1
  0
GROUP
  5
1CC3E
102
{ACAD_REACTORS
330
D
102
}
330
D
100
AcDbGroup
300

 70
     1
 71
     1
  0
GROUP
  5
1CBCC
102
{ACAD_REACTORS
330
D
102
}
330
D
100
AcDbGroup
300

 70
     1
 71
     1
  0
GROUP
  5
20F0D
102
{ACAD_REACTORS
330
D
102
}
330
D
100
AcDbGroup
300

 70
     1
 71
     1
  0
GROUP
  5
5E4A
102
{ACAD_REACTORS
330
D
102
}
330
D
100
AcDbGroup
300

 70
     1
 71
     1
  0
GROUP
  5
4A97
102
{ACAD_REACTORS
330
D
102
}
330
D
100
AcDbGroup
300

 70
     1
 71
     1
  0
GROUP
  5
7555
102
{ACAD_REACTORS
330
D
102
}
330
D
100
AcDbGroup
300

 70
     1
 71
     1
  0
GROUP
  5
57BC
102
{ACAD_REACTORS
330
D
102
}
330
D
100
AcDbGroup
300

 70
     1
 71
     1
  0
GROUP
  5
1CC8E
102
{ACAD_REACTORS
330
D
102
}
330
D
100
AcDbGroup
300

 70
     1
 71
     1
  0
GROUP
  5
8221
102
{ACAD_REACTORS
330
D
102
}
330
D
100
AcDbGroup
300

 70
     1
 71
     1
  0
GROUP
  5
1CC60
102
{ACAD_REACTORS
330
D
102
}
330
D
100
AcDbGroup
300

 70
     1
 71
     1
  0
GROUP
  5
1B66F
102
{ACAD_REACTORS
330
D
102
}
330
D
100
AcDbGroup
300

 70
     1
 71
     1
  0
GROUP
  5
B6EE
102
{ACAD_REACTORS
330
D
102
}
330
D
100
AcDbGroup
300

 70
     1
 71
     1
  0
GROUP
  5
B980
102
{ACAD_REACTORS
330
D
102
}
330
D
100
AcDbGroup
300

 70
     1
 71
     1
  0
GROUP
  5
1CB6E
102
{ACAD_REACTORS
330
D
102
}
330
D
100
AcDbGroup
300

 70
     1
 71
     1
  0
GROUP
  5
A3C5
102
{ACAD_REACTORS
330
D
102
}
330
D
100
AcDbGroup
300

 70
     1
 71
     1
  0
GROUP
  5
7556
102
{ACAD_REACTORS
330
D
102
}
330
D
100
AcDbGroup
300

 70
     1
 71
     1
  0
GROUP
  5
64A5
102
{ACAD_REACTORS
330
D
102
}
330
D
100
AcDbGroup
300

 70
     1
 71
     1
  0
GROUP
  5
1CC4D
102
{ACAD_REACTORS
330
D
102
}
330
D
100
AcDbGroup
300

 70
     1
 71
     1
  0
GROUP
  5
1CBF4
102
{ACAD_REACTORS
330
D
102
}
330
D
100
AcDbGroup
300

 70
     1
 71
     1
  0
GROUP
  5
49E1
102
{ACAD_REACTORS
330
D
102
}
330
D
100
AcDbGroup
300

 70
     1
 71
     1
  0
GROUP
  5
4F1E
102
{ACAD_REACTORS
330
D
102
}
330
D
100
AcDbGroup
300

 70
     1
 71
     1
  0
GROUP
  5
A37B
102
{ACAD_REACTORS
330
D
102
}
330
D
100
AcDbGroup
300

 70
     1
 71
     1
  0
GROUP
  5
57BD
102
{ACAD_REACTORS
330
D
102
}
330
D
100
AcDbGroup
300

 70
     1
 71
     1
  0
GROUP
  5
1CC4F
102
{ACAD_REACTORS
330
D
102
}
330
D
100
AcDbGroup
300

 70
     1
 71
     1
  0
GROUP
  5
1CC37
102
{ACAD_REACTORS
330
D
102
}
330
D
100
AcDbGroup
300

 70
     1
 71
     1
  0
GROUP
  5
5D38
102
{ACAD_REACTORS
330
D
102
}
330
D
100
AcDbGroup
300

 70
     1
 71
     1
  0
GROUP
  5
1CC08
102
{ACAD_REACTORS
330
D
102
}
330
D
100
AcDbGroup
300

 70
     1
 71
     1
  0
GROUP
  5
1CC7A
102
{ACAD_REACTORS
330
D
102
}
330
D
100
AcDbGroup
300

 70
     1
 71
     1
  0
GROUP
  5
1CC9F
102
{ACAD_REACTORS
330
D
102
}
330
D
100
AcDbGroup
300

 70
     1
 71
     1
  0
GROUP
  5
1CBB4
102
{ACAD_REACTORS
330
D
102
}
330
D
100
AcDbGroup
300

 70
     1
 71
     1
  0
GROUP
  5
114F
102
{ACAD_REACTORS
330
D
102
}
330
D
100
AcDbGroup
300

 70
     1
 71
     1
  0
GROUP
  5
1CB5F
102
{ACAD_REACTORS
330
D
102
}
330
D
100
AcDbGroup
300

 70
     1
 71
     1
  0
GROUP
  5
1CC8F
102
{ACAD_REACTORS
330
D
102
}
330
D
100
AcDbGroup
300

 70
     1
 71
     1
  0
GROUP
  5
1CBEA
102
{ACAD_REACTORS
330
D
102
}
330
D
100
AcDbGroup
300

 70
     1
 71
     1
  0
GROUP
  5
1CB64
102
{ACAD_REACTORS
330
D
102
}
330
D
100
AcDbGroup
300

 70
     1
 71
     1
  0
GROUP
  5
B982
102
{ACAD_REACTORS
330
D
102
}
330
D
100
AcDbGroup
300

 70
     1
 71
     1
  0
GROUP
  5
1CC1B
102
{ACAD_REACTORS
330
D
102
}
330
D
100
AcDbGroup
300

 70
     1
 71
     1
  0
GROUP
  5
980E
102
{ACAD_REACTORS
330
D
102
}
330
D
100
AcDbGroup
300

 70
     1
 71
     1
  0
GROUP
  5
1CB74
102
{ACAD_REACTORS
330
D
102
}
330
D
100
AcDbGroup
300

 70
     1
 71
     1
  0
GROUP
  5
1CBF6
102
{ACAD_REACTORS
330
D
102
}
330
D
100
AcDbGroup
300

 70
     1
 71
     1
  0
GROUP
  5
1CBFA
102
{ACAD_REACTORS
330
D
102
}
330
D
100
AcDbGroup
300

 70
     1
 71
     1
  0
GROUP
  5
821C
102
{ACAD_REACTORS
330
D
102
}
330
D
100
AcDbGroup
300

 70
     1
 71
     1
  0
GROUP
  5
1CC5C
102
{ACAD_REACTORS
330
D
102
}
330
D
100
AcDbGroup
300

 70
     1
 71
     1
  0
GROUP
  5
2FE8
102
{ACAD_REACTORS
330
D
102
}
330
D
100
AcDbGroup
300

 70
     1
 71
     1
  0
GROUP
  5
4AAE
102
{ACAD_REACTORS
330
D
102
}
330
D
100
AcDbGroup
300

 70
     1
 71
     1
  0
GROUP
  5
1CC59
102
{ACAD_REACTORS
330
D
102
}
330
D
100
AcDbGroup
300

 70
     1
 71
     1
  0
GROUP
  5
1CC54
102
{ACAD_REACTORS
330
D
102
}
330
D
100
AcDbGroup
300

 70
     1
 71
     1
  0
GROUP
  5
1CBB6
102
{ACAD_REACTORS
330
D
102
}
330
D
100
AcDbGroup
300

 70
     1
 71
     1
  0
GROUP
  5
1CC24
102
{ACAD_REACTORS
330
D
102
}
330
D
100
AcDbGroup
300

 70
     1
 71
     1
  0
GROUP
  5
1D0BB
102
{ACAD_REACTORS
330
D
102
}
330
D
100
AcDbGroup
300

 70
     1
 71
     1
  0
GROUP
  5
1CC44
102
{ACAD_REACTORS
330
D
102
}
330
D
100
AcDbGroup
300

 70
     3
 71
     1
  0
GROUP
  5
4989
102
{ACAD_REACTORS
330
D
102
}
330
D
100
AcDbGroup
300

 70
     1
 71
     1
  0
GROUP
  5
1CC53
102
{ACAD_REACTORS
330
D
102
}
330
D
100
AcDbGroup
300

 70
     1
 71
     1
  0
GROUP
  5
1CC96
102
{ACAD_REACTORS
330
D
102
}
330
D
100
AcDbGroup
300

 70
     1
 71
     1
  0
GROUP
  5
10B6
102
{ACAD_REACTORS
330
D
102
}
330
D
100
AcDbGroup
300

 70
     1
 71
     1
  0
GROUP
  5
1CCA6
102
{ACAD_REACTORS
330
D
102
}
330
D
100
AcDbGroup
300

 70
     1
 71
     1
  0
GROUP
  5
113D
102
{ACAD_REACTORS
330
D
102
}
330
D
100
AcDbGroup
300

 70
     1
 71
     1
  0
GROUP
  5
151DD
102
{ACAD_REACTORS
330
D
102
}
330
D
100
AcDbGroup
300

 70
     1
 71
     1
  0
GROUP
  5
1CBF9
102
{ACAD_REACTORS
330
D
102
}
330
D
100
AcDbGroup
300

 70
     1
 71
     1
  0
GROUP
  5
10D1
102
{ACAD_REACTORS
330
D
102
}
330
D
100
AcDbGroup
300

 70
     1
 71
     1
  0
GROUP
  5
156A8
102
{ACAD_REACTORS
330
D
102
}
330
D
100
AcDbGroup
300

 70
     1
 71
     1
  0
GROUP
  5
8805
102
{ACAD_REACTORS
330
D
102
}
330
D
100
AcDbGroup
300

 70
     1
 71
     1
  0
GROUP
  5
B981
102
{ACAD_REACTORS
330
D
102
}
330
D
100
AcDbGroup
300

 70
     1
 71
     1
  0
GROUP
  5
1CC93
102
{ACAD_REACTORS
330
D
102
}
330
D
100
AcDbGroup
300

 70
     1
 71
     1
  0
GROUP
  5
20F0E
102
{ACAD_REACTORS
330
D
102
}
330
D
100
AcDbGroup
300

 70
     1
 71
     1
  0
GROUP
  5
A3CD
102
{ACAD_REACTORS
330
D
102
}
330
D
100
AcDbGroup
300

 70
     1
 71
     1
  0
GROUP
  5
151CD
102
{ACAD_REACTORS
330
D
102
}
330
D
100
AcDbGroup
300

 70
     1
 71
     1
  0
GROUP
  5
1134
102
{ACAD_REACTORS
330
D
102
}
330
D
100
AcDbGroup
300

 70
     1
 71
     1
  0
GROUP
  5
1CBE6
102
{ACAD_REACTORS
330
D
102
}
330
D
100
AcDbGroup
300

 70
     1
 71
     1
  0
GROUP
  5
A3C1
102
{ACAD_REACTORS
330
D
102
}
330
D
100
AcDbGroup
300

 70
     1
 71
     1
  0
GROUP
  5
1CBCB
102
{ACAD_REACTORS
330
D
102
}
330
D
100
AcDbGroup
300

 70
     1
 71
     1
  0
GROUP
  5
9656
102
{ACAD_REACTORS
330
D
102
}
330
D
100
AcDbGroup
300

 70
     1
 71
     1
  0
GROUP
  5
1CBC1
102
{ACAD_REACTORS
330
D
102
}
330
D
100
AcDbGroup
300

 70
     1
 71
     1
  0
GROUP
  5
1CB65
102
{ACAD_REACTORS
330
D
102
}
330
D
100
AcDbGroup
300

 70
     1
 71
     1
  0
GROUP
  5
57BF
102
{ACAD_REACTORS
330
D
102
}
330
D
100
AcDbGroup
300

 70
     1
 71
     1
  0
GROUP
  5
1CC31
102
{ACAD_REACTORS
330
D
102
}
330
D
100
AcDbGroup
300

 70
     1
 71
     1
  0
GROUP
  5
1065
102
{ACAD_REACTORS
330
D
102
}
330
D
100
AcDbGroup
300

 70
     1
 71
     1
  0
GROUP
  5
9808
102
{ACAD_REACTORS
330
D
102
}
330
D
100
AcDbGroup
300

 70
     1
 71
     1
  0
GROUP
  5
820D
102
{ACAD_REACTORS
330
D
102
}
330
D
100
AcDbGroup
300

 70
     1
 71
     1
  0
GROUP
  5
1161
102
{ACAD_REACTORS
330
D
102
}
330
D
100
AcDbGroup
300

 70
     1
 71
     1
  0
GROUP
  5
42D1
102
{ACAD_REACTORS
330
D
102
}
330
D
100
AcDbGroup
300

 70
     1
 71
     1
  0
GROUP
  5
A63B
102
{ACAD_REACTORS
330
D
102
}
330
D
100
AcDbGroup
300

 70
     1
 71
     1
  0
GROUP
  5
328C
102
{ACAD_REACTORS
330
D
102
}
330
D
100
AcDbGroup
300

 70
     1
 71
     1
  0
GROUP
  5
10DA
102
{ACAD_REACTORS
330
D
102
}
330
D
100
AcDbGroup
300

 70
     1
 71
     1
  0
GROUP
  5
B6EB
102
{ACAD_REACTORS
330
D
102
}
330
D
100
AcDbGroup
300

 70
     1
 71
     1
  0
GROUP
  5
B6F9
102
{ACAD_REACTORS
330
D
102
}
330
D
100
AcDbGroup
300

 70
     1
 71
     1
  0
GROUP
  5
1092
102
{ACAD_REACTORS
330
D
102
}
330
D
100
AcDbGroup
300

 70
     1
 71
     1
  0
GROUP
  5
512A
102
{ACAD_REACTORS
330
D
102
}
330
D
100
AcDbGroup
300

 70
     1
 71
     1
  0
GROUP
  5
B6F3
102
{ACAD_REACTORS
330
D
102
}
330
D
100
AcDbGroup
300

 70
     1
 71
     1
  0
GROUP
  5
1CB88
102
{ACAD_REACTORS
330
D
102
}
330
D
100
AcDbGroup
300

 70
     1
 71
     1
  0
GROUP
  5
1CBAD
102
{ACAD_REACTORS
330
D
102
}
330
D
100
AcDbGroup
300

 70
     1
 71
     1
  0
GROUP
  5
1089
102
{ACAD_REACTORS
330
D
102
}
330
D
100
AcDbGroup
300

 70
     1
 71
     1
  0
GROUP
  5
1CB79
102
{ACAD_REACTORS
330
D
102
}
330
D
100
AcDbGroup
300

 70
     1
 71
     1
  0
GROUP
  5
B984
102
{ACAD_REACTORS
330
D
102
}
330
D
100
AcDbGroup
300

 70
     1
 71
     1
  0
GROUP
  5
1CC76
102
{ACAD_REACTORS
330
D
102
}
330
D
100
AcDbGroup
300

 70
     1
 71
     1
  0
GROUP
  5
1CC26
102
{ACAD_REACTORS
330
D
102
}
330
D
100
AcDbGroup
300

 70
     1
 71
     1
  0
GROUP
  5
1CC56
102
{ACAD_REACTORS
330
D
102
}
330
D
100
AcDbGroup
300

 70
     1
 71
     1
  0
GROUP
  5
B6E2
102
{ACAD_REACTORS
330
D
102
}
330
D
100
AcDbGroup
300

 70
     1
 71
     1
  0
GROUP
  5
1CB5E
102
{ACAD_REACTORS
330
D
102
}
330
D
100
AcDbGroup
300

 70
     1
 71
     1
  0
GROUP
  5
1CB73
102
{ACAD_REACTORS
330
D
102
}
330
D
100
AcDbGroup
300

 70
     1
 71
     1
  0
GROUP
  5
5C9F
102
{ACAD_REACTORS
330
D
102
}
330
D
100
AcDbGroup
300

 70
     1
 71
     1
  0
GROUP
  5
1CC38
102
{ACAD_REACTORS
330
D
102
}
330
D
100
AcDbGroup
300

 70
     3
 71
     1
  0
GROUP
  5
4AB1
102
{ACAD_REACTORS
330
D
102
}
330
D
100
AcDbGroup
300

 70
     1
 71
     1
  0
GROUP
  5
33BA
102
{ACAD_REACTORS
330
D
102
}
330
D
100
AcDbGroup
300

 70
     1
 71
     1
  0
GROUP
  5
1CBED
102
{ACAD_REACTORS
330
D
102
}
330
D
100
AcDbGroup
300

 70
     1
 71
     1
  0
GROUP
  5
820E
102
{ACAD_REACTORS
330
D
102
}
330
D
100
AcDbGroup
300

 70
     1
 71
     1
  0
GROUP
  5
1CBA1
102
{ACAD_REACTORS
330
D
102
}
330
D
100
AcDbGroup
300

 70
     1
 71
     1
  0
GROUP
  5
A397
102
{ACAD_REACTORS
330
D
102
}
330
D
100
AcDbGroup
300

 70
     1
 71
     1
  0
GROUP
  5
1CC2D
102
{ACAD_REACTORS
330
D
102
}
330
D
100
AcDbGroup
300

 70
     1
 71
     1
  0
GROUP
  5
1CBA4
102
{ACAD_REACTORS
330
D
102
}
330
D
100
AcDbGroup
300

 70
     1
 71
     1
  0
GROUP
  5
1CC4A
102
{ACAD_REACTORS
330
D
102
}
330
D
100
AcDbGroup
300

 70
     3
 71
     1
  0
GROUP
  5
606A
102
{ACAD_REACTORS
330
D
102
}
330
D
100
AcDbGroup
300

 70
     1
 71
     1
  0
GROUP
  5
1CBB3
102
{ACAD_REACTORS
330
D
102
}
330
D
100
AcDbGroup
300

 70
     1
 71
     1
  0
GROUP
  5
1CC28
102
{ACAD_REACTORS
330
D
102
}
330
D
100
AcDbGroup
300

 70
     1
 71
     1
  0
GROUP
  5
605A
102
{ACAD_REACTORS
330
D
102
}
330
D
100
AcDbGroup
300

 70
     1
 71
     1
  0
GROUP
  5
4992
102
{ACAD_REACTORS
330
D
102
}
330
D
100
AcDbGroup
300

 70
     1
 71
     1
  0
GROUP
  5
1CC84
102
{ACAD_REACTORS
330
D
102
}
330
D
100
AcDbGroup
300

 70
     1
 71
     1
  0
GROUP
  5
B986
102
{ACAD_REACTORS
330
D
102
}
330
D
100
AcDbGroup
300

 70
     1
 71
     1
  0
GROUP
  5
1CB66
102
{ACAD_REACTORS
330
D
102
}
330
D
100
AcDbGroup
300

 70
     1
 71
     1
  0
GROUP
  5
1CC81
102
{ACAD_REACTORS
330
D
102
}
330
D
100
AcDbGroup
300

 70
     1
 71
     1
  0
GROUP
  5
1CBEF
102
{ACAD_REACTORS
330
D
102
}
330
D
100
AcDbGroup
300

 70
     1
 71
     1
  0
GROUP
  5
1CC52
102
{ACAD_REACTORS
330
D
102
}
330
D
100
AcDbGroup
300

 70
     1
 71
     1
  0
GROUP
  5
49DE
102
{ACAD_REACTORS
330
D
102
}
330
D
100
AcDbGroup
300

 70
     1
 71
     1
  0
GROUP
  5
1CC6E
102
{ACAD_REACTORS
330
D
102
}
330
D
100
AcDbGroup
300

 70
     1
 71
     1
  0
GROUP
  5
1CC2B
102
{ACAD_REACTORS
330
D
102
}
330
D
100
AcDbGroup
300

 70
     1
 71
     1
  0
GROUP
  5
2FE9
102
{ACAD_REACTORS
330
D
102
}
330
D
100
AcDbGroup
300

 70
     1
 71
     1
  0
GROUP
  5
151E6
102
{ACAD_REACTORS
330
D
102
}
330
D
100
AcDbGroup
300

 70
     1
 71
     1
  0
GROUP
  5
1CC75
102
{ACAD_REACTORS
330
D
102
}
330
D
100
AcDbGroup
300

 70
     1
 71
     1
  0
GROUP
  5
1CC3D
102
{ACAD_REACTORS
330
D
102
}
330
D
100
AcDbGroup
300

 70
     3
 71
     1
  0
GROUP
  5
20F0F
102
{ACAD_REACTORS
330
D
102
}
330
D
100
AcDbGroup
300

 70
     1
 71
     1
  0
GROUP
  5
1CBB0
102
{ACAD_REACTORS
330
D
102
}
330
D
100
AcDbGroup
300

 70
     1
 71
     1
  0
GROUP
  5
1CB85
102
{ACAD_REACTORS
330
D
102
}
330
D
100
AcDbGroup
300

 70
     1
 71
     1
  0
GROUP
  5
5134
102
{ACAD_REACTORS
330
D
102
}
330
D
100
AcDbGroup
300

 70
     1
 71
     1
  0
GROUP
  5
881D
102
{ACAD_REACTORS
330
D
102
}
330
D
100
AcDbGroup
300

 70
     1
 71
     1
  0
GROUP
  5
806F
102
{ACAD_REACTORS
330
D
102
}
330
D
100
AcDbGroup
300

 70
     1
 71
     1
  0
GROUP
  5
1CB62
102
{ACAD_REACTORS
330
D
102
}
330
D
100
AcDbGroup
300

 70
     1
 71
     1
  0
GROUP
  5
5129
102
{ACAD_REACTORS
330
D
102
}
330
D
100
AcDbGroup
300

 70
     1
 71
     1
  0
GROUP
  5
10F5
102
{ACAD_REACTORS
330
D
102
}
330
D
100
AcDbGroup
300

 70
     1
 71
     1
  0
GROUP
  5
15AD5
102
{ACAD_REACTORS
330
D
102
}
330
D
100
AcDbGroup
300

 70
     1
 71
     1
  0
GROUP
  5
20F10
102
{ACAD_REACTORS
330
D
102
}
330
D
100
AcDbGroup
300

 70
     1
 71
     1
  0
GROUP
  5
5E04
102
{ACAD_REACTORS
330
D
102
}
330
D
100
AcDbGroup
300

 70
     1
 71
     1
  0
GROUP
  5
1CC02
102
{ACAD_REACTORS
330
D
102
}
330
D
100
AcDbGroup
300

 70
     1
 71
     1
  0
GROUP
  5
1CBAE
102
{ACAD_REACTORS
330
D
102
}
330
D
100
AcDbGroup
300

 70
     1
 71
     1
  0
GROUP
  5
20F11
102
{ACAD_REACTORS
330
D
102
}
330
D
100
AcDbGroup
300

 70
     1
 71
     1
  0
GROUP
  5
1CBA5
102
{ACAD_REACTORS
330
D
102
}
330
D
100
AcDbGroup
300

 70
     1
 71
     1
  0
GROUP
  5
2105C
102
{ACAD_REACTORS
330
D
102
}
330
D
100
AcDbGroup
300

 70
     1
 71
     1
  0
GROUP
  5
1CC50
102
{ACAD_REACTORS
330
D
102
}
330
D
100
AcDbGroup
300

 70
     1
 71
     1
  0
GROUP
  5
49C7
102
{ACAD_REACTORS
330
D
102
}
330
D
100
AcDbGroup
300

 70
     1
 71
     1
  0
GROUP
  5
B97C
102
{ACAD_REACTORS
330
D
102
}
330
D
100
AcDbGroup
300

 70
     1
 71
     1
  0
GROUP
  5
57BE
102
{ACAD_REACTORS
330
D
102
}
330
D
100
AcDbGroup
300

 70
     1
 71
     1
  0
GROUP
  5
1CB77
102
{ACAD_REACTORS
330
D
102
}
330
D
100
AcDbGroup
300

 70
     1
 71
     1
  0
GROUP
  5
1CB82
102
{ACAD_REACTORS
330
D
102
}
330
D
100
AcDbGroup
300

 70
     1
 71
     1
  0
GROUP
  5
151BD
102
{ACAD_REACTORS
330
D
102
}
330
D
100
AcDbGroup
300

 70
     1
 71
     1
  0
GROUP
  5
881E
102
{ACAD_REACTORS
330
D
102
}
330
D
100
AcDbGroup
300

 70
     1
 71
     1
  0
GROUP
  5
10A4
102
{ACAD_REACTORS
330
D
102
}
330
D
100
AcDbGroup
300

 70
     1
 71
     1
  0
GROUP
  5
1107
102
{ACAD_REACTORS
330
D
102
}
330
D
100
AcDbGroup
300

 70
     1
 71
     1
  0
GROUP
  5
8212
102
{ACAD_REACTORS
330
D
102
}
330
D
100
AcDbGroup
300

 70
     1
 71
     1
  0
GROUP
  5
7C29
102
{ACAD_REACTORS
330
D
102
}
330
D
100
AcDbGroup
300

 70
     1
 71
     1
  0
GROUP
  5
1BB46
102
{ACAD_REACTORS
330
D
102
}
330
D
100
AcDbGroup
300

 70
     1
 71
     1
  0
GROUP
  5
210C5
102
{ACAD_REACTORS
330
D
102
}
330
D
100
AcDbGroup
300

 70
     1
 71
     1
340
1BC2E
340
1BC2D
340
1BC2C
340
1BC30
340
1BC2F
  0
GROUP
  5
4A96
102
{ACAD_REACTORS
330
D
102
}
330
D
100
AcDbGroup
300

 70
     1
 71
     1
  0
GROUP
  5
1CBB7
102
{ACAD_REACTORS
330
D
102
}
330
D
100
AcDbGroup
300

 70
     1
 71
     1
  0
GROUP
  5
210C6
102
{ACAD_REACTORS
330
D
102
}
330
D
100
AcDbGroup
300

 70
     1
 71
     1
340
1D214
340
1D212
340
1D213
  0
GROUP
  5
1CC48
102
{ACAD_REACTORS
330
D
102
}
330
D
100
AcDbGroup
300

 70
     1
 71
     1
  0
GROUP
  5
178CD
102
{ACAD_REACTORS
330
D
102
}
330
D
100
AcDbGroup
300

 70
     1
 71
     1
  0
GROUP
  5
1CC7E
102
{ACAD_REACTORS
330
D
102
}
330
D
100
AcDbGroup
300

 70
     1
 71
     1
  0
GROUP
  5
9655
102
{ACAD_REACTORS
330
D
102
}
330
D
100
AcDbGroup
300

 70
     1
 71
     1
  0
GROUP
  5
1CBA0
102
{ACAD_REACTORS
330
D
102
}
330
D
100
AcDbGroup
300

 70
     1
 71
     1
  0
GROUP
  5
1CBB2
102
{ACAD_REACTORS
330
D
102
}
330
D
100
AcDbGroup
300

 70
     1
 71
     1
  0
GROUP
  5
5133
102
{ACAD_REACTORS
330
D
102
}
330
D
100
AcDbGroup
300

 70
     1
 71
     1
  0
GROUP
  5
5E5F
102
{ACAD_REACTORS
330
D
102
}
330
D
100
AcDbGroup
300

 70
     1
 71
     1
  0
GROUP
  5
1080
102
{ACAD_REACTORS
330
D
102
}
330
D
100
AcDbGroup
300

 70
     1
 71
     1
  0
GROUP
  5
1CC20
102
{ACAD_REACTORS
330
D
102
}
330
D
100
AcDbGroup
300

 70
     1
 71
     1
  0
GROUP
  5
822C
102
{ACAD_REACTORS
330
D
102
}
330
D
100
AcDbGroup
300

 70
     1
 71
     1
  0
GROUP
  5
1CBDC
102
{ACAD_REACTORS
330
D
102
}
330
D
100
AcDbGroup
300

 70
     1
 71
     1
  0
GROUP
  5
5DE0
102
{ACAD_REACTORS
330
D
102
}
330
D
100
AcDbGroup
300

 70
     1
 71
     1
  0
GROUP
  5
1CC5A
102
{ACAD_REACTORS
330
D
102
}
330
D
100
AcDbGroup
300

 70
     1
 71
     1
  0
GROUP
  5
1CBDE
102
{ACAD_REACTORS
330
D
102
}
330
D
100
AcDbGroup
300

 70
     1
 71
     1
  0
GROUP
  5
822B
102
{ACAD_REACTORS
330
D
102
}
330
D
100
AcDbGroup
300

 70
     1
 71
     1
  0
GROUP
  5
1CBB9
102
{ACAD_REACTORS
330
D
102
}
330
D
100
AcDbGroup
300

 70
     1
 71
     1
  0
GROUP
  5
7AE6
102
{ACAD_REACTORS
330
D
102
}
330
D
100
AcDbGroup
300

 70
     1
 71
     1
  0
GROUP
  5
33B9
102
{ACAD_REACTORS
330
D
102
}
330
D
100
AcDbGroup
300

 70
     1
 71
     1
  0
GROUP
  5
1BC31
102
{ACAD_REACTORS
330
D
102
}
330
D
100
AcDbGroup
300

 70
     1
 71
     1
340
1BC2C
340
1BC2D
340
1BC2E
340
1BC2F
340
1BC30
  0
GROUP
  5
7C2A
102
{ACAD_REACTORS
330
D
102
}
330
D
100
AcDbGroup
300

 70
     1
 71
     1
  0
GROUP
  5
1CBC8
102
{ACAD_REACTORS
330
D
102
}
330
D
100
AcDbGroup
300

 70
     1
 71
     1
  0
GROUP
  5
A3B9
102
{ACAD_REACTORS
330
D
102
}
330
D
100
AcDbGroup
300

 70
     1
 71
     1
  0
GROUP
  5
880E
102
{ACAD_REACTORS
330
D
102
}
330
D
100
AcDbGroup
300

 70
     1
 71
     1
  0
GROUP
  5
1CC22
102
{ACAD_REACTORS
330
D
102
}
330
D
100
AcDbGroup
300

 70
     1
 71
     1
  0
GROUP
  5
317D
102
{ACAD_REACTORS
330
D
102
}
330
D
100
AcDbGroup
300

 70
     1
 71
     1
  0
GROUP
  5
10E3
102
{ACAD_REACTORS
330
D
102
}
330
D
100
AcDbGroup
300

 70
     1
 71
     1
  0
GROUP
  5
1CC58
102
{ACAD_REACTORS
330
D
102
}
330
D
100
AcDbGroup
300

 70
     1
 71
     1
  0
GROUP
  5
1CB91
102
{ACAD_REACTORS
330
D
102
}
330
D
100
AcDbGroup
300

 70
     1
 71
     1
  0
GROUP
  5
8814
102
{ACAD_REACTORS
330
D
102
}
330
D
100
AcDbGroup
300

 70
     1
 71
     1
  0
GROUP
  5
1CC9B
102
{ACAD_REACTORS
330
D
102
}
330
D
100
AcDbGroup
300

 70
     1
 71
     1
  0
GROUP
  5
1CC69
102
{ACAD_REACTORS
330
D
102
}
330
D
100
AcDbGroup
300

 70
     1
 71
     1
  0
GROUP
  5
1CC55
102
{ACAD_REACTORS
330
D
102
}
330
D
100
AcDbGroup
300

 70
     1
 71
     1
  0
GROUP
  5
1CB93
102
{ACAD_REACTORS
330
D
102
}
330
D
100
AcDbGroup
300

 70
     1
 71
     1
  0
GROUP
  5
1CBC2
102
{ACAD_REACTORS
330
D
102
}
330
D
100
AcDbGroup
300

 70
     1
 71
     1
  0
GROUP
  5
1CB7D
102
{ACAD_REACTORS
330
D
102
}
330
D
100
AcDbGroup
300

 70
     1
 71
     1
  0
GROUP
  5
1CB71
102
{ACAD_REACTORS
330
D
102
}
330
D
100
AcDbGroup
300

 70
     1
 71
     1
  0
GROUP
  5
151EE
102
{ACAD_REACTORS
330
D
102
}
330
D
100
AcDbGroup
300

 70
     1
 71
     1
  0
GROUP
  5
1CB5D
102
{ACAD_REACTORS
330
D
102
}
330
D
100
AcDbGroup
300

 70
     1
 71
     1
  0
GROUP
  5
1CB9C
102
{ACAD_REACTORS
330
D
102
}
330
D
100
AcDbGroup
300

 70
     1
 71
     1
  0
GROUP
  5
A3D1
102
{ACAD_REACTORS
330
D
102
}
330
D
100
AcDbGroup
300

 70
     1
 71
     1
  0
GROUP
  5
8819
102
{ACAD_REACTORS
330
D
102
}
330
D
100
AcDbGroup
300

 70
     1
 71
     1
  0
GROUP
  5
1CC33
102
{ACAD_REACTORS
330
D
102
}
330
D
100
AcDbGroup
300

 70
     1
 71
     1
  0
GROUP
  5
8072
102
{ACAD_REACTORS
330
D
102
}
330
D
100
AcDbGroup
300

 70
     1
 71
     1
  0
GROUP
  5
1CBE7
102
{ACAD_REACTORS
330
D
102
}
330
D
100
AcDbGroup
300

 70
     1
 71
     1
  0
GROUP
  5
1CBDF
102
{ACAD_REACTORS
330
D
102
}
330
D
100
AcDbGroup
300

 70
     1
 71
     1
  0
GROUP
  5
1CBC6
102
{ACAD_REACTORS
330
D
102
}
330
D
100
AcDbGroup
300

 70
     1
 71
     1
  0
GROUP
  5
498F
102
{ACAD_REACTORS
330
D
102
}
330
D
100
AcDbGroup
300

 70
     1
 71
     1
  0
GROUP
  5
5E65
102
{ACAD_REACTORS
330
D
102
}
330
D
100
AcDbGroup
300

 70
     1
 71
     1
  0
GROUP
  5
1CB95
102
{ACAD_REACTORS
330
D
102
}
330
D
100
AcDbGroup
300

 70
     1
 71
     1
  0
GROUP
  5
B6FC
102
{ACAD_REACTORS
330
D
102
}
330
D
100
AcDbGroup
300

 70
     1
 71
     1
  0
GROUP
  5
8043
102
{ACAD_REACTORS
330
D
102
}
330
D
100
AcDbGroup
300

 70
     1
 71
     1
  0
GROUP
  5
A383
102
{ACAD_REACTORS
330
D
102
}
330
D
100
AcDbGroup
300

 70
     1
 71
     1
  0
GROUP
  5
B6ED
102
{ACAD_REACTORS
330
D
102
}
330
D
100
AcDbGroup
300

 70
     1
 71
     1
  0
GROUP
  5
1CB7C
102
{ACAD_REACTORS
330
D
102
}
330
D
100
AcDbGroup
300

 70
     1
 71
     1
  0
GROUP
  5
16DB8
102
{ACAD_REACTORS
330
D
102
}
330
D
100
AcDbGroup
300

 70
     1
 71
     1
  0
GROUP
  5
1CB98
102
{ACAD_REACTORS
330
D
102
}
330
D
100
AcDbGroup
300

 70
     1
 71
     1
  0
GROUP
  5
964C
102
{ACAD_REACTORS
330
D
102
}
330
D
100
AcDbGroup
300

 70
     1
 71
     1
  0
GROUP
  5
A387
102
{ACAD_REACTORS
330
D
102
}
330
D
100
AcDbGroup
300

 70
     1
 71
     1
  0
GROUP
  5
A3EA
102
{ACAD_REACTORS
330
D
102
}
330
D
100
AcDbGroup
300

 70
     1
 71
     1
  0
GROUP
  5
1CBF0
102
{ACAD_REACTORS
330
D
102
}
330
D
100
AcDbGroup
300

 70
     1
 71
     1
  0
GROUP
  5
8065
102
{ACAD_REACTORS
330
D
102
}
330
D
100
AcDbGroup
300

 70
     1
 71
     1
  0
GROUP
  5
1CC72
102
{ACAD_REACTORS
330
D
102
}
330
D
100
AcDbGroup
300

 70
     1
 71
     1
  0
GROUP
  5
1BC2B
102
{ACAD_REACTORS
330
D
102
}
330
D
100
AcDbGroup
300

 70
     1
 71
     1
  0
GROUP
  5
1CCA3
102
{ACAD_REACTORS
330
D
102
}
330
D
100
AcDbGroup
300

 70
     1
 71
     1
  0
GROUP
  5
1CBC9
102
{ACAD_REACTORS
330
D
102
}
330
D
100
AcDbGroup
300

 70
     1
 71
     1
  0
GROUP
  5
1CBDB
102
{ACAD_REACTORS
330
D
102
}
330
D
100
AcDbGroup
300

 70
     1
 71
     1
  0
GROUP
  5
1CB99
102
{ACAD_REACTORS
330
D
102
}
330
D
100
AcDbGroup
300

 70
     1
 71
     1
  0
GROUP
  5
A637
102
{ACAD_REACTORS
330
D
102
}
330
D
100
AcDbGroup
300

 70
     1
 71
     1
  0
GROUP
  5
5F9B
102
{ACAD_REACTORS
330
D
102
}
330
D
100
AcDbGroup
300

 70
     1
 71
     1
  0
GROUP
  5
1CC4E
102
{ACAD_REACTORS
330
D
102
}
330
D
100
AcDbGroup
300

 70
     1
 71
     1
  0
GROUP
  5
818A
102
{ACAD_REACTORS
330
D
102
}
330
D
100
AcDbGroup
300

 70
     1
 71
     1
  0
GROUP
  5
1CC10
102
{ACAD_REACTORS
330
D
102
}
330
D
100
AcDbGroup
300

 70
     1
 71
     1
  0
GROUP
  5
1CBC5
102
{ACAD_REACTORS
330
D
102
}
330
D
100
AcDbGroup
300

 70
     1
 71
     1
  0
GROUP
  5
A63F
102
{ACAD_REACTORS
330
D
102
}
330
D
100
AcDbGroup
300

 70
     1
 71
     1
  0
GROUP
  5
1CC12
102
{ACAD_REACTORS
330
D
102
}
330
D
100
AcDbGroup
300

 70
     1
 71
     1
  0
GROUP
  5
9807
102
{ACAD_REACTORS
330
D
102
}
330
D
100
AcDbGroup
300

 70
     1
 71
     1
  0
GROUP
  5
3289
102
{ACAD_REACTORS
330
D
102
}
330
D
100
AcDbGroup
300

 70
     1
 71
     1
  0
GROUP
  5
81E1
102
{ACAD_REACTORS
330
D
102
}
330
D
100
AcDbGroup
300

 70
     1
 71
     1
  0
GROUP
  5
77C8
102
{ACAD_REACTORS
330
D
102
}
330
D
100
AcDbGroup
300

 70
     1
 71
     1
  0
GROUP
  5
1CB7F
102
{ACAD_REACTORS
330
D
102
}
330
D
100
AcDbGroup
300

 70
     1
 71
     1
  0
GROUP
  5
1CBFF
102
{ACAD_REACTORS
330
D
102
}
330
D
100
AcDbGroup
300

 70
     1
 71
     1
  0
GROUP
  5
498C
102
{ACAD_REACTORS
330
D
102
}
330
D
100
AcDbGroup
300

 70
     1
 71
     1
  0
GROUP
  5
B6FD
102
{ACAD_REACTORS
330
D
102
}
330
D
100
AcDbGroup
300

 70
     1
 71
     1
  0
GROUP
  5
1CC5E
102
{ACAD_REACTORS
330
D
102
}
330
D
100
AcDbGroup
300

 70
     1
 71
     1
  0
GROUP
  5
1CB63
102
{ACAD_REACTORS
330
D
102
}
330
D
100
AcDbGroup
300

 70
     1
 71
     1
  0
GROUP
  5
980D
102
{ACAD_REACTORS
330
D
102
}
330
D
100
AcDbGroup
300

 70
     1
 71
     1
  0
GROUP
  5
B6EC
102
{ACAD_REACTORS
330
D
102
}
330
D
100
AcDbGroup
300

 70
     1
 71
     1
  0
GROUP
  5
1CB76
102
{ACAD_REACTORS
330
D
102
}
330
D
100
AcDbGroup
300

 70
     1
 71
     1
  0
GROUP
  5
151FF
102
{ACAD_REACTORS
330
D
102
}
330
D
100
AcDbGroup
300

 70
     1
 71
     1
  0
GROUP
  5
1CC90
102
{ACAD_REACTORS
330
D
102
}
330
D
100
AcDbGroup
300

 70
     1
 71
     1
  0
GROUP
  5
1CB8E
102
{ACAD_REACTORS
330
D
102
}
330
D
100
AcDbGroup
300

 70
     1
 71
     1
  0
GROUP
  5
1CBCF
102
{ACAD_REACTORS
330
D
102
}
330
D
100
AcDbGroup
300

 70
     1
 71
     1
  0
GROUP
  5
4986
102
{ACAD_REACTORS
330
D
102
}
330
D
100
AcDbGroup
300

 70
     1
 71
     1
  0
GROUP
  5
1CBBB
102
{ACAD_REACTORS
330
D
102
}
330
D
100
AcDbGroup
300

 70
     1
 71
     1
  0
GROUP
  5
A3B5
102
{ACAD_REACTORS
330
D
102
}
330
D
100
AcDbGroup
300

 70
     1
 71
     1
  0
GROUP
  5
1A86F
102
{ACAD_REACTORS
330
D
102
}
330
D
100
AcDbGroup
300

 70
     1
 71
     1
  0
GROUP
  5
1CBD7
102
{ACAD_REACTORS
330
D
102
}
330
D
100
AcDbGroup
300

 70
     1
 71
     1
  0
GROUP
  5
1CC1A
102
{ACAD_REACTORS
330
D
102
}
330
D
100
AcDbGroup
300

 70
     1
 71
     1
  0
GROUP
  5
A3C9
102
{ACAD_REACTORS
330
D
102
}
330
D
100
AcDbGroup
300

 70
     1
 71
     1
  0
GROUP
  5
33BD
102
{ACAD_REACTORS
330
D
102
}
330
D
100
AcDbGroup
300

 70
     1
 71
     1
  0
GROUP
  5
4995
102
{ACAD_REACTORS
330
D
102
}
330
D
100
AcDbGroup
300

 70
     1
 71
     1
  0
GROUP
  5
1CBFD
102
{ACAD_REACTORS
330
D
102
}
330
D
100
AcDbGroup
300

 70
     1
 71
     1
  0
GROUP
  5
1CC13
102
{ACAD_REACTORS
330
D
102
}
330
D
100
AcDbGroup
300

 70
     1
 71
     1
  0
GROUP
  5
5E6B
102
{ACAD_REACTORS
330
D
102
}
330
D
100
AcDbGroup
300

 70
     1
 71
     1
  0
GROUP
  5
DED1
102
{ACAD_REACTORS
330
D
102
}
330
D
100
AcDbGroup
300

 70
     1
 71
     1
  0
GROUP
  5
1077
102
{ACAD_REACTORS
330
D
102
}
330
D
100
AcDbGroup
300

 70
     1
 71
     1
  0
GROUP
  5
1CC01
102
{ACAD_REACTORS
330
D
102
}
330
D
100
AcDbGroup
300

 70
     1
 71
     1
  0
GROUP
  5
1CBBD
102
{ACAD_REACTORS
330
D
102
}
330
D
100
AcDbGroup
300

 70
     1
 71
     1
  0
GROUP
  5
B6E8
102
{ACAD_REACTORS
330
D
102
}
330
D
100
AcDbGroup
300

 70
     1
 71
     1
  0
GROUP
  5
15AD3
102
{ACAD_REACTORS
330
D
102
}
330
D
100
AcDbGroup
300

 70
     1
 71
     1
  0
GROUP
  5
1CBBA
102
{ACAD_REACTORS
330
D
102
}
330
D
100
AcDbGroup
300

 70
     1
 71
     1
  0
GROUP
  5
1CBFC
102
{ACAD_REACTORS
330
D
102
}
330
D
100
AcDbGroup
300

 70
     1
 71
     1
  0
GROUP
  5
499B
102
{ACAD_REACTORS
330
D
102
}
330
D
100
AcDbGroup
300

 70
     1
 71
     1
  0
GROUP
  5
1CB68
102
{ACAD_REACTORS
330
D
102
}
330
D
100
AcDbGroup
300

 70
     1
 71
     1
  0
GROUP
  5
8227
102
{ACAD_REACTORS
330
D
102
}
330
D
100
AcDbGroup
300

 70
     1
 71
     1
  0
GROUP
  5
4F1D
102
{ACAD_REACTORS
330
D
102
}
330
D
100
AcDbGroup
300

 70
     1
 71
     1
  0
GROUP
  5
1158
102
{ACAD_REACTORS
330
D
102
}
330
D
100
AcDbGroup
300

 70
     1
 71
     1
  0
GROUP
  5
1CC98
102
{ACAD_REACTORS
330
D
102
}
330
D
100
AcDbGroup
300

 70
     1
 71
     1
  0
GROUP
  5
1CB92
102
{ACAD_REACTORS
330
D
102
}
330
D
100
AcDbGroup
300

 70
     1
 71
     1
  0
GROUP
  5
1CBDD
102
{ACAD_REACTORS
330
D
102
}
330
D
100
AcDbGroup
300

 70
     1
 71
     1
  0
GROUP
  5
15AD1
102
{ACAD_REACTORS
330
D
102
}
330
D
100
AcDbGroup
300

 70
     1
 71
     1
  0
GROUP
  5
64A1
102
{ACAD_REACTORS
330
D
102
}
330
D
100
AcDbGroup
300

 70
     1
 71
     1
  0
GROUP
  5
1CBD4
102
{ACAD_REACTORS
330
D
102
}
330
D
100
AcDbGroup
300

 70
     1
 71
     1
  0
GROUP
  5
8051
102
{ACAD_REACTORS
330
D
102
}
330
D
100
AcDbGroup
300

 70
     1
 71
     1
  0
GROUP
  5
5128
102
{ACAD_REACTORS
330
D
102
}
330
D
100
AcDbGroup
300

 70
     1
 71
     1
  0
GROUP
  5
1CC77
102
{ACAD_REACTORS
330
D
102
}
330
D
100
AcDbGroup
300

 70
     1
 71
     1
  0
GROUP
  5
1CC40
102
{ACAD_REACTORS
330
D
102
}
330
D
100
AcDbGroup
300

 70
     1
 71
     1
  0
GROUP
  5
15D9C
102
{ACAD_REACTORS
330
D
102
}
330
D
100
AcDbGroup
300

 70
     1
 71
     1
  0
GROUP
  5
B6FA
102
{ACAD_REACTORS
330
D
102
}
330
D
100
AcDbGroup
300

 70
     1
 71
     1
  0
GROUP
  5
B6F4
102
{ACAD_REACTORS
330
D
102
}
330
D
100
AcDbGroup
300

 70
     1
 71
     1
  0
GROUP
  5
B6FB
102
{ACAD_REACTORS
330
D
102
}
330
D
100
AcDbGroup
300

 70
     1
 71
     1
  0
GROUP
  5
1CB6A
102
{ACAD_REACTORS
330
D
102
}
330
D
100
AcDbGroup
300

 70
     1
 71
     1
  0
GROUP
  5
B6E9
102
{ACAD_REACTORS
330
D
102
}
330
D
100
AcDbGroup
300

 70
     1
 71
     1
  0
GROUP
  5
49E4
102
{ACAD_REACTORS
330
D
102
}
330
D
100
AcDbGroup
300

 70
     1
 71
     1
  0
GROUP
  5
A38B
102
{ACAD_REACTORS
330
D
102
}
330
D
100
AcDbGroup
300

 70
     1
 71
     1
  0
GROUP
  5
1CC30
102
{ACAD_REACTORS
330
D
102
}
330
D
100
AcDbGroup
300

 70
     1
 71
     1
  0
GROUP
  5
1CC86
102
{ACAD_REACTORS
330
D
102
}
330
D
100
AcDbGroup
300

 70
     1
 71
     1
  0
GROUP
  5
10AD
102
{ACAD_REACTORS
330
D
102
}
330
D
100
AcDbGroup
300

 70
     1
 71
     1
  0
GROUP
  5
2A28
102
{ACAD_REACTORS
330
D
102
}
330
D
100
AcDbGroup
300

 70
     1
 71
     1
  0
GROUP
  5
5E1D
102
{ACAD_REACTORS
330
D
102
}
330
D
100
AcDbGroup
300

 70
     1
 71
     1
  0
GROUP
  5
1CBB5
102
{ACAD_REACTORS
330
D
102
}
330
D
100
AcDbGroup
300

 70
     1
 71
     1
  0
GROUP
  5
64AD
102
{ACAD_REACTORS
330
D
102
}
330
D
100
AcDbGroup
300

 70
     1
 71
     1
  0
GROUP
  5
112B
102
{ACAD_REACTORS
330
D
102
}
330
D
100
AcDbGroup
300

 70
     1
 71
     1
  0
GROUP
  5
1CBCA
102
{ACAD_REACTORS
330
D
102
}
330
D
100
AcDbGroup
300

 70
     1
 71
     1
  0
GROUP
  5
7AE5
102
{ACAD_REACTORS
330
D
102
}
330
D
100
AcDbGroup
300

 70
     1
 71
     1
  0
GROUP
  5
8822
102
{ACAD_REACTORS
330
D
102
}
330
D
100
AcDbGroup
300

 70
     1
 71
     1
  0
GROUP
  5
1CBE9
102
{ACAD_REACTORS
330
D
102
}
330
D
100
AcDbGroup
300

 70
     1
 71
     1
  0
GROUP
  5
1A62E
102
{ACAD_REACTORS
330
D
102
}
330
D
100
AcDbGroup
300

 70
     1
 71
     1
  0
GROUP
  5
1CC0C
102
{ACAD_REACTORS
330
D
102
}
330
D
100
AcDbGroup
300

 70
     1
 71
     1
  0
GROUP
  5
1CC49
102
{ACAD_REACTORS
330
D
102
}
330
D
100
AcDbGroup
300

 70
     1
 71
     1
  0
GROUP
  5
1CBAA
102
{ACAD_REACTORS
330
D
102
}
330
D
100
AcDbGroup
300

 70
     1
 71
     1
  0
GROUP
  5
6F78
102
{ACAD_REACTORS
330
D
102
}
330
D
100
AcDbGroup
300

 70
     1
 71
     1
  0
GROUP
  5
1B962
102
{ACAD_REACTORS
330
D
102
}
330
D
100
AcDbGroup
300

 70
     1
 71
     1
340
1B344
340
1B347
340
1B345
340
1B34B
340
1B34A
340
1B364
340
1B349
340
1B348
340
1B346
  0
GROUP
  5
1CC2E
102
{ACAD_REACTORS
330
D
102
}
330
D
100
AcDbGroup
300

 70
     1
 71
     1
  0
GROUP
  5
64A9
102
{ACAD_REACTORS
330
D
102
}
330
D
100
AcDbGroup
300

 70
     1
 71
     1
  0
GROUP
  5
15DBA
102
{ACAD_REACTORS
330
D
102
}
330
D
100
AcDbGroup
300

 70
     1
 71
     1
  0
GROUP
  5
16041
102
{ACAD_REACTORS
330
D
102
}
330
D
100
AcDbGroup
300

 70
     1
 71
     1
  0
GROUP
  5
1CC32
102
{ACAD_REACTORS
330
D
102
}
330
D
100
AcDbGroup
300

 70
     1
 71
     1
  0
GROUP
  5
1CBF5
102
{ACAD_REACTORS
330
D
102
}
330
D
100
AcDbGroup
300

 70
     1
 71
     1
  0
GROUP
  5
83B2
102
{ACAD_REACTORS
330
D
102
}
330
D
100
AcDbGroup
300

 70
     1
 71
     1
  0
GROUP
  5
4980
102
{ACAD_REACTORS
330
D
102
}
330
D
100
AcDbGroup
300

 70
     1
 71
     1
  0
GROUP
  5
1CBF2
102
{ACAD_REACTORS
330
D
102
}
330
D
100
AcDbGroup
300

 70
     1
 71
     1
  0
GROUP
  5
8062
102
{ACAD_REACTORS
330
D
102
}
330
D
100
AcDbGroup
300

 70
     1
 71
     1
  0
GROUP
  5
7AD2
102
{ACAD_REACTORS
330
D
102
}
330
D
100
AcDbGroup
300

 70
     1
 71
     1
  0
GROUP
  5
1CBA8
102
{ACAD_REACTORS
330
D
102
}
330
D
100
AcDbGroup
300

 70
     1
 71
     1
  0
GROUP
  5
1CB69
102
{ACAD_REACTORS
330
D
102
}
330
D
100
AcDbGroup
300

 70
     1
 71
     1
  0
GROUP
  5
65A8
102
{ACAD_REACTORS
330
D
102
}
330
D
100
AcDbGroup
300

 70
     1
 71
     1
  0
GROUP
  5
A3BD
102
{ACAD_REACTORS
330
D
102
}
330
D
100
AcDbGroup
300

 70
     1
 71
     1
  0
GROUP
  5
1CBCE
102
{ACAD_REACTORS
330
D
102
}
330
D
100
AcDbGroup
300

 70
     1
 71
     1
  0
GROUP
  5
1CC11
102
{ACAD_REACTORS
330
D
102
}
330
D
100
AcDbGroup
300

 70
     1
 71
     1
  0
GROUP
  5
3286
102
{ACAD_REACTORS
330
D
102
}
330
D
100
AcDbGroup
300

 70
     1
 71
     1
  0
GROUP
  5
880F
102
{ACAD_REACTORS
330
D
102
}
330
D
100
AcDbGroup
300

 70
     1
 71
     1
  0
GROUP
  5
1CC09
102
{ACAD_REACTORS
330
D
102
}
330
D
100
AcDbGroup
300

 70
     1
 71
     1
  0
GROUP
  5
1CB83
102
{ACAD_REACTORS
330
D
102
}
330
D
100
AcDbGroup
300

 70
     1
 71
     1
  0
GROUP
  5
1CB6B
102
{ACAD_REACTORS
330
D
102
}
330
D
100
AcDbGroup
300

 70
     1
 71
     1
  0
GROUP
  5
B6EF
102
{ACAD_REACTORS
330
D
102
}
330
D
100
AcDbGroup
300

 70
     1
 71
     1
  0
GROUP
  5
1CB94
102
{ACAD_REACTORS
330
D
102
}
330
D
100
AcDbGroup
300

 70
     1
 71
     1
  0
GROUP
  5
B6FE
102
{ACAD_REACTORS
330
D
102
}
330
D
100
AcDbGroup
300

 70
     1
 71
     1
  0
GROUP
  5
1A74B
102
{ACAD_REACTORS
330
D
102
}
330
D
100
AcDbGroup
300

 70
     1
 71
     1
  0
GROUP
  5
1CB9A
102
{ACAD_REACTORS
330
D
102
}
330
D
100
AcDbGroup
300

 70
     1
 71
     1
  0
GROUP
  5
77D2
102
{ACAD_REACTORS
330
D
102
}
330
D
100
AcDbGroup
300

 70
     1
 71
     1
  0
GROUP
  5
5CA6
102
{ACAD_REACTORS
330
D
102
}
330
D
100
AcDbGroup
300

 70
     1
 71
     1
  0
GROUP
  5
8189
102
{ACAD_REACTORS
330
D
102
}
330
D
100
AcDbGroup
300

 70
     1
 71
     1
  0
GROUP
  5
5E3F
102
{ACAD_REACTORS
330
D
102
}
330
D
100
AcDbGroup
300

 70
     1
 71
     1
  0
GROUP
  5
1CC5D
102
{ACAD_REACTORS
330
D
102
}
330
D
100
AcDbGroup
300

 70
     1
 71
     1
  0
GROUP
  5
7AF2
102
{ACAD_REACTORS
330
D
102
}
330
D
100
AcDbGroup
300

 70
     1
 71
     1
  0
GROUP
  5
1CB7A
102
{ACAD_REACTORS
330
D
102
}
330
D
100
AcDbGroup
300

 70
     1
 71
     1
  0
GROUP
  5
42BF
102
{ACAD_REACTORS
330
D
102
}
330
D
100
AcDbGroup
300

 70
     1
 71
     1
  0
GROUP
  5
1CBEE
102
{ACAD_REACTORS
330
D
102
}
330
D
100
AcDbGroup
300

 70
     1
 71
     1
  0
GROUP
  5
3398
102
{ACAD_REACTORS
330
D
102
}
330
D
100
AcDbGroup
300

 70
     1
 71
     1
  0
GROUP
  5
1B6AC
102
{ACAD_REACTORS
330
D
102
}
330
D
100
AcDbGroup
300

 70
     1
 71
     1
340
1B671
340
1B672
340
1B673
340
1B674
340
1B676
340
1B682
340
1B684
340
1B685
340
1B686
340
1B687
340
1B688
340
1B695
340
1B696
340
1B698
340
1B699
340
1B6A6
340
1B6A7
  0
GROUP
  5
15AD8
102
{ACAD_REACTORS
330
D
102
}
330
D
100
AcDbGroup
300

 70
     1
 71
     1
  0
GROUP
  5
6221
102
{ACAD_REACTORS
330
D
102
}
330
D
100
AcDbGroup
300

 70
     1
 71
     1
  0
GROUP
  5
1CB96
102
{ACAD_REACTORS
330
D
102
}
330
D
100
AcDbGroup
300

 70
     1
 71
     1
  0
GROUP
  5
1CC1C
102
{ACAD_REACTORS
330
D
102
}
330
D
100
AcDbGroup
300

 70
     1
 71
     1
  0
GROUP
  5
A3EB
102
{ACAD_REACTORS
330
D
102
}
330
D
100
AcDbGroup
300

 70
     1
 71
     1
  0
GROUP
  5
1CC73
102
{ACAD_REACTORS
330
D
102
}
330
D
100
AcDbGroup
300

 70
     1
 71
     1
  0
GROUP
  5
1CBE4
102
{ACAD_REACTORS
330
D
102
}
330
D
100
AcDbGroup
300

 70
     1
 71
     1
  0
GROUP
  5
10FE
102
{ACAD_REACTORS
330
D
102
}
330
D
100
AcDbGroup
300

 70
     1
 71
     1
  0
GROUP
  5
B6E3
102
{ACAD_REACTORS
330
D
102
}
330
D
100
AcDbGroup
300

 70
     1
 71
     1
  0
GROUP
  5
1CC5B
102
{ACAD_REACTORS
330
D
102
}
330
D
100
AcDbGroup
300

 70
     1
 71
     1
  0
GROUP
  5
8813
102
{ACAD_REACTORS
330
D
102
}
330
D
100
AcDbGroup
300

 70
     1
 71
     1
  0
GROUP
  5
BE9B
102
{ACAD_REACTORS
330
D
102
}
330
D
100
AcDbGroup
300

 70
     1
 71
     1
  0
GROUP
  5
1CB86
102
{ACAD_REACTORS
330
D
102
}
330
D
100
AcDbGroup
300

 70
     1
 71
     1
  0
GROUP
  5
1CC5F
102
{ACAD_REACTORS
330
D
102
}
330
D
100
AcDbGroup
300

 70
     1
 71
     1
  0
GROUP
  5
1CC27
102
{ACAD_REACTORS
330
D
102
}
330
D
100
AcDbGroup
300

 70
     1
 71
     1
  0
GROUP
  5
1CB81
102
{ACAD_REACTORS
330
D
102
}
330
D
100
AcDbGroup
300

 70
     1
 71
     1
  0
GROUP
  5
4998
102
{ACAD_REACTORS
330
D
102
}
330
D
100
AcDbGroup
300

 70
     1
 71
     1
  0
GROUP
  5
5DD4
102
{ACAD_REACTORS
330
D
102
}
330
D
100
AcDbGroup
300

 70
     1
 71
     1
  0
GROUP
  5
5DC8
102
{ACAD_REACTORS
330
D
102
}
330
D
100
AcDbGroup
300

 70
     1
 71
     1
  0
GROUP
  5
1CBE2
102
{ACAD_REACTORS
330
D
102
}
330
D
100
AcDbGroup
300

 70
     1
 71
     1
  0
GROUP
  5
1CBA9
102
{ACAD_REACTORS
330
D
102
}
330
D
100
AcDbGroup
300

 70
     1
 71
     1
  0
GROUP
  5
2FE2
102
{ACAD_REACTORS
330
D
102
}
330
D
100
AcDbGroup
300

 70
     1
 71
     1
  0
GROUP
  5
3522
102
{ACAD_REACTORS
330
D
102
}
330
D
100
AcDbGroup
300

 70
     1
 71
     1
  0
GROUP
  5
1CC05
102
{ACAD_REACTORS
330
D
102
}
330
D
100
AcDbGroup
300

 70
     1
 71
     1
  0
GROUP
  5
1CC41
102
{ACAD_REACTORS
330
D
102
}
330
D
100
AcDbGroup
300

 70
     1
 71
     1
  0
GROUP
  5
1CC7B
102
{ACAD_REACTORS
330
D
102
}
330
D
100
AcDbGroup
300

 70
     1
 71
     1
  0
GROUP
  5
1CC39
102
{ACAD_REACTORS
330
D
102
}
330
D
100
AcDbGroup
300

 70
     1
 71
     1
  0
GROUP
  5
1CBEB
102
{ACAD_REACTORS
330
D
102
}
330
D
100
AcDbGroup
300

 70
     1
 71
     1
  0
GROUP
  5
1CBAB
102
{ACAD_REACTORS
330
D
102
}
330
D
100
AcDbGroup
300

 70
     3
 71
     1
  0
GROUP
  5
4ABD
102
{ACAD_REACTORS
330
D
102
}
330
D
100
AcDbGroup
300

 70
     1
 71
     1
  0
GROUP
  5
1CBD0
102
{ACAD_REACTORS
330
D
102
}
330
D
100
AcDbGroup
300

 70
     1
 71
     1
  0
GROUP
  5
16D65
102
{ACAD_REACTORS
330
D
102
}
330
D
100
AcDbGroup
300

 70
     1
 71
     1
  0
GROUP
  5
5F9C
102
{ACAD_REACTORS
330
D
102
}
330
D
100
AcDbGroup
300

 70
     1
 71
     1
  0
GROUP
  5
1CBD5
102
{ACAD_REACTORS
330
D
102
}
330
D
100
AcDbGroup
300

 70
     1
 71
     1
  0
GROUP
  5
1CB8A
102
{ACAD_REACTORS
330
D
102
}
330
D
100
AcDbGroup
300

 70
     1
 71
     1
  0
GROUP
  5
5D44
102
{ACAD_REACTORS
330
D
102
}
330
D
100
AcDbGroup
300

 70
     1
 71
     1
  0
GROUP
  5
1CC7C
102
{ACAD_REACTORS
330
D
102
}
330
D
100
AcDbGroup
300

 70
     1
 71
     1
  0
GROUP
  5
1CC85
102
{ACAD_REACTORS
330
D
102
}
330
D
100
AcDbGroup
300

 70
     1
 71
     1
  0
GROUP
  5
B6E0
102
{ACAD_REACTORS
330
D
102
}
330
D
100
AcDbGroup
300

 70
     1
 71
     1
  0
GROUP
  5
1CBB8
102
{ACAD_REACTORS
330
D
102
}
330
D
100
AcDbGroup
300

 70
     1
 71
     1
  0
GROUP
  5
1CB60
102
{ACAD_REACTORS
330
D
102
}
330
D
100
AcDbGroup
300

 70
     1
 71
     1
  0
GROUP
  5
1CC21
102
{ACAD_REACTORS
330
D
102
}
330
D
100
AcDbGroup
300

 70
     1
 71
     1
  0
GROUP
  5
B6F8
102
{ACAD_REACTORS
330
D
102
}
330
D
100
AcDbGroup
300

 70
     1
 71
     1
  0
GROUP
  5
15AD4
102
{ACAD_REACTORS
330
D
102
}
330
D
100
AcDbGroup
300

 70
     1
 71
     1
  0
GROUP
  5
4A10
102
{ACAD_REACTORS
330
D
102
}
330
D
100
AcDbGroup
300

 70
     1
 71
     1
  0
GROUP
  5
1CC4B
102
{ACAD_REACTORS
330
D
102
}
330
D
100
AcDbGroup
300

 70
     1
 71
     1
  0
GROUP
  5
1B963
102
{ACAD_REACTORS
330
D
102
}
330
D
100
AcDbGroup
300

 70
     1
 71
     1
340
1B343
340
1B364
340
1B344
340
1B347
340
1B345
340
1B34B
340
1B34A
340
1B349
340
1B348
340
1B346
  0
GROUP
  5
1CC83
102
{ACAD_REACTORS
330
D
102
}
330
D
100
AcDbGroup
300

 70
     1
 71
     1
  0
GROUP
  5
1CC18
102
{ACAD_REACTORS
330
D
102
}
330
D
100
AcDbGroup
300

 70
     1
 71
     1
  0
GROUP
  5
1BB28
102
{ACAD_REACTORS
330
D
102
}
330
D
100
AcDbGroup
300

 70
     1
 71
     1
  0
GROUP
  5
B97D
102
{ACAD_REACTORS
330
D
102
}
330
D
100
AcDbGroup
300

 70
     1
 71
     1
  0
GROUP
  5
1CC99
102
{ACAD_REACTORS
330
D
102
}
330
D
100
AcDbGroup
300

 70
     1
 71
     1
  0
GROUP
  5
3487
102
{ACAD_REACTORS
330
D
102
}
330
D
100
AcDbGroup
300

 70
     1
 71
     1
  0
GROUP
  5
83DB
102
{ACAD_REACTORS
330
D
102
}
330
D
100
AcDbGroup
300

 70
     1
 71
     1
  0
GROUP
  5
1CBC3
102
{ACAD_REACTORS
330
D
102
}
330
D
100
AcDbGroup
300

 70
     1
 71
     1
  0
GROUP
  5
B983
102
{ACAD_REACTORS
330
D
102
}
330
D
100
AcDbGroup
300

 70
     1
 71
     1
  0
GROUP
  5
1CBBF
102
{ACAD_REACTORS
330
D
102
}
330
D
100
AcDbGroup
300

 70
     1
 71
     1
  0
GROUP
  5
1CC42
102
{ACAD_REACTORS
330
D
102
}
330
D
100
AcDbGroup
300

 70
     1
 71
     1
  0
GROUP
  5
619C
102
{ACAD_REACTORS
330
D
102
}
330
D
100
AcDbGroup
300

 70
     1
 71
     1
  0
GROUP
  5
7AC6
102
{ACAD_REACTORS
330
D
102
}
330
D
100
AcDbGroup
300

 70
     1
 71
     1
  0
GROUP
  5
1CC16
102
{ACAD_REACTORS
330
D
102
}
330
D
100
AcDbGroup
300

 70
     1
 71
     1
  0
GROUP
  5
1CBE3
102
{ACAD_REACTORS
330
D
102
}
330
D
100
AcDbGroup
300

 70
     1
 71
     1
  0
GROUP
  5
1CC2A
102
{ACAD_REACTORS
330
D
102
}
330
D
100
AcDbGroup
300

 70
     1
 71
     1
  0
GROUP
  5
2C9A
102
{ACAD_REACTORS
330
D
102
}
330
D
100
AcDbGroup
300

 70
     1
 71
     1
  0
GROUP
  5
1CC36
102
{ACAD_REACTORS
330
D
102
}
330
D
100
AcDbGroup
300

 70
     1
 71
     1
  0
GROUP
  5
1CCA0
102
{ACAD_REACTORS
330
D
102
}
330
D
100
AcDbGroup
300

 70
     1
 71
     1
  0
GROUP
  5
1CC65
102
{ACAD_REACTORS
330
D
102
}
330
D
100
AcDbGroup
300

 70
     1
 71
     1
  0
GROUP
  5
1CC1E
102
{ACAD_REACTORS
330
D
102
}
330
D
100
AcDbGroup
300

 70
     1
 71
     1
  0
GROUP
  5
1CBE5
102
{ACAD_REACTORS
330
D
102
}
330
D
100
AcDbGroup
300

 70
     1
 71
     1
  0
GROUP
  5
5E6E
102
{ACAD_REACTORS
330
D
102
}
330
D
100
AcDbGroup
300

 70
     1
 71
     1
  0
GROUP
  5
8226
102
{ACAD_REACTORS
330
D
102
}
330
D
100
AcDbGroup
300

 70
     1
 71
     1
  0
GROUP
  5
1CB6F
102
{ACAD_REACTORS
330
D
102
}
330
D
100
AcDbGroup
300

 70
     1
 71
     1
  0
GROUP
  5
57BA
102
{ACAD_REACTORS
330
D
102
}
330
D
100
AcDbGroup
300

 70
     1
 71
     1
  0
GROUP
  5
1CC0A
102
{ACAD_REACTORS
330
D
102
}
330
D
100
AcDbGroup
300

 70
     1
 71
     1
  0
GROUP
  5
49A1
102
{ACAD_REACTORS
330
D
102
}
330
D
100
AcDbGroup
300

 70
     1
 71
     1
  0
GROUP
  5
1CCA1
102
{ACAD_REACTORS
330
D
102
}
330
D
100
AcDbGroup
300

 70
     1
 71
     1
  0
GROUP
  5
5E68
102
{ACAD_REACTORS
330
D
102
}
330
D
100
AcDbGroup
300

 70
     1
 71
     1
  0
GROUP
  5
1119
102
{ACAD_REACTORS
330
D
102
}
330
D
100
AcDbGroup
300

 70
     1
 71
     1
  0
GROUP
  5
1CBF1
102
{ACAD_REACTORS
330
D
102
}
330
D
100
AcDbGroup
300

 70
     1
 71
     1
  0
GROUP
  5
15207
102
{ACAD_REACTORS
330
D
102
}
330
D
100
AcDbGroup
300

 70
     1
 71
     1
  0
GROUP
  5
6F77
102
{ACAD_REACTORS
330
D
102
}
330
D
100
AcDbGroup
300

 70
     1
 71
     1
  0
GROUP
  5
965C
102
{ACAD_REACTORS
330
D
102
}
330
D
100
AcDbGroup
300

 70
     1
 71
     1
  0
GROUP
  5
1CC7D
102
{ACAD_REACTORS
330
D
102
}
330
D
100
AcDbGroup
300

 70
     1
 71
     1
  0
GROUP
  5
1CBC7
102
{ACAD_REACTORS
330
D
102
}
330
D
100
AcDbGroup
300

 70
     1
 71
     1
  0
GROUP
  5
1CC74
102
{ACAD_REACTORS
330
D
102
}
330
D
100
AcDbGroup
300

 70
     1
 71
     1
  0
GROUP
  5
4983
102
{ACAD_REACTORS
330
D
102
}
330
D
100
AcDbGroup
300

 70
     1
 71
     1
  0
GROUP
  5
1CC47
102
{ACAD_REACTORS
330
D
102
}
330
D
100
AcDbGroup
300

 70
     1
 71
     1
  0
GROUP
  5
1CB89
102
{ACAD_REACTORS
330
D
102
}
330
D
100
AcDbGroup
300

 70
     1
 71
     1
  0
GROUP
  5
151F7
102
{ACAD_REACTORS
330
D
102
}
330
D
100
AcDbGroup
300

 70
     1
 71
     1
  0
GROUP
  5
151AD
102
{ACAD_REACTORS
330
D
102
}
330
D
100
AcDbGroup
300

 70
     1
 71
     1
  0
GROUP
  5
49C4
102
{ACAD_REACTORS
330
D
102
}
330
D
100
AcDbGroup
300

 70
     1
 71
     1
  0
GROUP
  5
1CB70
102
{ACAD_REACTORS
330
D
102
}
330
D
100
AcDbGroup
300

 70
     1
 71
     1
  0
GROUP
  5
1CBFB
102
{ACAD_REACTORS
330
D
102
}
330
D
100
AcDbGroup
300

 70
     1
 71
     1
  0
GROUP
  5
8375
102
{ACAD_REACTORS
330
D
102
}
330
D
100
AcDbGroup
300

 70
     1
 71
     1
  0
GROUP
  5
1CC04
102
{ACAD_REACTORS
330
D
102
}
330
D
100
AcDbGroup
300

 70
     1
 71
     1
  0
GROUP
  5
3305
102
{ACAD_REACTORS
330
D
102
}
330
D
100
AcDbGroup
300

 70
     1
 71
     1
  0
GROUP
  5
B6F7
102
{ACAD_REACTORS
330
D
102
}
330
D
100
AcDbGroup
300

 70
     1
 71
     1
  0
GROUP
  5
1CC45
102
{ACAD_REACTORS
330
D
102
}
330
D
100
AcDbGroup
300

 70
     1
 71
     1
  0
GROUP
  5
1CC17
102
{ACAD_REACTORS
330
D
102
}
330
D
100
AcDbGroup
300

 70
     1
 71
     1
  0
GROUP
  5
1CC57
102
{ACAD_REACTORS
330
D
102
}
330
D
100
AcDbGroup
300

 70
     1
 71
     1
  0
GROUP
  5
1CC1D
102
{ACAD_REACTORS
330
D
102
}
330
D
100
AcDbGroup
300

 70
     1
 71
     1
  0
GROUP
  5
1CC62
102
{ACAD_REACTORS
330
D
102
}
330
D
100
AcDbGroup
300

 70
     1
 71
     1
  0
GROUP
  5
1CBA3
102
{ACAD_REACTORS
330
D
102
}
330
D
100
AcDbGroup
300

 70
     1
 71
     1
  0
GROUP
  5
1CC8C
102
{ACAD_REACTORS
330
D
102
}
330
D
100
AcDbGroup
300

 70
     1
 71
     1
  0
GROUP
  5
1CC4C
102
{ACAD_REACTORS
330
D
102
}
330
D
100
AcDbGroup
300

 70
     1
 71
     1
  0
GROUP
  5
1CB9B
102
{ACAD_REACTORS
330
D
102
}
330
D
100
AcDbGroup
300

 70
     1
 71
     1
  0
GROUP
  5
2CA6
102
{ACAD_REACTORS
330
D
102
}
330
D
100
AcDbGroup
300

 70
     1
 71
     1
  0
GROUP
  5
49CA
102
{ACAD_REACTORS
330
D
102
}
330
D
100
AcDbGroup
300

 70
     1
 71
     1
  0
GROUP
  5
1CB8B
102
{ACAD_REACTORS
330
D
102
}
330
D
100
AcDbGroup
300

 70
     1
 71
     1
  0
GROUP
  5
1CC3A
102
{ACAD_REACTORS
330
D
102
}
330
D
100
AcDbGroup
300

 70
     1
 71
     1
  0
GROUP
  5
1CB61
102
{ACAD_REACTORS
330
D
102
}
330
D
100
AcDbGroup
300

 70
     1
 71
     1
  0
GROUP
  5
1CBCD
102
{ACAD_REACTORS
330
D
102
}
330
D
100
AcDbGroup
300

 70
     1
 71
     1
  0
GROUP
  5
1CBF3
102
{ACAD_REACTORS
330
D
102
}
330
D
100
AcDbGroup
300

 70
     1
 71
     1
  0
GROUP
  5
1CB7B
102
{ACAD_REACTORS
330
D
102
}
330
D
100
AcDbGroup
300

 70
     1
 71
     1
  0
GROUP
  5
821D
102
{ACAD_REACTORS
330
D
102
}
330
D
100
AcDbGroup
300

 70
     1
 71
     1
  0
GROUP
  5
512B
102
{ACAD_REACTORS
330
D
102
}
330
D
100
AcDbGroup
300

 70
     1
 71
     1
  0
GROUP
  5
499E
102
{ACAD_REACTORS
330
D
102
}
330
D
100
AcDbGroup
300

 70
     1
 71
     1
  0
LAYOUT
  5
21952
102
{ACAD_REACTORS
330
73F
102
}
330
73F
100
AcDbPlotSettings
  1

  2
iR C2550
  4

  6

 40
0.0
 41
0.0
 42
0.0
 43
0.0
 44
0.0
 45
0.0
 46
0.0
 47
0.0
 48
0.0
 49
0.0
140
0.0
141
0.0
142
1.0
143
1.0
 70
  1712
 72
     0
 73
     0
 74
     0
  7

 75
     0
147
1.0
148
0.0
149
0.0
100
AcDbLayout
  1
Model
 70
     1
 71
     0
 10
0.0
 20
0.0
 11
12.0
 21
9.0
 12
0.0
 22
0.0
 32
0.0
 14
0.0
 24
0.0
 34
0.0
 15
0.0
 25
0.0
 35
0.0
146
0.0
 13
0.0
 23
0.0
 33
0.0
 16
1.0
 26
0.0
 36
0.0
 17
0.0
 27
1.0
 37
0.0
 76
     0
330
18
  0
LAYOUT
  5
21953
102
{ACAD_REACTORS
330
73F
102
}
330
73F
100
AcDbPlotSettings
  1

  2
iR C2550
  4
A4
  6

 40
5.873749732971191
 41
5.873747825622558
 42
5.873748779296875
 43
5.873748779296875
 44
209.9733276367187
 45
296.9259948730469
 46
0.0
 47
0.0
 48
0.0
 49
0.0
140
0.0
141
0.0
142
1.0
143
36.90443706984956
 70
   688
 72
     0
 73
     1
 74
     1
  7

 75
     0
147
0.0270970127008654
148
0.5375387847100228
149
0.1979845295415543
100
AcDbLayout
  1
ﾚｲｱｳﾄ1
 70
     0
 71
     1
 10
-8.555312243085717
 20
-8.541945350945768
 11
422.8575496543485
 21
296.5347261496916
 12
0.0
 22
0.0
 32
0.0
 14
0.0
 24
0.0
 34
0.0
 15
400.0
 25
288.0
 35
0.0
146
0.0
 13
0.0
 23
0.0
 33
0.0
 16
1.0
 26
0.0
 36
0.0
 17
0.0
 27
1.0
 37
0.0
 76
     0
330
15
331
23
  0
MLINESTYLE
  5
1C
102
{ACAD_REACTORS
330
1B
102
}
330
1B
100
AcDbMlineStyle
  2
STANDARD
 70
     0
  3

 62
   256
 51
90.0
 52
90.0
 71
     2
 49
0.5
 62
   256
  6
BYLAYER
 49
-0.5
 62
   256
  6
BYLAYER
  0
ACDBPLACEHOLDER
  5
73E
102
{ACAD_REACTORS
330
73D
102
}
330
73D
  0
DICTIONARYVAR
  5
11AD
102
{ACAD_REACTORS
330
11AC
102
}
330
11AC
100
DictionaryVariables
280
     0
  1
1
  0
DICTIONARYVAR
  5
AD08
102
{ACAD_REACTORS
330
11AC
102
}
330
11AC
100
DictionaryVariables
280
     0
  1
96
  0
ENDSEC
  0
EOF
