  0
SECTION
  2
HEADER
  9
$ACADVER
  1
AC1014
  9
$ACADMAINTVER
 70
     9
  9
$DWGCODEPAGE
  3
ANSI_932
  9
$INSBASE
 10
0.0
 20
0.0
 30
0.0
  9
$EXTMIN
 10
-1616.355520688201
 20
-1781.842817620333
 30
0.0
  9
$EXTMAX
 10
-569.7152241818558
 20
-1297.350657644317
 30
0.0
  9
$LIMMIN
 10
0.0
 20
0.0
  9
$LIMMAX
 10
420.0
 20
297.0
  9
$ORTHOMODE
 70
     1
  9
$REGENMODE
 70
     1
  9
$FILLMODE
 70
     1
  9
$QTEXTMODE
 70
     0
  9
$MIRRTEXT
 70
     0
  9
$DRAGMODE
 70
     2
  9
$LTSCALE
 40
20.0
  9
$OSMODE
 70
    37
  9
$ATTMODE
 70
     2
  9
$TEXTSIZE
 40
10.0
  9
$TRACEWID
 40
1.0
  9
$TEXTSTYLE
  7
ｽﾀｲﾙ3
  9
$CLAYER
  8
DIMENSION
  9
$CELTYPE
  6
BYLAYER
  9
$CECOLOR
 62
   256
  9
$CELTSCALE
 40
1.0
  9
$DELOBJ
 70
     1
  9
$DISPSILH
 70
     0
  9
$DIMSCALE
 40
2.5
  9
$DIMASZ
 40
2.0
  9
$DIMEXO
 40
0.75
  9
$DIMDLI
 40
5.0
  9
$DIMRND
 40
0.0005
  9
$DIMDLE
 40
0.0
  9
$DIMEXE
 40
1.0
  9
$DIMTP
 40
0.1
  9
$DIMTM
 40
0.000000001
  9
$DIMTXT
 40
3.2
  9
$DIMCEN
 40
0.0
  9
$DIMTSZ
 40
0.0
  9
$DIMTOL
 70
     0
  9
$DIMLIM
 70
     0
  9
$DIMTIH
 70
     0
  9
$DIMTOH
 70
     0
  9
$DIMSE1
 70
     0
  9
$DIMSE2
 70
     0
  9
$DIMTAD
 70
     1
  9
$DIMZIN
 70
     9
  9
$DIMBLK
  1
OPEN30
  9
$DIMASO
 70
     1
  9
$DIMSHO
 70
     1
  9
$DIMPOST
  1

  9
$DIMAPOST
  1

  9
$DIMALT
 70
     0
  9
$DIMALTD
 70
     4
  9
$DIMALTF
 40
0.0394
  9
$DIMLFAC
 40
1.0
  9
$DIMTOFL
 70
     1
  9
$DIMTVP
 40
0.0
  9
$DIMTIX
 70
     0
  9
$DIMSOXD
 70
     0
  9
$DIMSAH
 70
     0
  9
$DIMBLK1
  1

  9
$DIMBLK2
  1

  9
$DIMSTYLE
  2
STANDARD
  9
$DIMCLRD
 70
     4
  9
$DIMCLRE
 70
     4
  9
$DIMCLRT
 70
     2
  9
$DIMTFAC
 40
1.0
  9
$DIMGAP
 40
0.75
  9
$DIMJUST
 70
     0
  9
$DIMSD1
 70
     0
  9
$DIMSD2
 70
     0
  9
$DIMTOLJ
 70
     1
  9
$DIMTZIN
 70
     9
  9
$DIMALTZ
 70
     0
  9
$DIMALTTZ
 70
     0
  9
$DIMFIT
 70
     5
  9
$DIMUPT
 70
     0
  9
$DIMUNIT
 70
     2
  9
$DIMDEC
 70
     2
  9
$DIMTDEC
 70
     2
  9
$DIMALTU
 70
     8
  9
$DIMALTTD
 70
     4
  9
$DIMTXSTY
  7
STANDARD
  9
$DIMAUNIT
 70
     0
  9
$LUNITS
 70
     2
  9
$LUPREC
 70
     4
  9
$SKETCHINC
 40
1.0
  9
$FILLETRAD
 40
45.0
  9
$AUNITS
 70
     0
  9
$AUPREC
 70
     0
  9
$MENU
  1
.
  9
$ELEVATION
 40
0.0
  9
$PELEVATION
 40
0.0
  9
$THICKNESS
 40
0.0
  9
$LIMCHECK
 70
     0
  9
$BLIPMODE
 70
     0
  9
$CHAMFERA
 40
0.5
  9
$CHAMFERB
 40
0.5
  9
$CHAMFERC
 40
20.0
  9
$CHAMFERD
 40
0.0
  9
$SKPOLY
 70
     0
  9
$TDCREATE
 40
2451224.660162384
  9
$TDUPDATE
 40
2455594.769976852
  9
$TDINDWG
 40
19.5350103819
  9
$TDUSRTIMER
 40
19.5350103819
  9
$USRTIMER
 70
     1
  9
$ANGBASE
 50
0.0
  9
$ANGDIR
 70
     0
  9
$PDMODE
 70
     0
  9
$PDSIZE
 40
0.0
  9
$PLINEWID
 40
0.0
  9
$COORDS
 70
     0
  9
$SPLFRAME
 70
     0
  9
$SPLINETYPE
 70
     6
  9
$SPLINESEGS
 70
     8
  9
$ATTDIA
 70
     0
  9
$ATTREQ
 70
     1
  9
$HANDLING
 70
-16383
  9
$HANDSEED
  5
29277
  9
$SURFTAB1
 70
     6
  9
$SURFTAB2
 70
     6
  9
$SURFTYPE
 70
     6
  9
$SURFU
 70
     6
  9
$SURFV
 70
     6
  9
$UCSNAME
  2

  9
$UCSORG
 10
0.0
 20
0.0
 30
0.0
  9
$UCSXDIR
 10
1.0
 20
0.0
 30
0.0
  9
$UCSYDIR
 10
0.0
 20
1.0
 30
0.0
  9
$PUCSNAME
  2

  9
$PUCSORG
 10
0.0
 20
0.0
 30
0.0
  9
$PUCSXDIR
 10
1.0
 20
0.0
 30
0.0
  9
$PUCSYDIR
 10
0.0
 20
1.0
 30
0.0
  9
$USERI1
 70
     0
  9
$USERI2
 70
     0
  9
$USERI3
 70
     0
  9
$USERI4
 70
     0
  9
$USERI5
 70
     0
  9
$USERR1
 40
132.5146973670775
  9
$USERR2
 40
0.0
  9
$USERR3
 40
0.0
  9
$USERR4
 40
0.0
  9
$USERR5
 40
0.0
  9
$WORLDVIEW
 70
     1
  9
$SHADEDGE
 70
     3
  9
$SHADEDIF
 70
    70
  9
$TILEMODE
 70
     0
  9
$MAXACTVP
 70
    48
  9
$PINSBASE
 10
0.0
 20
0.0
 30
0.0
  9
$PLIMCHECK
 70
     0
  9
$PEXTMIN
 10
-0.0059364020323756
 20
-0.0099365629542945
 30
-0.0015258207003583
  9
$PEXTMAX
 10
400.0058121624729
 20
288.0086409120213
 30
0.0000000349246037
  9
$PLIMMIN
 10
-5.792250706111757
 20
-6.298592060251735
  9
$PLIMMAX
 10
414.1544045673255
 20
290.6274028127951
  9
$UNITMODE
 70
     0
  9
$VISRETAIN
 70
     1
  9
$PLINEGEN
 70
     0
  9
$PSLTSCALE
 70
     0
  9
$TREEDEPTH
 70
  3020
  9
$PICKSTYLE
 70
     0
  9
$CMLSTYLE
  2
STANDARD
  9
$CMLJUST
 70
     0
  9
$CMLSCALE
 40
20.0
  9
$PROXYGRAPHICS
 70
     1
  9
$MEASUREMENT
 70
     0
  0
ENDSEC
  0
SECTION
  2
CLASSES
  0
CLASS
  1
HATCH
  2
AcDbHatch
  3
AutoCAD 2000
 90
        0
280
     0
281
     1
  0
CLASS
  1
LWPOLYLINE
  2
AcDbPolyline
  3
AutoCAD 2000
 90
        0
280
     0
281
     1
  0
CLASS
  1
ACDBDICTIONARYWDFLT
  2
AcDbDictionaryWithDefault
  3
AutoCAD 2000
 90
        0
280
     0
281
     0
  0
CLASS
  1
ACDBPLACEHOLDER
  2
AcDbPlaceHolder
  3
AutoCAD 2000
 90
        0
280
     0
281
     0
  0
CLASS
  1
LAYOUT
  2
AcDbLayout
  3
AutoCAD 2000
 90
        0
280
     0
281
     0
  0
CLASS
  1
LONG_TRANSACTION
  2
AcDbLongTransaction
  3
AutoCAD 2000
 90
        0
280
     0
281
     0
  0
CLASS
  1
LWPOLYLINE
  2
AcDbPolyline
  3
AutoCAD 2000
 90
        0
280
     0
281
     1
  0
CLASS
  1
HATCH
  2
AcDbHatch
  3
AutoCAD 2000
 90
        0
280
     0
281
     1
  0
CLASS
  1
XRECORD
  2
AcDbXrecord
  3
AutoCAD 2000
 90
        0
280
     0
281
     0
  0
CLASS
  1
DICTIONARYVAR
  2
AcDbDictionaryVar
  3
AutoCAD 2000
 90
        0
280
     0
281
     0
  0
CLASS
  1
LONG_TRANSACTION
  2
AcDbLongTransaction
  3
AutoCAD 2000
 90
        0
280
     0
281
     0
  0
CLASS
  1
LWPOLYLINE
  2
AcDbPolyline
  3
AutoCAD 2000
 90
        0
280
     0
281
     1
  0
CLASS
  1
HATCH
  2
AcDbHatch
  3
AutoCAD 2000
 90
        0
280
     0
281
     1
  0
CLASS
  1
XRECORD
  2
AcDbXrecord
  3
AutoCAD 2000
 90
        0
280
     0
281
     0
  0
ENDSEC
  0
SECTION
  2
TABLES
  0
TABLE
  2
VPORT
  5
8
330
0
100
AcDbSymbolTable
 70
     4
  0
VPORT
  5
29230
330
8
100
AcDbSymbolTableRecord
100
AcDbViewportTableRecord
  2
*ACTIVE
 70
     0
 10
0.0
 20
0.0
 11
1.0
 21
1.0
 12
-1093.00444177093
 22
-1539.594124328633
 13
0.0
 23
0.0
 14
10.0
 24
10.0
 15
10.0
 25
10.0
 16
0.0
 26
0.0
 36
1.0
 17
0.0
 27
0.0
 37
0.0
 40
688.5422061794693
 41
1.527918781725888
 42
50.0
 43
0.0
 44
0.0
 50
0.0
 51
0.0
 71
     0
 72
   100
 73
     1
 74
     0
 75
     0
 76
     0
 77
     0
 78
     0
  0
ENDTAB
  0
TABLE
  2
LTYPE
  5
5
330
0
100
AcDbSymbolTable
 70
     7
  0
LTYPE
  5
12
330
5
100
AcDbSymbolTableRecord
100
AcDbLinetypeTableRecord
  2
BYBLOCK
 70
     0
  3

 72
    65
 73
     0
 40
0.0
  0
LTYPE
  5
13
330
5
100
AcDbSymbolTableRecord
100
AcDbLinetypeTableRecord
  2
BYLAYER
 70
     0
  3

 72
    65
 73
     0
 40
0.0
  0
LTYPE
  5
14
330
5
100
AcDbSymbolTableRecord
100
AcDbLinetypeTableRecord
  2
CONTINUOUS
 70
     0
  3
Solid line
 72
    65
 73
     0
 40
0.0
  0
LTYPE
  5
126C
330
5
100
AcDbSymbolTableRecord
100
AcDbLinetypeTableRecord
  2
CENTER
 70
     0
  3
____ _ ____ _ ____ _ ____ _ ____ _ ____ _ ____
 72
    65
 73
     4
 40
2.0
 49
1.25
 74
     0
 49
-0.25
 74
     0
 49
0.25
 74
     0
 49
-0.25
 74
     0
  0
LTYPE
  5
126E
330
5
100
AcDbSymbolTableRecord
100
AcDbLinetypeTableRecord
  2
DASHDOT
 70
     0
  3
__ . __ . __ . __ . __ . __ . __ . __ . __ . __
 72
    65
 73
     4
 40
1.0
 49
0.5
 74
     0
 49
-0.25
 74
     0
 49
0.0
 74
     0
 49
-0.25
 74
     0
  0
LTYPE
  5
1541F
330
5
100
AcDbSymbolTableRecord
100
AcDbLinetypeTableRecord
  2
HIDDEN
 70
     0
  3
_ _ _ _ _ _ _ _ _ _ _ _ _ _ _ _ _ _ _ _ _ _ _
 72
    65
 73
     2
 40
0.375
 49
0.25
 74
     0
 49
-0.125
 74
     0
  0
LTYPE
  5
15420
330
5
100
AcDbSymbolTableRecord
100
AcDbLinetypeTableRecord
  2
CENTER2
 70
     0
  3
Center (.5x) ___ _ ___ _ ___ _ ___ _ ___ _ ___
 72
    65
 73
     4
 40
1.125
 49
0.75
 74
     0
 49
-0.125
 74
     0
 49
0.125
 74
     0
 49
-0.125
 74
     0
  0
LTYPE
  5
15421
330
5
100
AcDbSymbolTableRecord
100
AcDbLinetypeTableRecord
  2
PHANTOM2
 70
     0
  3
Phantom (.5x) ___ _ _ ___ _ _ ___ _ _ ___ _ _
 72
    65
 73
     6
 40
1.25
 49
0.625
 74
     0
 49
-0.125
 74
     0
 49
0.125
 74
     0
 49
-0.125
 74
     0
 49
0.125
 74
     0
 49
-0.125
 74
     0
  0
LTYPE
  5
1615D
330
5
100
AcDbSymbolTableRecord
100
AcDbLinetypeTableRecord
  2
PHANTOM
 70
     0
  3
Phantom ______  __  __  ______  __  __  ______
 72
    65
 73
     6
 40
2.5
 49
1.25
 74
     0
 49
-0.25
 74
     0
 49
0.25
 74
     0
 49
-0.25
 74
     0
 49
0.25
 74
     0
 49
-0.25
 74
     0
  0
ENDTAB
  0
TABLE
  2
LAYER
  5
2
102
{ACAD_XDICTIONARY
360
29042
102
}
330
0
100
AcDbSymbolTable
 70
    18
  0
LAYER
  5
E
330
2
100
AcDbSymbolTableRecord
100
AcDbLayerTableRecord
  2
0
 70
     2
 62
     7
  6
CONTINUOUS
  0
LAYER
  5
2C
330
2
100
AcDbSymbolTableRecord
100
AcDbLayerTableRecord
  2
M_VIEW
 70
     4
 62
    -1
  6
CONTINUOUS
  0
LAYER
  5
30
330
2
100
AcDbSymbolTableRecord
100
AcDbLayerTableRecord
  2
FRAME025
 70
     0
 62
     7
  6
CONTINUOUS
  0
LAYER
  5
12B
330
2
100
AcDbSymbolTableRecord
100
AcDbLayerTableRecord
  2
DEFPOINTS
 70
     4
 62
    -7
  6
CONTINUOUS
  0
LAYER
  5
651
330
2
100
AcDbSymbolTableRecord
100
AcDbLayerTableRecord
  2
FRAME020
 70
     0
 62
     7
  6
CONTINUOUS
  0
LAYER
  5
1271
330
2
100
AcDbSymbolTableRecord
100
AcDbLayerTableRecord
  2
A
 70
     0
 62
     7
  6
CONTINUOUS
  0
LAYER
  5
A9BB
330
2
100
AcDbSymbolTableRecord
100
AcDbLayerTableRecord
  2
文字
 70
     0
 62
     7
  6
CONTINUOUS
  0
LAYER
  5
122DE
330
2
100
AcDbSymbolTableRecord
100
AcDbLayerTableRecord
  2
DIMENSION
 70
     0
 62
     7
  6
CONTINUOUS
  0
LAYER
  5
15422
330
2
100
AcDbSymbolTableRecord
100
AcDbLayerTableRecord
  2
細線
 70
     0
 62
     7
  6
CONTINUOUS
  0
LAYER
  5
15425
330
2
100
AcDbSymbolTableRecord
100
AcDbLayerTableRecord
  2
中心線
 70
     0
 62
     7
  6
CENTER2
  0
LAYER
  5
15426
330
2
100
AcDbSymbolTableRecord
100
AcDbLayerTableRecord
  2
仮想線
 70
     0
 62
     7
  6
PHANTOM2
  0
LAYER
  5
1615E
330
2
100
AcDbSymbolTableRecord
100
AcDbLayerTableRecord
  2
２点鎖線
 70
     0
 62
     7
  6
PHANTOM
  0
LAYER
  5
17D4F
330
2
100
AcDbSymbolTableRecord
100
AcDbLayerTableRecord
  2
破線
 70
     0
 62
     7
  6
HIDDEN
  0
LAYER
  5
1A846
330
2
100
AcDbSymbolTableRecord
100
AcDbLayerTableRecord
  2
実線
 70
     0
 62
     7
  6
CONTINUOUS
  0
ENDTAB
  0
TABLE
  2
STYLE
  5
3
330
0
100
AcDbSymbolTable
 70
     4
  0
STYLE
  5
F
330
3
100
AcDbSymbolTableRecord
100
AcDbTextStyleTableRecord
  2
STANDARD
 70
     0
 40
0.0
 41
1.0
 50
0.0
 71
     0
 42
2.5
  3
isocp.shx
  4
bigfont.shx
  0
STYLE
  5
35
330
3
100
AcDbSymbolTableRecord
100
AcDbTextStyleTableRecord
  2
MSｺ_ｼｯｸ
 70
     0
 40
0.0
 41
1.0
 50
0.0
 71
     0
 42
5.0
  3
MS Gothic.ttf
  4

1001
ACAD
1000
MS Gothic
1071
    32817
  0
STYLE
  5
1275
330
3
100
AcDbSymbolTableRecord
100
AcDbTextStyleTableRecord
  2
BIGFONT
 70
     0
 40
2.0
 41
1.0
 50
0.0
 71
     0
 42
2.0
  3
txt.shx
  4
bigfont.shx
  0
STYLE
  5
1A84A
330
3
100
AcDbSymbolTableRecord
100
AcDbTextStyleTableRecord
  2
ｽﾀｲﾙ3
 70
     0
 40
10.0
 41
1.0
 50
0.0
 71
     0
 42
10.0
  3
isocp.shx
  4
extfont.shx
  0
ENDTAB
  0
TABLE
  2
VIEW
  5
6
330
0
100
AcDbSymbolTable
 70
     0
  0
ENDTAB
  0
TABLE
  2
UCS
  5
7
330
0
100
AcDbSymbolTable
 70
     0
  0
ENDTAB
  0
TABLE
  2
APPID
  5
9
330
0
100
AcDbSymbolTable
 70
     4
  0
APPID
  5
10
330
9
100
AcDbSymbolTableRecord
100
AcDbRegAppTableRecord
  2
ACAD
 70
     0
  0
APPID
  5
F013
330
9
100
AcDbSymbolTableRecord
100
AcDbRegAppTableRecord
  2
CONTENTBLOCKDESCRIPTION
 70
     0
  0
APPID
  5
F014
330
9
100
AcDbSymbolTableRecord
100
AcDbRegAppTableRecord
  2
CONTENTBLOCKICON
 70
     0
  0
APPID
  5
1A9A0
330
9
100
AcDbSymbolTableRecord
100
AcDbRegAppTableRecord
  2
DCO15
 70
     0
  0
ENDTAB
  0
TABLE
  2
DIMSTYLE
  5
A
330
0
100
AcDbSymbolTable
 70
     2
  0
DIMSTYLE
105
1D
330
A
100
AcDbSymbolTableRecord
100
AcDbDimStyleTableRecord
  2
STANDARD
 70
     0
  3

  4

  5

  6

  7

 40
1.0
 41
0.18
 42
0.0625
 43
0.38
 44
0.18
 45
0.0
 46
0.0
 47
0.0
 48
0.0
140
0.18
141
0.09
142
0.0
143
25.4
144
1.0
145
0.0
146
1.0
147
0.09
 71
     0
 72
     0
 73
     1
 74
     1
 75
     0
 76
     0
 77
     0
 78
     0
170
     0
171
     2
172
     0
173
     0
174
     0
175
     0
176
     0
177
     0
178
     0
270
     2
271
     4
272
     4
273
     2
274
     2
340
F
275
     0
280
     0
281
     0
282
     0
283
     1
284
     0
285
     0
286
     0
287
     3
288
     0
  0
ENDTAB
  0
TABLE
  2
BLOCK_RECORD
  5
1
330
0
100
AcDbSymbolTable
 70
    42
  0
BLOCK_RECORD
  5
18
102
{ACAD_XDICTIONARY
360
EFC6
102
}
330
1
100
AcDbSymbolTableRecord
100
AcDbBlockTableRecord
  2
*MODEL_SPACE
  0
BLOCK_RECORD
  5
288D0
102
{ACAD_XDICTIONARY
360
289EB
102
}
330
1
100
AcDbSymbolTableRecord
100
AcDbBlockTableRecord
  2
*PAPER_SPACE
  0
BLOCK_RECORD
  5
115C
330
1
100
AcDbSymbolTableRecord
100
AcDbBlockTableRecord
  2
機械A4横_LBP
  0
BLOCK_RECORD
  5
1215D
330
1
100
AcDbSymbolTableRecord
100
AcDbBlockTableRecord
  2
_OPEN30
  0
ENDTAB
  0
ENDSEC
  0
SECTION
  2
BLOCKS
  0
BLOCK
  5
19
330
18
100
AcDbEntity
  8
0
100
AcDbBlockBegin
  2
*MODEL_SPACE
 70
     0
 10
0.0
 20
0.0
 30
0.0
  3
*MODEL_SPACE
  1

  0
ENDBLK
  5
1A
330
18
100
AcDbEntity
  8
0
100
AcDbBlockEnd
  0
BLOCK
  5
289EC
330
288D0
100
AcDbEntity
 67
     1
  8
0
100
AcDbBlockBegin
  2
*PAPER_SPACE
 70
     0
 10
0.0
 20
0.0
 30
0.0
  3
*PAPER_SPACE
  1

  0
ENDBLK
  5
289ED
330
288D0
100
AcDbEntity
 67
     1
  8
0
100
AcDbBlockEnd
  0
BLOCK
  5
115D
330
115C
100
AcDbEntity
  8
0
100
AcDbBlockBegin
  2
機械A4横_LBP
 70
     0
 10
0.0
 20
0.0
 30
0.0
  3
機械A4横_LBP
  1

  0
ENDBLK
  5
115E
330
115C
100
AcDbEntity
  8
0
100
AcDbBlockEnd
  0
BLOCK
  5
12161
330
1215D
100
AcDbEntity
  8
0
100
AcDbBlockBegin
  2
_OPEN30
 70
     0
 10
0.0
 20
0.0
 30
0.0
  3
_OPEN30
  1

  0
LINE
  5
1215E
330
1215D
100
AcDbEntity
  8
0
  6
BYBLOCK
 62
     0
100
AcDbLine
 10
-1.0
 20
0.26794919
 30
0.0
 11
0.0
 21
0.0
 31
0.0
  0
LINE
  5
1215F
330
1215D
100
AcDbEntity
  8
0
  6
BYBLOCK
 62
     0
100
AcDbLine
 10
0.0
 20
0.0
 30
0.0
 11
-1.0
 21
-0.26794919
 31
0.0
  0
LINE
  5
12160
330
1215D
100
AcDbEntity
  8
0
  6
BYBLOCK
 62
     0
100
AcDbLine
 10
0.0
 20
0.0
 30
0.0
 11
-1.0
 21
0.0
 31
0.0
  0
ENDBLK
  5
12162
330
1215D
100
AcDbEntity
  8
0
100
AcDbBlockEnd
  0
ENDSEC
  0
SECTION
  2
ENTITIES
  0
MTEXT
  5
176FC
330
18
100
AcDbEntity
  8
DIMENSION
 62
     2
100
AcDbMText
 10
-100.7823601383244
 20
171.6213144128388
 30
0.0
 40
8.0
 41
0.0
 71
     4
 72
     1
  1

1001
ACAD
1000
MTEXTBEGIN
1070
    73
1070
     1
1070
    44
1040
1.0
1070
    74
1070
     0
1000
MTEXTEND
  0
TEXT
  5
187C8
330
18
100
AcDbEntity
  8
A
100
AcDbText
 10
27.08248755054501
 20
1784.547672862094
 30
0.0
 40
2.5
  1

  7
MSｺ_ｼｯｸ
100
AcDbText
  0
TEXT
  5
187C9
330
18
100
AcDbEntity
  8
A
100
AcDbText
 10
19.25748755054502
 20
1784.547672862094
 30
0.0
 40
2.5
  1

 41
0.5
  7
MSｺ_ｼｯｸ
100
AcDbText
  0
TEXT
  5
187CA
330
18
100
AcDbEntity
  8
A
100
AcDbText
 10
167.1825875009164
 20
2214.514692980458
 30
0.0
 40
3.524999999999999
  1
�    
100
AcDbText
  0
MTEXT
  5
187CB
330
18
100
AcDbEntity
  8
0
  6
BYBLOCK
100
AcDbMText
 10
325.4874764241681
 20
2232.511722574347
 30
0.0
 40
2.0
 41
0.0
 71
     4
 72
     5
  1

 11
-0.0000000000000002
 21
-1.0
 31
0.0
1001
ACAD
1000
MTEXTBEGIN
1070
    73
1070
     1
1070
    44
1040
1.0
1070
    74
1070
     0
1000
MTEXTEND
1000
MTEXTBEGIN
1070
    73
1070
     1
1070
    44
1040
1.0
1070
    74
1070
     0
1000
MTEXTEND
  0
MTEXT
  5
187CC
330
18
100
AcDbEntity
  8
0
  6
BYBLOCK
100
AcDbMText
 10
360.9528647873208
 20
2221.718414215929
 30
0.0
 40
2.0
 41
0.0
 71
     7
 72
     5
  1

 11
0.0000000000000001
 21
1.0
 31
0.0
1001
ACAD
1000
MTEXTBEGIN
1070
    73
1070
     1
1070
    44
1040
1.0
1070
    74
1070
     0
1000
MTEXTEND
1000
MTEXTBEGIN
1070
    73
1070
     1
1070
    44
1040
1.0
1070
    74
1070
     0
1000
MTEXTEND
  0
MTEXT
  5
187CD
330
18
100
AcDbEntity
  8
0
100
AcDbMText
 10
325.1733668026532
 20
2146.938903673639
 30
0.0
 40
2.0
 41
10.1453
 71
     1
 72
     5
  1

 11
-0.0000000000000002
 21
-1.0
 31
0.0
1001
ACAD
1000
MTEXTBEGIN
1070
    73
1070
     1
1070
    44
1040
1.0
1070
    74
1070
     0
1000
MTEXTEND
1000
MTEXTBEGIN
1070
    73
1070
     1
1070
    44
1040
1.0
1070
    74
1070
     0
1000
MTEXTEND
  0
MTEXT
  5
187CE
330
18
100
AcDbEntity
  8
0
100
AcDbMText
 10
280.7738750495033
 20
2115.30742008065
 30
0.0
 40
2.0
 41
0.0
 71
     1
 72
     5
  1

1001
ACAD
1000
MTEXTBEGIN
1070
    73
1070
     1
1070
    44
1040
1.0
1070
    74
1070
     0
1000
MTEXTEND
1000
MTEXTBEGIN
1070
    73
1070
     1
1070
    44
1040
1.0
1070
    74
1070
     0
1000
MTEXTEND
  0
MTEXT
  5
187CF
330
18
100
AcDbEntity
  8
0
  6
CENTER
100
AcDbMText
 10
606.3621522332661
 20
2216.239946825076
 30
0.0
 40
2.0
 41
15.6417
 71
     1
 72
     5
  1

  7
BIGFONT
1001
ACAD
1000
MTEXTBEGIN
1070
    73
1070
     1
1070
    44
1040
1.0
1070
    74
1070
     0
1000
MTEXTEND
1000
MTEXTBEGIN
1070
    73
1070
     1
1070
    44
1040
1.0
1070
    74
1070
     0
1000
MTEXTEND
  0
MTEXT
  5
187D0
330
18
100
AcDbEntity
  8
0
  6
DASHDOT
100
AcDbMText
 10
368.6842112890943
 20
2323.029441652852
 30
0.0
 40
1.0
 41
2.0
 71
     1
 72
     5
  1

  7
BIGFONT
1001
ACAD
1000
MTEXTBEGIN
1070
    73
1070
     1
1070
    44
1040
1.0
1070
    74
1070
     0
1000
MTEXTEND
1000
MTEXTBEGIN
1070
    73
1070
     1
1070
    44
1040
1.0
1070
    74
1070
     0
1000
MTEXTEND
  0
MTEXT
  5
187D1
330
18
100
AcDbEntity
  8
0
  6
BYBLOCK
100
AcDbMText
 10
325.4873894192176
 20
2232.511722574347
 30
0.0
 40
2.0
 41
0.0
 71
     4
 72
     5
  1

 11
-0.0000000000000002
 21
-1.0
 31
0.0
1001
ACAD
1000
MTEXTBEGIN
1070
    73
1070
     1
1070
    44
1040
1.0
1070
    74
1070
     0
1000
MTEXTEND
1000
MTEXTBEGIN
1070
    73
1070
     1
1070
    44
1040
1.0
1070
    74
1070
     0
1000
MTEXTEND
  0
MTEXT
  5
187D2
330
18
100
AcDbEntity
  8
0
  6
BYBLOCK
100
AcDbMText
 10
360.9527777823706
 20
2221.718414215929
 30
0.0
 40
2.0
 41
0.0
 71
     7
 72
     5
  1

 11
0.0000000000000001
 21
1.0
 31
0.0
1001
ACAD
1000
MTEXTBEGIN
1070
    73
1070
     1
1070
    44
1040
1.0
1070
    74
1070
     0
1000
MTEXTEND
1000
MTEXTBEGIN
1070
    73
1070
     1
1070
    44
1040
1.0
1070
    74
1070
     0
1000
MTEXTEND
  0
MTEXT
  5
187D3
330
18
100
AcDbEntity
  8
0
100
AcDbMText
 10
325.1732797977028
 20
2146.938903673639
 30
0.0
 40
2.0
 41
10.1453
 71
     1
 72
     5
  1

 11
-0.0000000000000002
 21
-1.0
 31
0.0
1001
ACAD
1000
MTEXTBEGIN
1070
    73
1070
     1
1070
    44
1040
1.0
1070
    74
1070
     0
1000
MTEXTEND
1000
MTEXTBEGIN
1070
    73
1070
     1
1070
    44
1040
1.0
1070
    74
1070
     0
1000
MTEXTEND
  0
MTEXT
  5
187D4
330
18
100
AcDbEntity
  8
0
100
AcDbMText
 10
280.7737880445529
 20
2115.30742008065
 30
0.0
 40
2.0
 41
0.0
 71
     1
 72
     5
  1

1001
ACAD
1000
MTEXTBEGIN
1070
    73
1070
     1
1070
    44
1040
1.0
1070
    74
1070
     0
1000
MTEXTEND
1000
MTEXTBEGIN
1070
    73
1070
     1
1070
    44
1040
1.0
1070
    74
1070
     0
1000
MTEXTEND
  0
MTEXT
  5
187D5
330
18
100
AcDbEntity
  8
0
  6
CENTER
100
AcDbMText
 10
606.3620652283159
 20
2216.239946825076
 30
0.0
 40
2.0
 41
15.6417
 71
     1
 72
     5
  1

  7
BIGFONT
1001
ACAD
1000
MTEXTBEGIN
1070
    73
1070
     1
1070
    44
1040
1.0
1070
    74
1070
     0
1000
MTEXTEND
1000
MTEXTBEGIN
1070
    73
1070
     1
1070
    44
1040
1.0
1070
    74
1070
     0
1000
MTEXTEND
  0
MTEXT
  5
187D6
330
18
100
AcDbEntity
  8
0
  6
DASHDOT
100
AcDbMText
 10
368.6841242841442
 20
2323.029441652852
 30
0.0
 40
1.0
 41
2.0
 71
     1
 72
     5
  1

  7
BIGFONT
1001
ACAD
1000
MTEXTBEGIN
1070
    73
1070
     1
1070
    44
1040
1.0
1070
    74
1070
     0
1000
MTEXTEND
1000
MTEXTBEGIN
1070
    73
1070
     1
1070
    44
1040
1.0
1070
    74
1070
     0
1000
MTEXTEND
  0
INSERT
  5
187D7
330
18
100
AcDbEntity
  8
FRAME025
100
AcDbBlockReference
  2
機械A4横_LBP
 10
271.0019941658661
 20
2006.88884056487
 30
0.0
  0
LINE
  5
28120
102
{ACAD_REACTORS
330
288CB
102
}
330
18
100
AcDbEntity
  8
中心線
 48
2.0
100
AcDbLine
 10
-1225.788568490092
 20
-1527.640943358604
 30
0.0
 11
-967.2430782236597
 21
-1527.640943358604
 31
0.0
  0
LINE
  5
28121
330
18
100
AcDbEntity
  8
破線
100
AcDbLine
 10
-1188.093894037639
 20
-1560.140943358604
 30
0.0
 11
-977.0938940376392
 21
-1560.140943358604
 31
0.0
  0
LINE
  5
28122
330
18
100
AcDbEntity
  8
破線
100
AcDbLine
 10
-1188.093894037639
 20
-1495.140943358604
 30
0.0
 11
-977.0938940376387
 21
-1495.140943358604
 31
0.0
  0
LINE
  5
28123
330
18
100
AcDbEntity
  8
実線
100
AcDbLine
 10
-1173.093894037638
 20
-1395.140943358603
 30
0.0
 11
-996.0938940376387
 21
-1395.140943358604
 31
0.0
  0
LINE
  5
28124
330
18
100
AcDbEntity
  8
実線
100
AcDbLine
 10
-1173.09389403764
 20
-1660.140943358601
 30
0.0
 11
-996.0938940376392
 21
-1660.140943358601
 31
0.0
  0
CIRCLE
  5
28126
330
18
100
AcDbEntity
  8
実線
100
AcDbCircle
 10
-1469.355520688201
 20
-1527.640943358604
 30
0.0
 40
95.5
  0
CIRCLE
  5
28127
330
18
100
AcDbEntity
  8
実線
100
AcDbCircle
 10
-1469.355520688201
 20
-1527.640943358604
 30
0.0
 40
95.0
  0
CIRCLE
  5
2812F
330
18
100
AcDbEntity
  8
中心線
 48
2.0
100
AcDbCircle
 10
-1469.355520688201
 20
-1527.640943358604
 30
0.0
 40
75.00000000000046
  0
CIRCLE
  5
28130
330
18
100
AcDbEntity
  8
実線
100
AcDbCircle
 10
-1469.355520688201
 20
-1527.640943358604
 30
0.0
 40
89.99999999999955
  0
LINE
  5
28131
330
18
100
AcDbEntity
  8
中心線
 48
2.0
100
AcDbLine
 10
-1322.355520688201
 20
-1527.640943358602
 30
0.0
 11
-1616.355520688201
 21
-1527.640943358602
 31
0.0
  0
CIRCLE
  5
28132
330
18
100
AcDbEntity
  8
細線
  6
CONTINUOUS
100
AcDbCircle
 10
-1405.187158774439
 20
-1623.675683579548
 30
0.0
 40
5.0
  0
CIRCLE
  5
28133
330
18
100
AcDbEntity
  8
実線
100
AcDbCircle
 10
-1405.187158774437
 20
-1623.67568357955
 30
0.0
 40
5.5
  0
CIRCLE
  5
28134
330
18
100
AcDbEntity
  8
細線
  6
CONTINUOUS
100
AcDbCircle
 10
-1405.187158774434
 20
-1431.606203137663
 30
0.0
 40
5.0
  0
CIRCLE
  5
28135
330
18
100
AcDbEntity
  8
実線
100
AcDbCircle
 10
-1405.187158774436
 20
-1431.606203137661
 30
0.0
 40
5.5
  0
CIRCLE
  5
28136
330
18
100
AcDbEntity
  8
実線
100
AcDbCircle
 10
-1469.355520688201
 20
-1527.640943358604
 30
0.0
 40
132.4999999999999
  0
LINE
  5
28138
330
18
100
AcDbEntity
  8
中心線
 48
2.0
100
AcDbLine
 10
-1469.355520688201
 20
-1674.640943358604
 30
0.0
 11
-1469.355520688201
 21
-1380.640943358604
 31
0.0
  0
CIRCLE
  5
2813B
330
18
100
AcDbEntity
  8
実線
100
AcDbCircle
 10
-1546.146623878182
 20
-1507.064829272954
 30
0.0
 40
5.500000000000452
  0
CIRCLE
  5
2813C
330
18
100
AcDbEntity
  8
細線
  6
CONTINUOUS
100
AcDbCircle
 10
-1546.146623878182
 20
-1507.064829272954
 30
0.0
 40
5.0
  0
CIRCLE
  5
2813D
330
18
100
AcDbEntity
  8
細線
  6
CONTINUOUS
100
AcDbCircle
 10
-1546.146623878182
 20
-1507.064829272954
 30
0.0
 40
4.399999999999995
  0
LINE
  5
2813E
330
18
100
AcDbEntity
  8
細線
  6
CONTINUOUS
100
AcDbLine
 10
-1548.187865323504
 20
-1505.023587794529
 30
0.0
 11
-1548.935011564303
 21
-1507.811975525864
 31
0.0
  0
LINE
  5
2813F
330
18
100
AcDbEntity
  8
細線
  6
CONTINUOUS
100
AcDbLine
 10
-1543.358236192061
 20
-1506.317683020041
 30
0.0
 11
-1544.105382432857
 21
-1509.106070751378
 31
0.0
  0
CIRCLE
  5
28140
330
18
100
AcDbEntity
  8
実線
100
AcDbCircle
 10
-1469.355520688201
 20
-1527.640943358604
 30
0.0
 40
32.5
  0
CIRCLE
  5
28141
330
18
100
AcDbEntity
  8
細線
  6
CONTINUOUS
100
AcDbCircle
 10
-1582.636220574769
 20
-1505.108011165738
 30
0.0
 40
5.0
  0
CIRCLE
  5
28142
330
18
100
AcDbEntity
  8
細線
  6
CONTINUOUS
100
AcDbCircle
 10
-1582.636220574769
 20
-1505.108011165738
 30
0.0
 40
4.399999999999995
  0
CIRCLE
  5
28143
330
18
100
AcDbEntity
  8
実線
100
AcDbCircle
 10
-1582.636220574773
 20
-1505.108011165738
 30
0.0
 40
5.5
  0
LINE
  5
28144
330
18
100
AcDbEntity
  8
細線
  6
CONTINUOUS
100
AcDbLine
 10
-1580.465846023374
 20
-1507.011378709508
 30
0.0
 11
-1583.199397893503
 21
-1507.939294741276
 31
0.0
  0
LINE
  5
28145
330
18
100
AcDbEntity
  8
細線
  6
CONTINUOUS
100
AcDbLine
 10
-1583.199397795957
 20
-1507.939294250884
 30
0.0
 11
-1585.369772327844
 21
-1506.035926609035
 31
0.0
  0
LINE
  5
2814D
102
{ACAD_REACTORS
330
288C4
330
288CE
102
}
330
18
100
AcDbEntity
  8
仮想線
 48
0.5
100
AcDbLine
 10
-1607.352549068836
 20
-1531.97068468526
 30
0.0
 11
-1612.052549013758
 21
-1531.971404225784
 31
0.0
  0
LINE
  5
2814E
102
{ACAD_REACTORS
330
288C4
330
288CE
102
}
330
18
100
AcDbEntity
  8
仮想線
 48
0.5
100
AcDbLine
 10
-1607.353850365528
 20
-1523.470684784871
 30
0.0
 11
-1612.05385031045
 21
-1523.471404325395
 31
0.0
  0
LINE
  5
2814F
102
{ACAD_REACTORS
330
288C4
330
288CE
102
}
330
18
100
AcDbEntity
  8
仮想線
 48
0.5
100
AcDbLine
 10
-1612.352594938362
 20
-1531.671450157418
 30
0.0
 11
-1612.052549013758
 21
-1531.971404225784
 31
0.0
  0
LINE
  5
28150
102
{ACAD_REACTORS
330
288C4
330
288CE
102
}
330
18
100
AcDbEntity
  8
仮想線
 48
0.5
100
AcDbLine
 10
-1612.05385031045
 20
-1523.471404325395
 30
0.0
 11
-1612.353804378815
 21
-1523.771450249997
 31
0.0
  0
LINE
  5
28151
102
{ACAD_REACTORS
330
288C4
330
288CE
102
}
330
18
100
AcDbEntity
  8
仮想線
 48
0.5
100
AcDbLine
 10
-1612.352594938362
 20
-1531.671450157418
 30
0.0
 11
-1612.353804378815
 21
-1523.771450249997
 31
0.0
  0
LINE
  5
28152
102
{ACAD_REACTORS
330
288C4
102
}
330
18
100
AcDbEntity
  8
仮想線
 48
0.5
100
AcDbLine
 10
-1601.855520688201
 20
-1537.640943358602
 30
0.0
 11
-1605.055520688201
 21
-1537.640943358602
 31
0.0
  0
LINE
  5
28153
102
{ACAD_REACTORS
330
288C4
102
}
330
18
100
AcDbEntity
  8
仮想線
 48
0.5
100
AcDbLine
 10
-1601.855520688201
 20
-1517.640943358602
 30
0.0
 11
-1605.055520688201
 21
-1517.640943358602
 31
0.0
  0
LINE
  5
28154
102
{ACAD_REACTORS
330
288C4
102
}
330
18
100
AcDbEntity
  8
仮想線
 48
0.5
100
AcDbLine
 10
-1601.855520688201
 20
-1547.640943358602
 30
0.0
 11
-1605.055520688201
 21
-1547.640943358602
 31
0.0
  0
LINE
  5
28155
102
{ACAD_REACTORS
330
288C4
102
}
330
18
100
AcDbEntity
  8
仮想線
 48
0.5
100
AcDbLine
 10
-1601.855520688201
 20
-1507.640943358602
 30
0.0
 11
-1605.055520688201
 21
-1507.640943358602
 31
0.0
  0
LINE
  5
28156
102
{ACAD_REACTORS
330
288C4
102
}
330
18
100
AcDbEntity
  8
仮想線
 48
0.5
100
AcDbLine
 10
-1605.055520688201
 20
-1547.640943358602
 30
0.0
 11
-1605.055520688201
 21
-1507.640943358602
 31
0.0
  0
LINE
  5
28157
102
{ACAD_REACTORS
330
288C4
102
}
330
18
100
AcDbEntity
  8
仮想線
 48
0.5
100
AcDbLine
 10
-1601.855520688201
 20
-1547.640943358602
 30
0.0
 11
-1601.855520688201
 21
-1507.640943358602
 31
0.0
  0
LINE
  5
28158
102
{ACAD_REACTORS
330
288C4
330
288CE
102
}
330
18
100
AcDbEntity
  8
仮想線
 48
0.5
100
AcDbLine
 10
-1605.052446429546
 20
-1532.640942946545
 30
0.0
 11
-1606.052446417828
 21
-1532.641096040275
 31
0.0
  0
LINE
  5
28159
102
{ACAD_REACTORS
330
288C4
330
288CE
102
}
330
18
100
AcDbEntity
  8
仮想線
 48
0.5
100
AcDbLine
 10
-1606.052507655319
 20
-1532.241096044961
 30
0.0
 11
-1607.352507640085
 21
-1532.241295066809
 31
0.0
  0
LINE
  5
2815A
102
{ACAD_REACTORS
330
288C4
330
288CE
102
}
330
18
100
AcDbEntity
  8
仮想線
 48
0.5
100
AcDbLine
 10
-1605.05397736683
 20
-1522.640943063735
 30
0.0
 11
-1606.053977355112
 21
-1522.641096157463
 31
0.0
  0
LINE
  5
2815B
102
{ACAD_REACTORS
330
288C4
330
288CE
102
}
330
18
100
AcDbEntity
  8
仮想線
 48
0.5
100
AcDbLine
 10
-1606.053916117621
 20
-1523.041096152776
 30
0.0
 11
-1607.353916102385
 21
-1523.041295174623
 31
0.0
  0
LINE
  5
2815C
102
{ACAD_REACTORS
330
288C4
330
288CE
102
}
330
18
100
AcDbEntity
  8
仮想線
 48
0.5
100
AcDbLine
 10
-1607.352507640085
 20
-1532.241295066809
 30
0.0
 11
-1607.353916102385
 21
-1523.041295174623
 31
0.0
  0
LINE
  5
2815D
102
{ACAD_REACTORS
330
288C4
330
288CE
102
}
330
18
100
AcDbEntity
  8
仮想線
 48
0.5
100
AcDbLine
 10
-1606.05321188647
 20
-1527.641096098869
 30
0.0
 11
-1606.053977355112
 21
-1522.641096157463
 31
0.0
  0
LINE
  5
2815E
102
{ACAD_REACTORS
330
288C4
330
288CE
102
}
330
18
100
AcDbEntity
  8
仮想線
 48
0.5
100
AcDbLine
 10
-1606.052446417828
 20
-1532.641096040275
 30
0.0
 11
-1606.05321188647
 21
-1527.641096098869
 31
0.0
  0
CIRCLE
  5
28168
330
18
100
AcDbEntity
  8
細線
 48
0.5
100
AcDbCircle
 10
-1544.355520688201
 20
-1527.640943358606
 30
0.0
 40
5.0
  0
CIRCLE
  5
28169
330
18
100
AcDbEntity
  8
実線
100
AcDbCircle
 10
-1546.146623878182
 20
-1548.217057444254
 30
0.0
 40
5.500000000000452
  0
CIRCLE
  5
2816A
330
18
100
AcDbEntity
  8
細線
  6
CONTINUOUS
100
AcDbCircle
 10
-1546.146623878182
 20
-1548.217057444254
 30
0.0
 40
4.399999999999995
  0
CIRCLE
  5
2816B
330
18
100
AcDbEntity
  8
細線
  6
CONTINUOUS
100
AcDbCircle
 10
-1546.146623878182
 20
-1548.217057444254
 30
0.0
 40
5.0
  0
CIRCLE
  5
2816C
330
18
100
AcDbEntity
  8
細線
  6
CONTINUOUS
100
AcDbCircle
 10
-1565.390260909144
 20
-1591.809305272365
 30
0.0
 40
5.0
  0
CIRCLE
  5
2816D
330
18
100
AcDbEntity
  8
実線
100
AcDbCircle
 10
-1565.390260909146
 20
-1591.809305272364
 30
0.0
 40
5.5
  0
LINE
  5
2816E
330
18
100
AcDbEntity
  8
細線
  6
CONTINUOUS
100
AcDbLine
 10
-1562.509690248846
 20
-1591.620502806646
 30
0.0
 11
-1563.786467594504
 21
-1594.209551589176
 31
0.0
  0
LINE
  5
2816F
330
18
100
AcDbEntity
  8
細線
  6
CONTINUOUS
100
AcDbLine
 10
-1568.270831513884
 20
-1591.998107821225
 30
0.0
 11
-1566.667038365916
 21
-1594.398353888599
 31
0.0
  0
CIRCLE
  5
28170
330
18
100
AcDbEntity
  8
細線
  6
CONTINUOUS
100
AcDbCircle
 10
-1565.390260909144
 20
-1591.809305272365
 30
0.0
 40
4.399999999999995
  0
LINE
  5
28171
330
18
100
AcDbEntity
  8
細線
  6
CONTINUOUS
100
AcDbLine
 10
-1563.786467872289
 20
-1594.209551173439
 30
0.0
 11
-1566.667038588144
 21
-1594.39835355601
 31
0.0
  0
CIRCLE
  5
28173
330
18
100
AcDbEntity
  8
細線
  6
CONTINUOUS
100
AcDbCircle
 10
-1582.636220574771
 20
-1550.173875551463
 30
0.0
 40
5.0
  0
CIRCLE
  5
28174
330
18
100
AcDbEntity
  8
細線
  6
CONTINUOUS
100
AcDbCircle
 10
-1582.636220574771
 20
-1550.173875551463
 30
0.0
 40
4.399999999999995
  0
CIRCLE
  5
28175
330
18
100
AcDbEntity
  8
実線
100
AcDbCircle
 10
-1582.636220574774
 20
-1550.173875551465
 30
0.0
 40
5.5
  0
LINE
  5
28176
330
18
100
AcDbEntity
  8
細線
  6
CONTINUOUS
100
AcDbLine
 10
-1580.465846003867
 20
-1548.27050810577
 30
0.0
 11
-1579.90266874366
 21
-1551.101791387074
 31
0.0
  0
LINE
  5
28177
330
18
100
AcDbEntity
  8
細線
  6
CONTINUOUS
100
AcDbLine
 10
-1585.369772405882
 20
-1549.24595971585
 30
0.0
 11
-1584.806595145675
 21
-1552.077242997155
 31
0.0
  0
LINE
  5
28178
330
18
100
AcDbEntity
  8
細線
  6
CONTINUOUS
100
AcDbLine
 10
-1579.90266872415
 20
-1551.101791485152
 30
0.0
 11
-1582.073043256037
 21
-1553.005159127001
 31
0.0
  0
LINE
  5
28179
330
18
100
AcDbEntity
  8
細線
  6
CONTINUOUS
100
AcDbLine
 10
-1582.073043353583
 20
-1553.005158636609
 30
0.0
 11
-1584.806595223712
 21
-1552.077242604839
 31
0.0
  0
LINE
  5
2817A
330
18
100
AcDbEntity
  8
細線
  6
CONTINUOUS
100
AcDbLine
 10
-1583.199397893505
 20
-1547.342591975922
 30
0.0
 11
-1580.465846023376
 21
-1548.270508007691
 31
0.0
  0
LINE
  5
2817B
330
18
100
AcDbEntity
  8
細線
  6
CONTINUOUS
100
AcDbLine
 10
-1583.199397795959
 20
-1547.342592466317
 30
0.0
 11
-1585.369772327846
 21
-1549.245960108165
 31
0.0
  0
LINE
  5
2817C
330
18
100
AcDbEntity
  8
細線
  6
CONTINUOUS
100
AcDbLine
 10
-1564.113483452371
 20
-1589.220256656128
 30
0.0
 11
-1562.509690304403
 21
-1591.620502723501
 31
0.0
  0
LINE
  5
2817D
330
18
100
AcDbEntity
  8
細線
  6
CONTINUOUS
100
AcDbLine
 10
-1566.994054223783
 20
-1589.409058955551
 30
0.0
 11
-1564.113483507927
 21
-1589.220256572981
 31
0.0
  0
LINE
  5
2817E
330
18
100
AcDbEntity
  8
細線
  6
CONTINUOUS
100
AcDbLine
 10
-1566.994053945997
 20
-1589.409059371286
 30
0.0
 11
-1568.270831291655
 21
-1591.998108153815
 31
0.0
  0
SOLID
  5
2817F
330
18
100
AcDbEntity
  8
0
  6
BYBLOCK
 62
     0
100
AcDbTrace
 10
-1560.355520688201
 20
-1525.331542278602
 30
0.0
 11
-1564.355520688201
 21
-1527.640943358602
 31
0.0
 12
-1560.355520688201
 22
-1529.950344438602
 32
0.0
 13
-1560.355520688201
 23
-1529.950344438602
 33
0.0
  0
SOLID
  5
28180
330
18
100
AcDbEntity
  8
0
  6
BYBLOCK
 62
     0
100
AcDbTrace
 10
-1568.855520688201
 20
-1525.331542278602
 30
0.0
 11
-1564.855520688201
 21
-1527.640943358602
 31
0.0
 12
-1568.855520688201
 22
-1529.950344438602
 32
0.0
 13
-1568.855520688201
 23
-1529.950344438602
 33
0.0
  0
LINE
  5
28181
330
18
100
AcDbEntity
  8
中心線
100
AcDbLine
 10
-1501.230520688202
 20
-1582.850062849858
 30
0.0
 11
-1512.480520688201
 21
-1602.335634435008
 31
0.0
  0
CIRCLE
  5
28182
330
18
100
AcDbEntity
  8
実線
100
AcDbCircle
 10
-1506.855520688199
 20
-1592.592848642438
 30
0.0
 40
4.25
  0
CIRCLE
  5
28183
330
18
100
AcDbEntity
  8
細線
 48
0.5
100
AcDbCircle
 10
-1506.855520688199
 20
-1592.592848642438
 30
0.0
 40
5.0
  0
CIRCLE
  5
28184
330
18
100
AcDbEntity
  8
細線
  6
CONTINUOUS
100
AcDbCircle
 10
-1533.523882601965
 20
-1623.675683579544
 30
0.0
 40
5.0
  0
CIRCLE
  5
28185
330
18
100
AcDbEntity
  8
細線
  6
CONTINUOUS
100
AcDbCircle
 10
-1533.523882601965
 20
-1623.675683579544
 30
0.0
 40
4.399999999999995
  0
CIRCLE
  5
28186
330
18
100
AcDbEntity
  8
実線
100
AcDbCircle
 10
-1533.523882601969
 20
-1623.675683579547
 30
0.0
 40
5.5
  0
LINE
  5
28187
330
18
100
AcDbEntity
  8
細線
  6
CONTINUOUS
100
AcDbLine
 10
-1533.335080053102
 20
-1620.795112974803
 30
0.0
 11
-1530.93483398573
 21
-1622.398906122771
 31
0.0
  0
LINE
  5
28188
330
18
100
AcDbEntity
  8
細線
  6
CONTINUOUS
100
AcDbLine
 10
-1530.934833902583
 20
-1622.398906178327
 30
0.0
 11
-1531.123636285152
 21
-1625.279476894182
 31
0.0
  0
LINE
  5
28189
330
18
100
AcDbEntity
  8
細線
  6
CONTINUOUS
100
AcDbLine
 10
-1536.1129312182
 20
-1624.952461036315
 30
0.0
 11
-1533.712685150827
 21
-1626.556254184284
 31
0.0
  0
LINE
  5
2818A
330
18
100
AcDbEntity
  8
細線
  6
CONTINUOUS
100
AcDbLine
 10
-1531.123636700885
 20
-1625.279476616396
 30
0.0
 11
-1533.712685483416
 21
-1626.556253962055
 31
0.0
  0
LINE
  5
2818B
330
18
100
AcDbEntity
  8
細線
  6
CONTINUOUS
100
AcDbLine
 10
-1535.924128918778
 20
-1622.071890264905
 30
0.0
 11
-1533.335080136249
 21
-1620.795112919247
 31
0.0
  0
LINE
  5
2818C
330
18
100
AcDbEntity
  8
細線
  6
CONTINUOUS
100
AcDbLine
 10
-1535.924128503042
 20
-1622.07189054269
 30
0.0
 11
-1536.112930885612
 21
-1624.952461258543
 31
0.0
  0
CIRCLE
  5
2818D
330
18
100
AcDbEntity
  8
実線
100
AcDbCircle
 10
-1525.570509792531
 20
-1583.855932462934
 30
0.0
 40
5.500000000000452
  0
CIRCLE
  5
2818E
330
18
100
AcDbEntity
  8
細線
  6
CONTINUOUS
100
AcDbCircle
 10
-1525.570509792531
 20
-1583.855932462934
 30
0.0
 40
5.0
  0
CIRCLE
  5
2818F
330
18
100
AcDbEntity
  8
細線
  6
CONTINUOUS
100
AcDbCircle
 10
-1525.570509792531
 20
-1583.855932462934
 30
0.0
 40
4.399999999999995
  0
LINE
  5
28190
330
18
100
AcDbEntity
  8
細線
  6
CONTINUOUS
100
AcDbLine
 10
-1523.529268443413
 20
-1585.897173812051
 30
0.0
 11
-1526.317656283071
 21
-1586.644319878327
 31
0.0
  0
LINE
  5
28191
330
18
100
AcDbEntity
  8
細線
  6
CONTINUOUS
100
AcDbLine
 10
-1524.823363584834
 20
-1581.067544764697
 30
0.0
 11
-1522.782122094295
 21
-1583.108786255237
 31
0.0
  0
LINE
  5
28192
330
18
100
AcDbEntity
  8
細線
  6
CONTINUOUS
100
AcDbLine
 10
-1543.358236166177
 20
-1548.964203793756
 30
0.0
 11
-1545.399477559739
 21
-1551.005445465368
 31
0.0
  0
LINE
  5
28193
330
18
100
AcDbEntity
  8
細線
  6
CONTINUOUS
100
AcDbLine
 10
-1545.399477689149
 20
-1551.005444982405
 30
0.0
 11
-1548.187865427034
 21
-1550.258298536308
 31
0.0
  0
LINE
  5
28194
330
18
100
AcDbEntity
  8
細線
  6
CONTINUOUS
100
AcDbLine
 10
-1527.61175114165
 20
-1581.814691113815
 30
0.0
 11
-1528.358897207925
 21
-1584.603078953473
 31
0.0
  0
LINE
  5
28195
330
18
100
AcDbEntity
  8
細線
  6
CONTINUOUS
100
AcDbLine
 10
-1527.611751495203
 20
-1581.814690760262
 30
0.0
 11
-1524.823363655546
 21
-1581.067544693987
 31
0.0
  0
LINE
  5
28196
330
18
100
AcDbEntity
  8
細線
  6
CONTINUOUS
100
AcDbLine
 10
-1528.358897490766
 20
-1584.60307867063
 30
0.0
 11
-1526.317656000228
 21
-1586.64432016117
 31
0.0
  0
CIRCLE
  5
28197
330
18
100
AcDbEntity
  8
実線
100
AcDbCircle
 10
-1544.355520688201
 20
-1527.640943358606
 30
0.0
 40
4.25
  0
LINE
  5
28198
330
18
100
AcDbEntity
  8
細線
  6
CONTINUOUS
100
AcDbLine
 10
-1546.893770067214
 20
-1509.853216811105
 30
0.0
 11
-1548.935011460775
 21
-1507.811975139494
 31
0.0
  0
LINE
  5
28199
330
18
100
AcDbEntity
  8
細線
  6
CONTINUOUS
100
AcDbLine
 10
-1544.105382458738
 20
-1509.106070847971
 30
0.0
 11
-1546.893770196622
 21
-1509.853217294067
 31
0.0
  0
LINE
  5
2819A
330
18
100
AcDbEntity
  8
細線
  6
CONTINUOUS
100
AcDbLine
 10
-1544.105382432857
 20
-1546.17581596583
 30
0.0
 11
-1543.358236192061
 21
-1548.964203697166
 31
0.0
  0
LINE
  5
2819B
330
18
100
AcDbEntity
  8
細線
  6
CONTINUOUS
100
AcDbLine
 10
-1548.935011564303
 20
-1547.469911191342
 30
0.0
 11
-1548.187865323504
 21
-1550.258298922678
 31
0.0
  0
LINE
  5
2819C
330
18
100
AcDbEntity
  8
細線
  6
CONTINUOUS
100
AcDbLine
 10
-1546.893770196624
 20
-1545.42866942314
 30
0.0
 11
-1544.105382458739
 21
-1546.175815869237
 31
0.0
  0
LINE
  5
2819D
330
18
100
AcDbEntity
  8
細線
  6
CONTINUOUS
100
AcDbLine
 10
-1546.893770067214
 20
-1545.428669906103
 30
0.0
 11
-1548.935011460775
 21
-1547.469911577713
 31
0.0
  0
LINE
  5
2819E
330
18
100
AcDbEntity
  8
細線
  6
CONTINUOUS
100
AcDbLine
 10
-1522.782122023585
 20
-1583.108786325948
 30
0.0
 11
-1523.529268089859
 21
-1585.897174165606
 31
0.0
  0
LINE
  5
2819F
330
18
100
AcDbEntity
  8
実線
100
AcDbLine
 10
-1505.384831033025
 20
-1531.634850728098
 30
0.0
 11
-1501.609182556645
 21
-1531.634850728098
 31
0.0
  0
ARC
  5
281A0
330
18
100
AcDbEntity
  8
実線
100
AcDbCircle
 10
-1505.605520688197
 20
-1527.640943358604
 30
0.0
 40
4.0
100
AcDbArc
 50
86.83724759083686
 51
273.1627524091631
  0
CIRCLE
  5
281A1
330
18
100
AcDbEntity
  8
細線
  6
CONTINUOUS
100
AcDbCircle
 10
-1505.605520688197
 20
-1527.640943358606
 30
0.0
 40
3.099999999999988
  0
CIRCLE
  5
281A2
330
18
100
AcDbEntity
  8
細線
  6
CONTINUOUS
100
AcDbCircle
 10
-1505.605520688197
 20
-1527.640943358606
 30
0.0
 40
3.5
  0
LINE
  5
281A3
330
18
100
AcDbEntity
  8
細線
  6
CONTINUOUS
100
AcDbLine
 10
-1503.873469988199
 20
-1527.640943358606
 30
0.0
 11
-1504.739495538197
 21
-1529.140943358606
 31
0.0
  0
LINE
  5
281A4
330
18
100
AcDbEntity
  8
細線
  6
CONTINUOUS
100
AcDbLine
 10
-1507.337571388197
 20
-1527.640943358606
 30
0.0
 11
-1506.471545838198
 21
-1529.140943358606
 31
0.0
  0
LINE
  5
281A5
330
18
100
AcDbEntity
  8
細線
  6
CONTINUOUS
100
AcDbLine
 10
-1506.471546078198
 20
-1529.140943358606
 30
0.0
 11
-1504.739495538197
 21
-1529.140943358606
 31
0.0
  0
LINE
  5
281A6
330
18
100
AcDbEntity
  8
細線
  6
CONTINUOUS
100
AcDbLine
 10
-1504.739495118198
 20
-1526.140943358606
 30
0.0
 11
-1503.873469688199
 21
-1527.640943358606
 31
0.0
  0
LINE
  5
281A7
330
18
100
AcDbEntity
  8
細線
 48
5.0
100
AcDbLine
 10
-1504.306482403197
 20
-1526.890943358606
 30
0.0
 11
-1504.306482403197
 21
-1526.890843358605
 31
0.0
  0
LINE
  5
281A8
330
18
100
AcDbEntity
  8
細線
 48
5.0
100
AcDbLine
 10
-1504.522988760697
 20
-1526.515943358606
 30
0.0
 11
-1504.523088760699
 21
-1526.515943358606
 31
0.0
  0
LINE
  5
281A9
330
18
100
AcDbEntity
  8
細線
  6
CONTINUOUS
100
AcDbLine
 10
-1507.337571688197
 20
-1527.640943358606
 30
0.0
 11
-1506.471546258199
 21
-1526.140943358606
 31
0.0
  0
LINE
  5
281AA
330
18
100
AcDbEntity
  8
細線
  6
CONTINUOUS
100
AcDbLine
 10
-1506.471546078198
 20
-1526.140943358606
 30
0.0
 11
-1504.739495118198
 21
-1526.140943358606
 31
0.0
  0
LINE
  5
281AB
330
18
100
AcDbEntity
  8
実線
100
AcDbLine
 10
-1505.384831033025
 20
-1523.647035989107
 30
0.0
 11
-1501.609182556645
 21
-1523.647035989106
 31
0.0
  0
CIRCLE
  5
281BE
330
18
100
AcDbEntity
  8
実線
100
AcDbCircle
 10
-1448.779406602551
 20
-1604.432046548585
 30
0.0
 40
5.500000000000452
  0
CIRCLE
  5
281BF
330
18
100
AcDbEntity
  8
細線
  6
CONTINUOUS
100
AcDbCircle
 10
-1448.779406602551
 20
-1604.432046548585
 30
0.0
 40
5.0
  0
CIRCLE
  5
281C0
330
18
100
AcDbEntity
  8
細線
  6
CONTINUOUS
100
AcDbCircle
 10
-1448.779406602551
 20
-1604.432046548585
 30
0.0
 40
4.399999999999995
  0
LINE
  5
281C1
330
18
100
AcDbEntity
  8
細線
  6
CONTINUOUS
100
AcDbLine
 10
-1451.567794140701
 20
-1605.179192737616
 30
0.0
 11
-1449.526552469092
 21
-1607.220434131177
 31
0.0
  0
LINE
  5
281C2
330
18
100
AcDbEntity
  8
細線
  6
CONTINUOUS
100
AcDbLine
 10
-1450.820648080973
 20
-1602.39080510326
 30
0.0
 11
-1448.032260349639
 21
-1601.643658862464
 31
0.0
  0
ARC
  5
281C3
330
18
100
AcDbEntity
  8
実線
100
AcDbCircle
 10
-1451.230520688203
 20
-1559.034364245784
 30
0.0
 40
4.0
100
AcDbArc
 50
206.8372475908399
 51
33.16275240917173
  0
LINE
  5
281C4
330
18
100
AcDbEntity
  8
細線
  6
CONTINUOUS
100
AcDbLine
 10
-1450.3644953382
 20
-1560.534364152626
 30
0.0
 11
-1449.498470007521
 21
-1559.034364026
 31
0.0
  0
CIRCLE
  5
281C5
330
18
100
AcDbEntity
  8
細線
  6
CONTINUOUS
100
AcDbCircle
 10
-1451.2305206882
 20
-1559.034364245784
 30
0.0
 40
3.5
  0
CIRCLE
  5
281C6
330
18
100
AcDbEntity
  8
細線
  6
CONTINUOUS
100
AcDbCircle
 10
-1451.2305206882
 20
-1559.034364245784
 30
0.0
 40
3.099999999999988
  0
LINE
  5
281C7
330
18
100
AcDbEntity
  8
細線
  6
CONTINUOUS
100
AcDbLine
 10
-1449.498469887521
 20
-1559.034364233846
 30
0.0
 11
-1450.364495157522
 21
-1557.534364465568
 31
0.0
  0
CIRCLE
  5
281C8
330
18
100
AcDbEntity
  8
細線
  6
CONTINUOUS
100
AcDbCircle
 10
-1446.822588495339
 20
-1640.921643245174
 30
0.0
 40
5.0
  0
CIRCLE
  5
281C9
330
18
100
AcDbEntity
  8
実線
100
AcDbCircle
 10
-1446.822588495338
 20
-1640.921643245177
 30
0.0
 40
5.5
  0
CIRCLE
  5
281CA
330
18
100
AcDbEntity
  8
細線
  6
CONTINUOUS
100
AcDbCircle
 10
-1446.822588495339
 20
-1640.921643245174
 30
0.0
 40
4.399999999999995
  0
CIRCLE
  5
281CC
330
18
100
AcDbEntity
  8
細線
  6
CONTINUOUS
100
AcDbCircle
 10
-1491.888452881065
 20
-1640.921643245174
 30
0.0
 40
5.0
  0
CIRCLE
  5
281CD
330
18
100
AcDbEntity
  8
実線
100
AcDbCircle
 10
-1491.888452881068
 20
-1640.921643245176
 30
0.0
 40
5.5
  0
CIRCLE
  5
281CE
330
18
100
AcDbEntity
  8
細線
  6
CONTINUOUS
100
AcDbCircle
 10
-1491.888452881065
 20
-1640.921643245174
 30
0.0
 40
4.399999999999995
  0
LINE
  5
281CF
330
18
100
AcDbEntity
  8
細線
  6
CONTINUOUS
100
AcDbLine
 10
-1492.816368716676
 20
-1638.188091414062
 30
0.0
 11
-1489.985085435372
 21
-1638.751268674269
 31
0.0
  0
LINE
  5
281D0
330
18
100
AcDbEntity
  8
細線
  6
CONTINUOUS
100
AcDbLine
 10
-1489.985085337294
 20
-1638.751268693776
 30
0.0
 11
-1489.057169305526
 21
-1641.484820563906
 31
0.0
  0
LINE
  5
281D1
330
18
100
AcDbEntity
  8
細線
  6
CONTINUOUS
100
AcDbLine
 10
-1493.791820326755
 20
-1643.092017816077
 30
0.0
 11
-1490.960537045451
 21
-1643.655195076284
 31
0.0
  0
LINE
  5
281D2
330
18
100
AcDbEntity
  8
細線
  6
CONTINUOUS
100
AcDbLine
 10
-1489.057169795918
 20
-1641.484820466359
 30
0.0
 11
-1490.960537437768
 21
-1643.655194998248
 31
0.0
  0
LINE
  5
281D3
330
18
100
AcDbEntity
  8
細線
  6
CONTINUOUS
100
AcDbLine
 10
-1494.719736456604
 20
-1640.35846592644
 30
0.0
 11
-1492.816368814755
 21
-1638.188091394551
 31
0.0
  0
LINE
  5
281D4
330
18
100
AcDbEntity
  8
細線
  6
CONTINUOUS
100
AcDbLine
 10
-1494.71973596621
 20
-1640.358466023985
 30
0.0
 11
-1493.791819934442
 21
-1643.092017894115
 31
0.0
  0
CIRCLE
  5
281D5
330
18
100
AcDbEntity
  8
実線
100
AcDbCircle
 10
-1489.931634773851
 20
-1604.432046548583
 30
0.0
 40
5.500000000000452
  0
CIRCLE
  5
281D6
330
18
100
AcDbEntity
  8
細線
  6
CONTINUOUS
100
AcDbCircle
 10
-1489.931634773851
 20
-1604.432046548583
 30
0.0
 40
5.0
  0
CIRCLE
  5
281D7
330
18
100
AcDbEntity
  8
細線
  6
CONTINUOUS
100
AcDbCircle
 10
-1489.931634773851
 20
-1604.432046548583
 30
0.0
 40
4.399999999999995
  0
LINE
  5
281D8
330
18
100
AcDbEntity
  8
細線
  6
CONTINUOUS
100
AcDbLine
 10
-1487.1432472357
 20
-1605.179192737616
 30
0.0
 11
-1489.18448890731
 21
-1607.220434131177
 31
0.0
  0
LINE
  5
281D9
330
18
100
AcDbEntity
  8
細線
  6
CONTINUOUS
100
AcDbLine
 10
-1487.890393198832
 20
-1602.390805129141
 30
0.0
 11
-1487.143246752737
 21
-1605.179192867026
 31
0.0
  0
LINE
  5
281DA
330
18
100
AcDbEntity
  8
細線
  6
CONTINUOUS
100
AcDbLine
 10
-1492.720022312002
 20
-1603.684900359551
 30
0.0
 11
-1491.972875865905
 21
-1606.473288097435
 31
0.0
  0
LINE
  5
281DB
330
18
100
AcDbEntity
  8
細線
  6
CONTINUOUS
100
AcDbLine
 10
-1492.720022794964
 20
-1603.684900230142
 30
0.0
 11
-1490.678781123355
 21
-1601.643658836581
 31
0.0
  0
LINE
  5
281DC
330
18
100
AcDbEntity
  8
細線
  6
CONTINUOUS
100
AcDbLine
 10
-1491.972876252273
 20
-1606.473287993908
 30
0.0
 11
-1489.184488520939
 21
-1607.220434234704
 31
0.0
  0
LINE
  5
281DD
330
18
100
AcDbEntity
  8
細線
  6
CONTINUOUS
100
AcDbLine
 10
-1490.678781026763
 20
-1601.643658862463
 30
0.0
 11
-1487.890393295426
 21
-1602.390805103259
 31
0.0
  0
LINE
  5
28213
330
18
100
AcDbEntity
  8
細線
  6
CONTINUOUS
100
AcDbLine
 10
-1451.567794623664
 20
-1605.179192867026
 30
0.0
 11
-1450.820648177568
 21
-1602.390805129142
 31
0.0
  0
ARC
  5
28214
330
18
100
AcDbEntity
  8
実線
100
AcDbCircle
 10
-1487.480520688198
 20
-1559.034364245783
 30
0.0
 40
4.0
100
AcDbArc
 50
146.8372475908281
 51
333.1627524091599
  0
CIRCLE
  5
28215
330
18
100
AcDbEntity
  8
細線
  6
CONTINUOUS
100
AcDbCircle
 10
-1487.480520688202
 20
-1559.034364245784
 30
0.0
 40
3.099999999999988
  0
CIRCLE
  5
28216
330
18
100
AcDbEntity
  8
細線
  6
CONTINUOUS
100
AcDbCircle
 10
-1487.480520688202
 20
-1559.034364245784
 30
0.0
 40
3.5
  0
LINE
  5
28217
330
18
100
AcDbEntity
  8
細線
  6
CONTINUOUS
100
AcDbLine
 10
-1488.346546188201
 20
-1560.534364412434
 30
0.0
 11
-1486.614495367524
 21
-1560.534364389731
 31
0.0
  0
LINE
  5
28218
330
18
100
AcDbEntity
  8
細線
  6
CONTINUOUS
100
AcDbLine
 10
-1486.614495338201
 20
-1557.534364338941
 30
0.0
 11
-1488.346546218878
 21
-1557.534364465568
 31
0.0
  0
LINE
  5
28219
330
18
100
AcDbEntity
  8
細線
  6
CONTINUOUS
100
AcDbLine
 10
-1488.346546038201
 20
-1560.534364152626
 30
0.0
 11
-1489.212571368877
 21
-1559.034364026
 31
0.0
  0
LINE
  5
2821A
330
18
100
AcDbEntity
  8
細線
  6
CONTINUOUS
100
AcDbLine
 10
-1489.212571488876
 20
-1559.034364233846
 30
0.0
 11
-1488.346546218878
 21
-1557.534364465568
 31
0.0
  0
LINE
  5
2821B
330
18
100
AcDbEntity
  8
実線
100
AcDbLine
 10
-1490.829001102956
 20
-1556.846287713304
 30
0.0
 11
-1488.941176864766
 21
-1553.576480217
 31
0.0
  0
LINE
  5
2821C
330
18
100
AcDbEntity
  8
細線
  6
CONTINUOUS
100
AcDbLine
 10
-1485.748469797525
 20
-1559.034364101837
 30
0.0
 11
-1486.614495188201
 21
-1557.534364079133
 31
0.0
  0
LINE
  5
2821D
330
18
100
AcDbEntity
  8
細線
  6
CONTINUOUS
100
AcDbLine
 10
-1486.614495277525
 20
-1560.534364233846
 30
0.0
 11
-1485.748469797525
 21
-1559.034364101837
 31
0.0
  0
LINE
  5
2821E
330
18
100
AcDbEntity
  8
実線
100
AcDbLine
 10
-1483.911350618265
 20
-1560.8401950828
 30
0.0
 11
-1482.023526380076
 21
-1557.570387586495
 31
0.0
  0
LINE
  5
2821F
330
18
100
AcDbEntity
  8
細線
  6
CONTINUOUS
100
AcDbLine
 10
-1452.0965460382
 20
-1557.534364338941
 30
0.0
 11
-1450.364495157522
 21
-1557.534364465568
 31
0.0
  0
LINE
  5
28220
330
18
100
AcDbEntity
  8
細線
  6
CONTINUOUS
100
AcDbLine
 10
-1452.962571578876
 20
-1559.034364101837
 30
0.0
 11
-1452.0965461882
 21
-1557.534364079133
 31
0.0
  0
LINE
  5
28221
330
18
100
AcDbEntity
  8
細線
  6
CONTINUOUS
100
AcDbLine
 10
-1452.096546098877
 20
-1560.534364233846
 30
0.0
 11
-1452.962571578876
 21
-1559.034364101837
 31
0.0
  0
LINE
  5
28222
330
18
100
AcDbEntity
  8
細線
  6
CONTINUOUS
100
AcDbLine
 10
-1450.3644951882
 20
-1560.534364412434
 30
0.0
 11
-1452.096546008877
 21
-1560.534364389731
 31
0.0
  0
LINE
  5
28223
330
18
100
AcDbEntity
  8
実線
100
AcDbLine
 10
-1454.799690758135
 20
-1560.8401950828
 30
0.0
 11
-1456.687514996326
 21
-1557.570387586495
 31
0.0
  0
LINE
  5
28224
330
18
100
AcDbEntity
  8
中心線
100
AcDbLine
 10
-1437.4805206882
 20
-1582.850062849858
 30
0.0
 11
-1426.2305206882
 21
-1602.335634435008
 31
0.0
  0
CIRCLE
  5
28225
330
18
100
AcDbEntity
  8
実線
100
AcDbCircle
 10
-1431.8555206882
 20
-1592.592848642436
 30
0.0
 40
4.25
  0
CIRCLE
  5
28226
330
18
100
AcDbEntity
  8
細線
 48
0.5
100
AcDbCircle
 10
-1431.8555206882
 20
-1592.592848642436
 30
0.0
 40
5.0
  0
LINE
  5
28227
330
18
100
AcDbEntity
  8
細線
  6
CONTINUOUS
100
AcDbLine
 10
-1448.725955941032
 20
-1638.75126867427
 30
0.0
 11
-1445.894672659728
 21
-1638.188091414064
 31
0.0
  0
LINE
  5
28228
330
18
100
AcDbEntity
  8
細線
  6
CONTINUOUS
100
AcDbLine
 10
-1445.89467256165
 20
-1638.188091394555
 30
0.0
 11
-1443.9913049198
 21
-1640.358465926442
 31
0.0
  0
LINE
  5
28229
330
18
100
AcDbEntity
  8
細線
  6
CONTINUOUS
100
AcDbLine
 10
-1447.750504330952
 20
-1643.655195076285
 30
0.0
 11
-1444.919221049648
 21
-1643.092017816079
 31
0.0
  0
LINE
  5
2822A
330
18
100
AcDbEntity
  8
細線
  6
CONTINUOUS
100
AcDbLine
 10
-1443.991305410194
 20
-1640.358466023986
 30
0.0
 11
-1444.919221441963
 21
-1643.092017894116
 31
0.0
  0
LINE
  5
2822B
330
18
100
AcDbEntity
  8
細線
  6
CONTINUOUS
100
AcDbLine
 10
-1449.65387207088
 20
-1641.484820563908
 30
0.0
 11
-1448.725956039111
 21
-1638.75126869378
 31
0.0
  0
LINE
  5
2822C
330
18
100
AcDbEntity
  8
細線
  6
CONTINUOUS
100
AcDbLine
 10
-1449.653871580486
 20
-1641.484820466362
 30
0.0
 11
-1447.750503938637
 21
-1643.655194998251
 31
0.0
  0
LINE
  5
2822D
330
18
100
AcDbEntity
  8
細線
  6
CONTINUOUS
100
AcDbLine
 10
-1445.9910190644
 20
-1603.684900359551
 30
0.0
 11
-1446.738165510497
 21
-1606.473288097435
 31
0.0
  0
LINE
  5
2822E
330
18
100
AcDbEntity
  8
細線
  6
CONTINUOUS
100
AcDbLine
 10
-1449.526552855463
 20
-1607.220434234704
 30
0.0
 11
-1446.738165124125
 21
-1606.473287993908
 31
0.0
  0
LINE
  5
2822F
330
18
100
AcDbEntity
  8
細線
  6
CONTINUOUS
100
AcDbLine
 10
-1448.032260253047
 20
-1601.643658836581
 30
0.0
 11
-1445.991018581437
 21
-1603.684900230142
 31
0.0
  0
CIRCLE
  5
28230
330
18
100
AcDbEntity
  8
細線
  6
CONTINUOUS
100
AcDbCircle
 10
-1405.187158774439
 20
-1623.675683579548
 30
0.0
 40
4.399999999999995
  0
LINE
  5
28231
330
18
100
AcDbEntity
  8
細線
  6
CONTINUOUS
100
AcDbLine
 10
-1407.776207390674
 20
-1622.398906122774
 30
0.0
 11
-1405.375961323302
 21
-1620.795112974807
 31
0.0
  0
LINE
  5
28232
330
18
100
AcDbEntity
  8
細線
  6
CONTINUOUS
100
AcDbLine
 10
-1405.375961240155
 20
-1620.79511291925
 30
0.0
 11
-1402.786912457625
 21
-1622.071890264909
 31
0.0
  0
LINE
  5
28233
330
18
100
AcDbEntity
  8
細線
  6
CONTINUOUS
100
AcDbLine
 10
-1404.998356225577
 20
-1626.556254184287
 30
0.0
 11
-1402.598110158204
 21
-1624.952461036318
 31
0.0
  0
LINE
  5
28234
330
18
100
AcDbEntity
  8
細線
  6
CONTINUOUS
100
AcDbLine
 10
-1402.78691287336
 20
-1622.071890542692
 30
0.0
 11
-1402.598110490793
 21
-1624.952461258548
 31
0.0
  0
LINE
  5
28235
330
18
100
AcDbEntity
  8
細線
  6
CONTINUOUS
100
AcDbLine
 10
-1407.587405091252
 20
-1625.279476894186
 30
0.0
 11
-1407.776207473821
 21
-1622.398906178331
 31
0.0
  0
LINE
  5
28236
330
18
100
AcDbEntity
  8
細線
  6
CONTINUOUS
100
AcDbLine
 10
-1407.587404675516
 20
-1625.2794766164
 30
0.0
 11
-1404.998355892988
 21
-1626.556253962059
 31
0.0
  0
LINE
  5
28237
330
18
100
AcDbEntity
  8
実線
100
AcDbLine
 10
-1447.882040273445
 20
-1556.846287713304
 30
0.0
 11
-1449.769864511635
 21
-1553.576480217
 31
0.0
  0
LINE
  5
28238
330
18
100
AcDbEntity
  8
細線
  6
CONTINUOUS
100
AcDbLine
 10
-1432.239495298202
 20
-1526.140943358606
 30
0.0
 11
-1433.971546258201
 21
-1526.140943358606
 31
0.0
  0
LINE
  5
28239
330
18
100
AcDbEntity
  8
細線
  6
CONTINUOUS
100
AcDbLine
 10
-1431.373469688201
 20
-1527.640943358606
 30
0.0
 11
-1432.239495118202
 21
-1526.140943358606
 31
0.0
  0
CIRCLE
  5
2823A
330
18
100
AcDbEntity
  8
細線
  6
CONTINUOUS
100
AcDbCircle
 10
-1433.105520688203
 20
-1527.640943358606
 30
0.0
 40
3.5
  0
CIRCLE
  5
2823B
330
18
100
AcDbEntity
  8
細線
  6
CONTINUOUS
100
AcDbCircle
 10
-1433.105520688203
 20
-1527.640943358606
 30
0.0
 40
3.099999999999988
  0
ARC
  5
2823C
330
18
100
AcDbEntity
  8
実線
100
AcDbCircle
 10
-1433.105520688204
 20
-1527.640943358604
 30
0.0
 40
4.0
100
AcDbArc
 50
266.8372475908368
 51
93.16275240916313
  0
LINE
  5
2823D
330
18
100
AcDbEntity
  8
細線
  6
CONTINUOUS
100
AcDbLine
 10
-1434.837571388202
 20
-1527.640943358606
 30
0.0
 11
-1433.9715458382
 21
-1529.140943358606
 31
0.0
  0
LINE
  5
2823E
330
18
100
AcDbEntity
  8
細線
  6
CONTINUOUS
100
AcDbLine
 10
-1433.971546258201
 20
-1526.140943358606
 30
0.0
 11
-1434.837571688202
 21
-1527.640943358606
 31
0.0
  0
LINE
  5
2823F
330
18
100
AcDbEntity
  8
細線
  6
CONTINUOUS
100
AcDbLine
 10
-1431.373469988201
 20
-1527.640943358606
 30
0.0
 11
-1432.239495538202
 21
-1529.140943358606
 31
0.0
  0
LINE
  5
28240
330
18
100
AcDbEntity
  8
細線
  6
CONTINUOUS
100
AcDbLine
 10
-1432.239495298202
 20
-1529.140943358606
 30
0.0
 11
-1433.9715458382
 21
-1529.140943358606
 31
0.0
  0
LINE
  5
28241
330
18
100
AcDbEntity
  8
実線
100
AcDbLine
 10
-1433.326210343377
 20
-1523.647035989107
 30
0.0
 11
-1437.101858819755
 21
-1523.647035989106
 31
0.0
  0
LINE
  5
28242
330
18
100
AcDbEntity
  8
実線
100
AcDbLine
 10
-1433.326210343377
 20
-1531.634850728098
 30
0.0
 11
-1437.101858819755
 21
-1531.634850728098
 31
0.0
  0
CIRCLE
  5
28243
330
18
100
AcDbEntity
  8
実線
100
AcDbCircle
 10
-1413.14053158387
 20
-1583.855932462934
 30
0.0
 40
5.500000000000452
  0
CIRCLE
  5
28244
330
18
100
AcDbEntity
  8
細線
  6
CONTINUOUS
100
AcDbCircle
 10
-1413.14053158387
 20
-1583.855932462934
 30
0.0
 40
5.0
  0
CIRCLE
  5
28245
330
18
100
AcDbEntity
  8
細線
  6
CONTINUOUS
100
AcDbCircle
 10
-1413.14053158387
 20
-1583.855932462934
 30
0.0
 40
4.399999999999995
  0
LINE
  5
28246
330
18
100
AcDbEntity
  8
細線
  6
CONTINUOUS
100
AcDbLine
 10
-1415.18177293299
 20
-1585.897173812051
 30
0.0
 11
-1412.393385093331
 21
-1586.644319878327
 31
0.0
  0
LINE
  5
28247
330
18
100
AcDbEntity
  8
細線
  6
CONTINUOUS
100
AcDbLine
 10
-1413.887677720857
 20
-1581.067544693988
 30
0.0
 11
-1411.099289881199
 21
-1581.814690760263
 31
0.0
  0
LINE
  5
28248
330
18
100
AcDbEntity
  8
細線
  6
CONTINUOUS
100
AcDbLine
 10
-1415.181773286542
 20
-1585.897174165606
 30
0.0
 11
-1415.928919352817
 21
-1583.108786325949
 31
0.0
  0
LINE
  5
28249
330
18
100
AcDbEntity
  8
細線
  6
CONTINUOUS
100
AcDbLine
 10
-1415.928919282108
 20
-1583.108786255239
 30
0.0
 11
-1413.887677791567
 21
-1581.067544764698
 31
0.0
  0
LINE
  5
2824A
330
18
100
AcDbEntity
  8
細線
  6
CONTINUOUS
100
AcDbLine
 10
-1411.099290234751
 20
-1581.814691113817
 30
0.0
 11
-1410.352144168478
 21
-1584.603078953474
 31
0.0
  0
LINE
  5
2824B
330
18
100
AcDbEntity
  8
細線
  6
CONTINUOUS
100
AcDbLine
 10
-1412.393385376175
 20
-1586.644320161171
 30
0.0
 11
-1410.352143885635
 21
-1584.603078670631
 31
0.0
  0
LINE
  5
2824E
330
18
100
AcDbEntity
  8
細線
  6
CONTINUOUS
100
AcDbLine
 10
-1579.902668743658
 20
-1504.180095330126
 30
0.0
 11
-1580.465846003864
 21
-1507.01137861143
 31
0.0
  0
LINE
  5
2824F
330
18
100
AcDbEntity
  8
細線
  6
CONTINUOUS
100
AcDbLine
 10
-1584.806595145671
 20
-1503.204643720045
 30
0.0
 11
-1585.36977240588
 21
-1506.03592700135
 31
0.0
  0
LINE
  5
28250
330
18
100
AcDbEntity
  8
細線
  6
CONTINUOUS
100
AcDbLine
 10
-1582.073043256036
 20
-1502.276727590198
 30
0.0
 11
-1579.902668724149
 21
-1504.180095232047
 31
0.0
  0
LINE
  5
28251
330
18
100
AcDbEntity
  8
細線
  6
CONTINUOUS
100
AcDbLine
 10
-1582.073043353581
 20
-1502.276728080592
 30
0.0
 11
-1584.806595223709
 21
-1503.20464411236
 31
0.0
  0
CIRCLE
  5
28252
330
18
100
AcDbEntity
  8
細線
  6
CONTINUOUS
100
AcDbCircle
 10
-1565.39026090914
 20
-1463.472581444838
 30
0.0
 40
5.0
  0
CIRCLE
  5
28253
330
18
100
AcDbEntity
  8
細線
  6
CONTINUOUS
100
AcDbCircle
 10
-1565.39026090914
 20
-1463.472581444838
 30
0.0
 40
4.399999999999995
  0
LINE
  5
28254
330
18
100
AcDbEntity
  8
細線
  6
CONTINUOUS
100
AcDbLine
 10
-1562.509690304399
 20
-1463.6613839937
 30
0.0
 11
-1564.113483452366
 21
-1466.061630061072
 31
0.0
  0
CIRCLE
  5
28255
330
18
100
AcDbEntity
  8
実線
100
AcDbCircle
 10
-1565.390260909144
 20
-1463.472581444838
 30
0.0
 40
5.5
  0
LINE
  5
28256
330
18
100
AcDbEntity
  8
細線
  6
CONTINUOUS
100
AcDbLine
 10
-1566.994053945992
 20
-1465.872827345916
 30
0.0
 11
-1568.270831291648
 21
-1463.283778563386
 31
0.0
  0
LINE
  5
28257
330
18
100
AcDbEntity
  8
細線
  6
CONTINUOUS
100
AcDbLine
 10
-1564.113483507924
 20
-1466.061630144219
 30
0.0
 11
-1566.994054223775
 21
-1465.87282776165
 31
0.0
  0
LINE
  5
28258
330
18
100
AcDbEntity
  8
細線
  6
CONTINUOUS
100
AcDbLine
 10
-1566.667038365911
 20
-1460.883532828603
 30
0.0
 11
-1568.27083151388
 21
-1463.283778895975
 31
0.0
  0
LINE
  5
28259
330
18
100
AcDbEntity
  8
細線
  6
CONTINUOUS
100
AcDbLine
 10
-1563.7864675945
 20
-1461.072335128024
 30
0.0
 11
-1562.509690248842
 21
-1463.661383910553
 31
0.0
  0
LINE
  5
2825A
330
18
100
AcDbEntity
  8
細線
  6
CONTINUOUS
100
AcDbLine
 10
-1563.786467872286
 20
-1461.07233554376
 30
0.0
 11
-1566.66703858814
 21
-1460.88353316119
 31
0.0
  0
CIRCLE
  5
2825B
330
18
100
AcDbEntity
  8
実線
100
AcDbCircle
 10
-1525.570509792532
 20
-1471.425954254273
 30
0.0
 40
5.500000000000452
  0
CIRCLE
  5
2825C
330
18
100
AcDbEntity
  8
細線
  6
CONTINUOUS
100
AcDbCircle
 10
-1525.570509792532
 20
-1471.425954254273
 30
0.0
 40
5.0
  0
CIRCLE
  5
2825D
330
18
100
AcDbEntity
  8
細線
  6
CONTINUOUS
100
AcDbCircle
 10
-1525.570509792532
 20
-1471.425954254273
 30
0.0
 40
4.399999999999995
  0
LINE
  5
2825E
330
18
100
AcDbEntity
  8
細線
  6
CONTINUOUS
100
AcDbLine
 10
-1523.529268443412
 20
-1469.384712905155
 30
0.0
 11
-1526.31765628307
 21
-1468.63756683888
 31
0.0
  0
LINE
  5
2825F
330
18
100
AcDbEntity
  8
細線
  6
CONTINUOUS
100
AcDbLine
 10
-1522.782122094295
 20
-1472.173100461969
 30
0.0
 11
-1524.823363584834
 21
-1474.21434195251
 31
0.0
  0
LINE
  5
28260
330
18
100
AcDbEntity
  8
細線
  6
CONTINUOUS
100
AcDbLine
 10
-1545.399477689149
 20
-1504.276441734802
 30
0.0
 11
-1548.187865427034
 21
-1505.023588180899
 31
0.0
  0
LINE
  5
28261
330
18
100
AcDbEntity
  8
細線
  6
CONTINUOUS
100
AcDbLine
 10
-1545.399477559739
 20
-1504.276441251839
 30
0.0
 11
-1543.358236166177
 21
-1506.317682923449
 31
0.0
  0
LINE
  5
28262
330
18
100
AcDbEntity
  8
細線
  6
CONTINUOUS
100
AcDbLine
 10
-1527.61175114165
 20
-1473.467195603392
 30
0.0
 11
-1528.358897207925
 21
-1470.678807763734
 31
0.0
  0
LINE
  5
28263
330
18
100
AcDbEntity
  8
細線
  6
CONTINUOUS
100
AcDbLine
 10
-1526.317656000227
 20
-1468.637566556036
 30
0.0
 11
-1528.358897490766
 21
-1470.678808046577
 31
0.0
  0
LINE
  5
28264
330
18
100
AcDbEntity
  8
細線
  6
CONTINUOUS
100
AcDbLine
 10
-1524.823363655546
 20
-1474.214342023218
 30
0.0
 11
-1527.611751495204
 21
-1473.467195956945
 31
0.0
  0
CIRCLE
  5
28265
330
18
100
AcDbEntity
  8
細線
  6
CONTINUOUS
100
AcDbCircle
 10
-1533.523882601961
 20
-1431.606203137659
 30
0.0
 40
5.0
  0
CIRCLE
  5
28266
330
18
100
AcDbEntity
  8
細線
  6
CONTINUOUS
100
AcDbCircle
 10
-1533.523882601961
 20
-1431.606203137659
 30
0.0
 40
4.399999999999995
  0
CIRCLE
  5
28267
330
18
100
AcDbEntity
  8
実線
100
AcDbCircle
 10
-1533.523882601961
 20
-1431.606203137658
 30
0.0
 40
5.5
  0
LINE
  5
28268
330
18
100
AcDbEntity
  8
細線
  6
CONTINUOUS
100
AcDbLine
 10
-1530.934833985722
 20
-1432.882980594432
 30
0.0
 11
-1533.335080053096
 21
-1434.4867737424
 31
0.0
  0
LINE
  5
28269
330
18
100
AcDbEntity
  8
細線
  6
CONTINUOUS
100
AcDbLine
 10
-1533.335080136243
 20
-1434.486773797956
 30
0.0
 11
-1535.924128918771
 21
-1433.209996452298
 31
0.0
  0
LINE
  5
2826A
330
18
100
AcDbEntity
  8
細線
  6
CONTINUOUS
100
AcDbLine
 10
-1533.712685150822
 20
-1428.725632532919
 30
0.0
 11
-1536.112931218194
 21
-1430.329425680888
 31
0.0
  0
LINE
  5
2826B
330
18
100
AcDbEntity
  8
細線
  6
CONTINUOUS
100
AcDbLine
 10
-1535.924128503037
 20
-1433.209996174513
 30
0.0
 11
-1536.112930885605
 21
-1430.329425458658
 31
0.0
  0
LINE
  5
2826C
330
18
100
AcDbEntity
  8
細線
  6
CONTINUOUS
100
AcDbLine
 10
-1531.123636285146
 20
-1430.00240982302
 30
0.0
 11
-1530.934833902577
 21
-1432.882980538874
 31
0.0
  0
LINE
  5
2826D
330
18
100
AcDbEntity
  8
細線
  6
CONTINUOUS
100
AcDbLine
 10
-1531.123636700882
 20
-1430.002410100805
 30
0.0
 11
-1533.712685483409
 21
-1428.725632755146
 31
0.0
  0
LINE
  5
2826E
330
18
100
AcDbEntity
  8
中心線
100
AcDbLine
 10
-1501.230520688202
 20
-1472.431823867346
 30
0.0
 11
-1512.480520688201
 21
-1452.946252282196
 31
0.0
  0
CIRCLE
  5
2826F
330
18
100
AcDbEntity
  8
実線
100
AcDbCircle
 10
-1506.855520688202
 20
-1462.689038074771
 30
0.0
 40
4.25
  0
CIRCLE
  5
28270
330
18
100
AcDbEntity
  8
細線
 48
0.5
100
AcDbCircle
 10
-1506.855520688202
 20
-1462.689038074771
 30
0.0
 40
5.0
  0
LINE
  5
28271
330
18
100
AcDbEntity
  8
細線
  6
CONTINUOUS
100
AcDbLine
 10
-1523.52926808986
 20
-1469.384712551602
 30
0.0
 11
-1522.782122023583
 21
-1472.173100391259
 31
0.0
  0
CIRCLE
  5
28272
330
18
100
AcDbEntity
  8
実線
100
AcDbCircle
 10
-1448.77940660255
 20
-1450.849840168623
 30
0.0
 40
5.500000000000452
  0
CIRCLE
  5
28273
330
18
100
AcDbEntity
  8
細線
  6
CONTINUOUS
100
AcDbCircle
 10
-1448.77940660255
 20
-1450.849840168623
 30
0.0
 40
5.0
  0
CIRCLE
  5
28274
330
18
100
AcDbEntity
  8
細線
  6
CONTINUOUS
100
AcDbCircle
 10
-1448.77940660255
 20
-1450.849840168623
 30
0.0
 40
4.399999999999995
  0
LINE
  5
28275
330
18
100
AcDbEntity
  8
細線
  6
CONTINUOUS
100
AcDbLine
 10
-1451.567794140701
 20
-1450.102693979591
 30
0.0
 11
-1449.526552469092
 21
-1448.06145258603
 31
0.0
  0
LINE
  5
28276
330
18
100
AcDbEntity
  8
細線
  6
CONTINUOUS
100
AcDbLine
 10
-1448.032260349638
 20
-1453.638227854745
 30
0.0
 11
-1450.820648080973
 21
-1452.891081613947
 31
0.0
  0
CIRCLE
  5
28277
330
18
100
AcDbEntity
  8
細線
  6
CONTINUOUS
100
AcDbCircle
 10
-1451.2305206882
 20
-1496.24752247142
 30
0.0
 40
3.099999999999988
  0
CIRCLE
  5
28278
330
18
100
AcDbEntity
  8
細線
  6
CONTINUOUS
100
AcDbCircle
 10
-1451.2305206882
 20
-1496.24752247142
 30
0.0
 40
3.5
  0
LINE
  5
28279
330
18
100
AcDbEntity
  8
細線
  6
CONTINUOUS
100
AcDbLine
 10
-1450.3644953382
 20
-1494.747522564577
 30
0.0
 11
-1449.498470007521
 21
-1496.247522691203
 31
0.0
  0
LINE
  5
2827A
330
18
100
AcDbEntity
  8
細線
  6
CONTINUOUS
100
AcDbLine
 10
-1449.498469887521
 20
-1496.247522483358
 30
0.0
 11
-1450.364495157522
 21
-1497.747522251636
 31
0.0
  0
ARC
  5
2827B
330
18
100
AcDbEntity
  8
実線
100
AcDbCircle
 10
-1451.230520688203
 20
-1496.247522471421
 30
0.0
 40
4.0
100
AcDbArc
 50
326.8372475908281
 51
153.1627524091599
  0
CIRCLE
  5
2827C
330
18
100
AcDbEntity
  8
細線
  6
CONTINUOUS
100
AcDbCircle
 10
-1446.822588495332
 20
-1414.360243472033
 30
0.0
 40
5.0
  0
CIRCLE
  5
2827D
330
18
100
AcDbEntity
  8
細線
  6
CONTINUOUS
100
AcDbCircle
 10
-1446.822588495332
 20
-1414.360243472033
 30
0.0
 40
4.399999999999995
  0
CIRCLE
  5
2827E
330
18
100
AcDbEntity
  8
実線
100
AcDbCircle
 10
-1446.822588495336
 20
-1414.360243472031
 30
0.0
 40
5.5
  0
LINE
  5
2827F
330
18
100
AcDbEntity
  8
細線
  6
CONTINUOUS
100
AcDbLine
 10
-1488.346546188201
 20
-1494.74752230477
 30
0.0
 11
-1486.614495367524
 21
-1494.747522327473
 31
0.0
  0
CIRCLE
  5
28280
330
18
100
AcDbEntity
  8
細線
  6
CONTINUOUS
100
AcDbCircle
 10
-1487.480520688202
 20
-1496.24752247142
 30
0.0
 40
3.5
  0
CIRCLE
  5
28281
330
18
100
AcDbEntity
  8
細線
  6
CONTINUOUS
100
AcDbCircle
 10
-1487.480520688202
 20
-1496.24752247142
 30
0.0
 40
3.099999999999988
  0
ARC
  5
28282
330
18
100
AcDbEntity
  8
実線
100
AcDbCircle
 10
-1487.480520688198
 20
-1496.247522471421
 30
0.0
 40
4.0
100
AcDbArc
 50
26.83724759084008
 51
213.1627524091715
  0
LINE
  5
28283
330
18
100
AcDbEntity
  8
細線
  6
CONTINUOUS
100
AcDbLine
 10
-1486.614495338201
 20
-1497.747522378261
 30
0.0
 11
-1488.346546218878
 21
-1497.747522251636
 31
0.0
  0
LINE
  5
28284
330
18
100
AcDbEntity
  8
細線
  6
CONTINUOUS
100
AcDbLine
 10
-1488.346546038201
 20
-1494.747522564577
 30
0.0
 11
-1489.212571368877
 21
-1496.247522691203
 31
0.0
  0
LINE
  5
28285
330
18
100
AcDbEntity
  8
細線
  6
CONTINUOUS
100
AcDbLine
 10
-1489.212571488876
 20
-1496.247522483358
 30
0.0
 11
-1488.346546218878
 21
-1497.747522251636
 31
0.0
  0
LINE
  5
28286
330
18
100
AcDbEntity
  8
実線
100
AcDbLine
 10
-1490.829001102956
 20
-1498.4355990039
 30
0.0
 11
-1488.941176864766
 21
-1501.705406500204
 31
0.0
  0
LINE
  5
28287
330
18
100
AcDbEntity
  8
細線
  6
CONTINUOUS
100
AcDbLine
 10
-1486.614495277525
 20
-1494.747522483358
 30
0.0
 11
-1485.748469797525
 21
-1496.247522615367
 31
0.0
  0
LINE
  5
28288
330
18
100
AcDbEntity
  8
細線
  6
CONTINUOUS
100
AcDbLine
 10
-1485.748469797525
 20
-1496.247522615367
 30
0.0
 11
-1486.614495188201
 21
-1497.74752263807
 31
0.0
  0
LINE
  5
28289
330
18
100
AcDbEntity
  8
実線
100
AcDbLine
 10
-1483.911350618265
 20
-1494.441691634404
 30
0.0
 11
-1482.023526380076
 21
-1497.711499130709
 31
0.0
  0
CIRCLE
  5
2828A
330
18
100
AcDbEntity
  8
実線
100
AcDbCircle
 10
-1489.931634773852
 20
-1450.849840168624
 30
0.0
 40
5.500000000000452
  0
CIRCLE
  5
2828B
330
18
100
AcDbEntity
  8
細線
  6
CONTINUOUS
100
AcDbCircle
 10
-1489.931634773852
 20
-1450.849840168624
 30
0.0
 40
5.0
  0
CIRCLE
  5
2828C
330
18
100
AcDbEntity
  8
細線
  6
CONTINUOUS
100
AcDbCircle
 10
-1489.931634773852
 20
-1450.849840168624
 30
0.0
 40
4.399999999999995
  0
LINE
  5
2828D
330
18
100
AcDbEntity
  8
細線
  6
CONTINUOUS
100
AcDbLine
 10
-1487.143247235701
 20
-1450.102693979591
 30
0.0
 11
-1489.18448890731
 21
-1448.06145258603
 31
0.0
  0
LINE
  5
2828E
330
18
100
AcDbEntity
  8
細線
  6
CONTINUOUS
100
AcDbLine
 10
-1487.143246752738
 20
-1450.102693850181
 30
0.0
 11
-1487.890393198835
 21
-1452.891081588066
 31
0.0
  0
LINE
  5
2828F
330
18
100
AcDbEntity
  8
細線
  6
CONTINUOUS
100
AcDbLine
 10
-1492.720022312003
 20
-1451.596986357654
 30
0.0
 11
-1491.972875865906
 21
-1448.808598619771
 31
0.0
  0
LINE
  5
28290
330
18
100
AcDbEntity
  8
細線
  6
CONTINUOUS
100
AcDbLine
 10
-1489.184488520939
 20
-1448.061452482503
 30
0.0
 11
-1491.972876252274
 21
-1448.808598723299
 31
0.0
  0
LINE
  5
28291
330
18
100
AcDbEntity
  8
細線
  6
CONTINUOUS
100
AcDbLine
 10
-1490.678781123356
 20
-1453.638227880626
 30
0.0
 11
-1492.720022794966
 21
-1451.596986487065
 31
0.0
  0
LINE
  5
28292
330
18
100
AcDbEntity
  8
細線
  6
CONTINUOUS
100
AcDbLine
 10
-1487.890393295427
 20
-1452.891081613947
 30
0.0
 11
-1490.678781026764
 21
-1453.638227854743
 31
0.0
  0
LINE
  5
28293
330
18
100
AcDbEntity
  8
細線
  6
CONTINUOUS
100
AcDbLine
 10
-1452.0965460382
 20
-1497.747522378261
 30
0.0
 11
-1450.364495157522
 21
-1497.747522251636
 31
0.0
  0
LINE
  5
28294
330
18
100
AcDbEntity
  8
細線
  6
CONTINUOUS
100
AcDbLine
 10
-1452.962571578876
 20
-1496.247522615367
 30
0.0
 11
-1452.0965461882
 21
-1497.74752263807
 31
0.0
  0
LINE
  5
28295
330
18
100
AcDbEntity
  8
細線
  6
CONTINUOUS
100
AcDbLine
 10
-1452.096546098877
 20
-1494.747522483358
 30
0.0
 11
-1452.962571578876
 21
-1496.247522615367
 31
0.0
  0
LINE
  5
28296
330
18
100
AcDbEntity
  8
細線
  6
CONTINUOUS
100
AcDbLine
 10
-1450.3644951882
 20
-1494.74752230477
 30
0.0
 11
-1452.096546008877
 21
-1494.747522327473
 31
0.0
  0
LINE
  5
28297
330
18
100
AcDbEntity
  8
実線
100
AcDbLine
 10
-1454.799690758135
 20
-1494.441691634404
 30
0.0
 11
-1456.687514996326
 21
-1497.711499130709
 31
0.0
  0
LINE
  5
28298
330
18
100
AcDbEntity
  8
細線
  6
CONTINUOUS
100
AcDbLine
 10
-1450.820648177568
 20
-1452.891081588066
 30
0.0
 11
-1451.567794623665
 21
-1450.102693850181
 31
0.0
  0
CIRCLE
  5
28299
330
18
100
AcDbEntity
  8
実線
100
AcDbCircle
 10
-1491.888452881062
 20
-1414.36024347203
 30
0.0
 40
5.5
  0
CIRCLE
  5
2829A
330
18
100
AcDbEntity
  8
細線
  6
CONTINUOUS
100
AcDbCircle
 10
-1491.888452881059
 20
-1414.360243472032
 30
0.0
 40
5.0
  0
LINE
  5
2829B
330
18
100
AcDbEntity
  8
細線
  6
CONTINUOUS
100
AcDbLine
 10
-1489.057169305519
 20
-1413.797066153298
 30
0.0
 11
-1489.985085337287
 21
-1416.530618023427
 31
0.0
  0
LINE
  5
2829C
330
18
100
AcDbEntity
  8
細線
  6
CONTINUOUS
100
AcDbLine
 10
-1489.985085435366
 20
-1416.530618042937
 30
0.0
 11
-1492.81636871667
 21
-1417.093795303143
 31
0.0
  0
LINE
  5
2829D
330
18
100
AcDbEntity
  8
細線
  6
CONTINUOUS
100
AcDbLine
 10
-1492.816368814747
 20
-1417.09379532265
 30
0.0
 11
-1494.719736456596
 21
-1414.923420790765
 31
0.0
  0
LINE
  5
2829E
330
18
100
AcDbEntity
  8
細線
  6
CONTINUOUS
100
AcDbLine
 10
-1490.960537045447
 20
-1411.626691640921
 30
0.0
 11
-1493.791820326751
 21
-1412.189868901128
 31
0.0
  0
LINE
  5
2829F
330
18
100
AcDbEntity
  8
細線
  6
CONTINUOUS
100
AcDbLine
 10
-1494.719735966205
 20
-1414.923420693221
 30
0.0
 11
-1493.791819934435
 21
-1412.189868823092
 31
0.0
  0
LINE
  5
282A0
330
18
100
AcDbEntity
  8
細線
  6
CONTINUOUS
100
AcDbLine
 10
-1489.057169795912
 20
-1413.797066250844
 30
0.0
 11
-1490.960537437761
 21
-1411.626691718955
 31
0.0
  0
CIRCLE
  5
282A1
330
18
100
AcDbEntity
  8
細線
  6
CONTINUOUS
100
AcDbCircle
 10
-1491.888452881059
 20
-1414.360243472032
 30
0.0
 40
4.399999999999995
  0
LINE
  5
282A2
330
18
100
AcDbEntity
  8
中心線
100
AcDbLine
 10
-1437.4805206882
 20
-1472.431823867346
 30
0.0
 11
-1426.230520688197
 21
-1452.946252282196
 31
0.0
  0
CIRCLE
  5
282A3
330
18
100
AcDbEntity
  8
実線
100
AcDbCircle
 10
-1431.855520688203
 20
-1462.689038074769
 30
0.0
 40
4.25
  0
CIRCLE
  5
282A4
330
18
100
AcDbEntity
  8
細線
 48
0.5
100
AcDbCircle
 10
-1431.855520688203
 20
-1462.689038074769
 30
0.0
 40
5.0
  0
LINE
  5
282A5
330
18
100
AcDbEntity
  8
実線
100
AcDbLine
 10
-1447.882040273445
 20
-1498.4355990039
 30
0.0
 11
-1449.769864511635
 21
-1501.705406500204
 31
0.0
  0
LINE
  5
282A6
330
18
100
AcDbEntity
  8
細線
  6
CONTINUOUS
100
AcDbLine
 10
-1445.9910190644
 20
-1451.596986357654
 30
0.0
 11
-1446.738165510497
 21
-1448.808598619771
 31
0.0
  0
LINE
  5
282A7
330
18
100
AcDbEntity
  8
細線
  6
CONTINUOUS
100
AcDbLine
 10
-1445.991018581437
 20
-1451.596986487065
 30
0.0
 11
-1448.032260253047
 21
-1453.638227880626
 31
0.0
  0
LINE
  5
282A8
330
18
100
AcDbEntity
  8
細線
  6
CONTINUOUS
100
AcDbLine
 10
-1446.738165124125
 20
-1448.808598723299
 30
0.0
 11
-1449.526552855462
 21
-1448.061452482502
 31
0.0
  0
CIRCLE
  5
282A9
330
18
100
AcDbEntity
  8
実線
100
AcDbCircle
 10
-1413.140531583872
 20
-1471.425954254274
 30
0.0
 40
5.500000000000452
  0
CIRCLE
  5
282AA
330
18
100
AcDbEntity
  8
細線
  6
CONTINUOUS
100
AcDbCircle
 10
-1413.140531583872
 20
-1471.425954254274
 30
0.0
 40
5.0
  0
CIRCLE
  5
282AB
330
18
100
AcDbEntity
  8
細線
  6
CONTINUOUS
100
AcDbCircle
 10
-1413.140531583872
 20
-1471.425954254274
 30
0.0
 40
4.399999999999995
  0
LINE
  5
282AC
330
18
100
AcDbEntity
  8
細線
  6
CONTINUOUS
100
AcDbLine
 10
-1411.0992898812
 20
-1473.467195956946
 30
0.0
 11
-1413.887677720857
 21
-1474.214342023221
 31
0.0
  0
LINE
  5
282AD
330
18
100
AcDbEntity
  8
細線
  6
CONTINUOUS
100
AcDbLine
 10
-1415.18177293299
 20
-1469.384712905156
 30
0.0
 11
-1412.393385093332
 21
-1468.63756683888
 31
0.0
  0
LINE
  5
282AE
330
18
100
AcDbEntity
  8
細線
  6
CONTINUOUS
100
AcDbLine
 10
-1415.928919352817
 20
-1472.17310039126
 30
0.0
 11
-1415.181773286542
 21
-1469.384712551602
 31
0.0
  0
LINE
  5
282AF
330
18
100
AcDbEntity
  8
細線
  6
CONTINUOUS
100
AcDbLine
 10
-1413.887677791567
 20
-1474.21434195251
 30
0.0
 11
-1415.928919282108
 21
-1472.17310046197
 31
0.0
  0
LINE
  5
282B0
330
18
100
AcDbEntity
  8
細線
  6
CONTINUOUS
100
AcDbLine
 10
-1411.099290234751
 20
-1473.467195603392
 30
0.0
 11
-1410.352144168478
 21
-1470.678807763734
 31
0.0
  0
LINE
  5
282B1
330
18
100
AcDbEntity
  8
細線
  6
CONTINUOUS
100
AcDbLine
 10
-1410.352143885635
 20
-1470.678808046577
 30
0.0
 11
-1412.393385376175
 21
-1468.637566556036
 31
0.0
  0
CIRCLE
  5
282B2
330
18
100
AcDbEntity
  8
細線
  6
CONTINUOUS
100
AcDbCircle
 10
-1405.187158774434
 20
-1431.606203137663
 30
0.0
 40
4.399999999999995
  0
LINE
  5
282B3
330
18
100
AcDbEntity
  8
細線
  6
CONTINUOUS
100
AcDbLine
 10
-1405.375961323296
 20
-1434.486773742404
 30
0.0
 11
-1407.776207390669
 21
-1432.882980594436
 31
0.0
  0
LINE
  5
282B4
330
18
100
AcDbEntity
  8
細線
  6
CONTINUOUS
100
AcDbLine
 10
-1407.776207473815
 20
-1432.882980538879
 30
0.0
 11
-1407.587405091246
 21
-1430.002409823025
 31
0.0
  0
LINE
  5
282B5
330
18
100
AcDbEntity
  8
細線
  6
CONTINUOUS
100
AcDbLine
 10
-1402.598110158199
 20
-1430.329425680891
 30
0.0
 11
-1404.99835622557
 21
-1428.725632532922
 31
0.0
  0
LINE
  5
282B6
330
18
100
AcDbEntity
  8
細線
  6
CONTINUOUS
100
AcDbLine
 10
-1407.587404675512
 20
-1430.00241010081
 30
0.0
 11
-1404.998355892981
 21
-1428.725632755152
 31
0.0
  0
LINE
  5
282B7
330
18
100
AcDbEntity
  8
細線
  6
CONTINUOUS
100
AcDbLine
 10
-1402.78691245762
 20
-1433.209996452302
 30
0.0
 11
-1405.375961240149
 21
-1434.486773797958
 31
0.0
  0
LINE
  5
282B8
330
18
100
AcDbEntity
  8
細線
  6
CONTINUOUS
100
AcDbLine
 10
-1402.786912873356
 20
-1433.209996174515
 30
0.0
 11
-1402.598110490787
 21
-1430.329425458663
 31
0.0
  0
LINE
  5
282B9
330
18
100
AcDbEntity
  8
細線
  6
CONTINUOUS
100
AcDbLine
 10
-1445.894672659721
 20
-1417.093795303145
 30
0.0
 11
-1448.725955941026
 21
-1416.530618042938
 31
0.0
  0
LINE
  5
282BA
330
18
100
AcDbEntity
  8
細線
  6
CONTINUOUS
100
AcDbLine
 10
-1448.725956039104
 20
-1416.530618023429
 30
0.0
 11
-1449.653872070872
 21
-1413.7970661533
 31
0.0
  0
LINE
  5
282BB
330
18
100
AcDbEntity
  8
細線
  6
CONTINUOUS
100
AcDbLine
 10
-1444.919221049641
 20
-1412.189868901129
 30
0.0
 11
-1447.750504330946
 21
-1411.626691640922
 31
0.0
  0
LINE
  5
282BC
330
18
100
AcDbEntity
  8
細線
  6
CONTINUOUS
100
AcDbLine
 10
-1449.65387158048
 20
-1413.797066250845
 30
0.0
 11
-1447.75050393863
 21
-1411.626691718959
 31
0.0
  0
LINE
  5
282BD
330
18
100
AcDbEntity
  8
細線
  6
CONTINUOUS
100
AcDbLine
 10
-1443.991304919794
 20
-1414.923420790765
 30
0.0
 11
-1445.894672561643
 21
-1417.093795322651
 31
0.0
  0
LINE
  5
282BE
330
18
100
AcDbEntity
  8
細線
  6
CONTINUOUS
100
AcDbLine
 10
-1443.991305410188
 20
-1414.923420693222
 30
0.0
 11
-1444.919221441955
 21
-1412.189868823092
 31
0.0
  0
LINE
  5
282C2
330
18
100
AcDbEntity
  8
破線
100
AcDbLine
 10
-1188.093894037639
 20
-1467.640943358604
 30
0.0
 11
-1188.093894037639
 21
-1527.640943358604
 31
0.0
  0
LINE
  5
282C4
102
{ACAD_REACTORS
330
288CB
102
}
330
18
100
AcDbEntity
  8
中心線
 48
2.0
100
AcDbLine
 10
-1200.593894037657
 20
-1551.789396694878
 30
0.0
 11
-1200.593894037657
 21
-1503.706980271384
 31
0.0
  0
LINE
  5
282C5
330
18
100
AcDbEntity
  8
実線
100
AcDbLine
 10
-1173.093894037675
 20
-1660.140943358601
 30
0.0
 11
-1173.093894037638
 21
-1395.140943358604
 31
0.0
  0
LINE
  5
282C6
330
18
100
AcDbEntity
  8
実線
100
AcDbLine
 10
-1190.093894037641
 20
-1437.640943358604
 30
0.0
 11
-1190.093894037641
 21
-1527.640943358604
 31
0.0
  0
LINE
  5
282C7
330
18
100
AcDbEntity
  8
実線
100
AcDbLine
 10
-1186.093894037647
 20
-1527.640943358604
 30
0.0
 11
-1186.093894037637
 21
-1396.140943358602
 31
0.0
  0
CIRCLE
  5
282C8
330
18
100
AcDbEntity
  8
実線
100
AcDbCircle
 10
-1392.564417498221
 20
-1507.064829272953
 30
0.0
 40
5.500000000000452
  0
CIRCLE
  5
282C9
330
18
100
AcDbEntity
  8
細線
  6
CONTINUOUS
100
AcDbCircle
 10
-1392.564417498221
 20
-1507.064829272953
 30
0.0
 40
5.0
  0
CIRCLE
  5
282CA
330
18
100
AcDbEntity
  8
細線
  6
CONTINUOUS
100
AcDbCircle
 10
-1392.564417498221
 20
-1507.064829272953
 30
0.0
 40
4.399999999999995
  0
LINE
  5
282CB
330
18
100
AcDbEntity
  8
細線
  6
CONTINUOUS
100
AcDbLine
 10
-1389.776029812099
 20
-1507.811975525864
 30
0.0
 11
-1390.523176052895
 21
-1505.023587794529
 31
0.0
  0
LINE
  5
282CC
330
18
100
AcDbEntity
  8
細線
  6
CONTINUOUS
100
AcDbLine
 10
-1394.605658943545
 20
-1509.106070751377
 30
0.0
 11
-1395.352805184341
 21
-1506.317683020041
 31
0.0
  0
CIRCLE
  5
282CD
330
18
100
AcDbEntity
  8
細線
  6
CONTINUOUS
100
AcDbCircle
 10
-1356.074820801627
 20
-1505.108011165743
 30
0.0
 40
5.0
  0
CIRCLE
  5
282CE
330
18
100
AcDbEntity
  8
細線
  6
CONTINUOUS
100
AcDbCircle
 10
-1356.074820801627
 20
-1505.108011165743
 30
0.0
 40
4.399999999999995
  0
CIRCLE
  5
282CF
330
18
100
AcDbEntity
  8
実線
100
AcDbCircle
 10
-1356.074820801627
 20
-1505.108011165743
 30
0.0
 40
5.5
  0
LINE
  5
282D0
330
18
100
AcDbEntity
  8
細線
  6
CONTINUOUS
100
AcDbLine
 10
-1355.511643482893
 20
-1507.939294741284
 30
0.0
 11
-1358.245195353023
 21
-1507.011378709515
 31
0.0
  0
LINE
  5
282D1
330
18
100
AcDbEntity
  8
細線
  6
CONTINUOUS
100
AcDbLine
 10
-1355.511643580439
 20
-1507.939294250888
 30
0.0
 11
-1353.341269048553
 21
-1506.035926609041
 31
0.0
  0
CIRCLE
  5
282D6
102
{ACAD_REACTORS
330
288CB
102
}
330
18
100
AcDbEntity
  8
仮想線
 48
0.5
100
AcDbCircle
 10
-1200.593894037657
 20
-1527.640943358604
 30
0.0
 40
10.0
  0
LINE
  5
282D7
102
{ACAD_REACTORS
330
288CB
102
}
330
18
100
AcDbEntity
  8
仮想線
 48
0.5
100
AcDbLine
 10
-1137.593894037657
 20
-1507.670943358522
 30
0.0
 11
-1207.593894037657
 21
-1507.670943358522
 31
0.0
  0
LINE
  5
282D8
102
{ACAD_REACTORS
330
288CB
102
}
330
18
100
AcDbEntity
  8
仮想線
 48
0.5
100
AcDbLine
 10
-1207.593894037657
 20
-1547.670943358522
 30
0.0
 11
-1137.593894037657
 21
-1547.670943358522
 31
0.0
  0
CIRCLE
  5
282DF
330
18
100
AcDbEntity
  8
細線
  6
CONTINUOUS
100
AcDbCircle
 10
-1356.074820801629
 20
-1550.173875551469
 30
0.0
 40
5.0
  0
CIRCLE
  5
282E0
330
18
100
AcDbEntity
  8
実線
100
AcDbCircle
 10
-1356.074820801627
 20
-1550.173875551469
 30
0.0
 40
5.5
  0
CIRCLE
  5
282E1
330
18
100
AcDbEntity
  8
細線
  6
CONTINUOUS
100
AcDbCircle
 10
-1373.320780467258
 20
-1591.809305272369
 30
0.0
 40
5.0
  0
CIRCLE
  5
282E2
330
18
100
AcDbEntity
  8
細線
  6
CONTINUOUS
100
AcDbCircle
 10
-1373.320780467258
 20
-1591.809305272369
 30
0.0
 40
4.399999999999995
  0
CIRCLE
  5
282E3
330
18
100
AcDbEntity
  8
実線
100
AcDbCircle
 10
-1373.320780467258
 20
-1591.809305272369
 30
0.0
 40
5.5
  0
LINE
  5
282E4
330
18
100
AcDbEntity
  8
細線
  6
CONTINUOUS
100
AcDbLine
 10
-1372.044003010487
 20
-1594.398353888604
 30
0.0
 11
-1370.440209862519
 21
-1591.998107821232
 31
0.0
  0
LINE
  5
282E5
330
18
100
AcDbEntity
  8
細線
  6
CONTINUOUS
100
AcDbLine
 10
-1374.924573781898
 20
-1594.209551589182
 30
0.0
 11
-1376.201351127555
 21
-1591.620502806654
 31
0.0
  0
LINE
  5
282E6
330
18
100
AcDbEntity
  8
細線
  6
CONTINUOUS
100
AcDbLine
 10
-1374.924573504112
 20
-1594.209551173446
 30
0.0
 11
-1372.044002788258
 21
-1594.398353556016
 31
0.0
  0
LINE
  5
282E7
330
18
100
AcDbEntity
  8
細線
  6
CONTINUOUS
100
AcDbLine
 10
-1376.201351071999
 20
-1591.620502723506
 30
0.0
 11
-1374.597557924031
 21
-1589.220256656134
 31
0.0
  0
CIRCLE
  5
282E8
330
18
100
AcDbEntity
  8
実線
100
AcDbCircle
 10
-1392.56441749822
 20
-1548.217057444253
 30
0.0
 40
5.500000000000452
  0
CIRCLE
  5
282E9
330
18
100
AcDbEntity
  8
細線
  6
CONTINUOUS
100
AcDbCircle
 10
-1392.56441749822
 20
-1548.217057444253
 30
0.0
 40
5.0
  0
CIRCLE
  5
282EA
330
18
100
AcDbEntity
  8
細線
  6
CONTINUOUS
100
AcDbCircle
 10
-1392.56441749822
 20
-1548.217057444253
 30
0.0
 40
4.399999999999995
  0
LINE
  5
282EB
330
18
100
AcDbEntity
  8
細線
  6
CONTINUOUS
100
AcDbLine
 10
-1393.311563687253
 20
-1551.005444982402
 30
0.0
 11
-1390.523175949367
 21
-1550.258298536308
 31
0.0
  0
LINE
  5
282EC
330
18
100
AcDbEntity
  8
細線
  6
CONTINUOUS
100
AcDbLine
 10
-1393.311563816661
 20
-1551.005445465368
 30
0.0
 11
-1395.352805210223
 21
-1548.964203793757
 31
0.0
  0
CIRCLE
  5
282ED
330
18
100
AcDbEntity
  8
細線
 48
0.5
100
AcDbCircle
 10
-1394.355520688201
 20
-1527.640943358602
 30
0.0
 40
5.0
  0
CIRCLE
  5
282EE
330
18
100
AcDbEntity
  8
実線
100
AcDbCircle
 10
-1394.355520688201
 20
-1527.640943358602
 30
0.0
 40
4.25
  0
LINE
  5
282EF
330
18
100
AcDbEntity
  8
細線
  6
CONTINUOUS
100
AcDbLine
 10
-1391.817271309188
 20
-1509.853216811104
 30
0.0
 11
-1389.776029915627
 21
-1507.811975139494
 31
0.0
  0
LINE
  5
282F0
330
18
100
AcDbEntity
  8
細線
  6
CONTINUOUS
100
AcDbLine
 10
-1391.817271179778
 20
-1509.853217294067
 30
0.0
 11
-1394.605658917663
 21
-1509.10607084797
 31
0.0
  0
LINE
  5
282F1
330
18
100
AcDbEntity
  8
細線
  6
CONTINUOUS
100
AcDbLine
 10
-1391.817271309188
 20
-1545.428669906103
 30
0.0
 11
-1389.776029915628
 21
-1547.469911577713
 31
0.0
  0
LINE
  5
282F2
330
18
100
AcDbEntity
  8
細線
  6
CONTINUOUS
100
AcDbLine
 10
-1390.523176052896
 20
-1550.258298922678
 30
0.0
 11
-1389.7760298121
 21
-1547.469911191342
 31
0.0
  0
LINE
  5
282F3
330
18
100
AcDbEntity
  8
細線
  6
CONTINUOUS
100
AcDbLine
 10
-1394.605658917663
 20
-1546.175815869237
 30
0.0
 11
-1391.817271179778
 21
-1545.428669423141
 31
0.0
  0
LINE
  5
282F4
330
18
100
AcDbEntity
  8
細線
  6
CONTINUOUS
100
AcDbLine
 10
-1395.352805184342
 20
-1548.964203697166
 30
0.0
 11
-1394.605658943545
 21
-1546.175815965828
 31
0.0
  0
CIRCLE
  5
282F5
330
18
100
AcDbEntity
  8
細線
  6
CONTINUOUS
100
AcDbCircle
 10
-1356.074820801629
 20
-1550.173875551469
 30
0.0
 40
4.399999999999995
  0
LINE
  5
282F6
330
18
100
AcDbEntity
  8
細線
  6
CONTINUOUS
100
AcDbLine
 10
-1358.80837263274
 20
-1551.101791387081
 30
0.0
 11
-1358.245195372534
 21
-1548.270508105777
 31
0.0
  0
LINE
  5
282F7
330
18
100
AcDbEntity
  8
細線
  6
CONTINUOUS
100
AcDbLine
 10
-1353.904446230725
 20
-1552.07724299716
 30
0.0
 11
-1353.341268970517
 21
-1549.245959715856
 31
0.0
  0
LINE
  5
282F8
330
18
100
AcDbEntity
  8
細線
  6
CONTINUOUS
100
AcDbLine
 10
-1374.597557868474
 20
-1589.220256572986
 30
0.0
 11
-1371.71698715262
 21
-1589.409058955556
 31
0.0
  0
LINE
  5
282F9
330
18
100
AcDbEntity
  8
細線
  6
CONTINUOUS
100
AcDbLine
 10
-1371.716987430405
 20
-1589.409059371289
 30
0.0
 11
-1370.440210084747
 21
-1591.998108153821
 31
0.0
  0
LINE
  5
282FA
330
18
100
AcDbEntity
  8
細線
  6
CONTINUOUS
100
AcDbLine
 10
-1356.637998120362
 20
-1553.005159127009
 30
0.0
 11
-1358.808372652249
 21
-1551.101791485159
 31
0.0
  0
LINE
  5
282FB
330
18
100
AcDbEntity
  8
細線
  6
CONTINUOUS
100
AcDbLine
 10
-1356.637998022818
 20
-1553.005158636615
 30
0.0
 11
-1353.904446152688
 21
-1552.077242604847
 31
0.0
  0
LINE
  5
282FC
330
18
100
AcDbEntity
  8
細線
  6
CONTINUOUS
100
AcDbLine
 10
-1358.245195353024
 20
-1548.270508007698
 30
0.0
 11
-1355.511643482895
 21
-1547.34259197593
 31
0.0
  0
LINE
  5
282FD
330
18
100
AcDbEntity
  8
細線
  6
CONTINUOUS
100
AcDbLine
 10
-1355.511643580441
 20
-1547.342592466323
 30
0.0
 11
-1353.341269048554
 21
-1549.245960108172
 31
0.0
  0
LINE
  5
282FE
102
{ACAD_REACTORS
330
288C5
330
288C6
102
}
330
18
100
AcDbEntity
  8
仮想線
 48
0.5
100
AcDbLine
 10
-1326.35844643804
 20
-1531.671450157418
 30
0.0
 11
-1326.658492362643
 21
-1531.971404225784
 31
0.0
  0
LINE
  5
282FF
102
{ACAD_REACTORS
330
288C5
330
288C6
102
}
330
18
100
AcDbEntity
  8
仮想線
 48
0.5
100
AcDbLine
 10
-1326.657191065951
 20
-1523.471404325395
 30
0.0
 11
-1326.357236997585
 21
-1523.771450249997
 31
0.0
  0
LINE
  5
28300
102
{ACAD_REACTORS
330
288C5
102
}
330
18
100
AcDbEntity
  8
仮想線
 48
0.5
100
AcDbLine
 10
-1336.855520688201
 20
-1537.640943358602
 30
0.0
 11
-1333.655520688201
 21
-1537.640943358602
 31
0.0
  0
LINE
  5
28301
102
{ACAD_REACTORS
330
288C5
330
288C6
102
}
330
18
100
AcDbEntity
  8
仮想線
 48
0.5
100
AcDbLine
 10
-1332.658594958574
 20
-1532.641096040275
 30
0.0
 11
-1332.657829489931
 21
-1527.641096098869
 31
0.0
  0
LINE
  5
28302
102
{ACAD_REACTORS
330
288C5
330
288C6
102
}
330
18
100
AcDbEntity
  8
仮想線
 48
0.5
100
AcDbLine
 10
-1332.658533721082
 20
-1532.241096044961
 30
0.0
 11
-1331.358533736317
 21
-1532.241295066809
 31
0.0
  0
LINE
  5
28303
102
{ACAD_REACTORS
330
288C5
330
288C6
102
}
330
18
100
AcDbEntity
  8
仮想線
 48
0.5
100
AcDbLine
 10
-1331.358492307564
 20
-1531.97068468526
 30
0.0
 11
-1326.658492362643
 21
-1531.971404225784
 31
0.0
  0
LINE
  5
28304
102
{ACAD_REACTORS
330
288C5
330
288C6
102
}
330
18
100
AcDbEntity
  8
仮想線
 48
0.5
100
AcDbLine
 10
-1333.658594946855
 20
-1532.640942946545
 30
0.0
 11
-1332.658594958574
 21
-1532.641096040275
 31
0.0
  0
LINE
  5
28305
102
{ACAD_REACTORS
330
288C5
102
}
330
18
100
AcDbEntity
  8
仮想線
 48
0.5
100
AcDbLine
 10
-1336.855520688201
 20
-1507.640943358602
 30
0.0
 11
-1333.655520688201
 21
-1507.640943358602
 31
0.0
  0
LINE
  5
28306
102
{ACAD_REACTORS
330
288C5
102
}
330
18
100
AcDbEntity
  8
仮想線
 48
0.5
100
AcDbLine
 10
-1336.855520688201
 20
-1517.640943358602
 30
0.0
 11
-1333.655520688201
 21
-1517.640943358602
 31
0.0
  0
LINE
  5
28307
102
{ACAD_REACTORS
330
288C5
330
288C6
102
}
330
18
100
AcDbEntity
  8
仮想線
 48
0.5
100
AcDbLine
 10
-1333.657064009571
 20
-1522.640943063735
 30
0.0
 11
-1332.65706402129
 21
-1522.641096157463
 31
0.0
  0
LINE
  5
28308
102
{ACAD_REACTORS
330
288C5
330
288C6
102
}
330
18
100
AcDbEntity
  8
仮想線
 48
0.5
100
AcDbLine
 10
-1332.657125258781
 20
-1523.041096152776
 30
0.0
 11
-1331.357125274015
 21
-1523.041295174623
 31
0.0
  0
LINE
  5
28309
102
{ACAD_REACTORS
330
288C5
330
288C6
102
}
330
18
100
AcDbEntity
  8
仮想線
 48
0.5
100
AcDbLine
 10
-1332.657829489931
 20
-1527.641096098869
 30
0.0
 11
-1332.65706402129
 21
-1522.641096157463
 31
0.0
  0
LINE
  5
2830A
102
{ACAD_REACTORS
330
288C5
102
}
330
18
100
AcDbEntity
  8
仮想線
 48
0.5
100
AcDbLine
 10
-1336.855520688201
 20
-1547.640943358602
 30
0.0
 11
-1336.855520688201
 21
-1507.640943358602
 31
0.0
  0
LINE
  5
2830B
102
{ACAD_REACTORS
330
288C5
102
}
330
18
100
AcDbEntity
  8
仮想線
 48
0.5
100
AcDbLine
 10
-1333.655520688201
 20
-1547.640943358602
 30
0.0
 11
-1333.655520688201
 21
-1507.640943358602
 31
0.0
  0
LINE
  5
2830C
102
{ACAD_REACTORS
330
288C5
330
288C6
102
}
330
18
100
AcDbEntity
  8
仮想線
 48
0.5
100
AcDbLine
 10
-1331.358533736317
 20
-1532.241295066809
 30
0.0
 11
-1331.357125274015
 21
-1523.041295174623
 31
0.0
  0
LINE
  5
2830D
102
{ACAD_REACTORS
330
288C5
330
288C6
102
}
330
18
100
AcDbEntity
  8
仮想線
 48
0.5
100
AcDbLine
 10
-1331.357191010873
 20
-1523.470684784871
 30
0.0
 11
-1326.657191065951
 21
-1523.471404325395
 31
0.0
  0
LINE
  5
2830E
102
{ACAD_REACTORS
330
288C5
102
}
330
18
100
AcDbEntity
  8
仮想線
 48
0.5
100
AcDbLine
 10
-1336.855520688201
 20
-1547.640943358602
 30
0.0
 11
-1333.655520688201
 21
-1547.640943358602
 31
0.0
  0
LINE
  5
2830F
102
{ACAD_REACTORS
330
288C5
330
288C6
102
}
330
18
100
AcDbEntity
  8
仮想線
 48
0.5
100
AcDbLine
 10
-1326.35844643804
 20
-1531.671450157418
 30
0.0
 11
-1326.357236997585
 21
-1523.771450249997
 31
0.0
  0
LINE
  5
28311
102
{ACAD_REACTORS
330
288CB
102
}
330
18
100
AcDbEntity
  8
仮想線
 48
0.5
100
AcDbLine
 10
-1217.593894037657
 20
-1517.670943358521
 30
0.0
 11
-1207.593894037657
 21
-1507.670943358522
 31
0.0
  0
LINE
  5
28312
102
{ACAD_REACTORS
330
288CB
102
}
330
18
100
AcDbEntity
  8
仮想線
 48
0.5
100
AcDbLine
 10
-1207.593894037657
 20
-1547.670943358522
 30
0.0
 11
-1217.593894037657
 21
-1537.670943358524
 31
0.0
  0
LINE
  5
28313
102
{ACAD_REACTORS
330
288CB
102
}
330
18
100
AcDbEntity
  8
仮想線
 48
0.5
100
AcDbLine
 10
-1217.593894037657
 20
-1517.670943358521
 30
0.0
 11
-1217.593894037657
 21
-1537.670943358524
 31
0.0
  0
LINE
  5
28315
330
18
100
AcDbEntity
  8
実線
100
AcDbLine
 10
-1190.093894037641
 20
-1617.640943358604
 30
0.0
 11
-1190.093894037641
 21
-1527.640943358604
 31
0.0
  0
LINE
  5
28316
330
18
100
AcDbEntity
  8
実線
100
AcDbLine
 10
-1186.093894037647
 20
-1527.640943358604
 30
0.0
 11
-1186.093894037642
 21
-1659.140943358603
 31
0.0
  0
LINE
  5
28317
330
18
100
AcDbEntity
  8
中心線
 48
2.0
100
AcDbLine
 10
-1199.948080557317
 20
-1602.640943358604
 30
0.0
 11
-1174.277327247096
 21
-1602.640943358604
 31
0.0
  0
LINE
  5
28318
330
18
100
AcDbEntity
  8
実線
100
AcDbLine
 10
-1173.093894037642
 20
-1660.140943358604
 30
0.0
 11
-1185.09389403764
 21
-1660.140943358604
 31
0.0
  0
LINE
  5
28319
330
18
100
AcDbEntity
  8
実線
100
AcDbLine
 10
-1186.093894037639
 20
-1659.140943358604
 30
0.0
 11
-1185.09389403764
 21
-1660.140943358604
 31
0.0
  0
LINE
  5
2831A
330
18
100
AcDbEntity
  8
実線
  6
CONTINUOUS
100
AcDbLine
 10
-1186.093894037642
 20
-1638.740943358601
 30
0.0
 11
-1186.093894037642
 21
-1647.540943358601
 31
0.0
  0
LINE
  5
2831B
330
18
100
AcDbEntity
  8
実線
100
AcDbLine
 10
-1190.093894037641
 20
-1617.640943358604
 30
0.0
 11
-1186.093894037639
 21
-1617.640943358604
 31
0.0
  0
LINE
  5
2832A
330
18
100
AcDbEntity
  8
実線
100
AcDbLine
 10
-1167.89389403764
 20
-1660.1409433586
 30
0.0
 11
-1163.293894037639
 21
-1660.1409433586
 31
0.0
  0
LINE
  5
28352
330
18
100
AcDbEntity
  8
破線
100
AcDbLine
 10
-1188.093894037639
 20
-1587.640943358604
 30
0.0
 11
-1188.093894037639
 21
-1527.640943358604
 31
0.0
  0
LINE
  5
28353
330
18
100
AcDbEntity
  8
破線
100
AcDbLine
 10
-1190.093894037641
 20
-1587.640943358604
 30
0.0
 11
-1188.093894037639
 21
-1587.640943358604
 31
0.0
  0
CIRCLE
  5
28354
102
{ACAD_REACTORS
330
288CB
102
}
330
18
100
AcDbEntity
  8
仮想線
 48
0.5
100
AcDbCircle
 10
-1165.593894037657
 20
-1527.640943358604
 30
0.0
 40
3.0
  0
LINE
  5
28355
102
{ACAD_REACTORS
330
288CB
102
}
330
18
100
AcDbEntity
  8
中心線
 48
2.0
100
AcDbLine
 10
-1165.593894037657
 20
-1534.919924911219
 30
0.0
 11
-1165.593894037657
 21
-1520.361961805987
 31
0.0
  0
LINE
  5
28356
330
18
100
AcDbEntity
  8
実線
100
AcDbLine
 10
-1147.89389403764
 20
-1660.1409433586
 30
0.0
 11
-1143.29389403764
 21
-1660.1409433586
 31
0.0
  0
LINE
  5
28357
102
{ACAD_REACTORS
330
288CB
102
}
330
18
100
AcDbEntity
  8
中心線
 48
2.0
100
AcDbLine
 10
-1145.593894037657
 20
-1534.919924911219
 30
0.0
 11
-1145.593894037657
 21
-1520.361961805987
 31
0.0
  0
CIRCLE
  5
28358
102
{ACAD_REACTORS
330
288CB
102
}
330
18
100
AcDbEntity
  8
仮想線
 48
0.5
100
AcDbCircle
 10
-1145.593894037657
 20
-1527.640943358604
 30
0.0
 40
3.0
  0
LINE
  5
28359
102
{ACAD_REACTORS
330
288CB
102
}
330
18
100
AcDbEntity
  8
仮想線
 48
0.5
100
AcDbLine
 10
-1137.593894037657
 20
-1547.670943358522
 30
0.0
 11
-1137.593894037657
 21
-1507.670943358522
 31
0.0
  0
CIRCLE
  5
2835E
330
18
100
AcDbEntity
  8
細線
  6
CONTINUOUS
100
AcDbCircle
 10
-1373.320780467254
 20
-1463.472581444843
 30
0.0
 40
5.0
  0
CIRCLE
  5
2835F
330
18
100
AcDbEntity
  8
細線
  6
CONTINUOUS
100
AcDbCircle
 10
-1373.320780467254
 20
-1463.472581444843
 30
0.0
 40
4.399999999999995
  0
CIRCLE
  5
28360
330
18
100
AcDbEntity
  8
実線
100
AcDbCircle
 10
-1373.320780467253
 20
-1463.47258144484
 30
0.0
 40
5.5
  0
LINE
  5
28361
330
18
100
AcDbEntity
  8
細線
  6
CONTINUOUS
100
AcDbLine
 10
-1374.597557924027
 20
-1466.061630061077
 30
0.0
 11
-1376.201351071995
 21
-1463.661383993706
 31
0.0
  0
LINE
  5
28362
330
18
100
AcDbEntity
  8
細線
  6
CONTINUOUS
100
AcDbLine
 10
-1376.201351127551
 20
-1463.661383910559
 30
0.0
 11
-1374.924573781894
 21
-1461.07233512803
 31
0.0
  0
LINE
  5
28363
330
18
100
AcDbEntity
  8
細線
  6
CONTINUOUS
100
AcDbLine
 10
-1393.311563687253
 20
-1504.276441734802
 30
0.0
 11
-1390.523175949367
 21
-1505.023588180899
 31
0.0
  0
LINE
  5
28364
330
18
100
AcDbEntity
  8
細線
  6
CONTINUOUS
100
AcDbLine
 10
-1395.352805210223
 20
-1506.317682923449
 30
0.0
 11
-1393.311563816661
 21
-1504.276441251839
 31
0.0
  0
LINE
  5
28365
330
18
100
AcDbEntity
  8
細線
  6
CONTINUOUS
100
AcDbLine
 10
-1371.716987430402
 20
-1465.872827345921
 30
0.0
 11
-1370.440210084743
 21
-1463.283778563392
 31
0.0
  0
LINE
  5
28366
330
18
100
AcDbEntity
  8
細線
  6
CONTINUOUS
100
AcDbLine
 10
-1371.716987152616
 20
-1465.872827761654
 30
0.0
 11
-1374.59755786847
 21
-1466.061630144223
 31
0.0
  0
LINE
  5
28367
330
18
100
AcDbEntity
  8
細線
  6
CONTINUOUS
100
AcDbLine
 10
-1358.245195372532
 20
-1507.011378611436
 30
0.0
 11
-1358.808372632739
 21
-1504.180095330132
 31
0.0
  0
LINE
  5
28368
330
18
100
AcDbEntity
  8
細線
  6
CONTINUOUS
100
AcDbLine
 10
-1358.808372652248
 20
-1504.180095232054
 30
0.0
 11
-1356.637998120361
 21
-1502.276727590206
 31
0.0
  0
LINE
  5
28369
330
18
100
AcDbEntity
  8
細線
  6
CONTINUOUS
100
AcDbLine
 10
-1353.341268970517
 20
-1506.035927001356
 30
0.0
 11
-1353.904446230723
 21
-1503.204643720052
 31
0.0
  0
LINE
  5
2836A
330
18
100
AcDbEntity
  8
細線
  6
CONTINUOUS
100
AcDbLine
 10
-1356.637998022816
 20
-1502.276728080598
 30
0.0
 11
-1353.904446152687
 21
-1503.204644112367
 31
0.0
  0
LINE
  5
2836B
330
18
100
AcDbEntity
  8
細線
  6
CONTINUOUS
100
AcDbLine
 10
-1370.440209862515
 20
-1463.283778895981
 30
0.0
 11
-1372.044003010483
 21
-1460.883532828608
 31
0.0
  0
LINE
  5
2836C
330
18
100
AcDbEntity
  8
細線
  6
CONTINUOUS
100
AcDbLine
 10
-1374.924573504108
 20
-1461.072335543764
 30
0.0
 11
-1372.044002788255
 21
-1460.883533161197
 31
0.0
  0
LINE
  5
2836F
330
18
100
AcDbEntity
  8
中心線
 48
2.0
100
AcDbLine
 10
-1199.948080557317
 20
-1452.640943358603
 30
0.0
 11
-1174.277327247096
 21
-1452.640943358603
 31
0.0
  0
LINE
  5
28370
330
18
100
AcDbEntity
  8
破線
100
AcDbLine
 10
-1190.093894037641
 20
-1467.640943358604
 30
0.0
 11
-1188.093894037639
 21
-1467.640943358604
 31
0.0
  0
LINE
  5
28371
330
18
100
AcDbEntity
  8
実線
100
AcDbLine
 10
-1190.093894037641
 20
-1437.640943358604
 30
0.0
 11
-1186.093894037639
 21
-1437.640943358604
 31
0.0
  0
LINE
  5
28372
330
18
100
AcDbEntity
  8
実線
100
AcDbLine
 10
-1173.093894037642
 20
-1395.140943358604
 30
0.0
 11
-1185.09389403764
 21
-1395.140943358604
 31
0.0
  0
LINE
  5
28373
330
18
100
AcDbEntity
  8
実線
100
AcDbLine
 10
-1186.093894037639
 20
-1396.140943358604
 30
0.0
 11
-1185.09389403764
 21
-1395.140943358604
 31
0.0
  0
CIRCLE
  5
28374
330
18
100
AcDbEntity
  8
実線
100
AcDbCircle
 10
-604.1746147319362
 20
-1457.361308881651
 30
0.0
 40
4.75
  0
CIRCLE
  5
28375
330
18
100
AcDbEntity
  8
実線
100
AcDbCircle
 10
-604.1746147319727
 20
-1597.920577835576
 30
0.0
 40
4.75
  0
CIRCLE
  5
28379
330
18
100
AcDbEntity
  8
中心線
 48
2.0
100
AcDbCircle
 10
-709.3555206882008
 20
-1527.640943358586
 30
0.0
 40
112.499999999966
  0
LINE
  5
2837A
330
18
100
AcDbEntity
  8
中心線
 48
2.0
100
AcDbLine
 10
-849.9730557770117
 20
-1527.6409433586
 30
0.0
 11
-569.7152241818558
 21
-1527.6409433586
 31
0.0
  0
CIRCLE
  5
2837B
330
18
100
AcDbEntity
  8
実線
100
AcDbCircle
 10
-709.3555206882008
 20
-1527.640943358586
 30
0.0
 40
132.4999999999999
  0
CIRCLE
  5
2837F
330
18
100
AcDbEntity
  8
実線
100
AcDbCircle
 10
-833.4248586591733
 20
-1502.962017623518
 30
0.0
 40
4.75
  0
CIRCLE
  5
28380
330
18
100
AcDbEntity
  8
細線
  6
CONTINUOUS
100
AcDbCircle
 10
-833.4248586591733
 20
-1502.962017623518
 30
0.0
 40
4.25
  0
LINE
  5
28385
330
18
100
AcDbEntity
  8
実線
100
AcDbLine
 10
-996.0938940376387
 20
-1395.140943358604
 30
0.0
 11
-996.093894037639
 21
-1527.640943358604
 31
0.0
  0
LINE
  5
28386
330
18
100
AcDbEntity
  8
実線
100
AcDbLine
 10
-980.0938940376385
 20
-1395.140943358604
 30
0.0
 11
-980.093894037639
 21
-1527.640943358604
 31
0.0
  0
LINE
  5
28387
330
18
100
AcDbEntity
  8
実線
100
AcDbLine
 10
-977.0938940376392
 20
-1605.140943358604
 30
0.0
 11
-977.0938940376387
 21
-1457.640943358604
 31
0.0
  0
LINE
  5
28388
330
18
100
AcDbEntity
  8
中心線
100
AcDbLine
 10
-709.3555206881949
 20
-1387.023408269766
 30
0.0
 11
-709.3555206881949
 21
-1667.281239864922
 31
0.0
  0
LINE
  5
2838A
330
18
100
AcDbEntity
  8
中心線
100
AcDbLine
 10
-709.3555206881949
 20
-1387.023408269766
 30
0.0
 11
-709.3555206881949
 21
-1667.281239864922
 31
0.0
  0
LINE
  5
2838B
330
18
100
AcDbEntity
  8
中心線
100
AcDbLine
 10
-709.3555206881949
 20
-1387.023408269766
 30
0.0
 11
-709.3555206881949
 21
-1667.281239864922
 31
0.0
  0
LINE
  5
2838C
330
18
100
AcDbEntity
  8
中心線
100
AcDbLine
 10
-709.3555206881967
 20
-1387.023408269769
 30
0.0
 11
-709.3555206881967
 21
-1667.281239864926
 31
0.0
  0
LINE
  5
2838D
330
18
100
AcDbEntity
  8
中心線
100
AcDbLine
 10
-709.3555206881967
 20
-1387.023408269769
 30
0.0
 11
-709.3555206881967
 21
-1667.281239864926
 31
0.0
  0
LINE
  5
2838E
330
18
100
AcDbEntity
  8
中心線
100
AcDbLine
 10
-709.3555206881967
 20
-1387.023408269769
 30
0.0
 11
-709.3555206881967
 21
-1667.281239864926
 31
0.0
  0
LINE
  5
2838F
330
18
100
AcDbEntity
  8
中心線
100
AcDbLine
 10
-709.3555206881967
 20
-1387.023408269769
 30
0.0
 11
-709.3555206881967
 21
-1667.281239864926
 31
0.0
  0
LINE
  5
28390
330
18
100
AcDbEntity
  8
中心線
100
AcDbLine
 10
-709.3555206881967
 20
-1387.023408269787
 30
0.0
 11
-709.3555206881967
 21
-1667.281239864943
 31
0.0
  0
LINE
  5
28391
330
18
100
AcDbEntity
  8
中心線
100
AcDbLine
 10
-709.3555206881967
 20
-1387.023408269787
 30
0.0
 11
-709.3555206881967
 21
-1667.281239864943
 31
0.0
  0
LINE
  5
28392
330
18
100
AcDbEntity
  8
中心線
100
AcDbLine
 10
-709.3555206881967
 20
-1387.023408269787
 30
0.0
 11
-709.3555206881967
 21
-1667.281239864943
 31
0.0
  0
LINE
  5
28393
330
18
100
AcDbEntity
  8
中心線
100
AcDbLine
 10
-709.3555206881967
 20
-1387.023408269787
 30
0.0
 11
-709.3555206881967
 21
-1667.281239864943
 31
0.0
  0
LINE
  5
28394
330
18
100
AcDbEntity
  8
中心線
100
AcDbLine
 10
-709.3555206881949
 20
-1387.023408269783
 30
0.0
 11
-709.3555206881949
 21
-1667.281239864939
 31
0.0
  0
LINE
  5
28395
330
18
100
AcDbEntity
  8
中心線
 48
2.0
100
AcDbLine
 10
-709.3555206881949
 20
-1387.023408269783
 30
0.0
 11
-709.3555206881949
 21
-1667.281239864939
 31
0.0
  0
ARC
  5
283D0
330
18
100
AcDbEntity
  8
0
100
AcDbCircle
 10
-926.6830058751013
 20
-1587.740943358572
 30
0.0
 40
34.2
100
AcDbArc
 50
359.9999999999993
 51
90.00000000000133
  0
ARC
  5
283D1
330
18
100
AcDbEntity
  8
0
100
AcDbCircle
 10
-926.6830058751013
 20
-1587.740943358572
 30
0.0
 40
30.0
100
AcDbArc
 50
359.9999999999993
 51
90.00000000000133
  0
LINE
  5
283D7
330
18
100
AcDbEntity
  8
0
100
AcDbLine
 10
-905.9358524961414
 20
-1675.11686761396
 30
0.0
 11
-898.4301592540614
 21
-1664.147950211518
 31
0.0
  0
LINE
  5
283D9
330
18
100
AcDbEntity
  8
0
  6
CONTINUOUS
 62
     7
100
AcDbLine
 10
-907.0271251665232
 20
-1723.906891582525
 30
0.0
 11
-905.3271251665234
 21
-1723.906891582525
 31
0.0
  0
LINE
  5
283DA
330
18
100
AcDbEntity
  8
0
  6
CONTINUOUS
 62
     7
100
AcDbLine
 10
-905.3271251665234
 20
-1726.906891582525
 30
0.0
 11
-907.0271251665232
 21
-1726.906891582525
 31
0.0
  0
LINE
  5
283DB
330
18
100
AcDbEntity
  8
細線
  6
CONTINUOUS
100
AcDbLine
 10
-907.0271251665232
 20
-1726.406891582525
 30
0.0
 11
-905.3271251665234
 21
-1726.406891582525
 31
0.0
  0
LINE
  5
283DC
330
18
100
AcDbEntity
  8
細線
  6
CONTINUOUS
100
AcDbLine
 10
-907.0271251665232
 20
-1724.406891582526
 30
0.0
 11
-905.3271251665234
 21
-1724.406891582526
 31
0.0
  0
LWPOLYLINE
  5
283DE
330
18
100
AcDbEntity
  8
0
  6
CONTINUOUS
 62
     7
100
AcDbPolyline
 90
        4
 70
     1
 43
0.0
 10
-909.09091865672
 20
-1721.808887363724
 10
-909.09091865672
 20
-1703.110197372128
 10
-902.0909186625798
 20
-1703.110197372128
 10
-902.0909186625798
 20
-1721.808887363724
  0
LINE
  5
283DF
330
18
100
AcDbEntity
  8
0
100
AcDbLine
 10
-897.747233842182
 20
-1721.808887363726
 30
0.0
 11
-913.3472338421823
 21
-1721.808887363724
 31
0.0
  0
LINE
  5
283E0
330
18
100
AcDbEntity
  8
中心線
 48
2.0
100
AcDbLine
 10
-900.0271251665234
 20
-1725.406891582525
 30
0.0
 11
-913.0271251665233
 21
-1725.406891582525
 31
0.0
  0
LINE
  5
283E1
330
18
100
AcDbEntity
  8
0
100
AcDbLine
 10
-914.9472338421867
 20
-1721.808887363724
 30
0.0
 11
-896.1472338421868
 21
-1721.808887363724
 31
0.0
  0
LINE
  5
283E2
330
18
100
AcDbEntity
  8
0
100
AcDbLine
 10
-902.0472338451153
 20
-1721.813355372574
 30
0.0
 11
-909.0472338392553
 21
-1721.813355372574
 31
0.0
  0
LINE
  5
283E3
330
18
100
AcDbEntity
  8
0
100
AcDbLine
 10
-902.6072338421867
 20
-1721.808887363724
 30
0.0
 11
-908.4872338421867
 21
-1721.808887363724
 31
0.0
  0
LINE
  5
283E4
330
18
100
AcDbEntity
  8
0
  6
CONTINUOUS
 62
     7
100
AcDbLine
 10
-893.477125166523
 20
-1774.813355372574
 30
0.0
 11
-917.5771251665233
 21
-1774.813355372574
 31
0.0
  0
LINE
  5
283E5
330
18
100
AcDbEntity
  8
0
  6
CONTINUOUS
 62
     7
100
AcDbLine
 10
-892.6771251665227
 20
-1774.013355372573
 30
0.0
 11
-918.3771251665236
 21
-1774.013355372573
 31
0.0
  0
LINE
  5
283E6
330
18
100
AcDbEntity
  8
0
  6
CONTINUOUS
 62
     7
100
AcDbLine
 10
-918.3771251665236
 20
-1769.313355372574
 30
0.0
 11
-892.6771251665227
 21
-1769.313355372574
 31
0.0
  0
LINE
  5
283E7
330
18
100
AcDbEntity
  8
0
  6
CONTINUOUS
 62
     7
100
AcDbLine
 10
-892.7271251665883
 20
-1758.313355372601
 30
0.0
 11
-918.3271251665232
 21
-1758.313355373987
 31
0.0
  0
LINE
  5
283E8
330
18
100
AcDbEntity
  8
0
  6
CONTINUOUS
 62
     7
100
AcDbLine
 10
-892.5271251665233
 20
-1757.313355372573
 30
0.0
 11
-918.5271251665232
 21
-1757.313355372573
 31
0.0
  0
LINE
  5
283E9
330
18
100
AcDbEntity
  8
0
  6
CONTINUOUS
 62
     7
100
AcDbLine
 10
-892.7271251664256
 20
-1761.313355372601
 30
0.0
 11
-918.3271251663608
 21
-1761.313355373987
 31
0.0
  0
LINE
  5
283EA
330
18
100
AcDbEntity
  8
0
  6
CONTINUOUS
 62
     7
100
AcDbLine
 10
-892.5271251665233
 20
-1749.967179212713
 30
0.0
 11
-918.5271251665232
 21
-1749.967179212713
 31
0.0
  0
LINE
  5
283EB
330
18
100
AcDbEntity
  8
0
  6
CONTINUOUS
 62
     7
100
AcDbLine
 10
-916.5271251665233
 20
-1729.045965710757
 30
0.0
 11
-894.5376694354822
 21
-1729.045965710757
 31
0.0
  0
LINE
  5
283EC
330
18
100
AcDbEntity
  8
0
  6
CONTINUOUS
 62
     7
100
AcDbLine
 10
-916.4151439940688
 20
-1731.523479374147
 30
0.0
 11
-894.6391063389775
 21
-1731.523479374147
 31
0.0
  0
LINE
  5
283ED
330
18
100
AcDbEntity
  8
0
  6
CONTINUOUS
 62
     7
100
AcDbLine
 10
-916.1509047194094
 20
-1733.127402798855
 30
0.0
 11
-894.9033456136371
 21
-1733.127402798855
 31
0.0
  0
LINE
  5
28401
330
18
100
AcDbEntity
  8
0
  6
CONTINUOUS
 62
     7
100
AcDbLine
 10
-918.5271251665232
 20
-1749.967179212713
 30
0.0
 11
-916.2020763648314
 21
-1733.840913777696
 31
0.0
  0
LINE
  5
28402
330
18
100
AcDbEntity
  8
0
  6
CONTINUOUS
 62
     7
100
AcDbLine
 10
-917.5771251665233
 20
-1774.813355372574
 30
0.0
 11
-918.3771251665236
 21
-1774.013355372573
 31
0.0
  0
LINE
  5
28403
330
18
100
AcDbEntity
  8
細線
  6
CONTINUOUS
100
AcDbLine
 10
-917.8771251665235
 20
-1769.313355372574
 30
0.0
 11
-918.3771251665236
 21
-1768.44732996879
 31
0.0
  0
LINE
  5
28404
330
18
100
AcDbEntity
  8
0
  6
CONTINUOUS
 62
     7
100
AcDbLine
 10
-918.3771251665532
 20
-1774.013355372573
 30
0.0
 11
-918.3771251669297
 21
-1761.31335537399
 31
0.0
  0
ARC
  5
28405
330
18
100
AcDbEntity
  8
0
  6
CONTINUOUS
 62
     7
100
AcDbCircle
 10
-918.3271251664907
 20
-1760.113375758292
 30
0.0
 40
1.199999999999999
100
AcDbArc
 50
179.999998470982
 51
270.0000000062011
  0
LINE
  5
28406
330
18
100
AcDbEntity
  8
0
  6
CONTINUOUS
 62
     7
100
AcDbLine
 10
-918.5271251665232
 20
-1757.313355372573
 30
0.0
 11
-918.5271251665232
 21
-1749.967179212713
 31
0.0
  0
LINE
  5
28407
330
18
100
AcDbEntity
  8
0
  6
CONTINUOUS
 62
     7
100
AcDbLine
 10
-919.5271251665232
 20
-1759.513355372573
 30
0.0
 11
-919.5271251664907
 21
-1760.113375758292
 31
0.0
  0
ARC
  5
28408
330
18
100
AcDbEntity
  8
0
  6
CONTINUOUS
 62
     7
100
AcDbCircle
 10
-918.3271251665232
 20
-1759.513355373988
 30
0.0
 40
1.199999999999999
100
AcDbArc
 50
90.0
 51
180.0000015352188
  0
LINE
  5
28409
330
18
100
AcDbEntity
  8
細線
  6
CONTINUOUS
100
AcDbLine
 10
-917.8771251665235
 20
-1774.513355372572
 30
0.0
 11
-917.8771251665235
 21
-1769.313355372574
 31
0.0
  0
LINE
  5
2840A
330
18
100
AcDbEntity
  8
0
  6
CONTINUOUS
 62
     7
100
AcDbLine
 10
-916.6271251665236
 20
-1757.313355372573
 30
0.0
 11
-917.0271251665234
 21
-1758.006175695601
 31
0.0
  0
LINE
  5
2840B
330
18
100
AcDbEntity
  8
0
  6
CONTINUOUS
 62
     7
100
AcDbLine
 10
-917.0271251665234
 20
-1757.313355372573
 30
0.0
 11
-917.0271251665234
 21
-1758.313355372573
 31
0.0
  0
LINE
  5
2840C
330
18
100
AcDbEntity
  8
0
  6
CONTINUOUS
 62
     7
100
AcDbLine
 10
-907.0271251665232
 20
-1721.813355372574
 30
0.0
 11
-907.0271251665232
 21
-1729.045965710757
 31
0.0
  0
ARC
  5
2840D
330
18
100
AcDbEntity
  8
0
100
AcDbCircle
 10
-921.1509047194091
 20
-1733.127402798855
 30
0.0
 40
5.0
100
AcDbArc
 50
351.7957590117366
 51
26.103609749039
  0
LINE
  5
2840E
330
18
100
AcDbEntity
  8
0
  6
CONTINUOUS
 62
     7
100
AcDbLine
 10
-910.5271251665232
 20
-1722.656891582525
 30
0.0
 11
-911.2662453081481
 21
-1722.656891582525
 31
0.0
  0
LINE
  5
2840F
330
18
100
AcDbEntity
  8
0
  6
CONTINUOUS
 62
     7
100
AcDbLine
 10
-910.5271251665232
 20
-1728.156891582525
 30
0.0
 11
-911.2662453081481
 21
-1728.156891582525
 31
0.0
  0
ARC
  5
28410
330
18
100
AcDbEntity
  8
0
100
AcDbCircle
 10
-912.5271251665234
 20
-1728.000427792477
 30
0.0
 40
5.0
100
AcDbArc
 50
180.0
 51
206.103609749039
  0
ARC
  5
28411
330
18
100
AcDbEntity
  8
0
100
AcDbCircle
 10
-916.5271251665233
 20
-1728.000427792477
 30
0.0
 40
1.0
100
AcDbArc
 50
180.0
 51
270.0
  0
LINE
  5
28412
330
18
100
AcDbEntity
  8
0
100
AcDbLine
 10
-917.0171244511642
 20
-1730.200406525083
 30
0.0
 11
-916.6609054347681
 21
-1730.927424066248
 31
0.0
  0
LINE
  5
28413
330
18
100
AcDbEntity
  8
0
  6
CONTINUOUS
 62
     7
100
AcDbLine
 10
-912.5271251665234
 20
-1731.523479374147
 30
0.0
 11
-912.5271251665234
 21
-1733.127402798855
 31
0.0
  0
ARC
  5
28414
330
18
100
AcDbEntity
  8
0
  6
CONTINUOUS
 62
     7
100
AcDbCircle
 10
-911.2662453081481
 20
-1723.656891582526
 30
0.0
 40
1.0
100
AcDbArc
 50
90.0
 51
163.0422379459661
  0
ARC
  5
28415
330
18
100
AcDbEntity
  8
0
  6
CONTINUOUS
 62
     7
100
AcDbCircle
 10
-905.5271251665233
 20
-1725.406891582525
 30
0.0
 40
7.0
100
AcDbArc
 50
163.0422379459661
 51
196.957765124522
  0
LINE
  5
28416
330
18
100
AcDbEntity
  8
0
  6
CONTINUOUS
 62
     7
100
AcDbLine
 10
-911.9271251665226
 20
-1724.906891582525
 30
0.0
 11
-911.9271251665226
 21
-1725.906891582525
 31
0.0
  0
LINE
  5
28417
330
18
100
AcDbEntity
  8
0
  6
CONTINUOUS
 62
     7
100
AcDbLine
 10
-911.9271251665226
 20
-1725.906891582525
 30
0.0
 11
-912.5092452036019
 21
-1725.906891582525
 31
0.0
  0
LINE
  5
28418
330
18
100
AcDbEntity
  8
0
  6
CONTINUOUS
 62
     7
100
AcDbLine
 10
-912.5092452036019
 20
-1724.906891582525
 30
0.0
 11
-911.9271251665226
 21
-1724.906891582525
 31
0.0
  0
ARC
  5
28419
330
18
100
AcDbEntity
  8
0
  6
CONTINUOUS
 62
     7
100
AcDbCircle
 10
-911.2662453081481
 20
-1727.156891582525
 30
0.0
 40
1.0
100
AcDbArc
 50
196.957765124522
 51
270.0000030704375
  0
ARC
  5
2841A
330
18
100
AcDbEntity
  8
0
  6
CONTINUOUS
 62
     7
100
AcDbCircle
 10
-916.5271251665226
 20
-1722.813355372573
 30
0.0
 40
1.0
100
AcDbArc
 50
90.0
 51
180.0
  0
LINE
  5
2841B
330
18
100
AcDbEntity
  8
0
  6
CONTINUOUS
 62
     7
100
AcDbLine
 10
-917.5271251665233
 20
-1728.000427792476
 30
0.0
 11
-917.5271251665224
 21
-1722.813355372573
 31
0.0
  0
LINE
  5
2841C
330
18
100
AcDbEntity
  8
0
  6
CONTINUOUS
 62
     7
100
AcDbLine
 10
-910.5271251665232
 20
-1721.813355372574
 30
0.0
 11
-910.5271251665232
 21
-1729.045965710757
 31
0.0
  0
LINE
  5
2841D
330
18
100
AcDbEntity
  8
0
  6
CONTINUOUS
 62
     7
100
AcDbLine
 10
-916.5271251665226
 20
-1721.813355372574
 30
0.0
 11
-907.0271251665232
 21
-1721.813355372574
 31
0.0
  0
LINE
  5
28423
330
18
100
AcDbEntity
  8
0
100
AcDbLine
 10
-958.5938940376395
 20
-1553.540943358573
 30
0.0
 11
-931.3171460529884
 21
-1553.540943358572
 31
0.0
  0
LINE
  5
28424
330
18
100
AcDbEntity
  8
0
100
AcDbLine
 10
-958.5938940376395
 20
-1557.740943358573
 30
0.0
 11
-931.3171460529884
 21
-1557.740943358573
 31
0.0
  0
LINE
  5
28425
330
18
100
AcDbEntity
  8
0
100
AcDbLine
 10
-958.5938940376395
 20
-1553.540943358573
 30
0.0
 11
-926.6830058751022
 21
-1553.540943358572
 31
0.0
  0
LINE
  5
28426
330
18
100
AcDbEntity
  8
0
100
AcDbLine
 10
-958.5938940376395
 20
-1557.740943358573
 30
0.0
 11
-926.6830058751018
 21
-1557.740943358572
 31
0.0
  0
LINE
  5
28427
330
18
100
AcDbEntity
  8
中心線
 48
2.0
100
AcDbLine
 10
-926.6830058751013
 20
-1555.680235862806
 30
0.0
 11
-992.9182578241576
 21
-1555.640943358572
 31
0.0
  0
LINE
  5
28428
330
18
100
AcDbEntity
  8
中心線
 48
2.0
100
AcDbLine
 10
-945.5536073094286
 20
-1583.569320938225
 30
0.0
 11
-992.9182578241578
 21
-1583.640943358604
 31
0.0
  0
LINE
  5
2842A
330
18
100
AcDbEntity
  8
実線
100
AcDbLine
 10
-996.0938940376395
 20
-1660.140943358601
 30
0.0
 11
-996.0938940376392
 21
-1527.640943358604
 31
0.0
  0
LINE
  5
2842B
330
18
100
AcDbEntity
  8
実線
100
AcDbLine
 10
-980.0938940376394
 20
-1660.140943358601
 30
0.0
 11
-980.0938940376394
 21
-1527.640943358604
 31
0.0
  0
LINE
  5
2842C
330
18
100
AcDbEntity
  8
中心線
 48
2.0
100
AcDbLine
 10
-971.3015572231583
 20
-1640.140943358587
 30
0.0
 11
-997.0938940376385
 21
-1640.140943358587
 31
0.0
  0
LINE
  5
2842D
330
18
100
AcDbEntity
  8
実線
100
AcDbLine
 10
-977.5938940376393
 20
-1605.640943358604
 30
0.0
 11
-980.0938940376394
 21
-1605.640943358604
 31
0.0
  0
LINE
  5
2842E
330
18
100
AcDbEntity
  8
実線
100
AcDbLine
 10
-996.0938940376392
 20
-1660.140943358601
 30
0.0
 11
-980.0938940376394
 21
-1660.140943358601
 31
0.0
  0
LINE
  5
2842F
330
18
100
AcDbEntity
  8
実線
100
AcDbLine
 10
-977.5938940376393
 20
-1605.640943358604
 30
0.0
 11
-977.0938940376392
 21
-1605.140943358604
 31
0.0
  0
LINE
  5
28430
330
18
100
AcDbEntity
  8
0
100
AcDbLine
 10
-962.5938940376396
 20
-1564.294743358573
 30
0.0
 11
-962.5938940376396
 21
-1546.987143358571
 31
0.0
  0
LINE
  5
28431
330
18
100
AcDbEntity
  8
0
100
AcDbLine
 10
-958.5938940376395
 20
-1560.938344833864
 30
0.0
 11
-958.5938940376395
 21
-1550.343541883282
 31
0.0
  0
LINE
  5
28432
330
18
100
AcDbEntity
  8
0
100
AcDbLine
 10
-963.4330823245722
 20
-1550.554043358572
 30
0.0
 11
-963.4330823245722
 21
-1552.074043358572
 31
0.0
  0
ARC
  5
28433
330
18
100
AcDbEntity
  8
0
100
AcDbCircle
 10
-970.5938940376396
 20
-1546.987143358571
 30
0.0
 40
8.0
100
AcDbArc
 50
333.5214655209658
 51
359.9999999999998
  0
LINE
  5
28434
330
18
100
AcDbEntity
  8
0
100
AcDbLine
 10
-970.5938940376396
 20
-1564.294743358573
 30
0.0
 11
-970.5938940376396
 21
-1546.987143358571
 31
0.0
  0
LINE
  5
28435
330
18
100
AcDbEntity
  8
0
100
AcDbLine
 10
-975.5938940376394
 20
-1564.294743358573
 30
0.0
 11
-975.5938940376395
 21
-1546.987143358571
 31
0.0
  0
LINE
  5
28436
330
18
100
AcDbEntity
  8
0
100
AcDbLine
 10
-970.5938940376393
 20
-1560.727843358573
 30
0.0
 11
-963.4330823245722
 21
-1560.727843358573
 31
0.0
  0
LINE
  5
28437
330
18
100
AcDbEntity
  8
0
100
AcDbLine
 10
-970.5938940376396
 20
-1559.207843358572
 30
0.0
 11
-963.4330823245722
 21
-1559.207843358572
 31
0.0
  0
LINE
  5
28438
330
18
100
AcDbEntity
  8
0
100
AcDbLine
 10
-970.5938940376396
 20
-1552.074043358572
 30
0.0
 11
-963.4330823245722
 21
-1552.074043358572
 31
0.0
  0
LINE
  5
28439
330
18
100
AcDbEntity
  8
0
100
AcDbLine
 10
-970.5938940376393
 20
-1564.294743358573
 30
0.0
 11
-962.5938940376396
 21
-1564.294743358573
 31
0.0
  0
LINE
  5
2843A
330
18
100
AcDbEntity
  8
0
100
AcDbLine
 10
-970.5938940376396
 20
-1587.207843358604
 30
0.0
 11
-963.4330823245724
 21
-1587.207843358604
 31
0.0
  0
LINE
  5
2843B
330
18
100
AcDbEntity
  8
0
100
AcDbLine
 10
-970.5938940376393
 20
-1588.727843358604
 30
0.0
 11
-963.4330823245724
 21
-1588.727843358604
 31
0.0
  0
LINE
  5
2843C
330
18
100
AcDbEntity
  8
0
100
AcDbLine
 10
-970.5938940376396
 20
-1578.554043358604
 30
0.0
 11
-963.4330823245724
 21
-1578.554043358604
 31
0.0
  0
LINE
  5
2843D
330
18
100
AcDbEntity
  8
0
100
AcDbLine
 10
-970.5938940376396
 20
-1580.074043358604
 30
0.0
 11
-963.4330823245724
 21
-1580.074043358604
 31
0.0
  0
LINE
  5
2843E
330
18
100
AcDbEntity
  8
0
100
AcDbLine
 10
-970.5938940376393
 20
-1574.987143358604
 30
0.0
 11
-962.5938940376396
 21
-1574.987143358604
 31
0.0
  0
LINE
  5
2843F
330
18
100
AcDbEntity
  8
0
100
AcDbLine
 10
-970.5938940376393
 20
-1592.294743358604
 30
0.0
 11
-962.5938940376398
 21
-1592.294743358604
 31
0.0
  0
LINE
  5
28441
330
18
100
AcDbEntity
  8
0
100
AcDbLine
 10
-975.5938940376395
 20
-1561.640944620208
 30
0.0
 11
-970.5938940376396
 21
-1561.640945881842
 31
0.0
  0
LINE
  5
28442
330
18
100
AcDbEntity
  8
0
100
AcDbLine
 10
-977.0938940376387
 20
-1552.074043358572
 30
0.0
 11
-975.593894037639
 21
-1552.074043358572
 31
0.0
  0
LINE
  5
28443
330
18
100
AcDbEntity
  8
0
100
AcDbLine
 10
-977.0938940376392
 20
-1564.294743358573
 30
0.0
 11
-975.5938940376394
 21
-1564.294743358573
 31
0.0
  0
LINE
  5
28444
330
18
100
AcDbEntity
  8
0
100
AcDbLine
 10
-977.0938940376392
 20
-1560.727843358573
 30
0.0
 11
-975.593894037639
 21
-1560.727843358573
 31
0.0
  0
LINE
  5
28445
330
18
100
AcDbEntity
  8
0
100
AcDbLine
 10
-977.0938940376392
 20
-1559.207843358572
 30
0.0
 11
-975.593894037639
 21
-1559.207843358572
 31
0.0
  0
LINE
  5
28446
330
18
100
AcDbEntity
  8
0
100
AcDbLine
 10
-977.0938940376392
 20
-1574.987143358604
 30
0.0
 11
-975.5938940376394
 21
-1574.987143358604
 31
0.0
  0
LINE
  5
28447
330
18
100
AcDbEntity
  8
0
100
AcDbLine
 10
-975.5938940376394
 20
-1592.294743358604
 30
0.0
 11
-975.5938940376395
 21
-1574.987143358604
 31
0.0
  0
LINE
  5
28448
330
18
100
AcDbEntity
  8
0
100
AcDbLine
 10
-975.5938940376395
 20
-1589.640944620239
 30
0.0
 11
-970.5938940376396
 21
-1589.640945881874
 31
0.0
  0
LINE
  5
28449
330
18
100
AcDbEntity
  8
0
100
AcDbLine
 10
-977.0938940376392
 20
-1587.207843358604
 30
0.0
 11
-975.5938940376394
 21
-1587.207843358604
 31
0.0
  0
LINE
  5
2844A
330
18
100
AcDbEntity
  8
0
100
AcDbLine
 10
-977.0938940376392
 20
-1580.074043358604
 30
0.0
 11
-975.5938940376394
 21
-1580.074043358604
 31
0.0
  0
LINE
  5
2844B
330
18
100
AcDbEntity
  8
0
100
AcDbLine
 10
-977.0938940376392
 20
-1588.727843358604
 30
0.0
 11
-975.5938940376394
 21
-1588.727843358604
 31
0.0
  0
LINE
  5
2844C
330
18
100
AcDbEntity
  8
0
100
AcDbLine
 10
-977.0938940376392
 20
-1578.554043358604
 30
0.0
 11
-975.5938940376395
 21
-1578.554043358604
 31
0.0
  0
LINE
  5
2844D
330
18
100
AcDbEntity
  8
0
100
AcDbLine
 10
-975.5938940376395
 20
-1577.640944620237
 30
0.0
 11
-970.5938940376396
 21
-1577.640945881871
 31
0.0
  0
LINE
  5
2844E
330
18
100
AcDbEntity
  8
0
100
AcDbLine
 10
-977.0938940376392
 20
-1592.294743358604
 30
0.0
 11
-975.5938940376394
 21
-1592.294743358604
 31
0.0
  0
LINE
  5
2844F
330
18
100
AcDbEntity
  8
0
100
AcDbLine
 10
-970.5938940376396
 20
-1592.294743358604
 30
0.0
 11
-970.5938940376396
 21
-1574.987143358604
 31
0.0
  0
LINE
  5
28450
330
18
100
AcDbEntity
  8
0
100
AcDbLine
 10
-962.5938940376396
 20
-1564.294743358573
 30
0.0
 11
-958.5938940376395
 21
-1560.938344833864
 31
0.0
  0
LINE
  5
28451
330
18
100
AcDbEntity
  8
0
100
AcDbLine
 10
-963.4330823245722
 20
-1559.207843358572
 30
0.0
 11
-963.4330823245722
 21
-1560.727843358573
 31
0.0
  0
ARC
  5
28452
330
18
100
AcDbEntity
  8
0
100
AcDbCircle
 10
-970.5938940376396
 20
-1564.294743358573
 30
0.0
 40
8.0
100
AcDbArc
 50
359.9999999999998
 51
26.4785344790339
  0
ARC
  5
28453
330
18
100
AcDbEntity
  8
0
100
AcDbCircle
 10
-970.5938940376396
 20
-1555.640943358572
 30
0.0
 40
8.0
100
AcDbArc
 50
333.5214655209658
 51
26.4785344790339
  0
LINE
  5
28454
330
18
100
AcDbEntity
  8
0
100
AcDbLine
 10
-963.4330823245724
 20
-1587.207843358604
 30
0.0
 11
-963.4330823245724
 21
-1588.727843358604
 31
0.0
  0
LINE
  5
28455
330
18
100
AcDbEntity
  8
0
100
AcDbLine
 10
-963.4330823245724
 20
-1578.554043358604
 30
0.0
 11
-963.4330823245724
 21
-1580.074043358604
 31
0.0
  0
LINE
  5
28456
330
18
100
AcDbEntity
  8
0
100
AcDbLine
 10
-958.5938940376395
 20
-1588.938344833894
 30
0.0
 11
-958.5938940376395
 21
-1578.343541883313
 31
0.0
  0
ARC
  5
28457
330
18
100
AcDbEntity
  8
0
100
AcDbCircle
 10
-970.5938940376396
 20
-1574.987143358604
 30
0.0
 40
8.0
100
AcDbArc
 50
333.5214655209658
 51
359.9999999999998
  0
ARC
  5
28458
330
18
100
AcDbEntity
  8
0
100
AcDbCircle
 10
-970.5938940376396
 20
-1592.294743358604
 30
0.0
 40
8.0
100
AcDbArc
 50
359.9999999999998
 51
26.4785344790339
  0
ARC
  5
28459
330
18
100
AcDbEntity
  8
0
100
AcDbCircle
 10
-970.5938940376396
 20
-1583.640943358604
 30
0.0
 40
8.0
100
AcDbArc
 50
333.5214655209658
 51
26.4785344790339
  0
LINE
  5
2845A
330
18
100
AcDbEntity
  8
0
100
AcDbLine
 10
-962.5938940376396
 20
-1574.987143358604
 30
0.0
 11
-958.5938940376395
 21
-1578.343541883313
 31
0.0
  0
LINE
  5
2845B
330
18
100
AcDbEntity
  8
0
100
AcDbLine
 10
-962.5938940376398
 20
-1592.294743358604
 30
0.0
 11
-958.5938940376395
 21
-1588.938344833894
 31
0.0
  0
LINE
  5
2845C
330
18
100
AcDbEntity
  8
0
100
AcDbLine
 10
-962.5938940376398
 20
-1592.294743358604
 30
0.0
 11
-962.5938940376396
 21
-1574.987143358604
 31
0.0
  0
LINE
  5
2845D
330
18
100
AcDbEntity
  8
0
100
AcDbLine
 10
-970.5938940376396
 20
-1550.554043358572
 30
0.0
 11
-963.4330823245722
 21
-1550.554043358572
 31
0.0
  0
LINE
  5
2845E
330
18
100
AcDbEntity
  8
0
100
AcDbLine
 10
-970.5938940376393
 20
-1546.987143358571
 30
0.0
 11
-962.5938940376396
 21
-1546.987143358571
 31
0.0
  0
LINE
  5
2845F
330
18
100
AcDbEntity
  8
0
100
AcDbLine
 10
-975.5938940376395
 20
-1549.640944620206
 30
0.0
 11
-970.5938940376396
 21
-1549.640945881838
 31
0.0
  0
LINE
  5
28460
330
18
100
AcDbEntity
  8
0
100
AcDbLine
 10
-977.0938940376392
 20
-1550.554043358572
 30
0.0
 11
-975.5938940376395
 21
-1550.554043358572
 31
0.0
  0
LINE
  5
28461
330
18
100
AcDbEntity
  8
0
100
AcDbLine
 10
-977.0938940376387
 20
-1546.987143358571
 30
0.0
 11
-975.593894037639
 21
-1546.987143358571
 31
0.0
  0
LINE
  5
28462
330
18
100
AcDbEntity
  8
0
100
AcDbLine
 10
-962.5938940376396
 20
-1546.987143358571
 30
0.0
 11
-958.5938940376395
 21
-1550.343541883282
 31
0.0
  0
ARC
  5
2846A
330
18
100
AcDbEntity
  8
0
100
AcDbCircle
 10
-897.6830058751014
 20
-1680.764037050907
 30
0.0
 40
10.0
100
AcDbArc
 50
145.6173623158486
 51
180.0
  0
LINE
  5
2846B
330
18
100
AcDbEntity
  8
0
100
AcDbLine
 10
-907.6830058751015
 20
-1685.64719649791
 30
0.0
 11
-907.6830058751014
 21
-1680.767903299931
 31
0.0
  0
LINE
  5
2846E
330
18
100
AcDbEntity
  8
0
100
AcDbLine
 10
-907.6830058751024
 20
-1703.110197372128
 30
0.0
 11
-907.6830058751014
 21
-1680.764037050907
 31
0.0
  0
LINE
  5
28471
330
18
100
AcDbEntity
  8
中心線
 48
2.0
100
AcDbLine
 10
-905.5472338421859
 20
-1781.842817620333
 30
0.0
 11
-905.6123946972252
 21
-1680.367604994495
 31
0.0
  0
LINE
  5
28479
330
18
100
AcDbEntity
  8
0
  6
CONTINUOUS
 62
     7
100
AcDbLine
 10
-892.5271251665233
 20
-1749.967179212713
 30
0.0
 11
-894.8521739682147
 21
-1733.840913777696
 31
0.0
  0
LINE
  5
2847A
330
18
100
AcDbEntity
  8
0
  6
CONTINUOUS
 62
     7
100
AcDbLine
 10
-893.477125166523
 20
-1774.813355372574
 30
0.0
 11
-892.6771251665227
 21
-1774.013355372573
 31
0.0
  0
LINE
  5
2847B
330
18
100
AcDbEntity
  8
0
  6
CONTINUOUS
 62
     7
100
AcDbLine
 10
-894.4271251665227
 20
-1757.313355372573
 30
0.0
 11
-894.0271251665231
 21
-1758.006175695601
 31
0.0
  0
LINE
  5
2847C
330
18
100
AcDbEntity
  8
0
  6
CONTINUOUS
 62
     7
100
AcDbLine
 10
-894.0271251665231
 20
-1757.313355372573
 30
0.0
 11
-894.0271251665231
 21
-1758.313355372573
 31
0.0
  0
LINE
  5
2847D
330
18
100
AcDbEntity
  8
細線
  6
CONTINUOUS
100
AcDbLine
 10
-893.1771251665226
 20
-1774.513355372572
 30
0.0
 11
-893.1771251665226
 21
-1769.313355372574
 31
0.0
  0
LINE
  5
2847E
330
18
100
AcDbEntity
  8
0
  6
CONTINUOUS
 62
     7
100
AcDbLine
 10
-892.6771251665227
 20
-1774.013355372573
 30
0.0
 11
-892.6771251665227
 21
-1761.312333637762
 31
0.0
  0
ARC
  5
2847F
330
18
100
AcDbEntity
  8
0
  6
CONTINUOUS
 62
     7
100
AcDbCircle
 10
-892.7271251664906
 20
-1760.113375756932
 30
0.0
 40
1.199999999999999
100
AcDbArc
 50
270.0000000062011
 51
0.0000015414720599
  0
LINE
  5
28480
330
18
100
AcDbEntity
  8
細線
  6
CONTINUOUS
100
AcDbLine
 10
-893.1771251665226
 20
-1769.313355372574
 30
0.0
 11
-892.6771251665227
 21
-1768.44732996879
 31
0.0
  0
LINE
  5
28481
330
18
100
AcDbEntity
  8
0
  6
CONTINUOUS
 62
     7
100
AcDbLine
 10
-892.5271251665233
 20
-1757.313355372573
 30
0.0
 11
-892.5271251665233
 21
-1749.967179212713
 31
0.0
  0
ARC
  5
28482
330
18
100
AcDbEntity
  8
0
  6
CONTINUOUS
 62
     7
100
AcDbCircle
 10
-892.7271251665231
 20
-1759.513355372575
 30
0.0
 40
1.199999999999999
100
AcDbArc
 50
359.999998464729
 51
90.0
  0
LINE
  5
28483
330
18
100
AcDbEntity
  8
0
  6
CONTINUOUS
 62
     7
100
AcDbLine
 10
-891.5271251665231
 20
-1759.513355372573
 30
0.0
 11
-891.5271251664906
 21
-1760.113375756938
 31
0.0
  0
ARC
  5
28484
330
18
100
AcDbEntity
  8
0
100
AcDbCircle
 10
-898.5271251665231
 20
-1728.064752680269
 30
0.0
 40
5.0
100
AcDbArc
 50
329.5846372733068
 51
0.0
  0
ARC
  5
28485
330
18
100
AcDbEntity
  8
0
100
AcDbCircle
 10
-894.5418112135731
 20
-1728.045974287385
 30
0.0
 40
1.0
100
AcDbArc
 50
270.2373070827531
 51
0.2373070827595914
  0
ARC
  5
28486
330
18
100
AcDbEntity
  8
0
  6
CONTINUOUS
 62
     7
100
AcDbCircle
 10
-894.5271251665232
 20
-1722.813355372573
 30
0.0
 40
1.0
100
AcDbArc
 50
0.0
 51
90.0
  0
ARC
  5
28487
330
18
100
AcDbEntity
  8
0
100
AcDbCircle
 10
-889.9033456136368
 20
-1733.127402798855
 30
0.0
 40
5.0
100
AcDbArc
 50
149.5846372733067
 51
188.2042409882633
  0
LINE
  5
28488
330
18
100
AcDbEntity
  8
0
  6
CONTINUOUS
 62
     7
100
AcDbLine
 10
-893.5271251665232
 20
-1728.064752680267
 30
0.0
 11
-893.5271251665232
 21
-1722.813355372573
 31
0.0
  0
LINE
  5
28489
330
18
100
AcDbEntity
  8
0
  6
CONTINUOUS
 62
     7
100
AcDbLine
 10
-904.0271251665233
 20
-1722.313355372573
 30
0.0
 11
-904.0271251665233
 21
-1729.045965710757
 31
0.0
  0
LINE
  5
2848A
330
18
100
AcDbEntity
  8
0
  6
CONTINUOUS
 62
     7
100
AcDbLine
 10
-898.5271251665231
 20
-1731.523479374147
 30
0.0
 11
-898.5271251665231
 21
-1733.127402798855
 31
0.0
  0
LINE
  5
2848B
330
18
100
AcDbEntity
  8
0
  6
CONTINUOUS
 62
     7
100
AcDbLine
 10
-905.3271251665234
 20
-1723.184700924303
 30
0.0
 11
-905.3271251665234
 21
-1727.629082240747
 31
0.0
  0
LINE
  5
2848C
330
18
100
AcDbEntity
  8
0
  6
CONTINUOUS
 62
     7
100
AcDbLine
 10
-904.0271251665233
 20
-1722.806891582525
 30
0.0
 11
-905.0501341161886
 21
-1722.885584578652
 31
0.0
  0
ARC
  5
2848D
330
18
100
AcDbEntity
  8
0
  6
CONTINUOUS
 62
     7
100
AcDbCircle
 10
-905.0271251665233
 20
-1723.184700924305
 30
0.0
 40
0.3
100
AcDbArc
 50
94.39870543002205
 51
180.0000015352188
  0
ARC
  5
2848E
330
18
100
AcDbEntity
  8
0
  6
CONTINUOUS
 62
     7
100
AcDbCircle
 10
-903.5271251665234
 20
-1722.313355372573
 30
0.0
 40
0.5
100
AcDbArc
 50
90.0
 51
180.0000015352188
  0
ARC
  5
2848F
330
18
100
AcDbEntity
  8
0
  6
CONTINUOUS
 62
     7
100
AcDbCircle
 10
-905.0271251665233
 20
-1727.629082240747
 30
0.0
 40
0.3
100
AcDbArc
 50
180.0000015352188
 51
265.601297640445
  0
LINE
  5
28490
330
18
100
AcDbEntity
  8
0
  6
CONTINUOUS
 62
     7
100
AcDbLine
 10
-904.0271251665233
 20
-1728.006891582526
 30
0.0
 11
-905.0501341161886
 21
-1727.928198586397
 31
0.0
  0
LINE
  5
28491
330
18
100
AcDbEntity
  8
0
  6
CONTINUOUS
 62
     7
100
AcDbLine
 10
-894.5271251665232
 20
-1721.813355372574
 30
0.0
 11
-903.5271251665234
 21
-1721.813355372574
 31
0.0
  0
LINE
  5
28497
330
18
100
AcDbEntity
  8
0
100
AcDbLine
 10
-896.6830058751012
 20
-1587.740943358573
 30
0.0
 11
-896.6830058751019
 21
-1658.500780774572
 31
0.0
  0
LINE
  5
28498
330
18
100
AcDbEntity
  8
0
100
AcDbLine
 10
-892.4830058751011
 20
-1658.503409266636
 30
0.0
 11
-892.4830058751012
 21
-1587.740943358572
 31
0.0
  0
ARC
  5
2849B
330
18
100
AcDbEntity
  8
0
100
AcDbCircle
 10
-902.4830058751012
 20
-1658.503409266636
 30
0.0
 40
10.0
100
AcDbArc
 50
325.6448534167673
 51
0.0
  0
ARC
  5
2849C
330
18
100
AcDbEntity
  8
0
100
AcDbCircle
 10
-906.6830058751015
 20
-1658.500780774572
 30
0.0
 40
10.0
100
AcDbArc
 50
325.6173623158486
 51
0.0
  0
ARC
  5
2849D
330
18
100
AcDbEntity
  8
0
100
AcDbCircle
 10
-893.471684868015
 20
-1680.761408558842
 30
0.0
 40
10.0
100
AcDbArc
 50
145.6448534167673
 51
180.0
  0
LINE
  5
2849E
330
18
100
AcDbEntity
  8
0
100
AcDbLine
 10
-901.7272401086202
 20
-1675.118199571986
 30
0.0
 11
-894.2274506344956
 21
-1664.14661825349
 31
0.0
  0
LINE
  5
2849F
330
18
100
AcDbEntity
  8
0
100
AcDbLine
 10
-903.4716848680146
 20
-1703.110197372128
 30
0.0
 11
-903.4716848680146
 21
-1680.761408558842
 31
0.0
  0
CIRCLE
  5
284A1
330
18
100
AcDbEntity
  8
実線
100
AcDbCircle
 10
-814.5364266444657
 20
-1597.920577835522
 30
0.0
 40
4.75
  0
CIRCLE
  5
284A2
330
18
100
AcDbEntity
  8
細線
  6
CONTINUOUS
100
AcDbCircle
 10
-814.5364266444657
 20
-1597.920577835522
 30
0.0
 40
4.25
  0
CIRCLE
  5
284A3
330
18
100
AcDbEntity
  8
細線
  6
CONTINUOUS
100
AcDbCircle
 10
-814.5364266444657
 20
-1597.920577835522
 30
0.0
 40
3.749999999999991
  0
LINE
  5
284A4
330
18
100
AcDbEntity
  8
細線
  6
CONTINUOUS
100
AcDbLine
 10
-812.2319701384506
 20
-1597.769535829689
 30
0.0
 11
-813.2533919149739
 21
-1599.840775005375
 31
0.0
  0
LINE
  5
284A5
330
18
100
AcDbEntity
  8
細線
  6
CONTINUOUS
100
AcDbLine
 10
-815.819461373956
 20
-1596.000380665666
 30
0.0
 11
-813.5150047012697
 21
-1595.849338909274
 31
0.0
  0
LINE
  5
284A6
330
18
100
AcDbEntity
  8
細線
  6
CONTINUOUS
100
AcDbLine
 10
-816.8408830949237
 20
-1598.071619924501
 30
0.0
 11
-815.5578486432181
 21
-1599.991816678622
 31
0.0
  0
LINE
  5
284A7
330
18
100
AcDbEntity
  8
細線
  6
CONTINUOUS
100
AcDbLine
 10
-813.2533921927592
 20
-1599.840774589643
 30
0.0
 11
-815.5578496413586
 21
-1599.991816984751
 31
0.0
  0
LINE
  5
284A8
330
18
100
AcDbEntity
  8
細線
  6
CONTINUOUS
100
AcDbLine
 10
-815.8194610961713
 20
-1596.000381081401
 30
0.0
 11
-816.8408837597221
 21
-1598.071620729512
 31
0.0
  0
LINE
  5
284A9
330
18
100
AcDbEntity
  8
細線
  6
CONTINUOUS
100
AcDbLine
 10
-813.5150046457134
 20
-1595.849338992421
 30
0.0
 11
-812.2319701940073
 21
-1597.769535746543
 31
0.0
  0
LINE
  5
284AA
330
18
100
AcDbEntity
  8
細線
  6
CONTINUOUS
100
AcDbLine
 10
-831.2380171864932
 20
-1553.062201801308
 30
0.0
 11
-832.974316776885
 21
-1554.584896091329
 31
0.0
  0
LINE
  5
284AB
330
18
100
AcDbEntity
  8
細線
  6
CONTINUOUS
100
AcDbLine
 10
-831.688558990756
 20
-1550.797175195881
 30
0.0
 11
-831.238017206002
 21
-1553.06220170323
 31
0.0
  0
CIRCLE
  5
284AC
330
18
100
AcDbEntity
  8
実線
100
AcDbCircle
 10
-833.4248586591856
 20
-1552.319869093587
 30
0.0
 40
4.75
  0
CIRCLE
  5
284AD
330
18
100
AcDbEntity
  8
細線
  6
CONTINUOUS
100
AcDbCircle
 10
-833.4248586591856
 20
-1552.319869093587
 30
0.0
 40
3.749999999999991
  0
CIRCLE
  5
284AE
330
18
100
AcDbEntity
  8
細線
  6
CONTINUOUS
100
AcDbCircle
 10
-833.4248586591856
 20
-1552.319869093587
 30
0.0
 40
4.25
  0
LINE
  5
284AF
330
18
100
AcDbEntity
  8
細線
  6
CONTINUOUS
100
AcDbLine
 10
-833.8754005414847
 20
-1550.054842095845
 30
0.0
 11
-831.6885590102646
 21
-1550.797175097803
 31
0.0
  0
LINE
  5
284B0
330
18
100
AcDbEntity
  8
細線
  6
CONTINUOUS
100
AcDbLine
 10
-833.8754004439397
 20
-1550.054842586239
 30
0.0
 11
-835.6117010346274
 21
-1551.577536973272
 31
0.0
  0
LINE
  5
284B1
330
18
100
AcDbEntity
  8
細線
  6
CONTINUOUS
100
AcDbLine
 10
-835.6117001123694
 20
-1551.577536483946
 30
0.0
 11
-835.1611583276149
 21
-1553.842562991293
 31
0.0
  0
LINE
  5
284B2
330
18
100
AcDbEntity
  8
細線
  6
CONTINUOUS
100
AcDbLine
 10
-832.9743168744306
 20
-1554.584895600936
 30
0.0
 11
-835.1611593669272
 21
-1553.842562892149
 31
0.0
  0
CIRCLE
  5
284B3
330
18
100
AcDbEntity
  8
細線
 48
0.5
100
AcDbCircle
 10
-821.8555206881946
 20
-1527.6409433586
 30
0.0
 40
5.0
  0
CIRCLE
  5
284B4
330
18
100
AcDbEntity
  8
実線
100
AcDbCircle
 10
-821.8555206881946
 20
-1527.6409433586
 30
0.0
 40
4.25
  0
LINE
  5
284C1
330
18
100
AcDbEntity
  8
中心線
 48
2.0
100
AcDbLine
 10
-709.3555206882021
 20
-1527.640943358588
 30
0.0
 11
-651.7619381810371
 21
-1560.885931762712
 31
0.0
  0
ARC
  5
284C2
330
18
100
AcDbEntity
  8
中心線
 48
2.0
100
AcDbCircle
 10
-709.3555206882
 20
-1527.640943358587
 30
0.0
 40
56.0
100
AcDbArc
 50
238.4046152107062
 51
284.3961616623626
  0
LINE
  5
284C3
330
18
100
AcDbEntity
  8
0
100
AcDbLine
 10
-700.3734626925743
 20
-1578.455142898254
 30
0.0
 11
-709.3555306097981
 21
-1573.269343568368
 31
0.0
  0
CIRCLE
  5
284C4
330
18
100
AcDbEntity
  8
0
100
AcDbCircle
 10
-709.3555206881639
 20
-1583.640938560979
 30
0.0
 40
7.565
  0
CIRCLE
  5
284C5
330
18
100
AcDbEntity
  8
0
100
AcDbCircle
 10
-709.3555206881639
 20
-1583.640938560979
 30
0.0
 40
4.607147494346119
  0
CIRCLE
  5
284C6
330
18
100
AcDbEntity
  8
0
100
AcDbCircle
 10
-709.3555206881639
 20
-1583.640938560979
 30
0.0
 40
3.199999999985336
  0
LINE
  5
284C7
330
18
100
AcDbEntity
  8
0
100
AcDbLine
 10
-709.3555306097981
 20
-1594.012540887923
 30
0.0
 11
-700.3734626925743
 21
-1588.826741558035
 31
0.0
  0
HATCH
  5
284C8
330
18
100
AcDbEntity
  8
0
100
AcDbHatch
 10
0.0
 20
0.0
 30
0.0
210
0.0
220
0.0
230
1.0
  2
SOLID
 70
     1
 71
     0
 91
        2
 92
        7
 72
     1
 73
     1
 93
        3
 10
-709.3555206881656
 20
-1581.540791441362
 42
0.0
 10
-709.3555206881656
 20
-1583.640938560978
 42
0.0
 10
-711.4556678077816
 20
-1583.640938560978
 42
-0.4142135623730913
 97
        0
 92
        7
 72
     1
 73
     1
 93
        3
 10
-709.3555206881656
 20
-1583.640938560978
 42
0.0
 10
-707.2553735685502
 20
-1583.640938560978
 42
-0.4142135623730913
 10
-709.3555206881656
 20
-1585.741085680592
 42
0.0
 97
        0
 75
     0
 76
     1
 47
0.0093541955041491
 98
        2
 10
-710.3927125630282
 20
-1582.826276119833
 10
-708.7755383905375
 20
-1584.606621846505
  0
CIRCLE
  5
284C9
330
18
100
AcDbEntity
  8
0
100
AcDbCircle
 10
-709.3555206881656
 20
-1583.640938560978
 30
0.0
 40
2.100147119615789
  0
CIRCLE
  5
284D0
102
{ACAD_REACTORS
330
288CA
102
}
330
18
100
AcDbEntity
  8
細線
100
AcDbCircle
 10
-759.1484094909309
 20
-1569.422137988202
 30
0.0
 40
3.5
  0
CIRCLE
  5
284D1
330
18
100
AcDbEntity
  8
実線
100
AcDbCircle
 10
-779.6351551651904
 20
-1632.821849314814
 30
0.0
 40
4.75
  0
CIRCLE
  5
284D2
330
18
100
AcDbEntity
  8
細線
  6
CONTINUOUS
100
AcDbCircle
 10
-779.6351551651904
 20
-1632.821849314814
 30
0.0
 40
3.749999999999991
  0
CIRCLE
  5
284D3
330
18
100
AcDbEntity
  8
細線
  6
CONTINUOUS
100
AcDbCircle
 10
-779.6351551651904
 20
-1632.821849314814
 30
0.0
 40
4.25
  0
CIRCLE
  5
284D4
330
18
100
AcDbEntity
  8
実線
100
AcDbCircle
 10
-765.6055206882138
 20
-1625.068801284318
 30
0.0
 40
4.25
  0
CIRCLE
  5
284D5
330
18
100
AcDbEntity
  8
細線
 48
0.5
100
AcDbCircle
 10
-765.6055206882138
 20
-1625.068801284318
 30
0.0
 40
5.0
  0
LINE
  5
284D6
330
18
100
AcDbEntity
  8
中心線
100
AcDbLine
 10
-760.9805206882136
 20
-1617.058066299311
 30
0.0
 11
-770.230520688213
 21
-1633.079536269323
 31
0.0
  0
LINE
  5
284D7
330
18
100
AcDbEntity
  8
細線
  6
CONTINUOUS
100
AcDbLine
 10
-777.5639162389427
 20
-1631.80042737162
 30
0.0
 11
-777.7149579953339
 21
-1634.104884044305
 31
0.0
  0
LINE
  5
284D8
330
18
100
AcDbEntity
  8
細線
  6
CONTINUOUS
100
AcDbLine
 10
-777.7149584110684
 20
-1634.10488376652
 30
0.0
 11
-779.7861980591797
 21
-1635.126306430071
 31
0.0
  0
LINE
  5
284D9
330
18
100
AcDbEntity
  8
細線
  6
CONTINUOUS
100
AcDbLine
 10
-779.4841130762111
 20
-1630.517392864357
 30
0.0
 11
-777.5639163220896
 21
-1631.800427316062
 31
0.0
  0
LINE
  5
284DA
330
18
100
AcDbEntity
  8
細線
  6
CONTINUOUS
100
AcDbLine
 10
-781.5553519193107
 20
-1631.538814863108
 30
0.0
 11
-781.7063943144189
 21
-1633.843272311707
 31
0.0
  0
LINE
  5
284DB
330
18
100
AcDbEntity
  8
細線
  6
CONTINUOUS
100
AcDbLine
 10
-781.5553523350453
 20
-1631.538814585321
 30
0.0
 11
-779.4841131593581
 21
-1630.517392808799
 31
0.0
  0
LINE
  5
284DC
330
18
100
AcDbEntity
  8
細線
  6
CONTINUOUS
100
AcDbLine
 10
-781.7063940082897
 20
-1633.843271313565
 30
0.0
 11
-779.7861972541686
 21
-1635.126305765272
 31
0.0
  0
ARC
  5
284DD
102
{ACAD_REACTORS
330
288CA
102
}
330
18
100
AcDbEntity
  8
細線
100
AcDbCircle
 10
-759.4279340596415
 20
-1570.465337880595
 30
0.0
 40
0.5
100
AcDbArc
 50
27.34638766282392
 51
122.6536123371757
  0
ARC
  5
284DE
102
{ACAD_REACTORS
330
288CA
102
}
330
18
100
AcDbEntity
  8
細線
100
AcDbCircle
 10
-760.1916093833231
 20
-1569.701662556913
 30
0.0
 40
0.5
100
AcDbArc
 50
327.3463876628238
 51
62.65361233717572
  0
ARC
  5
284DF
102
{ACAD_REACTORS
330
288CA
102
}
330
18
100
AcDbEntity
  8
細線
100
AcDbCircle
 10
-758.3847341672493
 20
-1570.185813311884
 30
0.0
 40
0.5
100
AcDbArc
 50
87.34638766282392
 51
182.6536123371755
  0
ARC
  5
284E0
102
{ACAD_REACTORS
330
288CA
102
}
330
18
100
AcDbEntity
  8
細線
100
AcDbCircle
 10
-759.9120848146124
 20
-1568.658462664521
 30
0.0
 40
0.5
100
AcDbArc
 50
267.3463876628239
 51
2.653612337175748
  0
CIRCLE
  5
284E1
102
{ACAD_REACTORS
330
288CA
102
}
330
18
100
AcDbEntity
  8
細線
100
AcDbCircle
 10
-759.1484094909309
 20
-1569.422137988202
 30
0.0
 40
0.8299999999999998
  0
ARC
  5
284E2
102
{ACAD_REACTORS
330
288CA
102
}
330
18
100
AcDbEntity
  8
細線
100
AcDbCircle
 10
-758.8688849222203
 20
-1568.378938095809
 30
0.0
 40
0.5
100
AcDbArc
 50
207.3463876628239
 51
302.6536123371756
  0
ARC
  5
284E3
102
{ACAD_REACTORS
330
288CA
102
}
330
18
100
AcDbEntity
  8
細線
100
AcDbCircle
 10
-758.1052095985386
 20
-1569.142613419492
 30
0.0
 40
0.5
100
AcDbArc
 50
147.3463876628239
 51
242.6536123371757
  0
CIRCLE
  5
284E4
330
18
100
AcDbEntity
  8
細線
100
AcDbCircle
 10
-759.1484094909348
 20
-1569.422137988212
 30
0.0
 40
1.5
  0
LINE
  5
284E5
330
18
100
AcDbEntity
  8
0
100
AcDbLine
 10
-718.3375985270222
 20
-1588.826741558035
 30
0.0
 11
-709.3555306097981
 21
-1594.012540887923
 31
0.0
  0
LINE
  5
284E6
330
18
100
AcDbEntity
  8
細線
  6
CONTINUOUS
100
AcDbLine
 10
-731.7694199159181
 20
-1652.160823114312
 30
0.0
 11
-733.2921143029507
 21
-1653.897123705001
 31
0.0
  0
LINE
  5
284E7
330
18
100
AcDbEntity
  8
細線
  6
CONTINUOUS
100
AcDbLine
 10
-734.7767790329089
 20
-1649.523439876373
 30
0.0
 11
-732.5117525255603
 21
-1649.973981661129
 31
0.0
  0
CIRCLE
  5
284E8
330
18
100
AcDbEntity
  8
実線
100
AcDbCircle
 10
-734.0344464232678
 20
-1651.710281329559
 30
0.0
 40
4.75
  0
CIRCLE
  5
284E9
330
18
100
AcDbEntity
  8
細線
  6
CONTINUOUS
100
AcDbCircle
 10
-734.0344464232678
 20
-1651.710281329559
 30
0.0
 40
3.749999999999991
  0
CIRCLE
  5
284EA
330
18
100
AcDbEntity
  8
細線
  6
CONTINUOUS
100
AcDbCircle
 10
-734.0344464232678
 20
-1651.710281329559
 30
0.0
 40
4.25
  0
LINE
  5
284EB
330
18
100
AcDbEntity
  8
細線
  6
CONTINUOUS
100
AcDbLine
 10
-736.2994734210077
 20
-1651.259739447259
 30
0.0
 11
-734.7767791309875
 21
-1649.523439856865
 31
0.0
  0
LINE
  5
284EC
330
18
100
AcDbEntity
  8
細線
  6
CONTINUOUS
100
AcDbLine
 10
-735.5571403209738
 20
-1653.446580997987
 30
0.0
 11
-733.2921138136251
 21
-1653.897122782742
 31
0.0
  0
LINE
  5
284ED
330
18
100
AcDbEntity
  8
細線
  6
CONTINUOUS
100
AcDbLine
 10
-736.2994729306157
 20
-1651.259739544804
 30
0.0
 11
-735.5571402218282
 21
-1653.4465820373
 31
0.0
  0
LINE
  5
284EE
330
18
100
AcDbEntity
  8
細線
  6
CONTINUOUS
100
AcDbLine
 10
-732.5117524274816
 20
-1649.973981680639
 30
0.0
 11
-731.7694194255258
 21
-1652.160823211857
 31
0.0
  0
LINE
  5
284F0
330
18
100
AcDbEntity
  8
0
100
AcDbLine
 10
-718.3375985270219
 20
-1578.455142898254
 30
0.0
 11
-718.3375985270222
 21
-1588.826741558035
 31
0.0
  0
LINE
  5
284F1
330
18
100
AcDbEntity
  8
0
100
AcDbLine
 10
-709.3555306097981
 20
-1573.269343568368
 30
0.0
 11
-718.3375985270219
 21
-1578.455142898254
 31
0.0
  0
ARC
  5
284F2
330
18
100
AcDbEntity
  8
中心線
 48
2.0
100
AcDbCircle
 10
-709.3555206882014
 20
-1527.640943358586
 30
0.0
 40
56.0
100
AcDbArc
 50
298.4046152107021
 51
344.3961616623683
  0
CIRCLE
  5
284F3
330
18
100
AcDbEntity
  8
0
100
AcDbCircle
 10
-660.8580980762417
 20
-1555.640943358572
 30
0.0
 40
7.564520414520334
  0
CIRCLE
  5
284F4
330
18
100
AcDbEntity
  8
0
100
AcDbCircle
 10
-660.8580980762417
 20
-1555.640938560979
 30
0.0
 40
4.607147494346119
  0
CIRCLE
  5
284F5
330
18
100
AcDbEntity
  8
0
100
AcDbCircle
 10
-660.8580980762417
 20
-1555.640938560979
 30
0.0
 40
3.199999999985336
  0
LINE
  5
284F6
330
18
100
AcDbEntity
  8
0
100
AcDbLine
 10
-651.8760360987862
 20
-1550.455152055853
 30
0.0
 11
-660.8581040160109
 21
-1545.269352725964
 31
0.0
  0
LINE
  5
284F7
330
18
100
AcDbEntity
  8
0
100
AcDbLine
 10
-660.8581040160103
 20
-1566.012550045519
 30
0.0
 11
-651.8760360987855
 21
-1560.82675071563
 31
0.0
  0
CIRCLE
  5
284F8
330
18
100
AcDbEntity
  8
細線
  6
CONTINUOUS
100
AcDbCircle
 10
-684.6765949531986
 20
-1651.710281329571
 30
0.0
 40
3.749999999999991
  0
LINE
  5
284F9
330
18
100
AcDbEntity
  8
細線
  6
CONTINUOUS
100
AcDbLine
 10
-683.9342622454774
 20
-1649.523439856878
 30
0.0
 11
-682.411567955457
 21
-1651.259739447271
 31
0.0
  0
LINE
  5
284FA
330
18
100
AcDbEntity
  8
細線
  6
CONTINUOUS
100
AcDbLine
 10
-682.4115684458491
 20
-1651.259739544815
 30
0.0
 11
-683.1539011546365
 21
-1653.446582037312
 31
0.0
  0
CIRCLE
  5
284FB
330
18
100
AcDbEntity
  8
細線
  6
CONTINUOUS
100
AcDbCircle
 10
-684.6765949531986
 20
-1651.710281329571
 30
0.0
 40
4.25
  0
CIRCLE
  5
284FC
330
18
100
AcDbEntity
  8
実線
100
AcDbCircle
 10
-684.6765949531986
 20
-1651.710281329571
 30
0.0
 40
4.75
  0
LINE
  5
284FD
330
18
100
AcDbEntity
  8
細線
  6
CONTINUOUS
100
AcDbLine
 10
-686.9416219509387
 20
-1652.160823211869
 30
0.0
 11
-686.1992889489832
 21
-1649.973981680649
 31
0.0
  0
LINE
  5
284FE
330
18
100
AcDbEntity
  8
細線
  6
CONTINUOUS
100
AcDbLine
 10
-685.41892756284
 20
-1653.897122782755
 30
0.0
 11
-683.1539010554916
 21
-1653.446580997999
 31
0.0
  0
LINE
  5
284FF
330
18
100
AcDbEntity
  8
細線
  6
CONTINUOUS
100
AcDbLine
 10
-686.9416214605466
 20
-1652.160823114325
 30
0.0
 11
-685.418927073514
 21
-1653.897123705012
 31
0.0
  0
LINE
  5
28500
330
18
100
AcDbEntity
  8
細線
  6
CONTINUOUS
100
AcDbLine
 10
-686.1992888509043
 20
-1649.973981661141
 30
0.0
 11
-683.9342623435562
 21
-1649.523439876387
 31
0.0
  0
LINE
  5
28501
330
18
100
AcDbEntity
  8
0
100
AcDbLine
 10
-700.3734626925743
 20
-1588.826741558035
 30
0.0
 11
-700.3734626925743
 21
-1578.455142898254
 31
0.0
  0
LINE
  5
28502
330
18
100
AcDbEntity
  8
0
100
AcDbLine
 10
-669.8401719332337
 20
-1550.455152055852
 30
0.0
 11
-669.8401719332337
 21
-1560.82675071563
 31
0.0
  0
CIRCLE
  5
28503
102
{ACAD_REACTORS
330
288C7
102
}
330
18
100
AcDbEntity
  8
細線
100
AcDbCircle
 10
-667.5743260585759
 20
-1577.43383216132
 30
0.0
 40
3.5
  0
ARC
  5
28504
102
{ACAD_REACTORS
330
288C7
102
}
330
18
100
AcDbEntity
  8
細線
100
AcDbCircle
 10
-666.5311261661837
 20
-1577.713356730031
 30
0.0
 40
0.5
100
AcDbArc
 50
117.3463876628239
 51
212.6536123371756
  0
ARC
  5
28505
102
{ACAD_REACTORS
330
288C7
102
}
330
18
100
AcDbEntity
  8
細線
100
AcDbCircle
 10
-667.2948014898651
 20
-1578.477032053712
 30
0.0
 40
0.5
100
AcDbArc
 50
57.34638766282404
 51
152.6536123371757
  0
ARC
  5
28506
102
{ACAD_REACTORS
330
288C7
102
}
330
18
100
AcDbEntity
  8
細線
100
AcDbCircle
 10
-666.8106507348944
 20
-1576.670156837638
 30
0.0
 40
0.5
100
AcDbArc
 50
177.3463876628239
 51
272.6536123371756
  0
ARC
  5
28507
102
{ACAD_REACTORS
330
288C7
102
}
330
18
100
AcDbEntity
  8
細線
100
AcDbCircle
 10
-668.3380013822576
 20
-1578.197507485002
 30
0.0
 40
0.5
100
AcDbArc
 50
357.346387662824
 51
92.65361233717579
  0
CIRCLE
  5
28508
102
{ACAD_REACTORS
330
288C7
102
}
330
18
100
AcDbEntity
  8
細線
100
AcDbCircle
 10
-667.5743260585759
 20
-1577.43383216132
 30
0.0
 40
0.8299999999999998
  0
ARC
  5
28509
102
{ACAD_REACTORS
330
288C7
102
}
330
18
100
AcDbEntity
  8
細線
100
AcDbCircle
 10
-668.6175259509682
 20
-1577.154307592609
 30
0.0
 40
0.5
100
AcDbArc
 50
297.3463876628238
 51
32.6536123371758
  0
ARC
  5
2850A
102
{ACAD_REACTORS
330
288C7
102
}
330
18
100
AcDbEntity
  8
細線
100
AcDbCircle
 10
-667.8538506272867
 20
-1576.390632268928
 30
0.0
 40
0.5
100
AcDbArc
 50
237.3463876628238
 51
332.6536123371758
  0
LINE
  5
2850B
330
18
100
AcDbEntity
  8
0
100
AcDbLine
 10
-669.8401719332337
 20
-1560.82675071563
 30
0.0
 11
-660.8581040160103
 21
-1566.012550045519
 31
0.0
  0
ARC
  5
2850C
330
18
100
AcDbEntity
  8
２点鎖線
 48
0.3
100
AcDbCircle
 10
-660.8580980762417
 20
-1555.640943358572
 30
0.0
 40
2.399999999999999
100
AcDbArc
 50
179.999999999661
 51
359.9999999997393
  0
HATCH
  5
2850D
330
18
100
AcDbEntity
  8
0
100
AcDbHatch
 10
0.0
 20
0.0
 30
0.0
210
0.0
220
0.0
230
1.0
  2
SOLID
 70
     1
 71
     0
 91
        2
 92
        7
 72
     1
 73
     1
 93
        3
 10
-660.8580980762419
 20
-1553.240785425326
 42
0.0
 10
-660.8580980762419
 20
-1555.640938560979
 42
0.0
 10
-663.258251211895
 20
-1555.640938560979
 42
-0.4142135623730913
 97
        0
 92
        7
 72
     1
 73
     1
 93
        3
 10
-660.8580980762419
 20
-1555.640938560979
 42
0.0
 10
-658.4579449405894
 20
-1555.640938560979
 42
-0.4142135623730913
 10
-660.8580980762419
 20
-1558.04109169663
 42
0.0
 97
        0
 75
     0
 76
     1
 47
0.0093541955041491
 98
        2
 10
-662.0434528104281
 20
-1554.709901590118
 10
-660.1952653073968
 20
-1556.744569703845
  0
CIRCLE
  5
2850E
330
18
100
AcDbEntity
  8
0
100
AcDbCircle
 10
-660.8580980762417
 20
-1555.640938560979
 30
0.0
 40
2.400153135652904
  0
LINE
  5
2850F
330
18
100
AcDbEntity
  8
0
100
AcDbLine
 10
-660.8581040160103
 20
-1545.269352725964
 30
0.0
 11
-669.8401719332337
 21
-1550.455152055852
 31
0.0
  0
CIRCLE
  5
28510
330
18
100
AcDbEntity
  8
実線
100
AcDbCircle
 10
-639.0758862112646
 20
-1632.821849314851
 30
0.0
 40
4.75
  0
CIRCLE
  5
28511
330
18
100
AcDbEntity
  8
実線
100
AcDbCircle
 10
-653.1055206882492
 20
-1625.068801284318
 30
0.0
 40
4.25
  0
CIRCLE
  5
28512
330
18
100
AcDbEntity
  8
細線
 48
0.5
100
AcDbCircle
 10
-653.1055206882492
 20
-1625.068801284318
 30
0.0
 40
5.0
  0
LINE
  5
28513
330
18
100
AcDbEntity
  8
中心線
100
AcDbLine
 10
-657.7305206881773
 20
-1617.05806629931
 30
0.0
 11
-648.480520688177
 21
-1633.079536269323
 31
0.0
  0
LINE
  5
28514
330
18
100
AcDbEntity
  8
細線
  6
CONTINUOUS
100
AcDbLine
 10
-637.155689457144
 20
-1631.538814863143
 30
0.0
 11
-637.0046470620352
 21
-1633.843272311741
 31
0.0
  0
LINE
  5
28515
330
18
100
AcDbEntity
  8
細線
  6
CONTINUOUS
100
AcDbLine
 10
-639.2269282170964
 20
-1630.517392808835
 30
0.0
 11
-637.1556890414092
 21
-1631.538814585358
 31
0.0
  0
LINE
  5
28516
330
18
100
AcDbEntity
  8
細線
  6
CONTINUOUS
100
AcDbLine
 10
-640.9960833811205
 20
-1634.104884044339
 30
0.0
 11
-641.1471251375115
 21
-1631.800427371653
 31
0.0
  0
LINE
  5
28517
330
18
100
AcDbEntity
  8
細線
  6
CONTINUOUS
100
AcDbLine
 10
-638.9248441222862
 20
-1635.126305765307
 30
0.0
 11
-637.004647368165
 21
-1633.843271313601
 31
0.0
  0
LINE
  5
28518
330
18
100
AcDbEntity
  8
細線
  6
CONTINUOUS
100
AcDbLine
 10
-640.996082965386
 20
-1634.104883766555
 30
0.0
 11
-638.9248433172752
 21
-1635.126306430105
 31
0.0
  0
LINE
  5
28519
330
18
100
AcDbEntity
  8
細線
  6
CONTINUOUS
100
AcDbLine
 10
-641.1471250543644
 20
-1631.800427316097
 30
0.0
 11
-639.2269283002432
 21
-1630.51739286439
 31
0.0
  0
CIRCLE
  5
2851A
330
18
100
AcDbEntity
  8
細線
  6
CONTINUOUS
100
AcDbCircle
 10
-639.0758862112646
 20
-1632.821849314851
 30
0.0
 40
3.749999999999991
  0
CIRCLE
  5
2851B
330
18
100
AcDbEntity
  8
細線
  6
CONTINUOUS
100
AcDbCircle
 10
-639.0758862112646
 20
-1632.821849314851
 30
0.0
 40
4.25
  0
LINE
  5
2851C
330
18
100
AcDbEntity
  8
0
100
AcDbLine
 10
-651.8760360987855
 20
-1560.82675071563
 30
0.0
 11
-651.8760360987862
 21
-1550.455152055853
 31
0.0
  0
ARC
  5
28527
330
18
100
AcDbEntity
  8
0
100
AcDbCircle
 10
-947.5938940340393
 20
-1422.890943358605
 30
0.0
 40
53.0
100
AcDbArc
 50
270.0
 51
359.9999999999997
  0
ARC
  5
28528
330
18
100
AcDbEntity
  8
0
100
AcDbCircle
 10
-947.5938940340393
 20
-1422.890943358605
 30
0.0
 40
44.5
100
AcDbArc
 50
270.0
 51
359.9999999999997
  0
LWPOLYLINE
  5
2852B
330
18
100
AcDbEntity
  8
0
  6
CONTINUOUS
 62
     7
100
AcDbPolyline
 90
        4
 70
     1
 43
0.0
 10
-891.8438940369689
 20
-1355.064943358604
 10
-891.8438940369689
 20
-1374.263633350198
 10
-905.843894031109
 20
-1374.263633350198
 10
-905.843894031109
 20
-1355.064943358604
  0
LINE
  5
2852C
330
18
100
AcDbEntity
  8
中心線
 48
2.0
100
AcDbLine
 10
-905.8438940340387
 20
-1350.814943358604
 30
0.0
 11
-890.1296083197534
 21
-1350.814943358604
 31
0.0
  0
LINE
  5
2852D
330
18
100
AcDbEntity
  8
0
  6
CONTINUOUS
 62
     7
100
AcDbLine
 10
-906.7866150650797
 20
-1313.064943358604
 30
0.0
 11
-903.258477318546
 21
-1313.064943358604
 31
0.0
  0
LINE
  5
2852E
330
18
100
AcDbEntity
  8
0
  6
CONTINUOUS
 62
     7
100
AcDbLine
 10
-912.1906836365813
 20
-1346.064943358603
 30
0.0
 11
-885.4971044314966
 21
-1346.064943358605
 31
0.0
  0
LINE
  5
2852F
330
18
100
AcDbEntity
  8
0
  6
CONTINUOUS
 62
     7
100
AcDbLine
 10
-884.8971044314962
 20
-1342.464943358604
 30
0.0
 11
-912.7906836365815
 21
-1342.464943358608
 31
0.0
  0
LINE
  5
28530
330
18
100
AcDbEntity
  8
0
  6
CONTINUOUS
 62
     7
100
AcDbLine
 10
-883.4938940340387
 20
-1325.436115216532
 30
0.0
 11
-914.1938940340393
 21
-1325.436115216531
 31
0.0
  0
LINE
  5
28531
330
18
100
AcDbEntity
  8
0
  6
CONTINUOUS
 62
     7
100
AcDbLine
 10
-914.1938940340393
 20
-1316.064943358604
 30
0.0
 11
-883.4938940340391
 21
-1316.064943358604
 31
0.0
  0
LINE
  5
28532
330
18
100
AcDbEntity
  8
0
  6
CONTINUOUS
 62
     7
100
AcDbLine
 10
-909.8812728575463
 20
-1355.064943358604
 30
0.0
 11
-900.3438940340387
 21
-1355.064943358604
 31
0.0
  0
LINE
  5
28533
330
18
100
AcDbEntity
  8
0
  6
CONTINUOUS
 62
     7
100
AcDbLine
 10
-913.2488940340387
 20
-1315.164943358604
 30
0.0
 11
-883.0438940340396
 21
-1315.164943358604
 31
0.0
  0
LINE
  5
28534
330
18
100
AcDbEntity
  8
0
  6
CONTINUOUS
 62
     7
100
AcDbLine
 10
-912.948894034039
 20
-1298.064943358604
 30
0.0
 11
-884.7388940340389
 21
-1298.064943358604
 31
0.0
  0
LINE
  5
28535
330
18
100
AcDbEntity
  8
0
  6
CONTINUOUS
 62
     7
100
AcDbLine
 10
-913.7488940340388
 20
-1305.064943358604
 30
0.0
 11
-883.1438940340396
 21
-1305.064943358604
 31
0.0
  0
LINE
  5
28536
330
18
100
AcDbEntity
  8
0
  6
CONTINUOUS
 62
     7
100
AcDbLine
 10
-883.9388940340397
 20
-1303.564943358604
 30
0.0
 11
-913.7488940340388
 21
-1303.564943358604
 31
0.0
  0
LINE
  5
28537
330
18
100
AcDbEntity
  8
0
  6
CONTINUOUS
 62
     7
100
AcDbLine
 10
-913.7488940340388
 20
-1298.864943358603
 30
0.0
 11
-883.9388940340391
 21
-1298.864943358604
 31
0.0
  0
LINE
  5
28539
330
18
100
AcDbEntity
  8
0
  6
CONTINUOUS
 62
     7
100
AcDbLine
 10
-914.1938940340393
 20
-1325.436115216532
 30
0.0
 11
-911.0814527403592
 21
-1341.272090471011
 31
0.0
  0
LINE
  5
2853B
330
18
100
AcDbEntity
  8
中心線
 48
2.0
100
AcDbLine
 10
-947.5938940340393
 20
-1471.640943358604
 30
0.0
 11
-992.1560970022987
 21
-1471.640943358604
 31
0.0
  0
LINE
  5
2853C
330
18
100
AcDbEntity
  8
A
100
AcDbLine
 10
-958.6670647693471
 20
-1460.640943358604
 30
0.0
 11
-954.5938940376387
 21
-1465.412371930032
 31
0.0
  0
LINE
  5
2853D
330
18
100
AcDbEntity
  8
A
100
AcDbLine
 10
-958.6670647693471
 20
-1482.640943358604
 30
0.0
 11
-954.5938940376387
 21
-1477.869514787174
 31
0.0
  0
LINE
  5
28540
330
18
100
AcDbEntity
  8
実線
100
AcDbLine
 10
-977.593894037639
 20
-1449.640943358604
 30
0.0
 11
-980.093894037639
 21
-1449.640943358604
 31
0.0
  0
LINE
  5
28541
330
18
100
AcDbEntity
  8
0
100
AcDbLine
 10
-969.593894037639
 20
-1460.640943358604
 30
0.0
 11
-969.593894037639
 21
-1482.640943358604
 31
0.0
  0
ARC
  5
28542
330
18
100
AcDbEntity
  8
A
100
AcDbCircle
 10
-967.0676905552086
 20
-1461.442028172015
 30
0.0
 40
9.015903847971632
100
AcDbArc
 50
332.1795611441773
 51
354.4603666814933
  0
LINE
  5
28543
330
18
100
AcDbEntity
  8
A
100
AcDbLine
 10
-958.0938940376388
 20
-1461.312371930032
 30
0.0
 11
-958.0938940376388
 21
-1481.969514787174
 31
0.0
  0
LINE
  5
28544
330
18
100
AcDbEntity
  8
0
100
AcDbLine
 10
-976.593894037639
 20
-1482.640943358604
 30
0.0
 11
-976.593894037639
 21
-1460.640943358604
 31
0.0
  0
LINE
  5
28545
330
18
100
AcDbEntity
  8
A
100
AcDbLine
 10
-959.0938940376387
 20
-1477.632116717056
 30
0.0
 11
-969.593894037639
 21
-1477.632116717056
 31
0.0
  0
LINE
  5
28546
330
18
100
AcDbEntity
  8
A
100
AcDbLine
 10
-959.0938940376387
 20
-1476.113079313603
 30
0.0
 11
-969.593894037639
 21
-1476.113079313603
 31
0.0
  0
LINE
  5
28547
330
18
100
AcDbEntity
  8
A
100
AcDbLine
 10
-969.593894037639
 20
-1467.168807403606
 30
0.0
 11
-959.0938940376387
 21
-1467.168807403606
 31
0.0
  0
LINE
  5
28548
330
18
100
AcDbEntity
  8
A
100
AcDbLine
 10
-969.593894037639
 20
-1465.649770000152
 30
0.0
 11
-959.0938940376387
 21
-1465.649770000152
 31
0.0
  0
LINE
  5
28549
330
18
100
AcDbEntity
  8
A
100
AcDbLine
 10
-969.593894037639
 20
-1482.640943358604
 30
0.0
 11
-958.6670647693471
 21
-1482.640943358604
 31
0.0
  0
LINE
  5
2854A
330
18
100
AcDbEntity
  8
0
100
AcDbLine
 10
-976.593894037639
 20
-1479.640943538837
 30
0.0
 11
-969.593894037639
 21
-1479.640942529532
 31
0.0
  0
LINE
  5
2854B
330
18
100
AcDbEntity
  8
A
100
AcDbLine
 10
-977.0938940376387
 20
-1482.640943358604
 30
0.0
 11
-976.593894037639
 21
-1482.640943358604
 31
0.0
  0
LINE
  5
2854C
330
18
100
AcDbEntity
  8
A
100
AcDbLine
 10
-977.0938940376387
 20
-1465.649770000152
 30
0.0
 11
-976.593894037639
 21
-1465.649770000152
 31
0.0
  0
LINE
  5
2854D
330
18
100
AcDbEntity
  8
A
100
AcDbLine
 10
-977.0938940376387
 20
-1467.168807403606
 30
0.0
 11
-976.593894037639
 21
-1467.168807403606
 31
0.0
  0
LINE
  5
2854E
330
18
100
AcDbEntity
  8
A
100
AcDbLine
 10
-976.593894037639
 20
-1476.113079313604
 30
0.0
 11
-977.0938940376387
 21
-1476.113079313604
 31
0.0
  0
LINE
  5
2854F
330
18
100
AcDbEntity
  8
A
100
AcDbLine
 10
-976.593894037639
 20
-1477.632116717056
 30
0.0
 11
-977.0938940376387
 21
-1477.632116717056
 31
0.0
  0
LINE
  5
28550
330
18
100
AcDbEntity
  8
A
100
AcDbLine
 10
-959.0938940376387
 20
-1465.649770000152
 30
0.0
 11
-959.0938940376387
 21
-1467.168807403606
 31
0.0
  0
ARC
  5
28551
330
18
100
AcDbEntity
  8
A
100
AcDbCircle
 10
-968.5938940376384
 20
-1471.640943358604
 30
0.0
 40
10.50000000000042
100
AcDbArc
 50
334.7912347032245
 51
25.20876529671711
  0
ARC
  5
28552
330
18
100
AcDbEntity
  8
A
100
AcDbCircle
 10
-967.0676905552086
 20
-1481.839858545193
 30
0.0
 40
9.015903847971632
100
AcDbArc
 50
5.539633318506591
 51
27.82043885582264
  0
LINE
  5
28553
330
18
100
AcDbEntity
  8
A
100
AcDbLine
 10
-959.0938940376387
 20
-1476.113079313603
 30
0.0
 11
-959.0938940376387
 21
-1477.632116717056
 31
0.0
  0
LINE
  5
28555
330
18
100
AcDbEntity
  8
A
100
AcDbLine
 10
-969.593894037639
 20
-1460.640943358604
 30
0.0
 11
-958.6670647693471
 21
-1460.640943358604
 31
0.0
  0
LINE
  5
28557
330
18
100
AcDbEntity
  8
A
100
AcDbLine
 10
-977.0938940376387
 20
-1460.640943358604
 30
0.0
 11
-976.593894037639
 21
-1460.640943358604
 31
0.0
  0
LINE
  5
28558
330
18
100
AcDbEntity
  8
0
100
AcDbLine
 10
-976.593894037639
 20
-1463.640943538835
 30
0.0
 11
-969.593894037639
 21
-1463.640942529527
 31
0.0
  0
LINE
  5
28559
330
18
100
AcDbEntity
  8
実線
100
AcDbLine
 10
-977.0938940376387
 20
-1450.140943358604
 30
0.0
 11
-977.0938940376387
 21
-1457.640943358604
 31
0.0
  0
LINE
  5
2855A
330
18
100
AcDbEntity
  8
実線
100
AcDbLine
 10
-977.593894037639
 20
-1449.640943358604
 30
0.0
 11
-977.0938940376387
 21
-1450.140943358604
 31
0.0
  0
LINE
  5
2855B
330
18
100
AcDbEntity
  8
中心線
 48
2.0
100
AcDbLine
 10
-971.3015572231583
 20
-1415.140943358621
 30
0.0
 11
-997.0938940376385
 21
-1415.14094335862
 31
0.0
  0
LINE
  5
2855C
330
18
100
AcDbEntity
  8
実線
100
AcDbLine
 10
-996.0938940376387
 20
-1395.140943358604
 30
0.0
 11
-980.0938940376385
 21
-1395.140943358604
 31
0.0
  0
LINE
  5
28560
330
18
100
AcDbEntity
  8
0
100
AcDbLine
 10
-947.5938940340393
 20
-1475.890943358604
 30
0.0
 11
-954.5938940376387
 21
-1475.890943358604
 31
0.0
  0
LINE
  5
28561
330
18
100
AcDbEntity
  8
0
100
AcDbLine
 10
-947.5938940340412
 20
-1467.390943358604
 30
0.0
 11
-954.5938940376387
 21
-1467.390943358604
 31
0.0
  0
LINE
  5
28562
330
18
100
AcDbEntity
  8
A
100
AcDbLine
 10
-954.5938940376387
 20
-1465.412371930032
 30
0.0
 11
-954.5938940376387
 21
-1477.869514787174
 31
0.0
  0
ARC
  5
28564
330
18
100
AcDbEntity
  8
0
  6
CONTINUOUS
 62
     7
100
AcDbCircle
 10
-909.8812728575463
 20
-1354.564943358604
 30
0.0
 40
0.5
100
AcDbArc
 50
184.4473833907033
 51
270.0
  0
ARC
  5
28565
330
18
100
AcDbEntity
  8
0
  6
CONTINUOUS
 62
     7
100
AcDbCircle
 10
-912.1906836365813
 20
-1344.864943358604
 30
0.0
 40
1.199999999999999
100
AcDbArc
 50
180.0000015352188
 51
270.0000030704635
  0
LINE
  5
28566
330
18
100
AcDbEntity
  8
0
  6
CONTINUOUS
 62
     7
100
AcDbLine
 10
-911.0438940340394
 20
-1346.064943358604
 30
0.0
 11
-910.3797673390275
 21
-1354.603715151608
 31
0.0
  0
ARC
  5
28567
330
18
100
AcDbEntity
  8
0
  6
CONTINUOUS
 62
     7
100
AcDbCircle
 10
-912.0626804222693
 20
-1341.464943358603
 30
0.0
 40
1.0
100
AcDbArc
 50
270.0
 51
11.1193224802717
  0
ARC
  5
28568
330
18
100
AcDbEntity
  8
0
  6
CONTINUOUS
 62
     7
100
AcDbCircle
 10
-912.7906836365815
 20
-1343.064943358604
 30
0.0
 40
0.6
100
AcDbArc
 50
90.0
 51
180.0000015352188
  0
LINE
  5
28569
330
18
100
AcDbEntity
  8
0
  6
CONTINUOUS
 62
     7
100
AcDbLine
 10
-913.390683636581
 20
-1343.064943358604
 30
0.0
 11
-913.390683636581
 21
-1344.864943358604
 31
0.0
  0
LINE
  5
2856A
330
18
100
AcDbEntity
  8
0
  6
CONTINUOUS
 62
     7
100
AcDbLine
 10
-913.8330501157955
 20
-1319.540963973167
 30
0.0
 11
-914.1938940340393
 21
-1319.540963973167
 31
0.0
  0
LINE
  5
2856B
330
18
100
AcDbEntity
  8
0
  6
CONTINUOUS
 62
     7
100
AcDbLine
 10
-914.1938940340393
 20
-1320.790963973166
 30
0.0
 11
-913.8330501157955
 21
-1320.790963973166
 31
0.0
  0
LINE
  5
2856C
330
18
100
AcDbEntity
  8
0
  6
CONTINUOUS
 62
     7
100
AcDbLine
 10
-913.8330501157955
 20
-1320.790963973166
 30
0.0
 11
-913.4722061975523
 21
-1320.165963973167
 31
0.0
  0
LINE
  5
2856D
330
18
100
AcDbEntity
  8
0
  6
CONTINUOUS
 62
     7
100
AcDbLine
 10
-913.4722061975523
 20
-1320.165963973167
 30
0.0
 11
-913.8330501157955
 21
-1319.540963973167
 31
0.0
  0
ARC
  5
2856E
330
18
100
AcDbEntity
  8
0
  6
CONTINUOUS
 62
     7
100
AcDbCircle
 10
-914.1938940340393
 20
-1320.165963973167
 30
0.0
 40
1.300000000000004
100
AcDbArc
 50
270.0
 51
90.0
  0
LINE
  5
28570
330
18
100
AcDbEntity
  8
0
  6
CONTINUOUS
 62
     7
100
AcDbLine
 10
-910.2072042131563
 20
-1313.064943358604
 30
0.0
 11
-907.1879176218331
 21
-1313.064943358604
 31
0.0
  0
LINE
  5
28571
330
18
100
AcDbEntity
  8
0
  6
CONTINUOUS
 62
     7
100
AcDbLine
 10
-912.7488940340386
 20
-1315.664943358604
 30
0.0
 11
-912.7488940340386
 21
-1316.064943358604
 31
0.0
  0
LINE
  5
28572
330
18
100
AcDbEntity
  8
0
  6
CONTINUOUS
 62
     7
100
AcDbLine
 10
-913.2488940340387
 20
-1315.164943358604
 30
0.0
 11
-914.6438940340393
 21
-1315.164943358604
 31
0.0
  0
ARC
  5
28573
330
18
100
AcDbEntity
  8
0
  6
CONTINUOUS
 62
     7
100
AcDbCircle
 10
-913.2488940340387
 20
-1315.664943358604
 30
0.0
 40
0.5
100
AcDbArc
 50
0.0000015352188321
 51
90.00000307046372
  0
LINE
  5
28574
330
18
100
AcDbEntity
  8
0
  6
CONTINUOUS
 62
     7
100
AcDbLine
 10
-915.8438940340387
 20
-1313.064943358603
 30
0.0
 11
-915.0189367323706
 21
-1313.064943358604
 31
0.0
  0
LINE
  5
28575
330
18
100
AcDbEntity
  8
0
  6
CONTINUOUS
 62
     7
100
AcDbLine
 10
-914.6581419295339
 20
-1313.064943358604
 30
0.0
 11
-913.2149627181869
 21
-1313.064943358604
 31
0.0
  0
ARC
  5
28576
330
18
100
AcDbEntity
  8
0
  6
CONTINUOUS
 62
     7
100
AcDbCircle
 10
-914.6438940340393
 20
-1313.964943358604
 30
0.0
 40
1.199999999999999
100
AcDbArc
 50
179.9999984647551
 51
270.0
  0
LINE
  5
28577
330
18
100
AcDbEntity
  8
0
  6
CONTINUOUS
 62
     7
100
AcDbLine
 10
-912.4953041955521
 20
-1316.064943358604
 30
0.0
 11
-912.7488940340386
 21
-1315.625712874062
 31
0.0
  0
LINE
  5
28578
330
18
100
AcDbEntity
  8
0
  6
CONTINUOUS
 62
     7
100
AcDbLine
 10
-912.8541679153499
 20
-1313.064943358604
 30
0.0
 11
-910.6135189817845
 21
-1313.064943358604
 31
0.0
  0
ARC
  5
28579
330
18
100
AcDbEntity
  8
0
  6
CONTINUOUS
 62
     7
100
AcDbCircle
 10
-914.1938940340393
 20
-1320.165963973167
 30
0.0
 40
1.5
100
AcDbArc
 50
270.0
 51
90.0
  0
LINE
  5
2857A
330
18
100
AcDbEntity
  8
0
  6
CONTINUOUS
 62
     7
100
AcDbLine
 10
-914.1938940340393
 20
-1316.064943358604
 30
0.0
 11
-914.1938940340393
 21
-1325.436115216531
 31
0.0
  0
ARC
  5
2857B
330
18
100
AcDbEntity
  8
0
  6
CONTINUOUS
 62
     7
100
AcDbCircle
 10
-910.4103615974706
 20
-1306.800679092044
 30
0.0
 40
0.7357357334403975
100
AcDbArc
 50
8.230715439331017
 51
171.7692845606688
  0
ARC
  5
2857C
330
18
100
AcDbEntity
  8
0
  6
CONTINUOUS
 62
     7
100
AcDbCircle
 10
-914.7546370396504
 20
-1306.864943358604
 30
0.0
 40
0.8
100
AcDbArc
 50
50.92265020609012
 51
129.6052820063545
  0
LINE
  5
2857D
330
18
100
AcDbEntity
  8
細線
 48
0.5
100
AcDbLine
 10
-913.2104324955772
 20
-1303.564943358604
 30
0.0
 11
-913.7488940340388
 21
-1304.497586101141
 31
0.0
  0
LINE
  5
2857E
330
18
100
AcDbEntity
  8
0
  6
CONTINUOUS
 62
     7
100
AcDbLine
 10
-915.0438940340386
 20
-1305.564943358604
 30
0.0
 11
-915.0438940340386
 21
-1306.119067771661
 31
0.0
  0
ARC
  5
2857F
330
18
100
AcDbEntity
  8
0
  6
CONTINUOUS
 62
     7
100
AcDbCircle
 10
-914.5438940340387
 20
-1305.564943358604
 30
0.0
 40
0.5
100
AcDbArc
 50
90.00000307046372
 51
179.9999984647551
  0
LINE
  5
28580
330
18
100
AcDbEntity
  8
0
  6
CONTINUOUS
 62
     7
100
AcDbLine
 10
-914.5438940340387
 20
-1305.064943358604
 30
0.0
 11
-913.7488940340388
 21
-1305.064943358604
 31
0.0
  0
ARC
  5
28581
330
18
100
AcDbEntity
  8
0
  6
CONTINUOUS
 62
     7
100
AcDbCircle
 10
-915.0438940340386
 20
-1306.864943358604
 30
0.0
 40
0.8
100
AcDbArc
 50
90.00000307046372
 51
179.9999984647551
  0
ARC
  5
28582
330
18
100
AcDbEntity
  8
0
  6
CONTINUOUS
 62
     7
100
AcDbCircle
 10
-913.0798326399244
 20
-1306.864943358604
 30
0.0
 40
0.8
100
AcDbArc
 50
35.5788847425022
 51
137.3330095792407
  0
LINE
  5
28583
330
18
100
AcDbEntity
  8
0
  6
CONTINUOUS
 62
     7
100
AcDbLine
 10
-912.9488940340383
 20
-1298.064943358604
 30
0.0
 11
-913.7488940340388
 21
-1298.864943358603
 31
0.0
  0
LINE
  5
28584
330
18
100
AcDbEntity
  8
0
  6
CONTINUOUS
 62
     7
100
AcDbLine
 10
-913.7488940340388
 20
-1305.064943358604
 30
0.0
 11
-913.7488940340388
 21
-1298.864943358603
 31
0.0
  0
LINE
  5
28585
330
18
100
AcDbEntity
  8
細線
 48
0.5
100
AcDbLine
 10
-913.2104324955772
 20
-1303.564943358604
 30
0.0
 11
-913.2104324955772
 21
-1298.326481820142
 31
0.0
  0
ARC
  5
28586
330
18
100
AcDbEntity
  8
0
  6
CONTINUOUS
 62
     7
100
AcDbCircle
 10
-906.987266343456
 20
-1306.864943358604
 30
0.0
 40
0.8
100
AcDbArc
 50
8.767841092515753
 51
171.232158907484
  0
LINE
  5
28587
330
18
100
AcDbEntity
  8
0
  6
CONTINUOUS
 62
     7
100
AcDbLine
 10
-915.2646330809531
 20
-1306.248579798799
 30
0.0
 11
-915.2646330809531
 21
-1313.064943358604
 31
0.0
  0
LINE
  5
28588
330
18
100
AcDbEntity
  8
0
  6
CONTINUOUS
 62
     7
100
AcDbLine
 10
-915.8438940340387
 20
-1313.964943358604
 30
0.0
 11
-915.8438940340387
 21
-1306.864943358604
 31
0.0
  0
LINE
  5
28589
330
18
100
AcDbEntity
  8
0
  6
CONTINUOUS
 62
     7
100
AcDbLine
 10
-914.2503418368177
 20
-1306.243906847277
 30
0.0
 11
-914.2503418368177
 21
-1313.064943358604
 31
0.0
  0
LINE
  5
2858A
330
18
100
AcDbEntity
  8
0
  6
CONTINUOUS
 62
     7
100
AcDbLine
 10
-911.1385189817843
 20
-1313.064943358604
 30
0.0
 11
-911.1385189817843
 21
-1306.695351540425
 31
0.0
  0
LINE
  5
2858B
330
18
100
AcDbEntity
  8
0
  6
CONTINUOUS
 62
     7
100
AcDbLine
 10
-913.6680768041175
 20
-1306.322754458595
 30
0.0
 11
-913.6680768041175
 21
-1313.064943358604
 31
0.0
  0
LINE
  5
2858C
330
18
100
AcDbEntity
  8
0
  6
CONTINUOUS
 62
     7
100
AcDbLine
 10
-912.4291804336811
 20
-1306.39948476054
 30
0.0
 11
-912.4291804336811
 21
-1313.064943358604
 31
0.0
  0
LINE
  5
2858D
330
18
100
AcDbEntity
  8
0
  6
CONTINUOUS
 62
     7
100
AcDbLine
 10
-909.6822042131567
 20
-1306.695351540425
 30
0.0
 11
-909.6822042131567
 21
-1313.064943358604
 31
0.0
  0
LINE
  5
2858E
330
18
100
AcDbEntity
  8
0
  6
CONTINUOUS
 62
     7
100
AcDbLine
 10
-907.7779176218331
 20
-1306.742998469408
 30
0.0
 11
-907.7779176218331
 21
-1313.064943358604
 31
0.0
  0
LINE
  5
2858F
330
18
100
AcDbEntity
  8
0
  6
CONTINUOUS
 62
     7
100
AcDbLine
 10
-906.1966150650791
 20
-1306.742998469408
 30
0.0
 11
-906.1966150650791
 21
-1313.064943358604
 31
0.0
  0
LINE
  5
28593
330
18
100
AcDbEntity
  8
0
  6
CONTINUOUS
 62
     7
100
AcDbLine
 10
-883.4938940340387
 20
-1325.436115216532
 30
0.0
 11
-886.6063353277189
 21
-1341.272090471011
 31
0.0
  0
LINE
  5
28594
330
18
100
AcDbEntity
  8
中心線
 48
2.0
100
AcDbLine
 10
-898.8438940340396
 20
-1422.890943358605
 30
0.0
 11
-898.8438940340389
 21
-1297.350657644317
 31
0.0
  0
LINE
  5
28595
330
18
100
AcDbEntity
  8
0
100
AcDbLine
 10
-894.593894037639
 20
-1422.89156107754
 30
0.0
 11
-894.5938940376388
 21
-1374.263633350198
 31
0.0
  0
LINE
  5
28596
330
18
100
AcDbEntity
  8
0
100
AcDbLine
 10
-903.0938940340393
 20
-1422.890943358605
 30
0.0
 11
-903.0938940340387
 21
-1374.263633350198
 31
0.0
  0
LINE
  5
28598
330
18
100
AcDbEntity
  8
0
  6
CONTINUOUS
 62
     7
100
AcDbLine
 10
-888.8044102001618
 20
-1355.064943358604
 30
0.0
 11
-897.343894034039
 21
-1355.064943358604
 31
0.0
  0
LINE
  5
28599
330
18
100
AcDbEntity
  8
0
  6
CONTINUOUS
 62
     7
100
AcDbLine
 10
-897.343894034039
 20
-1346.564943358604
 30
0.0
 11
-887.643894034039
 21
-1346.564943358604
 31
0.0
  0
LINE
  5
2859A
330
18
100
AcDbEntity
  8
0
  6
CONTINUOUS
 62
     7
100
AcDbLine
 10
-897.343894034039
 20
-1352.314943358604
 30
0.0
 11
-900.3438940340387
 21
-1352.314943358604
 31
0.0
  0
LINE
  5
2859B
330
18
100
AcDbEntity
  8
細線
 48
0.5
100
AcDbLine
 10
-897.3438940340399
 20
-1351.743514787175
 30
0.0
 11
-900.3438940340387
 21
-1351.743514787176
 31
0.0
  0
LINE
  5
2859C
330
18
100
AcDbEntity
  8
0
  6
CONTINUOUS
 62
     7
100
AcDbLine
 10
-903.8438940340387
 20
-1352.314943358604
 30
0.0
 11
-904.8438940340387
 21
-1352.314943358604
 31
0.0
  0
LINE
  5
2859D
330
18
100
AcDbEntity
  8
細線
 48
0.5
100
AcDbLine
 10
-903.8438940340387
 20
-1351.743514787176
 30
0.0
 11
-904.8438940340387
 21
-1351.743514787176
 31
0.0
  0
LINE
  5
2859E
330
18
100
AcDbEntity
  8
細線
 48
0.5
100
AcDbLine
 10
-900.3438940340387
 20
-1349.886371930034
 30
0.0
 11
-897.343894034039
 21
-1349.886371930034
 31
0.0
  0
LINE
  5
2859F
330
18
100
AcDbEntity
  8
0
  6
CONTINUOUS
 62
     7
100
AcDbLine
 10
-897.343894034039
 20
-1349.314943358604
 30
0.0
 11
-900.3438940340387
 21
-1349.314943358604
 31
0.0
  0
LINE
  5
285A0
330
18
100
AcDbEntity
  8
細線
 48
0.5
100
AcDbLine
 10
-904.8438940340387
 20
-1349.886371930033
 30
0.0
 11
-903.8438940340387
 21
-1349.886371930034
 31
0.0
  0
LINE
  5
285A1
330
18
100
AcDbEntity
  8
0
  6
CONTINUOUS
 62
     7
100
AcDbLine
 10
-903.8438940340387
 20
-1349.314943358604
 30
0.0
 11
-904.8438940340387
 21
-1349.314943358604
 31
0.0
  0
LINE
  5
285A2
330
18
100
AcDbEntity
  8
0
  6
CONTINUOUS
 62
     7
100
AcDbLine
 10
-900.3438940340387
 20
-1355.064943358604
 30
0.0
 11
-900.3438940340387
 21
-1346.064943358604
 31
0.0
  0
LINE
  5
285A3
330
18
100
AcDbEntity
  8
0
  6
CONTINUOUS
 62
     7
100
AcDbLine
 10
-897.343894034039
 20
-1346.564943358604
 30
0.0
 11
-897.343894034039
 21
-1355.064943358604
 31
0.0
  0
LINE
  5
285A4
330
18
100
AcDbEntity
  8
0
  6
CONTINUOUS
 62
     7
100
AcDbLine
 10
-904.8438940340387
 20
-1349.314943358604
 30
0.0
 11
-904.8438940340387
 21
-1352.314943358604
 31
0.0
  0
LINE
  5
285A5
330
18
100
AcDbEntity
  8
0
  6
CONTINUOUS
 62
     7
100
AcDbLine
 10
-903.8438940340387
 20
-1346.064943358604
 30
0.0
 11
-903.8438940340387
 21
-1355.064943358604
 31
0.0
  0
ARC
  5
285A6
330
18
100
AcDbEntity
  8
0
  6
CONTINUOUS
 62
     7
100
AcDbCircle
 10
-888.8044102001618
 20
-1354.564943358604
 30
0.0
 40
0.5
100
AcDbArc
 50
270.0
 51
355.2921492105487
  0
LINE
  5
285A7
330
18
100
AcDbEntity
  8
0
  6
CONTINUOUS
 62
     7
100
AcDbLine
 10
-892.843894034039
 20
-1353.564943358604
 30
0.0
 11
-892.104773892415
 21
-1353.564943358604
 31
0.0
  0
ARC
  5
285A8
330
18
100
AcDbEntity
  8
0
  6
CONTINUOUS
 62
     7
100
AcDbCircle
 10
-892.104773892415
 20
-1352.564943358604
 30
0.0
 40
0.9999999999999994
100
AcDbArc
 50
270.0
 51
343.0422379459656
  0
ARC
  5
285A9
330
18
100
AcDbEntity
  8
0
  6
CONTINUOUS
 62
     7
100
AcDbCircle
 10
-885.4971044314966
 20
-1344.864943358604
 30
0.0
 40
1.199999999999999
100
AcDbArc
 50
269.9999969295361
 51
359.999998464755
  0
LINE
  5
285AA
330
18
100
AcDbEntity
  8
0
  6
CONTINUOUS
 62
     7
100
AcDbLine
 10
-891.4438940340392
 20
-1350.314943358604
 30
0.0
 11
-891.4438940340392
 21
-1351.314943358604
 31
0.0
  0
LINE
  5
285AB
330
18
100
AcDbEntity
  8
0
  6
CONTINUOUS
 62
     7
100
AcDbLine
 10
-890.8617739969601
 20
-1350.314943358604
 30
0.0
 11
-891.4438940340392
 21
-1350.314943358604
 31
0.0
  0
LINE
  5
285AC
330
18
100
AcDbEntity
  8
0
  6
CONTINUOUS
 62
     7
100
AcDbLine
 10
-891.4438940340392
 20
-1351.314943358604
 30
0.0
 11
-890.8617739969601
 21
-1351.314943358604
 31
0.0
  0
LINE
  5
285AD
330
18
100
AcDbEntity
  8
0
  6
CONTINUOUS
 62
     7
100
AcDbLine
 10
-892.843894034039
 20
-1348.064943358604
 30
0.0
 11
-892.104773892415
 21
-1348.064943358604
 31
0.0
  0
ARC
  5
285AE
330
18
100
AcDbEntity
  8
0
  6
CONTINUOUS
 62
     7
100
AcDbCircle
 10
-892.104773892415
 20
-1349.064943358604
 30
0.0
 40
0.9999999999999994
100
AcDbArc
 50
16.95776512452265
 51
90.00000307046372
  0
ARC
  5
285AF
330
18
100
AcDbEntity
  8
0
  6
CONTINUOUS
 62
     7
100
AcDbCircle
 10
-897.8438940340389
 20
-1350.814943358604
 30
0.0
 40
6.999999999999992
100
AcDbArc
 50
343.0422379459656
 51
16.95776512452265
  0
LINE
  5
285B0
330
18
100
AcDbEntity
  8
0
  6
CONTINUOUS
 62
     7
100
AcDbLine
 10
-892.843894034039
 20
-1346.564943358604
 30
0.0
 11
-892.843894034039
 21
-1355.064943358604
 31
0.0
  0
LINE
  5
285B1
330
18
100
AcDbEntity
  8
0
  6
CONTINUOUS
 62
     7
100
AcDbLine
 10
-887.643894034039
 20
-1346.564943358604
 30
0.0
 11
-888.3060971261672
 21
-1354.605980905874
 31
0.0
  0
ARC
  5
285B2
330
18
100
AcDbEntity
  8
0
  6
CONTINUOUS
 62
     7
100
AcDbCircle
 10
-884.8971044314962
 20
-1343.064943358604
 30
0.0
 40
0.6
100
AcDbArc
 50
359.999998464755
 51
90.0
  0
ARC
  5
285B3
330
18
100
AcDbEntity
  8
0
  6
CONTINUOUS
 62
     7
100
AcDbCircle
 10
-885.6251076458084
 20
-1341.464943358603
 30
0.0
 40
1.0
100
AcDbArc
 50
168.8806775197283
 51
270.0
  0
LINE
  5
285B4
330
18
100
AcDbEntity
  8
0
  6
CONTINUOUS
 62
     7
100
AcDbLine
 10
-884.2971044314969
 20
-1343.064943358604
 30
0.0
 11
-884.2971044314969
 21
-1344.864943358604
 31
0.0
  0
LINE
  5
285B7
330
18
100
AcDbEntity
  8
細線
  6
CONTINUOUS
100
AcDbLine
 10
-831.2380172059896
 20
-1502.219685013876
 30
0.0
 11
-831.6885589907437
 21
-1504.484711521224
 31
0.0
  0
LINE
  5
285B8
330
18
100
AcDbEntity
  8
細線
  6
CONTINUOUS
100
AcDbLine
 10
-832.9743167768734
 20
-1500.696990625779
 30
0.0
 11
-831.2380171864802
 21
-1502.219684915799
 31
0.0
  0
CIRCLE
  5
285B9
330
18
100
AcDbEntity
  8
細線
  6
CONTINUOUS
100
AcDbCircle
 10
-833.4248586591733
 20
-1502.962017623518
 30
0.0
 40
3.749999999999991
  0
LINE
  5
285BA
330
18
100
AcDbEntity
  8
細線
  6
CONTINUOUS
100
AcDbLine
 10
-831.6885590102533
 20
-1504.484711619305
 30
0.0
 11
-833.875400541472
 21
-1505.227044621261
 31
0.0
  0
LINE
  5
285BB
330
18
100
AcDbEntity
  8
細線
  6
CONTINUOUS
100
AcDbLine
 10
-835.1611583276026
 20
-1501.439323725812
 30
0.0
 11
-835.6117001123571
 21
-1503.704350233161
 31
0.0
  0
LINE
  5
285BC
330
18
100
AcDbEntity
  8
細線
  6
CONTINUOUS
100
AcDbLine
 10
-833.875400443927
 20
-1505.227044130867
 30
0.0
 11
-835.6117010346151
 21
-1503.704349743836
 31
0.0
  0
LINE
  5
285BD
330
18
100
AcDbEntity
  8
細線
  6
CONTINUOUS
100
AcDbLine
 10
-832.9743168744185
 20
-1500.69699111617
 30
0.0
 11
-835.1611593669147
 21
-1501.439323824958
 31
0.0
  0
CIRCLE
  5
285BE
330
18
100
AcDbEntity
  8
実線
100
AcDbCircle
 10
-814.5364266444286
 20
-1457.361308881596
 30
0.0
 40
4.75
  0
LINE
  5
285BF
330
18
100
AcDbEntity
  8
細線
  6
CONTINUOUS
100
AcDbLine
 10
-813.2533921927223
 20
-1455.441112127475
 30
0.0
 11
-815.5578496413212
 21
-1455.290069732367
 31
0.0
  0
LINE
  5
285C0
330
18
100
AcDbEntity
  8
細線
  6
CONTINUOUS
100
AcDbLine
 10
-815.8194610961341
 20
-1459.281505635718
 30
0.0
 11
-816.8408837596851
 21
-1457.210265987606
 31
0.0
  0
LINE
  5
285C1
330
18
100
AcDbEntity
  8
細線
  6
CONTINUOUS
100
AcDbLine
 10
-812.2319701939709
 20
-1457.512350970574
 30
0.0
 11
-813.5150046456764
 21
-1459.432547724696
 31
0.0
  0
LINE
  5
285C2
330
18
100
AcDbEntity
  8
細線
  6
CONTINUOUS
100
AcDbLine
 10
-813.515004701234
 20
-1459.432547807842
 30
0.0
 11
-815.8194613739187
 21
-1459.281506051452
 31
0.0
  0
CIRCLE
  5
285C3
330
18
100
AcDbEntity
  8
細線
  6
CONTINUOUS
100
AcDbCircle
 10
-814.5364266444286
 20
-1457.361308881596
 30
0.0
 40
3.749999999999991
  0
CIRCLE
  5
285C4
330
18
100
AcDbEntity
  8
細線
  6
CONTINUOUS
100
AcDbCircle
 10
-814.5364266444286
 20
-1457.361308881596
 30
0.0
 40
4.25
  0
LINE
  5
285C5
330
18
100
AcDbEntity
  8
細線
  6
CONTINUOUS
100
AcDbLine
 10
-813.2533919149373
 20
-1455.44111171174
 30
0.0
 11
-812.2319701384135
 21
-1457.512350887428
 31
0.0
  0
LINE
  5
285C6
330
18
100
AcDbEntity
  8
細線
  6
CONTINUOUS
100
AcDbLine
 10
-815.5578486431807
 20
-1455.290070038496
 30
0.0
 11
-816.8408830948862
 21
-1457.210266792617
 31
0.0
  0
LINE
  5
285CA
330
18
100
AcDbEntity
  8
0
  6
CONTINUOUS
 62
     7
100
AcDbLine
 10
-890.9011730029988
 20
-1313.064943358603
 30
0.0
 11
-894.4293107495322
 21
-1313.064943358604
 31
0.0
  0
LINE
  5
285CB
330
18
100
AcDbEntity
  8
0
  6
CONTINUOUS
 62
     7
100
AcDbLine
 10
-902.8599501296827
 20
-1313.064943358604
 30
0.0
 11
-898.8438940340389
 21
-1313.064943358604
 31
0.0
  0
LINE
  5
285CC
330
18
100
AcDbEntity
  8
0
  6
CONTINUOUS
 62
     7
100
AcDbLine
 10
-894.827837938395
 20
-1313.064943358604
 30
0.0
 11
-898.8438940340392
 21
-1313.064943358604
 31
0.0
  0
ARC
  5
285CD
330
18
100
AcDbEntity
  8
0
  6
CONTINUOUS
 62
     7
100
AcDbCircle
 10
-898.8757454048924
 20
-1306.882640616787
 30
0.0
 40
0.8183400102169567
100
AcDbArc
 50
87.76937739093389
 51
181.2391622102616
  0
ARC
  5
285CE
330
18
100
AcDbEntity
  8
0
  6
CONTINUOUS
 62
     7
100
AcDbCircle
 10
-898.8120426631864
 20
-1306.882640616787
 30
0.0
 40
0.8183400102169567
100
AcDbArc
 50
358.7608377897383
 51
92.23062260906614
  0
ARC
  5
285CF
330
18
100
AcDbEntity
  8
0
  6
CONTINUOUS
 62
     7
100
AcDbCircle
 10
-903.0592137241143
 20
-1306.914246929262
 30
0.0
 40
0.8493035706585981
100
AcDbArc
 50
0.5559170158616045
 51
179.4440829841381
  0
ARC
  5
285D0
330
18
100
AcDbEntity
  8
0
  6
CONTINUOUS
 62
     7
100
AcDbCircle
 10
-894.628574343964
 20
-1306.914246929262
 30
0.0
 40
0.8493035706585981
100
AcDbArc
 50
0.5559170158616045
 51
179.4440829841381
  0
LINE
  5
285D1
330
18
100
AcDbEntity
  8
0
  6
CONTINUOUS
 62
     7
100
AcDbLine
 10
-899.6938940340386
 20
-1306.906006643663
 30
0.0
 11
-899.6938940340386
 21
-1313.064943358604
 31
0.0
  0
LINE
  5
285D2
330
18
100
AcDbEntity
  8
0
  6
CONTINUOUS
 62
     7
100
AcDbLine
 10
-895.4778379383958
 20
-1306.906006643663
 30
0.0
 11
-895.4778379383958
 21
-1313.064943358604
 31
0.0
  0
LINE
  5
285D3
330
18
100
AcDbEntity
  8
0
  6
CONTINUOUS
 62
     7
100
AcDbLine
 10
-893.7793107495323
 20
-1306.906006643663
 30
0.0
 11
-893.7793107495323
 21
-1313.064943358604
 31
0.0
  0
LINE
  5
285D4
330
18
100
AcDbEntity
  8
0
  6
CONTINUOUS
 62
     7
100
AcDbLine
 10
-897.9938940340392
 20
-1306.906006643663
 30
0.0
 11
-897.9938940340392
 21
-1313.064943358604
 31
0.0
  0
LINE
  5
285D5
330
18
100
AcDbEntity
  8
0
  6
CONTINUOUS
 62
     7
100
AcDbLine
 10
-903.9084773185457
 20
-1306.906006643663
 30
0.0
 11
-903.9084773185457
 21
-1313.064943358604
 31
0.0
  0
LINE
  5
285D6
330
18
100
AcDbEntity
  8
0
  6
CONTINUOUS
 62
     7
100
AcDbLine
 10
-902.209950129683
 20
-1306.906006643663
 30
0.0
 11
-902.209950129683
 21
-1313.064943358604
 31
0.0
  0
LINE
  5
285D7
330
18
100
AcDbEntity
  8
0
  6
CONTINUOUS
 62
     7
100
AcDbLine
 10
-881.8438940340392
 20
-1313.064943358603
 30
0.0
 11
-882.6688513357076
 21
-1313.064943358603
 31
0.0
  0
ARC
  5
285D8
330
18
100
AcDbEntity
  8
0
  6
CONTINUOUS
 62
     7
100
AcDbCircle
 10
-883.0438940340396
 20
-1313.964943358603
 30
0.0
 40
1.199999999999999
100
AcDbArc
 50
270.0
 51
0.0000015352188321
  0
LINE
  5
285D9
330
18
100
AcDbEntity
  8
0
  6
CONTINUOUS
 62
     7
100
AcDbLine
 10
-883.4938940340387
 20
-1316.064943358604
 30
0.0
 11
-883.4938940340387
 21
-1325.436115216532
 31
0.0
  0
LINE
  5
285DA
330
18
100
AcDbEntity
  8
0
  6
CONTINUOUS
 62
     7
100
AcDbLine
 10
-885.192483872526
 20
-1316.064943358604
 30
0.0
 11
-884.9388940340396
 21
-1315.625712874062
 31
0.0
  0
LINE
  5
285DB
330
18
100
AcDbEntity
  8
0
  6
CONTINUOUS
 62
     7
100
AcDbLine
 10
-884.9388940340391
 20
-1315.664943358604
 30
0.0
 11
-884.9388940340391
 21
-1316.064943358604
 31
0.0
  0
ARC
  5
285DC
330
18
100
AcDbEntity
  8
0
  6
CONTINUOUS
 62
     7
100
AcDbCircle
 10
-884.4388940340392
 20
-1315.664943358604
 30
0.0
 40
0.5
100
AcDbArc
 50
89.99999692953627
 51
179.9999984647551
  0
LINE
  5
285DD
330
18
100
AcDbEntity
  8
0
  6
CONTINUOUS
 62
     7
100
AcDbLine
 10
-884.8336201527283
 20
-1313.064943358603
 30
0.0
 11
-887.074269086294
 21
-1313.064943358603
 31
0.0
  0
LINE
  5
285DE
330
18
100
AcDbEntity
  8
0
  6
CONTINUOUS
 62
     7
100
AcDbLine
 10
-887.4805838549216
 20
-1313.064943358603
 30
0.0
 11
-890.4998704462451
 21
-1313.064943358603
 31
0.0
  0
LINE
  5
285DF
330
18
100
AcDbEntity
  8
0
  6
CONTINUOUS
 62
     7
100
AcDbLine
 10
-883.0296461385442
 20
-1313.064943358603
 30
0.0
 11
-884.4728253498912
 21
-1313.064943358603
 31
0.0
  0
ARC
  5
285E0
330
18
100
AcDbEntity
  8
0
  6
CONTINUOUS
 62
     7
100
AcDbCircle
 10
-882.9331510284275
 20
-1306.864943358603
 30
0.0
 40
0.8
100
AcDbArc
 50
50.39471799364542
 51
129.0773497939099
  0
ARC
  5
285E1
330
18
100
AcDbEntity
  8
0
  6
CONTINUOUS
 62
     7
100
AcDbCircle
 10
-883.1438940340396
 20
-1305.564943358603
 30
0.0
 40
0.5
100
AcDbArc
 50
0.0000015352188321
 51
89.99999692953627
  0
LINE
  5
285E2
330
18
100
AcDbEntity
  8
0
  6
CONTINUOUS
 62
     7
100
AcDbLine
 10
-882.6438940340395
 20
-1305.564943358603
 30
0.0
 11
-882.6438940340395
 21
-1306.11906777166
 31
0.0
  0
ARC
  5
285E3
330
18
100
AcDbEntity
  8
0
  6
CONTINUOUS
 62
     7
100
AcDbCircle
 10
-882.6438940340395
 20
-1306.864943358603
 30
0.0
 40
0.8
100
AcDbArc
 50
0.0000015352188321
 51
89.99999692953627
  0
LINE
  5
285E4
330
18
100
AcDbEntity
  8
細線
 48
0.5
100
AcDbLine
 10
-884.477355572501
 20
-1303.564943358603
 30
0.0
 11
-883.9388940340397
 21
-1304.497586101141
 31
0.0
  0
ARC
  5
285E5
330
18
100
AcDbEntity
  8
0
  6
CONTINUOUS
 62
     7
100
AcDbCircle
 10
-887.2774264706082
 20
-1306.800679092044
 30
0.0
 40
0.7357357334403975
100
AcDbArc
 50
8.230715439331017
 51
171.7692845606688
  0
ARC
  5
285E6
330
18
100
AcDbEntity
  8
0
  6
CONTINUOUS
 62
     7
100
AcDbCircle
 10
-884.6079554281546
 20
-1306.864943358603
 30
0.0
 40
0.8
100
AcDbArc
 50
42.66699042075922
 51
144.4211152574978
  0
ARC
  5
285E7
330
18
100
AcDbEntity
  8
0
  6
CONTINUOUS
 62
     7
100
AcDbCircle
 10
-890.700521724622
 20
-1306.864943358603
 30
0.0
 40
0.8
100
AcDbArc
 50
8.767841092515753
 51
171.232158907484
  0
LINE
  5
285E8
330
18
100
AcDbEntity
  8
0
  6
CONTINUOUS
 62
     7
100
AcDbLine
 10
-884.7388940340398
 20
-1298.064943358603
 30
0.0
 11
-883.9388940340397
 21
-1298.864943358603
 31
0.0
  0
LINE
  5
285E9
330
18
100
AcDbEntity
  8
0
  6
CONTINUOUS
 62
     7
100
AcDbLine
 10
-883.9388940340397
 20
-1305.064943358603
 30
0.0
 11
-883.9388940340397
 21
-1298.864943358603
 31
0.0
  0
LINE
  5
285EA
330
18
100
AcDbEntity
  8
細線
 48
0.5
100
AcDbLine
 10
-884.477355572501
 20
-1303.564943358603
 30
0.0
 11
-884.477355572501
 21
-1298.326481820142
 31
0.0
  0
LINE
  5
285EB
330
18
100
AcDbEntity
  8
0
  6
CONTINUOUS
 62
     7
100
AcDbLine
 10
-881.8438940340392
 20
-1313.964943358603
 30
0.0
 11
-881.8438940340397
 21
-1306.864943358603
 31
0.0
  0
LINE
  5
285EC
330
18
100
AcDbEntity
  8
0
  6
CONTINUOUS
 62
     7
100
AcDbLine
 10
-882.4231549871253
 20
-1306.248579798799
 30
0.0
 11
-882.4231549871253
 21
-1313.064943358603
 31
0.0
  0
LINE
  5
285ED
330
18
100
AcDbEntity
  8
0
  6
CONTINUOUS
 62
     7
100
AcDbLine
 10
-884.0197112639613
 20
-1306.322754458595
 30
0.0
 11
-884.0197112639609
 21
-1313.064943358603
 31
0.0
  0
LINE
  5
285EE
330
18
100
AcDbEntity
  8
0
  6
CONTINUOUS
 62
     7
100
AcDbLine
 10
-883.4374462312606
 20
-1306.243906847277
 30
0.0
 11
-883.4374462312606
 21
-1313.064943358603
 31
0.0
  0
LINE
  5
285EF
330
18
100
AcDbEntity
  8
0
  6
CONTINUOUS
 62
     7
100
AcDbLine
 10
-891.491173002999
 20
-1306.742998469408
 30
0.0
 11
-891.491173002999
 21
-1313.064943358603
 31
0.0
  0
LINE
  5
285F0
330
18
100
AcDbEntity
  8
0
  6
CONTINUOUS
 62
     7
100
AcDbLine
 10
-889.9098704462454
 20
-1306.742998469408
 30
0.0
 11
-889.9098704462447
 21
-1313.064943358603
 31
0.0
  0
LINE
  5
285F1
330
18
100
AcDbEntity
  8
0
  6
CONTINUOUS
 62
     7
100
AcDbLine
 10
-888.0055838549221
 20
-1306.695351540424
 30
0.0
 11
-888.0055838549221
 21
-1313.064943358603
 31
0.0
  0
LINE
  5
285F2
330
18
100
AcDbEntity
  8
0
  6
CONTINUOUS
 62
     7
100
AcDbLine
 10
-885.2586076343975
 20
-1306.39948476054
 30
0.0
 11
-885.2586076343975
 21
-1313.064943358603
 31
0.0
  0
LINE
  5
285F3
330
18
100
AcDbEntity
  8
0
  6
CONTINUOUS
 62
     7
100
AcDbLine
 10
-886.5492690862939
 20
-1313.064943358603
 30
0.0
 11
-886.5492690862939
 21
-1306.695351540424
 31
0.0
  0
ARC
  5
285F5
330
18
100
AcDbEntity
  8
中心線
 48
2.0
100
AcDbCircle
 10
-709.3555206882008
 20
-1527.640943358586
 30
0.0
 40
53.0
100
AcDbArc
 50
57.7958844250239
 51
103.7395454799889
  0
CIRCLE
  5
285F6
102
{ACAD_REACTORS
330
288CC
102
}
330
18
100
AcDbEntity
  8
0
100
AcDbCircle
 10
-709.3555167518225
 20
-1474.640949737822
 30
0.0
 40
3.2
  0
LWPOLYLINE
  5
285F7
102
{ACAD_REACTORS
330
288CC
102
}
330
18
100
AcDbEntity
  8
0
100
AcDbPolyline
 90
        6
 70
   129
 43
0.0
 10
-698.3555206881654
 20
-1468.29009022556
 10
-709.3555206881656
 20
-1461.939237264473
 10
-720.3555206881656
 20
-1468.29009022556
 10
-720.3555206881656
 20
-1480.991796147732
 10
-709.3555206881656
 20
-1487.342649108818
 10
-698.3555206881654
 20
-1480.991796147732
  0
CIRCLE
  5
285F8
102
{ACAD_REACTORS
330
288CC
102
}
330
18
100
AcDbEntity
  8
0
100
AcDbCircle
 10
-709.3555206881656
 20
-1474.640943186646
 30
0.0
 40
7.099714100902929
  0
CIRCLE
  5
285F9
102
{ACAD_REACTORS
330
288CC
102
}
330
18
100
AcDbEntity
  8
0
100
AcDbCircle
 10
-709.3555206881656
 20
-1474.640943186646
 30
0.0
 40
10.05022988573726
  0
CIRCLE
  5
285FA
102
{ACAD_REACTORS
330
288CC
102
}
330
18
100
AcDbEntity
  8
0
100
AcDbCircle
 10
-709.3555266734481
 20
-1474.640948779321
 30
0.0
 40
3.2
  0
CIRCLE
  5
285FC
102
{ACAD_REACTORS
330
288CC
102
}
330
18
100
AcDbEntity
  8
0
100
AcDbCircle
 10
-709.3555206881656
 20
-1474.640943186646
 30
0.0
 40
3.250498559999674
  0
HATCH
  5
285FD
102
{ACAD_REACTORS
330
288CC
102
}
330
18
100
AcDbEntity
  8
0
100
AcDbHatch
 10
0.0
 20
0.0
 30
0.0
210
0.0
220
0.0
230
1.0
  2
SOLID
 70
     1
 71
     0
 91
        2
 92
        7
 72
     1
 73
     1
 93
        3
 10
-709.3555206881656
 20
-1471.390444626646
 42
0.0
 10
-709.3555206881656
 20
-1474.640943186646
 42
0.0
 10
-712.6060192481657
 20
-1474.640943186646
 42
-0.4142135623730913
 97
        0
 92
        7
 72
     1
 73
     1
 93
        3
 10
-709.3555206881656
 20
-1474.640943186646
 42
0.0
 10
-706.1050221281668
 20
-1474.640943186646
 42
-0.4142135623730913
 10
-709.3555206881656
 20
-1477.891441746645
 42
0.0
 97
        0
 75
     0
 76
     1
 47
0.0093541955041491
 98
        2
 10
-710.9608323657107
 20
-1473.380051001003
 10
-708.457854231536
 20
-1476.135577586163
  0
LINE
  5
28601
330
18
100
AcDbEntity
  8
細線
  6
CONTINUOUS
100
AcDbLine
 10
-777.7149584110145
 20
-1421.177002950614
 30
0.0
 11
-779.7861980591258
 21
-1420.155580287064
 31
0.0
  0
CIRCLE
  5
28602
330
18
100
AcDbEntity
  8
実線
100
AcDbCircle
 10
-779.6351551651357
 20
-1422.460037402321
 30
0.0
 40
4.75
  0
CIRCLE
  5
28603
330
18
100
AcDbEntity
  8
細線
  6
CONTINUOUS
100
AcDbCircle
 10
-779.6351551651357
 20
-1422.460037402321
 30
0.0
 40
3.749999999999991
  0
CIRCLE
  5
28604
330
18
100
AcDbEntity
  8
細線
  6
CONTINUOUS
100
AcDbCircle
 10
-779.6351551651357
 20
-1422.460037402321
 30
0.0
 40
4.25
  0
LINE
  5
28605
330
18
100
AcDbEntity
  8
細線
  6
CONTINUOUS
100
AcDbLine
 10
-779.7861972541149
 20
-1420.155580951863
 30
0.0
 11
-781.7063940082362
 21
-1421.438615403569
 31
0.0
  0
LINE
  5
28606
330
18
100
AcDbEntity
  8
中心線
100
AcDbLine
 10
-760.9805206882136
 20
-1438.223820417889
 30
0.0
 11
-770.230520688213
 21
-1422.202350447876
 31
0.0
  0
CIRCLE
  5
28607
330
18
100
AcDbEntity
  8
実線
100
AcDbCircle
 10
-765.6055206882129
 20
-1430.213085432883
 30
0.0
 40
4.25
  0
CIRCLE
  5
28608
330
18
100
AcDbEntity
  8
細線
 48
0.5
100
AcDbCircle
 10
-765.6055206882129
 20
-1430.213085432883
 30
0.0
 40
5.0
  0
LINE
  5
28609
330
18
100
AcDbEntity
  8
細線
  6
CONTINUOUS
100
AcDbLine
 10
-777.5639163220366
 20
-1423.481459401072
 30
0.0
 11
-779.4841130761574
 21
-1424.764493852778
 31
0.0
  0
LINE
  5
2860A
330
18
100
AcDbEntity
  8
細線
  6
CONTINUOUS
100
AcDbLine
 10
-777.7149579952801
 20
-1421.17700267283
 30
0.0
 11
-777.5639162388893
 21
-1423.481459345516
 31
0.0
  0
LINE
  5
2860B
330
18
100
AcDbEntity
  8
細線
  6
CONTINUOUS
100
AcDbLine
 10
-781.5553519192572
 20
-1423.743071854027
 30
0.0
 11
-781.7063943143652
 21
-1421.438614405428
 31
0.0
  0
LINE
  5
2860C
330
18
100
AcDbEntity
  8
細線
  6
CONTINUOUS
100
AcDbLine
 10
-779.4841131593048
 20
-1424.764493908336
 30
0.0
 11
-781.5553523349913
 21
-1423.743072131812
 31
0.0
  0
ARC
  5
28610
102
{ACAD_REACTORS
330
288C9
102
}
330
18
100
AcDbEntity
  8
細線
100
AcDbCircle
 10
-752.1799152102056
 20
-1477.568529987137
 30
0.0
 40
0.5
100
AcDbArc
 50
297.3463876628238
 51
32.65361233717568
  0
ARC
  5
28611
102
{ACAD_REACTORS
330
288C9
102
}
330
18
100
AcDbEntity
  8
細線
100
AcDbCircle
 10
-751.4162398865244
 20
-1476.804854663455
 30
0.0
 40
0.5
100
AcDbArc
 50
237.3463876628238
 51
332.6536123371758
  0
ARC
  5
28612
102
{ACAD_REACTORS
330
288C9
102
}
330
18
100
AcDbEntity
  8
細線
100
AcDbCircle
 10
-751.900390641495
 20
-1478.611729879529
 30
0.0
 40
0.5
100
AcDbArc
 50
357.3463876628238
 51
92.65361233717579
  0
ARC
  5
28613
102
{ACAD_REACTORS
330
288C9
102
}
330
18
100
AcDbEntity
  8
細線
100
AcDbCircle
 10
-750.3730399941319
 20
-1477.084379232166
 30
0.0
 40
0.5
100
AcDbArc
 50
177.3463876628239
 51
272.6536123371756
  0
CIRCLE
  5
28614
102
{ACAD_REACTORS
330
288C9
102
}
330
18
100
AcDbEntity
  8
細線
100
AcDbCircle
 10
-751.1367153178135
 20
-1477.848054555845
 30
0.0
 40
0.8299999999999998
  0
ARC
  5
28615
102
{ACAD_REACTORS
330
288C9
102
}
330
18
100
AcDbEntity
  8
細線
100
AcDbCircle
 10
-750.0935154254213
 20
-1478.127579124558
 30
0.0
 40
0.5
100
AcDbArc
 50
117.3463876628239
 51
212.6536123371756
  0
ARC
  5
28616
102
{ACAD_REACTORS
330
288C9
102
}
330
18
100
AcDbEntity
  8
細線
100
AcDbCircle
 10
-750.8571907491029
 20
-1478.89125444824
 30
0.0
 40
0.5
100
AcDbArc
 50
57.34638766282399
 51
152.6536123371758
  0
CIRCLE
  5
28617
102
{ACAD_REACTORS
330
288C9
102
}
330
18
100
AcDbEntity
  8
細線
100
AcDbCircle
 10
-751.1367153178135
 20
-1477.848054555845
 30
0.0
 40
3.5
  0
CIRCLE
  5
28618
330
18
100
AcDbEntity
  8
細線
100
AcDbCircle
 10
-751.1367153178261
 20
-1477.848054555852
 30
0.0
 40
1.5
  0
LINE
  5
28619
330
18
100
AcDbEntity
  8
細線
  6
CONTINUOUS
100
AcDbLine
 10
-731.7694199158536
 20
-1403.121063602847
 30
0.0
 11
-733.2921143028864
 21
-1401.38476301216
 31
0.0
  0
LINE
  5
2861A
330
18
100
AcDbEntity
  8
細線
  6
CONTINUOUS
100
AcDbLine
 10
-732.5117525254959
 20
-1405.307905056029
 30
0.0
 11
-734.7767790328439
 21
-1405.758446840785
 31
0.0
  0
CIRCLE
  5
2861B
330
18
100
AcDbEntity
  8
実線
100
AcDbCircle
 10
-734.0344464232025
 20
-1403.5716053876
 30
0.0
 40
4.75
  0
CIRCLE
  5
2861C
330
18
100
AcDbEntity
  8
細線
  6
CONTINUOUS
100
AcDbCircle
 10
-734.0344464232025
 20
-1403.5716053876
 30
0.0
 40
3.749999999999991
  0
CIRCLE
  5
2861D
330
18
100
AcDbEntity
  8
細線
  6
CONTINUOUS
100
AcDbCircle
 10
-734.0344464232025
 20
-1403.5716053876
 30
0.0
 40
4.25
  0
LINE
  5
28621
330
18
100
AcDbEntity
  8
細線
  6
CONTINUOUS
100
AcDbLine
 10
-734.7767791309227
 20
-1405.758446860293
 30
0.0
 11
-736.2994734209427
 21
-1404.022147269901
 31
0.0
  0
LINE
  5
28622
330
18
100
AcDbEntity
  8
細線
  6
CONTINUOUS
100
AcDbLine
 10
-733.2921138135601
 20
-1401.384763934418
 30
0.0
 11
-735.557140320908
 21
-1401.835305719172
 31
0.0
  0
LINE
  5
28623
330
18
100
AcDbEntity
  8
細線
  6
CONTINUOUS
100
AcDbLine
 10
-736.2994729305505
 20
-1404.022147172356
 30
0.0
 11
-735.5571402217638
 21
-1401.83530467986
 31
0.0
  0
LINE
  5
28624
330
18
100
AcDbEntity
  8
細線
  6
CONTINUOUS
100
AcDbLine
 10
-731.7694194254612
 20
-1403.121063505302
 30
0.0
 11
-732.5117524274166
 21
-1405.307905036521
 31
0.0
  0
CIRCLE
  5
28627
102
{ACAD_REACTORS
330
288C8
102
}
330
18
100
AcDbEntity
  8
細線
100
AcDbCircle
 10
-659.5626318854583
 20
-1485.859748728963
 30
0.0
 40
3.5
  0
CIRCLE
  5
28628
330
18
100
AcDbEntity
  8
細線
100
AcDbCircle
 10
-659.5626318854672
 20
-1485.85974872896
 30
0.0
 40
1.5
  0
ARC
  5
2862A
102
{ACAD_REACTORS
330
288C8
102
}
330
18
100
AcDbEntity
  8
細線
100
AcDbCircle
 10
-659.2831073167477
 20
-1484.816548836572
 30
0.0
 40
0.5
100
AcDbArc
 50
207.346387662824
 51
302.6536123371756
  0
ARC
  5
2862B
102
{ACAD_REACTORS
330
288C8
102
}
330
18
100
AcDbEntity
  8
細線
100
AcDbCircle
 10
-658.5194319930662
 20
-1485.580224160254
 30
0.0
 40
0.5
100
AcDbArc
 50
147.346387662824
 51
242.6536123371757
  0
ARC
  5
2862C
102
{ACAD_REACTORS
330
288C8
102
}
330
18
100
AcDbEntity
  8
細線
100
AcDbCircle
 10
-660.32630720914
 20
-1485.096073405282
 30
0.0
 40
0.5
100
AcDbArc
 50
267.3463876628239
 51
2.653612337175799
  0
ARC
  5
2862D
102
{ACAD_REACTORS
330
288C8
102
}
330
18
100
AcDbEntity
  8
細線
100
AcDbCircle
 10
-658.7989565617768
 20
-1486.623424052646
 30
0.0
 40
0.5
100
AcDbArc
 50
87.34638766282404
 51
182.6536123371755
  0
CIRCLE
  5
2862E
102
{ACAD_REACTORS
330
288C8
102
}
330
18
100
AcDbEntity
  8
細線
100
AcDbCircle
 10
-659.5626318854583
 20
-1485.859748728963
 30
0.0
 40
0.8299999999999998
  0
ARC
  5
2862F
102
{ACAD_REACTORS
330
288C8
102
}
330
18
100
AcDbEntity
  8
細線
100
AcDbCircle
 10
-659.8421564541691
 20
-1486.902948621357
 30
0.0
 40
0.5
100
AcDbArc
 50
27.34638766282401
 51
122.6536123371757
  0
ARC
  5
28630
102
{ACAD_REACTORS
330
288C8
102
}
330
18
100
AcDbEntity
  8
細線
100
AcDbCircle
 10
-660.6058317778509
 20
-1486.139273297673
 30
0.0
 40
0.5
100
AcDbArc
 50
327.346387662824
 51
62.65361233717582
  0
CIRCLE
  5
28631
330
18
100
AcDbEntity
  8
細線
  6
CONTINUOUS
100
AcDbCircle
 10
-684.6765949531336
 20
-1403.571605387614
 30
0.0
 40
3.749999999999991
  0
LINE
  5
28632
330
18
100
AcDbEntity
  8
細線
  6
CONTINUOUS
100
AcDbLine
 10
-682.4115679553933
 20
-1404.022147269913
 30
0.0
 11
-683.9342622454137
 21
-1405.758446860306
 31
0.0
  0
LINE
  5
28633
330
18
100
AcDbEntity
  8
細線
  6
CONTINUOUS
100
AcDbLine
 10
-682.4115684457856
 20
-1404.022147172367
 30
0.0
 11
-683.1539011545729
 21
-1401.835304679872
 31
0.0
  0
CIRCLE
  5
28634
330
18
100
AcDbEntity
  8
細線
  6
CONTINUOUS
100
AcDbCircle
 10
-684.6765949531336
 20
-1403.571605387614
 30
0.0
 40
4.25
  0
CIRCLE
  5
28635
330
18
100
AcDbEntity
  8
実線
100
AcDbCircle
 10
-684.6765949531336
 20
-1403.571605387614
 30
0.0
 40
4.75
  0
LINE
  5
28636
330
18
100
AcDbEntity
  8
細線
  6
CONTINUOUS
100
AcDbLine
 10
-686.1992889489193
 20
-1405.307905036533
 30
0.0
 11
-686.9416219508752
 21
-1403.121063505315
 31
0.0
  0
LINE
  5
28637
330
18
100
AcDbEntity
  8
細線
  6
CONTINUOUS
100
AcDbLine
 10
-683.1539010554275
 20
-1401.835305719184
 30
0.0
 11
-685.4189275627759
 21
-1401.384763934428
 31
0.0
  0
LINE
  5
28638
330
18
100
AcDbEntity
  8
細線
  6
CONTINUOUS
100
AcDbLine
 10
-686.941621460483
 20
-1403.12106360286
 30
0.0
 11
-685.4189270734504
 21
-1401.384763012171
 31
0.0
  0
LINE
  5
28639
330
18
100
AcDbEntity
  8
細線
  6
CONTINUOUS
100
AcDbLine
 10
-683.9342623434922
 20
-1405.758446840797
 30
0.0
 11
-686.1992888508407
 21
-1405.307905056043
 31
0.0
  0
CIRCLE
  5
2863A
330
18
100
AcDbEntity
  8
実線
100
AcDbCircle
 10
-639.0758862112102
 20
-1422.460037402358
 30
0.0
 40
4.75
  0
CIRCLE
  5
2863B
330
18
100
AcDbEntity
  8
細線
  6
CONTINUOUS
100
AcDbCircle
 10
-639.0758862112102
 20
-1422.460037402358
 30
0.0
 40
3.749999999999991
  0
LINE
  5
2863C
330
18
100
AcDbEntity
  8
細線
  6
CONTINUOUS
100
AcDbLine
 10
-637.0046473681107
 20
-1421.438615403605
 30
0.0
 11
-638.9248441222315
 21
-1420.1555809519
 31
0.0
  0
LINE
  5
2863D
330
18
100
AcDbEntity
  8
細線
  6
CONTINUOUS
100
AcDbLine
 10
-640.9960829653321
 20
-1421.177002950653
 30
0.0
 11
-638.9248433172215
 21
-1420.155580287101
 31
0.0
  0
CIRCLE
  5
2863E
330
18
100
AcDbEntity
  8
細線
  6
CONTINUOUS
100
AcDbCircle
 10
-639.0758862112102
 20
-1422.460037402358
 30
0.0
 40
4.25
  0
CIRCLE
  5
2863F
330
18
100
AcDbEntity
  8
実線
100
AcDbCircle
 10
-653.1055206882492
 20
-1430.213085432883
 30
0.0
 40
4.25
  0
CIRCLE
  5
28640
330
18
100
AcDbEntity
  8
細線
 48
0.5
100
AcDbCircle
 10
-653.1055206882492
 20
-1430.213085432883
 30
0.0
 40
5.0
  0
LINE
  5
28641
330
18
100
AcDbEntity
  8
中心線
100
AcDbLine
 10
-657.7305206881773
 20
-1438.22382041789
 30
0.0
 11
-648.480520688177
 21
-1422.202350447878
 31
0.0
  0
LINE
  5
28642
330
18
100
AcDbEntity
  8
細線
  6
CONTINUOUS
100
AcDbLine
 10
-641.1471251374576
 20
-1423.481459345553
 30
0.0
 11
-640.9960833810669
 21
-1421.177002672867
 31
0.0
  0
LINE
  5
28643
330
18
100
AcDbEntity
  8
細線
  6
CONTINUOUS
100
AcDbLine
 10
-637.1556890413552
 20
-1423.743072131848
 30
0.0
 11
-639.2269282170428
 21
-1424.764493908373
 31
0.0
  0
LINE
  5
28644
330
18
100
AcDbEntity
  8
細線
  6
CONTINUOUS
100
AcDbLine
 10
-639.2269283001898
 20
-1424.764493852815
 30
0.0
 11
-641.1471250543107
 21
-1423.481459401109
 31
0.0
  0
LINE
  5
28645
330
18
100
AcDbEntity
  8
細線
  6
CONTINUOUS
100
AcDbLine
 10
-637.1556894570898
 20
-1423.743071854064
 30
0.0
 11
-637.0046470619817
 21
-1421.438614405465
 31
0.0
  0
CIRCLE
  5
28646
330
18
100
AcDbEntity
  8
実線
100
AcDbCircle
 10
-585.2861827172155
 20
-1502.962017623584
 30
0.0
 40
4.75
  0
CIRCLE
  5
28647
330
18
100
AcDbEntity
  8
細線
  6
CONTINUOUS
100
AcDbCircle
 10
-585.2861827172155
 20
-1502.962017623584
 30
0.0
 40
4.25
  0
CIRCLE
  5
28648
330
18
100
AcDbEntity
  8
細線
  6
CONTINUOUS
100
AcDbCircle
 10
-604.1746147319727
 20
-1597.920577835576
 30
0.0
 40
4.25
  0
LINE
  5
28649
330
18
100
AcDbEntity
  8
細線
  6
CONTINUOUS
100
AcDbLine
 10
-605.4576491836792
 20
-1599.840774589696
 30
0.0
 11
-603.1531917350799
 21
-1599.991816984804
 31
0.0
  0
LINE
  5
2864A
330
18
100
AcDbEntity
  8
細線
  6
CONTINUOUS
100
AcDbLine
 10
-603.1531927332202
 20
-1599.991816678675
 30
0.0
 11
-601.8701582815147
 21
-1598.071619924554
 31
0.0
  0
LINE
  5
2864B
330
18
100
AcDbEntity
  8
細線
  6
CONTINUOUS
100
AcDbLine
 10
-602.8915802802676
 20
-1596.000381081453
 30
0.0
 11
-601.8701576167158
 21
-1598.071620729565
 31
0.0
  0
LINE
  5
2864C
330
18
100
AcDbEntity
  8
細線
  6
CONTINUOUS
100
AcDbLine
 10
-605.4576494614638
 20
-1599.840775005429
 30
0.0
 11
-606.4790712379881
 21
-1597.769535829743
 31
0.0
  0
LINE
  5
2864D
330
18
100
AcDbEntity
  8
細線
  6
CONTINUOUS
100
AcDbLine
 10
-606.4790711824307
 20
-1597.769535746596
 30
0.0
 11
-605.1960367307251
 21
-1595.849338992475
 31
0.0
  0
CIRCLE
  5
2864E
330
18
100
AcDbEntity
  8
細線
  6
CONTINUOUS
100
AcDbCircle
 10
-604.1746147319727
 20
-1597.920577835576
 30
0.0
 40
3.749999999999991
  0
LINE
  5
2864F
330
18
100
AcDbEntity
  8
細線
  6
CONTINUOUS
100
AcDbLine
 10
-605.1960366751678
 20
-1595.849338909328
 30
0.0
 11
-602.8915800024829
 21
-1596.000380665719
 31
0.0
  0
CIRCLE
  5
28650
330
18
100
AcDbEntity
  8
実線
100
AcDbCircle
 10
-585.2861827172282
 20
-1552.319869093651
 30
0.0
 40
4.75
  0
CIRCLE
  5
28651
330
18
100
AcDbEntity
  8
細線
  6
CONTINUOUS
100
AcDbCircle
 10
-585.2861827172282
 20
-1552.319869093651
 30
0.0
 40
3.749999999999991
  0
LINE
  5
28652
330
18
100
AcDbEntity
  8
細線
  6
CONTINUOUS
100
AcDbLine
 10
-584.8356409324748
 20
-1550.054842586304
 30
0.0
 11
-583.0993403417862
 21
-1551.577536973336
 31
0.0
  0
CIRCLE
  5
28653
330
18
100
AcDbEntity
  8
細線
100
AcDbCircle
 10
-585.2861827172282
 20
-1552.319869093651
 30
0.0
 40
4.25
  0
LINE
  5
28654
330
18
100
AcDbEntity
  8
細線
  6
CONTINUOUS
100
AcDbLine
 10
-585.7367245019831
 20
-1554.584895600999
 30
0.0
 11
-583.5498820094867
 21
-1553.842562892213
 31
0.0
  0
LINE
  5
28655
330
18
100
AcDbEntity
  8
細線
  6
CONTINUOUS
100
AcDbLine
 10
-587.0224823661482
 20
-1550.797175097867
 30
0.0
 11
-584.8356408349293
 21
-1550.054842095911
 31
0.0
  0
LINE
  5
28656
330
18
100
AcDbEntity
  8
細線
  6
CONTINUOUS
100
AcDbLine
 10
-585.7367245995283
 20
-1554.584896091393
 30
0.0
 11
-587.4730241899214
 21
-1553.062201801373
 31
0.0
  0
LINE
  5
28657
330
18
100
AcDbEntity
  8
細線
  6
CONTINUOUS
100
AcDbLine
 10
-587.4730241704119
 20
-1553.062201703294
 30
0.0
 11
-587.0224823856577
 21
-1550.797175195946
 31
0.0
  0
CIRCLE
  5
28658
330
18
100
AcDbEntity
  8
実線
100
AcDbCircle
 10
-596.8555206882348
 20
-1527.6409433586
 30
0.0
 40
4.25
  0
CIRCLE
  5
28659
330
18
100
AcDbEntity
  8
細線
100
AcDbCircle
 10
-596.8555206882348
 20
-1527.6409433586
 30
0.0
 40
5.0
  0
LINE
  5
2865A
330
18
100
AcDbEntity
  8
中心線
 48
0.5
100
AcDbLine
 10
-606.7845610943025
 20
-1527.640943358586
 30
0.0
 11
-595.9264802821
 21
-1527.640943358586
 31
0.0
  0
LINE
  5
2865B
330
18
100
AcDbEntity
  8
細線
  6
CONTINUOUS
100
AcDbLine
 10
-583.5498830487989
 20
-1553.842562991359
 30
0.0
 11
-583.0993412640443
 21
-1551.57753648401
 31
0.0
  0
LINE
  5
2865C
330
18
100
AcDbEntity
  8
細線
  6
CONTINUOUS
100
AcDbLine
 10
-585.7367245019712
 20
-1500.696991116235
 30
0.0
 11
-583.5498820094747
 21
-1501.439323825022
 31
0.0
  0
LINE
  5
2865D
330
18
100
AcDbEntity
  8
細線
  6
CONTINUOUS
100
AcDbLine
 10
-584.8356409324622
 20
-1505.227044130933
 30
0.0
 11
-583.0993403417745
 21
-1503.7043497439
 31
0.0
  0
CIRCLE
  5
2865E
330
18
100
AcDbEntity
  8
細線
  6
CONTINUOUS
100
AcDbCircle
 10
-585.2861827172155
 20
-1502.962017623584
 30
0.0
 40
3.749999999999991
  0
LINE
  5
2865F
330
18
100
AcDbEntity
  8
細線
  6
CONTINUOUS
100
AcDbLine
 10
-587.4730241899087
 20
-1502.219684915863
 30
0.0
 11
-585.7367245995162
 21
-1500.696990625843
 31
0.0
  0
LINE
  5
28660
330
18
100
AcDbEntity
  8
細線
  6
CONTINUOUS
100
AcDbLine
 10
-584.8356408349172
 20
-1505.227044621325
 30
0.0
 11
-587.0224823661374
 21
-1504.484711619369
 31
0.0
  0
LINE
  5
28661
330
18
100
AcDbEntity
  8
細線
  6
CONTINUOUS
100
AcDbLine
 10
-587.0224823856456
 20
-1504.48471152129
 30
0.0
 11
-587.4730241704004
 21
-1502.219685013941
 31
0.0
  0
LINE
  5
28662
330
18
100
AcDbEntity
  8
細線
  6
CONTINUOUS
100
AcDbLine
 10
-605.4576491836437
 20
-1455.44111212753
 30
0.0
 11
-603.1531917350442
 21
-1455.290069732421
 31
0.0
  0
LINE
  5
28663
330
18
100
AcDbEntity
  8
細線
  6
CONTINUOUS
100
AcDbLine
 10
-602.8915802802316
 20
-1459.281505635772
 30
0.0
 11
-601.8701576166805
 21
-1457.210265987661
 31
0.0
  0
LINE
  5
28664
330
18
100
AcDbEntity
  8
細線
  6
CONTINUOUS
100
AcDbLine
 10
-605.1960367306892
 20
-1459.43254772475
 30
0.0
 11
-606.4790711823953
 21
-1457.512350970628
 31
0.0
  0
LINE
  5
28665
330
18
100
AcDbEntity
  8
細線
  6
CONTINUOUS
100
AcDbLine
 10
-602.891580002447
 20
-1459.281506051507
 30
0.0
 11
-605.1960366751327
 21
-1459.432547807897
 31
0.0
  0
CIRCLE
  5
28666
330
18
100
AcDbEntity
  8
細線
  6
CONTINUOUS
100
AcDbCircle
 10
-604.1746147319362
 20
-1457.361308881651
 30
0.0
 40
3.749999999999991
  0
CIRCLE
  5
28667
330
18
100
AcDbEntity
  8
細線
  6
CONTINUOUS
100
AcDbCircle
 10
-604.1746147319362
 20
-1457.361308881651
 30
0.0
 40
4.25
  0
LINE
  5
28668
330
18
100
AcDbEntity
  8
細線
  6
CONTINUOUS
100
AcDbLine
 10
-606.4790712379517
 20
-1457.512350887482
 30
0.0
 11
-605.4576494614281
 21
-1455.441111711795
 31
0.0
  0
LINE
  5
28669
330
18
100
AcDbEntity
  8
細線
  6
CONTINUOUS
100
AcDbLine
 10
-601.8701582814792
 20
-1457.210266792672
 30
0.0
 11
-603.1531927331842
 21
-1455.290070038551
 31
0.0
  0
LINE
  5
2866A
330
18
100
AcDbEntity
  8
細線
  6
CONTINUOUS
100
AcDbLine
 10
-583.0993412640327
 20
-1503.704350233226
 30
0.0
 11
-583.5498830487868
 21
-1501.439323725877
 31
0.0
  0
ARC
  5
28AF4
330
18
100
AcDbEntity
  8
中心線
 48
2.0
100
AcDbCircle
 10
-926.6830058751013
 20
-1587.740943358572
 30
0.0
 40
32.06070749576678
100
AcDbArc
 50
359.9999999999993
 51
90.00000000000133
  0
ARC
  5
28AF5
330
18
100
AcDbEntity
  8
中心線
 48
2.0
100
AcDbCircle
 10
-906.6830058751015
 20
-1658.500780774572
 30
0.0
 40
12.06070749576679
100
AcDbArc
 50
325.6173623158486
 51
0.0
  0
LINE
  5
28AF6
330
18
100
AcDbEntity
  8
中心線
 48
2.0
100
AcDbLine
 10
-904.2351822068024
 20
-1676.280584052818
 30
0.0
 11
-896.7294889647224
 21
-1665.311666650375
 31
0.0
  0
ARC
  5
28AF7
330
18
100
AcDbEntity
  8
中心線
100
AcDbCircle
 10
-897.6830058751014
 20
-1680.764037050907
 30
0.0
 40
7.939292504233206
100
AcDbArc
 50
145.6173623158486
 51
180.0
  0
LINE
  5
28AF8
330
18
100
AcDbEntity
  8
中心線
 48
2.0
100
AcDbLine
 10
-894.6222983793346
 20
-1587.740943358573
 30
0.0
 11
-894.6222983793351
 21
-1658.500780774572
 31
0.0
  0
ARC
  5
28AF9
330
18
100
AcDbEntity
  8
中心線
 48
2.0
100
AcDbCircle
 10
-948.8957547982366
 20
-1615.865978179592
 30
0.0
 40
32.46912408432246
100
AcDbArc
 50
0.2206399292566835
 51
84.0919035636749
  0
LINE
  5
28AFA
330
18
100
AcDbEntity
  8
中心線
 48
2.0
100
AcDbLine
 10
-916.4268714620842
 20
-1658.651260755586
 30
0.0
 11
-916.4268714620847
 21
-1615.740943358605
 31
0.0
  0
ARC
  5
28AFB
330
18
100
AcDbEntity
  8
中心線
 48
2.0
100
AcDbCircle
 10
-908.5938940376395
 20
-1658.651260755586
 30
0.0
 40
7.832977424444927
100
AcDbArc
 50
180.0
 51
214.4230669294453
  0
LINE
  5
28AFC
330
18
100
AcDbEntity
  8
中心線
 48
2.0
100
AcDbLine
 10
-907.6465995443326
 20
-1673.889895861886
 30
0.0
 11
-915.0552072901859
 21
-1663.079236182837
 31
0.0
  0
ARC
  5
28AFD
330
18
100
AcDbEntity
  8
中心線
 48
2.0
100
AcDbCircle
 10
-916.6933570667127
 20
-1680.289119667307
 30
0.0
 40
11.08124031778858
100
AcDbArc
 50
357.5436776135787
 51
35.27367835148968
  0
ARC
  5
28B0B
330
18
100
AcDbEntity
  8
中心線
 48
2.0
100
AcDbCircle
 10
-947.5938940340393
 20
-1422.890943358605
 30
0.0
 40
48.74999999999954
100
AcDbArc
 50
270.0
 51
359.9999999999997
  0
LINE
  5
28FC2
330
18
100
AcDbEntity
  8
0
100
AcDbLine
 10
-948.5938940376398
 20
-1586.155132148413
 30
0.0
 11
-958.5938940376395
 21
-1586.155132148416
 31
0.0
  0
LINE
  5
28FC3
330
18
100
AcDbEntity
  8
0
100
AcDbLine
 10
-948.5938940376398
 20
-1581.055132148416
 30
0.0
 11
-958.5938940376395
 21
-1581.055132148416
 31
0.0
  0
ARC
  5
28FC4
330
18
100
AcDbEntity
  8
0
100
AcDbCircle
 10
-948.5938940376398
 20
-1615.740943358605
 30
0.0
 40
34.68581121018923
100
AcDbArc
 50
0.0000000000002036
 51
90.0
  0
ARC
  5
28FC5
330
18
100
AcDbEntity
  8
0
100
AcDbCircle
 10
-948.5938940376398
 20
-1615.740943358605
 30
0.0
 40
29.58581121018937
100
AcDbArc
 50
0.0000000000002036
 51
90.0
  0
LINE
  5
28FC6
330
18
100
AcDbEntity
  8
0
100
AcDbLine
 10
-919.0080828274497
 20
-1658.651260755586
 30
0.0
 11
-919.0080828274503
 21
-1615.740943358605
 31
0.0
  0
LINE
  5
28FC7
330
18
100
AcDbEntity
  8
0
100
AcDbLine
 10
-913.9080828274499
 20
-1658.651260755586
 30
0.0
 11
-913.9080828274503
 21
-1615.740943358605
 31
0.0
  0
ARC
  5
28FC8
330
18
100
AcDbEntity
  8
0
100
AcDbCircle
 10
-908.5938940376395
 20
-1658.651260755586
 30
0.0
 40
10.41418878981062
100
AcDbArc
 50
180.0
 51
214.4230669294453
  0
LINE
  5
28FC9
330
18
100
AcDbEntity
  8
0
100
AcDbLine
 10
-904.844877310222
 20
-1673.52250233463
 30
0.0
 11
-912.9774938609942
 21
-1661.655367125614
 31
0.0
  0
ARC
  5
28FCA
330
18
100
AcDbEntity
  8
0
100
AcDbCircle
 10
-908.5938940376395
 20
-1658.651260755586
 30
0.0
 40
5.314188789810757
100
AcDbArc
 50
180.0
 51
214.4230669294453
  0
LINE
  5
28FCB
330
18
100
AcDbEntity
  8
0
100
AcDbLine
 10
-909.7758046088864
 20
-1675.349052435314
 30
0.0
 11
-917.1844123547394
 21
-1664.538392756263
 31
0.0
  0
ARC
  5
28FCC
330
18
100
AcDbEntity
  8
0
100
AcDbCircle
 10
-922.6912734151911
 20
-1683.452567466794
 30
0.0
 40
15.24717319217169
100
AcDbArc
 50
10.1560513109364
 51
32.10527386473524
  0
CIRCLE
  5
29229
330
18
100
AcDbEntity
  8
実線
100
AcDbCircle
 10
-1469.355520688201
 20
-1527.640943358604
 30
0.0
 40
60.00000000000003
  0
CIRCLE
  5
2922A
330
18
100
AcDbEntity
  8
実線
100
AcDbCircle
 10
-709.3555206882008
 20
-1527.640943358586
 30
0.0
 40
69.99999999999994
  0
CIRCLE
  5
2922B
330
18
100
AcDbEntity
  8
実線
100
AcDbCircle
 10
-709.3555206882008
 20
-1527.640943358586
 30
0.0
 40
78.00000000000004
  0
CIRCLE
  5
2922C
330
18
100
AcDbEntity
  8
実線
100
AcDbCircle
 10
-709.3555206882008
 20
-1527.640943358586
 30
0.0
 40
34.40000000000517
  0
CIRCLE
  5
2922D
330
18
100
AcDbEntity
  8
実線
100
AcDbCircle
 10
-709.3555206882008
 20
-1527.640943358586
 30
0.0
 40
32.49999999996141
  0
VIEWPORT
  5
288D1
330
288D0
100
AcDbEntity
 67
     1
  8
0
100
AcDbViewport
 10
199.9999378802202
 20
143.9993521745335
 30
0.0
 40
443.5456846274367
 41
290.2940195069934
 68
     1
 69
     1
1001
ACAD
1000
MVIEW
1002
{
1070
    16
1010
0.0
1020
0.0
1030
0.0
1010
0.0
1020
0.0
1030
1.0
1040
0.0
1040
290.2940195069934
1040
199.9999378802202
1040
143.9993521745335
1040
50.0
1040
0.0
1040
0.0
1070
     0
1070
   100
1070
     1
1070
     0
1070
     0
1070
     0
1070
     0
1070
     0
1040
0.0
1040
0.0
1040
0.0
1040
10.0
1040
10.0
1040
10.0
1040
10.0
1070
     0
1002
{
1002
}
1002
}
  0
VIEWPORT
  5
288D2
330
288D0
100
AcDbEntity
 67
     1
  8
M_VIEW
100
AcDbViewport
 10
200.0
 20
144.0
 30
0.0
 40
400.0
 41
288.0
 68
     2
 69
     2
1001
ACAD
1000
MVIEW
1002
{
1070
    16
1010
0.0
1020
0.0
1030
0.0
1010
0.0
1020
0.0
1030
1.0
1040
0.0
1040
864.0000010384451
1040
-1091.556002681383
1040
-1626.420196184837
1040
50.0
1040
0.0
1040
0.0
1070
     0
1070
   100
1070
     1
1070
     0
1070
     0
1070
     0
1070
     0
1070
     0
1040
0.0
1040
0.0
1040
0.0
1040
10.0
1040
10.0
1040
10.0
1040
10.0
1070
     0
1002
{
1002
}
1002
}
  0
INSERT
  5
28977
330
288D0
100
AcDbEntity
 67
     1
  8
FRAME025
100
AcDbBlockReference
  2
機械A4横_LBP
 10
82.74908858651452
 20
152.030959079227
 30
0.0
  0
TEXT
  5
28978
330
288D0
100
AcDbEntity
 67
     1
  8
文字
  6
BYBLOCK
 62
     0
100
AcDbText
 10
32.81885892396519
 20
73.01882819621747
 30
0.0
 40
3.2
  1

 50
90.0
 41
0.625
  7
MSｺ_ｼｯｸ
100
AcDbText
  0
TEXT
  5
28979
330
288D0
100
AcDbEntity
 67
     1
  8
文字
  6
BYBLOCK
 62
     0
100
AcDbText
 10
37.25020936743055
 20
73.01882819621747
 30
0.0
 40
3.2
  1

 50
90.0
 41
0.625
  7
MSｺ_ｼｯｸ
100
AcDbText
  0
TEXT
  5
2897B
330
288D0
100
AcDbEntity
 67
     1
  8
FRAME020
  6
CONTINUOUS
100
AcDbText
 10
126.6213117262079
 20
29.63926951973459
 30
0.0
 40
2.5
  1

 41
0.625
  7
MSｺ_ｼｯｸ
100
AcDbText
  0
TEXT
  5
2897D
330
288D0
100
AcDbEntity
 67
     1
  8
0
100
AcDbText
 10
324.703280378293
 20
10.63168299257869
 30
0.0
 40
6.0
  1
ＳＥ－４３３６１
 41
1.1
100
AcDbText
  0
MTEXT
  5
29210
330
288D0
100
AcDbEntity
 67
     1
  8
DIMENSION
100
AcDbMText
 10
216.1083581364236
 20
27.21620581511888
 30
0.0
 40
6.0
 41
169.6574
 71
     1
 72
     5
  1
{\C7;τDISCﾓｰﾀ D250-200-LP NMR-FTJBA2E-302APZ}
  7
ｽﾀｲﾙ3
1001
ACAD
1000
MTEXTBEGIN
1070
    73
1070
     1
1070
    44
1040
1.0
1070
    74
1070
     0
1000
MTEXTEND
  0
ENDSEC
  0
SECTION
  2
OBJECTS
  0
DICTIONARY
  5
C
330
0
100
AcDbDictionary
  3
ACAD_GROUP
350
D
  3
ACAD_LAYOUT
350
DB2
  3
ACAD_MLINESTYLE
350
1B
  3
ACAD_PLOTSETTINGS
350
DB3
  3
ACAD_PLOTSTYLENAME
350
FB5B
  3
ACADDIM
350
1B534
  3
ACDBHEADERROUNDTRIPXREC
350
29254
  3
ACDBVARIABLEDICTIONARY
350
106A6
  3
ASE_INDEX_DICTIONARY
350
1A99F
  3
DWGPROPS
350
15EC9
1001
ACAD
1000
TREAT_AS_HARD
1070
     0
  0
DICTIONARY
  5
29042
330
2
100
AcDbDictionary
280
     1
  3
ACAD_LAYERFILTERS
360
29043
  3
ACAD_LAYERSTATES
360
2904F
  0
DICTIONARY
  5
EFC6
330
18
100
AcDbDictionary
280
     1
  3
ACAD_LAYOUTSELFREF
360
29275
  0
DICTIONARY
  5
289EB
330
288D0
100
AcDbDictionary
280
     1
  3
ACAD_LAYOUTSELFREF
360
29276
  0
DICTIONARY
  5
D
102
{ACAD_REACTORS
330
C
102
}
330
C
100
AcDbDictionary
  3
*A1
350
AC8A
  3
*A10
350
1738A
  3
*A100
350
19FAB
  3
*A101
350
1D67A
  3
*A102
350
1B729
  3
*A103
350
18F21
  3
*A104
350
1D6E8
  3
*A105
350
20D19
  3
*A106
350
1D6CA
  3
*A107
350
106C6
  3
*A108
350
19786
  3
*A109
350
1D6A2
  3
*A11
350
20CED
  3
*A110
350
1B744
  3
*A111
350
241FF
  3
*A112
350
20EA9
  3
*A113
350
19861
  3
*A114
350
1D6AC
  3
*A115
350
21BC2
  3
*A116
350
17901
  3
*A117
350
19A52
  3
*A118
350
ACBD
  3
*A119
350
FC9A
  3
*A12
350
FC91
  3
*A120
350
19F99
  3
*A121
350
1A09A
  3
*A122
350
2706A
  3
*A123
350
1D68E
  3
*A124
350
24248
  3
*A125
350
20A1F
  3
*A126
350
18F1F
  3
*A127
350
27035
  3
*A128
350
1EB7F
  3
*A129
350
21BC1
  3
*A13
350
21C10
  3
*A130
350
1606B
  3
*A131
350
1D706
  3
*A132
350
1D670
  3
*A133
350
20CE2
  3
*A134
350
1D684
  3
*A135
350
27181
  3
*A136
350
169DA
  3
*A137
350
18FA6
  3
*A138
350
1B74D
  3
*A139
350
17B11
  3
*A14
350
288CD
  3
*A140
350
16058
  3
*A141
350
18F20
  3
*A142
350
19787
  3
*A143
350
288C2
  3
*A144
350
2641F
  3
*A145
350
FC95
  3
*A146
350
288C4
  3
*A147
350
1EB7E
  3
*A148
350
19A5A
  3
*A149
350
288C6
  3
*A15
350
20CCC
  3
*A16
350
106C7
  3
*A17
350
21BC3
  3
*A18
350
18F22
  3
*A19
350
1D6DE
  3
*A2
350
ACAB
  3
*A20
350
241EB
  3
*A21
350
27774
  3
*A22
350
FBFF
  3
*A23
350
288C9
  3
*A24
350
20D0E
  3
*A25
350
19F87
  3
*A26
350
19F67
  3
*A27
350
16068
  3
*A28
350
1B732
  3
*A29
350
1D698
  3
*A3
350
1D6B6
  3
*A30
350
20781
  3
*A31
350
16059
  3
*A32
350
1D710
  3
*A33
350
19988
  3
*A34
350
26384
  3
*A35
350
ACB4
  3
*A36
350
21C12
  3
*A37
350
21BB8
  3
*A38
350
ACA1
  3
*A39
350
1A691
  3
*A4
350
1EB80
  3
*A40
350
1B756
  3
*A41
350
19A86
  3
*A42
350
21C11
  3
*A43
350
18FA8
  3
*A44
350
1EB7C
  3
*A45
350
20CD7
  3
*A46
350
1D6FC
  3
*A47
350
2425A
  3
*A48
350
1738B
  3
*A49
350
173BF
  3
*A5
350
288C8
  3
*A50
350
AC9A
  3
*A51
350
17BFF
  3
*A52
350
288CB
  3
*A53
350
18F23
  3
*A54
350
1EB7D
  3
*A55
350
241EC
  3
*A56
350
19F55
  3
*A57
350
2423F
  3
*A58
350
173BD
  3
*A59
350
18FA7
  3
*A6
350
19A51
  3
*A60
350
1D6F2
  3
*A61
350
19989
  3
*A62
350
19729
  3
*A63
350
FCB8
  3
*A64
350
1B720
  3
*A65
350
173BE
  3
*A66
350
20CF8
  3
*A67
350
1D6D4
  3
*A68
350
19259
  3
*A69
350
21BB7
  3
*A7
350
19255
  3
*A70
350
24251
  3
*A71
350
19256
  3
*A72
350
24CA6
  3
*A73
350
288CE
  3
*A74
350
FB6B
  3
*A75
350
288CC
  3
*A76
350
19AA4
  3
*A77
350
106B3
  3
*A78
350
288CA
  3
*A79
350
198F1
  3
*A8
350
ACA2
  3
*A80
350
288C7
  3
*A81
350
288C5
  3
*A82
350
288C3
  3
*A83
350
1998A
  3
*A84
350
FB6C
  3
*A85
350
106A5
  3
*A86
350
16069
  3
*A87
350
1606A
  3
*A88
350
20D03
  3
*A89
350
17389
  3
*A9
350
21BC4
  3
*A90
350
19881
  3
*A91
350
196C2
  3
*A92
350
1B73B
  3
*A93
350
24200
  3
*A94
350
1D6C0
  3
*A95
350
1AA94
  3
*A96
350
19794
  3
*A97
350
21BB2
  3
*A98
350
FC9B
  3
*A99
350
1A695
1001
ACAD
1000
TREAT_AS_HARD
1070
     0
  0
DICTIONARY
  5
DB2
102
{ACAD_REACTORS
330
C
102
}
330
C
100
AcDbDictionary
1001
ACAD
1000
TREAT_AS_HARD
1070
     0
  0
DICTIONARY
  5
1B
102
{ACAD_REACTORS
330
C
102
}
330
C
100
AcDbDictionary
  3
STANDARD
350
1C
1001
ACAD
1000
TREAT_AS_HARD
1070
     0
  0
DICTIONARY
  5
DB3
102
{ACAD_REACTORS
330
C
102
}
330
C
100
AcDbDictionary
1001
ACAD
1000
TREAT_AS_HARD
1070
     0
  0
ACDBDICTIONARYWDFLT
  5
FB5B
102
{ACAD_REACTORS
330
C
102
}
330
C
100
AcDbDictionary
281
     1
  3
Normal
350
FB5C
100
AcDbDictionaryWithDefault
340
FB5C
  0
XRECORD
  5
1B534
102
{ACAD_REACTORS
330
C
102
}
330
C
100
AcDbXrecord
 90
   990106
  3

 60
     0
 61
     0
 62
     4
 63
     4
 64
     1
 65
     0
 66
     0
 67
     3
 68
     1
 69
     0
 70
     0
 71
     0
 72
     0
 40
0.0
170
     2
340
0
  0
DICTIONARY
  5
29254
102
{ACAD_REACTORS
330
C
102
}
330
C
100
AcDbDictionary
  3
CEPSNTYPE
350
2925E
  3
DIMSTYLEDATA
350
29262
  3
FINGERPRINTGUID
350
2925F
  3
HYPERLINKBASE
350
29257
  3
INSUNITS
350
2925D
  3
LAYOUTDICT
350
29259
  3
LWETCUNION
350
2925C
  3
PLOTSETDICT
350
2925A
  3
PLOTSTYLNAMDICT
350
2925B
  3
PSVPSCALE
350
29261
  3
PUCSBASE
350
29265
  3
PUCSORGBACK
350
2926B
  3
PUCSORGBOTTOM
350
29267
  3
PUCSORGFRONT
350
2926A
  3
PUCSORGLEFT
350
29268
  3
PUCSORGRIGHT
350
29269
  3
PUCSORGTOP
350
29266
  3
PUCSORTHOREF
350
29263
  3
PUCSORTHOVIEW
350
29264
  3
STYLESHEET
350
29258
  3
TSTACKALIGN
350
29255
  3
TSTACKSIZE
350
29256
  3
UCSBASE
350
2926E
  3
UCSORGBACK
350
29274
  3
UCSORGBOTTOM
350
29270
  3
UCSORGFRONT
350
29273
  3
UCSORGLEFT
350
29271
  3
UCSORGRIGHT
350
29272
  3
UCSORGTOP
350
2926F
  3
UCSORTHOREF
350
2926C
  3
UCSORTHOVIEW
350
2926D
  3
VERSIONGUID
350
29260
  0
DICTIONARY
  5
106A6
102
{ACAD_REACTORS
330
C
102
}
330
C
100
AcDbDictionary
  3
SORTENTS
350
106A7
  0
DICTIONARY
  5
1A99F
102
{ACAD_REACTORS
330
C
102
}
330
C
100
AcDbDictionary
  3
ASEBLOCKHIERARCHYINDEXRECORD
350
1A9A1
1001
DCO15
1040
1464612067.17
  0
XRECORD
  5
15EC9
102
{ACAD_REACTORS
330
C
102
}
330
C
100
AcDbXrecord
  1
DWGPROPS COOKIE
  2

  3

  4

  6

  7

  8

  9

300
=
301
=
302
=
303
=
304
=
305
=
306
=
307
=
308
=
309
=
 40
12.65185717592592
 41
2451224.660162384
 42
2452395.660827315
  1

 90
        0
  0
DICTIONARY
  5
29043
102
{ACAD_REACTORS
330
29042
102
}
330
29042
100
AcDbDictionary
280
     1
  3
0
360
29044
  3
11
360
29045
  3
150_
360
29046
  3
160_
360
29047
  3
170_
360
29048
  3
171_
360
29049
  3
350_
360
2904A
  3
4
360
2904B
  3
5
360
2904C
  3
7
360
2904D
  3
KISEKI
360
2904E
  0
DICTIONARY
  5
2904F
102
{ACAD_REACTORS
330
29042
102
}
330
29042
100
AcDbDictionary
  0
XRECORD
  5
29275
102
{ACAD_REACTORS
330
EFC6
102
}
330
EFC6
100
AcDbXrecord
340
18
  0
XRECORD
  5
29276
102
{ACAD_REACTORS
330
289EB
102
}
330
289EB
100
AcDbXrecord
340
288D0
  0
GROUP
  5
AC8A
102
{ACAD_REACTORS
330
D
102
}
330
D
100
AcDbGroup
300

 70
     1
 71
     1
  0
GROUP
  5
1738A
102
{ACAD_REACTORS
330
D
102
}
330
D
100
AcDbGroup
300

 70
     1
 71
     1
  0
GROUP
  5
19FAB
102
{ACAD_REACTORS
330
D
102
}
330
D
100
AcDbGroup
300

 70
     1
 71
     1
  0
GROUP
  5
1D67A
102
{ACAD_REACTORS
330
D
102
}
330
D
100
AcDbGroup
300

 70
     1
 71
     1
  0
GROUP
  5
1B729
102
{ACAD_REACTORS
330
D
102
}
330
D
100
AcDbGroup
300

 70
     1
 71
     1
  0
GROUP
  5
18F21
102
{ACAD_REACTORS
330
D
102
}
330
D
100
AcDbGroup
300

 70
     1
 71
     1
  0
GROUP
  5
1D6E8
102
{ACAD_REACTORS
330
D
102
}
330
D
100
AcDbGroup
300

 70
     1
 71
     1
  0
GROUP
  5
20D19
102
{ACAD_REACTORS
330
D
102
}
330
D
100
AcDbGroup
300

 70
     1
 71
     1
  0
GROUP
  5
1D6CA
102
{ACAD_REACTORS
330
D
102
}
330
D
100
AcDbGroup
300

 70
     1
 71
     1
  0
GROUP
  5
106C6
102
{ACAD_REACTORS
330
D
102
}
330
D
100
AcDbGroup
300

 70
     1
 71
     1
  0
GROUP
  5
19786
102
{ACAD_REACTORS
330
D
102
}
330
D
100
AcDbGroup
300

 70
     1
 71
     1
  0
GROUP
  5
1D6A2
102
{ACAD_REACTORS
330
D
102
}
330
D
100
AcDbGroup
300

 70
     1
 71
     1
  0
GROUP
  5
20CED
102
{ACAD_REACTORS
330
D
102
}
330
D
100
AcDbGroup
300

 70
     1
 71
     1
  0
GROUP
  5
1B744
102
{ACAD_REACTORS
330
D
102
}
330
D
100
AcDbGroup
300

 70
     1
 71
     1
  0
GROUP
  5
241FF
102
{ACAD_REACTORS
330
D
102
}
330
D
100
AcDbGroup
300

 70
     1
 71
     1
  0
GROUP
  5
20EA9
102
{ACAD_REACTORS
330
D
102
}
330
D
100
AcDbGroup
300

 70
     1
 71
     1
  0
GROUP
  5
19861
102
{ACAD_REACTORS
330
D
102
}
330
D
100
AcDbGroup
300

 70
     1
 71
     1
  0
GROUP
  5
1D6AC
102
{ACAD_REACTORS
330
D
102
}
330
D
100
AcDbGroup
300

 70
     1
 71
     1
  0
GROUP
  5
21BC2
102
{ACAD_REACTORS
330
D
102
}
330
D
100
AcDbGroup
300

 70
     1
 71
     1
  0
GROUP
  5
17901
102
{ACAD_REACTORS
330
D
102
}
330
D
100
AcDbGroup
300

 70
     1
 71
     1
  0
GROUP
  5
19A52
102
{ACAD_REACTORS
330
D
102
}
330
D
100
AcDbGroup
300

 70
     1
 71
     1
  0
GROUP
  5
ACBD
102
{ACAD_REACTORS
330
D
102
}
330
D
100
AcDbGroup
300

 70
     1
 71
     1
  0
GROUP
  5
FC9A
102
{ACAD_REACTORS
330
D
102
}
330
D
100
AcDbGroup
300

 70
     1
 71
     1
  0
GROUP
  5
FC91
102
{ACAD_REACTORS
330
D
102
}
330
D
100
AcDbGroup
300

 70
     1
 71
     1
  0
GROUP
  5
19F99
102
{ACAD_REACTORS
330
D
102
}
330
D
100
AcDbGroup
300

 70
     1
 71
     1
  0
GROUP
  5
1A09A
102
{ACAD_REACTORS
330
D
102
}
330
D
100
AcDbGroup
300

 70
     1
 71
     1
  0
GROUP
  5
2706A
102
{ACAD_REACTORS
330
D
102
}
330
D
100
AcDbGroup
300

 70
     1
 71
     1
  0
GROUP
  5
1D68E
102
{ACAD_REACTORS
330
D
102
}
330
D
100
AcDbGroup
300

 70
     1
 71
     1
  0
GROUP
  5
24248
102
{ACAD_REACTORS
330
D
102
}
330
D
100
AcDbGroup
300

 70
     1
 71
     1
  0
GROUP
  5
20A1F
102
{ACAD_REACTORS
330
D
102
}
330
D
100
AcDbGroup
300

 70
     1
 71
     1
  0
GROUP
  5
18F1F
102
{ACAD_REACTORS
330
D
102
}
330
D
100
AcDbGroup
300

 70
     1
 71
     1
  0
GROUP
  5
27035
102
{ACAD_REACTORS
330
D
102
}
330
D
100
AcDbGroup
300

 70
     1
 71
     1
  0
GROUP
  5
1EB7F
102
{ACAD_REACTORS
330
D
102
}
330
D
100
AcDbGroup
300

 70
     1
 71
     1
  0
GROUP
  5
21BC1
102
{ACAD_REACTORS
330
D
102
}
330
D
100
AcDbGroup
300

 70
     1
 71
     1
  0
GROUP
  5
21C10
102
{ACAD_REACTORS
330
D
102
}
330
D
100
AcDbGroup
300

 70
     1
 71
     1
  0
GROUP
  5
1606B
102
{ACAD_REACTORS
330
D
102
}
330
D
100
AcDbGroup
300

 70
     1
 71
     1
  0
GROUP
  5
1D706
102
{ACAD_REACTORS
330
D
102
}
330
D
100
AcDbGroup
300

 70
     1
 71
     1
  0
GROUP
  5
1D670
102
{ACAD_REACTORS
330
D
102
}
330
D
100
AcDbGroup
300

 70
     1
 71
     1
  0
GROUP
  5
20CE2
102
{ACAD_REACTORS
330
D
102
}
330
D
100
AcDbGroup
300

 70
     1
 71
     1
  0
GROUP
  5
1D684
102
{ACAD_REACTORS
330
D
102
}
330
D
100
AcDbGroup
300

 70
     1
 71
     1
  0
GROUP
  5
27181
102
{ACAD_REACTORS
330
D
102
}
330
D
100
AcDbGroup
300

 70
     1
 71
     1
  0
GROUP
  5
169DA
102
{ACAD_REACTORS
330
D
102
}
330
D
100
AcDbGroup
300

 70
     1
 71
     1
  0
GROUP
  5
18FA6
102
{ACAD_REACTORS
330
D
102
}
330
D
100
AcDbGroup
300

 70
     1
 71
     1
  0
GROUP
  5
1B74D
102
{ACAD_REACTORS
330
D
102
}
330
D
100
AcDbGroup
300

 70
     1
 71
     1
  0
GROUP
  5
17B11
102
{ACAD_REACTORS
330
D
102
}
330
D
100
AcDbGroup
300

 70
     1
 71
     1
  0
GROUP
  5
288CD
102
{ACAD_REACTORS
330
D
102
}
330
D
100
AcDbGroup
300

 70
     1
 71
     1
  0
GROUP
  5
16058
102
{ACAD_REACTORS
330
D
102
}
330
D
100
AcDbGroup
300

 70
     1
 71
     1
  0
GROUP
  5
18F20
102
{ACAD_REACTORS
330
D
102
}
330
D
100
AcDbGroup
300

 70
     1
 71
     1
  0
GROUP
  5
19787
102
{ACAD_REACTORS
330
D
102
}
330
D
100
AcDbGroup
300

 70
     1
 71
     1
  0
GROUP
  5
288C2
102
{ACAD_REACTORS
330
D
102
}
330
D
100
AcDbGroup
300

 70
     1
 71
     1
  0
GROUP
  5
2641F
102
{ACAD_REACTORS
330
D
102
}
330
D
100
AcDbGroup
300

 70
     1
 71
     1
  0
GROUP
  5
FC95
102
{ACAD_REACTORS
330
D
102
}
330
D
100
AcDbGroup
300

 70
     1
 71
     1
  0
GROUP
  5
288C4
102
{ACAD_REACTORS
330
D
102
}
330
D
100
AcDbGroup
300

 70
     1
 71
     1
340
2814E
340
28150
340
28151
340
2815C
340
28156
340
28157
340
2815D
340
2815B
340
2815A
340
28153
340
28155
340
28158
340
2814D
340
2814F
340
28159
340
2815E
340
28152
340
28154
  0
GROUP
  5
1EB7E
102
{ACAD_REACTORS
330
D
102
}
330
D
100
AcDbGroup
300

 70
     1
 71
     1
  0
GROUP
  5
19A5A
102
{ACAD_REACTORS
330
D
102
}
330
D
100
AcDbGroup
300

 70
     1
 71
     1
  0
GROUP
  5
288C6
102
{ACAD_REACTORS
330
D
102
}
330
D
100
AcDbGroup
300

 70
     1
 71
     1
340
28304
340
28303
340
282FE
340
28302
340
2830C
340
2830F
340
28301
340
28307
340
28308
340
282FF
340
2830D
340
28309
  0
GROUP
  5
20CCC
102
{ACAD_REACTORS
330
D
102
}
330
D
100
AcDbGroup
300

 70
     1
 71
     1
  0
GROUP
  5
106C7
102
{ACAD_REACTORS
330
D
102
}
330
D
100
AcDbGroup
300

 70
     1
 71
     1
  0
GROUP
  5
21BC3
102
{ACAD_REACTORS
330
D
102
}
330
D
100
AcDbGroup
300

 70
     1
 71
     1
  0
GROUP
  5
18F22
102
{ACAD_REACTORS
330
D
102
}
330
D
100
AcDbGroup
300

 70
     1
 71
     1
  0
GROUP
  5
1D6DE
102
{ACAD_REACTORS
330
D
102
}
330
D
100
AcDbGroup
300

 70
     1
 71
     1
  0
GROUP
  5
ACAB
102
{ACAD_REACTORS
330
D
102
}
330
D
100
AcDbGroup
300

 70
     1
 71
     1
  0
GROUP
  5
241EB
102
{ACAD_REACTORS
330
D
102
}
330
D
100
AcDbGroup
300

 70
     1
 71
     1
  0
GROUP
  5
27774
102
{ACAD_REACTORS
330
D
102
}
330
D
100
AcDbGroup
300

 70
     1
 71
     1
  0
GROUP
  5
FBFF
102
{ACAD_REACTORS
330
D
102
}
330
D
100
AcDbGroup
300

 70
     1
 71
     1
  0
GROUP
  5
288C9
102
{ACAD_REACTORS
330
D
102
}
330
D
100
AcDbGroup
300

 70
     1
 71
     1
340
28617
340
28616
340
28615
340
28614
340
28613
340
28612
340
28611
340
28610
  0
GROUP
  5
20D0E
102
{ACAD_REACTORS
330
D
102
}
330
D
100
AcDbGroup
300

 70
     1
 71
     1
  0
GROUP
  5
19F87
102
{ACAD_REACTORS
330
D
102
}
330
D
100
AcDbGroup
300

 70
     1
 71
     1
  0
GROUP
  5
19F67
102
{ACAD_REACTORS
330
D
102
}
330
D
100
AcDbGroup
300

 70
     1
 71
     1
  0
GROUP
  5
16068
102
{ACAD_REACTORS
330
D
102
}
330
D
100
AcDbGroup
300

 70
     1
 71
     1
  0
GROUP
  5
1B732
102
{ACAD_REACTORS
330
D
102
}
330
D
100
AcDbGroup
300

 70
     1
 71
     1
  0
GROUP
  5
1D698
102
{ACAD_REACTORS
330
D
102
}
330
D
100
AcDbGroup
300

 70
     1
 71
     1
  0
GROUP
  5
1D6B6
102
{ACAD_REACTORS
330
D
102
}
330
D
100
AcDbGroup
300

 70
     1
 71
     1
  0
GROUP
  5
20781
102
{ACAD_REACTORS
330
D
102
}
330
D
100
AcDbGroup
300

 70
     1
 71
     1
  0
GROUP
  5
16059
102
{ACAD_REACTORS
330
D
102
}
330
D
100
AcDbGroup
300

 70
     1
 71
     1
  0
GROUP
  5
1D710
102
{ACAD_REACTORS
330
D
102
}
330
D
100
AcDbGroup
300

 70
     1
 71
     1
  0
GROUP
  5
19988
102
{ACAD_REACTORS
330
D
102
}
330
D
100
AcDbGroup
300

 70
     1
 71
     1
  0
GROUP
  5
26384
102
{ACAD_REACTORS
330
D
102
}
330
D
100
AcDbGroup
300

 70
     1
 71
     1
  0
GROUP
  5
ACB4
102
{ACAD_REACTORS
330
D
102
}
330
D
100
AcDbGroup
300

 70
     1
 71
     1
  0
GROUP
  5
21C12
102
{ACAD_REACTORS
330
D
102
}
330
D
100
AcDbGroup
300

 70
     1
 71
     1
  0
GROUP
  5
21BB8
102
{ACAD_REACTORS
330
D
102
}
330
D
100
AcDbGroup
300

 70
     1
 71
     1
  0
GROUP
  5
ACA1
102
{ACAD_REACTORS
330
D
102
}
330
D
100
AcDbGroup
300

 70
     1
 71
     1
  0
GROUP
  5
1A691
102
{ACAD_REACTORS
330
D
102
}
330
D
100
AcDbGroup
300

 70
     1
 71
     1
  0
GROUP
  5
1EB80
102
{ACAD_REACTORS
330
D
102
}
330
D
100
AcDbGroup
300

 70
     1
 71
     1
  0
GROUP
  5
1B756
102
{ACAD_REACTORS
330
D
102
}
330
D
100
AcDbGroup
300

 70
     1
 71
     1
  0
GROUP
  5
19A86
102
{ACAD_REACTORS
330
D
102
}
330
D
100
AcDbGroup
300

 70
     1
 71
     1
  0
GROUP
  5
21C11
102
{ACAD_REACTORS
330
D
102
}
330
D
100
AcDbGroup
300

 70
     1
 71
     1
  0
GROUP
  5
18FA8
102
{ACAD_REACTORS
330
D
102
}
330
D
100
AcDbGroup
300

 70
     1
 71
     1
  0
GROUP
  5
1EB7C
102
{ACAD_REACTORS
330
D
102
}
330
D
100
AcDbGroup
300

 70
     1
 71
     1
  0
GROUP
  5
20CD7
102
{ACAD_REACTORS
330
D
102
}
330
D
100
AcDbGroup
300

 70
     1
 71
     1
  0
GROUP
  5
1D6FC
102
{ACAD_REACTORS
330
D
102
}
330
D
100
AcDbGroup
300

 70
     1
 71
     1
  0
GROUP
  5
2425A
102
{ACAD_REACTORS
330
D
102
}
330
D
100
AcDbGroup
300

 70
     1
 71
     1
  0
GROUP
  5
1738B
102
{ACAD_REACTORS
330
D
102
}
330
D
100
AcDbGroup
300

 70
     1
 71
     1
  0
GROUP
  5
173BF
102
{ACAD_REACTORS
330
D
102
}
330
D
100
AcDbGroup
300

 70
     1
 71
     1
  0
GROUP
  5
288C8
102
{ACAD_REACTORS
330
D
102
}
330
D
100
AcDbGroup
300

 70
     1
 71
     1
340
28627
340
28630
340
2862F
340
2862E
340
2862D
340
2862C
340
2862B
340
2862A
  0
GROUP
  5
AC9A
102
{ACAD_REACTORS
330
D
102
}
330
D
100
AcDbGroup
300

 70
     1
 71
     1
  0
GROUP
  5
17BFF
102
{ACAD_REACTORS
330
D
102
}
330
D
100
AcDbGroup
300

 70
     1
 71
     1
  0
GROUP
  5
288CB
102
{ACAD_REACTORS
330
D
102
}
330
D
100
AcDbGroup
300

 70
     1
 71
     1
340
28313
340
282D6
340
28359
340
28357
340
28355
340
282C4
340
282D8
340
28312
340
282D7
340
28120
340
28358
340
28354
340
28311
  0
GROUP
  5
18F23
102
{ACAD_REACTORS
330
D
102
}
330
D
100
AcDbGroup
300

 70
     1
 71
     1
  0
GROUP
  5
1EB7D
102
{ACAD_REACTORS
330
D
102
}
330
D
100
AcDbGroup
300

 70
     1
 71
     1
  0
GROUP
  5
241EC
102
{ACAD_REACTORS
330
D
102
}
330
D
100
AcDbGroup
300

 70
     1
 71
     1
  0
GROUP
  5
19F55
102
{ACAD_REACTORS
330
D
102
}
330
D
100
AcDbGroup
300

 70
     1
 71
     1
  0
GROUP
  5
2423F
102
{ACAD_REACTORS
330
D
102
}
330
D
100
AcDbGroup
300

 70
     1
 71
     1
  0
GROUP
  5
173BD
102
{ACAD_REACTORS
330
D
102
}
330
D
100
AcDbGroup
300

 70
     1
 71
     1
  0
GROUP
  5
18FA7
102
{ACAD_REACTORS
330
D
102
}
330
D
100
AcDbGroup
300

 70
     1
 71
     1
  0
GROUP
  5
19A51
102
{ACAD_REACTORS
330
D
102
}
330
D
100
AcDbGroup
300

 70
     1
 71
     1
  0
GROUP
  5
1D6F2
102
{ACAD_REACTORS
330
D
102
}
330
D
100
AcDbGroup
300

 70
     1
 71
     1
  0
GROUP
  5
19989
102
{ACAD_REACTORS
330
D
102
}
330
D
100
AcDbGroup
300

 70
     1
 71
     1
  0
GROUP
  5
19729
102
{ACAD_REACTORS
330
D
102
}
330
D
100
AcDbGroup
300

 70
     1
 71
     1
  0
GROUP
  5
FCB8
102
{ACAD_REACTORS
330
D
102
}
330
D
100
AcDbGroup
300

 70
     1
 71
     1
  0
GROUP
  5
1B720
102
{ACAD_REACTORS
330
D
102
}
330
D
100
AcDbGroup
300

 70
     1
 71
     1
  0
GROUP
  5
173BE
102
{ACAD_REACTORS
330
D
102
}
330
D
100
AcDbGroup
300

 70
     1
 71
     1
  0
GROUP
  5
20CF8
102
{ACAD_REACTORS
330
D
102
}
330
D
100
AcDbGroup
300

 70
     1
 71
     1
  0
GROUP
  5
1D6D4
102
{ACAD_REACTORS
330
D
102
}
330
D
100
AcDbGroup
300

 70
     1
 71
     1
  0
GROUP
  5
19259
102
{ACAD_REACTORS
330
D
102
}
330
D
100
AcDbGroup
300

 70
     1
 71
     1
  0
GROUP
  5
21BB7
102
{ACAD_REACTORS
330
D
102
}
330
D
100
AcDbGroup
300

 70
     1
 71
     1
  0
GROUP
  5
19255
102
{ACAD_REACTORS
330
D
102
}
330
D
100
AcDbGroup
300

 70
     1
 71
     1
  0
GROUP
  5
24251
102
{ACAD_REACTORS
330
D
102
}
330
D
100
AcDbGroup
300

 70
     1
 71
     1
  0
GROUP
  5
19256
102
{ACAD_REACTORS
330
D
102
}
330
D
100
AcDbGroup
300

 70
     1
 71
     1
  0
GROUP
  5
24CA6
102
{ACAD_REACTORS
330
D
102
}
330
D
100
AcDbGroup
300

 70
     1
 71
     1
  0
GROUP
  5
288CE
102
{ACAD_REACTORS
330
D
102
}
330
D
100
AcDbGroup
300

 70
     1
 71
     1
340
28158
340
2814D
340
2814F
340
28159
340
2815C
340
28151
340
2815E
340
2815A
340
2815B
340
28150
340
2814E
340
2815D
  0
GROUP
  5
FB6B
102
{ACAD_REACTORS
330
D
102
}
330
D
100
AcDbGroup
300

 70
     1
 71
     1
  0
GROUP
  5
288CC
102
{ACAD_REACTORS
330
D
102
}
330
D
100
AcDbGroup
300

 70
     1
 71
     1
340
285F7
340
285F9
340
285F8
340
285F6
340
285FA
340
285FC
340
285FD
  0
GROUP
  5
19AA4
102
{ACAD_REACTORS
330
D
102
}
330
D
100
AcDbGroup
300

 70
     1
 71
     1
  0
GROUP
  5
106B3
102
{ACAD_REACTORS
330
D
102
}
330
D
100
AcDbGroup
300

 70
     1
 71
     1
  0
GROUP
  5
288CA
102
{ACAD_REACTORS
330
D
102
}
330
D
100
AcDbGroup
300

 70
     1
 71
     1
340
284D0
340
284E3
340
284E2
340
284E1
340
284E0
340
284DF
340
284DE
340
284DD
  0
GROUP
  5
198F1
102
{ACAD_REACTORS
330
D
102
}
330
D
100
AcDbGroup
300

 70
     1
 71
     1
  0
GROUP
  5
ACA2
102
{ACAD_REACTORS
330
D
102
}
330
D
100
AcDbGroup
300

 70
     1
 71
     1
  0
GROUP
  5
288C7
102
{ACAD_REACTORS
330
D
102
}
330
D
100
AcDbGroup
300

 70
     1
 71
     1
340
28503
340
2850A
340
28509
340
28508
340
28507
340
28506
340
28505
340
28504
  0
GROUP
  5
288C5
102
{ACAD_REACTORS
330
D
102
}
330
D
100
AcDbGroup
300

 70
     1
 71
     1
340
2830D
340
282FF
340
2830F
340
2830C
340
2830B
340
2830A
340
28309
340
28308
340
28307
340
28306
340
28305
340
28304
340
28303
340
282FE
340
28302
340
28301
340
28300
340
2830E
  0
GROUP
  5
288C3
102
{ACAD_REACTORS
330
D
102
}
330
D
100
AcDbGroup
300

 70
     1
 71
     1
  0
GROUP
  5
1998A
102
{ACAD_REACTORS
330
D
102
}
330
D
100
AcDbGroup
300

 70
     1
 71
     1
  0
GROUP
  5
FB6C
102
{ACAD_REACTORS
330
D
102
}
330
D
100
AcDbGroup
300

 70
     1
 71
     1
  0
GROUP
  5
106A5
102
{ACAD_REACTORS
330
D
102
}
330
D
100
AcDbGroup
300

 70
     1
 71
     1
  0
GROUP
  5
16069
102
{ACAD_REACTORS
330
D
102
}
330
D
100
AcDbGroup
300

 70
     1
 71
     1
  0
GROUP
  5
1606A
102
{ACAD_REACTORS
330
D
102
}
330
D
100
AcDbGroup
300

 70
     1
 71
     1
  0
GROUP
  5
20D03
102
{ACAD_REACTORS
330
D
102
}
330
D
100
AcDbGroup
300

 70
     1
 71
     1
  0
GROUP
  5
17389
102
{ACAD_REACTORS
330
D
102
}
330
D
100
AcDbGroup
300

 70
     1
 71
     1
  0
GROUP
  5
21BC4
102
{ACAD_REACTORS
330
D
102
}
330
D
100
AcDbGroup
300

 70
     1
 71
     1
  0
GROUP
  5
19881
102
{ACAD_REACTORS
330
D
102
}
330
D
100
AcDbGroup
300

 70
     1
 71
     1
  0
GROUP
  5
196C2
102
{ACAD_REACTORS
330
D
102
}
330
D
100
AcDbGroup
300

 70
     1
 71
     1
  0
GROUP
  5
1B73B
102
{ACAD_REACTORS
330
D
102
}
330
D
100
AcDbGroup
300

 70
     1
 71
     1
  0
GROUP
  5
24200
102
{ACAD_REACTORS
330
D
102
}
330
D
100
AcDbGroup
300

 70
     1
 71
     1
  0
GROUP
  5
1D6C0
102
{ACAD_REACTORS
330
D
102
}
330
D
100
AcDbGroup
300

 70
     1
 71
     1
  0
GROUP
  5
1AA94
102
{ACAD_REACTORS
330
D
102
}
330
D
100
AcDbGroup
300

 70
     1
 71
     1
  0
GROUP
  5
19794
102
{ACAD_REACTORS
330
D
102
}
330
D
100
AcDbGroup
300

 70
     1
 71
     1
  0
GROUP
  5
21BB2
102
{ACAD_REACTORS
330
D
102
}
330
D
100
AcDbGroup
300

 70
     1
 71
     1
  0
GROUP
  5
FC9B
102
{ACAD_REACTORS
330
D
102
}
330
D
100
AcDbGroup
300

 70
     1
 71
     1
  0
GROUP
  5
1A695
102
{ACAD_REACTORS
330
D
102
}
330
D
100
AcDbGroup
300

 70
     1
 71
     1
  0
MLINESTYLE
  5
1C
102
{ACAD_REACTORS
330
1B
102
}
330
1B
100
AcDbMlineStyle
  2
STANDARD
 70
     0
  3

 62
   256
 51
90.0
 52
90.0
 71
     2
 49
0.5
 62
   256
  6
BYLAYER
 49
-0.5
 62
   256
  6
BYLAYER
  0
ACDBPLACEHOLDER
  5
FB5C
102
{ACAD_REACTORS
330
FB5B
102
}
330
FB5B
100
AcDbPlaceHolder
280
     0
  0
XRECORD
  5
2925E
102
{ACAD_REACTORS
330
29254
102
}
330
29254
100
AcDbXrecord
 90
        0
  0
XRECORD
  5
29262
102
{ACAD_REACTORS
330
29254
102
}
330
29254
100
AcDbXrecord
1000
DSTYLE
1002
{
1070
    79
 70
     2
1070
   179
 70
     2
1070
   279
 70
     2
1070
   341
340
1215D
1070
   342
340
1215D
1002
}
  0
XRECORD
  5
2925F
102
{ACAD_REACTORS
330
29254
102
}
330
29254
100
AcDbXrecord
  1
{D14EE3FF-941A-415A-9907-344E0A80D794}
  0
XRECORD
  5
29257
102
{ACAD_REACTORS
330
29254
102
}
330
29254
100
AcDbXrecord
  1

  0
XRECORD
  5
2925D
102
{ACAD_REACTORS
330
29254
102
}
330
29254
100
AcDbXrecord
 90
        0
  0
XRECORD
  5
29259
102
{ACAD_REACTORS
330
29254
102
}
330
29254
100
AcDbXrecord
340
DB2
  0
XRECORD
  5
2925C
102
{ACAD_REACTORS
330
29254
102
}
330
29254
100
AcDbXrecord
 90
    10269
  0
XRECORD
  5
2925A
102
{ACAD_REACTORS
330
29254
102
}
330
29254
100
AcDbXrecord
340
DB3
  0
XRECORD
  5
2925B
102
{ACAD_REACTORS
330
29254
102
}
330
29254
100
AcDbXrecord
340
FB5B
  0
XRECORD
  5
29261
102
{ACAD_REACTORS
330
29254
102
}
330
29254
100
AcDbXrecord
 40
0.0
  0
XRECORD
  5
29265
102
{ACAD_REACTORS
330
29254
102
}
330
29254
100
AcDbXrecord
340
0
  0
XRECORD
  5
2926B
102
{ACAD_REACTORS
330
29254
102
}
330
29254
100
AcDbXrecord
 10
0.0
 20
0.0
 30
0.0
  0
XRECORD
  5
29267
102
{ACAD_REACTORS
330
29254
102
}
330
29254
100
AcDbXrecord
 10
0.0
 20
0.0
 30
0.0
  0
XRECORD
  5
2926A
102
{ACAD_REACTORS
330
29254
102
}
330
29254
100
AcDbXrecord
 10
0.0
 20
0.0
 30
0.0
  0
XRECORD
  5
29268
102
{ACAD_REACTORS
330
29254
102
}
330
29254
100
AcDbXrecord
 10
0.0
 20
0.0
 30
0.0
  0
XRECORD
  5
29269
102
{ACAD_REACTORS
330
29254
102
}
330
29254
100
AcDbXrecord
 10
0.0
 20
0.0
 30
0.0
  0
XRECORD
  5
29266
102
{ACAD_REACTORS
330
29254
102
}
330
29254
100
AcDbXrecord
 10
0.0
 20
0.0
 30
0.0
  0
XRECORD
  5
29263
102
{ACAD_REACTORS
330
29254
102
}
330
29254
100
AcDbXrecord
340
0
  0
XRECORD
  5
29264
102
{ACAD_REACTORS
330
29254
102
}
330
29254
100
AcDbXrecord
 70
     0
  0
XRECORD
  5
29258
102
{ACAD_REACTORS
330
29254
102
}
330
29254
100
AcDbXrecord
  1
MONOCHROME.CTB
  0
XRECORD
  5
29255
102
{ACAD_REACTORS
330
29254
102
}
330
29254
100
AcDbXrecord
 90
        1
  0
XRECORD
  5
29256
102
{ACAD_REACTORS
330
29254
102
}
330
29254
100
AcDbXrecord
 90
       70
  0
XRECORD
  5
2926E
102
{ACAD_REACTORS
330
29254
102
}
330
29254
100
AcDbXrecord
340
0
  0
XRECORD
  5
29274
102
{ACAD_REACTORS
330
29254
102
}
330
29254
100
AcDbXrecord
 10
0.0
 20
0.0
 30
0.0
  0
XRECORD
  5
29270
102
{ACAD_REACTORS
330
29254
102
}
330
29254
100
AcDbXrecord
 10
0.0
 20
0.0
 30
0.0
  0
XRECORD
  5
29273
102
{ACAD_REACTORS
330
29254
102
}
330
29254
100
AcDbXrecord
 10
0.0
 20
0.0
 30
0.0
  0
XRECORD
  5
29271
102
{ACAD_REACTORS
330
29254
102
}
330
29254
100
AcDbXrecord
 10
0.0
 20
0.0
 30
0.0
  0
XRECORD
  5
29272
102
{ACAD_REACTORS
330
29254
102
}
330
29254
100
AcDbXrecord
 10
0.0
 20
0.0
 30
0.0
  0
XRECORD
  5
2926F
102
{ACAD_REACTORS
330
29254
102
}
330
29254
100
AcDbXrecord
 10
0.0
 20
0.0
 30
0.0
  0
XRECORD
  5
2926C
102
{ACAD_REACTORS
330
29254
102
}
330
29254
100
AcDbXrecord
340
0
  0
XRECORD
  5
2926D
102
{ACAD_REACTORS
330
29254
102
}
330
29254
100
AcDbXrecord
 70
     0
  0
XRECORD
  5
29260
102
{ACAD_REACTORS
330
29254
102
}
330
29254
100
AcDbXrecord
  1
{AAA7118C-5FB7-4D4B-BE81-7D9089DC4D08}
  0
DICTIONARYVAR
  5
106A7
102
{ACAD_REACTORS
330
106A6
102
}
330
106A6
100
DictionaryVariables
280
     0
  1
96
  0
XRECORD
  5
1A9A1
102
{ACAD_REACTORS
330
1A99F
102
}
330
1A99F
100
AcDbXrecord
330
187D7
330
0
330
0
330
0
330
0
330
0
330
0
330
0
330
0
330
0
330
0
330
0
330
0
330
0
330
0
330
0
330
0
330
0
330
0
330
0
330
0
330
0
330
0
330
0
330
0
330
0
330
0
330
0
330
0
330
0
330
0
330
0
330
0
330
0
330
0
330
0
330
0
330
0
330
0
330
0
330
0
330
0
330
0
330
0
  0
XRECORD
  5
29044
102
{ACAD_REACTORS
330
29043
102
}
330
29043
100
AcDbXrecord
  1
0
  1
*0
  1
*
  1
*
 70
     0
  1
*
  1
*
  0
XRECORD
  5
29045
102
{ACAD_REACTORS
330
29043
102
}
330
29043
100
AcDbXrecord
  1
11
  1
*11
  1
*
  1
*
 70
     0
  1
*
  1
*
  0
XRECORD
  5
29046
102
{ACAD_REACTORS
330
29043
102
}
330
29043
100
AcDbXrecord
  1
150_
  1
150_*
  1
*
  1
*
 70
     0
  1
*
  1
*
  0
XRECORD
  5
29047
102
{ACAD_REACTORS
330
29043
102
}
330
29043
100
AcDbXrecord
  1
160_
  1
160_*
  1
*
  1
*
 70
     0
  1
*
  1
*
  0
XRECORD
  5
29048
102
{ACAD_REACTORS
330
29043
102
}
330
29043
100
AcDbXrecord
  1
170_
  1
170_*
  1
*
  1
*
 70
     0
  1
*
  1
*
  0
XRECORD
  5
29049
102
{ACAD_REACTORS
330
29043
102
}
330
29043
100
AcDbXrecord
  1
171_
  1
171_*
  1
*
  1
*
 70
     0
  1
*
  1
*
  0
XRECORD
  5
2904A
102
{ACAD_REACTORS
330
29043
102
}
330
29043
100
AcDbXrecord
  1
350_
  1
350_*
  1
*
  1
*
 70
     0
  1
*
  1
*
  0
XRECORD
  5
2904B
102
{ACAD_REACTORS
330
29043
102
}
330
29043
100
AcDbXrecord
  1
4
  1
*4
  1
*
  1
*
 70
     0
  1
*
  1
*
  0
XRECORD
  5
2904C
102
{ACAD_REACTORS
330
29043
102
}
330
29043
100
AcDbXrecord
  1
5
  1
*5
  1
*
  1
*
 70
     0
  1
*
  1
*
  0
XRECORD
  5
2904D
102
{ACAD_REACTORS
330
29043
102
}
330
29043
100
AcDbXrecord
  1
7
  1
*7
  1
*
  1
*
 70
     0
  1
*
  1
*
  0
XRECORD
  5
2904E
102
{ACAD_REACTORS
330
29043
102
}
330
29043
100
AcDbXrecord
  1
kiseki
  1
kiseki*
  1
*
  1
*
 70
     0
  1
*
  1
*
  0
ENDSEC
  0
EOF
