  0
SECTION
  2
HEADER
  9
$ACADVER
  1
AC1015
  9
$ACADMAINTVER
 70
    20
  9
$DWGCODEPAGE
  3
ANSI_932
  9
$INSBASE
 10
0.0
 20
0.0
 30
0.0
  9
$EXTMIN
 10
23120.34530739579
 20
-2486.497214239471
 30
0.0
  9
$EXTMAX
 10
23754.44378345429
 20
-2074.272639827501
 30
137.5
  9
$LIMMIN
 10
0.0
 20
0.0
  9
$LIMMAX
 10
420.0
 20
297.0
  9
$ORTHOMODE
 70
     1
  9
$REGENMODE
 70
     1
  9
$FILLMODE
 70
     1
  9
$QTEXTMODE
 70
     0
  9
$MIRRTEXT
 70
     0
  9
$LTSCALE
 40
2.0
  9
$ATTMODE
 70
     1
  9
$TEXTSIZE
 40
2.5
  9
$TRACEWID
 40
1.0
  9
$TEXTSTYLE
  7
STANDARD
  9
$CLAYER
  8
0
  9
$CELTYPE
  6
BYLAYER
  9
$CECOLOR
 62
   256
  9
$CELTSCALE
 40
1.0
  9
$DISPSILH
 70
     0
  9
$DIMSCALE
 40
1.5
  9
$DIMASZ
 40
3.0
  9
$DIMEXO
 40
1.0
  9
$DIMDLI
 40
6.5
  9
$DIMRND
 40
0.0
  9
$DIMDLE
 40
0.0
  9
$DIMEXE
 40
1.0
  9
$DIMTP
 40
0.0
  9
$DIMTM
 40
0.000000001
  9
$DIMTXT
 40
3.0
  9
$DIMCEN
 40
2.5
  9
$DIMTSZ
 40
0.0
  9
$DIMTOL
 70
     0
  9
$DIMLIM
 70
     0
  9
$DIMTIH
 70
     0
  9
$DIMTOH
 70
     0
  9
$DIMSE1
 70
     0
  9
$DIMSE2
 70
     0
  9
$DIMTAD
 70
     1
  9
$DIMZIN
 70
     9
  9
$DIMBLK
  1

  9
$DIMASO
 70
     1
  9
$DIMSHO
 70
     1
  9
$DIMPOST
  1

  9
$DIMAPOST
  1

  9
$DIMALT
 70
     0
  9
$DIMALTD
 70
     4
  9
$DIMALTF
 40
0.0394
  9
$DIMLFAC
 40
1.0
  9
$DIMTOFL
 70
     1
  9
$DIMTVP
 40
0.0
  9
$DIMTIX
 70
     0
  9
$DIMSOXD
 70
     0
  9
$DIMSAH
 70
     1
  9
$DIMBLK1
  1
OPEN
  9
$DIMBLK2
  1
OPEN
  9
$DIMSTYLE
  2
STD-I1
  9
$DIMCLRD
 70
     4
  9
$DIMCLRE
 70
     4
  9
$DIMCLRT
 70
   256
  9
$DIMTFAC
 40
0.8
  9
$DIMGAP
 40
0.75
  9
$DIMJUST
 70
     0
  9
$DIMSD1
 70
     0
  9
$DIMSD2
 70
     0
  9
$DIMTOLJ
 70
     1
  9
$DIMTZIN
 70
     9
  9
$DIMALTZ
 70
     0
  9
$DIMALTTZ
 70
     0
  9
$DIMUPT
 70
     0
  9
$DIMDEC
 70
     8
  9
$DIMTDEC
 70
     8
  9
$DIMALTU
 70
     8
  9
$DIMALTTD
 70
     4
  9
$DIMTXSTY
  7
STANDARD
  9
$DIMAUNIT
 70
     0
  9
$DIMADEC
 70
     8
  9
$DIMALTRND
 40
0.0
  9
$DIMAZIN
 70
     2
  9
$DIMDSEP
 70
    46
  9
$DIMATFIT
 70
     3
  9
$DIMFRAC
 70
     0
  9
$DIMLDRBLK
  1
OPEN
  9
$DIMLUNIT
 70
     2
  9
$DIMLWD
 70
    15
  9
$DIMLWE
 70
    15
  9
$DIMTMOVE
 70
     0
  9
$LUNITS
 70
     2
  9
$LUPREC
 70
     4
  9
$SKETCHINC
 40
1.0
  9
$FILLETRAD
 40
0.0
  9
$AUNITS
 70
     0
  9
$AUPREC
 70
     0
  9
$MENU
  1
.
  9
$ELEVATION
 40
0.0
  9
$PELEVATION
 40
0.0
  9
$THICKNESS
 40
0.0
  9
$LIMCHECK
 70
     0
  9
$CHAMFERA
 40
0.5
  9
$CHAMFERB
 40
0.5
  9
$CHAMFERC
 40
20.0
  9
$CHAMFERD
 40
0.0
  9
$SKPOLY
 70
     0
  9
$TDCREATE
 40
2452479.723113426
  9
$TDUCREATE
 40
2452479.348123183
  9
$TDUPDATE
 40
2458549.471574074
  9
$TDUUPDATE
 40
2458549.096574074
  9
$TDINDWG
 40
24.1097045139
  9
$TDUSRTIMER
 40
2457693.301953796
  9
$USRTIMER
 70
     1
  9
$ANGBASE
 50
0.0
  9
$ANGDIR
 70
     0
  9
$PDMODE
 70
     0
  9
$PDSIZE
 40
0.0
  9
$PLINEWID
 40
0.0
  9
$SPLFRAME
 70
     0
  9
$SPLINETYPE
 70
     6
  9
$SPLINESEGS
 70
     8
  9
$HANDSEED
  5
72CF2
  9
$SURFTAB1
 70
     6
  9
$SURFTAB2
 70
     6
  9
$SURFTYPE
 70
     6
  9
$SURFU
 70
     6
  9
$SURFV
 70
     6
  9
$UCSBASE
  2

  9
$UCSNAME
  2

  9
$UCSORG
 10
0.0
 20
0.0
 30
0.0
  9
$UCSXDIR
 10
1.0
 20
0.0
 30
0.0
  9
$UCSYDIR
 10
0.0
 20
1.0
 30
0.0
  9
$UCSORTHOREF
  2

  9
$UCSORTHOVIEW
 70
     0
  9
$UCSORGTOP
 10
0.0
 20
0.0
 30
0.0
  9
$UCSORGBOTTOM
 10
0.0
 20
0.0
 30
0.0
  9
$UCSORGLEFT
 10
0.0
 20
0.0
 30
0.0
  9
$UCSORGRIGHT
 10
0.0
 20
0.0
 30
0.0
  9
$UCSORGFRONT
 10
0.0
 20
0.0
 30
0.0
  9
$UCSORGBACK
 10
0.0
 20
0.0
 30
0.0
  9
$PUCSBASE
  2

  9
$PUCSNAME
  2

  9
$PUCSORG
 10
0.0
 20
0.0
 30
0.0
  9
$PUCSXDIR
 10
1.0
 20
0.0
 30
0.0
  9
$PUCSYDIR
 10
0.0
 20
1.0
 30
0.0
  9
$PUCSORTHOREF
  2

  9
$PUCSORTHOVIEW
 70
     0
  9
$PUCSORGTOP
 10
0.0
 20
0.0
 30
0.0
  9
$PUCSORGBOTTOM
 10
0.0
 20
0.0
 30
0.0
  9
$PUCSORGLEFT
 10
0.0
 20
0.0
 30
0.0
  9
$PUCSORGRIGHT
 10
0.0
 20
0.0
 30
0.0
  9
$PUCSORGFRONT
 10
0.0
 20
0.0
 30
0.0
  9
$PUCSORGBACK
 10
0.0
 20
0.0
 30
0.0
  9
$USERI1
 70
     0
  9
$USERI2
 70
     0
  9
$USERI3
 70
     0
  9
$USERI4
 70
     0
  9
$USERI5
 70
     0
  9
$USERR1
 40
0.0
  9
$USERR2
 40
0.0
  9
$USERR3
 40
0.0
  9
$USERR4
 40
0.0
  9
$USERR5
 40
0.0
  9
$WORLDVIEW
 70
     1
  9
$SHADEDGE
 70
     3
  9
$SHADEDIF
 70
    70
  9
$TILEMODE
 70
     1
  9
$MAXACTVP
 70
    48
  9
$PINSBASE
 10
0.0
 20
0.0
 30
0.0
  9
$PLIMCHECK
 70
     0
  9
$PEXTMIN
 10
1.000000000000000E+20
 20
1.000000000000000E+20
 30
1.000000000000000E+20
  9
$PEXTMAX
 10
-1.000000000000000E+20
 20
-1.000000000000000E+20
 30
-1.000000000000000E+20
  9
$PLIMMIN
 10
0.0
 20
0.0
  9
$PLIMMAX
 10
0.0
 20
0.0
  9
$UNITMODE
 70
     0
  9
$VISRETAIN
 70
     1
  9
$PLINEGEN
 70
     0
  9
$PSLTSCALE
 70
     1
  9
$TREEDEPTH
 70
  3020
  9
$CMLSTYLE
  2
STANDARD
  9
$CMLJUST
 70
     0
  9
$CMLSCALE
 40
20.0
  9
$PROXYGRAPHICS
 70
     1
  9
$MEASUREMENT
 70
     0
  9
$CELWEIGHT
370
    -1
  9
$ENDCAPS
280
     0
  9
$JOINSTYLE
280
     0
  9
$LWDISPLAY
290
     0
  9
$INSUNITS
 70
     0
  9
$HYPERLINKBASE
  1

  9
$STYLESHEET
  1
monochrome.ctb
  9
$XEDIT
290
     1
  9
$CEPSNTYPE
380
     0
  9
$PSTYLEMODE
290
     1
  9
$FINGERPRINTGUID
  2
{6B368F64-F7EB-11D4-BFBA-00004C030E53}
  9
$VERSIONGUID
  2
{91230B28-06F8-014C-88A8-BACD975894A0}
  9
$EXTNAMES
290
     1
  9
$PSVPSCALE
 40
0.0
  9
$OLESTARTUP
290
     0
  0
ENDSEC
  0
SECTION
  2
CLASSES
  0
CLASS
  1
ACDBDICTIONARYWDFLT
  2
AcDbDictionaryWithDefault
  3
ObjectDBX Classes
 90
        0
280
     0
281
     0
  0
CLASS
  1
ACDBPLACEHOLDER
  2
AcDbPlaceHolder
  3
ObjectDBX Classes
 90
        0
280
     0
281
     0
  0
CLASS
  1
LAYOUT
  2
AcDbLayout
  3
ObjectDBX Classes
 90
        0
280
     0
281
     0
  0
CLASS
  1
DICTIONARYVAR
  2
AcDbDictionaryVar
  3
ObjectDBX Classes
 90
        0
280
     0
281
     0
  0
CLASS
  1
VISUALSTYLE
  2
AcDbVisualStyle
  3
ObjectDBX Classes
 90
     4095
280
     0
281
     0
  0
CLASS
  1
SCALE
  2
AcDbScale
  3
ObjectDBX Classes
 90
     1153
280
     0
281
     0
  0
CLASS
  1
MATERIAL
  2
AcDbMaterial
  3
ObjectDBX Classes
 90
     1153
280
     0
281
     0
  0
CLASS
  1
TABLESTYLE
  2
AcDbTableStyle
  3
ObjectDBX Classes
 90
     4095
280
     0
281
     0
  0
CLASS
  1
MLEADERSTYLE
  2
AcDbMLeaderStyle
  3
ACDB_MLEADERSTYLE_CLASS
 90
     4095
280
     0
281
     0
  0
CLASS
  1
SUN
  2
AcDbSun
  3
SCENEOE
 90
     1153
280
     0
281
     0
  0
CLASS
  1
RASTERVARIABLES
  2
AcDbRasterVariables
  3
ISM
 90
        0
280
     0
281
     0
  0
CLASS
  1
ACDBSECTIONVIEWSTYLE
  2
AcDbSectionViewStyle
  3
ObjectDBX Classes
 90
     1025
280
     0
281
     0
  0
CLASS
  1
ACDBDETAILVIEWSTYLE
  2
AcDbDetailViewStyle
  3
ObjectDBX Classes
 90
     1025
280
     0
281
     0
  0
CLASS
  1
CELLSTYLEMAP
  2
AcDbCellStyleMap
  3
ObjectDBX Classes
 90
     1152
280
     0
281
     0
  0
ENDSEC
  0
SECTION
  2
TABLES
  0
TABLE
  2
VPORT
  5
8
102
{ACAD_XDICTIONARY
360
72C58
102
}
330
0
100
AcDbSymbolTable
 70
     1
  0
VPORT
  5
7143E
330
8
100
AcDbSymbolTableRecord
100
AcDbViewportTableRecord
  2
*Active
 70
     0
 10
0.0
 20
0.0
 11
1.0
 21
1.0
 12
23292.54840443765
 22
-2175.590830988363
 13
0.0
 23
0.0
 14
10.0
 24
10.0
 15
10.0
 25
10.0
 16
0.0
 26
0.0
 36
1.0
 17
0.0
 27
0.0
 37
0.0
 40
436.0649950382931
 41
1.56
 42
50.0
 43
0.0
 44
0.0
 50
0.0
 51
0.0
 71
    16
 72
 10000
 73
     1
 74
     0
 75
     0
 76
     0
 77
     0
 78
     0
281
     0
 65
     1
110
0.0
120
0.0
130
0.0
111
1.0
121
0.0
131
0.0
112
0.0
122
1.0
132
0.0
 79
     0
146
0.0
1001
ACAD_NAV_VCDISPLAY
1070
     3
  0
ENDTAB
  0
TABLE
  2
LTYPE
  5
5
330
0
100
AcDbSymbolTable
 70
     4
  0
LTYPE
  5
12
330
5
100
AcDbSymbolTableRecord
100
AcDbLinetypeTableRecord
  2
BYBLOCK
 70
     0
  3

 72
    65
 73
     0
 40
0.0
  0
LTYPE
  5
13
330
5
100
AcDbSymbolTableRecord
100
AcDbLinetypeTableRecord
  2
BYLAYER
 70
     0
  3

 72
    65
 73
     0
 40
0.0
  0
LTYPE
  5
14
330
5
100
AcDbSymbolTableRecord
100
AcDbLinetypeTableRecord
  2
CONTINUOUS
 70
     0
  3
Solid line
 72
    65
 73
     0
 40
0.0
  0
LTYPE
  5
3306
330
5
100
AcDbSymbolTableRecord
100
AcDbLinetypeTableRecord
  2
CENTER
 70
     0
  3
____ _ ____ _ ____ _ ____ _ ____ _ ____ _ ____
 72
    65
 73
     4
 40
17.5
 49
13.0
 74
     0
 49
-1.5
 74
     0
 49
1.5
 74
     0
 49
-1.5
 74
     0
  0
LTYPE
  5
709A5
330
5
100
AcDbSymbolTableRecord
100
AcDbLinetypeTableRecord
  2
PHANTOMX2
 70
     0
  3
Phantom (2x) ____________    ____    ____   _
 72
    65
 73
     6
 40
5.0
 49
2.5
 74
     0
 49
-0.5
 74
     0
 49
0.5
 74
     0
 49
-0.5
 74
     0
 49
0.5
 74
     0
 49
-0.5
 74
     0
  0
LTYPE
  5
709A7
330
5
100
AcDbSymbolTableRecord
100
AcDbLinetypeTableRecord
  2
HIDDENX2
 70
     0
  3
Hidden (2x) ____ ____ ____ ____ ____ ____ ____
 72
    65
 73
     2
 40
0.75
 49
0.5
 74
     0
 49
-0.25
 74
     0
  0
ENDTAB
  0
TABLE
  2
LAYER
  5
2
102
{ACAD_XDICTIONARY
360
5F310
102
}
330
0
100
AcDbSymbolTable
 70
     8
  0
LAYER
  5
E
330
2
100
AcDbSymbolTableRecord
100
AcDbLayerTableRecord
  2
0
 70
     2
 62
     7
  6
CONTINUOUS
370
    -3
390
73E
  0
LAYER
  5
8C6
330
2
100
AcDbSymbolTableRecord
100
AcDbLayerTableRecord
  2
文字
 70
     0
 62
     7
  6
CONTINUOUS
370
    30
390
73E
  0
LAYER
  5
96A
330
2
100
AcDbSymbolTableRecord
100
AcDbLayerTableRecord
  2
中心線
 70
     0
 62
    13
  6
CENTER
370
    13
390
73E
  0
LAYER
  5
1521
330
2
100
AcDbSymbolTableRecord
100
AcDbLayerTableRecord
  2
実線
 70
     0
 62
     4
  6
CONTINUOUS
370
    30
390
73E
  0
LAYER
  5
35AF6
330
2
100
AcDbSymbolTableRecord
100
AcDbLayerTableRecord
  2
寸法
 70
     0
 62
     3
  6
CONTINUOUS
370
    13
390
73E
  0
LAYER
  5
4D2E2
330
2
100
AcDbSymbolTableRecord
100
AcDbLayerTableRecord
  2
破線
 70
     0
 62
     8
  6
HIDDENX2
370
    13
390
73E
  0
LAYER
  5
5FA85
330
2
100
AcDbSymbolTableRecord
100
AcDbLayerTableRecord
  2
二点鎖線
 70
     0
 62
     5
  6
PHANTOMX2
370
    13
390
73E
  0
LAYER
  5
7150C
330
2
100
AcDbSymbolTableRecord
100
AcDbLayerTableRecord
  2
dimension
 70
     0
 62
     4
  6
CONTINUOUS
370
    13
390
73E
  0
ENDTAB
  0
TABLE
  2
STYLE
  5
3
330
0
100
AcDbSymbolTable
 70
     5
  0
STYLE
  5
F
330
3
100
AcDbSymbolTableRecord
100
AcDbTextStyleTableRecord
  2
STANDARD
 70
     0
 40
0.0
 41
1.0
 50
0.0
 71
     0
 42
2.5
  3
isocp.shx
  4
bigfont.shx
  0
STYLE
  5
34
330
3
100
AcDbSymbolTableRecord
100
AcDbTextStyleTableRecord
  2
TIMESNR
 70
     0
 40
0.0
 41
1.0
 50
0.0
 71
     0
 42
2.0
  3
times.ttf
  4

1001
ACAD
1000
Times New Roman
1071
       18
  0
STYLE
  5
8D7
330
3
100
AcDbSymbolTableRecord
100
AcDbTextStyleTableRecord
  2
MS\U+FF7A\U+FF9E\U+FF7C\U+FF6F\U+FF78-0
 70
     0
 40
0.0
 41
1.0
 50
0.0
 71
     0
 42
4.0
  3

  4

1001
ACAD
1000
MS Gothic
1071
    32817
  0
STYLE
  5
1529
330
3
100
AcDbSymbolTableRecord
100
AcDbTextStyleTableRecord
  2
まこ
 70
     0
 40
0.0
 41
1.0
 50
0.0
 71
     0
 42
2.5
  3
simplex.shx
  4
bigfont.shx
  0
STYLE
  5
70C29
330
3
100
AcDbSymbolTableRecord
100
AcDbTextStyleTableRecord
  2
MS\U+FF7A\U+FF9E\U+FF7C\U+FF6F\U+FF78N
 70
     0
 40
0.0
 41
1.0
 50
0.0
 71
     0
 42
5.0
  3

  4

1001
ACAD
1000
MS Gothic
1071
    32817
  0
ENDTAB
  0
TABLE
  2
VIEW
  5
6
330
0
100
AcDbSymbolTable
 70
     0
  0
ENDTAB
  0
TABLE
  2
UCS
  5
7
330
0
100
AcDbSymbolTable
 70
     0
  0
ENDTAB
  0
TABLE
  2
APPID
  5
9
330
0
100
AcDbSymbolTable
 70
     5
  0
APPID
  5
10
330
9
100
AcDbSymbolTableRecord
100
AcDbRegAppTableRecord
  2
ACAD
 70
     0
  0
APPID
  5
71539
330
9
100
AcDbSymbolTableRecord
100
AcDbRegAppTableRecord
  2
AcadAnnotative
 70
     0
  0
APPID
  5
715AF
330
9
100
AcDbSymbolTableRecord
100
AcDbRegAppTableRecord
  2
PE_CLOUD
 70
     0
  0
APPID
  5
72BED
330
9
100
AcDbSymbolTableRecord
100
AcDbRegAppTableRecord
  2
ACAD_NAV_VCDISPLAY
 70
     0
  0
APPID
  5
72C91
330
9
100
AcDbSymbolTableRecord
100
AcDbRegAppTableRecord
  2
ACAD_MLEADERVER
 70
     0
  0
ENDTAB
  0
TABLE
  2
DIMSTYLE
  5
A
330
0
100
AcDbSymbolTable
 70
     2
100
AcDbDimStyleTable
 71
     0
  0
DIMSTYLE
105
1D
330
A
100
AcDbSymbolTableRecord
100
AcDbDimStyleTableRecord
  2
STANDARD
 70
     0
 41
3.0
 42
0.8
 44
0.8
 73
     0
 74
     0
 77
     3
 78
     8
 79
     2
140
3.0
141
0.0
147
0.5
176
     4
177
     4
178
   256
340
8D7
341
89E
342
89E
371
    13
372
    13
  0
DIMSTYLE
105
54F7C
330
A
100
AcDbSymbolTableRecord
100
AcDbDimStyleTableRecord
  2
STD-I1
 70
     0
 40
1.5
 41
3.0
 42
1.0
 43
6.5
 44
1.0
 48
0.000000001
 73
     0
 74
     0
 77
     1
 78
     9
 79
     2
140
3.0
141
2.5
143
0.0394
146
0.8
147
0.75
171
     4
172
     1
173
     1
176
     4
177
     4
178
   256
179
     8
271
     8
272
     8
273
     8
274
     4
284
     9
340
F
341
24
343
24
344
24
371
    15
372
    15
  0
ENDTAB
  0
TABLE
  2
BLOCK_RECORD
  5
1
330
0
100
AcDbSymbolTable
 70
     2
  0
BLOCK_RECORD
  5
18
330
1
100
AcDbSymbolTableRecord
100
AcDbBlockTableRecord
  2
*MODEL_SPACE
340
741
  0
BLOCK_RECORD
  5
72BA7
330
1
100
AcDbSymbolTableRecord
100
AcDbBlockTableRecord
  2
*Paper_Space
340
72BA8
  0
BLOCK_RECORD
  5
24
330
1
100
AcDbSymbolTableRecord
100
AcDbBlockTableRecord
  2
_OPEN
340
0
  0
BLOCK_RECORD
  5
89E
330
1
100
AcDbSymbolTableRecord
100
AcDbBlockTableRecord
  2
_Open30
340
0
  0
ENDTAB
  0
ENDSEC
  0
SECTION
  2
BLOCKS
  0
BLOCK
  5
19
330
18
100
AcDbEntity
  8
0
100
AcDbBlockBegin
  2
*MODEL_SPACE
 70
     0
 10
0.0
 20
0.0
 30
0.0
  3
*MODEL_SPACE
  1

  0
ENDBLK
  5
1A
330
18
100
AcDbEntity
  8
0
100
AcDbBlockEnd
  0
BLOCK
  5
72BA9
330
72BA7
100
AcDbEntity
 67
     1
  8
0
100
AcDbBlockBegin
  2
*Paper_Space
 70
     0
 10
0.0
 20
0.0
 30
0.0
  3
*Paper_Space
  1

  0
ENDBLK
  5
72BAA
330
72BA7
100
AcDbEntity
 67
     1
  8
0
100
AcDbBlockEnd
  0
BLOCK
  5
25
330
24
100
AcDbEntity
  8
0
100
AcDbBlockBegin
  2
_OPEN
 70
     0
 10
0.0
 20
0.0
 30
0.0
  3
_OPEN
  1

  0
LINE
  5
26
330
24
100
AcDbEntity
  8
0
  6
ByBlock
 62
     0
100
AcDbLine
 10
-1.0
 20
0.1666666666666666
 30
0.0
 11
0.0
 21
0.0
 31
0.0
  0
LINE
  5
27
330
24
100
AcDbEntity
  8
0
  6
ByBlock
 62
     0
100
AcDbLine
 10
0.0
 20
0.0
 30
0.0
 11
-1.0
 21
-0.1666666666666666
 31
0.0
  0
LINE
  5
28
330
24
100
AcDbEntity
  8
0
  6
ByBlock
 62
     0
100
AcDbLine
 10
0.0
 20
0.0
 30
0.0
 11
-1.0
 21
0.0
 31
0.0
  0
ENDBLK
  5
29
330
24
100
AcDbEntity
  8
0
100
AcDbBlockEnd
  0
BLOCK
  5
8A2
330
89E
100
AcDbEntity
  8
0
100
AcDbBlockBegin
  2
_Open30
 70
     0
 10
0.0
 20
0.0
 30
0.0
  3
_Open30
  1

  0
LINE
  5
89F
330
89E
100
AcDbEntity
  8
0
  6
ByBlock
 62
     0
370
    -2
100
AcDbLine
 10
-1.0
 20
0.26794919
 30
0.0
 11
0.0
 21
0.0
 31
0.0
  0
LINE
  5
8A0
330
89E
100
AcDbEntity
  8
0
  6
ByBlock
 62
     0
370
    -2
100
AcDbLine
 10
0.0
 20
0.0
 30
0.0
 11
-1.0
 21
-0.26794919
 31
0.0
  0
LINE
  5
8A1
330
89E
100
AcDbEntity
  8
0
  6
ByBlock
 62
     0
370
    -2
100
AcDbLine
 10
0.0
 20
0.0
 30
0.0
 11
-1.0
 21
0.0
 31
0.0
  0
ENDBLK
  5
8A3
330
89E
100
AcDbEntity
  8
0
100
AcDbBlockEnd
  0
ENDSEC
  0
SECTION
  2
ENTITIES
  0
TEXT
  5
45626
330
18
100
AcDbEntity
  8
文字
100
AcDbText
 10
9435.461723978733
 20
3726.227546149175
 30
0.0
 40
5.0
  1
%%
  7
MS\U+FF7A\U+FF9E\U+FF7C\U+FF6F\U+FF78-0
100
AcDbText
  0
LINE
  5
659C4
330
18
100
AcDbEntity
  8
中心線
100
AcDbLine
 10
23310.34530739581
 20
-2074.272639827501
 30
0.0
 11
23310.34530739581
 21
-2240.152507302397
 31
0.0
  0
LINE
  5
6888B
102
{ACAD_REACTORS
330
68CCE
102
}
330
18
100
AcDbEntity
  8
二点鎖線
100
AcDbLine
 10
23711.64378345429
 20
-2174.334750794097
 30
0.0
 11
23711.64378345429
 21
-2224.32898693591
 31
0.0
  0
LINE
  5
6888C
102
{ACAD_REACTORS
330
68CCE
102
}
330
18
100
AcDbEntity
  8
中心線
100
AcDbLine
 10
23715.04378345429
 20
-2120.291363076129
 30
0.0
 11
23715.04378345429
 21
-2260.400475835671
 31
0.0
  0
LINE
  5
6888D
102
{ACAD_REACTORS
330
68CCE
102
}
330
18
100
AcDbEntity
  8
二点鎖線
100
AcDbLine
 10
23728.54378345429
 20
-2124.334750794094
 30
0.0
 11
23728.54378345429
 21
-2224.824877271984
 31
0.0
  0
LINE
  5
6888E
102
{ACAD_REACTORS
330
68CCE
102
}
330
18
100
AcDbEntity
  8
二点鎖線
100
AcDbLine
 10
23734.44378345429
 20
-2224.834750794105
 30
0.0
 11
23734.44378345429
 21
-2124.334750794094
 31
0.0
  0
LINE
  5
6888F
102
{ACAD_REACTORS
330
68CCE
102
}
330
18
100
AcDbEntity
  8
二点鎖線
100
AcDbLine
 10
23718.44378345429
 20
-2174.334750794097
 30
0.0
 11
23718.44378345429
 21
-2224.32898693591
 31
0.0
  0
LINE
  5
68890
102
{ACAD_REACTORS
330
68CCE
102
}
330
18
100
AcDbEntity
  8
二点鎖線
100
AcDbLine
 10
23734.44378345429
 20
-2124.334750794094
 30
0.0
 11
23695.64378345429
 21
-2124.334750794094
 31
0.0
  0
LINE
  5
68891
102
{ACAD_REACTORS
330
68CCE
102
}
330
18
100
AcDbEntity
  8
二点鎖線
100
AcDbLine
 10
23728.54378345429
 20
-2161.334750794099
 30
0.0
 11
23701.54378345429
 21
-2161.334750794099
 31
0.0
  0
LINE
  5
68892
102
{ACAD_REACTORS
330
68CCE
102
}
330
18
100
AcDbEntity
  8
二点鎖線
100
AcDbLine
 10
23718.44378345429
 20
-2174.334750794097
 30
0.0
 11
23728.54378345429
 21
-2174.334750794097
 31
0.0
  0
LINE
  5
68893
102
{ACAD_REACTORS
330
68CCE
102
}
330
18
100
AcDbEntity
  8
二点鎖線
100
AcDbLine
 10
23734.44378345429
 20
-2224.834750794105
 30
0.0
 11
23728.54378345429
 21
-2224.834750794105
 31
0.0
  0
LINE
  5
68894
102
{ACAD_REACTORS
330
68CCE
102
}
330
18
100
AcDbEntity
  8
二点鎖線
100
AcDbLine
 10
23718.44378345429
 20
-2224.334750794096
 30
0.0
 11
23728.54378345429
 21
-2224.334750794096
 31
0.0
  0
LINE
  5
68895
102
{ACAD_REACTORS
330
68CCE
102
}
330
18
100
AcDbEntity
  8
中心線
100
AcDbLine
 10
23688.42740692508
 20
-2144.334750794098
 30
0.0
 11
23741.66015998349
 21
-2144.334750794098
 31
0.0
  0
LINE
  5
68896
102
{ACAD_REACTORS
330
68CCE
102
}
330
18
100
AcDbEntity
  8
二点鎖線
100
AcDbLine
 10
23728.54378345429
 20
-2138.834750794099
 30
0.0
 11
23734.44378345429
 21
-2138.834750794099
 31
0.0
  0
LINE
  5
68897
102
{ACAD_REACTORS
330
68CCE
102
}
330
18
100
AcDbEntity
  8
二点鎖線
100
AcDbLine
 10
23728.54378345429
 20
-2149.8347507941
 30
0.0
 11
23734.44378345429
 21
-2149.8347507941
 31
0.0
  0
LINE
  5
68898
102
{ACAD_REACTORS
330
68CCE
102
}
330
18
100
AcDbEntity
  8
二点鎖線
100
AcDbLine
 10
23701.54378345429
 20
-2141.0347507941
 30
0.0
 11
23728.54378345429
 21
-2141.0347507941
 31
0.0
  0
LINE
  5
68899
102
{ACAD_REACTORS
330
68CCE
102
}
330
18
100
AcDbEntity
  8
二点鎖線
100
AcDbLine
 10
23701.54378345429
 20
-2147.6347507941
 30
0.0
 11
23728.54378345429
 21
-2147.6347507941
 31
0.0
  0
LINE
  5
6889A
102
{ACAD_REACTORS
330
68CCE
102
}
330
18
100
AcDbEntity
  8
二点鎖線
100
AcDbLine
 10
23695.64378345429
 20
-2224.834750794105
 30
0.0
 11
23695.64378345429
 21
-2124.334750794094
 31
0.0
  0
LINE
  5
6889B
102
{ACAD_REACTORS
330
68CCE
102
}
330
18
100
AcDbEntity
  8
二点鎖線
100
AcDbLine
 10
23701.54378345429
 20
-2124.334750794094
 30
0.0
 11
23701.54378345429
 21
-2224.824877271984
 31
0.0
  0
LINE
  5
6889C
102
{ACAD_REACTORS
330
68CCE
102
}
330
18
100
AcDbEntity
  8
二点鎖線
100
AcDbLine
 10
23711.64378345429
 20
-2174.334750794097
 30
0.0
 11
23701.54378345429
 21
-2174.334750794097
 31
0.0
  0
LINE
  5
6889D
102
{ACAD_REACTORS
330
68CCE
102
}
330
18
100
AcDbEntity
  8
二点鎖線
100
AcDbLine
 10
23701.54378345429
 20
-2224.834750794105
 30
0.0
 11
23695.64378345429
 21
-2224.834750794105
 31
0.0
  0
LINE
  5
6889E
102
{ACAD_REACTORS
330
68CCE
102
}
330
18
100
AcDbEntity
  8
二点鎖線
100
AcDbLine
 10
23711.64378345429
 20
-2224.334750794096
 30
0.0
 11
23701.54378345429
 21
-2224.334750794096
 31
0.0
  0
LINE
  5
6889F
102
{ACAD_REACTORS
330
68CCE
102
}
330
18
100
AcDbEntity
  8
二点鎖線
100
AcDbLine
 10
23701.54378345429
 20
-2138.834750794099
 30
0.0
 11
23695.64378345429
 21
-2138.834750794099
 31
0.0
  0
LINE
  5
688A0
102
{ACAD_REACTORS
330
68CCE
102
}
330
18
100
AcDbEntity
  8
二点鎖線
100
AcDbLine
 10
23701.54378345429
 20
-2149.8347507941
 30
0.0
 11
23695.64378345429
 21
-2149.8347507941
 31
0.0
  0
ARC
  5
688A1
102
{ACAD_REACTORS
330
68CCB
102
}
330
18
100
AcDbEntity
  8
実線
100
AcDbCircle
 10
23718.24378345428
 20
-2240.334750794096
 30
0.0
 40
1.0
100
AcDbArc
 50
270.0
 51
0.0
  0
LINE
  5
688A2
102
{ACAD_REACTORS
330
68CCB
102
}
330
18
100
AcDbEntity
  8
実線
 48
3.0
100
AcDbLine
 10
23729.54378345428
 20
-2226.834750794095
 30
0.0
 11
23730.04378345428
 21
-2227.334750794096
 31
0.0
  0
LINE
  5
688A3
102
{ACAD_REACTORS
330
68CCB
102
}
330
18
100
AcDbEntity
  8
実線
100
AcDbLine
 10
23730.04378345428
 20
-2255.834750794095
 30
0.0
 11
23730.04378345428
 21
-2227.334750794096
 31
0.0
  0
LINE
  5
688A4
102
{ACAD_REACTORS
330
68CCB
102
}
330
18
100
AcDbEntity
  8
実線
 48
3.0
100
AcDbLine
 10
23729.54378345428
 20
-2226.834750794095
 30
0.0
 11
23719.24378345428
 21
-2226.834750794095
 31
0.0
  0
HATCH
  5
688A5
102
{ACAD_REACTORS
330
68CCB
102
}
330
18
100
AcDbEntity
  8
寸法
100
AcDbHatch
 10
0.0
 20
0.0
 30
0.0
210
0.0
220
0.0
230
1.0
  2
ANSI31
 70
     0
 71
     0
 91
        2
 92
        7
 72
     1
 73
     1
 93
        3
 10
23715.04378345429
 20
-2237.834750794094
 42
0.0
 10
23718.54378345428
 20
-2237.834750794094
 42
0.4142135623730951
 10
23715.04378345429
 20
-2234.334750794094
 42
0.0
 97
        0
 92
        7
 72
     1
 73
     1
 93
        3
 10
23715.04378345428
 20
-2237.834750794094
 42
0.0
 10
23711.54378345428
 20
-2237.834750794094
 42
0.4142135623730951
 10
23715.04378345429
 20
-2241.334750794094
 42
0.0
 97
        0
 75
     0
 76
     1
 52
0.0
 41
1.0
 77
     0
 78
     1
 53
45.0
 43
6737.367622252536
 44
-5163.67029652555
 45
-0.0883883476483184
 46
0.0883883476483185
 79
     0
 47
0.0580454179425963
 98
        2
 10
23715.81583494159
 20
-2235.500285844985
 10
23714.24818181262
 20
-2239.215205031473
  0
LINE
  5
688A6
102
{ACAD_REACTORS
330
68CCB
102
}
330
18
100
AcDbEntity
  8
中心線
100
AcDbLine
 10
23715.04378345429
 20
-2232.477757576587
 30
0.0
 11
23715.04378345429
 21
-2243.1917440116
 31
0.0
  0
LINE
  5
688A7
102
{ACAD_REACTORS
330
68CCB
102
}
330
18
100
AcDbEntity
  8
中心線
100
AcDbLine
 10
23709.68679023678
 20
-2237.834750794094
 30
0.0
 11
23720.40077667179
 21
-2237.834750794094
 31
0.0
  0
CIRCLE
  5
688A8
102
{ACAD_REACTORS
330
68CCB
102
}
330
18
100
AcDbEntity
  8
実線
100
AcDbCircle
 10
23715.04378345429
 20
-2237.834750794094
 30
0.0
 40
3.5
  0
LINE
  5
688A9
102
{ACAD_REACTORS
330
68CCB
102
}
330
18
100
AcDbEntity
  8
実線
100
AcDbLine
 10
23700.04378345428
 20
-2255.834750794095
 30
0.0
 11
23700.54378345428
 21
-2256.334750794094
 31
0.0
  0
ARC
  5
688AA
102
{ACAD_REACTORS
330
68CCB
102
}
330
18
100
AcDbEntity
  8
実線
100
AcDbCircle
 10
23711.84378345428
 20
-2240.334750794096
 30
0.0
 40
1.0
100
AcDbArc
 50
180.0
 51
270.0
  0
LINE
  5
688AB
102
{ACAD_REACTORS
330
68CCB
102
}
330
18
100
AcDbEntity
  8
実線
 48
3.0
100
AcDbLine
 10
23700.54378345428
 20
-2226.834750794095
 30
0.0
 11
23700.04378345428
 21
-2227.334750794096
 31
0.0
  0
LINE
  5
688AC
102
{ACAD_REACTORS
330
68CCB
102
}
330
18
100
AcDbEntity
  8
実線
 48
3.0
100
AcDbLine
 10
23710.84378345428
 20
-2226.834750794095
 30
0.0
 11
23700.54378345428
 21
-2226.834750794095
 31
0.0
  0
LINE
  5
688AD
102
{ACAD_REACTORS
330
68CCB
102
}
330
18
100
AcDbEntity
  8
実線
100
AcDbLine
 10
23700.04378345428
 20
-2227.334750794096
 30
0.0
 11
23700.04378345428
 21
-2255.834750794095
 31
0.0
  0
LINE
  5
688AE
102
{ACAD_REACTORS
330
68CCB
102
}
330
18
100
AcDbEntity
  8
実線
100
AcDbLine
 10
23710.84378345428
 20
-2226.834750794095
 30
0.0
 11
23710.84378345428
 21
-2240.334750794096
 31
0.0
  0
LINE
  5
688AF
102
{ACAD_REACTORS
330
68CCB
102
}
330
18
100
AcDbEntity
  8
実線
100
AcDbLine
 10
23729.54378345428
 20
-2256.334750794094
 30
0.0
 11
23730.04378345428
 21
-2255.834750794095
 31
0.0
  0
LINE
  5
688B0
102
{ACAD_REACTORS
330
68CCB
102
}
330
18
100
AcDbEntity
  8
実線
100
AcDbLine
 10
23719.24378345428
 20
-2226.834750794095
 30
0.0
 11
23719.24378345428
 21
-2240.334750794096
 31
0.0
  0
LINE
  5
688B1
102
{ACAD_REACTORS
330
68CCB
102
}
330
18
100
AcDbEntity
  8
実線
100
AcDbLine
 10
23718.24378345428
 20
-2241.334750794095
 30
0.0
 11
23711.84378345428
 21
-2241.334750794095
 31
0.0
  0
LINE
  5
688B2
102
{ACAD_REACTORS
330
68CCB
102
}
330
18
100
AcDbEntity
  8
実線
100
AcDbLine
 10
23700.54378345428
 20
-2256.334750794094
 30
0.0
 11
23729.54378345428
 21
-2256.334750794094
 31
0.0
  0
LINE
  5
688B3
102
{ACAD_REACTORS
330
68CCB
102
}
330
18
100
AcDbEntity
  8
実線
 48
3.0
100
AcDbLine
 10
23710.54378345428
 20
-2226.834750794095
 30
0.0
 11
23712.34378345428
 21
-2225.034750794095
 31
0.0
  0
LINE
  5
688B4
102
{ACAD_REACTORS
330
68CCB
102
}
330
18
100
AcDbEntity
  8
実線
 48
3.0
100
AcDbLine
 10
23719.54378345428
 20
-2226.834750794095
 30
0.0
 11
23717.74378345429
 21
-2225.034750794095
 31
0.0
  0
LINE
  5
688B5
102
{ACAD_REACTORS
330
68CCB
102
}
330
18
100
AcDbEntity
  8
中心線
100
AcDbLine
 10
23734.10950849586
 20
-2246.334750794097
 30
0.0
 11
23695.9780584127
 21
-2246.334750794097
 31
0.0
  0
LINE
  5
688B6
102
{ACAD_REACTORS
330
68CCB
102
}
330
18
100
AcDbEntity
  8
破線
100
AcDbLine
 10
23723.54378345428
 20
-2249.634750794097
 30
0.0
 11
23706.54378345428
 21
-2249.634750794097
 31
0.0
  0
LINE
  5
688B7
102
{ACAD_REACTORS
330
68CCB
102
}
330
18
100
AcDbEntity
  8
破線
100
AcDbLine
 10
23723.54378345428
 20
-2240.834750794097
 30
0.0
 11
23723.54378345428
 21
-2251.834750794097
 31
0.0
  0
LINE
  5
688B8
102
{ACAD_REACTORS
330
68CCB
102
}
330
18
100
AcDbEntity
  8
破線
100
AcDbLine
 10
23730.04378345428
 20
-2251.834750794097
 30
0.0
 11
23723.54378345428
 21
-2251.834750794097
 31
0.0
  0
LINE
  5
688B9
102
{ACAD_REACTORS
330
68CCB
102
}
330
18
100
AcDbEntity
  8
破線
100
AcDbLine
 10
23723.54378345428
 20
-2243.034750794097
 30
0.0
 11
23706.54378345428
 21
-2243.034750794097
 31
0.0
  0
LINE
  5
688BA
102
{ACAD_REACTORS
330
68CCB
102
}
330
18
100
AcDbEntity
  8
破線
100
AcDbLine
 10
23730.04378345428
 20
-2240.834750794097
 30
0.0
 11
23723.54378345428
 21
-2240.834750794097
 31
0.0
  0
LINE
  5
688BB
102
{ACAD_REACTORS
330
68CCB
102
}
330
18
100
AcDbEntity
  8
破線
100
AcDbLine
 10
23700.04378345428
 20
-2251.834750794097
 30
0.0
 11
23706.54378345428
 21
-2251.834750794097
 31
0.0
  0
LINE
  5
688BC
102
{ACAD_REACTORS
330
68CCB
102
}
330
18
100
AcDbEntity
  8
破線
100
AcDbLine
 10
23706.54378345428
 20
-2240.834750794097
 30
0.0
 11
23706.54378345428
 21
-2251.834750794097
 31
0.0
  0
LINE
  5
688BD
102
{ACAD_REACTORS
330
68CCB
102
}
330
18
100
AcDbEntity
  8
破線
100
AcDbLine
 10
23700.04378345428
 20
-2240.834750794097
 30
0.0
 11
23706.54378345428
 21
-2240.834750794097
 31
0.0
  0
LINE
  5
688BE
102
{ACAD_REACTORS
330
68CCB
102
}
330
18
100
AcDbEntity
  8
中心線
100
AcDbLine
 10
23715.04378345429
 20
-2120.291363076129
 30
0.0
 11
23715.04378345429
 21
-2260.400475835671
 31
0.0
  0
LINE
  5
688BF
102
{ACAD_REACTORS
330
68CCB
102
}
330
18
100
AcDbEntity
  8
実線
 48
3.0
100
AcDbLine
 10
23717.74378345429
 20
-2225.034750794095
 30
0.0
 11
23717.74378345429
 21
-2164.334750794096
 31
0.0
  0
LINE
  5
688C0
102
{ACAD_REACTORS
330
68CCB
102
}
330
18
100
AcDbEntity
  8
実線
 48
3.0
100
AcDbLine
 10
23712.34378345428
 20
-2225.034750794095
 30
0.0
 11
23712.34378345429
 21
-2164.334750794097
 31
0.0
  0
LINE
  5
688C1
102
{ACAD_REACTORS
330
68CCB
102
}
330
18
100
AcDbEntity
  8
実線
 48
3.0
100
AcDbLine
 10
23716.74378345428
 20
-2163.334750794096
 30
0.0
 11
23713.34378345429
 21
-2163.334750794097
 31
0.0
  0
ARC
  5
688C2
102
{ACAD_REACTORS
330
68CCB
102
}
330
18
100
AcDbEntity
  8
実線
 48
3.0
100
AcDbCircle
 10
23713.34378345429
 20
-2164.334750794097
 30
0.0
 40
1.0
100
AcDbArc
 50
90.0
 51
180.0
  0
ARC
  5
688C3
102
{ACAD_REACTORS
330
68CCB
102
}
330
18
100
AcDbEntity
  8
実線
 48
3.0
100
AcDbCircle
 10
23716.74378345428
 20
-2164.334750794096
 30
0.0
 40
1.0
100
AcDbArc
 50
0.0
 51
90.0
  0
LINE
  5
688DB
102
{ACAD_REACTORS
330
6B6CD
102
}
330
18
100
AcDbEntity
  8
実線
100
AcDbLine
 10
23120.84530739579
 20
-2256.334750794095
 30
0.0
 11
23499.84530739581
 21
-2256.334750794096
 31
0.0
  0
ARC
  5
688DE
102
{ACAD_REACTORS
330
6B6CD
102
}
330
18
100
AcDbEntity
  8
実線
100
AcDbCircle
 10
23310.34530739581
 20
-674.3347507940953
 30
0.0
 40
1552.5
100
AcDbArc
 50
262.9703330895988
 51
277.0296669104004
  0
LINE
  5
688DF
102
{ACAD_REACTORS
330
6B6CD
102
}
330
18
100
AcDbEntity
  8
中心線
100
AcDbLine
 10
23477.23708568217
 20
-2246.334750794098
 30
0.0
 11
23143.45352910944
 21
-2246.334750794098
 31
0.0
  0
ARC
  5
688EE
102
{ACAD_REACTORS
330
6B6CD
102
}
330
18
100
AcDbEntity
  8
実線
100
AcDbCircle
 10
23310.34530739581
 20
-674.3347507940953
 30
0.0
 40
1489.0
100
AcDbArc
 50
262.9703330895993
 51
277.0296669104007
  0
LINE
  5
688F7
102
{ACAD_REACTORS
330
6B6CD
102
}
330
18
100
AcDbEntity
  8
中心線
100
AcDbLine
 10
23310.34530739581
 20
-2147.263601763527
 30
0.0
 11
23310.3453073958
 21
-2266.334750794095
 31
0.0
  0
LINE
  5
6893B
102
{ACAD_REACTORS
330
6B6CD
102
}
330
18
100
AcDbEntity
  8
実線
100
AcDbLine
 10
23120.3453073958
 20
-2215.16447857066
 30
0.0
 11
23128.11664394974
 21
-2152.141813376577
 31
0.0
  0
LINE
  5
689BF
102
{ACAD_REACTORS
330
68CD3
330
6B6CD
102
}
330
18
100
AcDbEntity
  8
中心線
100
AcDbLine
 10
23160.34530739582
 20
-2238.062533634769
 30
0.0
 11
23160.34530739582
 21
-2254.606967953426
 31
0.0
  0
CIRCLE
  5
689C0
102
{ACAD_REACTORS
330
68CD3
330
68CD4
330
6B6CD
102
}
330
18
100
AcDbEntity
  8
実線
100
AcDbCircle
 10
23160.34530739582
 20
-2246.334750794098
 30
0.0
 40
3.299999999999999
  0
CIRCLE
  5
689C1
102
{ACAD_REACTORS
330
68CD3
330
68CD4
330
6B6CD
102
}
330
18
100
AcDbEntity
  8
実線
100
AcDbCircle
 10
23160.34530739582
 20
-2246.334750794098
 30
0.0
 40
5.5
  0
LINE
  5
689ED
102
{ACAD_REACTORS
330
6B6CD
102
}
330
18
100
AcDbEntity
  8
実線
100
AcDbLine
 10
23120.84530739579
 20
-2256.334750794095
 30
0.0
 11
23120.34530739579
 21
-2255.834750794095
 31
0.0
  0
LINE
  5
689EE
102
{ACAD_REACTORS
330
6B6CD
102
}
330
18
100
AcDbEntity
  8
実線
100
AcDbLine
 10
23120.3453073958
 20
-2215.164478570674
 30
0.0
 11
23120.34530739579
 21
-2255.834750794095
 31
0.0
  0
LINE
  5
68A0D
102
{ACAD_REACTORS
330
68CD7
330
6B6CD
102
}
330
18
100
AcDbEntity
  8
中心線
100
AcDbLine
 10
23220.34530739581
 20
-2238.062533634769
 30
0.0
 11
23220.34530739581
 21
-2254.606967953426
 31
0.0
  0
CIRCLE
  5
68A0E
102
{ACAD_REACTORS
330
68CD7
330
68CD8
330
6B6CD
102
}
330
18
100
AcDbEntity
  8
実線
100
AcDbCircle
 10
23220.34530739581
 20
-2246.334750794098
 30
0.0
 40
3.299999999999999
  0
CIRCLE
  5
68A0F
102
{ACAD_REACTORS
330
68CD7
330
68CD8
330
6B6CD
102
}
330
18
100
AcDbEntity
  8
実線
100
AcDbCircle
 10
23220.34530739581
 20
-2246.334750794098
 30
0.0
 40
5.5
  0
LINE
  5
68A10
102
{ACAD_REACTORS
330
68CD5
330
6B6CD
102
}
330
18
100
AcDbEntity
  8
中心線
100
AcDbLine
 10
23280.34530739581
 20
-2238.062533634769
 30
0.0
 11
23280.34530739581
 21
-2254.606967953426
 31
0.0
  0
CIRCLE
  5
68A11
102
{ACAD_REACTORS
330
68CD5
330
68CD6
330
6B6CD
102
}
330
18
100
AcDbEntity
  8
実線
100
AcDbCircle
 10
23280.34530739581
 20
-2246.334750794098
 30
0.0
 40
3.299999999999999
  0
CIRCLE
  5
68A12
102
{ACAD_REACTORS
330
68CD5
330
68CD6
330
6B6CD
102
}
330
18
100
AcDbEntity
  8
実線
100
AcDbCircle
 10
23280.34530739581
 20
-2246.334750794098
 30
0.0
 40
5.5
  0
CIRCLE
  5
68A13
102
{ACAD_REACTORS
330
6B6CD
102
}
330
18
100
AcDbEntity
  8
実線
100
AcDbCircle
 10
23250.34530739582
 20
-2246.334750794101
 30
0.0
 40
2.5
  0
LINE
  5
68A14
102
{ACAD_REACTORS
330
6B6CD
102
}
330
18
100
AcDbEntity
  8
中心線
100
AcDbLine
 10
23250.34530739582
 20
-2242.334750794098
 30
0.0
 11
23250.34530739582
 21
-2250.334750794096
 31
0.0
  0
LINE
  5
68A15
102
{ACAD_REACTORS
330
68CDD
330
6B6CD
102
}
330
18
100
AcDbEntity
  8
中心線
100
AcDbLine
 10
23340.34530739581
 20
-2238.062533634769
 30
0.0
 11
23340.34530739581
 21
-2254.606967953426
 31
0.0
  0
CIRCLE
  5
68A16
102
{ACAD_REACTORS
330
68CDD
330
68CDE
330
6B6CD
102
}
330
18
100
AcDbEntity
  8
実線
100
AcDbCircle
 10
23340.34530739581
 20
-2246.334750794098
 30
0.0
 40
3.299999999999999
  0
CIRCLE
  5
68A17
102
{ACAD_REACTORS
330
68CDD
330
68CDE
330
6B6CD
102
}
330
18
100
AcDbEntity
  8
実線
100
AcDbCircle
 10
23340.34530739581
 20
-2246.334750794098
 30
0.0
 40
5.5
  0
CIRCLE
  5
68A18
102
{ACAD_REACTORS
330
6B6CD
102
}
330
18
100
AcDbEntity
  8
実線
100
AcDbCircle
 10
23370.34530739581
 20
-2246.334750794103
 30
0.0
 40
2.5
  0
LINE
  5
68A19
102
{ACAD_REACTORS
330
6B6CD
102
}
330
18
100
AcDbEntity
  8
中心線
100
AcDbLine
 10
23370.3453073958
 20
-2242.3347507941
 30
0.0
 11
23370.3453073958
 21
-2250.334750794094
 31
0.0
  0
CIRCLE
  5
68A1A
102
{ACAD_REACTORS
330
68CDF
330
68CE0
330
6B6CD
102
}
330
18
100
AcDbEntity
  8
実線
100
AcDbCircle
 10
23400.34530739581
 20
-2246.334750794098
 30
0.0
 40
3.299999999999999
  0
CIRCLE
  5
68A1B
102
{ACAD_REACTORS
330
68CDF
330
68CE0
330
6B6CD
102
}
330
18
100
AcDbEntity
  8
実線
100
AcDbCircle
 10
23400.34530739581
 20
-2246.334750794098
 30
0.0
 40
5.5
  0
LINE
  5
68A1C
102
{ACAD_REACTORS
330
68CDF
330
6B6CD
102
}
330
18
100
AcDbEntity
  8
中心線
100
AcDbLine
 10
23400.34530739581
 20
-2238.062533634769
 30
0.0
 11
23400.34530739581
 21
-2254.606967953426
 31
0.0
  0
LINE
  5
68B84
102
{ACAD_REACTORS
330
6B6CD
102
}
330
18
100
AcDbEntity
  8
実線
 48
2.0
100
AcDbLine
 10
23500.34530739581
 20
-2215.16447857066
 30
0.0
 11
23500.10054089017
 21
-2213.17951273778
 31
0.0
  0
LINE
  5
68BB1
102
{ACAD_REACTORS
330
6B6CD
102
}
330
18
100
AcDbEntity
  8
実線
100
AcDbLine
 10
23606.8020357879
 20
-2240.944551556008
 30
0.0
 11
23597.3020357879
 21
-2240.944551556008
 31
0.0
  0
LINE
  5
68BB2
102
{ACAD_REACTORS
330
6B6CD
330
70E25
102
}
330
18
100
AcDbEntity
  8
実線
100
AcDbLine
 10
23561.22084298065
 20
-2234.334750794095
 30
0.0
 11
23533.41915190094
 21
-2234.334750794096
 31
0.0
  0
LINE
  5
68BB3
102
{ACAD_REACTORS
330
6B6CD
102
}
330
18
100
AcDbEntity
  8
実線
100
AcDbLine
 10
23584.20199068642
 20
-2243.419545502966
 30
0.0
 11
23584.20199068642
 21
-2242.419551556008
 31
0.0
  0
LINE
  5
68BB4
102
{ACAD_REACTORS
330
6B6CD
102
}
330
18
100
AcDbEntity
  8
実線
100
AcDbLine
 10
23583.10199068642
 20
-2243.419545502966
 30
0.0
 11
23584.20199068642
 21
-2243.419545502966
 31
0.0
  0
LINE
  5
68BB5
102
{ACAD_REACTORS
330
6B6CD
330
70E25
102
}
330
18
100
AcDbEntity
  8
実線
100
AcDbLine
 10
23561.1965284206
 20
-2240.031560654012
 30
0.0
 11
23583.0874356632
 21
-2242.784983105025
 31
0.0
  0
LINE
  5
68BB6
102
{ACAD_REACTORS
330
6B6CD
102
}
330
18
100
AcDbEntity
  8
実線
100
AcDbLine
 10
23584.20199068642
 20
-2242.419551556008
 30
0.0
 11
23597.3020357879
 21
-2242.419551556008
 31
0.0
  0
LINE
  5
68BB7
102
{ACAD_REACTORS
330
6B6CD
102
}
330
18
100
AcDbEntity
  8
実線
100
AcDbLine
 10
23583.10199068642
 20
-2243.419545502966
 30
0.0
 11
23583.10199068642
 21
-2231.419545502965
 31
0.0
  0
LINE
  5
68BB8
102
{ACAD_REACTORS
330
6B6CD
102
}
330
18
100
AcDbEntity
  8
実線
100
AcDbLine
 10
23600.60489293075
 20
-2229.990980127437
 30
0.0
 11
23597.3020357879
 21
-2229.990980127437
 31
0.0
  0
LINE
  5
68BB9
102
{ACAD_REACTORS
330
6B6CD
102
}
330
18
100
AcDbEntity
  8
実線
100
AcDbLine
 10
23595.68946435933
 20
-2231.933837270294
 30
0.0
 11
23595.68946435933
 21
-2231.43312876996
 31
0.0
  0
LINE
  5
68BBA
102
{ACAD_REACTORS
330
6B6CD
102
}
330
18
100
AcDbEntity
  8
実線
100
AcDbLine
 10
23600.60489293075
 20
-2232.225265841722
 30
0.0
 11
23600.7020357879
 21
-2231.156694413151
 31
0.0
  0
LINE
  5
68BBB
102
{ACAD_REACTORS
330
6B6CD
102
}
330
18
100
AcDbEntity
  8
実線
100
AcDbLine
 10
23603.03346435932
 20
-2231.253837270294
 30
0.0
 11
23602.0620357879
 21
-2232.225265841722
 31
0.0
  0
ARC
  5
68BBC
102
{ACAD_REACTORS
330
6B6CD
102
}
330
18
100
AcDbEntity
  8
実線
100
AcDbCircle
 10
23595.20375007361
 20
-2231.433128769959
 30
0.0
 40
0.4857142857142857
100
AcDbArc
 50
0.0
 51
80.00000000011144
  0
LINE
  5
68BBD
102
{ACAD_REACTORS
330
6B6CD
102
}
330
18
100
AcDbEntity
  8
実線
100
AcDbLine
 10
23600.7020357879
 20
-2231.156694413151
 30
0.0
 11
23597.3020357879
 21
-2231.156694413151
 31
0.0
  0
LINE
  5
68BBE
102
{ACAD_REACTORS
330
6B6CD
102
}
330
18
100
AcDbEntity
  8
実線
100
AcDbLine
 10
23584.20199068642
 20
-2232.419551556008
 30
0.0
 11
23584.20199068642
 21
-2231.419545502965
 31
0.0
  0
LINE
  5
68BBF
102
{ACAD_REACTORS
330
6B6CD
102
}
330
18
100
AcDbEntity
  8
実線
100
AcDbLine
 10
23583.10199068642
 20
-2231.419545502965
 30
0.0
 11
23584.20199068642
 21
-2231.419545502965
 31
0.0
  0
LINE
  5
68BC0
102
{ACAD_REACTORS
330
6B6CD
102
}
330
18
100
AcDbEntity
  8
実線
100
AcDbLine
 10
23603.03346435932
 20
-2231.253837270294
 30
0.0
 11
23603.03346435932
 21
-2229.990980127437
 31
0.0
  0
LINE
  5
68BC1
102
{ACAD_REACTORS
330
6B6CD
102
}
330
18
100
AcDbEntity
  8
実線
100
AcDbLine
 10
23595.28809347419
 20
-2230.954793575639
 30
0.0
 11
23589.8220357879
 21
-2229.990980127437
 31
0.0
  0
LINE
  5
68BC2
102
{ACAD_REACTORS
330
6B6CD
102
}
330
18
100
AcDbEntity
  8
実線
100
AcDbLine
 10
23600.18717864504
 20
-2228.601837270294
 30
0.0
 11
23589.8220357879
 21
-2228.601837270294
 31
0.0
  0
LINE
  5
68BC3
102
{ACAD_REACTORS
330
6B6CD
102
}
330
18
100
AcDbEntity
  8
実線
100
AcDbLine
 10
23602.0620357879
 20
-2229.019551556008
 30
0.0
 11
23590.79346435933
 21
-2229.019551556008
 31
0.0
  0
LINE
  5
68BC4
102
{ACAD_REACTORS
330
6B6CD
102
}
330
18
100
AcDbEntity
  8
実線
100
AcDbLine
 10
23600.60489293075
 20
-2229.019551556008
 30
0.0
 11
23600.18717864504
 21
-2228.601837270294
 31
0.0
  0
LINE
  5
68BC5
102
{ACAD_REACTORS
330
6B6CD
102
}
330
18
100
AcDbEntity
  8
実線
100
AcDbLine
 10
23590.79346435933
 20
-2229.019551556008
 30
0.0
 11
23590.79346435933
 21
-2228.601837270294
 31
0.0
  0
LINE
  5
68BC6
102
{ACAD_REACTORS
330
6B6CD
102
}
330
18
100
AcDbEntity
  8
実線
100
AcDbLine
 10
23600.60489293075
 20
-2229.990980127437
 30
0.0
 11
23600.60489293075
 21
-2229.019551556008
 31
0.0
  0
LINE
  5
68BC7
102
{ACAD_REACTORS
330
6B6CD
102
}
330
18
100
AcDbEntity
  8
実線
100
AcDbLine
 10
23602.0620357879
 20
-2229.019551556008
 30
0.0
 11
23603.03346435932
 21
-2229.990980127437
 31
0.0
  0
LINE
  5
68BC8
102
{ACAD_REACTORS
330
6B6CD
102
}
330
18
100
AcDbEntity
  8
実線
100
AcDbLine
 10
23589.8220357879
 20
-2229.990980127437
 30
0.0
 11
23589.8220357879
 21
-2228.601837270294
 31
0.0
  0
LINE
  5
68BC9
102
{ACAD_REACTORS
330
6B6CD
102
}
330
18
100
AcDbEntity
  8
実線
100
AcDbLine
 10
23597.3020357879
 20
-2232.419551556008
 30
0.0
 11
23597.3020357879
 21
-2228.601837270294
 31
0.0
  0
LINE
  5
68BCA
102
{ACAD_REACTORS
330
68CE1
330
6B6CD
102
}
330
18
100
AcDbEntity
  8
中心線
100
AcDbLine
 10
23460.34530739581
 20
-2238.062533634769
 30
0.0
 11
23460.34530739581
 21
-2254.606967953426
 31
0.0
  0
CIRCLE
  5
68BCB
102
{ACAD_REACTORS
330
68CE1
330
68CE2
330
6B6CD
102
}
330
18
100
AcDbEntity
  8
実線
100
AcDbCircle
 10
23460.34530739581
 20
-2246.334750794098
 30
0.0
 40
5.5
  0
CIRCLE
  5
68BCC
102
{ACAD_REACTORS
330
68CE1
330
68CE2
330
6B6CD
102
}
330
18
100
AcDbEntity
  8
実線
100
AcDbCircle
 10
23460.34530739581
 20
-2246.334750794098
 30
0.0
 40
3.299999999999999
  0
LINE
  5
68BCD
102
{ACAD_REACTORS
330
6B6CD
330
70E25
102
}
330
18
100
AcDbEntity
  8
実線
100
AcDbLine
 10
23561.22084298065
 20
-2241.334750794095
 30
0.0
 11
23532.18486303598
 21
-2241.334750794096
 31
0.0
  0
LINE
  5
68BCE
102
{ACAD_REACTORS
330
6B6CD
330
70E25
102
}
330
18
100
AcDbEntity
  8
実線
100
AcDbLine
 10
23569.05916054532
 20
-2236.619179619944
 30
0.0
 11
23570.6497308632
 21
-2236.819240402013
 31
0.0
  0
LINE
  5
68BCF
102
{ACAD_REACTORS
330
6B6CD
330
70E25
102
}
330
18
100
AcDbEntity
  8
実線
100
AcDbLine
 10
23561.20238414269
 20
-2237.631567797664
 30
0.0
 11
23562.69687927381
 21
-2237.819544312359
 31
0.0
  0
LINE
  5
68BD0
102
{ACAD_REACTORS
330
6B6CD
330
70E25
102
}
330
18
100
AcDbEntity
  8
実線
100
AcDbLine
 10
23561.22084298065
 20
-2241.334750794095
 30
0.0
 11
23561.22084298065
 21
-2234.334750794095
 31
0.0
  0
LINE
  5
68BD1
102
{ACAD_REACTORS
330
6B6CD
330
70E25
102
}
330
18
100
AcDbEntity
  8
実線
100
AcDbLine
 10
23561.22084298065
 20
-2240.334750790795
 30
0.0
 11
23561.22084298065
 21
-2235.334750797395
 31
0.0
  0
LINE
  5
68BD2
102
{ACAD_REACTORS
330
6B6CD
102
}
330
18
100
AcDbEntity
  8
実線
100
AcDbLine
 10
23606.8020357879
 20
-2233.394551556008
 30
0.0
 11
23597.3020357879
 21
-2233.394551556008
 31
0.0
  0
LINE
  5
68BD3
102
{ACAD_REACTORS
330
6B6CD
102
}
330
18
100
AcDbEntity
  8
実線
100
AcDbLine
 10
23606.8020357879
 20
-2236.844551556008
 30
0.0
 11
23597.3020357879
 21
-2236.844551556008
 31
0.0
  0
LINE
  5
68BD4
102
{ACAD_REACTORS
330
6B6CD
102
}
330
18
100
AcDbEntity
  8
実線
100
AcDbLine
 10
23606.8020357879
 20
-2237.494551556008
 30
0.0
 11
23597.3020357879
 21
-2237.494551556008
 31
0.0
  0
LINE
  5
68BD5
102
{ACAD_REACTORS
330
6B6CD
102
}
330
18
100
AcDbEntity
  8
実線
100
AcDbLine
 10
23606.8020357879
 20
-2240.944551556008
 30
0.0
 11
23606.8020357879
 21
-2237.494551556008
 31
0.0
  0
LINE
  5
68BD6
102
{ACAD_REACTORS
330
6B6CD
102
}
330
18
100
AcDbEntity
  8
実線
100
AcDbLine
 10
23606.8020357879
 20
-2236.844551556008
 30
0.0
 11
23606.8020357879
 21
-2233.394551556008
 31
0.0
  0
LINE
  5
68BD7
102
{ACAD_REACTORS
330
6B6CD
102
}
330
18
100
AcDbEntity
  8
実線
100
AcDbLine
 10
23597.3020357879
 20
-2242.419551556008
 30
0.0
 11
23597.3020357879
 21
-2232.419551556008
 31
0.0
  0
LINE
  5
68BD8
102
{ACAD_REACTORS
330
6B6CD
102
}
330
18
100
AcDbEntity
  8
実線
100
AcDbLine
 10
23584.20199068642
 20
-2232.419551556008
 30
0.0
 11
23597.3020357879
 21
-2232.419551556008
 31
0.0
  0
ARC
  5
68BD9
102
{ACAD_REACTORS
330
6B6CD
102
}
330
18
100
AcDbEntity
  8
実線
100
AcDbCircle
 10
23595.20375007361
 20
-2231.933837270294
 30
0.0
 40
0.4857142857142857
100
AcDbArc
 50
270.0
 51
0.0
  0
LINE
  5
68BDA
102
{ACAD_REACTORS
330
6B6CD
102
}
330
18
100
AcDbEntity
  8
実線
100
AcDbLine
 10
23602.0620357879
 20
-2232.225265841722
 30
0.0
 11
23600.60489293076
 21
-2232.225265841722
 31
0.0
  0
LINE
  5
68BDB
102
{ACAD_REACTORS
330
6B6CD
330
70E25
102
}
330
18
100
AcDbEntity
  8
実線
100
AcDbLine
 10
23578.60258245259
 20
-2237.819544312359
 30
0.0
 11
23583.09817115371
 21
-2238.384996201721
 31
0.0
  0
LINE
  5
68BDC
102
{ACAD_REACTORS
330
6B6CD
330
70E25
102
}
330
18
100
AcDbEntity
  8
実線
100
AcDbLine
 10
23561.20726391111
 20
-2240.007514874009
 30
0.0
 11
23583.09817115371
 21
-2237.254092422995
 31
0.0
  0
LINE
  5
68BDD
102
{ACAD_REACTORS
330
6B6CD
330
70E25
102
}
330
18
100
AcDbEntity
  8
実線
100
AcDbLine
 10
23561.20140818901
 20
-2237.607522017662
 30
0.0
 11
23583.09231543161
 21
-2234.854099566649
 31
0.0
  0
LINE
  5
68BDE
102
{ACAD_REACTORS
330
6B6CD
330
70E25
102
}
330
18
100
AcDbEntity
  8
実線
100
AcDbLine
 10
23561.20238414269
 20
-2238.007520827054
 30
0.0
 11
23583.09329138529
 21
-2235.25409837604
 31
0.0
  0
LINE
  5
68BDF
102
{ACAD_REACTORS
330
6B6CD
330
70E25
102
}
330
18
100
AcDbEntity
  8
実線
100
AcDbLine
 10
23561.1965284206
 20
-2235.607527970706
 30
0.0
 11
23583.0874356632
 21
-2232.854105519692
 31
0.0
  0
LINE
  5
68BE0
102
{ACAD_REACTORS
330
6B6CD
330
70E25
102
}
330
18
100
AcDbEntity
  8
実線
100
AcDbLine
 10
23569.05916054532
 20
-2239.019909004774
 30
0.0
 11
23583.09231543161
 21
-2240.784989058069
 31
0.0
  0
LINE
  5
68BE1
102
{ACAD_REACTORS
330
6B6CD
330
70E25
102
}
330
18
100
AcDbEntity
  8
実線
100
AcDbLine
 10
23570.6497308632
 20
-2238.819848222704
 30
0.0
 11
23583.09329138529
 21
-2240.384990248677
 31
0.0
  0
LINE
  5
68BEC
102
{ACAD_REACTORS
330
6B6CD
102
}
330
18
100
AcDbEntity
  8
実線
100
AcDbLine
 10
23499.84530739581
 20
-2256.334750794096
 30
0.0
 11
23500.34530739581
 21
-2255.834750794096
 31
0.0
  0
LINE
  5
68C20
102
{ACAD_REACTORS
330
6B6CD
102
}
330
18
100
AcDbEntity
  8
実線
100
AcDbLine
 10
23500.34530739581
 20
-2215.16447857066
 30
0.0
 11
23500.34530739581
 21
-2255.834750794096
 31
0.0
  0
LINE
  5
68DDB
102
{ACAD_REACTORS
330
6B6CD
102
}
330
18
100
AcDbEntity
  8
実線
100
AcDbLine
 10
23500.10054089017
 20
-2213.17951273778
 30
0.0
 11
23492.57397084186
 21
-2152.141813376577
 31
0.0
  0
LINE
  5
6A95A
330
18
100
AcDbEntity
  8
中心線
100
AcDbLine
 10
23346.60246552605
 20
-2088.281917414876
 30
0.0
 11
23274.08814926556
 21
-2088.281917414876
 31
0.0
  0
LINE
  5
6B58F
102
{ACAD_REACTORS
330
6B5AF
330
6B680
330
6B88D
102
}
330
18
100
AcDbEntity
  8
二点鎖線
 48
2.0
100
AcDbLine
 10
23494.86914263114
 20
-2223.534750794092
 30
0.0
 11
23517.98227754954
 21
-2223.534750794092
 31
0.0
  0
LINE
  5
6B590
102
{ACAD_REACTORS
330
6B5AF
330
6B680
330
6B88D
102
}
330
18
100
AcDbEntity
  8
二点鎖線
 48
2.0
100
AcDbLine
 10
23510.94527359822
 20
-2219.534686827906
 30
0.0
 11
23505.74527359821
 21
-2219.534686827906
 31
0.0
  0
LINE
  5
6B591
102
{ACAD_REACTORS
330
6B5AF
330
6B680
330
6B88D
102
}
330
18
100
AcDbEntity
  8
二点鎖線
 48
0.5
100
AcDbLine
 10
23500.34530739581
 20
-2221.934750794092
 30
0.0
 11
23514.44530739581
 21
-2221.934750794092
 31
0.0
  0
LINE
  5
6B592
102
{ACAD_REACTORS
330
6B5AF
330
6B680
330
6B88D
102
}
330
18
100
AcDbEntity
  8
二点鎖線
100
AcDbLine
 10
23514.44530739581
 20
-2228.034722568425
 30
0.0
 11
23514.44530739581
 21
-2213.934751587263
 31
0.0
  0
LINE
  5
6B593
102
{ACAD_REACTORS
330
6B5AF
330
6B680
330
6B88D
102
}
330
18
100
AcDbEntity
  8
二点鎖線
100
AcDbLine
 10
23500.34530739581
 20
-2225.134750794089
 30
0.0
 11
23514.44530739581
 21
-2225.134750794089
 31
0.0
  0
CIRCLE
  5
6B594
102
{ACAD_REACTORS
330
6B5AF
330
6B680
330
6B88D
102
}
330
18
100
AcDbEntity
  8
二点鎖線
100
AcDbCircle
 10
23508.34527359822
 20
-2219.534686827903
 30
0.0
 40
1.649999999999999
  0
LINE
  5
6B595
102
{ACAD_REACTORS
330
6B5AF
330
6B680
330
6B88D
102
}
330
18
100
AcDbEntity
  8
二点鎖線
 48
2.0
100
AcDbLine
 10
23508.34527359821
 20
-2216.934686827904
 30
0.0
 11
23508.34527359821
 21
-2222.134686827904
 31
0.0
  0
CIRCLE
  5
6B596
102
{ACAD_REACTORS
330
6B5AF
330
6B680
330
6B88D
102
}
330
18
100
AcDbEntity
  8
二点鎖線
100
AcDbCircle
 10
23508.34527359821
 20
-2219.534686827903
 30
0.0
 40
1.5
  0
LINE
  5
6B597
102
{ACAD_REACTORS
330
6B5AF
330
6B680
330
6B88D
102
}
330
18
100
AcDbEntity
  8
二点鎖線
 48
0.5
100
AcDbLine
 10
23500.34530739581
 20
-2228.034722568425
 30
0.0
 11
23500.34530739581
 21
-2215.734704299685
 31
0.0
  0
LINE
  5
6B598
102
{ACAD_REACTORS
330
6B5AF
330
6B680
330
6B88D
102
}
330
18
100
AcDbEntity
  8
二点鎖線
100
AcDbLine
 10
23500.34530739581
 20
-2215.734704299685
 30
0.0
 11
23514.44530739581
 21
-2213.934751587263
 31
0.0
  0
LINE
  5
6B599
102
{ACAD_REACTORS
330
6B5AF
330
6B680
330
6B88D
102
}
330
18
100
AcDbEntity
  8
二点鎖線
100
AcDbLine
 10
23514.44530739581
 20
-2228.034722568425
 30
0.0
 11
23500.34530739581
 21
-2228.034722568425
 31
0.0
  0
LINE
  5
6B5AB
102
{ACAD_REACTORS
330
6B5AF
330
6B680
330
6B88D
102
}
330
18
100
AcDbEntity
  8
二点鎖線
100
AcDbLine
 10
23497.50678307169
 20
-2168.940446808846
 30
0.0
 11
23507.44158861322
 21
-2167.800429768893
 31
0.0
  0
LINE
  5
6B5AD
102
{ACAD_REACTORS
330
6B5AF
330
6B680
330
6B88D
102
}
330
18
100
AcDbEntity
  8
二点鎖線
 48
0.5
100
AcDbLine
 10
23513.71168233297
 20
-2222.441860247474
 30
0.0
 11
23503.77687679141
 21
-2223.581877287427
 31
0.0
  0
LINE
  5
6B5AE
102
{ACAD_REACTORS
330
6B5AF
330
6B680
330
6B88D
102
}
330
18
100
AcDbEntity
  8
二点鎖線
100
AcDbLine
 10
23503.77687679141
 20
-2223.581877287427
 30
0.0
 11
23497.50678307169
 21
-2168.940446808846
 31
0.0
  0
LINE
  5
6B5B0
102
{ACAD_REACTORS
330
6B67F
330
6B680
330
6B88D
102
}
330
18
100
AcDbEntity
  8
二点鎖線
100
AcDbLine
 10
23576.22084298065
 20
-2213.534751587259
 30
0.0
 11
23576.22084298065
 21
-2222.534751587259
 31
0.0
  0
LINE
  5
6B5B1
102
{ACAD_REACTORS
330
6B67F
330
6B680
330
6B88D
102
}
330
18
100
AcDbEntity
  8
二点鎖線
100
AcDbLine
 10
23583.10199068642
 20
-2224.034751587259
 30
0.0
 11
23583.10199068642
 21
-2212.034751587255
 31
0.0
  0
LINE
  5
6B5B2
102
{ACAD_REACTORS
330
6B67F
330
6B680
330
6B88D
102
}
330
18
100
AcDbEntity
  8
二点鎖線
100
AcDbLine
 10
23583.10199068642
 20
-2214.534751587259
 30
0.0
 11
23576.22084298065
 21
-2214.534751587259
 31
0.0
  0
LINE
  5
6B5B3
102
{ACAD_REACTORS
330
6B67F
330
6B680
330
6B88D
102
}
330
18
100
AcDbEntity
  8
二点鎖線
100
AcDbLine
 10
23583.10199068642
 20
-2215.334751587262
 30
0.0
 11
23576.22084298065
 21
-2215.334751587262
 31
0.0
  0
LINE
  5
6B5B4
102
{ACAD_REACTORS
330
6B67F
330
6B680
330
6B88D
102
}
330
18
100
AcDbEntity
  8
二点鎖線
100
AcDbLine
 10
23584.20199068642
 20
-2223.034757640299
 30
0.0
 11
23597.3020357879
 21
-2223.034757640299
 31
0.0
  0
LINE
  5
6B5B5
102
{ACAD_REACTORS
330
6B67F
330
6B680
330
6B88D
102
}
330
18
100
AcDbEntity
  8
二点鎖線
100
AcDbLine
 10
23584.20199068642
 20
-2224.034751587259
 30
0.0
 11
23584.20199068642
 21
-2223.034757640299
 31
0.0
  0
LINE
  5
6B5B6
102
{ACAD_REACTORS
330
6B67F
330
6B680
330
6B88D
102
}
330
18
100
AcDbEntity
  8
二点鎖線
100
AcDbLine
 10
23583.10199068642
 20
-2224.034751587259
 30
0.0
 11
23584.20199068642
 21
-2224.034751587259
 31
0.0
  0
LINE
  5
6B5B7
102
{ACAD_REACTORS
330
6B67F
330
6B680
330
6B88D
102
}
330
18
100
AcDbEntity
  8
二点鎖線
100
AcDbLine
 10
23583.10199068642
 20
-2220.73475158726
 30
0.0
 11
23576.22084298065
 21
-2220.73475158726
 31
0.0
  0
LINE
  5
6B5B8
102
{ACAD_REACTORS
330
6B67F
330
6B680
330
6B88D
102
}
330
18
100
AcDbEntity
  8
二点鎖線
100
AcDbLine
 10
23583.10199068642
 20
-2217.634751587261
 30
0.0
 11
23576.22084298065
 21
-2217.634751587261
 31
0.0
  0
LINE
  5
6B5B9
102
{ACAD_REACTORS
330
6B67F
330
6B680
330
6B88D
102
}
330
18
100
AcDbEntity
  8
二点鎖線
100
AcDbLine
 10
23583.10199068642
 20
-2218.43475158726
 30
0.0
 11
23576.22084298065
 21
-2218.43475158726
 31
0.0
  0
LINE
  5
6B5BA
102
{ACAD_REACTORS
330
6B67F
330
6B680
330
6B88D
102
}
330
18
100
AcDbEntity
  8
二点鎖線
100
AcDbLine
 10
23583.10199068642
 20
-2221.534751587259
 30
0.0
 11
23576.22084298065
 21
-2221.534751587262
 31
0.0
  0
LINE
  5
6B5BB
102
{ACAD_REACTORS
330
6B67F
330
6B680
330
6B88D
102
}
330
18
100
AcDbEntity
  8
二点鎖線
100
AcDbLine
 10
23584.20199068642
 20
-2213.034757640299
 30
0.0
 11
23597.3020357879
 21
-2213.034757640299
 31
0.0
  0
LINE
  5
6B5BC
102
{ACAD_REACTORS
330
6B67F
330
6B680
330
6B88D
102
}
330
18
100
AcDbEntity
  8
二点鎖線
100
AcDbLine
 10
23595.68946435932
 20
-2212.549043354584
 30
0.0
 11
23595.68946435932
 21
-2212.04833485425
 31
0.0
  0
ARC
  5
6B5BD
102
{ACAD_REACTORS
330
6B67F
330
6B680
330
6B88D
102
}
330
18
100
AcDbEntity
  8
二点鎖線
100
AcDbCircle
 10
23595.20375007361
 20
-2212.549043354586
 30
0.0
 40
0.4857142857142857
100
AcDbArc
 50
270.0
 51
0.0
  0
ARC
  5
6B5BE
102
{ACAD_REACTORS
330
6B67F
330
6B680
330
6B88D
102
}
330
18
100
AcDbEntity
  8
二点鎖線
100
AcDbCircle
 10
23595.20375007361
 20
-2212.048334854252
 30
0.0
 40
0.4857142857142857
100
AcDbArc
 50
0.0
 51
80.00000000011144
  0
LINE
  5
6B5BF
102
{ACAD_REACTORS
330
6B67F
330
6B680
330
6B88D
102
}
330
18
100
AcDbEntity
  8
二点鎖線
100
AcDbLine
 10
23600.18717864504
 20
-2209.217043354586
 30
0.0
 11
23589.8220357879
 21
-2209.217043354586
 31
0.0
  0
LINE
  5
6B5C0
102
{ACAD_REACTORS
330
6B67F
330
6B680
330
6B88D
102
}
330
18
100
AcDbEntity
  8
二点鎖線
100
AcDbLine
 10
23602.0620357879
 20
-2209.634757640301
 30
0.0
 11
23590.79346435933
 21
-2209.634757640301
 31
0.0
  0
LINE
  5
6B5C1
102
{ACAD_REACTORS
330
6B67F
330
6B680
330
6B88D
102
}
330
18
100
AcDbEntity
  8
二点鎖線
100
AcDbLine
 10
23590.79346435933
 20
-2209.634757640301
 30
0.0
 11
23590.79346435933
 21
-2209.217043354586
 31
0.0
  0
LINE
  5
6B5C2
102
{ACAD_REACTORS
330
6B67F
330
6B680
330
6B88D
102
}
330
18
100
AcDbEntity
  8
二点鎖線
100
AcDbLine
 10
23589.8220357879
 20
-2210.60618621173
 30
0.0
 11
23589.8220357879
 21
-2209.217043354586
 31
0.0
  0
LINE
  5
6B5C3
102
{ACAD_REACTORS
330
6B67F
330
6B680
330
6B88D
102
}
330
18
100
AcDbEntity
  8
二点鎖線
100
AcDbLine
 10
23595.28809347419
 20
-2211.569999659931
 30
0.0
 11
23589.8220357879
 21
-2210.60618621173
 31
0.0
  0
LINE
  5
6B5C4
102
{ACAD_REACTORS
330
6B67F
330
6B680
330
6B88D
102
}
330
18
100
AcDbEntity
  8
二点鎖線
100
AcDbLine
 10
23584.20199068642
 20
-2213.034757640299
 30
0.0
 11
23584.20199068642
 21
-2212.034751587255
 31
0.0
  0
LINE
  5
6B5C5
102
{ACAD_REACTORS
330
6B67F
330
6B680
330
6B88D
102
}
330
18
100
AcDbEntity
  8
二点鎖線
100
AcDbLine
 10
23583.10199068642
 20
-2212.034751587255
 30
0.0
 11
23584.20199068642
 21
-2212.034751587255
 31
0.0
  0
LINE
  5
6B5C6
102
{ACAD_REACTORS
330
6B67F
330
6B680
330
6B88D
102
}
330
18
100
AcDbEntity
  8
二点鎖線
100
AcDbLine
 10
23597.3020357879
 20
-2223.034757640299
 30
0.0
 11
23597.3020357879
 21
-2213.034757640299
 31
0.0
  0
LINE
  5
6B5C7
102
{ACAD_REACTORS
330
6B67F
330
6B680
330
6B88D
102
}
330
18
100
AcDbEntity
  8
二点鎖線
100
AcDbLine
 10
23597.3020357879
 20
-2213.034757640299
 30
0.0
 11
23597.3020357879
 21
-2209.217043354586
 31
0.0
  0
LINE
  5
6B5C8
102
{ACAD_REACTORS
330
6B67F
330
6B680
330
6B88D
102
}
330
18
100
AcDbEntity
  8
二点鎖線
100
AcDbLine
 10
23600.60489293075
 20
-2212.840471926013
 30
0.0
 11
23600.7020357879
 21
-2211.771900497441
 31
0.0
  0
LINE
  5
6B5C9
102
{ACAD_REACTORS
330
6B67F
330
6B680
330
6B88D
102
}
330
18
100
AcDbEntity
  8
二点鎖線
100
AcDbLine
 10
23603.03346435932
 20
-2211.869043354584
 30
0.0
 11
23602.0620357879
 21
-2212.840471926013
 31
0.0
  0
LINE
  5
6B5CA
102
{ACAD_REACTORS
330
6B67F
330
6B680
330
6B88D
102
}
330
18
100
AcDbEntity
  8
二点鎖線
100
AcDbLine
 10
23602.0620357879
 20
-2212.840471926013
 30
0.0
 11
23600.60489293076
 21
-2212.840471926013
 31
0.0
  0
LINE
  5
6B5CB
102
{ACAD_REACTORS
330
6B67F
330
6B680
330
6B88D
102
}
330
18
100
AcDbEntity
  8
二点鎖線
100
AcDbLine
 10
23600.60489293075
 20
-2210.60618621173
 30
0.0
 11
23600.60489293075
 21
-2209.634757640301
 31
0.0
  0
LINE
  5
6B5CC
102
{ACAD_REACTORS
330
6B67F
330
6B680
330
6B88D
102
}
330
18
100
AcDbEntity
  8
二点鎖線
100
AcDbLine
 10
23602.0620357879
 20
-2209.634757640301
 30
0.0
 11
23603.03346435932
 21
-2210.60618621173
 31
0.0
  0
LINE
  5
6B5CD
102
{ACAD_REACTORS
330
6B67F
330
6B680
330
6B88D
102
}
330
18
100
AcDbEntity
  8
二点鎖線
100
AcDbLine
 10
23603.03346435932
 20
-2211.869043354584
 30
0.0
 11
23603.03346435932
 21
-2210.60618621173
 31
0.0
  0
LINE
  5
6B5CE
102
{ACAD_REACTORS
330
6B67F
330
6B680
330
6B88D
102
}
330
18
100
AcDbEntity
  8
二点鎖線
100
AcDbLine
 10
23600.60489293075
 20
-2209.634757640301
 30
0.0
 11
23600.18717864504
 21
-2209.217043354586
 31
0.0
  0
LINE
  5
6B5CF
102
{ACAD_REACTORS
330
6B67F
330
6B680
330
6B88D
102
}
330
18
100
AcDbEntity
  8
二点鎖線
100
AcDbLine
 10
23600.60489293075
 20
-2210.60618621173
 30
0.0
 11
23597.3020357879
 21
-2210.60618621173
 31
0.0
  0
LINE
  5
6B5D0
102
{ACAD_REACTORS
330
6B67F
330
6B680
330
6B88D
102
}
330
18
100
AcDbEntity
  8
二点鎖線
100
AcDbLine
 10
23600.7020357879
 20
-2211.771900497441
 30
0.0
 11
23597.3020357879
 21
-2211.771900497441
 31
0.0
  0
LINE
  5
6B5D1
102
{ACAD_REACTORS
330
6B67F
330
6B680
330
6B88D
102
}
330
18
100
AcDbEntity
  8
二点鎖線
100
AcDbLine
 10
23554.22084298065
 20
-2214.734751587259
 30
0.0
 11
23554.22084298065
 21
-2221.334751587262
 31
0.0
  0
LINE
  5
6B5D2
102
{ACAD_REACTORS
330
6B67F
330
6B680
330
6B88D
102
}
330
18
100
AcDbEntity
  8
二点鎖線
100
AcDbLine
 10
23564.70199068642
 20
-2214.734751587259
 30
0.0
 11
23565.70199068642
 21
-2213.534751587259
 31
0.0
  0
LINE
  5
6B5D3
102
{ACAD_REACTORS
330
6B67F
330
6B680
330
6B88D
102
}
330
18
100
AcDbEntity
  8
二点鎖線
100
AcDbLine
 10
23564.70199068642
 20
-2214.734751587259
 30
0.0
 11
23554.22084298065
 21
-2214.734751587259
 31
0.0
  0
LINE
  5
6B5D4
102
{ACAD_REACTORS
330
6B67F
330
6B680
330
6B88D
102
}
330
18
100
AcDbEntity
  8
二点鎖線
100
AcDbLine
 10
23565.70199068642
 20
-2222.534751587259
 30
0.0
 11
23564.70199068642
 21
-2221.334751587262
 31
0.0
  0
LINE
  5
6B5D5
102
{ACAD_REACTORS
330
6B67F
330
6B680
330
6B88D
102
}
330
18
100
AcDbEntity
  8
二点鎖線
100
AcDbLine
 10
23554.22084298065
 20
-2221.334751587262
 30
0.0
 11
23564.70199068642
 21
-2221.334751587262
 31
0.0
  0
LINE
  5
6B5D6
102
{ACAD_REACTORS
330
6B67F
330
6B680
330
6B88D
102
}
330
18
100
AcDbEntity
  8
二点鎖線
100
AcDbLine
 10
23576.22084298065
 20
-2213.534751587259
 30
0.0
 11
23565.70199068642
 21
-2213.534751587259
 31
0.0
  0
LINE
  5
6B5D7
102
{ACAD_REACTORS
330
6B67F
330
6B680
330
6B88D
102
}
330
18
100
AcDbEntity
  8
二点鎖線
100
AcDbLine
 10
23576.22084298065
 20
-2222.534751587259
 30
0.0
 11
23565.70199068642
 21
-2222.534751587259
 31
0.0
  0
LINE
  5
6B5D8
102
{ACAD_REACTORS
330
6B67F
330
6B680
330
6B88D
102
}
330
18
100
AcDbEntity
  8
二点鎖線
100
AcDbLine
 10
23554.22084298065
 20
-2215.034751587262
 30
0.0
 11
23514.44530739581
 21
-2215.034751587262
 31
0.0
  0
LINE
  5
6B5D9
102
{ACAD_REACTORS
330
6B67F
330
6B680
330
6B88D
102
}
330
18
100
AcDbEntity
  8
二点鎖線
100
AcDbLine
 10
23514.44530739581
 20
-2221.034751587266
 30
0.0
 11
23554.22084298065
 21
-2221.034751587266
 31
0.0
  0
LINE
  5
6B88B
102
{ACAD_REACTORS
330
6B88D
102
}
330
18
100
AcDbEntity
  8
二点鎖線
100
AcDbLine
 10
23507.44158861321
 20
-2167.800429768894
 30
0.0
 11
23513.71168233297
 21
-2222.441860247474
 31
0.0
  0
LINE
  5
70CA3
330
18
100
AcDbEntity
  8
実線
100
AcDbLine
 10
23561.35767922383
 20
-2377.13359082206
 30
0.0
 11
23561.35767922383
 21
-2406.13359082206
 31
0.0
  0
LINE
  5
70CA8
330
18
100
AcDbEntity
  8
実線
100
AcDbLine
 10
23561.35767922383
 20
-2377.13359082206
 30
0.0
 11
23561.35767922383
 21
-2406.13359082206
 31
0.0
  0
LINE
  5
70CA9
330
18
100
AcDbEntity
  8
実線
100
AcDbLine
 10
23561.35767922383
 20
-2377.13359082206
 30
0.0
 11
23561.35767922383
 21
-2406.13359082206
 31
0.0
  0
LINE
  5
70CAA
330
18
100
AcDbEntity
  8
実線
100
AcDbLine
 10
23560.85767922383
 20
-2406.633590822061
 30
0.0
 11
23438.04864203235
 21
-2406.633590822061
 31
0.0
  0
LINE
  5
70CAB
330
18
100
AcDbEntity
  8
実線
100
AcDbLine
 10
23561.35767922383
 20
-2406.13359082206
 30
0.0
 11
23560.85767922383
 21
-2406.633590822061
 31
0.0
  0
LINE
  5
70CAC
330
18
100
AcDbEntity
  8
実線
100
AcDbLine
 10
23560.85767922383
 20
-2376.633590822061
 30
0.0
 11
23444.18679798581
 21
-2376.633590822061
 31
0.0
  0
TEXT
  5
70CB0
330
18
100
AcDbEntity
  8
文字
 62
     2
100
AcDbText
 10
23503.15452268189
 20
-2392.074850506316
 30
0.0
 40
2.0
  1
SER No.******
 41
1.199999999999999
  7
MS\U+FF7A\U+FF9E\U+FF7C\U+FF6F\U+FF78N
 11
23503.15452268189
 21
-2392.440194256316
 31
0.0
100
AcDbText
 73
     1
  0
TEXT
  5
70CB1
330
18
100
AcDbEntity
  8
文字
 62
     2
100
AcDbText
 10
23509.64723805943
 20
-2395.03557085649
 30
0.0
 40
1.44
  1
NIKKI
 41
1.25
  7
TIMESNR
100
AcDbText
  0
TEXT
  5
70CB2
330
18
100
AcDbEntity
  8
文字
 62
     2
100
AcDbText
 10
23509.52582494929
 20
-2396.732333265475
 30
0.0
 40
1.44
  1
DENSO
 41
1.3
  7
TIMESNR
100
AcDbText
  0
TEXT
  5
70CB3
330
18
100
AcDbEntity
  8
文字
 62
     2
100
AcDbText
 10
23503.1816492547
 20
-2389.250858702935
 30
0.0
 40
2.6
  1
MODEL:CLV-CM***
 41
1.199999999999999
  7
MS\U+FF7A\U+FF9E\U+FF7C\U+FF6F\U+FF78N
 11
23503.1816492547
 21
-2389.725805577935
 31
0.0
100
AcDbText
 73
     1
  0
LINE
  5
70CB4
330
18
100
AcDbEntity
  8
文字
 62
     2
100
AcDbLine
 10
23501.35767922383
 20
-2392.633590822061
 30
0.0
 11
23536.35767922383
 21
-2392.633590822061
 31
0.0
  0
LINE
  5
70CB5
330
18
100
AcDbEntity
  8
文字
 62
     2
100
AcDbLine
 10
23501.85767922383
 20
-2397.63359082206
 30
0.0
 11
23535.85767922383
 21
-2397.63359082206
 31
0.0
  0
LINE
  5
70CB6
330
18
100
AcDbEntity
  8
文字
 62
     2
100
AcDbLine
 10
23535.85767922383
 20
-2385.63359082206
 30
0.0
 11
23501.85767922383
 21
-2385.63359082206
 31
0.0
  0
LINE
  5
70CB7
330
18
100
AcDbEntity
  8
文字
 62
     2
100
AcDbLine
 10
23501.35767922383
 20
-2386.13359082206
 30
0.0
 11
23501.35767922383
 21
-2397.13359082206
 31
0.0
  0
HATCH
  5
70CB8
330
18
100
AcDbEntity
  8
文字
 62
     2
100
AcDbHatch
 10
0.0
 20
0.0
 30
0.0
210
0.0
220
0.0
230
1.0
  2
SOLID
 70
     1
 71
     1
 91
        2
 92
       17
 93
        1
 72
     2
 10
23506.30672572491
 20
-2395.378317404059
 40
0.6007500000000002
 50
0.0
 51
360.0
 73
     1
 97
        1
330
70CBE
 92
        1
 93
        8
 72
     2
 10
23506.30765712026
 20
-2395.376454613361
 40
1.00311322310025
 50
113.5897772726125
 51
269.9468005912109
 73
     1
 72
     2
 10
23506.30672572491
 20
-2395.578567404058
 40
0.8009999999999999
 50
270.0
 51
450.0
 73
     1
 72
     1
 10
23506.30672572491
 20
-2394.777567404059
 11
23508.54952572491
 21
-2394.777567404059
 72
     1
 10
23508.54952572491
 20
-2394.777567404059
 11
23508.30922572491
 21
-2396.780067404058
 72
     1
 10
23508.30922572491
 20
-2396.780067404058
 11
23503.90372572491
 21
-2396.780067404058
 72
     1
 10
23503.90372572491
 20
-2396.780067404058
 11
23504.30422572491
 21
-2393.576067404059
 72
     1
 10
23504.30422572491
 20
-2393.576067404059
 11
23508.70972572491
 21
-2393.576067404059
 72
     1
 10
23508.70972572491
 20
-2393.576067404059
 11
23505.90622572491
 21
-2394.457167404059
 97
        8
330
70CBF
330
70CB9
330
70CBB
330
70CBA
330
70CC2
330
70CBC
330
70CC1
330
70CC0
 75
     0
 76
     1
 98
        1
 10
23304.82901563067
 20
-2392.898842588299
  0
ARC
  5
70CB9
102
{ACAD_REACTORS
330
70CB8
102
}
330
18
100
AcDbEntity
  8
文字
 62
     2
100
AcDbCircle
 10
23506.30672572491
 20
-2395.578567404058
 30
0.0
 40
0.8009999999999999
100
AcDbArc
 50
270.0
 51
90.0
  0
LINE
  5
70CBA
102
{ACAD_REACTORS
330
70CB8
102
}
330
18
100
AcDbEntity
  8
文字
 62
     2
100
AcDbLine
 10
23508.30922572491
 20
-2396.780067404058
 30
0.0
 11
23508.54952572491
 21
-2394.777567404059
 31
0.0
  0
LINE
  5
70CBB
102
{ACAD_REACTORS
330
70CB8
102
}
330
18
100
AcDbEntity
  8
文字
 62
     2
100
AcDbLine
 10
23506.30672572491
 20
-2394.777567404059
 30
0.0
 11
23508.54952572491
 21
-2394.777567404059
 31
0.0
  0
LINE
  5
70CBC
102
{ACAD_REACTORS
330
70CB8
102
}
330
18
100
AcDbEntity
  8
文字
 62
     2
100
AcDbLine
 10
23503.90372572491
 20
-2396.780067404058
 30
0.0
 11
23504.30422572491
 21
-2393.576067404059
 31
0.0
  0
ARC
  5
70CBD
330
18
100
AcDbEntity
  8
文字
 62
     2
100
AcDbCircle
 10
23501.85767922383
 20
-2397.13359082206
 30
0.0
 40
0.5
100
AcDbArc
 50
180.0
 51
270.0
  0
CIRCLE
  5
70CBE
102
{ACAD_REACTORS
330
70CB8
102
}
330
18
100
AcDbEntity
  8
文字
 62
     2
100
AcDbCircle
 10
23506.30672572491
 20
-2395.378317404059
 30
0.0
 40
0.6007500000000002
  0
ARC
  5
70CBF
102
{ACAD_REACTORS
330
70CB8
102
}
330
18
100
AcDbEntity
  8
文字
 62
     2
100
AcDbCircle
 10
23506.30765712026
 20
-2395.376454613361
 30
0.0
 40
1.00311322310025
100
AcDbArc
 50
113.5897772726125
 51
269.9468005912109
  0
LINE
  5
70CC0
102
{ACAD_REACTORS
330
70CB8
102
}
330
18
100
AcDbEntity
  8
文字
 62
     2
100
AcDbLine
 10
23508.70972572491
 20
-2393.576067404059
 30
0.0
 11
23505.90622572491
 21
-2394.457167404059
 31
0.0
  0
LINE
  5
70CC1
102
{ACAD_REACTORS
330
70CB8
102
}
330
18
100
AcDbEntity
  8
文字
 62
     2
100
AcDbLine
 10
23504.30422572491
 20
-2393.576067404059
 30
0.0
 11
23508.70972572491
 21
-2393.576067404059
 31
0.0
  0
LINE
  5
70CC2
102
{ACAD_REACTORS
330
70CB8
102
}
330
18
100
AcDbEntity
  8
文字
 62
     2
100
AcDbLine
 10
23503.90372572491
 20
-2396.780067404058
 30
0.0
 11
23508.30922572491
 21
-2396.780067404058
 31
0.0
  0
ARC
  5
70CC3
330
18
100
AcDbEntity
  8
文字
 62
     2
100
AcDbCircle
 10
23501.85767922383
 20
-2386.13359082206
 30
0.0
 40
0.5
100
AcDbArc
 50
90.0
 51
180.0
  0
LWPOLYLINE
  5
70CC4
330
18
100
AcDbEntity
  8
文字
 62
     4
100
AcDbPolyline
 90
        8
 70
     1
 43
0.0
 10
23541.85767922383
 20
-2396.63359082206
 10
23555.85767922383
 20
-2396.633590822061
 42
0.4142135623730951
 10
23556.35767922383
 20
-2396.13359082206
 10
23556.35767922383
 20
-2387.133590822061
 42
0.4142135623730951
 10
23555.85767922383
 20
-2386.63359082206
 10
23541.85767922383
 20
-2386.63359082206
 42
0.4142135623730996
 10
23541.35767922383
 20
-2387.133590822061
 10
23541.35767922383
 20
-2396.13359082206
 42
0.4142135623730904
  0
HATCH
  5
70CC5
330
18
100
AcDbEntity
  8
文字
 62
     4
100
AcDbHatch
 10
0.0
 20
0.0
 30
0.0
210
0.0
220
0.0
230
1.0
  2
SOLID
 70
     1
 71
     1
 91
        2
 92
       17
 93
        1
 72
     2
 10
23545.01775262545
 20
-2393.933346741448
 40
0.6007500000000002
 50
0.0
 51
360.0
 73
     1
 97
        1
330
70CCE
 92
        1
 93
        8
 72
     2
 10
23545.0186840208
 20
-2393.931483950749
 40
1.00311322310025
 50
113.5897772726125
 51
269.9468005912109
 73
     1
 72
     2
 10
23545.01775262545
 20
-2394.133596741447
 40
0.8009999999999999
 50
270.0
 51
450.0
 73
     1
 72
     1
 10
23545.01775262545
 20
-2393.332596741447
 11
23547.26055262545
 21
-2393.332596741447
 72
     1
 10
23547.26055262545
 20
-2393.332596741447
 11
23547.02025262545
 21
-2395.335096741447
 72
     1
 10
23547.02025262545
 20
-2395.335096741447
 11
23542.61475262545
 21
-2395.335096741447
 72
     1
 10
23542.61475262545
 20
-2395.335096741447
 11
23543.01525262545
 21
-2392.131096741447
 72
     1
 10
23543.01525262545
 20
-2392.131096741447
 11
23547.42075262545
 21
-2392.131096741447
 72
     1
 10
23547.42075262545
 20
-2392.131096741447
 11
23544.61725262545
 21
-2393.012196741448
 97
        8
330
70CCC
330
70CCD
330
70CCB
330
70CD2
330
70CCA
330
70CC6
330
70CD5
330
70CC8
 75
     0
 76
     1
 98
        1
 10
23343.54004253121
 20
-2391.453871925687
  0
LINE
  5
70CC6
102
{ACAD_REACTORS
330
70CC5
102
}
330
18
100
AcDbEntity
  8
文字
 62
     4
100
AcDbLine
 10
23542.61475262545
 20
-2395.335096741447
 30
0.0
 11
23543.01525262545
 21
-2392.131096741447
 31
0.0
  0
TEXT
  5
70CC7
330
18
100
AcDbEntity
  8
文字
 62
     4
100
AcDbText
 10
23548.35826495997
 20
-2393.590600193878
 30
0.0
 40
1.44
  1
NIKKI
  7
TIMESNR
100
AcDbText
  0
LINE
  5
70CC8
102
{ACAD_REACTORS
330
70CC5
102
}
330
18
100
AcDbEntity
  8
文字
 62
     4
100
AcDbLine
 10
23547.42075262545
 20
-2392.131096741447
 30
0.0
 11
23544.61725262545
 21
-2393.012196741448
 31
0.0
  0
LINE
  5
70CC9
330
18
100
AcDbEntity
  8
文字
 62
     2
100
AcDbLine
 10
23536.35767922383
 20
-2397.13359082206
 30
0.0
 11
23536.35767922383
 21
-2386.13359082206
 31
0.0
  0
LINE
  5
70CCA
102
{ACAD_REACTORS
330
70CC5
102
}
330
18
100
AcDbEntity
  8
文字
 62
     4
100
AcDbLine
 10
23542.61475262545
 20
-2395.335096741447
 30
0.0
 11
23547.02025262545
 21
-2395.335096741447
 31
0.0
  0
LINE
  5
70CCB
102
{ACAD_REACTORS
330
70CC5
102
}
330
18
100
AcDbEntity
  8
文字
 62
     4
100
AcDbLine
 10
23545.01775262545
 20
-2393.332596741447
 30
0.0
 11
23547.26055262545
 21
-2393.332596741447
 31
0.0
  0
ARC
  5
70CCC
102
{ACAD_REACTORS
330
70CC5
102
}
330
18
100
AcDbEntity
  8
文字
 62
     4
100
AcDbCircle
 10
23545.0186840208
 20
-2393.931483950749
 30
0.0
 40
1.00311322310025
100
AcDbArc
 50
113.5897772726125
 51
269.9468005912109
  0
ARC
  5
70CCD
102
{ACAD_REACTORS
330
70CC5
102
}
330
18
100
AcDbEntity
  8
文字
 62
     4
100
AcDbCircle
 10
23545.01775262545
 20
-2394.133596741447
 30
0.0
 40
0.8009999999999999
100
AcDbArc
 50
270.0
 51
90.0
  0
CIRCLE
  5
70CCE
102
{ACAD_REACTORS
330
70CC5
102
}
330
18
100
AcDbEntity
  8
文字
 62
     4
100
AcDbCircle
 10
23545.01775262545
 20
-2393.933346741448
 30
0.0
 40
0.6007500000000002
  0
ARC
  5
70CCF
330
18
100
AcDbEntity
  8
文字
 62
     2
100
AcDbCircle
 10
23535.85767922383
 20
-2397.13359082206
 30
0.0
 40
0.5
100
AcDbArc
 50
270.0
 51
0.0
  0
TEXT
  5
70CD1
330
18
100
AcDbEntity
  8
文字
 62
     4
100
AcDbText
 10
23548.23685184984
 20
-2395.287362602864
 30
0.0
 40
1.44
  1
DENSO
  7
TIMESNR
100
AcDbText
  0
LINE
  5
70CD2
102
{ACAD_REACTORS
330
70CC5
102
}
330
18
100
AcDbEntity
  8
文字
 62
     4
100
AcDbLine
 10
23547.02025262545
 20
-2395.335096741447
 30
0.0
 11
23547.26055262545
 21
-2393.332596741447
 31
0.0
  0
TEXT
  5
70CD3
330
18
100
AcDbEntity
  8
文字
 62
     4
100
AcDbText
 10
23542.57239770304
 20
-2389.674463836332
 30
0.0
 40
2.0
  1
Certificate
  7
TIMESNR
 11
23542.57239770304
 21
-2390.313820123836
 31
0.0
100
AcDbText
 73
     1
  0
LINE
  5
70CD4
330
18
100
AcDbEntity
  8
文字
 62
     4
100
AcDbLine
 10
23541.35767922383
 20
-2390.63359082206
 30
0.0
 11
23556.35767922383
 21
-2390.63359082206
 31
0.0
  0
LINE
  5
70CD5
102
{ACAD_REACTORS
330
70CC5
102
}
330
18
100
AcDbEntity
  8
文字
 62
     4
100
AcDbLine
 10
23543.01525262545
 20
-2392.131096741447
 30
0.0
 11
23547.42075262545
 21
-2392.131096741447
 31
0.0
  0
ARC
  5
70CD6
330
18
100
AcDbEntity
  8
文字
 62
     2
100
AcDbCircle
 10
23535.85767922383
 20
-2386.13359082206
 30
0.0
 40
0.5
100
AcDbArc
 50
0.0
 51
90.0
  0
LINE
  5
70CD7
330
18
100
AcDbEntity
  8
中心線
 48
0.5
100
AcDbLine
 10
23616.1625605959
 20
-2391.63359082206
 30
0.0
 11
23558.66989992894
 21
-2391.63359082206
 31
0.0
  0
LINE
  5
70CD9
330
18
100
AcDbEntity
  8
実線
100
AcDbLine
 10
23560.85767922383
 20
-2376.633590822061
 30
0.0
 11
23561.35767922383
 21
-2377.13359082206
 31
0.0
  0
LINE
  5
70CDA
330
18
100
AcDbEntity
  8
実線
100
AcDbLine
 10
23618.1625605959
 20
-2385.73359082206
 30
0.0
 11
23618.1625605959
 21
-2397.53359082206
 31
0.0
  0
LINE
  5
70CDB
330
18
100
AcDbEntity
  8
実線
100
AcDbLine
 10
23630.3625605959
 20
-2393.033590822061
 30
0.0
 11
23630.3625605959
 21
-2391.233590822061
 31
0.0
  0
LINE
  5
70CDC
330
18
100
AcDbEntity
  8
実線
100
AcDbLine
 10
23623.8625605959
 20
-2391.633590822061
 30
0.0
 11
23623.8625605959
 21
-2393.633590822061
 31
0.0
  0
LINE
  5
70CDD
330
18
100
AcDbEntity
  8
実線
100
AcDbLine
 10
23634.8625605959
 20
-2393.033590822061
 30
0.0
 11
23635.8625605959
 21
-2392.033590822061
 31
0.0
  0
LINE
  5
70CDE
330
18
100
AcDbEntity
  8
実線
100
AcDbLine
 10
23633.8625605959
 20
-2392.033590822061
 30
0.0
 11
23633.8625605959
 21
-2393.033590822061
 31
0.0
  0
LINE
  5
70CDF
330
18
100
AcDbEntity
  8
実線
100
AcDbLine
 10
23635.8625605959
 20
-2392.033590822061
 30
0.0
 11
23634.8625605959
 21
-2393.033590822061
 31
0.0
  0
LINE
  5
70CE0
330
18
100
AcDbEntity
  8
実線
100
AcDbLine
 10
23633.8625605959
 20
-2392.033590822061
 30
0.0
 11
23633.8625605959
 21
-2393.033590822061
 31
0.0
  0
LINE
  5
70CE1
330
18
100
AcDbEntity
  8
実線
100
AcDbLine
 10
23641.8625605959
 20
-2392.19359082206
 30
0.0
 11
23641.8625605959
 21
-2395.633590822061
 31
0.0
  0
LINE
  5
70CE3
330
18
100
AcDbEntity
  8
実線
100
AcDbLine
 10
23633.4625605959
 20
-2393.033590822061
 30
0.0
 11
23630.3625605959
 21
-2393.033590822061
 31
0.0
  0
LINE
  5
70CE4
330
18
100
AcDbEntity
  8
実線
100
AcDbLine
 10
23641.8625605959
 20
-2395.633590822061
 30
0.0
 11
23631.3625605959
 21
-2395.633590822061
 31
0.0
  0
LINE
  5
70CE5
330
18
100
AcDbEntity
  8
実線
100
AcDbLine
 10
23631.3625605959
 20
-2393.033590822061
 30
0.0
 11
23631.3625605959
 21
-2396.53359082206
 31
0.0
  0
LINE
  5
70CE6
330
18
100
AcDbEntity
  8
実線
100
AcDbLine
 10
23624.6625605959
 20
-2393.033590822061
 30
0.0
 11
23624.6625605959
 21
-2393.633590822061
 31
0.0
  0
LINE
  5
70CE7
330
18
100
AcDbEntity
  8
実線
100
AcDbLine
 10
23630.3625605959
 20
-2393.033590822061
 30
0.0
 11
23624.6625605959
 21
-2393.033590822061
 31
0.0
  0
LINE
  5
70CE8
330
18
100
AcDbEntity
  8
実線
100
AcDbLine
 10
23618.6625605959
 20
-2397.53359082206
 30
0.0
 11
23618.1625605959
 21
-2397.53359082206
 31
0.0
  0
LINE
  5
70CE9
330
18
100
AcDbEntity
  8
実線
100
AcDbLine
 10
23619.1625605959
 20
-2396.53359082206
 30
0.0
 11
23619.1625605959
 21
-2397.03359082206
 31
0.0
  0
ARC
  5
70CEA
330
18
100
AcDbEntity
  8
実線
100
AcDbCircle
 10
23618.6625605959
 20
-2397.03359082206
 30
0.0
 40
0.5
100
AcDbArc
 50
270.0
 51
0.0
  0
LINE
  5
70CEB
330
18
100
AcDbEntity
  8
実線
100
AcDbLine
 10
23631.3625605959
 20
-2396.53359082206
 30
0.0
 11
23619.1625605959
 21
-2396.53359082206
 31
0.0
  0
LINE
  5
70CEC
330
18
100
AcDbEntity
  8
実線
100
AcDbLine
 10
23624.6625605959
 20
-2393.633590822061
 30
0.0
 11
23623.8625605959
 21
-2393.633590822061
 31
0.0
  0
LINE
  5
70CF0
330
18
100
AcDbEntity
  8
実線
100
AcDbLine
 10
23633.8625605959
 20
-2393.033590822061
 30
0.0
 11
23634.8625605959
 21
-2393.033590822061
 31
0.0
  0
LINE
  5
70CF1
330
18
100
AcDbEntity
  8
実線
100
AcDbLine
 10
23634.8625605959
 20
-2393.033590822061
 30
0.0
 11
23633.8625605959
 21
-2393.033590822061
 31
0.0
  0
LINE
  5
70CF2
330
18
100
AcDbEntity
  8
実線
100
AcDbLine
 10
23633.8625605959
 20
-2393.033590822061
 30
0.0
 11
23633.4625605959
 21
-2393.033590822061
 31
0.0
  0
LINE
  5
70CF3
330
18
100
AcDbEntity
  8
実線
100
AcDbLine
 10
23633.8625605959
 20
-2392.033590822061
 30
0.0
 11
23631.76934838721
 21
-2392.033590822061
 31
0.0
  0
LINE
  5
70CF4
330
18
100
AcDbEntity
  8
実線
100
AcDbLine
 10
23633.4625605959
 20
-2390.233590822061
 30
0.0
 11
23630.3625605959
 21
-2390.233590822061
 31
0.0
  0
LINE
  5
70CF5
330
18
100
AcDbEntity
  8
実線
100
AcDbLine
 10
23631.76934838721
 20
-2391.233590822061
 30
0.0
 11
23633.8625605959
 21
-2391.233590822061
 31
0.0
  0
LINE
  5
70CF6
330
18
100
AcDbEntity
  8
実線
100
AcDbLine
 10
23631.76934838721
 20
-2392.033590822061
 30
0.0
 11
23633.8625605959
 21
-2392.033590822061
 31
0.0
  0
LINE
  5
70CF7
330
18
100
AcDbEntity
  8
実線
100
AcDbLine
 10
23631.3625605959
 20
-2387.63359082206
 30
0.0
 11
23641.8625605959
 21
-2387.63359082206
 31
0.0
  0
LINE
  5
70CF8
330
18
100
AcDbEntity
  8
実線
100
AcDbLine
 10
23619.1625605959
 20
-2386.733590822061
 30
0.0
 11
23631.3625605959
 21
-2386.733590822061
 31
0.0
  0
LINE
  5
70CF9
330
18
100
AcDbEntity
  8
実線
100
AcDbLine
 10
23631.3625605959
 20
-2386.733590822061
 30
0.0
 11
23631.3625605959
 21
-2390.233590822061
 31
0.0
  0
LINE
  5
70CFA
330
18
100
AcDbEntity
  8
実線
100
AcDbLine
 10
23631.76934838721
 20
-2392.033590822061
 30
0.0
 11
23631.76934838721
 21
-2391.233590822061
 31
0.0
  0
LINE
  5
70CFB
330
18
100
AcDbEntity
  8
実線
100
AcDbLine
 10
23631.76934838721
 20
-2392.033590822061
 30
0.0
 11
23630.3625605959
 21
-2392.033590822061
 31
0.0
  0
LINE
  5
70CFC
330
18
100
AcDbEntity
  8
実線
100
AcDbLine
 10
23630.3625605959
 20
-2391.233590822061
 30
0.0
 11
23630.3625605959
 21
-2390.233590822061
 31
0.0
  0
LINE
  5
70CFD
330
18
100
AcDbEntity
  8
実線
100
AcDbLine
 10
23630.3625605959
 20
-2391.233590822061
 30
0.0
 11
23631.76934838721
 21
-2391.233590822061
 31
0.0
  0
LINE
  5
70CFE
330
18
100
AcDbEntity
  8
実線
100
AcDbLine
 10
23630.3625605959
 20
-2392.033590822061
 30
0.0
 11
23631.76934838721
 21
-2392.033590822061
 31
0.0
  0
LINE
  5
70CFF
330
18
100
AcDbEntity
  8
実線
100
AcDbLine
 10
23624.6625605959
 20
-2390.233590822061
 30
0.0
 11
23624.6625605959
 21
-2389.63359082206
 31
0.0
  0
LINE
  5
70D00
330
18
100
AcDbEntity
  8
実線
100
AcDbLine
 10
23630.3625605959
 20
-2390.233590822061
 30
0.0
 11
23624.6625605959
 21
-2390.233590822061
 31
0.0
  0
LINE
  5
70D01
330
18
100
AcDbEntity
  8
実線
100
AcDbLine
 10
23623.8625605959
 20
-2391.63359082206
 30
0.0
 11
23623.8625605959
 21
-2389.63359082206
 31
0.0
  0
LINE
  5
70D02
330
18
100
AcDbEntity
  8
実線
100
AcDbLine
 10
23624.6625605959
 20
-2389.63359082206
 30
0.0
 11
23623.8625605959
 21
-2389.63359082206
 31
0.0
  0
LINE
  5
70D03
330
18
100
AcDbEntity
  8
実線
100
AcDbLine
 10
23618.1625605959
 20
-2385.73359082206
 30
0.0
 11
23618.6625605959
 21
-2385.73359082206
 31
0.0
  0
LINE
  5
70D04
330
18
100
AcDbEntity
  8
実線
100
AcDbLine
 10
23619.1625605959
 20
-2386.23359082206
 30
0.0
 11
23619.1625605959
 21
-2386.733590822061
 31
0.0
  0
ARC
  5
70D05
330
18
100
AcDbEntity
  8
実線
100
AcDbCircle
 10
23618.6625605959
 20
-2386.23359082206
 30
0.0
 40
0.5
100
AcDbArc
 50
0.0
 51
90.0
  0
LINE
  5
70D0A
330
18
100
AcDbEntity
  8
実線
100
AcDbLine
 10
23641.8625605959
 20
-2387.63359082206
 30
0.0
 11
23641.8625605959
 21
-2391.073590822061
 31
0.0
  0
LINE
  5
70D0B
330
18
100
AcDbEntity
  8
実線
100
AcDbLine
 10
23635.8625605959
 20
-2392.033590822061
 30
0.0
 11
23635.8625605959
 21
-2391.233590822061
 31
0.0
  0
LINE
  5
70D0C
330
18
100
AcDbEntity
  8
実線
100
AcDbLine
 10
23635.8625605959
 20
-2391.233590822061
 30
0.0
 11
23634.8625605959
 21
-2390.233590822061
 31
0.0
  0
LINE
  5
70D0D
330
18
100
AcDbEntity
  8
実線
100
AcDbLine
 10
23633.8625605959
 20
-2391.233590822061
 30
0.0
 11
23633.8625605959
 21
-2390.233590822061
 31
0.0
  0
LINE
  5
70D0E
330
18
100
AcDbEntity
  8
実線
100
AcDbLine
 10
23633.8625605959
 20
-2390.233590822061
 30
0.0
 11
23633.4625605959
 21
-2390.233590822061
 31
0.0
  0
LINE
  5
70D0F
330
18
100
AcDbEntity
  8
実線
100
AcDbLine
 10
23634.8625605959
 20
-2390.233590822061
 30
0.0
 11
23633.8625605959
 21
-2390.233590822061
 31
0.0
  0
LINE
  5
70D10
330
18
100
AcDbEntity
  8
実線
100
AcDbLine
 10
23635.7025605959
 20
-2392.19359082206
 30
0.0
 11
23641.8625605959
 21
-2392.19359082206
 31
0.0
  0
LINE
  5
70D11
330
18
100
AcDbEntity
  8
実線
100
AcDbLine
 10
23641.8625605959
 20
-2391.073590822061
 30
0.0
 11
23635.7025605959
 21
-2391.073590822061
 31
0.0
  0
TEXT
  5
70D12
330
18
100
AcDbEntity
  8
文字
 62
     7
100
AcDbText
 10
23520.97933961838
 20
-2395.12909940825
 30
137.5
 40
1.5
  1
SN-16140
  7
MS\U+FF7A\U+FF9E\U+FF7C\U+FF6F\U+FF78N
 11
23520.97933961838
 21
-2395.40310722075
 31
137.5
100
AcDbText
 73
     1
  0
TEXT
  5
70D13
330
18
100
AcDbEntity
  8
文字
 62
     7
100
AcDbText
 10
23520.97933961838
 20
-2396.998885458636
 30
137.5
 40
1.5
  1
MADE IN JAPAN
  7
MS\U+FF7A\U+FF9E\U+FF7C\U+FF6F\U+FF78N
 11
23520.97933961838
 21
-2397.272893271136
 31
137.5
100
AcDbText
 73
     1
  0
LINE
  5
70D15
330
18
100
AcDbEntity
  8
中心線
100
AcDbLine
 10
23445.86869289599
 20
-2368.413394449123
 30
0.0
 11
23436.17777621299
 21
-2415.777375210474
 31
0.0
  0
LINE
  5
70D52
330
18
100
AcDbEntity
  8
二点鎖線
100
AcDbLine
 10
23606.8020357879
 20
-2217.459757640299
 30
0.0
 11
23606.8020357879
 21
-2214.009757640299
 31
0.0
  0
LINE
  5
70D53
330
18
100
AcDbEntity
  8
二点鎖線
100
AcDbLine
 10
23606.8020357879
 20
-2221.559757640299
 30
0.0
 11
23606.8020357879
 21
-2218.109757640299
 31
0.0
  0
LINE
  5
70D54
330
18
100
AcDbEntity
  8
二点鎖線
100
AcDbLine
 10
23606.8020357879
 20
-2218.109757640299
 30
0.0
 11
23597.3020357879
 21
-2218.109757640299
 31
0.0
  0
LINE
  5
70D55
330
18
100
AcDbEntity
  8
二点鎖線
100
AcDbLine
 10
23606.8020357879
 20
-2217.459757640299
 30
0.0
 11
23597.3020357879
 21
-2217.459757640299
 31
0.0
  0
LINE
  5
70D56
330
18
100
AcDbEntity
  8
二点鎖線
100
AcDbLine
 10
23606.8020357879
 20
-2214.009757640299
 30
0.0
 11
23597.3020357879
 21
-2214.009757640299
 31
0.0
  0
LINE
  5
70D57
330
18
100
AcDbEntity
  8
二点鎖線
100
AcDbLine
 10
23606.8020357879
 20
-2221.559757640299
 30
0.0
 11
23597.3020357879
 21
-2221.559757640299
 31
0.0
  0
LINE
  5
70DC3
102
{ACAD_REACTORS
330
70E88
102
}
330
18
100
AcDbEntity
  8
実線
100
AcDbLine
 10
23619.89226759831
 20
-2230.199956085224
 30
0.0
 11
23623.64226759831
 21
-2230.199956085224
 31
0.0
  0
LINE
  5
70DC4
102
{ACAD_REACTORS
330
70E88
102
}
330
18
100
AcDbEntity
  8
実線
100
AcDbLine
 10
23627.45476759831
 20
-2245.032188994585
 30
0.0
 11
23622.15476759832
 21
-2245.032188994585
 31
0.0
  0
LINE
  5
70DC5
102
{ACAD_REACTORS
330
70E88
102
}
330
18
100
AcDbEntity
  8
実線
100
AcDbLine
 10
23622.15476759832
 20
-2233.174956085224
 30
0.0
 11
23627.45476759831
 21
-2233.174956085224
 31
0.0
  0
LINE
  5
70DC6
102
{ACAD_REACTORS
330
70E88
102
}
330
18
100
AcDbEntity
  8
実線
100
AcDbLine
 10
23622.15476759832
 20
-2239.407188994585
 30
0.0
 11
23627.45476759831
 21
-2239.407188994585
 31
0.0
  0
LINE
  5
70DC7
102
{ACAD_REACTORS
330
70E88
102
}
330
18
100
AcDbEntity
  8
実線
100
AcDbLine
 10
23627.45476759831
 20
-2238.799956085224
 30
0.0
 11
23622.15476759832
 21
-2238.799956085224
 31
0.0
  0
LINE
  5
70DC8
102
{ACAD_REACTORS
330
70E88
102
}
330
18
100
AcDbEntity
  8
実線
100
AcDbLine
 10
23621.35476759831
 20
-2239.407188994585
 30
0.0
 11
23621.35476759831
 21
-2245.032188994585
 31
0.0
  0
LINE
  5
70DC9
102
{ACAD_REACTORS
330
70E88
102
}
330
18
100
AcDbEntity
  8
実線
100
AcDbLine
 10
23622.15476759832
 20
-2245.032188994585
 30
0.0
 11
23622.15476759832
 21
-2239.407188994585
 31
0.0
  0
LINE
  5
70DCA
102
{ACAD_REACTORS
330
70E88
102
}
330
18
100
AcDbEntity
  8
実線
100
AcDbLine
 10
23621.35476759831
 20
-2233.174956085224
 30
0.0
 11
23621.35476759831
 21
-2238.799956085224
 31
0.0
  0
LINE
  5
70DCB
102
{ACAD_REACTORS
330
70E88
102
}
330
18
100
AcDbEntity
  8
実線
100
AcDbLine
 10
23622.15476759832
 20
-2238.799956085224
 30
0.0
 11
23622.15476759832
 21
-2233.174956085224
 31
0.0
  0
LINE
  5
70DCC
102
{ACAD_REACTORS
330
70E88
102
}
330
18
100
AcDbEntity
  8
実線
100
AcDbLine
 10
23623.64226759831
 20
-2232.249956085224
 30
0.0
 11
23619.89226759831
 21
-2232.249956085224
 31
0.0
  0
LINE
  5
70DCD
102
{ACAD_REACTORS
330
70E88
102
}
330
18
100
AcDbEntity
  8
実線
100
AcDbLine
 10
23627.45476759831
 20
-2239.407188994585
 30
0.0
 11
23627.45476759831
 21
-2245.032188994585
 31
0.0
  0
LINE
  5
70DCE
102
{ACAD_REACTORS
330
70E88
102
}
330
18
100
AcDbEntity
  8
実線
100
AcDbLine
 10
23628.25476759832
 20
-2245.962188994585
 30
0.0
 11
23628.25476759832
 21
-2232.249956085224
 31
0.0
  0
LINE
  5
70DCF
102
{ACAD_REACTORS
330
70E88
102
}
330
18
100
AcDbEntity
  8
実線
100
AcDbLine
 10
23627.45476759831
 20
-2233.174956085224
 30
0.0
 11
23627.45476759831
 21
-2238.799956085224
 31
0.0
  0
TEXT
  5
70DD0
102
{ACAD_REACTORS
330
70E88
102
}
330
18
100
AcDbEntity
  8
実線
100
AcDbText
 10
23623.52976759831
 20
-2243.719688994585
 30
0.0
 40
3.0
  1
４
 72
     1
 11
23624.80476759832
 21
-2242.219688994586
 31
0.0
100
AcDbText
 73
     2
  0
TEXT
  5
70DD1
102
{ACAD_REACTORS
330
70E88
102
}
330
18
100
AcDbEntity
  8
実線
100
AcDbText
 10
23623.42976759832
 20
-2237.487456085224
 30
0.0
 40
3.0
  1
２
 72
     1
 11
23624.80476759832
 21
-2235.987456085224
 31
0.0
100
AcDbText
 73
     2
  0
LINE
  5
70DD2
102
{ACAD_REACTORS
330
70E88
102
}
330
18
100
AcDbEntity
  8
実線
100
AcDbLine
 10
23616.05476759832
 20
-2245.032188994585
 30
0.0
 11
23616.05476759832
 21
-2239.407188994585
 31
0.0
  0
LINE
  5
70DD3
102
{ACAD_REACTORS
330
70E88
102
}
330
18
100
AcDbEntity
  8
実線
100
AcDbLine
 10
23615.27976759831
 20
-2245.962188994585
 30
0.0
 11
23615.27976759831
 21
-2232.249956085224
 31
0.0
  0
LINE
  5
70DD4
102
{ACAD_REACTORS
330
70E88
102
}
330
18
100
AcDbEntity
  8
実線
100
AcDbLine
 10
23616.05476759832
 20
-2238.799956085224
 30
0.0
 11
23616.05476759832
 21
-2233.174956085224
 31
0.0
  0
LINE
  5
70DD5
102
{ACAD_REACTORS
330
70E88
102
}
330
18
100
AcDbEntity
  8
実線
100
AcDbLine
 10
23628.25476759832
 20
-2245.962188994585
 30
0.0
 11
23615.27976759831
 21
-2245.962188994585
 31
0.0
  0
LINE
  5
70DD6
102
{ACAD_REACTORS
330
70E88
102
}
330
18
100
AcDbEntity
  8
実線
100
AcDbLine
 10
23615.27976759831
 20
-2232.249956085224
 30
0.0
 11
23628.25476759832
 21
-2232.249956085224
 31
0.0
  0
LINE
  5
70DD7
102
{ACAD_REACTORS
330
70E88
102
}
330
18
100
AcDbEntity
  8
実線
100
AcDbLine
 10
23621.35476759831
 20
-2245.032188994585
 30
0.0
 11
23616.05476759832
 21
-2245.032188994585
 31
0.0
  0
LINE
  5
70DD8
102
{ACAD_REACTORS
330
70E88
102
}
330
18
100
AcDbEntity
  8
実線
100
AcDbLine
 10
23616.05476759832
 20
-2239.407188994585
 30
0.0
 11
23621.35476759831
 21
-2239.407188994585
 31
0.0
  0
LINE
  5
70DD9
102
{ACAD_REACTORS
330
70E88
102
}
330
18
100
AcDbEntity
  8
実線
100
AcDbLine
 10
23621.35476759831
 20
-2238.799956085224
 30
0.0
 11
23616.05476759832
 21
-2238.799956085224
 31
0.0
  0
LINE
  5
70DDA
102
{ACAD_REACTORS
330
70E88
102
}
330
18
100
AcDbEntity
  8
実線
100
AcDbLine
 10
23616.05476759832
 20
-2233.174956085224
 30
0.0
 11
23621.35476759831
 21
-2233.174956085224
 31
0.0
  0
TEXT
  5
70DDB
102
{ACAD_REACTORS
330
70E88
102
}
330
18
100
AcDbEntity
  8
実線
100
AcDbText
 10
23617.35476759831
 20
-2243.719688994585
 30
0.0
 40
3.0
  1
３
 72
     1
 11
23618.70476759831
 21
-2242.219688994586
 31
0.0
100
AcDbText
 73
     2
  0
TEXT
  5
70DDC
102
{ACAD_REACTORS
330
70E88
102
}
330
18
100
AcDbEntity
  8
実線
100
AcDbText
 10
23617.52976759831
 20
-2237.487456085224
 30
0.0
 40
3.0
  1
１
 72
     1
 11
23618.70476759831
 21
-2235.987456085224
 31
0.0
100
AcDbText
 73
     2
  0
LINE
  5
70DDD
102
{ACAD_REACTORS
330
70E88
102
}
330
18
100
AcDbEntity
  8
実線
100
AcDbLine
 10
23619.89226759831
 20
-2232.249956085224
 30
0.0
 11
23619.89226759831
 21
-2230.199956085224
 31
0.0
  0
LINE
  5
70DDE
102
{ACAD_REACTORS
330
70E88
102
}
330
18
100
AcDbEntity
  8
実線
100
AcDbLine
 10
23623.64226759831
 20
-2230.199956085224
 30
0.0
 11
23623.64226759831
 21
-2232.249956085224
 31
0.0
  0
LINE
  5
70DE1
330
18
100
AcDbEntity
  8
二点鎖線
 48
0.5
100
AcDbLine
 10
23630.53374210073
 20
-2222.621561099344
 30
0.0
 11
23625.23374210073
 21
-2222.621561099344
 31
0.0
  0
LINE
  5
70DE2
330
18
100
AcDbEntity
  8
二点鎖線
 48
0.5
100
AcDbLine
 10
23625.23374210073
 20
-2210.764328189983
 30
0.0
 11
23630.53374210073
 21
-2210.764328189983
 31
0.0
  0
LINE
  5
70DE3
330
18
100
AcDbEntity
  8
二点鎖線
 48
0.5
100
AcDbLine
 10
23625.23374210073
 20
-2216.996561099344
 30
0.0
 11
23630.53374210073
 21
-2216.996561099344
 31
0.0
  0
LINE
  5
70DE4
330
18
100
AcDbEntity
  8
二点鎖線
 48
0.5
100
AcDbLine
 10
23630.53374210073
 20
-2216.389328189983
 30
0.0
 11
23625.23374210073
 21
-2216.389328189983
 31
0.0
  0
LINE
  5
70DE5
330
18
100
AcDbEntity
  8
二点鎖線
 48
0.5
100
AcDbLine
 10
23624.43374210073
 20
-2210.764328189983
 30
0.0
 11
23624.43374210073
 21
-2216.389328189983
 31
0.0
  0
LINE
  5
70DE6
330
18
100
AcDbEntity
  8
二点鎖線
 48
0.5
100
AcDbLine
 10
23624.43374210073
 20
-2216.996561099344
 30
0.0
 11
23624.43374210073
 21
-2222.621561099344
 31
0.0
  0
LINE
  5
70DE7
330
18
100
AcDbEntity
  8
二点鎖線
 48
0.5
100
AcDbLine
 10
23625.23374210073
 20
-2216.389328189983
 30
0.0
 11
23625.23374210073
 21
-2210.764328189983
 31
0.0
  0
LINE
  5
70DE8
330
18
100
AcDbEntity
  8
二点鎖線
 48
0.5
100
AcDbLine
 10
23623.67124210073
 20
-2207.789328189983
 30
0.0
 11
23623.67124210073
 21
-2209.839328189983
 31
0.0
  0
TEXT
  5
70DE9
330
18
100
AcDbEntity
  8
二点鎖線
 48
0.5
100
AcDbText
 10
23626.53374210073
 20
-2215.076828189983
 30
0.0
 40
3.0
  1
３
 72
     1
 11
23627.88374210073
 21
-2213.576828189983
 31
0.0
100
AcDbText
 73
     2
  0
TEXT
  5
70DEA
330
18
100
AcDbEntity
  8
二点鎖線
 48
0.5
100
AcDbText
 10
23626.45874210073
 20
-2221.309061099344
 30
0.0
 40
3.0
  1
６
 72
     1
 11
23627.88374210073
 21
-2219.809061099344
 31
0.0
100
AcDbText
 73
     2
  0
LINE
  5
70DEB
330
18
100
AcDbEntity
  8
二点鎖線
 48
0.5
100
AcDbLine
 10
23625.23374210073
 20
-2222.621561099344
 30
0.0
 11
23625.23374210073
 21
-2216.996561099344
 31
0.0
  0
LINE
  5
70DEE
330
18
100
AcDbEntity
  8
二点鎖線
 48
0.5
100
AcDbLine
 10
23631.33374210073
 20
-2223.551561099344
 30
0.0
 11
23631.33374210073
 21
-2209.839328189983
 31
0.0
  0
LINE
  5
70DEF
330
18
100
AcDbEntity
  8
二点鎖線
 48
0.5
100
AcDbLine
 10
23630.53374210073
 20
-2216.996561099344
 30
0.0
 11
23630.53374210073
 21
-2222.621561099344
 31
0.0
  0
LINE
  5
70DF0
330
18
100
AcDbEntity
  8
二点鎖線
 48
0.5
100
AcDbLine
 10
23630.53374210073
 20
-2210.764328189983
 30
0.0
 11
23630.53374210073
 21
-2216.389328189983
 31
0.0
  0
LINE
  5
70DF1
330
18
100
AcDbEntity
  8
二点鎖線
 48
0.5
100
AcDbLine
 10
23613.03374210073
 20
-2222.621561099344
 30
0.0
 11
23613.03374210073
 21
-2216.996561099344
 31
0.0
  0
LINE
  5
70DF2
330
18
100
AcDbEntity
  8
二点鎖線
 48
0.5
100
AcDbLine
 10
23612.25874210073
 20
-2223.551561099344
 30
0.0
 11
23612.25874210073
 21
-2209.839328189983
 31
0.0
  0
LINE
  5
70DF3
330
18
100
AcDbEntity
  8
二点鎖線
 48
0.5
100
AcDbLine
 10
23618.33374210073
 20
-2222.621561099344
 30
0.0
 11
23613.03374210073
 21
-2222.621561099344
 31
0.0
  0
LINE
  5
70DF4
330
18
100
AcDbEntity
  8
二点鎖線
 48
0.5
100
AcDbLine
 10
23619.13374210073
 20
-2216.389328189983
 30
0.0
 11
23619.13374210073
 21
-2210.764328189983
 31
0.0
  0
LINE
  5
70DF5
330
18
100
AcDbEntity
  8
二点鎖線
 48
0.5
100
AcDbLine
 10
23613.03374210073
 20
-2210.764328189983
 30
0.0
 11
23618.33374210073
 21
-2210.764328189983
 31
0.0
  0
LINE
  5
70DF6
330
18
100
AcDbEntity
  8
二点鎖線
 48
0.5
100
AcDbLine
 10
23618.33374210073
 20
-2216.389328189983
 30
0.0
 11
23613.03374210073
 21
-2216.389328189983
 31
0.0
  0
LINE
  5
70DF7
330
18
100
AcDbEntity
  8
二点鎖線
 48
0.5
100
AcDbLine
 10
23613.03374210073
 20
-2216.996561099344
 30
0.0
 11
23618.33374210073
 21
-2216.996561099344
 31
0.0
  0
LINE
  5
70DF8
330
18
100
AcDbEntity
  8
二点鎖線
 48
0.5
100
AcDbLine
 10
23613.03374210073
 20
-2216.389328189983
 30
0.0
 11
23613.03374210073
 21
-2210.764328189983
 31
0.0
  0
LINE
  5
70DF9
330
18
100
AcDbEntity
  8
二点鎖線
 48
0.5
100
AcDbLine
 10
23618.33374210073
 20
-2210.764328189983
 30
0.0
 11
23618.33374210073
 21
-2216.389328189983
 31
0.0
  0
LINE
  5
70DFA
330
18
100
AcDbEntity
  8
二点鎖線
 48
0.5
100
AcDbLine
 10
23619.13374210073
 20
-2222.621561099344
 30
0.0
 11
23619.13374210073
 21
-2216.996561099344
 31
0.0
  0
LINE
  5
70DFB
330
18
100
AcDbEntity
  8
二点鎖線
 48
0.5
100
AcDbLine
 10
23618.33374210073
 20
-2216.996561099344
 30
0.0
 11
23618.33374210073
 21
-2222.621561099344
 31
0.0
  0
TEXT
  5
70DFC
330
18
100
AcDbEntity
  8
二点鎖線
 48
0.5
100
AcDbText
 10
23614.50874210074
 20
-2215.076828189983
 30
0.0
 40
3.0
  1
１
 72
     1
 11
23615.68374210073
 21
-2213.576828189983
 31
0.0
100
AcDbText
 73
     2
  0
LINE
  5
70DFD
330
18
100
AcDbEntity
  8
二点鎖線
 48
0.5
100
AcDbLine
 10
23619.92124210073
 20
-2209.839328189983
 30
0.0
 11
23619.92124210073
 21
-2207.789328189983
 31
0.0
  0
TEXT
  5
70DFE
330
18
100
AcDbEntity
  8
二点鎖線
 48
0.5
100
AcDbText
 10
23614.40874210073
 20
-2221.309061099344
 30
0.0
 40
3.0
  1
４
 72
     1
 11
23615.68374210073
 21
-2219.809061099344
 31
0.0
100
AcDbText
 73
     2
  0
LINE
  5
70DFF
330
18
100
AcDbEntity
  8
二点鎖線
 48
0.5
100
AcDbLine
 10
23612.25874210073
 20
-2209.839328189983
 30
0.0
 11
23631.33374210073
 21
-2209.839328189983
 31
0.0
  0
LINE
  5
70E00
330
18
100
AcDbEntity
  8
二点鎖線
 48
0.5
100
AcDbLine
 10
23631.33374210073
 20
-2223.551561099344
 30
0.0
 11
23612.25874210073
 21
-2223.551561099344
 31
0.0
  0
LINE
  5
70E01
330
18
100
AcDbEntity
  8
二点鎖線
 48
0.5
100
AcDbLine
 10
23624.43374210073
 20
-2216.389328189983
 30
0.0
 11
23619.13374210073
 21
-2216.389328189983
 31
0.0
  0
LINE
  5
70E02
330
18
100
AcDbEntity
  8
二点鎖線
 48
0.5
100
AcDbLine
 10
23619.13374210073
 20
-2216.996561099344
 30
0.0
 11
23624.43374210073
 21
-2216.996561099344
 31
0.0
  0
LINE
  5
70E03
330
18
100
AcDbEntity
  8
二点鎖線
 48
0.5
100
AcDbLine
 10
23619.13374210073
 20
-2210.764328189983
 30
0.0
 11
23624.43374210073
 21
-2210.764328189983
 31
0.0
  0
LINE
  5
70E04
330
18
100
AcDbEntity
  8
二点鎖線
 48
0.5
100
AcDbLine
 10
23624.43374210073
 20
-2222.621561099344
 30
0.0
 11
23619.13374210073
 21
-2222.621561099344
 31
0.0
  0
TEXT
  5
70E05
330
18
100
AcDbEntity
  8
二点鎖線
 48
0.5
100
AcDbText
 10
23620.40874210073
 20
-2215.076828189983
 30
0.0
 40
3.0
  1
２
 72
     1
 11
23621.78374210073
 21
-2213.576828189983
 31
0.0
100
AcDbText
 73
     2
  0
LINE
  5
70E06
330
18
100
AcDbEntity
  8
二点鎖線
 48
0.5
100
AcDbLine
 10
23623.67124210073
 20
-2209.839328189983
 30
0.0
 11
23619.92124210073
 21
-2209.839328189983
 31
0.0
  0
LINE
  5
70E07
330
18
100
AcDbEntity
  8
二点鎖線
 48
0.5
100
AcDbLine
 10
23619.92124210073
 20
-2207.789328189983
 30
0.0
 11
23623.67124210073
 21
-2207.789328189983
 31
0.0
  0
TEXT
  5
70E08
330
18
100
AcDbEntity
  8
二点鎖線
 48
0.5
100
AcDbText
 10
23620.30874210073
 20
-2221.309061099344
 30
0.0
 40
3.0
  1
５
 72
     1
 11
23621.78374210073
 21
-2219.809061099344
 31
0.0
100
AcDbText
 73
     2
  0
LINE
  5
70E21
102
{ACAD_REACTORS
330
70E25
102
}
330
18
100
AcDbEntity
  8
中心線
 48
0.5
100
AcDbLine
 10
23531.26385024879
 20
-2246.558073869738
 30
0.0
 11
23534.00611983563
 21
-2231.005890217444
 31
0.0
  0
LINE
  5
70E22
102
{ACAD_REACTORS
330
70E25
102
}
330
18
100
AcDbEntity
  8
中心線
 48
0.5
100
AcDbLine
 10
23529.26385024879
 20
-2246.558073869738
 30
0.0
 11
23532.00611983563
 21
-2231.005890217444
 31
0.0
  0
LINE
  5
70E23
102
{ACAD_REACTORS
330
70E25
102
}
330
18
100
AcDbEntity
  8
実線
100
AcDbLine
 10
23531.41915190094
 20
-2234.334750794096
 30
0.0
 11
23500.34530739582
 21
-2234.334750794098
 31
0.0
  0
LINE
  5
70E24
102
{ACAD_REACTORS
330
70E25
102
}
330
18
100
AcDbEntity
  8
実線
100
AcDbLine
 10
23530.18486303598
 20
-2241.334750794096
 30
0.0
 11
23500.34530739581
 21
-2241.334750794098
 31
0.0
  0
LINE
  5
70E26
102
{ACAD_REACTORS
330
70E7A
330
70E7B
102
}
330
18
100
AcDbEntity
  8
実線
100
AcDbLine
 10
23596.26778871911
 20
-2389.460826742143
 30
0.0
 11
23618.15869596171
 21
-2392.214249193157
 31
0.0
  0
LINE
  5
70E43
102
{ACAD_REACTORS
330
70E7A
330
70E7B
102
}
330
18
100
AcDbEntity
  8
実線
100
AcDbLine
 10
23605.71025567121
 20
-2390.648493393448
 30
0.0
 11
23618.1538161933
 21
-2389.083351367475
 31
0.0
  0
LINE
  5
70E44
102
{ACAD_REACTORS
330
70E7A
330
70E7B
102
}
330
18
100
AcDbEntity
  8
実線
100
AcDbLine
 10
23604.11968535333
 20
-2390.448432611379
 30
0.0
 11
23618.15284023962
 21
-2388.683352558084
 31
0.0
  0
LINE
  5
70E45
102
{ACAD_REACTORS
330
70E7A
330
70E7B
102
}
330
18
100
AcDbEntity
  8
実線
100
AcDbLine
 10
23596.2570532286
 20
-2393.860813645447
 30
0.0
 11
23618.1479604712
 21
-2396.614236096461
 31
0.0
  0
LINE
  5
70E46
102
{ACAD_REACTORS
330
70E7A
330
70E7B
102
}
330
18
100
AcDbEntity
  8
実線
100
AcDbLine
 10
23596.2629089507
 20
-2391.460820789099
 30
0.0
 11
23618.1538161933
 21
-2394.214243240113
 31
0.0
  0
LINE
  5
70E47
102
{ACAD_REACTORS
330
70E7A
330
70E7B
102
}
330
18
100
AcDbEntity
  8
実線
100
AcDbLine
 10
23596.26193299701
 20
-2391.860819598491
 30
0.0
 11
23618.15284023962
 21
-2394.614242049504
 31
0.0
  0
LINE
  5
70E48
102
{ACAD_REACTORS
330
70E7A
330
70E7B
102
}
330
18
100
AcDbEntity
  8
実線
100
AcDbLine
 10
23613.66310726059
 20
-2391.648797303794
 30
0.0
 11
23618.15869596171
 21
-2391.083345414431
 31
0.0
  0
LINE
  5
70E52
102
{ACAD_REACTORS
330
70E7A
330
70E7B
102
}
330
18
100
AcDbEntity
  8
実線
100
AcDbLine
 10
23596.28136778865
 20
-2389.133590825358
 30
0.0
 11
23596.28136778865
 21
-2394.133590818757
 31
0.0
  0
LINE
  5
70E53
102
{ACAD_REACTORS
330
70E7A
330
70E7B
102
}
330
18
100
AcDbEntity
  8
実線
100
AcDbLine
 10
23596.28136778865
 20
-2388.133590822058
 30
0.0
 11
23596.28136778865
 21
-2395.133590822058
 31
0.0
  0
LINE
  5
70E54
102
{ACAD_REACTORS
330
70E7A
330
70E7B
102
}
330
18
100
AcDbEntity
  8
実線
100
AcDbLine
 10
23596.2629089507
 20
-2391.836773818488
 30
0.0
 11
23597.75740408182
 21
-2391.648797303794
 31
0.0
  0
LINE
  5
70E55
102
{ACAD_REACTORS
330
70E7A
330
70E7B
102
}
330
18
100
AcDbEntity
  8
実線
100
AcDbLine
 10
23604.11968535333
 20
-2392.849161996209
 30
0.0
 11
23605.71025567121
 21
-2392.64910121414
 31
0.0
  0
LINE
  5
70E56
102
{ACAD_REACTORS
330
70E7A
330
70E7B
102
}
330
18
100
AcDbEntity
  8
実線
100
AcDbLine
 10
23596.28136778865
 20
-2395.133590822058
 30
0.0
 11
23582.62426015214
 21
-2395.133590822059
 31
0.0
  0
LINE
  5
70E6B
102
{ACAD_REACTORS
330
70E7A
330
70E7B
102
}
330
18
100
AcDbEntity
  8
実線
100
AcDbLine
 10
23596.2570532286
 20
-2389.436780962141
 30
0.0
 11
23618.1479604712
 21
-2386.683358511128
 31
0.0
  0
LINE
  5
70E6E
102
{ACAD_REACTORS
330
70E7A
330
70E7B
102
}
330
18
100
AcDbEntity
  8
実線
100
AcDbLine
 10
23596.28136778865
 20
-2388.133590822058
 30
0.0
 11
23583.8585490171
 21
-2388.133590822059
 31
0.0
  0
LINE
  5
70E76
102
{ACAD_REACTORS
330
70E7A
102
}
330
18
100
AcDbEntity
  8
中心線
 48
0.5
100
AcDbLine
 10
23579.70324736495
 20
-2400.356913897701
 30
0.0
 11
23582.44551695179
 21
-2384.804730245407
 31
0.0
  0
LINE
  5
70E77
102
{ACAD_REACTORS
330
70E7A
102
}
330
18
100
AcDbEntity
  8
中心線
 48
0.5
100
AcDbLine
 10
23581.70324736495
 20
-2400.356913897701
 30
0.0
 11
23584.44551695179
 21
-2384.804730245407
 31
0.0
  0
LINE
  5
70E78
102
{ACAD_REACTORS
330
70E7A
102
}
330
18
100
AcDbEntity
  8
実線
100
AcDbLine
 10
23580.62426015214
 20
-2395.133590822059
 30
0.0
 11
23561.35767922383
 21
-2395.133590822061
 31
0.0
  0
LINE
  5
70E79
102
{ACAD_REACTORS
330
70E7A
102
}
330
18
100
AcDbEntity
  8
実線
100
AcDbLine
 10
23581.85854901711
 20
-2388.133590822059
 30
0.0
 11
23561.35767922383
 21
-2388.13359082206
 31
0.0
  0
LINE
  5
714C0
330
18
100
AcDbEntity
  8
二点鎖線
100
AcDbLine
 10
23509.05217096842
 20
-2167.615615751044
 30
0.0
 11
23515.20286511126
 21
-2213.838044632307
 31
0.0
  0
LINE
  5
71542
330
18
100
AcDbEntity
  8
dimension
100
AcDbLine
 10
23734.44378345429
 20
-2224.834750794105
 30
0.0
 11
23754.44378345429
 21
-2224.834750794105
 31
0.0
  0
LINE
  5
71544
330
18
100
AcDbEntity
  8
dimension
100
AcDbLine
 10
23754.44378345429
 20
-2093.225211100952
 30
0.0
 11
23734.44378345429
 21
-2093.225211100952
 31
0.0
  0
LINE
  5
71546
330
18
100
AcDbEntity
  8
dimension
100
AcDbLine
 10
23734.44378345429
 20
-2124.334750794094
 30
0.0
 11
23734.44378345429
 21
-2093.225211100952
 31
0.0
  0
HATCH
  5
71547
330
18
100
AcDbEntity
  8
dimension
100
AcDbHatch
 10
0.0
 20
0.0
 30
0.0
210
0.0
220
0.0
230
1.0
  2
ANSI31
 70
     0
 71
     0
 91
        1
 92
        7
 72
     0
 73
     1
 93
        5
 10
23754.44378345429
 20
-2224.834750794105
 10
23754.44378345429
 20
-2093.225211100952
 10
23734.44378345429
 20
-2093.225211100952
 10
23734.44378345429
 20
-2124.334750794094
 10
23734.44378345429
 20
-2224.834750794105
 97
        0
 75
     0
 76
     1
 52
0.0
 41
20.0
 77
     0
 78
     1
 53
45.0
 43
13.60893822238358
 44
0.0
 45
-1.767766952966368
 46
1.767766952966368
 79
     0
 47
0.0
 98
        1
 10
23745.03134608972
 20
-2138.436692738139
1001
ACAD
1010
0.0
1020
0.0
1030
0.0
  0
TEXT
  5
72B46
330
18
100
AcDbEntity
  8
文字
100
AcDbText
 10
23683.67863893187
 20
-2486.963880906138
 30
0.0
 40
7.0
  1
ＳＥ－４７６４０Ａ
 41
0.9529999999999999
  7
まこ
100
AcDbText
  0
TEXT
  5
72B76
330
18
100
AcDbEntity
  8
文字
100
AcDbText
 10
23685.66237440512
 20
-2474.848952260487
 30
0.0
 40
6.0
  1
外形図_R1550_300N
 41
0.6999999999999999
  7
まこ
100
AcDbText
  0
TEXT
  5
72BA6
330
18
100
AcDbEntity
  8
文字
100
AcDbText
 10
23683.97086798537
 20
-2461.503738515661
 30
0.0
 40
4.0
  1
NVA-C\U+FF7B\U+FF70\U+FF8E\U+FF9E\U+FF7A\U+FF9D\U+FF8A\U+FF9F\U+FF7DＲ1550 CL\U+FF95\U+FF86\U+FF6F\U+FF84 CLV-CME1550A2A 
 41
0.5200000000000001
  7
まこ
100
AcDbText
  0
VIEWPORT
  5
72BAB
102
{ACAD_XDICTIONARY
360
72CEB
102
}
330
72BA7
100
AcDbEntity
 67
     1
  8
0
100
AcDbViewport
 10
5.25
 20
3.5
 30
0.0
 40
12.6
 41
8.4
 68
     1
 69
     1
 12
5.25
 22
3.5
 13
0.0
 23
0.0
 14
0.5
 24
0.5
 15
0.0
 25
0.0
 16
0.0
 26
0.0
 36
1.0
 17
0.0
 27
0.0
 37
0.0
 42
50.0
 43
0.0
 44
0.0
 45
8.4
 50
0.0
 51
0.0
 72
   100
 90
   557152
  1

281
     0
 71
     1
 74
     0
110
0.0
120
0.0
130
0.0
111
1.0
121
0.0
131
0.0
112
0.0
122
1.0
132
0.0
 79
     0
146
0.0
  0
ENDSEC
  0
SECTION
  2
OBJECTS
  0
DICTIONARY
  5
C
330
0
100
AcDbDictionary
281
     1
  3
ACAD_2007HEADERVARS_RT
350
72CB0
  3
ACAD_CIP_PREVIOUS_PRODUCT_INFO
350
72BEC
  3
ACAD_COLOR
350
72BE1
  3
ACAD_DETAILVIEWSTYLE
350
714AD
  3
ACAD_GROUP
350
D
  3
ACAD_IMAGE_VARS
350
71484
  3
ACAD_LAYOUT
350
73F
  3
ACAD_MATERIAL
350
7149F
  3
ACAD_MLEADERSTYLE
350
714A5
  3
ACAD_MLINESTYLE
350
1B
  3
ACAD_PLOTSETTINGS
350
740
  3
ACAD_PLOTSTYLENAME
350
73D
  3
ACAD_SCALELIST
350
71458
  3
ACAD_SECTIONVIEWSTYLE
350
714AE
  3
ACAD_TABLESTYLE
350
714A3
  3
ACAD_VISUALSTYLE
350
71486
  3
AcadDim
350
61738
  3
ACDB_RECOMPOSE_DATA
350
72CAE
  3
AcDbVariableDictionary
350
11AC
  3
APPDATA
350
71482
  3
CLOUDSETTINGS
350
728A0
  3
DWGPROPS
350
72CAF
  3
FX_DICT_DIMENSION_PALETTE
350
714F4
  3
FX_DICT_DIMENSION_PALETTE_RECENTLIST
350
714F7
  0
DICTIONARY
  5
72C58
330
8
100
AcDbDictionary
280
     1
281
     1
  0
DICTIONARY
  5
5F310
330
2
100
AcDbDictionary
280
     1
281
     1
  3
ACAD_LAYERFILTERS
360
5F92D
  3
ACAD_LAYERSTATES
360
5F311
  0
DICTIONARY
  5
72CEB
330
72BAB
100
AcDbDictionary
280
     1
281
     1
  3
ACAD_XREC_ROUNDTRIP
360
72CEC
  0
DICTIONARY
  5
72CB0
102
{ACAD_REACTORS
330
C
102
}
330
C
100
AcDbDictionary
281
     1
  3
INTERFERECOLOR
350
72CB1
  0
XRECORD
  5
72BEC
102
{ACAD_REACTORS
330
C
102
}
330
C
100
AcDbXrecord
280
     1
300
ACDLT
300
2019
300
87085ACDLT_2019_0F
  0
DICTIONARY
  5
72BE1
102
{ACAD_REACTORS
330
C
102
}
330
C
100
AcDbDictionary
281
     1
  0
DICTIONARY
  5
714AD
102
{ACAD_REACTORS
330
C
102
}
330
C
100
AcDbDictionary
281
     1
  3
Imperial24
350
72BE3
  0
DICTIONARY
  5
D
102
{ACAD_REACTORS
330
C
102
}
330
C
100
AcDbDictionary
281
     1
  3
*A1
350
6B6CD
  3
*A10
350
70E7A
  3
*A11
350
68CCE
  3
*A12
350
6B88D
  3
*A13
350
70E7B
  3
*A14
350
6B5AF
  3
*A15
350
6B67F
  3
*A16
350
6B680
  3
*A17
350
68CD3
  3
*A18
350
68CDD
  3
*A19
350
68CE1
  3
*A2
350
68CD8
  3
*A20
350
68CD4
  3
*A21
350
68CD5
  3
*A22
350
68CD6
  3
*A23
350
68CD7
  3
*A3
350
68CE0
  3
*A4
350
68CE2
  3
*A5
350
70E88
  3
*A6
350
68CDF
  3
*A7
350
68CCB
  3
*A8
350
68CDE
  3
*A9
350
70E25
  0
RASTERVARIABLES
  5
71484
102
{ACAD_REACTORS
330
C
102
}
330
C
100
AcDbRasterVariables
 90
        0
 70
     1
 71
     1
 72
     0
  0
DICTIONARY
  5
73F
102
{ACAD_REACTORS
330
C
102
}
330
C
100
AcDbDictionary
281
     1
  3
Model
350
741
  3
Sheet1
350
72BA8
  0
DICTIONARY
  5
7149F
102
{ACAD_REACTORS
330
C
102
}
330
C
100
AcDbDictionary
281
     1
  3
ByBlock
350
72BD9
  3
ByLayer
350
714A0
  3
Global
350
714A2
  0
DICTIONARY
  5
714A5
102
{ACAD_REACTORS
330
C
102
}
330
C
100
AcDbDictionary
281
     1
  3
Standard
350
714A6
  0
DICTIONARY
  5
1B
102
{ACAD_REACTORS
330
C
102
}
330
C
100
AcDbDictionary
281
     1
  3
STANDARD
350
1C
  0
DICTIONARY
  5
740
102
{ACAD_REACTORS
330
C
102
}
330
C
100
AcDbDictionary
281
     1
  0
ACDBDICTIONARYWDFLT
  5
73D
102
{ACAD_REACTORS
330
C
102
}
330
C
100
AcDbDictionary
281
     1
  3
Normal
350
73E
100
AcDbDictionaryWithDefault
340
73E
  0
DICTIONARY
  5
71458
102
{ACAD_REACTORS
330
C
102
}
330
C
100
AcDbDictionary
281
     1
  3
*A1
350
7151B
  3
A0
350
71459
  3
A1
350
7145A
  3
A2
350
7145B
  3
A3
350
7145C
  3
A4
350
7145D
  3
A5
350
7145E
  3
A6
350
7145F
  3
A7
350
71460
  3
A8
350
71461
  3
A9
350
71462
  3
B0
350
71463
  3
B1
350
71464
  3
B2
350
71465
  3
B3
350
71466
  3
B4
350
71467
  3
B5
350
71468
  3
B6
350
71469
  3
B7
350
7146A
  3
B8
350
7146B
  3
B9
350
7146C
  3
C0
350
7146D
  3
C1
350
7146E
  3
C2
350
7146F
  3
C3
350
71470
  3
C4
350
71471
  3
C5
350
71472
  3
C6
350
71473
  3
C7
350
71474
  3
C8
350
71475
  3
C9
350
71476
  3
D0
350
71477
  3
D1
350
71478
  3
D2
350
71479
  0
DICTIONARY
  5
714AE
102
{ACAD_REACTORS
330
C
102
}
330
C
100
AcDbDictionary
281
     1
  3
Imperial24
350
72BE2
  0
DICTIONARY
  5
714A3
102
{ACAD_REACTORS
330
C
102
}
330
C
100
AcDbDictionary
281
     1
  3
Standard
350
714A4
  0
DICTIONARY
  5
71486
102
{ACAD_REACTORS
330
C
102
}
330
C
100
AcDbDictionary
281
     1
  3
2dWireframe
350
7148B
  3
Basic
350
7148E
  3
Brighten
350
71492
  3
ColorChange
350
71496
  3
Conceptual
350
71490
  3
Dim
350
71491
  3
EdgeColorOff
350
71499
  3
Facepattern
350
71495
  3
Flat
350
71487
  3
FlatWithEdges
350
71488
  3
Gouraud
350
71489
  3
GouraudWithEdges
350
7148A
  3
Hidden
350
7148D
  3
JitterOff
350
71497
  3
Linepattern
350
71494
  3
OverhangOff
350
71498
  3
Realistic
350
7148F
  3
Shaded
350
7149E
  3
Shaded with edges
350
7149D
  3
Shades of Gray
350
7149A
  3
Sketchy
350
7149B
  3
Thicken
350
71493
  3
Wireframe
350
7148C
  3
X-Ray
350
7149C
  0
XRECORD
  5
61738
102
{ACAD_REACTORS
330
C
102
}
330
C
100
AcDbXrecord
280
     1
 90
   990106
  3
OPEN
 60
     0
 61
     0
 62
     1
 63
     3
 64
     1
 65
     0
 66
     1
 67
     3
 68
     1
 69
     1
 70
     0
 71
     0
 72
     0
 40
10.8693687371815
170
     2
340
0
  0
XRECORD
  5
72CAE
102
{ACAD_REACTORS
330
C
102
}
330
C
100
AcDbXrecord
280
     1
 90
        1
330
714A4
  0
DICTIONARY
  5
11AC
102
{ACAD_REACTORS
330
C
102
}
330
C
100
AcDbDictionary
281
     1
  3
CANNOSCALE
350
714A9
  3
CMLEADERSTYLE
350
714AB
  3
CTABLESTYLE
350
714AA
  3
CVIEWDETAILSTYLE
350
72C9B
  3
CVIEWSECTIONSTYLE
350
72C9C
  3
DGNFRAME
350
72CA2
  3
DIMASSOC
350
11AD
  3
HIDETEXT
350
72CA1
  3
INDEXCTL
350
72CA0
  3
LAYEREVAL
350
72C9E
  3
LAYERNOTIFY
350
72C9F
  3
LIGHTINGUNITS
350
72C9D
  3
MSLTSCALE
350
714AC
  3
SORTENTS
350
4B8FE
  3
XCLIPFRAME
350
72CAC
  0
DICTIONARY
  5
71482
102
{ACAD_REACTORS
330
C
102
}
330
C
100
AcDbDictionary
281
     1
  0
XRECORD
  5
728A0
102
{ACAD_REACTORS
330
C
102
}
330
C
100
AcDbXrecord
280
     1
 40
0.5
  0
XRECORD
  5
72CAF
102
{ACAD_REACTORS
330
C
102
}
330
C
100
AcDbXrecord
280
     1
  1
DWGPROPS COOKIE
  2

  3

  4

  6

  7

  8
NI0949
  9

300
=
301
=
302
=
303
=
304
=
305
=
306
=
307
=
308
=
309
=
 40
24.10970451388889
 41
2452479.723113426
 42
2458549.471574074
  1

 90
        0
  0
DICTIONARY
  5
714F4
102
{ACAD_REACTORS
330
C
102
}
330
C
100
AcDbDictionary
281
     1
  0
DICTIONARY
  5
714F7
102
{ACAD_REACTORS
330
C
102
}
330
C
100
AcDbDictionary
281
     1
  3
0
350
714F8
  0
DICTIONARY
  5
5F92D
102
{ACAD_REACTORS
330
5F310
102
}
330
5F310
100
AcDbDictionary
280
     1
281
     1
  3
0
360
5F92E
  3
11
360
5F92F
  3
150_
360
5F930
  3
160_
360
5F931
  3
170_
360
5F932
  3
171_
360
5F933
  3
350_
360
5F934
  3
4
360
5F935
  3
5
360
5F936
  3
7
360
5F937
  3
kiseki
360
5F938
  0
DICTIONARY
  5
5F311
102
{ACAD_REACTORS
330
5F310
102
}
330
5F310
100
AcDbDictionary
281
     1
  3
ARGON_LAYERP_10
350
72BCE
  3
ARGON_LAYERP_11
350
72BCF
  3
ARGON_LAYERP_12
350
72BD0
  3
ARGON_LAYERP_13
350
72BD1
  3
ARGON_LAYERP_14
350
72BD2
  3
ARGON_LAYERP_15
350
72BD3
  3
ARGON_LAYERP_16
350
72BD4
  3
ARGON_LAYERP_17
350
72BD5
  3
ARGON_LAYERP_18
350
72BD6
  3
ARGON_LAYERP_19
350
72BD7
  3
ARGON_LAYERP_2
350
72BC6
  3
ARGON_LAYERP_23
350
72BC4
  3
ARGON_LAYERP_3
350
72BC7
  3
ARGON_LAYERP_4
350
72BC8
  3
ARGON_LAYERP_5
350
72BC9
  3
ARGON_LAYERP_6
350
72BCA
  3
ARGON_LAYERP_7
350
72BCB
  3
ARGON_LAYERP_8
350
72BCC
  3
ARGON_LAYERP_9
350
72BCD
  0
XRECORD
  5
72CEC
102
{ACAD_REACTORS
330
72CEB
102
}
330
72CEB
100
AcDbXrecord
280
     1
102
SHADEPLOT
 70
     0
  0
XRECORD
  5
72CB1
102
{ACAD_REACTORS
330
72CB0
102
}
330
72CB0
100
AcDbXrecord
280
     1
1004
1800000001000000000000C0000000000000000000000000
  0
ACDBDETAILVIEWSTYLE
  5
72BE3
102
{ACAD_XDICTIONARY
360
72CF0
102
}
102
{ACAD_REACTORS
330
714AD
102
}
330
714AD
100
AcDbModelDocViewStyle
 70
     0
  3
Imperial24
290
     0
100
AcDbDetailViewStyle
 70
     0
 71
     0
 90
        3
 71
     1
340
F
 40
0.24
340
0
 40
0.24
300

 40
0.36
280
     3
 71
     2
340
14
 90
       25
 71
     3
340
F
 40
0.24
 90
        1
 40
0.75
 90
        1
300
%<\AcVar ViewType \f "%tc1">% %<\AcVar ViewDetailId>%\PSCALE %<\AcVar ViewScale \f "%sn">%
 71
     4
340
14
 90
       25
340
14
 90
       25
280
     0
  0
GROUP
  5
6B6CD
102
{ACAD_REACTORS
330
D
102
}
330
D
100
AcDbGroup
300

 70
     1
 71
     1
340
688DB
340
688EE
340
688DE
340
688DF
340
689EE
340
689ED
340
689BF
340
689C0
340
689C1
340
6893B
340
688F7
340
68C20
340
68A1B
340
68A1A
340
68A1C
340
68A19
340
68A18
340
68A17
340
68A16
340
68A15
340
68A12
340
68A11
340
68A10
340
68A13
340
68A14
340
68A0D
340
68A0E
340
68A0F
340
68BE1
340
68BE0
340
68BDF
340
68BDE
340
68BDD
340
68BDC
340
68BDB
340
68BDA
340
68BD9
340
68BD8
340
68BD7
340
68BD6
340
68BD5
340
68BD4
340
68BD3
340
68BD2
340
68BD1
340
68BD0
340
68BCF
340
68BCE
340
68BCD
340
68BC9
340
68BC8
340
68BC7
340
68BC6
340
68BC5
340
68BC4
340
68BC3
340
68BC2
340
68BC1
340
68BC0
340
68BBF
340
68BBE
340
68BBD
340
68BBC
340
68BBB
340
68BBA
340
68BB9
340
68BB8
340
68BB7
340
68BB6
340
68BB5
340
68BB4
340
68BB3
340
68BB2
340
68BB1
340
68BEC
340
68BCC
340
68BCB
340
68BCA
340
68DDB
340
68B84
  0
GROUP
  5
70E7A
102
{ACAD_REACTORS
330
D
102
}
330
D
100
AcDbGroup
300

 70
     1
 71
     1
340
70E56
340
70E6E
340
70E76
340
70E77
340
70E55
340
70E54
340
70E53
340
70E52
340
70E6B
340
70E26
340
70E47
340
70E46
340
70E45
340
70E44
340
70E43
340
70E48
340
70E78
340
70E79
  0
GROUP
  5
68CCE
102
{ACAD_REACTORS
330
D
102
}
330
D
100
AcDbGroup
300

 70
     1
 71
     1
340
6888C
340
6888D
340
6888E
340
6888F
340
68890
340
68891
340
68892
340
68893
340
68894
340
68895
340
68896
340
68897
340
68898
340
68899
340
6889A
340
6889B
340
6888B
340
6889C
340
6889D
340
6889E
340
6889F
340
688A0
  0
GROUP
  5
6B88D
102
{ACAD_REACTORS
330
D
102
}
330
D
100
AcDbGroup
300

 70
     1
 71
     1
340
6B88B
340
6B5AE
340
6B58F
340
6B593
340
6B591
340
6B5AD
340
6B5AB
340
6B599
340
6B598
340
6B597
340
6B596
340
6B595
340
6B594
340
6B592
340
6B590
340
6B5D9
340
6B5D1
340
6B5C6
340
6B5B1
340
6B5B0
340
6B5D7
340
6B5D5
340
6B5D4
340
6B5D0
340
6B5CF
340
6B5CE
340
6B5CD
340
6B5CC
340
6B5CB
340
6B5CA
340
6B5C9
340
6B5C8
340
6B5C7
340
6B5C5
340
6B5C4
340
6B5C3
340
6B5C2
340
6B5C1
340
6B5C0
340
6B5BF
340
6B5BE
340
6B5BD
340
6B5BC
340
6B5BB
340
6B5BA
340
6B5D6
340
6B5D3
340
6B5D2
340
6B5B9
340
6B5B8
340
6B5B7
340
6B5B6
340
6B5B5
340
6B5B4
340
6B5B3
340
6B5B2
340
6B5D8
  0
GROUP
  5
70E7B
102
{ACAD_REACTORS
330
D
102
}
330
D
100
AcDbGroup
300

 70
     1
 71
     1
340
70E43
340
70E44
340
70E45
340
70E46
340
70E47
340
70E26
340
70E48
340
70E52
340
70E53
340
70E54
340
70E55
340
70E56
340
70E6B
340
70E6E
  0
GROUP
  5
6B5AF
102
{ACAD_REACTORS
330
D
102
}
330
D
100
AcDbGroup
300

 70
     1
 71
     1
340
6B58F
340
6B593
340
6B591
340
6B5AE
340
6B5AD
340
6B5AB
340
6B599
340
6B598
340
6B597
340
6B596
340
6B595
340
6B594
340
6B592
340
6B590
  0
GROUP
  5
6B67F
102
{ACAD_REACTORS
330
D
102
}
330
D
100
AcDbGroup
300

 70
     1
 71
     1
340
6B5D1
340
6B5C6
340
6B5B1
340
6B5B0
340
6B5D7
340
6B5D5
340
6B5D4
340
6B5D0
340
6B5CF
340
6B5CE
340
6B5CD
340
6B5CC
340
6B5CB
340
6B5CA
340
6B5C9
340
6B5C8
340
6B5C7
340
6B5C5
340
6B5C4
340
6B5C3
340
6B5C2
340
6B5C1
340
6B5C0
340
6B5BF
340
6B5BE
340
6B5BD
340
6B5BC
340
6B5BB
340
6B5BA
340
6B5D6
340
6B5D3
340
6B5D2
340
6B5B9
340
6B5B8
340
6B5B7
340
6B5B6
340
6B5B5
340
6B5B4
340
6B5B3
340
6B5B2
340
6B5D9
340
6B5D8
  0
GROUP
  5
6B680
102
{ACAD_REACTORS
330
D
102
}
330
D
100
AcDbGroup
300

 70
     1
 71
     1
340
6B5D9
340
6B5D1
340
6B5C6
340
6B5B1
340
6B5B0
340
6B5D7
340
6B5D5
340
6B5D4
340
6B5D0
340
6B5CF
340
6B5CE
340
6B5CD
340
6B5CC
340
6B5CB
340
6B5CA
340
6B5C9
340
6B5C8
340
6B5C7
340
6B5C5
340
6B5C4
340
6B5C3
340
6B5C2
340
6B5C1
340
6B5C0
340
6B5BF
340
6B5BE
340
6B5BD
340
6B5BC
340
6B5BB
340
6B5BA
340
6B5D6
340
6B5D3
340
6B5D2
340
6B5B9
340
6B5B8
340
6B5B7
340
6B5B6
340
6B5B5
340
6B5B4
340
6B5B3
340
6B5B2
340
6B5D8
340
6B58F
340
6B593
340
6B591
340
6B5AE
340
6B5AD
340
6B5AB
340
6B599
340
6B598
340
6B597
340
6B596
340
6B595
340
6B594
340
6B592
340
6B590
  0
GROUP
  5
68CD3
102
{ACAD_REACTORS
330
D
102
}
330
D
100
AcDbGroup
300

 70
     1
 71
     1
340
689C1
340
689C0
340
689BF
  0
GROUP
  5
68CDD
102
{ACAD_REACTORS
330
D
102
}
330
D
100
AcDbGroup
300

 70
     1
 71
     1
340
68A17
340
68A16
340
68A15
  0
GROUP
  5
68CE1
102
{ACAD_REACTORS
330
D
102
}
330
D
100
AcDbGroup
300

 70
     1
 71
     1
340
68BCB
340
68BCC
340
68BCA
  0
GROUP
  5
68CD8
102
{ACAD_REACTORS
330
D
102
}
330
D
100
AcDbGroup
300

 70
     1
 71
     1
340
68A0E
340
68A0F
  0
GROUP
  5
68CD4
102
{ACAD_REACTORS
330
D
102
}
330
D
100
AcDbGroup
300

 70
     1
 71
     1
340
689C0
340
689C1
  0
GROUP
  5
68CD5
102
{ACAD_REACTORS
330
D
102
}
330
D
100
AcDbGroup
300

 70
     1
 71
     1
340
68A12
340
68A11
340
68A10
  0
GROUP
  5
68CD6
102
{ACAD_REACTORS
330
D
102
}
330
D
100
AcDbGroup
300

 70
     1
 71
     1
340
68A11
340
68A12
  0
GROUP
  5
68CD7
102
{ACAD_REACTORS
330
D
102
}
330
D
100
AcDbGroup
300

 70
     1
 71
     1
340
68A0F
340
68A0E
340
68A0D
  0
GROUP
  5
68CE0
102
{ACAD_REACTORS
330
D
102
}
330
D
100
AcDbGroup
300

 70
     1
 71
     1
340
68A1A
340
68A1B
  0
GROUP
  5
68CE2
102
{ACAD_REACTORS
330
D
102
}
330
D
100
AcDbGroup
300

 70
     1
 71
     1
340
68BCC
340
68BCB
  0
GROUP
  5
70E88
102
{ACAD_REACTORS
330
D
102
}
330
D
100
AcDbGroup
300

 70
     1
 71
     1
340
70DDE
340
70DDD
340
70DDC
340
70DDB
340
70DDA
340
70DD9
340
70DD8
340
70DD7
340
70DD6
340
70DD5
340
70DD4
340
70DD3
340
70DD2
340
70DD1
340
70DD0
340
70DCF
340
70DCE
340
70DCD
340
70DCC
340
70DCB
340
70DCA
340
70DC9
340
70DC8
340
70DC7
340
70DC6
340
70DC5
340
70DC4
340
70DC3
  0
GROUP
  5
68CDF
102
{ACAD_REACTORS
330
D
102
}
330
D
100
AcDbGroup
300

 70
     1
 71
     1
340
68A1B
340
68A1A
340
68A1C
  0
GROUP
  5
68CCB
102
{ACAD_REACTORS
330
D
102
}
330
D
100
AcDbGroup
300

 70
     1
 71
     1
340
688A5
340
688A6
340
688A7
340
688A8
340
688A9
340
688AA
340
688AB
340
688AC
340
688AD
340
688AE
340
688AF
340
688A1
340
688A2
340
688A4
340
688A3
340
688B0
340
688B1
340
688B2
340
688B3
340
688B4
340
688B5
340
688B6
340
688B7
340
688B8
340
688B9
340
688BA
340
688BB
340
688BC
340
688BD
340
688BE
340
688BF
340
688C0
340
688C1
340
688C2
340
688C3
  0
GROUP
  5
68CDE
102
{ACAD_REACTORS
330
D
102
}
330
D
100
AcDbGroup
300

 70
     1
 71
     1
340
68A16
340
68A17
  0
GROUP
  5
70E25
102
{ACAD_REACTORS
330
D
102
}
330
D
100
AcDbGroup
300

 70
     1
 71
     1
340
68BCD
340
68BB2
340
70E22
340
70E21
340
68BCE
340
68BCF
340
68BD0
340
68BD1
340
68BB5
340
68BDC
340
68BDD
340
68BDE
340
68BDF
340
68BE0
340
68BE1
340
68BDB
340
70E24
340
70E23
  0
LAYOUT
  5
741
102
{ACAD_XDICTIONARY
360
72CB2
102
}
102
{ACAD_REACTORS
330
73F
102
}
330
73F
100
AcDbPlotSettings
  1

  2
IBM Infoprint 1316J RPCS(A3-00-裏).pc3
  4
A3
  6

 40
0.0
 41
0.0
 42
0.925994873046875
 43
0.9466552734375
 44
296.9259948730469
 45
419.9466552734374
 46
27.64
 47
16.34
 48
13399.53930111343
 49
2601.583770223464
140
13640.25641361182
141
2987.901808374525
142
1.0
143
1.0
 70
 11956
 72
     1
 73
     0
 74
     4
  7
monochrome.ctb
 75
    16
147
1.0
148
-13399.53930111343
149
-2601.583770223464
100
AcDbLayout
  1
Model
 70
     1
 71
     0
 10
0.0
 20
0.0
 11
12.0
 21
9.0
 12
0.0
 22
0.0
 32
0.0
 14
23120.34530739579
 24
-2486.147214239471
 34
0.0
 15
23756.96896322346
 25
-2074.272639827501
 35
137.5
146
0.0
 13
0.0
 23
0.0
 33
0.0
 16
1.0
 26
0.0
 36
0.0
 17
0.0
 27
1.0
 37
0.0
 76
     0
330
18
331
7143E
  0
LAYOUT
  5
72BA8
102
{ACAD_XDICTIONARY
360
72CE9
102
}
102
{ACAD_REACTORS
330
73F
102
}
330
73F
100
AcDbPlotSettings
  1

  2
none_device
  4
ANSI_A_(11.00_x_8.50_Inches)
  6

 40
6.349999999999999
 41
19.05
 42
6.349999999999999
 43
19.05
 44
279.4
 45
215.9
 46
0.0
 47
0.0
 48
0.0
 49
0.0
140
0.0
141
0.0
142
1.0
143
1.0
 70
   688
 72
     0
 73
     0
 74
     5
  7

 75
    16
147
1.0
148
0.0
149
0.0
100
AcDbLayout
  1
Sheet1
 70
     1
 71
     1
 10
0.0
 20
0.0
 11
0.0
 21
0.0
 12
0.0
 22
0.0
 32
0.0
 14
1.000000000000000E+20
 24
1.000000000000000E+20
 34
1.000000000000000E+20
 15
-1.000000000000000E+20
 25
-1.000000000000000E+20
 35
-1.000000000000000E+20
146
0.0
 13
0.0
 23
0.0
 33
0.0
 16
1.0
 26
0.0
 36
0.0
 17
0.0
 27
1.0
 37
0.0
 76
     0
330
72BA7
331
72BAB
  0
MATERIAL
  5
72BD9
102
{ACAD_XDICTIONARY
360
72BDA
102
}
102
{ACAD_REACTORS
330
7149F
102
}
330
7149F
100
AcDbMaterial
  1
ByBlock
 72
     0
 43
0.0208333333333333
 43
0.0
 43
0.0
 43
0.0
 43
0.0
 43
0.0208333333333333
 43
0.0
 43
0.0
 43
0.0
 43
0.0
 43
1.0
 43
0.0
 43
0.0
 43
0.0
 43
0.0
 43
1.0
 77
     0
 47
0.0208333333333333
 47
0.0
 47
0.0
 47
0.0
 47
0.0
 47
0.0208333333333333
 47
0.0
 47
0.0
 47
0.0
 47
0.0
 47
1.0
 47
0.0
 47
0.0
 47
0.0
 47
0.0
 47
1.0
171
     0
 49
0.0208333333333333
 49
0.0
 49
0.0
 49
0.0
 49
0.0
 49
0.0208333333333333
 49
0.0
 49
0.0
 49
0.0
 49
0.0
 49
1.0
 49
0.0
 49
0.0
 49
0.0
 49
0.0
 49
1.0
175
     0
142
0.0208333333333333
142
0.0
142
0.0
142
0.0
142
0.0
142
0.0208333333333333
142
0.0
142
0.0
142
0.0
142
0.0
142
1.0
142
0.0
142
0.0
142
0.0
142
0.0
142
1.0
179
     0
144
0.0208333333333333
144
0.0
144
0.0
144
0.0
144
0.0
144
0.0208333333333333
144
0.0
144
0.0
144
0.0
144
0.0
144
1.0
144
0.0
144
0.0
144
0.0
144
0.0
144
1.0
147
0.0208333333333333
147
0.0
147
0.0
147
0.0
147
0.0
147
0.0208333333333333
147
0.0
147
0.0
147
0.0
147
0.0
147
1.0
147
0.0
147
0.0
147
0.0
147
0.0
147
1.0
  0
MATERIAL
  5
714A0
102
{ACAD_XDICTIONARY
360
72CE4
102
}
102
{ACAD_REACTORS
330
7149F
102
}
330
7149F
100
AcDbMaterial
  1
ByLayer
 73
     1
 78
     1
172
     1
176
     1
270
     1
274
     1
  0
MATERIAL
  5
714A2
102
{ACAD_XDICTIONARY
360
72CE6
102
}
102
{ACAD_REACTORS
330
7149F
102
}
330
7149F
100
AcDbMaterial
  1
Global
 73
     1
 78
     1
172
     1
176
     1
270
     1
274
     1
  0
MLEADERSTYLE
  5
714A6
102
{ACAD_REACTORS
330
714A5
102
}
330
714A5
100
AcDbMLeaderStyle
170
     2
171
     1
172
     0
 90
        2
 40
0.0
 41
0.0
173
     1
 91
-1056964608
340
12
 92
       -2
290
     1
 42
0.09
291
     1
 43
0.36
  3
Standard
 44
0.18
300

342
F
174
     1
178
     6
175
     1
176
     0
 93
-1056964608
 45
0.18
292
     0
297
     0
 46
0.18
 94
-1056964608
 47
1.0
 49
1.0
140
1.0
293
     1
141
0.0
294
     1
177
     0
142
1.0
295
     0
296
     0
143
0.125
1001
ACAD_MLEADERVER
1070
     2
  0
MLINESTYLE
  5
1C
102
{ACAD_REACTORS
330
1B
102
}
330
1B
100
AcDbMlineStyle
  2
STANDARD
 70
     0
  3

 62
   256
 51
90.0
 52
90.0
 71
     2
 49
0.5
 62
   256
  6
BYLAYER
 49
-0.5
 62
   256
  6
BYLAYER
  0
ACDBPLACEHOLDER
  5
73E
102
{ACAD_REACTORS
330
73D
102
}
330
73D
  0
SCALE
  5
7151B
102
{ACAD_REACTORS
330
71458
102
}
330
71458
100
AcDbScale
 70
     0
300
1:1_XREF_XREF
140
1.0
141
1.0
290
     0
  0
SCALE
  5
71459
102
{ACAD_REACTORS
330
71458
102
}
330
71458
100
AcDbScale
 70
     0
300
1:1
140
1.0
141
1.0
290
     1
  0
SCALE
  5
7145A
102
{ACAD_REACTORS
330
71458
102
}
330
71458
100
AcDbScale
 70
     0
300
1:2
140
1.0
141
2.0
290
     0
  0
SCALE
  5
7145B
102
{ACAD_REACTORS
330
71458
102
}
330
71458
100
AcDbScale
 70
     0
300
1:4
140
1.0
141
4.0
290
     0
  0
SCALE
  5
7145C
102
{ACAD_REACTORS
330
71458
102
}
330
71458
100
AcDbScale
 70
     0
300
1:5
140
1.0
141
5.0
290
     0
  0
SCALE
  5
7145D
102
{ACAD_REACTORS
330
71458
102
}
330
71458
100
AcDbScale
 70
     0
300
1:8
140
1.0
141
8.0
290
     0
  0
SCALE
  5
7145E
102
{ACAD_REACTORS
330
71458
102
}
330
71458
100
AcDbScale
 70
     0
300
1:10
140
1.0
141
10.0
290
     0
  0
SCALE
  5
7145F
102
{ACAD_REACTORS
330
71458
102
}
330
71458
100
AcDbScale
 70
     0
300
1:16
140
1.0
141
16.0
290
     0
  0
SCALE
  5
71460
102
{ACAD_REACTORS
330
71458
102
}
330
71458
100
AcDbScale
 70
     0
300
1:20
140
1.0
141
20.0
290
     0
  0
SCALE
  5
71461
102
{ACAD_REACTORS
330
71458
102
}
330
71458
100
AcDbScale
 70
     0
300
1:30
140
1.0
141
30.0
290
     0
  0
SCALE
  5
71462
102
{ACAD_REACTORS
330
71458
102
}
330
71458
100
AcDbScale
 70
     0
300
1:40
140
1.0
141
40.0
290
     0
  0
SCALE
  5
71463
102
{ACAD_REACTORS
330
71458
102
}
330
71458
100
AcDbScale
 70
     0
300
1:50
140
1.0
141
50.0
290
     0
  0
SCALE
  5
71464
102
{ACAD_REACTORS
330
71458
102
}
330
71458
100
AcDbScale
 70
     0
300
1:100
140
1.0
141
100.0
290
     0
  0
SCALE
  5
71465
102
{ACAD_REACTORS
330
71458
102
}
330
71458
100
AcDbScale
 70
     0
300
2:1
140
2.0
141
1.0
290
     0
  0
SCALE
  5
71466
102
{ACAD_REACTORS
330
71458
102
}
330
71458
100
AcDbScale
 70
     0
300
4:1
140
4.0
141
1.0
290
     0
  0
SCALE
  5
71467
102
{ACAD_REACTORS
330
71458
102
}
330
71458
100
AcDbScale
 70
     0
300
8:1
140
8.0
141
1.0
290
     0
  0
SCALE
  5
71468
102
{ACAD_REACTORS
330
71458
102
}
330
71458
100
AcDbScale
 70
     0
300
10:1
140
10.0
141
1.0
290
     0
  0
SCALE
  5
71469
102
{ACAD_REACTORS
330
71458
102
}
330
71458
100
AcDbScale
 70
     0
300
100:1
140
100.0
141
1.0
290
     0
  0
SCALE
  5
7146A
102
{ACAD_REACTORS
330
71458
102
}
330
71458
100
AcDbScale
 70
     0
300
1/128" = 1'-0"
140
0.0078125
141
12.0
290
     0
  0
SCALE
  5
7146B
102
{ACAD_REACTORS
330
71458
102
}
330
71458
100
AcDbScale
 70
     0
300
1/64" = 1'-0"
140
0.015625
141
12.0
290
     0
  0
SCALE
  5
7146C
102
{ACAD_REACTORS
330
71458
102
}
330
71458
100
AcDbScale
 70
     0
300
1/32" = 1'-0"
140
0.03125
141
12.0
290
     0
  0
SCALE
  5
7146D
102
{ACAD_REACTORS
330
71458
102
}
330
71458
100
AcDbScale
 70
     0
300
1/16" = 1'-0"
140
0.0625
141
12.0
290
     0
  0
SCALE
  5
7146E
102
{ACAD_REACTORS
330
71458
102
}
330
71458
100
AcDbScale
 70
     0
300
3/32" = 1'-0"
140
0.09375
141
12.0
290
     0
  0
SCALE
  5
7146F
102
{ACAD_REACTORS
330
71458
102
}
330
71458
100
AcDbScale
 70
     0
300
1/8" = 1'-0"
140
0.125
141
12.0
290
     0
  0
SCALE
  5
71470
102
{ACAD_REACTORS
330
71458
102
}
330
71458
100
AcDbScale
 70
     0
300
3/16" = 1'-0"
140
0.1875
141
12.0
290
     0
  0
SCALE
  5
71471
102
{ACAD_REACTORS
330
71458
102
}
330
71458
100
AcDbScale
 70
     0
300
1/4" = 1'-0"
140
0.25
141
12.0
290
     0
  0
SCALE
  5
71472
102
{ACAD_REACTORS
330
71458
102
}
330
71458
100
AcDbScale
 70
     0
300
3/8" = 1'-0"
140
0.375
141
12.0
290
     0
  0
SCALE
  5
71473
102
{ACAD_REACTORS
330
71458
102
}
330
71458
100
AcDbScale
 70
     0
300
1/2" = 1'-0"
140
0.5
141
12.0
290
     0
  0
SCALE
  5
71474
102
{ACAD_REACTORS
330
71458
102
}
330
71458
100
AcDbScale
 70
     0
300
3/4" = 1'-0"
140
0.75
141
12.0
290
     0
  0
SCALE
  5
71475
102
{ACAD_REACTORS
330
71458
102
}
330
71458
100
AcDbScale
 70
     0
300
1" = 1'-0"
140
1.0
141
12.0
290
     0
  0
SCALE
  5
71476
102
{ACAD_REACTORS
330
71458
102
}
330
71458
100
AcDbScale
 70
     0
300
1-1/2" = 1'-0"
140
1.5
141
12.0
290
     0
  0
SCALE
  5
71477
102
{ACAD_REACTORS
330
71458
102
}
330
71458
100
AcDbScale
 70
     0
300
3" = 1'-0"
140
3.0
141
12.0
290
     0
  0
SCALE
  5
71478
102
{ACAD_REACTORS
330
71458
102
}
330
71458
100
AcDbScale
 70
     0
300
6" = 1'-0"
140
6.0
141
12.0
290
     0
  0
SCALE
  5
71479
102
{ACAD_REACTORS
330
71458
102
}
330
71458
100
AcDbScale
 70
     0
300
1'-0" = 1'-0"
140
12.0
141
12.0
290
     0
  0
ACDBSECTIONVIEWSTYLE
  5
72BE2
102
{ACAD_XDICTIONARY
360
72CEE
102
}
102
{ACAD_REACTORS
330
714AE
102
}
330
714AE
100
AcDbModelDocViewStyle
 70
     0
  3
Imperial24
290
     0
100
AcDbSectionViewStyle
 70
     0
 71
     0
 90
       78
 71
     1
340
F
 40
0.24
340
0
340
0
 40
0.24
300
I, O, Q, S, X, Z
 40
0.48
 90
        3
 40
0.18
 90
        1
 71
     2
340
14
 90
       25
340
14
 90
       50
 40
0.24
 40
0.0
 40
0.24
 71
     3
340
F
 40
0.24
 90
        1
 40
0.75
 90
        1
300
%<\AcVar ViewType \f "%tc1">% %<\AcVar ViewSectionStartId>%-%<\AcVar ViewSectionEndId>%\PSCALE %<\AcVar ViewScale \f "%sn">%
 71
     4
300
ANSI31
 40
1.0
 90
        0
290
     0
290
     0
 90
        6
 40
0.0
 40
1.570796326794896
 40
0.2617993877991494
 40
1.308996938995747
 40
-0.2617993877991494
 40
1.832595714594046
  0
TABLESTYLE
  5
714A4
102
{ACAD_XDICTIONARY
360
72C49
102
}
102
{ACAD_REACTORS
330
714A3
102
}
330
714A3
100
AcDbTableStyle
  3
Standard
 70
     0
 71
     0
 40
0.06
 41
0.06
280
     0
281
     0
  7
STANDARD
140
0.18
170
     2
 62
     0
 63
     7
283
     0
274
    -2
284
     1
 64
     0
275
    -2
285
     1
 65
     0
276
    -2
286
     1
 66
     0
277
    -2
287
     1
 67
     0
278
    -2
288
     1
 68
     0
279
    -2
289
     1
 69
     0
  7
STANDARD
140
0.25
170
     5
 62
     0
 63
     7
283
     0
274
    -2
284
     1
 64
     0
275
    -2
285
     1
 65
     0
276
    -2
286
     1
 66
     0
277
    -2
287
     1
 67
     0
278
    -2
288
     1
 68
     0
279
    -2
289
     1
 69
     0
  7
STANDARD
140
0.18
170
     5
 62
     0
 63
     7
283
     0
274
    -2
284
     1
 64
     0
275
    -2
285
     1
 65
     0
276
    -2
286
     1
 66
     0
277
    -2
287
     1
 67
     0
278
    -2
288
     1
 68
     0
279
    -2
289
     1
 69
     0
  0
VISUALSTYLE
  5
7148B
102
{ACAD_XDICTIONARY
360
72CBC
102
}
102
{ACAD_REACTORS
330
71486
102
}
330
71486
100
AcDbVisualStyle
  2
2dWireframe
 70
     4
 71
     0
 72
     2
 73
     0
 90
        0
 40
-0.6
 41
-30.0
 62
     5
 63
     7
 74
     1
 91
        4
 64
     7
 65
   257
 75
     1
175
     1
 42
1.0
 92
        0
 66
   257
 43
1.0
 76
     1
 77
     6
 78
     2
 67
     7
 79
     5
170
     0
171
     0
290
     0
174
     0
 93
        1
 44
0.0
173
     0
291
     0
 45
0.0
1001
ACAD
1000
AcDbSavedByObjectVersion
1070
     0
  0
VISUALSTYLE
  5
7148E
102
{ACAD_XDICTIONARY
360
72CC2
102
}
102
{ACAD_REACTORS
330
71486
102
}
330
71486
100
AcDbVisualStyle
  2
Basic
 70
     7
 71
     1
 72
     0
 73
     1
 90
        0
 40
-0.6
 41
-30.0
 62
     5
 63
     7
 74
     0
 91
        4
 64
     7
 65
   257
 75
     1
175
     1
 42
1.0
 92
        8
 66
     7
 43
1.0
 76
     1
 77
     6
 78
     2
 67
     7
 79
     5
170
     0
171
     0
290
     0
174
     0
 93
        1
 44
0.0
173
     0
291
     1
 45
0.0
1001
ACAD
1000
AcDbSavedByObjectVersion
1070
     0
  0
VISUALSTYLE
  5
71492
102
{ACAD_XDICTIONARY
360
72CCA
102
}
102
{ACAD_REACTORS
330
71486
102
}
330
71486
100
AcDbVisualStyle
  2
Brighten
 70
    12
 71
     2
 72
     2
 73
     0
 90
        0
 40
-0.6
 41
-30.0
 62
     5
 63
     7
 74
     1
 91
        4
 64
     7
 65
   257
 75
     1
175
     1
 42
1.0
 92
        8
 66
     7
 43
1.0
 76
     1
 77
     6
 78
     2
 67
     7
 79
     5
170
     0
171
     0
290
     0
174
     0
 93
        1
 44
50.0
173
     0
291
     1
 45
0.0
1001
ACAD
1000
AcDbSavedByObjectVersion
1070
     0
  0
VISUALSTYLE
  5
71496
102
{ACAD_XDICTIONARY
360
72CD2
102
}
102
{ACAD_REACTORS
330
71486
102
}
330
71486
100
AcDbVisualStyle
  2
ColorChange
 70
    16
 71
     2
 72
     2
 73
     3
 90
        0
 40
-0.6
 41
-30.0
 62
     5
 63
     8
 74
     1
 91
        4
 64
     7
 65
   257
 75
     1
175
     1
 42
1.0
 92
        8
 66
     8
 43
1.0
 76
     1
 77
     6
 78
     2
 67
     7
 79
     5
170
     0
171
     0
290
     0
174
     0
 93
        1
 44
0.0
173
     0
291
     1
 45
0.0
1001
ACAD
1000
AcDbSavedByObjectVersion
1070
     0
  0
VISUALSTYLE
  5
71490
102
{ACAD_XDICTIONARY
360
72CC6
102
}
102
{ACAD_REACTORS
330
71486
102
}
330
71486
100
AcDbVisualStyle
  2
Conceptual
 70
     9
 71
     3
 72
     2
 73
     0
 90
        0
 40
-0.6
 41
-30.0
 62
     5
 63
     7
 74
     2
 91
        2
 64
     7
 65
   257
 75
     1
175
     1
 42
179.0
 92
        8
 66
     7
 43
1.0
 76
     1
 77
     6
 78
     2
 67
     7
 79
     3
170
     0
171
     0
290
     0
174
     0
 93
        1
 44
0.0
173
     0
291
     0
 45
0.0
1001
ACAD
1000
AcDbSavedByObjectVersion
1070
     0
  0
VISUALSTYLE
  5
71491
102
{ACAD_XDICTIONARY
360
72CC8
102
}
102
{ACAD_REACTORS
330
71486
102
}
330
71486
100
AcDbVisualStyle
  2
Dim
 70
    11
 71
     2
 72
     2
 73
     0
 90
        0
 40
-0.6
 41
-30.0
 62
     5
 63
     7
 74
     1
 91
        4
 64
     7
 65
   257
 75
     1
175
     1
 42
1.0
 92
        8
 66
     7
 43
1.0
 76
     1
 77
     6
 78
     2
 67
     7
 79
     5
170
     0
171
     0
290
     0
174
     0
 93
        1
 44
-50.0
173
     0
291
     1
 45
0.0
1001
ACAD
1000
AcDbSavedByObjectVersion
1070
     0
  0
VISUALSTYLE
  5
71499
102
{ACAD_XDICTIONARY
360
72CD8
102
}
102
{ACAD_REACTORS
330
71486
102
}
330
71486
100
AcDbVisualStyle
  2
EdgeColorOff
 70
    22
 71
     2
 72
     2
 73
     0
 90
        0
 40
-0.6
 41
-30.0
 62
     5
 63
     7
 74
     1
 91
        4
 64
     7
 65
   257
 75
     1
175
     1
 42
1.0
 92
        8
 66
     7
 43
1.0
 76
     1
 77
     6
 78
     2
 67
     7
 79
     5
170
     0
171
     0
290
     0
174
     0
 93
        1
 44
0.0
173
     0
291
     1
 45
0.0
1001
ACAD
1000
AcDbSavedByObjectVersion
1070
     0
  0
VISUALSTYLE
  5
71495
102
{ACAD_XDICTIONARY
360
72CD0
102
}
102
{ACAD_REACTORS
330
71486
102
}
330
71486
100
AcDbVisualStyle
  2
Facepattern
 70
    15
 71
     2
 72
     2
 73
     0
 90
        0
 40
-0.6
 41
-30.0
 62
     5
 63
     7
 74
     1
 91
        4
 64
     7
 65
   257
 75
     1
175
     1
 42
1.0
 92
        8
 66
     7
 43
1.0
 76
     1
 77
     6
 78
     2
 67
     7
 79
     5
170
     0
171
     0
290
     0
174
     0
 93
        1
 44
0.0
173
     0
291
     1
 45
0.0
1001
ACAD
1000
AcDbSavedByObjectVersion
1070
     0
  0
VISUALSTYLE
  5
71487
102
{ACAD_XDICTIONARY
360
72CB4
102
}
102
{ACAD_REACTORS
330
71486
102
}
330
71486
100
AcDbVisualStyle
  2
Flat
 70
     0
 71
     2
 72
     1
 73
     1
 90
        2
 40
-0.6
 41
30.0
 62
     5
 63
     7
 74
     0
 91
        0
 64
     7
 65
   257
 75
     1
175
     1
 42
1.0
 92
        8
 66
     7
 43
1.0
 76
     1
 77
     6
 78
     2
 67
     7
 79
     5
170
     0
171
     0
290
     0
174
     0
 93
       13
 44
0.0
173
     0
291
     1
 45
0.0
1001
ACAD
1000
AcDbSavedByObjectVersion
1070
     0
  0
VISUALSTYLE
  5
71488
102
{ACAD_XDICTIONARY
360
72CB6
102
}
102
{ACAD_REACTORS
330
71486
102
}
330
71486
100
AcDbVisualStyle
  2
FlatWithEdges
 70
     1
 71
     2
 72
     1
 73
     1
 90
        2
 40
-0.6
 41
30.0
 62
     5
 63
     7
 74
     1
 91
        0
 64
     7
 65
   257
 75
     1
175
     1
 42
1.0
 92
        0
 66
   257
 43
1.0
 76
     1
 77
     6
 78
     2
 67
     7
 79
     5
170
     0
171
     0
290
     0
174
     0
 93
       13
 44
0.0
173
     0
291
     1
 45
0.0
1001
ACAD
1000
AcDbSavedByObjectVersion
1070
     0
  0
VISUALSTYLE
  5
71489
102
{ACAD_XDICTIONARY
360
72CB8
102
}
102
{ACAD_REACTORS
330
71486
102
}
330
71486
100
AcDbVisualStyle
  2
Gouraud
 70
     2
 71
     2
 72
     2
 73
     1
 90
        2
 40
-0.6
 41
30.0
 62
     5
 63
     7
 74
     0
 91
        0
 64
     7
 65
   257
 75
     1
175
     1
 42
1.0
 92
        0
 66
     7
 43
1.0
 76
     1
 77
     6
 78
     2
 67
     7
 79
     5
170
     0
171
     0
290
     0
174
     0
 93
       13
 44
0.0
173
     0
291
     1
 45
0.0
1001
ACAD
1000
AcDbSavedByObjectVersion
1070
     0
  0
VISUALSTYLE
  5
7148A
102
{ACAD_XDICTIONARY
360
72CBA
102
}
102
{ACAD_REACTORS
330
71486
102
}
330
71486
100
AcDbVisualStyle
  2
GouraudWithEdges
 70
     3
 71
     2
 72
     2
 73
     1
 90
        2
 40
-0.6
 41
30.0
 62
     5
 63
     7
 74
     1
 91
        0
 64
     7
 65
   257
 75
     1
175
     1
 42
1.0
 92
        0
 66
   257
 43
1.0
 76
     1
 77
     6
 78
     2
 67
     7
 79
     5
170
     0
171
     0
290
     0
174
     0
 93
       13
 44
0.0
173
     0
291
     1
 45
0.0
1001
ACAD
1000
AcDbSavedByObjectVersion
1070
     0
  0
VISUALSTYLE
  5
7148D
102
{ACAD_XDICTIONARY
360
72CC0
102
}
102
{ACAD_REACTORS
330
71486
102
}
330
71486
100
AcDbVisualStyle
  2
Hidden
 70
     6
 71
     1
 72
     2
 73
     2
 90
        0
 40
-0.6
 41
-30.0
 62
     5
 63
     7
 74
     2
 91
        2
 64
     7
 65
   257
 75
     2
175
     1
 42
40.0
 92
        0
 66
   257
 43
1.0
 76
     1
 77
     6
 78
     2
 67
     7
 79
     3
170
     0
171
     0
290
     0
174
     0
 93
        1
 44
0.0
173
     0
291
     0
 45
0.0
1001
ACAD
1000
AcDbSavedByObjectVersion
1070
     0
  0
VISUALSTYLE
  5
71497
102
{ACAD_XDICTIONARY
360
72CD4
102
}
102
{ACAD_REACTORS
330
71486
102
}
330
71486
100
AcDbVisualStyle
  2
JitterOff
 70
    20
 71
     2
 72
     2
 73
     0
 90
        0
 40
-0.6
 41
-30.0
 62
     5
 63
     7
 74
     1
 91
        4
 64
     7
 65
   257
 75
     1
175
     1
 42
1.0
 92
       10
 66
     7
 43
1.0
 76
     1
 77
     6
 78
     2
 67
     7
 79
     5
170
     0
171
     0
290
     0
174
     0
 93
        1
 44
0.0
173
     0
291
     1
 45
0.0
1001
ACAD
1000
AcDbSavedByObjectVersion
1070
     0
  0
VISUALSTYLE
  5
71494
102
{ACAD_XDICTIONARY
360
72CCE
102
}
102
{ACAD_REACTORS
330
71486
102
}
330
71486
100
AcDbVisualStyle
  2
Linepattern
 70
    14
 71
     2
 72
     2
 73
     0
 90
        0
 40
-0.6
 41
-30.0
 62
     5
 63
     7
 74
     1
 91
        4
 64
     7
 65
   257
 75
     7
175
     7
 42
1.0
 92
        8
 66
     7
 43
1.0
 76
     1
 77
     6
 78
     2
 67
     7
 79
     5
170
     0
171
     0
290
     0
174
     0
 93
        1
 44
0.0
173
     0
291
     1
 45
0.0
1001
ACAD
1000
AcDbSavedByObjectVersion
1070
     0
  0
VISUALSTYLE
  5
71498
102
{ACAD_XDICTIONARY
360
72CD6
102
}
102
{ACAD_REACTORS
330
71486
102
}
330
71486
100
AcDbVisualStyle
  2
OverhangOff
 70
    21
 71
     2
 72
     2
 73
     0
 90
        0
 40
-0.6
 41
-30.0
 62
     5
 63
     7
 74
     1
 91
        4
 64
     7
 65
   257
 75
     1
175
     1
 42
1.0
 92
        9
 66
     7
 43
1.0
 76
     1
 77
     6
 78
     2
 67
     7
 79
     5
170
     0
171
     0
290
     0
174
     0
 93
        1
 44
0.0
173
     0
291
     1
 45
0.0
1001
ACAD
1000
AcDbSavedByObjectVersion
1070
     0
  0
VISUALSTYLE
  5
7148F
102
{ACAD_XDICTIONARY
360
72CC4
102
}
102
{ACAD_REACTORS
330
71486
102
}
330
71486
100
AcDbVisualStyle
  2
Realistic
 70
     8
 71
     2
 72
     2
 73
     0
 90
        2
 40
-0.6
 41
30.0
 62
     5
 63
     7
 74
     0
 91
        0
 64
     7
 65
   257
 75
     1
175
     1
 42
1.0
 92
        8
 66
   257
 43
1.0
 76
     1
 77
     6
 78
     2
 67
     7
 79
     3
170
     0
171
     0
290
     0
174
     0
 93
       13
 44
0.0
173
     0
291
     0
 45
0.0
1001
ACAD
1000
AcDbSavedByObjectVersion
1070
     0
  0
VISUALSTYLE
  5
7149E
102
{ACAD_XDICTIONARY
360
72CE2
102
}
102
{ACAD_REACTORS
330
71486
102
}
330
71486
100
AcDbVisualStyle
  2
Shaded
 70
    27
 71
     2
 72
     2
 73
     1
 90
        2
 40
-0.6
 41
30.0
 62
     5
 63
     7
 74
     0
 91
        4
 64
     7
 65
   257
 75
     1
175
     1
 42
1.0
 92
        8
 66
   257
 43
1.0
 76
     1
 77
     6
 78
     2
 67
     8
 79
     3
170
     0
171
     0
290
     0
174
     0
 93
        5
 44
0.0
173
     0
291
     0
 45
0.0
1001
ACAD
1000
AcDbSavedByObjectVersion
1070
     0
  0
VISUALSTYLE
  5
7149D
102
{ACAD_XDICTIONARY
360
72CE0
102
}
102
{ACAD_REACTORS
330
71486
102
}
330
71486
100
AcDbVisualStyle
  2
Shaded with edges
 70
    26
 71
     2
 72
     2
 73
     1
 90
        2
 40
-0.6
 41
30.0
 62
     5
 63
     7
 74
     1
 91
        2
 64
     7
 65
   257
 75
     2
175
     1
 42
1.0
 92
        8
 66
   257
 43
1.0
 76
     1
 77
     6
 78
     2
 67
     7
 79
     3
170
     0
171
     0
290
     0
174
     0
 93
        5
 44
0.0
173
     0
291
     0
 45
0.0
1001
ACAD
1000
AcDbSavedByObjectVersion
1070
     0
  0
VISUALSTYLE
  5
7149A
102
{ACAD_XDICTIONARY
360
72CDA
102
}
102
{ACAD_REACTORS
330
71486
102
}
330
71486
100
AcDbVisualStyle
  2
Shades of Gray
 70
    23
 71
     2
 72
     2
 73
     3
 90
        0
 40
-0.6
 41
-30.0
 62
     5
 63
     7
 74
     2
 91
        2
 64
     7
 65
     7
 75
     1
175
     1
 42
40.0
 92
        8
 66
     7
 43
1.0
 76
     1
 77
     6
 78
     2
 67
     7
 79
     3
170
     0
171
     0
290
     0
174
     0
 93
        1
 44
0.0
173
     0
291
     0
 45
0.0
1001
ACAD
1000
AcDbSavedByObjectVersion
1070
     0
  0
VISUALSTYLE
  5
7149B
102
{ACAD_XDICTIONARY
360
72CDC
102
}
102
{ACAD_REACTORS
330
71486
102
}
330
71486
100
AcDbVisualStyle
  2
Sketchy
 70
    24
 71
     1
 72
     2
 73
     2
 90
        0
 40
-0.6
 41
-30.0
 62
     5
 63
     7
 74
     2
 91
        2
 64
     7
 65
     7
 75
     1
175
     1
 42
40.0
 92
       11
 66
     7
 43
1.0
 76
     1
 77
     6
 78
     2
 67
     7
 79
     6
170
     0
171
     0
290
     0
174
     0
 93
        1
 44
0.0
173
     0
291
     0
 45
0.0
1001
ACAD
1000
AcDbSavedByObjectVersion
1070
     0
  0
VISUALSTYLE
  5
71493
102
{ACAD_XDICTIONARY
360
72CCC
102
}
102
{ACAD_REACTORS
330
71486
102
}
330
71486
100
AcDbVisualStyle
  2
Thicken
 70
    13
 71
     2
 72
     2
 73
     0
 90
        0
 40
-0.6
 41
-30.0
 62
     5
 63
     7
 74
     1
 91
        4
 64
     7
 65
   257
 75
     1
175
     1
 42
1.0
 92
       12
 66
     7
 43
1.0
 76
     1
 77
     6
 78
     2
 67
     7
 79
     5
170
     0
171
     0
290
     0
174
     0
 93
        1
 44
0.0
173
     0
291
     1
 45
0.0
1001
ACAD
1000
AcDbSavedByObjectVersion
1070
     0
  0
VISUALSTYLE
  5
7148C
102
{ACAD_XDICTIONARY
360
72CBE
102
}
102
{ACAD_REACTORS
330
71486
102
}
330
71486
100
AcDbVisualStyle
  2
Wireframe
 70
     5
 71
     0
 72
     2
 73
     0
 90
        0
 40
-0.6
 41
-30.0
 62
     5
 63
     7
 74
     1
 91
        4
 64
     7
 65
   257
 75
     1
175
     1
 42
1.0
 92
        0
 66
   257
 43
1.0
 76
     1
 77
     6
 78
     2
 67
     7
 79
     3
170
     0
171
     0
290
     0
174
     0
 93
        1
 44
0.0
173
     0
291
     0
 45
0.0
1001
ACAD
1000
AcDbSavedByObjectVersion
1070
     0
  0
VISUALSTYLE
  5
7149C
102
{ACAD_XDICTIONARY
360
72CDE
102
}
102
{ACAD_REACTORS
330
71486
102
}
330
71486
100
AcDbVisualStyle
  2
X-Ray
 70
    25
 71
     2
 72
     2
 73
     1
 90
        1
 40
0.5
 41
-30.0
 62
     5
 63
     7
 74
     1
 91
        0
 64
     7
 65
   257
 75
     1
175
     1
 42
1.0
 92
        8
 66
     7
 43
1.0
 76
     1
 77
     6
 78
     2
 67
     7
 79
     3
170
     0
171
     0
290
     0
174
     0
 93
       13
 44
0.0
173
     0
291
     0
 45
0.0
1001
ACAD
1000
AcDbSavedByObjectVersion
1070
     0
  0
DICTIONARYVAR
  5
714A9
102
{ACAD_REACTORS
330
11AC
102
}
330
11AC
100
DictionaryVariables
280
     0
  1
1:1
  0
DICTIONARYVAR
  5
714AB
102
{ACAD_REACTORS
330
11AC
102
}
330
11AC
100
DictionaryVariables
280
     0
  1
STANDARD
  0
DICTIONARYVAR
  5
714AA
102
{ACAD_REACTORS
330
11AC
102
}
330
11AC
100
DictionaryVariables
280
     0
  1
STANDARD
  0
DICTIONARYVAR
  5
72C9B
102
{ACAD_REACTORS
330
11AC
102
}
330
11AC
100
DictionaryVariables
280
     0
  1
Imperial24
  0
DICTIONARYVAR
  5
72C9C
102
{ACAD_REACTORS
330
11AC
102
}
330
11AC
100
DictionaryVariables
280
     0
  1
Imperial24
  0
DICTIONARYVAR
  5
72CA2
102
{ACAD_REACTORS
330
11AC
102
}
330
11AC
100
DictionaryVariables
280
     0
  1
2
  0
DICTIONARYVAR
  5
11AD
102
{ACAD_REACTORS
330
11AC
102
}
330
11AC
100
DictionaryVariables
280
     0
  1
1
  0
DICTIONARYVAR
  5
72CA1
102
{ACAD_REACTORS
330
11AC
102
}
330
11AC
100
DictionaryVariables
280
     0
  1
1
  0
DICTIONARYVAR
  5
72CA0
102
{ACAD_REACTORS
330
11AC
102
}
330
11AC
100
DictionaryVariables
280
     0
  1
0
  0
DICTIONARYVAR
  5
72C9E
102
{ACAD_REACTORS
330
11AC
102
}
330
11AC
100
DictionaryVariables
280
     0
  1
0
  0
DICTIONARYVAR
  5
72C9F
102
{ACAD_REACTORS
330
11AC
102
}
330
11AC
100
DictionaryVariables
280
     0
  1
0
  0
DICTIONARYVAR
  5
72C9D
102
{ACAD_REACTORS
330
11AC
102
}
330
11AC
100
DictionaryVariables
280
     0
  1
2
  0
DICTIONARYVAR
  5
714AC
102
{ACAD_REACTORS
330
11AC
102
}
330
11AC
100
DictionaryVariables
280
     0
  1
0
  0
DICTIONARYVAR
  5
4B8FE
102
{ACAD_REACTORS
330
11AC
102
}
330
11AC
100
DictionaryVariables
280
     0
  1
96
  0
DICTIONARYVAR
  5
72CAC
102
{ACAD_REACTORS
330
11AC
102
}
330
11AC
100
DictionaryVariables
280
     0
  1
2
  0
XRECORD
  5
714F8
102
{ACAD_REACTORS
330
714F7
102
}
330
714F7
100
AcDbXrecord
280
     1
290
     0
290
     0
  0
XRECORD
  5
5F92E
102
{ACAD_REACTORS
330
5F92D
102
}
330
5F92D
100
AcDbXrecord
280
     1
  1
0
  1
*0
  1
*
  1
*
 70
     0
  1
*
  1
*
  0
XRECORD
  5
5F92F
102
{ACAD_REACTORS
330
5F92D
102
}
330
5F92D
100
AcDbXrecord
280
     1
  1
11
  1
*11
  1
*
  1
*
 70
     0
  1
*
  1
*
  0
XRECORD
  5
5F930
102
{ACAD_REACTORS
330
5F92D
102
}
330
5F92D
100
AcDbXrecord
280
     1
  1
150_
  1
150_*
  1
*
  1
*
 70
     0
  1
*
  1
*
  0
XRECORD
  5
5F931
102
{ACAD_REACTORS
330
5F92D
102
}
330
5F92D
100
AcDbXrecord
280
     1
  1
160_
  1
160_*
  1
*
  1
*
 70
     0
  1
*
  1
*
  0
XRECORD
  5
5F932
102
{ACAD_REACTORS
330
5F92D
102
}
330
5F92D
100
AcDbXrecord
280
     1
  1
170_
  1
170_*
  1
*
  1
*
 70
     0
  1
*
  1
*
  0
XRECORD
  5
5F933
102
{ACAD_REACTORS
330
5F92D
102
}
330
5F92D
100
AcDbXrecord
280
     1
  1
171_
  1
171_*
  1
*
  1
*
 70
     0
  1
*
  1
*
  0
XRECORD
  5
5F934
102
{ACAD_REACTORS
330
5F92D
102
}
330
5F92D
100
AcDbXrecord
280
     1
  1
350_
  1
350_*
  1
*
  1
*
 70
     0
  1
*
  1
*
  0
XRECORD
  5
5F935
102
{ACAD_REACTORS
330
5F92D
102
}
330
5F92D
100
AcDbXrecord
280
     1
  1
4
  1
*4
  1
*
  1
*
 70
     0
  1
*
  1
*
  0
XRECORD
  5
5F936
102
{ACAD_REACTORS
330
5F92D
102
}
330
5F92D
100
AcDbXrecord
280
     1
  1
5
  1
*5
  1
*
  1
*
 70
     0
  1
*
  1
*
  0
XRECORD
  5
5F937
102
{ACAD_REACTORS
330
5F92D
102
}
330
5F92D
100
AcDbXrecord
280
     1
  1
7
  1
*7
  1
*
  1
*
 70
     0
  1
*
  1
*
  0
XRECORD
  5
5F938
102
{ACAD_REACTORS
330
5F92D
102
}
330
5F92D
100
AcDbXrecord
280
     1
  1
kiseki
  1
kiseki*
  1
*
  1
*
 70
     0
  1
*
  1
*
  0
XRECORD
  5
72BCE
102
{ACAD_REACTORS
330
5F311
102
}
330
5F311
100
AcDbXrecord
280
     1
 91
     1023
301

290
     0
302
0
330
E
 90
       25
 62
     7
370
    -3
331
14
  1
Color_7
330
0
 90
        8
 62
     7
370
    -3
331
14
  1
Color_7
330
8C6
 90
        9
 62
     7
370
    30
331
14
  1
Color_7
330
96A
 90
        9
 62
    13
370
    13
331
3306
  1
Color_13
330
1521
 90
        9
 62
     4
370
    30
331
14
  1
Color_4
330
35AF6
 90
        9
 62
     3
370
    13
331
14
  1
Color_3
330
4D2E2
 90
        9
 62
     8
370
    13
331
709A7
  1
Color_8
330
5FA85
 90
        9
 62
     5
370
    13
331
709A5
  1
Color_5
330
7150C
 90
        9
 62
     4
370
    13
331
14
  1
Color_4
  0
XRECORD
  5
72BCF
102
{ACAD_REACTORS
330
5F311
102
}
330
5F311
100
AcDbXrecord
280
     1
 91
     1023
301

290
     0
302
0
330
E
 90
       24
 62
     7
370
    -3
331
14
  1
Color_7
330
0
 90
        8
 62
     7
370
    -3
331
14
  1
Color_7
330
8C6
 90
        9
 62
     7
370
    30
331
14
  1
Color_7
330
96A
 90
        9
 62
    13
370
    13
331
3306
  1
Color_13
330
1521
 90
        9
 62
     4
370
    30
331
14
  1
Color_4
330
35AF6
 90
        9
 62
     3
370
    13
331
14
  1
Color_3
330
4D2E2
 90
        9
 62
     8
370
    13
331
709A7
  1
Color_8
330
5FA85
 90
        9
 62
     5
370
    13
331
709A5
  1
Color_5
330
7150C
 90
        9
 62
     4
370
    13
331
14
  1
Color_4
  0
XRECORD
  5
72BD0
102
{ACAD_REACTORS
330
5F311
102
}
330
5F311
100
AcDbXrecord
280
     1
 91
     1023
301

290
     0
302
0
330
E
 90
       24
 62
     7
370
    -3
331
14
  1
Color_7
330
0
 90
        8
 62
     7
370
    -3
331
14
  1
Color_7
330
8C6
 90
        9
 62
     7
370
    30
331
14
  1
Color_7
330
96A
 90
        9
 62
    13
370
    13
331
3306
  1
Color_13
330
1521
 90
        9
 62
     4
370
    30
331
14
  1
Color_4
330
35AF6
 90
        9
 62
     3
370
    13
331
14
  1
Color_3
330
4D2E2
 90
        9
 62
     8
370
    13
331
709A7
  1
Color_8
330
5FA85
 90
        9
 62
     5
370
    13
331
709A5
  1
Color_5
330
7150C
 90
        8
 62
     4
370
    13
331
14
  1
Color_4
  0
XRECORD
  5
72BD1
102
{ACAD_REACTORS
330
5F311
102
}
330
5F311
100
AcDbXrecord
280
     1
 91
     1023
301

290
     0
302
0
330
E
 90
       24
 62
     7
370
    -3
331
14
  1
Color_7
330
0
 90
        8
 62
     7
370
    -3
331
14
  1
Color_7
330
8C6
 90
        9
 62
     7
370
    30
331
14
  1
Color_7
330
96A
 90
        8
 62
    13
370
    13
331
3306
  1
Color_13
330
1521
 90
        9
 62
     4
370
    30
331
14
  1
Color_4
330
35AF6
 90
        9
 62
     3
370
    13
331
14
  1
Color_3
330
4D2E2
 90
        9
 62
     8
370
    13
331
709A7
  1
Color_8
330
5FA85
 90
        9
 62
     5
370
    13
331
709A5
  1
Color_5
330
7150C
 90
        8
 62
     4
370
    13
331
14
  1
Color_4
  0
XRECORD
  5
72BD2
102
{ACAD_REACTORS
330
5F311
102
}
330
5F311
100
AcDbXrecord
280
     1
 91
     1023
301

290
     0
302
0
330
E
 90
       24
 62
     7
370
    -3
331
14
  1
Color_7
330
0
 90
        8
 62
     7
370
    -3
331
14
  1
Color_7
330
8C6
 90
        9
 62
     7
370
    30
331
14
  1
Color_7
330
96A
 90
        8
 62
    13
370
    13
331
3306
  1
Color_13
330
1521
 90
        9
 62
     4
370
    30
331
14
  1
Color_4
330
35AF6
 90
        9
 62
     3
370
    13
331
14
  1
Color_3
330
4D2E2
 90
        9
 62
     8
370
    13
331
709A7
  1
Color_8
330
5FA85
 90
        8
 62
     5
370
    13
331
709A5
  1
Color_5
330
7150C
 90
        8
 62
     4
370
    13
331
14
  1
Color_4
  0
XRECORD
  5
72BD3
102
{ACAD_REACTORS
330
5F311
102
}
330
5F311
100
AcDbXrecord
280
     1
 91
     1023
301

290
     0
302
0
330
E
 90
       24
 62
     7
370
    -3
331
14
  1
Color_7
330
0
 90
        8
 62
     7
370
    -3
331
14
  1
Color_7
330
8C6
 90
        9
 62
     7
370
    30
331
14
  1
Color_7
330
96A
 90
        8
 62
    13
370
    13
331
3306
  1
Color_13
330
1521
 90
        8
 62
     4
370
    30
331
14
  1
Color_4
330
35AF6
 90
        9
 62
     3
370
    13
331
14
  1
Color_3
330
4D2E2
 90
        9
 62
     8
370
    13
331
709A7
  1
Color_8
330
5FA85
 90
        8
 62
     5
370
    13
331
709A5
  1
Color_5
330
7150C
 90
        8
 62
     4
370
    13
331
14
  1
Color_4
  0
XRECORD
  5
72BD4
102
{ACAD_REACTORS
330
5F311
102
}
330
5F311
100
AcDbXrecord
280
     1
 91
     1023
301

290
     0
302
0
330
E
 90
       24
 62
     7
370
    -3
331
14
  1
Color_7
330
0
 90
        8
 62
     7
370
    -3
331
14
  1
Color_7
330
8C6
 90
        9
 62
     7
370
    30
331
14
  1
Color_7
330
96A
 90
        8
 62
    13
370
    13
331
3306
  1
Color_13
330
1521
 90
        8
 62
     4
370
    30
331
14
  1
Color_4
330
35AF6
 90
        8
 62
     3
370
    13
331
14
  1
Color_3
330
4D2E2
 90
        9
 62
     8
370
    13
331
709A7
  1
Color_8
330
5FA85
 90
        8
 62
     5
370
    13
331
709A5
  1
Color_5
330
7150C
 90
        8
 62
     4
370
    13
331
14
  1
Color_4
  0
XRECORD
  5
72BD5
102
{ACAD_REACTORS
330
5F311
102
}
330
5F311
100
AcDbXrecord
280
     1
 91
     1023
301

290
     0
302
0
330
E
 90
       24
 62
     7
370
    -3
331
14
  1
Color_7
330
0
 90
        8
 62
     7
370
    -3
331
14
  1
Color_7
330
8C6
 90
        8
 62
     7
370
    30
331
14
  1
Color_7
330
96A
 90
        8
 62
    13
370
    13
331
3306
  1
Color_13
330
1521
 90
        8
 62
     4
370
    30
331
14
  1
Color_4
330
35AF6
 90
        8
 62
     3
370
    13
331
14
  1
Color_3
330
4D2E2
 90
        9
 62
     8
370
    13
331
709A7
  1
Color_8
330
5FA85
 90
        8
 62
     5
370
    13
331
709A5
  1
Color_5
330
7150C
 90
        8
 62
     4
370
    13
331
14
  1
Color_4
  0
XRECORD
  5
72BD6
102
{ACAD_REACTORS
330
5F311
102
}
330
5F311
100
AcDbXrecord
280
     1
 91
     1023
301

290
     0
302
文字
330
E
 90
       24
 62
     7
370
    -3
331
14
  1
Color_7
330
0
 90
        8
 62
     7
370
    -3
331
14
  1
Color_7
330
8C6
 90
        8
 62
     7
370
    30
331
14
  1
Color_7
330
96A
 90
        8
 62
    13
370
    13
331
3306
  1
Color_13
330
1521
 90
        8
 62
     4
370
    30
331
14
  1
Color_4
330
35AF6
 90
        8
 62
     3
370
    13
331
14
  1
Color_3
330
4D2E2
 90
        9
 62
     8
370
    13
331
709A7
  1
Color_8
330
5FA85
 90
        8
 62
     5
370
    13
331
709A5
  1
Color_5
330
7150C
 90
        8
 62
     4
370
    13
331
14
  1
Color_4
  0
XRECORD
  5
72BD7
102
{ACAD_REACTORS
330
5F311
102
}
330
5F311
100
AcDbXrecord
280
     1
 91
     1023
301

290
     0
302
文字
330
E
 90
       24
 62
     7
370
    -3
331
14
  1
Color_7
330
0
 90
        8
 62
     7
370
    -3
331
14
  1
Color_7
330
8C6
 90
        8
 62
     7
370
    30
331
14
  1
Color_7
330
96A
 90
        8
 62
    13
370
    13
331
3306
  1
Color_13
330
1521
 90
        8
 62
     4
370
    30
331
14
  1
Color_4
330
35AF6
 90
        8
 62
     3
370
    13
331
14
  1
Color_3
330
4D2E2
 90
        8
 62
     8
370
    13
331
709A7
  1
Color_8
330
5FA85
 90
        8
 62
     5
370
    13
331
709A5
  1
Color_5
330
7150C
 90
        8
 62
     4
370
    13
331
14
  1
Color_4
  0
XRECORD
  5
72BC6
102
{ACAD_REACTORS
330
5F311
102
}
330
5F311
100
AcDbXrecord
280
     1
 91
     1023
301

290
     0
302
0
330
E
 90
       24
 62
     7
370
    -3
331
14
  1
Color_7
330
0
 90
        8
 62
     7
370
    -3
331
14
  1
Color_7
330
8C6
 90
        8
 62
     7
370
    30
331
14
  1
Color_7
330
96A
 90
        8
 62
    13
370
    13
331
3306
  1
Color_13
330
1521
 90
        8
 62
     4
370
    30
331
14
  1
Color_4
330
35AF6
 90
        8
 62
     3
370
    13
331
14
  1
Color_3
330
4D2E2
 90
        8
 62
     8
370
    13
331
709A7
  1
Color_8
330
5FA85
 90
        8
 62
     5
370
    13
331
709A5
  1
Color_5
330
7150C
 90
        8
 62
     4
370
    13
331
14
  1
Color_4
  0
XRECORD
  5
72BC4
102
{ACAD_REACTORS
330
5F311
102
}
330
5F311
100
AcDbXrecord
280
     1
 91
     1023
301

290
     0
302
文字改
330
E
 90
       24
 62
     7
370
    -3
331
14
  1
Color_7
330
0
 90
        8
 62
     7
370
    -3
331
14
  1
Color_7
330
8C6
 90
        8
 62
     7
370
    30
331
14
  1
Color_7
330
96A
 90
        8
 62
    13
370
    13
331
3306
  1
Color_13
330
1521
 90
        8
 62
     4
370
    30
331
14
  1
Color_4
330
35AF6
 90
        8
 62
     3
370
    13
331
14
  1
Color_3
330
4D2E2
 90
        8
 62
     8
370
    13
331
709A7
  1
Color_8
330
5FA85
 90
        8
 62
     5
370
    13
331
709A5
  1
Color_5
330
0
 90
        8
 62
    40
370
    30
331
14
  1
Color_40
330
7150C
 90
        8
 62
     4
370
    13
331
14
  1
Color_4
  0
XRECORD
  5
72BC7
102
{ACAD_REACTORS
330
5F311
102
}
330
5F311
100
AcDbXrecord
280
     1
 91
     1023
301

290
     0
302
0
330
E
 90
       25
 62
     7
370
    -3
331
14
  1
Color_7
330
0
 90
        8
 62
     7
370
    -3
331
14
  1
Color_7
330
8C6
 90
        8
 62
     7
370
    30
331
14
  1
Color_7
330
96A
 90
        8
 62
    13
370
    13
331
3306
  1
Color_13
330
1521
 90
        8
 62
     4
370
    30
331
14
  1
Color_4
330
35AF6
 90
        8
 62
     3
370
    13
331
14
  1
Color_3
330
4D2E2
 90
        8
 62
     8
370
    13
331
709A7
  1
Color_8
330
5FA85
 90
        8
 62
     5
370
    13
331
709A5
  1
Color_5
330
7150C
 90
        8
 62
     4
370
    13
331
14
  1
Color_4
  0
XRECORD
  5
72BC8
102
{ACAD_REACTORS
330
5F311
102
}
330
5F311
100
AcDbXrecord
280
     1
 91
     1023
301

290
     0
302
0
330
E
 90
       25
 62
     7
370
    -3
331
14
  1
Color_7
330
0
 90
        8
 62
     7
370
    -3
331
14
  1
Color_7
330
8C6
 90
        8
 62
     7
370
    30
331
14
  1
Color_7
330
96A
 90
        8
 62
    13
370
    13
331
3306
  1
Color_13
330
1521
 90
        8
 62
     4
370
    30
331
14
  1
Color_4
330
35AF6
 90
        8
 62
     3
370
    13
331
14
  1
Color_3
330
4D2E2
 90
        8
 62
     8
370
    13
331
709A7
  1
Color_8
330
5FA85
 90
        8
 62
     5
370
    13
331
709A5
  1
Color_5
330
7150C
 90
        9
 62
     4
370
    13
331
14
  1
Color_4
  0
XRECORD
  5
72BC9
102
{ACAD_REACTORS
330
5F311
102
}
330
5F311
100
AcDbXrecord
280
     1
 91
     1023
301

290
     0
302
0
330
E
 90
       25
 62
     7
370
    -3
331
14
  1
Color_7
330
0
 90
        8
 62
     7
370
    -3
331
14
  1
Color_7
330
8C6
 90
        8
 62
     7
370
    30
331
14
  1
Color_7
330
96A
 90
        9
 62
    13
370
    13
331
3306
  1
Color_13
330
1521
 90
        8
 62
     4
370
    30
331
14
  1
Color_4
330
35AF6
 90
        8
 62
     3
370
    13
331
14
  1
Color_3
330
4D2E2
 90
        8
 62
     8
370
    13
331
709A7
  1
Color_8
330
5FA85
 90
        8
 62
     5
370
    13
331
709A5
  1
Color_5
330
7150C
 90
        9
 62
     4
370
    13
331
14
  1
Color_4
  0
XRECORD
  5
72BCA
102
{ACAD_REACTORS
330
5F311
102
}
330
5F311
100
AcDbXrecord
280
     1
 91
     1023
301

290
     0
302
0
330
E
 90
       25
 62
     7
370
    -3
331
14
  1
Color_7
330
0
 90
        8
 62
     7
370
    -3
331
14
  1
Color_7
330
8C6
 90
        8
 62
     7
370
    30
331
14
  1
Color_7
330
96A
 90
        9
 62
    13
370
    13
331
3306
  1
Color_13
330
1521
 90
        8
 62
     4
370
    30
331
14
  1
Color_4
330
35AF6
 90
        8
 62
     3
370
    13
331
14
  1
Color_3
330
4D2E2
 90
        8
 62
     8
370
    13
331
709A7
  1
Color_8
330
5FA85
 90
        9
 62
     5
370
    13
331
709A5
  1
Color_5
330
7150C
 90
        9
 62
     4
370
    13
331
14
  1
Color_4
  0
XRECORD
  5
72BCB
102
{ACAD_REACTORS
330
5F311
102
}
330
5F311
100
AcDbXrecord
280
     1
 91
     1023
301

290
     0
302
0
330
E
 90
       25
 62
     7
370
    -3
331
14
  1
Color_7
330
0
 90
        8
 62
     7
370
    -3
331
14
  1
Color_7
330
8C6
 90
        8
 62
     7
370
    30
331
14
  1
Color_7
330
96A
 90
        9
 62
    13
370
    13
331
3306
  1
Color_13
330
1521
 90
        9
 62
     4
370
    30
331
14
  1
Color_4
330
35AF6
 90
        8
 62
     3
370
    13
331
14
  1
Color_3
330
4D2E2
 90
        8
 62
     8
370
    13
331
709A7
  1
Color_8
330
5FA85
 90
        9
 62
     5
370
    13
331
709A5
  1
Color_5
330
7150C
 90
        9
 62
     4
370
    13
331
14
  1
Color_4
  0
XRECORD
  5
72BCC
102
{ACAD_REACTORS
330
5F311
102
}
330
5F311
100
AcDbXrecord
280
     1
 91
     1023
301

290
     0
302
0
330
E
 90
       25
 62
     7
370
    -3
331
14
  1
Color_7
330
0
 90
        8
 62
     7
370
    -3
331
14
  1
Color_7
330
8C6
 90
        8
 62
     7
370
    30
331
14
  1
Color_7
330
96A
 90
        9
 62
    13
370
    13
331
3306
  1
Color_13
330
1521
 90
        9
 62
     4
370
    30
331
14
  1
Color_4
330
35AF6
 90
        9
 62
     3
370
    13
331
14
  1
Color_3
330
4D2E2
 90
        8
 62
     8
370
    13
331
709A7
  1
Color_8
330
5FA85
 90
        9
 62
     5
370
    13
331
709A5
  1
Color_5
330
7150C
 90
        9
 62
     4
370
    13
331
14
  1
Color_4
  0
XRECORD
  5
72BCD
102
{ACAD_REACTORS
330
5F311
102
}
330
5F311
100
AcDbXrecord
280
     1
 91
     1023
301

290
     0
302
0
330
E
 90
       25
 62
     7
370
    -3
331
14
  1
Color_7
330
0
 90
        8
 62
     7
370
    -3
331
14
  1
Color_7
330
8C6
 90
        9
 62
     7
370
    30
331
14
  1
Color_7
330
96A
 90
        9
 62
    13
370
    13
331
3306
  1
Color_13
330
1521
 90
        9
 62
     4
370
    30
331
14
  1
Color_4
330
35AF6
 90
        9
 62
     3
370
    13
331
14
  1
Color_3
330
4D2E2
 90
        8
 62
     8
370
    13
331
709A7
  1
Color_8
330
5FA85
 90
        9
 62
     5
370
    13
331
709A5
  1
Color_5
330
7150C
 90
        9
 62
     4
370
    13
331
14
  1
Color_4
  0
DICTIONARY
  5
72CF0
330
72BE3
100
AcDbDictionary
280
     1
281
     1
  3
ACAD_XREC_ROUNDTRIP
360
72CF1
  0
DICTIONARY
  5
72CB2
330
741
100
AcDbDictionary
280
     1
281
     1
  3
ACAD_XREC_ROUNDTRIP
360
72CB3
  0
DICTIONARY
  5
72CE9
330
72BA8
100
AcDbDictionary
280
     1
281
     1
  3
ACAD_XREC_ROUNDTRIP
360
72CEA
  0
DICTIONARY
  5
72BDA
330
72BD9
100
AcDbDictionary
280
     1
281
     1
  3
ACAD_XREC_ROUNDTRIP
360
72CED
  3
BUMPTILE
360
72BDC
  3
DIFFUSETILE
360
72BDB
  3
OPACITYTILE
360
72BDF
  3
REFLECTIONTILE
360
72BDE
  3
REFRACTIONTILE
360
72BE0
  3
SPECULARTILE
360
72BDD
  0
DICTIONARY
  5
72CE4
330
714A0
100
AcDbDictionary
280
     1
281
     1
  3
ACAD_XREC_ROUNDTRIP
360
72CE5
  0
DICTIONARY
  5
72CE6
330
714A2
100
AcDbDictionary
280
     1
281
     1
  3
ACAD_XREC_ROUNDTRIP
360
72CE7
  0
DICTIONARY
  5
72CEE
330
72BE2
100
AcDbDictionary
280
     1
281
     1
  3
ACAD_XREC_ROUNDTRIP
360
72CEF
  0
DICTIONARY
  5
72C49
330
714A4
100
AcDbDictionary
280
     1
281
     1
  3
ACAD_ROUNDTRIP_2008_TABLESTYLE_CELLSTYLEMAP
360
72CAD
  3
ACAD_XREC_ROUNDTRIP
360
72CE8
  0
DICTIONARY
  5
72CBC
330
7148B
100
AcDbDictionary
280
     1
281
     1
  3
ACAD_XREC_ROUNDTRIP
360
72CBD
  0
DICTIONARY
  5
72CC2
330
7148E
100
AcDbDictionary
280
     1
281
     1
  3
ACAD_XREC_ROUNDTRIP
360
72CC3
  0
DICTIONARY
  5
72CCA
330
71492
100
AcDbDictionary
280
     1
281
     1
  3
ACAD_XREC_ROUNDTRIP
360
72CCB
  0
DICTIONARY
  5
72CD2
330
71496
100
AcDbDictionary
280
     1
281
     1
  3
ACAD_XREC_ROUNDTRIP
360
72CD3
  0
DICTIONARY
  5
72CC6
330
71490
100
AcDbDictionary
280
     1
281
     1
  3
ACAD_XREC_ROUNDTRIP
360
72CC7
  0
DICTIONARY
  5
72CC8
330
71491
100
AcDbDictionary
280
     1
281
     1
  3
ACAD_XREC_ROUNDTRIP
360
72CC9
  0
DICTIONARY
  5
72CD8
330
71499
100
AcDbDictionary
280
     1
281
     1
  3
ACAD_XREC_ROUNDTRIP
360
72CD9
  0
DICTIONARY
  5
72CD0
330
71495
100
AcDbDictionary
280
     1
281
     1
  3
ACAD_XREC_ROUNDTRIP
360
72CD1
  0
DICTIONARY
  5
72CB4
330
71487
100
AcDbDictionary
280
     1
281
     1
  3
ACAD_XREC_ROUNDTRIP
360
72CB5
  0
DICTIONARY
  5
72CB6
330
71488
100
AcDbDictionary
280
     1
281
     1
  3
ACAD_XREC_ROUNDTRIP
360
72CB7
  0
DICTIONARY
  5
72CB8
330
71489
100
AcDbDictionary
280
     1
281
     1
  3
ACAD_XREC_ROUNDTRIP
360
72CB9
  0
DICTIONARY
  5
72CBA
330
7148A
100
AcDbDictionary
280
     1
281
     1
  3
ACAD_XREC_ROUNDTRIP
360
72CBB
  0
DICTIONARY
  5
72CC0
330
7148D
100
AcDbDictionary
280
     1
281
     1
  3
ACAD_XREC_ROUNDTRIP
360
72CC1
  0
DICTIONARY
  5
72CD4
330
71497
100
AcDbDictionary
280
     1
281
     1
  3
ACAD_XREC_ROUNDTRIP
360
72CD5
  0
DICTIONARY
  5
72CCE
330
71494
100
AcDbDictionary
280
     1
281
     1
  3
ACAD_XREC_ROUNDTRIP
360
72CCF
  0
DICTIONARY
  5
72CD6
330
71498
100
AcDbDictionary
280
     1
281
     1
  3
ACAD_XREC_ROUNDTRIP
360
72CD7
  0
DICTIONARY
  5
72CC4
330
7148F
100
AcDbDictionary
280
     1
281
     1
  3
ACAD_XREC_ROUNDTRIP
360
72CC5
  0
DICTIONARY
  5
72CE2
330
7149E
100
AcDbDictionary
280
     1
281
     1
  3
ACAD_XREC_ROUNDTRIP
360
72CE3
  0
DICTIONARY
  5
72CE0
330
7149D
100
AcDbDictionary
280
     1
281
     1
  3
ACAD_XREC_ROUNDTRIP
360
72CE1
  0
DICTIONARY
  5
72CDA
330
7149A
100
AcDbDictionary
280
     1
281
     1
  3
ACAD_XREC_ROUNDTRIP
360
72CDB
  0
DICTIONARY
  5
72CDC
330
7149B
100
AcDbDictionary
280
     1
281
     1
  3
ACAD_XREC_ROUNDTRIP
360
72CDD
  0
DICTIONARY
  5
72CCC
330
71493
100
AcDbDictionary
280
     1
281
     1
  3
ACAD_XREC_ROUNDTRIP
360
72CCD
  0
DICTIONARY
  5
72CBE
330
7148C
100
AcDbDictionary
280
     1
281
     1
  3
ACAD_XREC_ROUNDTRIP
360
72CBF
  0
DICTIONARY
  5
72CDE
330
7149C
100
AcDbDictionary
280
     1
281
     1
  3
ACAD_XREC_ROUNDTRIP
360
72CDF
  0
XRECORD
  5
72CF1
102
{ACAD_REACTORS
330
72CF0
102
}
330
72CF0
100
AcDbXrecord
280
     1
102
DISPLAYNAME
  1
Imperial24
102
FLAGS
 90
        0
  0
XRECORD
  5
72CB3
102
{ACAD_REACTORS
330
72CB2
102
}
330
72CB2
100
AcDbXrecord
280
     1
102
SHADEPLOT
 70
     0
102
SHADEPLOTRESLEVEL
 70
     2
102
SHADEPLOTCUSTOMDPI
 70
   300
  0
XRECORD
  5
72CEA
102
{ACAD_REACTORS
330
72CE9
102
}
330
72CE9
100
AcDbXrecord
280
     1
102
SHADEPLOT
 70
     0
102
SHADEPLOTRESLEVEL
 70
     2
102
SHADEPLOTCUSTOMDPI
 70
   300
  0
XRECORD
  5
72CED
102
{ACAD_REACTORS
330
72BDA
102
}
330
72BDA
100
AcDbXrecord
280
     1
102
MATERIAL
148
0.0
149
0.0
149
0.0
 93
        0
 94
      127
282
     0
 72
     0
 77
     0
171
     0
175
     0
179
     0
273
     0
  0
XRECORD
  5
72BDC
102
{ACAD_REACTORS
330
72BDA
102
}
330
72BDA
100
AcDbXrecord
280
     1
270
     1
271
     1
  0
XRECORD
  5
72BDB
102
{ACAD_REACTORS
330
72BDA
102
}
330
72BDA
100
AcDbXrecord
280
     1
270
     1
271
     1
  0
XRECORD
  5
72BDF
102
{ACAD_REACTORS
330
72BDA
102
}
330
72BDA
100
AcDbXrecord
280
     1
270
     1
271
     1
  0
XRECORD
  5
72BDE
102
{ACAD_REACTORS
330
72BDA
102
}
330
72BDA
100
AcDbXrecord
280
     1
270
     1
271
     1
  0
XRECORD
  5
72BE0
102
{ACAD_REACTORS
330
72BDA
102
}
330
72BDA
100
AcDbXrecord
280
     1
270
     1
271
     1
  0
XRECORD
  5
72BDD
102
{ACAD_REACTORS
330
72BDA
102
}
330
72BDA
100
AcDbXrecord
280
     1
270
     1
271
     1
  0
XRECORD
  5
72CE5
102
{ACAD_REACTORS
330
72CE4
102
}
330
72CE4
100
AcDbXrecord
280
     1
102
MATERIAL
148
0.0
149
0.0
149
0.0
 93
        0
 94
      127
282
     0
 72
     1
 77
     1
171
     1
175
     1
179
     1
273
     0
  0
XRECORD
  5
72CE7
102
{ACAD_REACTORS
330
72CE6
102
}
330
72CE6
100
AcDbXrecord
280
     1
102
MATERIAL
148
0.0
149
0.0
149
0.0
 93
        0
 94
      127
282
     0
 72
     1
 77
     1
171
     1
175
     1
179
     1
273
     0
  0
XRECORD
  5
72CEF
102
{ACAD_REACTORS
330
72CEE
102
}
330
72CEE
100
AcDbXrecord
280
     1
102
DISPLAYNAME
  1
Imperial24
102
FLAGS
 90
        0
  0
CELLSTYLEMAP
  5
72CAD
102
{ACAD_REACTORS
330
72C49
102
}
330
72C49
100
AcDbCellStyleMap
 90
        3
300
CELLSTYLE
  1
TABLEFORMAT_BEGIN
 90
        5
170
     1
 91
        0
 92
    32768
 62
   257
 93
        1
300
CONTENTFORMAT
  1
CONTENTFORMAT_BEGIN
 90
        0
 91
        0
 92
        4
 93
        0
300

 40
0.0
140
1.0
 94
        5
 62
     0
340
F
144
0.25
309
CONTENTFORMAT_END
171
     1
301
MARGIN
  1
CELLMARGIN_BEGIN
 40
0.06
 40
0.06
 40
0.06
 40
0.06
 40
0.06
 40
0.06
309
CELLMARGIN_END
 94
        6
 95
        1
302
GRIDFORMAT
  1
GRIDFORMAT_BEGIN
 90
        0
 91
        1
 62
     0
 92
       -2
340
12
 93
        0
 40
0.045
309
GRIDFORMAT_END
 95
        2
302
GRIDFORMAT
  1
GRIDFORMAT_BEGIN
 90
        0
 91
        1
 62
     0
 92
       -2
340
12
 93
        0
 40
0.045
309
GRIDFORMAT_END
 95
        4
302
GRIDFORMAT
  1
GRIDFORMAT_BEGIN
 90
        0
 91
        1
 62
     0
 92
       -2
340
12
 93
        0
 40
0.045
309
GRIDFORMAT_END
 95
        8
302
GRIDFORMAT
  1
GRIDFORMAT_BEGIN
 90
        0
 91
        1
 62
     0
 92
       -2
340
12
 93
        0
 40
0.045
309
GRIDFORMAT_END
 95
       16
302
GRIDFORMAT
  1
GRIDFORMAT_BEGIN
 90
        0
 91
        1
 62
     0
 92
       -2
340
12
 93
        0
 40
0.045
309
GRIDFORMAT_END
 95
       32
302
GRIDFORMAT
  1
GRIDFORMAT_BEGIN
 90
        0
 91
        1
 62
     0
 92
       -2
340
12
 93
        0
 40
0.045
309
GRIDFORMAT_END
309
TABLEFORMAT_END
  1
CELLSTYLE_BEGIN
 90
        1
 91
        1
300
_TITLE
309
CELLSTYLE_END
300
CELLSTYLE
  1
TABLEFORMAT_BEGIN
 90
        5
170
     1
 91
        0
 92
        0
 62
   257
 93
        1
300
CONTENTFORMAT
  1
CONTENTFORMAT_BEGIN
 90
        0
 91
        0
 92
        4
 93
        0
300

 40
0.0
140
1.0
 94
        5
 62
     0
340
F
144
0.18
309
CONTENTFORMAT_END
171
     1
301
MARGIN
  1
CELLMARGIN_BEGIN
 40
0.06
 40
0.06
 40
0.06
 40
0.06
 40
0.06
 40
0.06
309
CELLMARGIN_END
 94
        6
 95
        1
302
GRIDFORMAT
  1
GRIDFORMAT_BEGIN
 90
        0
 91
        1
 62
     0
 92
       -2
340
12
 93
        0
 40
0.045
309
GRIDFORMAT_END
 95
        2
302
GRIDFORMAT
  1
GRIDFORMAT_BEGIN
 90
        0
 91
        1
 62
     0
 92
       -2
340
12
 93
        0
 40
0.045
309
GRIDFORMAT_END
 95
        4
302
GRIDFORMAT
  1
GRIDFORMAT_BEGIN
 90
        0
 91
        1
 62
     0
 92
       -2
340
12
 93
        0
 40
0.045
309
GRIDFORMAT_END
 95
        8
302
GRIDFORMAT
  1
GRIDFORMAT_BEGIN
 90
        0
 91
        1
 62
     0
 92
       -2
340
12
 93
        0
 40
0.045
309
GRIDFORMAT_END
 95
       16
302
GRIDFORMAT
  1
GRIDFORMAT_BEGIN
 90
        0
 91
        1
 62
     0
 92
       -2
340
12
 93
        0
 40
0.045
309
GRIDFORMAT_END
 95
       32
302
GRIDFORMAT
  1
GRIDFORMAT_BEGIN
 90
        0
 91
        1
 62
     0
 92
       -2
340
12
 93
        0
 40
0.045
309
GRIDFORMAT_END
309
TABLEFORMAT_END
  1
CELLSTYLE_BEGIN
 90
        2
 91
        1
300
_HEADER
309
CELLSTYLE_END
300
CELLSTYLE
  1
TABLEFORMAT_BEGIN
 90
        5
170
     1
 91
        0
 92
        0
 62
   257
 93
        1
300
CONTENTFORMAT
  1
CONTENTFORMAT_BEGIN
 90
        0
 91
        0
 92
        4
 93
        0
300

 40
0.0
140
1.0
 94
        2
 62
     0
340
F
144
0.18
309
CONTENTFORMAT_END
171
     1
301
MARGIN
  1
CELLMARGIN_BEGIN
 40
0.06
 40
0.06
 40
0.06
 40
0.06
 40
0.06
 40
0.06
309
CELLMARGIN_END
 94
        6
 95
        1
302
GRIDFORMAT
  1
GRIDFORMAT_BEGIN
 90
        0
 91
        1
 62
     0
 92
       -2
340
12
 93
        0
 40
0.045
309
GRIDFORMAT_END
 95
        2
302
GRIDFORMAT
  1
GRIDFORMAT_BEGIN
 90
        0
 91
        1
 62
     0
 92
       -2
340
12
 93
        0
 40
0.045
309
GRIDFORMAT_END
 95
        4
302
GRIDFORMAT
  1
GRIDFORMAT_BEGIN
 90
        0
 91
        1
 62
     0
 92
       -2
340
12
 93
        0
 40
0.045
309
GRIDFORMAT_END
 95
        8
302
GRIDFORMAT
  1
GRIDFORMAT_BEGIN
 90
        0
 91
        1
 62
     0
 92
       -2
340
12
 93
        0
 40
0.045
309
GRIDFORMAT_END
 95
       16
302
GRIDFORMAT
  1
GRIDFORMAT_BEGIN
 90
        0
 91
        1
 62
     0
 92
       -2
340
12
 93
        0
 40
0.045
309
GRIDFORMAT_END
 95
       32
302
GRIDFORMAT
  1
GRIDFORMAT_BEGIN
 90
        0
 91
        1
 62
     0
 92
       -2
340
12
 93
        0
 40
0.045
309
GRIDFORMAT_END
309
TABLEFORMAT_END
  1
CELLSTYLE_BEGIN
 90
        3
 91
        2
300
_DATA
309
CELLSTYLE_END
  0
XRECORD
  5
72CE8
102
{ACAD_REACTORS
330
72C49
102
}
330
72C49
100
AcDbXrecord
280
     1
102
ACAD_ROUNDTRIP_PRE2007_TABLESTYLE
 90
        4
 91
        0
  1

 92
        4
 93
        0
  2

 94
        4
 95
        0
  3

  0
XRECORD
  5
72CBD
102
{ACAD_REACTORS
330
72CBC
102
}
330
72CBC
100
AcDbXrecord
280
     1
102
RTVSPost2010Prop28
280
     1
102
RTVSPost2010PropOp28
 70
     1
102
RTVSPost2010Prop29
280
     1
102
RTVSPost2010PropOp29
 70
     1
102
RTVSPost2010Prop30
280
     0
102
RTVSPost2010PropOp30
 70
     1
102
RTVSPost2010Prop31
280
     0
102
RTVSPost2010PropOp31
 70
     1
102
RTVSPost2010Prop32
280
     0
102
RTVSPost2010PropOp32
 70
     1
102
RTVSPost2010Prop33
280
     0
102
RTVSPost2010PropOp33
 70
     1
102
RTVSPost2010Prop34
280
     0
102
RTVSPost2010PropOp34
 70
     1
102
RTVSPost2010Prop35
280
     0
102
RTVSPost2010PropOp35
 70
     1
102
RTVSPost2010Prop36
280
     0
102
RTVSPost2010PropOp36
 70
     1
102
RTVSPost2010Prop37
 90
       50
102
RTVSPost2010PropOp37
 70
     1
102
RTVSPost2010Prop38
140
0.0
102
RTVSPost2010PropOp38
 70
     1
102
RTVSPost2010Prop39
140
1.0
102
RTVSPost2010PropOp39
 70
     1
102
RTVSPost2010Prop40
 90
        0
102
RTVSPost2010PropOp40
 70
     1
102
RTVSPost2010Prop41ColorIndex
 90
       18
102
RTVSPost2010Prop41ColorRGB
 90
        0
102
RTVSPost2010PropOp41
 70
     1
102
RTVSPost2010Prop42
 90
       50
102
RTVSPost2010PropOp42
 70
     1
102
RTVSPost2010Prop43
 90
        3
102
RTVSPost2010PropOp43
 70
     1
102
RTVSPost2010Prop44ColorIndex
 90
        5
102
RTVSPost2010Prop44ColorRGB
 90
      255
102
RTVSPost2010PropOp44
 70
     1
102
RTVSPost2010Prop45
280
     0
102
RTVSPost2010PropOp45
 70
     1
102
RTVSPost2010Prop46
 90
       50
102
RTVSPost2010PropOp46
 70
     1
102
RTVSPost2010Prop47
 90
       50
102
RTVSPost2010PropOp47
 70
     1
102
RTVSPost2010Prop48
 90
       50
102
RTVSPost2010PropOp48
 70
     1
102
RTVSPost2010Prop49
280
     0
102
RTVSPost2010PropOp49
 70
     1
102
RTVSPost2010Prop50
 90
       50
102
RTVSPost2010PropOp50
 70
     1
102
RTVSPost2010Prop51ColorIndex
 90
      256
102
RTVSPost2010Prop51ColorRGB
 90
-16777216
102
RTVSPost2010PropOp51
 70
     0
102
RTVSPost2010Prop52
140
1.0
102
RTVSPost2010PropOp52
 70
     0
102
RTVSPost2010Prop53
 90
        2
102
RTVSPost2010PropOp53
 70
     1
102
RTVSPost2010Prop54
  1
strokes_ogs.tif
102
RTVSPost2010PropOp54
 70
     1
102
RTVSPost2010Prop55
280
     0
102
RTVSPost2010PropOp55
 70
     1
102
RTVSPost2010Prop56
140
1.0
102
RTVSPost2010PropOp56
 70
     1
102
RTVSPost2010Prop57
140
1.0
102
RTVSPost2010PropOp57
 70
     1
102
RTVSPropertyOp0
 70
     1
102
RTVSPropertyOp1
 70
     1
102
RTVSPropertyOp2
 70
     1
102
RTVSPropertyOp3
 70
     1
102
RTVSPropertyOp4
 70
     1
102
RTVSPropertyOp5
 70
     1
102
RTVSPropertyOp6
 70
     1
102
RTVSPropertyOp7
 70
     1
102
RTVSPropertyOp8
 70
     1
102
RTVSPropertyOp9
 70
     1
102
RTVSPropertyOp10
 70
     1
102
RTVSPropertyOp11
 70
     1
102
RTVSPropertyOp12
 70
     1
102
RTVSPropertyOp13
 70
     1
102
RTVSPropertyOp14
 70
     1
102
RTVSPropertyOp15
 70
     1
102
RTVSPropertyOp16
 70
     1
102
RTVSPropertyOp17
 70
     1
102
RTVSPropertyOp18
 70
     1
102
RTVSPropertyOp19
 70
     1
102
RTVSPropertyOp20
 70
     1
102
RTVSPropertyOp21
 70
     1
102
RTVSPropertyOp22
 70
     1
102
RTVSPropertyOp23
 70
     1
102
RTVSPropertyOp24
 70
     1
102
RTVSPropertyOp25
 70
     1
102
RTVSPropertyOp26
 70
     1
102
RTVSPropertyOp27
 70
     1
102
RTVSPropertyOp28
 70
     1
102
RTVSPropertyOp29
 70
     1
102
RTVSPropertyOp30
 70
     1
102
RTVSPropertyOp31
 70
     1
102
RTVSPropertyOp32
 70
     1
102
RTVSPropertyOp33
 70
     1
102
RTVSPropertyOp34
 70
     1
102
RTVSPropertyOp35
 70
     1
102
RTVSPropertyOp36
 70
     1
102
RTVSPropertyOp37
 70
     1
102
RTVSPropertyOp38
 70
     1
102
RTVSPropertyOp39
 70
     1
102
RTVSPropertyOp40
 70
     1
102
RTVSPropertyOp41
 70
     1
102
RTVSPropertyOp42
 70
     1
102
RTVSPropertyOp43
 70
     1
102
RTVSPropertyOp44
 70
     1
102
RTVSPropertyOp45
 70
     1
102
RTVSPropertyOp46
 70
     1
102
RTVSPropertyOp47
 70
     1
102
RTVSPropertyOp48
 70
     1
102
RTVSPropertyOp49
 70
     1
102
RTVSPropertyOp50
 70
     1
102
RTVSPropertyOp51
 70
     0
102
RTVSPropertyOp52
 70
     0
102
RTVSPropertyOp53
 70
     1
102
RTVSPropertyOp54
 70
     1
102
RTVSPropertyOp55
 70
     1
102
RTVSPropertyOp56
 70
     1
102
RTVSPropertyOp57
 70
     1
102
RTVSPropertyOp58
 70
     1
102
RTVSPropertyOp59
 70
     1
102
RTVSPropertyOp60
 70
     1
102
RTVSPropertyOp61
 70
     1
102
RTVSPropertyOp62
 70
     1
  0
XRECORD
  5
72CC3
102
{ACAD_REACTORS
330
72CC2
102
}
330
72CC2
100
AcDbXrecord
280
     1
102
RTVSPost2010Prop28
280
     0
102
RTVSPost2010PropOp28
 70
     1
102
RTVSPost2010Prop29
280
     1
102
RTVSPost2010PropOp29
 70
     1
102
RTVSPost2010Prop30
280
     1
102
RTVSPost2010PropOp30
 70
     1
102
RTVSPost2010Prop31
280
     0
102
RTVSPost2010PropOp31
 70
     1
102
RTVSPost2010Prop32
280
     0
102
RTVSPost2010PropOp32
 70
     1
102
RTVSPost2010Prop33
280
     0
102
RTVSPost2010PropOp33
 70
     1
102
RTVSPost2010Prop34
280
     0
102
RTVSPost2010PropOp34
 70
     1
102
RTVSPost2010Prop35
280
     0
102
RTVSPost2010PropOp35
 70
     1
102
RTVSPost2010Prop36
280
     0
102
RTVSPost2010PropOp36
 70
     1
102
RTVSPost2010Prop37
 90
       50
102
RTVSPost2010PropOp37
 70
     1
102
RTVSPost2010Prop38
140
0.0
102
RTVSPost2010PropOp38
 70
     1
102
RTVSPost2010Prop39
140
1.0
102
RTVSPost2010PropOp39
 70
     1
102
RTVSPost2010Prop40
 90
        0
102
RTVSPost2010PropOp40
 70
     1
102
RTVSPost2010Prop41ColorIndex
 90
       18
102
RTVSPost2010Prop41ColorRGB
 90
        0
102
RTVSPost2010PropOp41
 70
     1
102
RTVSPost2010Prop42
 90
       50
102
RTVSPost2010PropOp42
 70
     1
102
RTVSPost2010Prop43
 90
        3
102
RTVSPost2010PropOp43
 70
     1
102
RTVSPost2010Prop44ColorIndex
 90
        5
102
RTVSPost2010Prop44ColorRGB
 90
      255
102
RTVSPost2010PropOp44
 70
     1
102
RTVSPost2010Prop45
280
     0
102
RTVSPost2010PropOp45
 70
     1
102
RTVSPost2010Prop46
 90
       50
102
RTVSPost2010PropOp46
 70
     1
102
RTVSPost2010Prop47
 90
       50
102
RTVSPost2010PropOp47
 70
     1
102
RTVSPost2010Prop48
 90
       50
102
RTVSPost2010PropOp48
 70
     1
102
RTVSPost2010Prop49
280
     0
102
RTVSPost2010PropOp49
 70
     1
102
RTVSPost2010Prop50
 90
       50
102
RTVSPost2010PropOp50
 70
     1
102
RTVSPost2010Prop51ColorIndex
 90
      256
102
RTVSPost2010Prop51ColorRGB
 90
-16777216
102
RTVSPost2010PropOp51
 70
     0
102
RTVSPost2010Prop52
140
1.0
102
RTVSPost2010PropOp52
 70
     0
102
RTVSPost2010Prop53
 90
        2
102
RTVSPost2010PropOp53
 70
     1
102
RTVSPost2010Prop54
  1
strokes_ogs.tif
102
RTVSPost2010PropOp54
 70
     1
102
RTVSPost2010Prop55
280
     0
102
RTVSPost2010PropOp55
 70
     1
102
RTVSPost2010Prop56
140
1.0
102
RTVSPost2010PropOp56
 70
     1
102
RTVSPost2010Prop57
140
1.0
102
RTVSPost2010PropOp57
 70
     1
102
RTVSPropertyOp0
 70
     1
102
RTVSPropertyOp1
 70
     1
102
RTVSPropertyOp2
 70
     1
102
RTVSPropertyOp3
 70
     1
102
RTVSPropertyOp4
 70
     1
102
RTVSPropertyOp5
 70
     1
102
RTVSPropertyOp6
 70
     1
102
RTVSPropertyOp7
 70
     1
102
RTVSPropertyOp8
 70
     1
102
RTVSPropertyOp9
 70
     1
102
RTVSPropertyOp10
 70
     1
102
RTVSPropertyOp11
 70
     1
102
RTVSPropertyOp12
 70
     1
102
RTVSPropertyOp13
 70
     1
102
RTVSPropertyOp14
 70
     1
102
RTVSPropertyOp15
 70
     1
102
RTVSPropertyOp16
 70
     1
102
RTVSPropertyOp17
 70
     1
102
RTVSPropertyOp18
 70
     1
102
RTVSPropertyOp19
 70
     1
102
RTVSPropertyOp20
 70
     1
102
RTVSPropertyOp21
 70
     1
102
RTVSPropertyOp22
 70
     1
102
RTVSPropertyOp23
 70
     1
102
RTVSPropertyOp24
 70
     1
102
RTVSPropertyOp25
 70
     1
102
RTVSPropertyOp26
 70
     1
102
RTVSPropertyOp27
 70
     1
102
RTVSPropertyOp28
 70
     1
102
RTVSPropertyOp29
 70
     1
102
RTVSPropertyOp30
 70
     1
102
RTVSPropertyOp31
 70
     1
102
RTVSPropertyOp32
 70
     1
102
RTVSPropertyOp33
 70
     1
102
RTVSPropertyOp34
 70
     1
102
RTVSPropertyOp35
 70
     1
102
RTVSPropertyOp36
 70
     1
102
RTVSPropertyOp37
 70
     1
102
RTVSPropertyOp38
 70
     1
102
RTVSPropertyOp39
 70
     1
102
RTVSPropertyOp40
 70
     1
102
RTVSPropertyOp41
 70
     1
102
RTVSPropertyOp42
 70
     1
102
RTVSPropertyOp43
 70
     1
102
RTVSPropertyOp44
 70
     1
102
RTVSPropertyOp45
 70
     1
102
RTVSPropertyOp46
 70
     1
102
RTVSPropertyOp47
 70
     1
102
RTVSPropertyOp48
 70
     1
102
RTVSPropertyOp49
 70
     1
102
RTVSPropertyOp50
 70
     1
102
RTVSPropertyOp51
 70
     0
102
RTVSPropertyOp52
 70
     0
102
RTVSPropertyOp53
 70
     1
102
RTVSPropertyOp54
 70
     1
102
RTVSPropertyOp55
 70
     1
102
RTVSPropertyOp56
 70
     1
102
RTVSPropertyOp57
 70
     1
102
RTVSPropertyOp58
 70
     1
102
RTVSPropertyOp59
 70
     1
102
RTVSPropertyOp60
 70
     1
102
RTVSPropertyOp61
 70
     1
102
RTVSPropertyOp62
 70
     1
  0
XRECORD
  5
72CCB
102
{ACAD_REACTORS
330
72CCA
102
}
330
72CCA
100
AcDbXrecord
280
     1
102
RTVSPost2010Prop28
280
     0
102
RTVSPost2010PropOp28
 70
     1
102
RTVSPost2010Prop29
280
     1
102
RTVSPost2010PropOp29
 70
     1
102
RTVSPost2010Prop30
280
     1
102
RTVSPost2010PropOp30
 70
     1
102
RTVSPost2010Prop31
280
     0
102
RTVSPost2010PropOp31
 70
     1
102
RTVSPost2010Prop32
280
     0
102
RTVSPost2010PropOp32
 70
     1
102
RTVSPost2010Prop33
280
     0
102
RTVSPost2010PropOp33
 70
     1
102
RTVSPost2010Prop34
280
     0
102
RTVSPost2010PropOp34
 70
     1
102
RTVSPost2010Prop35
280
     0
102
RTVSPost2010PropOp35
 70
     1
102
RTVSPost2010Prop36
280
     0
102
RTVSPost2010PropOp36
 70
     1
102
RTVSPost2010Prop37
 90
       50
102
RTVSPost2010PropOp37
 70
     1
102
RTVSPost2010Prop38
140
0.0
102
RTVSPost2010PropOp38
 70
     1
102
RTVSPost2010Prop39
140
1.0
102
RTVSPost2010PropOp39
 70
     1
102
RTVSPost2010Prop40
 90
        0
102
RTVSPost2010PropOp40
 70
     1
102
RTVSPost2010Prop41ColorIndex
 90
       18
102
RTVSPost2010Prop41ColorRGB
 90
        0
102
RTVSPost2010PropOp41
 70
     1
102
RTVSPost2010Prop42
 90
       50
102
RTVSPost2010PropOp42
 70
     1
102
RTVSPost2010Prop43
 90
        3
102
RTVSPost2010PropOp43
 70
     1
102
RTVSPost2010Prop44ColorIndex
 90
        5
102
RTVSPost2010Prop44ColorRGB
 90
      255
102
RTVSPost2010PropOp44
 70
     1
102
RTVSPost2010Prop45
280
     0
102
RTVSPost2010PropOp45
 70
     1
102
RTVSPost2010Prop46
 90
       50
102
RTVSPost2010PropOp46
 70
     1
102
RTVSPost2010Prop47
 90
       50
102
RTVSPost2010PropOp47
 70
     1
102
RTVSPost2010Prop48
 90
       50
102
RTVSPost2010PropOp48
 70
     1
102
RTVSPost2010Prop49
280
     0
102
RTVSPost2010PropOp49
 70
     1
102
RTVSPost2010Prop50
 90
       50
102
RTVSPost2010PropOp50
 70
     1
102
RTVSPost2010Prop51ColorIndex
 90
      256
102
RTVSPost2010Prop51ColorRGB
 90
-16777216
102
RTVSPost2010PropOp51
 70
     0
102
RTVSPost2010Prop52
140
1.0
102
RTVSPost2010PropOp52
 70
     0
102
RTVSPost2010Prop53
 90
        2
102
RTVSPost2010PropOp53
 70
     1
102
RTVSPost2010Prop54
  1
strokes_ogs.tif
102
RTVSPost2010PropOp54
 70
     1
102
RTVSPost2010Prop55
280
     0
102
RTVSPost2010PropOp55
 70
     1
102
RTVSPost2010Prop56
140
1.0
102
RTVSPost2010PropOp56
 70
     1
102
RTVSPost2010Prop57
140
1.0
102
RTVSPost2010PropOp57
 70
     1
102
RTVSPropertyOp0
 70
     1
102
RTVSPropertyOp1
 70
     1
102
RTVSPropertyOp2
 70
     1
102
RTVSPropertyOp3
 70
     1
102
RTVSPropertyOp4
 70
     1
102
RTVSPropertyOp5
 70
     1
102
RTVSPropertyOp6
 70
     1
102
RTVSPropertyOp7
 70
     1
102
RTVSPropertyOp8
 70
     1
102
RTVSPropertyOp9
 70
     1
102
RTVSPropertyOp10
 70
     1
102
RTVSPropertyOp11
 70
     1
102
RTVSPropertyOp12
 70
     1
102
RTVSPropertyOp13
 70
     1
102
RTVSPropertyOp14
 70
     1
102
RTVSPropertyOp15
 70
     1
102
RTVSPropertyOp16
 70
     1
102
RTVSPropertyOp17
 70
     1
102
RTVSPropertyOp18
 70
     1
102
RTVSPropertyOp19
 70
     1
102
RTVSPropertyOp20
 70
     1
102
RTVSPropertyOp21
 70
     1
102
RTVSPropertyOp22
 70
     1
102
RTVSPropertyOp23
 70
     1
102
RTVSPropertyOp24
 70
     1
102
RTVSPropertyOp25
 70
     1
102
RTVSPropertyOp26
 70
     1
102
RTVSPropertyOp27
 70
     1
102
RTVSPropertyOp28
 70
     1
102
RTVSPropertyOp29
 70
     1
102
RTVSPropertyOp30
 70
     1
102
RTVSPropertyOp31
 70
     1
102
RTVSPropertyOp32
 70
     1
102
RTVSPropertyOp33
 70
     1
102
RTVSPropertyOp34
 70
     1
102
RTVSPropertyOp35
 70
     1
102
RTVSPropertyOp36
 70
     1
102
RTVSPropertyOp37
 70
     1
102
RTVSPropertyOp38
 70
     1
102
RTVSPropertyOp39
 70
     1
102
RTVSPropertyOp40
 70
     1
102
RTVSPropertyOp41
 70
     1
102
RTVSPropertyOp42
 70
     1
102
RTVSPropertyOp43
 70
     1
102
RTVSPropertyOp44
 70
     1
102
RTVSPropertyOp45
 70
     1
102
RTVSPropertyOp46
 70
     1
102
RTVSPropertyOp47
 70
     1
102
RTVSPropertyOp48
 70
     1
102
RTVSPropertyOp49
 70
     1
102
RTVSPropertyOp50
 70
     1
102
RTVSPropertyOp51
 70
     0
102
RTVSPropertyOp52
 70
     0
102
RTVSPropertyOp53
 70
     1
102
RTVSPropertyOp54
 70
     1
102
RTVSPropertyOp55
 70
     1
102
RTVSPropertyOp56
 70
     1
102
RTVSPropertyOp57
 70
     1
102
RTVSPropertyOp58
 70
     1
102
RTVSPropertyOp59
 70
     1
102
RTVSPropertyOp60
 70
     1
102
RTVSPropertyOp61
 70
     1
102
RTVSPropertyOp62
 70
     1
  0
XRECORD
  5
72CD3
102
{ACAD_REACTORS
330
72CD2
102
}
330
72CD2
100
AcDbXrecord
280
     1
102
RTVSPost2010Prop28
280
     0
102
RTVSPost2010PropOp28
 70
     1
102
RTVSPost2010Prop29
280
     1
102
RTVSPost2010PropOp29
 70
     1
102
RTVSPost2010Prop30
280
     1
102
RTVSPost2010PropOp30
 70
     1
102
RTVSPost2010Prop31
280
     0
102
RTVSPost2010PropOp31
 70
     1
102
RTVSPost2010Prop32
280
     0
102
RTVSPost2010PropOp32
 70
     1
102
RTVSPost2010Prop33
280
     0
102
RTVSPost2010PropOp33
 70
     1
102
RTVSPost2010Prop34
280
     0
102
RTVSPost2010PropOp34
 70
     1
102
RTVSPost2010Prop35
280
     0
102
RTVSPost2010PropOp35
 70
     1
102
RTVSPost2010Prop36
280
     0
102
RTVSPost2010PropOp36
 70
     1
102
RTVSPost2010Prop37
 90
       50
102
RTVSPost2010PropOp37
 70
     1
102
RTVSPost2010Prop38
140
0.0
102
RTVSPost2010PropOp38
 70
     1
102
RTVSPost2010Prop39
140
1.0
102
RTVSPost2010PropOp39
 70
     1
102
RTVSPost2010Prop40
 90
        0
102
RTVSPost2010PropOp40
 70
     1
102
RTVSPost2010Prop41ColorIndex
 90
       18
102
RTVSPost2010Prop41ColorRGB
 90
        0
102
RTVSPost2010PropOp41
 70
     1
102
RTVSPost2010Prop42
 90
       50
102
RTVSPost2010PropOp42
 70
     1
102
RTVSPost2010Prop43
 90
        3
102
RTVSPost2010PropOp43
 70
     1
102
RTVSPost2010Prop44ColorIndex
 90
        5
102
RTVSPost2010Prop44ColorRGB
 90
      255
102
RTVSPost2010PropOp44
 70
     1
102
RTVSPost2010Prop45
280
     0
102
RTVSPost2010PropOp45
 70
     1
102
RTVSPost2010Prop46
 90
       50
102
RTVSPost2010PropOp46
 70
     1
102
RTVSPost2010Prop47
 90
       50
102
RTVSPost2010PropOp47
 70
     1
102
RTVSPost2010Prop48
 90
       50
102
RTVSPost2010PropOp48
 70
     1
102
RTVSPost2010Prop49
280
     0
102
RTVSPost2010PropOp49
 70
     1
102
RTVSPost2010Prop50
 90
       50
102
RTVSPost2010PropOp50
 70
     1
102
RTVSPost2010Prop51ColorIndex
 90
      256
102
RTVSPost2010Prop51ColorRGB
 90
-16777216
102
RTVSPost2010PropOp51
 70
     0
102
RTVSPost2010Prop52
140
1.0
102
RTVSPost2010PropOp52
 70
     0
102
RTVSPost2010Prop53
 90
        2
102
RTVSPost2010PropOp53
 70
     1
102
RTVSPost2010Prop54
  1
strokes_ogs.tif
102
RTVSPost2010PropOp54
 70
     1
102
RTVSPost2010Prop55
280
     0
102
RTVSPost2010PropOp55
 70
     1
102
RTVSPost2010Prop56
140
1.0
102
RTVSPost2010PropOp56
 70
     1
102
RTVSPost2010Prop57
140
1.0
102
RTVSPost2010PropOp57
 70
     1
102
RTVSPropertyOp0
 70
     1
102
RTVSPropertyOp1
 70
     1
102
RTVSPropertyOp2
 70
     1
102
RTVSPropertyOp3
 70
     1
102
RTVSPropertyOp4
 70
     1
102
RTVSPropertyOp5
 70
     1
102
RTVSPropertyOp6
 70
     1
102
RTVSPropertyOp7
 70
     1
102
RTVSPropertyOp8
 70
     1
102
RTVSPropertyOp9
 70
     1
102
RTVSPropertyOp10
 70
     1
102
RTVSPropertyOp11
 70
     1
102
RTVSPropertyOp12
 70
     1
102
RTVSPropertyOp13
 70
     1
102
RTVSPropertyOp14
 70
     1
102
RTVSPropertyOp15
 70
     1
102
RTVSPropertyOp16
 70
     1
102
RTVSPropertyOp17
 70
     1
102
RTVSPropertyOp18
 70
     1
102
RTVSPropertyOp19
 70
     1
102
RTVSPropertyOp20
 70
     1
102
RTVSPropertyOp21
 70
     1
102
RTVSPropertyOp22
 70
     1
102
RTVSPropertyOp23
 70
     1
102
RTVSPropertyOp24
 70
     1
102
RTVSPropertyOp25
 70
     1
102
RTVSPropertyOp26
 70
     1
102
RTVSPropertyOp27
 70
     1
102
RTVSPropertyOp28
 70
     1
102
RTVSPropertyOp29
 70
     1
102
RTVSPropertyOp30
 70
     1
102
RTVSPropertyOp31
 70
     1
102
RTVSPropertyOp32
 70
     1
102
RTVSPropertyOp33
 70
     1
102
RTVSPropertyOp34
 70
     1
102
RTVSPropertyOp35
 70
     1
102
RTVSPropertyOp36
 70
     1
102
RTVSPropertyOp37
 70
     1
102
RTVSPropertyOp38
 70
     1
102
RTVSPropertyOp39
 70
     1
102
RTVSPropertyOp40
 70
     1
102
RTVSPropertyOp41
 70
     1
102
RTVSPropertyOp42
 70
     1
102
RTVSPropertyOp43
 70
     1
102
RTVSPropertyOp44
 70
     1
102
RTVSPropertyOp45
 70
     1
102
RTVSPropertyOp46
 70
     1
102
RTVSPropertyOp47
 70
     1
102
RTVSPropertyOp48
 70
     1
102
RTVSPropertyOp49
 70
     1
102
RTVSPropertyOp50
 70
     1
102
RTVSPropertyOp51
 70
     0
102
RTVSPropertyOp52
 70
     0
102
RTVSPropertyOp53
 70
     1
102
RTVSPropertyOp54
 70
     1
102
RTVSPropertyOp55
 70
     1
102
RTVSPropertyOp56
 70
     1
102
RTVSPropertyOp57
 70
     1
102
RTVSPropertyOp58
 70
     1
102
RTVSPropertyOp59
 70
     1
102
RTVSPropertyOp60
 70
     1
102
RTVSPropertyOp61
 70
     1
102
RTVSPropertyOp62
 70
     1
  0
XRECORD
  5
72CC7
102
{ACAD_REACTORS
330
72CC6
102
}
330
72CC6
100
AcDbXrecord
280
     1
102
RTVSPost2010Prop28
280
     0
102
RTVSPost2010PropOp28
 70
     1
102
RTVSPost2010Prop29
280
     1
102
RTVSPost2010PropOp29
 70
     1
102
RTVSPost2010Prop30
280
     1
102
RTVSPost2010PropOp30
 70
     1
102
RTVSPost2010Prop31
280
     0
102
RTVSPost2010PropOp31
 70
     1
102
RTVSPost2010Prop32
280
     0
102
RTVSPost2010PropOp32
 70
     1
102
RTVSPost2010Prop33
280
     0
102
RTVSPost2010PropOp33
 70
     1
102
RTVSPost2010Prop34
280
     0
102
RTVSPost2010PropOp34
 70
     1
102
RTVSPost2010Prop35
280
     0
102
RTVSPost2010PropOp35
 70
     1
102
RTVSPost2010Prop36
280
     0
102
RTVSPost2010PropOp36
 70
     1
102
RTVSPost2010Prop37
 90
       50
102
RTVSPost2010PropOp37
 70
     1
102
RTVSPost2010Prop38
140
0.0
102
RTVSPost2010PropOp38
 70
     1
102
RTVSPost2010Prop39
140
1.0
102
RTVSPost2010PropOp39
 70
     1
102
RTVSPost2010Prop40
 90
        0
102
RTVSPost2010PropOp40
 70
     1
102
RTVSPost2010Prop41ColorIndex
 90
       18
102
RTVSPost2010Prop41ColorRGB
 90
        0
102
RTVSPost2010PropOp41
 70
     1
102
RTVSPost2010Prop42
 90
       50
102
RTVSPost2010PropOp42
 70
     1
102
RTVSPost2010Prop43
 90
        3
102
RTVSPost2010PropOp43
 70
     1
102
RTVSPost2010Prop44ColorIndex
 90
        5
102
RTVSPost2010Prop44ColorRGB
 90
      255
102
RTVSPost2010PropOp44
 70
     1
102
RTVSPost2010Prop45
280
     0
102
RTVSPost2010PropOp45
 70
     1
102
RTVSPost2010Prop46
 90
       50
102
RTVSPost2010PropOp46
 70
     1
102
RTVSPost2010Prop47
 90
       50
102
RTVSPost2010PropOp47
 70
     1
102
RTVSPost2010Prop48
 90
       50
102
RTVSPost2010PropOp48
 70
     1
102
RTVSPost2010Prop49
280
     0
102
RTVSPost2010PropOp49
 70
     1
102
RTVSPost2010Prop50
 90
       50
102
RTVSPost2010PropOp50
 70
     1
102
RTVSPost2010Prop51ColorIndex
 90
      256
102
RTVSPost2010Prop51ColorRGB
 90
-16777216
102
RTVSPost2010PropOp51
 70
     0
102
RTVSPost2010Prop52
140
1.0
102
RTVSPost2010PropOp52
 70
     0
102
RTVSPost2010Prop53
 90
        2
102
RTVSPost2010PropOp53
 70
     1
102
RTVSPost2010Prop54
  1
strokes_ogs.tif
102
RTVSPost2010PropOp54
 70
     1
102
RTVSPost2010Prop55
280
     0
102
RTVSPost2010PropOp55
 70
     1
102
RTVSPost2010Prop56
140
1.0
102
RTVSPost2010PropOp56
 70
     1
102
RTVSPost2010Prop57
140
1.0
102
RTVSPost2010PropOp57
 70
     1
102
RTVSPropertyOp0
 70
     1
102
RTVSPropertyOp1
 70
     1
102
RTVSPropertyOp2
 70
     1
102
RTVSPropertyOp3
 70
     1
102
RTVSPropertyOp4
 70
     1
102
RTVSPropertyOp5
 70
     1
102
RTVSPropertyOp6
 70
     1
102
RTVSPropertyOp7
 70
     1
102
RTVSPropertyOp8
 70
     1
102
RTVSPropertyOp9
 70
     1
102
RTVSPropertyOp10
 70
     1
102
RTVSPropertyOp11
 70
     1
102
RTVSPropertyOp12
 70
     1
102
RTVSPropertyOp13
 70
     1
102
RTVSPropertyOp14
 70
     1
102
RTVSPropertyOp15
 70
     1
102
RTVSPropertyOp16
 70
     1
102
RTVSPropertyOp17
 70
     1
102
RTVSPropertyOp18
 70
     1
102
RTVSPropertyOp19
 70
     1
102
RTVSPropertyOp20
 70
     1
102
RTVSPropertyOp21
 70
     1
102
RTVSPropertyOp22
 70
     1
102
RTVSPropertyOp23
 70
     1
102
RTVSPropertyOp24
 70
     1
102
RTVSPropertyOp25
 70
     1
102
RTVSPropertyOp26
 70
     1
102
RTVSPropertyOp27
 70
     1
102
RTVSPropertyOp28
 70
     1
102
RTVSPropertyOp29
 70
     1
102
RTVSPropertyOp30
 70
     1
102
RTVSPropertyOp31
 70
     1
102
RTVSPropertyOp32
 70
     1
102
RTVSPropertyOp33
 70
     1
102
RTVSPropertyOp34
 70
     1
102
RTVSPropertyOp35
 70
     1
102
RTVSPropertyOp36
 70
     1
102
RTVSPropertyOp37
 70
     1
102
RTVSPropertyOp38
 70
     1
102
RTVSPropertyOp39
 70
     1
102
RTVSPropertyOp40
 70
     1
102
RTVSPropertyOp41
 70
     1
102
RTVSPropertyOp42
 70
     1
102
RTVSPropertyOp43
 70
     1
102
RTVSPropertyOp44
 70
     1
102
RTVSPropertyOp45
 70
     1
102
RTVSPropertyOp46
 70
     1
102
RTVSPropertyOp47
 70
     1
102
RTVSPropertyOp48
 70
     1
102
RTVSPropertyOp49
 70
     1
102
RTVSPropertyOp50
 70
     1
102
RTVSPropertyOp51
 70
     0
102
RTVSPropertyOp52
 70
     0
102
RTVSPropertyOp53
 70
     1
102
RTVSPropertyOp54
 70
     1
102
RTVSPropertyOp55
 70
     1
102
RTVSPropertyOp56
 70
     1
102
RTVSPropertyOp57
 70
     1
102
RTVSPropertyOp58
 70
     1
102
RTVSPropertyOp59
 70
     1
102
RTVSPropertyOp60
 70
     1
102
RTVSPropertyOp61
 70
     1
102
RTVSPropertyOp62
 70
     1
  0
XRECORD
  5
72CC9
102
{ACAD_REACTORS
330
72CC8
102
}
330
72CC8
100
AcDbXrecord
280
     1
102
RTVSPost2010Prop28
280
     0
102
RTVSPost2010PropOp28
 70
     1
102
RTVSPost2010Prop29
280
     1
102
RTVSPost2010PropOp29
 70
     1
102
RTVSPost2010Prop30
280
     1
102
RTVSPost2010PropOp30
 70
     1
102
RTVSPost2010Prop31
280
     0
102
RTVSPost2010PropOp31
 70
     1
102
RTVSPost2010Prop32
280
     0
102
RTVSPost2010PropOp32
 70
     1
102
RTVSPost2010Prop33
280
     0
102
RTVSPost2010PropOp33
 70
     1
102
RTVSPost2010Prop34
280
     0
102
RTVSPost2010PropOp34
 70
     1
102
RTVSPost2010Prop35
280
     0
102
RTVSPost2010PropOp35
 70
     1
102
RTVSPost2010Prop36
280
     0
102
RTVSPost2010PropOp36
 70
     1
102
RTVSPost2010Prop37
 90
       50
102
RTVSPost2010PropOp37
 70
     1
102
RTVSPost2010Prop38
140
0.0
102
RTVSPost2010PropOp38
 70
     1
102
RTVSPost2010Prop39
140
1.0
102
RTVSPost2010PropOp39
 70
     1
102
RTVSPost2010Prop40
 90
        0
102
RTVSPost2010PropOp40
 70
     1
102
RTVSPost2010Prop41ColorIndex
 90
       18
102
RTVSPost2010Prop41ColorRGB
 90
        0
102
RTVSPost2010PropOp41
 70
     1
102
RTVSPost2010Prop42
 90
       50
102
RTVSPost2010PropOp42
 70
     1
102
RTVSPost2010Prop43
 90
        3
102
RTVSPost2010PropOp43
 70
     1
102
RTVSPost2010Prop44ColorIndex
 90
        5
102
RTVSPost2010Prop44ColorRGB
 90
      255
102
RTVSPost2010PropOp44
 70
     1
102
RTVSPost2010Prop45
280
     0
102
RTVSPost2010PropOp45
 70
     1
102
RTVSPost2010Prop46
 90
       50
102
RTVSPost2010PropOp46
 70
     1
102
RTVSPost2010Prop47
 90
       50
102
RTVSPost2010PropOp47
 70
     1
102
RTVSPost2010Prop48
 90
       50
102
RTVSPost2010PropOp48
 70
     1
102
RTVSPost2010Prop49
280
     0
102
RTVSPost2010PropOp49
 70
     1
102
RTVSPost2010Prop50
 90
       50
102
RTVSPost2010PropOp50
 70
     1
102
RTVSPost2010Prop51ColorIndex
 90
      256
102
RTVSPost2010Prop51ColorRGB
 90
-16777216
102
RTVSPost2010PropOp51
 70
     0
102
RTVSPost2010Prop52
140
1.0
102
RTVSPost2010PropOp52
 70
     0
102
RTVSPost2010Prop53
 90
        2
102
RTVSPost2010PropOp53
 70
     1
102
RTVSPost2010Prop54
  1
strokes_ogs.tif
102
RTVSPost2010PropOp54
 70
     1
102
RTVSPost2010Prop55
280
     0
102
RTVSPost2010PropOp55
 70
     1
102
RTVSPost2010Prop56
140
1.0
102
RTVSPost2010PropOp56
 70
     1
102
RTVSPost2010Prop57
140
1.0
102
RTVSPost2010PropOp57
 70
     1
102
RTVSPropertyOp0
 70
     1
102
RTVSPropertyOp1
 70
     1
102
RTVSPropertyOp2
 70
     1
102
RTVSPropertyOp3
 70
     1
102
RTVSPropertyOp4
 70
     1
102
RTVSPropertyOp5
 70
     1
102
RTVSPropertyOp6
 70
     1
102
RTVSPropertyOp7
 70
     1
102
RTVSPropertyOp8
 70
     1
102
RTVSPropertyOp9
 70
     1
102
RTVSPropertyOp10
 70
     1
102
RTVSPropertyOp11
 70
     1
102
RTVSPropertyOp12
 70
     1
102
RTVSPropertyOp13
 70
     1
102
RTVSPropertyOp14
 70
     1
102
RTVSPropertyOp15
 70
     1
102
RTVSPropertyOp16
 70
     1
102
RTVSPropertyOp17
 70
     1
102
RTVSPropertyOp18
 70
     1
102
RTVSPropertyOp19
 70
     1
102
RTVSPropertyOp20
 70
     1
102
RTVSPropertyOp21
 70
     1
102
RTVSPropertyOp22
 70
     1
102
RTVSPropertyOp23
 70
     1
102
RTVSPropertyOp24
 70
     1
102
RTVSPropertyOp25
 70
     1
102
RTVSPropertyOp26
 70
     1
102
RTVSPropertyOp27
 70
     1
102
RTVSPropertyOp28
 70
     1
102
RTVSPropertyOp29
 70
     1
102
RTVSPropertyOp30
 70
     1
102
RTVSPropertyOp31
 70
     1
102
RTVSPropertyOp32
 70
     1
102
RTVSPropertyOp33
 70
     1
102
RTVSPropertyOp34
 70
     1
102
RTVSPropertyOp35
 70
     1
102
RTVSPropertyOp36
 70
     1
102
RTVSPropertyOp37
 70
     1
102
RTVSPropertyOp38
 70
     1
102
RTVSPropertyOp39
 70
     1
102
RTVSPropertyOp40
 70
     1
102
RTVSPropertyOp41
 70
     1
102
RTVSPropertyOp42
 70
     1
102
RTVSPropertyOp43
 70
     1
102
RTVSPropertyOp44
 70
     1
102
RTVSPropertyOp45
 70
     1
102
RTVSPropertyOp46
 70
     1
102
RTVSPropertyOp47
 70
     1
102
RTVSPropertyOp48
 70
     1
102
RTVSPropertyOp49
 70
     1
102
RTVSPropertyOp50
 70
     1
102
RTVSPropertyOp51
 70
     0
102
RTVSPropertyOp52
 70
     0
102
RTVSPropertyOp53
 70
     1
102
RTVSPropertyOp54
 70
     1
102
RTVSPropertyOp55
 70
     1
102
RTVSPropertyOp56
 70
     1
102
RTVSPropertyOp57
 70
     1
102
RTVSPropertyOp58
 70
     1
102
RTVSPropertyOp59
 70
     1
102
RTVSPropertyOp60
 70
     1
102
RTVSPropertyOp61
 70
     1
102
RTVSPropertyOp62
 70
     1
  0
XRECORD
  5
72CD9
102
{ACAD_REACTORS
330
72CD8
102
}
330
72CD8
100
AcDbXrecord
280
     1
102
RTVSPost2010Prop28
280
     0
102
RTVSPost2010PropOp28
 70
     0
102
RTVSPost2010Prop29
280
     1
102
RTVSPost2010PropOp29
 70
     0
102
RTVSPost2010Prop30
280
     1
102
RTVSPost2010PropOp30
 70
     0
102
RTVSPost2010Prop31
280
     0
102
RTVSPost2010PropOp31
 70
     0
102
RTVSPost2010Prop32
280
     0
102
RTVSPost2010PropOp32
 70
     0
102
RTVSPost2010Prop33
280
     0
102
RTVSPost2010PropOp33
 70
     0
102
RTVSPost2010Prop34
280
     0
102
RTVSPost2010PropOp34
 70
     0
102
RTVSPost2010Prop35
280
     0
102
RTVSPost2010PropOp35
 70
     0
102
RTVSPost2010Prop36
280
     0
102
RTVSPost2010PropOp36
 70
     0
102
RTVSPost2010Prop37
 90
       50
102
RTVSPost2010PropOp37
 70
     0
102
RTVSPost2010Prop38
140
0.0
102
RTVSPost2010PropOp38
 70
     0
102
RTVSPost2010Prop39
140
1.0
102
RTVSPost2010PropOp39
 70
     0
102
RTVSPost2010Prop40
 90
        0
102
RTVSPost2010PropOp40
 70
     0
102
RTVSPost2010Prop41ColorIndex
 90
       18
102
RTVSPost2010Prop41ColorRGB
 90
        0
102
RTVSPost2010PropOp41
 70
     0
102
RTVSPost2010Prop42
 90
       50
102
RTVSPost2010PropOp42
 70
     0
102
RTVSPost2010Prop43
 90
        3
102
RTVSPost2010PropOp43
 70
     0
102
RTVSPost2010Prop44ColorIndex
 90
        5
102
RTVSPost2010Prop44ColorRGB
 90
      255
102
RTVSPost2010PropOp44
 70
     0
102
RTVSPost2010Prop45
280
     0
102
RTVSPost2010PropOp45
 70
     0
102
RTVSPost2010Prop46
 90
       50
102
RTVSPost2010PropOp46
 70
     0
102
RTVSPost2010Prop47
 90
       50
102
RTVSPost2010PropOp47
 70
     0
102
RTVSPost2010Prop48
 90
       50
102
RTVSPost2010PropOp48
 70
     0
102
RTVSPost2010Prop49
280
     0
102
RTVSPost2010PropOp49
 70
     0
102
RTVSPost2010Prop50
 90
       50
102
RTVSPost2010PropOp50
 70
     0
102
RTVSPost2010Prop51ColorIndex
 90
      256
102
RTVSPost2010Prop51ColorRGB
 90
-16777216
102
RTVSPost2010PropOp51
 70
     0
102
RTVSPost2010Prop52
140
1.0
102
RTVSPost2010PropOp52
 70
     0
102
RTVSPost2010Prop53
 90
        2
102
RTVSPost2010PropOp53
 70
     0
102
RTVSPost2010Prop54
  1
strokes_ogs.tif
102
RTVSPost2010PropOp54
 70
     0
102
RTVSPost2010Prop55
280
     0
102
RTVSPost2010PropOp55
 70
     0
102
RTVSPost2010Prop56
140
1.0
102
RTVSPost2010PropOp56
 70
     0
102
RTVSPost2010Prop57
140
1.0
102
RTVSPost2010PropOp57
 70
     0
102
RTVSPropertyOp0
 70
     0
102
RTVSPropertyOp1
 70
     0
102
RTVSPropertyOp2
 70
     0
102
RTVSPropertyOp3
 70
     0
102
RTVSPropertyOp4
 70
     0
102
RTVSPropertyOp5
 70
     0
102
RTVSPropertyOp6
 70
     0
102
RTVSPropertyOp7
 70
     0
102
RTVSPropertyOp8
 70
     0
102
RTVSPropertyOp9
 70
     0
102
RTVSPropertyOp10
 70
     0
102
RTVSPropertyOp11
 70
     0
102
RTVSPropertyOp12
 70
     0
102
RTVSPropertyOp13
 70
     0
102
RTVSPropertyOp14
 70
     2
102
RTVSPropertyOp15
 70
     0
102
RTVSPropertyOp16
 70
     0
102
RTVSPropertyOp17
 70
     0
102
RTVSPropertyOp18
 70
     0
102
RTVSPropertyOp19
 70
     0
102
RTVSPropertyOp20
 70
     0
102
RTVSPropertyOp21
 70
     0
102
RTVSPropertyOp22
 70
     0
102
RTVSPropertyOp23
 70
     0
102
RTVSPropertyOp24
 70
     0
102
RTVSPropertyOp25
 70
     0
102
RTVSPropertyOp26
 70
     0
102
RTVSPropertyOp27
 70
     0
102
RTVSPropertyOp28
 70
     0
102
RTVSPropertyOp29
 70
     0
102
RTVSPropertyOp30
 70
     0
102
RTVSPropertyOp31
 70
     0
102
RTVSPropertyOp32
 70
     0
102
RTVSPropertyOp33
 70
     0
102
RTVSPropertyOp34
 70
     0
102
RTVSPropertyOp35
 70
     0
102
RTVSPropertyOp36
 70
     0
102
RTVSPropertyOp37
 70
     0
102
RTVSPropertyOp38
 70
     0
102
RTVSPropertyOp39
 70
     0
102
RTVSPropertyOp40
 70
     0
102
RTVSPropertyOp41
 70
     0
102
RTVSPropertyOp42
 70
     0
102
RTVSPropertyOp43
 70
     0
102
RTVSPropertyOp44
 70
     0
102
RTVSPropertyOp45
 70
     0
102
RTVSPropertyOp46
 70
     0
102
RTVSPropertyOp47
 70
     0
102
RTVSPropertyOp48
 70
     0
102
RTVSPropertyOp49
 70
     0
102
RTVSPropertyOp50
 70
     0
102
RTVSPropertyOp51
 70
     0
102
RTVSPropertyOp52
 70
     0
102
RTVSPropertyOp53
 70
     0
102
RTVSPropertyOp54
 70
     0
102
RTVSPropertyOp55
 70
     0
102
RTVSPropertyOp56
 70
     0
102
RTVSPropertyOp57
 70
     0
102
RTVSPropertyOp58
 70
     1
102
RTVSPropertyOp59
 70
     1
102
RTVSPropertyOp60
 70
     1
102
RTVSPropertyOp61
 70
     1
102
RTVSPropertyOp62
 70
     1
  0
XRECORD
  5
72CD1
102
{ACAD_REACTORS
330
72CD0
102
}
330
72CD0
100
AcDbXrecord
280
     1
102
RTVSPost2010Prop28
280
     0
102
RTVSPost2010PropOp28
 70
     1
102
RTVSPost2010Prop29
280
     1
102
RTVSPost2010PropOp29
 70
     1
102
RTVSPost2010Prop30
280
     1
102
RTVSPost2010PropOp30
 70
     1
102
RTVSPost2010Prop31
280
     0
102
RTVSPost2010PropOp31
 70
     1
102
RTVSPost2010Prop32
280
     0
102
RTVSPost2010PropOp32
 70
     1
102
RTVSPost2010Prop33
280
     0
102
RTVSPost2010PropOp33
 70
     1
102
RTVSPost2010Prop34
280
     0
102
RTVSPost2010PropOp34
 70
     1
102
RTVSPost2010Prop35
280
     0
102
RTVSPost2010PropOp35
 70
     1
102
RTVSPost2010Prop36
280
     0
102
RTVSPost2010PropOp36
 70
     1
102
RTVSPost2010Prop37
 90
       50
102
RTVSPost2010PropOp37
 70
     1
102
RTVSPost2010Prop38
140
0.0
102
RTVSPost2010PropOp38
 70
     1
102
RTVSPost2010Prop39
140
1.0
102
RTVSPost2010PropOp39
 70
     1
102
RTVSPost2010Prop40
 90
        0
102
RTVSPost2010PropOp40
 70
     1
102
RTVSPost2010Prop41ColorIndex
 90
       18
102
RTVSPost2010Prop41ColorRGB
 90
        0
102
RTVSPost2010PropOp41
 70
     1
102
RTVSPost2010Prop42
 90
       50
102
RTVSPost2010PropOp42
 70
     1
102
RTVSPost2010Prop43
 90
        3
102
RTVSPost2010PropOp43
 70
     1
102
RTVSPost2010Prop44ColorIndex
 90
        5
102
RTVSPost2010Prop44ColorRGB
 90
      255
102
RTVSPost2010PropOp44
 70
     1
102
RTVSPost2010Prop45
280
     0
102
RTVSPost2010PropOp45
 70
     1
102
RTVSPost2010Prop46
 90
       50
102
RTVSPost2010PropOp46
 70
     1
102
RTVSPost2010Prop47
 90
       50
102
RTVSPost2010PropOp47
 70
     1
102
RTVSPost2010Prop48
 90
       50
102
RTVSPost2010PropOp48
 70
     1
102
RTVSPost2010Prop49
280
     0
102
RTVSPost2010PropOp49
 70
     1
102
RTVSPost2010Prop50
 90
       50
102
RTVSPost2010PropOp50
 70
     1
102
RTVSPost2010Prop51ColorIndex
 90
      256
102
RTVSPost2010Prop51ColorRGB
 90
-16777216
102
RTVSPost2010PropOp51
 70
     0
102
RTVSPost2010Prop52
140
1.0
102
RTVSPost2010PropOp52
 70
     0
102
RTVSPost2010Prop53
 90
        2
102
RTVSPost2010PropOp53
 70
     1
102
RTVSPost2010Prop54
  1
strokes_ogs.tif
102
RTVSPost2010PropOp54
 70
     1
102
RTVSPost2010Prop55
280
     0
102
RTVSPost2010PropOp55
 70
     1
102
RTVSPost2010Prop56
140
1.0
102
RTVSPost2010PropOp56
 70
     1
102
RTVSPost2010Prop57
140
1.0
102
RTVSPost2010PropOp57
 70
     1
102
RTVSPropertyOp0
 70
     1
102
RTVSPropertyOp1
 70
     1
102
RTVSPropertyOp2
 70
     1
102
RTVSPropertyOp3
 70
     1
102
RTVSPropertyOp4
 70
     1
102
RTVSPropertyOp5
 70
     1
102
RTVSPropertyOp6
 70
     1
102
RTVSPropertyOp7
 70
     1
102
RTVSPropertyOp8
 70
     1
102
RTVSPropertyOp9
 70
     1
102
RTVSPropertyOp10
 70
     1
102
RTVSPropertyOp11
 70
     1
102
RTVSPropertyOp12
 70
     1
102
RTVSPropertyOp13
 70
     1
102
RTVSPropertyOp14
 70
     1
102
RTVSPropertyOp15
 70
     1
102
RTVSPropertyOp16
 70
     1
102
RTVSPropertyOp17
 70
     1
102
RTVSPropertyOp18
 70
     1
102
RTVSPropertyOp19
 70
     1
102
RTVSPropertyOp20
 70
     1
102
RTVSPropertyOp21
 70
     1
102
RTVSPropertyOp22
 70
     1
102
RTVSPropertyOp23
 70
     1
102
RTVSPropertyOp24
 70
     1
102
RTVSPropertyOp25
 70
     1
102
RTVSPropertyOp26
 70
     1
102
RTVSPropertyOp27
 70
     1
102
RTVSPropertyOp28
 70
     1
102
RTVSPropertyOp29
 70
     1
102
RTVSPropertyOp30
 70
     1
102
RTVSPropertyOp31
 70
     1
102
RTVSPropertyOp32
 70
     1
102
RTVSPropertyOp33
 70
     1
102
RTVSPropertyOp34
 70
     1
102
RTVSPropertyOp35
 70
     1
102
RTVSPropertyOp36
 70
     1
102
RTVSPropertyOp37
 70
     1
102
RTVSPropertyOp38
 70
     1
102
RTVSPropertyOp39
 70
     1
102
RTVSPropertyOp40
 70
     1
102
RTVSPropertyOp41
 70
     1
102
RTVSPropertyOp42
 70
     1
102
RTVSPropertyOp43
 70
     1
102
RTVSPropertyOp44
 70
     1
102
RTVSPropertyOp45
 70
     1
102
RTVSPropertyOp46
 70
     1
102
RTVSPropertyOp47
 70
     1
102
RTVSPropertyOp48
 70
     1
102
RTVSPropertyOp49
 70
     1
102
RTVSPropertyOp50
 70
     1
102
RTVSPropertyOp51
 70
     0
102
RTVSPropertyOp52
 70
     0
102
RTVSPropertyOp53
 70
     1
102
RTVSPropertyOp54
 70
     1
102
RTVSPropertyOp55
 70
     1
102
RTVSPropertyOp56
 70
     1
102
RTVSPropertyOp57
 70
     1
102
RTVSPropertyOp58
 70
     1
102
RTVSPropertyOp59
 70
     1
102
RTVSPropertyOp60
 70
     1
102
RTVSPropertyOp61
 70
     1
102
RTVSPropertyOp62
 70
     1
  0
XRECORD
  5
72CB5
102
{ACAD_REACTORS
330
72CB4
102
}
330
72CB4
100
AcDbXrecord
280
     1
102
RTVSPost2010Prop28
280
     0
102
RTVSPost2010PropOp28
 70
     1
102
RTVSPost2010Prop29
280
     1
102
RTVSPost2010PropOp29
 70
     1
102
RTVSPost2010Prop30
280
     1
102
RTVSPost2010PropOp30
 70
     1
102
RTVSPost2010Prop31
280
     0
102
RTVSPost2010PropOp31
 70
     1
102
RTVSPost2010Prop32
280
     0
102
RTVSPost2010PropOp32
 70
     1
102
RTVSPost2010Prop33
280
     0
102
RTVSPost2010PropOp33
 70
     1
102
RTVSPost2010Prop34
280
     0
102
RTVSPost2010PropOp34
 70
     1
102
RTVSPost2010Prop35
280
     0
102
RTVSPost2010PropOp35
 70
     1
102
RTVSPost2010Prop36
280
     0
102
RTVSPost2010PropOp36
 70
     1
102
RTVSPost2010Prop37
 90
       50
102
RTVSPost2010PropOp37
 70
     1
102
RTVSPost2010Prop38
140
0.0
102
RTVSPost2010PropOp38
 70
     1
102
RTVSPost2010Prop39
140
1.0
102
RTVSPost2010PropOp39
 70
     1
102
RTVSPost2010Prop40
 90
        0
102
RTVSPost2010PropOp40
 70
     1
102
RTVSPost2010Prop41ColorIndex
 90
       18
102
RTVSPost2010Prop41ColorRGB
 90
        0
102
RTVSPost2010PropOp41
 70
     1
102
RTVSPost2010Prop42
 90
       50
102
RTVSPost2010PropOp42
 70
     1
102
RTVSPost2010Prop43
 90
        3
102
RTVSPost2010PropOp43
 70
     1
102
RTVSPost2010Prop44ColorIndex
 90
        5
102
RTVSPost2010Prop44ColorRGB
 90
      255
102
RTVSPost2010PropOp44
 70
     1
102
RTVSPost2010Prop45
280
     0
102
RTVSPost2010PropOp45
 70
     1
102
RTVSPost2010Prop46
 90
       50
102
RTVSPost2010PropOp46
 70
     1
102
RTVSPost2010Prop47
 90
       50
102
RTVSPost2010PropOp47
 70
     1
102
RTVSPost2010Prop48
 90
       50
102
RTVSPost2010PropOp48
 70
     1
102
RTVSPost2010Prop49
280
     0
102
RTVSPost2010PropOp49
 70
     1
102
RTVSPost2010Prop50
 90
       50
102
RTVSPost2010PropOp50
 70
     1
102
RTVSPost2010Prop51ColorIndex
 90
      256
102
RTVSPost2010Prop51ColorRGB
 90
-16777216
102
RTVSPost2010PropOp51
 70
     0
102
RTVSPost2010Prop52
140
1.0
102
RTVSPost2010PropOp52
 70
     0
102
RTVSPost2010Prop53
 90
        2
102
RTVSPost2010PropOp53
 70
     1
102
RTVSPost2010Prop54
  1
strokes_ogs.tif
102
RTVSPost2010PropOp54
 70
     1
102
RTVSPost2010Prop55
280
     0
102
RTVSPost2010PropOp55
 70
     1
102
RTVSPost2010Prop56
140
1.0
102
RTVSPost2010PropOp56
 70
     1
102
RTVSPost2010Prop57
140
1.0
102
RTVSPost2010PropOp57
 70
     1
102
RTVSPropertyOp0
 70
     1
102
RTVSPropertyOp1
 70
     1
102
RTVSPropertyOp2
 70
     1
102
RTVSPropertyOp3
 70
     1
102
RTVSPropertyOp4
 70
     1
102
RTVSPropertyOp5
 70
     1
102
RTVSPropertyOp6
 70
     1
102
RTVSPropertyOp7
 70
     1
102
RTVSPropertyOp8
 70
     1
102
RTVSPropertyOp9
 70
     1
102
RTVSPropertyOp10
 70
     1
102
RTVSPropertyOp11
 70
     1
102
RTVSPropertyOp12
 70
     1
102
RTVSPropertyOp13
 70
     1
102
RTVSPropertyOp14
 70
     1
102
RTVSPropertyOp15
 70
     1
102
RTVSPropertyOp16
 70
     1
102
RTVSPropertyOp17
 70
     1
102
RTVSPropertyOp18
 70
     1
102
RTVSPropertyOp19
 70
     1
102
RTVSPropertyOp20
 70
     1
102
RTVSPropertyOp21
 70
     1
102
RTVSPropertyOp22
 70
     1
102
RTVSPropertyOp23
 70
     1
102
RTVSPropertyOp24
 70
     1
102
RTVSPropertyOp25
 70
     1
102
RTVSPropertyOp26
 70
     1
102
RTVSPropertyOp27
 70
     1
102
RTVSPropertyOp28
 70
     1
102
RTVSPropertyOp29
 70
     1
102
RTVSPropertyOp30
 70
     1
102
RTVSPropertyOp31
 70
     1
102
RTVSPropertyOp32
 70
     1
102
RTVSPropertyOp33
 70
     1
102
RTVSPropertyOp34
 70
     1
102
RTVSPropertyOp35
 70
     1
102
RTVSPropertyOp36
 70
     1
102
RTVSPropertyOp37
 70
     1
102
RTVSPropertyOp38
 70
     1
102
RTVSPropertyOp39
 70
     1
102
RTVSPropertyOp40
 70
     1
102
RTVSPropertyOp41
 70
     1
102
RTVSPropertyOp42
 70
     1
102
RTVSPropertyOp43
 70
     1
102
RTVSPropertyOp44
 70
     1
102
RTVSPropertyOp45
 70
     1
102
RTVSPropertyOp46
 70
     1
102
RTVSPropertyOp47
 70
     1
102
RTVSPropertyOp48
 70
     1
102
RTVSPropertyOp49
 70
     1
102
RTVSPropertyOp50
 70
     1
102
RTVSPropertyOp51
 70
     0
102
RTVSPropertyOp52
 70
     0
102
RTVSPropertyOp53
 70
     1
102
RTVSPropertyOp54
 70
     1
102
RTVSPropertyOp55
 70
     1
102
RTVSPropertyOp56
 70
     1
102
RTVSPropertyOp57
 70
     1
102
RTVSPropertyOp58
 70
     1
102
RTVSPropertyOp59
 70
     1
102
RTVSPropertyOp60
 70
     1
102
RTVSPropertyOp61
 70
     1
102
RTVSPropertyOp62
 70
     1
  0
XRECORD
  5
72CB7
102
{ACAD_REACTORS
330
72CB6
102
}
330
72CB6
100
AcDbXrecord
280
     1
102
RTVSPost2010Prop28
280
     0
102
RTVSPost2010PropOp28
 70
     1
102
RTVSPost2010Prop29
280
     1
102
RTVSPost2010PropOp29
 70
     1
102
RTVSPost2010Prop30
280
     1
102
RTVSPost2010PropOp30
 70
     1
102
RTVSPost2010Prop31
280
     0
102
RTVSPost2010PropOp31
 70
     1
102
RTVSPost2010Prop32
280
     0
102
RTVSPost2010PropOp32
 70
     1
102
RTVSPost2010Prop33
280
     0
102
RTVSPost2010PropOp33
 70
     1
102
RTVSPost2010Prop34
280
     0
102
RTVSPost2010PropOp34
 70
     1
102
RTVSPost2010Prop35
280
     0
102
RTVSPost2010PropOp35
 70
     1
102
RTVSPost2010Prop36
280
     0
102
RTVSPost2010PropOp36
 70
     1
102
RTVSPost2010Prop37
 90
       50
102
RTVSPost2010PropOp37
 70
     1
102
RTVSPost2010Prop38
140
0.0
102
RTVSPost2010PropOp38
 70
     1
102
RTVSPost2010Prop39
140
1.0
102
RTVSPost2010PropOp39
 70
     1
102
RTVSPost2010Prop40
 90
        0
102
RTVSPost2010PropOp40
 70
     1
102
RTVSPost2010Prop41ColorIndex
 90
       18
102
RTVSPost2010Prop41ColorRGB
 90
        0
102
RTVSPost2010PropOp41
 70
     1
102
RTVSPost2010Prop42
 90
       50
102
RTVSPost2010PropOp42
 70
     1
102
RTVSPost2010Prop43
 90
        3
102
RTVSPost2010PropOp43
 70
     1
102
RTVSPost2010Prop44ColorIndex
 90
        5
102
RTVSPost2010Prop44ColorRGB
 90
      255
102
RTVSPost2010PropOp44
 70
     1
102
RTVSPost2010Prop45
280
     0
102
RTVSPost2010PropOp45
 70
     1
102
RTVSPost2010Prop46
 90
       50
102
RTVSPost2010PropOp46
 70
     1
102
RTVSPost2010Prop47
 90
       50
102
RTVSPost2010PropOp47
 70
     1
102
RTVSPost2010Prop48
 90
       50
102
RTVSPost2010PropOp48
 70
     1
102
RTVSPost2010Prop49
280
     0
102
RTVSPost2010PropOp49
 70
     1
102
RTVSPost2010Prop50
 90
       50
102
RTVSPost2010PropOp50
 70
     1
102
RTVSPost2010Prop51ColorIndex
 90
      256
102
RTVSPost2010Prop51ColorRGB
 90
-16777216
102
RTVSPost2010PropOp51
 70
     0
102
RTVSPost2010Prop52
140
1.0
102
RTVSPost2010PropOp52
 70
     0
102
RTVSPost2010Prop53
 90
        2
102
RTVSPost2010PropOp53
 70
     1
102
RTVSPost2010Prop54
  1
strokes_ogs.tif
102
RTVSPost2010PropOp54
 70
     1
102
RTVSPost2010Prop55
280
     0
102
RTVSPost2010PropOp55
 70
     1
102
RTVSPost2010Prop56
140
1.0
102
RTVSPost2010PropOp56
 70
     1
102
RTVSPost2010Prop57
140
1.0
102
RTVSPost2010PropOp57
 70
     1
102
RTVSPropertyOp0
 70
     1
102
RTVSPropertyOp1
 70
     1
102
RTVSPropertyOp2
 70
     1
102
RTVSPropertyOp3
 70
     1
102
RTVSPropertyOp4
 70
     1
102
RTVSPropertyOp5
 70
     1
102
RTVSPropertyOp6
 70
     1
102
RTVSPropertyOp7
 70
     1
102
RTVSPropertyOp8
 70
     1
102
RTVSPropertyOp9
 70
     1
102
RTVSPropertyOp10
 70
     1
102
RTVSPropertyOp11
 70
     1
102
RTVSPropertyOp12
 70
     1
102
RTVSPropertyOp13
 70
     1
102
RTVSPropertyOp14
 70
     1
102
RTVSPropertyOp15
 70
     1
102
RTVSPropertyOp16
 70
     1
102
RTVSPropertyOp17
 70
     1
102
RTVSPropertyOp18
 70
     1
102
RTVSPropertyOp19
 70
     1
102
RTVSPropertyOp20
 70
     1
102
RTVSPropertyOp21
 70
     1
102
RTVSPropertyOp22
 70
     1
102
RTVSPropertyOp23
 70
     1
102
RTVSPropertyOp24
 70
     1
102
RTVSPropertyOp25
 70
     1
102
RTVSPropertyOp26
 70
     1
102
RTVSPropertyOp27
 70
     1
102
RTVSPropertyOp28
 70
     1
102
RTVSPropertyOp29
 70
     1
102
RTVSPropertyOp30
 70
     1
102
RTVSPropertyOp31
 70
     1
102
RTVSPropertyOp32
 70
     1
102
RTVSPropertyOp33
 70
     1
102
RTVSPropertyOp34
 70
     1
102
RTVSPropertyOp35
 70
     1
102
RTVSPropertyOp36
 70
     1
102
RTVSPropertyOp37
 70
     1
102
RTVSPropertyOp38
 70
     1
102
RTVSPropertyOp39
 70
     1
102
RTVSPropertyOp40
 70
     1
102
RTVSPropertyOp41
 70
     1
102
RTVSPropertyOp42
 70
     1
102
RTVSPropertyOp43
 70
     1
102
RTVSPropertyOp44
 70
     1
102
RTVSPropertyOp45
 70
     1
102
RTVSPropertyOp46
 70
     1
102
RTVSPropertyOp47
 70
     1
102
RTVSPropertyOp48
 70
     1
102
RTVSPropertyOp49
 70
     1
102
RTVSPropertyOp50
 70
     1
102
RTVSPropertyOp51
 70
     0
102
RTVSPropertyOp52
 70
     0
102
RTVSPropertyOp53
 70
     1
102
RTVSPropertyOp54
 70
     1
102
RTVSPropertyOp55
 70
     1
102
RTVSPropertyOp56
 70
     1
102
RTVSPropertyOp57
 70
     1
102
RTVSPropertyOp58
 70
     1
102
RTVSPropertyOp59
 70
     1
102
RTVSPropertyOp60
 70
     1
102
RTVSPropertyOp61
 70
     1
102
RTVSPropertyOp62
 70
     1
  0
XRECORD
  5
72CB9
102
{ACAD_REACTORS
330
72CB8
102
}
330
72CB8
100
AcDbXrecord
280
     1
102
RTVSPost2010Prop28
280
     0
102
RTVSPost2010PropOp28
 70
     1
102
RTVSPost2010Prop29
280
     1
102
RTVSPost2010PropOp29
 70
     1
102
RTVSPost2010Prop30
280
     1
102
RTVSPost2010PropOp30
 70
     1
102
RTVSPost2010Prop31
280
     0
102
RTVSPost2010PropOp31
 70
     1
102
RTVSPost2010Prop32
280
     0
102
RTVSPost2010PropOp32
 70
     1
102
RTVSPost2010Prop33
280
     0
102
RTVSPost2010PropOp33
 70
     1
102
RTVSPost2010Prop34
280
     0
102
RTVSPost2010PropOp34
 70
     1
102
RTVSPost2010Prop35
280
     0
102
RTVSPost2010PropOp35
 70
     1
102
RTVSPost2010Prop36
280
     0
102
RTVSPost2010PropOp36
 70
     1
102
RTVSPost2010Prop37
 90
       50
102
RTVSPost2010PropOp37
 70
     1
102
RTVSPost2010Prop38
140
0.0
102
RTVSPost2010PropOp38
 70
     1
102
RTVSPost2010Prop39
140
1.0
102
RTVSPost2010PropOp39
 70
     1
102
RTVSPost2010Prop40
 90
        0
102
RTVSPost2010PropOp40
 70
     1
102
RTVSPost2010Prop41ColorIndex
 90
       18
102
RTVSPost2010Prop41ColorRGB
 90
        0
102
RTVSPost2010PropOp41
 70
     1
102
RTVSPost2010Prop42
 90
       50
102
RTVSPost2010PropOp42
 70
     1
102
RTVSPost2010Prop43
 90
        3
102
RTVSPost2010PropOp43
 70
     1
102
RTVSPost2010Prop44ColorIndex
 90
        5
102
RTVSPost2010Prop44ColorRGB
 90
      255
102
RTVSPost2010PropOp44
 70
     1
102
RTVSPost2010Prop45
280
     0
102
RTVSPost2010PropOp45
 70
     1
102
RTVSPost2010Prop46
 90
       50
102
RTVSPost2010PropOp46
 70
     1
102
RTVSPost2010Prop47
 90
       50
102
RTVSPost2010PropOp47
 70
     1
102
RTVSPost2010Prop48
 90
       50
102
RTVSPost2010PropOp48
 70
     1
102
RTVSPost2010Prop49
280
     0
102
RTVSPost2010PropOp49
 70
     1
102
RTVSPost2010Prop50
 90
       50
102
RTVSPost2010PropOp50
 70
     1
102
RTVSPost2010Prop51ColorIndex
 90
      256
102
RTVSPost2010Prop51ColorRGB
 90
-16777216
102
RTVSPost2010PropOp51
 70
     0
102
RTVSPost2010Prop52
140
1.0
102
RTVSPost2010PropOp52
 70
     0
102
RTVSPost2010Prop53
 90
        2
102
RTVSPost2010PropOp53
 70
     1
102
RTVSPost2010Prop54
  1
strokes_ogs.tif
102
RTVSPost2010PropOp54
 70
     1
102
RTVSPost2010Prop55
280
     0
102
RTVSPost2010PropOp55
 70
     1
102
RTVSPost2010Prop56
140
1.0
102
RTVSPost2010PropOp56
 70
     1
102
RTVSPost2010Prop57
140
1.0
102
RTVSPost2010PropOp57
 70
     1
102
RTVSPropertyOp0
 70
     1
102
RTVSPropertyOp1
 70
     1
102
RTVSPropertyOp2
 70
     1
102
RTVSPropertyOp3
 70
     1
102
RTVSPropertyOp4
 70
     1
102
RTVSPropertyOp5
 70
     1
102
RTVSPropertyOp6
 70
     1
102
RTVSPropertyOp7
 70
     1
102
RTVSPropertyOp8
 70
     1
102
RTVSPropertyOp9
 70
     1
102
RTVSPropertyOp10
 70
     1
102
RTVSPropertyOp11
 70
     1
102
RTVSPropertyOp12
 70
     1
102
RTVSPropertyOp13
 70
     1
102
RTVSPropertyOp14
 70
     1
102
RTVSPropertyOp15
 70
     1
102
RTVSPropertyOp16
 70
     1
102
RTVSPropertyOp17
 70
     1
102
RTVSPropertyOp18
 70
     1
102
RTVSPropertyOp19
 70
     1
102
RTVSPropertyOp20
 70
     1
102
RTVSPropertyOp21
 70
     1
102
RTVSPropertyOp22
 70
     1
102
RTVSPropertyOp23
 70
     1
102
RTVSPropertyOp24
 70
     1
102
RTVSPropertyOp25
 70
     1
102
RTVSPropertyOp26
 70
     1
102
RTVSPropertyOp27
 70
     1
102
RTVSPropertyOp28
 70
     1
102
RTVSPropertyOp29
 70
     1
102
RTVSPropertyOp30
 70
     1
102
RTVSPropertyOp31
 70
     1
102
RTVSPropertyOp32
 70
     1
102
RTVSPropertyOp33
 70
     1
102
RTVSPropertyOp34
 70
     1
102
RTVSPropertyOp35
 70
     1
102
RTVSPropertyOp36
 70
     1
102
RTVSPropertyOp37
 70
     1
102
RTVSPropertyOp38
 70
     1
102
RTVSPropertyOp39
 70
     1
102
RTVSPropertyOp40
 70
     1
102
RTVSPropertyOp41
 70
     1
102
RTVSPropertyOp42
 70
     1
102
RTVSPropertyOp43
 70
     1
102
RTVSPropertyOp44
 70
     1
102
RTVSPropertyOp45
 70
     1
102
RTVSPropertyOp46
 70
     1
102
RTVSPropertyOp47
 70
     1
102
RTVSPropertyOp48
 70
     1
102
RTVSPropertyOp49
 70
     1
102
RTVSPropertyOp50
 70
     1
102
RTVSPropertyOp51
 70
     0
102
RTVSPropertyOp52
 70
     0
102
RTVSPropertyOp53
 70
     1
102
RTVSPropertyOp54
 70
     1
102
RTVSPropertyOp55
 70
     1
102
RTVSPropertyOp56
 70
     1
102
RTVSPropertyOp57
 70
     1
102
RTVSPropertyOp58
 70
     1
102
RTVSPropertyOp59
 70
     1
102
RTVSPropertyOp60
 70
     1
102
RTVSPropertyOp61
 70
     1
102
RTVSPropertyOp62
 70
     1
  0
XRECORD
  5
72CBB
102
{ACAD_REACTORS
330
72CBA
102
}
330
72CBA
100
AcDbXrecord
280
     1
102
RTVSPost2010Prop28
280
     0
102
RTVSPost2010PropOp28
 70
     1
102
RTVSPost2010Prop29
280
     1
102
RTVSPost2010PropOp29
 70
     1
102
RTVSPost2010Prop30
280
     1
102
RTVSPost2010PropOp30
 70
     1
102
RTVSPost2010Prop31
280
     0
102
RTVSPost2010PropOp31
 70
     1
102
RTVSPost2010Prop32
280
     0
102
RTVSPost2010PropOp32
 70
     1
102
RTVSPost2010Prop33
280
     0
102
RTVSPost2010PropOp33
 70
     1
102
RTVSPost2010Prop34
280
     0
102
RTVSPost2010PropOp34
 70
     1
102
RTVSPost2010Prop35
280
     0
102
RTVSPost2010PropOp35
 70
     1
102
RTVSPost2010Prop36
280
     0
102
RTVSPost2010PropOp36
 70
     1
102
RTVSPost2010Prop37
 90
       50
102
RTVSPost2010PropOp37
 70
     1
102
RTVSPost2010Prop38
140
0.0
102
RTVSPost2010PropOp38
 70
     1
102
RTVSPost2010Prop39
140
1.0
102
RTVSPost2010PropOp39
 70
     1
102
RTVSPost2010Prop40
 90
        0
102
RTVSPost2010PropOp40
 70
     1
102
RTVSPost2010Prop41ColorIndex
 90
       18
102
RTVSPost2010Prop41ColorRGB
 90
        0
102
RTVSPost2010PropOp41
 70
     1
102
RTVSPost2010Prop42
 90
       50
102
RTVSPost2010PropOp42
 70
     1
102
RTVSPost2010Prop43
 90
        3
102
RTVSPost2010PropOp43
 70
     1
102
RTVSPost2010Prop44ColorIndex
 90
        5
102
RTVSPost2010Prop44ColorRGB
 90
      255
102
RTVSPost2010PropOp44
 70
     1
102
RTVSPost2010Prop45
280
     0
102
RTVSPost2010PropOp45
 70
     1
102
RTVSPost2010Prop46
 90
       50
102
RTVSPost2010PropOp46
 70
     1
102
RTVSPost2010Prop47
 90
       50
102
RTVSPost2010PropOp47
 70
     1
102
RTVSPost2010Prop48
 90
       50
102
RTVSPost2010PropOp48
 70
     1
102
RTVSPost2010Prop49
280
     0
102
RTVSPost2010PropOp49
 70
     1
102
RTVSPost2010Prop50
 90
       50
102
RTVSPost2010PropOp50
 70
     1
102
RTVSPost2010Prop51ColorIndex
 90
      256
102
RTVSPost2010Prop51ColorRGB
 90
-16777216
102
RTVSPost2010PropOp51
 70
     0
102
RTVSPost2010Prop52
140
1.0
102
RTVSPost2010PropOp52
 70
     0
102
RTVSPost2010Prop53
 90
        2
102
RTVSPost2010PropOp53
 70
     1
102
RTVSPost2010Prop54
  1
strokes_ogs.tif
102
RTVSPost2010PropOp54
 70
     1
102
RTVSPost2010Prop55
280
     0
102
RTVSPost2010PropOp55
 70
     1
102
RTVSPost2010Prop56
140
1.0
102
RTVSPost2010PropOp56
 70
     1
102
RTVSPost2010Prop57
140
1.0
102
RTVSPost2010PropOp57
 70
     1
102
RTVSPropertyOp0
 70
     1
102
RTVSPropertyOp1
 70
     1
102
RTVSPropertyOp2
 70
     1
102
RTVSPropertyOp3
 70
     1
102
RTVSPropertyOp4
 70
     1
102
RTVSPropertyOp5
 70
     1
102
RTVSPropertyOp6
 70
     1
102
RTVSPropertyOp7
 70
     1
102
RTVSPropertyOp8
 70
     1
102
RTVSPropertyOp9
 70
     1
102
RTVSPropertyOp10
 70
     1
102
RTVSPropertyOp11
 70
     1
102
RTVSPropertyOp12
 70
     1
102
RTVSPropertyOp13
 70
     1
102
RTVSPropertyOp14
 70
     1
102
RTVSPropertyOp15
 70
     1
102
RTVSPropertyOp16
 70
     1
102
RTVSPropertyOp17
 70
     1
102
RTVSPropertyOp18
 70
     1
102
RTVSPropertyOp19
 70
     1
102
RTVSPropertyOp20
 70
     1
102
RTVSPropertyOp21
 70
     1
102
RTVSPropertyOp22
 70
     1
102
RTVSPropertyOp23
 70
     1
102
RTVSPropertyOp24
 70
     1
102
RTVSPropertyOp25
 70
     1
102
RTVSPropertyOp26
 70
     1
102
RTVSPropertyOp27
 70
     1
102
RTVSPropertyOp28
 70
     1
102
RTVSPropertyOp29
 70
     1
102
RTVSPropertyOp30
 70
     1
102
RTVSPropertyOp31
 70
     1
102
RTVSPropertyOp32
 70
     1
102
RTVSPropertyOp33
 70
     1
102
RTVSPropertyOp34
 70
     1
102
RTVSPropertyOp35
 70
     1
102
RTVSPropertyOp36
 70
     1
102
RTVSPropertyOp37
 70
     1
102
RTVSPropertyOp38
 70
     1
102
RTVSPropertyOp39
 70
     1
102
RTVSPropertyOp40
 70
     1
102
RTVSPropertyOp41
 70
     1
102
RTVSPropertyOp42
 70
     1
102
RTVSPropertyOp43
 70
     1
102
RTVSPropertyOp44
 70
     1
102
RTVSPropertyOp45
 70
     1
102
RTVSPropertyOp46
 70
     1
102
RTVSPropertyOp47
 70
     1
102
RTVSPropertyOp48
 70
     1
102
RTVSPropertyOp49
 70
     1
102
RTVSPropertyOp50
 70
     1
102
RTVSPropertyOp51
 70
     0
102
RTVSPropertyOp52
 70
     0
102
RTVSPropertyOp53
 70
     1
102
RTVSPropertyOp54
 70
     1
102
RTVSPropertyOp55
 70
     1
102
RTVSPropertyOp56
 70
     1
102
RTVSPropertyOp57
 70
     1
102
RTVSPropertyOp58
 70
     1
102
RTVSPropertyOp59
 70
     1
102
RTVSPropertyOp60
 70
     1
102
RTVSPropertyOp61
 70
     1
102
RTVSPropertyOp62
 70
     1
  0
XRECORD
  5
72CC1
102
{ACAD_REACTORS
330
72CC0
102
}
330
72CC0
100
AcDbXrecord
280
     1
102
RTVSPost2010Prop28
280
     0
102
RTVSPost2010PropOp28
 70
     1
102
RTVSPost2010Prop29
280
     1
102
RTVSPost2010PropOp29
 70
     1
102
RTVSPost2010Prop30
280
     1
102
RTVSPost2010PropOp30
 70
     1
102
RTVSPost2010Prop31
280
     0
102
RTVSPost2010PropOp31
 70
     1
102
RTVSPost2010Prop32
280
     0
102
RTVSPost2010PropOp32
 70
     1
102
RTVSPost2010Prop33
280
     0
102
RTVSPost2010PropOp33
 70
     1
102
RTVSPost2010Prop34
280
     0
102
RTVSPost2010PropOp34
 70
     1
102
RTVSPost2010Prop35
280
     0
102
RTVSPost2010PropOp35
 70
     1
102
RTVSPost2010Prop36
280
     0
102
RTVSPost2010PropOp36
 70
     1
102
RTVSPost2010Prop37
 90
       50
102
RTVSPost2010PropOp37
 70
     1
102
RTVSPost2010Prop38
140
0.0
102
RTVSPost2010PropOp38
 70
     1
102
RTVSPost2010Prop39
140
1.0
102
RTVSPost2010PropOp39
 70
     1
102
RTVSPost2010Prop40
 90
        0
102
RTVSPost2010PropOp40
 70
     1
102
RTVSPost2010Prop41ColorIndex
 90
       18
102
RTVSPost2010Prop41ColorRGB
 90
        0
102
RTVSPost2010PropOp41
 70
     1
102
RTVSPost2010Prop42
 90
       50
102
RTVSPost2010PropOp42
 70
     1
102
RTVSPost2010Prop43
 90
        3
102
RTVSPost2010PropOp43
 70
     1
102
RTVSPost2010Prop44ColorIndex
 90
        5
102
RTVSPost2010Prop44ColorRGB
 90
      255
102
RTVSPost2010PropOp44
 70
     1
102
RTVSPost2010Prop45
280
     0
102
RTVSPost2010PropOp45
 70
     1
102
RTVSPost2010Prop46
 90
       50
102
RTVSPost2010PropOp46
 70
     1
102
RTVSPost2010Prop47
 90
       50
102
RTVSPost2010PropOp47
 70
     1
102
RTVSPost2010Prop48
 90
       50
102
RTVSPost2010PropOp48
 70
     1
102
RTVSPost2010Prop49
280
     0
102
RTVSPost2010PropOp49
 70
     1
102
RTVSPost2010Prop50
 90
       50
102
RTVSPost2010PropOp50
 70
     1
102
RTVSPost2010Prop51ColorIndex
 90
      256
102
RTVSPost2010Prop51ColorRGB
 90
-16777216
102
RTVSPost2010PropOp51
 70
     0
102
RTVSPost2010Prop52
140
1.0
102
RTVSPost2010PropOp52
 70
     0
102
RTVSPost2010Prop53
 90
        2
102
RTVSPost2010PropOp53
 70
     1
102
RTVSPost2010Prop54
  1
strokes_ogs.tif
102
RTVSPost2010PropOp54
 70
     1
102
RTVSPost2010Prop55
280
     0
102
RTVSPost2010PropOp55
 70
     1
102
RTVSPost2010Prop56
140
1.0
102
RTVSPost2010PropOp56
 70
     1
102
RTVSPost2010Prop57
140
1.0
102
RTVSPost2010PropOp57
 70
     1
102
RTVSPropertyOp0
 70
     1
102
RTVSPropertyOp1
 70
     1
102
RTVSPropertyOp2
 70
     1
102
RTVSPropertyOp3
 70
     1
102
RTVSPropertyOp4
 70
     1
102
RTVSPropertyOp5
 70
     1
102
RTVSPropertyOp6
 70
     1
102
RTVSPropertyOp7
 70
     1
102
RTVSPropertyOp8
 70
     1
102
RTVSPropertyOp9
 70
     1
102
RTVSPropertyOp10
 70
     1
102
RTVSPropertyOp11
 70
     1
102
RTVSPropertyOp12
 70
     1
102
RTVSPropertyOp13
 70
     1
102
RTVSPropertyOp14
 70
     1
102
RTVSPropertyOp15
 70
     1
102
RTVSPropertyOp16
 70
     1
102
RTVSPropertyOp17
 70
     1
102
RTVSPropertyOp18
 70
     1
102
RTVSPropertyOp19
 70
     1
102
RTVSPropertyOp20
 70
     1
102
RTVSPropertyOp21
 70
     1
102
RTVSPropertyOp22
 70
     1
102
RTVSPropertyOp23
 70
     1
102
RTVSPropertyOp24
 70
     1
102
RTVSPropertyOp25
 70
     1
102
RTVSPropertyOp26
 70
     1
102
RTVSPropertyOp27
 70
     1
102
RTVSPropertyOp28
 70
     1
102
RTVSPropertyOp29
 70
     1
102
RTVSPropertyOp30
 70
     1
102
RTVSPropertyOp31
 70
     1
102
RTVSPropertyOp32
 70
     1
102
RTVSPropertyOp33
 70
     1
102
RTVSPropertyOp34
 70
     1
102
RTVSPropertyOp35
 70
     1
102
RTVSPropertyOp36
 70
     1
102
RTVSPropertyOp37
 70
     1
102
RTVSPropertyOp38
 70
     1
102
RTVSPropertyOp39
 70
     1
102
RTVSPropertyOp40
 70
     1
102
RTVSPropertyOp41
 70
     1
102
RTVSPropertyOp42
 70
     1
102
RTVSPropertyOp43
 70
     1
102
RTVSPropertyOp44
 70
     1
102
RTVSPropertyOp45
 70
     1
102
RTVSPropertyOp46
 70
     1
102
RTVSPropertyOp47
 70
     1
102
RTVSPropertyOp48
 70
     1
102
RTVSPropertyOp49
 70
     1
102
RTVSPropertyOp50
 70
     1
102
RTVSPropertyOp51
 70
     0
102
RTVSPropertyOp52
 70
     0
102
RTVSPropertyOp53
 70
     1
102
RTVSPropertyOp54
 70
     1
102
RTVSPropertyOp55
 70
     1
102
RTVSPropertyOp56
 70
     1
102
RTVSPropertyOp57
 70
     1
102
RTVSPropertyOp58
 70
     1
102
RTVSPropertyOp59
 70
     1
102
RTVSPropertyOp60
 70
     1
102
RTVSPropertyOp61
 70
     1
102
RTVSPropertyOp62
 70
     1
  0
XRECORD
  5
72CD5
102
{ACAD_REACTORS
330
72CD4
102
}
330
72CD4
100
AcDbXrecord
280
     1
102
RTVSPost2010Prop28
280
     0
102
RTVSPost2010PropOp28
 70
     0
102
RTVSPost2010Prop29
280
     1
102
RTVSPost2010PropOp29
 70
     0
102
RTVSPost2010Prop30
280
     1
102
RTVSPost2010PropOp30
 70
     0
102
RTVSPost2010Prop31
280
     0
102
RTVSPost2010PropOp31
 70
     0
102
RTVSPost2010Prop32
280
     0
102
RTVSPost2010PropOp32
 70
     0
102
RTVSPost2010Prop33
280
     0
102
RTVSPost2010PropOp33
 70
     0
102
RTVSPost2010Prop34
280
     0
102
RTVSPost2010PropOp34
 70
     0
102
RTVSPost2010Prop35
280
     0
102
RTVSPost2010PropOp35
 70
     0
102
RTVSPost2010Prop36
280
     0
102
RTVSPost2010PropOp36
 70
     0
102
RTVSPost2010Prop37
 90
       50
102
RTVSPost2010PropOp37
 70
     0
102
RTVSPost2010Prop38
140
0.0
102
RTVSPost2010PropOp38
 70
     0
102
RTVSPost2010Prop39
140
1.0
102
RTVSPost2010PropOp39
 70
     0
102
RTVSPost2010Prop40
 90
        0
102
RTVSPost2010PropOp40
 70
     0
102
RTVSPost2010Prop41ColorIndex
 90
       18
102
RTVSPost2010Prop41ColorRGB
 90
        0
102
RTVSPost2010PropOp41
 70
     0
102
RTVSPost2010Prop42
 90
       50
102
RTVSPost2010PropOp42
 70
     0
102
RTVSPost2010Prop43
 90
        3
102
RTVSPost2010PropOp43
 70
     0
102
RTVSPost2010Prop44ColorIndex
 90
        5
102
RTVSPost2010Prop44ColorRGB
 90
      255
102
RTVSPost2010PropOp44
 70
     0
102
RTVSPost2010Prop45
280
     0
102
RTVSPost2010PropOp45
 70
     0
102
RTVSPost2010Prop46
 90
       50
102
RTVSPost2010PropOp46
 70
     0
102
RTVSPost2010Prop47
 90
       50
102
RTVSPost2010PropOp47
 70
     0
102
RTVSPost2010Prop48
 90
       50
102
RTVSPost2010PropOp48
 70
     0
102
RTVSPost2010Prop49
280
     0
102
RTVSPost2010PropOp49
 70
     0
102
RTVSPost2010Prop50
 90
       50
102
RTVSPost2010PropOp50
 70
     0
102
RTVSPost2010Prop51ColorIndex
 90
      256
102
RTVSPost2010Prop51ColorRGB
 90
-16777216
102
RTVSPost2010PropOp51
 70
     0
102
RTVSPost2010Prop52
140
1.0
102
RTVSPost2010PropOp52
 70
     0
102
RTVSPost2010Prop53
 90
        2
102
RTVSPost2010PropOp53
 70
     0
102
RTVSPost2010Prop54
  1
strokes_ogs.tif
102
RTVSPost2010PropOp54
 70
     0
102
RTVSPost2010Prop55
280
     0
102
RTVSPost2010PropOp55
 70
     0
102
RTVSPost2010Prop56
140
1.0
102
RTVSPost2010PropOp56
 70
     0
102
RTVSPost2010Prop57
140
1.0
102
RTVSPost2010PropOp57
 70
     0
102
RTVSPropertyOp0
 70
     0
102
RTVSPropertyOp1
 70
     0
102
RTVSPropertyOp2
 70
     0
102
RTVSPropertyOp3
 70
     0
102
RTVSPropertyOp4
 70
     0
102
RTVSPropertyOp5
 70
     0
102
RTVSPropertyOp6
 70
     0
102
RTVSPropertyOp7
 70
     0
102
RTVSPropertyOp8
 70
     0
102
RTVSPropertyOp9
 70
     0
102
RTVSPropertyOp10
 70
     0
102
RTVSPropertyOp11
 70
     0
102
RTVSPropertyOp12
 70
     0
102
RTVSPropertyOp13
 70
     0
102
RTVSPropertyOp14
 70
     2
102
RTVSPropertyOp15
 70
     0
102
RTVSPropertyOp16
 70
     0
102
RTVSPropertyOp17
 70
     0
102
RTVSPropertyOp18
 70
     0
102
RTVSPropertyOp19
 70
     0
102
RTVSPropertyOp20
 70
     0
102
RTVSPropertyOp21
 70
     0
102
RTVSPropertyOp22
 70
     0
102
RTVSPropertyOp23
 70
     0
102
RTVSPropertyOp24
 70
     0
102
RTVSPropertyOp25
 70
     0
102
RTVSPropertyOp26
 70
     0
102
RTVSPropertyOp27
 70
     0
102
RTVSPropertyOp28
 70
     0
102
RTVSPropertyOp29
 70
     0
102
RTVSPropertyOp30
 70
     0
102
RTVSPropertyOp31
 70
     0
102
RTVSPropertyOp32
 70
     0
102
RTVSPropertyOp33
 70
     0
102
RTVSPropertyOp34
 70
     0
102
RTVSPropertyOp35
 70
     0
102
RTVSPropertyOp36
 70
     0
102
RTVSPropertyOp37
 70
     0
102
RTVSPropertyOp38
 70
     0
102
RTVSPropertyOp39
 70
     0
102
RTVSPropertyOp40
 70
     0
102
RTVSPropertyOp41
 70
     0
102
RTVSPropertyOp42
 70
     0
102
RTVSPropertyOp43
 70
     0
102
RTVSPropertyOp44
 70
     0
102
RTVSPropertyOp45
 70
     0
102
RTVSPropertyOp46
 70
     0
102
RTVSPropertyOp47
 70
     0
102
RTVSPropertyOp48
 70
     0
102
RTVSPropertyOp49
 70
     0
102
RTVSPropertyOp50
 70
     0
102
RTVSPropertyOp51
 70
     0
102
RTVSPropertyOp52
 70
     0
102
RTVSPropertyOp53
 70
     0
102
RTVSPropertyOp54
 70
     0
102
RTVSPropertyOp55
 70
     0
102
RTVSPropertyOp56
 70
     0
102
RTVSPropertyOp57
 70
     0
102
RTVSPropertyOp58
 70
     1
102
RTVSPropertyOp59
 70
     1
102
RTVSPropertyOp60
 70
     1
102
RTVSPropertyOp61
 70
     1
102
RTVSPropertyOp62
 70
     1
  0
XRECORD
  5
72CCF
102
{ACAD_REACTORS
330
72CCE
102
}
330
72CCE
100
AcDbXrecord
280
     1
102
RTVSPost2010Prop28
280
     0
102
RTVSPost2010PropOp28
 70
     1
102
RTVSPost2010Prop29
280
     1
102
RTVSPost2010PropOp29
 70
     1
102
RTVSPost2010Prop30
280
     1
102
RTVSPost2010PropOp30
 70
     1
102
RTVSPost2010Prop31
280
     0
102
RTVSPost2010PropOp31
 70
     1
102
RTVSPost2010Prop32
280
     0
102
RTVSPost2010PropOp32
 70
     1
102
RTVSPost2010Prop33
280
     0
102
RTVSPost2010PropOp33
 70
     1
102
RTVSPost2010Prop34
280
     0
102
RTVSPost2010PropOp34
 70
     1
102
RTVSPost2010Prop35
280
     0
102
RTVSPost2010PropOp35
 70
     1
102
RTVSPost2010Prop36
280
     0
102
RTVSPost2010PropOp36
 70
     1
102
RTVSPost2010Prop37
 90
       50
102
RTVSPost2010PropOp37
 70
     1
102
RTVSPost2010Prop38
140
0.0
102
RTVSPost2010PropOp38
 70
     1
102
RTVSPost2010Prop39
140
1.0
102
RTVSPost2010PropOp39
 70
     1
102
RTVSPost2010Prop40
 90
        0
102
RTVSPost2010PropOp40
 70
     1
102
RTVSPost2010Prop41ColorIndex
 90
       18
102
RTVSPost2010Prop41ColorRGB
 90
        0
102
RTVSPost2010PropOp41
 70
     1
102
RTVSPost2010Prop42
 90
       50
102
RTVSPost2010PropOp42
 70
     1
102
RTVSPost2010Prop43
 90
        3
102
RTVSPost2010PropOp43
 70
     1
102
RTVSPost2010Prop44ColorIndex
 90
        5
102
RTVSPost2010Prop44ColorRGB
 90
      255
102
RTVSPost2010PropOp44
 70
     1
102
RTVSPost2010Prop45
280
     0
102
RTVSPost2010PropOp45
 70
     1
102
RTVSPost2010Prop46
 90
       50
102
RTVSPost2010PropOp46
 70
     1
102
RTVSPost2010Prop47
 90
       50
102
RTVSPost2010PropOp47
 70
     1
102
RTVSPost2010Prop48
 90
       50
102
RTVSPost2010PropOp48
 70
     1
102
RTVSPost2010Prop49
280
     0
102
RTVSPost2010PropOp49
 70
     1
102
RTVSPost2010Prop50
 90
       50
102
RTVSPost2010PropOp50
 70
     1
102
RTVSPost2010Prop51ColorIndex
 90
      256
102
RTVSPost2010Prop51ColorRGB
 90
-16777216
102
RTVSPost2010PropOp51
 70
     0
102
RTVSPost2010Prop52
140
1.0
102
RTVSPost2010PropOp52
 70
     0
102
RTVSPost2010Prop53
 90
        2
102
RTVSPost2010PropOp53
 70
     1
102
RTVSPost2010Prop54
  1
strokes_ogs.tif
102
RTVSPost2010PropOp54
 70
     1
102
RTVSPost2010Prop55
280
     0
102
RTVSPost2010PropOp55
 70
     1
102
RTVSPost2010Prop56
140
1.0
102
RTVSPost2010PropOp56
 70
     1
102
RTVSPost2010Prop57
140
1.0
102
RTVSPost2010PropOp57
 70
     1
102
RTVSPropertyOp0
 70
     1
102
RTVSPropertyOp1
 70
     1
102
RTVSPropertyOp2
 70
     1
102
RTVSPropertyOp3
 70
     1
102
RTVSPropertyOp4
 70
     1
102
RTVSPropertyOp5
 70
     1
102
RTVSPropertyOp6
 70
     1
102
RTVSPropertyOp7
 70
     1
102
RTVSPropertyOp8
 70
     1
102
RTVSPropertyOp9
 70
     1
102
RTVSPropertyOp10
 70
     1
102
RTVSPropertyOp11
 70
     1
102
RTVSPropertyOp12
 70
     1
102
RTVSPropertyOp13
 70
     1
102
RTVSPropertyOp14
 70
     1
102
RTVSPropertyOp15
 70
     1
102
RTVSPropertyOp16
 70
     1
102
RTVSPropertyOp17
 70
     1
102
RTVSPropertyOp18
 70
     1
102
RTVSPropertyOp19
 70
     1
102
RTVSPropertyOp20
 70
     1
102
RTVSPropertyOp21
 70
     1
102
RTVSPropertyOp22
 70
     1
102
RTVSPropertyOp23
 70
     1
102
RTVSPropertyOp24
 70
     1
102
RTVSPropertyOp25
 70
     1
102
RTVSPropertyOp26
 70
     1
102
RTVSPropertyOp27
 70
     1
102
RTVSPropertyOp28
 70
     1
102
RTVSPropertyOp29
 70
     1
102
RTVSPropertyOp30
 70
     1
102
RTVSPropertyOp31
 70
     1
102
RTVSPropertyOp32
 70
     1
102
RTVSPropertyOp33
 70
     1
102
RTVSPropertyOp34
 70
     1
102
RTVSPropertyOp35
 70
     1
102
RTVSPropertyOp36
 70
     1
102
RTVSPropertyOp37
 70
     1
102
RTVSPropertyOp38
 70
     1
102
RTVSPropertyOp39
 70
     1
102
RTVSPropertyOp40
 70
     1
102
RTVSPropertyOp41
 70
     1
102
RTVSPropertyOp42
 70
     1
102
RTVSPropertyOp43
 70
     1
102
RTVSPropertyOp44
 70
     1
102
RTVSPropertyOp45
 70
     1
102
RTVSPropertyOp46
 70
     1
102
RTVSPropertyOp47
 70
     1
102
RTVSPropertyOp48
 70
     1
102
RTVSPropertyOp49
 70
     1
102
RTVSPropertyOp50
 70
     1
102
RTVSPropertyOp51
 70
     0
102
RTVSPropertyOp52
 70
     0
102
RTVSPropertyOp53
 70
     1
102
RTVSPropertyOp54
 70
     1
102
RTVSPropertyOp55
 70
     1
102
RTVSPropertyOp56
 70
     1
102
RTVSPropertyOp57
 70
     1
102
RTVSPropertyOp58
 70
     1
102
RTVSPropertyOp59
 70
     1
102
RTVSPropertyOp60
 70
     1
102
RTVSPropertyOp61
 70
     1
102
RTVSPropertyOp62
 70
     1
  0
XRECORD
  5
72CD7
102
{ACAD_REACTORS
330
72CD6
102
}
330
72CD6
100
AcDbXrecord
280
     1
102
RTVSPost2010Prop28
280
     0
102
RTVSPost2010PropOp28
 70
     0
102
RTVSPost2010Prop29
280
     1
102
RTVSPost2010PropOp29
 70
     0
102
RTVSPost2010Prop30
280
     1
102
RTVSPost2010PropOp30
 70
     0
102
RTVSPost2010Prop31
280
     0
102
RTVSPost2010PropOp31
 70
     0
102
RTVSPost2010Prop32
280
     0
102
RTVSPost2010PropOp32
 70
     0
102
RTVSPost2010Prop33
280
     0
102
RTVSPost2010PropOp33
 70
     0
102
RTVSPost2010Prop34
280
     0
102
RTVSPost2010PropOp34
 70
     0
102
RTVSPost2010Prop35
280
     0
102
RTVSPost2010PropOp35
 70
     0
102
RTVSPost2010Prop36
280
     0
102
RTVSPost2010PropOp36
 70
     0
102
RTVSPost2010Prop37
 90
       50
102
RTVSPost2010PropOp37
 70
     0
102
RTVSPost2010Prop38
140
0.0
102
RTVSPost2010PropOp38
 70
     0
102
RTVSPost2010Prop39
140
1.0
102
RTVSPost2010PropOp39
 70
     0
102
RTVSPost2010Prop40
 90
        0
102
RTVSPost2010PropOp40
 70
     0
102
RTVSPost2010Prop41ColorIndex
 90
       18
102
RTVSPost2010Prop41ColorRGB
 90
        0
102
RTVSPost2010PropOp41
 70
     0
102
RTVSPost2010Prop42
 90
       50
102
RTVSPost2010PropOp42
 70
     0
102
RTVSPost2010Prop43
 90
        3
102
RTVSPost2010PropOp43
 70
     0
102
RTVSPost2010Prop44ColorIndex
 90
        5
102
RTVSPost2010Prop44ColorRGB
 90
      255
102
RTVSPost2010PropOp44
 70
     0
102
RTVSPost2010Prop45
280
     0
102
RTVSPost2010PropOp45
 70
     0
102
RTVSPost2010Prop46
 90
       50
102
RTVSPost2010PropOp46
 70
     0
102
RTVSPost2010Prop47
 90
       50
102
RTVSPost2010PropOp47
 70
     0
102
RTVSPost2010Prop48
 90
       50
102
RTVSPost2010PropOp48
 70
     0
102
RTVSPost2010Prop49
280
     0
102
RTVSPost2010PropOp49
 70
     0
102
RTVSPost2010Prop50
 90
       50
102
RTVSPost2010PropOp50
 70
     0
102
RTVSPost2010Prop51ColorIndex
 90
      256
102
RTVSPost2010Prop51ColorRGB
 90
-16777216
102
RTVSPost2010PropOp51
 70
     0
102
RTVSPost2010Prop52
140
1.0
102
RTVSPost2010PropOp52
 70
     0
102
RTVSPost2010Prop53
 90
        2
102
RTVSPost2010PropOp53
 70
     0
102
RTVSPost2010Prop54
  1
strokes_ogs.tif
102
RTVSPost2010PropOp54
 70
     0
102
RTVSPost2010Prop55
280
     0
102
RTVSPost2010PropOp55
 70
     0
102
RTVSPost2010Prop56
140
1.0
102
RTVSPost2010PropOp56
 70
     0
102
RTVSPost2010Prop57
140
1.0
102
RTVSPost2010PropOp57
 70
     0
102
RTVSPropertyOp0
 70
     0
102
RTVSPropertyOp1
 70
     0
102
RTVSPropertyOp2
 70
     0
102
RTVSPropertyOp3
 70
     0
102
RTVSPropertyOp4
 70
     0
102
RTVSPropertyOp5
 70
     0
102
RTVSPropertyOp6
 70
     0
102
RTVSPropertyOp7
 70
     0
102
RTVSPropertyOp8
 70
     0
102
RTVSPropertyOp9
 70
     0
102
RTVSPropertyOp10
 70
     0
102
RTVSPropertyOp11
 70
     0
102
RTVSPropertyOp12
 70
     0
102
RTVSPropertyOp13
 70
     0
102
RTVSPropertyOp14
 70
     2
102
RTVSPropertyOp15
 70
     0
102
RTVSPropertyOp16
 70
     0
102
RTVSPropertyOp17
 70
     0
102
RTVSPropertyOp18
 70
     0
102
RTVSPropertyOp19
 70
     0
102
RTVSPropertyOp20
 70
     0
102
RTVSPropertyOp21
 70
     0
102
RTVSPropertyOp22
 70
     0
102
RTVSPropertyOp23
 70
     0
102
RTVSPropertyOp24
 70
     0
102
RTVSPropertyOp25
 70
     0
102
RTVSPropertyOp26
 70
     0
102
RTVSPropertyOp27
 70
     0
102
RTVSPropertyOp28
 70
     0
102
RTVSPropertyOp29
 70
     0
102
RTVSPropertyOp30
 70
     0
102
RTVSPropertyOp31
 70
     0
102
RTVSPropertyOp32
 70
     0
102
RTVSPropertyOp33
 70
     0
102
RTVSPropertyOp34
 70
     0
102
RTVSPropertyOp35
 70
     0
102
RTVSPropertyOp36
 70
     0
102
RTVSPropertyOp37
 70
     0
102
RTVSPropertyOp38
 70
     0
102
RTVSPropertyOp39
 70
     0
102
RTVSPropertyOp40
 70
     0
102
RTVSPropertyOp41
 70
     0
102
RTVSPropertyOp42
 70
     0
102
RTVSPropertyOp43
 70
     0
102
RTVSPropertyOp44
 70
     0
102
RTVSPropertyOp45
 70
     0
102
RTVSPropertyOp46
 70
     0
102
RTVSPropertyOp47
 70
     0
102
RTVSPropertyOp48
 70
     0
102
RTVSPropertyOp49
 70
     0
102
RTVSPropertyOp50
 70
     0
102
RTVSPropertyOp51
 70
     0
102
RTVSPropertyOp52
 70
     0
102
RTVSPropertyOp53
 70
     0
102
RTVSPropertyOp54
 70
     0
102
RTVSPropertyOp55
 70
     0
102
RTVSPropertyOp56
 70
     0
102
RTVSPropertyOp57
 70
     0
102
RTVSPropertyOp58
 70
     1
102
RTVSPropertyOp59
 70
     1
102
RTVSPropertyOp60
 70
     1
102
RTVSPropertyOp61
 70
     1
102
RTVSPropertyOp62
 70
     1
  0
XRECORD
  5
72CC5
102
{ACAD_REACTORS
330
72CC4
102
}
330
72CC4
100
AcDbXrecord
280
     1
102
RTVSPost2010Prop28
280
     0
102
RTVSPost2010PropOp28
 70
     1
102
RTVSPost2010Prop29
280
     1
102
RTVSPost2010PropOp29
 70
     1
102
RTVSPost2010Prop30
280
     1
102
RTVSPost2010PropOp30
 70
     1
102
RTVSPost2010Prop31
280
     0
102
RTVSPost2010PropOp31
 70
     1
102
RTVSPost2010Prop32
280
     0
102
RTVSPost2010PropOp32
 70
     1
102
RTVSPost2010Prop33
280
     0
102
RTVSPost2010PropOp33
 70
     1
102
RTVSPost2010Prop34
280
     0
102
RTVSPost2010PropOp34
 70
     1
102
RTVSPost2010Prop35
280
     0
102
RTVSPost2010PropOp35
 70
     1
102
RTVSPost2010Prop36
280
     0
102
RTVSPost2010PropOp36
 70
     1
102
RTVSPost2010Prop37
 90
       50
102
RTVSPost2010PropOp37
 70
     1
102
RTVSPost2010Prop38
140
0.0
102
RTVSPost2010PropOp38
 70
     1
102
RTVSPost2010Prop39
140
1.0
102
RTVSPost2010PropOp39
 70
     1
102
RTVSPost2010Prop40
 90
        0
102
RTVSPost2010PropOp40
 70
     1
102
RTVSPost2010Prop41ColorIndex
 90
       18
102
RTVSPost2010Prop41ColorRGB
 90
        0
102
RTVSPost2010PropOp41
 70
     1
102
RTVSPost2010Prop42
 90
       50
102
RTVSPost2010PropOp42
 70
     1
102
RTVSPost2010Prop43
 90
        3
102
RTVSPost2010PropOp43
 70
     1
102
RTVSPost2010Prop44ColorIndex
 90
        5
102
RTVSPost2010Prop44ColorRGB
 90
      255
102
RTVSPost2010PropOp44
 70
     1
102
RTVSPost2010Prop45
280
     0
102
RTVSPost2010PropOp45
 70
     1
102
RTVSPost2010Prop46
 90
       50
102
RTVSPost2010PropOp46
 70
     1
102
RTVSPost2010Prop47
 90
       50
102
RTVSPost2010PropOp47
 70
     1
102
RTVSPost2010Prop48
 90
       50
102
RTVSPost2010PropOp48
 70
     1
102
RTVSPost2010Prop49
280
     0
102
RTVSPost2010PropOp49
 70
     1
102
RTVSPost2010Prop50
 90
       50
102
RTVSPost2010PropOp50
 70
     1
102
RTVSPost2010Prop51ColorIndex
 90
      256
102
RTVSPost2010Prop51ColorRGB
 90
-16777216
102
RTVSPost2010PropOp51
 70
     0
102
RTVSPost2010Prop52
140
1.0
102
RTVSPost2010PropOp52
 70
     0
102
RTVSPost2010Prop53
 90
        2
102
RTVSPost2010PropOp53
 70
     1
102
RTVSPost2010Prop54
  1
strokes_ogs.tif
102
RTVSPost2010PropOp54
 70
     1
102
RTVSPost2010Prop55
280
     0
102
RTVSPost2010PropOp55
 70
     1
102
RTVSPost2010Prop56
140
1.0
102
RTVSPost2010PropOp56
 70
     1
102
RTVSPost2010Prop57
140
1.0
102
RTVSPost2010PropOp57
 70
     1
102
RTVSPropertyOp0
 70
     1
102
RTVSPropertyOp1
 70
     1
102
RTVSPropertyOp2
 70
     1
102
RTVSPropertyOp3
 70
     1
102
RTVSPropertyOp4
 70
     1
102
RTVSPropertyOp5
 70
     1
102
RTVSPropertyOp6
 70
     1
102
RTVSPropertyOp7
 70
     1
102
RTVSPropertyOp8
 70
     1
102
RTVSPropertyOp9
 70
     1
102
RTVSPropertyOp10
 70
     1
102
RTVSPropertyOp11
 70
     1
102
RTVSPropertyOp12
 70
     1
102
RTVSPropertyOp13
 70
     1
102
RTVSPropertyOp14
 70
     1
102
RTVSPropertyOp15
 70
     1
102
RTVSPropertyOp16
 70
     1
102
RTVSPropertyOp17
 70
     1
102
RTVSPropertyOp18
 70
     1
102
RTVSPropertyOp19
 70
     1
102
RTVSPropertyOp20
 70
     1
102
RTVSPropertyOp21
 70
     1
102
RTVSPropertyOp22
 70
     1
102
RTVSPropertyOp23
 70
     1
102
RTVSPropertyOp24
 70
     1
102
RTVSPropertyOp25
 70
     1
102
RTVSPropertyOp26
 70
     1
102
RTVSPropertyOp27
 70
     1
102
RTVSPropertyOp28
 70
     1
102
RTVSPropertyOp29
 70
     1
102
RTVSPropertyOp30
 70
     1
102
RTVSPropertyOp31
 70
     1
102
RTVSPropertyOp32
 70
     1
102
RTVSPropertyOp33
 70
     1
102
RTVSPropertyOp34
 70
     1
102
RTVSPropertyOp35
 70
     1
102
RTVSPropertyOp36
 70
     1
102
RTVSPropertyOp37
 70
     1
102
RTVSPropertyOp38
 70
     1
102
RTVSPropertyOp39
 70
     1
102
RTVSPropertyOp40
 70
     1
102
RTVSPropertyOp41
 70
     1
102
RTVSPropertyOp42
 70
     1
102
RTVSPropertyOp43
 70
     1
102
RTVSPropertyOp44
 70
     1
102
RTVSPropertyOp45
 70
     1
102
RTVSPropertyOp46
 70
     1
102
RTVSPropertyOp47
 70
     1
102
RTVSPropertyOp48
 70
     1
102
RTVSPropertyOp49
 70
     1
102
RTVSPropertyOp50
 70
     1
102
RTVSPropertyOp51
 70
     0
102
RTVSPropertyOp52
 70
     0
102
RTVSPropertyOp53
 70
     1
102
RTVSPropertyOp54
 70
     1
102
RTVSPropertyOp55
 70
     1
102
RTVSPropertyOp56
 70
     1
102
RTVSPropertyOp57
 70
     1
102
RTVSPropertyOp58
 70
     1
102
RTVSPropertyOp59
 70
     1
102
RTVSPropertyOp60
 70
     1
102
RTVSPropertyOp61
 70
     1
102
RTVSPropertyOp62
 70
     1
  0
XRECORD
  5
72CE3
102
{ACAD_REACTORS
330
72CE2
102
}
330
72CE2
100
AcDbXrecord
280
     1
102
RTVSPost2010Prop28
280
     0
102
RTVSPost2010PropOp28
 70
     1
102
RTVSPost2010Prop29
280
     1
102
RTVSPost2010PropOp29
 70
     1
102
RTVSPost2010Prop30
280
     1
102
RTVSPost2010PropOp30
 70
     1
102
RTVSPost2010Prop31
280
     0
102
RTVSPost2010PropOp31
 70
     1
102
RTVSPost2010Prop32
280
     0
102
RTVSPost2010PropOp32
 70
     1
102
RTVSPost2010Prop33
280
     0
102
RTVSPost2010PropOp33
 70
     1
102
RTVSPost2010Prop34
280
     0
102
RTVSPost2010PropOp34
 70
     1
102
RTVSPost2010Prop35
280
     0
102
RTVSPost2010PropOp35
 70
     1
102
RTVSPost2010Prop36
280
     0
102
RTVSPost2010PropOp36
 70
     1
102
RTVSPost2010Prop37
 90
       50
102
RTVSPost2010PropOp37
 70
     1
102
RTVSPost2010Prop38
140
0.0
102
RTVSPost2010PropOp38
 70
     1
102
RTVSPost2010Prop39
140
1.0
102
RTVSPost2010PropOp39
 70
     1
102
RTVSPost2010Prop40
 90
        0
102
RTVSPost2010PropOp40
 70
     1
102
RTVSPost2010Prop41ColorIndex
 90
       18
102
RTVSPost2010Prop41ColorRGB
 90
        0
102
RTVSPost2010PropOp41
 70
     1
102
RTVSPost2010Prop42
 90
       50
102
RTVSPost2010PropOp42
 70
     1
102
RTVSPost2010Prop43
 90
        3
102
RTVSPost2010PropOp43
 70
     1
102
RTVSPost2010Prop44ColorIndex
 90
        5
102
RTVSPost2010Prop44ColorRGB
 90
      255
102
RTVSPost2010PropOp44
 70
     1
102
RTVSPost2010Prop45
280
     0
102
RTVSPost2010PropOp45
 70
     1
102
RTVSPost2010Prop46
 90
       50
102
RTVSPost2010PropOp46
 70
     1
102
RTVSPost2010Prop47
 90
       50
102
RTVSPost2010PropOp47
 70
     1
102
RTVSPost2010Prop48
 90
       50
102
RTVSPost2010PropOp48
 70
     1
102
RTVSPost2010Prop49
280
     0
102
RTVSPost2010PropOp49
 70
     1
102
RTVSPost2010Prop50
 90
       50
102
RTVSPost2010PropOp50
 70
     1
102
RTVSPost2010Prop51ColorIndex
 90
      256
102
RTVSPost2010Prop51ColorRGB
 90
-16777216
102
RTVSPost2010PropOp51
 70
     0
102
RTVSPost2010Prop52
140
1.0
102
RTVSPost2010PropOp52
 70
     0
102
RTVSPost2010Prop53
 90
        2
102
RTVSPost2010PropOp53
 70
     1
102
RTVSPost2010Prop54
  1
strokes_ogs.tif
102
RTVSPost2010PropOp54
 70
     1
102
RTVSPost2010Prop55
280
     0
102
RTVSPost2010PropOp55
 70
     1
102
RTVSPost2010Prop56
140
1.0
102
RTVSPost2010PropOp56
 70
     1
102
RTVSPost2010Prop57
140
1.0
102
RTVSPost2010PropOp57
 70
     1
102
RTVSPropertyOp0
 70
     1
102
RTVSPropertyOp1
 70
     1
102
RTVSPropertyOp2
 70
     1
102
RTVSPropertyOp3
 70
     1
102
RTVSPropertyOp4
 70
     1
102
RTVSPropertyOp5
 70
     1
102
RTVSPropertyOp6
 70
     1
102
RTVSPropertyOp7
 70
     1
102
RTVSPropertyOp8
 70
     1
102
RTVSPropertyOp9
 70
     1
102
RTVSPropertyOp10
 70
     1
102
RTVSPropertyOp11
 70
     1
102
RTVSPropertyOp12
 70
     1
102
RTVSPropertyOp13
 70
     1
102
RTVSPropertyOp14
 70
     1
102
RTVSPropertyOp15
 70
     1
102
RTVSPropertyOp16
 70
     1
102
RTVSPropertyOp17
 70
     1
102
RTVSPropertyOp18
 70
     1
102
RTVSPropertyOp19
 70
     1
102
RTVSPropertyOp20
 70
     1
102
RTVSPropertyOp21
 70
     1
102
RTVSPropertyOp22
 70
     1
102
RTVSPropertyOp23
 70
     1
102
RTVSPropertyOp24
 70
     1
102
RTVSPropertyOp25
 70
     1
102
RTVSPropertyOp26
 70
     1
102
RTVSPropertyOp27
 70
     1
102
RTVSPropertyOp28
 70
     1
102
RTVSPropertyOp29
 70
     1
102
RTVSPropertyOp30
 70
     1
102
RTVSPropertyOp31
 70
     1
102
RTVSPropertyOp32
 70
     1
102
RTVSPropertyOp33
 70
     1
102
RTVSPropertyOp34
 70
     1
102
RTVSPropertyOp35
 70
     1
102
RTVSPropertyOp36
 70
     1
102
RTVSPropertyOp37
 70
     1
102
RTVSPropertyOp38
 70
     1
102
RTVSPropertyOp39
 70
     1
102
RTVSPropertyOp40
 70
     1
102
RTVSPropertyOp41
 70
     1
102
RTVSPropertyOp42
 70
     1
102
RTVSPropertyOp43
 70
     1
102
RTVSPropertyOp44
 70
     1
102
RTVSPropertyOp45
 70
     1
102
RTVSPropertyOp46
 70
     1
102
RTVSPropertyOp47
 70
     1
102
RTVSPropertyOp48
 70
     1
102
RTVSPropertyOp49
 70
     1
102
RTVSPropertyOp50
 70
     1
102
RTVSPropertyOp51
 70
     0
102
RTVSPropertyOp52
 70
     0
102
RTVSPropertyOp53
 70
     1
102
RTVSPropertyOp54
 70
     1
102
RTVSPropertyOp55
 70
     1
102
RTVSPropertyOp56
 70
     1
102
RTVSPropertyOp57
 70
     1
102
RTVSPropertyOp58
 70
     1
102
RTVSPropertyOp59
 70
     1
102
RTVSPropertyOp60
 70
     1
102
RTVSPropertyOp61
 70
     1
102
RTVSPropertyOp62
 70
     1
  0
XRECORD
  5
72CE1
102
{ACAD_REACTORS
330
72CE0
102
}
330
72CE0
100
AcDbXrecord
280
     1
102
RTVSPost2010Prop28
280
     0
102
RTVSPost2010PropOp28
 70
     1
102
RTVSPost2010Prop29
280
     1
102
RTVSPost2010PropOp29
 70
     1
102
RTVSPost2010Prop30
280
     1
102
RTVSPost2010PropOp30
 70
     1
102
RTVSPost2010Prop31
280
     0
102
RTVSPost2010PropOp31
 70
     1
102
RTVSPost2010Prop32
280
     0
102
RTVSPost2010PropOp32
 70
     1
102
RTVSPost2010Prop33
280
     0
102
RTVSPost2010PropOp33
 70
     1
102
RTVSPost2010Prop34
280
     0
102
RTVSPost2010PropOp34
 70
     1
102
RTVSPost2010Prop35
280
     0
102
RTVSPost2010PropOp35
 70
     1
102
RTVSPost2010Prop36
280
     0
102
RTVSPost2010PropOp36
 70
     1
102
RTVSPost2010Prop37
 90
       50
102
RTVSPost2010PropOp37
 70
     1
102
RTVSPost2010Prop38
140
0.0
102
RTVSPost2010PropOp38
 70
     1
102
RTVSPost2010Prop39
140
1.0
102
RTVSPost2010PropOp39
 70
     1
102
RTVSPost2010Prop40
 90
        0
102
RTVSPost2010PropOp40
 70
     1
102
RTVSPost2010Prop41ColorIndex
 90
       18
102
RTVSPost2010Prop41ColorRGB
 90
        0
102
RTVSPost2010PropOp41
 70
     1
102
RTVSPost2010Prop42
 90
       50
102
RTVSPost2010PropOp42
 70
     1
102
RTVSPost2010Prop43
 90
        3
102
RTVSPost2010PropOp43
 70
     1
102
RTVSPost2010Prop44ColorIndex
 90
        5
102
RTVSPost2010Prop44ColorRGB
 90
      255
102
RTVSPost2010PropOp44
 70
     1
102
RTVSPost2010Prop45
280
     0
102
RTVSPost2010PropOp45
 70
     1
102
RTVSPost2010Prop46
 90
       50
102
RTVSPost2010PropOp46
 70
     1
102
RTVSPost2010Prop47
 90
       50
102
RTVSPost2010PropOp47
 70
     1
102
RTVSPost2010Prop48
 90
       50
102
RTVSPost2010PropOp48
 70
     1
102
RTVSPost2010Prop49
280
     0
102
RTVSPost2010PropOp49
 70
     1
102
RTVSPost2010Prop50
 90
       50
102
RTVSPost2010PropOp50
 70
     1
102
RTVSPost2010Prop51ColorIndex
 90
      256
102
RTVSPost2010Prop51ColorRGB
 90
-16777216
102
RTVSPost2010PropOp51
 70
     0
102
RTVSPost2010Prop52
140
1.0
102
RTVSPost2010PropOp52
 70
     0
102
RTVSPost2010Prop53
 90
        2
102
RTVSPost2010PropOp53
 70
     1
102
RTVSPost2010Prop54
  1
strokes_ogs.tif
102
RTVSPost2010PropOp54
 70
     1
102
RTVSPost2010Prop55
280
     0
102
RTVSPost2010PropOp55
 70
     1
102
RTVSPost2010Prop56
140
1.0
102
RTVSPost2010PropOp56
 70
     1
102
RTVSPost2010Prop57
140
1.0
102
RTVSPost2010PropOp57
 70
     1
102
RTVSPropertyOp0
 70
     1
102
RTVSPropertyOp1
 70
     1
102
RTVSPropertyOp2
 70
     1
102
RTVSPropertyOp3
 70
     1
102
RTVSPropertyOp4
 70
     1
102
RTVSPropertyOp5
 70
     1
102
RTVSPropertyOp6
 70
     1
102
RTVSPropertyOp7
 70
     1
102
RTVSPropertyOp8
 70
     1
102
RTVSPropertyOp9
 70
     1
102
RTVSPropertyOp10
 70
     1
102
RTVSPropertyOp11
 70
     1
102
RTVSPropertyOp12
 70
     1
102
RTVSPropertyOp13
 70
     1
102
RTVSPropertyOp14
 70
     1
102
RTVSPropertyOp15
 70
     1
102
RTVSPropertyOp16
 70
     1
102
RTVSPropertyOp17
 70
     1
102
RTVSPropertyOp18
 70
     1
102
RTVSPropertyOp19
 70
     1
102
RTVSPropertyOp20
 70
     1
102
RTVSPropertyOp21
 70
     1
102
RTVSPropertyOp22
 70
     1
102
RTVSPropertyOp23
 70
     1
102
RTVSPropertyOp24
 70
     1
102
RTVSPropertyOp25
 70
     1
102
RTVSPropertyOp26
 70
     1
102
RTVSPropertyOp27
 70
     1
102
RTVSPropertyOp28
 70
     1
102
RTVSPropertyOp29
 70
     1
102
RTVSPropertyOp30
 70
     1
102
RTVSPropertyOp31
 70
     1
102
RTVSPropertyOp32
 70
     1
102
RTVSPropertyOp33
 70
     1
102
RTVSPropertyOp34
 70
     1
102
RTVSPropertyOp35
 70
     1
102
RTVSPropertyOp36
 70
     1
102
RTVSPropertyOp37
 70
     1
102
RTVSPropertyOp38
 70
     1
102
RTVSPropertyOp39
 70
     1
102
RTVSPropertyOp40
 70
     1
102
RTVSPropertyOp41
 70
     1
102
RTVSPropertyOp42
 70
     1
102
RTVSPropertyOp43
 70
     1
102
RTVSPropertyOp44
 70
     1
102
RTVSPropertyOp45
 70
     1
102
RTVSPropertyOp46
 70
     1
102
RTVSPropertyOp47
 70
     1
102
RTVSPropertyOp48
 70
     1
102
RTVSPropertyOp49
 70
     1
102
RTVSPropertyOp50
 70
     1
102
RTVSPropertyOp51
 70
     0
102
RTVSPropertyOp52
 70
     0
102
RTVSPropertyOp53
 70
     1
102
RTVSPropertyOp54
 70
     1
102
RTVSPropertyOp55
 70
     1
102
RTVSPropertyOp56
 70
     1
102
RTVSPropertyOp57
 70
     1
102
RTVSPropertyOp58
 70
     1
102
RTVSPropertyOp59
 70
     1
102
RTVSPropertyOp60
 70
     1
102
RTVSPropertyOp61
 70
     1
102
RTVSPropertyOp62
 70
     1
  0
XRECORD
  5
72CDB
102
{ACAD_REACTORS
330
72CDA
102
}
330
72CDA
100
AcDbXrecord
280
     1
102
RTVSPost2010Prop28
280
     0
102
RTVSPost2010PropOp28
 70
     1
102
RTVSPost2010Prop29
280
     1
102
RTVSPost2010PropOp29
 70
     1
102
RTVSPost2010Prop30
280
     1
102
RTVSPost2010PropOp30
 70
     1
102
RTVSPost2010Prop31
280
     0
102
RTVSPost2010PropOp31
 70
     1
102
RTVSPost2010Prop32
280
     0
102
RTVSPost2010PropOp32
 70
     1
102
RTVSPost2010Prop33
280
     0
102
RTVSPost2010PropOp33
 70
     1
102
RTVSPost2010Prop34
280
     0
102
RTVSPost2010PropOp34
 70
     1
102
RTVSPost2010Prop35
280
     0
102
RTVSPost2010PropOp35
 70
     1
102
RTVSPost2010Prop36
280
     0
102
RTVSPost2010PropOp36
 70
     1
102
RTVSPost2010Prop37
 90
       50
102
RTVSPost2010PropOp37
 70
     1
102
RTVSPost2010Prop38
140
0.0
102
RTVSPost2010PropOp38
 70
     1
102
RTVSPost2010Prop39
140
1.0
102
RTVSPost2010PropOp39
 70
     1
102
RTVSPost2010Prop40
 90
        0
102
RTVSPost2010PropOp40
 70
     1
102
RTVSPost2010Prop41ColorIndex
 90
       18
102
RTVSPost2010Prop41ColorRGB
 90
        0
102
RTVSPost2010PropOp41
 70
     1
102
RTVSPost2010Prop42
 90
       50
102
RTVSPost2010PropOp42
 70
     1
102
RTVSPost2010Prop43
 90
        3
102
RTVSPost2010PropOp43
 70
     1
102
RTVSPost2010Prop44ColorIndex
 90
        5
102
RTVSPost2010Prop44ColorRGB
 90
      255
102
RTVSPost2010PropOp44
 70
     1
102
RTVSPost2010Prop45
280
     0
102
RTVSPost2010PropOp45
 70
     1
102
RTVSPost2010Prop46
 90
       50
102
RTVSPost2010PropOp46
 70
     1
102
RTVSPost2010Prop47
 90
       50
102
RTVSPost2010PropOp47
 70
     1
102
RTVSPost2010Prop48
 90
       50
102
RTVSPost2010PropOp48
 70
     1
102
RTVSPost2010Prop49
280
     0
102
RTVSPost2010PropOp49
 70
     1
102
RTVSPost2010Prop50
 90
       50
102
RTVSPost2010PropOp50
 70
     1
102
RTVSPost2010Prop51ColorIndex
 90
      256
102
RTVSPost2010Prop51ColorRGB
 90
-16777216
102
RTVSPost2010PropOp51
 70
     0
102
RTVSPost2010Prop52
140
1.0
102
RTVSPost2010PropOp52
 70
     0
102
RTVSPost2010Prop53
 90
        2
102
RTVSPost2010PropOp53
 70
     1
102
RTVSPost2010Prop54
  1
strokes_ogs.tif
102
RTVSPost2010PropOp54
 70
     1
102
RTVSPost2010Prop55
280
     0
102
RTVSPost2010PropOp55
 70
     1
102
RTVSPost2010Prop56
140
1.0
102
RTVSPost2010PropOp56
 70
     1
102
RTVSPost2010Prop57
140
1.0
102
RTVSPost2010PropOp57
 70
     1
102
RTVSPropertyOp0
 70
     1
102
RTVSPropertyOp1
 70
     1
102
RTVSPropertyOp2
 70
     1
102
RTVSPropertyOp3
 70
     1
102
RTVSPropertyOp4
 70
     1
102
RTVSPropertyOp5
 70
     1
102
RTVSPropertyOp6
 70
     1
102
RTVSPropertyOp7
 70
     1
102
RTVSPropertyOp8
 70
     1
102
RTVSPropertyOp9
 70
     1
102
RTVSPropertyOp10
 70
     1
102
RTVSPropertyOp11
 70
     1
102
RTVSPropertyOp12
 70
     1
102
RTVSPropertyOp13
 70
     1
102
RTVSPropertyOp14
 70
     1
102
RTVSPropertyOp15
 70
     1
102
RTVSPropertyOp16
 70
     1
102
RTVSPropertyOp17
 70
     1
102
RTVSPropertyOp18
 70
     1
102
RTVSPropertyOp19
 70
     1
102
RTVSPropertyOp20
 70
     1
102
RTVSPropertyOp21
 70
     1
102
RTVSPropertyOp22
 70
     1
102
RTVSPropertyOp23
 70
     1
102
RTVSPropertyOp24
 70
     1
102
RTVSPropertyOp25
 70
     1
102
RTVSPropertyOp26
 70
     1
102
RTVSPropertyOp27
 70
     1
102
RTVSPropertyOp28
 70
     1
102
RTVSPropertyOp29
 70
     1
102
RTVSPropertyOp30
 70
     1
102
RTVSPropertyOp31
 70
     1
102
RTVSPropertyOp32
 70
     1
102
RTVSPropertyOp33
 70
     1
102
RTVSPropertyOp34
 70
     1
102
RTVSPropertyOp35
 70
     1
102
RTVSPropertyOp36
 70
     1
102
RTVSPropertyOp37
 70
     1
102
RTVSPropertyOp38
 70
     1
102
RTVSPropertyOp39
 70
     1
102
RTVSPropertyOp40
 70
     1
102
RTVSPropertyOp41
 70
     1
102
RTVSPropertyOp42
 70
     1
102
RTVSPropertyOp43
 70
     1
102
RTVSPropertyOp44
 70
     1
102
RTVSPropertyOp45
 70
     1
102
RTVSPropertyOp46
 70
     1
102
RTVSPropertyOp47
 70
     1
102
RTVSPropertyOp48
 70
     1
102
RTVSPropertyOp49
 70
     1
102
RTVSPropertyOp50
 70
     1
102
RTVSPropertyOp51
 70
     0
102
RTVSPropertyOp52
 70
     0
102
RTVSPropertyOp53
 70
     1
102
RTVSPropertyOp54
 70
     1
102
RTVSPropertyOp55
 70
     1
102
RTVSPropertyOp56
 70
     1
102
RTVSPropertyOp57
 70
     1
102
RTVSPropertyOp58
 70
     1
102
RTVSPropertyOp59
 70
     1
102
RTVSPropertyOp60
 70
     1
102
RTVSPropertyOp61
 70
     1
102
RTVSPropertyOp62
 70
     1
  0
XRECORD
  5
72CDD
102
{ACAD_REACTORS
330
72CDC
102
}
330
72CDC
100
AcDbXrecord
280
     1
102
RTVSPost2010Prop28
280
     0
102
RTVSPost2010PropOp28
 70
     1
102
RTVSPost2010Prop29
280
     1
102
RTVSPost2010PropOp29
 70
     1
102
RTVSPost2010Prop30
280
     1
102
RTVSPost2010PropOp30
 70
     1
102
RTVSPost2010Prop31
280
     0
102
RTVSPost2010PropOp31
 70
     1
102
RTVSPost2010Prop32
280
     0
102
RTVSPost2010PropOp32
 70
     1
102
RTVSPost2010Prop33
280
     0
102
RTVSPost2010PropOp33
 70
     1
102
RTVSPost2010Prop34
280
     0
102
RTVSPost2010PropOp34
 70
     1
102
RTVSPost2010Prop35
280
     0
102
RTVSPost2010PropOp35
 70
     1
102
RTVSPost2010Prop36
280
     0
102
RTVSPost2010PropOp36
 70
     1
102
RTVSPost2010Prop37
 90
       50
102
RTVSPost2010PropOp37
 70
     1
102
RTVSPost2010Prop38
140
0.0
102
RTVSPost2010PropOp38
 70
     1
102
RTVSPost2010Prop39
140
1.0
102
RTVSPost2010PropOp39
 70
     1
102
RTVSPost2010Prop40
 90
        0
102
RTVSPost2010PropOp40
 70
     1
102
RTVSPost2010Prop41ColorIndex
 90
       18
102
RTVSPost2010Prop41ColorRGB
 90
        0
102
RTVSPost2010PropOp41
 70
     1
102
RTVSPost2010Prop42
 90
       50
102
RTVSPost2010PropOp42
 70
     1
102
RTVSPost2010Prop43
 90
        3
102
RTVSPost2010PropOp43
 70
     1
102
RTVSPost2010Prop44ColorIndex
 90
        5
102
RTVSPost2010Prop44ColorRGB
 90
      255
102
RTVSPost2010PropOp44
 70
     1
102
RTVSPost2010Prop45
280
     0
102
RTVSPost2010PropOp45
 70
     1
102
RTVSPost2010Prop46
 90
       50
102
RTVSPost2010PropOp46
 70
     1
102
RTVSPost2010Prop47
 90
       50
102
RTVSPost2010PropOp47
 70
     1
102
RTVSPost2010Prop48
 90
       50
102
RTVSPost2010PropOp48
 70
     1
102
RTVSPost2010Prop49
280
     0
102
RTVSPost2010PropOp49
 70
     1
102
RTVSPost2010Prop50
 90
       50
102
RTVSPost2010PropOp50
 70
     1
102
RTVSPost2010Prop51ColorIndex
 90
      256
102
RTVSPost2010Prop51ColorRGB
 90
-16777216
102
RTVSPost2010PropOp51
 70
     0
102
RTVSPost2010Prop52
140
1.0
102
RTVSPost2010PropOp52
 70
     0
102
RTVSPost2010Prop53
 90
        2
102
RTVSPost2010PropOp53
 70
     1
102
RTVSPost2010Prop54
  1
strokes_ogs.tif
102
RTVSPost2010PropOp54
 70
     1
102
RTVSPost2010Prop55
280
     0
102
RTVSPost2010PropOp55
 70
     1
102
RTVSPost2010Prop56
140
1.0
102
RTVSPost2010PropOp56
 70
     1
102
RTVSPost2010Prop57
140
1.0
102
RTVSPost2010PropOp57
 70
     1
102
RTVSPropertyOp0
 70
     1
102
RTVSPropertyOp1
 70
     1
102
RTVSPropertyOp2
 70
     1
102
RTVSPropertyOp3
 70
     1
102
RTVSPropertyOp4
 70
     1
102
RTVSPropertyOp5
 70
     1
102
RTVSPropertyOp6
 70
     1
102
RTVSPropertyOp7
 70
     1
102
RTVSPropertyOp8
 70
     1
102
RTVSPropertyOp9
 70
     1
102
RTVSPropertyOp10
 70
     1
102
RTVSPropertyOp11
 70
     1
102
RTVSPropertyOp12
 70
     1
102
RTVSPropertyOp13
 70
     1
102
RTVSPropertyOp14
 70
     1
102
RTVSPropertyOp15
 70
     1
102
RTVSPropertyOp16
 70
     1
102
RTVSPropertyOp17
 70
     1
102
RTVSPropertyOp18
 70
     1
102
RTVSPropertyOp19
 70
     1
102
RTVSPropertyOp20
 70
     1
102
RTVSPropertyOp21
 70
     1
102
RTVSPropertyOp22
 70
     1
102
RTVSPropertyOp23
 70
     1
102
RTVSPropertyOp24
 70
     1
102
RTVSPropertyOp25
 70
     1
102
RTVSPropertyOp26
 70
     1
102
RTVSPropertyOp27
 70
     1
102
RTVSPropertyOp28
 70
     1
102
RTVSPropertyOp29
 70
     1
102
RTVSPropertyOp30
 70
     1
102
RTVSPropertyOp31
 70
     1
102
RTVSPropertyOp32
 70
     1
102
RTVSPropertyOp33
 70
     1
102
RTVSPropertyOp34
 70
     1
102
RTVSPropertyOp35
 70
     1
102
RTVSPropertyOp36
 70
     1
102
RTVSPropertyOp37
 70
     1
102
RTVSPropertyOp38
 70
     1
102
RTVSPropertyOp39
 70
     1
102
RTVSPropertyOp40
 70
     1
102
RTVSPropertyOp41
 70
     1
102
RTVSPropertyOp42
 70
     1
102
RTVSPropertyOp43
 70
     1
102
RTVSPropertyOp44
 70
     1
102
RTVSPropertyOp45
 70
     1
102
RTVSPropertyOp46
 70
     1
102
RTVSPropertyOp47
 70
     1
102
RTVSPropertyOp48
 70
     1
102
RTVSPropertyOp49
 70
     1
102
RTVSPropertyOp50
 70
     1
102
RTVSPropertyOp51
 70
     0
102
RTVSPropertyOp52
 70
     0
102
RTVSPropertyOp53
 70
     1
102
RTVSPropertyOp54
 70
     1
102
RTVSPropertyOp55
 70
     1
102
RTVSPropertyOp56
 70
     1
102
RTVSPropertyOp57
 70
     1
102
RTVSPropertyOp58
 70
     1
102
RTVSPropertyOp59
 70
     1
102
RTVSPropertyOp60
 70
     1
102
RTVSPropertyOp61
 70
     1
102
RTVSPropertyOp62
 70
     1
  0
XRECORD
  5
72CCD
102
{ACAD_REACTORS
330
72CCC
102
}
330
72CCC
100
AcDbXrecord
280
     1
102
RTVSPost2010Prop28
280
     0
102
RTVSPost2010PropOp28
 70
     1
102
RTVSPost2010Prop29
280
     1
102
RTVSPost2010PropOp29
 70
     1
102
RTVSPost2010Prop30
280
     1
102
RTVSPost2010PropOp30
 70
     1
102
RTVSPost2010Prop31
280
     0
102
RTVSPost2010PropOp31
 70
     1
102
RTVSPost2010Prop32
280
     0
102
RTVSPost2010PropOp32
 70
     1
102
RTVSPost2010Prop33
280
     0
102
RTVSPost2010PropOp33
 70
     1
102
RTVSPost2010Prop34
280
     0
102
RTVSPost2010PropOp34
 70
     1
102
RTVSPost2010Prop35
280
     0
102
RTVSPost2010PropOp35
 70
     1
102
RTVSPost2010Prop36
280
     0
102
RTVSPost2010PropOp36
 70
     1
102
RTVSPost2010Prop37
 90
       50
102
RTVSPost2010PropOp37
 70
     1
102
RTVSPost2010Prop38
140
0.0
102
RTVSPost2010PropOp38
 70
     1
102
RTVSPost2010Prop39
140
1.0
102
RTVSPost2010PropOp39
 70
     1
102
RTVSPost2010Prop40
 90
        0
102
RTVSPost2010PropOp40
 70
     1
102
RTVSPost2010Prop41ColorIndex
 90
       18
102
RTVSPost2010Prop41ColorRGB
 90
        0
102
RTVSPost2010PropOp41
 70
     1
102
RTVSPost2010Prop42
 90
       50
102
RTVSPost2010PropOp42
 70
     1
102
RTVSPost2010Prop43
 90
        3
102
RTVSPost2010PropOp43
 70
     1
102
RTVSPost2010Prop44ColorIndex
 90
        5
102
RTVSPost2010Prop44ColorRGB
 90
      255
102
RTVSPost2010PropOp44
 70
     1
102
RTVSPost2010Prop45
280
     0
102
RTVSPost2010PropOp45
 70
     1
102
RTVSPost2010Prop46
 90
       50
102
RTVSPost2010PropOp46
 70
     1
102
RTVSPost2010Prop47
 90
       50
102
RTVSPost2010PropOp47
 70
     1
102
RTVSPost2010Prop48
 90
       50
102
RTVSPost2010PropOp48
 70
     1
102
RTVSPost2010Prop49
280
     0
102
RTVSPost2010PropOp49
 70
     1
102
RTVSPost2010Prop50
 90
       50
102
RTVSPost2010PropOp50
 70
     1
102
RTVSPost2010Prop51ColorIndex
 90
      256
102
RTVSPost2010Prop51ColorRGB
 90
-16777216
102
RTVSPost2010PropOp51
 70
     0
102
RTVSPost2010Prop52
140
1.0
102
RTVSPost2010PropOp52
 70
     0
102
RTVSPost2010Prop53
 90
        2
102
RTVSPost2010PropOp53
 70
     1
102
RTVSPost2010Prop54
  1
strokes_ogs.tif
102
RTVSPost2010PropOp54
 70
     1
102
RTVSPost2010Prop55
280
     0
102
RTVSPost2010PropOp55
 70
     1
102
RTVSPost2010Prop56
140
1.0
102
RTVSPost2010PropOp56
 70
     1
102
RTVSPost2010Prop57
140
1.0
102
RTVSPost2010PropOp57
 70
     1
102
RTVSPropertyOp0
 70
     1
102
RTVSPropertyOp1
 70
     1
102
RTVSPropertyOp2
 70
     1
102
RTVSPropertyOp3
 70
     1
102
RTVSPropertyOp4
 70
     1
102
RTVSPropertyOp5
 70
     1
102
RTVSPropertyOp6
 70
     1
102
RTVSPropertyOp7
 70
     1
102
RTVSPropertyOp8
 70
     1
102
RTVSPropertyOp9
 70
     1
102
RTVSPropertyOp10
 70
     1
102
RTVSPropertyOp11
 70
     1
102
RTVSPropertyOp12
 70
     1
102
RTVSPropertyOp13
 70
     1
102
RTVSPropertyOp14
 70
     1
102
RTVSPropertyOp15
 70
     1
102
RTVSPropertyOp16
 70
     1
102
RTVSPropertyOp17
 70
     1
102
RTVSPropertyOp18
 70
     1
102
RTVSPropertyOp19
 70
     1
102
RTVSPropertyOp20
 70
     1
102
RTVSPropertyOp21
 70
     1
102
RTVSPropertyOp22
 70
     1
102
RTVSPropertyOp23
 70
     1
102
RTVSPropertyOp24
 70
     1
102
RTVSPropertyOp25
 70
     1
102
RTVSPropertyOp26
 70
     1
102
RTVSPropertyOp27
 70
     1
102
RTVSPropertyOp28
 70
     1
102
RTVSPropertyOp29
 70
     1
102
RTVSPropertyOp30
 70
     1
102
RTVSPropertyOp31
 70
     1
102
RTVSPropertyOp32
 70
     1
102
RTVSPropertyOp33
 70
     1
102
RTVSPropertyOp34
 70
     1
102
RTVSPropertyOp35
 70
     1
102
RTVSPropertyOp36
 70
     1
102
RTVSPropertyOp37
 70
     1
102
RTVSPropertyOp38
 70
     1
102
RTVSPropertyOp39
 70
     1
102
RTVSPropertyOp40
 70
     1
102
RTVSPropertyOp41
 70
     1
102
RTVSPropertyOp42
 70
     1
102
RTVSPropertyOp43
 70
     1
102
RTVSPropertyOp44
 70
     1
102
RTVSPropertyOp45
 70
     1
102
RTVSPropertyOp46
 70
     1
102
RTVSPropertyOp47
 70
     1
102
RTVSPropertyOp48
 70
     1
102
RTVSPropertyOp49
 70
     1
102
RTVSPropertyOp50
 70
     1
102
RTVSPropertyOp51
 70
     0
102
RTVSPropertyOp52
 70
     0
102
RTVSPropertyOp53
 70
     1
102
RTVSPropertyOp54
 70
     1
102
RTVSPropertyOp55
 70
     1
102
RTVSPropertyOp56
 70
     1
102
RTVSPropertyOp57
 70
     1
102
RTVSPropertyOp58
 70
     1
102
RTVSPropertyOp59
 70
     1
102
RTVSPropertyOp60
 70
     1
102
RTVSPropertyOp61
 70
     1
102
RTVSPropertyOp62
 70
     1
  0
XRECORD
  5
72CBF
102
{ACAD_REACTORS
330
72CBE
102
}
330
72CBE
100
AcDbXrecord
280
     1
102
RTVSPost2010Prop28
280
     0
102
RTVSPost2010PropOp28
 70
     1
102
RTVSPost2010Prop29
280
     1
102
RTVSPost2010PropOp29
 70
     1
102
RTVSPost2010Prop30
280
     1
102
RTVSPost2010PropOp30
 70
     1
102
RTVSPost2010Prop31
280
     0
102
RTVSPost2010PropOp31
 70
     1
102
RTVSPost2010Prop32
280
     0
102
RTVSPost2010PropOp32
 70
     1
102
RTVSPost2010Prop33
280
     0
102
RTVSPost2010PropOp33
 70
     1
102
RTVSPost2010Prop34
280
     0
102
RTVSPost2010PropOp34
 70
     1
102
RTVSPost2010Prop35
280
     0
102
RTVSPost2010PropOp35
 70
     1
102
RTVSPost2010Prop36
280
     0
102
RTVSPost2010PropOp36
 70
     1
102
RTVSPost2010Prop37
 90
       50
102
RTVSPost2010PropOp37
 70
     1
102
RTVSPost2010Prop38
140
0.0
102
RTVSPost2010PropOp38
 70
     1
102
RTVSPost2010Prop39
140
1.0
102
RTVSPost2010PropOp39
 70
     1
102
RTVSPost2010Prop40
 90
        0
102
RTVSPost2010PropOp40
 70
     1
102
RTVSPost2010Prop41ColorIndex
 90
       18
102
RTVSPost2010Prop41ColorRGB
 90
        0
102
RTVSPost2010PropOp41
 70
     1
102
RTVSPost2010Prop42
 90
       50
102
RTVSPost2010PropOp42
 70
     1
102
RTVSPost2010Prop43
 90
        3
102
RTVSPost2010PropOp43
 70
     1
102
RTVSPost2010Prop44ColorIndex
 90
        5
102
RTVSPost2010Prop44ColorRGB
 90
      255
102
RTVSPost2010PropOp44
 70
     1
102
RTVSPost2010Prop45
280
     0
102
RTVSPost2010PropOp45
 70
     1
102
RTVSPost2010Prop46
 90
       50
102
RTVSPost2010PropOp46
 70
     1
102
RTVSPost2010Prop47
 90
       50
102
RTVSPost2010PropOp47
 70
     1
102
RTVSPost2010Prop48
 90
       50
102
RTVSPost2010PropOp48
 70
     1
102
RTVSPost2010Prop49
280
     0
102
RTVSPost2010PropOp49
 70
     1
102
RTVSPost2010Prop50
 90
       50
102
RTVSPost2010PropOp50
 70
     1
102
RTVSPost2010Prop51ColorIndex
 90
      256
102
RTVSPost2010Prop51ColorRGB
 90
-16777216
102
RTVSPost2010PropOp51
 70
     0
102
RTVSPost2010Prop52
140
1.0
102
RTVSPost2010PropOp52
 70
     0
102
RTVSPost2010Prop53
 90
        2
102
RTVSPost2010PropOp53
 70
     1
102
RTVSPost2010Prop54
  1
strokes_ogs.tif
102
RTVSPost2010PropOp54
 70
     1
102
RTVSPost2010Prop55
280
     0
102
RTVSPost2010PropOp55
 70
     1
102
RTVSPost2010Prop56
140
1.0
102
RTVSPost2010PropOp56
 70
     1
102
RTVSPost2010Prop57
140
1.0
102
RTVSPost2010PropOp57
 70
     1
102
RTVSPropertyOp0
 70
     1
102
RTVSPropertyOp1
 70
     1
102
RTVSPropertyOp2
 70
     1
102
RTVSPropertyOp3
 70
     1
102
RTVSPropertyOp4
 70
     1
102
RTVSPropertyOp5
 70
     1
102
RTVSPropertyOp6
 70
     1
102
RTVSPropertyOp7
 70
     1
102
RTVSPropertyOp8
 70
     1
102
RTVSPropertyOp9
 70
     1
102
RTVSPropertyOp10
 70
     1
102
RTVSPropertyOp11
 70
     1
102
RTVSPropertyOp12
 70
     1
102
RTVSPropertyOp13
 70
     1
102
RTVSPropertyOp14
 70
     1
102
RTVSPropertyOp15
 70
     1
102
RTVSPropertyOp16
 70
     1
102
RTVSPropertyOp17
 70
     1
102
RTVSPropertyOp18
 70
     1
102
RTVSPropertyOp19
 70
     1
102
RTVSPropertyOp20
 70
     1
102
RTVSPropertyOp21
 70
     1
102
RTVSPropertyOp22
 70
     1
102
RTVSPropertyOp23
 70
     1
102
RTVSPropertyOp24
 70
     1
102
RTVSPropertyOp25
 70
     1
102
RTVSPropertyOp26
 70
     1
102
RTVSPropertyOp27
 70
     1
102
RTVSPropertyOp28
 70
     1
102
RTVSPropertyOp29
 70
     1
102
RTVSPropertyOp30
 70
     1
102
RTVSPropertyOp31
 70
     1
102
RTVSPropertyOp32
 70
     1
102
RTVSPropertyOp33
 70
     1
102
RTVSPropertyOp34
 70
     1
102
RTVSPropertyOp35
 70
     1
102
RTVSPropertyOp36
 70
     1
102
RTVSPropertyOp37
 70
     1
102
RTVSPropertyOp38
 70
     1
102
RTVSPropertyOp39
 70
     1
102
RTVSPropertyOp40
 70
     1
102
RTVSPropertyOp41
 70
     1
102
RTVSPropertyOp42
 70
     1
102
RTVSPropertyOp43
 70
     1
102
RTVSPropertyOp44
 70
     1
102
RTVSPropertyOp45
 70
     1
102
RTVSPropertyOp46
 70
     1
102
RTVSPropertyOp47
 70
     1
102
RTVSPropertyOp48
 70
     1
102
RTVSPropertyOp49
 70
     1
102
RTVSPropertyOp50
 70
     1
102
RTVSPropertyOp51
 70
     0
102
RTVSPropertyOp52
 70
     0
102
RTVSPropertyOp53
 70
     1
102
RTVSPropertyOp54
 70
     1
102
RTVSPropertyOp55
 70
     1
102
RTVSPropertyOp56
 70
     1
102
RTVSPropertyOp57
 70
     1
102
RTVSPropertyOp58
 70
     1
102
RTVSPropertyOp59
 70
     1
102
RTVSPropertyOp60
 70
     1
102
RTVSPropertyOp61
 70
     1
102
RTVSPropertyOp62
 70
     1
  0
XRECORD
  5
72CDF
102
{ACAD_REACTORS
330
72CDE
102
}
330
72CDE
100
AcDbXrecord
280
     1
102
RTVSPost2010Prop28
280
     0
102
RTVSPost2010PropOp28
 70
     1
102
RTVSPost2010Prop29
280
     1
102
RTVSPost2010PropOp29
 70
     1
102
RTVSPost2010Prop30
280
     1
102
RTVSPost2010PropOp30
 70
     1
102
RTVSPost2010Prop31
280
     0
102
RTVSPost2010PropOp31
 70
     1
102
RTVSPost2010Prop32
280
     0
102
RTVSPost2010PropOp32
 70
     1
102
RTVSPost2010Prop33
280
     0
102
RTVSPost2010PropOp33
 70
     1
102
RTVSPost2010Prop34
280
     0
102
RTVSPost2010PropOp34
 70
     1
102
RTVSPost2010Prop35
280
     0
102
RTVSPost2010PropOp35
 70
     1
102
RTVSPost2010Prop36
280
     0
102
RTVSPost2010PropOp36
 70
     1
102
RTVSPost2010Prop37
 90
       50
102
RTVSPost2010PropOp37
 70
     1
102
RTVSPost2010Prop38
140
0.0
102
RTVSPost2010PropOp38
 70
     1
102
RTVSPost2010Prop39
140
1.0
102
RTVSPost2010PropOp39
 70
     1
102
RTVSPost2010Prop40
 90
        0
102
RTVSPost2010PropOp40
 70
     1
102
RTVSPost2010Prop41ColorIndex
 90
       18
102
RTVSPost2010Prop41ColorRGB
 90
        0
102
RTVSPost2010PropOp41
 70
     1
102
RTVSPost2010Prop42
 90
       50
102
RTVSPost2010PropOp42
 70
     1
102
RTVSPost2010Prop43
 90
        3
102
RTVSPost2010PropOp43
 70
     1
102
RTVSPost2010Prop44ColorIndex
 90
        5
102
RTVSPost2010Prop44ColorRGB
 90
      255
102
RTVSPost2010PropOp44
 70
     1
102
RTVSPost2010Prop45
280
     0
102
RTVSPost2010PropOp45
 70
     1
102
RTVSPost2010Prop46
 90
       50
102
RTVSPost2010PropOp46
 70
     1
102
RTVSPost2010Prop47
 90
       50
102
RTVSPost2010PropOp47
 70
     1
102
RTVSPost2010Prop48
 90
       50
102
RTVSPost2010PropOp48
 70
     1
102
RTVSPost2010Prop49
280
     0
102
RTVSPost2010PropOp49
 70
     1
102
RTVSPost2010Prop50
 90
       50
102
RTVSPost2010PropOp50
 70
     1
102
RTVSPost2010Prop51ColorIndex
 90
      256
102
RTVSPost2010Prop51ColorRGB
 90
-16777216
102
RTVSPost2010PropOp51
 70
     0
102
RTVSPost2010Prop52
140
1.0
102
RTVSPost2010PropOp52
 70
     0
102
RTVSPost2010Prop53
 90
        2
102
RTVSPost2010PropOp53
 70
     1
102
RTVSPost2010Prop54
  1
strokes_ogs.tif
102
RTVSPost2010PropOp54
 70
     1
102
RTVSPost2010Prop55
280
     0
102
RTVSPost2010PropOp55
 70
     1
102
RTVSPost2010Prop56
140
1.0
102
RTVSPost2010PropOp56
 70
     1
102
RTVSPost2010Prop57
140
1.0
102
RTVSPost2010PropOp57
 70
     1
102
RTVSPropertyOp0
 70
     1
102
RTVSPropertyOp1
 70
     1
102
RTVSPropertyOp2
 70
     1
102
RTVSPropertyOp3
 70
     1
102
RTVSPropertyOp4
 70
     1
102
RTVSPropertyOp5
 70
     1
102
RTVSPropertyOp6
 70
     1
102
RTVSPropertyOp7
 70
     1
102
RTVSPropertyOp8
 70
     1
102
RTVSPropertyOp9
 70
     1
102
RTVSPropertyOp10
 70
     1
102
RTVSPropertyOp11
 70
     1
102
RTVSPropertyOp12
 70
     1
102
RTVSPropertyOp13
 70
     1
102
RTVSPropertyOp14
 70
     1
102
RTVSPropertyOp15
 70
     1
102
RTVSPropertyOp16
 70
     1
102
RTVSPropertyOp17
 70
     1
102
RTVSPropertyOp18
 70
     1
102
RTVSPropertyOp19
 70
     1
102
RTVSPropertyOp20
 70
     1
102
RTVSPropertyOp21
 70
     1
102
RTVSPropertyOp22
 70
     1
102
RTVSPropertyOp23
 70
     1
102
RTVSPropertyOp24
 70
     1
102
RTVSPropertyOp25
 70
     1
102
RTVSPropertyOp26
 70
     1
102
RTVSPropertyOp27
 70
     1
102
RTVSPropertyOp28
 70
     1
102
RTVSPropertyOp29
 70
     1
102
RTVSPropertyOp30
 70
     1
102
RTVSPropertyOp31
 70
     1
102
RTVSPropertyOp32
 70
     1
102
RTVSPropertyOp33
 70
     1
102
RTVSPropertyOp34
 70
     1
102
RTVSPropertyOp35
 70
     1
102
RTVSPropertyOp36
 70
     1
102
RTVSPropertyOp37
 70
     1
102
RTVSPropertyOp38
 70
     1
102
RTVSPropertyOp39
 70
     1
102
RTVSPropertyOp40
 70
     1
102
RTVSPropertyOp41
 70
     1
102
RTVSPropertyOp42
 70
     1
102
RTVSPropertyOp43
 70
     1
102
RTVSPropertyOp44
 70
     1
102
RTVSPropertyOp45
 70
     1
102
RTVSPropertyOp46
 70
     1
102
RTVSPropertyOp47
 70
     1
102
RTVSPropertyOp48
 70
     1
102
RTVSPropertyOp49
 70
     1
102
RTVSPropertyOp50
 70
     1
102
RTVSPropertyOp51
 70
     0
102
RTVSPropertyOp52
 70
     0
102
RTVSPropertyOp53
 70
     1
102
RTVSPropertyOp54
 70
     1
102
RTVSPropertyOp55
 70
     1
102
RTVSPropertyOp56
 70
     1
102
RTVSPropertyOp57
 70
     1
102
RTVSPropertyOp58
 70
     1
102
RTVSPropertyOp59
 70
     1
102
RTVSPropertyOp60
 70
     1
102
RTVSPropertyOp61
 70
     1
102
RTVSPropertyOp62
 70
     1
  0
ENDSEC
  0
EOF
