  0
SECTION
  2
HEADER
  9
$ACADVER
  1
AC1015
  9
$ACADMAINTVER
 70
    20
  9
$DWGCODEPAGE
  3
ANSI_932
  9
$INSBASE
 10
0.0
 20
0.0
 30
0.0
  9
$EXTMIN
 10
4907.555680172309
 20
-4127.771676646104
 30
0.0
  9
$EXTMAX
 10
6190.50165946856
 20
-3384.26452619134
 30
137.5
  9
$LIMMIN
 10
0.0
 20
0.0
  9
$LIMMAX
 10
420.0
 20
297.0
  9
$ORTHOMODE
 70
     0
  9
$REGENMODE
 70
     1
  9
$FILLMODE
 70
     1
  9
$QTEXTMODE
 70
     0
  9
$MIRRTEXT
 70
     0
  9
$LTSCALE
 40
1.0
  9
$ATTMODE
 70
     1
  9
$TEXTSIZE
 40
0.2
  9
$TRACEWID
 40
1.0
  9
$TEXTSTYLE
  7
まこ
  9
$CLAYER
  8
実線
  9
$CELTYPE
  6
BYLAYER
  9
$CECOLOR
 62
   256
  9
$CELTSCALE
 40
1.0
  9
$DISPSILH
 70
     0
  9
$DIMSCALE
 40
3.5
  9
$DIMASZ
 40
2.5
  9
$DIMEXO
 40
0.8
  9
$DIMDLI
 40
0.38
  9
$DIMRND
 40
0.0
  9
$DIMDLE
 40
0.0
  9
$DIMEXE
 40
0.8
  9
$DIMTP
 40
0.0
  9
$DIMTM
 40
0.0
  9
$DIMTXT
 40
2.5
  9
$DIMCEN
 40
0.0
  9
$DIMTSZ
 40
0.0
  9
$DIMTOL
 70
     0
  9
$DIMLIM
 70
     0
  9
$DIMTIH
 70
     0
  9
$DIMTOH
 70
     0
  9
$DIMSE1
 70
     0
  9
$DIMSE2
 70
     0
  9
$DIMTAD
 70
     3
  9
$DIMZIN
 70
     8
  9
$DIMBLK
  1
Open30
  9
$DIMASO
 70
     1
  9
$DIMSHO
 70
     1
  9
$DIMPOST
  1

  9
$DIMAPOST
  1

  9
$DIMALT
 70
     0
  9
$DIMALTD
 70
     2
  9
$DIMALTF
 40
25.4
  9
$DIMLFAC
 40
1.0
  9
$DIMTOFL
 70
     1
  9
$DIMTVP
 40
0.0
  9
$DIMTIX
 70
     0
  9
$DIMSOXD
 70
     0
  9
$DIMSAH
 70
     0
  9
$DIMBLK1
  1

  9
$DIMBLK2
  1

  9
$DIMSTYLE
  2
STANDARD
  9
$DIMCLRD
 70
     4
  9
$DIMCLRE
 70
     4
  9
$DIMCLRT
 70
   256
  9
$DIMTFAC
 40
1.0
  9
$DIMGAP
 40
0.5
  9
$DIMJUST
 70
     0
  9
$DIMSD1
 70
     0
  9
$DIMSD2
 70
     0
  9
$DIMTOLJ
 70
     1
  9
$DIMTZIN
 70
     0
  9
$DIMALTZ
 70
     0
  9
$DIMALTTZ
 70
     0
  9
$DIMUPT
 70
     0
  9
$DIMDEC
 70
     3
  9
$DIMTDEC
 70
     3
  9
$DIMALTU
 70
     2
  9
$DIMALTTD
 70
     2
  9
$DIMTXSTY
  7
MS\U+FF7A\U+FF9E\U+FF7C\U+FF6F\U+FF78-0
  9
$DIMAUNIT
 70
     0
  9
$DIMADEC
 70
     3
  9
$DIMALTRND
 40
0.0
  9
$DIMAZIN
 70
     2
  9
$DIMDSEP
 70
    46
  9
$DIMATFIT
 70
     3
  9
$DIMFRAC
 70
     0
  9
$DIMLDRBLK
  1
Open30
  9
$DIMLUNIT
 70
     2
  9
$DIMLWD
 70
    13
  9
$DIMLWE
 70
    13
  9
$DIMTMOVE
 70
     2
  9
$LUNITS
 70
     2
  9
$LUPREC
 70
     4
  9
$SKETCHINC
 40
1.0
  9
$FILLETRAD
 40
20.0
  9
$AUNITS
 70
     0
  9
$AUPREC
 70
     0
  9
$MENU
  1
.
  9
$ELEVATION
 40
0.0
  9
$PELEVATION
 40
0.0
  9
$THICKNESS
 40
0.0
  9
$LIMCHECK
 70
     0
  9
$CHAMFERA
 40
5.0
  9
$CHAMFERB
 40
5.0
  9
$CHAMFERC
 40
20.0
  9
$CHAMFERD
 40
0.0
  9
$SKPOLY
 70
     0
  9
$TDCREATE
 40
2452479.723113426
  9
$TDUCREATE
 40
2452479.348123183
  9
$TDUPDATE
 40
2458544.675127315
  9
$TDUUPDATE
 40
2458544.300127315
  9
$TDINDWG
 40
0.0172669213
  9
$TDUSRTIMER
 40
2458128.177766030
  9
$USRTIMER
 70
     1
  9
$ANGBASE
 50
0.0
  9
$ANGDIR
 70
     0
  9
$PDMODE
 70
     0
  9
$PDSIZE
 40
0.0
  9
$PLINEWID
 40
0.0
  9
$SPLFRAME
 70
     0
  9
$SPLINETYPE
 70
     6
  9
$SPLINESEGS
 70
     8
  9
$HANDSEED
  5
8B40B
  9
$SURFTAB1
 70
     6
  9
$SURFTAB2
 70
     6
  9
$SURFTYPE
 70
     6
  9
$SURFU
 70
     6
  9
$SURFV
 70
     6
  9
$UCSBASE
  2

  9
$UCSNAME
  2

  9
$UCSORG
 10
0.0
 20
0.0
 30
0.0
  9
$UCSXDIR
 10
1.0
 20
0.0
 30
0.0
  9
$UCSYDIR
 10
0.0
 20
1.0
 30
0.0
  9
$UCSORTHOREF
  2

  9
$UCSORTHOVIEW
 70
     0
  9
$UCSORGTOP
 10
0.0
 20
0.0
 30
0.0
  9
$UCSORGBOTTOM
 10
0.0
 20
0.0
 30
0.0
  9
$UCSORGLEFT
 10
0.0
 20
0.0
 30
0.0
  9
$UCSORGRIGHT
 10
0.0
 20
0.0
 30
0.0
  9
$UCSORGFRONT
 10
0.0
 20
0.0
 30
0.0
  9
$UCSORGBACK
 10
0.0
 20
0.0
 30
0.0
  9
$PUCSBASE
  2

  9
$PUCSNAME
  2

  9
$PUCSORG
 10
0.0
 20
0.0
 30
0.0
  9
$PUCSXDIR
 10
1.0
 20
0.0
 30
0.0
  9
$PUCSYDIR
 10
0.0
 20
1.0
 30
0.0
  9
$PUCSORTHOREF
  2

  9
$PUCSORTHOVIEW
 70
     0
  9
$PUCSORGTOP
 10
0.0
 20
0.0
 30
0.0
  9
$PUCSORGBOTTOM
 10
0.0
 20
0.0
 30
0.0
  9
$PUCSORGLEFT
 10
0.0
 20
0.0
 30
0.0
  9
$PUCSORGRIGHT
 10
0.0
 20
0.0
 30
0.0
  9
$PUCSORGFRONT
 10
0.0
 20
0.0
 30
0.0
  9
$PUCSORGBACK
 10
0.0
 20
0.0
 30
0.0
  9
$USERI1
 70
     0
  9
$USERI2
 70
     0
  9
$USERI3
 70
     0
  9
$USERI4
 70
     0
  9
$USERI5
 70
     0
  9
$USERR1
 40
10.0
  9
$USERR2
 40
0.0
  9
$USERR3
 40
0.0
  9
$USERR4
 40
0.0
  9
$USERR5
 40
0.0
  9
$WORLDVIEW
 70
     1
  9
$SHADEDGE
 70
     3
  9
$SHADEDIF
 70
    70
  9
$TILEMODE
 70
     0
  9
$MAXACTVP
 70
    48
  9
$PINSBASE
 10
0.0
 20
0.0
 30
0.0
  9
$PLIMCHECK
 70
     0
  9
$PEXTMIN
 10
1.049999999999999
 20
0.6999999999999993
 30
0.0
  9
$PEXTMAX
 10
9.449999999999999
 20
6.3
 30
0.0
  9
$PLIMMIN
 10
-0.25
 20
-0.7500000000000001
  9
$PLIMMAX
 10
10.75
 20
7.75
  9
$UNITMODE
 70
     0
  9
$VISRETAIN
 70
     1
  9
$PLINEGEN
 70
     0
  9
$PSLTSCALE
 70
     1
  9
$TREEDEPTH
 70
  3020
  9
$CMLSTYLE
  2
STANDARD
  9
$CMLJUST
 70
     0
  9
$CMLSCALE
 40
20.0
  9
$PROXYGRAPHICS
 70
     1
  9
$MEASUREMENT
 70
     0
  9
$CELWEIGHT
370
    -1
  9
$ENDCAPS
280
     0
  9
$JOINSTYLE
280
     0
  9
$LWDISPLAY
290
     1
  9
$INSUNITS
 70
     0
  9
$HYPERLINKBASE
  1

  9
$STYLESHEET
  1
monochrome.ctb
  9
$XEDIT
290
     1
  9
$CEPSNTYPE
380
     0
  9
$PSTYLEMODE
290
     1
  9
$FINGERPRINTGUID
  2
{6B368F64-F7EB-11D4-BFBA-00004C030E53}
  9
$VERSIONGUID
  2
{FBAE83FA-0BFF-4451-A8D5-04DCC982797B}
  9
$EXTNAMES
290
     1
  9
$PSVPSCALE
 40
0.0
  9
$OLESTARTUP
290
     0
  0
ENDSEC
  0
SECTION
  2
CLASSES
  0
CLASS
  1
ACDBDICTIONARYWDFLT
  2
AcDbDictionaryWithDefault
  3
ObjectDBX Classes
 90
        0
280
     0
281
     0
  0
CLASS
  1
ACDBPLACEHOLDER
  2
AcDbPlaceHolder
  3
ObjectDBX Classes
 90
        0
280
     0
281
     0
  0
CLASS
  1
LAYOUT
  2
AcDbLayout
  3
ObjectDBX Classes
 90
        0
280
     0
281
     0
  0
CLASS
  1
DICTIONARYVAR
  2
AcDbDictionaryVar
  3
ObjectDBX Classes
 90
        0
280
     0
281
     0
  0
CLASS
  1
MATERIAL
  2
AcDbMaterial
  3
ObjectDBX Classes
 90
     1153
280
     0
281
     0
  0
CLASS
  1
VISUALSTYLE
  2
AcDbVisualStyle
  3
ObjectDBX Classes
 90
     4095
280
     0
281
     0
  0
CLASS
  1
TABLESTYLE
  2
AcDbTableStyle
  3
ObjectDBX Classes
 90
     4095
280
     0
281
     0
  0
CLASS
  1
SCALE
  2
AcDbScale
  3
ObjectDBX Classes
 90
     1153
280
     0
281
     0
  0
CLASS
  1
MLEADERSTYLE
  2
AcDbMLeaderStyle
  3
ACDB_MLEADERSTYLE_CLASS
 90
     4095
280
     0
281
     0
  0
CLASS
  1
SORTENTSTABLE
  2
AcDbSortentsTable
  3
ObjectDBX Classes
 90
    32768
280
     0
281
     0
  0
CLASS
  1
CELLSTYLEMAP
  2
AcDbCellStyleMap
  3
ObjectDBX Classes
 90
     1152
280
     0
281
     0
  0
CLASS
  1
SUN
  2
AcDbSun
  3
SCENEOE
 90
     1153
280
     0
281
     0
  0
CLASS
  1
RASTERVARIABLES
  2
AcDbRasterVariables
  3
ISM
 90
        0
280
     0
281
     0
  0
CLASS
  1
ACDBSECTIONVIEWSTYLE
  2
AcDbSectionViewStyle
  3
ObjectDBX Classes
 90
     1025
280
     0
281
     0
  0
CLASS
  1
ACDBDETAILVIEWSTYLE
  2
AcDbDetailViewStyle
  3
ObjectDBX Classes
 90
     1025
280
     0
281
     0
  0
ENDSEC
  0
SECTION
  2
TABLES
  0
TABLE
  2
VPORT
  5
8
102
{ACAD_XDICTIONARY
360
8B370
102
}
330
0
100
AcDbSymbolTable
 70
     1
  0
VPORT
  5
89737
330
8
100
AcDbSymbolTableRecord
100
AcDbViewportTableRecord
  2
*Active
 70
     0
 10
0.0
 20
0.0
 11
1.0
 21
1.0
 12
6317.114882795372
 22
-4109.424102263769
 13
-147.9468458676922
 23
19.55743956420332
 14
10.0
 24
10.0
 15
10.0
 25
10.0
 16
0.0
 26
0.0
 36
1.0
 17
0.0
 27
0.0
 37
0.0
 40
3607.729033089547
 41
1.305479452054794
 42
50.0
 43
0.0
 44
0.0
 50
0.0
 51
0.0
 71
    16
 72
   100
 73
     1
 74
     0
 75
     0
 76
     0
 77
     0
 78
     0
281
     0
 65
     1
110
0.0
120
0.0
130
0.0
111
1.0
121
0.0
131
0.0
112
0.0
122
1.0
132
0.0
 79
     0
146
0.0
  0
ENDTAB
  0
TABLE
  2
LTYPE
  5
5
330
0
100
AcDbSymbolTable
 70
     2
  0
LTYPE
  5
12
330
5
100
AcDbSymbolTableRecord
100
AcDbLinetypeTableRecord
  2
BYBLOCK
 70
     0
  3

 72
    65
 73
     0
 40
0.0
  0
LTYPE
  5
13
330
5
100
AcDbSymbolTableRecord
100
AcDbLinetypeTableRecord
  2
BYLAYER
 70
     0
  3

 72
    65
 73
     0
 40
0.0
  0
LTYPE
  5
14
330
5
100
AcDbSymbolTableRecord
100
AcDbLinetypeTableRecord
  2
CONTINUOUS
 70
     0
  3
Solid line
 72
    65
 73
     0
 40
0.0
  0
LTYPE
  5
969
330
5
100
AcDbSymbolTableRecord
100
AcDbLinetypeTableRecord
  2
CENTER2
 70
     0
  3
Center (.5x) ___ _ ___ _ ___ _ ___ _ ___ _ ___
 72
    65
 73
     4
 40
28.575
 49
19.05
 74
     0
 49
-3.174999999999999
 74
     0
 49
3.174999999999999
 74
     0
 49
-3.174999999999999
 74
     0
  0
ENDTAB
  0
TABLE
  2
LAYER
  5
2
102
{ACAD_XDICTIONARY
360
1E591
102
}
330
0
100
AcDbSymbolTable
 70
    10
  0
LAYER
  5
E
102
{ACAD_XDICTIONARY
360
890C2
102
}
330
2
100
AcDbSymbolTableRecord
100
AcDbLayerTableRecord
  2
0
 70
     2
 62
     7
  6
CONTINUOUS
370
    -3
390
73E
  0
LAYER
  5
12B
330
2
100
AcDbSymbolTableRecord
100
AcDbLayerTableRecord
  2
DEFPOINTS
 70
     4
 62
     7
  6
CONTINUOUS
290
     0
370
    -3
390
73E
  0
LAYER
  5
8C6
102
{ACAD_XDICTIONARY
360
890CA
102
}
330
2
100
AcDbSymbolTableRecord
100
AcDbLayerTableRecord
  2
文字
 70
     0
 62
     7
  6
CONTINUOUS
370
    18
390
73E
  0
LAYER
  5
96A
102
{ACAD_XDICTIONARY
360
890D0
102
}
330
2
100
AcDbSymbolTableRecord
100
AcDbLayerTableRecord
  2
中心線
 70
     0
 62
     7
  6
CENTER2
370
    13
390
73E
  0
LAYER
  5
1521
102
{ACAD_XDICTIONARY
360
890D2
102
}
330
2
100
AcDbSymbolTableRecord
100
AcDbLayerTableRecord
  2
実線
 70
     0
 62
     7
  6
CONTINUOUS
370
    30
390
73E
  0
LAYER
  5
1523
102
{ACAD_XDICTIONARY
360
890D6
102
}
330
2
100
AcDbSymbolTableRecord
100
AcDbLayerTableRecord
  2
細線
 70
     0
 62
     7
  6
CONTINUOUS
370
    13
390
73E
  0
LAYER
  5
1526
102
{ACAD_XDICTIONARY
360
890D8
102
}
330
2
100
AcDbSymbolTableRecord
100
AcDbLayerTableRecord
  2
\U+FF77\U+FF6C\U+FF6F\U+FF8C\U+FF9F\U+FF8E\U+FF9E\U+FF99\U+FF84
 70
     0
 62
     7
  6
CONTINUOUS
370
    30
390
73E
  0
LAYER
  5
44F0
102
{ACAD_XDICTIONARY
360
890DA
102
}
330
2
100
AcDbSymbolTableRecord
100
AcDbLayerTableRecord
  2
\U+FF7A\U+FF88\U+FF78\U+FF80
 70
     0
 62
     7
  6
CONTINUOUS
370
    30
390
73E
  0
LAYER
  5
7CE53
102
{ACAD_XDICTIONARY
360
890E2
102
}
330
2
100
AcDbSymbolTableRecord
100
AcDbLayerTableRecord
  2
外形線
 70
     0
 62
     7
  6
CONTINUOUS
370
    30
390
73E
  0
LAYER
  5
86AD8
102
{ACAD_XDICTIONARY
360
890E4
102
}
330
2
100
AcDbSymbolTableRecord
100
AcDbLayerTableRecord
  2
ハッチング
 70
     0
 62
     7
  6
CONTINUOUS
370
     5
390
73E
  0
ENDTAB
  0
TABLE
  2
STYLE
  5
3
330
0
100
AcDbSymbolTable
 70
     5
  0
STYLE
  5
F
330
3
100
AcDbSymbolTableRecord
100
AcDbTextStyleTableRecord
  2
STANDARD
 70
     0
 40
0.0
 41
1.0
 50
0.0
 71
     0
 42
2.5
  3
simplex.shx
  4
bigfont.shx
  0
STYLE
  5
34
330
3
100
AcDbSymbolTableRecord
100
AcDbTextStyleTableRecord
  2
TIMESNR
 70
     0
 40
0.0
 41
1.0
 50
0.0
 71
     0
 42
2.0
  3
times.ttf
  4

1001
ACAD
1000
Times New Roman
1071
       18
  0
STYLE
  5
8D7
330
3
100
AcDbSymbolTableRecord
100
AcDbTextStyleTableRecord
  2
MS\U+FF7A\U+FF9E\U+FF7C\U+FF6F\U+FF78-0
 70
     0
 40
0.0
 41
1.0
 50
0.0
 71
     0
 42
4.0
  3
simplex.shx
  4
bigfont.shx
  0
STYLE
  5
1529
330
3
100
AcDbSymbolTableRecord
100
AcDbTextStyleTableRecord
  2
まこ
 70
     0
 40
0.0
 41
1.0
 50
0.0
 71
     0
 42
0.2
  3
simplex.shx
  4
bigfont.shx
  0
STYLE
  5
1A5A7
330
3
100
AcDbSymbolTableRecord
100
AcDbTextStyleTableRecord
  2
MS\U+FF7A\U+FF9E\U+FF7C\U+FF6F\U+FF78N
 70
     0
 40
0.0
 41
1.0
 50
0.0
 71
     0
 42
5.0
  3

  4

1001
ACAD
1000
MS Gothic
1071
    32817
  0
ENDTAB
  0
TABLE
  2
VIEW
  5
6
330
0
100
AcDbSymbolTable
 70
     0
  0
ENDTAB
  0
TABLE
  2
UCS
  5
7
330
0
100
AcDbSymbolTable
 70
     0
  0
ENDTAB
  0
TABLE
  2
APPID
  5
9
330
0
100
AcDbSymbolTable
 70
    13
  0
APPID
  5
10
330
9
100
AcDbSymbolTableRecord
100
AcDbRegAppTableRecord
  2
ACAD
 70
     0
  0
APPID
  5
80032
330
9
100
AcDbSymbolTableRecord
100
AcDbRegAppTableRecord
  2
ACAD_PSEXT
 70
     0
  0
APPID
  5
80B18
330
9
100
AcDbSymbolTableRecord
100
AcDbRegAppTableRecord
  2
AcadAnnotative
 70
     0
  0
APPID
  5
85520
330
9
100
AcDbSymbolTableRecord
100
AcDbRegAppTableRecord
  2
ACAD_DSTYLE_DIMRADIAL_EXTENSION
 70
     0
  0
APPID
  5
86DF0
330
9
100
AcDbSymbolTableRecord
100
AcDbRegAppTableRecord
  2
GradientColor1ACI
 70
     0
  0
APPID
  5
86DF1
330
9
100
AcDbSymbolTableRecord
100
AcDbRegAppTableRecord
  2
GradientColor2ACI
 70
     0
  0
APPID
  5
8907E
330
9
100
AcDbSymbolTableRecord
100
AcDbRegAppTableRecord
  2
ACAD_NAV_VCDISPLAY
 70
     0
  0
APPID
  5
890B4
330
9
100
AcDbSymbolTableRecord
100
AcDbRegAppTableRecord
  2
ACAD_EXEMPT_FROM_CAD_STANDARDS
 70
     0
  0
APPID
  5
89235
330
9
100
AcDbSymbolTableRecord
100
AcDbRegAppTableRecord
  2
ACAD_MLEADERVER
 70
     0
  0
APPID
  5
898FE
330
9
100
AcDbSymbolTableRecord
100
AcDbRegAppTableRecord
  2
PE_CLOUD
 70
     0
  0
APPID
  5
89BD7
330
9
100
AcDbSymbolTableRecord
100
AcDbRegAppTableRecord
  2
FX_RP_XDATA
 70
     0
  0
APPID
  5
8AA93
330
9
100
AcDbSymbolTableRecord
100
AcDbRegAppTableRecord
  2
TB_S_MPD
 70
     0
  0
APPID
  5
8B1B4
330
9
100
AcDbSymbolTableRecord
100
AcDbRegAppTableRecord
  2
PLOTTRANSPARENCY
 70
     0
  0
ENDTAB
  0
TABLE
  2
DIMSTYLE
  5
A
330
0
100
AcDbSymbolTable
 70
     1
100
AcDbDimStyleTable
 71
     0
  0
DIMSTYLE
105
1D
330
A
100
AcDbSymbolTableRecord
100
AcDbDimStyleTableRecord
  2
STANDARD
 70
     0
 40
3.0
 41
2.5
 42
0.8
 44
0.8
 73
     0
 74
     0
 77
     3
 78
     8
 79
     2
140
2.5
141
0.0
147
0.5
172
     1
176
     4
177
     4
178
   256
179
     3
271
     3
272
     3
279
     2
340
8D7
341
89E
342
89E
371
    13
372
    13
  0
ENDTAB
  0
TABLE
  2
BLOCK_RECORD
  5
1
330
0
100
AcDbSymbolTable
 70
     1
  0
BLOCK_RECORD
  5
18
330
1
100
AcDbSymbolTableRecord
100
AcDbBlockTableRecord
  2
*MODEL_SPACE
340
741
  0
BLOCK_RECORD
  5
8B247
330
1
100
AcDbSymbolTableRecord
100
AcDbBlockTableRecord
  2
*Paper_Space
340
8B248
  0
BLOCK_RECORD
  5
89E
330
1
100
AcDbSymbolTableRecord
100
AcDbBlockTableRecord
  2
_Open30
340
0
  0
ENDTAB
  0
ENDSEC
  0
SECTION
  2
BLOCKS
  0
BLOCK
  5
19
330
18
100
AcDbEntity
  8
0
100
AcDbBlockBegin
  2
*MODEL_SPACE
 70
     0
 10
0.0
 20
0.0
 30
0.0
  3
*MODEL_SPACE
  1
*MODEL_SPACE
  0
ENDBLK
  5
1A
330
18
100
AcDbEntity
  8
0
100
AcDbBlockEnd
  0
BLOCK
  5
8B249
330
8B247
100
AcDbEntity
 67
     1
  8
0
100
AcDbBlockBegin
  2
*Paper_Space
 70
     0
 10
0.0
 20
0.0
 30
0.0
  3
*Paper_Space
  1
*Paper_Space
  0
ENDBLK
  5
8B24A
330
8B247
100
AcDbEntity
 67
     1
  8
0
100
AcDbBlockEnd
  0
BLOCK
  5
8A2
330
89E
100
AcDbEntity
  8
0
100
AcDbBlockBegin
  2
_Open30
 70
     0
 10
0.0
 20
0.0
 30
0.0
  3
_Open30
  1
_Open30
  0
LINE
  5
89F
330
89E
100
AcDbEntity
  8
0
  6
ByBlock
 62
     0
370
    -2
100
AcDbLine
 10
-1.0
 20
0.26794919
 30
0.0
 11
0.0
 21
0.0
 31
0.0
  0
LINE
  5
8A0
330
89E
100
AcDbEntity
  8
0
  6
ByBlock
 62
     0
370
    -2
100
AcDbLine
 10
0.0
 20
0.0
 30
0.0
 11
-1.0
 21
-0.26794919
 31
0.0
  0
LINE
  5
8A1
330
89E
100
AcDbEntity
  8
0
  6
ByBlock
 62
     0
370
    -2
100
AcDbLine
 10
0.0
 20
0.0
 30
0.0
 11
-1.0
 21
0.0
 31
0.0
  0
ENDBLK
  5
8A3
330
89E
100
AcDbEntity
  8
0
100
AcDbBlockEnd
  0
ENDSEC
  0
SECTION
  2
ENTITIES
  0
TEXT
  5
16EAD
330
18
100
AcDbEntity
  8
文字
100
AcDbText
 10
-213.0399041533702
 20
458.6683596617151
 30
0.0
 40
2.699999892000001
  1

  7
まこ
 72
     1
 11
-213.0399041533702
 21
460.0183596077151
 31
0.0
100
AcDbText
 73
     2
  0
LINE
  5
7BEDB
102
{ACAD_REACTORS
330
7BFC6
330
7D139
102
}
330
18
100
AcDbEntity
  8
中心線
100
AcDbLine
 10
5447.600063412782
 20
-3606.84711106125
 30
0.0
 11
4988.993078089538
 21
-3606.84711106125
 31
0.0
  0
LINE
  5
7BEDC
102
{ACAD_REACTORS
330
7BFC6
330
7D139
102
}
330
18
100
AcDbEntity
  8
中心線
100
AcDbLine
 10
5237.857366406172
 20
-3384.26452619134
 30
0.0
 11
5237.857366406172
 21
-3829.42969593116
 31
0.0
  0
ARC
  5
7BF40
102
{ACAD_REACTORS
330
7BFC6
330
7D139
102
}
330
18
100
AcDbEntity
  8
実線
100
AcDbCircle
 10
5237.857366406177
 20
-3606.847111061239
 30
0.0
 40
202.5
100
AcDbArc
 50
194.657557623496
 51
165.3424423765039
  0
ARC
  5
7BF41
102
{ACAD_REACTORS
330
7BFC6
330
7D139
102
}
330
18
100
AcDbEntity
  8
実線
100
AcDbCircle
 10
5237.857366406177
 20
-3606.847111061239
 30
0.0
 40
214.0
100
AcDbArc
 50
167.4078530490079
 51
192.5921469509921
  0
LINE
  5
7BF42
102
{ACAD_REACTORS
330
7BFC6
330
7D139
102
}
330
18
100
AcDbEntity
  8
実線
100
AcDbLine
 10
5031.93262287106
 20
-3655.847111061262
 30
0.0
 11
5039.04526918876
 21
-3655.847111061298
 31
0.0
  0
ARC
  5
7BF43
102
{ACAD_REACTORS
330
7BFC6
330
7D139
102
}
330
18
100
AcDbEntity
  8
実線
100
AcDbCircle
 10
5031.932622871075
 20
-3652.84711106126
 30
0.0
 40
3.0
100
AcDbArc
 50
192.5921469509921
 51
269.9999999996873
  0
ARC
  5
7BF44
102
{ACAD_REACTORS
330
7BFC6
330
7D139
102
}
330
18
100
AcDbEntity
  8
実線
100
AcDbCircle
 10
5039.045269188743
 20
-3658.847111061299
 30
0.0
 40
3.0
100
AcDbArc
 50
14.65755762350001
 51
89.99999999968734
  0
LINE
  5
7BF45
102
{ACAD_REACTORS
330
7BFC6
330
7D139
102
}
330
18
100
AcDbEntity
  8
実線
100
AcDbLine
 10
5031.932622871057
 20
-3557.847111061302
 30
0.0
 11
5039.045269188713
 21
-3557.8471110613
 31
0.0
  0
ARC
  5
7BF46
102
{ACAD_REACTORS
330
7BFC6
330
7D139
102
}
330
18
100
AcDbEntity
  8
実線
100
AcDbCircle
 10
5031.932622871054
 20
-3560.8471110613
 30
0.0
 40
3.0
100
AcDbArc
 50
90.0
 51
167.4078530490079
  0
ARC
  5
7BF47
102
{ACAD_REACTORS
330
7BFC6
330
7D139
102
}
330
18
100
AcDbEntity
  8
実線
100
AcDbCircle
 10
5039.045269188713
 20
-3554.8471110613
 30
0.0
 40
3.0
100
AcDbArc
 50
270.0
 51
345.3424423765
  0
LINE
  5
7BF48
102
{ACAD_REACTORS
330
7BFC6
330
7D139
102
}
330
18
100
AcDbEntity
  8
中心線
100
AcDbLine
 10
5065.161338313244
 20
-3434.151082968325
 30
0.0
 11
5092.355342964969
 21
-3461.345087620055
 31
0.0
  0
ARC
  5
7BF49
102
{ACAD_REACTORS
330
7BFC6
330
7D139
102
}
330
18
100
AcDbEntity
  8
中心線
100
AcDbCircle
 10
5237.85736640617
 20
-3606.847111061252
 30
0.0
 40
225.0
100
AcDbArc
 50
128.0
 51
142.0000000000003
  0
LINE
  5
7BF4A
102
{ACAD_REACTORS
330
7BFC6
330
7D139
102
}
330
18
100
AcDbEntity
  8
中心線
100
AcDbLine
 10
5410.553394499096
 20
-3434.151082968325
 30
0.0
 11
5383.359389847367
 21
-3461.34508762005
 31
0.0
  0
ARC
  5
7BF4B
102
{ACAD_REACTORS
330
7BFC6
330
7D139
102
}
330
18
100
AcDbEntity
  8
中心線
100
AcDbCircle
 10
5237.85736640617
 20
-3606.847111061249
 30
0.0
 40
225.0
100
AcDbArc
 50
38.00000000000001
 51
52.0
  0
LINE
  5
7BF4C
102
{ACAD_REACTORS
330
7BFC6
330
7D139
102
}
330
18
100
AcDbEntity
  8
中心線
100
AcDbLine
 10
5410.553394499095
 20
-3779.543139154177
 30
0.0
 11
5383.359389847368
 21
-3752.349134502448
 31
0.0
  0
ARC
  5
7BF4D
102
{ACAD_REACTORS
330
7BFC6
330
7D139
102
}
330
18
100
AcDbEntity
  8
中心線
100
AcDbCircle
 10
5237.857366406172
 20
-3606.847111061251
 30
0.0
 40
225.0
100
AcDbArc
 50
308.0
 51
321.9999999999997
  0
LINE
  5
7BF4E
102
{ACAD_REACTORS
330
7BFC6
330
7D139
102
}
330
18
100
AcDbEntity
  8
中心線
 48
0.5
100
AcDbLine
 10
5296.214635955284
 20
-3505.769355211195
 30
0.0
 11
5289.500096857058
 21
-3517.39927807873
 31
0.0
  0
LINE
  5
7BF4F
102
{ACAD_REACTORS
330
7BFC6
330
7D139
102
}
330
18
100
AcDbEntity
  8
中心線
 48
0.5
100
AcDbLine
 10
5354.571905504397
 20
-3606.84711106125
 30
0.0
 11
5341.142827307944
 21
-3606.847111061249
 31
0.0
  0
LINE
  5
7BF50
102
{ACAD_REACTORS
330
7BFC6
330
7D139
102
}
330
18
100
AcDbEntity
  8
中心線
 48
0.5
100
AcDbLine
 10
5296.214635955286
 20
-3707.924866911304
 30
0.0
 11
5289.500096857061
 21
-3696.294944043771
 31
0.0
  0
LINE
  5
7BF51
102
{ACAD_REACTORS
330
7BFC6
330
7D139
102
}
330
18
100
AcDbEntity
  8
中心線
 48
0.5
100
AcDbLine
 10
5179.500096857058
 20
-3707.924866911309
 30
0.0
 11
5186.214635955284
 21
-3696.294944043771
 31
0.0
  0
LINE
  5
7BF52
102
{ACAD_REACTORS
330
7BFC6
330
7D139
102
}
330
18
100
AcDbEntity
  8
中心線
 48
0.5
100
AcDbLine
 10
5121.142827307945
 20
-3606.84711106125
 30
0.0
 11
5134.571905504397
 21
-3606.84711106125
 31
0.0
  0
LINE
  5
7BF53
102
{ACAD_REACTORS
330
7BFC6
330
7D139
102
}
330
18
100
AcDbEntity
  8
中心線
 48
0.5
100
AcDbLine
 10
5179.500096857058
 20
-3505.769355211195
 30
0.0
 11
5186.214635955284
 21
-3517.399278078729
 31
0.0
  0
CIRCLE
  5
7BF54
102
{ACAD_REACTORS
330
7BFC6
330
7D139
102
}
330
18
100
AcDbEntity
  8
細線
 48
5.0
100
AcDbCircle
 10
5182.857366406167
 20
-3511.58431664496
 30
0.0
 40
4.0
  0
CIRCLE
  5
7BF55
102
{ACAD_REACTORS
330
7BFC6
330
7D139
102
}
330
18
100
AcDbEntity
  8
実線
100
AcDbCircle
 10
5182.857366406167
 20
-3511.58431664496
 30
0.0
 40
3.399999999999999
  0
CIRCLE
  5
7BF56
102
{ACAD_REACTORS
330
7BFC6
330
7D139
102
}
330
18
100
AcDbEntity
  8
細線
 48
5.0
100
AcDbCircle
 10
5292.857366406169
 20
-3511.58431664496
 30
0.0
 40
4.0
  0
CIRCLE
  5
7BF57
102
{ACAD_REACTORS
330
7BFC6
330
7D139
102
}
330
18
100
AcDbEntity
  8
実線
100
AcDbCircle
 10
5292.857366406169
 20
-3511.58431664496
 30
0.0
 40
3.399999999999999
  0
CIRCLE
  5
7BF58
102
{ACAD_REACTORS
330
7BFC6
330
7D139
102
}
330
18
100
AcDbEntity
  8
細線
 48
5.0
100
AcDbCircle
 10
5347.857366406175
 20
-3606.847111061249
 30
0.0
 40
4.0
  0
CIRCLE
  5
7BF59
102
{ACAD_REACTORS
330
7BFC6
330
7D139
102
}
330
18
100
AcDbEntity
  8
実線
100
AcDbCircle
 10
5347.857366406175
 20
-3606.847111061249
 30
0.0
 40
3.399999999999999
  0
CIRCLE
  5
7BF5A
102
{ACAD_REACTORS
330
7BFC6
330
7D139
102
}
330
18
100
AcDbEntity
  8
細線
 48
5.0
100
AcDbCircle
 10
5292.857366406171
 20
-3702.109905477537
 30
0.0
 40
4.0
  0
CIRCLE
  5
7BF5B
102
{ACAD_REACTORS
330
7BFC6
330
7D139
102
}
330
18
100
AcDbEntity
  8
実線
100
AcDbCircle
 10
5292.857366406171
 20
-3702.109905477537
 30
0.0
 40
3.399999999999999
  0
CIRCLE
  5
7BF5C
102
{ACAD_REACTORS
330
7BFC6
330
7D139
102
}
330
18
100
AcDbEntity
  8
細線
 48
5.0
100
AcDbCircle
 10
5182.857366406171
 20
-3702.109905477542
 30
0.0
 40
4.0
  0
CIRCLE
  5
7BF5D
102
{ACAD_REACTORS
330
7BFC6
330
7D139
102
}
330
18
100
AcDbEntity
  8
実線
100
AcDbCircle
 10
5182.857366406171
 20
-3702.109905477542
 30
0.0
 40
3.399999999999999
  0
CIRCLE
  5
7BF5E
102
{ACAD_REACTORS
330
7BFC6
330
7D139
102
}
330
18
100
AcDbEntity
  8
実線
100
AcDbCircle
 10
5127.857366406169
 20
-3606.84711106125
 30
0.0
 40
3.399999999999999
  0
CIRCLE
  5
7BF5F
102
{ACAD_REACTORS
330
7BFC6
330
7D139
102
}
330
18
100
AcDbEntity
  8
細線
 48
5.0
100
AcDbCircle
 10
5127.857366406169
 20
-3606.84711106125
 30
0.0
 40
4.0
  0
CIRCLE
  5
7BF61
102
{ACAD_REACTORS
330
7BFC6
330
7D139
102
}
330
18
100
AcDbEntity
  8
実線
100
AcDbCircle
 10
5237.85736640617
 20
-3606.84711106125
 30
0.0
 40
129.9
  0
CIRCLE
  5
7BF63
102
{ACAD_REACTORS
330
7BFC6
330
7D139
102
}
330
18
100
AcDbEntity
  8
中心線
100
AcDbCircle
 10
5237.85736640617
 20
-3606.84711106125
 30
0.0
 40
110.0
  0
ARC
  5
7BF64
102
{ACAD_REACTORS
330
7BFC6
330
7D139
102
}
330
18
100
AcDbEntity
  8
実線
100
AcDbCircle
 10
5237.857366406172
 20
-3606.847111061252
 30
0.0
 40
204.0
100
AcDbArc
 50
194.8351385948307
 51
165.1648614052834
  0
LINE
  5
7BF65
102
{ACAD_REACTORS
330
7BFC6
330
7D139
102
}
330
18
100
AcDbEntity
  8
実線
100
AcDbLine
 10
5100.380185678294
 20
-3402.84711106125
 30
0.0
 11
5375.334626214072
 21
-3402.84711106125
 31
0.0
  0
LINE
  5
7BF66
102
{ACAD_REACTORS
330
7BFC6
330
7D139
102
}
330
18
100
AcDbEntity
  8
実線
100
AcDbLine
 10
5100.380084516748
 20
-3810.847111061252
 30
0.0
 11
5375.334727375617
 21
-3810.84711106125
 31
0.0
  0
ARC
  5
7BF67
102
{ACAD_REACTORS
330
7BFC6
330
7D139
102
}
330
18
100
AcDbEntity
  8
中心線
100
AcDbCircle
 10
5237.857366406172
 20
-3606.847111061252
 30
0.0
 40
225.0
100
AcDbArc
 50
218.0
 51
232.0
  0
LINE
  5
7BF68
102
{ACAD_REACTORS
330
7BFC6
330
7D139
102
}
330
18
100
AcDbEntity
  8
中心線
100
AcDbLine
 10
5065.161338313244
 20
-3779.543139154176
 30
0.0
 11
5092.355342964975
 21
-3752.349134502451
 31
0.0
  0
CIRCLE
  5
7BF69
102
{ACAD_REACTORS
330
7BFC6
330
7D139
102
}
330
18
100
AcDbEntity
  8
実線
100
AcDbCircle
 10
5078.758340639199
 20
-3765.946136828225
 30
0.0
 40
8.5
  0
ARC
  5
7BF6A
102
{ACAD_REACTORS
330
7BFC6
330
7D139
102
}
330
18
100
AcDbEntity
  8
実線
100
AcDbCircle
 10
5237.857366406172
 20
-3606.847111061252
 30
0.0
 40
216.0
100
AcDbArc
 50
167.2523590433189
 51
192.747640956788
  0
LINE
  5
7BF6C
102
{ACAD_REACTORS
330
7BFC6
330
7D139
102
}
330
18
100
AcDbEntity
  8
\U+FF7A\U+FF88\U+FF78\U+FF80
100
AcDbLine
 10
5016.857366406171
 20
-3600.847112322883
 30
0.0
 11
5011.857366406172
 21
-3600.847113584518
 31
0.0
  0
LINE
  5
7BF6D
102
{ACAD_REACTORS
330
7BFC6
330
7D139
102
}
330
18
100
AcDbEntity
  8
\U+FF7A\U+FF88\U+FF78\U+FF80
100
AcDbLine
 10
5016.857366406171
 20
-3612.847112322886
 30
0.0
 11
5011.857366406172
 21
-3612.847113584521
 31
0.0
  0
LINE
  5
7BF6E
102
{ACAD_REACTORS
330
7BFC6
330
7D139
102
}
330
18
100
AcDbEntity
  8
\U+FF7A\U+FF88\U+FF78\U+FF80
100
AcDbLine
 10
5011.857366406172
 20
-3603.280211061252
 30
0.0
 11
5004.696554693104
 21
-3603.280211061252
 31
0.0
  0
LINE
  5
7BF6F
102
{ACAD_REACTORS
330
7BFC6
330
7D139
102
}
330
18
100
AcDbEntity
  8
\U+FF7A\U+FF88\U+FF78\U+FF80
100
AcDbLine
 10
5011.857366406172
 20
-3601.760211061252
 30
0.0
 11
5004.696554693104
 21
-3601.760211061252
 31
0.0
  0
LINE
  5
7BF70
102
{ACAD_REACTORS
330
7BFC6
330
7D139
102
}
330
18
100
AcDbEntity
  8
\U+FF7A\U+FF88\U+FF78\U+FF80
100
AcDbLine
 10
5011.857366406172
 20
-3611.934011061252
 30
0.0
 11
5004.696554693104
 21
-3611.934011061252
 31
0.0
  0
LINE
  5
7BF71
102
{ACAD_REACTORS
330
7BFC6
330
7D139
102
}
330
18
100
AcDbEntity
  8
\U+FF7A\U+FF88\U+FF78\U+FF80
100
AcDbLine
 10
5011.857366406172
 20
-3610.414011061252
 30
0.0
 11
5004.696554693104
 21
-3610.414011061252
 31
0.0
  0
LINE
  5
7BF72
102
{ACAD_REACTORS
330
7BFC6
330
7D139
102
}
330
18
100
AcDbEntity
  8
\U+FF7A\U+FF88\U+FF78\U+FF80
100
AcDbLine
 10
5011.857366406172
 20
-3615.50091106125
 30
0.0
 11
5003.857366406172
 21
-3615.50091106125
 31
0.0
  0
LINE
  5
7BF73
102
{ACAD_REACTORS
330
7BFC6
330
7D139
102
}
330
18
100
AcDbEntity
  8
\U+FF7A\U+FF88\U+FF78\U+FF80
100
AcDbLine
 10
5011.857366406172
 20
-3598.19331106125
 30
0.0
 11
5003.857366406172
 21
-3598.19331106125
 31
0.0
  0
LINE
  5
7BF74
102
{ACAD_REACTORS
330
7BFC6
330
7D139
102
}
330
18
100
AcDbEntity
  8
\U+FF7A\U+FF88\U+FF78\U+FF80
100
AcDbLine
 10
5003.857366406172
 20
-3598.19331106125
 30
0.0
 11
4999.857366406171
 21
-3601.54970958596
 31
0.0
  0
LINE
  5
7BF75
102
{ACAD_REACTORS
330
7BFC6
330
7D139
102
}
330
18
100
AcDbEntity
  8
\U+FF7A\U+FF88\U+FF78\U+FF80
100
AcDbLine
 10
5003.857366406172
 20
-3615.50091106125
 30
0.0
 11
4999.857366406171
 21
-3612.144512536541
 31
0.0
  0
LINE
  5
7BF76
102
{ACAD_REACTORS
330
7BFC6
330
7D139
102
}
330
18
100
AcDbEntity
  8
\U+FF7A\U+FF88\U+FF78\U+FF80
100
AcDbLine
 10
4999.857366406171
 20
-3612.144512536541
 30
0.0
 11
4999.857366406171
 21
-3601.54970958596
 31
0.0
  0
ARC
  5
7BF77
102
{ACAD_REACTORS
330
7BFC6
330
7D139
102
}
330
18
100
AcDbEntity
  8
\U+FF7A\U+FF88\U+FF78\U+FF80
100
AcDbCircle
 10
5011.857366406172
 20
-3598.19331106125
 30
0.0
 40
8.0
100
AcDbArc
 50
180.0
 51
206.4785344790573
  0
ARC
  5
7BF78
102
{ACAD_REACTORS
330
7BFC6
330
7D139
102
}
330
18
100
AcDbEntity
  8
\U+FF7A\U+FF88\U+FF78\U+FF80
100
AcDbCircle
 10
5011.857366406172
 20
-3615.50091106125
 30
0.0
 40
8.0
100
AcDbArc
 50
153.5214655209427
 51
180.0
  0
LINE
  5
7BF79
102
{ACAD_REACTORS
330
7BFC6
330
7D139
102
}
330
18
100
AcDbEntity
  8
\U+FF7A\U+FF88\U+FF78\U+FF80
100
AcDbLine
 10
5003.857366406172
 20
-3615.50091106125
 30
0.0
 11
5003.857366406172
 21
-3598.19331106125
 31
0.0
  0
LINE
  5
7BF7A
102
{ACAD_REACTORS
330
7BFC6
330
7D139
102
}
330
18
100
AcDbEntity
  8
\U+FF7A\U+FF88\U+FF78\U+FF80
100
AcDbLine
 10
5004.696554693104
 20
-3601.760211061252
 30
0.0
 11
5004.696554693104
 21
-3603.280211061252
 31
0.0
  0
LINE
  5
7BF7B
102
{ACAD_REACTORS
330
7BFC6
330
7D139
102
}
330
18
100
AcDbEntity
  8
\U+FF7A\U+FF88\U+FF78\U+FF80
100
AcDbLine
 10
5004.696554693104
 20
-3610.414011061252
 30
0.0
 11
5004.696554693104
 21
-3611.934011061252
 31
0.0
  0
ARC
  5
7BF7C
102
{ACAD_REACTORS
330
7BFC6
330
7D139
102
}
330
18
100
AcDbEntity
  8
\U+FF7A\U+FF88\U+FF78\U+FF80
100
AcDbCircle
 10
5011.857366406172
 20
-3606.84711106125
 30
0.0
 40
8.0
100
AcDbArc
 50
153.5214655209427
 51
206.4785344790573
  0
LINE
  5
7BF7D
102
{ACAD_REACTORS
330
7BFC6
330
7D139
102
}
330
18
100
AcDbEntity
  8
\U+FF7A\U+FF88\U+FF78\U+FF80
100
AcDbLine
 10
5011.857366406172
 20
-3615.50091106125
 30
0.0
 11
5011.857366406172
 21
-3598.19331106125
 31
0.0
  0
LINE
  5
7BF7E
102
{ACAD_REACTORS
330
7BFC6
330
7D139
102
}
330
18
100
AcDbEntity
  8
実線
100
AcDbLine
 10
5033.857366406171
 20
-3744.324357324007
 30
0.0
 11
5033.857366406171
 21
-3659.847111061312
 31
0.0
  0
LINE
  5
7BF7F
102
{ACAD_REACTORS
330
7BFC6
330
7D139
102
}
330
18
100
AcDbEntity
  8
実線
100
AcDbLine
 10
5037.757391393696
 20
-3656.847111061312
 30
0.0
 11
5030.857366406172
 21
-3656.847111061312
 31
0.0
  0
ARC
  5
7BF80
102
{ACAD_REACTORS
330
7BFC6
330
7D139
102
}
330
18
100
AcDbEntity
  8
実線
100
AcDbCircle
 10
5030.85736640617
 20
-3659.847111061314
 30
0.0
 40
3.0
100
AcDbArc
 50
0.0
 51
90.0
  0
ARC
  5
7BF81
102
{ACAD_REACTORS
330
7BFC6
330
7D139
102
}
330
18
100
AcDbEntity
  8
実線
100
AcDbCircle
 10
5037.757391393696
 20
-3659.847111061314
 30
0.0
 40
3.0
100
AcDbArc
 50
14.83513859483462
 51
90.0
  0
ARC
  5
7BF82
102
{ACAD_REACTORS
330
7BFC6
330
7D139
102
}
330
18
100
AcDbEntity
  8
実線
100
AcDbCircle
 10
5030.107516827418
 20
-3653.847111061315
 30
0.0
 40
3.0
100
AcDbArc
 50
192.7476409567867
 51
270.0
  0
LINE
  5
7BF83
102
{ACAD_REACTORS
330
7BFC6
330
7D139
102
}
330
18
100
AcDbEntity
  8
実線
100
AcDbLine
 10
5030.10751682742
 20
-3656.847111061312
 30
0.0
 11
5030.857366406172
 21
-3656.847111061312
 31
0.0
  0
LINE
  5
7BF84
102
{ACAD_REACTORS
330
7BFC6
330
7D139
102
}
330
18
100
AcDbEntity
  8
\U+FF7A\U+FF88\U+FF78\U+FF80
100
AcDbLine
 10
5021.857366406171
 20
-3598.19331106125
 30
0.0
 11
5021.857366406171
 21
-3615.50091106125
 31
0.0
  0
LINE
  5
7BF85
102
{ACAD_REACTORS
330
7BFC6
330
7D139
102
}
330
18
100
AcDbEntity
  8
\U+FF7A\U+FF88\U+FF78\U+FF80
100
AcDbLine
 10
5016.857366406171
 20
-3615.50091106125
 30
0.0
 11
5016.857366406171
 21
-3598.19331106125
 31
0.0
  0
LINE
  5
7BF86
102
{ACAD_REACTORS
330
7BFC6
330
7D139
102
}
330
18
100
AcDbEntity
  8
\U+FF7A\U+FF88\U+FF78\U+FF80
100
AcDbLine
 10
5021.857366406171
 20
-3601.760211061252
 30
0.0
 11
5016.857366406171
 21
-3601.760211061252
 31
0.0
  0
LINE
  5
7BF87
102
{ACAD_REACTORS
330
7BFC6
330
7D139
102
}
330
18
100
AcDbEntity
  8
\U+FF7A\U+FF88\U+FF78\U+FF80
100
AcDbLine
 10
5021.857366406171
 20
-3603.280211061252
 30
0.0
 11
5016.857366406171
 21
-3603.280211061252
 31
0.0
  0
LINE
  5
7BF88
102
{ACAD_REACTORS
330
7BFC6
330
7D139
102
}
330
18
100
AcDbEntity
  8
\U+FF7A\U+FF88\U+FF78\U+FF80
100
AcDbLine
 10
5021.857366406171
 20
-3611.934011061252
 30
0.0
 11
5016.857366406171
 21
-3611.934011061252
 31
0.0
  0
LINE
  5
7BF89
102
{ACAD_REACTORS
330
7BFC6
330
7D139
102
}
330
18
100
AcDbEntity
  8
\U+FF7A\U+FF88\U+FF78\U+FF80
100
AcDbLine
 10
5021.857366406171
 20
-3610.414011061252
 30
0.0
 11
5016.857366406171
 21
-3610.414011061252
 31
0.0
  0
LINE
  5
7BF8A
102
{ACAD_REACTORS
330
7BFC6
330
7D139
102
}
330
18
100
AcDbEntity
  8
\U+FF7A\U+FF88\U+FF78\U+FF80
100
AcDbLine
 10
5021.857366406171
 20
-3615.50091106125
 30
0.0
 11
5016.857366406171
 21
-3615.50091106125
 31
0.0
  0
LINE
  5
7BF8B
102
{ACAD_REACTORS
330
7BFC6
330
7D139
102
}
330
18
100
AcDbEntity
  8
\U+FF7A\U+FF88\U+FF78\U+FF80
100
AcDbLine
 10
5021.857366406171
 20
-3598.19331106125
 30
0.0
 11
5016.857366406171
 21
-3598.19331106125
 31
0.0
  0
CIRCLE
  5
7BF8C
102
{ACAD_REACTORS
330
7BFC6
330
7D139
102
}
330
18
100
AcDbEntity
  8
実線
100
AcDbCircle
 10
5078.758340639199
 20
-3447.748085294279
 30
0.0
 40
8.5
  0
ARC
  5
7BF8D
102
{ACAD_REACTORS
330
7BFC6
330
7D139
102
}
330
18
100
AcDbEntity
  8
実線
100
AcDbCircle
 10
5030.85736640617
 20
-3553.847111061312
 30
0.0
 40
3.0
100
AcDbArc
 50
270.0
 51
0.0
  0
ARC
  5
7BF8E
102
{ACAD_REACTORS
330
7BFC6
330
7D139
102
}
330
18
100
AcDbEntity
  8
実線
100
AcDbCircle
 10
5030.107516827391
 20
-3559.847111061314
 30
0.0
 40
3.0
100
AcDbArc
 50
90.0
 51
167.2523590433227
  0
ARC
  5
7BF8F
102
{ACAD_REACTORS
330
7BFC6
330
7D139
102
}
330
18
100
AcDbEntity
  8
実線
100
AcDbCircle
 10
5037.757391393663
 20
-3553.847111061315
 30
0.0
 40
3.0
100
AcDbArc
 50
270.0
 51
345.1648614052834
  0
LINE
  5
7BF90
102
{ACAD_REACTORS
330
7BFC6
330
7D139
102
}
330
18
100
AcDbEntity
  8
実線
100
AcDbLine
 10
5030.107516827391
 20
-3556.847111061312
 30
0.0
 11
5037.757391393666
 21
-3556.847111061304
 31
0.0
  0
CIRCLE
  5
7BF91
102
{ACAD_REACTORS
330
7BFC6
330
7D139
102
}
330
18
100
AcDbEntity
  8
実線
100
AcDbCircle
 10
5396.956392173144
 20
-3765.946136828225
 30
0.0
 40
8.5
  0
CIRCLE
  5
7BF92
102
{ACAD_REACTORS
330
7BFC6
330
7D139
330
7EEF3
102
}
330
18
100
AcDbEntity
  8
実線
100
AcDbCircle
 10
5237.85737185943
 20
-3606.847184688098
 30
0.0
 40
32.5
  0
CIRCLE
  5
7BFA6
102
{ACAD_REACTORS
330
7BFC6
330
7D139
102
}
330
18
100
AcDbEntity
  8
実線
100
AcDbCircle
 10
5396.956392173144
 20
-3447.748085294279
 30
0.0
 40
8.5
  0
LINE
  5
7BFA7
102
{ACAD_REACTORS
330
7BFC6
330
7D139
102
}
330
18
100
AcDbEntity
  8
実線
100
AcDbLine
 10
5441.857366406171
 20
-3744.3244746694
 30
0.0
 11
5441.857366406171
 21
-3469.369815626695
 31
0.0
  0
CIRCLE
  5
7BFA8
102
{ACAD_REACTORS
330
7BFC6
330
7D139
102
}
330
18
100
AcDbEntity
  8
実線
100
AcDbCircle
 10
5396.956392173144
 20
-3447.748085294278
 30
0.0
 40
16.0
  0
CIRCLE
  5
7BFA9
102
{ACAD_REACTORS
330
7BFC6
330
7D139
102
}
330
18
100
AcDbEntity
  8
実線
100
AcDbCircle
 10
5078.758340639144
 20
-3447.748085294219
 30
0.0
 40
16.0
  0
CIRCLE
  5
7BFAA
102
{ACAD_REACTORS
330
7BFC6
330
7D139
102
}
330
18
100
AcDbEntity
  8
実線
100
AcDbCircle
 10
5078.75834063919
 20
-3765.946136828392
 30
0.0
 40
16.0
  0
CIRCLE
  5
7BFAB
102
{ACAD_REACTORS
330
7BFC6
330
7D139
102
}
330
18
100
AcDbEntity
  8
実線
100
AcDbCircle
 10
5396.956392173191
 20
-3765.946136828244
 30
0.0
 40
16.0
  0
LINE
  5
7BFBF
102
{ACAD_REACTORS
330
7BFC6
330
7D139
102
}
330
18
100
AcDbEntity
  8
\U+FF7A\U+FF88\U+FF78\U+FF80
100
AcDbLine
 10
4999.857366406171
 20
-3610.844196065878
 30
0.0
 11
4993.381800652998
 21
-3610.844196065878
 31
0.0
  0
LINE
  5
7BFC0
102
{ACAD_REACTORS
330
7BFC6
330
7D139
102
}
330
18
100
AcDbEntity
  8
\U+FF7A\U+FF88\U+FF78\U+FF80
100
AcDbLine
 10
4999.857366406171
 20
-3602.844196065877
 30
0.0
 11
4993.381800652998
 21
-3602.844196065877
 31
0.0
  0
ARC
  5
7BFC1
102
{ACAD_REACTORS
330
7BFC6
330
7D139
102
}
330
18
100
AcDbEntity
  8
実線
100
AcDbCircle
 10
5237.857405946181
 20
-3606.847145148047
 30
0.0
 40
246.0
100
AcDbArc
 50
123.9763524221634
 51
146.02365066094
  0
ARC
  5
7BFC2
102
{ACAD_REACTORS
330
7BFC6
330
7D139
102
}
330
18
100
AcDbEntity
  8
実線
100
AcDbCircle
 10
5237.857405946181
 20
-3606.847145148047
 30
0.0
 40
246.0
100
AcDbArc
 50
33.97635629983267
 51
56.02364757783661
  0
ARC
  5
7BFC3
102
{ACAD_REACTORS
330
7BFC6
330
7D139
102
}
330
18
100
AcDbEntity
  8
実線
100
AcDbCircle
 10
5237.857405946181
 20
-3606.847145148047
 30
0.0
 40
246.0
100
AcDbArc
 50
303.9763532168155
 51
326.0236437001673
  0
ARC
  5
7BFC4
102
{ACAD_REACTORS
330
7BFC6
330
7D139
102
}
330
18
100
AcDbEntity
  8
実線
100
AcDbCircle
 10
5237.857405946181
 20
-3606.847145148047
 30
0.0
 40
246.0
100
AcDbArc
 50
213.9763493390599
 51
236.0236467831844
  0
LINE
  5
7BFC5
102
{ACAD_REACTORS
330
7BFC6
330
7D139
102
}
330
18
100
AcDbEntity
  8
実線
100
AcDbLine
 10
5033.857366406171
 20
-3553.847111061312
 30
0.0
 11
5033.857366406171
 21
-3469.369932972088
 31
0.0
  0
LINE
  5
7CE90
330
18
100
AcDbEntity
  8
実線
 48
2.0
100
AcDbLine
 10
5604.164772032881
 20
-3810.84711106127
 30
0.0
 11
5675.164772032878
 21
-3810.84711106127
 31
0.0
  0
LINE
  5
7CE91
330
18
100
AcDbEntity
  8
中心線
100
AcDbLine
 10
5683.728591161496
 20
-3606.84711106125
 30
0.0
 11
5583.096493797801
 21
-3606.84711106125
 31
0.0
  0
LINE
  5
7CE94
330
18
100
AcDbEntity
  8
実線
 48
2.0
100
AcDbLine
 10
5603.16477198538
 20
-3749.347111061251
 30
0.0
 11
5601.164772032877
 21
-3749.347111061251
 31
0.0
  0
LINE
  5
7CE95
330
18
100
AcDbEntity
  8
実線
 48
2.0
100
AcDbLine
 10
5601.164772032877
 20
-3749.347111061251
 30
0.0
 11
5601.164772032876
 21
-3464.34711106125
 31
0.0
  0
ARC
  5
7CE96
330
18
100
AcDbEntity
  8
実線
 48
2.0
100
AcDbCircle
 10
5600.764772032876
 20
-3737.147111061252
 30
0.0
 40
0.4000000000000057
100
AcDbArc
 50
0.0
 51
90.0
  0
LINE
  5
7CE97
330
18
100
AcDbEntity
  8
実線
 48
2.0
100
AcDbLine
 10
5600.764772032876
 20
-3736.74711106125
 30
0.0
 11
5598.864772032877
 21
-3736.74711106125
 31
0.0
  0
LINE
  5
7CE98
330
18
100
AcDbEntity
  8
実線
 48
2.0
100
AcDbLine
 10
5598.864772032877
 20
-3736.74711106125
 30
0.0
 11
5598.364772032877
 21
-3736.247111061257
 31
0.0
  0
LINE
  5
7CE9A
330
18
100
AcDbEntity
  8
実線
 48
2.0
100
AcDbLine
 10
5602.66477198538
 20
-3464.34711106125
 30
0.0
 11
5601.164772032877
 21
-3464.34711106125
 31
0.0
  0
ARC
  5
7CE9B
330
18
100
AcDbEntity
  8
実線
 48
2.0
100
AcDbCircle
 10
5600.764772032876
 20
-3476.547111061249
 30
0.0
 40
0.4000000000000057
100
AcDbArc
 50
270.0
 51
0.0
  0
LINE
  5
7CE9C
330
18
100
AcDbEntity
  8
実線
 48
2.0
100
AcDbLine
 10
5600.764772032876
 20
-3476.94711106125
 30
0.0
 11
5598.864772032877
 21
-3476.94711106125
 31
0.0
  0
LINE
  5
7CE9D
330
18
100
AcDbEntity
  8
実線
 48
2.0
100
AcDbLine
 10
5598.864772032877
 20
-3476.94711106125
 30
0.0
 11
5598.364772032877
 21
-3477.447111061246
 31
0.0
  0
LINE
  5
7CE9E
330
18
100
AcDbEntity
  8
実線
 48
2.0
100
AcDbLine
 10
5598.364772032877
 20
-3477.447111061246
 30
0.0
 11
5598.364772032877
 21
-3736.247111061257
 31
0.0
  0
LINE
  5
7CEA6
330
18
100
AcDbEntity
  8
中心線
100
AcDbLine
 10
5616.514226941204
 20
-3716.847111061252
 30
0.0
 11
5596.164772032881
 21
-3716.847111061252
 31
0.0
  0
LINE
  5
7CEA8
330
18
100
AcDbEntity
  8
実線
100
AcDbLine
 10
5603.16477198538
 20
-3808.847111061263
 30
0.0
 11
5603.664772032877
 21
-3808.847111061263
 31
0.0
  0
LINE
  5
7CEA9
330
18
100
AcDbEntity
  8
実線
100
AcDbLine
 10
5602.66477198538
 20
-3404.347110465202
 30
0.0
 11
5603.664772032877
 21
-3404.347110465202
 31
0.0
  0
LINE
  5
7CEAA
330
18
100
AcDbEntity
  8
実線
 48
2.0
100
AcDbLine
 10
5604.164772032881
 20
-3402.847111061269
 30
0.0
 11
5675.164772032878
 21
-3402.847111061259
 31
0.0
  0
LINE
  5
7CEAB
330
18
100
AcDbEntity
  8
実線
 48
2.0
100
AcDbLine
 10
5603.664772032881
 20
-3403.347111061268
 30
0.0
 11
5603.664772032881
 21
-3810.34711106127
 31
0.0
  0
LINE
  5
7CEAC
330
18
100
AcDbEntity
  8
実線
 48
2.0
100
AcDbLine
 10
5675.164772032878
 20
-3402.847111061259
 30
0.0
 11
5675.164772032878
 21
-3526.847112849381
 31
0.0
  0
LINE
  5
7CEAD
330
18
100
AcDbEntity
  8
中心線
100
AcDbLine
 10
5616.514226941204
 20
-3496.847111061248
 30
0.0
 11
5596.164772032881
 21
-3496.847111061248
 31
0.0
  0
LINE
  5
7CEB3
330
18
100
AcDbEntity
  8
外形線
 48
0.5
100
AcDbLine
 10
5604.164772032881
 20
-3810.84711106127
 30
0.0
 11
5603.664772032881
 21
-3810.34711106127
 31
0.0
  0
LINE
  5
7CEB4
330
18
100
AcDbEntity
  8
外形線
 48
0.5
100
AcDbLine
 10
5604.164772032881
 20
-3402.847111061269
 30
0.0
 11
5603.664772032881
 21
-3403.347111061268
 31
0.0
  0
LINE
  5
7CEC5
330
18
100
AcDbEntity
  8
実線
 48
2.0
100
AcDbLine
 10
5655.164772032877
 20
-3404.847111061261
 30
0.0
 11
5655.164772032877
 21
-3808.84711106127
 31
0.0
  0
LINE
  5
7CEC6
330
18
100
AcDbEntity
  8
実線
 48
2.0
100
AcDbLine
 10
5655.164772032877
 20
-3744.324343784598
 30
0.0
 11
5675.164772032878
 21
-3744.324343784598
 31
0.0
  0
LINE
  5
7CEC7
330
18
100
AcDbEntity
  8
実線
 48
2.0
100
AcDbLine
 10
5655.164772032877
 20
-3469.369799257924
 30
0.0
 11
5675.164772032878
 21
-3469.369799257924
 31
0.0
  0
LINE
  5
7CF57
330
18
100
AcDbEntity
  8
実線
 48
2.0
100
AcDbLine
 10
5375.364682977617
 20
-4023.571807840124
 30
0.0
 11
5375.364682977617
 21
-4043.571807840124
 31
0.0
  0
LINE
  5
7CF58
330
18
100
AcDbEntity
  8
実線
 48
2.0
100
AcDbLine
 10
5100.410138450943
 20
-4023.571807840122
 30
0.0
 11
5100.410138450943
 21
-4043.571807840122
 31
0.0
  0
LINE
  5
7CF59
330
18
100
AcDbEntity
  8
実線
 48
2.0
100
AcDbLine
 10
5033.88737117427
 20
-4025.571807840123
 30
0.0
 11
5033.88737117427
 21
-4043.571807840122
 31
0.0
  0
LINE
  5
7CF7C
330
18
100
AcDbEntity
  8
中心線
100
AcDbLine
 10
4993.590318736327
 20
-3987.581808343853
 30
0.0
 11
5024.378005548104
 21
-3987.581808343853
 31
0.0
  0
LINE
  5
7CF7E
330
18
100
AcDbEntity
  8
外形線
 48
0.5
100
AcDbLine
 10
5441.887371174273
 20
-3972.571807840127
 30
0.0
 11
5441.387371174272
 21
-3972.071807840127
 31
0.0
  0
LINE
  5
7CF7F
330
18
100
AcDbEntity
  8
外形線
 48
0.5
100
AcDbLine
 10
5021.887371174271
 20
-3972.571807840127
 30
0.0
 11
5022.387371174271
 21
-3972.071807840127
 31
0.0
  0
LINE
  5
7CF85
330
18
100
AcDbEntity
  8
中心線
100
AcDbLine
 10
5347.887371174293
 20
-3984.921262748449
 30
0.0
 11
5347.887371174293
 21
-3964.771807840126
 31
0.0
  0
LINE
  5
7CF86
330
18
100
AcDbEntity
  8
実線
 48
2.0
100
AcDbLine
 10
5441.887371174281
 20
-4043.571807840124
 30
0.0
 11
5317.887371174291
 21
-4043.571807840124
 31
0.0
  0
LINE
  5
7CF87
330
18
100
AcDbEntity
  8
実線
 48
2.0
100
AcDbLine
 10
5441.387371174272
 20
-3972.071807840127
 30
0.0
 11
5022.387371174271
 21
-3972.071807840127
 31
0.0
  0
LINE
  5
7CF88
330
18
100
AcDbEntity
  8
実線
 48
2.0
100
AcDbLine
 10
5441.887371174273
 20
-3972.571807840127
 30
0.0
 11
5441.887371174281
 21
-4043.571807840124
 31
0.0
  0
LINE
  5
7CF89
330
18
100
AcDbEntity
  8
実線
100
AcDbLine
 10
5440.387371770339
 20
-3971.571807792625
 30
0.0
 11
5440.387371770339
 21
-3972.071807840122
 31
0.0
  0
LINE
  5
7CF8A
330
18
100
AcDbEntity
  8
実線
100
AcDbLine
 10
5023.887371174279
 20
-3971.571807792625
 30
0.0
 11
5023.887371174279
 21
-3972.071807840122
 31
0.0
  0
LINE
  5
7CF8C
330
18
100
AcDbEntity
  8
中心線
100
AcDbLine
 10
5127.887371174288
 20
-3984.921262748449
 30
0.0
 11
5127.887371174288
 21
-3964.771807840126
 31
0.0
  0
LINE
  5
7CF94
330
18
100
AcDbEntity
  8
実線
 48
2.0
100
AcDbLine
 10
5367.287371174294
 20
-3966.771807840122
 30
0.0
 11
5108.487371174284
 21
-3966.771807840122
 31
0.0
  0
LINE
  5
7CF95
330
18
100
AcDbEntity
  8
実線
 48
2.0
100
AcDbLine
 10
5367.78737117429
 20
-3967.271807840123
 30
0.0
 11
5367.287371174294
 21
-3966.771807840122
 31
0.0
  0
LINE
  5
7CF96
330
18
100
AcDbEntity
  8
実線
 48
2.0
100
AcDbLine
 10
5367.78737117429
 20
-3969.171807840121
 30
0.0
 11
5367.78737117429
 21
-3967.271807840123
 31
0.0
  0
ARC
  5
7CF97
330
18
100
AcDbEntity
  8
実線
 48
2.0
100
AcDbCircle
 10
5368.187371174292
 20
-3969.171807840121
 30
0.0
 40
0.4000000000000057
100
AcDbArc
 50
180.0
 51
270.0
  0
LINE
  5
7CF98
330
18
100
AcDbEntity
  8
実線
 48
2.0
100
AcDbLine
 10
5380.387371174291
 20
-3971.571807792625
 30
0.0
 11
5380.387371174291
 21
-3969.571807840122
 31
0.0
  0
LINE
  5
7CF9A
330
18
100
AcDbEntity
  8
実線
 48
2.0
100
AcDbLine
 10
5107.987371174291
 20
-3967.271807840123
 30
0.0
 11
5108.487371174284
 21
-3966.771807840122
 31
0.0
  0
LINE
  5
7CF9B
330
18
100
AcDbEntity
  8
実線
 48
2.0
100
AcDbLine
 10
5107.987371174291
 20
-3969.171807840121
 30
0.0
 11
5107.987371174291
 21
-3967.271807840123
 31
0.0
  0
ARC
  5
7CF9C
330
18
100
AcDbEntity
  8
実線
 48
2.0
100
AcDbCircle
 10
5107.58737117429
 20
-3969.171807840121
 30
0.0
 40
0.4000000000000057
100
AcDbArc
 50
270.0
 51
0.0
  0
LINE
  5
7CF9D
330
18
100
AcDbEntity
  8
実線
 48
2.0
100
AcDbLine
 10
5095.38737117429
 20
-3969.571807840122
 30
0.0
 11
5380.387371174291
 21
-3969.571807840122
 31
0.0
  0
LINE
  5
7CF9E
330
18
100
AcDbEntity
  8
実線
 48
2.0
100
AcDbLine
 10
5095.38737117429
 20
-3971.571807792625
 30
0.0
 11
5095.38737117429
 21
-3969.571807840122
 31
0.0
  0
LINE
  5
7CFA1
330
18
100
AcDbEntity
  8
中心線
100
AcDbLine
 10
5237.887371174291
 20
-4053.597794854457
 30
0.0
 11
5237.887371174291
 21
-3937.378496619599
 31
0.0
  0
LINE
  5
7CFBF
330
18
100
AcDbEntity
  8
\U+FF7A\U+FF88\U+FF78\U+FF80
100
AcDbLine
 10
5021.887371174273
 20
-4018.921404924053
 30
0.0
 11
5021.887371174273
 21
-4036.229004924052
 31
0.0
  0
LINE
  5
7CFC0
330
18
100
AcDbEntity
  8
実線
 48
2.0
100
AcDbLine
 10
5021.887371174271
 20
-3972.571807840127
 30
0.0
 11
5021.887371174271
 21
-4043.571807840122
 31
0.0
  0
LINE
  5
7CFC1
330
18
100
AcDbEntity
  8
\U+FF7A\U+FF88\U+FF78\U+FF80
100
AcDbLine
 10
5011.887371174271
 20
-3978.928008343852
 30
0.0
 11
5003.887371174271
 21
-3978.928008343852
 31
0.0
  0
LINE
  5
7CFC4
330
18
100
AcDbEntity
  8
\U+FF7A\U+FF88\U+FF78\U+FF80
100
AcDbLine
 10
5016.887371174271
 20
-3996.235608343852
 30
0.0
 11
5016.887371174271
 21
-3978.928008343852
 31
0.0
  0
LINE
  5
7CFC5
330
18
100
AcDbEntity
  8
\U+FF7A\U+FF88\U+FF78\U+FF80
100
AcDbLine
 10
5011.887371174271
 20
-3996.235608343852
 30
0.0
 11
5011.887371174271
 21
-3978.928008343852
 31
0.0
  0
LINE
  5
7CFC6
330
18
100
AcDbEntity
  8
\U+FF7A\U+FF88\U+FF78\U+FF80
100
AcDbLine
 10
4999.887371174271
 20
-3992.879209819142
 30
0.0
 11
4999.887371174271
 21
-3982.284406868561
 31
0.0
  0
ARC
  5
7CFC7
330
18
100
AcDbEntity
  8
\U+FF7A\U+FF88\U+FF78\U+FF80
100
AcDbCircle
 10
5011.887371174271
 20
-3987.581808343853
 30
0.0
 40
8.0
100
AcDbArc
 50
153.5214655209427
 51
206.4785344790573
  0
LINE
  5
7CFC8
330
18
100
AcDbEntity
  8
\U+FF7A\U+FF88\U+FF78\U+FF80
100
AcDbLine
 10
5003.887371174271
 20
-3996.235608343852
 30
0.0
 11
5003.887371174271
 21
-3978.928008343852
 31
0.0
  0
LINE
  5
7CFC9
330
18
100
AcDbEntity
  8
\U+FF7A\U+FF88\U+FF78\U+FF80
100
AcDbLine
 10
5016.887371174271
 20
-3993.581809605486
 30
0.0
 11
5011.887371174271
 21
-3993.581810867122
 31
0.0
  0
LINE
  5
7CFCA
330
18
100
AcDbEntity
  8
\U+FF7A\U+FF88\U+FF78\U+FF80
100
AcDbLine
 10
5003.887371174271
 20
-3996.235608343852
 30
0.0
 11
4999.887371174271
 21
-3992.879209819142
 31
0.0
  0
LINE
  5
7CFCE
330
18
100
AcDbEntity
  8
\U+FF7A\U+FF88\U+FF78\U+FF80
100
AcDbLine
 10
5004.726559461204
 20
-3991.148708343851
 30
0.0
 11
5004.726559461204
 21
-3992.668708343853
 31
0.0
  0
LINE
  5
7CFCF
330
18
100
AcDbEntity
  8
\U+FF7A\U+FF88\U+FF78\U+FF80
100
AcDbLine
 10
5011.887371174271
 20
-3992.668708343853
 30
0.0
 11
5004.726559461204
 21
-3992.668708343853
 31
0.0
  0
LINE
  5
7CFD0
330
18
100
AcDbEntity
  8
\U+FF7A\U+FF88\U+FF78\U+FF80
100
AcDbLine
 10
5011.887371174271
 20
-3991.148708343851
 30
0.0
 11
5004.726559461204
 21
-3991.148708343851
 31
0.0
  0
LINE
  5
7CFD1
330
18
100
AcDbEntity
  8
\U+FF7A\U+FF88\U+FF78\U+FF80
100
AcDbLine
 10
5011.887371174271
 20
-3996.235608343852
 30
0.0
 11
5003.887371174271
 21
-3996.235608343852
 31
0.0
  0
ARC
  5
7CFD2
330
18
100
AcDbEntity
  8
\U+FF7A\U+FF88\U+FF78\U+FF80
100
AcDbCircle
 10
5011.887371174271
 20
-3996.235608343852
 30
0.0
 40
8.0
100
AcDbArc
 50
153.5214655209427
 51
180.0
  0
LINE
  5
7CFD3
330
18
100
AcDbEntity
  8
\U+FF7A\U+FF88\U+FF78\U+FF80
100
AcDbLine
 10
5021.887371174271
 20
-3992.668708343853
 30
0.0
 11
5016.887371174271
 21
-3992.668708343853
 31
0.0
  0
LINE
  5
7CFD4
330
18
100
AcDbEntity
  8
\U+FF7A\U+FF88\U+FF78\U+FF80
100
AcDbLine
 10
5021.887371174271
 20
-3991.148708343851
 30
0.0
 11
5016.887371174271
 21
-3991.148708343851
 31
0.0
  0
LINE
  5
7CFD5
330
18
100
AcDbEntity
  8
\U+FF7A\U+FF88\U+FF78\U+FF80
100
AcDbLine
 10
5021.887371174271
 20
-3996.235608343852
 30
0.0
 11
5016.887371174271
 21
-3996.235608343852
 31
0.0
  0
ARC
  5
7CFD6
330
18
100
AcDbEntity
  8
\U+FF7A\U+FF88\U+FF78\U+FF80
100
AcDbCircle
 10
5011.887371174271
 20
-3978.928008343852
 30
0.0
 40
8.0
100
AcDbArc
 50
180.0
 51
206.4785344790573
  0
LINE
  5
7CFD7
330
18
100
AcDbEntity
  8
\U+FF7A\U+FF88\U+FF78\U+FF80
100
AcDbLine
 10
5003.887371174271
 20
-3978.928008343852
 30
0.0
 11
4999.887371174271
 21
-3982.284406868561
 31
0.0
  0
LINE
  5
7CFDA
330
18
100
AcDbEntity
  8
\U+FF7A\U+FF88\U+FF78\U+FF80
100
AcDbLine
 10
5004.726559461204
 20
-3982.494908343851
 30
0.0
 11
5004.726559461204
 21
-3984.014908343852
 31
0.0
  0
LINE
  5
7CFDB
330
18
100
AcDbEntity
  8
\U+FF7A\U+FF88\U+FF78\U+FF80
100
AcDbLine
 10
5011.887371174271
 20
-3984.014908343852
 30
0.0
 11
5004.726559461204
 21
-3984.014908343852
 31
0.0
  0
LINE
  5
7CFDC
330
18
100
AcDbEntity
  8
\U+FF7A\U+FF88\U+FF78\U+FF80
100
AcDbLine
 10
5011.887371174271
 20
-3982.494908343851
 30
0.0
 11
5004.726559461204
 21
-3982.494908343851
 31
0.0
  0
LINE
  5
7CFDD
330
18
100
AcDbEntity
  8
\U+FF7A\U+FF88\U+FF78\U+FF80
100
AcDbLine
 10
5021.887371174271
 20
-3982.494908343851
 30
0.0
 11
5016.887371174271
 21
-3982.494908343851
 31
0.0
  0
LINE
  5
7CFDE
330
18
100
AcDbEntity
  8
\U+FF7A\U+FF88\U+FF78\U+FF80
100
AcDbLine
 10
5021.887371174271
 20
-3984.014908343852
 30
0.0
 11
5016.887371174271
 21
-3984.014908343852
 31
0.0
  0
LINE
  5
7CFDF
330
18
100
AcDbEntity
  8
\U+FF7A\U+FF88\U+FF78\U+FF80
100
AcDbLine
 10
5021.887371174271
 20
-3978.928008343852
 30
0.0
 11
5016.887371174271
 21
-3978.928008343852
 31
0.0
  0
LINE
  5
7CFE0
330
18
100
AcDbEntity
  8
\U+FF7A\U+FF88\U+FF78\U+FF80
100
AcDbLine
 10
5021.887371174271
 20
-3978.928008343852
 30
0.0
 11
5021.887371174271
 21
-3996.235608343852
 31
0.0
  0
LINE
  5
7CFE1
330
18
100
AcDbEntity
  8
\U+FF7A\U+FF88\U+FF78\U+FF80
100
AcDbLine
 10
5016.887371174271
 20
-3981.581809605485
 30
0.0
 11
5011.887371174271
 21
-3981.581810867118
 31
0.0
  0
CIRCLE
  5
7D08D
330
18
100
AcDbEntity
  8
実線
100
AcDbCircle
 10
5942.732661725833
 20
-3606.84711106125
 30
0.0
 40
34.0
  0
CIRCLE
  5
7D08E
330
18
100
AcDbEntity
  8
実線
100
AcDbCircle
 10
5942.732661725833
 20
-3606.84711106125
 30
0.0
 40
34.5
  0
ARC
  5
7D08F
330
18
100
AcDbEntity
  8
\U+FF77\U+FF6C\U+FF6F\U+FF8C\U+FF9F\U+FF8E\U+FF9E\U+FF99\U+FF84
100
AcDbCircle
 10
6000.255252423476
 20
-3663.332184961802
 30
0.0
 40
0.446923180059133
100
AcDbArc
 50
125.0000114591653
 51
245.0000114592238
  0
ARC
  5
7D090
330
18
100
AcDbEntity
  8
\U+FF77\U+FF6C\U+FF6F\U+FF8C\U+FF9F\U+FF8E\U+FF9E\U+FF99\U+FF84
100
AcDbCircle
 10
5998.896466042512
 20
-3664.283617833567
 30
0.0
 40
0.446923180059133
100
AcDbArc
 50
5.000011459153768
 51
125.0000114591653
  0
CIRCLE
  5
7D091
330
18
100
AcDbEntity
  8
\U+FF77\U+FF6C\U+FF6F\U+FF8C\U+FF9F\U+FF8E\U+FF9E\U+FF99\U+FF84
100
AcDbCircle
 10
5999.301204047088
 20
-3663.415653475326
 30
0.0
 40
2.858333333333337
  0
CIRCLE
  5
7D092
330
18
100
AcDbEntity
  8
\U+FF77\U+FF6C\U+FF6F\U+FF8C\U+FF9F\U+FF8E\U+FF9E\U+FF99\U+FF84
100
AcDbCircle
 10
5999.301204047088
 20
-3663.415653475326
 30
0.0
 40
3.5
  0
ARC
  5
7D093
330
18
100
AcDbEntity
  8
\U+FF77\U+FF6C\U+FF6F\U+FF8C\U+FF9F\U+FF8E\U+FF9E\U+FF99\U+FF84
100
AcDbCircle
 10
5999.301204220679
 20
-3663.415653556274
 30
0.0
 40
0.83000019153839
100
AcDbArc
 50
332.7957839551987
 51
337.2042389631959
  0
ARC
  5
7D094
330
18
100
AcDbEntity
  8
\U+FF77\U+FF6C\U+FF6F\U+FF8C\U+FF9F\U+FF8E\U+FF9E\U+FF99\U+FF84
100
AcDbCircle
 10
5999.301204220679
 20
-3663.415653556274
 30
0.0
 40
0.83000019153839
100
AcDbArc
 50
272.7957839551496
 51
277.2042389631686
  0
ARC
  5
7D095
330
18
100
AcDbEntity
  8
\U+FF77\U+FF6C\U+FF6F\U+FF8C\U+FF9F\U+FF8E\U+FF9E\U+FF99\U+FF84
100
AcDbCircle
 10
5999.850514245309
 20
-3664.200149239092
 30
0.0
 40
0.446923180059133
100
AcDbArc
 50
65.00001145922372
 51
185.0000114591538
  0
ARC
  5
7D096
330
18
100
AcDbEntity
  8
\U+FF77\U+FF6C\U+FF6F\U+FF8C\U+FF9F\U+FF8E\U+FF9E\U+FF99\U+FF84
100
AcDbCircle
 10
5999.301204220679
 20
-3663.415653556274
 30
0.0
 40
0.83000019153839
100
AcDbArc
 50
32.79578395517707
 51
37.20423896303345
  0
ARC
  5
7D097
330
18
100
AcDbEntity
  8
\U+FF77\U+FF6C\U+FF6F\U+FF8C\U+FF9F\U+FF8E\U+FF9E\U+FF99\U+FF84
100
AcDbCircle
 10
5999.705942398847
 20
-3662.547689278979
 30
0.0
 40
0.446923180059133
100
AcDbArc
 50
185.0000114591538
 51
305.0000114591653
  0
ARC
  5
7D098
330
18
100
AcDbEntity
  8
\U+FF77\U+FF6C\U+FF6F\U+FF8C\U+FF9F\U+FF8E\U+FF9E\U+FF99\U+FF84
100
AcDbCircle
 10
5999.301204220679
 20
-3663.415653556274
 30
0.0
 40
0.83000019153839
100
AcDbArc
 50
92.79578395514951
 51
97.2042389630652
  0
ARC
  5
7D099
330
18
100
AcDbEntity
  8
\U+FF77\U+FF6C\U+FF6F\U+FF8C\U+FF9F\U+FF8E\U+FF9E\U+FF99\U+FF84
100
AcDbCircle
 10
5999.301204220679
 20
-3663.415653556274
 30
0.0
 40
0.83000019153839
100
AcDbArc
 50
212.795783955177
 51
217.2042389630334
  0
ARC
  5
7D09A
330
18
100
AcDbEntity
  8
\U+FF77\U+FF6C\U+FF6F\U+FF8C\U+FF9F\U+FF8E\U+FF9E\U+FF99\U+FF84
100
AcDbCircle
 10
5999.301204220679
 20
-3663.415653556274
 30
0.0
 40
0.83000019153839
100
AcDbArc
 50
152.7957839551053
 51
157.2042389631959
  0
ARC
  5
7D09B
330
18
100
AcDbEntity
  8
\U+FF77\U+FF6C\U+FF6F\U+FF8C\U+FF9F\U+FF8E\U+FF9E\U+FF99\U+FF84
100
AcDbCircle
 10
5998.347156017884
 20
-3663.499122150746
 30
0.0
 40
0.446923180059133
100
AcDbArc
 50
305.0000114591653
 51
65.00001145922372
  0
ARC
  5
7D09C
330
18
100
AcDbEntity
  8
\U+FF77\U+FF6C\U+FF6F\U+FF8C\U+FF9F\U+FF8E\U+FF9E\U+FF99\U+FF84
100
AcDbCircle
 10
5998.75189419605
 20
-3662.631157873451
 30
0.0
 40
0.446923180059133
100
AcDbArc
 50
245.0000114592238
 51
5.000011459153768
  0
ARC
  5
7D09D
330
18
100
AcDbEntity
  8
\U+FF77\U+FF6C\U+FF6F\U+FF8C\U+FF9F\U+FF8E\U+FF9E\U+FF99\U+FF84
100
AcDbCircle
 10
5886.948614913656
 20
-3662.86634353161
 30
0.0
 40
0.446923180059133
100
AcDbArc
 50
155.0000114592237
 51
275.0000114591537
  0
ARC
  5
7D09E
330
18
100
AcDbEntity
  8
\U+FF77\U+FF6C\U+FF6F\U+FF8C\U+FF9F\U+FF8E\U+FF9E\U+FF99\U+FF84
100
AcDbCircle
 10
5886.080650636361
 20
-3662.461605353446
 30
0.0
 40
0.446923180059133
100
AcDbArc
 50
215.0000114591589
 51
335.0000114592237
  0
ARC
  5
7D09F
330
18
100
AcDbEntity
  8
\U+FF77\U+FF6C\U+FF6F\U+FF8C\U+FF9F\U+FF8E\U+FF9E\U+FF99\U+FF84
100
AcDbCircle
 10
5886.164119230834
 20
-3663.415653556241
 30
0.0
 40
0.83000019153839
100
AcDbArc
 50
62.79578395510533
 51
67.20423896321991
  0
ARC
  5
7D0A0
330
18
100
AcDbEntity
  8
\U+FF77\U+FF6C\U+FF6F\U+FF8C\U+FF9F\U+FF8E\U+FF9E\U+FF99\U+FF84
100
AcDbCircle
 10
5886.164119230834
 20
-3663.415653556241
 30
0.0
 40
0.83000019153839
100
AcDbArc
 50
122.795783955177
 51
127.2042389630178
  0
ARC
  5
7D0A1
330
18
100
AcDbEntity
  8
\U+FF77\U+FF6C\U+FF6F\U+FF8C\U+FF9F\U+FF8E\U+FF9E\U+FF99\U+FF84
100
AcDbCircle
 10
5886.164119230834
 20
-3663.415653556241
 30
0.0
 40
0.83000019153839
100
AcDbArc
 50
2.795783955148322
 51
7.204238963061931
  0
ARC
  5
7D0A2
330
18
100
AcDbEntity
  8
\U+FF77\U+FF6C\U+FF6F\U+FF8C\U+FF9F\U+FF8E\U+FF9E\U+FF99\U+FF84
100
AcDbCircle
 10
5887.032083508127
 20
-3663.820391734407
 30
0.0
 40
0.446923180059133
100
AcDbArc
 50
95.00001145915376
 51
215.0000114591589
  0
ARC
  5
7D0A3
330
18
100
AcDbEntity
  8
\U+FF77\U+FF6C\U+FF6F\U+FF8C\U+FF9F\U+FF8E\U+FF9E\U+FF99\U+FF84
100
AcDbCircle
 10
5886.164119230834
 20
-3663.415653556241
 30
0.0
 40
0.83000019153839
100
AcDbArc
 50
302.7957839551771
 51
307.2042389630177
  0
ARC
  5
7D0A4
330
18
100
AcDbEntity
  8
\U+FF77\U+FF6C\U+FF6F\U+FF8C\U+FF9F\U+FF8E\U+FF9E\U+FF99\U+FF84
100
AcDbCircle
 10
5885.379623548017
 20
-3663.96496358087
 30
0.0
 40
0.446923180059133
100
AcDbArc
 50
335.0000114592237
 51
95.00001145915376
  0
ARC
  5
7D0A5
330
18
100
AcDbEntity
  8
\U+FF77\U+FF6C\U+FF6F\U+FF8C\U+FF9F\U+FF8E\U+FF9E\U+FF99\U+FF84
100
AcDbCircle
 10
5886.164119230834
 20
-3663.415653556241
 30
0.0
 40
0.83000019153839
100
AcDbArc
 50
182.7957839551483
 51
187.2042389631719
  0
ARC
  5
7D0A6
330
18
100
AcDbEntity
  8
\U+FF77\U+FF6C\U+FF6F\U+FF8C\U+FF9F\U+FF8E\U+FF9E\U+FF99\U+FF84
100
AcDbCircle
 10
5886.164119230834
 20
-3663.415653556241
 30
0.0
 40
0.83000019153839
100
AcDbArc
 50
242.7957839552099
 51
247.20423896322
  0
CIRCLE
  5
7D0A7
330
18
100
AcDbEntity
  8
\U+FF77\U+FF6C\U+FF6F\U+FF8C\U+FF9F\U+FF8E\U+FF9E\U+FF99\U+FF84
100
AcDbCircle
 10
5886.164119311781
 20
-3663.415653382648
 30
0.0
 40
3.5
  0
CIRCLE
  5
7D0A8
330
18
100
AcDbEntity
  8
\U+FF77\U+FF6C\U+FF6F\U+FF8C\U+FF9F\U+FF8E\U+FF9E\U+FF99\U+FF84
100
AcDbCircle
 10
5886.164119311781
 20
-3663.415653382648
 30
0.0
 40
2.858333333333337
  0
ARC
  5
7D0A9
330
18
100
AcDbEntity
  8
\U+FF77\U+FF6C\U+FF6F\U+FF8C\U+FF9F\U+FF8E\U+FF9E\U+FF99\U+FF84
100
AcDbCircle
 10
5885.296154953541
 20
-3663.010915378072
 30
0.0
 40
0.446923180059133
100
AcDbArc
 50
275.0000114591537
 51
35.00001145915887
  0
ARC
  5
7D0AA
330
18
100
AcDbEntity
  8
\U+FF77\U+FF6C\U+FF6F\U+FF8C\U+FF9F\U+FF8E\U+FF9E\U+FF99\U+FF84
100
AcDbCircle
 10
5886.247587825304
 20
-3664.369701759037
 30
0.0
 40
0.446923180059133
100
AcDbArc
 50
35.00001145915887
 51
155.0000114592237
  0
ARC
  5
7D0AB
330
18
100
AcDbEntity
  8
\U+FF77\U+FF6C\U+FF6F\U+FF8C\U+FF9F\U+FF8E\U+FF9E\U+FF99\U+FF84
100
AcDbCircle
 10
5998.516708537887
 20
-3550.827878591052
 30
0.0
 40
0.446923180059133
100
AcDbArc
 50
335.0000114592237
 51
95.00001145915376
  0
ARC
  5
7D0AC
330
18
100
AcDbEntity
  8
\U+FF77\U+FF6C\U+FF6F\U+FF8C\U+FF9F\U+FF8E\U+FF9E\U+FF99\U+FF84
100
AcDbCircle
 10
5999.384672815182
 20
-3551.232616769218
 30
0.0
 40
0.446923180059133
100
AcDbArc
 50
35.00001145915887
 51
155.0000114592237
  0
ARC
  5
7D0AD
330
18
100
AcDbEntity
  8
\U+FF77\U+FF6C\U+FF6F\U+FF8C\U+FF9F\U+FF8E\U+FF9E\U+FF99\U+FF84
100
AcDbCircle
 10
5999.30120422071
 20
-3550.278568566422
 30
0.0
 40
0.83000019153839
100
AcDbArc
 50
242.7957839551053
 51
247.20423896322
  0
ARC
  5
7D0AE
330
18
100
AcDbEntity
  8
\U+FF77\U+FF6C\U+FF6F\U+FF8C\U+FF9F\U+FF8E\U+FF9E\U+FF99\U+FF84
100
AcDbCircle
 10
5999.30120422071
 20
-3550.278568566422
 30
0.0
 40
0.83000019153839
100
AcDbArc
 50
302.7957839551771
 51
307.2042389630177
  0
ARC
  5
7D0AF
330
18
100
AcDbEntity
  8
\U+FF77\U+FF6C\U+FF6F\U+FF8C\U+FF9F\U+FF8E\U+FF9E\U+FF99\U+FF84
100
AcDbCircle
 10
5999.30120422071
 20
-3550.278568566422
 30
0.0
 40
0.83000019153839
100
AcDbArc
 50
182.7957839551483
 51
187.2042389630619
  0
ARC
  5
7D0B0
330
18
100
AcDbEntity
  8
\U+FF77\U+FF6C\U+FF6F\U+FF8C\U+FF9F\U+FF8E\U+FF9E\U+FF99\U+FF84
100
AcDbCircle
 10
5998.433239943415
 20
-3549.873830388256
 30
0.0
 40
0.446923180059133
100
AcDbArc
 50
275.0000114591537
 51
35.00001145915887
  0
ARC
  5
7D0B1
330
18
100
AcDbEntity
  8
\U+FF77\U+FF6C\U+FF6F\U+FF8C\U+FF9F\U+FF8E\U+FF9E\U+FF99\U+FF84
100
AcDbCircle
 10
5999.30120422071
 20
-3550.278568566422
 30
0.0
 40
0.83000019153839
100
AcDbArc
 50
122.795783955177
 51
127.2042389630178
  0
ARC
  5
7D0B2
330
18
100
AcDbEntity
  8
\U+FF77\U+FF6C\U+FF6F\U+FF8C\U+FF9F\U+FF8E\U+FF9E\U+FF99\U+FF84
100
AcDbCircle
 10
6000.085699903531
 20
-3549.729258541793
 30
0.0
 40
0.446923180059133
100
AcDbArc
 50
155.0000114592237
 51
275.0000114591537
  0
ARC
  5
7D0B3
330
18
100
AcDbEntity
  8
\U+FF77\U+FF6C\U+FF6F\U+FF8C\U+FF9F\U+FF8E\U+FF9E\U+FF99\U+FF84
100
AcDbCircle
 10
5999.30120422071
 20
-3550.278568566422
 30
0.0
 40
0.83000019153839
100
AcDbArc
 50
2.795783955148322
 51
7.204238963171841
  0
ARC
  5
7D0B4
330
18
100
AcDbEntity
  8
\U+FF77\U+FF6C\U+FF6F\U+FF8C\U+FF9F\U+FF8E\U+FF9E\U+FF99\U+FF84
100
AcDbCircle
 10
5999.30120422071
 20
-3550.278568566422
 30
0.0
 40
0.83000019153839
100
AcDbArc
 50
62.7957839552099
 51
67.20423896321991
  0
CIRCLE
  5
7D0B5
330
18
100
AcDbEntity
  8
\U+FF77\U+FF6C\U+FF6F\U+FF8C\U+FF9F\U+FF8E\U+FF9E\U+FF99\U+FF84
100
AcDbCircle
 10
5999.301204139761
 20
-3550.278568740014
 30
0.0
 40
3.5
  0
CIRCLE
  5
7D0B6
330
18
100
AcDbEntity
  8
\U+FF77\U+FF6C\U+FF6F\U+FF8C\U+FF9F\U+FF8E\U+FF9E\U+FF99\U+FF84
100
AcDbCircle
 10
5999.301204139761
 20
-3550.278568740014
 30
0.0
 40
2.858333333333337
  0
ARC
  5
7D0B7
330
18
100
AcDbEntity
  8
\U+FF77\U+FF6C\U+FF6F\U+FF8C\U+FF9F\U+FF8E\U+FF9E\U+FF99\U+FF84
100
AcDbCircle
 10
6000.169168498001
 20
-3550.68330674459
 30
0.0
 40
0.446923180059133
100
AcDbArc
 50
95.00001145915376
 51
215.0000114591589
  0
ARC
  5
7D0B8
330
18
100
AcDbEntity
  8
\U+FF77\U+FF6C\U+FF6F\U+FF8C\U+FF9F\U+FF8E\U+FF9E\U+FF99\U+FF84
100
AcDbCircle
 10
5999.217735626238
 20
-3549.324520363626
 30
0.0
 40
0.446923180059133
100
AcDbArc
 50
215.0000114591589
 51
335.0000114592237
  0
ARC
  5
7D0B9
330
18
100
AcDbEntity
  8
\U+FF77\U+FF6C\U+FF6F\U+FF8C\U+FF9F\U+FF8E\U+FF9E\U+FF99\U+FF84
100
AcDbCircle
 10
5886.713429255495
 20
-3551.063064249215
 30
0.0
 40
0.446923180059133
100
AcDbArc
 50
65.00001145922372
 51
185.0000114591538
  0
ARC
  5
7D0BA
330
18
100
AcDbEntity
  8
\U+FF77\U+FF6C\U+FF6F\U+FF8C\U+FF9F\U+FF8E\U+FF9E\U+FF99\U+FF84
100
AcDbCircle
 10
5887.11816743366
 20
-3550.195099971919
 30
0.0
 40
0.446923180059133
100
AcDbArc
 50
125.0000114591653
 51
245.0000114592238
  0
ARC
  5
7D0BB
330
18
100
AcDbEntity
  8
\U+FF77\U+FF6C\U+FF6F\U+FF8C\U+FF9F\U+FF8E\U+FF9E\U+FF99\U+FF84
100
AcDbCircle
 10
5886.164119230866
 20
-3550.278568566392
 30
0.0
 40
0.83000019153839
100
AcDbArc
 50
332.7957839551054
 51
337.2042389631959
  0
ARC
  5
7D0BC
330
18
100
AcDbEntity
  8
\U+FF77\U+FF6C\U+FF6F\U+FF8C\U+FF9F\U+FF8E\U+FF9E\U+FF99\U+FF84
100
AcDbCircle
 10
5886.164119230866
 20
-3550.278568566392
 30
0.0
 40
0.83000019153839
100
AcDbArc
 50
32.79578395517707
 51
37.20423896303345
  0
ARC
  5
7D0BD
330
18
100
AcDbEntity
  8
\U+FF77\U+FF6C\U+FF6F\U+FF8C\U+FF9F\U+FF8E\U+FF9E\U+FF99\U+FF84
100
AcDbCircle
 10
5886.164119230866
 20
-3550.278568566392
 30
0.0
 40
0.83000019153839
100
AcDbArc
 50
272.7957839551496
 51
277.2042389630652
  0
ARC
  5
7D0BE
330
18
100
AcDbEntity
  8
\U+FF77\U+FF6C\U+FF6F\U+FF8C\U+FF9F\U+FF8E\U+FF9E\U+FF99\U+FF84
100
AcDbCircle
 10
5885.759381052698
 20
-3551.146532843687
 30
0.0
 40
0.446923180059133
100
AcDbArc
 50
5.000011459153768
 51
125.0000114591653
  0
ARC
  5
7D0BF
330
18
100
AcDbEntity
  8
\U+FF77\U+FF6C\U+FF6F\U+FF8C\U+FF9F\U+FF8E\U+FF9E\U+FF99\U+FF84
100
AcDbCircle
 10
5886.164119230866
 20
-3550.278568566392
 30
0.0
 40
0.83000019153839
100
AcDbArc
 50
212.795783955177
 51
217.2042389630334
  0
ARC
  5
7D0C0
330
18
100
AcDbEntity
  8
\U+FF77\U+FF6C\U+FF6F\U+FF8C\U+FF9F\U+FF8E\U+FF9E\U+FF99\U+FF84
100
AcDbCircle
 10
5885.614809206236
 20
-3549.494072883574
 30
0.0
 40
0.446923180059133
100
AcDbArc
 50
245.0000114592238
 51
5.000011459153768
  0
ARC
  5
7D0C1
330
18
100
AcDbEntity
  8
\U+FF77\U+FF6C\U+FF6F\U+FF8C\U+FF9F\U+FF8E\U+FF9E\U+FF99\U+FF84
100
AcDbCircle
 10
5886.164119230866
 20
-3550.278568566392
 30
0.0
 40
0.83000019153839
100
AcDbArc
 50
92.79578395514951
 51
97.20423896316866
  0
ARC
  5
7D0C2
330
18
100
AcDbEntity
  8
\U+FF77\U+FF6C\U+FF6F\U+FF8C\U+FF9F\U+FF8E\U+FF9E\U+FF99\U+FF84
100
AcDbCircle
 10
5886.164119230866
 20
-3550.278568566392
 30
0.0
 40
0.83000019153839
100
AcDbArc
 50
152.7957839551987
 51
157.2042389631959
  0
CIRCLE
  5
7D0C3
330
18
100
AcDbEntity
  8
\U+FF77\U+FF6C\U+FF6F\U+FF8C\U+FF9F\U+FF8E\U+FF9E\U+FF99\U+FF84
100
AcDbCircle
 10
5886.164119404457
 20
-3550.27856864734
 30
0.0
 40
3.5
  0
CIRCLE
  5
7D0C4
330
18
100
AcDbEntity
  8
\U+FF77\U+FF6C\U+FF6F\U+FF8C\U+FF9F\U+FF8E\U+FF9E\U+FF99\U+FF84
100
AcDbCircle
 10
5886.164119404457
 20
-3550.27856864734
 30
0.0
 40
2.858333333333337
  0
ARC
  5
7D0C5
330
18
100
AcDbEntity
  8
\U+FF77\U+FF6C\U+FF6F\U+FF8C\U+FF9F\U+FF8E\U+FF9E\U+FF99\U+FF84
100
AcDbCircle
 10
5886.568857409033
 20
-3549.4106042891
 30
0.0
 40
0.446923180059133
100
AcDbArc
 50
185.0000114591538
 51
305.0000114591653
  0
ARC
  5
7D0C6
330
18
100
AcDbEntity
  8
\U+FF77\U+FF6C\U+FF6F\U+FF8C\U+FF9F\U+FF8E\U+FF9E\U+FF99\U+FF84
100
AcDbCircle
 10
5885.210071028069
 20
-3550.362037160863
 30
0.0
 40
0.446923180059133
100
AcDbArc
 50
305.0000114591653
 51
65.00001145922372
  0
LINE
  5
7D0C7
330
18
100
AcDbEntity
  8
実線
100
AcDbLine
 10
6146.732661725833
 20
-3659.847111061188
 30
0.0
 11
6146.732661725832
 21
-3744.324289150416
 31
0.0
  0
ARC
  5
7D0C8
330
18
100
AcDbEntity
  8
実線
100
AcDbCircle
 10
5942.732622185824
 20
-3606.847076974453
 30
0.0
 40
246.0
100
AcDbArc
 50
33.97634933905988
 51
56.02364678318448
  0
ARC
  5
7D0C9
330
18
100
AcDbEntity
  8
実線
100
AcDbCircle
 10
5942.732622185824
 20
-3606.847076974453
 30
0.0
 40
246.0
100
AcDbArc
 50
123.9763532168155
 51
146.0236437001674
  0
ARC
  5
7D0CA
330
18
100
AcDbEntity
  8
実線
100
AcDbCircle
 10
5942.732622185824
 20
-3606.847076974453
 30
0.0
 40
246.0
100
AcDbArc
 50
213.9763562998327
 51
236.0236475778366
  0
ARC
  5
7D0CB
330
18
100
AcDbEntity
  8
実線
100
AcDbCircle
 10
5942.732622185824
 20
-3606.847076974453
 30
0.0
 40
246.0
100
AcDbArc
 50
303.9763524221634
 51
326.0236506609401
  0
LINE
  5
7D0E1
330
18
100
AcDbEntity
  8
中心線
 48
0.3
100
AcDbLine
 10
6137.545874461188
 20
-3606.856662335269
 30
0.0
 11
6094.269127650048
 21
-3606.856662335268
 31
0.0
  0
LINE
  5
7D0E2
330
18
100
AcDbEntity
  8
実線
100
AcDbLine
 10
5738.732661725833
 20
-3469.3697474531
 30
0.0
 11
5738.732661725833
 21
-3744.324406495805
 31
0.0
  0
CIRCLE
  5
7D0E3
330
18
100
AcDbEntity
  8
実線
100
AcDbCircle
 10
5783.633635958858
 20
-3765.946136828221
 30
0.0
 40
8.5
  0
LINE
  5
7D0E5
330
18
100
AcDbEntity
  8
中心線
 48
0.3
100
AcDbLine
 10
5891.646806039265
 20
-3606.847111061274
 30
0.0
 11
5905.818517412401
 21
-3606.847111061274
 31
0.0
  0
LINE
  5
7D0E6
330
18
100
AcDbEntity
  8
中心線
 48
0.3
100
AcDbLine
 10
5853.255321976732
 20
-3606.84711106125
 30
0.0
 11
5842.210001474934
 21
-3606.84711106125
 31
0.0
  0
LINE
  5
7D0F7
330
18
100
AcDbEntity
  8
中心線
 48
0.3
100
AcDbLine
 10
5942.732661725833
 20
-3696.324450810351
 30
0.0
 11
5942.732661725833
 21
-3707.369771312149
 31
0.0
  0
LINE
  5
7D0F8
330
18
100
AcDbEntity
  8
中心線
 48
0.3
100
AcDbLine
 10
5979.646806039266
 20
-3606.847111061274
 30
0.0
 11
5993.818517412401
 21
-3606.847111061272
 31
0.0
  0
LINE
  5
7D0F9
330
18
100
AcDbEntity
  8
中心線
 48
0.3
100
AcDbLine
 10
5942.732661725834
 20
-3517.369771312149
 30
0.0
 11
5942.732661725834
 21
-3506.324450810349
 31
0.0
  0
CIRCLE
  5
7D0FC
330
18
100
AcDbEntity
  8
実線
100
AcDbCircle
 10
5942.732661725833
 20
-3606.84711106125
 30
0.0
 40
32.5
  0
LINE
  5
7D0FD
330
18
100
AcDbEntity
  8
中心線
100
AcDbLine
 10
5942.732661725835
 20
-3829.42969593116
 30
0.0
 11
5942.732661725836
 21
-3388.921151907536
 31
0.0
  0
CIRCLE
  5
7D0FE
330
18
100
AcDbEntity
  8
実線
100
AcDbCircle
 10
5783.63363595886
 20
-3447.748085294275
 30
0.0
 40
8.5
  0
LINE
  5
7D0FF
330
18
100
AcDbEntity
  8
実線
100
AcDbLine
 10
6150.482511304613
 20
-3656.847111061188
 30
0.0
 11
6149.732661725831
 21
-3656.84711106119
 31
0.0
  0
ARC
  5
7D100
330
18
100
AcDbEntity
  8
実線
100
AcDbCircle
 10
6150.482511304613
 20
-3653.847111061186
 30
0.0
 40
3.0
100
AcDbArc
 50
270.0
 51
347.2523590433188
  0
ARC
  5
7D101
330
18
100
AcDbEntity
  8
実線
100
AcDbCircle
 10
6149.732661725835
 20
-3659.847111061188
 30
0.0
 40
3.0
100
AcDbArc
 50
90.0
 51
180.0
  0
CIRCLE
  5
7D102
330
18
100
AcDbEntity
  8
実線
100
AcDbCircle
 10
6101.831687492806
 20
-3765.946136828221
 30
0.0
 40
8.5
  0
LINE
  5
7D103
330
18
100
AcDbEntity
  8
\U+FF7A\U+FF88\U+FF78\U+FF80
100
AcDbLine
 10
6158.732661725833
 20
-3615.50091106125
 30
0.0
 11
6163.732661725833
 21
-3615.50091106125
 31
0.0
  0
LINE
  5
7D104
330
18
100
AcDbEntity
  8
\U+FF7A\U+FF88\U+FF78\U+FF80
100
AcDbLine
 10
6158.732661725833
 20
-3598.19331106125
 30
0.0
 11
6163.732661725833
 21
-3598.19331106125
 31
0.0
  0
LINE
  5
7D105
330
18
100
AcDbEntity
  8
\U+FF7A\U+FF88\U+FF78\U+FF80
100
AcDbLine
 10
6158.732661725833
 20
-3603.280211061248
 30
0.0
 11
6163.732661725833
 21
-3603.280211061248
 31
0.0
  0
LINE
  5
7D106
330
18
100
AcDbEntity
  8
\U+FF7A\U+FF88\U+FF78\U+FF80
100
AcDbLine
 10
6158.732661725833
 20
-3601.760211061248
 30
0.0
 11
6163.732661725833
 21
-3601.760211061248
 31
0.0
  0
LINE
  5
7D107
330
18
100
AcDbEntity
  8
\U+FF7A\U+FF88\U+FF78\U+FF80
100
AcDbLine
 10
6158.732661725833
 20
-3610.414011061248
 30
0.0
 11
6163.732661725833
 21
-3610.414011061248
 31
0.0
  0
LINE
  5
7D108
330
18
100
AcDbEntity
  8
\U+FF7A\U+FF88\U+FF78\U+FF80
100
AcDbLine
 10
6158.732661725833
 20
-3611.934011061248
 30
0.0
 11
6163.732661725833
 21
-3611.934011061248
 31
0.0
  0
LINE
  5
7D109
330
18
100
AcDbEntity
  8
\U+FF7A\U+FF88\U+FF78\U+FF80
100
AcDbLine
 10
6163.732661725833
 20
-3598.19331106125
 30
0.0
 11
6163.732661725833
 21
-3615.50091106125
 31
0.0
  0
LINE
  5
7D10A
330
18
100
AcDbEntity
  8
\U+FF7A\U+FF88\U+FF78\U+FF80
100
AcDbLine
 10
6158.732661725833
 20
-3615.50091106125
 30
0.0
 11
6158.732661725833
 21
-3598.19331106125
 31
0.0
  0
LINE
  5
7D10B
330
18
100
AcDbEntity
  8
実線
100
AcDbLine
 10
6150.482511304584
 20
-3556.847111061188
 30
0.0
 11
6149.732661725833
 21
-3556.847111061188
 31
0.0
  0
ARC
  5
7D10C
330
18
100
AcDbEntity
  8
実線
100
AcDbCircle
 10
6150.482511304586
 20
-3559.847111061186
 30
0.0
 40
3.0
100
AcDbArc
 50
12.74764095678282
 51
90.0
  0
ARC
  5
7D10D
330
18
100
AcDbEntity
  8
実線
100
AcDbCircle
 10
6149.732661725835
 20
-3553.847111061186
 30
0.0
 40
3.0
100
AcDbArc
 50
180.0
 51
270.0
  0
LINE
  5
7D10E
330
18
100
AcDbEntity
  8
実線
100
AcDbLine
 10
6146.732661725833
 20
-3469.369864798493
 30
0.0
 11
6146.732661725833
 21
-3553.847111061188
 31
0.0
  0
LINE
  5
7D10F
330
18
100
AcDbEntity
  8
\U+FF7A\U+FF88\U+FF78\U+FF80
100
AcDbLine
 10
6168.732661725833
 20
-3598.19331106125
 30
0.0
 11
6168.732661725833
 21
-3615.50091106125
 31
0.0
  0
ARC
  5
7D110
330
18
100
AcDbEntity
  8
\U+FF7A\U+FF88\U+FF78\U+FF80
100
AcDbCircle
 10
6168.732661725833
 20
-3606.84711106125
 30
0.0
 40
8.0
100
AcDbArc
 50
333.5214655209426
 51
26.47853447905733
  0
LINE
  5
7D111
330
18
100
AcDbEntity
  8
\U+FF7A\U+FF88\U+FF78\U+FF80
100
AcDbLine
 10
6175.8934734389
 20
-3603.280211061248
 30
0.0
 11
6175.8934734389
 21
-3601.760211061248
 31
0.0
  0
LINE
  5
7D112
330
18
100
AcDbEntity
  8
\U+FF7A\U+FF88\U+FF78\U+FF80
100
AcDbLine
 10
6175.8934734389
 20
-3611.934011061248
 30
0.0
 11
6175.8934734389
 21
-3610.414011061248
 31
0.0
  0
LINE
  5
7D113
330
18
100
AcDbEntity
  8
\U+FF7A\U+FF88\U+FF78\U+FF80
100
AcDbLine
 10
6176.732661725833
 20
-3598.19331106125
 30
0.0
 11
6176.732661725833
 21
-3615.50091106125
 31
0.0
  0
ARC
  5
7D114
330
18
100
AcDbEntity
  8
\U+FF7A\U+FF88\U+FF78\U+FF80
100
AcDbCircle
 10
6168.732661725833
 20
-3598.19331106125
 30
0.0
 40
8.0
100
AcDbArc
 50
333.5214655209426
 51
0.0
  0
ARC
  5
7D115
330
18
100
AcDbEntity
  8
\U+FF7A\U+FF88\U+FF78\U+FF80
100
AcDbCircle
 10
6168.732661725833
 20
-3615.50091106125
 30
0.0
 40
8.0
100
AcDbArc
 50
0.0
 51
26.47853447905733
  0
LINE
  5
7D116
330
18
100
AcDbEntity
  8
\U+FF7A\U+FF88\U+FF78\U+FF80
100
AcDbLine
 10
6180.732661725834
 20
-3601.54970958596
 30
0.0
 11
6180.732661725834
 21
-3612.144512536541
 31
0.0
  0
LINE
  5
7D117
330
18
100
AcDbEntity
  8
\U+FF7A\U+FF88\U+FF78\U+FF80
100
AcDbLine
 10
6176.732661725833
 20
-3598.19331106125
 30
0.0
 11
6180.732661725834
 21
-3601.54970958596
 31
0.0
  0
LINE
  5
7D118
330
18
100
AcDbEntity
  8
\U+FF7A\U+FF88\U+FF78\U+FF80
100
AcDbLine
 10
6176.732661725833
 20
-3615.50091106125
 30
0.0
 11
6180.732661725834
 21
-3612.144512536541
 31
0.0
  0
LINE
  5
7D119
330
18
100
AcDbEntity
  8
\U+FF7A\U+FF88\U+FF78\U+FF80
100
AcDbLine
 10
6168.732661725833
 20
-3615.50091106125
 30
0.0
 11
6176.732661725833
 21
-3615.50091106125
 31
0.0
  0
LINE
  5
7D11A
330
18
100
AcDbEntity
  8
\U+FF7A\U+FF88\U+FF78\U+FF80
100
AcDbLine
 10
6168.732661725833
 20
-3598.19331106125
 30
0.0
 11
6176.732661725833
 21
-3598.19331106125
 31
0.0
  0
LINE
  5
7D11B
330
18
100
AcDbEntity
  8
\U+FF7A\U+FF88\U+FF78\U+FF80
100
AcDbLine
 10
6168.732661725833
 20
-3603.280211061248
 30
0.0
 11
6175.8934734389
 21
-3603.280211061248
 31
0.0
  0
LINE
  5
7D11C
330
18
100
AcDbEntity
  8
\U+FF7A\U+FF88\U+FF78\U+FF80
100
AcDbLine
 10
6168.732661725833
 20
-3601.760211061248
 30
0.0
 11
6175.8934734389
 21
-3601.760211061248
 31
0.0
  0
LINE
  5
7D11D
330
18
100
AcDbEntity
  8
\U+FF7A\U+FF88\U+FF78\U+FF80
100
AcDbLine
 10
6168.732661725833
 20
-3611.934011061248
 30
0.0
 11
6175.8934734389
 21
-3611.934011061248
 31
0.0
  0
LINE
  5
7D11E
330
18
100
AcDbEntity
  8
\U+FF7A\U+FF88\U+FF78\U+FF80
100
AcDbLine
 10
6168.732661725833
 20
-3610.414011061248
 30
0.0
 11
6175.8934734389
 21
-3610.414011061248
 31
0.0
  0
LINE
  5
7D11F
330
18
100
AcDbEntity
  8
\U+FF7A\U+FF88\U+FF78\U+FF80
100
AcDbLine
 10
6163.732661725833
 20
-3600.847109799613
 30
0.0
 11
6168.732661725833
 21
-3600.847108537979
 31
0.0
  0
LINE
  5
7D120
330
18
100
AcDbEntity
  8
\U+FF7A\U+FF88\U+FF78\U+FF80
100
AcDbLine
 10
6163.732661725833
 20
-3612.847109799617
 30
0.0
 11
6168.732661725833
 21
-3612.847108537982
 31
0.0
  0
ARC
  5
7D122
330
18
100
AcDbEntity
  8
実線
100
AcDbCircle
 10
5942.732661725833
 20
-3606.847111061249
 30
0.0
 40
216.0
100
AcDbArc
 50
347.2523590433188
 51
12.74764095678282
  0
CIRCLE
  5
7D123
330
18
100
AcDbEntity
  8
実線
100
AcDbCircle
 10
6101.831687492806
 20
-3447.748085294275
 30
0.0
 40
8.5
  0
LINE
  5
7D124
330
18
100
AcDbEntity
  8
中心線
100
AcDbLine
 10
6115.428689818759
 20
-3434.151082968325
 30
0.0
 11
6088.23468516703
 21
-3461.34508762005
 31
0.0
  0
ARC
  5
7D125
330
18
100
AcDbEntity
  8
中心線
100
AcDbCircle
 10
5942.732661725833
 20
-3606.847111061249
 30
0.0
 40
225.0
100
AcDbArc
 50
40.10186737761856
 51
49.89813262245792
  0
LINE
  5
7D126
330
18
100
AcDbEntity
  8
実線
100
AcDbLine
 10
6080.209943615257
 20
-3402.847111061248
 30
0.0
 11
5805.255300756387
 21
-3402.84711106125
 31
0.0
  0
LINE
  5
7D127
330
18
100
AcDbEntity
  8
実線
100
AcDbLine
 10
6080.209842453711
 20
-3810.84711106125
 30
0.0
 11
5805.255401917933
 21
-3810.84711106125
 31
0.0
  0
LINE
  5
7D129
330
18
100
AcDbEntity
  8
中心線
100
AcDbLine
 10
5720.150076855924
 20
-3606.84711106125
 30
0.0
 11
6190.50165946856
 21
-3606.84711106125
 31
0.0
  0
ARC
  5
7D12A
330
18
100
AcDbEntity
  8
中心線
100
AcDbCircle
 10
5942.732661725833
 20
-3606.847111061249
 30
0.0
 40
225.0
100
AcDbArc
 50
130.1018673776155
 51
139.8981326224211
  0
LINE
  5
7D12B
330
18
100
AcDbEntity
  8
中心線
100
AcDbLine
 10
5770.036633632909
 20
-3434.151082968323
 30
0.0
 11
5797.230638284636
 21
-3461.345087620053
 31
0.0
  0
ARC
  5
7D12C
330
18
100
AcDbEntity
  8
中心線
100
AcDbCircle
 10
5942.732661725835
 20
-3606.847111061252
 30
0.0
 40
225.0
100
AcDbArc
 50
220.1018673776186
 51
229.898132622458
  0
LINE
  5
7D12D
330
18
100
AcDbEntity
  8
中心線
100
AcDbLine
 10
5770.036633632908
 20
-3779.543139154176
 30
0.0
 11
5797.230638284638
 21
-3752.349134502451
 31
0.0
  0
ARC
  5
7D12E
330
18
100
AcDbEntity
  8
中心線
100
AcDbCircle
 10
5942.732661725835
 20
-3606.847111061249
 30
0.0
 40
225.0
100
AcDbArc
 50
310.1018673776153
 51
319.8981326224213
  0
LINE
  5
7D12F
330
18
100
AcDbEntity
  8
中心線
100
AcDbLine
 10
6115.428689818759
 20
-3779.543139154176
 30
0.0
 11
6088.234685167035
 21
-3752.349134502445
 31
0.0
  0
SPLINE
  5
7D13E
330
18
100
AcDbEntity
  8
細線
 48
0.5
100
AcDbSpline
210
0.0
220
0.0
230
1.0
 70
  1064
 71
     3
 72
     9
 73
     5
 74
     3
 42
0.000000001
 43
0.0000000001
 44
0.0000000001
 40
0.0
 40
0.0
 40
0.0
 40
0.0
 40
1.77585942440226
 40
4.196617551548921
 40
4.196617551548921
 40
4.196617551548921
 40
4.196617551548921
 10
4993.381800652999
 20
-3606.839258154842
 30
0.0
 10
4993.092929929833
 20
-3606.29020274219
 30
0.0
 10
4992.410285836324
 20
-3604.992703880596
 30
0.0
 10
4993.026402606659
 20
-3603.630159868788
 30
0.0
 10
4993.381800652999
 20
-3602.844196065877
 30
0.0
 11
4993.381800652999
 21
-3606.839258154842
 31
0.0
 11
4992.747755208321
 21
-3605.180444401185
 31
0.0
 11
4993.381800652999
 21
-3602.844196065877
 31
0.0
  0
SPLINE
  5
7D13F
330
18
100
AcDbEntity
  8
細線
 48
0.5
100
AcDbSpline
210
0.0
220
0.0
230
1.0
 70
  1064
 71
     3
 72
    11
 73
     7
 74
     5
 42
0.000000001
 43
0.0000000001
 44
0.0000000001
 40
0.0
 40
0.0
 40
0.0
 40
0.0
 40
2.415132138322301
 40
4.200136341938575
 40
5.981532756965902
 40
8.402290884113517
 40
8.402290884113517
 40
8.402290884113517
 40
8.402290884113517
 10
4993.381800652999
 20
-3610.844196065877
 30
0.0
 10
4993.028064328863
 20
-3610.060651609385
 30
0.0
 10
4992.412884411006
 20
-3608.697995920687
 30
0.0
 10
4993.376664005355
 20
-3606.844469480364
 30
0.0
 10
4994.354526636396
 20
-3604.994859433826
 30
0.0
 10
4993.737344270643
 20
-3603.630290656983
 30
0.0
 10
4993.381800652999
 20
-3602.844196065877
 30
0.0
 11
4993.381800652999
 21
-3610.844196065877
 31
0.0
 11
4992.747755208319
 21
-3608.513777730119
 31
0.0
 11
4993.379211519837
 21
-3606.844196065877
 31
0.0
 11
4994.015846097681
 21
-3605.180444401185
 31
0.0
 11
4993.381800652999
 21
-3602.844196065877
 31
0.0
  0
LINE
  5
7EDAC
330
18
100
AcDbEntity
  8
\U+FF7A\U+FF88\U+FF78\U+FF80
 48
0.5
100
AcDbLine
 10
4916.90568017231
 20
-3874.276218229407
 30
0.0
 11
4916.90568017231
 21
-3861.276218229407
 31
0.0
  0
LINE
  5
7EDAE
330
18
100
AcDbEntity
  8
\U+FF7A\U+FF88\U+FF78\U+FF80
 48
0.5
100
AcDbLine
 10
4928.905680172309
 20
-3874.276218229407
 30
0.0
 11
4928.905680172309
 21
-3861.276218229407
 31
0.0
  0
LINE
  5
7EDAF
330
18
100
AcDbEntity
  8
\U+FF7A\U+FF88\U+FF78\U+FF80
 48
0.5
100
AcDbLine
 10
4925.905680172309
 20
-3874.276218229407
 30
0.0
 11
4925.905680172309
 21
-3861.276218229407
 31
0.0
  0
LINE
  5
7EDB0
330
18
100
AcDbEntity
  8
\U+FF7A\U+FF88\U+FF78\U+FF80
 48
0.5
100
AcDbLine
 10
4922.90568017231
 20
-3874.276218229407
 30
0.0
 11
4922.90568017231
 21
-3861.276218229407
 31
0.0
  0
LINE
  5
7EDB1
330
18
100
AcDbEntity
  8
\U+FF7A\U+FF88\U+FF78\U+FF80
 48
0.5
100
AcDbLine
 10
4919.90568017231
 20
-3874.276218229407
 30
0.0
 11
4919.90568017231
 21
-3861.276218229407
 31
0.0
  0
LINE
  5
7EDB2
330
18
100
AcDbEntity
  8
\U+FF7A\U+FF88\U+FF78\U+FF80
 48
0.5
100
AcDbLine
 10
4939.155680172309
 20
-3861.276218229407
 30
0.0
 11
4939.155680172309
 21
-3874.276218229407
 31
0.0
  0
LINE
  5
7EDB3
330
18
100
AcDbEntity
  8
\U+FF7A\U+FF88\U+FF78\U+FF80
 48
0.5
100
AcDbLine
 10
4931.90568017231
 20
-3874.276218229407
 30
0.0
 11
4931.90568017231
 21
-3861.276218229407
 31
0.0
  0
LINE
  5
7EDB4
330
18
100
AcDbEntity
  8
\U+FF7A\U+FF88\U+FF78\U+FF80
 48
0.5
100
AcDbLine
 10
4934.90568017231
 20
-3874.276218229407
 30
0.0
 11
4934.90568017231
 21
-3861.276218229407
 31
0.0
  0
LINE
  5
7EDB5
330
18
100
AcDbEntity
  8
\U+FF7A\U+FF88\U+FF78\U+FF80
 48
0.5
100
AcDbLine
 10
4909.65568017231
 20
-3874.276218229407
 30
0.0
 11
4909.65568017231
 21
-3861.276218229407
 31
0.0
  0
LINE
  5
7EDB6
330
18
100
AcDbEntity
  8
\U+FF7A\U+FF88\U+FF78\U+FF80
 48
0.5
100
AcDbLine
 10
4913.90568017231
 20
-3874.276218229407
 30
0.0
 11
4913.90568017231
 21
-3861.276218229407
 31
0.0
  0
LINE
  5
7EDB8
330
18
100
AcDbEntity
  8
\U+FF7A\U+FF88\U+FF78\U+FF80
 48
0.5
100
AcDbLine
 10
4926.405680172309
 20
-3921.176218229407
 30
0.0
 11
4930.10568017231
 21
-3899.276218229407
 31
0.0
  0
LINE
  5
7EDB9
330
18
100
AcDbEntity
  8
\U+FF7A\U+FF88\U+FF78\U+FF80
 48
0.5
100
AcDbLine
 10
4922.10568017231
 20
-3920.584326337516
 30
0.0
 11
4918.505680172311
 21
-3899.276218229407
 31
0.0
  0
LINE
  5
7EDBA
330
18
100
AcDbEntity
  8
\U+FF7A\U+FF88\U+FF78\U+FF80
 48
0.5
100
AcDbLine
 10
4924.405680172309
 20
-3921.176218229407
 30
0.0
 11
4928.105680172311
 21
-3899.276218229407
 31
0.0
  0
LINE
  5
7EDBB
330
18
100
AcDbEntity
  8
\U+FF7A\U+FF88\U+FF78\U+FF80
 48
0.5
100
AcDbLine
 10
4922.005680172309
 20
-3921.176218229407
 30
0.0
 11
4925.70568017231
 21
-3899.276218229407
 31
0.0
  0
LINE
  5
7EDBC
330
18
100
AcDbEntity
  8
\U+FF7A\U+FF88\U+FF78\U+FF80
 48
0.5
100
AcDbLine
 10
4924.005680172309
 20
-3921.176218229407
 30
0.0
 11
4927.705680172309
 21
-3899.276218229407
 31
0.0
  0
LINE
  5
7EDBD
330
18
100
AcDbEntity
  8
\U+FF7A\U+FF88\U+FF78\U+FF80
 48
0.5
100
AcDbLine
 10
4923.305680172308
 20
-3913.481623634813
 30
0.0
 11
4920.90568017231
 21
-3899.276218229407
 31
0.0
  0
LINE
  5
7EDBE
330
18
100
AcDbEntity
  8
\U+FF7A\U+FF88\U+FF78\U+FF80
 48
0.5
100
AcDbLine
 10
4923.123129836739
 20
-3914.562124269677
 30
0.0
 11
4920.50568017231
 21
-3899.276218229407
 31
0.0
  0
LINE
  5
7EDC1
330
18
100
AcDbEntity
  8
\U+FF7A\U+FF88\U+FF78\U+FF80
100
AcDbLine
 10
4920.205680172309
 20
-3921.176218229407
 30
0.0
 11
4928.205680172309
 21
-3921.176218229406
 31
0.0
  0
LINE
  5
7EDC2
330
18
100
AcDbEntity
  8
\U+FF7A\U+FF88\U+FF78\U+FF80
 48
0.5
100
AcDbLine
 10
4922.005680172309
 20
-3921.176218229407
 30
0.0
 11
4926.405680172309
 21
-3921.176218229407
 31
0.0
  0
LWPOLYLINE
  5
7EDC8
330
18
100
AcDbEntity
  8
\U+FF7A\U+FF88\U+FF78\U+FF80
 48
0.5
100
AcDbPolyline
 90
        4
 70
     1
 43
0.0
 10
4921.15568017231
 20
-3894.776218229407
 10
4921.15568017231
 20
-3899.276218229407
 10
4916.65568017231
 20
-3899.276218229407
 10
4916.65568017231
 20
-3894.776218229407
  0
LINE
  5
7EDC9
330
18
100
AcDbEntity
  8
\U+FF7A\U+FF88\U+FF78\U+FF80
 48
0.5
100
AcDbLine
 10
4916.90568017231
 20
-3874.276218229407
 30
0.0
 11
4919.90568017231
 21
-3874.276218229407
 31
0.0
  0
LWPOLYLINE
  5
7EDCB
330
18
100
AcDbEntity
  8
\U+FF7A\U+FF88\U+FF78\U+FF80
 48
0.5
100
AcDbPolyline
 90
        4
 70
     1
 43
0.0
 10
4933.15568017231
 20
-3881.654243852293
 10
4933.15568017231
 20
-3891.654243852293
 10
4915.65568017231
 20
-3891.654243852293
 10
4915.65568017231
 20
-3881.654243852293
  0
LINE
  5
7EDCC
330
18
100
AcDbEntity
  8
\U+FF7A\U+FF88\U+FF78\U+FF80
 48
0.5
100
AcDbLine
 10
4917.03068017231
 20
-3899.276218229407
 30
0.0
 11
4931.78068017231
 21
-3899.276218229407
 31
0.0
  0
LINE
  5
7EDCD
330
18
100
AcDbEntity
  8
\U+FF7A\U+FF88\U+FF78\U+FF80
 48
0.5
100
AcDbLine
 10
4924.315076145465
 20
-3907.50709071263
 30
0.0
 11
4922.90568017231
 21
-3899.276218229407
 31
0.0
  0
LINE
  5
7EDCE
330
18
100
AcDbEntity
  8
\U+FF7A\U+FF88\U+FF78\U+FF80
 48
0.5
100
AcDbLine
 10
4922.90568017231
 20
-3874.276218229407
 30
0.0
 11
4925.905680172309
 21
-3874.276218229407
 31
0.0
  0
LINE
  5
7EDCF
330
18
100
AcDbEntity
  8
\U+FF7A\U+FF88\U+FF78\U+FF80
 48
0.5
100
AcDbLine
 10
4935.40568017231
 20
-3875.276218229407
 30
0.0
 11
4935.40568017231
 21
-3899.276218229407
 31
0.0
  0
LINE
  5
7EDD0
330
18
100
AcDbEntity
  8
\U+FF7A\U+FF88\U+FF78\U+FF80
 48
0.5
100
AcDbLine
 10
4935.40568017231
 20
-3875.276218229407
 30
0.0
 11
4934.90568017231
 21
-3874.276218229407
 31
0.0
  0
LINE
  5
7EDD1
330
18
100
AcDbEntity
  8
\U+FF7A\U+FF88\U+FF78\U+FF80
 48
0.5
100
AcDbLine
 10
4934.90568017231
 20
-3874.276218229407
 30
0.0
 11
4939.155680172309
 21
-3874.276218229407
 31
0.0
  0
LINE
  5
7EDD2
330
18
100
AcDbEntity
  8
\U+FF7A\U+FF88\U+FF78\U+FF80
 48
0.5
100
AcDbLine
 10
4939.155680172309
 20
-3874.276218229407
 30
0.0
 11
4935.40568017231
 21
-3875.276218229407
 31
0.0
  0
LWPOLYLINE
  5
7EDD3
330
18
100
AcDbEntity
  8
\U+FF7A\U+FF88\U+FF78\U+FF80
 48
0.5
100
AcDbPolyline
 90
        4
 70
     1
 43
0.0
 10
4932.15568017231
 20
-3894.776218229407
 10
4932.15568017231
 20
-3899.276218229407
 10
4927.655680172311
 20
-3899.276218229407
 10
4927.655680172311
 20
-3894.776218229407
  0
LINE
  5
7EDD6
330
18
100
AcDbEntity
  8
\U+FF7A\U+FF88\U+FF78\U+FF80
 48
0.5
100
AcDbLine
 10
4928.905680172309
 20
-3874.276218229407
 30
0.0
 11
4931.90568017231
 21
-3874.276218229407
 31
0.0
  0
LINE
  5
7EDD8
330
18
100
AcDbEntity
  8
\U+FF7A\U+FF88\U+FF78\U+FF80
100
AcDbLine
 10
4920.205680172309
 20
-3948.581808343853
 30
0.0
 11
4920.205680172309
 21
-3921.176218229407
 31
0.0
  0
LINE
  5
7EDD9
330
18
100
AcDbEntity
  8
\U+FF7A\U+FF88\U+FF78\U+FF80
100
AcDbLine
 10
4928.205680172309
 20
-3948.581808343853
 30
0.0
 11
4928.205680172309
 21
-3921.176218229407
 31
0.0
  0
LINE
  5
7EDDA
330
18
100
AcDbEntity
  8
\U+FF7A\U+FF88\U+FF78\U+FF80
 48
0.5
100
AcDbLine
 10
4913.40568017231
 20
-3875.276218229407
 30
0.0
 11
4913.40568017231
 21
-3899.276218229407
 31
0.0
  0
LINE
  5
7EDDB
330
18
100
AcDbEntity
  8
\U+FF7A\U+FF88\U+FF78\U+FF80
 48
0.5
100
AcDbLine
 10
4913.40568017231
 20
-3875.276218229407
 30
0.0
 11
4913.90568017231
 21
-3874.276218229407
 31
0.0
  0
LINE
  5
7EDDC
330
18
100
AcDbEntity
  8
\U+FF7A\U+FF88\U+FF78\U+FF80
 48
0.5
100
AcDbLine
 10
4909.65568017231
 20
-3874.276218229407
 30
0.0
 11
4913.40568017231
 21
-3875.276218229407
 31
0.0
  0
LINE
  5
7EDDD
330
18
100
AcDbEntity
  8
\U+FF7A\U+FF88\U+FF78\U+FF80
 48
0.5
100
AcDbLine
 10
4909.65568017231
 20
-3874.276218229407
 30
0.0
 11
4913.90568017231
 21
-3874.276218229407
 31
0.0
  0
LINE
  5
7EDDE
330
18
100
AcDbEntity
  8
\U+FF7A\U+FF88\U+FF78\U+FF80
 48
0.5
100
AcDbLine
 10
4913.40568017231
 20
-3899.276218229407
 30
0.0
 11
4935.40568017231
 21
-3899.276218229407
 31
0.0
  0
LWPOLYLINE
  5
7EDDF
330
18
100
AcDbEntity
  8
\U+FF7A\U+FF88\U+FF78\U+FF80
 48
0.5
100
AcDbPolyline
 90
        4
 70
     1
 43
0.0
 10
4907.555680172309
 20
-3857.276218229407
 10
4907.555680172309
 20
-3861.276218229407
 10
4941.255680172311
 20
-3861.276218229407
 10
4941.255680172311
 20
-3857.276218229407
  0
LWPOLYLINE
  5
7EDE0
330
18
100
AcDbEntity
  8
\U+FF7A\U+FF88\U+FF78\U+FF80
 48
0.5
100
AcDbPolyline
 90
        4
 70
     1
 43
0.0
 10
4909.65568017231
 20
-3852.276218229407
 10
4909.65568017231
 20
-3857.276218229407
 10
4939.155680172309
 20
-3857.276218229407
 10
4939.155680172309
 20
-3852.276218229407
  0
ARC
  5
7EE7C
330
18
100
AcDbEntity
  8
\U+FF7A\U+FF88\U+FF78\U+FF80
100
AcDbCircle
 10
4963.205680172309
 20
-3948.581808343853
 30
0.0
 40
35.0
100
AcDbArc
 50
180.0
 51
270.0
  0
ARC
  5
7EE7D
330
18
100
AcDbEntity
  8
\U+FF7A\U+FF88\U+FF78\U+FF80
100
AcDbCircle
 10
4963.205680172309
 20
-3948.581808343853
 30
0.0
 40
43.0
100
AcDbArc
 50
180.0
 51
270.0
  0
LINE
  5
7EE7E
330
18
100
AcDbEntity
  8
\U+FF7A\U+FF88\U+FF78\U+FF80
100
AcDbLine
 10
4999.887371174272
 20
-3983.581808343851
 30
0.0
 11
4978.361319847732
 21
-3983.581808343853
 31
0.0
  0
LINE
  5
7EE7F
330
18
100
AcDbEntity
  8
\U+FF7A\U+FF88\U+FF78\U+FF80
100
AcDbLine
 10
4999.887371174272
 20
-3991.581808343852
 30
0.0
 11
4978.361319847732
 21
-3991.581808343852
 31
0.0
  0
TEXT
  5
80240
330
18
100
AcDbEntity
  8
\U+FF7A\U+FF88\U+FF78\U+FF80
 48
0.5
100
AcDbText
 10
4918.306001187098
 20
-3890.675154473057
 30
0.0
 40
4.0
  1
ＡＭＰ
100
AcDbText
  0
TEXT
  5
80241
330
18
100
AcDbEntity
  8
\U+FF7A\U+FF88\U+FF78\U+FF80
 48
0.5
100
AcDbText
 10
4916.365676100447
 20
-3885.636023658452
 30
0.0
 40
2.799999999999999
  1
D-5200
100
AcDbText
  0
TEXT
  5
80242
330
18
100
AcDbEntity
  8
\U+FF7A\U+FF88\U+FF78\U+FF80
 48
0.5
100
AcDbText
 10
4929.337490887686
 20
-3898.417538209736
 30
0.0
 40
2.5
  1
1
100
AcDbText
  0
TEXT
  5
80243
330
18
100
AcDbEntity
  8
\U+FF7A\U+FF88\U+FF78\U+FF80
 48
0.5
100
AcDbText
 10
4918.179121798885
 20
-3898.417538209736
 30
0.0
 40
2.5
  1
2
100
AcDbText
  0
LINE
  5
8526D
330
18
100
AcDbEntity
  8
実線
100
AcDbLine
 10
5862.732663513972
 20
-3402.847114875939
 30
0.0
 11
5862.732663513972
 21
-3451.203290298607
 31
0.0
  0
ARC
  5
8526E
330
18
100
AcDbEntity
  8
実線
100
AcDbCircle
 10
5942.73266172583
 20
-3606.847111061242
 30
0.0
 40
175.0
100
AcDbArc
 50
117.2028944122529
 51
152.797105587747
  0
LINE
  5
8526F
330
18
100
AcDbEntity
  8
実線
100
AcDbLine
 10
5787.088840963196
 20
-3526.847112849381
 30
0.0
 11
5738.732665540528
 21
-3526.847112849381
 31
0.0
  0
LINE
  5
85270
330
18
100
AcDbEntity
  8
実線
100
AcDbLine
 10
6146.732657911133
 20
-3526.847112849381
 30
0.0
 11
6098.376482488465
 21
-3526.847112849381
 31
0.0
  0
ARC
  5
85271
330
18
100
AcDbEntity
  8
実線
100
AcDbCircle
 10
5942.73266172583
 20
-3606.847111061242
 30
0.0
 40
175.0
100
AcDbArc
 50
27.20289441225287
 51
62.79710558774713
  0
LINE
  5
85272
330
18
100
AcDbEntity
  8
実線
100
AcDbLine
 10
6022.732659937693
 20
-3451.203290298607
 30
0.0
 11
6022.732659937693
 21
-3402.847114875939
 31
0.0
  0
LINE
  5
85273
330
18
100
AcDbEntity
  8
実線
100
AcDbLine
 10
6098.376482488465
 20
-3686.847109273102
 30
0.0
 11
6146.732657911133
 21
-3686.847109273102
 31
0.0
  0
ARC
  5
85274
330
18
100
AcDbEntity
  8
実線
100
AcDbCircle
 10
5942.73266172583
 20
-3606.847111061242
 30
0.0
 40
175.0000000000001
100
AcDbArc
 50
297.2028944122529
 51
332.7971055877472
  0
LINE
  5
85275
330
18
100
AcDbEntity
  8
実線
100
AcDbLine
 10
6022.732659937691
 20
-3810.847107246545
 30
0.0
 11
6022.732659937691
 21
-3762.490931823876
 31
0.0
  0
LINE
  5
85276
330
18
100
AcDbEntity
  8
実線
100
AcDbLine
 10
5862.73266351397
 20
-3762.490931823876
 30
0.0
 11
5862.73266351397
 21
-3810.847107246545
 31
0.0
  0
ARC
  5
85277
330
18
100
AcDbEntity
  8
実線
100
AcDbCircle
 10
5942.73266172583
 20
-3606.847111061242
 30
0.0
 40
175.0
100
AcDbArc
 50
207.2028944122528
 51
242.7971055877472
  0
LINE
  5
85278
330
18
100
AcDbEntity
  8
実線
100
AcDbLine
 10
5738.732665540528
 20
-3686.847109273102
 30
0.0
 11
5787.088840963196
 21
-3686.847109273102
 31
0.0
  0
ARC
  5
852F2
102
{ACAD_REACTORS
330
8A77E
102
}
330
18
100
AcDbEntity
  8
中心線
100
AcDbCircle
 10
5942.732661725826
 20
-3606.847111061244
 30
0.0
 40
195.5000000000001
100
AcDbArc
 50
320.3353676080261
 51
320.0573460769539
  0
ARC
  5
852F3
330
18
100
AcDbEntity
  8
実線
100
AcDbCircle
 10
5845.482661725828
 20
-3438.405170025161
 30
0.0
 40
4.000000000000049
100
AcDbArc
 50
210.0000000000103
 51
30.00000000001031
  0
LINE
  5
852F4
330
18
100
AcDbEntity
  8
実線
100
AcDbLine
 10
5848.946764828512
 20
-3436.405170634413
 30
0.0
 11
5847.946762801954
 21
-3434.673119261885
 31
0.0
  0
ARC
  5
852F5
330
18
100
AcDbEntity
  8
実線
100
AcDbCircle
 10
5844.482661725828
 20
-3436.673119217589
 30
0.0
 40
4.000000000000069
100
AcDbArc
 50
30.00000000001031
 51
210.0000000000103
  0
LINE
  5
852F6
330
18
100
AcDbEntity
  8
実線
100
AcDbLine
 10
5841.018557311842
 20
-3438.673112466956
 30
0.0
 11
5842.018559338399
 21
-3440.405163839484
 31
0.0
  0
CIRCLE
  5
852F7
102
{ACAD_REACTORS
330
8A77E
102
}
330
18
100
AcDbEntity
  8
実線
100
AcDbCircle
 10
6040.482661725843
 20
-3776.155077501091
 30
0.0
 40
4.000000000000056
  0
LINE
  5
852FA
330
18
100
AcDbEntity
  8
中心線
100
AcDbLine
 10
5942.732661725869
 20
-3606.847111061274
 30
0.0
 11
6045.43717783604
 21
-3784.736551130874
 31
0.0
  0
LINE
  5
852FC
330
18
100
AcDbEntity
  8
中心線
100
AcDbLine
 10
5942.732661725816
 20
-3606.847111061274
 30
0.0
 11
5840.028145615617
 21
-3428.957670991626
 31
0.0
  0
ARC
  5
85768
330
18
100
AcDbEntity
  8
実線
 48
2.0
100
AcDbCircle
 10
5657.164772032878
 20
-3404.847111061261
 30
0.0
 40
2.0
100
AcDbArc
 50
90.0
 51
180.0
  0
ARC
  5
85769
330
18
100
AcDbEntity
  8
実線
 48
2.0
100
AcDbCircle
 10
5657.164772032878
 20
-3808.84711106127
 30
0.0
 40
2.0
100
AcDbArc
 50
180.0
 51
270.0
  0
ARC
  5
8576A
330
18
100
AcDbEntity
  8
実線
 48
2.0
100
AcDbCircle
 10
5439.887371174279
 20
-4025.571807840124
 30
0.0
 40
2.0
100
AcDbArc
 50
0.0000000000130276
 51
90.0
  0
ARC
  5
8576B
330
18
100
AcDbEntity
  8
実線
 48
2.0
100
AcDbCircle
 10
5035.887371174271
 20
-4025.571807840123
 30
0.0
 40
2.0
100
AcDbArc
 50
90.0
 51
180.0
  0
LINE
  5
863ED
330
18
100
AcDbEntity
  8
実線
100
AcDbLine
 10
5675.164772032878
 20
-3526.847112849381
 30
0.0
 11
5674.864772032877
 21
-3526.847112849381
 31
0.0
  0
LINE
  5
863EE
330
18
100
AcDbEntity
  8
実線
100
AcDbLine
 10
5674.864772032876
 20
-3686.847109273102
 30
0.0
 11
5675.164772032878
 21
-3686.847109273102
 31
0.0
  0
LINE
  5
863EF
330
18
100
AcDbEntity
  8
実線
 48
2.0
100
AcDbLine
 10
5674.864772032877
 20
-3526.847112849381
 30
0.0
 11
5674.864772032876
 21
-3686.847109273102
 31
0.0
  0
LINE
  5
863F0
330
18
100
AcDbEntity
  8
実線
 48
2.0
100
AcDbLine
 10
5675.164772032875
 20
-3686.847109273103
 30
0.0
 11
5675.164772032878
 21
-3810.84711106127
 31
0.0
  0
LINE
  5
863FB
330
18
100
AcDbEntity
  8
中心線
100
AcDbLine
 10
5650.716677735829
 20
-3447.748085294276
 30
0.0
 11
5682.177034043363
 21
-3447.748085294275
 31
0.0
  0
LINE
  5
86623
330
18
100
AcDbEntity
  8
中心線
100
AcDbLine
 10
5650.716677735829
 20
-3765.946136828225
 30
0.0
 11
5682.177034043363
 21
-3765.946136828225
 31
0.0
  0
SPLINE
  5
867DC
330
18
100
AcDbEntity
  8
細線
 48
0.5
100
AcDbSpline
210
0.0
220
0.0
230
1.0
 70
  1064
 71
     3
 72
     9
 73
     5
 74
     3
 42
0.000000001
 43
0.0000000001
 44
0.0000000001
 40
0.0
 40
0.0
 40
0.0
 40
0.0
 40
1.775859424402585
 40
3.031098346413354
 40
3.031098346413354
 40
3.031098346413354
 40
3.031098346413354
 10
6187.208227479004
 20
-3606.839258154842
 30
0.0
 10
6187.569079448
 20
-3606.274001220482
 30
0.0
 10
6188.184994081495
 20
-3605.309201115534
 30
0.0
 10
6187.494270172425
 20
-3604.452067406923
 30
0.0
 10
6187.208227479007
 20
-3604.09711106125
 30
0.0
 11
6187.208227479004
 21
-3606.839258154842
 31
0.0
 11
6187.842272923684
 21
-3605.180444401185
 31
0.0
 11
6187.208227479007
 21
-3604.09711106125
 31
0.0
  0
SPLINE
  5
867DD
330
18
100
AcDbEntity
  8
細線
 48
0.5
100
AcDbSpline
210
0.0
220
0.0
230
1.0
 70
  1064
 71
     3
 72
    11
 73
     7
 74
     5
 42
0.000000001
 43
0.0000000001
 44
0.0000000001
 40
0.0
 40
0.0
 40
0.0
 40
0.0
 40
1.255238914413479
 40
3.040243118029754
 40
4.821639533057081
 40
6.076878455070607
 40
6.076878455070607
 40
6.076878455070607
 40
6.076878455070607
 10
6187.208227479007
 20
-3609.59711106125
 30
0.0
 10
6187.493648842795
 20
-3609.24228952478
 30
0.0
 10
6188.184951770892
 20
-3608.382896367035
 30
0.0
 10
6187.21388615415
 20
-3606.84440468085
 30
0.0
 10
6186.230175849502
 20
-3605.310999920059
 30
0.0
 10
6186.922177981982
 20
-3604.452135568168
 30
0.0
 10
6187.208227479007
 20
-3604.09711106125
 30
0.0
 11
6187.208227479007
 21
-3609.59711106125
 31
0.0
 11
6187.842272923685
 21
-3608.513777730119
 31
0.0
 11
6187.210816612168
 21
-3606.844196065877
 31
0.0
 11
6186.574182034323
 21
-3605.180444401185
 31
0.0
 11
6187.208227479007
 21
-3604.09711106125
 31
0.0
  0
LINE
  5
867DE
330
18
100
AcDbEntity
  8
\U+FF7A\U+FF88\U+FF78\U+FF80
100
AcDbLine
 10
6180.732661725834
 20
-3604.09711106125
 30
0.0
 11
6187.208227479007
 21
-3604.09711106125
 31
0.0
  0
LINE
  5
867DF
330
18
100
AcDbEntity
  8
\U+FF7A\U+FF88\U+FF78\U+FF80
100
AcDbLine
 10
6180.732661725834
 20
-3609.59711106125
 30
0.0
 11
6187.208227479007
 21
-3609.59711106125
 31
0.0
  0
LINE
  5
8688C
330
18
100
AcDbEntity
  8
実線
 48
2.0
100
AcDbLine
 10
5439.887371174279
 20
-4023.571807840124
 30
0.0
 11
5035.887371174271
 21
-4023.571807840123
 31
0.0
  0
SPLINE
  5
869DB
330
18
100
AcDbEntity
  8
細線
 48
0.5
100
AcDbSpline
210
0.0
220
0.0
230
1.0
 70
  1064
 71
     3
 72
     9
 73
     5
 74
     3
 42
0.000000001
 43
0.0000000001
 44
0.0000000001
 40
0.0
 40
0.0
 40
0.0
 40
0.0
 40
1.775859424401086
 40
4.196617551548386
 40
4.196617551548386
 40
4.196617551548386
 40
4.196617551548386
 10
4978.361319847731
 20
-3987.576870432816
 30
0.0
 10
4978.072449124565
 20
-3987.027815020164
 30
0.0
 10
4977.389805031057
 20
-3985.730316158571
 30
0.0
 10
4978.00592180139
 20
-3984.367772146763
 30
0.0
 10
4978.361319847731
 20
-3983.581808343851
 30
0.0
 11
4978.361319847731
 21
-3987.576870432816
 31
0.0
 11
4977.727274403053
 21
-3985.91805667916
 31
0.0
 11
4978.361319847731
 21
-3983.581808343851
 31
0.0
  0
SPLINE
  5
869DC
330
18
100
AcDbEntity
  8
細線
 48
0.5
100
AcDbSpline
210
0.0
220
0.0
230
1.0
 70
  1064
 71
     3
 72
    11
 73
     7
 74
     5
 42
0.000000001
 43
0.0000000001
 44
0.0000000001
 40
0.0
 40
0.0
 40
0.0
 40
0.0
 40
2.415132138321824
 40
4.200136341937777
 40
5.981532756964255
 40
8.402290884112986
 40
8.402290884112986
 40
8.402290884112986
 40
8.402290884112986
 10
4978.361319847731
 20
-3991.581808343852
 30
0.0
 10
4978.007583523597
 20
-3990.798263887358
 30
0.0
 10
4977.392403605741
 20
-3989.435608198661
 30
0.0
 10
4978.356183200085
 20
-3987.582081758338
 30
0.0
 10
4979.334045831132
 20
-3985.732471711803
 30
0.0
 10
4978.716863465378
 20
-3984.367902934958
 30
0.0
 10
4978.361319847731
 20
-3983.581808343851
 30
0.0
 11
4978.361319847731
 21
-3991.581808343852
 31
0.0
 11
4977.727274403052
 21
-3989.251390008093
 31
0.0
 11
4978.358730714569
 21
-3987.581808343851
 31
0.0
 11
4978.995365292413
 21
-3985.91805667916
 31
0.0
 11
4978.361319847731
 21
-3983.581808343851
 31
0.0
  0
SPLINE
  5
869E3
330
18
100
AcDbEntity
  8
細線
 48
0.5
100
AcDbSpline
210
0.0
220
0.0
230
1.0
 70
  1064
 71
     3
 72
     9
 73
     5
 74
     3
 42
0.000000001
 43
0.0000000001
 44
0.0000000001
 40
0.0
 40
0.0
 40
0.0
 40
0.0
 40
1.77585942440226
 40
4.196617551548921
 40
4.196617551548921
 40
4.196617551548921
 40
4.196617551548921
 10
4973.553582633319
 20
-3987.576870432816
 30
0.0
 10
4973.842453356486
 20
-3988.125925845468
 30
0.0
 10
4974.525097449994
 20
-3989.423424707062
 30
0.0
 10
4973.908980679659
 20
-3990.78596871887
 30
0.0
 10
4973.553582633319
 20
-3991.571932521781
 30
0.0
 11
4973.553582633319
 21
-3987.576870432816
 31
0.0
 11
4974.187628077997
 21
-3989.235684186473
 31
0.0
 11
4973.553582633319
 21
-3991.571932521781
 31
0.0
  0
SPLINE
  5
869E4
330
18
100
AcDbEntity
  8
細線
 48
0.5
100
AcDbSpline
210
0.0
220
0.0
230
1.0
 70
  1064
 71
     3
 72
    11
 73
     7
 74
     5
 42
0.000000001
 43
0.0000000001
 44
0.0000000001
 40
0.0
 40
0.0
 40
0.0
 40
0.0
 40
2.415132138322301
 40
4.200136341938575
 40
5.981532756965902
 40
8.402290884113517
 40
8.402290884113517
 40
8.402290884113517
 40
8.402290884113517
 10
4973.553582633319
 20
-3983.571932521781
 30
0.0
 10
4973.907318957454
 20
-3984.355476978275
 30
0.0
 10
4974.52249887531
 20
-3985.718132666972
 30
0.0
 10
4973.558719280966
 20
-3987.571659107296
 30
0.0
 10
4972.580856649919
 20
-3989.421269153831
 30
0.0
 10
4973.198039015672
 20
-3990.785837930674
 30
0.0
 10
4973.553582633319
 20
-3991.571932521781
 30
0.0
 11
4973.553582633319
 21
-3983.571932521781
 31
0.0
 11
4974.187628077999
 21
-3985.902350857539
 31
0.0
 11
4973.556171766482
 21
-3987.571932521781
 31
0.0
 11
4972.919537188637
 21
-3989.235684186473
 31
0.0
 11
4973.553582633319
 21
-3991.571932521781
 31
0.0
  0
LINE
  5
869E5
330
18
100
AcDbEntity
  8
\U+FF7A\U+FF88\U+FF78\U+FF80
100
AcDbLine
 10
4973.553582633318
 20
-3983.581808343853
 30
0.0
 11
4963.205680172309
 21
-3983.581808343853
 31
0.0
  0
LINE
  5
869E6
330
18
100
AcDbEntity
  8
\U+FF7A\U+FF88\U+FF78\U+FF80
100
AcDbLine
 10
4973.553582633318
 20
-3991.581808343852
 30
0.0
 11
4963.205680172309
 21
-3991.581808343852
 31
0.0
  0
LINE
  5
869E9
330
18
100
AcDbEntity
  8
実線
 48
2.0
100
AcDbLine
 10
5317.887371174293
 20
-4043.571807840124
 30
0.0
 11
5317.887371174291
 21
-4043.271807840124
 31
0.0
  0
LINE
  5
869EA
330
18
100
AcDbEntity
  8
実線
 48
2.0
100
AcDbLine
 10
5157.887371174291
 20
-4043.571807840122
 30
0.0
 11
5157.887371174291
 21
-4043.271807840123
 31
0.0
  0
LINE
  5
869EB
330
18
100
AcDbEntity
  8
実線
 48
2.0
100
AcDbLine
 10
5317.887371174291
 20
-4043.271807840124
 30
0.0
 11
5157.88737117429
 21
-4043.271807840123
 31
0.0
  0
LINE
  5
869EC
330
18
100
AcDbEntity
  8
実線
 48
2.0
100
AcDbLine
 10
5157.887371174291
 20
-4043.571807840122
 30
0.0
 11
5021.887371174271
 21
-4043.571807840122
 31
0.0
  0
LINE
  5
869F3
330
18
100
AcDbEntity
  8
中心線
100
AcDbLine
 10
5396.956392173144
 20
-4019.123713543076
 30
0.0
 11
5396.956392173143
 21
-4050.58406985061
 31
0.0
  0
LINE
  5
86DC7
330
18
100
AcDbEntity
  8
実線
100
AcDbLine
 10
5039.587097951304
 20
-4023.571807840122
 30
0.0
 11
5039.587097951304
 21
-3972.071807840127
 31
0.0
  0
LINE
  5
86DC8
330
18
100
AcDbEntity
  8
実線
100
AcDbLine
 10
5028.2348069584
 20
-4043.571807840122
 30
0.0
 11
5028.2348069584
 21
-3972.071807840127
 31
0.0
  0
LINE
  5
88A9D
330
18
100
AcDbEntity
  8
\U+FF7A\U+FF88\U+FF78\U+FF80
100
AcDbLine
 10
4927.655680172311
 20
-4065.321633630695
 30
0.0
 11
4927.655680172311
 21
-4094.071631544627
 31
0.0
  0
LINE
  5
88A9E
330
18
100
AcDbEntity
  8
\U+FF7A\U+FF88\U+FF78\U+FF80
100
AcDbLine
 10
4922.155680172312
 20
-4065.321633630693
 30
0.0
 11
4922.155680172312
 21
-4094.071631544627
 31
0.0
  0
LINE
  5
88AA1
330
18
100
AcDbEntity
  8
\U+FF7A\U+FF88\U+FF78\U+FF80
 48
0.5
100
AcDbLine
 10
4929.505674119265
 20
-4104.071631544626
 30
0.0
 11
4926.405674119268
 21
-4094.071631544627
 31
0.0
  0
LINE
  5
88AA2
330
18
100
AcDbEntity
  8
\U+FF7A\U+FF88\U+FF78\U+FF80
 48
0.5
100
AcDbLine
 10
4928.505674119265
 20
-4104.071631544626
 30
0.0
 11
4925.405674119268
 21
-4094.071631544627
 31
0.0
  0
LINE
  5
88AA3
330
18
100
AcDbEntity
  8
\U+FF7A\U+FF88\U+FF78\U+FF80
 48
0.5
100
AcDbLine
 10
4925.405686225354
 20
-4104.071631544628
 30
0.0
 11
4925.405686225354
 21
-4094.071631544627
 31
0.0
  0
LINE
  5
88AA4
330
18
100
AcDbEntity
  8
\U+FF7A\U+FF88\U+FF78\U+FF80
 48
0.5
100
AcDbLine
 10
4921.305686225354
 20
-4104.071631544626
 30
0.0
 11
4924.405686225354
 21
-4094.071631544627
 31
0.0
  0
LINE
  5
88AA5
330
18
100
AcDbEntity
  8
\U+FF7A\U+FF88\U+FF78\U+FF80
 48
0.5
100
AcDbLine
 10
4920.305686225353
 20
-4104.071631544626
 30
0.0
 11
4923.405686225354
 21
-4094.071631544627
 31
0.0
  0
ARC
  5
88AA6
330
18
100
AcDbEntity
  8
\U+FF7A\U+FF88\U+FF78\U+FF80
 48
0.5
100
AcDbCircle
 10
4917.619971939638
 20
-4116.173390931816
 30
0.0
 40
0.4857142857142857
100
AcDbArc
 50
270.0
 51
0.0
  0
LINE
  5
88AA7
330
18
100
AcDbEntity
  8
\U+FF7A\U+FF88\U+FF78\U+FF80
 48
0.5
100
AcDbLine
 10
4917.911400511067
 20
-4123.031676646102
 30
0.0
 11
4917.911400511067
 21
-4121.574533788961
 31
0.0
  0
LINE
  5
88AA8
330
18
100
AcDbEntity
  8
\U+FF7A\U+FF88\U+FF78\U+FF80
 48
0.5
100
AcDbLine
 10
4931.705686225353
 20
-4118.271676646102
 30
0.0
 11
4918.105686225352
 21
-4118.271676646102
 31
0.0
  0
LINE
  5
88AA9
330
18
100
AcDbEntity
  8
\U+FF7A\U+FF88\U+FF78\U+FF80
 48
0.5
100
AcDbLine
 10
4930.730686225352
 20
-4127.771676646102
 30
0.0
 11
4927.280686225351
 21
-4127.771676646104
 31
0.0
  0
LINE
  5
88AAA
330
18
100
AcDbEntity
  8
\U+FF7A\U+FF88\U+FF78\U+FF80
 48
0.5
100
AcDbLine
 10
4926.630686225355
 20
-4127.771676646104
 30
0.0
 11
4923.180686225354
 21
-4127.771676646104
 31
0.0
  0
LINE
  5
88AAB
330
18
100
AcDbEntity
  8
\U+FF7A\U+FF88\U+FF78\U+FF80
 48
0.5
100
AcDbLine
 10
4922.530686225353
 20
-4127.771676646104
 30
0.0
 11
4919.080686225353
 21
-4127.771676646104
 31
0.0
  0
LINE
  5
88AAC
330
18
100
AcDbEntity
  8
\U+FF7A\U+FF88\U+FF78\U+FF80
 48
0.5
100
AcDbLine
 10
4919.080686225353
 20
-4127.771676646104
 30
0.0
 11
4919.080686225353
 21
-4118.271676646102
 31
0.0
  0
LINE
  5
88AAD
330
18
100
AcDbEntity
  8
\U+FF7A\U+FF88\U+FF78\U+FF80
 48
0.5
100
AcDbLine
 10
4923.180686225354
 20
-4127.771676646104
 30
0.0
 11
4923.180686225354
 21
-4118.271676646102
 31
0.0
  0
LINE
  5
88AAE
330
18
100
AcDbEntity
  8
\U+FF7A\U+FF88\U+FF78\U+FF80
 48
0.5
100
AcDbLine
 10
4922.530686225353
 20
-4127.771676646104
 30
0.0
 11
4922.530686225353
 21
-4118.271676646102
 31
0.0
  0
LINE
  5
88AAF
330
18
100
AcDbEntity
  8
\U+FF7A\U+FF88\U+FF78\U+FF80
 48
0.5
100
AcDbLine
 10
4927.280686225354
 20
-4127.771676646104
 30
0.0
 11
4927.280686225354
 21
-4118.271676646102
 31
0.0
  0
LINE
  5
88AB0
330
18
100
AcDbEntity
  8
\U+FF7A\U+FF88\U+FF78\U+FF80
 48
0.5
100
AcDbLine
 10
4926.630686225355
 20
-4127.771676646104
 30
0.0
 11
4926.630686225352
 21
-4118.271676646102
 31
0.0
  0
LINE
  5
88AB1
330
18
100
AcDbEntity
  8
\U+FF7A\U+FF88\U+FF78\U+FF80
 48
0.5
100
AcDbLine
 10
4930.730686225352
 20
-4127.771676646104
 30
0.0
 11
4930.730686225352
 21
-4118.271676646102
 31
0.0
  0
LINE
  5
88AB2
330
18
100
AcDbEntity
  8
\U+FF7A\U+FF88\U+FF78\U+FF80
 48
0.5
100
AcDbLine
 10
4931.705686225353
 20
-4105.171631544628
 30
0.0
 11
4931.705686225353
 21
-4118.271676646102
 31
0.0
  0
LINE
  5
88AB3
330
18
100
AcDbEntity
  8
\U+FF7A\U+FF88\U+FF78\U+FF80
 48
0.5
100
AcDbLine
 10
4918.105686225352
 20
-4105.171631544627
 30
0.0
 11
4918.105686225352
 21
-4118.271676646102
 31
0.0
  0
LINE
  5
88AB4
330
18
100
AcDbEntity
  8
\U+FF7A\U+FF88\U+FF78\U+FF80
 48
0.5
100
AcDbLine
 10
4923.405686225354
 20
-4094.071631544627
 30
0.0
 11
4926.405674119268
 21
-4094.071631544627
 31
0.0
  0
LINE
  5
88AB5
330
18
100
AcDbEntity
  8
\U+FF7A\U+FF88\U+FF78\U+FF80
100
AcDbLine
 10
4922.155680172312
 20
-4094.071631544627
 30
0.0
 11
4927.655680172311
 21
-4094.071631544627
 31
0.0
  0
LINE
  5
88AB6
330
18
100
AcDbEntity
  8
\U+FF7A\U+FF88\U+FF78\U+FF80
 48
0.5
100
AcDbLine
 10
4932.905680172311
 20
-4105.171631544627
 30
0.0
 11
4931.705686225353
 21
-4105.171631544628
 31
0.0
  0
LINE
  5
88AB7
330
18
100
AcDbEntity
  8
\U+FF7A\U+FF88\U+FF78\U+FF80
 48
0.5
100
AcDbLine
 10
4932.905680172311
 20
-4104.071631544626
 30
0.0
 11
4932.905680172311
 21
-4105.171631544627
 31
0.0
  0
LINE
  5
88AB8
330
18
100
AcDbEntity
  8
\U+FF7A\U+FF88\U+FF78\U+FF80
 48
0.5
100
AcDbLine
 10
4924.405686225354
 20
-4104.071631544628
 30
0.0
 11
4924.405686225354
 21
-4094.071631544627
 31
0.0
  0
ARC
  5
88AB9
330
18
100
AcDbEntity
  8
\U+FF7A\U+FF88\U+FF78\U+FF80
 48
0.5
100
AcDbCircle
 10
4917.119263439303
 20
-4116.173390931817
 30
0.0
 40
0.4857142857142857
100
AcDbArc
 50
189.9999999999849
 51
270.0
  0
LINE
  5
88ABA
330
18
100
AcDbEntity
  8
\U+FF7A\U+FF88\U+FF78\U+FF80
 48
0.5
100
AcDbLine
 10
4914.705686225353
 20
-4111.763105217532
 30
0.0
 11
4914.287971939639
 21
-4111.763105217532
 31
0.0
  0
LINE
  5
88ABB
330
18
100
AcDbEntity
  8
\U+FF7A\U+FF88\U+FF78\U+FF80
 48
0.5
100
AcDbLine
 10
4915.677114796782
 20
-4110.791676646103
 30
0.0
 11
4914.287971939639
 21
-4110.791676646103
 31
0.0
  0
LINE
  5
88ABC
330
18
100
AcDbEntity
  8
\U+FF7A\U+FF88\U+FF78\U+FF80
 48
0.5
100
AcDbLine
 10
4916.640928244984
 20
-4116.257734332398
 30
0.0
 11
4915.677114796782
 21
-4110.791676646103
 31
0.0
  0
LINE
  5
88ABD
330
18
100
AcDbEntity
  8
\U+FF7A\U+FF88\U+FF78\U+FF80
 48
0.5
100
AcDbLine
 10
4915.677114796782
 20
-4121.57453378896
 30
0.0
 11
4914.705686225353
 21
-4121.57453378896
 31
0.0
  0
LINE
  5
88ABE
330
18
100
AcDbEntity
  8
\U+FF7A\U+FF88\U+FF78\U+FF80
 48
0.5
100
AcDbLine
 10
4914.705686225353
 20
-4123.031676646102
 30
0.0
 11
4915.677114796782
 21
-4124.003105217531
 31
0.0
  0
LINE
  5
88ABF
330
18
100
AcDbEntity
  8
\U+FF7A\U+FF88\U+FF78\U+FF80
 48
0.5
100
AcDbLine
 10
4916.93997193964
 20
-4124.003105217531
 30
0.0
 11
4915.677114796782
 21
-4124.003105217531
 31
0.0
  0
LINE
  5
88AC0
330
18
100
AcDbEntity
  8
\U+FF7A\U+FF88\U+FF78\U+FF80
 48
0.5
100
AcDbLine
 10
4916.842829082497
 20
-4121.671676646104
 30
0.0
 11
4916.842829082497
 21
-4118.271676646102
 31
0.0
  0
LINE
  5
88AC1
330
18
100
AcDbEntity
  8
\U+FF7A\U+FF88\U+FF78\U+FF80
 48
0.5
100
AcDbLine
 10
4914.705686225353
 20
-4121.57453378896
 30
0.0
 11
4914.287971939639
 21
-4121.156819503246
 31
0.0
  0
LINE
  5
88AC2
330
18
100
AcDbEntity
  8
\U+FF7A\U+FF88\U+FF78\U+FF80
 48
0.5
100
AcDbLine
 10
4915.677114796782
 20
-4121.57453378896
 30
0.0
 11
4915.677114796782
 21
-4118.271676646102
 31
0.0
  0
LINE
  5
88AC3
330
18
100
AcDbEntity
  8
\U+FF7A\U+FF88\U+FF78\U+FF80
 48
0.5
100
AcDbLine
 10
4914.287971939639
 20
-4121.156819503246
 30
0.0
 11
4914.287971939639
 21
-4110.791676646103
 31
0.0
  0
LINE
  5
88AC4
330
18
100
AcDbEntity
  8
\U+FF7A\U+FF88\U+FF78\U+FF80
 48
0.5
100
AcDbLine
 10
4914.705686225353
 20
-4123.031676646102
 30
0.0
 11
4914.705686225353
 21
-4111.763105217532
 31
0.0
  0
LINE
  5
88AC5
330
18
100
AcDbEntity
  8
\U+FF7A\U+FF88\U+FF78\U+FF80
 48
0.5
100
AcDbLine
 10
4916.90568017231
 20
-4104.071631544626
 30
0.0
 11
4916.90568017231
 21
-4105.171631544627
 31
0.0
  0
LINE
  5
88AC6
330
18
100
AcDbEntity
  8
\U+FF7A\U+FF88\U+FF78\U+FF80
 48
0.5
100
AcDbLine
 10
4917.61997193964
 20
-4116.65910521753
 30
0.0
 11
4917.119263439307
 21
-4116.659105217531
 31
0.0
  0
LINE
  5
88AC7
330
18
100
AcDbEntity
  8
\U+FF7A\U+FF88\U+FF78\U+FF80
 48
0.5
100
AcDbLine
 10
4918.105686225352
 20
-4118.271676646102
 30
0.0
 11
4914.287971939639
 21
-4118.271676646102
 31
0.0
  0
LINE
  5
88AC8
330
18
100
AcDbEntity
  8
\U+FF7A\U+FF88\U+FF78\U+FF80
 48
0.5
100
AcDbLine
 10
4917.911400511067
 20
-4121.57453378896
 30
0.0
 11
4916.842829082497
 21
-4121.671676646104
 31
0.0
  0
LINE
  5
88AC9
330
18
100
AcDbEntity
  8
\U+FF7A\U+FF88\U+FF78\U+FF80
 48
0.5
100
AcDbLine
 10
4916.93997193964
 20
-4124.003105217531
 30
0.0
 11
4917.911400511067
 21
-4123.031676646102
 31
0.0
  0
LINE
  5
88ACB
330
18
100
AcDbEntity
  8
\U+FF7A\U+FF88\U+FF78\U+FF80
 48
0.5
100
AcDbLine
 10
4918.105686225352
 20
-4105.171631544627
 30
0.0
 11
4916.90568017231
 21
-4105.171631544627
 31
0.0
  0
LINE
  5
88ACC
330
18
100
AcDbEntity
  8
\U+FF7A\U+FF88\U+FF78\U+FF80
 48
0.5
100
AcDbLine
 10
4932.905680172311
 20
-4104.071631544629
 30
0.0
 11
4916.90568017231
 21
-4104.071631544626
 31
0.0
  0
ARC
  5
88AD2
330
18
100
AcDbEntity
  8
\U+FF7A\U+FF88\U+FF78\U+FF80
100
AcDbCircle
 10
4962.655680172311
 20
-4065.321633630693
 30
0.0
 40
35.0
100
AcDbArc
 50
90.0
 51
180.0
  0
ARC
  5
88AD4
330
18
100
AcDbEntity
  8
\U+FF7A\U+FF88\U+FF78\U+FF80
100
AcDbCircle
 10
4962.655680172311
 20
-4065.321633630693
 30
0.0
 40
40.49999999999999
100
AcDbArc
 50
90.0
 51
180.0
  0
LINE
  5
88ADC
330
18
100
AcDbEntity
  8
\U+FF7A\U+FF88\U+FF78\U+FF80
100
AcDbLine
 10
4962.655680172312
 20
-4024.821633630693
 30
0.0
 11
4973.553582633319
 21
-4024.821633630693
 31
0.0
  0
LINE
  5
88ADD
330
18
100
AcDbEntity
  8
\U+FF7A\U+FF88\U+FF78\U+FF80
100
AcDbLine
 10
4962.655680172311
 20
-4030.321633630693
 30
0.0
 11
4973.563265708701
 21
-4030.321633630694
 31
0.0
  0
LINE
  5
88AE2
330
18
100
AcDbEntity
  8
\U+FF7A\U+FF88\U+FF78\U+FF80
100
AcDbLine
 10
5011.887371174273
 20
-4018.921404924053
 30
0.0
 11
5003.887371174272
 21
-4018.921404924053
 31
0.0
  0
LINE
  5
88AE3
330
18
100
AcDbEntity
  8
\U+FF7A\U+FF88\U+FF78\U+FF80
100
AcDbLine
 10
5021.887371174273
 20
-4018.921404924053
 30
0.0
 11
5016.887371174273
 21
-4018.921404924053
 31
0.0
  0
LINE
  5
88AE4
330
18
100
AcDbEntity
  8
\U+FF7A\U+FF88\U+FF78\U+FF80
100
AcDbLine
 10
4999.887371174272
 20
-4022.277803448761
 30
0.0
 11
4999.887371174272
 21
-4032.872606399344
 31
0.0
  0
LINE
  5
88AE5
330
18
100
AcDbEntity
  8
\U+FF7A\U+FF88\U+FF78\U+FF80
100
AcDbLine
 10
5011.887371174273
 20
-4024.008304924053
 30
0.0
 11
5004.726559461206
 21
-4024.008304924053
 31
0.0
  0
LINE
  5
88AE6
330
18
100
AcDbEntity
  8
\U+FF7A\U+FF88\U+FF78\U+FF80
100
AcDbLine
 10
5011.887371174273
 20
-4022.488304924052
 30
0.0
 11
5004.726559461206
 21
-4022.488304924052
 31
0.0
  0
LINE
  5
88AE7
330
18
100
AcDbEntity
  8
\U+FF7A\U+FF88\U+FF78\U+FF80
100
AcDbLine
 10
5011.887371174273
 20
-4032.662104924052
 30
0.0
 11
5004.726559461206
 21
-4032.662104924052
 31
0.0
  0
LINE
  5
88AE8
330
18
100
AcDbEntity
  8
\U+FF7A\U+FF88\U+FF78\U+FF80
100
AcDbLine
 10
5011.887371174273
 20
-4031.142104924053
 30
0.0
 11
5004.726559461206
 21
-4031.142104924053
 31
0.0
  0
LINE
  5
88AE9
330
18
100
AcDbEntity
  8
\U+FF7A\U+FF88\U+FF78\U+FF80
100
AcDbLine
 10
5011.887371174273
 20
-4036.229004924052
 30
0.0
 11
5003.887371174272
 21
-4036.229004924052
 31
0.0
  0
ARC
  5
88AEA
330
18
100
AcDbEntity
  8
\U+FF7A\U+FF88\U+FF78\U+FF80
100
AcDbCircle
 10
5011.887371174273
 20
-4036.229004924052
 30
0.0
 40
8.0
100
AcDbArc
 50
153.5214655209427
 51
180.0
  0
ARC
  5
88AEB
330
18
100
AcDbEntity
  8
\U+FF7A\U+FF88\U+FF78\U+FF80
100
AcDbCircle
 10
5011.887371174273
 20
-4027.575204924053
 30
0.0
 40
8.0
100
AcDbArc
 50
153.5214655209427
 51
206.4785344790573
  0
LINE
  5
88AEC
330
18
100
AcDbEntity
  8
\U+FF7A\U+FF88\U+FF78\U+FF80
100
AcDbLine
 10
5004.726559461206
 20
-4024.008304924053
 30
0.0
 11
5004.726559461206
 21
-4022.488304924052
 31
0.0
  0
LINE
  5
88AED
330
18
100
AcDbEntity
  8
\U+FF7A\U+FF88\U+FF78\U+FF80
100
AcDbLine
 10
5004.726559461206
 20
-4032.662104924052
 30
0.0
 11
5004.726559461206
 21
-4031.142104924053
 31
0.0
  0
LINE
  5
88AEE
330
18
100
AcDbEntity
  8
\U+FF7A\U+FF88\U+FF78\U+FF80
100
AcDbLine
 10
5021.887371174273
 20
-4036.229004924052
 30
0.0
 11
5016.887371174273
 21
-4036.229004924052
 31
0.0
  0
LINE
  5
88AEF
330
18
100
AcDbEntity
  8
\U+FF7A\U+FF88\U+FF78\U+FF80
100
AcDbLine
 10
5021.887371174273
 20
-4024.008304924053
 30
0.0
 11
5016.887371174273
 21
-4024.008304924053
 31
0.0
  0
LINE
  5
88AF0
330
18
100
AcDbEntity
  8
\U+FF7A\U+FF88\U+FF78\U+FF80
100
AcDbLine
 10
5021.887371174273
 20
-4022.488304924052
 30
0.0
 11
5016.887371174273
 21
-4022.488304924052
 31
0.0
  0
LINE
  5
88AF1
330
18
100
AcDbEntity
  8
\U+FF7A\U+FF88\U+FF78\U+FF80
100
AcDbLine
 10
5021.887371174273
 20
-4031.142104924053
 30
0.0
 11
5016.887371174273
 21
-4031.142104924053
 31
0.0
  0
LINE
  5
88AF2
330
18
100
AcDbEntity
  8
\U+FF7A\U+FF88\U+FF78\U+FF80
100
AcDbLine
 10
5021.887371174273
 20
-4032.662104924052
 30
0.0
 11
5016.887371174273
 21
-4032.662104924052
 31
0.0
  0
LINE
  5
88AF3
330
18
100
AcDbEntity
  8
\U+FF7A\U+FF88\U+FF78\U+FF80
100
AcDbLine
 10
5016.887371174273
 20
-4033.57520366242
 30
0.0
 11
5011.887371174273
 21
-4033.575202400785
 31
0.0
  0
LINE
  5
88AF4
330
18
100
AcDbEntity
  8
\U+FF7A\U+FF88\U+FF78\U+FF80
100
AcDbLine
 10
5016.887371174273
 20
-4021.575203662417
 30
0.0
 11
5011.887371174273
 21
-4021.575202400781
 31
0.0
  0
LINE
  5
88AF5
330
18
100
AcDbEntity
  8
\U+FF7A\U+FF88\U+FF78\U+FF80
100
AcDbLine
 10
5003.887371174272
 20
-4036.229004924052
 30
0.0
 11
4999.887371174272
 21
-4032.872606399344
 31
0.0
  0
LINE
  5
88AF6
330
18
100
AcDbEntity
  8
\U+FF7A\U+FF88\U+FF78\U+FF80
100
AcDbLine
 10
5016.887371174273
 20
-4018.921404924053
 30
0.0
 11
5016.887371174273
 21
-4036.229004924052
 31
0.0
  0
LINE
  5
88AF7
330
18
100
AcDbEntity
  8
\U+FF7A\U+FF88\U+FF78\U+FF80
100
AcDbLine
 10
5011.887371174273
 20
-4018.921404924053
 30
0.0
 11
5011.887371174273
 21
-4036.229004924052
 31
0.0
  0
LINE
  5
88AF8
330
18
100
AcDbEntity
  8
\U+FF7A\U+FF88\U+FF78\U+FF80
100
AcDbLine
 10
5021.887371174273
 20
-4018.921404924053
 30
0.0
 11
5021.887371174273
 21
-4036.229004924052
 31
0.0
  0
LINE
  5
88AF9
330
18
100
AcDbEntity
  8
\U+FF7A\U+FF88\U+FF78\U+FF80
100
AcDbLine
 10
5003.887371174272
 20
-4018.921404924053
 30
0.0
 11
5003.887371174272
 21
-4036.229004924052
 31
0.0
  0
ARC
  5
88AFA
330
18
100
AcDbEntity
  8
\U+FF7A\U+FF88\U+FF78\U+FF80
100
AcDbCircle
 10
5011.887371174273
 20
-4018.921404924053
 30
0.0
 40
8.0
100
AcDbArc
 50
180.0
 51
206.4785344790573
  0
LINE
  5
88AFB
330
18
100
AcDbEntity
  8
\U+FF7A\U+FF88\U+FF78\U+FF80
100
AcDbLine
 10
5003.887371174272
 20
-4018.921404924053
 30
0.0
 11
4999.887371174272
 21
-4022.277803448761
 31
0.0
  0
LINE
  5
88AFC
330
18
100
AcDbEntity
  8
\U+FF7A\U+FF88\U+FF78\U+FF80
100
AcDbLine
 10
5021.887371174273
 20
-4018.921404924053
 30
0.0
 11
5021.887371174273
 21
-4036.229004924052
 31
0.0
  0
LINE
  5
88AFD
330
18
100
AcDbEntity
  8
中心線
 48
0.5
100
AcDbLine
 10
5024.370063801356
 20
-4027.578602007979
 30
0.0
 11
4993.590318736327
 21
-4027.578602007979
 31
0.0
  0
LINE
  5
88B00
330
18
100
AcDbEntity
  8
\U+FF7A\U+FF88\U+FF78\U+FF80
100
AcDbLine
 10
4978.361319847732
 20
-4024.821633630693
 30
0.0
 11
4999.887371174276
 21
-4024.821633630692
 31
0.0
  0
LINE
  5
88B01
330
18
100
AcDbEntity
  8
\U+FF7A\U+FF88\U+FF78\U+FF80
100
AcDbLine
 10
4978.371002923115
 20
-4030.321633630694
 30
0.0
 11
4999.887371174276
 21
-4030.321633630694
 31
0.0
  0
SPLINE
  5
88C86
330
18
100
AcDbEntity
  8
細線
 48
0.5
100
AcDbSpline
210
0.0
220
0.0
230
1.0
 70
  1064
 71
     3
 72
    11
 73
     7
 74
     5
 42
0.000000001
 43
0.0000000001
 44
0.0000000001
 40
0.0
 40
0.0
 40
0.0
 40
0.0
 40
1.183040972400037
 40
2.941570763507761
 40
4.943334930535405
 40
5.927430102350357
 40
5.927430102350357
 40
5.927430102350357
 40
5.927430102350357
 10
4978.371002923115
 20
-4030.321633630694
 30
0.0
 10
4978.138987772985
 20
-4029.971962936263
 30
0.0
 10
4977.562093989734
 20
-4029.102524670309
 30
0.0
 10
4978.389586918688
 20
-4027.515679626718
 30
0.0
 10
4979.255597616984
 20
-4025.905253231697
 30
0.0
 10
4978.582998567883
 20
-4025.090247493793
 30
0.0
 10
4978.361319847731
 20
-4024.821633630695
 30
0.0
 11
4978.371002923115
 21
-4030.321633630694
 31
0.0
 11
4977.847915431254
 21
-4029.260518453988
 31
0.0
 11
4978.361319847731
 21
-4027.578602007979
 31
0.0
 11
4978.894090414978
 21
-4025.649038507321
 31
0.0
 11
4978.361319847731
 21
-4024.821633630695
 31
0.0
  0
SPLINE
  5
88C87
330
18
100
AcDbEntity
  8
細線
 48
0.5
100
AcDbSpline
210
0.0
220
0.0
230
1.0
 70
  1064
 71
     3
 72
     9
 73
     5
 74
     3
 42
0.000000001
 43
0.0000000001
 44
0.0000000001
 40
0.0
 40
0.0
 40
0.0
 40
0.0
 40
1.69603996638218
 40
2.946770208442714
 40
2.946770208442714
 40
2.946770208442714
 40
2.946770208442714
 10
4978.361319847731
 20
-4027.578602007979
 30
0.0
 10
4978.074152239963
 20
-4027.033073913535
 30
0.0
 10
4977.575215323279
 20
-4026.085250767593
 30
0.0
 10
4978.127084089153
 20
-4025.198153939897
 30
0.0
 10
4978.361319847731
 20
-4024.821633630695
 30
0.0
 11
4978.361319847731
 21
-4027.578602007979
 31
0.0
 11
4977.847915431254
 21
-4025.962134416993
 31
0.0
 11
4978.361319847731
 21
-4024.821633630695
 31
0.0
  0
SPLINE
  5
88C8A
102
{ACAD_REACTORS
330
88C8C
102
}
330
18
100
AcDbEntity
  8
細線
 48
0.5
100
AcDbSpline
210
0.0
220
0.0
230
1.0
 70
  1064
 71
     3
 72
     9
 73
     5
 74
     3
 42
0.000000001
 43
0.0000000001
 44
0.0000000001
 40
0.0
 40
0.0
 40
0.0
 40
0.0
 40
1.696039966382614
 40
2.946770208443977
 40
2.946770208443977
 40
2.946770208443977
 40
2.946770208443977
 10
4973.563265708701
 20
-4027.564665253407
 30
0.0
 10
4973.850433316471
 20
-4028.110193347852
 30
0.0
 10
4974.349370233156
 20
-4029.058016493794
 30
0.0
 10
4973.797501467279
 20
-4029.945113321491
 30
0.0
 10
4973.563265708701
 20
-4030.321633630693
 30
0.0
 11
4973.563265708701
 21
-4027.564665253407
 31
0.0
 11
4974.076670125178
 21
-4029.181132844394
 31
0.0
 11
4973.563265708701
 21
-4030.321633630693
 31
0.0
  0
SPLINE
  5
88C8B
102
{ACAD_REACTORS
330
88C8C
102
}
330
18
100
AcDbEntity
  8
細線
 48
0.5
100
AcDbSpline
210
0.0
220
0.0
230
1.0
 70
  1064
 71
     3
 72
    11
 73
     7
 74
     5
 42
0.000000001
 43
0.0000000001
 44
0.0000000001
 40
0.0
 40
0.0
 40
0.0
 40
0.0
 40
1.183040972398813
 40
2.941570763506803
 40
4.943334930535278
 40
5.927430102349246
 40
5.927430102349246
 40
5.927430102349246
 40
5.927430102349246
 10
4973.553582633319
 20
-4024.821633630693
 30
0.0
 10
4973.785597783447
 20
-4025.171304325124
 30
0.0
 10
4974.362491566701
 20
-4026.040742591077
 30
0.0
 10
4973.534998637743
 20
-4027.627587634667
 30
0.0
 10
4972.668987939453
 20
-4029.23801402969
 30
0.0
 10
4973.34158698855
 20
-4030.053019767595
 30
0.0
 10
4973.563265708701
 20
-4030.321633630693
 30
0.0
 11
4973.553582633319
 21
-4024.821633630693
 31
0.0
 11
4974.07667012518
 21
-4025.882748807399
 31
0.0
 11
4973.563265708701
 21
-4027.564665253407
 31
0.0
 11
4973.030495141457
 21
-4029.494228754066
 31
0.0
 11
4973.563265708701
 21
-4030.321633630693
 31
0.0
  0
TEXT
  5
88FBC
102
{ACAD_REACTORS
330
88FFA
102
}
330
18
100
AcDbEntity
  8
文字
370
     9
100
AcDbText
 10
5662.782039913752
 20
-3688.500373753733
 30
0.0
 40
2.6
  1
ENCODER
 50
90.0
 41
1.199999999999999
  7
MS\U+FF7A\U+FF9E\U+FF7C\U+FF6F\U+FF78N
 11
5663.256986788752
 21
-3688.500373753733
 31
0.0
100
AcDbText
 73
     1
  0
ARC
  5
88FBD
102
{ACAD_REACTORS
330
88FFA
102
}
330
18
100
AcDbEntity
  8
文字
100
AcDbCircle
 10
5670.664772032877
 20
-3655.824343784598
 30
0.0
 40
0.5
100
AcDbArc
 50
0.0
 51
90.0
  0
ARC
  5
88FBE
102
{ACAD_REACTORS
330
88FFA
102
}
330
18
100
AcDbEntity
  8
文字
100
AcDbCircle
 10
5659.664772032877
 20
-3655.824343784598
 30
0.0
 40
0.5
100
AcDbArc
 50
90.0
 51
180.0
  0
LINE
  5
88FBF
102
{ACAD_REACTORS
330
88FFA
102
}
330
18
100
AcDbEntity
  8
文字
100
AcDbLine
 10
5670.664772032874
 20
-3655.324343784597
 30
0.0
 11
5659.664772032874
 21
-3655.324343784597
 31
0.0
  0
LINE
  5
88FC0
102
{ACAD_REACTORS
330
88FFA
102
}
330
18
100
AcDbEntity
  8
文字
370
     9
100
AcDbLine
 10
5670.311248614872
 20
-3687.77829728352
 30
0.0
 11
5670.311248614872
 21
-3683.37279728352
 31
0.0
  0
CIRCLE
  5
88FC1
102
{ACAD_REACTORS
330
88FFA
102
}
330
18
100
AcDbEntity
  8
文字
370
     9
100
AcDbCircle
 10
5668.909498614874
 20
-3685.375297283519
 30
0.0
 40
0.6007500000000002
  0
LINE
  5
88FC2
102
{ACAD_REACTORS
330
88FFA
102
}
330
18
100
AcDbEntity
  8
文字
370
     9
100
AcDbLine
 10
5667.107248614872
 20
-3682.972297283521
 30
0.0
 11
5667.988348614869
 21
-3685.775797283518
 31
0.0
  0
LINE
  5
88FC3
102
{ACAD_REACTORS
330
88FFA
102
}
330
18
100
AcDbEntity
  8
文字
370
     9
100
AcDbLine
 10
5667.107248614872
 20
-3687.377797283521
 30
0.0
 11
5667.107248614872
 21
-3682.972297283521
 31
0.0
  0
LINE
  5
88FC4
102
{ACAD_REACTORS
330
88FFA
102
}
330
18
100
AcDbEntity
  8
文字
370
     9
100
AcDbLine
 10
5668.308748614873
 20
-3685.375297283518
 30
0.0
 11
5668.308748614873
 21
-3683.132497283518
 31
0.0
  0
ARC
  5
88FC5
102
{ACAD_REACTORS
330
88FFA
102
}
330
18
100
AcDbEntity
  8
文字
370
     9
100
AcDbCircle
 10
5668.907635824178
 20
-3685.37436588817
 30
0.0
 40
1.003113223100251
100
AcDbArc
 50
203.5897772726021
 51
359.9468005913668
  0
LINE
  5
88FC6
102
{ACAD_REACTORS
330
88FFA
102
}
330
18
100
AcDbEntity
  8
文字
370
     9
100
AcDbLine
 10
5670.311248614872
 20
-3687.77829728352
 30
0.0
 11
5667.107248614872
 21
-3687.377797283521
 31
0.0
  0
LINE
  5
88FC7
102
{ACAD_REACTORS
330
88FFA
102
}
330
18
100
AcDbEntity
  8
文字
370
     9
100
AcDbLine
 10
5670.311248614872
 20
-3683.37279728352
 30
0.0
 11
5668.308748614873
 21
-3683.132497283518
 31
0.0
  0
ARC
  5
88FC8
102
{ACAD_REACTORS
330
88FFA
102
}
330
18
100
AcDbEntity
  8
文字
370
     9
100
AcDbCircle
 10
5669.109748614875
 20
-3685.375297283519
 30
0.0
 40
0.8009999999999999
100
AcDbArc
 50
0.0
 51
180.0
  0
LINE
  5
88FC9
102
{ACAD_REACTORS
330
88FFA
102
}
330
18
100
AcDbEntity
  8
文字
100
AcDbLine
 10
5659.664772032874
 20
-3690.324343784598
 30
0.0
 11
5670.664772032874
 21
-3690.324343784598
 31
0.0
  0
ARC
  5
88FCA
102
{ACAD_REACTORS
330
88FFA
102
}
330
18
100
AcDbEntity
  8
文字
100
AcDbCircle
 10
5659.664772032877
 20
-3689.824343784599
 30
0.0
 40
0.5
100
AcDbArc
 50
180.0
 51
270.0
  0
ARC
  5
88FCB
102
{ACAD_REACTORS
330
88FFA
102
}
330
18
100
AcDbEntity
  8
文字
100
AcDbCircle
 10
5670.664772032877
 20
-3689.824343784599
 30
0.0
 40
0.5
100
AcDbArc
 50
270.0
 51
0.0
  0
LINE
  5
88FCC
102
{ACAD_REACTORS
330
88FFA
102
}
330
18
100
AcDbEntity
  8
文字
100
AcDbLine
 10
5659.164772032873
 20
-3655.824343784598
 30
0.0
 11
5659.164772032873
 21
-3689.824343784597
 31
0.0
  0
LINE
  5
88FCD
102
{ACAD_REACTORS
330
88FFA
102
}
330
18
100
AcDbEntity
  8
文字
100
AcDbLine
 10
5671.164772032874
 20
-3689.824343784597
 30
0.0
 11
5671.164772032874
 21
-3655.824343784598
 31
0.0
  0
LINE
  5
88FCE
102
{ACAD_REACTORS
330
88FFA
102
}
330
18
100
AcDbEntity
  8
文字
100
AcDbLine
 10
5666.164772032874
 20
-3690.324343784598
 30
0.0
 11
5666.164772032874
 21
-3655.324343784597
 31
0.0
  0
TEXT
  5
88FCF
102
{ACAD_REACTORS
330
88FFA
102
}
330
18
100
AcDbEntity
  8
文字
370
     9
100
AcDbText
 10
5665.606031717133
 20
-3688.527500326543
 30
0.0
 40
2.0
  1
******PPR
 50
90.0
 41
1.199999999999999
  7
MS\U+FF7A\U+FF9E\U+FF7C\U+FF6F\U+FF78N
 11
5665.971375467133
 21
-3688.527500326543
 31
0.0
100
AcDbText
 73
     1
  0
TEXT
  5
88FD0
102
{ACAD_REACTORS
330
88FFA
102
}
330
18
100
AcDbEntity
  8
文字
370
     9
100
AcDbText
 10
5668.566752067306
 20
-3682.034784948994
 30
0.0
 40
1.439999999999999
  1
NIKKI
 50
90.0
 41
1.25
  7
TIMESNR
100
AcDbText
  0
TEXT
  5
88FD1
102
{ACAD_REACTORS
330
88FFA
102
}
330
18
100
AcDbEntity
  8
文字
370
     9
100
AcDbText
 10
5670.263514476291
 20
-3682.156198059134
 30
0.0
 40
1.439999999999999
  1
DENSO
 50
90.0
 41
1.3
  7
TIMESNR
100
AcDbText
  0
TEXT
  5
88FD2
102
{ACAD_REACTORS
330
88FFA
102
}
330
18
100
AcDbEntity
  8
文字
370
     9
100
AcDbText
 10
5668.660280619068
 20
-3670.702683390047
 30
137.5
 40
1.5
  1
SN-16140
 50
90.0
  7
MS\U+FF7A\U+FF9E\U+FF7C\U+FF6F\U+FF78N
 11
5668.934288431568
 21
-3670.702683390047
 31
137.5
100
AcDbText
 73
     1
  0
TEXT
  5
88FD3
102
{ACAD_REACTORS
330
88FFA
102
}
330
18
100
AcDbEntity
  8
文字
370
     9
100
AcDbText
 10
5670.530066669453
 20
-3670.702683390047
 30
137.5
 40
1.5
  1
MADE IN JAPAN
 50
90.0
  7
MS\U+FF7A\U+FF9E\U+FF7C\U+FF6F\U+FF78N
 11
5670.804074481953
 21
-3670.702683390047
 31
137.5
100
AcDbText
 73
     1
  0
LINE
  5
88FD4
102
{ACAD_REACTORS
330
88FFB
102
}
330
18
100
AcDbEntity
  8
文字
100
AcDbLine
 10
5666.164772032874
 20
-3726.324343784597
 30
0.0
 11
5666.164772032874
 21
-3691.324343784597
 31
0.0
  0
ARC
  5
88FD5
102
{ACAD_REACTORS
330
88FFB
102
}
330
18
100
AcDbEntity
  8
文字
100
AcDbCircle
 10
5670.664772032877
 20
-3691.824343784598
 30
0.0
 40
0.5
100
AcDbArc
 50
0.0
 51
90.0
  0
ARC
  5
88FD6
102
{ACAD_REACTORS
330
88FFB
102
}
330
18
100
AcDbEntity
  8
文字
100
AcDbCircle
 10
5659.664772032877
 20
-3691.824343784598
 30
0.0
 40
0.5
100
AcDbArc
 50
90.0
 51
180.0
  0
LINE
  5
88FD7
102
{ACAD_REACTORS
330
88FFB
102
}
330
18
100
AcDbEntity
  8
文字
100
AcDbLine
 10
5670.664772032874
 20
-3691.324343784597
 30
0.0
 11
5659.664772032874
 21
-3691.324343784597
 31
0.0
  0
TEXT
  5
88FD8
102
{ACAD_REACTORS
330
88FFB
102
}
330
18
100
AcDbEntity
  8
文字
370
     9
100
AcDbText
 10
5668.566752067306
 20
-3718.034784948994
 30
0.0
 40
1.439999999999999
  1
NIKKI
 50
90.0
 41
1.25
  7
TIMESNR
100
AcDbText
  0
TEXT
  5
88FD9
102
{ACAD_REACTORS
330
88FFB
102
}
330
18
100
AcDbEntity
  8
文字
370
     9
100
AcDbText
 10
5670.263514476291
 20
-3718.156198059134
 30
0.0
 40
1.439999999999999
  1
DENSO
 50
90.0
 41
1.3
  7
TIMESNR
100
AcDbText
  0
LINE
  5
88FDA
102
{ACAD_REACTORS
330
88FFB
102
}
330
18
100
AcDbEntity
  8
文字
370
     9
100
AcDbLine
 10
5670.311248614872
 20
-3719.37279728352
 30
0.0
 11
5668.308748614873
 21
-3719.132497283518
 31
0.0
  0
ARC
  5
88FDB
102
{ACAD_REACTORS
330
88FFB
102
}
330
18
100
AcDbEntity
  8
文字
100
AcDbCircle
 10
5670.664772032877
 20
-3725.824343784598
 30
0.0
 40
0.5
100
AcDbArc
 50
270.0
 51
0.0
  0
ARC
  5
88FDC
102
{ACAD_REACTORS
330
88FFB
102
}
330
18
100
AcDbEntity
  8
文字
100
AcDbCircle
 10
5659.664772032877
 20
-3725.824343784598
 30
0.0
 40
0.5
100
AcDbArc
 50
180.0
 51
270.0
  0
LINE
  5
88FDD
102
{ACAD_REACTORS
330
88FFB
102
}
330
18
100
AcDbEntity
  8
文字
370
     9
100
AcDbLine
 10
5670.311248614872
 20
-3723.77829728352
 30
0.0
 11
5667.107248614872
 21
-3723.377797283522
 31
0.0
  0
LINE
  5
88FDE
102
{ACAD_REACTORS
330
88FFB
102
}
330
18
100
AcDbEntity
  8
文字
100
AcDbLine
 10
5659.664772032874
 20
-3726.324343784597
 30
0.0
 11
5670.664772032874
 21
-3726.324343784597
 31
0.0
  0
ARC
  5
88FDF
102
{ACAD_REACTORS
330
88FFB
102
}
330
18
100
AcDbEntity
  8
文字
370
     9
100
AcDbCircle
 10
5668.907635824178
 20
-3721.37436588817
 30
0.0
 40
1.003113223100251
100
AcDbArc
 50
203.5897772726021
 51
359.9468005913668
  0
LINE
  5
88FE0
102
{ACAD_REACTORS
330
88FFB
102
}
330
18
100
AcDbEntity
  8
文字
370
     9
100
AcDbLine
 10
5667.107248614872
 20
-3718.972297283521
 30
0.0
 11
5667.988348614869
 21
-3721.775797283518
 31
0.0
  0
LINE
  5
88FE1
102
{ACAD_REACTORS
330
88FFB
102
}
330
18
100
AcDbEntity
  8
文字
370
     9
100
AcDbLine
 10
5667.107248614872
 20
-3723.377797283522
 30
0.0
 11
5667.107248614872
 21
-3718.972297283521
 31
0.0
  0
TEXT
  5
88FE2
102
{ACAD_REACTORS
330
88FFB
102
}
330
18
100
AcDbEntity
  8
文字
370
     9
100
AcDbText
 10
5662.782039913752
 20
-3724.500373753733
 30
0.0
 40
2.6
  1
MODEL:
 50
90.0
 41
1.199999999999999
  7
MS\U+FF7A\U+FF9E\U+FF7C\U+FF6F\U+FF78N
 11
5663.256986788752
 21
-3724.500373753733
 31
0.0
100
AcDbText
 73
     1
  0
LINE
  5
88FE3
102
{ACAD_REACTORS
330
88FFB
102
}
330
18
100
AcDbEntity
  8
文字
370
     9
100
AcDbLine
 10
5668.308748614873
 20
-3721.375297283518
 30
0.0
 11
5668.308748614873
 21
-3719.132497283518
 31
0.0
  0
LINE
  5
88FE4
102
{ACAD_REACTORS
330
88FFB
102
}
330
18
100
AcDbEntity
  8
文字
370
     9
100
AcDbLine
 10
5670.311248614872
 20
-3723.77829728352
 30
0.0
 11
5670.311248614872
 21
-3719.37279728352
 31
0.0
  0
CIRCLE
  5
88FE5
102
{ACAD_REACTORS
330
88FFB
102
}
330
18
100
AcDbEntity
  8
文字
370
     9
100
AcDbCircle
 10
5668.909498614874
 20
-3721.37529728352
 30
0.0
 40
0.6007500000000002
  0
ARC
  5
88FE6
102
{ACAD_REACTORS
330
88FFB
102
}
330
18
100
AcDbEntity
  8
文字
370
     9
100
AcDbCircle
 10
5669.109748614875
 20
-3721.37529728352
 30
0.0
 40
0.8009999999999999
100
AcDbArc
 50
0.0
 51
180.0
  0
LINE
  5
88FE7
102
{ACAD_REACTORS
330
88FFB
102
}
330
18
100
AcDbEntity
  8
文字
100
AcDbLine
 10
5671.164772032874
 20
-3725.824343784597
 30
0.0
 11
5671.164772032874
 21
-3691.824343784598
 31
0.0
  0
LINE
  5
88FE8
102
{ACAD_REACTORS
330
88FFB
102
}
330
18
100
AcDbEntity
  8
文字
100
AcDbLine
 10
5659.164772032873
 20
-3691.824343784598
 30
0.0
 11
5659.164772032873
 21
-3725.824343784597
 31
0.0
  0
TEXT
  5
88FE9
102
{ACAD_REACTORS
330
88FFB
102
}
330
18
100
AcDbEntity
  8
文字
370
     9
100
AcDbText
 10
5665.606031717133
 20
-3724.527500326543
 30
0.0
 40
2.0
  1
SER No.******
 50
90.0
 41
1.199999999999999
  7
MS\U+FF7A\U+FF9E\U+FF7C\U+FF6F\U+FF78N
 11
5665.971375467133
 21
-3724.527500326543
 31
0.0
100
AcDbText
 73
     1
  0
TEXT
  5
88FEA
102
{ACAD_REACTORS
330
88FFB
102
}
330
18
100
AcDbEntity
  8
文字
370
     9
100
AcDbText
 10
5670.530066669453
 20
-3706.702683390047
 30
137.5
 40
1.5
  1
MADE IN JAPAN
 50
90.0
  7
MS\U+FF7A\U+FF9E\U+FF7C\U+FF6F\U+FF78N
 11
5670.804074481953
 21
-3706.702683390047
 31
137.5
100
AcDbText
 73
     1
  0
TEXT
  5
88FEB
102
{ACAD_REACTORS
330
88FFB
102
}
330
18
100
AcDbEntity
  8
文字
370
     9
100
AcDbText
 10
5668.660280619068
 20
-3706.702683390047
 30
137.5
 40
1.5
  1
SN-16140
 50
90.0
  7
MS\U+FF7A\U+FF9E\U+FF7C\U+FF6F\U+FF78N
 11
5668.934288431568
 21
-3706.702683390047
 31
137.5
100
AcDbText
 73
     1
  0
TEXT
  5
88FEC
102
{ACAD_REACTORS
330
88FFC
102
}
330
18
100
AcDbEntity
  8
文字
370
     9
100
AcDbText
 10
5664.205645047153
 20
-3741.109625305391
 30
0.0
 40
2.0
  1
Certificate
 50
90.0
  7
TIMESNR
 11
5664.845001334658
 21
-3741.109625305391
 31
0.0
100
AcDbText
 73
     1
  0
LINE
  5
88FED
102
{ACAD_REACTORS
330
88FFC
102
}
330
18
100
AcDbEntity
  8
文字
370
     9
100
AcDbLine
 10
5669.866277952262
 20
-3741.067270382979
 30
0.0
 11
5669.866277952262
 21
-3736.661770382978
 31
0.0
  0
LINE
  5
88FEE
102
{ACAD_REACTORS
330
88FFC
102
}
330
18
100
AcDbEntity
  8
文字
370
     9
100
AcDbLine
 10
5667.863777952263
 20
-3738.66427038298
 30
0.0
 11
5667.863777952263
 21
-3736.421470382981
 31
0.0
  0
LINE
  5
88FEF
102
{ACAD_REACTORS
330
88FFC
102
}
330
18
100
AcDbEntity
  8
文字
370
     9
100
AcDbLine
 10
5666.662277952264
 20
-3736.261270382978
 30
0.0
 11
5667.543377952263
 21
-3739.06477038298
 31
0.0
  0
CIRCLE
  5
88FF0
102
{ACAD_REACTORS
330
88FFC
102
}
330
18
100
AcDbEntity
  8
文字
370
     9
100
AcDbCircle
 10
5668.464527952268
 20
-3738.664270382982
 30
0.0
 40
0.6007500000000002
  0
ARC
  5
88FF1
102
{ACAD_REACTORS
330
88FFC
102
}
330
18
100
AcDbEntity
  8
文字
370
     9
100
AcDbCircle
 10
5668.66477795227
 20
-3738.664270382982
 30
0.0
 40
0.8009999999999999
100
AcDbArc
 50
0.0
 51
180.0
  0
LINE
  5
88FF2
102
{ACAD_REACTORS
330
88FFC
102
}
330
18
100
AcDbEntity
  8
文字
370
     9
100
AcDbLine
 10
5666.662277952264
 20
-3740.666770382979
 30
0.0
 11
5666.662277952264
 21
-3736.261270382978
 31
0.0
  0
LWPOLYLINE
  5
88FF3
102
{ACAD_REACTORS
330
88FFC
102
}
330
18
100
AcDbEntity
  8
文字
100
AcDbPolyline
 90
        8
 70
     1
 43
0.0
 10
5671.164772032875
 20
-3741.824343784598
 10
5671.164772032878
 20
-3727.824343784598
 42
0.4142135623730951
 10
5670.664772032878
 20
-3727.324343784598
 10
5661.664772032878
 20
-3727.324343784598
 42
0.4142135623730951
 10
5661.164772032878
 20
-3727.824343784598
 10
5661.164772032878
 20
-3741.824343784598
 42
0.4142135623730996
 10
5661.664772032878
 20
-3742.324343784598
 10
5670.664772032875
 20
-3742.324343784598
 42
0.4142135623730904
  0
LINE
  5
88FF4
102
{ACAD_REACTORS
330
88FFC
102
}
330
18
100
AcDbEntity
  8
文字
100
AcDbLine
 10
5665.164772032874
 20
-3742.324343784598
 30
0.0
 11
5665.164772032874
 21
-3727.324343784598
 31
0.0
  0
ARC
  5
88FF5
102
{ACAD_REACTORS
330
88FFC
102
}
330
18
100
AcDbEntity
  8
文字
370
     9
100
AcDbCircle
 10
5668.462665161571
 20
-3738.663338987632
 30
0.0
 40
1.003113223100251
100
AcDbArc
 50
203.5897772726021
 51
359.9468005913668
  0
LINE
  5
88FF6
102
{ACAD_REACTORS
330
88FFC
102
}
330
18
100
AcDbEntity
  8
文字
370
     9
100
AcDbLine
 10
5669.866277952262
 20
-3741.067270382979
 30
0.0
 11
5666.662277952264
 21
-3740.666770382979
 31
0.0
  0
LINE
  5
88FF7
102
{ACAD_REACTORS
330
88FFC
102
}
330
18
100
AcDbEntity
  8
文字
370
     9
100
AcDbLine
 10
5669.866277952262
 20
-3736.661770382978
 30
0.0
 11
5667.863777952263
 21
-3736.421470382981
 31
0.0
  0
TEXT
  5
88FF8
102
{ACAD_REACTORS
330
88FFC
102
}
330
18
100
AcDbEntity
  8
文字
370
     9
100
AcDbText
 10
5668.1217814047
 20
-3735.323758048452
 30
0.0
 40
1.439999999999999
  1
NIKKI
 50
90.0
  7
TIMESNR
100
AcDbText
  0
TEXT
  5
88FF9
102
{ACAD_REACTORS
330
88FFC
102
}
330
18
100
AcDbEntity
  8
文字
370
     9
100
AcDbText
 10
5669.818543813684
 20
-3735.445171158593
 30
0.0
 40
1.439999999999999
  1
DENSO
 50
90.0
  7
TIMESNR
100
AcDbText
  0
CIRCLE
  5
899CE
330
18
100
AcDbEntity
  8
\U+FF77\U+FF6C\U+FF6F\U+FF8C\U+FF9F\U+FF8E\U+FF9E\U+FF99\U+FF84
100
AcDbCircle
 10
5139.107228582877
 20
-3435.807202823372
 30
0.0
 40
3.5
  0
ARC
  5
899CF
330
18
100
AcDbEntity
  8
\U+FF77\U+FF6C\U+FF6F\U+FF8C\U+FF9F\U+FF8E\U+FF9E\U+FF99\U+FF84
100
AcDbCircle
 10
5138.282768424727
 20
-3436.283205117617
 30
0.0
 40
0.3170045884846654
100
AcDbArc
 50
344.6530614096616
 51
75.34693859024028
  0
ARC
  5
899D0
330
18
100
AcDbEntity
  8
\U+FF77\U+FF6C\U+FF6F\U+FF8C\U+FF9F\U+FF8E\U+FF9E\U+FF99\U+FF84
100
AcDbCircle
 10
5138.407228582877
 20
-3435.807202823371
 30
0.0
 40
0.175
100
AcDbArc
 50
104.6530614098301
 51
255.3469385901699
  0
ARC
  5
899D1
330
18
100
AcDbEntity
  8
\U+FF77\U+FF6C\U+FF6F\U+FF8C\U+FF9F\U+FF8E\U+FF9E\U+FF99\U+FF84
100
AcDbCircle
 10
5138.757228582877
 20
-3436.413420606022
 30
0.0
 40
0.175
100
AcDbArc
 50
164.6530614091487
 51
315.3469385903449
  0
ARC
  5
899D2
330
18
100
AcDbEntity
  8
\U+FF77\U+FF6C\U+FF6F\U+FF8C\U+FF9F\U+FF8E\U+FF9E\U+FF99\U+FF84
100
AcDbCircle
 10
5139.107228582875
 20
-3436.759207411857
 30
0.0
 40
0.3170045884846654
100
AcDbArc
 50
44.65306140982769
 51
135.3469385904048
  0
ARC
  5
899D3
330
18
100
AcDbEntity
  8
\U+FF77\U+FF6C\U+FF6F\U+FF8C\U+FF9F\U+FF8E\U+FF9E\U+FF99\U+FF84
100
AcDbCircle
 10
5139.931688741022
 20
-3436.283205117614
 30
0.0
 40
0.3170045884846654
100
AcDbArc
 50
104.6530614097597
 51
195.3469385903384
  0
ARC
  5
899D4
330
18
100
AcDbEntity
  8
\U+FF77\U+FF6C\U+FF6F\U+FF8C\U+FF9F\U+FF8E\U+FF9E\U+FF99\U+FF84
100
AcDbCircle
 10
5139.931688741022
 20
-3435.33120052913
 30
0.0
 40
0.3170045884846654
100
AcDbArc
 50
164.6530614096616
 51
255.3469385903993
  0
ARC
  5
899D5
330
18
100
AcDbEntity
  8
\U+FF77\U+FF6C\U+FF6F\U+FF8C\U+FF9F\U+FF8E\U+FF9E\U+FF99\U+FF84
100
AcDbCircle
 10
5139.107228582878
 20
-3434.85519823489
 30
0.0
 40
0.3170045884846654
100
AcDbArc
 50
224.6530614098861
 51
315.3469385903463
  0
ARC
  5
899D6
330
18
100
AcDbEntity
  8
\U+FF77\U+FF6C\U+FF6F\U+FF8C\U+FF9F\U+FF8E\U+FF9E\U+FF99\U+FF84
100
AcDbCircle
 10
5138.282768424729
 20
-3435.331200529131
 30
0.0
 40
0.3170045884846654
100
AcDbArc
 50
284.6530614096007
 51
15.34693859013634
  0
ARC
  5
899D7
330
18
100
AcDbEntity
  8
\U+FF77\U+FF6C\U+FF6F\U+FF8C\U+FF9F\U+FF8E\U+FF9E\U+FF99\U+FF84
100
AcDbCircle
 10
5138.757228582877
 20
-3435.200985040722
 30
0.0
 40
0.175
100
AcDbArc
 50
44.65306140965508
 51
195.3469385903417
  0
ARC
  5
899D8
330
18
100
AcDbEntity
  8
\U+FF77\U+FF6C\U+FF6F\U+FF8C\U+FF9F\U+FF8E\U+FF9E\U+FF99\U+FF84
100
AcDbCircle
 10
5139.457228582877
 20
-3436.413420606021
 30
0.0
 40
0.175
100
AcDbArc
 50
224.653061409761
 51
15.34693859056411
  0
ARC
  5
899D9
330
18
100
AcDbEntity
  8
\U+FF77\U+FF6C\U+FF6F\U+FF8C\U+FF9F\U+FF8E\U+FF9E\U+FF99\U+FF84
100
AcDbCircle
 10
5139.807228582873
 20
-3435.807202823376
 30
0.0
 40
0.175
100
AcDbArc
 50
284.6530614098301
 51
75.34693859016994
  0
ARC
  5
899DA
330
18
100
AcDbEntity
  8
\U+FF77\U+FF6C\U+FF6F\U+FF8C\U+FF9F\U+FF8E\U+FF9E\U+FF99\U+FF84
100
AcDbCircle
 10
5139.457228582873
 20
-3435.200985040726
 30
0.0
 40
0.175
100
AcDbArc
 50
344.653061409802
 51
135.346938590239
  0
CIRCLE
  5
899DB
330
18
100
AcDbEntity
  8
\U+FF77\U+FF6C\U+FF6F\U+FF8C\U+FF9F\U+FF8E\U+FF9E\U+FF99\U+FF84
100
AcDbCircle
 10
5139.107228582877
 20
-3435.807202823372
 30
0.0
 40
2.858333333333337
  0
CIRCLE
  5
899DC
330
18
100
AcDbEntity
  8
\U+FF77\U+FF6C\U+FF6F\U+FF8C\U+FF9F\U+FF8E\U+FF9E\U+FF99\U+FF84
100
AcDbCircle
 10
5336.607204888307
 20
-3435.807147396525
 30
0.0
 40
3.5
  0
ARC
  5
899DD
330
18
100
AcDbEntity
  8
\U+FF77\U+FF6C\U+FF6F\U+FF8C\U+FF9F\U+FF8E\U+FF9E\U+FF99\U+FF84
100
AcDbCircle
 10
5335.782744730157
 20
-3435.331145102281
 30
0.0
 40
0.3170045884846654
100
AcDbArc
 50
284.6530614096007
 51
15.34693859033836
  0
ARC
  5
899DE
330
18
100
AcDbEntity
  8
\U+FF77\U+FF6C\U+FF6F\U+FF8C\U+FF9F\U+FF8E\U+FF9E\U+FF99\U+FF84
100
AcDbCircle
 10
5336.257204888307
 20
-3435.200929613876
 30
0.0
 40
0.175
100
AcDbArc
 50
44.653061409761
 51
195.3469385900546
  0
ARC
  5
899DF
330
18
100
AcDbEntity
  8
\U+FF77\U+FF6C\U+FF6F\U+FF8C\U+FF9F\U+FF8E\U+FF9E\U+FF99\U+FF84
100
AcDbCircle
 10
5335.907204888306
 20
-3435.807147396525
 30
0.0
 40
0.175
100
AcDbArc
 50
104.653061409542
 51
255.3469385898442
  0
ARC
  5
899E0
330
18
100
AcDbEntity
  8
\U+FF77\U+FF6C\U+FF6F\U+FF8C\U+FF9F\U+FF8E\U+FF9E\U+FF99\U+FF84
100
AcDbCircle
 10
5335.782744730158
 20
-3436.283149690765
 30
0.0
 40
0.3170045884846654
100
AcDbArc
 50
344.6530614096616
 51
75.34693859039932
  0
ARC
  5
899E1
330
18
100
AcDbEntity
  8
\U+FF77\U+FF6C\U+FF6F\U+FF8C\U+FF9F\U+FF8E\U+FF9E\U+FF99\U+FF84
100
AcDbCircle
 10
5336.607204888306
 20
-3436.759151985008
 30
0.0
 40
0.3170045884846654
100
AcDbArc
 50
44.6530614096537
 51
135.3469385901723
  0
ARC
  5
899E2
330
18
100
AcDbEntity
  8
\U+FF77\U+FF6C\U+FF6F\U+FF8C\U+FF9F\U+FF8E\U+FF9E\U+FF99\U+FF84
100
AcDbCircle
 10
5337.431665046453
 20
-3436.283149690766
 30
0.0
 40
0.3170045884846654
100
AcDbArc
 50
104.6530614096007
 51
195.3469385903384
  0
ARC
  5
899E3
330
18
100
AcDbEntity
  8
\U+FF77\U+FF6C\U+FF6F\U+FF8C\U+FF9F\U+FF8E\U+FF9E\U+FF99\U+FF84
100
AcDbCircle
 10
5337.431665046453
 20
-3435.331145102284
 30
0.0
 40
0.3170045884846654
100
AcDbArc
 50
164.6530614096616
 51
255.3469385903993
  0
ARC
  5
899E4
330
18
100
AcDbEntity
  8
\U+FF77\U+FF6C\U+FF6F\U+FF8C\U+FF9F\U+FF8E\U+FF9E\U+FF99\U+FF84
100
AcDbCircle
 10
5336.607204888304
 20
-3434.855142808039
 30
0.0
 40
0.3170045884846654
100
AcDbArc
 50
224.6530614096537
 51
315.3469385901723
  0
ARC
  5
899E5
330
18
100
AcDbEntity
  8
\U+FF77\U+FF6C\U+FF6F\U+FF8C\U+FF9F\U+FF8E\U+FF9E\U+FF99\U+FF84
100
AcDbCircle
 10
5336.957204888307
 20
-3435.200929613874
 30
0.0
 40
0.175
100
AcDbArc
 50
344.6530614094358
 51
135.3469385906601
  0
ARC
  5
899E6
330
18
100
AcDbEntity
  8
\U+FF77\U+FF6C\U+FF6F\U+FF8C\U+FF9F\U+FF8E\U+FF9E\U+FF99\U+FF84
100
AcDbCircle
 10
5336.257204888307
 20
-3436.413365179174
 30
0.0
 40
0.175
100
AcDbArc
 50
164.6530614096583
 51
315.3469385903449
  0
ARC
  5
899E7
330
18
100
AcDbEntity
  8
\U+FF77\U+FF6C\U+FF6F\U+FF8C\U+FF9F\U+FF8E\U+FF9E\U+FF99\U+FF84
100
AcDbCircle
 10
5336.957204888302
 20
-3436.413365179173
 30
0.0
 40
0.175
100
AcDbArc
 50
224.653061409761
 51
15.34693859034172
  0
ARC
  5
899E8
330
18
100
AcDbEntity
  8
\U+FF77\U+FF6C\U+FF6F\U+FF8C\U+FF9F\U+FF8E\U+FF9E\U+FF99\U+FF84
100
AcDbCircle
 10
5337.307204888302
 20
-3435.807147396522
 30
0.0
 40
0.175
100
AcDbArc
 50
284.653061409542
 51
75.34693859045802
  0
CIRCLE
  5
899E9
330
18
100
AcDbEntity
  8
\U+FF77\U+FF6C\U+FF6F\U+FF8C\U+FF9F\U+FF8E\U+FF9E\U+FF99\U+FF84
100
AcDbCircle
 10
5336.607204888307
 20
-3435.807147396525
 30
0.0
 40
2.858333333333337
  0
CIRCLE
  5
899F4
330
18
100
AcDbEntity
  8
\U+FF77\U+FF6C\U+FF6F\U+FF8C\U+FF9F\U+FF8E\U+FF9E\U+FF99\U+FF84
100
AcDbCircle
 10
5435.35724104208
 20
-3606.847116410428
 30
0.0
 40
3.5
  0
ARC
  5
899F5
330
18
100
AcDbEntity
  8
\U+FF77\U+FF6C\U+FF6F\U+FF8C\U+FF9F\U+FF8E\U+FF9E\U+FF99\U+FF84
100
AcDbCircle
 10
5435.35724104208
 20
-3605.895111821941
 30
0.0
 40
0.3170045884846654
100
AcDbArc
 50
224.6530614096537
 51
315.3469385903463
  0
ARC
  5
899F6
330
18
100
AcDbEntity
  8
\U+FF77\U+FF6C\U+FF6F\U+FF8C\U+FF9F\U+FF8E\U+FF9E\U+FF99\U+FF84
100
AcDbCircle
 10
5435.707241042081
 20
-3606.24089862778
 30
0.0
 40
0.175
100
AcDbArc
 50
344.653061409802
 51
135.3469385903449
  0
ARC
  5
899F7
330
18
100
AcDbEntity
  8
\U+FF77\U+FF6C\U+FF6F\U+FF8C\U+FF9F\U+FF8E\U+FF9E\U+FF99\U+FF84
100
AcDbCircle
 10
5435.00724104208
 20
-3606.240898627778
 30
0.0
 40
0.175
100
AcDbArc
 50
44.65306140933988
 51
195.3469385901981
  0
ARC
  5
899F8
330
18
100
AcDbEntity
  8
\U+FF77\U+FF6C\U+FF6F\U+FF8C\U+FF9F\U+FF8E\U+FF9E\U+FF99\U+FF84
100
AcDbCircle
 10
5434.532780883934
 20
-3606.371114116183
 30
0.0
 40
0.3170045884846654
100
AcDbArc
 50
284.6530614097597
 51
15.34693859033836
  0
ARC
  5
899F9
330
18
100
AcDbEntity
  8
\U+FF77\U+FF6C\U+FF6F\U+FF8C\U+FF9F\U+FF8E\U+FF9E\U+FF99\U+FF84
100
AcDbCircle
 10
5434.532780883934
 20
-3607.32311870467
 30
0.0
 40
0.3170045884846654
100
AcDbArc
 50
344.6530614096616
 51
75.34693859024028
  0
ARC
  5
899FA
330
18
100
AcDbEntity
  8
\U+FF77\U+FF6C\U+FF6F\U+FF8C\U+FF9F\U+FF8E\U+FF9E\U+FF99\U+FF84
100
AcDbCircle
 10
5435.357241042081
 20
-3607.799120998912
 30
0.0
 40
0.3170045884846654
100
AcDbArc
 50
44.6530614096537
 51
135.3469385903463
  0
ARC
  5
899FB
330
18
100
AcDbEntity
  8
\U+FF77\U+FF6C\U+FF6F\U+FF8C\U+FF9F\U+FF8E\U+FF9E\U+FF99\U+FF84
100
AcDbCircle
 10
5436.181701200226
 20
-3607.323118704671
 30
0.0
 40
0.3170045884846654
100
AcDbArc
 50
104.6530614097597
 51
195.3469385903384
  0
ARC
  5
899FC
330
18
100
AcDbEntity
  8
\U+FF77\U+FF6C\U+FF6F\U+FF8C\U+FF9F\U+FF8E\U+FF9E\U+FF99\U+FF84
100
AcDbCircle
 10
5436.181701200227
 20
-3606.371114116183
 30
0.0
 40
0.3170045884846654
100
AcDbArc
 50
164.6530614096616
 51
255.3469385902403
  0
ARC
  5
899FD
330
18
100
AcDbEntity
  8
\U+FF77\U+FF6C\U+FF6F\U+FF8C\U+FF9F\U+FF8E\U+FF9E\U+FF99\U+FF84
100
AcDbCircle
 10
5436.057241042082
 20
-3606.847116410428
 30
0.0
 40
0.175
100
AcDbArc
 50
284.6530614095043
 51
75.34693859049568
  0
ARC
  5
899FE
330
18
100
AcDbEntity
  8
\U+FF77\U+FF6C\U+FF6F\U+FF8C\U+FF9F\U+FF8E\U+FF9E\U+FF99\U+FF84
100
AcDbCircle
 10
5434.657241042081
 20
-3606.847116410428
 30
0.0
 40
0.175
100
AcDbArc
 50
104.6530614098301
 51
255.3469385904957
  0
ARC
  5
899FF
330
18
100
AcDbEntity
  8
\U+FF77\U+FF6C\U+FF6F\U+FF8C\U+FF9F\U+FF8E\U+FF9E\U+FF99\U+FF84
100
AcDbCircle
 10
5435.007241042079
 20
-3607.453334193072
 30
0.0
 40
0.175
100
AcDbArc
 50
164.6530614098019
 51
315.3469385903449
  0
ARC
  5
89A00
330
18
100
AcDbEntity
  8
\U+FF77\U+FF6C\U+FF6F\U+FF8C\U+FF9F\U+FF8E\U+FF9E\U+FF99\U+FF84
100
AcDbCircle
 10
5435.70724104208
 20
-3607.453334193072
 30
0.0
 40
0.175
100
AcDbArc
 50
224.6530614096551
 51
15.34693859019814
  0
CIRCLE
  5
89A01
330
18
100
AcDbEntity
  8
\U+FF77\U+FF6C\U+FF6F\U+FF8C\U+FF9F\U+FF8E\U+FF9E\U+FF99\U+FF84
100
AcDbCircle
 10
5435.35724104208
 20
-3606.847116410428
 30
0.0
 40
2.858333333333337
  0
CIRCLE
  5
89A02
330
18
100
AcDbEntity
  8
\U+FF77\U+FF6C\U+FF6F\U+FF8C\U+FF9F\U+FF8E\U+FF9E\U+FF99\U+FF84
100
AcDbCircle
 10
5336.607300890423
 20
-3777.887140851179
 30
0.0
 40
3.5
  0
ARC
  5
89A03
330
18
100
AcDbEntity
  8
\U+FF77\U+FF6C\U+FF6F\U+FF8C\U+FF9F\U+FF8E\U+FF9E\U+FF99\U+FF84
100
AcDbCircle
 10
5337.431761048572
 20
-3777.411138556934
 30
0.0
 40
0.3170045884846654
100
AcDbArc
 50
164.6530614096616
 51
255.3469385903993
  0
ARC
  5
89A04
330
18
100
AcDbEntity
  8
\U+FF77\U+FF6C\U+FF6F\U+FF8C\U+FF9F\U+FF8E\U+FF9E\U+FF99\U+FF84
100
AcDbCircle
 10
5337.307300890422
 20
-3777.887140851181
 30
0.0
 40
0.175
100
AcDbArc
 50
284.6530614101558
 51
75.34693859016994
  0
ARC
  5
89A05
330
18
100
AcDbEntity
  8
\U+FF77\U+FF6C\U+FF6F\U+FF8C\U+FF9F\U+FF8E\U+FF9E\U+FF99\U+FF84
100
AcDbCircle
 10
5336.957300890425
 20
-3777.280923068529
 30
0.0
 40
0.175
100
AcDbArc
 50
344.6530614091487
 51
135.346938590239
  0
ARC
  5
89A06
330
18
100
AcDbEntity
  8
\U+FF77\U+FF6C\U+FF6F\U+FF8C\U+FF9F\U+FF8E\U+FF9E\U+FF99\U+FF84
100
AcDbCircle
 10
5336.607300890425
 20
-3776.935136262694
 30
0.0
 40
0.3170045884846654
100
AcDbArc
 50
224.6530614098277
 51
315.3469385904048
  0
ARC
  5
89A07
330
18
100
AcDbEntity
  8
\U+FF77\U+FF6C\U+FF6F\U+FF8C\U+FF9F\U+FF8E\U+FF9E\U+FF99\U+FF84
100
AcDbCircle
 10
5335.782840732278
 20
-3777.411138556937
 30
0.0
 40
0.3170045884846654
100
AcDbArc
 50
284.6530614096007
 51
15.34693859033836
  0
ARC
  5
89A08
330
18
100
AcDbEntity
  8
\U+FF77\U+FF6C\U+FF6F\U+FF8C\U+FF9F\U+FF8E\U+FF9E\U+FF99\U+FF84
100
AcDbCircle
 10
5335.782840732277
 20
-3778.363143145422
 30
0.0
 40
0.3170045884846654
100
AcDbArc
 50
344.6530614096616
 51
75.34693859024028
  0
ARC
  5
89A09
330
18
100
AcDbEntity
  8
\U+FF77\U+FF6C\U+FF6F\U+FF8C\U+FF9F\U+FF8E\U+FF9E\U+FF99\U+FF84
100
AcDbCircle
 10
5336.607300890421
 20
-3778.839145439663
 30
0.0
 40
0.3170045884846654
100
AcDbArc
 50
44.65306140982769
 51
135.3469385901723
  0
ARC
  5
89A0A
330
18
100
AcDbEntity
  8
\U+FF77\U+FF6C\U+FF6F\U+FF8C\U+FF9F\U+FF8E\U+FF9E\U+FF99\U+FF84
100
AcDbCircle
 10
5337.431761048572
 20
-3778.36314314542
 30
0.0
 40
0.3170045884846654
100
AcDbArc
 50
104.6530614096007
 51
195.3469385901363
  0
ARC
  5
89A0B
330
18
100
AcDbEntity
  8
\U+FF77\U+FF6C\U+FF6F\U+FF8C\U+FF9F\U+FF8E\U+FF9E\U+FF99\U+FF84
100
AcDbCircle
 10
5336.957300890425
 20
-3778.493358633831
 30
0.0
 40
0.175
100
AcDbArc
 50
224.6530614096551
 51
15.3469385904853
  0
ARC
  5
89A0C
330
18
100
AcDbEntity
  8
\U+FF77\U+FF6C\U+FF6F\U+FF8C\U+FF9F\U+FF8E\U+FF9E\U+FF99\U+FF84
100
AcDbCircle
 10
5336.257300890423
 20
-3777.28092306853
 30
0.0
 40
0.175
100
AcDbArc
 50
44.65306140965508
 51
195.3469385905641
  0
ARC
  5
89A0D
330
18
100
AcDbEntity
  8
\U+FF77\U+FF6C\U+FF6F\U+FF8C\U+FF9F\U+FF8E\U+FF9E\U+FF99\U+FF84
100
AcDbCircle
 10
5335.907300890426
 20
-3777.887140851175
 30
0.0
 40
0.175
100
AcDbArc
 50
104.653061409542
 51
255.346938590458
  0
ARC
  5
89A0E
330
18
100
AcDbEntity
  8
\U+FF77\U+FF6C\U+FF6F\U+FF8C\U+FF9F\U+FF8E\U+FF9E\U+FF99\U+FF84
100
AcDbCircle
 10
5336.257300890427
 20
-3778.493358633826
 30
0.0
 40
0.175
100
AcDbArc
 50
164.6530614098019
 51
315.3469385902391
  0
CIRCLE
  5
89A0F
330
18
100
AcDbEntity
  8
\U+FF77\U+FF6C\U+FF6F\U+FF8C\U+FF9F\U+FF8E\U+FF9E\U+FF99\U+FF84
100
AcDbCircle
 10
5336.607300890423
 20
-3777.887140851179
 30
0.0
 40
2.858333333333337
  0
CIRCLE
  5
89A10
330
18
100
AcDbEntity
  8
\U+FF77\U+FF6C\U+FF6F\U+FF8C\U+FF9F\U+FF8E\U+FF9E\U+FF99\U+FF84
100
AcDbCircle
 10
5139.107324584994
 20
-3777.887196278027
 30
0.0
 40
3.5
  0
ARC
  5
89A11
330
18
100
AcDbEntity
  8
\U+FF77\U+FF6C\U+FF6F\U+FF8C\U+FF9F\U+FF8E\U+FF9E\U+FF99\U+FF84
100
AcDbCircle
 10
5139.931784743144
 20
-3778.36319857227
 30
0.0
 40
0.3170045884846654
100
AcDbArc
 50
104.6530614097597
 51
195.3469385904968
  0
ARC
  5
89A12
330
18
100
AcDbEntity
  8
\U+FF77\U+FF6C\U+FF6F\U+FF8C\U+FF9F\U+FF8E\U+FF9E\U+FF99\U+FF84
100
AcDbCircle
 10
5139.457324584992
 20
-3778.493414060677
 30
0.0
 40
0.175
100
AcDbArc
 50
224.653061409761
 51
15.34693859019814
  0
ARC
  5
89A13
330
18
100
AcDbEntity
  8
\U+FF77\U+FF6C\U+FF6F\U+FF8C\U+FF9F\U+FF8E\U+FF9E\U+FF99\U+FF84
100
AcDbCircle
 10
5139.807324584995
 20
-3777.887196278027
 30
0.0
 40
0.175
100
AcDbArc
 50
284.6530614092162
 51
75.34693859045802
  0
ARC
  5
89A14
330
18
100
AcDbEntity
  8
\U+FF77\U+FF6C\U+FF6F\U+FF8C\U+FF9F\U+FF8E\U+FF9E\U+FF99\U+FF84
100
AcDbCircle
 10
5139.931784743142
 20
-3777.411193983787
 30
0.0
 40
0.3170045884846654
100
AcDbArc
 50
164.6530614096616
 51
255.3469385903993
  0
ARC
  5
89A15
330
18
100
AcDbEntity
  8
\U+FF77\U+FF6C\U+FF6F\U+FF8C\U+FF9F\U+FF8E\U+FF9E\U+FF99\U+FF84
100
AcDbCircle
 10
5139.107324584994
 20
-3776.935191689544
 30
0.0
 40
0.3170045884846654
100
AcDbArc
 50
224.6530614096537
 51
315.3469385903463
  0
ARC
  5
89A16
330
18
100
AcDbEntity
  8
\U+FF77\U+FF6C\U+FF6F\U+FF8C\U+FF9F\U+FF8E\U+FF9E\U+FF99\U+FF84
100
AcDbCircle
 10
5138.282864426846
 20
-3777.411193983786
 30
0.0
 40
0.3170045884846654
100
AcDbArc
 50
284.6530614097597
 51
15.34693859033836
  0
ARC
  5
89A17
330
18
100
AcDbEntity
  8
\U+FF77\U+FF6C\U+FF6F\U+FF8C\U+FF9F\U+FF8E\U+FF9E\U+FF99\U+FF84
100
AcDbCircle
 10
5138.282864426846
 20
-3778.363198572268
 30
0.0
 40
0.3170045884846654
100
AcDbArc
 50
344.6530614096616
 51
75.34693859024028
  0
ARC
  5
89A18
330
18
100
AcDbEntity
  8
\U+FF77\U+FF6C\U+FF6F\U+FF8C\U+FF9F\U+FF8E\U+FF9E\U+FF99\U+FF84
100
AcDbCircle
 10
5139.107324584996
 20
-3778.839200866513
 30
0.0
 40
0.3170045884846654
100
AcDbArc
 50
44.6530614096537
 51
135.3469385901723
  0
ARC
  5
89A19
330
18
100
AcDbEntity
  8
\U+FF77\U+FF6C\U+FF6F\U+FF8C\U+FF9F\U+FF8E\U+FF9E\U+FF99\U+FF84
100
AcDbCircle
 10
5138.757324584993
 20
-3778.493414060678
 30
0.0
 40
0.175
100
AcDbArc
 50
164.6530614095147
 51
315.34693859066
  0
ARC
  5
89A1A
330
18
100
AcDbEntity
  8
\U+FF77\U+FF6C\U+FF6F\U+FF8C\U+FF9F\U+FF8E\U+FF9E\U+FF99\U+FF84
100
AcDbCircle
 10
5139.457324584993
 20
-3777.280978495378
 30
0.0
 40
0.175
100
AcDbArc
 50
344.653061409802
 51
135.3469385906601
  0
ARC
  5
89A1B
330
18
100
AcDbEntity
  8
\U+FF77\U+FF6C\U+FF6F\U+FF8C\U+FF9F\U+FF8E\U+FF9E\U+FF99\U+FF84
100
AcDbCircle
 10
5138.757324584998
 20
-3777.280978495379
 30
0.0
 40
0.175
100
AcDbArc
 50
44.65306140965508
 51
195.3469385905641
  0
ARC
  5
89A1C
330
18
100
AcDbEntity
  8
\U+FF77\U+FF6C\U+FF6F\U+FF8C\U+FF9F\U+FF8E\U+FF9E\U+FF99\U+FF84
100
AcDbCircle
 10
5138.407324584997
 20
-3777.88719627803
 30
0.0
 40
0.175
100
AcDbArc
 50
104.653061409542
 51
255.3469385901699
  0
CIRCLE
  5
89A1D
330
18
100
AcDbEntity
  8
\U+FF77\U+FF6C\U+FF6F\U+FF8C\U+FF9F\U+FF8E\U+FF9E\U+FF99\U+FF84
100
AcDbCircle
 10
5139.107324584994
 20
-3777.887196278027
 30
0.0
 40
2.858333333333337
  0
CIRCLE
  5
89A1E
330
18
100
AcDbEntity
  8
\U+FF77\U+FF6C\U+FF6F\U+FF8C\U+FF9F\U+FF8E\U+FF9E\U+FF99\U+FF84
100
AcDbCircle
 10
5052.267975439946
 20
-3674.39597910218
 30
0.0
 40
3.5
  0
ARC
  5
89A1F
330
18
100
AcDbEntity
  8
\U+FF77\U+FF6C\U+FF6F\U+FF8C\U+FF9F\U+FF8E\U+FF9E\U+FF99\U+FF84
100
AcDbCircle
 10
5051.942370694145
 20
-3673.501387415424
 30
0.0
 40
0.3170045884846654
100
AcDbArc
 50
244.6530614097469
 51
335.3469385903473
  0
ARC
  5
89A20
330
18
100
AcDbEntity
  8
\U+FF77\U+FF6C\U+FF6F\U+FF8C\U+FF9F\U+FF8E\U+FF9E\U+FF99\U+FF84
100
AcDbCircle
 10
5051.731744329761
 20
-3673.946027775401
 30
0.0
 40
0.175
100
AcDbArc
 50
64.65306140947641
 51
215.3469385904338
  0
ARC
  5
89A21
330
18
100
AcDbEntity
  8
\U+FF77\U+FF6C\U+FF6F\U+FF8C\U+FF9F\U+FF8E\U+FF9E\U+FF99\U+FF84
100
AcDbCircle
 10
5052.389529164314
 20
-3673.706613675071
 30
0.0
 40
0.175
100
AcDbArc
 50
4.653061409927209
 51
155.3469385904626
  0
ARC
  5
89A22
330
18
100
AcDbEntity
  8
\U+FF77\U+FF6C\U+FF6F\U+FF8C\U+FF9F\U+FF8E\U+FF9E\U+FF99\U+FF84
100
AcDbCircle
 10
5052.879912193787
 20
-3673.666701277346
 30
0.0
 40
0.3170045884846654
100
AcDbArc
 50
184.6530614096541
 51
275.346938590262
  0
ARC
  5
89A23
330
18
100
AcDbEntity
  8
\U+FF77\U+FF6C\U+FF6F\U+FF8C\U+FF9F\U+FF8E\U+FF9E\U+FF99\U+FF84
100
AcDbCircle
 10
5053.205516939588
 20
-3674.561292964101
 30
0.0
 40
0.3170045884846654
100
AcDbArc
 50
124.6530614096193
 51
215.3469385904274
  0
ARC
  5
89A24
330
18
100
AcDbEntity
  8
\U+FF77\U+FF6C\U+FF6F\U+FF8C\U+FF9F\U+FF8E\U+FF9E\U+FF99\U+FF84
100
AcDbCircle
 10
5052.593580185746
 20
-3675.290570788933
 30
0.0
 40
0.3170045884846654
100
AcDbArc
 50
64.65306140956318
 51
155.346938590422
  0
ARC
  5
89A25
330
18
100
AcDbEntity
  8
\U+FF77\U+FF6C\U+FF6F\U+FF8C\U+FF9F\U+FF8E\U+FF9E\U+FF99\U+FF84
100
AcDbCircle
 10
5051.656038686106
 20
-3675.125256927012
 30
0.0
 40
0.3170045884846654
100
AcDbArc
 50
4.653061409490239
 51
95.34693859026196
  0
ARC
  5
89A26
330
18
100
AcDbEntity
  8
\U+FF77\U+FF6C\U+FF6F\U+FF8C\U+FF9F\U+FF8E\U+FF9E\U+FF99\U+FF84
100
AcDbCircle
 10
5051.330433940303
 20
-3674.230665240256
 30
0.0
 40
0.3170045884846654
100
AcDbArc
 50
304.6530614098013
 51
35.34693859019828
  0
ARC
  5
89A27
330
18
100
AcDbEntity
  8
\U+FF77\U+FF6C\U+FF6F\U+FF8C\U+FF9F\U+FF8E\U+FF9E\U+FF99\U+FF84
100
AcDbCircle
 10
5051.610190605394
 20
-3674.635393202509
 30
0.0
 40
0.175
100
AcDbArc
 50
124.6530614094147
 51
275.3469385905344
  0
ARC
  5
89A28
330
18
100
AcDbEntity
  8
\U+FF77\U+FF6C\U+FF6F\U+FF8C\U+FF9F\U+FF8E\U+FF9E\U+FF99\U+FF84
100
AcDbCircle
 10
5052.925760274497
 20
-3674.156565001852
 30
0.0
 40
0.175
100
AcDbArc
 50
304.6530614090851
 51
95.3469385905344
  0
ARC
  5
89A29
330
18
100
AcDbEntity
  8
\U+FF77\U+FF6C\U+FF6F\U+FF8C\U+FF9F\U+FF8E\U+FF9E\U+FF99\U+FF84
100
AcDbCircle
 10
5052.804206550129
 20
-3674.845930428956
 30
0.0
 40
0.175
100
AcDbArc
 50
244.6530614098093
 51
35.34693859031236
  0
ARC
  5
89A2A
330
18
100
AcDbEntity
  8
\U+FF77\U+FF6C\U+FF6F\U+FF8C\U+FF9F\U+FF8E\U+FF9E\U+FF99\U+FF84
100
AcDbCircle
 10
5052.146421715579
 20
-3675.085344529284
 30
0.0
 40
0.175
100
AcDbArc
 50
184.6530614099272
 51
335.3469385903384
  0
CIRCLE
  5
89A2B
330
18
100
AcDbEntity
  8
\U+FF77\U+FF6C\U+FF6F\U+FF8C\U+FF9F\U+FF8E\U+FF9E\U+FF99\U+FF84
100
AcDbCircle
 10
5052.267975439946
 20
-3674.39597910218
 30
0.0
 40
2.858333333333337
  0
CIRCLE
  5
89A2E
330
18
100
AcDbEntity
  8
\U+FF77\U+FF6C\U+FF6F\U+FF8C\U+FF9F\U+FF8E\U+FF9E\U+FF99\U+FF84
100
AcDbCircle
 10
5052.267975439946
 20
-3539.298253718676
 30
0.0
 40
3.5
  0
ARC
  5
89A2F
330
18
100
AcDbEntity
  8
\U+FF77\U+FF6C\U+FF6F\U+FF8C\U+FF9F\U+FF8E\U+FF9E\U+FF99\U+FF84
100
AcDbCircle
 10
5051.942370694145
 20
-3540.192845405432
 30
0.0
 40
0.3170045884846654
100
AcDbArc
 50
24.65306140965271
 51
115.3469385902531
  0
ARC
  5
89A30
330
18
100
AcDbEntity
  8
\U+FF77\U+FF6C\U+FF6F\U+FF8C\U+FF9F\U+FF8E\U+FF9E\U+FF99\U+FF84
100
AcDbCircle
 10
5051.731744329761
 20
-3539.748205045455
 30
0.0
 40
0.175
100
AcDbArc
 50
144.6530614095662
 51
295.3469385905236
  0
ARC
  5
89A31
330
18
100
AcDbEntity
  8
\U+FF77\U+FF6C\U+FF6F\U+FF8C\U+FF9F\U+FF8E\U+FF9E\U+FF99\U+FF84
100
AcDbCircle
 10
5052.389529164314
 20
-3539.987619145785
 30
0.0
 40
0.175
100
AcDbArc
 50
204.6530614095374
 51
355.3469385900728
  0
ARC
  5
89A32
330
18
100
AcDbEntity
  8
\U+FF77\U+FF6C\U+FF6F\U+FF8C\U+FF9F\U+FF8E\U+FF9E\U+FF99\U+FF84
100
AcDbCircle
 10
5052.879912193787
 20
-3540.027531543511
 30
0.0
 40
0.3170045884846654
100
AcDbArc
 50
84.65306140973805
 51
175.3469385903458
  0
ARC
  5
89A33
330
18
100
AcDbEntity
  8
\U+FF77\U+FF6C\U+FF6F\U+FF8C\U+FF9F\U+FF8E\U+FF9E\U+FF99\U+FF84
100
AcDbCircle
 10
5053.205516939588
 20
-3539.132939856756
 30
0.0
 40
0.3170045884846654
100
AcDbArc
 50
144.6530614095726
 51
235.3469385903807
  0
ARC
  5
89A34
330
18
100
AcDbEntity
  8
\U+FF77\U+FF6C\U+FF6F\U+FF8C\U+FF9F\U+FF8E\U+FF9E\U+FF99\U+FF84
100
AcDbCircle
 10
5052.593580185746
 20
-3538.403662031923
 30
0.0
 40
0.3170045884846654
100
AcDbArc
 50
204.653061409578
 51
295.3469385904369
  0
ARC
  5
89A35
330
18
100
AcDbEntity
  8
\U+FF77\U+FF6C\U+FF6F\U+FF8C\U+FF9F\U+FF8E\U+FF9E\U+FF99\U+FF84
100
AcDbCircle
 10
5051.656038686106
 20
-3538.568975893844
 30
0.0
 40
0.3170045884846654
100
AcDbArc
 50
264.653061409738
 51
355.3469385905097
  0
ARC
  5
89A36
330
18
100
AcDbEntity
  8
\U+FF77\U+FF6C\U+FF6F\U+FF8C\U+FF9F\U+FF8E\U+FF9E\U+FF99\U+FF84
100
AcDbCircle
 10
5051.330433940303
 20
-3539.4635675806
 30
0.0
 40
0.3170045884846654
100
AcDbArc
 50
324.6530614098018
 51
55.34693859019873
  0
ARC
  5
89A37
330
18
100
AcDbEntity
  8
\U+FF77\U+FF6C\U+FF6F\U+FF8C\U+FF9F\U+FF8E\U+FF9E\U+FF99\U+FF84
100
AcDbCircle
 10
5051.610190605394
 20
-3539.058839618347
 30
0.0
 40
0.175
100
AcDbArc
 50
84.65306140946559
 51
235.3469385905852
  0
ARC
  5
89A38
330
18
100
AcDbEntity
  8
\U+FF77\U+FF6C\U+FF6F\U+FF8C\U+FF9F\U+FF8E\U+FF9E\U+FF99\U+FF84
100
AcDbCircle
 10
5052.925760274497
 20
-3539.537667819004
 30
0.0
 40
0.175
100
AcDbArc
 50
264.6530614094656
 51
55.34693859091486
  0
ARC
  5
89A39
330
18
100
AcDbEntity
  8
\U+FF77\U+FF6C\U+FF6F\U+FF8C\U+FF9F\U+FF8E\U+FF9E\U+FF99\U+FF84
100
AcDbCircle
 10
5052.804206550129
 20
-3538.8483023919
 30
0.0
 40
0.175
100
AcDbArc
 50
324.6530614096875
 51
115.3469385901907
  0
ARC
  5
89A3A
330
18
100
AcDbEntity
  8
\U+FF77\U+FF6C\U+FF6F\U+FF8C\U+FF9F\U+FF8E\U+FF9E\U+FF99\U+FF84
100
AcDbCircle
 10
5052.146421715579
 20
-3538.608888291572
 30
0.0
 40
0.175
100
AcDbArc
 50
24.65306140966163
 51
175.3469385900728
  0
CIRCLE
  5
89A3B
330
18
100
AcDbEntity
  8
\U+FF77\U+FF6C\U+FF6F\U+FF8C\U+FF9F\U+FF8E\U+FF9E\U+FF99\U+FF84
100
AcDbCircle
 10
5052.267975439946
 20
-3539.298253718676
 30
0.0
 40
2.858333333333337
  0
CIRCLE
  5
89AF6
330
18
100
AcDbEntity
  8
実線
100
AcDbCircle
 10
5198.619886557079
 20
-3578.339647688628
 30
0.0
 40
4.5
  0
LINE
  5
89AF7
330
18
100
AcDbEntity
  8
実線
100
AcDbLine
 10
5200.729628709751
 20
-3577.400326590762
 30
0.0
 11
5200.488233650945
 21
-3579.697077033028
 31
0.0
  0
CIRCLE
  5
89AF8
330
18
100
AcDbEntity
  8
実線
100
AcDbCircle
 10
5198.619886939141
 20
-3578.339647162761
 30
0.0
 40
4.25
  0
LINE
  5
89AF9
330
18
100
AcDbEntity
  8
実線
100
AcDbLine
 10
5198.861282321551
 20
-3576.04289695561
 30
0.0
 11
5200.729628628849
 21
-3577.400326531983
 31
0.0
  0
LINE
  5
89AFA
330
18
100
AcDbEntity
  8
実線
100
AcDbLine
 10
5196.751540631844
 20
-3576.982217586388
 30
0.0
 11
5196.510144904347
 21
-3579.278968778899
 31
0.0
  0
LINE
  5
89AFB
330
18
100
AcDbEntity
  8
実線
100
AcDbLine
 10
5200.488233246437
 20
-3579.697076739136
 30
0.0
 11
5198.378490726232
 21
-3580.636398002601
 31
0.0
  0
LINE
  5
89AFC
330
18
100
AcDbEntity
  8
実線
100
AcDbLine
 10
5196.51014524943
 20
-3579.27896779354
 30
0.0
 11
5198.378491556727
 21
-3580.636397369914
 31
0.0
  0
LINE
  5
89AFD
330
18
100
AcDbEntity
  8
実線
100
AcDbLine
 10
5196.751540227335
 20
-3576.982217292496
 30
0.0
 11
5198.86128224065
 21
-3576.042896896832
 31
0.0
  0
CIRCLE
  5
89AFE
330
18
100
AcDbEntity
  8
実線
100
AcDbCircle
 10
5277.09453501139
 20
-3578.339552215241
 30
0.0
 40
4.5
  0
LINE
  5
89AFF
330
18
100
AcDbEntity
  8
実線
100
AcDbLine
 10
5277.335936283481
 20
-3580.636302419657
 30
0.0
 11
5275.226191984591
 21
-3579.69698715748
 31
0.0
  0
CIRCLE
  5
89B00
330
18
100
AcDbEntity
  8
実線
100
AcDbCircle
 10
5277.094535393454
 20
-3578.339552741102
 30
0.0
 40
4.25
  0
LINE
  5
89B01
330
18
100
AcDbEntity
  8
実線
100
AcDbLine
 10
5279.204279368738
 20
-3579.278868238394
 30
0.0
 11
5277.335936364385
 21
-3580.636302360878
 31
0.0
  0
LINE
  5
89B02
330
18
100
AcDbEntity
  8
実線
100
AcDbLine
 10
5278.962878397808
 20
-3576.98211861862
 30
0.0
 11
5276.853133592027
 21
-3576.042802488643
 31
0.0
  0
LINE
  5
89B03
330
18
100
AcDbEntity
  8
実線
100
AcDbLine
 10
5275.226192389098
 20
-3579.696986863588
 30
0.0
 11
5274.984791073084
 21
-3577.400236258454
 31
0.0
  0
LINE
  5
89B04
330
18
100
AcDbEntity
  8
実線
100
AcDbLine
 10
5276.853134422523
 20
-3576.04280312133
 30
0.0
 11
5274.984791418169
 21
-3577.400237243813
 31
0.0
  0
LINE
  5
89B05
330
18
100
AcDbEntity
  8
実線
100
AcDbLine
 10
5278.962878802316
 20
-3576.982118324727
 30
0.0
 11
5279.20427944964
 21
-3579.278868179616
 31
0.0
  0
CIRCLE
  5
89B06
330
18
100
AcDbEntity
  8
実線
100
AcDbCircle
 10
5252.844513576299
 20
-3560.720925414023
 30
0.0
 40
4.5
  0
LINE
  5
89B07
330
18
100
AcDbEntity
  8
実線
100
AcDbLine
 10
5254.38980720624
 20
-3562.437143253608
 30
0.0
 11
5252.13087255629
 21
-3562.91729782843
 31
0.0
  0
CIRCLE
  5
89B08
330
18
100
AcDbEntity
  8
実線
100
AcDbCircle
 10
5252.844514194489
 20
-3560.720925614881
 30
0.0
 40
4.25
  0
LINE
  5
89B09
330
18
100
AcDbEntity
  8
実線
100
AcDbLine
 10
5255.103448720831
 20
-3560.240771420486
 30
0.0
 11
5254.389807237141
 21
-3562.437143158502
 31
0.0
  0
LINE
  5
89B0A
330
18
100
AcDbEntity
  8
実線
100
AcDbLine
 10
5253.558155678177
 20
-3558.524553876866
 30
0.0
 11
5251.299220108066
 21
-3559.004708047562
 31
0.0
  0
LINE
  5
89B0B
330
18
100
AcDbEntity
  8
実線
100
AcDbLine
 10
5252.130872710798
 20
-3562.917297352902
 30
0.0
 11
5250.585578809785
 21
-3561.201079214944
 31
0.0
  0
LINE
  5
89B0C
330
18
100
AcDbEntity
  8
実線
100
AcDbLine
 10
5251.299221151835
 20
-3559.004708071263
 30
0.0
 11
5250.585579668144
 21
-3561.201079809281
 31
0.0
  0
LINE
  5
89B0D
330
18
100
AcDbEntity
  8
実線
100
AcDbLine
 10
5253.558155832686
 20
-3558.524553401337
 30
0.0
 11
5255.103448751732
 21
-3560.240771325382
 31
0.0
  0
CIRCLE
  5
89B0E
330
18
100
AcDbEntity
  8
実線
100
AcDbCircle
 10
5222.86986512195
 20
-3560.720961881612
 30
0.0
 40
4.5
  0
CIRCLE
  5
89B0F
330
18
100
AcDbEntity
  8
実線
100
AcDbCircle
 10
5222.869865740138
 20
-3560.720961680746
 30
0.0
 40
4.25
  0
LINE
  5
89B10
330
18
100
AcDbEntity
  8
実線
100
AcDbLine
 10
5220.610930045478
 20
-3560.240812982855
 30
0.0
 11
5221.324576873442
 21
-3562.437182984413
 31
0.0
  0
LINE
  5
89B11
330
18
100
AcDbEntity
  8
実線
100
AcDbLine
 10
5225.128801465703
 20
-3561.201110473745
 30
0.0
 11
5223.583512722611
 21
-3562.917332157834
 31
0.0
  0
LINE
  5
89B12
330
18
100
AcDbEntity
  8
実線
100
AcDbLine
 10
5224.415154606838
 20
-3559.00474037708
 30
0.0
 11
5225.128801434801
 21
-3561.201110378638
 31
0.0
  0
LINE
  5
89B13
330
18
100
AcDbEntity
  8
実線
100
AcDbLine
 10
5222.156218757668
 20
-3558.524591203664
 30
0.0
 11
5224.415154575936
 21
-3559.004740281976
 31
0.0
  0
LINE
  5
89B14
330
18
100
AcDbEntity
  8
実線
100
AcDbLine
 10
5222.156218912178
 20
-3558.524591679189
 30
0.0
 11
5220.61092918712
 21
-3560.240813577194
 31
0.0
  0
LINE
  5
89B15
330
18
100
AcDbEntity
  8
実線
100
AcDbLine
 10
5223.583512568101
 20
-3562.917331682305
 30
0.0
 11
5221.324575829673
 21
-3562.437183008116
 31
0.0
  0
LINE
  5
89B16
330
18
100
AcDbEntity
  8
実線
100
AcDbLine
 10
5190.511943633777
 20
-3604.847241639068
 30
0.0
 11
5191.666646967005
 21
-3606.84724023424
 31
0.0
  0
LINE
  5
89B17
330
18
100
AcDbEntity
  8
実線
100
AcDbLine
 10
5187.047843967008
 20
-3606.847245853543
 30
0.0
 11
5188.202542433779
 21
-3604.847244448719
 31
0.0
  0
LINE
  5
89B18
330
18
100
AcDbEntity
  8
実線
100
AcDbLine
 10
5188.202547400234
 20
-3608.847244448714
 30
0.0
 11
5190.511948400233
 21
-3608.847241639065
 31
0.0
  0
LINE
  5
89B19
330
18
100
AcDbEntity
  8
実線
100
AcDbLine
 10
5191.666646467005
 20
-3606.84724023424
 30
0.0
 11
5190.511948100235
 21
-3608.847242639072
 31
0.0
  0
LINE
  5
89B1A
330
18
100
AcDbEntity
  8
実線
100
AcDbLine
 10
5187.047844467008
 20
-3606.847245853542
 30
0.0
 11
5188.202547700237
 21
-3608.847245448722
 31
0.0
  0
LINE
  5
89B1B
330
18
100
AcDbEntity
  8
実線
100
AcDbLine
 10
5188.202542533778
 20
-3604.847244448718
 30
0.0
 11
5190.511943533778
 21
-3604.847241639068
 31
0.0
  0
CIRCLE
  5
89B1C
330
18
100
AcDbEntity
  8
実線
100
AcDbCircle
 10
5198.619955922556
 20
-3635.354817160958
 30
0.0
 40
4.5
  0
LINE
  5
89B1D
330
18
100
AcDbEntity
  8
実線
100
AcDbLine
 10
5198.378554650461
 20
-3633.058066956537
 30
0.0
 11
5200.488298949352
 21
-3633.997382218714
 31
0.0
  0
CIRCLE
  5
89B1E
330
18
100
AcDbEntity
  8
実線
100
AcDbCircle
 10
5198.61995554049
 20
-3635.354816635091
 30
0.0
 40
4.25
  0
LINE
  5
89B1F
330
18
100
AcDbEntity
  8
実線
100
AcDbLine
 10
5196.510211565203
 20
-3634.415501137802
 30
0.0
 11
5198.378554569558
 21
-3633.058067015318
 31
0.0
  0
LINE
  5
89B20
330
18
100
AcDbEntity
  8
実線
100
AcDbLine
 10
5196.751612536136
 20
-3636.712250757575
 30
0.0
 11
5198.861357341915
 21
-3637.651566887554
 31
0.0
  0
LINE
  5
89B21
330
18
100
AcDbEntity
  8
実線
100
AcDbLine
 10
5200.488298544843
 20
-3633.997382512606
 30
0.0
 11
5200.729699860858
 21
-3636.29413311774
 31
0.0
  0
LINE
  5
89B22
330
18
100
AcDbEntity
  8
実線
100
AcDbLine
 10
5198.861356511419
 20
-3637.651566254865
 30
0.0
 11
5200.729699515774
 21
-3636.294132132383
 31
0.0
  0
LINE
  5
89B23
330
18
100
AcDbEntity
  8
実線
100
AcDbLine
 10
5196.751612131627
 20
-3636.712251051468
 30
0.0
 11
5196.510211484303
 21
-3634.415501196578
 31
0.0
  0
CIRCLE
  5
89B24
330
18
100
AcDbEntity
  8
実線
100
AcDbCircle
 10
5189.357245467006
 20
-3606.847243693896
 30
0.0
 40
4.5
  0
CIRCLE
  5
89B25
330
18
100
AcDbEntity
  8
実線
100
AcDbCircle
 10
5189.357245467006
 20
-3606.847243043891
 30
0.0
 40
4.25
  0
CIRCLE
  5
89B26
330
18
100
AcDbEntity
  8
実線
100
AcDbCircle
 10
5222.869977357647
 20
-3652.973443962177
 30
0.0
 40
4.75
  0
CIRCLE
  5
89B27
330
18
100
AcDbEntity
  8
実線
100
AcDbCircle
 10
5222.869976739456
 20
-3652.973443761311
 30
0.0
 40
4.25
  0
LINE
  5
89B28
330
18
100
AcDbEntity
  8
実線
100
AcDbLine
 10
5220.611042213112
 20
-3653.453597955709
 30
0.0
 11
5221.324683696801
 21
-3651.257226217693
 31
0.0
  0
LINE
  5
89B29
330
18
100
AcDbEntity
  8
実線
100
AcDbLine
 10
5222.156335255766
 20
-3655.169815499328
 30
0.0
 11
5224.415270825877
 21
-3654.689661328634
 31
0.0
  0
LINE
  5
89B2A
330
18
100
AcDbEntity
  8
実線
100
AcDbLine
 10
5223.583618223145
 20
-3650.777072023294
 30
0.0
 11
5225.128912124157
 21
-3652.493290161251
 31
0.0
  0
LINE
  5
89B2B
330
18
100
AcDbEntity
  8
実線
100
AcDbLine
 10
5224.415269782109
 20
-3654.689661304932
 30
0.0
 11
5225.128911265798
 21
-3652.493289566915
 31
0.0
  0
LINE
  5
89B2C
330
18
100
AcDbEntity
  8
実線
100
AcDbLine
 10
5221.324683727704
 20
-3651.257226122587
 30
0.0
 11
5223.583618377652
 21
-3650.777071547765
 31
0.0
  0
LINE
  5
89B2D
330
18
100
AcDbEntity
  8
実線
100
AcDbLine
 10
5222.156335101257
 20
-3655.169815974858
 30
0.0
 11
5220.61104218221
 21
-3653.453598050814
 31
0.0
  0
CIRCLE
  5
89B2E
330
18
100
AcDbEntity
  8
実線
100
AcDbCircle
 10
5252.844625811995
 20
-3652.973407494587
 30
0.0
 40
4.75
  0
CIRCLE
  5
89B2F
330
18
100
AcDbEntity
  8
実線
100
AcDbCircle
 10
5252.844625193804
 20
-3652.973407695447
 30
0.0
 40
4.25
  0
LINE
  5
89B30
330
18
100
AcDbEntity
  8
実線
100
AcDbLine
 10
5250.58568946824
 20
-3652.493258902451
 30
0.0
 11
5252.130978211331
 21
-3650.77703721836
 31
0.0
  0
LINE
  5
89B31
330
18
100
AcDbEntity
  8
実線
100
AcDbLine
 10
5251.299336327104
 20
-3654.689628999115
 30
0.0
 11
5250.585689499143
 21
-3652.493258997557
 31
0.0
  0
LINE
  5
89B32
330
18
100
AcDbEntity
  8
実線
100
AcDbLine
 10
5253.558272021766
 20
-3655.169777697005
 30
0.0
 11
5255.103561746822
 21
-3653.453555799001
 31
0.0
  0
LINE
  5
89B33
330
18
100
AcDbEntity
  8
実線
100
AcDbLine
 10
5252.130978365841
 20
-3650.777037693889
 30
0.0
 11
5254.389915104271
 21
-3651.257186368079
 31
0.0
  0
LINE
  5
89B34
330
18
100
AcDbEntity
  8
実線
100
AcDbLine
 10
5255.103560888465
 20
-3653.453556393339
 30
0.0
 11
5254.389914060502
 21
-3651.257186391782
 31
0.0
  0
LINE
  5
89B35
330
18
100
AcDbEntity
  8
実線
100
AcDbLine
 10
5253.558272176275
 20
-3655.169778172533
 30
0.0
 11
5251.299336358006
 21
-3654.68962909422
 31
0.0
  0
CIRCLE
  5
89B36
330
18
100
AcDbEntity
  8
実線
100
AcDbCircle
 10
5277.094604376867
 20
-3635.354721687571
 30
0.0
 40
4.5
  0
LINE
  5
89B37
330
18
100
AcDbEntity
  8
実線
100
AcDbLine
 10
5274.984862224194
 20
-3636.294042785433
 30
0.0
 11
5275.226257282997
 21
-3633.997292343168
 31
0.0
  0
CIRCLE
  5
89B38
330
18
100
AcDbEntity
  8
実線
100
AcDbCircle
 10
5277.094603994803
 20
-3635.354722213434
 30
0.0
 40
4.25
  0
LINE
  5
89B39
330
18
100
AcDbEntity
  8
実線
100
AcDbLine
 10
5276.853208612391
 20
-3637.651472420585
 30
0.0
 11
5274.984862305095
 21
-3636.294042844212
 31
0.0
  0
LINE
  5
89B3A
330
18
100
AcDbEntity
  8
実線
100
AcDbLine
 10
5278.962950302099
 20
-3636.712151789808
 30
0.0
 11
5279.204346029596
 21
-3634.415400597298
 31
0.0
  0
LINE
  5
89B3B
330
18
100
AcDbEntity
  8
実線
100
AcDbLine
 10
5275.226257687505
 20
-3633.99729263706
 30
0.0
 11
5277.33600020771
 21
-3633.057971373595
 31
0.0
  0
LINE
  5
89B3C
330
18
100
AcDbEntity
  8
実線
100
AcDbLine
 10
5279.204345684512
 20
-3634.415401582656
 30
0.0
 11
5277.335999377215
 21
-3633.057972006283
 31
0.0
  0
LINE
  5
89B3D
330
18
100
AcDbEntity
  8
実線
100
AcDbLine
 10
5278.962950706608
 20
-3636.7121520837
 30
0.0
 11
5276.853208693292
 21
-3637.651472479362
 31
0.0
  0
LINE
  5
89B3E
330
18
100
AcDbEntity
  8
実線
100
AcDbLine
 10
5287.511948400164
 20
-3608.847124927476
 30
0.0
 11
5285.202547400166
 21
-3608.847127737127
 31
0.0
  0
LINE
  5
89B3F
330
18
100
AcDbEntity
  8
実線
100
AcDbLine
 10
5287.511943533708
 20
-3604.84712492748
 30
0.0
 11
5285.202542533709
 21
-3604.84712773713
 31
0.0
  0
LINE
  5
89B40
330
18
100
AcDbEntity
  8
実線
100
AcDbLine
 10
5288.666646466935
 20
-3606.847123522654
 30
0.0
 11
5287.511943233705
 21
-3604.847123927472
 31
0.0
  0
LINE
  5
89B41
330
18
100
AcDbEntity
  8
実線
100
AcDbLine
 10
5288.666646966934
 20
-3606.847123522652
 30
0.0
 11
5287.511948500164
 21
-3608.847124927476
 31
0.0
  0
LINE
  5
89B42
330
18
100
AcDbEntity
  8
実線
100
AcDbLine
 10
5285.202547300166
 20
-3608.847127737127
 30
0.0
 11
5284.047843966937
 21
-3606.847129141954
 31
0.0
  0
LINE
  5
89B43
330
18
100
AcDbEntity
  8
実線
100
AcDbLine
 10
5284.047844466937
 20
-3606.847129141954
 30
0.0
 11
5285.202542833707
 21
-3604.847126737122
 31
0.0
  0
CIRCLE
  5
89B44
330
18
100
AcDbEntity
  8
実線
100
AcDbCircle
 10
5286.357245466936
 20
-3606.847125682303
 30
0.0
 40
4.5
  0
CIRCLE
  5
89B45
330
18
100
AcDbEntity
  8
実線
100
AcDbCircle
 10
5286.357245466936
 20
-3606.847126332303
 30
0.0
 40
4.25
  0
POINT
  5
89BD8
330
18
100
AcDbEntity
  8
DEFPOINTS
100
AcDbPoint
 10
5664.864772032878
 20
-3606.84711106125
 30
0.0
  0
LINE
  5
89C55
330
18
100
AcDbEntity
  8
実線
100
AcDbLine
 10
5603.16477198538
 20
-3404.347110465202
 30
0.0
 11
5603.16477198538
 21
-3808.847111061263
 31
0.0
  0
LINE
  5
89C9F
330
18
100
AcDbEntity
  8
\U+FF77\U+FF6C\U+FF6F\U+FF8C\U+FF9F\U+FF8E\U+FF9E\U+FF99\U+FF84
100
AcDbLine
 10
5602.66477198538
 20
-3432.307142047346
 30
0.0
 11
5602.66477198538
 21
-3439.307142047346
 31
0.0
  0
LINE
  5
89CA0
330
18
100
AcDbEntity
  8
\U+FF77\U+FF6C\U+FF6F\U+FF8C\U+FF9F\U+FF8E\U+FF9E\U+FF99\U+FF84
100
AcDbLine
 10
5602.364771985377
 20
-3433.357142047345
 30
0.0
 11
5602.364771985377
 21
-3438.257142047346
 31
0.0
  0
LINE
  5
89CA1
330
18
100
AcDbEntity
  8
\U+FF77\U+FF6C\U+FF6F\U+FF8C\U+FF9F\U+FF8E\U+FF9E\U+FF99\U+FF84
100
AcDbLine
 10
5602.66477198538
 20
-3439.307142047346
 30
0.0
 11
5602.364771985377
 21
-3438.257142047346
 31
0.0
  0
LINE
  5
89CA2
330
18
100
AcDbEntity
  8
\U+FF77\U+FF6C\U+FF6F\U+FF8C\U+FF9F\U+FF8E\U+FF9E\U+FF99\U+FF84
100
AcDbLine
 10
5602.66477198538
 20
-3439.307142047346
 30
0.0
 11
5603.16477198538
 21
-3439.307142047346
 31
0.0
  0
LINE
  5
89CA3
330
18
100
AcDbEntity
  8
\U+FF77\U+FF6C\U+FF6F\U+FF8C\U+FF9F\U+FF8E\U+FF9E\U+FF99\U+FF84
100
AcDbLine
 10
5602.66477198538
 20
-3432.307142047346
 30
0.0
 11
5603.16477198538
 21
-3432.307142047346
 31
0.0
  0
LINE
  5
89CA4
330
18
100
AcDbEntity
  8
\U+FF77\U+FF6C\U+FF6F\U+FF8C\U+FF9F\U+FF8E\U+FF9E\U+FF99\U+FF84
100
AcDbLine
 10
5602.66477198538
 20
-3432.307142047346
 30
0.0
 11
5602.364771985377
 21
-3433.357142047345
 31
0.0
  0
LINE
  5
89CA5
330
18
100
AcDbEntity
  8
\U+FF77\U+FF6C\U+FF6F\U+FF8C\U+FF9F\U+FF8E\U+FF9E\U+FF99\U+FF84
100
AcDbLine
 10
5603.16477198538
 20
-3432.307142047346
 30
0.0
 11
5603.16477198538
 21
-3439.307142047346
 31
0.0
  0
LINE
  5
89CA6
330
18
100
AcDbEntity
  8
\U+FF77\U+FF6C\U+FF6F\U+FF8C\U+FF9F\U+FF8E\U+FF9E\U+FF99\U+FF84
100
AcDbLine
 10
5602.66477198538
 20
-3774.387135502001
 30
0.0
 11
5602.66477198538
 21
-3781.387135502001
 31
0.0
  0
LINE
  5
89CA7
330
18
100
AcDbEntity
  8
\U+FF77\U+FF6C\U+FF6F\U+FF8C\U+FF9F\U+FF8E\U+FF9E\U+FF99\U+FF84
100
AcDbLine
 10
5602.364771985377
 20
-3775.437135502
 30
0.0
 11
5602.364771985377
 21
-3780.337135502003
 31
0.0
  0
LINE
  5
89CA8
330
18
100
AcDbEntity
  8
\U+FF77\U+FF6C\U+FF6F\U+FF8C\U+FF9F\U+FF8E\U+FF9E\U+FF99\U+FF84
100
AcDbLine
 10
5602.66477198538
 20
-3781.387135502001
 30
0.0
 11
5602.364771985377
 21
-3780.337135502003
 31
0.0
  0
LINE
  5
89CA9
330
18
100
AcDbEntity
  8
\U+FF77\U+FF6C\U+FF6F\U+FF8C\U+FF9F\U+FF8E\U+FF9E\U+FF99\U+FF84
100
AcDbLine
 10
5602.66477198538
 20
-3781.387135502001
 30
0.0
 11
5603.16477198538
 21
-3781.387135502001
 31
0.0
  0
LINE
  5
89CAA
330
18
100
AcDbEntity
  8
\U+FF77\U+FF6C\U+FF6F\U+FF8C\U+FF9F\U+FF8E\U+FF9E\U+FF99\U+FF84
100
AcDbLine
 10
5602.66477198538
 20
-3774.387135502001
 30
0.0
 11
5603.16477198538
 21
-3774.387135502001
 31
0.0
  0
LINE
  5
89CAB
330
18
100
AcDbEntity
  8
\U+FF77\U+FF6C\U+FF6F\U+FF8C\U+FF9F\U+FF8E\U+FF9E\U+FF99\U+FF84
100
AcDbLine
 10
5602.66477198538
 20
-3774.387135502001
 30
0.0
 11
5602.364771985377
 21
-3775.437135502
 31
0.0
  0
LINE
  5
89CAC
330
18
100
AcDbEntity
  8
\U+FF77\U+FF6C\U+FF6F\U+FF8C\U+FF9F\U+FF8E\U+FF9E\U+FF99\U+FF84
100
AcDbLine
 10
5603.16477198538
 20
-3774.387135502001
 30
0.0
 11
5603.16477198538
 21
-3781.387135502001
 31
0.0
  0
LINE
  5
89CAD
330
18
100
AcDbEntity
  8
\U+FF77\U+FF6C\U+FF6F\U+FF8C\U+FF9F\U+FF8E\U+FF9E\U+FF99\U+FF84
100
AcDbLine
 10
5602.66477198538
 20
-3603.34711106125
 30
0.0
 11
5602.66477198538
 21
-3610.34711106125
 31
0.0
  0
LINE
  5
89CAE
330
18
100
AcDbEntity
  8
\U+FF77\U+FF6C\U+FF6F\U+FF8C\U+FF9F\U+FF8E\U+FF9E\U+FF99\U+FF84
100
AcDbLine
 10
5602.364771985377
 20
-3604.397111061249
 30
0.0
 11
5602.364771985377
 21
-3609.297111061251
 31
0.0
  0
LINE
  5
89CAF
330
18
100
AcDbEntity
  8
\U+FF77\U+FF6C\U+FF6F\U+FF8C\U+FF9F\U+FF8E\U+FF9E\U+FF99\U+FF84
100
AcDbLine
 10
5602.66477198538
 20
-3610.34711106125
 30
0.0
 11
5602.364771985377
 21
-3609.297111061251
 31
0.0
  0
LINE
  5
89CB0
330
18
100
AcDbEntity
  8
\U+FF77\U+FF6C\U+FF6F\U+FF8C\U+FF9F\U+FF8E\U+FF9E\U+FF99\U+FF84
100
AcDbLine
 10
5602.66477198538
 20
-3610.34711106125
 30
0.0
 11
5603.16477198538
 21
-3610.34711106125
 31
0.0
  0
LINE
  5
89CB1
330
18
100
AcDbEntity
  8
\U+FF77\U+FF6C\U+FF6F\U+FF8C\U+FF9F\U+FF8E\U+FF9E\U+FF99\U+FF84
100
AcDbLine
 10
5602.66477198538
 20
-3603.34711106125
 30
0.0
 11
5603.16477198538
 21
-3603.34711106125
 31
0.0
  0
LINE
  5
89CB2
330
18
100
AcDbEntity
  8
\U+FF77\U+FF6C\U+FF6F\U+FF8C\U+FF9F\U+FF8E\U+FF9E\U+FF99\U+FF84
100
AcDbLine
 10
5602.66477198538
 20
-3603.34711106125
 30
0.0
 11
5602.364771985377
 21
-3604.397111061249
 31
0.0
  0
LINE
  5
89CB3
330
18
100
AcDbEntity
  8
\U+FF77\U+FF6C\U+FF6F\U+FF8C\U+FF9F\U+FF8E\U+FF9E\U+FF99\U+FF84
100
AcDbLine
 10
5603.16477198538
 20
-3603.34711106125
 30
0.0
 11
5603.16477198538
 21
-3610.34711106125
 31
0.0
  0
LINE
  5
89E87
330
18
100
AcDbEntity
  8
実線
100
AcDbLine
 10
5440.387371770339
 20
-3971.571807792625
 30
0.0
 11
5023.887371174279
 21
-3971.571807792625
 31
0.0
  0
LINE
  5
89F20
330
18
100
AcDbEntity
  8
\U+FF77\U+FF6C\U+FF6F\U+FF8C\U+FF9F\U+FF8E\U+FF9E\U+FF99\U+FF84
100
AcDbLine
 10
5055.768077109467
 20
-3971.071807792625
 30
0.0
 11
5048.768077109468
 21
-3971.071807792625
 31
0.0
  0
LINE
  5
89F21
330
18
100
AcDbEntity
  8
\U+FF77\U+FF6C\U+FF6F\U+FF8C\U+FF9F\U+FF8E\U+FF9E\U+FF99\U+FF84
100
AcDbLine
 10
5054.718077109468
 20
-3970.771807792623
 30
0.0
 11
5049.818077109467
 21
-3970.771807792623
 31
0.0
  0
LINE
  5
89F22
330
18
100
AcDbEntity
  8
\U+FF77\U+FF6C\U+FF6F\U+FF8C\U+FF9F\U+FF8E\U+FF9E\U+FF99\U+FF84
100
AcDbLine
 10
5048.768077109468
 20
-3971.071807792625
 30
0.0
 11
5049.818077109467
 21
-3970.771807792623
 31
0.0
  0
LINE
  5
89F23
330
18
100
AcDbEntity
  8
\U+FF77\U+FF6C\U+FF6F\U+FF8C\U+FF9F\U+FF8E\U+FF9E\U+FF99\U+FF84
100
AcDbLine
 10
5048.768077109468
 20
-3971.071807792625
 30
0.0
 11
5048.768077109468
 21
-3971.571807792625
 31
0.0
  0
LINE
  5
89F24
330
18
100
AcDbEntity
  8
\U+FF77\U+FF6C\U+FF6F\U+FF8C\U+FF9F\U+FF8E\U+FF9E\U+FF99\U+FF84
100
AcDbLine
 10
5055.768077109467
 20
-3971.071807792625
 30
0.0
 11
5055.768077109467
 21
-3971.571807792625
 31
0.0
  0
LINE
  5
89F25
330
18
100
AcDbEntity
  8
\U+FF77\U+FF6C\U+FF6F\U+FF8C\U+FF9F\U+FF8E\U+FF9E\U+FF99\U+FF84
100
AcDbLine
 10
5055.768077109467
 20
-3971.071807792625
 30
0.0
 11
5054.718077109468
 21
-3970.771807792623
 31
0.0
  0
LINE
  5
89F26
330
18
100
AcDbEntity
  8
\U+FF77\U+FF6C\U+FF6F\U+FF8C\U+FF9F\U+FF8E\U+FF9E\U+FF99\U+FF84
100
AcDbLine
 10
5055.768077109467
 20
-3971.571807792625
 30
0.0
 11
5048.768077109468
 21
-3971.571807792625
 31
0.0
  0
LINE
  5
89F27
330
18
100
AcDbEntity
  8
\U+FF77\U+FF6C\U+FF6F\U+FF8C\U+FF9F\U+FF8E\U+FF9E\U+FF99\U+FF84
100
AcDbLine
 10
5142.607426254516
 20
-3971.071807792625
 30
0.0
 11
5135.607426254516
 21
-3971.071807792625
 31
0.0
  0
LINE
  5
89F28
330
18
100
AcDbEntity
  8
\U+FF77\U+FF6C\U+FF6F\U+FF8C\U+FF9F\U+FF8E\U+FF9E\U+FF99\U+FF84
100
AcDbLine
 10
5141.557426254516
 20
-3970.771807792623
 30
0.0
 11
5136.657426254515
 21
-3970.771807792623
 31
0.0
  0
LINE
  5
89F29
330
18
100
AcDbEntity
  8
\U+FF77\U+FF6C\U+FF6F\U+FF8C\U+FF9F\U+FF8E\U+FF9E\U+FF99\U+FF84
100
AcDbLine
 10
5135.607426254516
 20
-3971.071807792625
 30
0.0
 11
5136.657426254515
 21
-3970.771807792623
 31
0.0
  0
LINE
  5
89F2A
330
18
100
AcDbEntity
  8
\U+FF77\U+FF6C\U+FF6F\U+FF8C\U+FF9F\U+FF8E\U+FF9E\U+FF99\U+FF84
100
AcDbLine
 10
5135.607426254516
 20
-3971.071807792625
 30
0.0
 11
5135.607426254516
 21
-3971.571807792625
 31
0.0
  0
LINE
  5
89F2B
330
18
100
AcDbEntity
  8
\U+FF77\U+FF6C\U+FF6F\U+FF8C\U+FF9F\U+FF8E\U+FF9E\U+FF99\U+FF84
100
AcDbLine
 10
5142.607426254516
 20
-3971.071807792625
 30
0.0
 11
5142.607426254516
 21
-3971.571807792625
 31
0.0
  0
LINE
  5
89F2C
330
18
100
AcDbEntity
  8
\U+FF77\U+FF6C\U+FF6F\U+FF8C\U+FF9F\U+FF8E\U+FF9E\U+FF99\U+FF84
100
AcDbLine
 10
5142.607426254516
 20
-3971.071807792625
 30
0.0
 11
5141.557426254516
 21
-3970.771807792623
 31
0.0
  0
LINE
  5
89F2D
330
18
100
AcDbEntity
  8
\U+FF77\U+FF6C\U+FF6F\U+FF8C\U+FF9F\U+FF8E\U+FF9E\U+FF99\U+FF84
100
AcDbLine
 10
5142.607426254516
 20
-3971.571807792625
 30
0.0
 11
5135.607426254516
 21
-3971.571807792625
 31
0.0
  0
LINE
  5
89F2E
330
18
100
AcDbEntity
  8
\U+FF77\U+FF6C\U+FF6F\U+FF8C\U+FF9F\U+FF8E\U+FF9E\U+FF99\U+FF84
100
AcDbLine
 10
5340.107402559945
 20
-3971.071807792625
 30
0.0
 11
5333.107402559945
 21
-3971.071807792625
 31
0.0
  0
LINE
  5
89F2F
330
18
100
AcDbEntity
  8
\U+FF77\U+FF6C\U+FF6F\U+FF8C\U+FF9F\U+FF8E\U+FF9E\U+FF99\U+FF84
100
AcDbLine
 10
5339.057402559945
 20
-3970.771807792623
 30
0.0
 11
5334.157402559944
 21
-3970.771807792623
 31
0.0
  0
LINE
  5
89F30
330
18
100
AcDbEntity
  8
\U+FF77\U+FF6C\U+FF6F\U+FF8C\U+FF9F\U+FF8E\U+FF9E\U+FF99\U+FF84
100
AcDbLine
 10
5333.107402559945
 20
-3971.071807792625
 30
0.0
 11
5334.157402559944
 21
-3970.771807792623
 31
0.0
  0
LINE
  5
89F31
330
18
100
AcDbEntity
  8
\U+FF77\U+FF6C\U+FF6F\U+FF8C\U+FF9F\U+FF8E\U+FF9E\U+FF99\U+FF84
100
AcDbLine
 10
5333.107402559945
 20
-3971.071807792625
 30
0.0
 11
5333.107402559945
 21
-3971.571807792625
 31
0.0
  0
LINE
  5
89F32
330
18
100
AcDbEntity
  8
\U+FF77\U+FF6C\U+FF6F\U+FF8C\U+FF9F\U+FF8E\U+FF9E\U+FF99\U+FF84
100
AcDbLine
 10
5340.107402559945
 20
-3971.071807792625
 30
0.0
 11
5340.107402559945
 21
-3971.571807792625
 31
0.0
  0
LINE
  5
89F33
330
18
100
AcDbEntity
  8
\U+FF77\U+FF6C\U+FF6F\U+FF8C\U+FF9F\U+FF8E\U+FF9E\U+FF99\U+FF84
100
AcDbLine
 10
5340.107402559945
 20
-3971.071807792625
 30
0.0
 11
5339.057402559945
 21
-3970.771807792623
 31
0.0
  0
LINE
  5
89F34
330
18
100
AcDbEntity
  8
\U+FF77\U+FF6C\U+FF6F\U+FF8C\U+FF9F\U+FF8E\U+FF9E\U+FF99\U+FF84
100
AcDbLine
 10
5340.107402559945
 20
-3971.571807792625
 30
0.0
 11
5333.107402559945
 21
-3971.571807792625
 31
0.0
  0
LINE
  5
89F70
330
18
100
AcDbEntity
  8
\U+FF77\U+FF6C\U+FF6F\U+FF8C\U+FF9F\U+FF8E\U+FF9E\U+FF99\U+FF84
100
AcDbLine
 10
5438.857342711601
 20
-3971.071807792625
 30
0.0
 11
5431.857342711602
 21
-3971.071807792625
 31
0.0
  0
LINE
  5
89F71
330
18
100
AcDbEntity
  8
\U+FF77\U+FF6C\U+FF6F\U+FF8C\U+FF9F\U+FF8E\U+FF9E\U+FF99\U+FF84
100
AcDbLine
 10
5437.807342711602
 20
-3970.771807792623
 30
0.0
 11
5432.907342711601
 21
-3970.771807792623
 31
0.0
  0
LINE
  5
89F72
330
18
100
AcDbEntity
  8
\U+FF77\U+FF6C\U+FF6F\U+FF8C\U+FF9F\U+FF8E\U+FF9E\U+FF99\U+FF84
100
AcDbLine
 10
5431.857342711602
 20
-3971.071807792625
 30
0.0
 11
5432.907342711601
 21
-3970.771807792623
 31
0.0
  0
LINE
  5
89F73
330
18
100
AcDbEntity
  8
\U+FF77\U+FF6C\U+FF6F\U+FF8C\U+FF9F\U+FF8E\U+FF9E\U+FF99\U+FF84
100
AcDbLine
 10
5431.857342711602
 20
-3971.071807792625
 30
0.0
 11
5431.857342711602
 21
-3971.571807792625
 31
0.0
  0
LINE
  5
89F74
330
18
100
AcDbEntity
  8
\U+FF77\U+FF6C\U+FF6F\U+FF8C\U+FF9F\U+FF8E\U+FF9E\U+FF99\U+FF84
100
AcDbLine
 10
5438.857342711601
 20
-3971.071807792625
 30
0.0
 11
5438.857342711601
 21
-3971.571807792625
 31
0.0
  0
LINE
  5
89F75
330
18
100
AcDbEntity
  8
\U+FF77\U+FF6C\U+FF6F\U+FF8C\U+FF9F\U+FF8E\U+FF9E\U+FF99\U+FF84
100
AcDbLine
 10
5438.857342711601
 20
-3971.071807792625
 30
0.0
 11
5437.807342711602
 21
-3970.771807792623
 31
0.0
  0
LINE
  5
89F76
330
18
100
AcDbEntity
  8
\U+FF77\U+FF6C\U+FF6F\U+FF8C\U+FF9F\U+FF8E\U+FF9E\U+FF99\U+FF84
100
AcDbLine
 10
5438.857342711601
 20
-3971.571807792625
 30
0.0
 11
5431.857342711602
 21
-3971.571807792625
 31
0.0
  0
LINE
  5
8A77A
102
{ACAD_REACTORS
330
8A77E
102
}
330
18
100
AcDbEntity
  8
実線
100
AcDbLine
 10
6037.018560110706
 20
-3778.155077501092
 30
0.0
 11
6043.946763340981
 21
-3774.155077501092
 31
0.0
  0
LINE
  5
8A77B
102
{ACAD_REACTORS
330
8A77E
102
}
330
18
100
AcDbEntity
  8
実線
100
AcDbLine
 10
6038.482661725844
 20
-3772.690975885953
 30
0.0
 11
6042.482661725843
 21
-3779.61917911623
 31
0.0
  0
HATCH
  5
8A77E
330
18
100
AcDbEntity
  8
ハッチング
100
AcDbHatch
 10
0.0
 20
0.0
 30
0.0
210
0.0
220
0.0
230
1.0
  2
SOLID
 70
     1
 71
     1
 91
        3
 92
        7
 72
     1
 73
     1
 93
        4
 10
6040.482661725574
 20
-3776.155077500624
 42
0.0
 10
6038.482661725843
 20
-3772.690975885953
 42
0.26794919243071
 10
6036.482661725842
 20
-3776.155077501091
 42
0.129051449203545
 10
6036.998281027581
 20
-3778.11953446157
 42
0.0051152233530095
 97
        3
330
8A77B
330
852F7
330
852F2
 92
        7
 72
     1
 73
     1
 93
        4
 10
6042.482661725842
 20
-3779.61917911623
 42
0.2679491924314144
 10
6044.482661725842
 20
-3776.155077501091
 42
0.1316524975882206
 10
6043.94676334098
 20
-3774.155077501092
 42
0.0
 10
6040.482661725843
 20
-3776.155077501091
 42
0.0
 97
        3
330
852F7
330
8A77A
330
8A77B
 92
        7
 72
     1
 73
     1
 93
        3
 10
6037.018560110706
 20
-3778.155077501092
 42
0.0
 10
6040.482661728482
 20
-3776.155077499569
 42
-0.0051152232220893
 10
6036.998281027581
 20
-3778.11953446157
 42
0.0025575949835288
 97
        3
330
8A77A
330
852F2
330
852F7
 75
     0
 76
     1
 47
0.0
 98
        3
 10
6038.727251579013
 20
-3775.101419073655
 10
6042.55371660116
 20
-3776.692196667132
 10
6037.591135855737
 20
-3777.813361479625
1001
ACAD
1010
0.0
1020
0.0
1030
0.0
  0
LINE
  5
8A8D2
330
18
100
AcDbEntity
  8
中心線
100
AcDbLine
 10
5237.85726473665
 20
-3606.84711641043
 30
0.0
 11
5112.383596722445
 21
-3640.467678888328
 31
0.0
  0
HATCH
  5
8A8D4
330
18
100
AcDbEntity
  8
ハッチング
100
AcDbHatch
 10
0.0
 20
0.0
 30
0.0
210
0.0
220
0.0
230
1.0
  2
SOLID
 70
     1
 71
     0
 91
        2
 92
        7
 72
     1
 73
     1
 93
        4
 10
5131.605518868727
 20
-3635.317181220632
 42
-0.0090916605301096
 10
5130.640663879627
 20
-3631.435293168408
 42
0.34453169675017
 10
5127.605518868728
 20
-3635.317181220632
 42
0.0655434524767483
 10
5127.741815520939
 20
-3636.352457241938
 42
0.0
 97
        0
 92
        7
 72
     1
 73
     1
 93
        4
 10
5132.710872168622
 20
-3639.161422899093
 42
0.3343925964782338
 10
5135.605518868728
 20
-3635.317181220632
 42
0.0655434524767769
 10
5135.469222216516
 20
-3634.281905199327
 42
0.0
 10
5131.605518868727
 20
-3635.317181220632
 42
0.0090916605299005
 97
        0
 75
     0
 76
     1
 47
0.0
 98
        2
 10
5129.390628358659
 20
-3633.532467838303
 10
5133.233339389269
 20
-3636.302794395255
1001
ACAD
1010
0.0
1020
0.0
1030
0.0
  0
TEXT
  5
8B23D
330
18
100
AcDbEntity
  8
文字
100
AcDbText
 10
6052.198695675883
 20
-4022.181285821054
 30
0.0
 40
3.5
  1
τDISCモータ ND400-65-FSP（B）（INC） NMR-SFEIA2A-182AP（B）
 41
0.41
  7
まこ
100
AcDbText
  0
LINE
  5
8B23E
330
18
100
AcDbEntity
  8
文字
100
AcDbLine
 10
6082.238339190612
 20
-4020.872260778682
 30
0.0
 11
6086.511004663794
 21
-4020.872260778682
 31
0.0
  0
LINE
  5
8B23F
330
18
100
AcDbEntity
  8
文字
100
AcDbLine
 10
6082.238339190612
 20
-4019.937615206424
 30
0.0
 11
6086.511004663794
 21
-4019.937615206424
 31
0.0
  0
LINE
  5
8B240
330
18
100
AcDbEntity
  8
文字
100
AcDbLine
 10
6118.756276906705
 20
-4020.872260778682
 30
0.0
 11
6122.962181981868
 21
-4020.872260778682
 31
0.0
  0
LINE
  5
8B241
330
18
100
AcDbEntity
  8
文字
100
AcDbLine
 10
6118.756276906705
 20
-4019.937615206424
 30
0.0
 11
6122.962181981868
 21
-4019.937615206424
 31
0.0
  0
TEXT
  5
8B242
330
18
100
AcDbEntity
  8
文字
100
AcDbText
 10
6054.87279123314
 20
-4033.785957821779
 30
0.0
 40
6.0
  1
外形図（INC）_高精度_PIN
 41
0.6
  7
まこ
100
AcDbText
  0
TEXT
  5
8B243
330
18
100
AcDbEntity
  8
文字
100
AcDbText
 10
6053.024342051152
 20
-4045.143864589626
 30
0.0
 40
7.0
  1
ＳＥ－８１１１０Ｂ
 41
0.9529999999999999
  7
まこ
100
AcDbText
  0
CIRCLE
  5
8B256
330
18
100
AcDbEntity
  8
実線
100
AcDbCircle
 10
5131.605518868727
 20
-3635.317181220632
 30
0.0
 40
4.0
  0
CIRCLE
  5
8B259
330
18
100
AcDbEntity
  8
実線
100
AcDbCircle
 10
5237.857366406172
 20
-3606.84711106125
 30
0.0
 40
90.0
  0
CIRCLE
  5
8B25A
330
18
100
AcDbEntity
  8
実線
100
AcDbCircle
 10
5237.857366406172
 20
-3606.84711106125
 30
0.0
 40
142.5
  0
CIRCLE
  5
8B25B
330
18
100
AcDbEntity
  8
実線
100
AcDbCircle
 10
5237.857366406167
 20
-3606.847111061249
 30
0.0
 40
143.0
  0
CIRCLE
  5
8B25C
330
18
100
AcDbEntity
  8
実線
100
AcDbCircle
 10
5942.732661725833
 20
-3606.84711106125
 30
0.0
 40
84.0
  0
CIRCLE
  5
8B25D
330
18
100
AcDbEntity
  8
実線
100
AcDbCircle
 10
5942.732661725833
 20
-3606.84711106125
 30
0.0
 40
85.0
  0
VIEWPORT
  5
8B24B
102
{ACAD_XDICTIONARY
360
8B3CD
102
}
330
8B247
100
AcDbEntity
 67
     1
  8
0
100
AcDbViewport
 10
6.192644199596825
 20
3.722782080675053
 30
0.0
 40
9.89323859223165
 41
5.308375238280098
 68
     1
 69
     1
 12
6.192644199596825
 22
3.722782080675053
 13
0.0
 23
0.0
 14
0.5
 24
0.5
 15
0.0
 25
0.0
 16
0.0
 26
0.0
 36
1.0
 17
0.0
 27
0.0
 37
0.0
 42
50.0
 43
0.0
 44
0.0
 45
5.308375238280098
 50
0.0
 51
0.0
 72
   100
 90
   557168
  1

281
     0
 71
     1
 74
     0
110
0.0
120
0.0
130
0.0
111
1.0
121
0.0
131
0.0
112
0.0
122
1.0
132
0.0
 79
     0
146
0.0
  0
VIEWPORT
  5
8B24C
102
{ACAD_XDICTIONARY
360
8B24D
102
}
330
8B247
100
AcDbEntity
 67
     1
  8
0
100
AcDbViewport
 10
5.25
 20
3.5
 30
0.0
 40
8.4
 41
5.600000000000001
 68
     2
 69
     2
 12
5549.028669820436
 22
-3756.018101418722
 13
0.0
 23
0.0
 14
0.5
 24
0.5
 15
0.0
 25
0.0
 16
0.0
 26
0.0
 36
1.0
 17
0.0
 27
0.0
 37
0.0
 42
50.0
 43
0.0
 44
0.0
 45
872.4032659214492
 50
0.0
 51
0.0
 72
   100
341
E
 90
   557152
  1

281
     0
 71
     1
 74
     0
110
0.0
120
0.0
130
0.0
111
1.0
121
0.0
131
0.0
112
0.0
122
1.0
132
0.0
 79
     0
146
0.0
  0
ENDSEC
  0
SECTION
  2
OBJECTS
  0
DICTIONARY
  5
C
330
0
100
AcDbDictionary
281
     1
  3
ACAD_2007HEADERVARS_RT
350
8B3C7
  3
ACAD_CIP_PREVIOUS_PRODUCT_INFO
350
89073
  3
ACAD_COLOR
350
8B356
  3
ACAD_DETAILVIEWSTYLE
350
897AE
  3
ACAD_GROUP
350
D
  3
ACAD_IMAGE_VARS
350
897AB
  3
ACAD_LAYOUT
350
73F
  3
ACAD_MATERIAL
350
8B348
  3
ACAD_MLEADERSTYLE
350
8B34E
  3
ACAD_MLINESTYLE
350
1B
  3
ACAD_PLOTSETTINGS
350
740
  3
ACAD_PLOTSTYLENAME
350
73D
  3
ACAD_SCALELIST
350
89058
  3
ACAD_SECTIONVIEWSTYLE
350
897AF
  3
ACAD_TABLESTYLE
350
8B34C
  3
ACAD_VISUALSTYLE
350
8B32F
  3
AcadDim
350
8A8D6
  3
ACDB_RECOMPOSE_DATA
350
8B3C5
  3
AcDbVariableDictionary
350
11AC
  3
APPDATA
350
897A9
  3
CLOUDSETTINGS
350
8B104
  3
DimOffsetDictionary
350
898DF
  3
DWGPROPS
350
8B3C6
  3
FX_DICT_DIMENSION_PALETTE
350
8A8E8
  3
FX_DICT_DIMENSION_PALETTE_RECENTLIST
350
8A8E9
  0
DICTIONARY
  5
8B370
330
8
100
AcDbDictionary
280
     1
281
     1
  0
DICTIONARY
  5
1E591
330
2
100
AcDbDictionary
280
     1
281
     1
  3
ACAD_LAYERSTATES
360
1E615
  3
ACLYDICTIONARY
360
8B246
  0
DICTIONARY
  5
890C2
330
E
100
AcDbDictionary
280
     1
281
     1
  3
ADSK_XREC_LAYER_RECONCILED
360
890C3
  0
DICTIONARY
  5
890CA
330
8C6
100
AcDbDictionary
280
     1
281
     1
  3
ADSK_XREC_LAYER_RECONCILED
360
890CB
  0
DICTIONARY
  5
890D0
330
96A
100
AcDbDictionary
280
     1
281
     1
  3
ADSK_XREC_LAYER_RECONCILED
360
890D1
  0
DICTIONARY
  5
890D2
330
1521
100
AcDbDictionary
280
     1
281
     1
  3
ADSK_XREC_LAYER_RECONCILED
360
890D3
  0
DICTIONARY
  5
890D6
330
1523
100
AcDbDictionary
280
     1
281
     1
  3
ADSK_XREC_LAYER_RECONCILED
360
890D7
  0
DICTIONARY
  5
890D8
330
1526
100
AcDbDictionary
280
     1
281
     1
  3
ADSK_XREC_LAYER_RECONCILED
360
890D9
  0
DICTIONARY
  5
890DA
330
44F0
100
AcDbDictionary
280
     1
281
     1
  3
ADSK_XREC_LAYER_RECONCILED
360
890DB
  0
DICTIONARY
  5
890E2
330
7CE53
100
AcDbDictionary
280
     1
281
     1
  3
ADSK_XREC_LAYER_RECONCILED
360
890E3
  0
DICTIONARY
  5
890E4
330
86AD8
100
AcDbDictionary
280
     1
281
     1
  3
ADSK_XREC_LAYER_RECONCILED
360
890E5
  0
DICTIONARY
  5
8B3CD
330
8B24B
100
AcDbDictionary
280
     1
281
     1
  3
ACAD_XREC_ROUNDTRIP
360
8B3CE
  0
DICTIONARY
  5
8B24D
330
8B24C
100
AcDbDictionary
280
     1
281
     1
  3
ACAD_XREC_ROUNDTRIP
360
8B3CF
  3
ASDK_XREC_ANNOTATION_SCALE_INFO
360
8B24E
  0
DICTIONARY
  5
8B3C7
102
{ACAD_REACTORS
330
C
102
}
330
C
100
AcDbDictionary
281
     1
  3
INTERFERECOLOR
350
8B3C8
  0
XRECORD
  5
89073
102
{ACAD_REACTORS
330
C
102
}
330
C
100
AcDbXrecord
280
     1
300
ACDLT
300
2019
300
87085ACDLT_2019_0F
  0
DICTIONARY
  5
8B356
102
{ACAD_REACTORS
330
C
102
}
330
C
100
AcDbDictionary
281
     1
  0
DICTIONARY
  5
897AE
102
{ACAD_REACTORS
330
C
102
}
330
C
100
AcDbDictionary
281
     1
  3
Imperial24
350
8B358
  0
DICTIONARY
  5
D
102
{ACAD_REACTORS
330
C
102
}
330
C
100
AcDbDictionary
281
     1
  3
*A1
350
88C8C
  3
*A2
350
7BFC6
  3
*A3
350
7EEF3
  3
*A4
350
7D139
  3
*A5
350
88FFA
  3
*A6
350
88FFB
  3
*A7
350
88FFC
  0
RASTERVARIABLES
  5
897AB
102
{ACAD_REACTORS
330
C
102
}
330
C
100
AcDbRasterVariables
 90
        0
 70
     1
 71
     1
 72
     0
  0
DICTIONARY
  5
73F
102
{ACAD_REACTORS
330
C
102
}
330
C
100
AcDbDictionary
281
     1
  3
Model
350
741
  3
Sheet1
350
8B248
  0
DICTIONARY
  5
8B348
102
{ACAD_REACTORS
330
C
102
}
330
C
100
AcDbDictionary
281
     1
  3
ByBlock
350
8B34A
  3
ByLayer
350
8B349
  3
Global
350
8B34B
  0
DICTIONARY
  5
8B34E
102
{ACAD_REACTORS
330
C
102
}
330
C
100
AcDbDictionary
281
     1
  3
Standard
350
8B34F
  0
DICTIONARY
  5
1B
102
{ACAD_REACTORS
330
C
102
}
330
C
100
AcDbDictionary
281
     1
  3
STANDARD
350
1C
  0
DICTIONARY
  5
740
102
{ACAD_REACTORS
330
C
102
}
330
C
100
AcDbDictionary
281
     1
  0
ACDBDICTIONARYWDFLT
  5
73D
102
{ACAD_REACTORS
330
C
102
}
330
C
100
AcDbDictionary
281
     1
  3
Normal
350
73E
100
AcDbDictionaryWithDefault
340
73E
  0
DICTIONARY
  5
89058
102
{ACAD_REACTORS
330
C
102
}
330
C
100
AcDbDictionary
281
     1
  3
A0
350
89059
  3
A1
350
8905A
  3
A2
350
8905B
  3
A3
350
8905C
  3
A4
350
8905D
  3
A5
350
8905E
  3
A6
350
8905F
  3
A7
350
89060
  3
A8
350
89061
  3
A9
350
89062
  3
B0
350
89063
  3
B1
350
89064
  3
B2
350
89065
  3
B3
350
89066
  3
B4
350
89067
  3
B5
350
89068
  3
B6
350
89069
  0
DICTIONARY
  5
897AF
102
{ACAD_REACTORS
330
C
102
}
330
C
100
AcDbDictionary
281
     1
  3
Imperial24
350
8B357
  0
DICTIONARY
  5
8B34C
102
{ACAD_REACTORS
330
C
102
}
330
C
100
AcDbDictionary
281
     1
  3
Standard
350
8B34D
  0
DICTIONARY
  5
8B32F
102
{ACAD_REACTORS
330
C
102
}
330
C
100
AcDbDictionary
281
     1
  3
2dWireframe
350
8B334
  3
Basic
350
8B337
  3
Brighten
350
8B33B
  3
ColorChange
350
8B33F
  3
Conceptual
350
8B339
  3
Dim
350
8B33A
  3
EdgeColorOff
350
8B342
  3
Facepattern
350
8B33E
  3
Flat
350
8B330
  3
FlatWithEdges
350
8B331
  3
Gouraud
350
8B332
  3
GouraudWithEdges
350
8B333
  3
Hidden
350
8B336
  3
JitterOff
350
8B340
  3
Linepattern
350
8B33D
  3
OverhangOff
350
8B341
  3
Realistic
350
8B338
  3
Shaded
350
8B347
  3
Shaded with edges
350
8B346
  3
Shades of Gray
350
8B343
  3
Sketchy
350
8B344
  3
Thicken
350
8B33C
  3
Wireframe
350
8B335
  3
X-Ray
350
8B345
  0
XRECORD
  5
8A8D6
102
{ACAD_REACTORS
330
C
102
}
330
C
100
AcDbXrecord
280
     1
340
0
 72
     0
 71
     0
 70
     0
 69
     0
 68
     1
 67
     3
 66
     0
 65
     0
 64
     1
 63
     4
 62
     4
 61
     0
 60
     0
 40
0.0
  0
XRECORD
  5
8B3C5
102
{ACAD_REACTORS
330
C
102
}
330
C
100
AcDbXrecord
280
     1
 90
        1
330
8B34D
  0
DICTIONARY
  5
11AC
102
{ACAD_REACTORS
330
C
102
}
330
C
100
AcDbDictionary
281
     1
  3
CANNOSCALE
350
8B351
  3
CMLEADERSTYLE
350
8B353
  3
CTABLESTYLE
350
8B352
  3
CVIEWDETAILSTYLE
350
8B3B4
  3
CVIEWSECTIONSTYLE
350
8B3B5
  3
DGNFRAME
350
8B3BA
  3
DIMASSOC
350
11AD
  3
HIDETEXT
350
8B3B9
  3
INDEXCTL
350
89239
  3
LAYEREVAL
350
8B3B7
  3
LAYERNOTIFY
350
8B3B8
  3
LIGHTINGUNITS
350
8B3B6
  3
MSLTSCALE
350
8B354
  3
SORTENTS
350
AD08
  3
XCLIPFRAME
350
8B3C3
  0
DICTIONARY
  5
897A9
102
{ACAD_REACTORS
330
C
102
}
330
C
100
AcDbDictionary
281
     1
  0
XRECORD
  5
8B104
102
{ACAD_REACTORS
330
C
102
}
330
C
100
AcDbXrecord
280
     1
 40
1.0
  0
DICTIONARY
  5
898DF
102
{ACAD_REACTORS
330
C
102
}
330
C
100
AcDbDictionary
281
     1
  3
DIMRAILANGLE
350
898E2
  3
DIMRAILFIRSTOFFSET
350
898E0
  3
DIMRAILOFFSET
350
898E1
  3
DIMRAILSENABLED
350
898E3
  0
XRECORD
  5
8B3C6
102
{ACAD_REACTORS
330
C
102
}
330
C
100
AcDbXrecord
280
     1
  1
DWGPROPS COOKIE
  2

  3

  4

  6

  7

  8
NI0949
  9

300
=
301
=
302
=
303
=
304
=
305
=
306
=
307
=
308
=
309
=
 40
0.0172553472222222
 41
2452479.723113426
 42
2458544.675127315
  1

 90
        0
  0
DICTIONARY
  5
8A8E8
102
{ACAD_REACTORS
330
C
102
}
330
C
100
AcDbDictionary
281
     1
  0
DICTIONARY
  5
8A8E9
102
{ACAD_REACTORS
330
C
102
}
330
C
100
AcDbDictionary
281
     1
  3
0
350
8A8EA
  0
DICTIONARY
  5
1E615
102
{ACAD_REACTORS
330
1E591
102
}
330
1E591
100
AcDbDictionary
281
     1
  0
DICTIONARY
  5
8B246
102
{ACAD_REACTORS
330
1E591
102
}
330
1E591
100
AcDbDictionary
281
     1
1001
ACAD
1000
<All
  0
XRECORD
  5
890C3
102
{ACAD_REACTORS
330
890C2
102
}
330
890C2
100
AcDbXrecord
280
     1
290
     1
  0
XRECORD
  5
890CB
102
{ACAD_REACTORS
330
890CA
102
}
330
890CA
100
AcDbXrecord
280
     1
290
     1
  0
XRECORD
  5
890D1
102
{ACAD_REACTORS
330
890D0
102
}
330
890D0
100
AcDbXrecord
280
     1
290
     1
  0
XRECORD
  5
890D3
102
{ACAD_REACTORS
330
890D2
102
}
330
890D2
100
AcDbXrecord
280
     1
290
     1
  0
XRECORD
  5
890D7
102
{ACAD_REACTORS
330
890D6
102
}
330
890D6
100
AcDbXrecord
280
     1
290
     1
  0
XRECORD
  5
890D9
102
{ACAD_REACTORS
330
890D8
102
}
330
890D8
100
AcDbXrecord
280
     1
290
     1
  0
XRECORD
  5
890DB
102
{ACAD_REACTORS
330
890DA
102
}
330
890DA
100
AcDbXrecord
280
     1
290
     1
  0
XRECORD
  5
890E3
102
{ACAD_REACTORS
330
890E2
102
}
330
890E2
100
AcDbXrecord
280
     1
290
     1
  0
XRECORD
  5
890E5
102
{ACAD_REACTORS
330
890E4
102
}
330
890E4
100
AcDbXrecord
280
     1
290
     1
  0
XRECORD
  5
8B3CE
102
{ACAD_REACTORS
330
8B3CD
102
}
330
8B3CD
100
AcDbXrecord
280
     1
102
SHADEPLOT
 70
     0
  0
XRECORD
  5
8B3CF
102
{ACAD_REACTORS
330
8B24D
102
}
330
8B24D
100
AcDbXrecord
280
     1
102
SHADEPLOT
 70
     0
  0
XRECORD
  5
8B24E
102
{ACAD_REACTORS
330
8B24D
102
}
330
8B24D
100
AcDbXrecord
280
     1
 90
        1
340
89059
  0
XRECORD
  5
8B3C8
102
{ACAD_REACTORS
330
8B3C7
102
}
330
8B3C7
100
AcDbXrecord
280
     1
1004
1800000001000000000000C0000000000000000000000000
  0
ACDBDETAILVIEWSTYLE
  5
8B358
102
{ACAD_XDICTIONARY
360
8B409
102
}
102
{ACAD_REACTORS
330
897AE
102
}
330
897AE
100
AcDbModelDocViewStyle
 70
     0
  3
Imperial24
290
     0
100
AcDbDetailViewStyle
 70
     0
 71
     0
 90
        3
 71
     1
340
F
 40
0.24
340
0
 40
0.24
300

 40
0.36
280
     3
 71
     2
340
14
 90
       25
 71
     3
340
F
 40
0.24
 90
        1
 40
0.75
 90
        1
300
%<\AcVar ViewType \f "%tc1">% %<\AcVar ViewDetailId>%\PSCALE %<\AcVar ViewScale \f "%sn">%
 71
     4
340
14
 90
       25
340
14
 90
       25
280
     0
  0
GROUP
  5
88C8C
102
{ACAD_REACTORS
330
D
102
}
330
D
100
AcDbGroup
300

 70
     1
 71
     1
340
88C8B
340
88C8A
  0
GROUP
  5
7BFC6
102
{ACAD_REACTORS
330
D
102
}
330
D
100
AcDbGroup
300

 70
     1
 71
     1
340
7BF66
340
7BF65
340
7BF64
340
7BF63
340
7BF61
340
7BF40
340
7BEDB
340
7BFC5
340
7BF7E
340
7BFC4
340
7BFAA
340
7BF68
340
7BF67
340
7BF69
340
7BF8E
340
7BF82
340
7BF46
340
7BF43
340
7BF6A
340
7BF41
340
7BFC0
340
7BFBF
340
7BF8B
340
7BF8A
340
7BF89
340
7BF88
340
7BF87
340
7BF86
340
7BF85
340
7BF84
340
7BF7D
340
7BF7C
340
7BF7B
340
7BF7A
340
7BF79
340
7BF78
340
7BF77
340
7BF76
340
7BF75
340
7BF74
340
7BF73
340
7BF72
340
7BF71
340
7BF70
340
7BF6F
340
7BF6E
340
7BF6D
340
7BF6C
340
7BF83
340
7BF81
340
7BF80
340
7BF7F
340
7BF44
340
7BF42
340
7BF5F
340
7BF5E
340
7BF52
340
7BF90
340
7BF8F
340
7BF8D
340
7BF47
340
7BF45
340
7BFC1
340
7BFA9
340
7BF49
340
7BF48
340
7BF8C
340
7BFA7
340
7BEDC
340
7BFC3
340
7BFAB
340
7BF91
340
7BF4D
340
7BF4C
340
7BF5D
340
7BF5C
340
7BF51
340
7BF5B
340
7BF5A
340
7BF50
340
7BF92
340
7BF55
340
7BF54
340
7BF53
340
7BF59
340
7BF58
340
7BF4F
340
7BF57
340
7BF56
340
7BF4E
340
7BFC2
340
7BFA8
340
7BFA6
340
7BF4B
340
7BF4A
  0
GROUP
  5
7EEF3
102
{ACAD_REACTORS
330
D
102
}
330
D
100
AcDbGroup
300

 70
     1
 71
     1
340
7BF92
  0
GROUP
  5
7D139
102
{ACAD_REACTORS
330
D
102
}
330
D
100
AcDbGroup
300

 70
     1
 71
     1
340
7BEDC
340
7BFC2
340
7BFC1
340
7BF64
340
7BF40
340
7BF66
340
7BF61
340
7BEDB
340
7BF6A
340
7BF41
340
7BF7E
340
7BFC4
340
7BFAA
340
7BF69
340
7BF68
340
7BF67
340
7BF83
340
7BF82
340
7BF81
340
7BF80
340
7BF7F
340
7BF44
340
7BF43
340
7BF42
340
7BFC5
340
7BFC0
340
7BFBF
340
7BF8B
340
7BF8A
340
7BF89
340
7BF88
340
7BF87
340
7BF86
340
7BF85
340
7BF84
340
7BF7D
340
7BF7C
340
7BF7B
340
7BF7A
340
7BF79
340
7BF78
340
7BF77
340
7BF76
340
7BF75
340
7BF74
340
7BF73
340
7BF72
340
7BF71
340
7BF70
340
7BF6F
340
7BF6E
340
7BF6D
340
7BF6C
340
7BF90
340
7BF8F
340
7BF8E
340
7BF8D
340
7BF47
340
7BF46
340
7BF45
340
7BFA9
340
7BF8C
340
7BF49
340
7BF48
340
7BFA7
340
7BF92
340
7BF63
340
7BF5D
340
7BF5C
340
7BF51
340
7BFC3
340
7BFAB
340
7BF91
340
7BF4D
340
7BF4C
340
7BF5B
340
7BF5A
340
7BF50
340
7BF5F
340
7BF5E
340
7BF52
340
7BF55
340
7BF54
340
7BF53
340
7BF59
340
7BF58
340
7BF4F
340
7BF57
340
7BF56
340
7BF4E
340
7BFA8
340
7BFA6
340
7BF4B
340
7BF4A
340
7BF65
  0
GROUP
  5
88FFA
102
{ACAD_REACTORS
330
D
102
}
330
D
100
AcDbGroup
300

 70
     1
 71
     1
340
88FCE
340
88FCD
340
88FCC
340
88FD1
340
88FD0
340
88FCF
340
88FCB
340
88FCA
340
88FC9
340
88FC8
340
88FC7
340
88FC6
340
88FC5
340
88FC4
340
88FC3
340
88FC2
340
88FC1
340
88FC0
340
88FBC
340
88FBF
340
88FBE
340
88FBD
340
88FD3
340
88FD2
  0
GROUP
  5
88FFB
102
{ACAD_REACTORS
330
D
102
}
330
D
100
AcDbGroup
300

 70
     1
 71
     1
340
88FE9
340
88FE8
340
88FE7
340
88FE6
340
88FE5
340
88FE4
340
88FE3
340
88FE2
340
88FE1
340
88FE0
340
88FDF
340
88FDE
340
88FDD
340
88FDC
340
88FDB
340
88FDA
340
88FD9
340
88FD8
340
88FD7
340
88FD6
340
88FD5
340
88FD4
340
88FEB
340
88FEA
  0
GROUP
  5
88FFC
102
{ACAD_REACTORS
330
D
102
}
330
D
100
AcDbGroup
300

 70
     1
 71
     1
340
88FF9
340
88FF8
340
88FF7
340
88FF6
340
88FF5
340
88FF4
340
88FF3
340
88FF2
340
88FF1
340
88FF0
340
88FEF
340
88FEE
340
88FED
340
88FEC
  0
LAYOUT
  5
741
102
{ACAD_XDICTIONARY
360
8B3C9
102
}
102
{ACAD_REACTORS
330
73F
102
}
330
73F
100
AcDbPlotSettings
  1

  2
none_device
  4
Letter_(8.50_x_11.00_Inches)
  6

 40
6.349999904632568
 41
6.349999904632568
 42
6.350006103515625
 43
6.350006103515625
 44
215.8999938964844
 45
279.3999938964844
 46
0.0
 47
0.0
 48
0.0
 49
0.0
140
0.0
141
0.0
142
1.0
143
12.23701742156961
 70
 11952
 72
     0
 73
     1
 74
     0
  7
monochrome.ctb
 75
     0
147
0.0817192593219118
148
-140608.8724882723
149
90732.16331632794
100
AcDbLayout
  1
Model
 70
     1
 71
     0
 10
0.0
 20
0.0
 11
12.0
 21
9.0
 12
0.0
 22
0.0
 32
0.0
 14
4907.555680172309
 24
-4127.771676646104
 34
0.0
 15
6190.50165946856
 25
-3384.26452619134
 35
137.5
146
0.0
 13
0.0
 23
0.0
 33
0.0
 16
1.0
 26
0.0
 36
0.0
 17
0.0
 27
1.0
 37
0.0
 76
     0
330
18
1001
ACAD_PSEXT
1000
なし
1000
なし
1000
適切ではありません
1000
新しいプロッタ環境設定名を選択しない限り、レイアウトは印刷されません。
1070
     0
  0
LAYOUT
  5
8B248
102
{ACAD_XDICTIONARY
360
8B3CB
102
}
102
{ACAD_REACTORS
330
73F
102
}
330
73F
100
AcDbPlotSettings
  1

  2
none_device
  4
ANSI_A_(11.00_x_8.50_Inches)
  6

 40
6.349999999999999
 41
19.05
 42
6.349999999999999
 43
19.05
 44
279.4
 45
215.9
 46
0.0
 47
0.0
 48
0.0
 49
0.0
140
0.0
141
0.0
142
1.0
143
1.0
 70
   688
 72
     0
 73
     0
 74
     5
  7

 75
    16
147
1.0
148
0.0
149
0.0
100
AcDbLayout
  1
Sheet1
 70
     1
 71
     1
 10
-0.25
 20
-0.7500000000000001
 11
10.75
 21
7.75
 12
0.0
 22
0.0
 32
0.0
 14
1.049999999999999
 24
0.6999999999999993
 34
0.0
 15
9.449999999999999
 25
6.3
 35
0.0
146
0.0
 13
0.0
 23
0.0
 33
0.0
 16
1.0
 26
0.0
 36
0.0
 17
0.0
 27
1.0
 37
0.0
 76
     0
330
8B247
331
8B24B
  0
MATERIAL
  5
8B34A
102
{ACAD_XDICTIONARY
360
8B402
102
}
102
{ACAD_REACTORS
330
8B348
102
}
330
8B348
100
AcDbMaterial
  1
ByBlock
 73
     1
 78
     1
172
     1
176
     1
270
     1
274
     1
  0
MATERIAL
  5
8B349
102
{ACAD_XDICTIONARY
360
8B400
102
}
102
{ACAD_REACTORS
330
8B348
102
}
330
8B348
100
AcDbMaterial
  1
ByLayer
 73
     1
 78
     1
172
     1
176
     1
270
     1
274
     1
  0
MATERIAL
  5
8B34B
102
{ACAD_XDICTIONARY
360
8B404
102
}
102
{ACAD_REACTORS
330
8B348
102
}
330
8B348
100
AcDbMaterial
  1
Global
 73
     1
 78
     1
172
     1
176
     1
270
     1
274
     1
  0
MLEADERSTYLE
  5
8B34F
102
{ACAD_REACTORS
330
8B34E
102
}
330
8B34E
100
AcDbMLeaderStyle
170
     2
171
     1
172
     0
 90
        2
 40
0.0
 41
0.0
173
     1
 91
-1056964608
340
12
 92
       -2
290
     1
 42
0.09
291
     1
 43
0.36
  3
Standard
 44
0.18
300

342
F
174
     1
178
     6
175
     1
176
     0
 93
-1056964608
 45
0.18
292
     0
297
     0
 46
0.18
 94
-1056964608
 47
1.0
 49
1.0
140
1.0
293
     1
141
0.0
294
     1
177
     0
142
1.0
295
     0
296
     0
143
0.125
1001
ACAD_MLEADERVER
1070
     2
  0
MLINESTYLE
  5
1C
102
{ACAD_REACTORS
330
1B
102
}
330
1B
100
AcDbMlineStyle
  2
STANDARD
 70
     0
  3

 62
   256
 51
90.0
 52
90.0
 71
     2
 49
0.5
 62
   256
  6
BYLAYER
 49
-0.5
 62
   256
  6
BYLAYER
  0
ACDBPLACEHOLDER
  5
73E
102
{ACAD_REACTORS
330
73D
102
}
330
73D
  0
SCALE
  5
89059
102
{ACAD_REACTORS
330
89058
102
}
330
89058
100
AcDbScale
 70
     0
300
1:1
140
1.0
141
1.0
290
     1
  0
SCALE
  5
8905A
102
{ACAD_REACTORS
330
89058
102
}
330
89058
100
AcDbScale
 70
     0
300
1/128" = 1'-0"
140
0.0078125
141
12.0
290
     0
  0
SCALE
  5
8905B
102
{ACAD_REACTORS
330
89058
102
}
330
89058
100
AcDbScale
 70
     0
300
1/64" = 1'-0"
140
0.015625
141
12.0
290
     0
  0
SCALE
  5
8905C
102
{ACAD_REACTORS
330
89058
102
}
330
89058
100
AcDbScale
 70
     0
300
1/32" = 1'-0"
140
0.03125
141
12.0
290
     0
  0
SCALE
  5
8905D
102
{ACAD_REACTORS
330
89058
102
}
330
89058
100
AcDbScale
 70
     0
300
1/16" = 1'-0"
140
0.0625
141
12.0
290
     0
  0
SCALE
  5
8905E
102
{ACAD_REACTORS
330
89058
102
}
330
89058
100
AcDbScale
 70
     0
300
3/32" = 1'-0"
140
0.09375
141
12.0
290
     0
  0
SCALE
  5
8905F
102
{ACAD_REACTORS
330
89058
102
}
330
89058
100
AcDbScale
 70
     0
300
1/8" = 1'-0"
140
0.125
141
12.0
290
     0
  0
SCALE
  5
89060
102
{ACAD_REACTORS
330
89058
102
}
330
89058
100
AcDbScale
 70
     0
300
3/16" = 1'-0"
140
0.1875
141
12.0
290
     0
  0
SCALE
  5
89061
102
{ACAD_REACTORS
330
89058
102
}
330
89058
100
AcDbScale
 70
     0
300
1/4" = 1'-0"
140
0.25
141
12.0
290
     0
  0
SCALE
  5
89062
102
{ACAD_REACTORS
330
89058
102
}
330
89058
100
AcDbScale
 70
     0
300
3/8" = 1'-0"
140
0.375
141
12.0
290
     0
  0
SCALE
  5
89063
102
{ACAD_REACTORS
330
89058
102
}
330
89058
100
AcDbScale
 70
     0
300
1/2" = 1'-0"
140
0.5
141
12.0
290
     0
  0
SCALE
  5
89064
102
{ACAD_REACTORS
330
89058
102
}
330
89058
100
AcDbScale
 70
     0
300
3/4" = 1'-0"
140
0.75
141
12.0
290
     0
  0
SCALE
  5
89065
102
{ACAD_REACTORS
330
89058
102
}
330
89058
100
AcDbScale
 70
     0
300
1" = 1'-0"
140
1.0
141
12.0
290
     0
  0
SCALE
  5
89066
102
{ACAD_REACTORS
330
89058
102
}
330
89058
100
AcDbScale
 70
     0
300
1-1/2" = 1'-0"
140
1.5
141
12.0
290
     0
  0
SCALE
  5
89067
102
{ACAD_REACTORS
330
89058
102
}
330
89058
100
AcDbScale
 70
     0
300
3" = 1'-0"
140
3.0
141
12.0
290
     0
  0
SCALE
  5
89068
102
{ACAD_REACTORS
330
89058
102
}
330
89058
100
AcDbScale
 70
     0
300
6" = 1'-0"
140
6.0
141
12.0
290
     0
  0
SCALE
  5
89069
102
{ACAD_REACTORS
330
89058
102
}
330
89058
100
AcDbScale
 70
     0
300
1'-0" = 1'-0"
140
12.0
141
12.0
290
     0
  0
ACDBSECTIONVIEWSTYLE
  5
8B357
102
{ACAD_XDICTIONARY
360
8B407
102
}
102
{ACAD_REACTORS
330
897AF
102
}
330
897AF
100
AcDbModelDocViewStyle
 70
     0
  3
Imperial24
290
     0
100
AcDbSectionViewStyle
 70
     0
 71
     0
 90
       78
 71
     1
340
F
 40
0.24
340
0
340
0
 40
0.24
300
I, O, Q, S, X, Z
 40
0.48
 90
        3
 40
0.18
 90
        1
 71
     2
340
14
 90
       25
340
14
 90
       50
 40
0.24
 40
0.0
 40
0.24
 71
     3
340
F
 40
0.24
 90
        1
 40
0.75
 90
        1
300
%<\AcVar ViewType \f "%tc1">% %<\AcVar ViewSectionStartId>%-%<\AcVar ViewSectionEndId>%\PSCALE %<\AcVar ViewScale \f "%sn">%
 71
     4
300
ANSI31
 40
1.0
 90
        0
290
     0
290
     0
 90
        6
 40
0.0
 40
1.570796326794896
 40
0.2617993877991494
 40
1.308996938995747
 40
-0.2617993877991494
 40
1.832595714594046
  0
TABLESTYLE
  5
8B34D
102
{ACAD_XDICTIONARY
360
8B361
102
}
102
{ACAD_REACTORS
330
8B34C
102
}
330
8B34C
100
AcDbTableStyle
  3
Standard
 70
     0
 71
     0
 40
0.06
 41
0.06
280
     0
281
     0
  7
STANDARD
140
0.18
170
     2
 62
     0
 63
     7
283
     0
274
    -2
284
     1
 64
     0
275
    -2
285
     1
 65
     0
276
    -2
286
     1
 66
     0
277
    -2
287
     1
 67
     0
278
    -2
288
     1
 68
     0
279
    -2
289
     1
 69
     0
  7
STANDARD
140
0.25
170
     5
 62
     0
 63
     7
283
     0
274
    -2
284
     1
 64
     0
275
    -2
285
     1
 65
     0
276
    -2
286
     1
 66
     0
277
    -2
287
     1
 67
     0
278
    -2
288
     1
 68
     0
279
    -2
289
     1
 69
     0
  7
STANDARD
140
0.18
170
     5
 62
     0
 63
     7
283
     0
274
    -2
284
     1
 64
     0
275
    -2
285
     1
 65
     0
276
    -2
286
     1
 66
     0
277
    -2
287
     1
 67
     0
278
    -2
288
     1
 68
     0
279
    -2
289
     1
 69
     0
  0
VISUALSTYLE
  5
8B334
102
{ACAD_XDICTIONARY
360
8B3D8
102
}
102
{ACAD_REACTORS
330
8B32F
102
}
330
8B32F
100
AcDbVisualStyle
  2
2dWireframe
 70
     4
 71
     0
 72
     2
 73
     0
 90
        0
 40
-0.6
 41
-30.0
 62
     5
 63
     7
 74
     1
 91
        4
 64
     7
 65
   257
 75
     1
175
     1
 42
1.0
 92
        0
 66
   257
 43
1.0
 76
     1
 77
     6
 78
     2
 67
     7
 79
     5
170
     0
171
     0
290
     0
174
     0
 93
        1
 44
0.0
173
     0
291
     0
 45
0.0
1001
ACAD
1000
AcDbSavedByObjectVersion
1070
     0
  0
VISUALSTYLE
  5
8B337
102
{ACAD_XDICTIONARY
360
8B3DE
102
}
102
{ACAD_REACTORS
330
8B32F
102
}
330
8B32F
100
AcDbVisualStyle
  2
Basic
 70
     7
 71
     1
 72
     0
 73
     1
 90
        0
 40
-0.6
 41
-30.0
 62
     5
 63
     7
 74
     0
 91
        4
 64
     7
 65
   257
 75
     1
175
     1
 42
1.0
 92
        8
 66
     7
 43
1.0
 76
     1
 77
     6
 78
     2
 67
     7
 79
     5
170
     0
171
     0
290
     0
174
     0
 93
        1
 44
0.0
173
     0
291
     1
 45
0.0
1001
ACAD
1000
AcDbSavedByObjectVersion
1070
     0
  0
VISUALSTYLE
  5
8B33B
102
{ACAD_XDICTIONARY
360
8B3E6
102
}
102
{ACAD_REACTORS
330
8B32F
102
}
330
8B32F
100
AcDbVisualStyle
  2
Brighten
 70
    12
 71
     2
 72
     2
 73
     0
 90
        0
 40
-0.6
 41
-30.0
 62
     5
 63
     7
 74
     1
 91
        4
 64
     7
 65
   257
 75
     1
175
     1
 42
1.0
 92
        8
 66
     7
 43
1.0
 76
     1
 77
     6
 78
     2
 67
     7
 79
     5
170
     0
171
     0
290
     0
174
     0
 93
        1
 44
50.0
173
     0
291
     1
 45
0.0
1001
ACAD
1000
AcDbSavedByObjectVersion
1070
     0
  0
VISUALSTYLE
  5
8B33F
102
{ACAD_XDICTIONARY
360
8B3EE
102
}
102
{ACAD_REACTORS
330
8B32F
102
}
330
8B32F
100
AcDbVisualStyle
  2
ColorChange
 70
    16
 71
     2
 72
     2
 73
     3
 90
        0
 40
-0.6
 41
-30.0
 62
     5
 63
     8
 74
     1
 91
        4
 64
     7
 65
   257
 75
     1
175
     1
 42
1.0
 92
        8
 66
     8
 43
1.0
 76
     1
 77
     6
 78
     2
 67
     7
 79
     5
170
     0
171
     0
290
     0
174
     0
 93
        1
 44
0.0
173
     0
291
     1
 45
0.0
1001
ACAD
1000
AcDbSavedByObjectVersion
1070
     0
  0
VISUALSTYLE
  5
8B339
102
{ACAD_XDICTIONARY
360
8B3E2
102
}
102
{ACAD_REACTORS
330
8B32F
102
}
330
8B32F
100
AcDbVisualStyle
  2
Conceptual
 70
     9
 71
     3
 72
     2
 73
     0
 90
        0
 40
-0.6
 41
-30.0
 62
     5
 63
     7
 74
     2
 91
        2
 64
     7
 65
   257
 75
     1
175
     1
 42
179.0
 92
        8
 66
     7
 43
1.0
 76
     1
 77
     6
 78
     2
 67
     7
 79
     3
170
     0
171
     0
290
     0
174
     0
 93
        1
 44
0.0
173
     0
291
     0
 45
0.0
1001
ACAD
1000
AcDbSavedByObjectVersion
1070
     0
  0
VISUALSTYLE
  5
8B33A
102
{ACAD_XDICTIONARY
360
8B3E4
102
}
102
{ACAD_REACTORS
330
8B32F
102
}
330
8B32F
100
AcDbVisualStyle
  2
Dim
 70
    11
 71
     2
 72
     2
 73
     0
 90
        0
 40
-0.6
 41
-30.0
 62
     5
 63
     7
 74
     1
 91
        4
 64
     7
 65
   257
 75
     1
175
     1
 42
1.0
 92
        8
 66
     7
 43
1.0
 76
     1
 77
     6
 78
     2
 67
     7
 79
     5
170
     0
171
     0
290
     0
174
     0
 93
        1
 44
-50.0
173
     0
291
     1
 45
0.0
1001
ACAD
1000
AcDbSavedByObjectVersion
1070
     0
  0
VISUALSTYLE
  5
8B342
102
{ACAD_XDICTIONARY
360
8B3F4
102
}
102
{ACAD_REACTORS
330
8B32F
102
}
330
8B32F
100
AcDbVisualStyle
  2
EdgeColorOff
 70
    22
 71
     2
 72
     2
 73
     0
 90
        0
 40
-0.6
 41
-30.0
 62
     5
 63
     7
 74
     1
 91
        4
 64
     7
 65
   257
 75
     1
175
     1
 42
1.0
 92
        8
 66
     7
 43
1.0
 76
     1
 77
     6
 78
     2
 67
     7
 79
     5
170
     0
171
     0
290
     0
174
     0
 93
        1
 44
0.0
173
     0
291
     1
 45
0.0
1001
ACAD
1000
AcDbSavedByObjectVersion
1070
     0
  0
VISUALSTYLE
  5
8B33E
102
{ACAD_XDICTIONARY
360
8B3EC
102
}
102
{ACAD_REACTORS
330
8B32F
102
}
330
8B32F
100
AcDbVisualStyle
  2
Facepattern
 70
    15
 71
     2
 72
     2
 73
     0
 90
        0
 40
-0.6
 41
-30.0
 62
     5
 63
     7
 74
     1
 91
        4
 64
     7
 65
   257
 75
     1
175
     1
 42
1.0
 92
        8
 66
     7
 43
1.0
 76
     1
 77
     6
 78
     2
 67
     7
 79
     5
170
     0
171
     0
290
     0
174
     0
 93
        1
 44
0.0
173
     0
291
     1
 45
0.0
1001
ACAD
1000
AcDbSavedByObjectVersion
1070
     0
  0
VISUALSTYLE
  5
8B330
102
{ACAD_XDICTIONARY
360
8B3D0
102
}
102
{ACAD_REACTORS
330
8B32F
102
}
330
8B32F
100
AcDbVisualStyle
  2
Flat
 70
     0
 71
     2
 72
     1
 73
     1
 90
        2
 40
-0.6
 41
30.0
 62
     5
 63
     7
 74
     0
 91
        0
 64
     7
 65
   257
 75
     1
175
     1
 42
1.0
 92
        8
 66
     7
 43
1.0
 76
     1
 77
     6
 78
     2
 67
     7
 79
     5
170
     0
171
     0
290
     0
174
     0
 93
       13
 44
0.0
173
     0
291
     1
 45
0.0
1001
ACAD
1000
AcDbSavedByObjectVersion
1070
     0
  0
VISUALSTYLE
  5
8B331
102
{ACAD_XDICTIONARY
360
8B3D2
102
}
102
{ACAD_REACTORS
330
8B32F
102
}
330
8B32F
100
AcDbVisualStyle
  2
FlatWithEdges
 70
     1
 71
     2
 72
     1
 73
     1
 90
        2
 40
-0.6
 41
30.0
 62
     5
 63
     7
 74
     1
 91
        0
 64
     7
 65
   257
 75
     1
175
     1
 42
1.0
 92
        0
 66
   257
 43
1.0
 76
     1
 77
     6
 78
     2
 67
     7
 79
     5
170
     0
171
     0
290
     0
174
     0
 93
       13
 44
0.0
173
     0
291
     1
 45
0.0
1001
ACAD
1000
AcDbSavedByObjectVersion
1070
     0
  0
VISUALSTYLE
  5
8B332
102
{ACAD_XDICTIONARY
360
8B3D4
102
}
102
{ACAD_REACTORS
330
8B32F
102
}
330
8B32F
100
AcDbVisualStyle
  2
Gouraud
 70
     2
 71
     2
 72
     2
 73
     1
 90
        2
 40
-0.6
 41
30.0
 62
     5
 63
     7
 74
     0
 91
        0
 64
     7
 65
   257
 75
     1
175
     1
 42
1.0
 92
        0
 66
     7
 43
1.0
 76
     1
 77
     6
 78
     2
 67
     7
 79
     5
170
     0
171
     0
290
     0
174
     0
 93
       13
 44
0.0
173
     0
291
     1
 45
0.0
1001
ACAD
1000
AcDbSavedByObjectVersion
1070
     0
  0
VISUALSTYLE
  5
8B333
102
{ACAD_XDICTIONARY
360
8B3D6
102
}
102
{ACAD_REACTORS
330
8B32F
102
}
330
8B32F
100
AcDbVisualStyle
  2
GouraudWithEdges
 70
     3
 71
     2
 72
     2
 73
     1
 90
        2
 40
-0.6
 41
30.0
 62
     5
 63
     7
 74
     1
 91
        0
 64
     7
 65
   257
 75
     1
175
     1
 42
1.0
 92
        0
 66
   257
 43
1.0
 76
     1
 77
     6
 78
     2
 67
     7
 79
     5
170
     0
171
     0
290
     0
174
     0
 93
       13
 44
0.0
173
     0
291
     1
 45
0.0
1001
ACAD
1000
AcDbSavedByObjectVersion
1070
     0
  0
VISUALSTYLE
  5
8B336
102
{ACAD_XDICTIONARY
360
8B3DC
102
}
102
{ACAD_REACTORS
330
8B32F
102
}
330
8B32F
100
AcDbVisualStyle
  2
Hidden
 70
     6
 71
     1
 72
     2
 73
     2
 90
        0
 40
-0.6
 41
-30.0
 62
     5
 63
     7
 74
     2
 91
        2
 64
     7
 65
   257
 75
     2
175
     1
 42
40.0
 92
        0
 66
   257
 43
1.0
 76
     1
 77
     6
 78
     2
 67
     7
 79
     3
170
     0
171
     0
290
     0
174
     0
 93
        1
 44
0.0
173
     0
291
     0
 45
0.0
1001
ACAD
1000
AcDbSavedByObjectVersion
1070
     0
  0
VISUALSTYLE
  5
8B340
102
{ACAD_XDICTIONARY
360
8B3F0
102
}
102
{ACAD_REACTORS
330
8B32F
102
}
330
8B32F
100
AcDbVisualStyle
  2
JitterOff
 70
    20
 71
     2
 72
     2
 73
     0
 90
        0
 40
-0.6
 41
-30.0
 62
     5
 63
     7
 74
     1
 91
        4
 64
     7
 65
   257
 75
     1
175
     1
 42
1.0
 92
       10
 66
     7
 43
1.0
 76
     1
 77
     6
 78
     2
 67
     7
 79
     5
170
     0
171
     0
290
     0
174
     0
 93
        1
 44
0.0
173
     0
291
     1
 45
0.0
1001
ACAD
1000
AcDbSavedByObjectVersion
1070
     0
  0
VISUALSTYLE
  5
8B33D
102
{ACAD_XDICTIONARY
360
8B3EA
102
}
102
{ACAD_REACTORS
330
8B32F
102
}
330
8B32F
100
AcDbVisualStyle
  2
Linepattern
 70
    14
 71
     2
 72
     2
 73
     0
 90
        0
 40
-0.6
 41
-30.0
 62
     5
 63
     7
 74
     1
 91
        4
 64
     7
 65
   257
 75
     7
175
     7
 42
1.0
 92
        8
 66
     7
 43
1.0
 76
     1
 77
     6
 78
     2
 67
     7
 79
     5
170
     0
171
     0
290
     0
174
     0
 93
        1
 44
0.0
173
     0
291
     1
 45
0.0
1001
ACAD
1000
AcDbSavedByObjectVersion
1070
     0
  0
VISUALSTYLE
  5
8B341
102
{ACAD_XDICTIONARY
360
8B3F2
102
}
102
{ACAD_REACTORS
330
8B32F
102
}
330
8B32F
100
AcDbVisualStyle
  2
OverhangOff
 70
    21
 71
     2
 72
     2
 73
     0
 90
        0
 40
-0.6
 41
-30.0
 62
     5
 63
     7
 74
     1
 91
        4
 64
     7
 65
   257
 75
     1
175
     1
 42
1.0
 92
        9
 66
     7
 43
1.0
 76
     1
 77
     6
 78
     2
 67
     7
 79
     5
170
     0
171
     0
290
     0
174
     0
 93
        1
 44
0.0
173
     0
291
     1
 45
0.0
1001
ACAD
1000
AcDbSavedByObjectVersion
1070
     0
  0
VISUALSTYLE
  5
8B338
102
{ACAD_XDICTIONARY
360
8B3E0
102
}
102
{ACAD_REACTORS
330
8B32F
102
}
330
8B32F
100
AcDbVisualStyle
  2
Realistic
 70
     8
 71
     2
 72
     2
 73
     0
 90
        2
 40
-0.6
 41
30.0
 62
     5
 63
     7
 74
     0
 91
        0
 64
     7
 65
   257
 75
     1
175
     1
 42
1.0
 92
        8
 66
   257
 43
1.0
 76
     1
 77
     6
 78
     2
 67
     7
 79
     3
170
     0
171
     0
290
     0
174
     0
 93
       13
 44
0.0
173
     0
291
     0
 45
0.0
1001
ACAD
1000
AcDbSavedByObjectVersion
1070
     0
  0
VISUALSTYLE
  5
8B347
102
{ACAD_XDICTIONARY
360
8B3FE
102
}
102
{ACAD_REACTORS
330
8B32F
102
}
330
8B32F
100
AcDbVisualStyle
  2
Shaded
 70
    27
 71
     2
 72
     2
 73
     1
 90
        2
 40
-0.6
 41
30.0
 62
     5
 63
     7
 74
     0
 91
        4
 64
     7
 65
   257
 75
     1
175
     1
 42
1.0
 92
        8
 66
   257
 43
1.0
 76
     1
 77
     6
 78
     2
 67
     8
 79
     3
170
     0
171
     0
290
     0
174
     0
 93
        5
 44
0.0
173
     0
291
     0
 45
0.0
1001
ACAD
1000
AcDbSavedByObjectVersion
1070
     0
  0
VISUALSTYLE
  5
8B346
102
{ACAD_XDICTIONARY
360
8B3FC
102
}
102
{ACAD_REACTORS
330
8B32F
102
}
330
8B32F
100
AcDbVisualStyle
  2
Shaded with edges
 70
    26
 71
     2
 72
     2
 73
     1
 90
        2
 40
-0.6
 41
30.0
 62
     5
 63
     7
 74
     1
 91
        2
 64
     7
 65
   257
 75
     2
175
     1
 42
1.0
 92
        8
 66
   257
 43
1.0
 76
     1
 77
     6
 78
     2
 67
     7
 79
     3
170
     0
171
     0
290
     0
174
     0
 93
        5
 44
0.0
173
     0
291
     0
 45
0.0
1001
ACAD
1000
AcDbSavedByObjectVersion
1070
     0
  0
VISUALSTYLE
  5
8B343
102
{ACAD_XDICTIONARY
360
8B3F6
102
}
102
{ACAD_REACTORS
330
8B32F
102
}
330
8B32F
100
AcDbVisualStyle
  2
Shades of Gray
 70
    23
 71
     2
 72
     2
 73
     3
 90
        0
 40
-0.6
 41
-30.0
 62
     5
 63
     7
 74
     2
 91
        2
 64
     7
 65
     7
 75
     1
175
     1
 42
40.0
 92
        8
 66
     7
 43
1.0
 76
     1
 77
     6
 78
     2
 67
     7
 79
     3
170
     0
171
     0
290
     0
174
     0
 93
        1
 44
0.0
173
     0
291
     0
 45
0.0
1001
ACAD
1000
AcDbSavedByObjectVersion
1070
     0
  0
VISUALSTYLE
  5
8B344
102
{ACAD_XDICTIONARY
360
8B3F8
102
}
102
{ACAD_REACTORS
330
8B32F
102
}
330
8B32F
100
AcDbVisualStyle
  2
Sketchy
 70
    24
 71
     1
 72
     2
 73
     2
 90
        0
 40
-0.6
 41
-30.0
 62
     5
 63
     7
 74
     2
 91
        2
 64
     7
 65
     7
 75
     1
175
     1
 42
40.0
 92
       11
 66
     7
 43
1.0
 76
     1
 77
     6
 78
     2
 67
     7
 79
     6
170
     0
171
     0
290
     0
174
     0
 93
        1
 44
0.0
173
     0
291
     0
 45
0.0
1001
ACAD
1000
AcDbSavedByObjectVersion
1070
     0
  0
VISUALSTYLE
  5
8B33C
102
{ACAD_XDICTIONARY
360
8B3E8
102
}
102
{ACAD_REACTORS
330
8B32F
102
}
330
8B32F
100
AcDbVisualStyle
  2
Thicken
 70
    13
 71
     2
 72
     2
 73
     0
 90
        0
 40
-0.6
 41
-30.0
 62
     5
 63
     7
 74
     1
 91
        4
 64
     7
 65
   257
 75
     1
175
     1
 42
1.0
 92
       12
 66
     7
 43
1.0
 76
     1
 77
     6
 78
     2
 67
     7
 79
     5
170
     0
171
     0
290
     0
174
     0
 93
        1
 44
0.0
173
     0
291
     1
 45
0.0
1001
ACAD
1000
AcDbSavedByObjectVersion
1070
     0
  0
VISUALSTYLE
  5
8B335
102
{ACAD_XDICTIONARY
360
8B3DA
102
}
102
{ACAD_REACTORS
330
8B32F
102
}
330
8B32F
100
AcDbVisualStyle
  2
Wireframe
 70
     5
 71
     0
 72
     2
 73
     0
 90
        0
 40
-0.6
 41
-30.0
 62
     5
 63
     7
 74
     1
 91
        4
 64
     7
 65
   257
 75
     1
175
     1
 42
1.0
 92
        0
 66
   257
 43
1.0
 76
     1
 77
     6
 78
     2
 67
     7
 79
     3
170
     0
171
     0
290
     0
174
     0
 93
        1
 44
0.0
173
     0
291
     0
 45
0.0
1001
ACAD
1000
AcDbSavedByObjectVersion
1070
     0
  0
VISUALSTYLE
  5
8B345
102
{ACAD_XDICTIONARY
360
8B3FA
102
}
102
{ACAD_REACTORS
330
8B32F
102
}
330
8B32F
100
AcDbVisualStyle
  2
X-Ray
 70
    25
 71
     2
 72
     2
 73
     1
 90
        1
 40
0.5
 41
-30.0
 62
     5
 63
     7
 74
     1
 91
        0
 64
     7
 65
   257
 75
     1
175
     1
 42
1.0
 92
        8
 66
     7
 43
1.0
 76
     1
 77
     6
 78
     2
 67
     7
 79
     3
170
     0
171
     0
290
     0
174
     0
 93
       13
 44
0.0
173
     0
291
     0
 45
0.0
1001
ACAD
1000
AcDbSavedByObjectVersion
1070
     0
  0
DICTIONARYVAR
  5
8B351
102
{ACAD_REACTORS
330
11AC
102
}
330
11AC
100
DictionaryVariables
280
     0
  1
1:1
  0
DICTIONARYVAR
  5
8B353
102
{ACAD_REACTORS
330
11AC
102
}
330
11AC
100
DictionaryVariables
280
     0
  1
STANDARD
  0
DICTIONARYVAR
  5
8B352
102
{ACAD_REACTORS
330
11AC
102
}
330
11AC
100
DictionaryVariables
280
     0
  1
STANDARD
  0
DICTIONARYVAR
  5
8B3B4
102
{ACAD_REACTORS
330
11AC
102
}
330
11AC
100
DictionaryVariables
280
     0
  1
Imperial24
  0
DICTIONARYVAR
  5
8B3B5
102
{ACAD_REACTORS
330
11AC
102
}
330
11AC
100
DictionaryVariables
280
     0
  1
Imperial24
  0
DICTIONARYVAR
  5
8B3BA
102
{ACAD_REACTORS
330
11AC
102
}
330
11AC
100
DictionaryVariables
280
     0
  1
2
  0
DICTIONARYVAR
  5
11AD
102
{ACAD_REACTORS
330
11AC
102
}
330
11AC
100
DictionaryVariables
280
     0
  1
1
  0
DICTIONARYVAR
  5
8B3B9
102
{ACAD_REACTORS
330
11AC
102
}
330
11AC
100
DictionaryVariables
280
     0
  1
1
  0
DICTIONARYVAR
  5
89239
102
{ACAD_REACTORS
330
11AC
102
}
330
11AC
100
DictionaryVariables
280
     0
  1
0
  0
DICTIONARYVAR
  5
8B3B7
102
{ACAD_REACTORS
330
11AC
102
}
330
11AC
100
DictionaryVariables
280
     0
  1
0
  0
DICTIONARYVAR
  5
8B3B8
102
{ACAD_REACTORS
330
11AC
102
}
330
11AC
100
DictionaryVariables
280
     0
  1
0
  0
DICTIONARYVAR
  5
8B3B6
102
{ACAD_REACTORS
330
11AC
102
}
330
11AC
100
DictionaryVariables
280
     0
  1
2
  0
DICTIONARYVAR
  5
8B354
102
{ACAD_REACTORS
330
11AC
102
}
330
11AC
100
DictionaryVariables
280
     0
  1
0
  0
DICTIONARYVAR
  5
AD08
102
{ACAD_REACTORS
330
11AC
102
}
330
11AC
100
DictionaryVariables
280
     0
  1
96
  0
DICTIONARYVAR
  5
8B3C3
102
{ACAD_REACTORS
330
11AC
102
}
330
11AC
100
DictionaryVariables
280
     0
  1
2
  0
DICTIONARYVAR
  5
898E2
102
{ACAD_REACTORS
330
898DF
102
}
330
898DF
100
DictionaryVariables
280
     0
  1
0.261799
  0
DICTIONARYVAR
  5
898E0
102
{ACAD_REACTORS
330
898DF
102
}
330
898DF
100
DictionaryVariables
280
     0
  1
0.400000
  0
DICTIONARYVAR
  5
898E1
102
{ACAD_REACTORS
330
898DF
102
}
330
898DF
100
DictionaryVariables
280
     0
  1
0.250000
  0
DICTIONARYVAR
  5
898E3
102
{ACAD_REACTORS
330
898DF
102
}
330
898DF
100
DictionaryVariables
280
     0
  1
0
  0
XRECORD
  5
8A8EA
102
{ACAD_REACTORS
330
8A8E9
102
}
330
8A8E9
100
AcDbXrecord
280
     1
290
     0
290
     0
  0
DICTIONARY
  5
8B409
330
8B358
100
AcDbDictionary
280
     1
281
     1
  3
ACAD_XREC_ROUNDTRIP
360
8B40A
  0
DICTIONARY
  5
8B3C9
330
741
100
AcDbDictionary
280
     1
281
     1
  3
ACAD_XREC_ROUNDTRIP
360
8B3CA
  0
DICTIONARY
  5
8B3CB
330
8B248
100
AcDbDictionary
280
     1
281
     1
  3
ACAD_XREC_ROUNDTRIP
360
8B3CC
  0
DICTIONARY
  5
8B402
330
8B34A
100
AcDbDictionary
280
     1
281
     1
  3
ACAD_XREC_ROUNDTRIP
360
8B403
  0
DICTIONARY
  5
8B400
330
8B349
100
AcDbDictionary
280
     1
281
     1
  3
ACAD_XREC_ROUNDTRIP
360
8B401
  0
DICTIONARY
  5
8B404
330
8B34B
100
AcDbDictionary
280
     1
281
     1
  3
ACAD_XREC_ROUNDTRIP
360
8B405
  0
DICTIONARY
  5
8B407
330
8B357
100
AcDbDictionary
280
     1
281
     1
  3
ACAD_XREC_ROUNDTRIP
360
8B408
  0
DICTIONARY
  5
8B361
330
8B34D
100
AcDbDictionary
280
     1
281
     1
  3
ACAD_ROUNDTRIP_2008_TABLESTYLE_CELLSTYLEMAP
360
8B3C4
  3
ACAD_XREC_ROUNDTRIP
360
8B406
  0
DICTIONARY
  5
8B3D8
330
8B334
100
AcDbDictionary
280
     1
281
     1
  3
ACAD_XREC_ROUNDTRIP
360
8B3D9
  0
DICTIONARY
  5
8B3DE
330
8B337
100
AcDbDictionary
280
     1
281
     1
  3
ACAD_XREC_ROUNDTRIP
360
8B3DF
  0
DICTIONARY
  5
8B3E6
330
8B33B
100
AcDbDictionary
280
     1
281
     1
  3
ACAD_XREC_ROUNDTRIP
360
8B3E7
  0
DICTIONARY
  5
8B3EE
330
8B33F
100
AcDbDictionary
280
     1
281
     1
  3
ACAD_XREC_ROUNDTRIP
360
8B3EF
  0
DICTIONARY
  5
8B3E2
330
8B339
100
AcDbDictionary
280
     1
281
     1
  3
ACAD_XREC_ROUNDTRIP
360
8B3E3
  0
DICTIONARY
  5
8B3E4
330
8B33A
100
AcDbDictionary
280
     1
281
     1
  3
ACAD_XREC_ROUNDTRIP
360
8B3E5
  0
DICTIONARY
  5
8B3F4
330
8B342
100
AcDbDictionary
280
     1
281
     1
  3
ACAD_XREC_ROUNDTRIP
360
8B3F5
  0
DICTIONARY
  5
8B3EC
330
8B33E
100
AcDbDictionary
280
     1
281
     1
  3
ACAD_XREC_ROUNDTRIP
360
8B3ED
  0
DICTIONARY
  5
8B3D0
330
8B330
100
AcDbDictionary
280
     1
281
     1
  3
ACAD_XREC_ROUNDTRIP
360
8B3D1
  0
DICTIONARY
  5
8B3D2
330
8B331
100
AcDbDictionary
280
     1
281
     1
  3
ACAD_XREC_ROUNDTRIP
360
8B3D3
  0
DICTIONARY
  5
8B3D4
330
8B332
100
AcDbDictionary
280
     1
281
     1
  3
ACAD_XREC_ROUNDTRIP
360
8B3D5
  0
DICTIONARY
  5
8B3D6
330
8B333
100
AcDbDictionary
280
     1
281
     1
  3
ACAD_XREC_ROUNDTRIP
360
8B3D7
  0
DICTIONARY
  5
8B3DC
330
8B336
100
AcDbDictionary
280
     1
281
     1
  3
ACAD_XREC_ROUNDTRIP
360
8B3DD
  0
DICTIONARY
  5
8B3F0
330
8B340
100
AcDbDictionary
280
     1
281
     1
  3
ACAD_XREC_ROUNDTRIP
360
8B3F1
  0
DICTIONARY
  5
8B3EA
330
8B33D
100
AcDbDictionary
280
     1
281
     1
  3
ACAD_XREC_ROUNDTRIP
360
8B3EB
  0
DICTIONARY
  5
8B3F2
330
8B341
100
AcDbDictionary
280
     1
281
     1
  3
ACAD_XREC_ROUNDTRIP
360
8B3F3
  0
DICTIONARY
  5
8B3E0
330
8B338
100
AcDbDictionary
280
     1
281
     1
  3
ACAD_XREC_ROUNDTRIP
360
8B3E1
  0
DICTIONARY
  5
8B3FE
330
8B347
100
AcDbDictionary
280
     1
281
     1
  3
ACAD_XREC_ROUNDTRIP
360
8B3FF
  0
DICTIONARY
  5
8B3FC
330
8B346
100
AcDbDictionary
280
     1
281
     1
  3
ACAD_XREC_ROUNDTRIP
360
8B3FD
  0
DICTIONARY
  5
8B3F6
330
8B343
100
AcDbDictionary
280
     1
281
     1
  3
ACAD_XREC_ROUNDTRIP
360
8B3F7
  0
DICTIONARY
  5
8B3F8
330
8B344
100
AcDbDictionary
280
     1
281
     1
  3
ACAD_XREC_ROUNDTRIP
360
8B3F9
  0
DICTIONARY
  5
8B3E8
330
8B33C
100
AcDbDictionary
280
     1
281
     1
  3
ACAD_XREC_ROUNDTRIP
360
8B3E9
  0
DICTIONARY
  5
8B3DA
330
8B335
100
AcDbDictionary
280
     1
281
     1
  3
ACAD_XREC_ROUNDTRIP
360
8B3DB
  0
DICTIONARY
  5
8B3FA
330
8B345
100
AcDbDictionary
280
     1
281
     1
  3
ACAD_XREC_ROUNDTRIP
360
8B3FB
  0
XRECORD
  5
8B40A
102
{ACAD_REACTORS
330
8B409
102
}
330
8B409
100
AcDbXrecord
280
     1
102
DISPLAYNAME
  1
Imperial24
102
FLAGS
 90
        0
  0
XRECORD
  5
8B3CA
102
{ACAD_REACTORS
330
8B3C9
102
}
330
8B3C9
100
AcDbXrecord
280
     1
102
SHADEPLOT
 70
     0
102
SHADEPLOTRESLEVEL
 70
     2
102
SHADEPLOTCUSTOMDPI
 70
   300
  0
XRECORD
  5
8B3CC
102
{ACAD_REACTORS
330
8B3CB
102
}
330
8B3CB
100
AcDbXrecord
280
     1
102
SHADEPLOT
 70
     0
102
SHADEPLOTRESLEVEL
 70
     2
102
SHADEPLOTCUSTOMDPI
 70
   300
  0
XRECORD
  5
8B403
102
{ACAD_REACTORS
330
8B402
102
}
330
8B402
100
AcDbXrecord
280
     1
102
MATERIAL
148
0.0
149
0.0
149
0.0
 93
        0
 94
      127
282
     0
 72
     1
 77
     1
171
     1
175
     1
179
     1
273
     0
  0
XRECORD
  5
8B401
102
{ACAD_REACTORS
330
8B400
102
}
330
8B400
100
AcDbXrecord
280
     1
102
MATERIAL
148
0.0
149
0.0
149
0.0
 93
        0
 94
      127
282
     0
 72
     1
 77
     1
171
     1
175
     1
179
     1
273
     0
  0
XRECORD
  5
8B405
102
{ACAD_REACTORS
330
8B404
102
}
330
8B404
100
AcDbXrecord
280
     1
102
MATERIAL
148
0.0
149
0.0
149
0.0
 93
        0
 94
      127
282
     0
 72
     1
 77
     1
171
     1
175
     1
179
     1
273
     0
  0
XRECORD
  5
8B408
102
{ACAD_REACTORS
330
8B407
102
}
330
8B407
100
AcDbXrecord
280
     1
102
DISPLAYNAME
  1
Imperial24
102
FLAGS
 90
        0
  0
CELLSTYLEMAP
  5
8B3C4
102
{ACAD_REACTORS
330
8B361
102
}
330
8B361
100
AcDbCellStyleMap
 90
        3
300
CELLSTYLE
  1
TABLEFORMAT_BEGIN
 90
        5
170
     1
 91
        0
 92
    32768
 62
   257
 93
        1
300
CONTENTFORMAT
  1
CONTENTFORMAT_BEGIN
 90
        0
 91
        0
 92
        4
 93
        0
300

 40
0.0
140
1.0
 94
        5
 62
     0
340
F
144
0.25
309
CONTENTFORMAT_END
171
     1
301
MARGIN
  1
CELLMARGIN_BEGIN
 40
0.06
 40
0.06
 40
0.06
 40
0.06
 40
0.06
 40
0.06
309
CELLMARGIN_END
 94
        6
 95
        1
302
GRIDFORMAT
  1
GRIDFORMAT_BEGIN
 90
        0
 91
        1
 62
     0
 92
       -2
340
12
 93
        0
 40
0.045
309
GRIDFORMAT_END
 95
        2
302
GRIDFORMAT
  1
GRIDFORMAT_BEGIN
 90
        0
 91
        1
 62
     0
 92
       -2
340
12
 93
        0
 40
0.045
309
GRIDFORMAT_END
 95
        4
302
GRIDFORMAT
  1
GRIDFORMAT_BEGIN
 90
        0
 91
        1
 62
     0
 92
       -2
340
12
 93
        0
 40
0.045
309
GRIDFORMAT_END
 95
        8
302
GRIDFORMAT
  1
GRIDFORMAT_BEGIN
 90
        0
 91
        1
 62
     0
 92
       -2
340
12
 93
        0
 40
0.045
309
GRIDFORMAT_END
 95
       16
302
GRIDFORMAT
  1
GRIDFORMAT_BEGIN
 90
        0
 91
        1
 62
     0
 92
       -2
340
12
 93
        0
 40
0.045
309
GRIDFORMAT_END
 95
       32
302
GRIDFORMAT
  1
GRIDFORMAT_BEGIN
 90
        0
 91
        1
 62
     0
 92
       -2
340
12
 93
        0
 40
0.045
309
GRIDFORMAT_END
309
TABLEFORMAT_END
  1
CELLSTYLE_BEGIN
 90
        1
 91
        1
300
_TITLE
309
CELLSTYLE_END
300
CELLSTYLE
  1
TABLEFORMAT_BEGIN
 90
        5
170
     1
 91
        0
 92
        0
 62
   257
 93
        1
300
CONTENTFORMAT
  1
CONTENTFORMAT_BEGIN
 90
        0
 91
        0
 92
        4
 93
        0
300

 40
0.0
140
1.0
 94
        5
 62
     0
340
F
144
0.18
309
CONTENTFORMAT_END
171
     1
301
MARGIN
  1
CELLMARGIN_BEGIN
 40
0.06
 40
0.06
 40
0.06
 40
0.06
 40
0.06
 40
0.06
309
CELLMARGIN_END
 94
        6
 95
        1
302
GRIDFORMAT
  1
GRIDFORMAT_BEGIN
 90
        0
 91
        1
 62
     0
 92
       -2
340
12
 93
        0
 40
0.045
309
GRIDFORMAT_END
 95
        2
302
GRIDFORMAT
  1
GRIDFORMAT_BEGIN
 90
        0
 91
        1
 62
     0
 92
       -2
340
12
 93
        0
 40
0.045
309
GRIDFORMAT_END
 95
        4
302
GRIDFORMAT
  1
GRIDFORMAT_BEGIN
 90
        0
 91
        1
 62
     0
 92
       -2
340
12
 93
        0
 40
0.045
309
GRIDFORMAT_END
 95
        8
302
GRIDFORMAT
  1
GRIDFORMAT_BEGIN
 90
        0
 91
        1
 62
     0
 92
       -2
340
12
 93
        0
 40
0.045
309
GRIDFORMAT_END
 95
       16
302
GRIDFORMAT
  1
GRIDFORMAT_BEGIN
 90
        0
 91
        1
 62
     0
 92
       -2
340
12
 93
        0
 40
0.045
309
GRIDFORMAT_END
 95
       32
302
GRIDFORMAT
  1
GRIDFORMAT_BEGIN
 90
        0
 91
        1
 62
     0
 92
       -2
340
12
 93
        0
 40
0.045
309
GRIDFORMAT_END
309
TABLEFORMAT_END
  1
CELLSTYLE_BEGIN
 90
        2
 91
        1
300
_HEADER
309
CELLSTYLE_END
300
CELLSTYLE
  1
TABLEFORMAT_BEGIN
 90
        5
170
     1
 91
        0
 92
        0
 62
   257
 93
        1
300
CONTENTFORMAT
  1
CONTENTFORMAT_BEGIN
 90
        0
 91
        0
 92
        4
 93
        0
300

 40
0.0
140
1.0
 94
        2
 62
     0
340
F
144
0.18
309
CONTENTFORMAT_END
171
     1
301
MARGIN
  1
CELLMARGIN_BEGIN
 40
0.06
 40
0.06
 40
0.06
 40
0.06
 40
0.06
 40
0.06
309
CELLMARGIN_END
 94
        6
 95
        1
302
GRIDFORMAT
  1
GRIDFORMAT_BEGIN
 90
        0
 91
        1
 62
     0
 92
       -2
340
12
 93
        0
 40
0.045
309
GRIDFORMAT_END
 95
        2
302
GRIDFORMAT
  1
GRIDFORMAT_BEGIN
 90
        0
 91
        1
 62
     0
 92
       -2
340
12
 93
        0
 40
0.045
309
GRIDFORMAT_END
 95
        4
302
GRIDFORMAT
  1
GRIDFORMAT_BEGIN
 90
        0
 91
        1
 62
     0
 92
       -2
340
12
 93
        0
 40
0.045
309
GRIDFORMAT_END
 95
        8
302
GRIDFORMAT
  1
GRIDFORMAT_BEGIN
 90
        0
 91
        1
 62
     0
 92
       -2
340
12
 93
        0
 40
0.045
309
GRIDFORMAT_END
 95
       16
302
GRIDFORMAT
  1
GRIDFORMAT_BEGIN
 90
        0
 91
        1
 62
     0
 92
       -2
340
12
 93
        0
 40
0.045
309
GRIDFORMAT_END
 95
       32
302
GRIDFORMAT
  1
GRIDFORMAT_BEGIN
 90
        0
 91
        1
 62
     0
 92
       -2
340
12
 93
        0
 40
0.045
309
GRIDFORMAT_END
309
TABLEFORMAT_END
  1
CELLSTYLE_BEGIN
 90
        3
 91
        2
300
_DATA
309
CELLSTYLE_END
  0
XRECORD
  5
8B406
102
{ACAD_REACTORS
330
8B361
102
}
330
8B361
100
AcDbXrecord
280
     1
102
ACAD_ROUNDTRIP_PRE2007_TABLESTYLE
 90
        4
 91
        0
  1

 92
        4
 93
        0
  2

 94
        4
 95
        0
  3

  0
XRECORD
  5
8B3D9
102
{ACAD_REACTORS
330
8B3D8
102
}
330
8B3D8
100
AcDbXrecord
280
     1
102
RTVSPost2010Prop28
280
     1
102
RTVSPost2010PropOp28
 70
     1
102
RTVSPost2010Prop29
280
     1
102
RTVSPost2010PropOp29
 70
     1
102
RTVSPost2010Prop30
280
     0
102
RTVSPost2010PropOp30
 70
     1
102
RTVSPost2010Prop31
280
     0
102
RTVSPost2010PropOp31
 70
     1
102
RTVSPost2010Prop32
280
     0
102
RTVSPost2010PropOp32
 70
     1
102
RTVSPost2010Prop33
280
     0
102
RTVSPost2010PropOp33
 70
     1
102
RTVSPost2010Prop34
280
     0
102
RTVSPost2010PropOp34
 70
     1
102
RTVSPost2010Prop35
280
     0
102
RTVSPost2010PropOp35
 70
     1
102
RTVSPost2010Prop36
280
     0
102
RTVSPost2010PropOp36
 70
     1
102
RTVSPost2010Prop37
 90
       50
102
RTVSPost2010PropOp37
 70
     1
102
RTVSPost2010Prop38
140
0.0
102
RTVSPost2010PropOp38
 70
     1
102
RTVSPost2010Prop39
140
1.0
102
RTVSPost2010PropOp39
 70
     1
102
RTVSPost2010Prop40
 90
        0
102
RTVSPost2010PropOp40
 70
     1
102
RTVSPost2010Prop41ColorIndex
 90
       18
102
RTVSPost2010Prop41ColorRGB
 90
        0
102
RTVSPost2010PropOp41
 70
     1
102
RTVSPost2010Prop42
 90
       50
102
RTVSPost2010PropOp42
 70
     1
102
RTVSPost2010Prop43
 90
        3
102
RTVSPost2010PropOp43
 70
     1
102
RTVSPost2010Prop44ColorIndex
 90
        5
102
RTVSPost2010Prop44ColorRGB
 90
      255
102
RTVSPost2010PropOp44
 70
     1
102
RTVSPost2010Prop45
280
     0
102
RTVSPost2010PropOp45
 70
     1
102
RTVSPost2010Prop46
 90
       50
102
RTVSPost2010PropOp46
 70
     1
102
RTVSPost2010Prop47
 90
       50
102
RTVSPost2010PropOp47
 70
     1
102
RTVSPost2010Prop48
 90
       50
102
RTVSPost2010PropOp48
 70
     1
102
RTVSPost2010Prop49
280
     0
102
RTVSPost2010PropOp49
 70
     1
102
RTVSPost2010Prop50
 90
       50
102
RTVSPost2010PropOp50
 70
     1
102
RTVSPost2010Prop51ColorIndex
 90
      256
102
RTVSPost2010Prop51ColorRGB
 90
-16777216
102
RTVSPost2010PropOp51
 70
     0
102
RTVSPost2010Prop52
140
1.0
102
RTVSPost2010PropOp52
 70
     0
102
RTVSPost2010Prop53
 90
        2
102
RTVSPost2010PropOp53
 70
     1
102
RTVSPost2010Prop54
  1
strokes_ogs.tif
102
RTVSPost2010PropOp54
 70
     1
102
RTVSPost2010Prop55
280
     0
102
RTVSPost2010PropOp55
 70
     1
102
RTVSPost2010Prop56
140
1.0
102
RTVSPost2010PropOp56
 70
     1
102
RTVSPost2010Prop57
140
1.0
102
RTVSPost2010PropOp57
 70
     1
102
RTVSPropertyOp0
 70
     1
102
RTVSPropertyOp1
 70
     1
102
RTVSPropertyOp2
 70
     1
102
RTVSPropertyOp3
 70
     1
102
RTVSPropertyOp4
 70
     1
102
RTVSPropertyOp5
 70
     1
102
RTVSPropertyOp6
 70
     1
102
RTVSPropertyOp7
 70
     1
102
RTVSPropertyOp8
 70
     1
102
RTVSPropertyOp9
 70
     1
102
RTVSPropertyOp10
 70
     1
102
RTVSPropertyOp11
 70
     1
102
RTVSPropertyOp12
 70
     1
102
RTVSPropertyOp13
 70
     1
102
RTVSPropertyOp14
 70
     1
102
RTVSPropertyOp15
 70
     1
102
RTVSPropertyOp16
 70
     1
102
RTVSPropertyOp17
 70
     1
102
RTVSPropertyOp18
 70
     1
102
RTVSPropertyOp19
 70
     1
102
RTVSPropertyOp20
 70
     1
102
RTVSPropertyOp21
 70
     1
102
RTVSPropertyOp22
 70
     1
102
RTVSPropertyOp23
 70
     1
102
RTVSPropertyOp24
 70
     1
102
RTVSPropertyOp25
 70
     1
102
RTVSPropertyOp26
 70
     1
102
RTVSPropertyOp27
 70
     1
102
RTVSPropertyOp28
 70
     1
102
RTVSPropertyOp29
 70
     1
102
RTVSPropertyOp30
 70
     1
102
RTVSPropertyOp31
 70
     1
102
RTVSPropertyOp32
 70
     1
102
RTVSPropertyOp33
 70
     1
102
RTVSPropertyOp34
 70
     1
102
RTVSPropertyOp35
 70
     1
102
RTVSPropertyOp36
 70
     1
102
RTVSPropertyOp37
 70
     1
102
RTVSPropertyOp38
 70
     1
102
RTVSPropertyOp39
 70
     1
102
RTVSPropertyOp40
 70
     1
102
RTVSPropertyOp41
 70
     1
102
RTVSPropertyOp42
 70
     1
102
RTVSPropertyOp43
 70
     1
102
RTVSPropertyOp44
 70
     1
102
RTVSPropertyOp45
 70
     1
102
RTVSPropertyOp46
 70
     1
102
RTVSPropertyOp47
 70
     1
102
RTVSPropertyOp48
 70
     1
102
RTVSPropertyOp49
 70
     1
102
RTVSPropertyOp50
 70
     1
102
RTVSPropertyOp51
 70
     0
102
RTVSPropertyOp52
 70
     0
102
RTVSPropertyOp53
 70
     1
102
RTVSPropertyOp54
 70
     1
102
RTVSPropertyOp55
 70
     1
102
RTVSPropertyOp56
 70
     1
102
RTVSPropertyOp57
 70
     1
102
RTVSPropertyOp58
 70
     1
102
RTVSPropertyOp59
 70
     1
102
RTVSPropertyOp60
 70
     1
102
RTVSPropertyOp61
 70
     1
102
RTVSPropertyOp62
 70
     1
  0
XRECORD
  5
8B3DF
102
{ACAD_REACTORS
330
8B3DE
102
}
330
8B3DE
100
AcDbXrecord
280
     1
102
RTVSPost2010Prop28
280
     0
102
RTVSPost2010PropOp28
 70
     1
102
RTVSPost2010Prop29
280
     1
102
RTVSPost2010PropOp29
 70
     1
102
RTVSPost2010Prop30
280
     1
102
RTVSPost2010PropOp30
 70
     1
102
RTVSPost2010Prop31
280
     0
102
RTVSPost2010PropOp31
 70
     1
102
RTVSPost2010Prop32
280
     0
102
RTVSPost2010PropOp32
 70
     1
102
RTVSPost2010Prop33
280
     0
102
RTVSPost2010PropOp33
 70
     1
102
RTVSPost2010Prop34
280
     0
102
RTVSPost2010PropOp34
 70
     1
102
RTVSPost2010Prop35
280
     0
102
RTVSPost2010PropOp35
 70
     1
102
RTVSPost2010Prop36
280
     0
102
RTVSPost2010PropOp36
 70
     1
102
RTVSPost2010Prop37
 90
       50
102
RTVSPost2010PropOp37
 70
     1
102
RTVSPost2010Prop38
140
0.0
102
RTVSPost2010PropOp38
 70
     1
102
RTVSPost2010Prop39
140
1.0
102
RTVSPost2010PropOp39
 70
     1
102
RTVSPost2010Prop40
 90
        0
102
RTVSPost2010PropOp40
 70
     1
102
RTVSPost2010Prop41ColorIndex
 90
       18
102
RTVSPost2010Prop41ColorRGB
 90
        0
102
RTVSPost2010PropOp41
 70
     1
102
RTVSPost2010Prop42
 90
       50
102
RTVSPost2010PropOp42
 70
     1
102
RTVSPost2010Prop43
 90
        3
102
RTVSPost2010PropOp43
 70
     1
102
RTVSPost2010Prop44ColorIndex
 90
        5
102
RTVSPost2010Prop44ColorRGB
 90
      255
102
RTVSPost2010PropOp44
 70
     1
102
RTVSPost2010Prop45
280
     0
102
RTVSPost2010PropOp45
 70
     1
102
RTVSPost2010Prop46
 90
       50
102
RTVSPost2010PropOp46
 70
     1
102
RTVSPost2010Prop47
 90
       50
102
RTVSPost2010PropOp47
 70
     1
102
RTVSPost2010Prop48
 90
       50
102
RTVSPost2010PropOp48
 70
     1
102
RTVSPost2010Prop49
280
     0
102
RTVSPost2010PropOp49
 70
     1
102
RTVSPost2010Prop50
 90
       50
102
RTVSPost2010PropOp50
 70
     1
102
RTVSPost2010Prop51ColorIndex
 90
      256
102
RTVSPost2010Prop51ColorRGB
 90
-16777216
102
RTVSPost2010PropOp51
 70
     0
102
RTVSPost2010Prop52
140
1.0
102
RTVSPost2010PropOp52
 70
     0
102
RTVSPost2010Prop53
 90
        2
102
RTVSPost2010PropOp53
 70
     1
102
RTVSPost2010Prop54
  1
strokes_ogs.tif
102
RTVSPost2010PropOp54
 70
     1
102
RTVSPost2010Prop55
280
     0
102
RTVSPost2010PropOp55
 70
     1
102
RTVSPost2010Prop56
140
1.0
102
RTVSPost2010PropOp56
 70
     1
102
RTVSPost2010Prop57
140
1.0
102
RTVSPost2010PropOp57
 70
     1
102
RTVSPropertyOp0
 70
     1
102
RTVSPropertyOp1
 70
     1
102
RTVSPropertyOp2
 70
     1
102
RTVSPropertyOp3
 70
     1
102
RTVSPropertyOp4
 70
     1
102
RTVSPropertyOp5
 70
     1
102
RTVSPropertyOp6
 70
     1
102
RTVSPropertyOp7
 70
     1
102
RTVSPropertyOp8
 70
     1
102
RTVSPropertyOp9
 70
     1
102
RTVSPropertyOp10
 70
     1
102
RTVSPropertyOp11
 70
     1
102
RTVSPropertyOp12
 70
     1
102
RTVSPropertyOp13
 70
     1
102
RTVSPropertyOp14
 70
     1
102
RTVSPropertyOp15
 70
     1
102
RTVSPropertyOp16
 70
     1
102
RTVSPropertyOp17
 70
     1
102
RTVSPropertyOp18
 70
     1
102
RTVSPropertyOp19
 70
     1
102
RTVSPropertyOp20
 70
     1
102
RTVSPropertyOp21
 70
     1
102
RTVSPropertyOp22
 70
     1
102
RTVSPropertyOp23
 70
     1
102
RTVSPropertyOp24
 70
     1
102
RTVSPropertyOp25
 70
     1
102
RTVSPropertyOp26
 70
     1
102
RTVSPropertyOp27
 70
     1
102
RTVSPropertyOp28
 70
     1
102
RTVSPropertyOp29
 70
     1
102
RTVSPropertyOp30
 70
     1
102
RTVSPropertyOp31
 70
     1
102
RTVSPropertyOp32
 70
     1
102
RTVSPropertyOp33
 70
     1
102
RTVSPropertyOp34
 70
     1
102
RTVSPropertyOp35
 70
     1
102
RTVSPropertyOp36
 70
     1
102
RTVSPropertyOp37
 70
     1
102
RTVSPropertyOp38
 70
     1
102
RTVSPropertyOp39
 70
     1
102
RTVSPropertyOp40
 70
     1
102
RTVSPropertyOp41
 70
     1
102
RTVSPropertyOp42
 70
     1
102
RTVSPropertyOp43
 70
     1
102
RTVSPropertyOp44
 70
     1
102
RTVSPropertyOp45
 70
     1
102
RTVSPropertyOp46
 70
     1
102
RTVSPropertyOp47
 70
     1
102
RTVSPropertyOp48
 70
     1
102
RTVSPropertyOp49
 70
     1
102
RTVSPropertyOp50
 70
     1
102
RTVSPropertyOp51
 70
     0
102
RTVSPropertyOp52
 70
     0
102
RTVSPropertyOp53
 70
     1
102
RTVSPropertyOp54
 70
     1
102
RTVSPropertyOp55
 70
     1
102
RTVSPropertyOp56
 70
     1
102
RTVSPropertyOp57
 70
     1
102
RTVSPropertyOp58
 70
     1
102
RTVSPropertyOp59
 70
     1
102
RTVSPropertyOp60
 70
     1
102
RTVSPropertyOp61
 70
     1
102
RTVSPropertyOp62
 70
     1
  0
XRECORD
  5
8B3E7
102
{ACAD_REACTORS
330
8B3E6
102
}
330
8B3E6
100
AcDbXrecord
280
     1
102
RTVSPost2010Prop28
280
     0
102
RTVSPost2010PropOp28
 70
     1
102
RTVSPost2010Prop29
280
     1
102
RTVSPost2010PropOp29
 70
     1
102
RTVSPost2010Prop30
280
     1
102
RTVSPost2010PropOp30
 70
     1
102
RTVSPost2010Prop31
280
     0
102
RTVSPost2010PropOp31
 70
     1
102
RTVSPost2010Prop32
280
     0
102
RTVSPost2010PropOp32
 70
     1
102
RTVSPost2010Prop33
280
     0
102
RTVSPost2010PropOp33
 70
     1
102
RTVSPost2010Prop34
280
     0
102
RTVSPost2010PropOp34
 70
     1
102
RTVSPost2010Prop35
280
     0
102
RTVSPost2010PropOp35
 70
     1
102
RTVSPost2010Prop36
280
     0
102
RTVSPost2010PropOp36
 70
     1
102
RTVSPost2010Prop37
 90
       50
102
RTVSPost2010PropOp37
 70
     1
102
RTVSPost2010Prop38
140
0.0
102
RTVSPost2010PropOp38
 70
     1
102
RTVSPost2010Prop39
140
1.0
102
RTVSPost2010PropOp39
 70
     1
102
RTVSPost2010Prop40
 90
        0
102
RTVSPost2010PropOp40
 70
     1
102
RTVSPost2010Prop41ColorIndex
 90
       18
102
RTVSPost2010Prop41ColorRGB
 90
        0
102
RTVSPost2010PropOp41
 70
     1
102
RTVSPost2010Prop42
 90
       50
102
RTVSPost2010PropOp42
 70
     1
102
RTVSPost2010Prop43
 90
        3
102
RTVSPost2010PropOp43
 70
     1
102
RTVSPost2010Prop44ColorIndex
 90
        5
102
RTVSPost2010Prop44ColorRGB
 90
      255
102
RTVSPost2010PropOp44
 70
     1
102
RTVSPost2010Prop45
280
     0
102
RTVSPost2010PropOp45
 70
     1
102
RTVSPost2010Prop46
 90
       50
102
RTVSPost2010PropOp46
 70
     1
102
RTVSPost2010Prop47
 90
       50
102
RTVSPost2010PropOp47
 70
     1
102
RTVSPost2010Prop48
 90
       50
102
RTVSPost2010PropOp48
 70
     1
102
RTVSPost2010Prop49
280
     0
102
RTVSPost2010PropOp49
 70
     1
102
RTVSPost2010Prop50
 90
       50
102
RTVSPost2010PropOp50
 70
     1
102
RTVSPost2010Prop51ColorIndex
 90
      256
102
RTVSPost2010Prop51ColorRGB
 90
-16777216
102
RTVSPost2010PropOp51
 70
     0
102
RTVSPost2010Prop52
140
1.0
102
RTVSPost2010PropOp52
 70
     0
102
RTVSPost2010Prop53
 90
        2
102
RTVSPost2010PropOp53
 70
     1
102
RTVSPost2010Prop54
  1
strokes_ogs.tif
102
RTVSPost2010PropOp54
 70
     1
102
RTVSPost2010Prop55
280
     0
102
RTVSPost2010PropOp55
 70
     1
102
RTVSPost2010Prop56
140
1.0
102
RTVSPost2010PropOp56
 70
     1
102
RTVSPost2010Prop57
140
1.0
102
RTVSPost2010PropOp57
 70
     1
102
RTVSPropertyOp0
 70
     1
102
RTVSPropertyOp1
 70
     1
102
RTVSPropertyOp2
 70
     1
102
RTVSPropertyOp3
 70
     1
102
RTVSPropertyOp4
 70
     1
102
RTVSPropertyOp5
 70
     1
102
RTVSPropertyOp6
 70
     1
102
RTVSPropertyOp7
 70
     1
102
RTVSPropertyOp8
 70
     1
102
RTVSPropertyOp9
 70
     1
102
RTVSPropertyOp10
 70
     1
102
RTVSPropertyOp11
 70
     1
102
RTVSPropertyOp12
 70
     1
102
RTVSPropertyOp13
 70
     1
102
RTVSPropertyOp14
 70
     1
102
RTVSPropertyOp15
 70
     1
102
RTVSPropertyOp16
 70
     1
102
RTVSPropertyOp17
 70
     1
102
RTVSPropertyOp18
 70
     1
102
RTVSPropertyOp19
 70
     1
102
RTVSPropertyOp20
 70
     1
102
RTVSPropertyOp21
 70
     1
102
RTVSPropertyOp22
 70
     1
102
RTVSPropertyOp23
 70
     1
102
RTVSPropertyOp24
 70
     1
102
RTVSPropertyOp25
 70
     1
102
RTVSPropertyOp26
 70
     1
102
RTVSPropertyOp27
 70
     1
102
RTVSPropertyOp28
 70
     1
102
RTVSPropertyOp29
 70
     1
102
RTVSPropertyOp30
 70
     1
102
RTVSPropertyOp31
 70
     1
102
RTVSPropertyOp32
 70
     1
102
RTVSPropertyOp33
 70
     1
102
RTVSPropertyOp34
 70
     1
102
RTVSPropertyOp35
 70
     1
102
RTVSPropertyOp36
 70
     1
102
RTVSPropertyOp37
 70
     1
102
RTVSPropertyOp38
 70
     1
102
RTVSPropertyOp39
 70
     1
102
RTVSPropertyOp40
 70
     1
102
RTVSPropertyOp41
 70
     1
102
RTVSPropertyOp42
 70
     1
102
RTVSPropertyOp43
 70
     1
102
RTVSPropertyOp44
 70
     1
102
RTVSPropertyOp45
 70
     1
102
RTVSPropertyOp46
 70
     1
102
RTVSPropertyOp47
 70
     1
102
RTVSPropertyOp48
 70
     1
102
RTVSPropertyOp49
 70
     1
102
RTVSPropertyOp50
 70
     1
102
RTVSPropertyOp51
 70
     0
102
RTVSPropertyOp52
 70
     0
102
RTVSPropertyOp53
 70
     1
102
RTVSPropertyOp54
 70
     1
102
RTVSPropertyOp55
 70
     1
102
RTVSPropertyOp56
 70
     1
102
RTVSPropertyOp57
 70
     1
102
RTVSPropertyOp58
 70
     1
102
RTVSPropertyOp59
 70
     1
102
RTVSPropertyOp60
 70
     1
102
RTVSPropertyOp61
 70
     1
102
RTVSPropertyOp62
 70
     1
  0
XRECORD
  5
8B3EF
102
{ACAD_REACTORS
330
8B3EE
102
}
330
8B3EE
100
AcDbXrecord
280
     1
102
RTVSPost2010Prop28
280
     0
102
RTVSPost2010PropOp28
 70
     1
102
RTVSPost2010Prop29
280
     1
102
RTVSPost2010PropOp29
 70
     1
102
RTVSPost2010Prop30
280
     1
102
RTVSPost2010PropOp30
 70
     1
102
RTVSPost2010Prop31
280
     0
102
RTVSPost2010PropOp31
 70
     1
102
RTVSPost2010Prop32
280
     0
102
RTVSPost2010PropOp32
 70
     1
102
RTVSPost2010Prop33
280
     0
102
RTVSPost2010PropOp33
 70
     1
102
RTVSPost2010Prop34
280
     0
102
RTVSPost2010PropOp34
 70
     1
102
RTVSPost2010Prop35
280
     0
102
RTVSPost2010PropOp35
 70
     1
102
RTVSPost2010Prop36
280
     0
102
RTVSPost2010PropOp36
 70
     1
102
RTVSPost2010Prop37
 90
       50
102
RTVSPost2010PropOp37
 70
     1
102
RTVSPost2010Prop38
140
0.0
102
RTVSPost2010PropOp38
 70
     1
102
RTVSPost2010Prop39
140
1.0
102
RTVSPost2010PropOp39
 70
     1
102
RTVSPost2010Prop40
 90
        0
102
RTVSPost2010PropOp40
 70
     1
102
RTVSPost2010Prop41ColorIndex
 90
       18
102
RTVSPost2010Prop41ColorRGB
 90
        0
102
RTVSPost2010PropOp41
 70
     1
102
RTVSPost2010Prop42
 90
       50
102
RTVSPost2010PropOp42
 70
     1
102
RTVSPost2010Prop43
 90
        3
102
RTVSPost2010PropOp43
 70
     1
102
RTVSPost2010Prop44ColorIndex
 90
        5
102
RTVSPost2010Prop44ColorRGB
 90
      255
102
RTVSPost2010PropOp44
 70
     1
102
RTVSPost2010Prop45
280
     0
102
RTVSPost2010PropOp45
 70
     1
102
RTVSPost2010Prop46
 90
       50
102
RTVSPost2010PropOp46
 70
     1
102
RTVSPost2010Prop47
 90
       50
102
RTVSPost2010PropOp47
 70
     1
102
RTVSPost2010Prop48
 90
       50
102
RTVSPost2010PropOp48
 70
     1
102
RTVSPost2010Prop49
280
     0
102
RTVSPost2010PropOp49
 70
     1
102
RTVSPost2010Prop50
 90
       50
102
RTVSPost2010PropOp50
 70
     1
102
RTVSPost2010Prop51ColorIndex
 90
      256
102
RTVSPost2010Prop51ColorRGB
 90
-16777216
102
RTVSPost2010PropOp51
 70
     0
102
RTVSPost2010Prop52
140
1.0
102
RTVSPost2010PropOp52
 70
     0
102
RTVSPost2010Prop53
 90
        2
102
RTVSPost2010PropOp53
 70
     1
102
RTVSPost2010Prop54
  1
strokes_ogs.tif
102
RTVSPost2010PropOp54
 70
     1
102
RTVSPost2010Prop55
280
     0
102
RTVSPost2010PropOp55
 70
     1
102
RTVSPost2010Prop56
140
1.0
102
RTVSPost2010PropOp56
 70
     1
102
RTVSPost2010Prop57
140
1.0
102
RTVSPost2010PropOp57
 70
     1
102
RTVSPropertyOp0
 70
     1
102
RTVSPropertyOp1
 70
     1
102
RTVSPropertyOp2
 70
     1
102
RTVSPropertyOp3
 70
     1
102
RTVSPropertyOp4
 70
     1
102
RTVSPropertyOp5
 70
     1
102
RTVSPropertyOp6
 70
     1
102
RTVSPropertyOp7
 70
     1
102
RTVSPropertyOp8
 70
     1
102
RTVSPropertyOp9
 70
     1
102
RTVSPropertyOp10
 70
     1
102
RTVSPropertyOp11
 70
     1
102
RTVSPropertyOp12
 70
     1
102
RTVSPropertyOp13
 70
     1
102
RTVSPropertyOp14
 70
     1
102
RTVSPropertyOp15
 70
     1
102
RTVSPropertyOp16
 70
     1
102
RTVSPropertyOp17
 70
     1
102
RTVSPropertyOp18
 70
     1
102
RTVSPropertyOp19
 70
     1
102
RTVSPropertyOp20
 70
     1
102
RTVSPropertyOp21
 70
     1
102
RTVSPropertyOp22
 70
     1
102
RTVSPropertyOp23
 70
     1
102
RTVSPropertyOp24
 70
     1
102
RTVSPropertyOp25
 70
     1
102
RTVSPropertyOp26
 70
     1
102
RTVSPropertyOp27
 70
     1
102
RTVSPropertyOp28
 70
     1
102
RTVSPropertyOp29
 70
     1
102
RTVSPropertyOp30
 70
     1
102
RTVSPropertyOp31
 70
     1
102
RTVSPropertyOp32
 70
     1
102
RTVSPropertyOp33
 70
     1
102
RTVSPropertyOp34
 70
     1
102
RTVSPropertyOp35
 70
     1
102
RTVSPropertyOp36
 70
     1
102
RTVSPropertyOp37
 70
     1
102
RTVSPropertyOp38
 70
     1
102
RTVSPropertyOp39
 70
     1
102
RTVSPropertyOp40
 70
     1
102
RTVSPropertyOp41
 70
     1
102
RTVSPropertyOp42
 70
     1
102
RTVSPropertyOp43
 70
     1
102
RTVSPropertyOp44
 70
     1
102
RTVSPropertyOp45
 70
     1
102
RTVSPropertyOp46
 70
     1
102
RTVSPropertyOp47
 70
     1
102
RTVSPropertyOp48
 70
     1
102
RTVSPropertyOp49
 70
     1
102
RTVSPropertyOp50
 70
     1
102
RTVSPropertyOp51
 70
     0
102
RTVSPropertyOp52
 70
     0
102
RTVSPropertyOp53
 70
     1
102
RTVSPropertyOp54
 70
     1
102
RTVSPropertyOp55
 70
     1
102
RTVSPropertyOp56
 70
     1
102
RTVSPropertyOp57
 70
     1
102
RTVSPropertyOp58
 70
     1
102
RTVSPropertyOp59
 70
     1
102
RTVSPropertyOp60
 70
     1
102
RTVSPropertyOp61
 70
     1
102
RTVSPropertyOp62
 70
     1
  0
XRECORD
  5
8B3E3
102
{ACAD_REACTORS
330
8B3E2
102
}
330
8B3E2
100
AcDbXrecord
280
     1
102
RTVSPost2010Prop28
280
     0
102
RTVSPost2010PropOp28
 70
     1
102
RTVSPost2010Prop29
280
     1
102
RTVSPost2010PropOp29
 70
     1
102
RTVSPost2010Prop30
280
     1
102
RTVSPost2010PropOp30
 70
     1
102
RTVSPost2010Prop31
280
     0
102
RTVSPost2010PropOp31
 70
     1
102
RTVSPost2010Prop32
280
     0
102
RTVSPost2010PropOp32
 70
     1
102
RTVSPost2010Prop33
280
     0
102
RTVSPost2010PropOp33
 70
     1
102
RTVSPost2010Prop34
280
     0
102
RTVSPost2010PropOp34
 70
     1
102
RTVSPost2010Prop35
280
     0
102
RTVSPost2010PropOp35
 70
     1
102
RTVSPost2010Prop36
280
     0
102
RTVSPost2010PropOp36
 70
     1
102
RTVSPost2010Prop37
 90
       50
102
RTVSPost2010PropOp37
 70
     1
102
RTVSPost2010Prop38
140
0.0
102
RTVSPost2010PropOp38
 70
     1
102
RTVSPost2010Prop39
140
1.0
102
RTVSPost2010PropOp39
 70
     1
102
RTVSPost2010Prop40
 90
        0
102
RTVSPost2010PropOp40
 70
     1
102
RTVSPost2010Prop41ColorIndex
 90
       18
102
RTVSPost2010Prop41ColorRGB
 90
        0
102
RTVSPost2010PropOp41
 70
     1
102
RTVSPost2010Prop42
 90
       50
102
RTVSPost2010PropOp42
 70
     1
102
RTVSPost2010Prop43
 90
        3
102
RTVSPost2010PropOp43
 70
     1
102
RTVSPost2010Prop44ColorIndex
 90
        5
102
RTVSPost2010Prop44ColorRGB
 90
      255
102
RTVSPost2010PropOp44
 70
     1
102
RTVSPost2010Prop45
280
     0
102
RTVSPost2010PropOp45
 70
     1
102
RTVSPost2010Prop46
 90
       50
102
RTVSPost2010PropOp46
 70
     1
102
RTVSPost2010Prop47
 90
       50
102
RTVSPost2010PropOp47
 70
     1
102
RTVSPost2010Prop48
 90
       50
102
RTVSPost2010PropOp48
 70
     1
102
RTVSPost2010Prop49
280
     0
102
RTVSPost2010PropOp49
 70
     1
102
RTVSPost2010Prop50
 90
       50
102
RTVSPost2010PropOp50
 70
     1
102
RTVSPost2010Prop51ColorIndex
 90
      256
102
RTVSPost2010Prop51ColorRGB
 90
-16777216
102
RTVSPost2010PropOp51
 70
     0
102
RTVSPost2010Prop52
140
1.0
102
RTVSPost2010PropOp52
 70
     0
102
RTVSPost2010Prop53
 90
        2
102
RTVSPost2010PropOp53
 70
     1
102
RTVSPost2010Prop54
  1
strokes_ogs.tif
102
RTVSPost2010PropOp54
 70
     1
102
RTVSPost2010Prop55
280
     0
102
RTVSPost2010PropOp55
 70
     1
102
RTVSPost2010Prop56
140
1.0
102
RTVSPost2010PropOp56
 70
     1
102
RTVSPost2010Prop57
140
1.0
102
RTVSPost2010PropOp57
 70
     1
102
RTVSPropertyOp0
 70
     1
102
RTVSPropertyOp1
 70
     1
102
RTVSPropertyOp2
 70
     1
102
RTVSPropertyOp3
 70
     1
102
RTVSPropertyOp4
 70
     1
102
RTVSPropertyOp5
 70
     1
102
RTVSPropertyOp6
 70
     1
102
RTVSPropertyOp7
 70
     1
102
RTVSPropertyOp8
 70
     1
102
RTVSPropertyOp9
 70
     1
102
RTVSPropertyOp10
 70
     1
102
RTVSPropertyOp11
 70
     1
102
RTVSPropertyOp12
 70
     1
102
RTVSPropertyOp13
 70
     1
102
RTVSPropertyOp14
 70
     1
102
RTVSPropertyOp15
 70
     1
102
RTVSPropertyOp16
 70
     1
102
RTVSPropertyOp17
 70
     1
102
RTVSPropertyOp18
 70
     1
102
RTVSPropertyOp19
 70
     1
102
RTVSPropertyOp20
 70
     1
102
RTVSPropertyOp21
 70
     1
102
RTVSPropertyOp22
 70
     1
102
RTVSPropertyOp23
 70
     1
102
RTVSPropertyOp24
 70
     1
102
RTVSPropertyOp25
 70
     1
102
RTVSPropertyOp26
 70
     1
102
RTVSPropertyOp27
 70
     1
102
RTVSPropertyOp28
 70
     1
102
RTVSPropertyOp29
 70
     1
102
RTVSPropertyOp30
 70
     1
102
RTVSPropertyOp31
 70
     1
102
RTVSPropertyOp32
 70
     1
102
RTVSPropertyOp33
 70
     1
102
RTVSPropertyOp34
 70
     1
102
RTVSPropertyOp35
 70
     1
102
RTVSPropertyOp36
 70
     1
102
RTVSPropertyOp37
 70
     1
102
RTVSPropertyOp38
 70
     1
102
RTVSPropertyOp39
 70
     1
102
RTVSPropertyOp40
 70
     1
102
RTVSPropertyOp41
 70
     1
102
RTVSPropertyOp42
 70
     1
102
RTVSPropertyOp43
 70
     1
102
RTVSPropertyOp44
 70
     1
102
RTVSPropertyOp45
 70
     1
102
RTVSPropertyOp46
 70
     1
102
RTVSPropertyOp47
 70
     1
102
RTVSPropertyOp48
 70
     1
102
RTVSPropertyOp49
 70
     1
102
RTVSPropertyOp50
 70
     1
102
RTVSPropertyOp51
 70
     0
102
RTVSPropertyOp52
 70
     0
102
RTVSPropertyOp53
 70
     1
102
RTVSPropertyOp54
 70
     1
102
RTVSPropertyOp55
 70
     1
102
RTVSPropertyOp56
 70
     1
102
RTVSPropertyOp57
 70
     1
102
RTVSPropertyOp58
 70
     1
102
RTVSPropertyOp59
 70
     1
102
RTVSPropertyOp60
 70
     1
102
RTVSPropertyOp61
 70
     1
102
RTVSPropertyOp62
 70
     1
  0
XRECORD
  5
8B3E5
102
{ACAD_REACTORS
330
8B3E4
102
}
330
8B3E4
100
AcDbXrecord
280
     1
102
RTVSPost2010Prop28
280
     0
102
RTVSPost2010PropOp28
 70
     1
102
RTVSPost2010Prop29
280
     1
102
RTVSPost2010PropOp29
 70
     1
102
RTVSPost2010Prop30
280
     1
102
RTVSPost2010PropOp30
 70
     1
102
RTVSPost2010Prop31
280
     0
102
RTVSPost2010PropOp31
 70
     1
102
RTVSPost2010Prop32
280
     0
102
RTVSPost2010PropOp32
 70
     1
102
RTVSPost2010Prop33
280
     0
102
RTVSPost2010PropOp33
 70
     1
102
RTVSPost2010Prop34
280
     0
102
RTVSPost2010PropOp34
 70
     1
102
RTVSPost2010Prop35
280
     0
102
RTVSPost2010PropOp35
 70
     1
102
RTVSPost2010Prop36
280
     0
102
RTVSPost2010PropOp36
 70
     1
102
RTVSPost2010Prop37
 90
       50
102
RTVSPost2010PropOp37
 70
     1
102
RTVSPost2010Prop38
140
0.0
102
RTVSPost2010PropOp38
 70
     1
102
RTVSPost2010Prop39
140
1.0
102
RTVSPost2010PropOp39
 70
     1
102
RTVSPost2010Prop40
 90
        0
102
RTVSPost2010PropOp40
 70
     1
102
RTVSPost2010Prop41ColorIndex
 90
       18
102
RTVSPost2010Prop41ColorRGB
 90
        0
102
RTVSPost2010PropOp41
 70
     1
102
RTVSPost2010Prop42
 90
       50
102
RTVSPost2010PropOp42
 70
     1
102
RTVSPost2010Prop43
 90
        3
102
RTVSPost2010PropOp43
 70
     1
102
RTVSPost2010Prop44ColorIndex
 90
        5
102
RTVSPost2010Prop44ColorRGB
 90
      255
102
RTVSPost2010PropOp44
 70
     1
102
RTVSPost2010Prop45
280
     0
102
RTVSPost2010PropOp45
 70
     1
102
RTVSPost2010Prop46
 90
       50
102
RTVSPost2010PropOp46
 70
     1
102
RTVSPost2010Prop47
 90
       50
102
RTVSPost2010PropOp47
 70
     1
102
RTVSPost2010Prop48
 90
       50
102
RTVSPost2010PropOp48
 70
     1
102
RTVSPost2010Prop49
280
     0
102
RTVSPost2010PropOp49
 70
     1
102
RTVSPost2010Prop50
 90
       50
102
RTVSPost2010PropOp50
 70
     1
102
RTVSPost2010Prop51ColorIndex
 90
      256
102
RTVSPost2010Prop51ColorRGB
 90
-16777216
102
RTVSPost2010PropOp51
 70
     0
102
RTVSPost2010Prop52
140
1.0
102
RTVSPost2010PropOp52
 70
     0
102
RTVSPost2010Prop53
 90
        2
102
RTVSPost2010PropOp53
 70
     1
102
RTVSPost2010Prop54
  1
strokes_ogs.tif
102
RTVSPost2010PropOp54
 70
     1
102
RTVSPost2010Prop55
280
     0
102
RTVSPost2010PropOp55
 70
     1
102
RTVSPost2010Prop56
140
1.0
102
RTVSPost2010PropOp56
 70
     1
102
RTVSPost2010Prop57
140
1.0
102
RTVSPost2010PropOp57
 70
     1
102
RTVSPropertyOp0
 70
     1
102
RTVSPropertyOp1
 70
     1
102
RTVSPropertyOp2
 70
     1
102
RTVSPropertyOp3
 70
     1
102
RTVSPropertyOp4
 70
     1
102
RTVSPropertyOp5
 70
     1
102
RTVSPropertyOp6
 70
     1
102
RTVSPropertyOp7
 70
     1
102
RTVSPropertyOp8
 70
     1
102
RTVSPropertyOp9
 70
     1
102
RTVSPropertyOp10
 70
     1
102
RTVSPropertyOp11
 70
     1
102
RTVSPropertyOp12
 70
     1
102
RTVSPropertyOp13
 70
     1
102
RTVSPropertyOp14
 70
     1
102
RTVSPropertyOp15
 70
     1
102
RTVSPropertyOp16
 70
     1
102
RTVSPropertyOp17
 70
     1
102
RTVSPropertyOp18
 70
     1
102
RTVSPropertyOp19
 70
     1
102
RTVSPropertyOp20
 70
     1
102
RTVSPropertyOp21
 70
     1
102
RTVSPropertyOp22
 70
     1
102
RTVSPropertyOp23
 70
     1
102
RTVSPropertyOp24
 70
     1
102
RTVSPropertyOp25
 70
     1
102
RTVSPropertyOp26
 70
     1
102
RTVSPropertyOp27
 70
     1
102
RTVSPropertyOp28
 70
     1
102
RTVSPropertyOp29
 70
     1
102
RTVSPropertyOp30
 70
     1
102
RTVSPropertyOp31
 70
     1
102
RTVSPropertyOp32
 70
     1
102
RTVSPropertyOp33
 70
     1
102
RTVSPropertyOp34
 70
     1
102
RTVSPropertyOp35
 70
     1
102
RTVSPropertyOp36
 70
     1
102
RTVSPropertyOp37
 70
     1
102
RTVSPropertyOp38
 70
     1
102
RTVSPropertyOp39
 70
     1
102
RTVSPropertyOp40
 70
     1
102
RTVSPropertyOp41
 70
     1
102
RTVSPropertyOp42
 70
     1
102
RTVSPropertyOp43
 70
     1
102
RTVSPropertyOp44
 70
     1
102
RTVSPropertyOp45
 70
     1
102
RTVSPropertyOp46
 70
     1
102
RTVSPropertyOp47
 70
     1
102
RTVSPropertyOp48
 70
     1
102
RTVSPropertyOp49
 70
     1
102
RTVSPropertyOp50
 70
     1
102
RTVSPropertyOp51
 70
     0
102
RTVSPropertyOp52
 70
     0
102
RTVSPropertyOp53
 70
     1
102
RTVSPropertyOp54
 70
     1
102
RTVSPropertyOp55
 70
     1
102
RTVSPropertyOp56
 70
     1
102
RTVSPropertyOp57
 70
     1
102
RTVSPropertyOp58
 70
     1
102
RTVSPropertyOp59
 70
     1
102
RTVSPropertyOp60
 70
     1
102
RTVSPropertyOp61
 70
     1
102
RTVSPropertyOp62
 70
     1
  0
XRECORD
  5
8B3F5
102
{ACAD_REACTORS
330
8B3F4
102
}
330
8B3F4
100
AcDbXrecord
280
     1
102
RTVSPost2010Prop28
280
     0
102
RTVSPost2010PropOp28
 70
     0
102
RTVSPost2010Prop29
280
     1
102
RTVSPost2010PropOp29
 70
     0
102
RTVSPost2010Prop30
280
     1
102
RTVSPost2010PropOp30
 70
     0
102
RTVSPost2010Prop31
280
     0
102
RTVSPost2010PropOp31
 70
     0
102
RTVSPost2010Prop32
280
     0
102
RTVSPost2010PropOp32
 70
     0
102
RTVSPost2010Prop33
280
     0
102
RTVSPost2010PropOp33
 70
     0
102
RTVSPost2010Prop34
280
     0
102
RTVSPost2010PropOp34
 70
     0
102
RTVSPost2010Prop35
280
     0
102
RTVSPost2010PropOp35
 70
     0
102
RTVSPost2010Prop36
280
     0
102
RTVSPost2010PropOp36
 70
     0
102
RTVSPost2010Prop37
 90
       50
102
RTVSPost2010PropOp37
 70
     0
102
RTVSPost2010Prop38
140
0.0
102
RTVSPost2010PropOp38
 70
     0
102
RTVSPost2010Prop39
140
1.0
102
RTVSPost2010PropOp39
 70
     0
102
RTVSPost2010Prop40
 90
        0
102
RTVSPost2010PropOp40
 70
     0
102
RTVSPost2010Prop41ColorIndex
 90
       18
102
RTVSPost2010Prop41ColorRGB
 90
        0
102
RTVSPost2010PropOp41
 70
     0
102
RTVSPost2010Prop42
 90
       50
102
RTVSPost2010PropOp42
 70
     0
102
RTVSPost2010Prop43
 90
        3
102
RTVSPost2010PropOp43
 70
     0
102
RTVSPost2010Prop44ColorIndex
 90
        5
102
RTVSPost2010Prop44ColorRGB
 90
      255
102
RTVSPost2010PropOp44
 70
     0
102
RTVSPost2010Prop45
280
     0
102
RTVSPost2010PropOp45
 70
     0
102
RTVSPost2010Prop46
 90
       50
102
RTVSPost2010PropOp46
 70
     0
102
RTVSPost2010Prop47
 90
       50
102
RTVSPost2010PropOp47
 70
     0
102
RTVSPost2010Prop48
 90
       50
102
RTVSPost2010PropOp48
 70
     0
102
RTVSPost2010Prop49
280
     0
102
RTVSPost2010PropOp49
 70
     0
102
RTVSPost2010Prop50
 90
       50
102
RTVSPost2010PropOp50
 70
     0
102
RTVSPost2010Prop51ColorIndex
 90
      256
102
RTVSPost2010Prop51ColorRGB
 90
-16777216
102
RTVSPost2010PropOp51
 70
     0
102
RTVSPost2010Prop52
140
1.0
102
RTVSPost2010PropOp52
 70
     0
102
RTVSPost2010Prop53
 90
        2
102
RTVSPost2010PropOp53
 70
     0
102
RTVSPost2010Prop54
  1
strokes_ogs.tif
102
RTVSPost2010PropOp54
 70
     0
102
RTVSPost2010Prop55
280
     0
102
RTVSPost2010PropOp55
 70
     0
102
RTVSPost2010Prop56
140
1.0
102
RTVSPost2010PropOp56
 70
     0
102
RTVSPost2010Prop57
140
1.0
102
RTVSPost2010PropOp57
 70
     0
102
RTVSPropertyOp0
 70
     0
102
RTVSPropertyOp1
 70
     0
102
RTVSPropertyOp2
 70
     0
102
RTVSPropertyOp3
 70
     0
102
RTVSPropertyOp4
 70
     0
102
RTVSPropertyOp5
 70
     0
102
RTVSPropertyOp6
 70
     0
102
RTVSPropertyOp7
 70
     0
102
RTVSPropertyOp8
 70
     0
102
RTVSPropertyOp9
 70
     0
102
RTVSPropertyOp10
 70
     0
102
RTVSPropertyOp11
 70
     0
102
RTVSPropertyOp12
 70
     0
102
RTVSPropertyOp13
 70
     0
102
RTVSPropertyOp14
 70
     2
102
RTVSPropertyOp15
 70
     0
102
RTVSPropertyOp16
 70
     0
102
RTVSPropertyOp17
 70
     0
102
RTVSPropertyOp18
 70
     0
102
RTVSPropertyOp19
 70
     0
102
RTVSPropertyOp20
 70
     0
102
RTVSPropertyOp21
 70
     0
102
RTVSPropertyOp22
 70
     0
102
RTVSPropertyOp23
 70
     0
102
RTVSPropertyOp24
 70
     0
102
RTVSPropertyOp25
 70
     0
102
RTVSPropertyOp26
 70
     0
102
RTVSPropertyOp27
 70
     0
102
RTVSPropertyOp28
 70
     0
102
RTVSPropertyOp29
 70
     0
102
RTVSPropertyOp30
 70
     0
102
RTVSPropertyOp31
 70
     0
102
RTVSPropertyOp32
 70
     0
102
RTVSPropertyOp33
 70
     0
102
RTVSPropertyOp34
 70
     0
102
RTVSPropertyOp35
 70
     0
102
RTVSPropertyOp36
 70
     0
102
RTVSPropertyOp37
 70
     0
102
RTVSPropertyOp38
 70
     0
102
RTVSPropertyOp39
 70
     0
102
RTVSPropertyOp40
 70
     0
102
RTVSPropertyOp41
 70
     0
102
RTVSPropertyOp42
 70
     0
102
RTVSPropertyOp43
 70
     0
102
RTVSPropertyOp44
 70
     0
102
RTVSPropertyOp45
 70
     0
102
RTVSPropertyOp46
 70
     0
102
RTVSPropertyOp47
 70
     0
102
RTVSPropertyOp48
 70
     0
102
RTVSPropertyOp49
 70
     0
102
RTVSPropertyOp50
 70
     0
102
RTVSPropertyOp51
 70
     0
102
RTVSPropertyOp52
 70
     0
102
RTVSPropertyOp53
 70
     0
102
RTVSPropertyOp54
 70
     0
102
RTVSPropertyOp55
 70
     0
102
RTVSPropertyOp56
 70
     0
102
RTVSPropertyOp57
 70
     0
102
RTVSPropertyOp58
 70
     1
102
RTVSPropertyOp59
 70
     1
102
RTVSPropertyOp60
 70
     1
102
RTVSPropertyOp61
 70
     1
102
RTVSPropertyOp62
 70
     1
  0
XRECORD
  5
8B3ED
102
{ACAD_REACTORS
330
8B3EC
102
}
330
8B3EC
100
AcDbXrecord
280
     1
102
RTVSPost2010Prop28
280
     0
102
RTVSPost2010PropOp28
 70
     1
102
RTVSPost2010Prop29
280
     1
102
RTVSPost2010PropOp29
 70
     1
102
RTVSPost2010Prop30
280
     1
102
RTVSPost2010PropOp30
 70
     1
102
RTVSPost2010Prop31
280
     0
102
RTVSPost2010PropOp31
 70
     1
102
RTVSPost2010Prop32
280
     0
102
RTVSPost2010PropOp32
 70
     1
102
RTVSPost2010Prop33
280
     0
102
RTVSPost2010PropOp33
 70
     1
102
RTVSPost2010Prop34
280
     0
102
RTVSPost2010PropOp34
 70
     1
102
RTVSPost2010Prop35
280
     0
102
RTVSPost2010PropOp35
 70
     1
102
RTVSPost2010Prop36
280
     0
102
RTVSPost2010PropOp36
 70
     1
102
RTVSPost2010Prop37
 90
       50
102
RTVSPost2010PropOp37
 70
     1
102
RTVSPost2010Prop38
140
0.0
102
RTVSPost2010PropOp38
 70
     1
102
RTVSPost2010Prop39
140
1.0
102
RTVSPost2010PropOp39
 70
     1
102
RTVSPost2010Prop40
 90
        0
102
RTVSPost2010PropOp40
 70
     1
102
RTVSPost2010Prop41ColorIndex
 90
       18
102
RTVSPost2010Prop41ColorRGB
 90
        0
102
RTVSPost2010PropOp41
 70
     1
102
RTVSPost2010Prop42
 90
       50
102
RTVSPost2010PropOp42
 70
     1
102
RTVSPost2010Prop43
 90
        3
102
RTVSPost2010PropOp43
 70
     1
102
RTVSPost2010Prop44ColorIndex
 90
        5
102
RTVSPost2010Prop44ColorRGB
 90
      255
102
RTVSPost2010PropOp44
 70
     1
102
RTVSPost2010Prop45
280
     0
102
RTVSPost2010PropOp45
 70
     1
102
RTVSPost2010Prop46
 90
       50
102
RTVSPost2010PropOp46
 70
     1
102
RTVSPost2010Prop47
 90
       50
102
RTVSPost2010PropOp47
 70
     1
102
RTVSPost2010Prop48
 90
       50
102
RTVSPost2010PropOp48
 70
     1
102
RTVSPost2010Prop49
280
     0
102
RTVSPost2010PropOp49
 70
     1
102
RTVSPost2010Prop50
 90
       50
102
RTVSPost2010PropOp50
 70
     1
102
RTVSPost2010Prop51ColorIndex
 90
      256
102
RTVSPost2010Prop51ColorRGB
 90
-16777216
102
RTVSPost2010PropOp51
 70
     0
102
RTVSPost2010Prop52
140
1.0
102
RTVSPost2010PropOp52
 70
     0
102
RTVSPost2010Prop53
 90
        2
102
RTVSPost2010PropOp53
 70
     1
102
RTVSPost2010Prop54
  1
strokes_ogs.tif
102
RTVSPost2010PropOp54
 70
     1
102
RTVSPost2010Prop55
280
     0
102
RTVSPost2010PropOp55
 70
     1
102
RTVSPost2010Prop56
140
1.0
102
RTVSPost2010PropOp56
 70
     1
102
RTVSPost2010Prop57
140
1.0
102
RTVSPost2010PropOp57
 70
     1
102
RTVSPropertyOp0
 70
     1
102
RTVSPropertyOp1
 70
     1
102
RTVSPropertyOp2
 70
     1
102
RTVSPropertyOp3
 70
     1
102
RTVSPropertyOp4
 70
     1
102
RTVSPropertyOp5
 70
     1
102
RTVSPropertyOp6
 70
     1
102
RTVSPropertyOp7
 70
     1
102
RTVSPropertyOp8
 70
     1
102
RTVSPropertyOp9
 70
     1
102
RTVSPropertyOp10
 70
     1
102
RTVSPropertyOp11
 70
     1
102
RTVSPropertyOp12
 70
     1
102
RTVSPropertyOp13
 70
     1
102
RTVSPropertyOp14
 70
     1
102
RTVSPropertyOp15
 70
     1
102
RTVSPropertyOp16
 70
     1
102
RTVSPropertyOp17
 70
     1
102
RTVSPropertyOp18
 70
     1
102
RTVSPropertyOp19
 70
     1
102
RTVSPropertyOp20
 70
     1
102
RTVSPropertyOp21
 70
     1
102
RTVSPropertyOp22
 70
     1
102
RTVSPropertyOp23
 70
     1
102
RTVSPropertyOp24
 70
     1
102
RTVSPropertyOp25
 70
     1
102
RTVSPropertyOp26
 70
     1
102
RTVSPropertyOp27
 70
     1
102
RTVSPropertyOp28
 70
     1
102
RTVSPropertyOp29
 70
     1
102
RTVSPropertyOp30
 70
     1
102
RTVSPropertyOp31
 70
     1
102
RTVSPropertyOp32
 70
     1
102
RTVSPropertyOp33
 70
     1
102
RTVSPropertyOp34
 70
     1
102
RTVSPropertyOp35
 70
     1
102
RTVSPropertyOp36
 70
     1
102
RTVSPropertyOp37
 70
     1
102
RTVSPropertyOp38
 70
     1
102
RTVSPropertyOp39
 70
     1
102
RTVSPropertyOp40
 70
     1
102
RTVSPropertyOp41
 70
     1
102
RTVSPropertyOp42
 70
     1
102
RTVSPropertyOp43
 70
     1
102
RTVSPropertyOp44
 70
     1
102
RTVSPropertyOp45
 70
     1
102
RTVSPropertyOp46
 70
     1
102
RTVSPropertyOp47
 70
     1
102
RTVSPropertyOp48
 70
     1
102
RTVSPropertyOp49
 70
     1
102
RTVSPropertyOp50
 70
     1
102
RTVSPropertyOp51
 70
     0
102
RTVSPropertyOp52
 70
     0
102
RTVSPropertyOp53
 70
     1
102
RTVSPropertyOp54
 70
     1
102
RTVSPropertyOp55
 70
     1
102
RTVSPropertyOp56
 70
     1
102
RTVSPropertyOp57
 70
     1
102
RTVSPropertyOp58
 70
     1
102
RTVSPropertyOp59
 70
     1
102
RTVSPropertyOp60
 70
     1
102
RTVSPropertyOp61
 70
     1
102
RTVSPropertyOp62
 70
     1
  0
XRECORD
  5
8B3D1
102
{ACAD_REACTORS
330
8B3D0
102
}
330
8B3D0
100
AcDbXrecord
280
     1
102
RTVSPost2010Prop28
280
     0
102
RTVSPost2010PropOp28
 70
     1
102
RTVSPost2010Prop29
280
     1
102
RTVSPost2010PropOp29
 70
     1
102
RTVSPost2010Prop30
280
     1
102
RTVSPost2010PropOp30
 70
     1
102
RTVSPost2010Prop31
280
     0
102
RTVSPost2010PropOp31
 70
     1
102
RTVSPost2010Prop32
280
     0
102
RTVSPost2010PropOp32
 70
     1
102
RTVSPost2010Prop33
280
     0
102
RTVSPost2010PropOp33
 70
     1
102
RTVSPost2010Prop34
280
     0
102
RTVSPost2010PropOp34
 70
     1
102
RTVSPost2010Prop35
280
     0
102
RTVSPost2010PropOp35
 70
     1
102
RTVSPost2010Prop36
280
     0
102
RTVSPost2010PropOp36
 70
     1
102
RTVSPost2010Prop37
 90
       50
102
RTVSPost2010PropOp37
 70
     1
102
RTVSPost2010Prop38
140
0.0
102
RTVSPost2010PropOp38
 70
     1
102
RTVSPost2010Prop39
140
1.0
102
RTVSPost2010PropOp39
 70
     1
102
RTVSPost2010Prop40
 90
        0
102
RTVSPost2010PropOp40
 70
     1
102
RTVSPost2010Prop41ColorIndex
 90
       18
102
RTVSPost2010Prop41ColorRGB
 90
        0
102
RTVSPost2010PropOp41
 70
     1
102
RTVSPost2010Prop42
 90
       50
102
RTVSPost2010PropOp42
 70
     1
102
RTVSPost2010Prop43
 90
        3
102
RTVSPost2010PropOp43
 70
     1
102
RTVSPost2010Prop44ColorIndex
 90
        5
102
RTVSPost2010Prop44ColorRGB
 90
      255
102
RTVSPost2010PropOp44
 70
     1
102
RTVSPost2010Prop45
280
     0
102
RTVSPost2010PropOp45
 70
     1
102
RTVSPost2010Prop46
 90
       50
102
RTVSPost2010PropOp46
 70
     1
102
RTVSPost2010Prop47
 90
       50
102
RTVSPost2010PropOp47
 70
     1
102
RTVSPost2010Prop48
 90
       50
102
RTVSPost2010PropOp48
 70
     1
102
RTVSPost2010Prop49
280
     0
102
RTVSPost2010PropOp49
 70
     1
102
RTVSPost2010Prop50
 90
       50
102
RTVSPost2010PropOp50
 70
     1
102
RTVSPost2010Prop51ColorIndex
 90
      256
102
RTVSPost2010Prop51ColorRGB
 90
-16777216
102
RTVSPost2010PropOp51
 70
     0
102
RTVSPost2010Prop52
140
1.0
102
RTVSPost2010PropOp52
 70
     0
102
RTVSPost2010Prop53
 90
        2
102
RTVSPost2010PropOp53
 70
     1
102
RTVSPost2010Prop54
  1
strokes_ogs.tif
102
RTVSPost2010PropOp54
 70
     1
102
RTVSPost2010Prop55
280
     0
102
RTVSPost2010PropOp55
 70
     1
102
RTVSPost2010Prop56
140
1.0
102
RTVSPost2010PropOp56
 70
     1
102
RTVSPost2010Prop57
140
1.0
102
RTVSPost2010PropOp57
 70
     1
102
RTVSPropertyOp0
 70
     1
102
RTVSPropertyOp1
 70
     1
102
RTVSPropertyOp2
 70
     1
102
RTVSPropertyOp3
 70
     1
102
RTVSPropertyOp4
 70
     1
102
RTVSPropertyOp5
 70
     1
102
RTVSPropertyOp6
 70
     1
102
RTVSPropertyOp7
 70
     1
102
RTVSPropertyOp8
 70
     1
102
RTVSPropertyOp9
 70
     1
102
RTVSPropertyOp10
 70
     1
102
RTVSPropertyOp11
 70
     1
102
RTVSPropertyOp12
 70
     1
102
RTVSPropertyOp13
 70
     1
102
RTVSPropertyOp14
 70
     1
102
RTVSPropertyOp15
 70
     1
102
RTVSPropertyOp16
 70
     1
102
RTVSPropertyOp17
 70
     1
102
RTVSPropertyOp18
 70
     1
102
RTVSPropertyOp19
 70
     1
102
RTVSPropertyOp20
 70
     1
102
RTVSPropertyOp21
 70
     1
102
RTVSPropertyOp22
 70
     1
102
RTVSPropertyOp23
 70
     1
102
RTVSPropertyOp24
 70
     1
102
RTVSPropertyOp25
 70
     1
102
RTVSPropertyOp26
 70
     1
102
RTVSPropertyOp27
 70
     1
102
RTVSPropertyOp28
 70
     1
102
RTVSPropertyOp29
 70
     1
102
RTVSPropertyOp30
 70
     1
102
RTVSPropertyOp31
 70
     1
102
RTVSPropertyOp32
 70
     1
102
RTVSPropertyOp33
 70
     1
102
RTVSPropertyOp34
 70
     1
102
RTVSPropertyOp35
 70
     1
102
RTVSPropertyOp36
 70
     1
102
RTVSPropertyOp37
 70
     1
102
RTVSPropertyOp38
 70
     1
102
RTVSPropertyOp39
 70
     1
102
RTVSPropertyOp40
 70
     1
102
RTVSPropertyOp41
 70
     1
102
RTVSPropertyOp42
 70
     1
102
RTVSPropertyOp43
 70
     1
102
RTVSPropertyOp44
 70
     1
102
RTVSPropertyOp45
 70
     1
102
RTVSPropertyOp46
 70
     1
102
RTVSPropertyOp47
 70
     1
102
RTVSPropertyOp48
 70
     1
102
RTVSPropertyOp49
 70
     1
102
RTVSPropertyOp50
 70
     1
102
RTVSPropertyOp51
 70
     0
102
RTVSPropertyOp52
 70
     0
102
RTVSPropertyOp53
 70
     1
102
RTVSPropertyOp54
 70
     1
102
RTVSPropertyOp55
 70
     1
102
RTVSPropertyOp56
 70
     1
102
RTVSPropertyOp57
 70
     1
102
RTVSPropertyOp58
 70
     1
102
RTVSPropertyOp59
 70
     1
102
RTVSPropertyOp60
 70
     1
102
RTVSPropertyOp61
 70
     1
102
RTVSPropertyOp62
 70
     1
  0
XRECORD
  5
8B3D3
102
{ACAD_REACTORS
330
8B3D2
102
}
330
8B3D2
100
AcDbXrecord
280
     1
102
RTVSPost2010Prop28
280
     0
102
RTVSPost2010PropOp28
 70
     1
102
RTVSPost2010Prop29
280
     1
102
RTVSPost2010PropOp29
 70
     1
102
RTVSPost2010Prop30
280
     1
102
RTVSPost2010PropOp30
 70
     1
102
RTVSPost2010Prop31
280
     0
102
RTVSPost2010PropOp31
 70
     1
102
RTVSPost2010Prop32
280
     0
102
RTVSPost2010PropOp32
 70
     1
102
RTVSPost2010Prop33
280
     0
102
RTVSPost2010PropOp33
 70
     1
102
RTVSPost2010Prop34
280
     0
102
RTVSPost2010PropOp34
 70
     1
102
RTVSPost2010Prop35
280
     0
102
RTVSPost2010PropOp35
 70
     1
102
RTVSPost2010Prop36
280
     0
102
RTVSPost2010PropOp36
 70
     1
102
RTVSPost2010Prop37
 90
       50
102
RTVSPost2010PropOp37
 70
     1
102
RTVSPost2010Prop38
140
0.0
102
RTVSPost2010PropOp38
 70
     1
102
RTVSPost2010Prop39
140
1.0
102
RTVSPost2010PropOp39
 70
     1
102
RTVSPost2010Prop40
 90
        0
102
RTVSPost2010PropOp40
 70
     1
102
RTVSPost2010Prop41ColorIndex
 90
       18
102
RTVSPost2010Prop41ColorRGB
 90
        0
102
RTVSPost2010PropOp41
 70
     1
102
RTVSPost2010Prop42
 90
       50
102
RTVSPost2010PropOp42
 70
     1
102
RTVSPost2010Prop43
 90
        3
102
RTVSPost2010PropOp43
 70
     1
102
RTVSPost2010Prop44ColorIndex
 90
        5
102
RTVSPost2010Prop44ColorRGB
 90
      255
102
RTVSPost2010PropOp44
 70
     1
102
RTVSPost2010Prop45
280
     0
102
RTVSPost2010PropOp45
 70
     1
102
RTVSPost2010Prop46
 90
       50
102
RTVSPost2010PropOp46
 70
     1
102
RTVSPost2010Prop47
 90
       50
102
RTVSPost2010PropOp47
 70
     1
102
RTVSPost2010Prop48
 90
       50
102
RTVSPost2010PropOp48
 70
     1
102
RTVSPost2010Prop49
280
     0
102
RTVSPost2010PropOp49
 70
     1
102
RTVSPost2010Prop50
 90
       50
102
RTVSPost2010PropOp50
 70
     1
102
RTVSPost2010Prop51ColorIndex
 90
      256
102
RTVSPost2010Prop51ColorRGB
 90
-16777216
102
RTVSPost2010PropOp51
 70
     0
102
RTVSPost2010Prop52
140
1.0
102
RTVSPost2010PropOp52
 70
     0
102
RTVSPost2010Prop53
 90
        2
102
RTVSPost2010PropOp53
 70
     1
102
RTVSPost2010Prop54
  1
strokes_ogs.tif
102
RTVSPost2010PropOp54
 70
     1
102
RTVSPost2010Prop55
280
     0
102
RTVSPost2010PropOp55
 70
     1
102
RTVSPost2010Prop56
140
1.0
102
RTVSPost2010PropOp56
 70
     1
102
RTVSPost2010Prop57
140
1.0
102
RTVSPost2010PropOp57
 70
     1
102
RTVSPropertyOp0
 70
     1
102
RTVSPropertyOp1
 70
     1
102
RTVSPropertyOp2
 70
     1
102
RTVSPropertyOp3
 70
     1
102
RTVSPropertyOp4
 70
     1
102
RTVSPropertyOp5
 70
     1
102
RTVSPropertyOp6
 70
     1
102
RTVSPropertyOp7
 70
     1
102
RTVSPropertyOp8
 70
     1
102
RTVSPropertyOp9
 70
     1
102
RTVSPropertyOp10
 70
     1
102
RTVSPropertyOp11
 70
     1
102
RTVSPropertyOp12
 70
     1
102
RTVSPropertyOp13
 70
     1
102
RTVSPropertyOp14
 70
     1
102
RTVSPropertyOp15
 70
     1
102
RTVSPropertyOp16
 70
     1
102
RTVSPropertyOp17
 70
     1
102
RTVSPropertyOp18
 70
     1
102
RTVSPropertyOp19
 70
     1
102
RTVSPropertyOp20
 70
     1
102
RTVSPropertyOp21
 70
     1
102
RTVSPropertyOp22
 70
     1
102
RTVSPropertyOp23
 70
     1
102
RTVSPropertyOp24
 70
     1
102
RTVSPropertyOp25
 70
     1
102
RTVSPropertyOp26
 70
     1
102
RTVSPropertyOp27
 70
     1
102
RTVSPropertyOp28
 70
     1
102
RTVSPropertyOp29
 70
     1
102
RTVSPropertyOp30
 70
     1
102
RTVSPropertyOp31
 70
     1
102
RTVSPropertyOp32
 70
     1
102
RTVSPropertyOp33
 70
     1
102
RTVSPropertyOp34
 70
     1
102
RTVSPropertyOp35
 70
     1
102
RTVSPropertyOp36
 70
     1
102
RTVSPropertyOp37
 70
     1
102
RTVSPropertyOp38
 70
     1
102
RTVSPropertyOp39
 70
     1
102
RTVSPropertyOp40
 70
     1
102
RTVSPropertyOp41
 70
     1
102
RTVSPropertyOp42
 70
     1
102
RTVSPropertyOp43
 70
     1
102
RTVSPropertyOp44
 70
     1
102
RTVSPropertyOp45
 70
     1
102
RTVSPropertyOp46
 70
     1
102
RTVSPropertyOp47
 70
     1
102
RTVSPropertyOp48
 70
     1
102
RTVSPropertyOp49
 70
     1
102
RTVSPropertyOp50
 70
     1
102
RTVSPropertyOp51
 70
     0
102
RTVSPropertyOp52
 70
     0
102
RTVSPropertyOp53
 70
     1
102
RTVSPropertyOp54
 70
     1
102
RTVSPropertyOp55
 70
     1
102
RTVSPropertyOp56
 70
     1
102
RTVSPropertyOp57
 70
     1
102
RTVSPropertyOp58
 70
     1
102
RTVSPropertyOp59
 70
     1
102
RTVSPropertyOp60
 70
     1
102
RTVSPropertyOp61
 70
     1
102
RTVSPropertyOp62
 70
     1
  0
XRECORD
  5
8B3D5
102
{ACAD_REACTORS
330
8B3D4
102
}
330
8B3D4
100
AcDbXrecord
280
     1
102
RTVSPost2010Prop28
280
     0
102
RTVSPost2010PropOp28
 70
     1
102
RTVSPost2010Prop29
280
     1
102
RTVSPost2010PropOp29
 70
     1
102
RTVSPost2010Prop30
280
     1
102
RTVSPost2010PropOp30
 70
     1
102
RTVSPost2010Prop31
280
     0
102
RTVSPost2010PropOp31
 70
     1
102
RTVSPost2010Prop32
280
     0
102
RTVSPost2010PropOp32
 70
     1
102
RTVSPost2010Prop33
280
     0
102
RTVSPost2010PropOp33
 70
     1
102
RTVSPost2010Prop34
280
     0
102
RTVSPost2010PropOp34
 70
     1
102
RTVSPost2010Prop35
280
     0
102
RTVSPost2010PropOp35
 70
     1
102
RTVSPost2010Prop36
280
     0
102
RTVSPost2010PropOp36
 70
     1
102
RTVSPost2010Prop37
 90
       50
102
RTVSPost2010PropOp37
 70
     1
102
RTVSPost2010Prop38
140
0.0
102
RTVSPost2010PropOp38
 70
     1
102
RTVSPost2010Prop39
140
1.0
102
RTVSPost2010PropOp39
 70
     1
102
RTVSPost2010Prop40
 90
        0
102
RTVSPost2010PropOp40
 70
     1
102
RTVSPost2010Prop41ColorIndex
 90
       18
102
RTVSPost2010Prop41ColorRGB
 90
        0
102
RTVSPost2010PropOp41
 70
     1
102
RTVSPost2010Prop42
 90
       50
102
RTVSPost2010PropOp42
 70
     1
102
RTVSPost2010Prop43
 90
        3
102
RTVSPost2010PropOp43
 70
     1
102
RTVSPost2010Prop44ColorIndex
 90
        5
102
RTVSPost2010Prop44ColorRGB
 90
      255
102
RTVSPost2010PropOp44
 70
     1
102
RTVSPost2010Prop45
280
     0
102
RTVSPost2010PropOp45
 70
     1
102
RTVSPost2010Prop46
 90
       50
102
RTVSPost2010PropOp46
 70
     1
102
RTVSPost2010Prop47
 90
       50
102
RTVSPost2010PropOp47
 70
     1
102
RTVSPost2010Prop48
 90
       50
102
RTVSPost2010PropOp48
 70
     1
102
RTVSPost2010Prop49
280
     0
102
RTVSPost2010PropOp49
 70
     1
102
RTVSPost2010Prop50
 90
       50
102
RTVSPost2010PropOp50
 70
     1
102
RTVSPost2010Prop51ColorIndex
 90
      256
102
RTVSPost2010Prop51ColorRGB
 90
-16777216
102
RTVSPost2010PropOp51
 70
     0
102
RTVSPost2010Prop52
140
1.0
102
RTVSPost2010PropOp52
 70
     0
102
RTVSPost2010Prop53
 90
        2
102
RTVSPost2010PropOp53
 70
     1
102
RTVSPost2010Prop54
  1
strokes_ogs.tif
102
RTVSPost2010PropOp54
 70
     1
102
RTVSPost2010Prop55
280
     0
102
RTVSPost2010PropOp55
 70
     1
102
RTVSPost2010Prop56
140
1.0
102
RTVSPost2010PropOp56
 70
     1
102
RTVSPost2010Prop57
140
1.0
102
RTVSPost2010PropOp57
 70
     1
102
RTVSPropertyOp0
 70
     1
102
RTVSPropertyOp1
 70
     1
102
RTVSPropertyOp2
 70
     1
102
RTVSPropertyOp3
 70
     1
102
RTVSPropertyOp4
 70
     1
102
RTVSPropertyOp5
 70
     1
102
RTVSPropertyOp6
 70
     1
102
RTVSPropertyOp7
 70
     1
102
RTVSPropertyOp8
 70
     1
102
RTVSPropertyOp9
 70
     1
102
RTVSPropertyOp10
 70
     1
102
RTVSPropertyOp11
 70
     1
102
RTVSPropertyOp12
 70
     1
102
RTVSPropertyOp13
 70
     1
102
RTVSPropertyOp14
 70
     1
102
RTVSPropertyOp15
 70
     1
102
RTVSPropertyOp16
 70
     1
102
RTVSPropertyOp17
 70
     1
102
RTVSPropertyOp18
 70
     1
102
RTVSPropertyOp19
 70
     1
102
RTVSPropertyOp20
 70
     1
102
RTVSPropertyOp21
 70
     1
102
RTVSPropertyOp22
 70
     1
102
RTVSPropertyOp23
 70
     1
102
RTVSPropertyOp24
 70
     1
102
RTVSPropertyOp25
 70
     1
102
RTVSPropertyOp26
 70
     1
102
RTVSPropertyOp27
 70
     1
102
RTVSPropertyOp28
 70
     1
102
RTVSPropertyOp29
 70
     1
102
RTVSPropertyOp30
 70
     1
102
RTVSPropertyOp31
 70
     1
102
RTVSPropertyOp32
 70
     1
102
RTVSPropertyOp33
 70
     1
102
RTVSPropertyOp34
 70
     1
102
RTVSPropertyOp35
 70
     1
102
RTVSPropertyOp36
 70
     1
102
RTVSPropertyOp37
 70
     1
102
RTVSPropertyOp38
 70
     1
102
RTVSPropertyOp39
 70
     1
102
RTVSPropertyOp40
 70
     1
102
RTVSPropertyOp41
 70
     1
102
RTVSPropertyOp42
 70
     1
102
RTVSPropertyOp43
 70
     1
102
RTVSPropertyOp44
 70
     1
102
RTVSPropertyOp45
 70
     1
102
RTVSPropertyOp46
 70
     1
102
RTVSPropertyOp47
 70
     1
102
RTVSPropertyOp48
 70
     1
102
RTVSPropertyOp49
 70
     1
102
RTVSPropertyOp50
 70
     1
102
RTVSPropertyOp51
 70
     0
102
RTVSPropertyOp52
 70
     0
102
RTVSPropertyOp53
 70
     1
102
RTVSPropertyOp54
 70
     1
102
RTVSPropertyOp55
 70
     1
102
RTVSPropertyOp56
 70
     1
102
RTVSPropertyOp57
 70
     1
102
RTVSPropertyOp58
 70
     1
102
RTVSPropertyOp59
 70
     1
102
RTVSPropertyOp60
 70
     1
102
RTVSPropertyOp61
 70
     1
102
RTVSPropertyOp62
 70
     1
  0
XRECORD
  5
8B3D7
102
{ACAD_REACTORS
330
8B3D6
102
}
330
8B3D6
100
AcDbXrecord
280
     1
102
RTVSPost2010Prop28
280
     0
102
RTVSPost2010PropOp28
 70
     1
102
RTVSPost2010Prop29
280
     1
102
RTVSPost2010PropOp29
 70
     1
102
RTVSPost2010Prop30
280
     1
102
RTVSPost2010PropOp30
 70
     1
102
RTVSPost2010Prop31
280
     0
102
RTVSPost2010PropOp31
 70
     1
102
RTVSPost2010Prop32
280
     0
102
RTVSPost2010PropOp32
 70
     1
102
RTVSPost2010Prop33
280
     0
102
RTVSPost2010PropOp33
 70
     1
102
RTVSPost2010Prop34
280
     0
102
RTVSPost2010PropOp34
 70
     1
102
RTVSPost2010Prop35
280
     0
102
RTVSPost2010PropOp35
 70
     1
102
RTVSPost2010Prop36
280
     0
102
RTVSPost2010PropOp36
 70
     1
102
RTVSPost2010Prop37
 90
       50
102
RTVSPost2010PropOp37
 70
     1
102
RTVSPost2010Prop38
140
0.0
102
RTVSPost2010PropOp38
 70
     1
102
RTVSPost2010Prop39
140
1.0
102
RTVSPost2010PropOp39
 70
     1
102
RTVSPost2010Prop40
 90
        0
102
RTVSPost2010PropOp40
 70
     1
102
RTVSPost2010Prop41ColorIndex
 90
       18
102
RTVSPost2010Prop41ColorRGB
 90
        0
102
RTVSPost2010PropOp41
 70
     1
102
RTVSPost2010Prop42
 90
       50
102
RTVSPost2010PropOp42
 70
     1
102
RTVSPost2010Prop43
 90
        3
102
RTVSPost2010PropOp43
 70
     1
102
RTVSPost2010Prop44ColorIndex
 90
        5
102
RTVSPost2010Prop44ColorRGB
 90
      255
102
RTVSPost2010PropOp44
 70
     1
102
RTVSPost2010Prop45
280
     0
102
RTVSPost2010PropOp45
 70
     1
102
RTVSPost2010Prop46
 90
       50
102
RTVSPost2010PropOp46
 70
     1
102
RTVSPost2010Prop47
 90
       50
102
RTVSPost2010PropOp47
 70
     1
102
RTVSPost2010Prop48
 90
       50
102
RTVSPost2010PropOp48
 70
     1
102
RTVSPost2010Prop49
280
     0
102
RTVSPost2010PropOp49
 70
     1
102
RTVSPost2010Prop50
 90
       50
102
RTVSPost2010PropOp50
 70
     1
102
RTVSPost2010Prop51ColorIndex
 90
      256
102
RTVSPost2010Prop51ColorRGB
 90
-16777216
102
RTVSPost2010PropOp51
 70
     0
102
RTVSPost2010Prop52
140
1.0
102
RTVSPost2010PropOp52
 70
     0
102
RTVSPost2010Prop53
 90
        2
102
RTVSPost2010PropOp53
 70
     1
102
RTVSPost2010Prop54
  1
strokes_ogs.tif
102
RTVSPost2010PropOp54
 70
     1
102
RTVSPost2010Prop55
280
     0
102
RTVSPost2010PropOp55
 70
     1
102
RTVSPost2010Prop56
140
1.0
102
RTVSPost2010PropOp56
 70
     1
102
RTVSPost2010Prop57
140
1.0
102
RTVSPost2010PropOp57
 70
     1
102
RTVSPropertyOp0
 70
     1
102
RTVSPropertyOp1
 70
     1
102
RTVSPropertyOp2
 70
     1
102
RTVSPropertyOp3
 70
     1
102
RTVSPropertyOp4
 70
     1
102
RTVSPropertyOp5
 70
     1
102
RTVSPropertyOp6
 70
     1
102
RTVSPropertyOp7
 70
     1
102
RTVSPropertyOp8
 70
     1
102
RTVSPropertyOp9
 70
     1
102
RTVSPropertyOp10
 70
     1
102
RTVSPropertyOp11
 70
     1
102
RTVSPropertyOp12
 70
     1
102
RTVSPropertyOp13
 70
     1
102
RTVSPropertyOp14
 70
     1
102
RTVSPropertyOp15
 70
     1
102
RTVSPropertyOp16
 70
     1
102
RTVSPropertyOp17
 70
     1
102
RTVSPropertyOp18
 70
     1
102
RTVSPropertyOp19
 70
     1
102
RTVSPropertyOp20
 70
     1
102
RTVSPropertyOp21
 70
     1
102
RTVSPropertyOp22
 70
     1
102
RTVSPropertyOp23
 70
     1
102
RTVSPropertyOp24
 70
     1
102
RTVSPropertyOp25
 70
     1
102
RTVSPropertyOp26
 70
     1
102
RTVSPropertyOp27
 70
     1
102
RTVSPropertyOp28
 70
     1
102
RTVSPropertyOp29
 70
     1
102
RTVSPropertyOp30
 70
     1
102
RTVSPropertyOp31
 70
     1
102
RTVSPropertyOp32
 70
     1
102
RTVSPropertyOp33
 70
     1
102
RTVSPropertyOp34
 70
     1
102
RTVSPropertyOp35
 70
     1
102
RTVSPropertyOp36
 70
     1
102
RTVSPropertyOp37
 70
     1
102
RTVSPropertyOp38
 70
     1
102
RTVSPropertyOp39
 70
     1
102
RTVSPropertyOp40
 70
     1
102
RTVSPropertyOp41
 70
     1
102
RTVSPropertyOp42
 70
     1
102
RTVSPropertyOp43
 70
     1
102
RTVSPropertyOp44
 70
     1
102
RTVSPropertyOp45
 70
     1
102
RTVSPropertyOp46
 70
     1
102
RTVSPropertyOp47
 70
     1
102
RTVSPropertyOp48
 70
     1
102
RTVSPropertyOp49
 70
     1
102
RTVSPropertyOp50
 70
     1
102
RTVSPropertyOp51
 70
     0
102
RTVSPropertyOp52
 70
     0
102
RTVSPropertyOp53
 70
     1
102
RTVSPropertyOp54
 70
     1
102
RTVSPropertyOp55
 70
     1
102
RTVSPropertyOp56
 70
     1
102
RTVSPropertyOp57
 70
     1
102
RTVSPropertyOp58
 70
     1
102
RTVSPropertyOp59
 70
     1
102
RTVSPropertyOp60
 70
     1
102
RTVSPropertyOp61
 70
     1
102
RTVSPropertyOp62
 70
     1
  0
XRECORD
  5
8B3DD
102
{ACAD_REACTORS
330
8B3DC
102
}
330
8B3DC
100
AcDbXrecord
280
     1
102
RTVSPost2010Prop28
280
     0
102
RTVSPost2010PropOp28
 70
     1
102
RTVSPost2010Prop29
280
     1
102
RTVSPost2010PropOp29
 70
     1
102
RTVSPost2010Prop30
280
     1
102
RTVSPost2010PropOp30
 70
     1
102
RTVSPost2010Prop31
280
     0
102
RTVSPost2010PropOp31
 70
     1
102
RTVSPost2010Prop32
280
     0
102
RTVSPost2010PropOp32
 70
     1
102
RTVSPost2010Prop33
280
     0
102
RTVSPost2010PropOp33
 70
     1
102
RTVSPost2010Prop34
280
     0
102
RTVSPost2010PropOp34
 70
     1
102
RTVSPost2010Prop35
280
     0
102
RTVSPost2010PropOp35
 70
     1
102
RTVSPost2010Prop36
280
     0
102
RTVSPost2010PropOp36
 70
     1
102
RTVSPost2010Prop37
 90
       50
102
RTVSPost2010PropOp37
 70
     1
102
RTVSPost2010Prop38
140
0.0
102
RTVSPost2010PropOp38
 70
     1
102
RTVSPost2010Prop39
140
1.0
102
RTVSPost2010PropOp39
 70
     1
102
RTVSPost2010Prop40
 90
        0
102
RTVSPost2010PropOp40
 70
     1
102
RTVSPost2010Prop41ColorIndex
 90
       18
102
RTVSPost2010Prop41ColorRGB
 90
        0
102
RTVSPost2010PropOp41
 70
     1
102
RTVSPost2010Prop42
 90
       50
102
RTVSPost2010PropOp42
 70
     1
102
RTVSPost2010Prop43
 90
        3
102
RTVSPost2010PropOp43
 70
     1
102
RTVSPost2010Prop44ColorIndex
 90
        5
102
RTVSPost2010Prop44ColorRGB
 90
      255
102
RTVSPost2010PropOp44
 70
     1
102
RTVSPost2010Prop45
280
     0
102
RTVSPost2010PropOp45
 70
     1
102
RTVSPost2010Prop46
 90
       50
102
RTVSPost2010PropOp46
 70
     1
102
RTVSPost2010Prop47
 90
       50
102
RTVSPost2010PropOp47
 70
     1
102
RTVSPost2010Prop48
 90
       50
102
RTVSPost2010PropOp48
 70
     1
102
RTVSPost2010Prop49
280
     0
102
RTVSPost2010PropOp49
 70
     1
102
RTVSPost2010Prop50
 90
       50
102
RTVSPost2010PropOp50
 70
     1
102
RTVSPost2010Prop51ColorIndex
 90
      256
102
RTVSPost2010Prop51ColorRGB
 90
-16777216
102
RTVSPost2010PropOp51
 70
     0
102
RTVSPost2010Prop52
140
1.0
102
RTVSPost2010PropOp52
 70
     0
102
RTVSPost2010Prop53
 90
        2
102
RTVSPost2010PropOp53
 70
     1
102
RTVSPost2010Prop54
  1
strokes_ogs.tif
102
RTVSPost2010PropOp54
 70
     1
102
RTVSPost2010Prop55
280
     0
102
RTVSPost2010PropOp55
 70
     1
102
RTVSPost2010Prop56
140
1.0
102
RTVSPost2010PropOp56
 70
     1
102
RTVSPost2010Prop57
140
1.0
102
RTVSPost2010PropOp57
 70
     1
102
RTVSPropertyOp0
 70
     1
102
RTVSPropertyOp1
 70
     1
102
RTVSPropertyOp2
 70
     1
102
RTVSPropertyOp3
 70
     1
102
RTVSPropertyOp4
 70
     1
102
RTVSPropertyOp5
 70
     1
102
RTVSPropertyOp6
 70
     1
102
RTVSPropertyOp7
 70
     1
102
RTVSPropertyOp8
 70
     1
102
RTVSPropertyOp9
 70
     1
102
RTVSPropertyOp10
 70
     1
102
RTVSPropertyOp11
 70
     1
102
RTVSPropertyOp12
 70
     1
102
RTVSPropertyOp13
 70
     1
102
RTVSPropertyOp14
 70
     1
102
RTVSPropertyOp15
 70
     1
102
RTVSPropertyOp16
 70
     1
102
RTVSPropertyOp17
 70
     1
102
RTVSPropertyOp18
 70
     1
102
RTVSPropertyOp19
 70
     1
102
RTVSPropertyOp20
 70
     1
102
RTVSPropertyOp21
 70
     1
102
RTVSPropertyOp22
 70
     1
102
RTVSPropertyOp23
 70
     1
102
RTVSPropertyOp24
 70
     1
102
RTVSPropertyOp25
 70
     1
102
RTVSPropertyOp26
 70
     1
102
RTVSPropertyOp27
 70
     1
102
RTVSPropertyOp28
 70
     1
102
RTVSPropertyOp29
 70
     1
102
RTVSPropertyOp30
 70
     1
102
RTVSPropertyOp31
 70
     1
102
RTVSPropertyOp32
 70
     1
102
RTVSPropertyOp33
 70
     1
102
RTVSPropertyOp34
 70
     1
102
RTVSPropertyOp35
 70
     1
102
RTVSPropertyOp36
 70
     1
102
RTVSPropertyOp37
 70
     1
102
RTVSPropertyOp38
 70
     1
102
RTVSPropertyOp39
 70
     1
102
RTVSPropertyOp40
 70
     1
102
RTVSPropertyOp41
 70
     1
102
RTVSPropertyOp42
 70
     1
102
RTVSPropertyOp43
 70
     1
102
RTVSPropertyOp44
 70
     1
102
RTVSPropertyOp45
 70
     1
102
RTVSPropertyOp46
 70
     1
102
RTVSPropertyOp47
 70
     1
102
RTVSPropertyOp48
 70
     1
102
RTVSPropertyOp49
 70
     1
102
RTVSPropertyOp50
 70
     1
102
RTVSPropertyOp51
 70
     0
102
RTVSPropertyOp52
 70
     0
102
RTVSPropertyOp53
 70
     1
102
RTVSPropertyOp54
 70
     1
102
RTVSPropertyOp55
 70
     1
102
RTVSPropertyOp56
 70
     1
102
RTVSPropertyOp57
 70
     1
102
RTVSPropertyOp58
 70
     1
102
RTVSPropertyOp59
 70
     1
102
RTVSPropertyOp60
 70
     1
102
RTVSPropertyOp61
 70
     1
102
RTVSPropertyOp62
 70
     1
  0
XRECORD
  5
8B3F1
102
{ACAD_REACTORS
330
8B3F0
102
}
330
8B3F0
100
AcDbXrecord
280
     1
102
RTVSPost2010Prop28
280
     0
102
RTVSPost2010PropOp28
 70
     0
102
RTVSPost2010Prop29
280
     1
102
RTVSPost2010PropOp29
 70
     0
102
RTVSPost2010Prop30
280
     1
102
RTVSPost2010PropOp30
 70
     0
102
RTVSPost2010Prop31
280
     0
102
RTVSPost2010PropOp31
 70
     0
102
RTVSPost2010Prop32
280
     0
102
RTVSPost2010PropOp32
 70
     0
102
RTVSPost2010Prop33
280
     0
102
RTVSPost2010PropOp33
 70
     0
102
RTVSPost2010Prop34
280
     0
102
RTVSPost2010PropOp34
 70
     0
102
RTVSPost2010Prop35
280
     0
102
RTVSPost2010PropOp35
 70
     0
102
RTVSPost2010Prop36
280
     0
102
RTVSPost2010PropOp36
 70
     0
102
RTVSPost2010Prop37
 90
       50
102
RTVSPost2010PropOp37
 70
     0
102
RTVSPost2010Prop38
140
0.0
102
RTVSPost2010PropOp38
 70
     0
102
RTVSPost2010Prop39
140
1.0
102
RTVSPost2010PropOp39
 70
     0
102
RTVSPost2010Prop40
 90
        0
102
RTVSPost2010PropOp40
 70
     0
102
RTVSPost2010Prop41ColorIndex
 90
       18
102
RTVSPost2010Prop41ColorRGB
 90
        0
102
RTVSPost2010PropOp41
 70
     0
102
RTVSPost2010Prop42
 90
       50
102
RTVSPost2010PropOp42
 70
     0
102
RTVSPost2010Prop43
 90
        3
102
RTVSPost2010PropOp43
 70
     0
102
RTVSPost2010Prop44ColorIndex
 90
        5
102
RTVSPost2010Prop44ColorRGB
 90
      255
102
RTVSPost2010PropOp44
 70
     0
102
RTVSPost2010Prop45
280
     0
102
RTVSPost2010PropOp45
 70
     0
102
RTVSPost2010Prop46
 90
       50
102
RTVSPost2010PropOp46
 70
     0
102
RTVSPost2010Prop47
 90
       50
102
RTVSPost2010PropOp47
 70
     0
102
RTVSPost2010Prop48
 90
       50
102
RTVSPost2010PropOp48
 70
     0
102
RTVSPost2010Prop49
280
     0
102
RTVSPost2010PropOp49
 70
     0
102
RTVSPost2010Prop50
 90
       50
102
RTVSPost2010PropOp50
 70
     0
102
RTVSPost2010Prop51ColorIndex
 90
      256
102
RTVSPost2010Prop51ColorRGB
 90
-16777216
102
RTVSPost2010PropOp51
 70
     0
102
RTVSPost2010Prop52
140
1.0
102
RTVSPost2010PropOp52
 70
     0
102
RTVSPost2010Prop53
 90
        2
102
RTVSPost2010PropOp53
 70
     0
102
RTVSPost2010Prop54
  1
strokes_ogs.tif
102
RTVSPost2010PropOp54
 70
     0
102
RTVSPost2010Prop55
280
     0
102
RTVSPost2010PropOp55
 70
     0
102
RTVSPost2010Prop56
140
1.0
102
RTVSPost2010PropOp56
 70
     0
102
RTVSPost2010Prop57
140
1.0
102
RTVSPost2010PropOp57
 70
     0
102
RTVSPropertyOp0
 70
     0
102
RTVSPropertyOp1
 70
     0
102
RTVSPropertyOp2
 70
     0
102
RTVSPropertyOp3
 70
     0
102
RTVSPropertyOp4
 70
     0
102
RTVSPropertyOp5
 70
     0
102
RTVSPropertyOp6
 70
     0
102
RTVSPropertyOp7
 70
     0
102
RTVSPropertyOp8
 70
     0
102
RTVSPropertyOp9
 70
     0
102
RTVSPropertyOp10
 70
     0
102
RTVSPropertyOp11
 70
     0
102
RTVSPropertyOp12
 70
     0
102
RTVSPropertyOp13
 70
     0
102
RTVSPropertyOp14
 70
     2
102
RTVSPropertyOp15
 70
     0
102
RTVSPropertyOp16
 70
     0
102
RTVSPropertyOp17
 70
     0
102
RTVSPropertyOp18
 70
     0
102
RTVSPropertyOp19
 70
     0
102
RTVSPropertyOp20
 70
     0
102
RTVSPropertyOp21
 70
     0
102
RTVSPropertyOp22
 70
     0
102
RTVSPropertyOp23
 70
     0
102
RTVSPropertyOp24
 70
     0
102
RTVSPropertyOp25
 70
     0
102
RTVSPropertyOp26
 70
     0
102
RTVSPropertyOp27
 70
     0
102
RTVSPropertyOp28
 70
     0
102
RTVSPropertyOp29
 70
     0
102
RTVSPropertyOp30
 70
     0
102
RTVSPropertyOp31
 70
     0
102
RTVSPropertyOp32
 70
     0
102
RTVSPropertyOp33
 70
     0
102
RTVSPropertyOp34
 70
     0
102
RTVSPropertyOp35
 70
     0
102
RTVSPropertyOp36
 70
     0
102
RTVSPropertyOp37
 70
     0
102
RTVSPropertyOp38
 70
     0
102
RTVSPropertyOp39
 70
     0
102
RTVSPropertyOp40
 70
     0
102
RTVSPropertyOp41
 70
     0
102
RTVSPropertyOp42
 70
     0
102
RTVSPropertyOp43
 70
     0
102
RTVSPropertyOp44
 70
     0
102
RTVSPropertyOp45
 70
     0
102
RTVSPropertyOp46
 70
     0
102
RTVSPropertyOp47
 70
     0
102
RTVSPropertyOp48
 70
     0
102
RTVSPropertyOp49
 70
     0
102
RTVSPropertyOp50
 70
     0
102
RTVSPropertyOp51
 70
     0
102
RTVSPropertyOp52
 70
     0
102
RTVSPropertyOp53
 70
     0
102
RTVSPropertyOp54
 70
     0
102
RTVSPropertyOp55
 70
     0
102
RTVSPropertyOp56
 70
     0
102
RTVSPropertyOp57
 70
     0
102
RTVSPropertyOp58
 70
     1
102
RTVSPropertyOp59
 70
     1
102
RTVSPropertyOp60
 70
     1
102
RTVSPropertyOp61
 70
     1
102
RTVSPropertyOp62
 70
     1
  0
XRECORD
  5
8B3EB
102
{ACAD_REACTORS
330
8B3EA
102
}
330
8B3EA
100
AcDbXrecord
280
     1
102
RTVSPost2010Prop28
280
     0
102
RTVSPost2010PropOp28
 70
     1
102
RTVSPost2010Prop29
280
     1
102
RTVSPost2010PropOp29
 70
     1
102
RTVSPost2010Prop30
280
     1
102
RTVSPost2010PropOp30
 70
     1
102
RTVSPost2010Prop31
280
     0
102
RTVSPost2010PropOp31
 70
     1
102
RTVSPost2010Prop32
280
     0
102
RTVSPost2010PropOp32
 70
     1
102
RTVSPost2010Prop33
280
     0
102
RTVSPost2010PropOp33
 70
     1
102
RTVSPost2010Prop34
280
     0
102
RTVSPost2010PropOp34
 70
     1
102
RTVSPost2010Prop35
280
     0
102
RTVSPost2010PropOp35
 70
     1
102
RTVSPost2010Prop36
280
     0
102
RTVSPost2010PropOp36
 70
     1
102
RTVSPost2010Prop37
 90
       50
102
RTVSPost2010PropOp37
 70
     1
102
RTVSPost2010Prop38
140
0.0
102
RTVSPost2010PropOp38
 70
     1
102
RTVSPost2010Prop39
140
1.0
102
RTVSPost2010PropOp39
 70
     1
102
RTVSPost2010Prop40
 90
        0
102
RTVSPost2010PropOp40
 70
     1
102
RTVSPost2010Prop41ColorIndex
 90
       18
102
RTVSPost2010Prop41ColorRGB
 90
        0
102
RTVSPost2010PropOp41
 70
     1
102
RTVSPost2010Prop42
 90
       50
102
RTVSPost2010PropOp42
 70
     1
102
RTVSPost2010Prop43
 90
        3
102
RTVSPost2010PropOp43
 70
     1
102
RTVSPost2010Prop44ColorIndex
 90
        5
102
RTVSPost2010Prop44ColorRGB
 90
      255
102
RTVSPost2010PropOp44
 70
     1
102
RTVSPost2010Prop45
280
     0
102
RTVSPost2010PropOp45
 70
     1
102
RTVSPost2010Prop46
 90
       50
102
RTVSPost2010PropOp46
 70
     1
102
RTVSPost2010Prop47
 90
       50
102
RTVSPost2010PropOp47
 70
     1
102
RTVSPost2010Prop48
 90
       50
102
RTVSPost2010PropOp48
 70
     1
102
RTVSPost2010Prop49
280
     0
102
RTVSPost2010PropOp49
 70
     1
102
RTVSPost2010Prop50
 90
       50
102
RTVSPost2010PropOp50
 70
     1
102
RTVSPost2010Prop51ColorIndex
 90
      256
102
RTVSPost2010Prop51ColorRGB
 90
-16777216
102
RTVSPost2010PropOp51
 70
     0
102
RTVSPost2010Prop52
140
1.0
102
RTVSPost2010PropOp52
 70
     0
102
RTVSPost2010Prop53
 90
        2
102
RTVSPost2010PropOp53
 70
     1
102
RTVSPost2010Prop54
  1
strokes_ogs.tif
102
RTVSPost2010PropOp54
 70
     1
102
RTVSPost2010Prop55
280
     0
102
RTVSPost2010PropOp55
 70
     1
102
RTVSPost2010Prop56
140
1.0
102
RTVSPost2010PropOp56
 70
     1
102
RTVSPost2010Prop57
140
1.0
102
RTVSPost2010PropOp57
 70
     1
102
RTVSPropertyOp0
 70
     1
102
RTVSPropertyOp1
 70
     1
102
RTVSPropertyOp2
 70
     1
102
RTVSPropertyOp3
 70
     1
102
RTVSPropertyOp4
 70
     1
102
RTVSPropertyOp5
 70
     1
102
RTVSPropertyOp6
 70
     1
102
RTVSPropertyOp7
 70
     1
102
RTVSPropertyOp8
 70
     1
102
RTVSPropertyOp9
 70
     1
102
RTVSPropertyOp10
 70
     1
102
RTVSPropertyOp11
 70
     1
102
RTVSPropertyOp12
 70
     1
102
RTVSPropertyOp13
 70
     1
102
RTVSPropertyOp14
 70
     1
102
RTVSPropertyOp15
 70
     1
102
RTVSPropertyOp16
 70
     1
102
RTVSPropertyOp17
 70
     1
102
RTVSPropertyOp18
 70
     1
102
RTVSPropertyOp19
 70
     1
102
RTVSPropertyOp20
 70
     1
102
RTVSPropertyOp21
 70
     1
102
RTVSPropertyOp22
 70
     1
102
RTVSPropertyOp23
 70
     1
102
RTVSPropertyOp24
 70
     1
102
RTVSPropertyOp25
 70
     1
102
RTVSPropertyOp26
 70
     1
102
RTVSPropertyOp27
 70
     1
102
RTVSPropertyOp28
 70
     1
102
RTVSPropertyOp29
 70
     1
102
RTVSPropertyOp30
 70
     1
102
RTVSPropertyOp31
 70
     1
102
RTVSPropertyOp32
 70
     1
102
RTVSPropertyOp33
 70
     1
102
RTVSPropertyOp34
 70
     1
102
RTVSPropertyOp35
 70
     1
102
RTVSPropertyOp36
 70
     1
102
RTVSPropertyOp37
 70
     1
102
RTVSPropertyOp38
 70
     1
102
RTVSPropertyOp39
 70
     1
102
RTVSPropertyOp40
 70
     1
102
RTVSPropertyOp41
 70
     1
102
RTVSPropertyOp42
 70
     1
102
RTVSPropertyOp43
 70
     1
102
RTVSPropertyOp44
 70
     1
102
RTVSPropertyOp45
 70
     1
102
RTVSPropertyOp46
 70
     1
102
RTVSPropertyOp47
 70
     1
102
RTVSPropertyOp48
 70
     1
102
RTVSPropertyOp49
 70
     1
102
RTVSPropertyOp50
 70
     1
102
RTVSPropertyOp51
 70
     0
102
RTVSPropertyOp52
 70
     0
102
RTVSPropertyOp53
 70
     1
102
RTVSPropertyOp54
 70
     1
102
RTVSPropertyOp55
 70
     1
102
RTVSPropertyOp56
 70
     1
102
RTVSPropertyOp57
 70
     1
102
RTVSPropertyOp58
 70
     1
102
RTVSPropertyOp59
 70
     1
102
RTVSPropertyOp60
 70
     1
102
RTVSPropertyOp61
 70
     1
102
RTVSPropertyOp62
 70
     1
  0
XRECORD
  5
8B3F3
102
{ACAD_REACTORS
330
8B3F2
102
}
330
8B3F2
100
AcDbXrecord
280
     1
102
RTVSPost2010Prop28
280
     0
102
RTVSPost2010PropOp28
 70
     0
102
RTVSPost2010Prop29
280
     1
102
RTVSPost2010PropOp29
 70
     0
102
RTVSPost2010Prop30
280
     1
102
RTVSPost2010PropOp30
 70
     0
102
RTVSPost2010Prop31
280
     0
102
RTVSPost2010PropOp31
 70
     0
102
RTVSPost2010Prop32
280
     0
102
RTVSPost2010PropOp32
 70
     0
102
RTVSPost2010Prop33
280
     0
102
RTVSPost2010PropOp33
 70
     0
102
RTVSPost2010Prop34
280
     0
102
RTVSPost2010PropOp34
 70
     0
102
RTVSPost2010Prop35
280
     0
102
RTVSPost2010PropOp35
 70
     0
102
RTVSPost2010Prop36
280
     0
102
RTVSPost2010PropOp36
 70
     0
102
RTVSPost2010Prop37
 90
       50
102
RTVSPost2010PropOp37
 70
     0
102
RTVSPost2010Prop38
140
0.0
102
RTVSPost2010PropOp38
 70
     0
102
RTVSPost2010Prop39
140
1.0
102
RTVSPost2010PropOp39
 70
     0
102
RTVSPost2010Prop40
 90
        0
102
RTVSPost2010PropOp40
 70
     0
102
RTVSPost2010Prop41ColorIndex
 90
       18
102
RTVSPost2010Prop41ColorRGB
 90
        0
102
RTVSPost2010PropOp41
 70
     0
102
RTVSPost2010Prop42
 90
       50
102
RTVSPost2010PropOp42
 70
     0
102
RTVSPost2010Prop43
 90
        3
102
RTVSPost2010PropOp43
 70
     0
102
RTVSPost2010Prop44ColorIndex
 90
        5
102
RTVSPost2010Prop44ColorRGB
 90
      255
102
RTVSPost2010PropOp44
 70
     0
102
RTVSPost2010Prop45
280
     0
102
RTVSPost2010PropOp45
 70
     0
102
RTVSPost2010Prop46
 90
       50
102
RTVSPost2010PropOp46
 70
     0
102
RTVSPost2010Prop47
 90
       50
102
RTVSPost2010PropOp47
 70
     0
102
RTVSPost2010Prop48
 90
       50
102
RTVSPost2010PropOp48
 70
     0
102
RTVSPost2010Prop49
280
     0
102
RTVSPost2010PropOp49
 70
     0
102
RTVSPost2010Prop50
 90
       50
102
RTVSPost2010PropOp50
 70
     0
102
RTVSPost2010Prop51ColorIndex
 90
      256
102
RTVSPost2010Prop51ColorRGB
 90
-16777216
102
RTVSPost2010PropOp51
 70
     0
102
RTVSPost2010Prop52
140
1.0
102
RTVSPost2010PropOp52
 70
     0
102
RTVSPost2010Prop53
 90
        2
102
RTVSPost2010PropOp53
 70
     0
102
RTVSPost2010Prop54
  1
strokes_ogs.tif
102
RTVSPost2010PropOp54
 70
     0
102
RTVSPost2010Prop55
280
     0
102
RTVSPost2010PropOp55
 70
     0
102
RTVSPost2010Prop56
140
1.0
102
RTVSPost2010PropOp56
 70
     0
102
RTVSPost2010Prop57
140
1.0
102
RTVSPost2010PropOp57
 70
     0
102
RTVSPropertyOp0
 70
     0
102
RTVSPropertyOp1
 70
     0
102
RTVSPropertyOp2
 70
     0
102
RTVSPropertyOp3
 70
     0
102
RTVSPropertyOp4
 70
     0
102
RTVSPropertyOp5
 70
     0
102
RTVSPropertyOp6
 70
     0
102
RTVSPropertyOp7
 70
     0
102
RTVSPropertyOp8
 70
     0
102
RTVSPropertyOp9
 70
     0
102
RTVSPropertyOp10
 70
     0
102
RTVSPropertyOp11
 70
     0
102
RTVSPropertyOp12
 70
     0
102
RTVSPropertyOp13
 70
     0
102
RTVSPropertyOp14
 70
     2
102
RTVSPropertyOp15
 70
     0
102
RTVSPropertyOp16
 70
     0
102
RTVSPropertyOp17
 70
     0
102
RTVSPropertyOp18
 70
     0
102
RTVSPropertyOp19
 70
     0
102
RTVSPropertyOp20
 70
     0
102
RTVSPropertyOp21
 70
     0
102
RTVSPropertyOp22
 70
     0
102
RTVSPropertyOp23
 70
     0
102
RTVSPropertyOp24
 70
     0
102
RTVSPropertyOp25
 70
     0
102
RTVSPropertyOp26
 70
     0
102
RTVSPropertyOp27
 70
     0
102
RTVSPropertyOp28
 70
     0
102
RTVSPropertyOp29
 70
     0
102
RTVSPropertyOp30
 70
     0
102
RTVSPropertyOp31
 70
     0
102
RTVSPropertyOp32
 70
     0
102
RTVSPropertyOp33
 70
     0
102
RTVSPropertyOp34
 70
     0
102
RTVSPropertyOp35
 70
     0
102
RTVSPropertyOp36
 70
     0
102
RTVSPropertyOp37
 70
     0
102
RTVSPropertyOp38
 70
     0
102
RTVSPropertyOp39
 70
     0
102
RTVSPropertyOp40
 70
     0
102
RTVSPropertyOp41
 70
     0
102
RTVSPropertyOp42
 70
     0
102
RTVSPropertyOp43
 70
     0
102
RTVSPropertyOp44
 70
     0
102
RTVSPropertyOp45
 70
     0
102
RTVSPropertyOp46
 70
     0
102
RTVSPropertyOp47
 70
     0
102
RTVSPropertyOp48
 70
     0
102
RTVSPropertyOp49
 70
     0
102
RTVSPropertyOp50
 70
     0
102
RTVSPropertyOp51
 70
     0
102
RTVSPropertyOp52
 70
     0
102
RTVSPropertyOp53
 70
     0
102
RTVSPropertyOp54
 70
     0
102
RTVSPropertyOp55
 70
     0
102
RTVSPropertyOp56
 70
     0
102
RTVSPropertyOp57
 70
     0
102
RTVSPropertyOp58
 70
     1
102
RTVSPropertyOp59
 70
     1
102
RTVSPropertyOp60
 70
     1
102
RTVSPropertyOp61
 70
     1
102
RTVSPropertyOp62
 70
     1
  0
XRECORD
  5
8B3E1
102
{ACAD_REACTORS
330
8B3E0
102
}
330
8B3E0
100
AcDbXrecord
280
     1
102
RTVSPost2010Prop28
280
     0
102
RTVSPost2010PropOp28
 70
     1
102
RTVSPost2010Prop29
280
     1
102
RTVSPost2010PropOp29
 70
     1
102
RTVSPost2010Prop30
280
     1
102
RTVSPost2010PropOp30
 70
     1
102
RTVSPost2010Prop31
280
     0
102
RTVSPost2010PropOp31
 70
     1
102
RTVSPost2010Prop32
280
     0
102
RTVSPost2010PropOp32
 70
     1
102
RTVSPost2010Prop33
280
     0
102
RTVSPost2010PropOp33
 70
     1
102
RTVSPost2010Prop34
280
     0
102
RTVSPost2010PropOp34
 70
     1
102
RTVSPost2010Prop35
280
     0
102
RTVSPost2010PropOp35
 70
     1
102
RTVSPost2010Prop36
280
     0
102
RTVSPost2010PropOp36
 70
     1
102
RTVSPost2010Prop37
 90
       50
102
RTVSPost2010PropOp37
 70
     1
102
RTVSPost2010Prop38
140
0.0
102
RTVSPost2010PropOp38
 70
     1
102
RTVSPost2010Prop39
140
1.0
102
RTVSPost2010PropOp39
 70
     1
102
RTVSPost2010Prop40
 90
        0
102
RTVSPost2010PropOp40
 70
     1
102
RTVSPost2010Prop41ColorIndex
 90
       18
102
RTVSPost2010Prop41ColorRGB
 90
        0
102
RTVSPost2010PropOp41
 70
     1
102
RTVSPost2010Prop42
 90
       50
102
RTVSPost2010PropOp42
 70
     1
102
RTVSPost2010Prop43
 90
        3
102
RTVSPost2010PropOp43
 70
     1
102
RTVSPost2010Prop44ColorIndex
 90
        5
102
RTVSPost2010Prop44ColorRGB
 90
      255
102
RTVSPost2010PropOp44
 70
     1
102
RTVSPost2010Prop45
280
     0
102
RTVSPost2010PropOp45
 70
     1
102
RTVSPost2010Prop46
 90
       50
102
RTVSPost2010PropOp46
 70
     1
102
RTVSPost2010Prop47
 90
       50
102
RTVSPost2010PropOp47
 70
     1
102
RTVSPost2010Prop48
 90
       50
102
RTVSPost2010PropOp48
 70
     1
102
RTVSPost2010Prop49
280
     0
102
RTVSPost2010PropOp49
 70
     1
102
RTVSPost2010Prop50
 90
       50
102
RTVSPost2010PropOp50
 70
     1
102
RTVSPost2010Prop51ColorIndex
 90
      256
102
RTVSPost2010Prop51ColorRGB
 90
-16777216
102
RTVSPost2010PropOp51
 70
     0
102
RTVSPost2010Prop52
140
1.0
102
RTVSPost2010PropOp52
 70
     0
102
RTVSPost2010Prop53
 90
        2
102
RTVSPost2010PropOp53
 70
     1
102
RTVSPost2010Prop54
  1
strokes_ogs.tif
102
RTVSPost2010PropOp54
 70
     1
102
RTVSPost2010Prop55
280
     0
102
RTVSPost2010PropOp55
 70
     1
102
RTVSPost2010Prop56
140
1.0
102
RTVSPost2010PropOp56
 70
     1
102
RTVSPost2010Prop57
140
1.0
102
RTVSPost2010PropOp57
 70
     1
102
RTVSPropertyOp0
 70
     1
102
RTVSPropertyOp1
 70
     1
102
RTVSPropertyOp2
 70
     1
102
RTVSPropertyOp3
 70
     1
102
RTVSPropertyOp4
 70
     1
102
RTVSPropertyOp5
 70
     1
102
RTVSPropertyOp6
 70
     1
102
RTVSPropertyOp7
 70
     1
102
RTVSPropertyOp8
 70
     1
102
RTVSPropertyOp9
 70
     1
102
RTVSPropertyOp10
 70
     1
102
RTVSPropertyOp11
 70
     1
102
RTVSPropertyOp12
 70
     1
102
RTVSPropertyOp13
 70
     1
102
RTVSPropertyOp14
 70
     1
102
RTVSPropertyOp15
 70
     1
102
RTVSPropertyOp16
 70
     1
102
RTVSPropertyOp17
 70
     1
102
RTVSPropertyOp18
 70
     1
102
RTVSPropertyOp19
 70
     1
102
RTVSPropertyOp20
 70
     1
102
RTVSPropertyOp21
 70
     1
102
RTVSPropertyOp22
 70
     1
102
RTVSPropertyOp23
 70
     1
102
RTVSPropertyOp24
 70
     1
102
RTVSPropertyOp25
 70
     1
102
RTVSPropertyOp26
 70
     1
102
RTVSPropertyOp27
 70
     1
102
RTVSPropertyOp28
 70
     1
102
RTVSPropertyOp29
 70
     1
102
RTVSPropertyOp30
 70
     1
102
RTVSPropertyOp31
 70
     1
102
RTVSPropertyOp32
 70
     1
102
RTVSPropertyOp33
 70
     1
102
RTVSPropertyOp34
 70
     1
102
RTVSPropertyOp35
 70
     1
102
RTVSPropertyOp36
 70
     1
102
RTVSPropertyOp37
 70
     1
102
RTVSPropertyOp38
 70
     1
102
RTVSPropertyOp39
 70
     1
102
RTVSPropertyOp40
 70
     1
102
RTVSPropertyOp41
 70
     1
102
RTVSPropertyOp42
 70
     1
102
RTVSPropertyOp43
 70
     1
102
RTVSPropertyOp44
 70
     1
102
RTVSPropertyOp45
 70
     1
102
RTVSPropertyOp46
 70
     1
102
RTVSPropertyOp47
 70
     1
102
RTVSPropertyOp48
 70
     1
102
RTVSPropertyOp49
 70
     1
102
RTVSPropertyOp50
 70
     1
102
RTVSPropertyOp51
 70
     0
102
RTVSPropertyOp52
 70
     0
102
RTVSPropertyOp53
 70
     1
102
RTVSPropertyOp54
 70
     1
102
RTVSPropertyOp55
 70
     1
102
RTVSPropertyOp56
 70
     1
102
RTVSPropertyOp57
 70
     1
102
RTVSPropertyOp58
 70
     1
102
RTVSPropertyOp59
 70
     1
102
RTVSPropertyOp60
 70
     1
102
RTVSPropertyOp61
 70
     1
102
RTVSPropertyOp62
 70
     1
  0
XRECORD
  5
8B3FF
102
{ACAD_REACTORS
330
8B3FE
102
}
330
8B3FE
100
AcDbXrecord
280
     1
102
RTVSPost2010Prop28
280
     0
102
RTVSPost2010PropOp28
 70
     1
102
RTVSPost2010Prop29
280
     1
102
RTVSPost2010PropOp29
 70
     1
102
RTVSPost2010Prop30
280
     1
102
RTVSPost2010PropOp30
 70
     1
102
RTVSPost2010Prop31
280
     0
102
RTVSPost2010PropOp31
 70
     1
102
RTVSPost2010Prop32
280
     0
102
RTVSPost2010PropOp32
 70
     1
102
RTVSPost2010Prop33
280
     0
102
RTVSPost2010PropOp33
 70
     1
102
RTVSPost2010Prop34
280
     0
102
RTVSPost2010PropOp34
 70
     1
102
RTVSPost2010Prop35
280
     0
102
RTVSPost2010PropOp35
 70
     1
102
RTVSPost2010Prop36
280
     0
102
RTVSPost2010PropOp36
 70
     1
102
RTVSPost2010Prop37
 90
       50
102
RTVSPost2010PropOp37
 70
     1
102
RTVSPost2010Prop38
140
0.0
102
RTVSPost2010PropOp38
 70
     1
102
RTVSPost2010Prop39
140
1.0
102
RTVSPost2010PropOp39
 70
     1
102
RTVSPost2010Prop40
 90
        0
102
RTVSPost2010PropOp40
 70
     1
102
RTVSPost2010Prop41ColorIndex
 90
       18
102
RTVSPost2010Prop41ColorRGB
 90
        0
102
RTVSPost2010PropOp41
 70
     1
102
RTVSPost2010Prop42
 90
       50
102
RTVSPost2010PropOp42
 70
     1
102
RTVSPost2010Prop43
 90
        3
102
RTVSPost2010PropOp43
 70
     1
102
RTVSPost2010Prop44ColorIndex
 90
        5
102
RTVSPost2010Prop44ColorRGB
 90
      255
102
RTVSPost2010PropOp44
 70
     1
102
RTVSPost2010Prop45
280
     0
102
RTVSPost2010PropOp45
 70
     1
102
RTVSPost2010Prop46
 90
       50
102
RTVSPost2010PropOp46
 70
     1
102
RTVSPost2010Prop47
 90
       50
102
RTVSPost2010PropOp47
 70
     1
102
RTVSPost2010Prop48
 90
       50
102
RTVSPost2010PropOp48
 70
     1
102
RTVSPost2010Prop49
280
     0
102
RTVSPost2010PropOp49
 70
     1
102
RTVSPost2010Prop50
 90
       50
102
RTVSPost2010PropOp50
 70
     1
102
RTVSPost2010Prop51ColorIndex
 90
      256
102
RTVSPost2010Prop51ColorRGB
 90
-16777216
102
RTVSPost2010PropOp51
 70
     0
102
RTVSPost2010Prop52
140
1.0
102
RTVSPost2010PropOp52
 70
     0
102
RTVSPost2010Prop53
 90
        2
102
RTVSPost2010PropOp53
 70
     1
102
RTVSPost2010Prop54
  1
strokes_ogs.tif
102
RTVSPost2010PropOp54
 70
     1
102
RTVSPost2010Prop55
280
     0
102
RTVSPost2010PropOp55
 70
     1
102
RTVSPost2010Prop56
140
1.0
102
RTVSPost2010PropOp56
 70
     1
102
RTVSPost2010Prop57
140
1.0
102
RTVSPost2010PropOp57
 70
     1
102
RTVSPropertyOp0
 70
     1
102
RTVSPropertyOp1
 70
     1
102
RTVSPropertyOp2
 70
     1
102
RTVSPropertyOp3
 70
     1
102
RTVSPropertyOp4
 70
     1
102
RTVSPropertyOp5
 70
     1
102
RTVSPropertyOp6
 70
     1
102
RTVSPropertyOp7
 70
     1
102
RTVSPropertyOp8
 70
     1
102
RTVSPropertyOp9
 70
     1
102
RTVSPropertyOp10
 70
     1
102
RTVSPropertyOp11
 70
     1
102
RTVSPropertyOp12
 70
     1
102
RTVSPropertyOp13
 70
     1
102
RTVSPropertyOp14
 70
     1
102
RTVSPropertyOp15
 70
     1
102
RTVSPropertyOp16
 70
     1
102
RTVSPropertyOp17
 70
     1
102
RTVSPropertyOp18
 70
     1
102
RTVSPropertyOp19
 70
     1
102
RTVSPropertyOp20
 70
     1
102
RTVSPropertyOp21
 70
     1
102
RTVSPropertyOp22
 70
     1
102
RTVSPropertyOp23
 70
     1
102
RTVSPropertyOp24
 70
     1
102
RTVSPropertyOp25
 70
     1
102
RTVSPropertyOp26
 70
     1
102
RTVSPropertyOp27
 70
     1
102
RTVSPropertyOp28
 70
     1
102
RTVSPropertyOp29
 70
     1
102
RTVSPropertyOp30
 70
     1
102
RTVSPropertyOp31
 70
     1
102
RTVSPropertyOp32
 70
     1
102
RTVSPropertyOp33
 70
     1
102
RTVSPropertyOp34
 70
     1
102
RTVSPropertyOp35
 70
     1
102
RTVSPropertyOp36
 70
     1
102
RTVSPropertyOp37
 70
     1
102
RTVSPropertyOp38
 70
     1
102
RTVSPropertyOp39
 70
     1
102
RTVSPropertyOp40
 70
     1
102
RTVSPropertyOp41
 70
     1
102
RTVSPropertyOp42
 70
     1
102
RTVSPropertyOp43
 70
     1
102
RTVSPropertyOp44
 70
     1
102
RTVSPropertyOp45
 70
     1
102
RTVSPropertyOp46
 70
     1
102
RTVSPropertyOp47
 70
     1
102
RTVSPropertyOp48
 70
     1
102
RTVSPropertyOp49
 70
     1
102
RTVSPropertyOp50
 70
     1
102
RTVSPropertyOp51
 70
     0
102
RTVSPropertyOp52
 70
     0
102
RTVSPropertyOp53
 70
     1
102
RTVSPropertyOp54
 70
     1
102
RTVSPropertyOp55
 70
     1
102
RTVSPropertyOp56
 70
     1
102
RTVSPropertyOp57
 70
     1
102
RTVSPropertyOp58
 70
     1
102
RTVSPropertyOp59
 70
     1
102
RTVSPropertyOp60
 70
     1
102
RTVSPropertyOp61
 70
     1
102
RTVSPropertyOp62
 70
     1
  0
XRECORD
  5
8B3FD
102
{ACAD_REACTORS
330
8B3FC
102
}
330
8B3FC
100
AcDbXrecord
280
     1
102
RTVSPost2010Prop28
280
     0
102
RTVSPost2010PropOp28
 70
     1
102
RTVSPost2010Prop29
280
     1
102
RTVSPost2010PropOp29
 70
     1
102
RTVSPost2010Prop30
280
     1
102
RTVSPost2010PropOp30
 70
     1
102
RTVSPost2010Prop31
280
     0
102
RTVSPost2010PropOp31
 70
     1
102
RTVSPost2010Prop32
280
     0
102
RTVSPost2010PropOp32
 70
     1
102
RTVSPost2010Prop33
280
     0
102
RTVSPost2010PropOp33
 70
     1
102
RTVSPost2010Prop34
280
     0
102
RTVSPost2010PropOp34
 70
     1
102
RTVSPost2010Prop35
280
     0
102
RTVSPost2010PropOp35
 70
     1
102
RTVSPost2010Prop36
280
     0
102
RTVSPost2010PropOp36
 70
     1
102
RTVSPost2010Prop37
 90
       50
102
RTVSPost2010PropOp37
 70
     1
102
RTVSPost2010Prop38
140
0.0
102
RTVSPost2010PropOp38
 70
     1
102
RTVSPost2010Prop39
140
1.0
102
RTVSPost2010PropOp39
 70
     1
102
RTVSPost2010Prop40
 90
        0
102
RTVSPost2010PropOp40
 70
     1
102
RTVSPost2010Prop41ColorIndex
 90
       18
102
RTVSPost2010Prop41ColorRGB
 90
        0
102
RTVSPost2010PropOp41
 70
     1
102
RTVSPost2010Prop42
 90
       50
102
RTVSPost2010PropOp42
 70
     1
102
RTVSPost2010Prop43
 90
        3
102
RTVSPost2010PropOp43
 70
     1
102
RTVSPost2010Prop44ColorIndex
 90
        5
102
RTVSPost2010Prop44ColorRGB
 90
      255
102
RTVSPost2010PropOp44
 70
     1
102
RTVSPost2010Prop45
280
     0
102
RTVSPost2010PropOp45
 70
     1
102
RTVSPost2010Prop46
 90
       50
102
RTVSPost2010PropOp46
 70
     1
102
RTVSPost2010Prop47
 90
       50
102
RTVSPost2010PropOp47
 70
     1
102
RTVSPost2010Prop48
 90
       50
102
RTVSPost2010PropOp48
 70
     1
102
RTVSPost2010Prop49
280
     0
102
RTVSPost2010PropOp49
 70
     1
102
RTVSPost2010Prop50
 90
       50
102
RTVSPost2010PropOp50
 70
     1
102
RTVSPost2010Prop51ColorIndex
 90
      256
102
RTVSPost2010Prop51ColorRGB
 90
-16777216
102
RTVSPost2010PropOp51
 70
     0
102
RTVSPost2010Prop52
140
1.0
102
RTVSPost2010PropOp52
 70
     0
102
RTVSPost2010Prop53
 90
        2
102
RTVSPost2010PropOp53
 70
     1
102
RTVSPost2010Prop54
  1
strokes_ogs.tif
102
RTVSPost2010PropOp54
 70
     1
102
RTVSPost2010Prop55
280
     0
102
RTVSPost2010PropOp55
 70
     1
102
RTVSPost2010Prop56
140
1.0
102
RTVSPost2010PropOp56
 70
     1
102
RTVSPost2010Prop57
140
1.0
102
RTVSPost2010PropOp57
 70
     1
102
RTVSPropertyOp0
 70
     1
102
RTVSPropertyOp1
 70
     1
102
RTVSPropertyOp2
 70
     1
102
RTVSPropertyOp3
 70
     1
102
RTVSPropertyOp4
 70
     1
102
RTVSPropertyOp5
 70
     1
102
RTVSPropertyOp6
 70
     1
102
RTVSPropertyOp7
 70
     1
102
RTVSPropertyOp8
 70
     1
102
RTVSPropertyOp9
 70
     1
102
RTVSPropertyOp10
 70
     1
102
RTVSPropertyOp11
 70
     1
102
RTVSPropertyOp12
 70
     1
102
RTVSPropertyOp13
 70
     1
102
RTVSPropertyOp14
 70
     1
102
RTVSPropertyOp15
 70
     1
102
RTVSPropertyOp16
 70
     1
102
RTVSPropertyOp17
 70
     1
102
RTVSPropertyOp18
 70
     1
102
RTVSPropertyOp19
 70
     1
102
RTVSPropertyOp20
 70
     1
102
RTVSPropertyOp21
 70
     1
102
RTVSPropertyOp22
 70
     1
102
RTVSPropertyOp23
 70
     1
102
RTVSPropertyOp24
 70
     1
102
RTVSPropertyOp25
 70
     1
102
RTVSPropertyOp26
 70
     1
102
RTVSPropertyOp27
 70
     1
102
RTVSPropertyOp28
 70
     1
102
RTVSPropertyOp29
 70
     1
102
RTVSPropertyOp30
 70
     1
102
RTVSPropertyOp31
 70
     1
102
RTVSPropertyOp32
 70
     1
102
RTVSPropertyOp33
 70
     1
102
RTVSPropertyOp34
 70
     1
102
RTVSPropertyOp35
 70
     1
102
RTVSPropertyOp36
 70
     1
102
RTVSPropertyOp37
 70
     1
102
RTVSPropertyOp38
 70
     1
102
RTVSPropertyOp39
 70
     1
102
RTVSPropertyOp40
 70
     1
102
RTVSPropertyOp41
 70
     1
102
RTVSPropertyOp42
 70
     1
102
RTVSPropertyOp43
 70
     1
102
RTVSPropertyOp44
 70
     1
102
RTVSPropertyOp45
 70
     1
102
RTVSPropertyOp46
 70
     1
102
RTVSPropertyOp47
 70
     1
102
RTVSPropertyOp48
 70
     1
102
RTVSPropertyOp49
 70
     1
102
RTVSPropertyOp50
 70
     1
102
RTVSPropertyOp51
 70
     0
102
RTVSPropertyOp52
 70
     0
102
RTVSPropertyOp53
 70
     1
102
RTVSPropertyOp54
 70
     1
102
RTVSPropertyOp55
 70
     1
102
RTVSPropertyOp56
 70
     1
102
RTVSPropertyOp57
 70
     1
102
RTVSPropertyOp58
 70
     1
102
RTVSPropertyOp59
 70
     1
102
RTVSPropertyOp60
 70
     1
102
RTVSPropertyOp61
 70
     1
102
RTVSPropertyOp62
 70
     1
  0
XRECORD
  5
8B3F7
102
{ACAD_REACTORS
330
8B3F6
102
}
330
8B3F6
100
AcDbXrecord
280
     1
102
RTVSPost2010Prop28
280
     0
102
RTVSPost2010PropOp28
 70
     1
102
RTVSPost2010Prop29
280
     1
102
RTVSPost2010PropOp29
 70
     1
102
RTVSPost2010Prop30
280
     1
102
RTVSPost2010PropOp30
 70
     1
102
RTVSPost2010Prop31
280
     0
102
RTVSPost2010PropOp31
 70
     1
102
RTVSPost2010Prop32
280
     0
102
RTVSPost2010PropOp32
 70
     1
102
RTVSPost2010Prop33
280
     0
102
RTVSPost2010PropOp33
 70
     1
102
RTVSPost2010Prop34
280
     0
102
RTVSPost2010PropOp34
 70
     1
102
RTVSPost2010Prop35
280
     0
102
RTVSPost2010PropOp35
 70
     1
102
RTVSPost2010Prop36
280
     0
102
RTVSPost2010PropOp36
 70
     1
102
RTVSPost2010Prop37
 90
       50
102
RTVSPost2010PropOp37
 70
     1
102
RTVSPost2010Prop38
140
0.0
102
RTVSPost2010PropOp38
 70
     1
102
RTVSPost2010Prop39
140
1.0
102
RTVSPost2010PropOp39
 70
     1
102
RTVSPost2010Prop40
 90
        0
102
RTVSPost2010PropOp40
 70
     1
102
RTVSPost2010Prop41ColorIndex
 90
       18
102
RTVSPost2010Prop41ColorRGB
 90
        0
102
RTVSPost2010PropOp41
 70
     1
102
RTVSPost2010Prop42
 90
       50
102
RTVSPost2010PropOp42
 70
     1
102
RTVSPost2010Prop43
 90
        3
102
RTVSPost2010PropOp43
 70
     1
102
RTVSPost2010Prop44ColorIndex
 90
        5
102
RTVSPost2010Prop44ColorRGB
 90
      255
102
RTVSPost2010PropOp44
 70
     1
102
RTVSPost2010Prop45
280
     0
102
RTVSPost2010PropOp45
 70
     1
102
RTVSPost2010Prop46
 90
       50
102
RTVSPost2010PropOp46
 70
     1
102
RTVSPost2010Prop47
 90
       50
102
RTVSPost2010PropOp47
 70
     1
102
RTVSPost2010Prop48
 90
       50
102
RTVSPost2010PropOp48
 70
     1
102
RTVSPost2010Prop49
280
     0
102
RTVSPost2010PropOp49
 70
     1
102
RTVSPost2010Prop50
 90
       50
102
RTVSPost2010PropOp50
 70
     1
102
RTVSPost2010Prop51ColorIndex
 90
      256
102
RTVSPost2010Prop51ColorRGB
 90
-16777216
102
RTVSPost2010PropOp51
 70
     0
102
RTVSPost2010Prop52
140
1.0
102
RTVSPost2010PropOp52
 70
     0
102
RTVSPost2010Prop53
 90
        2
102
RTVSPost2010PropOp53
 70
     1
102
RTVSPost2010Prop54
  1
strokes_ogs.tif
102
RTVSPost2010PropOp54
 70
     1
102
RTVSPost2010Prop55
280
     0
102
RTVSPost2010PropOp55
 70
     1
102
RTVSPost2010Prop56
140
1.0
102
RTVSPost2010PropOp56
 70
     1
102
RTVSPost2010Prop57
140
1.0
102
RTVSPost2010PropOp57
 70
     1
102
RTVSPropertyOp0
 70
     1
102
RTVSPropertyOp1
 70
     1
102
RTVSPropertyOp2
 70
     1
102
RTVSPropertyOp3
 70
     1
102
RTVSPropertyOp4
 70
     1
102
RTVSPropertyOp5
 70
     1
102
RTVSPropertyOp6
 70
     1
102
RTVSPropertyOp7
 70
     1
102
RTVSPropertyOp8
 70
     1
102
RTVSPropertyOp9
 70
     1
102
RTVSPropertyOp10
 70
     1
102
RTVSPropertyOp11
 70
     1
102
RTVSPropertyOp12
 70
     1
102
RTVSPropertyOp13
 70
     1
102
RTVSPropertyOp14
 70
     1
102
RTVSPropertyOp15
 70
     1
102
RTVSPropertyOp16
 70
     1
102
RTVSPropertyOp17
 70
     1
102
RTVSPropertyOp18
 70
     1
102
RTVSPropertyOp19
 70
     1
102
RTVSPropertyOp20
 70
     1
102
RTVSPropertyOp21
 70
     1
102
RTVSPropertyOp22
 70
     1
102
RTVSPropertyOp23
 70
     1
102
RTVSPropertyOp24
 70
     1
102
RTVSPropertyOp25
 70
     1
102
RTVSPropertyOp26
 70
     1
102
RTVSPropertyOp27
 70
     1
102
RTVSPropertyOp28
 70
     1
102
RTVSPropertyOp29
 70
     1
102
RTVSPropertyOp30
 70
     1
102
RTVSPropertyOp31
 70
     1
102
RTVSPropertyOp32
 70
     1
102
RTVSPropertyOp33
 70
     1
102
RTVSPropertyOp34
 70
     1
102
RTVSPropertyOp35
 70
     1
102
RTVSPropertyOp36
 70
     1
102
RTVSPropertyOp37
 70
     1
102
RTVSPropertyOp38
 70
     1
102
RTVSPropertyOp39
 70
     1
102
RTVSPropertyOp40
 70
     1
102
RTVSPropertyOp41
 70
     1
102
RTVSPropertyOp42
 70
     1
102
RTVSPropertyOp43
 70
     1
102
RTVSPropertyOp44
 70
     1
102
RTVSPropertyOp45
 70
     1
102
RTVSPropertyOp46
 70
     1
102
RTVSPropertyOp47
 70
     1
102
RTVSPropertyOp48
 70
     1
102
RTVSPropertyOp49
 70
     1
102
RTVSPropertyOp50
 70
     1
102
RTVSPropertyOp51
 70
     0
102
RTVSPropertyOp52
 70
     0
102
RTVSPropertyOp53
 70
     1
102
RTVSPropertyOp54
 70
     1
102
RTVSPropertyOp55
 70
     1
102
RTVSPropertyOp56
 70
     1
102
RTVSPropertyOp57
 70
     1
102
RTVSPropertyOp58
 70
     1
102
RTVSPropertyOp59
 70
     1
102
RTVSPropertyOp60
 70
     1
102
RTVSPropertyOp61
 70
     1
102
RTVSPropertyOp62
 70
     1
  0
XRECORD
  5
8B3F9
102
{ACAD_REACTORS
330
8B3F8
102
}
330
8B3F8
100
AcDbXrecord
280
     1
102
RTVSPost2010Prop28
280
     0
102
RTVSPost2010PropOp28
 70
     1
102
RTVSPost2010Prop29
280
     1
102
RTVSPost2010PropOp29
 70
     1
102
RTVSPost2010Prop30
280
     1
102
RTVSPost2010PropOp30
 70
     1
102
RTVSPost2010Prop31
280
     0
102
RTVSPost2010PropOp31
 70
     1
102
RTVSPost2010Prop32
280
     0
102
RTVSPost2010PropOp32
 70
     1
102
RTVSPost2010Prop33
280
     0
102
RTVSPost2010PropOp33
 70
     1
102
RTVSPost2010Prop34
280
     0
102
RTVSPost2010PropOp34
 70
     1
102
RTVSPost2010Prop35
280
     0
102
RTVSPost2010PropOp35
 70
     1
102
RTVSPost2010Prop36
280
     0
102
RTVSPost2010PropOp36
 70
     1
102
RTVSPost2010Prop37
 90
       50
102
RTVSPost2010PropOp37
 70
     1
102
RTVSPost2010Prop38
140
0.0
102
RTVSPost2010PropOp38
 70
     1
102
RTVSPost2010Prop39
140
1.0
102
RTVSPost2010PropOp39
 70
     1
102
RTVSPost2010Prop40
 90
        0
102
RTVSPost2010PropOp40
 70
     1
102
RTVSPost2010Prop41ColorIndex
 90
       18
102
RTVSPost2010Prop41ColorRGB
 90
        0
102
RTVSPost2010PropOp41
 70
     1
102
RTVSPost2010Prop42
 90
       50
102
RTVSPost2010PropOp42
 70
     1
102
RTVSPost2010Prop43
 90
        3
102
RTVSPost2010PropOp43
 70
     1
102
RTVSPost2010Prop44ColorIndex
 90
        5
102
RTVSPost2010Prop44ColorRGB
 90
      255
102
RTVSPost2010PropOp44
 70
     1
102
RTVSPost2010Prop45
280
     0
102
RTVSPost2010PropOp45
 70
     1
102
RTVSPost2010Prop46
 90
       50
102
RTVSPost2010PropOp46
 70
     1
102
RTVSPost2010Prop47
 90
       50
102
RTVSPost2010PropOp47
 70
     1
102
RTVSPost2010Prop48
 90
       50
102
RTVSPost2010PropOp48
 70
     1
102
RTVSPost2010Prop49
280
     0
102
RTVSPost2010PropOp49
 70
     1
102
RTVSPost2010Prop50
 90
       50
102
RTVSPost2010PropOp50
 70
     1
102
RTVSPost2010Prop51ColorIndex
 90
      256
102
RTVSPost2010Prop51ColorRGB
 90
-16777216
102
RTVSPost2010PropOp51
 70
     0
102
RTVSPost2010Prop52
140
1.0
102
RTVSPost2010PropOp52
 70
     0
102
RTVSPost2010Prop53
 90
        2
102
RTVSPost2010PropOp53
 70
     1
102
RTVSPost2010Prop54
  1
strokes_ogs.tif
102
RTVSPost2010PropOp54
 70
     1
102
RTVSPost2010Prop55
280
     0
102
RTVSPost2010PropOp55
 70
     1
102
RTVSPost2010Prop56
140
1.0
102
RTVSPost2010PropOp56
 70
     1
102
RTVSPost2010Prop57
140
1.0
102
RTVSPost2010PropOp57
 70
     1
102
RTVSPropertyOp0
 70
     1
102
RTVSPropertyOp1
 70
     1
102
RTVSPropertyOp2
 70
     1
102
RTVSPropertyOp3
 70
     1
102
RTVSPropertyOp4
 70
     1
102
RTVSPropertyOp5
 70
     1
102
RTVSPropertyOp6
 70
     1
102
RTVSPropertyOp7
 70
     1
102
RTVSPropertyOp8
 70
     1
102
RTVSPropertyOp9
 70
     1
102
RTVSPropertyOp10
 70
     1
102
RTVSPropertyOp11
 70
     1
102
RTVSPropertyOp12
 70
     1
102
RTVSPropertyOp13
 70
     1
102
RTVSPropertyOp14
 70
     1
102
RTVSPropertyOp15
 70
     1
102
RTVSPropertyOp16
 70
     1
102
RTVSPropertyOp17
 70
     1
102
RTVSPropertyOp18
 70
     1
102
RTVSPropertyOp19
 70
     1
102
RTVSPropertyOp20
 70
     1
102
RTVSPropertyOp21
 70
     1
102
RTVSPropertyOp22
 70
     1
102
RTVSPropertyOp23
 70
     1
102
RTVSPropertyOp24
 70
     1
102
RTVSPropertyOp25
 70
     1
102
RTVSPropertyOp26
 70
     1
102
RTVSPropertyOp27
 70
     1
102
RTVSPropertyOp28
 70
     1
102
RTVSPropertyOp29
 70
     1
102
RTVSPropertyOp30
 70
     1
102
RTVSPropertyOp31
 70
     1
102
RTVSPropertyOp32
 70
     1
102
RTVSPropertyOp33
 70
     1
102
RTVSPropertyOp34
 70
     1
102
RTVSPropertyOp35
 70
     1
102
RTVSPropertyOp36
 70
     1
102
RTVSPropertyOp37
 70
     1
102
RTVSPropertyOp38
 70
     1
102
RTVSPropertyOp39
 70
     1
102
RTVSPropertyOp40
 70
     1
102
RTVSPropertyOp41
 70
     1
102
RTVSPropertyOp42
 70
     1
102
RTVSPropertyOp43
 70
     1
102
RTVSPropertyOp44
 70
     1
102
RTVSPropertyOp45
 70
     1
102
RTVSPropertyOp46
 70
     1
102
RTVSPropertyOp47
 70
     1
102
RTVSPropertyOp48
 70
     1
102
RTVSPropertyOp49
 70
     1
102
RTVSPropertyOp50
 70
     1
102
RTVSPropertyOp51
 70
     0
102
RTVSPropertyOp52
 70
     0
102
RTVSPropertyOp53
 70
     1
102
RTVSPropertyOp54
 70
     1
102
RTVSPropertyOp55
 70
     1
102
RTVSPropertyOp56
 70
     1
102
RTVSPropertyOp57
 70
     1
102
RTVSPropertyOp58
 70
     1
102
RTVSPropertyOp59
 70
     1
102
RTVSPropertyOp60
 70
     1
102
RTVSPropertyOp61
 70
     1
102
RTVSPropertyOp62
 70
     1
  0
XRECORD
  5
8B3E9
102
{ACAD_REACTORS
330
8B3E8
102
}
330
8B3E8
100
AcDbXrecord
280
     1
102
RTVSPost2010Prop28
280
     0
102
RTVSPost2010PropOp28
 70
     1
102
RTVSPost2010Prop29
280
     1
102
RTVSPost2010PropOp29
 70
     1
102
RTVSPost2010Prop30
280
     1
102
RTVSPost2010PropOp30
 70
     1
102
RTVSPost2010Prop31
280
     0
102
RTVSPost2010PropOp31
 70
     1
102
RTVSPost2010Prop32
280
     0
102
RTVSPost2010PropOp32
 70
     1
102
RTVSPost2010Prop33
280
     0
102
RTVSPost2010PropOp33
 70
     1
102
RTVSPost2010Prop34
280
     0
102
RTVSPost2010PropOp34
 70
     1
102
RTVSPost2010Prop35
280
     0
102
RTVSPost2010PropOp35
 70
     1
102
RTVSPost2010Prop36
280
     0
102
RTVSPost2010PropOp36
 70
     1
102
RTVSPost2010Prop37
 90
       50
102
RTVSPost2010PropOp37
 70
     1
102
RTVSPost2010Prop38
140
0.0
102
RTVSPost2010PropOp38
 70
     1
102
RTVSPost2010Prop39
140
1.0
102
RTVSPost2010PropOp39
 70
     1
102
RTVSPost2010Prop40
 90
        0
102
RTVSPost2010PropOp40
 70
     1
102
RTVSPost2010Prop41ColorIndex
 90
       18
102
RTVSPost2010Prop41ColorRGB
 90
        0
102
RTVSPost2010PropOp41
 70
     1
102
RTVSPost2010Prop42
 90
       50
102
RTVSPost2010PropOp42
 70
     1
102
RTVSPost2010Prop43
 90
        3
102
RTVSPost2010PropOp43
 70
     1
102
RTVSPost2010Prop44ColorIndex
 90
        5
102
RTVSPost2010Prop44ColorRGB
 90
      255
102
RTVSPost2010PropOp44
 70
     1
102
RTVSPost2010Prop45
280
     0
102
RTVSPost2010PropOp45
 70
     1
102
RTVSPost2010Prop46
 90
       50
102
RTVSPost2010PropOp46
 70
     1
102
RTVSPost2010Prop47
 90
       50
102
RTVSPost2010PropOp47
 70
     1
102
RTVSPost2010Prop48
 90
       50
102
RTVSPost2010PropOp48
 70
     1
102
RTVSPost2010Prop49
280
     0
102
RTVSPost2010PropOp49
 70
     1
102
RTVSPost2010Prop50
 90
       50
102
RTVSPost2010PropOp50
 70
     1
102
RTVSPost2010Prop51ColorIndex
 90
      256
102
RTVSPost2010Prop51ColorRGB
 90
-16777216
102
RTVSPost2010PropOp51
 70
     0
102
RTVSPost2010Prop52
140
1.0
102
RTVSPost2010PropOp52
 70
     0
102
RTVSPost2010Prop53
 90
        2
102
RTVSPost2010PropOp53
 70
     1
102
RTVSPost2010Prop54
  1
strokes_ogs.tif
102
RTVSPost2010PropOp54
 70
     1
102
RTVSPost2010Prop55
280
     0
102
RTVSPost2010PropOp55
 70
     1
102
RTVSPost2010Prop56
140
1.0
102
RTVSPost2010PropOp56
 70
     1
102
RTVSPost2010Prop57
140
1.0
102
RTVSPost2010PropOp57
 70
     1
102
RTVSPropertyOp0
 70
     1
102
RTVSPropertyOp1
 70
     1
102
RTVSPropertyOp2
 70
     1
102
RTVSPropertyOp3
 70
     1
102
RTVSPropertyOp4
 70
     1
102
RTVSPropertyOp5
 70
     1
102
RTVSPropertyOp6
 70
     1
102
RTVSPropertyOp7
 70
     1
102
RTVSPropertyOp8
 70
     1
102
RTVSPropertyOp9
 70
     1
102
RTVSPropertyOp10
 70
     1
102
RTVSPropertyOp11
 70
     1
102
RTVSPropertyOp12
 70
     1
102
RTVSPropertyOp13
 70
     1
102
RTVSPropertyOp14
 70
     1
102
RTVSPropertyOp15
 70
     1
102
RTVSPropertyOp16
 70
     1
102
RTVSPropertyOp17
 70
     1
102
RTVSPropertyOp18
 70
     1
102
RTVSPropertyOp19
 70
     1
102
RTVSPropertyOp20
 70
     1
102
RTVSPropertyOp21
 70
     1
102
RTVSPropertyOp22
 70
     1
102
RTVSPropertyOp23
 70
     1
102
RTVSPropertyOp24
 70
     1
102
RTVSPropertyOp25
 70
     1
102
RTVSPropertyOp26
 70
     1
102
RTVSPropertyOp27
 70
     1
102
RTVSPropertyOp28
 70
     1
102
RTVSPropertyOp29
 70
     1
102
RTVSPropertyOp30
 70
     1
102
RTVSPropertyOp31
 70
     1
102
RTVSPropertyOp32
 70
     1
102
RTVSPropertyOp33
 70
     1
102
RTVSPropertyOp34
 70
     1
102
RTVSPropertyOp35
 70
     1
102
RTVSPropertyOp36
 70
     1
102
RTVSPropertyOp37
 70
     1
102
RTVSPropertyOp38
 70
     1
102
RTVSPropertyOp39
 70
     1
102
RTVSPropertyOp40
 70
     1
102
RTVSPropertyOp41
 70
     1
102
RTVSPropertyOp42
 70
     1
102
RTVSPropertyOp43
 70
     1
102
RTVSPropertyOp44
 70
     1
102
RTVSPropertyOp45
 70
     1
102
RTVSPropertyOp46
 70
     1
102
RTVSPropertyOp47
 70
     1
102
RTVSPropertyOp48
 70
     1
102
RTVSPropertyOp49
 70
     1
102
RTVSPropertyOp50
 70
     1
102
RTVSPropertyOp51
 70
     0
102
RTVSPropertyOp52
 70
     0
102
RTVSPropertyOp53
 70
     1
102
RTVSPropertyOp54
 70
     1
102
RTVSPropertyOp55
 70
     1
102
RTVSPropertyOp56
 70
     1
102
RTVSPropertyOp57
 70
     1
102
RTVSPropertyOp58
 70
     1
102
RTVSPropertyOp59
 70
     1
102
RTVSPropertyOp60
 70
     1
102
RTVSPropertyOp61
 70
     1
102
RTVSPropertyOp62
 70
     1
  0
XRECORD
  5
8B3DB
102
{ACAD_REACTORS
330
8B3DA
102
}
330
8B3DA
100
AcDbXrecord
280
     1
102
RTVSPost2010Prop28
280
     0
102
RTVSPost2010PropOp28
 70
     1
102
RTVSPost2010Prop29
280
     1
102
RTVSPost2010PropOp29
 70
     1
102
RTVSPost2010Prop30
280
     1
102
RTVSPost2010PropOp30
 70
     1
102
RTVSPost2010Prop31
280
     0
102
RTVSPost2010PropOp31
 70
     1
102
RTVSPost2010Prop32
280
     0
102
RTVSPost2010PropOp32
 70
     1
102
RTVSPost2010Prop33
280
     0
102
RTVSPost2010PropOp33
 70
     1
102
RTVSPost2010Prop34
280
     0
102
RTVSPost2010PropOp34
 70
     1
102
RTVSPost2010Prop35
280
     0
102
RTVSPost2010PropOp35
 70
     1
102
RTVSPost2010Prop36
280
     0
102
RTVSPost2010PropOp36
 70
     1
102
RTVSPost2010Prop37
 90
       50
102
RTVSPost2010PropOp37
 70
     1
102
RTVSPost2010Prop38
140
0.0
102
RTVSPost2010PropOp38
 70
     1
102
RTVSPost2010Prop39
140
1.0
102
RTVSPost2010PropOp39
 70
     1
102
RTVSPost2010Prop40
 90
        0
102
RTVSPost2010PropOp40
 70
     1
102
RTVSPost2010Prop41ColorIndex
 90
       18
102
RTVSPost2010Prop41ColorRGB
 90
        0
102
RTVSPost2010PropOp41
 70
     1
102
RTVSPost2010Prop42
 90
       50
102
RTVSPost2010PropOp42
 70
     1
102
RTVSPost2010Prop43
 90
        3
102
RTVSPost2010PropOp43
 70
     1
102
RTVSPost2010Prop44ColorIndex
 90
        5
102
RTVSPost2010Prop44ColorRGB
 90
      255
102
RTVSPost2010PropOp44
 70
     1
102
RTVSPost2010Prop45
280
     0
102
RTVSPost2010PropOp45
 70
     1
102
RTVSPost2010Prop46
 90
       50
102
RTVSPost2010PropOp46
 70
     1
102
RTVSPost2010Prop47
 90
       50
102
RTVSPost2010PropOp47
 70
     1
102
RTVSPost2010Prop48
 90
       50
102
RTVSPost2010PropOp48
 70
     1
102
RTVSPost2010Prop49
280
     0
102
RTVSPost2010PropOp49
 70
     1
102
RTVSPost2010Prop50
 90
       50
102
RTVSPost2010PropOp50
 70
     1
102
RTVSPost2010Prop51ColorIndex
 90
      256
102
RTVSPost2010Prop51ColorRGB
 90
-16777216
102
RTVSPost2010PropOp51
 70
     0
102
RTVSPost2010Prop52
140
1.0
102
RTVSPost2010PropOp52
 70
     0
102
RTVSPost2010Prop53
 90
        2
102
RTVSPost2010PropOp53
 70
     1
102
RTVSPost2010Prop54
  1
strokes_ogs.tif
102
RTVSPost2010PropOp54
 70
     1
102
RTVSPost2010Prop55
280
     0
102
RTVSPost2010PropOp55
 70
     1
102
RTVSPost2010Prop56
140
1.0
102
RTVSPost2010PropOp56
 70
     1
102
RTVSPost2010Prop57
140
1.0
102
RTVSPost2010PropOp57
 70
     1
102
RTVSPropertyOp0
 70
     1
102
RTVSPropertyOp1
 70
     1
102
RTVSPropertyOp2
 70
     1
102
RTVSPropertyOp3
 70
     1
102
RTVSPropertyOp4
 70
     1
102
RTVSPropertyOp5
 70
     1
102
RTVSPropertyOp6
 70
     1
102
RTVSPropertyOp7
 70
     1
102
RTVSPropertyOp8
 70
     1
102
RTVSPropertyOp9
 70
     1
102
RTVSPropertyOp10
 70
     1
102
RTVSPropertyOp11
 70
     1
102
RTVSPropertyOp12
 70
     1
102
RTVSPropertyOp13
 70
     1
102
RTVSPropertyOp14
 70
     1
102
RTVSPropertyOp15
 70
     1
102
RTVSPropertyOp16
 70
     1
102
RTVSPropertyOp17
 70
     1
102
RTVSPropertyOp18
 70
     1
102
RTVSPropertyOp19
 70
     1
102
RTVSPropertyOp20
 70
     1
102
RTVSPropertyOp21
 70
     1
102
RTVSPropertyOp22
 70
     1
102
RTVSPropertyOp23
 70
     1
102
RTVSPropertyOp24
 70
     1
102
RTVSPropertyOp25
 70
     1
102
RTVSPropertyOp26
 70
     1
102
RTVSPropertyOp27
 70
     1
102
RTVSPropertyOp28
 70
     1
102
RTVSPropertyOp29
 70
     1
102
RTVSPropertyOp30
 70
     1
102
RTVSPropertyOp31
 70
     1
102
RTVSPropertyOp32
 70
     1
102
RTVSPropertyOp33
 70
     1
102
RTVSPropertyOp34
 70
     1
102
RTVSPropertyOp35
 70
     1
102
RTVSPropertyOp36
 70
     1
102
RTVSPropertyOp37
 70
     1
102
RTVSPropertyOp38
 70
     1
102
RTVSPropertyOp39
 70
     1
102
RTVSPropertyOp40
 70
     1
102
RTVSPropertyOp41
 70
     1
102
RTVSPropertyOp42
 70
     1
102
RTVSPropertyOp43
 70
     1
102
RTVSPropertyOp44
 70
     1
102
RTVSPropertyOp45
 70
     1
102
RTVSPropertyOp46
 70
     1
102
RTVSPropertyOp47
 70
     1
102
RTVSPropertyOp48
 70
     1
102
RTVSPropertyOp49
 70
     1
102
RTVSPropertyOp50
 70
     1
102
RTVSPropertyOp51
 70
     0
102
RTVSPropertyOp52
 70
     0
102
RTVSPropertyOp53
 70
     1
102
RTVSPropertyOp54
 70
     1
102
RTVSPropertyOp55
 70
     1
102
RTVSPropertyOp56
 70
     1
102
RTVSPropertyOp57
 70
     1
102
RTVSPropertyOp58
 70
     1
102
RTVSPropertyOp59
 70
     1
102
RTVSPropertyOp60
 70
     1
102
RTVSPropertyOp61
 70
     1
102
RTVSPropertyOp62
 70
     1
  0
XRECORD
  5
8B3FB
102
{ACAD_REACTORS
330
8B3FA
102
}
330
8B3FA
100
AcDbXrecord
280
     1
102
RTVSPost2010Prop28
280
     0
102
RTVSPost2010PropOp28
 70
     1
102
RTVSPost2010Prop29
280
     1
102
RTVSPost2010PropOp29
 70
     1
102
RTVSPost2010Prop30
280
     1
102
RTVSPost2010PropOp30
 70
     1
102
RTVSPost2010Prop31
280
     0
102
RTVSPost2010PropOp31
 70
     1
102
RTVSPost2010Prop32
280
     0
102
RTVSPost2010PropOp32
 70
     1
102
RTVSPost2010Prop33
280
     0
102
RTVSPost2010PropOp33
 70
     1
102
RTVSPost2010Prop34
280
     0
102
RTVSPost2010PropOp34
 70
     1
102
RTVSPost2010Prop35
280
     0
102
RTVSPost2010PropOp35
 70
     1
102
RTVSPost2010Prop36
280
     0
102
RTVSPost2010PropOp36
 70
     1
102
RTVSPost2010Prop37
 90
       50
102
RTVSPost2010PropOp37
 70
     1
102
RTVSPost2010Prop38
140
0.0
102
RTVSPost2010PropOp38
 70
     1
102
RTVSPost2010Prop39
140
1.0
102
RTVSPost2010PropOp39
 70
     1
102
RTVSPost2010Prop40
 90
        0
102
RTVSPost2010PropOp40
 70
     1
102
RTVSPost2010Prop41ColorIndex
 90
       18
102
RTVSPost2010Prop41ColorRGB
 90
        0
102
RTVSPost2010PropOp41
 70
     1
102
RTVSPost2010Prop42
 90
       50
102
RTVSPost2010PropOp42
 70
     1
102
RTVSPost2010Prop43
 90
        3
102
RTVSPost2010PropOp43
 70
     1
102
RTVSPost2010Prop44ColorIndex
 90
        5
102
RTVSPost2010Prop44ColorRGB
 90
      255
102
RTVSPost2010PropOp44
 70
     1
102
RTVSPost2010Prop45
280
     0
102
RTVSPost2010PropOp45
 70
     1
102
RTVSPost2010Prop46
 90
       50
102
RTVSPost2010PropOp46
 70
     1
102
RTVSPost2010Prop47
 90
       50
102
RTVSPost2010PropOp47
 70
     1
102
RTVSPost2010Prop48
 90
       50
102
RTVSPost2010PropOp48
 70
     1
102
RTVSPost2010Prop49
280
     0
102
RTVSPost2010PropOp49
 70
     1
102
RTVSPost2010Prop50
 90
       50
102
RTVSPost2010PropOp50
 70
     1
102
RTVSPost2010Prop51ColorIndex
 90
      256
102
RTVSPost2010Prop51ColorRGB
 90
-16777216
102
RTVSPost2010PropOp51
 70
     0
102
RTVSPost2010Prop52
140
1.0
102
RTVSPost2010PropOp52
 70
     0
102
RTVSPost2010Prop53
 90
        2
102
RTVSPost2010PropOp53
 70
     1
102
RTVSPost2010Prop54
  1
strokes_ogs.tif
102
RTVSPost2010PropOp54
 70
     1
102
RTVSPost2010Prop55
280
     0
102
RTVSPost2010PropOp55
 70
     1
102
RTVSPost2010Prop56
140
1.0
102
RTVSPost2010PropOp56
 70
     1
102
RTVSPost2010Prop57
140
1.0
102
RTVSPost2010PropOp57
 70
     1
102
RTVSPropertyOp0
 70
     1
102
RTVSPropertyOp1
 70
     1
102
RTVSPropertyOp2
 70
     1
102
RTVSPropertyOp3
 70
     1
102
RTVSPropertyOp4
 70
     1
102
RTVSPropertyOp5
 70
     1
102
RTVSPropertyOp6
 70
     1
102
RTVSPropertyOp7
 70
     1
102
RTVSPropertyOp8
 70
     1
102
RTVSPropertyOp9
 70
     1
102
RTVSPropertyOp10
 70
     1
102
RTVSPropertyOp11
 70
     1
102
RTVSPropertyOp12
 70
     1
102
RTVSPropertyOp13
 70
     1
102
RTVSPropertyOp14
 70
     1
102
RTVSPropertyOp15
 70
     1
102
RTVSPropertyOp16
 70
     1
102
RTVSPropertyOp17
 70
     1
102
RTVSPropertyOp18
 70
     1
102
RTVSPropertyOp19
 70
     1
102
RTVSPropertyOp20
 70
     1
102
RTVSPropertyOp21
 70
     1
102
RTVSPropertyOp22
 70
     1
102
RTVSPropertyOp23
 70
     1
102
RTVSPropertyOp24
 70
     1
102
RTVSPropertyOp25
 70
     1
102
RTVSPropertyOp26
 70
     1
102
RTVSPropertyOp27
 70
     1
102
RTVSPropertyOp28
 70
     1
102
RTVSPropertyOp29
 70
     1
102
RTVSPropertyOp30
 70
     1
102
RTVSPropertyOp31
 70
     1
102
RTVSPropertyOp32
 70
     1
102
RTVSPropertyOp33
 70
     1
102
RTVSPropertyOp34
 70
     1
102
RTVSPropertyOp35
 70
     1
102
RTVSPropertyOp36
 70
     1
102
RTVSPropertyOp37
 70
     1
102
RTVSPropertyOp38
 70
     1
102
RTVSPropertyOp39
 70
     1
102
RTVSPropertyOp40
 70
     1
102
RTVSPropertyOp41
 70
     1
102
RTVSPropertyOp42
 70
     1
102
RTVSPropertyOp43
 70
     1
102
RTVSPropertyOp44
 70
     1
102
RTVSPropertyOp45
 70
     1
102
RTVSPropertyOp46
 70
     1
102
RTVSPropertyOp47
 70
     1
102
RTVSPropertyOp48
 70
     1
102
RTVSPropertyOp49
 70
     1
102
RTVSPropertyOp50
 70
     1
102
RTVSPropertyOp51
 70
     0
102
RTVSPropertyOp52
 70
     0
102
RTVSPropertyOp53
 70
     1
102
RTVSPropertyOp54
 70
     1
102
RTVSPropertyOp55
 70
     1
102
RTVSPropertyOp56
 70
     1
102
RTVSPropertyOp57
 70
     1
102
RTVSPropertyOp58
 70
     1
102
RTVSPropertyOp59
 70
     1
102
RTVSPropertyOp60
 70
     1
102
RTVSPropertyOp61
 70
     1
102
RTVSPropertyOp62
 70
     1
  0
ENDSEC
  0
EOF
