  0
SECTION
  2
HEADER
  9
$ACADVER
  1
AC1015
  9
$ACADMAINTVER
 70
    20
  9
$DWGCODEPAGE
  3
ANSI_932
  9
$INSBASE
 10
0.0
 20
0.0
 30
0.0
  9
$EXTMIN
 10
5156.149307372462
 20
-4010.847110053808
 30
0.0
  9
$EXTMAX
 10
6072.104163962684
 20
-3461.847111061261
 30
137.5
  9
$LIMMIN
 10
0.0
 20
0.0
  9
$LIMMAX
 10
420.0
 20
297.0
  9
$ORTHOMODE
 70
     1
  9
$REGENMODE
 70
     1
  9
$FILLMODE
 70
     1
  9
$QTEXTMODE
 70
     0
  9
$MIRRTEXT
 70
     0
  9
$LTSCALE
 40
1.0
  9
$ATTMODE
 70
     1
  9
$TEXTSIZE
 40
0.2
  9
$TRACEWID
 40
1.0
  9
$TEXTSTYLE
  7
まこ
  9
$CLAYER
  8
中心線
  9
$CELTYPE
  6
BYLAYER
  9
$CECOLOR
 62
   256
  9
$CELTSCALE
 40
1.0
  9
$DISPSILH
 70
     0
  9
$DIMSCALE
 40
2.5
  9
$DIMASZ
 40
2.5
  9
$DIMEXO
 40
1.0
  9
$DIMDLI
 40
0.38
  9
$DIMRND
 40
0.0
  9
$DIMDLE
 40
0.0
  9
$DIMEXE
 40
1.0
  9
$DIMTP
 40
0.0
  9
$DIMTM
 40
0.0
  9
$DIMTXT
 40
2.5
  9
$DIMCEN
 40
0.0
  9
$DIMTSZ
 40
0.0
  9
$DIMTOL
 70
     0
  9
$DIMLIM
 70
     0
  9
$DIMTIH
 70
     0
  9
$DIMTOH
 70
     0
  9
$DIMSE1
 70
     0
  9
$DIMSE2
 70
     0
  9
$DIMTAD
 70
     3
  9
$DIMZIN
 70
     8
  9
$DIMBLK
  1
Open30
  9
$DIMASO
 70
     1
  9
$DIMSHO
 70
     1
  9
$DIMPOST
  1

  9
$DIMAPOST
  1

  9
$DIMALT
 70
     0
  9
$DIMALTD
 70
     2
  9
$DIMALTF
 40
25.4
  9
$DIMLFAC
 40
1.0
  9
$DIMTOFL
 70
     1
  9
$DIMTVP
 40
0.0
  9
$DIMTIX
 70
     0
  9
$DIMSOXD
 70
     0
  9
$DIMSAH
 70
     0
  9
$DIMBLK1
  1

  9
$DIMBLK2
  1

  9
$DIMSTYLE
  2
STANDARD
  9
$DIMCLRD
 70
     4
  9
$DIMCLRE
 70
     4
  9
$DIMCLRT
 70
   256
  9
$DIMTFAC
 40
1.0
  9
$DIMGAP
 40
1.0
  9
$DIMJUST
 70
     0
  9
$DIMSD1
 70
     0
  9
$DIMSD2
 70
     0
  9
$DIMTOLJ
 70
     1
  9
$DIMTZIN
 70
     0
  9
$DIMALTZ
 70
     0
  9
$DIMALTTZ
 70
     0
  9
$DIMUPT
 70
     0
  9
$DIMDEC
 70
     3
  9
$DIMTDEC
 70
     3
  9
$DIMALTU
 70
     2
  9
$DIMALTTD
 70
     2
  9
$DIMTXSTY
  7
STANDARD
  9
$DIMAUNIT
 70
     0
  9
$DIMADEC
 70
     3
  9
$DIMALTRND
 40
0.0
  9
$DIMAZIN
 70
     2
  9
$DIMDSEP
 70
    46
  9
$DIMATFIT
 70
     1
  9
$DIMFRAC
 70
     0
  9
$DIMLDRBLK
  1
Open30
  9
$DIMLUNIT
 70
     2
  9
$DIMLWD
 70
    13
  9
$DIMLWE
 70
    13
  9
$DIMTMOVE
 70
     0
  9
$LUNITS
 70
     2
  9
$LUPREC
 70
     4
  9
$SKETCHINC
 40
1.0
  9
$FILLETRAD
 40
0.0
  9
$AUNITS
 70
     0
  9
$AUPREC
 70
     0
  9
$MENU
  1
.
  9
$ELEVATION
 40
0.0
  9
$PELEVATION
 40
0.0
  9
$THICKNESS
 40
0.0
  9
$LIMCHECK
 70
     0
  9
$CHAMFERA
 40
5.0
  9
$CHAMFERB
 40
5.0
  9
$CHAMFERC
 40
20.0
  9
$CHAMFERD
 40
0.0
  9
$SKPOLY
 70
     0
  9
$TDCREATE
 40
2452479.723113426
  9
$TDUCREATE
 40
2452479.348123183
  9
$TDUPDATE
 40
2458554.389791667
  9
$TDUUPDATE
 40
2458554.014791666
  9
$TDINDWG
 40
15.5839062847
  9
$TDUSRTIMER
 40
2458551.212752419
  9
$USRTIMER
 70
     1
  9
$ANGBASE
 50
0.0
  9
$ANGDIR
 70
     0
  9
$PDMODE
 70
     0
  9
$PDSIZE
 40
0.0
  9
$PLINEWID
 40
0.0
  9
$SPLFRAME
 70
     0
  9
$SPLINETYPE
 70
     6
  9
$SPLINESEGS
 70
     8
  9
$HANDSEED
  5
8B2B5
  9
$SURFTAB1
 70
     6
  9
$SURFTAB2
 70
     6
  9
$SURFTYPE
 70
     6
  9
$SURFU
 70
     6
  9
$SURFV
 70
     6
  9
$UCSBASE
  2

  9
$UCSNAME
  2

  9
$UCSORG
 10
0.0
 20
0.0
 30
0.0
  9
$UCSXDIR
 10
1.0
 20
0.0
 30
0.0
  9
$UCSYDIR
 10
0.0
 20
1.0
 30
0.0
  9
$UCSORTHOREF
  2

  9
$UCSORTHOVIEW
 70
     0
  9
$UCSORGTOP
 10
0.0
 20
0.0
 30
0.0
  9
$UCSORGBOTTOM
 10
0.0
 20
0.0
 30
0.0
  9
$UCSORGLEFT
 10
0.0
 20
0.0
 30
0.0
  9
$UCSORGRIGHT
 10
0.0
 20
0.0
 30
0.0
  9
$UCSORGFRONT
 10
0.0
 20
0.0
 30
0.0
  9
$UCSORGBACK
 10
0.0
 20
0.0
 30
0.0
  9
$PUCSBASE
  2

  9
$PUCSNAME
  2

  9
$PUCSORG
 10
0.0
 20
0.0
 30
0.0
  9
$PUCSXDIR
 10
1.0
 20
0.0
 30
0.0
  9
$PUCSYDIR
 10
0.0
 20
1.0
 30
0.0
  9
$PUCSORTHOREF
  2

  9
$PUCSORTHOVIEW
 70
     0
  9
$PUCSORGTOP
 10
0.0
 20
0.0
 30
0.0
  9
$PUCSORGBOTTOM
 10
0.0
 20
0.0
 30
0.0
  9
$PUCSORGLEFT
 10
0.0
 20
0.0
 30
0.0
  9
$PUCSORGRIGHT
 10
0.0
 20
0.0
 30
0.0
  9
$PUCSORGFRONT
 10
0.0
 20
0.0
 30
0.0
  9
$PUCSORGBACK
 10
0.0
 20
0.0
 30
0.0
  9
$USERI1
 70
     0
  9
$USERI2
 70
     0
  9
$USERI3
 70
     0
  9
$USERI4
 70
     0
  9
$USERI5
 70
     0
  9
$USERR1
 40
10.0
  9
$USERR2
 40
0.0
  9
$USERR3
 40
0.0
  9
$USERR4
 40
0.0
  9
$USERR5
 40
0.0
  9
$WORLDVIEW
 70
     1
  9
$SHADEDGE
 70
     3
  9
$SHADEDIF
 70
    70
  9
$TILEMODE
 70
     0
  9
$MAXACTVP
 70
    48
  9
$PINSBASE
 10
0.0
 20
0.0
 30
0.0
  9
$PLIMCHECK
 70
     0
  9
$PEXTMIN
 10
1.049455284454694
 20
0.6996368563031297
 30
-0.0015258207003583
  9
$PEXTMAX
 10
9.450288413116116
 20
6.300192275410744
 30
0.0000000349246037
  9
$PLIMMIN
 10
0.0
 20
0.0
  9
$PLIMMAX
 10
0.0
 20
0.0
  9
$UNITMODE
 70
     0
  9
$VISRETAIN
 70
     1
  9
$PLINEGEN
 70
     0
  9
$PSLTSCALE
 70
     1
  9
$TREEDEPTH
 70
  3020
  9
$CMLSTYLE
  2
STANDARD
  9
$CMLJUST
 70
     0
  9
$CMLSCALE
 40
20.0
  9
$PROXYGRAPHICS
 70
     1
  9
$MEASUREMENT
 70
     0
  9
$CELWEIGHT
370
    -1
  9
$ENDCAPS
280
     0
  9
$JOINSTYLE
280
     0
  9
$LWDISPLAY
290
     1
  9
$INSUNITS
 70
     0
  9
$HYPERLINKBASE
  1

  9
$STYLESHEET
  1
monochrome.ctb
  9
$XEDIT
290
     1
  9
$CEPSNTYPE
380
     0
  9
$PSTYLEMODE
290
     1
  9
$FINGERPRINTGUID
  2
{6B368F64-F7EB-11D4-BFBA-00004C030E53}
  9
$VERSIONGUID
  2
{270DDE0C-C337-7C4B-8692-90FF5C5EC44C}
  9
$EXTNAMES
290
     1
  9
$PSVPSCALE
 40
0.5
  9
$OLESTARTUP
290
     0
  0
ENDSEC
  0
SECTION
  2
CLASSES
  0
CLASS
  1
ACDBDICTIONARYWDFLT
  2
AcDbDictionaryWithDefault
  3
ObjectDBX Classes
 90
        0
280
     0
281
     0
  0
CLASS
  1
ACDBPLACEHOLDER
  2
AcDbPlaceHolder
  3
ObjectDBX Classes
 90
        0
280
     0
281
     0
  0
CLASS
  1
LAYOUT
  2
AcDbLayout
  3
ObjectDBX Classes
 90
        0
280
     0
281
     0
  0
CLASS
  1
DICTIONARYVAR
  2
AcDbDictionaryVar
  3
ObjectDBX Classes
 90
        0
280
     0
281
     0
  0
CLASS
  1
MATERIAL
  2
AcDbMaterial
  3
ObjectDBX Classes
 90
     1153
280
     0
281
     0
  0
CLASS
  1
VISUALSTYLE
  2
AcDbVisualStyle
  3
ObjectDBX Classes
 90
     4095
280
     0
281
     0
  0
CLASS
  1
TABLESTYLE
  2
AcDbTableStyle
  3
ObjectDBX Classes
 90
     4095
280
     0
281
     0
  0
CLASS
  1
SCALE
  2
AcDbScale
  3
ObjectDBX Classes
 90
     1153
280
     0
281
     0
  0
CLASS
  1
MLEADERSTYLE
  2
AcDbMLeaderStyle
  3
ACDB_MLEADERSTYLE_CLASS
 90
     4095
280
     0
281
     0
  0
CLASS
  1
SORTENTSTABLE
  2
AcDbSortentsTable
  3
ObjectDBX Classes
 90
    32768
280
     0
281
     0
  0
CLASS
  1
CELLSTYLEMAP
  2
AcDbCellStyleMap
  3
ObjectDBX Classes
 90
     1152
280
     0
281
     0
  0
CLASS
  1
SUN
  2
AcDbSun
  3
SCENEOE
 90
     1153
280
     0
281
     0
  0
CLASS
  1
RASTERVARIABLES
  2
AcDbRasterVariables
  3
ISM
 90
        0
280
     0
281
     0
  0
CLASS
  1
ACDBSECTIONVIEWSTYLE
  2
AcDbSectionViewStyle
  3
ObjectDBX Classes
 90
     1025
280
     0
281
     0
  0
CLASS
  1
ACDBDETAILVIEWSTYLE
  2
AcDbDetailViewStyle
  3
ObjectDBX Classes
 90
     1025
280
     0
281
     0
  0
ENDSEC
  0
SECTION
  2
TABLES
  0
TABLE
  2
VPORT
  5
8
330
0
100
AcDbSymbolTable
 70
     1
  0
VPORT
  5
8865F
330
8
100
AcDbSymbolTableRecord
100
AcDbViewportTableRecord
  2
*Active
 70
     0
 10
0.0
 20
0.0
 11
1.0
 21
1.0
 12
5614.126735667572
 22
-3736.347110557534
 13
-147.9468458676922
 23
19.55743956420332
 14
10.0
 24
10.0
 15
10.0
 25
10.0
 16
0.0
 26
0.0
 36
1.0
 17
0.0
 27
0.0
 37
0.0
 40
559.9799989723982
 41
3.337552742616033
 42
50.0
 43
0.0
 44
0.0
 50
0.0
 51
0.0
 71
    16
 72
   100
 73
     1
 74
     0
 75
     0
 76
     0
 77
     0
 78
     0
281
     0
 65
     1
110
0.0
120
0.0
130
0.0
111
1.0
121
0.0
131
0.0
112
0.0
122
1.0
132
0.0
 79
     0
146
0.0
1001
ACAD_NAV_VCDISPLAY
1070
     3
  0
ENDTAB
  0
TABLE
  2
LTYPE
  5
5
330
0
100
AcDbSymbolTable
 70
     3
  0
LTYPE
  5
12
330
5
100
AcDbSymbolTableRecord
100
AcDbLinetypeTableRecord
  2
BYBLOCK
 70
     0
  3

 72
    65
 73
     0
 40
0.0
  0
LTYPE
  5
13
330
5
100
AcDbSymbolTableRecord
100
AcDbLinetypeTableRecord
  2
BYLAYER
 70
     0
  3

 72
    65
 73
     0
 40
0.0
  0
LTYPE
  5
14
330
5
100
AcDbSymbolTableRecord
100
AcDbLinetypeTableRecord
  2
CONTINUOUS
 70
     0
  3
Solid line
 72
    65
 73
     0
 40
0.0
  0
LTYPE
  5
969
330
5
100
AcDbSymbolTableRecord
100
AcDbLinetypeTableRecord
  2
CENTER2
 70
     0
  3
Center (.5x) ___ _ ___ _ ___ _ ___ _ ___ _ ___
 72
    65
 73
     4
 40
28.575
 49
19.05
 74
     0
 49
-3.174999999999999
 74
     0
 49
3.174999999999999
 74
     0
 49
-3.174999999999999
 74
     0
  0
LTYPE
  5
80435
330
5
100
AcDbSymbolTableRecord
100
AcDbLinetypeTableRecord
  2
CENTER
 70
     0
  3
Center ____ _ ____ _ ____ _ ____ _ ____ _ ____
 72
    65
 73
     4
 40
50.8
 49
31.75
 74
     0
 49
-6.349999999999999
 74
     0
 49
6.349999999999999
 74
     0
 49
-6.349999999999999
 74
     0
  0
ENDTAB
  0
TABLE
  2
LAYER
  5
2
102
{ACAD_XDICTIONARY
360
1E591
102
}
330
0
100
AcDbSymbolTable
 70
    10
  0
LAYER
  5
E
102
{ACAD_XDICTIONARY
360
886FF
102
}
330
2
100
AcDbSymbolTableRecord
100
AcDbLayerTableRecord
  2
0
 70
     2
 62
     7
  6
CONTINUOUS
370
    -3
390
73E
  0
LAYER
  5
8C6
102
{ACAD_XDICTIONARY
360
88707
102
}
330
2
100
AcDbSymbolTableRecord
100
AcDbLayerTableRecord
  2
文字
 70
     0
 62
     7
  6
CONTINUOUS
370
    20
390
73E
  0
LAYER
  5
96A
102
{ACAD_XDICTIONARY
360
8870D
102
}
330
2
100
AcDbSymbolTableRecord
100
AcDbLayerTableRecord
  2
中心線
 70
     0
 62
     7
  6
CENTER2
370
     9
390
73E
  0
LAYER
  5
1521
102
{ACAD_XDICTIONARY
360
8870F
102
}
330
2
100
AcDbSymbolTableRecord
100
AcDbLayerTableRecord
  2
実線
 70
     0
 62
     7
  6
CONTINUOUS
370
    30
390
73E
  0
LAYER
  5
1523
102
{ACAD_XDICTIONARY
360
88713
102
}
330
2
100
AcDbSymbolTableRecord
100
AcDbLayerTableRecord
  2
細線
 70
     0
 62
     7
  6
CONTINUOUS
370
     9
390
73E
  0
LAYER
  5
7920D
102
{ACAD_XDICTIONARY
360
8871F
102
}
330
2
100
AcDbSymbolTableRecord
100
AcDbLayerTableRecord
  2
本体
 70
     0
 62
     7
  6
CONTINUOUS
370
    30
390
73E
  0
LAYER
  5
7CE53
102
{ACAD_XDICTIONARY
360
88721
102
}
330
2
100
AcDbSymbolTableRecord
100
AcDbLayerTableRecord
  2
外形線
 70
     0
 62
     7
  6
CONTINUOUS
370
    30
390
73E
  0
LAYER
  5
80436
102
{ACAD_XDICTIONARY
360
88723
102
}
330
2
100
AcDbSymbolTableRecord
100
AcDbLayerTableRecord
  2
センター線
 70
     0
 62
     7
  6
CENTER
370
    15
390
73E
  0
LAYER
  5
8B225
102
{ACAD_XDICTIONARY
360
8B226
102
}
330
2
100
AcDbSymbolTableRecord
100
AcDbLayerTableRecord
  2
dimension
 70
     0
 62
     7
  6
CONTINUOUS
370
    13
390
73E
  0
LAYER
  5
8B229
102
{ACAD_XDICTIONARY
360
8B22A
102
}
330
2
100
AcDbSymbolTableRecord
100
AcDbLayerTableRecord
  2
ハッチング
 70
     0
 62
     7
  6
CONTINUOUS
370
     5
390
73E
  0
ENDTAB
  0
TABLE
  2
STYLE
  5
3
330
0
100
AcDbSymbolTable
 70
     7
  0
STYLE
  5
F
330
3
100
AcDbSymbolTableRecord
100
AcDbTextStyleTableRecord
  2
STANDARD
 70
     0
 40
0.0
 41
1.0
 50
0.0
 71
     0
 42
2.5
  3
simplex.shx
  4
bigfont.shx
  0
STYLE
  5
34
330
3
100
AcDbSymbolTableRecord
100
AcDbTextStyleTableRecord
  2
TIMESNR
 70
     0
 40
0.0
 41
1.0
 50
0.0
 71
     0
 42
2.0
  3
times.ttf
  4

1001
ACAD
1000
Times New Roman
1071
       18
  0
STYLE
  5
1529
330
3
100
AcDbSymbolTableRecord
100
AcDbTextStyleTableRecord
  2
まこ
 70
     0
 40
0.0
 41
1.0
 50
0.0
 71
     0
 42
0.2
  3
simplex.shx
  4
bigfont.shx
  0
STYLE
  5
8B0A2
330
3
100
AcDbSymbolTableRecord
100
AcDbTextStyleTableRecord
  2
MS\U+FF7A\U+FF9E\U+FF7C\U+FF6F\U+FF78
 70
     0
 40
0.0
 41
1.0
 50
0.0
 71
     0
 42
5.0
  3

  4

1001
ACAD
1000
MS Gothic
1071
    32817
  0
STYLE
  5
8B0A3
330
3
100
AcDbSymbolTableRecord
100
AcDbTextStyleTableRecord
  2
MS\U+FF7A\U+FF9E\U+FF7C\U+FF6F\U+FF78N
 70
     0
 40
0.0
 41
1.0
 50
0.0
 71
     0
 42
5.0
  3

  4

1001
ACAD
1000
MS Gothic
1071
    32817
  0
STYLE
  5
8B22D
330
3
100
AcDbSymbolTableRecord
100
AcDbTextStyleTableRecord
  2
MS\U+FF7A\U+FF9E\U+FF7C\U+FF6F\U+FF78-0
 70
     0
 40
0.0
 41
1.0
 50
0.0
 71
     0
 42
0.2
  3
simplex.shx
  4
bigfont.shx
  0
STYLE
  5
8B235
330
3
100
AcDbSymbolTableRecord
100
AcDbTextStyleTableRecord
  2
\U+FF7D\U+FF80\U+FF72\U+FF991
 70
     0
 40
0.0
 41
1.0
 50
0.0
 71
     0
 42
0.2
  3
simplex.shx
  4
extfont.shx
  0
ENDTAB
  0
TABLE
  2
VIEW
  5
6
330
0
100
AcDbSymbolTable
 70
     0
  0
ENDTAB
  0
TABLE
  2
UCS
  5
7
330
0
100
AcDbSymbolTable
 70
     0
  0
ENDTAB
  0
TABLE
  2
APPID
  5
9
330
0
100
AcDbSymbolTable
 70
    10
  0
APPID
  5
10
330
9
100
AcDbSymbolTableRecord
100
AcDbRegAppTableRecord
  2
ACAD
 70
     0
  0
APPID
  5
84F74
330
9
100
AcDbSymbolTableRecord
100
AcDbRegAppTableRecord
  2
ACAD_NAV_VCDISPLAY
 70
     0
  0
APPID
  5
84F75
330
9
100
AcDbSymbolTableRecord
100
AcDbRegAppTableRecord
  2
ACAD_PSEXT
 70
     0
  0
APPID
  5
85072
330
9
100
AcDbSymbolTableRecord
100
AcDbRegAppTableRecord
  2
AcadAnnotative
 70
     0
  0
APPID
  5
887D2
330
9
100
AcDbSymbolTableRecord
100
AcDbRegAppTableRecord
  2
ACAD_EXEMPT_FROM_CAD_STANDARDS
 70
     0
  0
APPID
  5
8890E
330
9
100
AcDbSymbolTableRecord
100
AcDbRegAppTableRecord
  2
ACAD_MLEADERVER
 70
     0
  0
APPID
  5
89016
330
9
100
AcDbSymbolTableRecord
100
AcDbRegAppTableRecord
  2
ACAD_DSTYLE_DIMRADIAL_EXTENSION
 70
     0
  0
APPID
  5
8A130
330
9
100
AcDbSymbolTableRecord
100
AcDbRegAppTableRecord
  2
ACAD_DSTYLE_DIMFLIPARROW_SYMBOL
 70
     0
  0
APPID
  5
8A131
330
9
100
AcDbSymbolTableRecord
100
AcDbRegAppTableRecord
  2
ACAD_DSTYLE_DIMFLIPARROW_WHICH_SYMBOL
 70
     0
  0
APPID
  5
8AFA7
330
9
100
AcDbSymbolTableRecord
100
AcDbRegAppTableRecord
  2
PLOTTRANSPARENCY
 70
     0
  0
ENDTAB
  0
TABLE
  2
DIMSTYLE
  5
A
330
0
100
AcDbSymbolTable
 70
     2
100
AcDbDimStyleTable
 71
     0
  0
DIMSTYLE
105
1D
330
A
100
AcDbSymbolTableRecord
100
AcDbDimStyleTableRecord
  2
STANDARD
 70
     0
 40
2.5
 41
2.5
 42
1.0
 44
1.0
 73
     0
 74
     0
 77
     3
 78
     8
 79
     2
140
2.5
141
0.0
147
1.0
172
     1
176
     4
177
     4
178
   256
179
     3
271
     3
272
     3
279
     2
340
F
341
89E
342
89E
371
    13
372
    13
  0
DIMSTYLE
105
8B22C
330
A
100
AcDbSymbolTableRecord
100
AcDbDimStyleTableRecord
  2
まこ-10
 70
     0
 40
2.0
 41
2.5
 42
1.0
 44
0.8
 73
     0
 74
     0
 77
     3
 78
     8
 79
     2
140
2.5
141
0.0
147
0.5
176
     4
177
     4
178
   256
179
     5
271
     5
272
     5
289
     1
340
8B22D
341
89E
342
89E
371
    13
372
    13
  0
ENDTAB
  0
TABLE
  2
BLOCK_RECORD
  5
1
330
0
100
AcDbSymbolTable
 70
     1
  0
BLOCK_RECORD
  5
18
330
1
100
AcDbSymbolTableRecord
100
AcDbBlockTableRecord
  2
*MODEL_SPACE
340
741
  0
BLOCK_RECORD
  5
8B001
330
1
100
AcDbSymbolTableRecord
100
AcDbBlockTableRecord
  2
*Paper_Space
340
8B002
  0
BLOCK_RECORD
  5
89E
330
1
100
AcDbSymbolTableRecord
100
AcDbBlockTableRecord
  2
_Open30
340
0
  0
ENDTAB
  0
ENDSEC
  0
SECTION
  2
BLOCKS
  0
BLOCK
  5
19
330
18
100
AcDbEntity
  8
0
100
AcDbBlockBegin
  2
*MODEL_SPACE
 70
     0
 10
0.0
 20
0.0
 30
0.0
  3
*MODEL_SPACE
  1
*MODEL_SPACE
  0
ENDBLK
  5
1A
330
18
100
AcDbEntity
  8
0
100
AcDbBlockEnd
  0
BLOCK
  5
8B003
330
8B001
100
AcDbEntity
 67
     1
  8
0
100
AcDbBlockBegin
  2
*Paper_Space
 70
     0
 10
0.0
 20
0.0
 30
0.0
  3
*Paper_Space
  1

  0
ENDBLK
  5
8B004
330
8B001
100
AcDbEntity
 67
     1
  8
0
100
AcDbBlockEnd
  0
BLOCK
  5
8A2
330
89E
100
AcDbEntity
  8
0
100
AcDbBlockBegin
  2
_Open30
 70
     0
 10
0.0
 20
0.0
 30
0.0
  3
_Open30
  1
_Open30
  0
LINE
  5
89F
330
89E
100
AcDbEntity
  8
0
  6
ByBlock
 62
     0
370
    -2
100
AcDbLine
 10
-1.0
 20
0.26794919
 30
0.0
 11
0.0
 21
0.0
 31
0.0
  0
LINE
  5
8A0
330
89E
100
AcDbEntity
  8
0
  6
ByBlock
 62
     0
370
    -2
100
AcDbLine
 10
0.0
 20
0.0
 30
0.0
 11
-1.0
 21
-0.26794919
 31
0.0
  0
LINE
  5
8A1
330
89E
100
AcDbEntity
  8
0
  6
ByBlock
 62
     0
370
    -2
100
AcDbLine
 10
0.0
 20
0.0
 30
0.0
 11
-1.0
 21
0.0
 31
0.0
  0
ENDBLK
  5
8A3
330
89E
100
AcDbEntity
  8
0
100
AcDbBlockEnd
  0
ENDSEC
  0
SECTION
  2
ENTITIES
  0
LINE
  5
89899
330
18
100
AcDbEntity
  8
外形線
100
AcDbLine
 10
5663.049888556755
 20
-3728.847111061255
 30
0.0
 11
5695.749888053036
 21
-3728.847110019673
 31
0.0
  0
LINE
  5
8989A
330
18
100
AcDbEntity
  8
外形線
 48
0.5
100
AcDbLine
 10
5662.549888556755
 20
-3728.847111061255
 30
0.0
 11
5662.549888556755
 21
-3474.847112102831
 31
0.0
  0
LINE
  5
8989B
330
18
100
AcDbEntity
  8
外形線
 48
0.5
100
AcDbLine
 10
5662.049888053033
 20
-3728.847111061252
 30
0.0
 11
5662.049888053035
 21
-3474.847112102831
 31
0.0
  0
LINE
  5
8989C
330
18
100
AcDbEntity
  8
外形線
 48
0.5
100
AcDbLine
 10
5660.749888053036
 20
-3686.847125365844
 30
0.0
 11
5662.049888053033
 21
-3686.847125365844
 31
0.0
  0
LINE
  5
8989D
330
18
100
AcDbEntity
  8
外形線
100
AcDbLine
 10
5715.749888053037
 20
-3661.847111061252
 30
0.0
 11
5715.749888053037
 21
-3726.847112102823
 31
0.0
  0
LINE
  5
898A1
330
18
100
AcDbEntity
  8
外形線
 48
0.5
100
AcDbLine
 10
5662.049888053031
 20
-3474.847112102831
 30
0.0
 11
5662.549888053032
 21
-3474.847112102831
 31
0.0
  0
LINE
  5
898A2
330
18
100
AcDbEntity
  8
外形線
 48
0.5
100
AcDbLine
 10
5660.749888053036
 20
-3516.847115829448
 30
0.0
 11
5662.049888053033
 21
-3516.847115829448
 31
0.0
  0
LINE
  5
898A3
330
18
100
AcDbEntity
  8
外形線
 48
0.5
100
AcDbLine
 10
5657.949888053035
 20
-3521.447106293057
 30
0.0
 11
5657.949888053035
 21
-3682.247115829447
 31
0.0
  0
LINE
  5
898A4
330
18
100
AcDbEntity
  8
外形線
 48
0.5
100
AcDbLine
 10
5658.449888053034
 20
-3520.947106293057
 30
0.0
 11
5660.349888053036
 21
-3520.947106293056
 31
0.0
  0
LINE
  5
898A5
330
18
100
AcDbEntity
  8
外形線
100
AcDbLine
 10
5695.749888053036
 20
-3474.847112102831
 30
0.0
 11
5663.049888556755
 21
-3474.847112102831
 31
0.0
  0
LINE
  5
898A8
330
18
100
AcDbEntity
  8
外形線
 48
0.5
100
AcDbLine
 10
5660.349888053036
 20
-3682.747115829449
 30
0.0
 11
5658.449888053034
 21
-3682.747115829447
 31
0.0
  0
LINE
  5
898A9
330
18
100
AcDbEntity
  8
外形線
 48
0.5
100
AcDbLine
 10
5660.749888053036
 20
-3686.847115829447
 30
0.0
 11
5660.749888053036
 21
-3516.847115829448
 31
0.0
  0
LINE
  5
898AA
330
18
100
AcDbEntity
  8
中心線
100
AcDbLine
 10
5656.061890893465
 20
-3676.847115829447
 30
0.0
 11
5669.617806022966
 21
-3676.847115829447
 31
0.0
  0
LINE
  5
898AB
330
18
100
AcDbEntity
  8
中心線
100
AcDbLine
 10
5652.749888053036
 20
-3601.847111061252
 30
0.0
 11
5740.749888053037
 21
-3601.847111061252
 31
0.0
  0
LINE
  5
898AC
330
18
100
AcDbEntity
  8
中心線
100
AcDbLine
 10
5656.061890893465
 20
-3526.847106293057
 30
0.0
 11
5669.617806022966
 21
-3526.847106293057
 31
0.0
  0
LINE
  5
898AD
330
18
100
AcDbEntity
  8
外形線
 48
0.5
100
AcDbLine
 10
5663.049888556755
 20
-3728.847111061255
 30
0.0
 11
5662.549888556755
 21
-3728.347111061256
 31
0.0
  0
LINE
  5
898AE
330
18
100
AcDbEntity
  8
外形線
 48
0.5
100
AcDbLine
 10
5662.049888053033
 20
-3728.847111061255
 30
0.0
 11
5662.549888556755
 21
-3728.847111061255
 31
0.0
  0
LINE
  5
898AF
330
18
100
AcDbEntity
  8
外形線
 48
0.5
100
AcDbLine
 10
5663.049888556755
 20
-3474.847112102831
 30
0.0
 11
5662.549888556755
 21
-3475.347112102831
 31
0.0
  0
LINE
  5
898B0
330
18
100
AcDbEntity
  8
外形線
100
AcDbLine
 10
5695.749888053036
 20
-3701.722033880033
 30
0.0
 11
5715.749888053039
 21
-3701.722033880031
 31
0.0
  0
LINE
  5
898B1
330
18
100
AcDbEntity
  8
外形線
100
AcDbLine
 10
5695.749888053036
 20
-3501.972190325651
 30
0.0
 11
5715.749888053036
 21
-3501.972190325649
 31
0.0
  0
ARC
  5
898B3
330
18
100
AcDbEntity
  8
実線
 48
2.0
100
AcDbCircle
 10
5660.349888053036
 20
-3683.147115829449
 30
0.0
 40
0.4000000000000057
100
AcDbArc
 50
0.0
 51
90.0
  0
ARC
  5
898B4
330
18
100
AcDbEntity
  8
実線
 48
2.0
100
AcDbCircle
 10
5660.349888053036
 20
-3520.547106293057
 30
0.0
 40
0.4000000000000057
100
AcDbArc
 50
270.0
 51
0.0
  0
LINE
  5
898B5
330
18
100
AcDbEntity
  8
外形線
 48
0.5
100
AcDbLine
 10
5658.449888053034
 20
-3682.747115829447
 30
0.0
 11
5657.949888053035
 21
-3682.247115829447
 31
0.0
  0
LINE
  5
898B6
330
18
100
AcDbEntity
  8
外形線
 48
0.5
100
AcDbLine
 10
5658.449888053034
 20
-3520.947106293057
 30
0.0
 11
5657.949888053035
 21
-3521.447106293057
 31
0.0
  0
LINE
  5
898B7
330
18
100
AcDbEntity
  8
実線
100
AcDbLine
 10
5661.549888053031
 20
-3491.392973694289
 30
0.0
 11
5661.549888053031
 21
-3498.392973694289
 31
0.0
  0
LINE
  5
898B8
330
18
100
AcDbEntity
  8
実線
100
AcDbLine
 10
5661.249888053028
 20
-3492.442973694288
 30
0.0
 11
5661.249888053028
 21
-3497.34297369429
 31
0.0
  0
LINE
  5
898B9
330
18
100
AcDbEntity
  8
実線
100
AcDbLine
 10
5661.549888053031
 20
-3498.392973694289
 30
0.0
 11
5661.249888053028
 21
-3497.34297369429
 31
0.0
  0
LINE
  5
898BA
330
18
100
AcDbEntity
  8
実線
100
AcDbLine
 10
5661.549888053031
 20
-3498.392973694289
 30
0.0
 11
5662.049888053031
 21
-3498.392973694289
 31
0.0
  0
LINE
  5
898BB
330
18
100
AcDbEntity
  8
実線
100
AcDbLine
 10
5661.549888053031
 20
-3491.392973694289
 30
0.0
 11
5662.049888053031
 21
-3491.392973694289
 31
0.0
  0
LINE
  5
898BC
330
18
100
AcDbEntity
  8
実線
100
AcDbLine
 10
5661.549888053031
 20
-3491.392973694289
 30
0.0
 11
5661.249888053028
 21
-3492.442973694288
 31
0.0
  0
LINE
  5
898BD
330
18
100
AcDbEntity
  8
実線
100
AcDbLine
 10
5662.049888053031
 20
-3491.392973694289
 30
0.0
 11
5662.049888053031
 21
-3498.392973694289
 31
0.0
  0
LINE
  5
898BE
330
18
100
AcDbEntity
  8
実線
100
AcDbLine
 10
5661.549888053031
 20
-3712.301249469982
 30
0.0
 11
5661.249888053028
 21
-3711.251249469982
 31
0.0
  0
LINE
  5
898BF
330
18
100
AcDbEntity
  8
実線
100
AcDbLine
 10
5661.549888053031
 20
-3705.301249469981
 30
0.0
 11
5661.549888053031
 21
-3712.301249469982
 31
0.0
  0
LINE
  5
898C0
330
18
100
AcDbEntity
  8
実線
100
AcDbLine
 10
5661.249888053028
 20
-3706.351249469982
 30
0.0
 11
5661.249888053028
 21
-3711.251249469982
 31
0.0
  0
LINE
  5
898C1
330
18
100
AcDbEntity
  8
実線
100
AcDbLine
 10
5661.549888053031
 20
-3712.301249469982
 30
0.0
 11
5662.049888053031
 21
-3712.301249469982
 31
0.0
  0
LINE
  5
898C2
330
18
100
AcDbEntity
  8
実線
100
AcDbLine
 10
5661.549888053031
 20
-3705.301249469981
 30
0.0
 11
5662.049888053031
 21
-3705.301249469981
 31
0.0
  0
LINE
  5
898C3
330
18
100
AcDbEntity
  8
実線
100
AcDbLine
 10
5661.549888053031
 20
-3705.301249469981
 30
0.0
 11
5661.249888053028
 21
-3706.351249469982
 31
0.0
  0
LINE
  5
898C4
330
18
100
AcDbEntity
  8
実線
100
AcDbLine
 10
5662.049888053031
 20
-3705.301249469981
 30
0.0
 11
5662.049888053031
 21
-3712.301249469982
 31
0.0
  0
LINE
  5
898C5
330
18
100
AcDbEntity
  8
実線
100
AcDbLine
 10
5302.745170005323
 20
-3863.147110053802
 30
0.0
 11
5295.745170005323
 21
-3863.147110053802
 31
0.0
  0
LINE
  5
898C6
330
18
100
AcDbEntity
  8
実線
100
AcDbLine
 10
5302.745170005323
 20
-3862.647110053802
 30
0.0
 11
5301.695170005324
 21
-3862.347110053799
 31
0.0
  0
LINE
  5
898C7
330
18
100
AcDbEntity
  8
実線
100
AcDbLine
 10
5302.745170005323
 20
-3862.647110053802
 30
0.0
 11
5302.745170005323
 21
-3863.147110053802
 31
0.0
  0
LINE
  5
898C8
330
18
100
AcDbEntity
  8
実線
100
AcDbLine
 10
5295.745170005323
 20
-3862.647110053802
 30
0.0
 11
5295.745170005323
 21
-3863.147110053802
 31
0.0
  0
LINE
  5
898C9
330
18
100
AcDbEntity
  8
実線
100
AcDbLine
 10
5301.695170005324
 20
-3862.347110053799
 30
0.0
 11
5296.795170005322
 21
-3862.347110053799
 31
0.0
  0
LINE
  5
898CA
330
18
100
AcDbEntity
  8
実線
100
AcDbLine
 10
5302.745170005323
 20
-3862.647110053802
 30
0.0
 11
5295.745170005323
 21
-3862.647110053802
 31
0.0
  0
LINE
  5
898CB
330
18
100
AcDbEntity
  8
実線
100
AcDbLine
 10
5295.745170005323
 20
-3862.647110053802
 30
0.0
 11
5296.795170005322
 21
-3862.347110053799
 31
0.0
  0
LINE
  5
898CC
330
18
100
AcDbEntity
  8
実線
100
AcDbLine
 10
5533.199307372473
 20
-3863.147110053802
 30
0.0
 11
5526.199307372474
 21
-3863.147110053802
 31
0.0
  0
LINE
  5
898CD
330
18
100
AcDbEntity
  8
実線
100
AcDbLine
 10
5533.199307372473
 20
-3862.647110053802
 30
0.0
 11
5532.149307372474
 21
-3862.347110053799
 31
0.0
  0
LINE
  5
898CE
330
18
100
AcDbEntity
  8
実線
100
AcDbLine
 10
5533.199307372473
 20
-3862.647110053802
 30
0.0
 11
5533.199307372473
 21
-3863.147110053802
 31
0.0
  0
LINE
  5
898CF
330
18
100
AcDbEntity
  8
実線
100
AcDbLine
 10
5526.199307372474
 20
-3862.647110053802
 30
0.0
 11
5526.199307372474
 21
-3863.147110053802
 31
0.0
  0
LINE
  5
898D0
330
18
100
AcDbEntity
  8
実線
100
AcDbLine
 10
5526.199307372474
 20
-3862.647110053802
 30
0.0
 11
5527.249307372472
 21
-3862.347110053799
 31
0.0
  0
LINE
  5
898D1
330
18
100
AcDbEntity
  8
実線
100
AcDbLine
 10
5532.149307372474
 20
-3862.347110053799
 30
0.0
 11
5527.249307372472
 21
-3862.347110053799
 31
0.0
  0
LINE
  5
898D2
330
18
100
AcDbEntity
  8
実線
100
AcDbLine
 10
5533.199307372473
 20
-3862.647110053802
 30
0.0
 11
5526.199307372474
 21
-3862.647110053802
 31
0.0
  0
LINE
  5
898D3
330
18
100
AcDbEntity
  8
外形線
 48
0.5
100
AcDbLine
 10
5487.099313182247
 20
-3859.547110053806
 30
0.0
 11
5486.599313182247
 21
-3859.047110053806
 31
0.0
  0
LINE
  5
898D4
330
18
100
AcDbEntity
  8
外形線
 48
0.5
100
AcDbLine
 10
5325.299303645858
 20
-3859.547110053806
 30
0.0
 11
5325.799303645857
 21
-3859.047110053806
 31
0.0
  0
ARC
  5
898D5
330
18
100
AcDbEntity
  8
実線
 48
2.0
100
AcDbCircle
 10
5487.499313182248
 20
-3861.447110053806
 30
0.0
 40
0.4000000000000057
100
AcDbArc
 50
180.0
 51
270.0
  0
ARC
  5
898D6
330
18
100
AcDbEntity
  8
実線
 48
2.0
100
AcDbCircle
 10
5324.899303645856
 20
-3861.447110053806
 30
0.0
 40
0.4000000000000057
100
AcDbArc
 50
270.0
 51
0.0
  0
LINE
  5
898E8
330
18
100
AcDbEntity
  8
外形線
100
AcDbLine
 10
5533.199307372473
 20
-3896.847110053805
 30
0.0
 11
5281.334392027392
 21
-3896.847110053807
 31
0.0
  0
LINE
  5
898E9
330
18
100
AcDbEntity
  8
外形線
100
AcDbLine
 10
5506.074229149653
 20
-3896.847110053804
 30
0.0
 11
5506.074229149655
 21
-3916.847110053806
 31
0.0
  0
LINE
  5
898EA
330
18
100
AcDbEntity
  8
外形線
100
AcDbLine
 10
5306.324385595271
 20
-3896.847110053806
 30
0.0
 11
5306.324385595273
 21
-3916.847110053808
 31
0.0
  0
LINE
  5
898EB
330
18
100
AcDbEntity
  8
外形線
100
AcDbLine
 10
5281.199307372483
 20
-3863.647110557524
 30
0.0
 11
5281.199307372483
 21
-3916.847110053808
 31
0.0
  0
LINE
  5
898EC
330
18
100
AcDbEntity
  8
実線
100
AcDbLine
 10
5533.199307372473
 20
-3864.147110557525
 30
0.0
 11
5532.699307372474
 21
-3863.647110557526
 31
0.0
  0
LINE
  5
898ED
330
18
100
AcDbEntity
  8
外形線
 48
0.5
100
AcDbLine
 10
5266.699307372466
 20
-3863.147110053803
 30
0.0
 11
5266.699307372466
 21
-3863.647110557526
 31
0.0
  0
LINE
  5
898EE
330
18
100
AcDbEntity
  8
外形線
 48
0.5
100
AcDbLine
 10
5266.199307372457
 20
-3864.147110557525
 30
0.0
 11
5266.699307372457
 21
-3863.647110557526
 31
0.0
  0
LINE
  5
898EF
330
18
100
AcDbEntity
  8
中心線
100
AcDbLine
 10
5239.846980241861
 20
-3876.847111061252
 30
0.0
 11
5268.68994278789
 21
-3876.847111061252
 31
0.0
  0
LINE
  5
898F0
330
18
100
AcDbEntity
  8
センター線
 48
0.5
100
AcDbLine
 10
5481.199313182248
 20
-3857.159112894235
 30
0.0
 11
5481.199313182248
 21
-3870.715028023737
 31
0.0
  0
LINE
  5
898F1
330
18
100
AcDbEntity
  8
中心線
100
AcDbLine
 10
5406.199308414052
 20
-3855.846522082
 30
0.0
 11
5406.199308414052
 21
-3919.347110053807
 31
0.0
  0
LINE
  5
898F2
330
18
100
AcDbEntity
  8
センター線
 48
0.5
100
AcDbLine
 10
5331.199303645857
 20
-3857.159112894235
 30
0.0
 11
5331.199303645857
 21
-3870.715028023737
 31
0.0
  0
LINE
  5
898F3
330
18
100
AcDbEntity
  8
外形線
 48
0.5
100
AcDbLine
 10
5321.199303645857
 20
-3861.847110053805
 30
0.0
 11
5491.199303645856
 21
-3861.847110053805
 31
0.0
  0
LINE
  5
898F4
330
18
100
AcDbEntity
  8
外形線
 48
0.5
100
AcDbLine
 10
5325.299303645856
 20
-3861.447110053806
 30
0.0
 11
5325.299303645858
 21
-3859.547110053806
 31
0.0
  0
LINE
  5
898F7
330
18
100
AcDbEntity
  8
外形線
100
AcDbLine
 10
5533.199307372473
 20
-3896.847110053805
 30
0.0
 11
5533.199307372473
 21
-3864.147110557525
 31
0.0
  0
LINE
  5
898F8
330
18
100
AcDbEntity
  8
外形線
 48
0.5
100
AcDbLine
 10
5487.099313182247
 20
-3859.547110053806
 30
0.0
 11
5487.099313182248
 21
-3861.447110053806
 31
0.0
  0
LINE
  5
898F9
330
18
100
AcDbEntity
  8
外形線
 48
0.5
100
AcDbLine
 10
5486.599313182247
 20
-3859.047110053806
 30
0.0
 11
5325.799303645857
 21
-3859.047110053806
 31
0.0
  0
LINE
  5
898FA
330
18
100
AcDbEntity
  8
外形線
 48
0.5
100
AcDbLine
 10
5491.199303645856
 20
-3861.847110053805
 30
0.0
 11
5491.199303645856
 21
-3863.147110053803
 31
0.0
  0
LINE
  5
898FB
330
18
100
AcDbEntity
  8
実線
100
AcDbLine
 10
5533.199307372473
 20
-3863.147110053802
 30
0.0
 11
5533.199307372473
 21
-3863.647110053802
 31
0.0
  0
LINE
  5
898FF
330
18
100
AcDbEntity
  8
外形線
100
AcDbLine
 10
5531.199307372444
 20
-3916.847110053806
 30
0.0
 11
5466.199308414052
 21
-3916.847110053806
 31
0.0
  0
LINE
  5
89900
330
18
100
AcDbEntity
  8
外形線
 48
0.5
100
AcDbLine
 10
5321.199294109461
 20
-3861.847110053805
 30
0.0
 11
5321.199294109461
 21
-3863.147110053803
 31
0.0
  0
LINE
  5
89901
330
18
100
AcDbEntity
  8
外形線
 48
0.5
100
AcDbLine
 10
5266.699307372466
 20
-3863.147110053803
 30
0.0
 11
5533.199307372473
 21
-3863.147110053804
 31
0.0
  0
LINE
  5
89902
330
18
100
AcDbEntity
  8
外形線
 48
0.5
100
AcDbLine
 10
5266.699307372457
 20
-3863.647110557526
 30
0.0
 11
5533.199307372473
 21
-3863.647110557526
 31
0.0
  0
LINE
  5
89903
330
18
100
AcDbEntity
  8
外形線
100
AcDbLine
 10
5266.199307372457
 20
-3864.147110557525
 30
0.0
 11
5266.199307372462
 21
-3916.847110053807
 31
0.0
  0
LINE
  5
89905
330
18
100
AcDbEntity
  8
中心線
100
AcDbLine
 10
5540.482879550976
 20
-3601.847111061252
 30
0.0
 11
5236.695064827316
 21
-3601.847111061252
 31
0.0
  0
ARC
  5
89906
330
18
100
AcDbEntity
  8
中心線
100
AcDbCircle
 10
5406.199307372464
 20
-3601.847111061253
 30
0.0
 40
142.0
100
AcDbArc
 50
37.93442427270447
 51
52.06557572728415
  0
ARC
  5
89907
330
18
100
AcDbEntity
  8
中心線
100
AcDbCircle
 10
5406.199307372464
 20
-3601.847111061253
 30
0.0
 40
142.0
100
AcDbArc
 50
217.9344242727034
 51
232.0655757272833
  0
LINE
  5
8992E
330
18
100
AcDbEntity
  8
中心線
100
AcDbLine
 10
5294.131566148235
 20
-3489.779369837023
 30
0.0
 11
5317.448722739712
 21
-3513.096526428501
 31
0.0
  0
ARC
  5
8992F
330
18
100
AcDbEntity
  8
実線
100
AcDbCircle
 10
5276.199307372461
 20
-3537.62094816793
 30
0.0
 40
5.0
100
AcDbArc
 50
333.7084447252311
 51
0.0
  0
ARC
  5
89930
330
18
100
AcDbEntity
  8
実線
100
AcDbCircle
 10
5276.199307372463
 20
-3666.073273954579
 30
0.0
 40
5.0
100
AcDbArc
 50
0.0
 51
26.29155527476891
  0
ARC
  5
89931
330
18
100
AcDbEntity
  8
実線
100
AcDbCircle
 10
5284.873300267639
 20
-3684.847111061253
 30
0.0
 40
20.0
100
AcDbArc
 50
34.3763137236152
 51
90.0
  0
ARC
  5
89932
330
18
100
AcDbEntity
  8
実線
100
AcDbCircle
 10
5284.873300267639
 20
-3518.847111061249
 30
0.0
 40
20.0
100
AcDbArc
 50
270.0
 51
325.6236862763848
  0
ARC
  5
89933
330
18
100
AcDbEntity
  8
実線
100
AcDbCircle
 10
5406.199307372464
 20
-3601.847111061253
 30
0.0
 40
140.0
100
AcDbArc
 50
153.7084447252311
 51
206.2915552747687
  0
LINE
  5
89934
330
18
100
AcDbEntity
  8
実線
100
AcDbLine
 10
5284.873300267639
 20
-3538.847111061252
 30
0.0
 11
5281.046628752259
 21
-3538.847111061254
 31
0.0
  0
LINE
  5
89935
330
18
100
AcDbEntity
  8
実線
100
AcDbLine
 10
5284.873300267639
 20
-3664.847111061252
 30
0.0
 11
5281.046628752259
 21
-3664.84711106125
 31
0.0
  0
LINE
  5
89936
330
18
100
AcDbEntity
  8
中心線
100
AcDbLine
 10
5317.448722739712
 20
-3690.597695694004
 30
0.0
 11
5294.131566148234
 21
-3713.91485228548
 31
0.0
  0
ARC
  5
89937
330
18
100
AcDbEntity
  8
中心線
100
AcDbCircle
 10
5406.199307372464
 20
-3601.847111061253
 30
0.0
 40
142.0
100
AcDbArc
 50
126.894751636003
 51
142.0655757272955
  0
ARC
  5
89938
330
18
100
AcDbEntity
  8
中心線
100
AcDbCircle
 10
5406.199307372464
 20
-3601.847111061253
 30
0.0
 40
142.0
100
AcDbArc
 50
306.8947516360035
 51
322.0655757272966
  0
CIRCLE
  5
89939
330
18
100
AcDbEntity
  8
実線
100
AcDbCircle
 10
5305.790144443975
 20
-3501.437948132761
 30
0.0
 40
6.5
  0
CIRCLE
  5
8993A
330
18
100
AcDbEntity
  8
実線
100
AcDbCircle
 10
5305.790144443962
 20
-3501.437948132771
 30
0.0
 40
12.5
  0
CIRCLE
  5
8993B
330
18
100
AcDbEntity
  8
実線
100
AcDbCircle
 10
5305.790144443975
 20
-3702.256273989741
 30
0.0
 40
6.5
  0
CIRCLE
  5
8993C
330
18
100
AcDbEntity
  8
実線
100
AcDbCircle
 10
5305.790144443962
 20
-3702.25627398973
 30
0.0
 40
12.5
  0
CIRCLE
  5
8993D
330
18
100
AcDbEntity
  8
実線
100
AcDbCircle
 10
5506.608470300965
 20
-3501.437948132771
 30
0.0
 40
12.5
  0
CIRCLE
  5
8993E
330
18
100
AcDbEntity
  8
実線
100
AcDbCircle
 10
5506.608470300952
 20
-3501.437948132761
 30
0.0
 40
6.5
  0
CIRCLE
  5
8993F
330
18
100
AcDbEntity
  8
実線
100
AcDbCircle
 10
5506.608470300965
 20
-3702.25627398973
 30
0.0
 40
12.5
  0
CIRCLE
  5
89940
330
18
100
AcDbEntity
  8
実線
100
AcDbCircle
 10
5506.608470300952
 20
-3702.256273989741
 30
0.0
 40
6.5
  0
LINE
  5
89941
330
18
100
AcDbEntity
  8
中心線
100
AcDbLine
 10
5518.26704859669
 20
-3489.779369837023
 30
0.0
 11
5494.949892005215
 21
-3513.096526428501
 31
0.0
  0
LINE
  5
89942
330
18
100
AcDbEntity
  8
実線
100
AcDbLine
 10
5383.749363051812
 20
-3476.847111061255
 30
0.0
 11
5306.324385595273
 21
-3476.847111061255
 31
0.0
  0
LINE
  5
89943
330
18
100
AcDbEntity
  8
実線
100
AcDbLine
 10
5531.199307372464
 20
-3579.397166740606
 30
0.0
 11
5531.199307372464
 21
-3501.972189284062
 31
0.0
  0
LINE
  5
89944
330
18
100
AcDbEntity
  8
実線
100
AcDbLine
 10
5383.749363051819
 20
-3726.847111061252
 30
0.0
 11
5306.324385595273
 21
-3726.847111061252
 31
0.0
  0
LINE
  5
89945
330
18
100
AcDbEntity
  8
実線
100
AcDbLine
 10
5281.199307372461
 20
-3537.620948167931
 30
0.0
 11
5281.199307372464
 21
-3501.972189284062
 31
0.0
  0
ARC
  5
89946
330
18
100
AcDbEntity
  8
実線
100
AcDbCircle
 10
5406.199307372464
 20
-3601.847111061253
 30
0.0
 40
160.0
100
AcDbArc
 50
218.6248328730633
 51
231.3751671269369
  0
ARC
  5
89947
330
18
100
AcDbEntity
  8
実線
100
AcDbCircle
 10
5406.199307372464
 20
-3601.847111061253
 30
0.0
 40
160.0
100
AcDbArc
 50
128.6248328730631
 51
141.3751671269366
  0
ARC
  5
89948
330
18
100
AcDbEntity
  8
実線
100
AcDbCircle
 10
5406.199307372464
 20
-3601.847111061253
 30
0.0
 40
160.0
100
AcDbArc
 50
38.6248328730633
 51
51.37516712693692
  0
ARC
  5
89949
330
18
100
AcDbEntity
  8
実線
100
AcDbCircle
 10
5406.199307372464
 20
-3601.847111061253
 30
0.0
 40
160.0
100
AcDbArc
 50
308.6248328730631
 51
321.3751671269367
  0
LINE
  5
8994A
330
18
100
AcDbEntity
  8
実線
100
AcDbLine
 10
5281.199307372464
 20
-3701.722032838443
 30
0.0
 11
5281.199307372464
 21
-3666.073273954579
 31
0.0
  0
LINE
  5
8994B
330
18
100
AcDbEntity
  8
実線
100
AcDbLine
 10
5506.074229149653
 20
-3476.847111061252
 30
0.0
 11
5428.649251693111
 21
-3476.847111061252
 31
0.0
  0
LINE
  5
8994C
330
18
100
AcDbEntity
  8
実線
100
AcDbLine
 10
5506.074229149653
 20
-3726.847111061252
 30
0.0
 11
5428.649251693109
 21
-3726.847111061252
 31
0.0
  0
LINE
  5
8994D
330
18
100
AcDbEntity
  8
実線
100
AcDbLine
 10
5531.199307372464
 20
-3701.722032838443
 30
0.0
 11
5531.199307372464
 21
-3624.297055381898
 31
0.0
  0
ARC
  5
8994E
330
18
100
AcDbEntity
  8
実線
100
AcDbCircle
 10
5406.199307372464
 20
-3601.847111061253
 30
0.0
 40
127.0
100
AcDbArc
 50
214.376313723616
 51
145.6236862763839
  0
CIRCLE
  5
89950
330
18
100
AcDbEntity
  8
実線
100
AcDbCircle
 10
5406.199307372464
 20
-3601.847111061253
 30
0.0
 40
68.0
  0
CIRCLE
  5
89951
330
18
100
AcDbEntity
  8
中心線
100
AcDbCircle
 10
5406.199307372464
 20
-3601.847111061253
 30
0.0
 40
75.0
  0
CIRCLE
  5
89952
330
18
100
AcDbEntity
  8
細線
 48
0.5
100
AcDbCircle
 10
5331.199307372464
 20
-3601.847111061253
 30
0.0
 40
3.0
  0
CIRCLE
  5
89953
330
18
100
AcDbEntity
  8
実線
100
AcDbCircle
 10
5331.199307372464
 20
-3601.847111061253
 30
0.0
 40
2.5
  0
CIRCLE
  5
89954
330
18
100
AcDbEntity
  8
実線
100
AcDbCircle
 10
5368.699307372463
 20
-3666.799016345084
 30
0.0
 40
2.5
  0
CIRCLE
  5
89955
330
18
100
AcDbEntity
  8
細線
 48
0.5
100
AcDbCircle
 10
5368.699307372463
 20
-3666.799016345084
 30
0.0
 40
3.0
  0
CIRCLE
  5
89956
330
18
100
AcDbEntity
  8
実線
100
AcDbCircle
 10
5443.699307372462
 20
-3666.799016345082
 30
0.0
 40
2.5
  0
CIRCLE
  5
89957
330
18
100
AcDbEntity
  8
細線
 48
0.5
100
AcDbCircle
 10
5443.699307372462
 20
-3666.799016345082
 30
0.0
 40
3.0
  0
CIRCLE
  5
89958
330
18
100
AcDbEntity
  8
実線
100
AcDbCircle
 10
5481.199307372461
 20
-3601.847111061252
 30
0.0
 40
2.5
  0
CIRCLE
  5
89959
330
18
100
AcDbEntity
  8
細線
 48
0.5
100
AcDbCircle
 10
5481.199307372461
 20
-3601.847111061252
 30
0.0
 40
3.0
  0
CIRCLE
  5
8995A
330
18
100
AcDbEntity
  8
実線
100
AcDbCircle
 10
5443.69930737246
 20
-3536.89520577742
 30
0.0
 40
2.5
  0
CIRCLE
  5
8995B
330
18
100
AcDbEntity
  8
細線
 48
0.5
100
AcDbCircle
 10
5443.69930737246
 20
-3536.89520577742
 30
0.0
 40
3.0
  0
CIRCLE
  5
8995C
330
18
100
AcDbEntity
  8
実線
100
AcDbCircle
 10
5368.699307372465
 20
-3536.89520577742
 30
0.0
 40
2.5
  0
CIRCLE
  5
8995D
330
18
100
AcDbEntity
  8
細線
 48
0.5
100
AcDbCircle
 10
5368.699307372465
 20
-3536.89520577742
 30
0.0
 40
3.0
  0
CIRCLE
  5
8995E
330
18
100
AcDbEntity
  8
実線
100
AcDbCircle
 10
5406.199307372464
 20
-3601.847111061253
 30
0.0
 40
80.90000000000001
  0
CIRCLE
  5
8995F
330
18
100
AcDbEntity
  8
実線
100
AcDbCircle
 10
5406.199307372464
 20
-3601.847111061253
 30
0.0
 40
85.0
  0
LINE
  5
89960
330
18
100
AcDbEntity
  8
中心線
100
AcDbLine
 10
5366.455131028498
 20
-3533.008178328524
 30
0.0
 11
5370.94348371643
 21
-3540.782233226315
 31
0.0
  0
LINE
  5
89961
330
18
100
AcDbEntity
  8
中心線
100
AcDbLine
 10
5326.71095468453
 20
-3601.84711106125
 30
0.0
 11
5335.687660060401
 21
-3601.847111061251
 31
0.0
  0
LINE
  5
89962
330
18
100
AcDbEntity
  8
中心線
100
AcDbLine
 10
5366.455131028494
 20
-3670.686043793978
 30
0.0
 11
5370.943483716433
 21
-3662.911988896187
 31
0.0
  0
LINE
  5
89963
330
18
100
AcDbEntity
  8
中心線
100
AcDbLine
 10
5445.943483716427
 20
-3670.68604379398
 30
0.0
 11
5441.455131028494
 21
-3662.911988896187
 31
0.0
  0
LINE
  5
89964
330
18
100
AcDbEntity
  8
中心線
100
AcDbLine
 10
5485.687660060396
 20
-3601.847111061255
 30
0.0
 11
5476.710954684527
 21
-3601.847111061252
 31
0.0
  0
LINE
  5
89965
330
18
100
AcDbEntity
  8
中心線
100
AcDbLine
 10
5445.943483716433
 20
-3533.008178328525
 30
0.0
 11
5441.455131028496
 21
-3540.782233226315
 31
0.0
  0
ARC
  5
89966
330
18
100
AcDbEntity
  8
実線
100
AcDbCircle
 10
5406.199307371303
 20
-3601.847111060902
 30
0.0
 40
127.0
100
AcDbArc
 50
213.9053859125558
 51
146.0946140878202
  0
CIRCLE
  5
89967
330
18
100
AcDbEntity
  8
実線
100
AcDbCircle
 10
5406.199307372465
 20
-3601.847111061262
 30
0.0
 40
85.5
  0
ARC
  5
89968
330
18
100
AcDbEntity
  8
実線
100
AcDbCircle
 10
5406.199307372467
 20
-3601.847111061811
 30
0.0
 40
139.5
100
AcDbArc
 50
153.8684749057058
 51
206.1315250937812
  0
ARC
  5
89969
330
18
100
AcDbEntity
  8
実線
100
AcDbCircle
 10
5284.195209079734
 20
-3683.847111061276
 30
0.0
 40
20.0
100
AcDbArc
 50
33.90538591255638
 51
89.99999999989578
  0
LINE
  5
8996A
330
18
100
AcDbEntity
  8
実線
100
AcDbLine
 10
5281.8560325239
 20
-3663.847111061274
 30
0.0
 11
5284.195209079747
 21
-3663.847111061276
 31
0.0
  0
ARC
  5
8996B
330
18
100
AcDbEntity
  8
実線
100
AcDbCircle
 10
5281.856032523903
 20
-3662.847111061273
 30
0.0
 40
1.0
100
AcDbArc
 50
206.1315250937812
 51
269.9999999998957
  0
ARC
  5
8996C
330
18
100
AcDbEntity
  8
実線
100
AcDbCircle
 10
5284.195209079247
 20
-3519.847111061251
 30
0.0
 40
20.0
100
AcDbArc
 50
270.0
 51
326.0946140878197
  0
ARC
  5
8996D
330
18
100
AcDbEntity
  8
実線
100
AcDbCircle
 10
5281.856032524441
 20
-3540.847111061251
 30
0.0
 40
1.0
100
AcDbArc
 50
90.0
 51
153.8684749057058
  0
LINE
  5
8996E
330
18
100
AcDbEntity
  8
実線
100
AcDbLine
 10
5281.856032524439
 20
-3539.84711106125
 30
0.0
 11
5284.195209079243
 21
-3539.84711106125
 31
0.0
  0
CIRCLE
  5
8996F
330
18
100
AcDbEntity
  8
実線
100
AcDbCircle
 10
5529.699307372474
 20
-3601.847111061796
 30
0.0
 40
3.5
  0
ARC
  5
89970
330
18
100
AcDbEntity
  8
実線
100
AcDbCircle
 10
5528.747302783987
 20
-3601.847111061797
 30
0.0
 40
0.3170045884846654
100
AcDbArc
 50
314.6530614096537
 51
45.34693859034631
  0
CIRCLE
  5
89971
330
18
100
AcDbEntity
  8
実線
100
AcDbCircle
 10
5529.699307372474
 20
-3601.847111061796
 30
0.0
 40
0.875
  0
ARC
  5
89972
330
18
100
AcDbEntity
  8
実線
100
AcDbCircle
 10
5529.093089589826
 20
-3601.497111061795
 30
0.0
 40
0.175
100
AcDbArc
 50
74.65306140976245
 51
225.3469385904496
  0
ARC
  5
89973
330
18
100
AcDbEntity
  8
実線
100
AcDbCircle
 10
5529.093089589824
 20
-3602.197111061796
 30
0.0
 40
0.175
100
AcDbArc
 50
134.6530614095503
 51
285.3469385902375
  0
ARC
  5
89974
330
18
100
AcDbEntity
  8
実線
100
AcDbCircle
 10
5529.22330507823
 20
-3602.671571219942
 30
0.0
 40
0.3170045884846654
100
AcDbArc
 50
14.65306140975972
 51
105.3469385903166
  0
ARC
  5
89975
330
18
100
AcDbEntity
  8
実線
100
AcDbCircle
 10
5530.175309666716
 20
-3602.671571219942
 30
0.0
 40
0.3170045884846654
100
AcDbArc
 50
74.6530614096834
 51
165.3469385902403
  0
ARC
  5
89976
330
18
100
AcDbEntity
  8
実線
100
AcDbCircle
 10
5530.651311960959
 20
-3601.847111061796
 30
0.0
 40
0.3170045884846654
100
AcDbArc
 50
134.6530614096537
 51
225.3469385903463
  0
ARC
  5
89977
330
18
100
AcDbEntity
  8
実線
100
AcDbCircle
 10
5530.175309666716
 20
-3601.02265090365
 30
0.0
 40
0.3170045884846654
100
AcDbArc
 50
194.6530614097597
 51
285.3469385903166
  0
ARC
  5
89978
330
18
100
AcDbEntity
  8
実線
100
AcDbCircle
 10
5529.22330507823
 20
-3601.02265090365
 30
0.0
 40
0.3170045884846654
100
AcDbArc
 50
254.6530614096834
 51
345.3469385902403
  0
ARC
  5
89979
330
18
100
AcDbEntity
  8
実線
100
AcDbCircle
 10
5529.699307372474
 20
-3601.147111061794
 30
0.0
 40
0.175
100
AcDbArc
 50
14.65306140964837
 51
165.3469385903516
  0
ARC
  5
8997A
330
18
100
AcDbEntity
  8
実線
100
AcDbCircle
 10
5529.699307372474
 20
-3602.547111061795
 30
0.0
 40
0.175
100
AcDbArc
 50
194.6530614098676
 51
345.3469385903518
  0
ARC
  5
8997B
330
18
100
AcDbEntity
  8
実線
100
AcDbCircle
 10
5530.305525155118
 20
-3602.197111061797
 30
0.0
 40
0.175
100
AcDbArc
 50
254.6530614097624
 51
45.34693859044955
  0
ARC
  5
8997C
330
18
100
AcDbEntity
  8
実線
100
AcDbCircle
 10
5530.305525155118
 20
-3601.497111061796
 30
0.0
 40
0.175
100
AcDbArc
 50
314.6530614095504
 51
105.3469385902375
  0
CIRCLE
  5
8997D
330
18
100
AcDbEntity
  8
実線
100
AcDbCircle
 10
5467.949307372237
 20
-3494.89297369429
 30
0.0
 40
3.5
  0
ARC
  5
8997E
330
18
100
AcDbEntity
  8
実線
100
AcDbCircle
 10
5468.425309666478
 20
-3494.068513536142
 30
0.0
 40
0.3170045884846654
100
AcDbArc
 50
194.6530614096007
 51
285.3469385903166
  0
CIRCLE
  5
8997F
330
18
100
AcDbEntity
  8
実線
100
AcDbCircle
 10
5467.949307372237
 20
-3494.89297369429
 30
0.0
 40
0.875
  0
ARC
  5
89980
330
18
100
AcDbEntity
  8
実線
100
AcDbCircle
 10
5468.555525154887
 20
-3494.542973694293
 30
0.0
 40
0.175
100
AcDbArc
 50
314.6530614096551
 51
105.3469385905247
  0
ARC
  5
89981
330
18
100
AcDbEntity
  8
実線
100
AcDbCircle
 10
5467.949307372237
 20
-3494.192973694295
 30
0.0
 40
0.175
100
AcDbArc
 50
14.65306140950432
 51
165.3469385903516
  0
ARC
  5
89982
330
18
100
AcDbEntity
  8
実線
100
AcDbCircle
 10
5467.473305077997
 20
-3494.068513536144
 30
0.0
 40
0.3170045884846654
100
AcDbArc
 50
254.6530614096834
 51
345.3469385902403
  0
ARC
  5
89983
330
18
100
AcDbEntity
  8
実線
100
AcDbCircle
 10
5466.997302783754
 20
-3494.892973694292
 30
0.0
 40
0.3170045884846654
100
AcDbArc
 50
314.6530614097115
 51
45.34693859028855
  0
ARC
  5
89984
330
18
100
AcDbEntity
  8
実線
100
AcDbCircle
 10
5467.473305077994
 20
-3495.717433852438
 30
0.0
 40
0.3170045884846654
100
AcDbArc
 50
14.65306140960069
 51
105.3469385903166
  0
ARC
  5
89985
330
18
100
AcDbEntity
  8
実線
100
AcDbCircle
 10
5468.425309666478
 20
-3495.717433852438
 30
0.0
 40
0.3170045884846654
100
AcDbArc
 50
74.6530614096834
 51
165.3469385902403
  0
ARC
  5
89986
330
18
100
AcDbEntity
  8
実線
100
AcDbCircle
 10
5468.901311960721
 20
-3494.89297369429
 30
0.0
 40
0.3170045884846654
100
AcDbArc
 50
134.6530614097115
 51
225.3469385902886
  0
ARC
  5
89987
330
18
100
AcDbEntity
  8
実線
100
AcDbCircle
 10
5468.555525154887
 20
-3495.242973694292
 30
0.0
 40
0.175
100
AcDbArc
 50
254.6530614097624
 51
45.34693859034491
  0
ARC
  5
89988
330
18
100
AcDbEntity
  8
実線
100
AcDbCircle
 10
5467.34308958959
 20
-3494.542973694293
 30
0.0
 40
0.175
100
AcDbArc
 50
74.65306140980183
 51
225.346938590345
  0
ARC
  5
89989
330
18
100
AcDbEntity
  8
実線
100
AcDbCircle
 10
5467.34308958959
 20
-3495.242973694287
 30
0.0
 40
0.175
100
AcDbArc
 50
134.6530614096551
 51
285.3469385905247
  0
ARC
  5
8998A
330
18
100
AcDbEntity
  8
実線
100
AcDbCircle
 10
5467.949307372237
 20
-3495.592973694289
 30
0.0
 40
0.175
100
AcDbArc
 50
194.6530614095042
 51
345.3469385903518
  0
CIRCLE
  5
8998B
330
18
100
AcDbEntity
  8
実線
100
AcDbCircle
 10
5344.449309626359
 20
-3494.892972393137
 30
0.0
 40
3.5
  0
ARC
  5
8998C
330
18
100
AcDbEntity
  8
実線
100
AcDbCircle
 10
5343.973307332118
 20
-3494.068512234989
 30
0.0
 40
0.3170045884846654
100
AcDbArc
 50
254.6530614096834
 51
345.3469385903993
  0
CIRCLE
  5
8998D
330
18
100
AcDbEntity
  8
実線
100
AcDbCircle
 10
5344.449309626359
 20
-3494.892972393137
 30
0.0
 40
0.875
  0
ARC
  5
8998E
330
18
100
AcDbEntity
  8
実線
100
AcDbCircle
 10
5343.843091843709
 20
-3494.542972393141
 30
0.0
 40
0.175
100
AcDbArc
 50
74.6530614094753
 51
225.346938590345
  0
ARC
  5
8998F
330
18
100
AcDbEntity
  8
実線
100
AcDbCircle
 10
5344.449309626359
 20
-3494.192972393142
 30
0.0
 40
0.175
100
AcDbArc
 50
14.65306140964837
 51
165.3469385904957
  0
ARC
  5
89990
330
18
100
AcDbEntity
  8
実線
100
AcDbCircle
 10
5344.9253119206
 20
-3494.068512234991
 30
0.0
 40
0.3170045884846654
100
AcDbArc
 50
194.6530614097597
 51
285.3469385903166
  0
ARC
  5
89991
330
18
100
AcDbEntity
  8
実線
100
AcDbCircle
 10
5345.401314214843
 20
-3494.892972393139
 30
0.0
 40
0.3170045884846654
100
AcDbArc
 50
134.6530614097115
 51
225.3469385902886
  0
ARC
  5
89992
330
18
100
AcDbEntity
  8
実線
100
AcDbCircle
 10
5344.925311920601
 20
-3495.717432551285
 30
0.0
 40
0.3170045884846654
100
AcDbArc
 50
74.6530614096834
 51
165.3469385903993
  0
ARC
  5
89993
330
18
100
AcDbEntity
  8
実線
100
AcDbCircle
 10
5343.973307332118
 20
-3495.717432551285
 30
0.0
 40
0.3170045884846654
100
AcDbArc
 50
14.65306140975972
 51
105.3469385903166
  0
ARC
  5
89994
330
18
100
AcDbEntity
  8
実線
100
AcDbCircle
 10
5343.497305037875
 20
-3494.892972393137
 30
0.0
 40
0.3170045884846654
100
AcDbArc
 50
314.6530614097115
 51
45.34693859028855
  0
ARC
  5
89995
330
18
100
AcDbEntity
  8
実線
100
AcDbCircle
 10
5343.843091843709
 20
-3495.242972393139
 30
0.0
 40
0.175
100
AcDbArc
 50
134.6530614096551
 51
285.3469385902375
  0
ARC
  5
89996
330
18
100
AcDbEntity
  8
実線
100
AcDbCircle
 10
5345.055527409006
 20
-3494.542972393141
 30
0.0
 40
0.175
100
AcDbArc
 50
314.6530614096551
 51
105.3469385901981
  0
ARC
  5
89997
330
18
100
AcDbEntity
  8
実線
100
AcDbCircle
 10
5345.055527409006
 20
-3495.242972393134
 30
0.0
 40
0.175
100
AcDbArc
 50
254.6530614094753
 51
45.34693859034491
  0
ARC
  5
89998
330
18
100
AcDbEntity
  8
実線
100
AcDbCircle
 10
5344.449309626359
 20
-3495.592972393136
 30
0.0
 40
0.175
100
AcDbArc
 50
194.6530614096483
 51
345.3469385904957
  0
CIRCLE
  5
89999
330
18
100
AcDbEntity
  8
実線
100
AcDbCircle
 10
5299.245170005324
 20
-3540.09711106141
 30
0.0
 40
3.5
  0
ARC
  5
8999A
330
18
100
AcDbEntity
  8
実線
100
AcDbCircle
 10
5298.420709847175
 20
-3539.621108767167
 30
0.0
 40
0.3170045884846654
100
AcDbArc
 50
284.6530614096007
 51
15.34693859041763
  0
CIRCLE
  5
8999B
330
18
100
AcDbEntity
  8
実線
100
AcDbCircle
 10
5299.245170005324
 20
-3540.09711106141
 30
0.0
 40
0.875
  0
ARC
  5
8999C
330
18
100
AcDbEntity
  8
実線
100
AcDbCircle
 10
5298.545170005326
 20
-3540.097111061412
 30
0.0
 40
0.175
100
AcDbArc
 50
104.653061409542
 51
255.3469385901699
  0
ARC
  5
8999D
330
18
100
AcDbEntity
  8
実線
100
AcDbCircle
 10
5298.895170005325
 20
-3539.490893278762
 30
0.0
 40
0.175
100
AcDbArc
 50
44.653061409761
 51
195.3469385903417
  0
ARC
  5
8999E
330
18
100
AcDbEntity
  8
実線
100
AcDbCircle
 10
5299.245170005321
 20
-3539.145106472926
 30
0.0
 40
0.3170045884846654
100
AcDbArc
 50
224.6530614098277
 51
315.3469385901723
  0
ARC
  5
8999F
330
18
100
AcDbEntity
  8
実線
100
AcDbCircle
 10
5300.06963016347
 20
-3539.621108767168
 30
0.0
 40
0.3170045884846654
100
AcDbArc
 50
164.6530614096616
 51
255.3469385902403
  0
ARC
  5
899A0
330
18
100
AcDbEntity
  8
実線
100
AcDbCircle
 10
5300.06963016347
 20
-3540.573113355652
 30
0.0
 40
0.3170045884846654
100
AcDbArc
 50
104.6530614096007
 51
195.3469385904176
  0
ARC
  5
899A1
330
18
100
AcDbEntity
  8
実線
100
AcDbCircle
 10
5299.245170005325
 20
-3541.049115649895
 30
0.0
 40
0.3170045884846654
100
AcDbArc
 50
44.65306140982769
 51
135.3469385901723
  0
ARC
  5
899A2
330
18
100
AcDbEntity
  8
実線
100
AcDbCircle
 10
5298.420709847175
 20
-3540.573113355651
 30
0.0
 40
0.3170045884846654
100
AcDbArc
 50
344.6530614096616
 51
75.34693859024028
  0
ARC
  5
899A3
330
18
100
AcDbEntity
  8
実線
100
AcDbCircle
 10
5298.895170005323
 20
-3540.703328844062
 30
0.0
 40
0.175
100
AcDbArc
 50
164.6530614098019
 51
315.3469385902391
  0
ARC
  5
899A4
330
18
100
AcDbEntity
  8
実線
100
AcDbCircle
 10
5299.595170005321
 20
-3539.490893278762
 30
0.0
 40
0.175
100
AcDbArc
 50
344.653061409802
 51
135.346938590239
  0
ARC
  5
899A5
330
18
100
AcDbEntity
  8
実線
100
AcDbCircle
 10
5299.945170005322
 20
-3540.097111061407
 30
0.0
 40
0.175
100
AcDbArc
 50
284.653061409542
 51
75.34693859016994
  0
ARC
  5
899A6
330
18
100
AcDbEntity
  8
実線
100
AcDbCircle
 10
5299.59517000532
 20
-3540.703328844059
 30
0.0
 40
0.175
100
AcDbArc
 50
224.653061409761
 51
15.34693859034172
  0
CIRCLE
  5
899A7
330
18
100
AcDbEntity
  8
実線
100
AcDbCircle
 10
5299.245170005324
 20
-3663.597111061096
 30
0.0
 40
3.5
  0
ARC
  5
899A8
330
18
100
AcDbEntity
  8
実線
100
AcDbCircle
 10
5298.420709847175
 20
-3664.073113355339
 30
0.0
 40
0.3170045884846654
100
AcDbArc
 50
344.6530614095823
 51
75.34693859039932
  0
CIRCLE
  5
899A9
330
18
100
AcDbEntity
  8
実線
100
AcDbCircle
 10
5299.245170005324
 20
-3663.597111061096
 30
0.0
 40
0.875
  0
ARC
  5
899AA
330
18
100
AcDbEntity
  8
実線
100
AcDbCircle
 10
5298.545170005326
 20
-3663.597111061093
 30
0.0
 40
0.175
100
AcDbArc
 50
104.6530614098301
 51
255.346938590458
  0
ARC
  5
899AB
330
18
100
AcDbEntity
  8
実線
100
AcDbCircle
 10
5298.895170005325
 20
-3664.203328843745
 30
0.0
 40
0.175
100
AcDbArc
 50
164.6530614096583
 51
315.3469385902391
  0
ARC
  5
899AC
330
18
100
AcDbEntity
  8
実線
100
AcDbCircle
 10
5299.245170005321
 20
-3664.54911564958
 30
0.0
 40
0.3170045884846654
100
AcDbArc
 50
44.65306140982769
 51
135.3469385901723
  0
ARC
  5
899AD
330
18
100
AcDbEntity
  8
実線
100
AcDbCircle
 10
5300.06963016347
 20
-3664.073113355337
 30
0.0
 40
0.3170045884846654
100
AcDbArc
 50
104.6530614097597
 51
195.3469385903384
  0
ARC
  5
899AE
330
18
100
AcDbEntity
  8
実線
100
AcDbCircle
 10
5300.06963016347
 20
-3663.121108766854
 30
0.0
 40
0.3170045884846654
100
AcDbArc
 50
164.6530614095824
 51
255.3469385903993
  0
ARC
  5
899AF
330
18
100
AcDbEntity
  8
実線
100
AcDbCircle
 10
5299.245170005325
 20
-3662.645106472611
 30
0.0
 40
0.3170045884846654
100
AcDbArc
 50
224.6530614098277
 51
315.3469385901723
  0
ARC
  5
899B0
330
18
100
AcDbEntity
  8
実線
100
AcDbCircle
 10
5298.420709847175
 20
-3663.121108766854
 30
0.0
 40
0.3170045884846654
100
AcDbArc
 50
284.6530614097597
 51
15.34693859033836
  0
ARC
  5
899B1
330
18
100
AcDbEntity
  8
実線
100
AcDbCircle
 10
5298.895170005323
 20
-3662.990893278446
 30
0.0
 40
0.175
100
AcDbArc
 50
44.653061409761
 51
195.3469385901981
  0
ARC
  5
899B2
330
18
100
AcDbEntity
  8
実線
100
AcDbCircle
 10
5299.595170005321
 20
-3664.203328843745
 30
0.0
 40
0.175
100
AcDbArc
 50
224.653061409761
 51
15.34693859019814
  0
ARC
  5
899B3
330
18
100
AcDbEntity
  8
実線
100
AcDbCircle
 10
5299.945170005322
 20
-3663.597111061098
 30
0.0
 40
0.175
100
AcDbArc
 50
284.6530614098301
 51
75.34693859045802
  0
ARC
  5
899B4
330
18
100
AcDbEntity
  8
実線
100
AcDbCircle
 10
5299.59517000532
 20
-3662.990893278446
 30
0.0
 40
0.175
100
AcDbArc
 50
344.6530614096583
 51
135.346938590239
  0
CIRCLE
  5
899B5
330
18
100
AcDbEntity
  8
実線
100
AcDbCircle
 10
5344.449309626359
 20
-3708.801249729368
 30
0.0
 40
3.5
  0
ARC
  5
899B6
330
18
100
AcDbEntity
  8
実線
100
AcDbCircle
 10
5343.973307332118
 20
-3709.625709887517
 30
0.0
 40
0.3170045884846654
100
AcDbArc
 50
14.65306140960069
 51
105.3469385903166
  0
CIRCLE
  5
899B7
330
18
100
AcDbEntity
  8
実線
100
AcDbCircle
 10
5344.449309626359
 20
-3708.801249729368
 30
0.0
 40
0.875
  0
ARC
  5
899B8
330
18
100
AcDbEntity
  8
実線
100
AcDbCircle
 10
5343.843091843709
 20
-3709.151249729365
 30
0.0
 40
0.175
100
AcDbArc
 50
134.6530614096551
 51
285.3469385905247
  0
ARC
  5
899B9
330
18
100
AcDbEntity
  8
実線
100
AcDbCircle
 10
5344.449309626359
 20
-3709.501249729365
 30
0.0
 40
0.175
100
AcDbArc
 50
194.6530614095042
 51
345.3469385903518
  0
ARC
  5
899BA
330
18
100
AcDbEntity
  8
実線
100
AcDbCircle
 10
5344.9253119206
 20
-3709.625709887515
 30
0.0
 40
0.3170045884846654
100
AcDbArc
 50
74.6530614096834
 51
165.3469385902403
  0
ARC
  5
899BB
330
18
100
AcDbEntity
  8
実線
100
AcDbCircle
 10
5345.401314214843
 20
-3708.801249729367
 30
0.0
 40
0.3170045884846654
100
AcDbArc
 50
134.6530614097115
 51
225.3469385902886
  0
ARC
  5
899BC
330
18
100
AcDbEntity
  8
実線
100
AcDbCircle
 10
5344.925311920601
 20
-3707.97678957122
 30
0.0
 40
0.3170045884846654
100
AcDbArc
 50
194.6530614096007
 51
285.3469385903166
  0
ARC
  5
899BD
330
18
100
AcDbEntity
  8
実線
100
AcDbCircle
 10
5343.973307332118
 20
-3707.97678957122
 30
0.0
 40
0.3170045884846654
100
AcDbArc
 50
254.6530614096834
 51
345.3469385902403
  0
ARC
  5
899BE
330
18
100
AcDbEntity
  8
実線
100
AcDbCircle
 10
5343.497305037875
 20
-3708.801249729368
 30
0.0
 40
0.3170045884846654
100
AcDbArc
 50
314.6530614097115
 51
45.34693859028855
  0
ARC
  5
899BF
330
18
100
AcDbEntity
  8
実線
100
AcDbCircle
 10
5343.843091843709
 20
-3708.451249729366
 30
0.0
 40
0.175
100
AcDbArc
 50
74.65306140976245
 51
225.346938590345
  0
ARC
  5
899C0
330
18
100
AcDbEntity
  8
実線
100
AcDbCircle
 10
5345.055527409006
 20
-3709.151249729365
 30
0.0
 40
0.175
100
AcDbArc
 50
254.6530614098019
 51
45.34693859034491
  0
ARC
  5
899C1
330
18
100
AcDbEntity
  8
実線
100
AcDbCircle
 10
5345.055527409006
 20
-3708.451249729372
 30
0.0
 40
0.175
100
AcDbArc
 50
314.6530614096551
 51
105.3469385905247
  0
ARC
  5
899C2
330
18
100
AcDbEntity
  8
実線
100
AcDbCircle
 10
5344.449309626359
 20
-3708.10124972937
 30
0.0
 40
0.175
100
AcDbArc
 50
14.65306140950432
 51
165.3469385903516
  0
CIRCLE
  5
899C3
330
18
100
AcDbEntity
  8
実線
100
AcDbCircle
 10
5467.949307372237
 20
-3708.801248428216
 30
0.0
 40
3.5
  0
ARC
  5
899C4
330
18
100
AcDbEntity
  8
実線
100
AcDbCircle
 10
5468.425309666478
 20
-3709.625708586364
 30
0.0
 40
0.3170045884846654
100
AcDbArc
 50
74.6530614096834
 51
165.3469385903993
  0
CIRCLE
  5
899C5
330
18
100
AcDbEntity
  8
実線
100
AcDbCircle
 10
5467.949307372237
 20
-3708.801248428216
 30
0.0
 40
0.875
  0
ARC
  5
899C6
330
18
100
AcDbEntity
  8
実線
100
AcDbCircle
 10
5468.555525154887
 20
-3709.151248428212
 30
0.0
 40
0.175
100
AcDbArc
 50
254.6530614094753
 51
45.34693859034491
  0
ARC
  5
899C7
330
18
100
AcDbEntity
  8
実線
100
AcDbCircle
 10
5467.949307372237
 20
-3709.50124842821
 30
0.0
 40
0.175
100
AcDbArc
 50
194.6530614096483
 51
345.3469385904957
  0
ARC
  5
899C8
330
18
100
AcDbEntity
  8
実線
100
AcDbCircle
 10
5467.473305077997
 20
-3709.625708586364
 30
0.0
 40
0.3170045884846654
100
AcDbArc
 50
14.65306140975972
 51
105.3469385903166
  0
ARC
  5
899C9
330
18
100
AcDbEntity
  8
実線
100
AcDbCircle
 10
5466.997302783754
 20
-3708.801248428213
 30
0.0
 40
0.3170045884846654
100
AcDbArc
 50
314.6530614097115
 51
45.34693859028855
  0
ARC
  5
899CA
330
18
100
AcDbEntity
  8
実線
100
AcDbCircle
 10
5467.473305077994
 20
-3707.976788270066
 30
0.0
 40
0.3170045884846654
100
AcDbArc
 50
254.6530614096834
 51
345.3469385903993
  0
ARC
  5
899CB
330
18
100
AcDbEntity
  8
実線
100
AcDbCircle
 10
5468.425309666478
 20
-3707.976788270066
 30
0.0
 40
0.3170045884846654
100
AcDbArc
 50
194.6530614097597
 51
285.3469385903166
  0
ARC
  5
899CC
330
18
100
AcDbEntity
  8
実線
100
AcDbCircle
 10
5468.901311960721
 20
-3708.801248428216
 30
0.0
 40
0.3170045884846654
100
AcDbArc
 50
134.6530614097115
 51
225.3469385902886
  0
ARC
  5
899CD
330
18
100
AcDbEntity
  8
実線
100
AcDbCircle
 10
5468.555525154887
 20
-3708.451248428215
 30
0.0
 40
0.175
100
AcDbArc
 50
314.6530614096551
 51
105.3469385902375
  0
ARC
  5
899CE
330
18
100
AcDbEntity
  8
実線
100
AcDbCircle
 10
5467.34308958959
 20
-3709.151248428212
 30
0.0
 40
0.175
100
AcDbArc
 50
134.6530614096551
 51
285.3469385901981
  0
ARC
  5
899CF
330
18
100
AcDbEntity
  8
実線
100
AcDbCircle
 10
5467.34308958959
 20
-3708.451248428218
 30
0.0
 40
0.175
100
AcDbArc
 50
74.6530614094753
 51
225.346938590345
  0
ARC
  5
899D0
330
18
100
AcDbEntity
  8
実線
100
AcDbCircle
 10
5467.949307372237
 20
-3708.101248428216
 30
0.0
 40
0.175
100
AcDbArc
 50
14.65306140964837
 51
165.3469385904957
  0
LINE
  5
899D1
330
18
100
AcDbEntity
  8
中心線
100
AcDbLine
 10
5794.05901175927
 20
-3493.306220149118
 30
0.0
 11
5810.32246772656
 21
-3509.569676116409
 31
0.0
  0
ARC
  5
899D2
330
18
100
AcDbEntity
  8
実線
100
AcDbCircle
 10
5845.077311973639
 20
-3545.362037160865
 30
0.0
 40
0.446923180059133
100
AcDbArc
 50
305.0000114591504
 51
65.00001145926083
  0
ARC
  5
899D3
330
18
100
AcDbEntity
  8
実線
100
AcDbCircle
 10
5846.436098354601
 20
-3544.410604289102
 30
0.0
 40
0.446923180059133
100
AcDbArc
 50
185.0000114591601
 51
305.0000114591504
  0
CIRCLE
  5
899D4
330
18
100
AcDbEntity
  8
実線
100
AcDbCircle
 10
5846.031360350028
 20
-3545.278568647342
 30
0.0
 40
2.858333333333337
  0
CIRCLE
  5
899D5
330
18
100
AcDbEntity
  8
実線
100
AcDbCircle
 10
5846.031360350028
 20
-3545.278568647342
 30
0.0
 40
3.5
  0
ARC
  5
899D6
330
18
100
AcDbEntity
  8
実線
100
AcDbCircle
 10
5846.031360176434
 20
-3545.278568566394
 30
0.0
 40
0.83000019153839
100
AcDbArc
 50
152.7957839551908
 51
157.204238963198
  0
ARC
  5
899D7
330
18
100
AcDbEntity
  8
実線
100
AcDbCircle
 10
5846.031360176434
 20
-3545.278568566394
 30
0.0
 40
0.83000019153839
100
AcDbArc
 50
92.79578395514333
 51
97.20423896315253
  0
ARC
  5
899D8
330
18
100
AcDbEntity
  8
実線
100
AcDbCircle
 10
5845.482050151806
 20
-3544.494072883575
 30
0.0
 40
0.446923180059133
100
AcDbArc
 50
245.0000114592608
 51
5.000011459160131
  0
ARC
  5
899D9
330
18
100
AcDbEntity
  8
実線
100
AcDbCircle
 10
5846.031360176434
 20
-3545.278568566394
 30
0.0
 40
0.83000019153839
100
AcDbArc
 50
212.7957839551503
 51
217.2042389630499
  0
ARC
  5
899DA
330
18
100
AcDbEntity
  8
実線
100
AcDbCircle
 10
5845.626621998267
 20
-3546.146532843688
 30
0.0
 40
0.446923180059133
100
AcDbArc
 50
5.000011459160131
 51
125.0000114591504
  0
ARC
  5
899DB
330
18
100
AcDbEntity
  8
実線
100
AcDbCircle
 10
5846.031360176434
 20
-3545.278568566394
 30
0.0
 40
0.83000019153839
100
AcDbArc
 50
272.7957839551433
 51
277.2042389630902
  0
ARC
  5
899DC
330
18
100
AcDbEntity
  8
実線
100
AcDbCircle
 10
5846.031360176434
 20
-3545.278568566394
 30
0.0
 40
0.83000019153839
100
AcDbArc
 50
32.79578395515031
 51
37.20423896304993
  0
ARC
  5
899DD
330
18
100
AcDbEntity
  8
実線
100
AcDbCircle
 10
5846.031360176434
 20
-3545.278568566394
 30
0.0
 40
0.83000019153839
100
AcDbArc
 50
332.795783955107
 51
337.2042389631979
  0
ARC
  5
899DE
330
18
100
AcDbEntity
  8
実線
100
AcDbCircle
 10
5846.985408379229
 20
-3545.195099971921
 30
0.0
 40
0.446923180059133
100
AcDbArc
 50
125.0000114591504
 51
245.0000114592608
  0
ARC
  5
899DF
330
18
100
AcDbEntity
  8
実線
100
AcDbCircle
 10
5846.580670201065
 20
-3546.063064249216
 30
0.0
 40
0.446923180059133
100
AcDbArc
 50
65.00001145926083
 51
185.0000114591601
  0
ARC
  5
899E0
330
18
100
AcDbEntity
  8
実線
100
AcDbCircle
 10
5959.084976571807
 20
-3544.324520363627
 30
0.0
 40
0.446923180059133
100
AcDbArc
 50
215.0000114591504
 51
335.0000114592362
  0
ARC
  5
899E1
330
18
100
AcDbEntity
  8
実線
100
AcDbCircle
 10
5960.03640944357
 20
-3545.683306744591
 30
0.0
 40
0.446923180059133
100
AcDbArc
 50
95.00001145916014
 51
215.0000114591504
  0
CIRCLE
  5
899E2
330
18
100
AcDbEntity
  8
実線
100
AcDbCircle
 10
5959.16844508533
 20
-3545.278568740016
 30
0.0
 40
2.858333333333337
  0
CIRCLE
  5
899E3
330
18
100
AcDbEntity
  8
実線
100
AcDbCircle
 10
5959.16844508533
 20
-3545.278568740016
 30
0.0
 40
3.5
  0
ARC
  5
899E4
330
18
100
AcDbEntity
  8
実線
100
AcDbCircle
 10
5959.168445166278
 20
-3545.278568566424
 30
0.0
 40
0.83000019153839
100
AcDbArc
 50
62.79578395520515
 51
67.20423896323906
  0
ARC
  5
899E5
330
18
100
AcDbEntity
  8
実線
100
AcDbCircle
 10
5959.168445166278
 20
-3545.278568566424
 30
0.0
 40
0.83000019153839
100
AcDbArc
 50
2.795783955141808
 51
7.204238963183626
  0
ARC
  5
899E6
330
18
100
AcDbEntity
  8
実線
100
AcDbCircle
 10
5959.952940849098
 20
-3544.729258541794
 30
0.0
 40
0.446923180059133
100
AcDbArc
 50
155.0000114592362
 51
275.0000114591601
  0
ARC
  5
899E7
330
18
100
AcDbEntity
  8
実線
100
AcDbCircle
 10
5959.168445166278
 20
-3545.278568566424
 30
0.0
 40
0.83000019153839
100
AcDbArc
 50
122.7957839551673
 51
127.2042389630059
  0
ARC
  5
899E8
330
18
100
AcDbEntity
  8
実線
100
AcDbCircle
 10
5958.300480888984
 20
-3544.873830388257
 30
0.0
 40
0.446923180059133
100
AcDbArc
 50
275.0000114591601
 51
35.00001145915042
  0
ARC
  5
899E9
330
18
100
AcDbEntity
  8
実線
100
AcDbCircle
 10
5959.168445166278
 20
-3545.278568566424
 30
0.0
 40
0.83000019153839
100
AcDbArc
 50
182.7957839551418
 51
187.2042389630589
  0
ARC
  5
899EA
330
18
100
AcDbEntity
  8
実線
100
AcDbCircle
 10
5959.168445166278
 20
-3545.278568566424
 30
0.0
 40
0.83000019153839
100
AcDbArc
 50
302.7957839551673
 51
307.2042389630059
  0
ARC
  5
899EB
330
18
100
AcDbEntity
  8
実線
100
AcDbCircle
 10
5959.168445166278
 20
-3545.278568566424
 30
0.0
 40
0.83000019153839
100
AcDbArc
 50
242.7957839551206
 51
247.2042389632391
  0
ARC
  5
899EC
330
18
100
AcDbEntity
  8
実線
100
AcDbCircle
 10
5959.251913760752
 20
-3546.232616769219
 30
0.0
 40
0.446923180059133
100
AcDbArc
 50
35.00001145915042
 51
155.0000114592362
  0
ARC
  5
899ED
330
18
100
AcDbEntity
  8
実線
100
AcDbCircle
 10
5958.383949483455
 20
-3545.827878591053
 30
0.0
 40
0.446923180059133
100
AcDbArc
 50
335.0000114592362
 51
95.00001145916014
  0
ARC
  5
899EE
330
18
100
AcDbEntity
  8
実線
100
AcDbCircle
 10
5846.114828770873
 20
-3659.369701759038
 30
0.0
 40
0.446923180059133
100
AcDbArc
 50
35.00001145915042
 51
155.0000114592362
  0
ARC
  5
899EF
330
18
100
AcDbEntity
  8
実線
100
AcDbCircle
 10
5845.16339589911
 20
-3658.010915378074
 30
0.0
 40
0.446923180059133
100
AcDbArc
 50
275.0000114591601
 51
35.00001145915042
  0
CIRCLE
  5
899F0
330
18
100
AcDbEntity
  8
実線
100
AcDbCircle
 10
5846.03136025735
 20
-3658.41565338265
 30
0.0
 40
2.858333333333337
  0
CIRCLE
  5
899F1
330
18
100
AcDbEntity
  8
実線
100
AcDbCircle
 10
5846.03136025735
 20
-3658.41565338265
 30
0.0
 40
3.5
  0
ARC
  5
899F2
330
18
100
AcDbEntity
  8
実線
100
AcDbCircle
 10
5846.031360176401
 20
-3658.415653556242
 30
0.0
 40
0.83000019153839
100
AcDbArc
 50
242.7957839552051
 51
247.2042389632391
  0
ARC
  5
899F3
330
18
100
AcDbEntity
  8
実線
100
AcDbCircle
 10
5846.031360176401
 20
-3658.415653556242
 30
0.0
 40
0.83000019153839
100
AcDbArc
 50
182.7957839551418
 51
187.2042389631836
  0
ARC
  5
899F4
330
18
100
AcDbEntity
  8
実線
100
AcDbCircle
 10
5845.246864493585
 20
-3658.964963580871
 30
0.0
 40
0.446923180059133
100
AcDbArc
 50
335.0000114592362
 51
95.00001145916014
  0
ARC
  5
899F5
330
18
100
AcDbEntity
  8
実線
100
AcDbCircle
 10
5846.031360176401
 20
-3658.415653556242
 30
0.0
 40
0.83000019153839
100
AcDbArc
 50
302.7957839551673
 51
307.2042389630059
  0
ARC
  5
899F6
330
18
100
AcDbEntity
  8
実線
100
AcDbCircle
 10
5846.899324453696
 20
-3658.820391734409
 30
0.0
 40
0.446923180059133
100
AcDbArc
 50
95.00001145916014
 51
215.0000114591504
  0
ARC
  5
899F7
330
18
100
AcDbEntity
  8
実線
100
AcDbCircle
 10
5846.031360176401
 20
-3658.415653556242
 30
0.0
 40
0.83000019153839
100
AcDbArc
 50
2.795783955141808
 51
7.20423896305905
  0
ARC
  5
899F8
330
18
100
AcDbEntity
  8
実線
100
AcDbCircle
 10
5846.031360176401
 20
-3658.415653556242
 30
0.0
 40
0.83000019153839
100
AcDbArc
 50
122.7957839551673
 51
127.2042389630059
  0
ARC
  5
899F9
330
18
100
AcDbEntity
  8
実線
100
AcDbCircle
 10
5846.031360176401
 20
-3658.415653556242
 30
0.0
 40
0.83000019153839
100
AcDbArc
 50
62.7957839551206
 51
67.20423896323906
  0
ARC
  5
899FA
330
18
100
AcDbEntity
  8
実線
100
AcDbCircle
 10
5845.947891581928
 20
-3657.461605353446
 30
0.0
 40
0.446923180059133
100
AcDbArc
 50
215.0000114591504
 51
335.0000114592362
  0
ARC
  5
899FB
330
18
100
AcDbEntity
  8
実線
100
AcDbCircle
 10
5846.815855859224
 20
-3657.866343531612
 30
0.0
 40
0.446923180059133
100
AcDbArc
 50
155.0000114592362
 51
275.0000114591601
  0
ARC
  5
899FC
330
18
100
AcDbEntity
  8
実線
100
AcDbCircle
 10
5958.619135141618
 20
-3657.631157873453
 30
0.0
 40
0.446923180059133
100
AcDbArc
 50
245.0000114592608
 51
5.000011459160131
  0
ARC
  5
899FD
330
18
100
AcDbEntity
  8
実線
100
AcDbCircle
 10
5958.214396963454
 20
-3658.499122150748
 30
0.0
 40
0.446923180059133
100
AcDbArc
 50
305.0000114591504
 51
65.00001145926083
  0
ARC
  5
899FE
330
18
100
AcDbEntity
  8
実線
100
AcDbCircle
 10
5959.16844516625
 20
-3658.415653556276
 30
0.0
 40
0.83000019153839
100
AcDbArc
 50
152.7957839551071
 51
157.204238963198
  0
ARC
  5
899FF
330
18
100
AcDbEntity
  8
実線
100
AcDbCircle
 10
5959.16844516625
 20
-3658.415653556276
 30
0.0
 40
0.83000019153839
100
AcDbArc
 50
212.7957839551503
 51
217.2042389630499
  0
ARC
  5
89A00
330
18
100
AcDbEntity
  8
実線
100
AcDbCircle
 10
5959.16844516625
 20
-3658.415653556276
 30
0.0
 40
0.83000019153839
100
AcDbArc
 50
92.79578395514333
 51
97.20423896309021
  0
ARC
  5
89A01
330
18
100
AcDbEntity
  8
実線
100
AcDbCircle
 10
5959.573183344417
 20
-3657.547689278981
 30
0.0
 40
0.446923180059133
100
AcDbArc
 50
185.0000114591601
 51
305.0000114591504
  0
ARC
  5
89A02
330
18
100
AcDbEntity
  8
実線
100
AcDbCircle
 10
5959.16844516625
 20
-3658.415653556276
 30
0.0
 40
0.83000019153839
100
AcDbArc
 50
32.79578395515031
 51
37.20423896304993
  0
ARC
  5
89A03
330
18
100
AcDbEntity
  8
実線
100
AcDbCircle
 10
5959.717755190877
 20
-3659.200149239094
 30
0.0
 40
0.446923180059133
100
AcDbArc
 50
65.00001145926083
 51
185.0000114591601
  0
ARC
  5
89A04
330
18
100
AcDbEntity
  8
実線
100
AcDbCircle
 10
5959.16844516625
 20
-3658.415653556276
 30
0.0
 40
0.83000019153839
100
AcDbArc
 50
272.7957839551433
 51
277.2042389631525
  0
ARC
  5
89A05
330
18
100
AcDbEntity
  8
実線
100
AcDbCircle
 10
5959.16844516625
 20
-3658.415653556276
 30
0.0
 40
0.83000019153839
100
AcDbArc
 50
332.7957839551908
 51
337.2042389631979
  0
CIRCLE
  5
89A06
330
18
100
AcDbEntity
  8
実線
100
AcDbCircle
 10
5959.168444992656
 20
-3658.415653475327
 30
0.0
 40
3.5
  0
CIRCLE
  5
89A07
330
18
100
AcDbEntity
  8
実線
100
AcDbCircle
 10
5959.168444992656
 20
-3658.415653475327
 30
0.0
 40
2.858333333333337
  0
ARC
  5
89A08
330
18
100
AcDbEntity
  8
実線
100
AcDbCircle
 10
5958.763706988082
 20
-3659.283617833568
 30
0.0
 40
0.446923180059133
100
AcDbArc
 50
5.000011459160131
 51
125.0000114591504
  0
ARC
  5
89A09
330
18
100
AcDbEntity
  8
実線
100
AcDbCircle
 10
5960.122493369045
 20
-3658.332184961805
 30
0.0
 40
0.446923180059133
100
AcDbArc
 50
125.0000114591504
 51
245.0000114592608
  0
ARC
  5
89A0C
330
18
100
AcDbEntity
  8
実線
100
AcDbCircle
 10
5902.599902671402
 20
-3601.847111061252
 30
0.0
 40
127.0
100
AcDbArc
 50
259.8182516116652
 51
280.1817483883348
  0
ARC
  5
89A0D
330
18
100
AcDbEntity
  8
実線
100
AcDbCircle
 10
5902.599902671402
 20
-3601.847111061252
 30
0.0
 40
127.0
100
AcDbArc
 50
169.8182516116698
 51
190.1817483883301
  0
LINE
  5
89A34
330
18
100
AcDbEntity
  8
中心線
 48
3.0
100
AcDbLine
 10
6072.104163962684
 20
-3601.847111061252
 30
0.0
 11
6035.058569511459
 21
-3601.847111061252
 31
0.0
  0
LINE
  5
89A35
330
18
100
AcDbEntity
  8
中心線
100
AcDbLine
 10
6011.140793583538
 20
-3710.388001973389
 30
0.0
 11
5994.877337616248
 21
-3694.124546006097
 31
0.0
  0
ARC
  5
89A36
330
18
100
AcDbEntity
  8
中心線
100
AcDbCircle
 10
5902.599902671402
 20
-3601.847111061252
 30
0.0
 40
142.0
100
AcDbArc
 50
40.35857984547049
 51
49.64142015452941
  0
ARC
  5
89A37
330
18
100
AcDbEntity
  8
中心線
100
AcDbCircle
 10
5902.599902671402
 20
-3601.847111061252
 30
0.0
 40
142.0
100
AcDbArc
 50
220.3585798454715
 51
229.6414201545305
  0
ARC
  5
89A38
330
18
100
AcDbEntity
  8
実線
100
AcDbCircle
 10
6032.599902671403
 20
-3537.620948167925
 30
0.0
 40
5.0
100
AcDbArc
 50
180.0
 51
206.2915552747689
  0
LINE
  5
89A39
330
18
100
AcDbEntity
  8
中心線
100
AcDbLine
 10
5773.099902671402
 20
-3601.847111061252
 30
0.0
 11
6047.860077598858
 21
-3601.847111061252
 31
0.0
  0
ARC
  5
89A3A
330
18
100
AcDbEntity
  8
実線
100
AcDbCircle
 10
5902.599902671402
 20
-3601.847111061252
 30
0.0
 40
140.0
100
AcDbArc
 50
333.7084447252311
 51
26.29155527476874
  0
LINE
  5
89A3B
330
18
100
AcDbEntity
  8
中心線
100
AcDbLine
 10
5994.877337616247
 20
-3509.569676116409
 30
0.0
 11
6011.140793583538
 21
-3493.306220149119
 31
0.0
  0
ARC
  5
89A3C
330
18
100
AcDbEntity
  8
中心線
100
AcDbCircle
 10
5902.599902671402
 20
-3601.847111061252
 30
0.0
 40
142.0
100
AcDbArc
 50
310.3585798454695
 51
319.6414201545285
  0
ARC
  5
89A3D
330
18
100
AcDbEntity
  8
中心線
100
AcDbCircle
 10
5902.599902671402
 20
-3601.847111061252
 30
0.0
 40
142.0
100
AcDbArc
 50
130.3585798454706
 51
139.6414201545295
  0
CIRCLE
  5
89A3E
330
18
100
AcDbEntity
  8
実線
100
AcDbCircle
 10
6003.009065599892
 20
-3702.256273989744
 30
0.0
 40
6.5
  0
CIRCLE
  5
89A3F
330
18
100
AcDbEntity
  8
実線
100
AcDbCircle
 10
6003.009065599892
 20
-3501.437948132763
 30
0.0
 40
6.5
  0
CIRCLE
  5
89A40
330
18
100
AcDbEntity
  8
実線
100
AcDbCircle
 10
5802.190739742915
 20
-3702.256273989744
 30
0.0
 40
6.5
  0
CIRCLE
  5
89A41
330
18
100
AcDbEntity
  8
実線
100
AcDbCircle
 10
5802.190739742915
 20
-3501.437948132763
 30
0.0
 40
6.5
  0
LINE
  5
89A42
330
18
100
AcDbEntity
  8
中心線
100
AcDbLine
 10
5794.059011759268
 20
-3710.388001973387
 30
0.0
 11
5810.322467726559
 21
-3694.124546006097
 31
0.0
  0
LINE
  5
89A43
330
18
100
AcDbEntity
  8
実線
100
AcDbLine
 10
5777.599902671422
 20
-3501.972189284038
 30
0.0
 11
5777.599902671402
 21
-3701.722032838443
 31
0.0
  0
LINE
  5
89A44
330
18
100
AcDbEntity
  8
実線
100
AcDbLine
 10
5802.724980894191
 20
-3476.84711106127
 30
0.0
 11
6002.474824448595
 21
-3476.847111061252
 31
0.0
  0
ARC
  5
89A45
330
18
100
AcDbEntity
  8
実線
100
AcDbCircle
 10
5902.599902671402
 20
-3601.847111061252
 30
0.0
 40
160.0
100
AcDbArc
 50
38.6248328730633
 51
51.37516712693692
  0
ARC
  5
89A46
330
18
100
AcDbEntity
  8
実線
100
AcDbCircle
 10
5902.599902671402
 20
-3601.847111061252
 30
0.0
 40
160.0
100
AcDbArc
 50
218.6248328730633
 51
231.3751671269369
  0
ARC
  5
89A47
330
18
100
AcDbEntity
  8
実線
100
AcDbCircle
 10
5902.599902671402
 20
-3601.847111061252
 30
0.0
 40
160.0
100
AcDbArc
 50
128.6248328730631
 51
141.3751671269366
  0
LINE
  5
89A48
330
18
100
AcDbEntity
  8
実線
100
AcDbLine
 10
6027.599902671402
 20
-3501.972189284062
 30
0.0
 11
6027.599902671402
 21
-3537.620948167925
 31
0.0
  0
LINE
  5
89A49
330
18
100
AcDbEntity
  8
実線
100
AcDbLine
 10
5802.724980894212
 20
-3726.847111061252
 30
0.0
 11
6002.474824448616
 21
-3726.847111061234
 31
0.0
  0
ARC
  5
89A4A
330
18
100
AcDbEntity
  8
実線
100
AcDbCircle
 10
5902.599902671402
 20
-3601.847111061252
 30
0.0
 40
127.0
100
AcDbArc
 50
79.81825161166518
 51
100.1817483883348
  0
LINE
  5
89A4B
330
18
100
AcDbEntity
  8
中心線
100
AcDbLine
 10
5902.599902671402
 20
-3461.847111061261
 30
0.0
 11
5902.599902671402
 21
-3745.391954423985
 31
0.0
  0
LINE
  5
89A4D
330
18
100
AcDbEntity
  8
中心線
100
AcDbLine
 10
5518.26704859669
 20
-3713.914852285483
 30
0.0
 11
5494.949892005215
 21
-3690.597695694004
 31
0.0
  0
LINE
  5
89A4E
330
18
100
AcDbEntity
  8
外形線
100
AcDbLine
 10
5695.749888053036
 20
-3476.847111061252
 30
0.0
 11
5715.749888053036
 21
-3476.847111061252
 31
0.0
  0
LINE
  5
89A4F
330
18
100
AcDbEntity
  8
外形線
100
AcDbLine
 10
5695.749888053033
 20
-3726.847112102825
 30
0.0
 11
5715.749888053037
 21
-3726.847112102823
 31
0.0
  0
LINE
  5
89A50
330
18
100
AcDbEntity
  8
外形線
100
AcDbLine
 10
5531.199307372442
 20
-3896.847110053804
 30
0.0
 11
5531.199307372444
 21
-3916.847110053806
 31
0.0
  0
ARC
  5
89A65
330
18
100
AcDbEntity
  8
実線
100
AcDbCircle
 10
5902.599902671396
 20
-3601.847111061251
 30
0.0
 40
110.0000000000001
100
AcDbArc
 50
213.05573115089
 51
236.9442688490878
  0
LINE
  5
89A66
330
18
100
AcDbEntity
  8
実線
100
AcDbLine
 10
5962.599902671396
 20
-3726.847111061251
 30
0.0
 11
5962.599902671396
 21
-3694.042555634151
 31
0.0
  0
ARC
  5
89A67
330
18
100
AcDbEntity
  8
実線
100
AcDbCircle
 10
5902.599902671396
 20
-3601.847111061251
 30
0.0
 40
110.0
100
AcDbArc
 50
303.0557311509117
 51
326.9442688491097
  0
LINE
  5
89A68
330
18
100
AcDbEntity
  8
実線
100
AcDbLine
 10
5994.795347244296
 20
-3661.847111061251
 30
0.0
 11
6029.091009078197
 21
-3661.847111061252
 31
0.0
  0
CIRCLE
  5
89A69
330
18
100
AcDbEntity
  8
実線
100
AcDbCircle
 10
5973.149804342597
 20
-3702.602812508752
 30
0.0
 40
3.000000000000056
  0
LINE
  5
89A6A
330
18
100
AcDbEntity
  8
実線
100
AcDbLine
 10
6029.091009078197
 20
-3541.847111061252
 30
0.0
 11
5994.795347244296
 21
-3541.847111061251
 31
0.0
  0
ARC
  5
89A6B
330
18
100
AcDbEntity
  8
実線
100
AcDbCircle
 10
5902.599902671396
 20
-3601.847111061251
 30
0.0
 40
110.0
100
AcDbArc
 50
33.05573115088981
 51
56.94426884908778
  0
LINE
  5
89A6C
330
18
100
AcDbEntity
  8
実線
100
AcDbLine
 10
5962.599902671396
 20
-3509.651666488351
 30
0.0
 11
5962.599902671396
 21
-3476.847111061251
 31
0.0
  0
ARC
  5
89A6D
330
18
100
AcDbEntity
  8
実線
100
AcDbCircle
 10
5902.599902671396
 20
-3601.847111061251
 30
0.0
 40
110.0000000000001
100
AcDbArc
 50
123.0557311509122
 51
146.94426884911
  0
LINE
  5
89A6E
330
18
100
AcDbEntity
  8
実線
100
AcDbLine
 10
5842.599902671396
 20
-3476.847111061251
 30
0.0
 11
5842.599902671396
 21
-3509.651666488351
 31
0.0
  0
ARC
  5
89A6F
330
18
100
AcDbEntity
  8
実線
100
AcDbCircle
 10
5831.476424563896
 20
-3500.272257569451
 30
0.0
 40
3.000000000000135
100
AcDbArc
 50
34.99999999999132
 51
214.9999999999913
  0
ARC
  5
89A70
330
18
100
AcDbEntity
  8
実線
100
AcDbCircle
 10
5832.623577436596
 20
-3501.910561657951
 30
0.0
 40
2.999999999999979
100
AcDbArc
 50
214.9999999999913
 51
34.99999999999132
  0
POINT
  5
89A71
330
18
100
AcDbEntity
  8
実線
100
AcDbPoint
 10
5834.344306745596
 20
-3504.368017790851
 30
0.0
  0
LINE
  5
89A72
330
18
100
AcDbEntity
  8
実線
100
AcDbLine
 10
5829.018968430997
 20
-3501.992986878451
 30
0.0
 11
5830.166121303696
 21
-3503.631290967052
 31
0.0
  0
POINT
  5
89A73
330
18
100
AcDbEntity
  8
実線
100
AcDbPoint
 10
5829.755695254796
 20
-3497.814801436551
 30
0.0
  0
LINE
  5
89A74
330
18
100
AcDbEntity
  8
実線
100
AcDbLine
 10
5835.081033569496
 20
-3500.18983234895
 30
0.0
 11
5833.933880696797
 21
-3498.551528260351
 31
0.0
  0
LINE
  5
89A75
330
18
100
AcDbEntity
  8
実線
100
AcDbLine
 10
5810.404458098497
 20
-3541.847111061251
 30
0.0
 11
5777.599902671396
 21
-3541.847111061251
 31
0.0
  0
LINE
  5
89A76
330
18
100
AcDbEntity
  8
実線
100
AcDbLine
 10
5777.599902671396
 20
-3661.847111061251
 30
0.0
 11
5810.404458098497
 21
-3661.847111061251
 31
0.0
  0
LINE
  5
89A77
330
18
100
AcDbEntity
  8
実線
100
AcDbLine
 10
5842.599902671396
 20
-3694.042555634151
 30
0.0
 11
5842.599902671396
 21
-3726.847111061251
 31
0.0
  0
LINE
  5
89A78
330
18
100
AcDbEntity
  8
中心線
100
AcDbLine
 10
5828.341829339207
 20
-3495.795591647378
 30
0.0
 11
5976.857976003583
 21
-3707.898630475127
 31
0.0
  0
HATCH
  5
89A79
330
18
100
AcDbEntity
  8
本体
100
AcDbHatch
 10
0.0
 20
0.0
 30
0.0
210
0.0
220
0.0
230
1.0
  2
SOLID
 70
     1
 71
     0
 91
        2
 92
        7
 72
     1
 73
     1
 93
        3
 10
5975.607260475459
 20
-3700.882083199731
 42
0.4142135623731056
 10
5971.429075033536
 20
-3700.14535637592
 42
0.0
 10
5973.14980434259
 20
-3702.602812508786
 42
0.0
 97
        0
 92
        7
 72
     1
 73
     1
 93
        3
 10
5974.870533651643
 20
-3705.060268641653
 42
0.0
 10
5973.14980434259
 20
-3702.602812508786
 42
0.0
 10
5970.69234820972
 20
-3704.323541817839
 42
0.4142135623731056
 97
        0
 75
     0
 76
     1
 47
0.0110124163047153
 98
        2
 10
5973.459116830781
 20
-3701.224630993494
 10
5973.047415352415
 20
-3704.698879617812
  0
CIRCLE
  5
89A7A
330
18
100
AcDbEntity
  8
本体
100
AcDbCircle
 10
5973.14980434259
 20
-3702.602812508787
 30
0.0
 40
3.0
  0
LINE
  5
89A7F
330
18
100
AcDbEntity
  8
外形線
100
AcDbLine
 10
5715.749888053037
 20
-3541.847111061251
 30
0.0
 11
5715.449888053036
 21
-3541.847111061251
 31
0.0
  0
LINE
  5
89A80
330
18
100
AcDbEntity
  8
外形線
100
AcDbLine
 10
5715.749888053037
 20
-3661.847111061251
 30
0.0
 11
5715.449888053035
 21
-3661.847111061251
 31
0.0
  0
LINE
  5
89A81
330
18
100
AcDbEntity
  8
外形線
100
AcDbLine
 10
5715.449888053036
 20
-3541.847111061251
 30
0.0
 11
5715.449888053036
 21
-3661.847111061251
 31
0.0
  0
LINE
  5
89A82
330
18
100
AcDbEntity
  8
外形線
100
AcDbLine
 10
5715.749888053037
 20
-3476.847111061252
 30
0.0
 11
5715.749888053037
 21
-3541.847111061251
 31
0.0
  0
CIRCLE
  5
89A85
330
18
100
AcDbEntity
  8
中心線
100
AcDbCircle
 10
5902.599902671402
 20
-3601.847111061252
 30
0.0
 40
123.0000000000047
  0
LINE
  5
89AA6
330
18
100
AcDbEntity
  8
中心線
100
AcDbLine
 10
5506.608470300953
 20
-3893.636192240951
 30
0.0
 11
5506.608470300952
 21
-3918.954568118243
 31
0.0
  0
LINE
  5
89AA9
330
18
100
AcDbEntity
  8
中心線
100
AcDbLine
 10
5692.538970240181
 20
-3501.437949174351
 30
0.0
 11
5717.857346117473
 21
-3501.437949174352
 31
0.0
  0
LINE
  5
89AB2
330
18
100
AcDbEntity
  8
中心線
100
AcDbLine
 10
5692.538970240181
 20
-3702.256272948152
 30
0.0
 11
5717.857346117473
 21
-3702.256272948151
 31
0.0
  0
LINE
  5
89AB4
330
18
100
AcDbEntity
  8
外形線
100
AcDbLine
 10
5466.199308414052
 20
-3916.547110053807
 30
0.0
 11
5466.199308414052
 21
-3916.847110053806
 31
0.0
  0
LINE
  5
89AB5
330
18
100
AcDbEntity
  8
外形線
100
AcDbLine
 10
5346.199308414052
 20
-3916.547110053807
 30
0.0
 11
5346.199308414053
 21
-3916.847110053807
 31
0.0
  0
LINE
  5
89AB6
330
18
100
AcDbEntity
  8
外形線
100
AcDbLine
 10
5466.199308414052
 20
-3916.547110053807
 30
0.0
 11
5346.199308414052
 21
-3916.547110053807
 31
0.0
  0
LINE
  5
89AB7
330
18
100
AcDbEntity
  8
外形線
100
AcDbLine
 10
5346.199308414052
 20
-3916.847110053807
 30
0.0
 11
5266.199307372464
 21
-3916.847110053807
 31
0.0
  0
ARC
  5
89AEB
330
18
100
AcDbEntity
  8
実線
100
AcDbCircle
 10
6032.599902671403
 20
-3666.073273954578
 30
0.0
 40
5.0
100
AcDbArc
 50
153.7084447252311
 51
180.0
  0
LINE
  5
89AEC
330
18
100
AcDbEntity
  8
実線
100
AcDbLine
 10
6027.599902671402
 20
-3701.722032838443
 30
0.0
 11
6027.599902671402
 21
-3666.073273954578
 31
0.0
  0
ARC
  5
89AED
330
18
100
AcDbEntity
  8
実線
100
AcDbCircle
 10
5902.599902671402
 20
-3601.847111061252
 30
0.0
 40
160.0
100
AcDbArc
 50
308.6248328730631
 51
321.3751671269367
  0
LINE
  5
89AF3
330
18
100
AcDbEntity
  8
外形線
100
AcDbLine
 10
5695.749888053036
 20
-3474.718221126568
 30
0.0
 11
5695.749888053036
 21
-3728.847111061251
 31
0.0
  0
LINE
  5
89AF9
330
18
100
AcDbEntity
  8
中心線
100
AcDbLine
 10
5339.067462445372
 20
-3619.835034695876
 30
0.0
 11
5328.442278356192
 21
-3622.682044192004
 31
0.0
  0
CIRCLE
  5
89AFA
330
18
100
AcDbEntity
  8
実線
100
AcDbCircle
 10
5333.754870400782
 20
-3621.258539443939
 30
0.0
 40
3.0
  0
LINE
  5
89AFB
330
18
100
AcDbEntity
  8
実線
100
AcDbLine
 10
5330.857092921915
 20
-3622.034996579247
 30
0.0
 11
5336.652647879651
 21
-3620.482082308632
 31
0.0
  0
LINE
  5
89AFC
330
18
100
AcDbEntity
  8
実線
100
AcDbLine
 10
5332.978413265475
 20
-3618.360761965072
 30
0.0
 11
5334.53132753609
 21
-3624.156316922807
 31
0.0
  0
LINE
  5
89B06
330
18
100
AcDbEntity
  8
実線
 48
2.0
100
AcDbLine
 10
5170.749307372463
 20
-3970.847110053809
 30
0.0
 11
5170.129112374471
 21
-3987.647110053809
 31
0.0
  0
LINE
  5
89B07
330
18
100
AcDbEntity
  8
実線
 48
2.0
100
AcDbLine
 10
5172.257112374472
 20
-3987.647110053809
 30
0.0
 11
5171.749307372462
 21
-3970.847110053809
 31
0.0
  0
LINE
  5
89B08
330
18
100
AcDbEntity
  8
実線
 48
2.0
100
AcDbLine
 10
5176.513112374472
 20
-3987.647110053809
 30
0.0
 11
5173.749307372463
 21
-3970.847110053809
 31
0.0
  0
LINE
  5
89B09
330
18
100
AcDbEntity
  8
実線
 48
2.0
100
AcDbLine
 10
5172.749307372463
 20
-3970.847110053809
 30
0.0
 11
5174.385112374473
 21
-3987.647110053809
 31
0.0
  0
LINE
  5
89B0A
330
18
100
AcDbEntity
  8
実線
 48
2.0
100
AcDbLine
 10
5186.24930737246
 20
-4002.59447847486
 30
0.0
 11
5182.549307372462
 21
-3999.647110053809
 31
0.0
  0
LINE
  5
89B0B
330
18
100
AcDbEntity
  8
実線
 48
2.0
100
AcDbLine
 10
5174.49930737246
 20
-3970.847110053809
 30
0.0
 11
5174.49930737246
 21
-3937.147110053807
 31
0.0
  0
LINE
  5
89B0C
330
18
100
AcDbEntity
  8
実線
 48
2.0
100
AcDbLine
 10
5186.24930737246
 20
-4002.59447847486
 30
0.0
 11
5182.549307372462
 21
-4010.847110053808
 31
0.0
  0
LINE
  5
89B0D
330
18
100
AcDbEntity
  8
実線
 48
2.0
100
AcDbLine
 10
5156.149307372462
 20
-4002.59447847486
 30
0.0
 11
5159.849307372463
 21
-3999.647110053809
 31
0.0
  0
LINE
  5
89B0E
330
18
100
AcDbEntity
  8
実線
 48
2.0
100
AcDbLine
 10
5167.89930737246
 20
-3937.147110053807
 30
0.0
 11
5167.899307372461
 21
-3970.847110053809
 31
0.0
  0
LINE
  5
89B0F
330
18
100
AcDbEntity
  8
実線
 48
2.0
100
AcDbLine
 10
5156.149307372462
 20
-4002.59447847486
 30
0.0
 11
5159.849307372463
 21
-4010.847110053808
 31
0.0
  0
LINE
  5
89B10
330
18
100
AcDbEntity
  8
実線
 48
2.0
100
AcDbLine
 10
5168.749307372462
 20
-3970.847110053809
 30
0.0
 11
5165.873112374472
 21
-3987.647110053809
 31
0.0
  0
LINE
  5
89B11
330
18
100
AcDbEntity
  8
実線
 48
2.0
100
AcDbLine
 10
5168.001112374473
 20
-3987.647110053809
 30
0.0
 11
5169.749307372462
 21
-3970.847110053809
 31
0.0
  0
LWPOLYLINE
  5
89B12
330
18
100
AcDbEntity
  8
実線
 48
2.0
100
AcDbPolyline
 90
        4
 70
   129
 43
0.0
 10
5182.549307372462
 20
-3987.647110053809
 10
5182.549307372462
 20
-4010.847110053808
 10
5159.849307372461
 20
-4010.847110053808
 10
5159.849307372461
 20
-3987.647110053809
  0
LINE
  5
89B13
330
18
100
AcDbEntity
  8
実線
 48
2.0
100
AcDbLine
 10
5159.849307372463
 20
-3999.647110053809
 30
0.0
 11
5182.549307372462
 21
-3999.647110053809
 31
0.0
  0
LINE
  5
89B14
330
18
100
AcDbEntity
  8
実線
 48
2.0
100
AcDbLine
 10
5167.899307372462
 20
-3970.847110053809
 30
0.0
 11
5174.49930737246
 21
-3970.847110053809
 31
0.0
  0
LINE
  5
89B21
330
18
100
AcDbEntity
  8
実線
 48
2.0
100
AcDbLine
 10
5202.499307372461
 20
-3909.147110053807
 30
0.0
 11
5214.199307372464
 21
-3909.147110053807
 31
0.0
  0
ARC
  5
89B22
330
18
100
AcDbEntity
  8
実線
 48
2.0
100
AcDbCircle
 10
5202.499307372461
 20
-3937.147110053807
 30
0.0
 40
28.0
100
AcDbArc
 50
90.0
 51
180.0
  0
ARC
  5
89B23
330
18
100
AcDbEntity
  8
実線
 48
2.0
100
AcDbCircle
 10
5202.499307372461
 20
-3937.147110053807
 30
0.0
 40
34.6
100
AcDbArc
 50
90.0
 51
180.0
  0
LINE
  5
89B25
330
18
100
AcDbEntity
  8
実線
 48
2.0
100
AcDbLine
 10
5214.199307372464
 20
-3902.547110053807
 30
0.0
 11
5202.499307372461
 21
-3902.547110053807
 31
0.0
  0
LINE
  5
89B26
330
18
100
AcDbEntity
  8
実線
 48
2.0
100
AcDbLine
 10
5244.199307372463
 20
-3902.547110053807
 30
0.0
 11
5216.19930737246
 21
-3902.547110053807
 31
0.0
  0
SPLINE
  5
89B27
330
18
100
AcDbEntity
  8
細線
 48
0.5
100
AcDbSpline
210
0.0
220
0.0
230
1.0
 70
  1064
 71
     3
 72
     9
 73
     5
 74
     3
 42
0.000000001
 43
0.0000000001
 44
0.0000000001
 40
0.0
 40
0.0
 40
0.0
 40
0.0
 40
1.468130713949827
 40
3.465256168846443
 40
3.465256168846443
 40
3.465256168846443
 40
3.465256168846443
 10
5216.197171337604
 20
-3905.847110053807
 30
0.0
 10
5215.959582833948
 20
-3905.392705216653
 30
0.0
 10
5215.398798279738
 20
-3904.320165046936
 30
0.0
 10
5215.906629709844
 20
-3903.195364515621
 30
0.0
 10
5216.19930737246
 20
-3902.547110053811
 30
0.0
 11
5216.197171337604
 21
-3905.847110053807
 31
0.0
 11
5215.6762198806
 21
-3904.474514930441
 31
0.0
 11
5216.19930737246
 21
-3902.547110053811
 31
0.0
  0
SPLINE
  5
89B28
330
18
100
AcDbEntity
  8
細線
 48
0.5
100
AcDbSpline
210
0.0
220
0.0
230
1.0
 70
  1064
 71
     3
 72
    11
 73
     7
 74
     5
 42
0.000000001
 43
0.0000000001
 44
0.0000000001
 40
0.0
 40
0.0
 40
0.0
 40
0.0
 40
1.992484014116254
 40
3.465112482101637
 40
4.934764524498996
 40
6.931889979396565
 40
6.931889979396565
 40
6.931889979396565
 40
6.931889979396565
 10
5216.19930737246
 20
-3909.147110053814
 30
0.0
 10
5215.907474905049
 20
-3908.500685877207
 30
0.0
 10
5215.399951472818
 20
-3907.376494934031
 30
0.0
 10
5216.195069638153
 20
-3905.847335620764
 30
0.0
 10
5217.001806308764
 20
-3904.32140733237
 30
0.0
 10
5216.492630857017
 20
-3903.195638091474
 30
0.0
 10
5216.19930737246
 20
-3902.547110053811
 30
0.0
 11
5216.19930737246
 21
-3909.147110053814
 31
0.0
 11
5215.676219880599
 21
-3907.224514926813
 31
0.0
 11
5216.197171337602
 21
-3905.847110053812
 31
0.0
 11
5216.722394864323
 21
-3904.474514930441
 31
0.0
 11
5216.19930737246
 21
-3902.547110053811
 31
0.0
  0
SPLINE
  5
89B29
330
18
100
AcDbEntity
  8
細線
 48
0.5
100
AcDbSpline
210
0.0
220
0.0
230
1.0
 70
  1064
 71
     3
 72
     9
 73
     5
 74
     3
 42
0.000000001
 43
0.0000000001
 44
0.0000000001
 40
0.0
 40
0.0
 40
0.0
 40
0.0
 40
1.46127947220284
 40
3.466269181095098
 40
3.466269181095098
 40
3.466269181095098
 40
3.466269181095098
 10
5214.199307372464
 20
-3905.847110053807
 30
0.0
 10
5214.437209432293
 20
-3906.298678088655
 30
0.0
 10
5215.001531722305
 20
-3907.369832780235
 30
0.0
 10
5214.493289360521
 20
-3908.49581156565
 30
0.0
 10
5214.199307372464
 20
-3909.147110053807
 30
0.0
 11
5214.199307372464
 21
-3905.847110053807
 31
0.0
 11
5214.722394864323
 21
-3907.211557623976
 31
0.0
 11
5214.199307372464
 21
-3909.147110053807
 31
0.0
  0
SPLINE
  5
89B2A
330
18
100
AcDbEntity
  8
細線
 48
0.5
100
AcDbSpline
210
0.0
220
0.0
230
1.0
 70
  1064
 71
     3
 72
    11
 73
     7
 74
     5
 42
0.000000001
 43
0.0000000001
 44
0.0000000001
 40
0.0
 40
0.0
 40
0.0
 40
0.0
 40
1.984623399277259
 40
3.465628480260099
 40
4.926907952464242
 40
6.931897661357449
 40
6.931897661357449
 40
6.931897661357449
 40
6.931897661357449
 10
5214.199307372464
 20
-3902.547110053807
 30
0.0
 10
5214.490314371015
 20
-3903.190648889382
 30
0.0
 10
5214.99848239045
 20
-3904.314422053365
 30
0.0
 10
5214.203918412353
 20
-3905.84193915013
 30
0.0
 10
5213.396580556107
 20
-3907.369500795935
 30
0.0
 10
5213.905141251245
 20
-3908.495689907159
 30
0.0
 10
5214.199307372464
 20
-3909.147110053807
 30
0.0
 11
5214.199307372464
 21
-3902.547110053807
 31
0.0
 11
5214.722394864324
 21
-3904.461557627604
 31
0.0
 11
5214.199307372464
 21
-3905.847110053807
 31
0.0
 11
5213.6762198806
 21
-3907.211557623976
 31
0.0
 11
5214.199307372464
 21
-3909.147110053807
 31
0.0
  0
LINE
  5
89B2B
330
18
100
AcDbEntity
  8
実線
 48
2.0
100
AcDbLine
 10
5216.19930737246
 20
-3909.147110053807
 30
0.0
 11
5244.199307372463
 21
-3909.147110053807
 31
0.0
  0
LINE
  5
89B2C
330
18
100
AcDbEntity
  8
中心線
 48
0.5
100
AcDbLine
 10
5268.681999999547
 20
-3905.847110053807
 30
0.0
 11
5239.199307372458
 21
-3905.847110053807
 31
0.0
  0
LINE
  5
89B2D
330
18
100
AcDbEntity
  8
実線
 48
0.1
100
AcDbLine
 10
5261.199307372462
 20
-3901.083970332994
 30
0.0
 11
5266.199307372458
 21
-3901.083970332992
 31
0.0
  0
LINE
  5
89B2E
330
18
100
AcDbEntity
  8
実線
 48
0.1
100
AcDbLine
 10
5261.199307372462
 20
-3902.38300843867
 30
0.0
 11
5266.199307372458
 21
-3902.38300843867
 31
0.0
  0
LINE
  5
89B2F
330
18
100
AcDbEntity
  8
実線
 48
0.1
100
AcDbLine
 10
5261.199307372458
 20
-3909.311211668945
 30
0.0
 11
5266.199307372462
 21
-3909.311211668945
 31
0.0
  0
LINE
  5
89B30
330
18
100
AcDbEntity
  8
実線
 48
0.1
100
AcDbLine
 10
5261.199307372458
 20
-3910.610249774622
 30
0.0
 11
5266.199307372462
 21
-3910.610249774622
 31
0.0
  0
LINE
  5
89B31
330
18
100
AcDbEntity
  8
実線
100
AcDbLine
 10
5261.199307372462
 20
-3897.619868717856
 30
0.0
 11
5266.199307372458
 21
-3897.619868717856
 31
0.0
  0
LINE
  5
89B32
330
18
100
AcDbEntity
  8
実線
100
AcDbLine
 10
5261.199307372458
 20
-3914.074351389759
 30
0.0
 11
5266.199307372462
 21
-3914.074351389759
 31
0.0
  0
LINE
  5
89B33
330
18
100
AcDbEntity
  8
実線
100
AcDbLine
 10
5249.266294670567
 20
-3914.074351389761
 30
0.0
 11
5257.199307372458
 21
-3914.074351389761
 31
0.0
  0
LINE
  5
89B34
330
18
100
AcDbEntity
  8
実線
100
AcDbLine
 10
5249.266294670567
 20
-3897.619868717856
 30
0.0
 11
5257.199307372462
 21
-3897.619868717856
 31
0.0
  0
LINE
  5
89B35
330
18
100
AcDbEntity
  8
実線
 48
0.1
100
AcDbLine
 10
5248.699307372461
 20
-3901.083970332994
 30
0.0
 11
5257.199307372462
 21
-3901.083970332994
 31
0.0
  0
LINE
  5
89B36
330
18
100
AcDbEntity
  8
実線
 48
0.1
100
AcDbLine
 10
5248.699307372461
 20
-3902.38300843867
 30
0.0
 11
5257.199307372462
 21
-3902.38300843867
 31
0.0
  0
LINE
  5
89B37
330
18
100
AcDbEntity
  8
実線
 48
0.1
100
AcDbLine
 10
5248.699307372461
 20
-3910.610249774622
 30
0.0
 11
5257.199307372458
 21
-3910.610249774622
 31
0.0
  0
LINE
  5
89B38
330
18
100
AcDbEntity
  8
実線
 48
0.1
100
AcDbLine
 10
5248.699307372461
 20
-3909.311211668948
 30
0.0
 11
5257.199307372458
 21
-3909.311211668945
 31
0.0
  0
LINE
  5
89B39
330
18
100
AcDbEntity
  8
実線
100
AcDbLine
 10
5249.034243862999
 20
-3897.851919525427
 30
0.0
 11
5257.199307372462
 21
-3897.851919525427
 31
0.0
  0
LINE
  5
89B3A
330
18
100
AcDbEntity
  8
実線
100
AcDbLine
 10
5248.699307372461
 20
-3898.251919525425
 30
0.0
 11
5257.199307372462
 21
-3898.251919525425
 31
0.0
  0
LINE
  5
89B3B
330
18
100
AcDbEntity
  8
実線
100
AcDbLine
 10
5248.699307372461
 20
-3900.451919525424
 30
0.0
 11
5257.199307372462
 21
-3900.451919525424
 31
0.0
  0
LINE
  5
89B3C
330
18
100
AcDbEntity
  8
実線
100
AcDbLine
 10
5248.699307372461
 20
-3900.851919525427
 30
0.0
 11
5257.199307372462
 21
-3900.851919525427
 31
0.0
  0
LINE
  5
89B3D
330
18
100
AcDbEntity
  8
実線
100
AcDbLine
 10
5249.034243862999
 20
-3913.842300582189
 30
0.0
 11
5257.199307372462
 21
-3913.842300582191
 31
0.0
  0
LINE
  5
89B3E
330
18
100
AcDbEntity
  8
実線
100
AcDbLine
 10
5248.699307372461
 20
-3913.442300582191
 30
0.0
 11
5257.199307372462
 21
-3913.442300582191
 31
0.0
  0
LINE
  5
89B3F
330
18
100
AcDbEntity
  8
実線
100
AcDbLine
 10
5248.699307372461
 20
-3911.24230058219
 30
0.0
 11
5257.199307372462
 21
-3911.24230058219
 31
0.0
  0
LINE
  5
89B40
330
18
100
AcDbEntity
  8
実線
100
AcDbLine
 10
5248.699307372461
 20
-3910.842300582192
 30
0.0
 11
5257.199307372462
 21
-3910.842300582191
 31
0.0
  0
LINE
  5
89B41
330
18
100
AcDbEntity
  8
実線
100
AcDbLine
 10
5248.699307372461
 20
-3902.847110053809
 30
0.0
 11
5257.199307372462
 21
-3902.847110053809
 31
0.0
  0
LINE
  5
89B42
330
18
100
AcDbEntity
  8
実線
100
AcDbLine
 10
5248.699307372461
 20
-3908.847110053807
 30
0.0
 11
5257.199307372462
 21
-3908.847110053807
 31
0.0
  0
LINE
  5
89B43
330
18
100
AcDbEntity
  8
実線
100
AcDbLine
 10
5248.699307372461
 20
-3903.647110053808
 30
0.0
 11
5257.199307372458
 21
-3903.647110053808
 31
0.0
  0
LINE
  5
89B44
330
18
100
AcDbEntity
  8
実線
100
AcDbLine
 10
5248.699307372461
 20
-3908.047110053809
 30
0.0
 11
5257.199307372462
 21
-3908.047110053809
 31
0.0
  0
LINE
  5
89B45
330
18
100
AcDbEntity
  8
実線
100
AcDbLine
 10
5248.699307372461
 20
-3898.186856015963
 30
0.0
 11
5249.266294670567
 21
-3897.619868717856
 31
0.0
  0
LINE
  5
89B46
330
18
100
AcDbEntity
  8
実線
100
AcDbLine
 10
5248.699307372461
 20
-3913.507364091652
 30
0.0
 11
5249.266294670567
 21
-3914.074351389761
 31
0.0
  0
ARC
  5
89B47
330
18
100
AcDbEntity
  8
実線
100
AcDbCircle
 10
5248.199307372458
 20
-3902.347110053807
 30
0.0
 40
4.0
100
AcDbArc
 50
90.0
 51
180.0
  0
ARC
  5
89B48
330
18
100
AcDbEntity
  8
実線
100
AcDbCircle
 10
5248.199307372458
 20
-3909.347110053807
 30
0.0
 40
4.0
100
AcDbArc
 50
180.0
 51
270.0
  0
LINE
  5
89B49
330
18
100
AcDbEntity
  8
実線
100
AcDbLine
 10
5248.699307372458
 20
-3898.347110053807
 30
0.0
 11
5248.199307372458
 21
-3898.347110053807
 31
0.0
  0
LINE
  5
89B4A
330
18
100
AcDbEntity
  8
実線
100
AcDbLine
 10
5248.699307372461
 20
-3913.347110053807
 30
0.0
 11
5248.199307372458
 21
-3913.347110053807
 31
0.0
  0
LINE
  5
89B4B
330
18
100
AcDbEntity
  8
実線
100
AcDbLine
 10
5248.699307372461
 20
-3913.507364091652
 30
0.0
 11
5248.699307372461
 21
-3898.186856015963
 31
0.0
  0
LINE
  5
89B4C
330
18
100
AcDbEntity
  8
実線
100
AcDbLine
 10
5261.199307372458
 20
-3899.347110053806
 30
0.0
 11
5257.199307372462
 21
-3899.347110053806
 31
0.0
  0
LINE
  5
89B4D
330
18
100
AcDbEntity
  8
実線
100
AcDbLine
 10
5261.199307372462
 20
-3912.347110053807
 30
0.0
 11
5257.199307372462
 21
-3912.347110053807
 31
0.0
  0
LINE
  5
89B4E
330
18
100
AcDbEntity
  8
実線
100
AcDbLine
 10
5257.199307372458
 20
-3914.074351389761
 30
0.0
 11
5257.199307372462
 21
-3897.619868717856
 31
0.0
  0
LINE
  5
89B4F
330
18
100
AcDbEntity
  8
実線
100
AcDbLine
 10
5244.199307372458
 20
-3909.347110053807
 30
0.0
 11
5244.199307372458
 21
-3902.347110053807
 31
0.0
  0
LINE
  5
89B50
330
18
100
AcDbEntity
  8
実線
100
AcDbLine
 10
5261.199307372458
 20
-3914.074351389759
 30
0.0
 11
5261.199307372462
 21
-3897.619868717856
 31
0.0
  0
LINE
  5
89B51
330
18
100
AcDbEntity
  8
実線
100
AcDbLine
 10
5266.199307372462
 20
-3914.074351389761
 30
0.0
 11
5266.199307372462
 21
-3897.619868717856
 31
0.0
  0
LINE
  5
89B52
330
18
100
AcDbEntity
  8
実線
 48
0.1
100
AcDbLine
 10
5261.199307372458
 20
-3872.083971340438
 30
0.0
 11
5266.199307372454
 21
-3872.083971340437
 31
0.0
  0
LINE
  5
89B53
330
18
100
AcDbEntity
  8
実線
 48
0.1
100
AcDbLine
 10
5261.199307372458
 20
-3873.383009446114
 30
0.0
 11
5266.199307372454
 21
-3873.383009446114
 31
0.0
  0
LINE
  5
89B54
330
18
100
AcDbEntity
  8
実線
 48
0.1
100
AcDbLine
 10
5261.199307372454
 20
-3880.31121267639
 30
0.0
 11
5266.199307372458
 21
-3880.31121267639
 31
0.0
  0
LINE
  5
89B55
330
18
100
AcDbEntity
  8
実線
 48
0.1
100
AcDbLine
 10
5261.199307372454
 20
-3881.610250782065
 30
0.0
 11
5266.199307372458
 21
-3881.610250782065
 31
0.0
  0
LINE
  5
89B56
330
18
100
AcDbEntity
  8
実線
100
AcDbLine
 10
5261.199307372458
 20
-3868.6198697253
 30
0.0
 11
5266.199307372454
 21
-3868.6198697253
 31
0.0
  0
LINE
  5
89B57
330
18
100
AcDbEntity
  8
実線
100
AcDbLine
 10
5261.199307372454
 20
-3885.074352397203
 30
0.0
 11
5266.199307372458
 21
-3885.074352397203
 31
0.0
  0
LINE
  5
89B58
330
18
100
AcDbEntity
  8
実線
100
AcDbLine
 10
5249.266294670563
 20
-3885.074352397205
 30
0.0
 11
5257.199307372454
 21
-3885.074352397205
 31
0.0
  0
LINE
  5
89B59
330
18
100
AcDbEntity
  8
実線
100
AcDbLine
 10
5249.266294670563
 20
-3868.6198697253
 30
0.0
 11
5257.199307372458
 21
-3868.6198697253
 31
0.0
  0
LINE
  5
89B5A
330
18
100
AcDbEntity
  8
実線
 48
0.1
100
AcDbLine
 10
5248.699307372458
 20
-3872.083971340438
 30
0.0
 11
5257.199307372458
 21
-3872.083971340438
 31
0.0
  0
LINE
  5
89B5B
330
18
100
AcDbEntity
  8
実線
 48
0.1
100
AcDbLine
 10
5248.699307372458
 20
-3873.383009446114
 30
0.0
 11
5257.199307372458
 21
-3873.383009446114
 31
0.0
  0
LINE
  5
89B5C
330
18
100
AcDbEntity
  8
実線
 48
0.1
100
AcDbLine
 10
5248.699307372458
 20
-3881.610250782067
 30
0.0
 11
5257.199307372454
 21
-3881.610250782065
 31
0.0
  0
LINE
  5
89B5D
330
18
100
AcDbEntity
  8
実線
 48
0.1
100
AcDbLine
 10
5248.699307372458
 20
-3880.311212676392
 30
0.0
 11
5257.199307372454
 21
-3880.31121267639
 31
0.0
  0
LINE
  5
89B5E
330
18
100
AcDbEntity
  8
実線
100
AcDbLine
 10
5249.034243862995
 20
-3868.85192053287
 30
0.0
 11
5257.199307372458
 21
-3868.85192053287
 31
0.0
  0
LINE
  5
89B5F
330
18
100
AcDbEntity
  8
実線
100
AcDbLine
 10
5248.699307372458
 20
-3869.25192053287
 30
0.0
 11
5257.199307372458
 21
-3869.25192053287
 31
0.0
  0
LINE
  5
89B60
330
18
100
AcDbEntity
  8
実線
100
AcDbLine
 10
5248.699307372458
 20
-3871.451920532869
 30
0.0
 11
5257.199307372458
 21
-3871.451920532869
 31
0.0
  0
LINE
  5
89B61
330
18
100
AcDbEntity
  8
実線
100
AcDbLine
 10
5248.699307372458
 20
-3871.85192053287
 30
0.0
 11
5257.199307372458
 21
-3871.85192053287
 31
0.0
  0
LINE
  5
89B62
330
18
100
AcDbEntity
  8
実線
100
AcDbLine
 10
5249.034243862995
 20
-3884.842301589633
 30
0.0
 11
5257.199307372458
 21
-3884.842301589635
 31
0.0
  0
LINE
  5
89B63
330
18
100
AcDbEntity
  8
実線
100
AcDbLine
 10
5248.699307372458
 20
-3884.442301589635
 30
0.0
 11
5257.199307372458
 21
-3884.442301589635
 31
0.0
  0
LINE
  5
89B64
330
18
100
AcDbEntity
  8
実線
100
AcDbLine
 10
5248.699307372458
 20
-3882.242301589636
 30
0.0
 11
5257.199307372458
 21
-3882.242301589636
 31
0.0
  0
LINE
  5
89B65
330
18
100
AcDbEntity
  8
実線
100
AcDbLine
 10
5248.699307372458
 20
-3881.842301589637
 30
0.0
 11
5257.199307372458
 21
-3881.842301589635
 31
0.0
  0
LINE
  5
89B66
330
18
100
AcDbEntity
  8
実線
100
AcDbLine
 10
5248.699307372458
 20
-3873.847111061254
 30
0.0
 11
5257.199307372458
 21
-3873.847111061254
 31
0.0
  0
LINE
  5
89B67
330
18
100
AcDbEntity
  8
実線
100
AcDbLine
 10
5248.699307372458
 20
-3879.847111061252
 30
0.0
 11
5257.199307372458
 21
-3879.847111061252
 31
0.0
  0
LINE
  5
89B68
330
18
100
AcDbEntity
  8
実線
100
AcDbLine
 10
5248.699307372458
 20
-3874.647111061253
 30
0.0
 11
5257.199307372454
 21
-3874.647111061253
 31
0.0
  0
LINE
  5
89B69
330
18
100
AcDbEntity
  8
実線
100
AcDbLine
 10
5248.699307372458
 20
-3879.047111061253
 30
0.0
 11
5257.199307372458
 21
-3879.047111061253
 31
0.0
  0
LINE
  5
89B6A
330
18
100
AcDbEntity
  8
実線
100
AcDbLine
 10
5248.699307372458
 20
-3869.186857023407
 30
0.0
 11
5249.266294670563
 21
-3868.6198697253
 31
0.0
  0
LINE
  5
89B6B
330
18
100
AcDbEntity
  8
実線
100
AcDbLine
 10
5248.699307372458
 20
-3884.507365099096
 30
0.0
 11
5249.266294670563
 21
-3885.074352397205
 31
0.0
  0
ARC
  5
89B6C
330
18
100
AcDbEntity
  8
実線
100
AcDbCircle
 10
5248.199307372455
 20
-3873.347111061252
 30
0.0
 40
4.0
100
AcDbArc
 50
90.0
 51
180.0
  0
ARC
  5
89B6D
330
18
100
AcDbEntity
  8
実線
100
AcDbCircle
 10
5248.199307372455
 20
-3880.347111061252
 30
0.0
 40
4.0
100
AcDbArc
 50
180.0
 51
270.0
  0
LINE
  5
89B6E
330
18
100
AcDbEntity
  8
実線
100
AcDbLine
 10
5248.699307372454
 20
-3869.347111061252
 30
0.0
 11
5248.199307372455
 21
-3869.347111061252
 31
0.0
  0
LINE
  5
89B6F
330
18
100
AcDbEntity
  8
実線
100
AcDbLine
 10
5248.699307372458
 20
-3884.347111061252
 30
0.0
 11
5248.199307372455
 21
-3884.347111061252
 31
0.0
  0
LINE
  5
89B70
330
18
100
AcDbEntity
  8
実線
100
AcDbLine
 10
5248.699307372458
 20
-3884.507365099096
 30
0.0
 11
5248.699307372458
 21
-3869.186857023407
 31
0.0
  0
LINE
  5
89B71
330
18
100
AcDbEntity
  8
実線
100
AcDbLine
 10
5261.199307372454
 20
-3870.347111061252
 30
0.0
 11
5257.199307372458
 21
-3870.347111061252
 31
0.0
  0
LINE
  5
89B72
330
18
100
AcDbEntity
  8
実線
100
AcDbLine
 10
5261.199307372458
 20
-3883.347111061252
 30
0.0
 11
5257.199307372458
 21
-3883.347111061252
 31
0.0
  0
LINE
  5
89B73
330
18
100
AcDbEntity
  8
実線
100
AcDbLine
 10
5257.199307372454
 20
-3885.074352397205
 30
0.0
 11
5257.199307372458
 21
-3868.6198697253
 31
0.0
  0
LINE
  5
89B74
330
18
100
AcDbEntity
  8
実線
100
AcDbLine
 10
5244.199307372454
 20
-3880.347111061252
 30
0.0
 11
5244.199307372454
 21
-3873.347111061252
 31
0.0
  0
LINE
  5
89B75
330
18
100
AcDbEntity
  8
実線
100
AcDbLine
 10
5261.199307372454
 20
-3885.074352397203
 30
0.0
 11
5261.199307372458
 21
-3868.6198697253
 31
0.0
  0
LINE
  5
89B76
330
18
100
AcDbEntity
  8
実線
100
AcDbLine
 10
5266.199307372458
 20
-3885.074352397205
 30
0.0
 11
5266.199307372458
 21
-3868.6198697253
 31
0.0
  0
LINE
  5
89B85
330
18
100
AcDbEntity
  8
実線
100
AcDbLine
 10
5168.349307372461
 20
-3815.547156162728
 30
0.0
 11
5174.049307372462
 21
-3815.547156162728
 31
0.0
  0
LINE
  5
89B8F
330
18
100
AcDbEntity
  8
中心線
100
AcDbLine
 10
5406.199307372464
 20
-3742.703726359784
 30
0.0
 11
5406.199307372464
 21
-3466.452808649771
 31
0.0
  0
SPLINE
  5
89B92
330
18
100
AcDbEntity
  8
細線
 48
0.5
100
AcDbSpline
210
0.0
220
0.0
230
1.0
 70
  1064
 71
     3
 72
     9
 73
     5
 74
     3
 42
0.000000001
 43
0.0000000001
 44
0.0000000001
 40
0.0
 40
0.0
 40
0.0
 40
0.0
 40
1.781686233780552
 40
3.533768259618394
 40
3.533768259618394
 40
3.533768259618394
 40
3.533768259618394
 10
6069.604163962684
 20
-3601.847111061252
 30
0.0
 10
6069.921193706168
 20
-3601.291073540435
 30
0.0
 10
6070.549985478611
 20
-3600.18823752758
 30
0.0
 10
6069.914823246087
 20
-3599.091089423956
 30
0.0
 10
6069.599902671407
 20
-3598.547111061253
 30
0.0
 11
6069.604163962684
 21
-3601.847111061252
 31
0.0
 11
6070.233948116086
 21
-3600.180444401188
 31
0.0
 11
6069.599902671407
 21
-3598.547111061253
 31
0.0
  0
SPLINE
  5
89B93
330
18
100
AcDbEntity
  8
細線
 48
0.5
100
AcDbSpline
210
0.0
220
0.0
230
1.0
 70
  1064
 71
     3
 72
    11
 73
     7
 74
     5
 42
0.000000001
 43
0.0000000001
 44
0.0000000001
 40
0.0
 40
0.0
 40
0.0
 40
0.0
 40
1.752082017629163
 40
3.533768259648469
 40
5.318484832367331
 40
7.070566858206489
 40
7.070566858206489
 40
7.070566858206489
 40
7.070566858206489
 10
6069.599902671407
 20
-3605.147111061252
 30
0.0
 10
6069.914600580609
 20
-3604.603214988414
 30
0.0
 10
6070.549313722874
 20
-3603.506232849789
 30
0.0
 10
6069.606366773191
 20
-3601.845152013193
 30
0.0
 10
6068.647047187938
 20
-3600.190121760202
 30
0.0
 10
6069.28424401235
 20
-3599.091401945907
 30
0.0
 10
6069.599902671407
 20
-3598.547111061253
 30
0.0
 11
6069.599902671407
 21
-3605.147111061252
 31
0.0
 11
6070.233948116086
 21
-3603.513777730122
 31
0.0
 11
6069.604163962684
 21
-3601.847111061252
 31
0.0
 11
6068.965857226725
 21
-3600.180444401188
 31
0.0
 11
6069.599902671407
 21
-3598.547111061253
 31
0.0
  0
LINE
  5
89B94
330
18
100
AcDbEntity
  8
実線
100
AcDbLine
 10
6064.599902671407
 20
-3598.547111061253
 30
0.0
 11
6069.599902671406
 21
-3598.547111061253
 31
0.0
  0
LINE
  5
89B95
330
18
100
AcDbEntity
  8
実線
100
AcDbLine
 10
6064.599902671407
 20
-3605.147111061252
 30
0.0
 11
6069.599902671406
 21
-3605.147111061252
 31
0.0
  0
LINE
  5
89B96
330
18
100
AcDbEntity
  8
実線
100
AcDbLine
 10
6043.613230855228
 20
-3594.377111061252
 30
0.0
 11
6043.613230855228
 21
-3594.347111061252
 31
0.0
  0
LINE
  5
89B97
330
18
100
AcDbEntity
  8
実線
100
AcDbLine
 10
6046.786574487578
 20
-3594.377111061252
 30
0.0
 11
6046.786574487578
 21
-3594.347111061252
 31
0.0
  0
LINE
  5
89B98
330
18
100
AcDbEntity
  8
実線
100
AcDbLine
 10
6045.373236004737
 20
-3594.377111061252
 30
0.0
 11
6045.373236004737
 21
-3594.347111061252
 31
0.0
  0
LINE
  5
89B99
330
18
100
AcDbEntity
  8
実線
100
AcDbLine
 10
6045.02656933807
 20
-3594.377111061252
 30
0.0
 11
6045.02656933807
 21
-3594.347111061252
 31
0.0
  0
LINE
  5
89B9A
330
18
100
AcDbEntity
  8
実線
100
AcDbLine
 10
6045.777680449181
 20
-3594.377111061252
 30
0.0
 11
6045.777680449181
 21
-3594.347111061252
 31
0.0
  0
LINE
  5
89B9B
330
18
100
AcDbEntity
  8
実線
100
AcDbLine
 10
6044.622124893625
 20
-3594.347111061252
 30
0.0
 11
6044.622124893625
 21
-3594.377111061252
 31
0.0
  0
LINE
  5
89B9C
330
18
100
AcDbEntity
  8
実線
100
AcDbLine
 10
6043.740177897146
 20
-3594.377111061252
 30
0.0
 11
6043.740177897146
 21
-3594.347111061252
 31
0.0
  0
LINE
  5
89B9D
330
18
100
AcDbEntity
  8
実線
100
AcDbLine
 10
6044.788581672235
 20
-3594.377111061252
 30
0.0
 11
6044.788581672235
 21
-3594.347111061252
 31
0.0
  0
LINE
  5
89B9E
330
18
100
AcDbEntity
  8
実線
100
AcDbLine
 10
6043.633026116679
 20
-3594.347111061252
 30
0.0
 11
6043.633026116679
 21
-3594.377111061252
 31
0.0
  0
LINE
  5
89B9F
330
18
100
AcDbEntity
  8
実線
100
AcDbLine
 10
6046.766753337045
 20
-3594.377111061252
 30
0.0
 11
6046.766753337045
 21
-3594.347111061252
 31
0.0
  0
LINE
  5
89BA0
330
18
100
AcDbEntity
  8
実線
100
AcDbLine
 10
6046.65962744566
 20
-3594.377111061252
 30
0.0
 11
6046.65962744566
 21
-3594.347111061252
 31
0.0
  0
LINE
  5
89BA1
330
18
100
AcDbEntity
  8
実線
100
AcDbLine
 10
6045.611223670573
 20
-3594.347111061252
 30
0.0
 11
6045.611223670573
 21
-3594.377111061252
 31
0.0
  0
LINE
  5
89BA2
330
18
100
AcDbEntity
  8
実線
100
AcDbLine
 10
6043.506104963846
 20
-3594.377111061252
 30
0.0
 11
6043.506104963846
 21
-3594.347111061252
 31
0.0
  0
LINE
  5
89BA3
330
18
100
AcDbEntity
  8
実線
100
AcDbLine
 10
6044.045952226682
 20
-3594.377111061252
 30
0.0
 11
6044.045952226682
 21
-3594.347111061252
 31
0.0
  0
LINE
  5
89BA4
330
18
100
AcDbEntity
  8
実線
100
AcDbLine
 10
6043.46656933807
 20
-3594.347111061252
 30
0.0
 11
6043.46656933807
 21
-3594.377111061252
 31
0.0
  0
LINE
  5
89BA5
330
18
100
AcDbEntity
  8
実線
100
AcDbLine
 10
6046.893700378962
 20
-3594.377111061252
 30
0.0
 11
6046.893700378962
 21
-3594.347111061252
 31
0.0
  0
LINE
  5
89BA6
330
18
100
AcDbEntity
  8
実線
100
AcDbLine
 10
6046.933236004737
 20
-3594.377111061252
 30
0.0
 11
6046.933236004737
 21
-3594.347111061252
 31
0.0
  0
LINE
  5
89BA7
330
18
100
AcDbEntity
  8
実線
100
AcDbLine
 10
6046.353853116124
 20
-3594.377111061252
 30
0.0
 11
6046.353853116124
 21
-3594.347111061252
 31
0.0
  0
LINE
  5
89BA8
330
18
100
AcDbEntity
  8
実線
100
AcDbLine
 10
6045.994936304731
 20
-3594.377111061252
 30
0.0
 11
6045.994936304731
 21
-3594.347111061252
 31
0.0
  0
LINE
  5
89BA9
330
18
100
AcDbEntity
  8
実線
100
AcDbLine
 10
6046.275395529448
 20
-3594.377111061252
 30
0.0
 11
6046.275395529448
 21
-3594.347111061252
 31
0.0
  0
LINE
  5
89BAA
330
18
100
AcDbEntity
  8
実線
100
AcDbLine
 10
6046.388977111567
 20
-3594.377111061252
 30
0.0
 11
6046.388977111567
 21
-3594.347111061252
 31
0.0
  0
LINE
  5
89BAB
330
18
100
AcDbEntity
  8
実線
100
AcDbLine
 10
6045.233421556009
 20
-3594.347111061252
 30
0.0
 11
6045.233421556009
 21
-3594.377111061252
 31
0.0
  0
LINE
  5
89BAC
330
18
100
AcDbEntity
  8
実線
100
AcDbLine
 10
6044.404869038076
 20
-3594.377111061252
 30
0.0
 11
6044.404869038076
 21
-3594.347111061252
 31
0.0
  0
LINE
  5
89BAD
330
18
100
AcDbEntity
  8
実線
100
AcDbLine
 10
6044.12440981336
 20
-3594.377111061252
 30
0.0
 11
6044.12440981336
 21
-3594.347111061252
 31
0.0
  0
LINE
  5
89BAE
330
18
100
AcDbEntity
  8
実線
100
AcDbLine
 10
6045.166383786797
 20
-3594.377111061252
 30
0.0
 11
6045.166383786797
 21
-3594.347111061252
 31
0.0
  0
LINE
  5
89BAF
330
18
100
AcDbEntity
  8
実線
100
AcDbLine
 10
6044.010828231241
 20
-3594.347111061252
 30
0.0
 11
6044.010828231241
 21
-3594.377111061252
 31
0.0
  0
LINE
  5
89BB0
330
18
100
AcDbEntity
  8
実線
100
AcDbLine
 10
6044.3264114514
 20
-3594.377111061252
 30
0.0
 11
6044.3264114514
 21
-3594.347111061252
 31
0.0
  0
LINE
  5
89BB1
330
18
100
AcDbEntity
  8
実線
100
AcDbLine
 10
6046.073393891408
 20
-3594.377111061252
 30
0.0
 11
6046.073393891408
 21
-3594.347111061252
 31
0.0
  0
LINE
  5
89BB2
330
18
100
AcDbEntity
  8
実線
100
AcDbLine
 10
6047.106569338071
 20
-3594.377111061252
 30
0.0
 11
6047.106569338071
 21
-3594.347111061252
 31
0.0
  0
LINE
  5
89BB3
330
18
100
AcDbEntity
  8
実線
100
AcDbLine
 10
6043.293236004737
 20
-3594.377111061252
 30
0.0
 11
6043.293236004737
 21
-3594.347111061252
 31
0.0
  0
LINE
  5
89BB4
330
18
100
AcDbEntity
  8
実線
100
AcDbLine
 10
6043.293236004737
 20
-3594.377111061252
 30
0.0
 11
6047.106569338071
 21
-3594.377111061252
 31
0.0
  0
LINE
  5
89BB5
330
18
100
AcDbEntity
  8
実線
100
AcDbLine
 10
6042.599902671402
 20
-3594.347111061252
 30
0.0
 11
6042.599902671402
 21
-3609.347111061252
 31
0.0
  0
LINE
  5
89BB6
330
18
100
AcDbEntity
  8
実線
100
AcDbLine
 10
6042.599902671402
 20
-3594.347111061252
 30
0.0
 11
6047.799902671403
 21
-3594.347111061252
 31
0.0
  0
LINE
  5
89BB7
330
18
100
AcDbEntity
  8
実線
100
AcDbLine
 10
6051.599902671402
 20
-3594.347111061252
 30
0.0
 11
6051.599902671402
 21
-3609.347111061252
 31
0.0
  0
LINE
  5
89BB8
330
18
100
AcDbEntity
  8
実線
100
AcDbLine
 10
6042.599902671402
 20
-3609.347111061252
 30
0.0
 11
6047.799902671403
 21
-3609.347111061252
 31
0.0
  0
LINE
  5
89BB9
330
18
100
AcDbEntity
  8
実線
100
AcDbLine
 10
6042.503669239714
 20
-3607.037111061251
 30
0.0
 11
6042.599902671402
 21
-3607.037111061251
 31
0.0
  0
LINE
  5
89BBA
330
18
100
AcDbEntity
  8
実線
100
AcDbLine
 10
6042.599902671402
 20
-3596.657111061252
 30
0.0
 11
6042.503669239714
 21
-3596.657111061252
 31
0.0
  0
LINE
  5
89BBB
330
18
100
AcDbEntity
  8
実線
100
AcDbLine
 10
6059.765010379665
 20
-3595.018150197584
 30
0.0
 11
6059.765010379665
 21
-3594.347111061252
 31
0.0
  0
LINE
  5
89BBC
330
18
100
AcDbEntity
  8
実線
100
AcDbLine
 10
6047.585543317459
 20
-3608.676071924922
 30
0.0
 11
6047.585543317459
 21
-3609.347111061252
 31
0.0
  0
LINE
  5
89BBD
330
18
100
AcDbEntity
  8
実線
100
AcDbLine
 10
6047.799902671403
 20
-3594.347111061252
 30
0.0
 11
6047.799902671403
 21
-3609.347111061252
 31
0.0
  0
LINE
  5
89BBE
330
18
100
AcDbEntity
  8
実線
100
AcDbLine
 10
6047.585543317459
 20
-3594.347111061252
 30
0.0
 11
6047.585543317459
 21
-3595.018150197584
 31
0.0
  0
LINE
  5
89BBF
330
18
100
AcDbEntity
  8
実線
100
AcDbLine
 10
6059.765010379665
 20
-3609.347111061252
 30
0.0
 11
6059.765010379665
 21
-3608.676071924922
 31
0.0
  0
LINE
  5
89BC0
330
18
100
AcDbEntity
  8
実線
100
AcDbLine
 10
6047.799902671403
 20
-3608.447111061251
 30
0.0
 11
6051.599902671402
 21
-3608.447111061251
 31
0.0
  0
LINE
  5
89BC1
330
18
100
AcDbEntity
  8
実線
100
AcDbLine
 10
6051.599902671402
 20
-3595.247111061252
 30
0.0
 11
6047.799902671403
 21
-3595.247111061252
 31
0.0
  0
LINE
  5
89BC2
330
18
100
AcDbEntity
  8
実線
100
AcDbLine
 10
6064.599902671403
 20
-3596.987111061253
 30
0.0
 11
6064.599902671403
 21
-3606.707111061251
 31
0.0
  0
ARC
  5
89BC3
330
18
100
AcDbEntity
  8
実線
100
AcDbCircle
 10
6061.959902671404
 20
-3606.707111061251
 30
0.0
 40
2.639999999999998
100
AcDbArc
 50
270.0
 51
0.0
  0
ARC
  5
89BC4
330
18
100
AcDbEntity
  8
実線
100
AcDbCircle
 10
6061.959902671404
 20
-3596.987111061253
 30
0.0
 40
2.640000000000004
100
AcDbArc
 50
0.0000008537783835
 51
90.0
  0
LINE
  5
89BC5
330
18
100
AcDbEntity
  8
実線
100
AcDbLine
 10
6060.565010379665
 20
-3594.347111061252
 30
0.0
 11
6060.565010379665
 21
-3609.347111061252
 31
0.0
  0
LINE
  5
89BC6
330
18
100
AcDbEntity
  8
実線
100
AcDbLine
 10
6051.599902671402
 20
-3609.347111061252
 30
0.0
 11
6061.959902671404
 21
-3609.347111061252
 31
0.0
  0
LINE
  5
89BC7
330
18
100
AcDbEntity
  8
実線
100
AcDbLine
 10
6061.959902671404
 20
-3594.347111061252
 30
0.0
 11
6051.599902671402
 21
-3594.347111061252
 31
0.0
  0
LINE
  5
89BC8
330
18
100
AcDbEntity
  8
実線
100
AcDbLine
 10
6061.959902671404
 20
-3594.347111061252
 30
0.0
 11
6061.959902671404
 21
-3609.347111061252
 31
0.0
  0
LWPOLYLINE
  5
89BC9
330
18
100
AcDbEntity
  8
実線
100
AcDbPolyline
 90
        8
 70
     0
 43
0.0
 10
6059.765010379665
 20
-3608.676071924922
 10
6059.970886408375
 20
-3608.23309158444
 10
6060.152076814381
 20
-3607.781852102004
 10
6060.30470113489
 20
-3607.323175857516
 10
6060.42814551925
 20
-3606.842437190302
 10
6060.513851976371
 20
-3606.35505602214
 10
6060.558667867042
 20
-3605.864287852178
 10
6060.565010379665
 20
-3605.597111061252
  0
LINE
  5
89BCA
330
18
100
AcDbEntity
  8
実線
100
AcDbLine
 10
6059.765010379665
 20
-3608.676071924922
 30
0.0
 11
6051.599902671402
 21
-3608.676071924922
 31
0.0
  0
LINE
  5
89BCB
330
18
100
AcDbEntity
  8
実線
100
AcDbLine
 10
6042.599902671402
 20
-3608.676071924922
 30
0.0
 11
6047.585543317459
 21
-3608.676071924922
 31
0.0
  0
LWPOLYLINE
  5
89BCC
330
18
100
AcDbEntity
  8
実線
100
AcDbPolyline
 90
        5
 70
     0
 43
0.0
 10
6047.799902671403
 20
-3605.597111061252
 10
6047.785776454786
 20
-3606.367217847938
 10
6047.744225972524
 20
-3607.136591493087
 10
6047.676562740356
 20
-3607.907223970581
 10
6047.585543317459
 20
-3608.676071924922
  0
LINE
  5
89BCD
330
18
100
AcDbEntity
  8
実線
100
AcDbLine
 10
6042.599902671402
 20
-3595.018150197584
 30
0.0
 11
6047.585543317459
 21
-3595.018150197584
 31
0.0
  0
LWPOLYLINE
  5
89BCE
330
18
100
AcDbEntity
  8
実線
100
AcDbPolyline
 90
        5
 70
     0
 43
0.0
 10
6047.585543317459
 20
-3595.018150197584
 10
6047.67629993011
 20
-3595.784461783062
 10
6047.743862685052
 20
-3596.552547436117
 10
6047.785682964093
 20
-3597.324459170438
 10
6047.799902671403
 20
-3598.097111061252
  0
LWPOLYLINE
  5
89BCF
330
18
100
AcDbEntity
  8
実線
100
AcDbPolyline
 90
        9
 70
     0
 43
0.0
 10
6060.565010379665
 20
-3598.097111061252
 10
6060.550404555058
 20
-3597.693612657627
 10
6060.507359399961
 20
-3597.291244518083
 10
6060.437033392464
 20
-3596.892111190735
 10
6060.337441421226
 20
-3596.485185651046
 10
6060.212690412491
 20
-3596.083148876051
 10
6060.065377158758
 20
-3595.687111320217
 10
6059.922038375592
 20
-3595.350568726912
 10
6059.765010379665
 20
-3595.018150197584
  0
LINE
  5
89BD0
330
18
100
AcDbEntity
  8
実線
100
AcDbLine
 10
6059.765010379665
 20
-3595.018150197584
 30
0.0
 11
6051.599902671402
 21
-3595.018150197584
 31
0.0
  0
LINE
  5
89BD1
330
18
100
AcDbEntity
  8
実線
100
AcDbLine
 10
6042.599902671402
 20
-3601.176071924921
 30
0.0
 11
6047.585543317459
 21
-3601.176071924921
 31
0.0
  0
LINE
  5
89BD2
330
18
100
AcDbEntity
  8
実線
100
AcDbLine
 10
6042.599902671402
 20
-3602.518150197583
 30
0.0
 11
6047.585543317459
 21
-3602.518150197583
 31
0.0
  0
LINE
  5
89BD3
330
18
100
AcDbEntity
  8
実線
100
AcDbLine
 10
6059.765010379665
 20
-3601.176071924921
 30
0.0
 11
6051.599902671402
 21
-3601.176071924921
 31
0.0
  0
LINE
  5
89BD4
330
18
100
AcDbEntity
  8
実線
100
AcDbLine
 10
6059.765010379665
 20
-3602.518150197583
 30
0.0
 11
6051.599902671402
 21
-3602.518150197583
 31
0.0
  0
LWPOLYLINE
  5
89BD5
330
18
100
AcDbEntity
  8
実線
100
AcDbPolyline
 90
        5
 70
     0
 43
0.0
 10
6047.799902671403
 20
-3598.097111061252
 10
6047.785776454786
 20
-3598.867217847938
 10
6047.744225972524
 20
-3599.636591493086
 10
6047.676562740356
 20
-3600.407223970581
 10
6047.585543317459
 20
-3601.176071924921
  0
LINE
  5
89BD6
330
18
100
AcDbEntity
  8
実線
100
AcDbLine
 10
6047.585543317459
 20
-3601.176071924921
 30
0.0
 11
6047.585543317459
 21
-3602.518150197583
 31
0.0
  0
LWPOLYLINE
  5
89BD7
330
18
100
AcDbEntity
  8
実線
100
AcDbPolyline
 90
        5
 70
     0
 43
0.0
 10
6047.585543317459
 20
-3602.518150197583
 10
6047.67629993011
 20
-3603.284461783062
 10
6047.743862685052
 20
-3604.052547436117
 10
6047.785682964093
 20
-3604.824459170438
 10
6047.799902671403
 20
-3605.597111061252
  0
LWPOLYLINE
  5
89BD8
330
18
100
AcDbEntity
  8
実線
100
AcDbPolyline
 90
        8
 70
     0
 43
0.0
 10
6059.765010379665
 20
-3601.176071924921
 10
6059.970886408375
 20
-3600.73309158444
 10
6060.152076814381
 20
-3600.281852102003
 10
6060.30470113489
 20
-3599.823175857517
 10
6060.42814551925
 20
-3599.342437190301
 10
6060.513851976371
 20
-3598.855056022141
 10
6060.558667867042
 20
-3598.364287852179
 10
6060.565010379665
 20
-3598.097111061252
  0
LINE
  5
89BD9
330
18
100
AcDbEntity
  8
実線
100
AcDbLine
 10
6059.765010379665
 20
-3602.518150197583
 30
0.0
 11
6059.765010379665
 21
-3601.176071924921
 31
0.0
  0
LWPOLYLINE
  5
89BDA
330
18
100
AcDbEntity
  8
実線
100
AcDbPolyline
 90
        9
 70
     0
 43
0.0
 10
6060.565010379665
 20
-3605.597111061252
 10
6060.550404555058
 20
-3605.193612657628
 10
6060.507359399961
 20
-3604.791244518084
 10
6060.437033392464
 20
-3604.392111190735
 10
6060.337441421226
 20
-3603.985185651046
 10
6060.212690412491
 20
-3603.583148876051
 10
6060.065377158758
 20
-3603.187111320217
 10
6059.922038375592
 20
-3602.850568726911
 10
6059.765010379665
 20
-3602.518150197583
  0
LINE
  5
89BDD
330
18
100
AcDbEntity
  8
実線
100
AcDbLine
 10
5265.185979188638
 20
-3609.317111061253
 30
0.0
 11
5265.185979188638
 21
-3609.347111061254
 31
0.0
  0
LINE
  5
89BDE
330
18
100
AcDbEntity
  8
実線
100
AcDbLine
 10
5262.012635556288
 20
-3609.317111061253
 30
0.0
 11
5262.012635556288
 21
-3609.347111061254
 31
0.0
  0
LINE
  5
89BDF
330
18
100
AcDbEntity
  8
実線
100
AcDbLine
 10
5263.42597403913
 20
-3609.317111061253
 30
0.0
 11
5263.42597403913
 21
-3609.347111061254
 31
0.0
  0
LINE
  5
89BE0
330
18
100
AcDbEntity
  8
実線
100
AcDbLine
 10
5263.772640705798
 20
-3609.317111061253
 30
0.0
 11
5263.772640705798
 21
-3609.347111061254
 31
0.0
  0
LINE
  5
89BE1
330
18
100
AcDbEntity
  8
実線
100
AcDbLine
 10
5263.021529594684
 20
-3609.317111061253
 30
0.0
 11
5263.021529594684
 21
-3609.347111061254
 31
0.0
  0
LINE
  5
89BE2
330
18
100
AcDbEntity
  8
実線
100
AcDbLine
 10
5264.177085150243
 20
-3609.347111061254
 30
0.0
 11
5264.177085150243
 21
-3609.317111061253
 31
0.0
  0
LINE
  5
89BE3
330
18
100
AcDbEntity
  8
実線
100
AcDbLine
 10
5265.05903214672
 20
-3609.317111061253
 30
0.0
 11
5265.05903214672
 21
-3609.347111061254
 31
0.0
  0
LINE
  5
89BE4
330
18
100
AcDbEntity
  8
実線
100
AcDbLine
 10
5264.010628371632
 20
-3609.317111061253
 30
0.0
 11
5264.010628371632
 21
-3609.347111061254
 31
0.0
  0
LINE
  5
89BE5
330
18
100
AcDbEntity
  8
実線
100
AcDbLine
 10
5265.166183927188
 20
-3609.347111061254
 30
0.0
 11
5265.166183927188
 21
-3609.317111061253
 31
0.0
  0
LINE
  5
89BE6
330
18
100
AcDbEntity
  8
実線
100
AcDbLine
 10
5262.032456706823
 20
-3609.317111061253
 30
0.0
 11
5262.032456706823
 21
-3609.347111061254
 31
0.0
  0
LINE
  5
89BE7
330
18
100
AcDbEntity
  8
実線
100
AcDbLine
 10
5262.139582598206
 20
-3609.317111061253
 30
0.0
 11
5262.139582598206
 21
-3609.347111061254
 31
0.0
  0
LINE
  5
89BE8
330
18
100
AcDbEntity
  8
実線
100
AcDbLine
 10
5263.187986373294
 20
-3609.347111061254
 30
0.0
 11
5263.187986373294
 21
-3609.317111061253
 31
0.0
  0
LINE
  5
89BE9
330
18
100
AcDbEntity
  8
実線
100
AcDbLine
 10
5265.293105080022
 20
-3609.317111061253
 30
0.0
 11
5265.293105080022
 21
-3609.347111061254
 31
0.0
  0
LINE
  5
89BEA
330
18
100
AcDbEntity
  8
実線
100
AcDbLine
 10
5264.753257817184
 20
-3609.317111061253
 30
0.0
 11
5264.753257817184
 21
-3609.347111061254
 31
0.0
  0
LINE
  5
89BEB
330
18
100
AcDbEntity
  8
実線
100
AcDbLine
 10
5265.332640705796
 20
-3609.347111061254
 30
0.0
 11
5265.332640705796
 21
-3609.317111061253
 31
0.0
  0
LINE
  5
89BEC
330
18
100
AcDbEntity
  8
実線
100
AcDbLine
 10
5261.905509664906
 20
-3609.317111061253
 30
0.0
 11
5261.905509664906
 21
-3609.347111061254
 31
0.0
  0
LINE
  5
89BED
330
18
100
AcDbEntity
  8
実線
100
AcDbLine
 10
5261.865974039131
 20
-3609.317111061253
 30
0.0
 11
5261.865974039131
 21
-3609.347111061254
 31
0.0
  0
LINE
  5
89BEE
330
18
100
AcDbEntity
  8
実線
100
AcDbLine
 10
5262.445356927742
 20
-3609.317111061253
 30
0.0
 11
5262.445356927742
 21
-3609.347111061254
 31
0.0
  0
LINE
  5
89BEF
330
18
100
AcDbEntity
  8
実線
100
AcDbLine
 10
5262.804273739135
 20
-3609.317111061253
 30
0.0
 11
5262.804273739135
 21
-3609.347111061254
 31
0.0
  0
LINE
  5
89BF0
330
18
100
AcDbEntity
  8
実線
100
AcDbLine
 10
5262.52381451442
 20
-3609.317111061253
 30
0.0
 11
5262.52381451442
 21
-3609.347111061254
 31
0.0
  0
LINE
  5
89BF1
330
18
100
AcDbEntity
  8
実線
100
AcDbLine
 10
5262.410232932301
 20
-3609.317111061253
 30
0.0
 11
5262.410232932301
 21
-3609.347111061254
 31
0.0
  0
LINE
  5
89BF2
330
18
100
AcDbEntity
  8
実線
100
AcDbLine
 10
5263.565788487857
 20
-3609.347111061254
 30
0.0
 11
5263.565788487857
 21
-3609.317111061253
 31
0.0
  0
LINE
  5
89BF3
330
18
100
AcDbEntity
  8
実線
100
AcDbLine
 10
5264.39434100579
 20
-3609.317111061253
 30
0.0
 11
5264.39434100579
 21
-3609.347111061254
 31
0.0
  0
LINE
  5
89BF4
330
18
100
AcDbEntity
  8
実線
100
AcDbLine
 10
5264.674800230507
 20
-3609.317111061253
 30
0.0
 11
5264.674800230507
 21
-3609.347111061254
 31
0.0
  0
LINE
  5
89BF5
330
18
100
AcDbEntity
  8
実線
100
AcDbLine
 10
5263.63282625707
 20
-3609.317111061253
 30
0.0
 11
5263.63282625707
 21
-3609.347111061254
 31
0.0
  0
LINE
  5
89BF6
330
18
100
AcDbEntity
  8
実線
100
AcDbLine
 10
5264.788381812626
 20
-3609.347111061254
 30
0.0
 11
5264.788381812626
 21
-3609.317111061253
 31
0.0
  0
LINE
  5
89BF7
330
18
100
AcDbEntity
  8
実線
100
AcDbLine
 10
5264.472798592468
 20
-3609.317111061253
 30
0.0
 11
5264.472798592468
 21
-3609.347111061254
 31
0.0
  0
LINE
  5
89BF8
330
18
100
AcDbEntity
  8
実線
100
AcDbLine
 10
5262.725816152459
 20
-3609.317111061253
 30
0.0
 11
5262.725816152459
 21
-3609.347111061254
 31
0.0
  0
LINE
  5
89BF9
330
18
100
AcDbEntity
  8
実線
100
AcDbLine
 10
5261.692640705796
 20
-3609.317111061253
 30
0.0
 11
5261.692640705796
 21
-3609.347111061254
 31
0.0
  0
LINE
  5
89BFA
330
18
100
AcDbEntity
  8
実線
100
AcDbLine
 10
5265.50597403913
 20
-3609.317111061253
 30
0.0
 11
5265.50597403913
 21
-3609.347111061254
 31
0.0
  0
LINE
  5
89BFB
330
18
100
AcDbEntity
  8
実線
100
AcDbLine
 10
5265.50597403913
 20
-3609.317111061253
 30
0.0
 11
5261.692640705796
 21
-3609.317111061253
 31
0.0
  0
LINE
  5
89BFC
330
18
100
AcDbEntity
  8
実線
100
AcDbLine
 10
5266.199307372463
 20
-3609.347111061254
 30
0.0
 11
5266.199307372463
 21
-3594.347111061253
 31
0.0
  0
LINE
  5
89BFD
330
18
100
AcDbEntity
  8
実線
100
AcDbLine
 10
5266.199307372463
 20
-3609.347111061254
 30
0.0
 11
5260.999307372464
 21
-3609.347111061254
 31
0.0
  0
LINE
  5
89BFE
330
18
100
AcDbEntity
  8
実線
100
AcDbLine
 10
5257.199307372463
 20
-3609.347111061254
 30
0.0
 11
5257.199307372463
 21
-3594.347111061253
 31
0.0
  0
LINE
  5
89BFF
330
18
100
AcDbEntity
  8
実線
100
AcDbLine
 10
5266.199307372463
 20
-3594.347111061253
 30
0.0
 11
5260.999307372464
 21
-3594.347111061253
 31
0.0
  0
LINE
  5
89C00
330
18
100
AcDbEntity
  8
実線
100
AcDbLine
 10
5266.295540804154
 20
-3596.657111061253
 30
0.0
 11
5266.199307372463
 21
-3596.657111061253
 31
0.0
  0
LINE
  5
89C01
330
18
100
AcDbEntity
  8
実線
100
AcDbLine
 10
5266.199307372463
 20
-3607.037111061252
 30
0.0
 11
5266.295540804154
 21
-3607.037111061252
 31
0.0
  0
LINE
  5
89C02
330
18
100
AcDbEntity
  8
実線
100
AcDbLine
 10
5249.034199664202
 20
-3608.676071924922
 30
0.0
 11
5249.034199664202
 21
-3609.347111061254
 31
0.0
  0
LINE
  5
89C03
330
18
100
AcDbEntity
  8
実線
100
AcDbLine
 10
5261.213666726409
 20
-3595.018150197584
 30
0.0
 11
5261.213666726409
 21
-3594.347111061253
 31
0.0
  0
LINE
  5
89C04
330
18
100
AcDbEntity
  8
実線
100
AcDbLine
 10
5260.999307372464
 20
-3609.347111061254
 30
0.0
 11
5260.999307372464
 21
-3594.347111061253
 31
0.0
  0
LINE
  5
89C05
330
18
100
AcDbEntity
  8
実線
100
AcDbLine
 10
5261.213666726409
 20
-3609.347111061254
 30
0.0
 11
5261.213666726409
 21
-3608.676071924922
 31
0.0
  0
LINE
  5
89C06
330
18
100
AcDbEntity
  8
実線
100
AcDbLine
 10
5249.034199664202
 20
-3594.347111061253
 30
0.0
 11
5249.034199664202
 21
-3595.018150197584
 31
0.0
  0
LINE
  5
89C07
330
18
100
AcDbEntity
  8
実線
100
AcDbLine
 10
5260.999307372464
 20
-3595.247111061253
 30
0.0
 11
5257.199307372463
 21
-3595.247111061253
 31
0.0
  0
LINE
  5
89C08
330
18
100
AcDbEntity
  8
実線
100
AcDbLine
 10
5257.199307372463
 20
-3608.447111061252
 30
0.0
 11
5260.999307372464
 21
-3608.447111061252
 31
0.0
  0
LINE
  5
89C09
330
18
100
AcDbEntity
  8
実線
100
AcDbLine
 10
5244.199307372463
 20
-3606.707111061252
 30
0.0
 11
5244.199307372463
 21
-3596.987111061253
 31
0.0
  0
ARC
  5
89C0A
330
18
100
AcDbEntity
  8
実線
100
AcDbCircle
 10
5246.839307372464
 20
-3596.987111061253
 30
0.0
 40
2.639999999999998
100
AcDbArc
 50
90.0
 51
180.0
  0
ARC
  5
89C0B
330
18
100
AcDbEntity
  8
実線
100
AcDbCircle
 10
5246.839307372464
 20
-3606.707111061252
 30
0.0
 40
2.640000000000004
100
AcDbArc
 50
180.0000008537784
 51
270.0
  0
LINE
  5
89C0C
330
18
100
AcDbEntity
  8
実線
100
AcDbLine
 10
5248.234199664202
 20
-3609.347111061254
 30
0.0
 11
5248.234199664202
 21
-3594.347111061253
 31
0.0
  0
LINE
  5
89C0D
330
18
100
AcDbEntity
  8
実線
100
AcDbLine
 10
5257.199307372463
 20
-3594.347111061253
 30
0.0
 11
5246.839307372464
 21
-3594.347111061253
 31
0.0
  0
LINE
  5
89C0E
330
18
100
AcDbEntity
  8
実線
100
AcDbLine
 10
5246.839307372464
 20
-3609.347111061254
 30
0.0
 11
5257.199307372463
 21
-3609.347111061254
 31
0.0
  0
LINE
  5
89C0F
330
18
100
AcDbEntity
  8
実線
100
AcDbLine
 10
5246.839307372464
 20
-3609.347111061254
 30
0.0
 11
5246.839307372464
 21
-3594.347111061253
 31
0.0
  0
LWPOLYLINE
  5
89C10
330
18
100
AcDbEntity
  8
実線
100
AcDbPolyline
 90
        8
 70
     0
 43
0.0
 10
5249.034199664202
 20
-3595.018150197584
 10
5248.828323635491
 20
-3595.461130538064
 10
5248.647133229486
 20
-3595.912370020502
 10
5248.494508908976
 20
-3596.37104626499
 10
5248.371064524615
 20
-3596.851784932204
 10
5248.285358067496
 20
-3597.339166100364
 10
5248.240542176825
 20
-3597.829934270328
 10
5248.234199664202
 20
-3598.097111061253
  0
LINE
  5
89C11
330
18
100
AcDbEntity
  8
実線
100
AcDbLine
 10
5249.034199664202
 20
-3595.018150197584
 30
0.0
 11
5257.199307372463
 21
-3595.018150197584
 31
0.0
  0
LINE
  5
89C12
330
18
100
AcDbEntity
  8
実線
100
AcDbLine
 10
5266.199307372463
 20
-3595.018150197584
 30
0.0
 11
5261.213666726409
 21
-3595.018150197584
 31
0.0
  0
LWPOLYLINE
  5
89C13
330
18
100
AcDbEntity
  8
実線
100
AcDbPolyline
 90
        5
 70
     0
 43
0.0
 10
5260.999307372464
 20
-3598.097111061253
 10
5261.013433589081
 20
-3597.327004274566
 10
5261.054984071343
 20
-3596.557630629419
 10
5261.122647303512
 20
-3595.786998151923
 10
5261.213666726409
 20
-3595.018150197584
  0
LINE
  5
89C14
330
18
100
AcDbEntity
  8
実線
100
AcDbLine
 10
5266.199307372463
 20
-3608.676071924922
 30
0.0
 11
5261.213666726409
 21
-3608.676071924922
 31
0.0
  0
LWPOLYLINE
  5
89C15
330
18
100
AcDbEntity
  8
実線
100
AcDbPolyline
 90
        5
 70
     0
 43
0.0
 10
5261.213666726409
 20
-3608.676071924922
 10
5261.122910113757
 20
-3607.909760339442
 10
5261.055347358816
 20
-3607.141674686387
 10
5261.013527079774
 20
-3606.369762952067
 10
5260.999307372464
 20
-3605.597111061253
  0
LWPOLYLINE
  5
89C16
330
18
100
AcDbEntity
  8
実線
100
AcDbPolyline
 90
        9
 70
     0
 43
0.0
 10
5248.234199664202
 20
-3605.597111061253
 10
5248.24880548881
 20
-3606.000609464877
 10
5248.291850643905
 20
-3606.402977604422
 10
5248.362176651402
 20
-3606.80211093177
 10
5248.461768622641
 20
-3607.209036471459
 10
5248.586519631375
 20
-3607.611073246454
 10
5248.733832885109
 20
-3608.007110802288
 10
5248.877171668274
 20
-3608.343653395594
 10
5249.034199664202
 20
-3608.676071924922
  0
LINE
  5
89C17
330
18
100
AcDbEntity
  8
実線
100
AcDbLine
 10
5249.034199664202
 20
-3608.676071924922
 30
0.0
 11
5257.199307372463
 21
-3608.676071924922
 31
0.0
  0
LINE
  5
89C18
330
18
100
AcDbEntity
  8
実線
100
AcDbLine
 10
5266.199307372463
 20
-3602.518150197584
 30
0.0
 11
5261.213666726409
 21
-3602.518150197584
 31
0.0
  0
LINE
  5
89C19
330
18
100
AcDbEntity
  8
実線
100
AcDbLine
 10
5266.199307372463
 20
-3601.176071924921
 30
0.0
 11
5261.213666726409
 21
-3601.176071924921
 31
0.0
  0
LINE
  5
89C1A
330
18
100
AcDbEntity
  8
実線
100
AcDbLine
 10
5249.034199664202
 20
-3602.518150197584
 30
0.0
 11
5257.199307372463
 21
-3602.518150197584
 31
0.0
  0
LINE
  5
89C1B
330
18
100
AcDbEntity
  8
実線
100
AcDbLine
 10
5249.034199664202
 20
-3601.176071924921
 30
0.0
 11
5257.199307372463
 21
-3601.176071924921
 31
0.0
  0
LWPOLYLINE
  5
89C1C
330
18
100
AcDbEntity
  8
実線
100
AcDbPolyline
 90
        5
 70
     0
 43
0.0
 10
5260.999307372464
 20
-3605.597111061253
 10
5261.013433589081
 20
-3604.827004274567
 10
5261.054984071343
 20
-3604.057630629419
 10
5261.122647303512
 20
-3603.286998151923
 10
5261.213666726409
 20
-3602.518150197584
  0
LINE
  5
89C1D
330
18
100
AcDbEntity
  8
実線
100
AcDbLine
 10
5261.213666726409
 20
-3602.518150197584
 30
0.0
 11
5261.213666726409
 21
-3601.176071924921
 31
0.0
  0
LWPOLYLINE
  5
89C1E
330
18
100
AcDbEntity
  8
実線
100
AcDbPolyline
 90
        5
 70
     0
 43
0.0
 10
5261.213666726409
 20
-3601.176071924921
 10
5261.122910113757
 20
-3600.409760339442
 10
5261.055347358816
 20
-3599.641674686387
 10
5261.013527079774
 20
-3598.869762952067
 10
5260.999307372464
 20
-3598.097111061253
  0
LWPOLYLINE
  5
89C1F
330
18
100
AcDbEntity
  8
実線
100
AcDbPolyline
 90
        8
 70
     0
 43
0.0
 10
5249.034199664202
 20
-3602.518150197584
 10
5248.828323635492
 20
-3602.961130538064
 10
5248.647133229486
 20
-3603.412370020502
 10
5248.494508908976
 20
-3603.87104626499
 10
5248.371064524615
 20
-3604.351784932203
 10
5248.285358067496
 20
-3604.839166100364
 10
5248.240542176825
 20
-3605.329934270327
 10
5248.234199664202
 20
-3605.597111061253
  0
LINE
  5
89C20
330
18
100
AcDbEntity
  8
実線
100
AcDbLine
 10
5249.034199664202
 20
-3601.176071924921
 30
0.0
 11
5249.034199664202
 21
-3602.518150197584
 31
0.0
  0
LWPOLYLINE
  5
89C21
330
18
100
AcDbEntity
  8
実線
100
AcDbPolyline
 90
        9
 70
     0
 43
0.0
 10
5248.234199664202
 20
-3598.097111061253
 10
5248.24880548881
 20
-3598.500609464878
 10
5248.291850643905
 20
-3598.902977604422
 10
5248.362176651402
 20
-3599.30211093177
 10
5248.461768622641
 20
-3599.709036471459
 10
5248.586519631375
 20
-3600.111073246453
 10
5248.733832885109
 20
-3600.507110802289
 10
5248.877171668274
 20
-3600.843653395595
 10
5249.034199664202
 20
-3601.176071924921
  0
TEXT
  5
89C42
330
18
100
AcDbEntity
  8
文字
370
     9
100
AcDbText
 10
5712.753659833847
 20
-3692.842861254026
 30
0.0
 40
1.439999999999999
  1
DENSO
 50
90.0
  7
TIMESNR
100
AcDbText
  0
TEXT
  5
89C43
330
18
100
AcDbEntity
  8
文字
370
     9
100
AcDbText
 10
5711.056897424862
 20
-3692.721448143885
 30
0.0
 40
1.439999999999999
  1
NIKKI
 50
90.0
  7
TIMESNR
100
AcDbText
  0
TEXT
  5
89C44
330
18
100
AcDbEntity
  8
文字
370
     9
100
AcDbText
 10
5707.140761067314
 20
-3698.507315400823
 30
0.0
 40
2.0
  1
Certificate
 50
90.0
  7
TIMESNR
 11
5707.780117354819
 21
-3698.507315400823
 31
0.0
100
AcDbText
 73
     1
  0
LINE
  5
89C45
330
18
100
AcDbEntity
  8
文字
100
AcDbLine
 10
5708.099888053038
 20
-3699.722033880031
 30
0.0
 11
5708.099888053038
 21
-3684.722033880031
 31
0.0
  0
LWPOLYLINE
  5
89C46
330
18
100
AcDbEntity
  8
文字
100
AcDbPolyline
 90
        8
 70
     1
 43
0.0
 10
5714.099888053037
 20
-3699.222033880032
 10
5714.09988805304
 20
-3685.222033880032
 42
0.4142135623730951
 10
5713.599888053041
 20
-3684.722033880031
 10
5704.59988805304
 20
-3684.722033880031
 42
0.4142135623730951
 10
5704.099888053041
 20
-3685.222033880032
 10
5704.099888053041
 20
-3699.222033880032
 42
0.4142135623730996
 10
5704.59988805304
 20
-3699.722033880031
 10
5713.599888053037
 20
-3699.722033880031
 42
0.4142135623730904
  0
LINE
  5
89C47
330
18
100
AcDbEntity
  8
文字
370
     9
100
AcDbLine
 10
5712.801393972424
 20
-3694.059460478411
 30
0.0
 11
5710.798893972427
 21
-3693.819160478413
 31
0.0
  0
LINE
  5
89C48
330
18
100
AcDbEntity
  8
文字
370
     9
100
AcDbLine
 10
5712.801393972424
 20
-3698.464960478413
 30
0.0
 11
5709.597393972426
 21
-3698.064460478412
 31
0.0
  0
LINE
  5
89C49
330
18
100
AcDbEntity
  8
文字
370
     9
100
AcDbLine
 10
5709.597393972426
 20
-3698.064460478412
 30
0.0
 11
5709.597393972426
 21
-3693.658960478411
 31
0.0
  0
ARC
  5
89C4A
330
18
100
AcDbEntity
  8
文字
370
     9
100
AcDbCircle
 10
5711.599893972432
 20
-3696.061960478414
 30
0.0
 40
0.8009999999999999
100
AcDbArc
 50
0.0
 51
180.0
  0
CIRCLE
  5
89C4B
330
18
100
AcDbEntity
  8
文字
370
     9
100
AcDbCircle
 10
5711.399643972431
 20
-3696.061960478414
 30
0.0
 40
0.6007500000000002
  0
ARC
  5
89C4C
330
18
100
AcDbEntity
  8
文字
370
     9
100
AcDbCircle
 10
5711.397781181734
 20
-3696.061029083065
 30
0.0
 40
1.003113223100251
100
AcDbArc
 50
203.5897772726021
 51
359.9468005913668
  0
LINE
  5
89C4D
330
18
100
AcDbEntity
  8
文字
370
     9
100
AcDbLine
 10
5709.597393972426
 20
-3693.658960478411
 30
0.0
 11
5710.478493972425
 21
-3696.462460478413
 31
0.0
  0
LINE
  5
89C4E
330
18
100
AcDbEntity
  8
文字
370
     9
100
AcDbLine
 10
5710.798893972427
 20
-3696.061960478413
 30
0.0
 11
5710.798893972427
 21
-3693.819160478413
 31
0.0
  0
LINE
  5
89C4F
330
18
100
AcDbEntity
  8
文字
370
     9
100
AcDbLine
 10
5712.801393972424
 20
-3698.464960478413
 30
0.0
 11
5712.801393972424
 21
-3694.059460478411
 31
0.0
  0
LINE
  5
89E07
330
18
100
AcDbEntity
  8
実線
100
AcDbLine
 10
5167.404307372462
 20
-3781.847156162728
 30
0.0
 11
5170.854307372462
 21
-3781.847156162728
 31
0.0
  0
LINE
  5
89E08
330
18
100
AcDbEntity
  8
実線
100
AcDbLine
 10
5171.544307372462
 20
-3781.847156162728
 30
0.0
 11
5174.994307372461
 21
-3781.847156162728
 31
0.0
  0
LINE
  5
89E09
330
18
100
AcDbEntity
  8
実線
100
AcDbLine
 10
5164.899307372462
 20
-3783.647156162727
 30
0.0
 11
5163.899307372463
 21
-3783.647156162727
 31
0.0
  0
LINE
  5
89E0A
330
18
100
AcDbEntity
  8
実線
100
AcDbLine
 10
5177.099307372461
 20
-3805.547156162727
 30
0.0
 11
5177.099307372461
 21
-3805.047156162727
 31
0.0
  0
LINE
  5
89E0B
330
18
100
AcDbEntity
  8
実線
100
AcDbLine
 10
5176.599307372462
 20
-3804.547156162727
 30
0.0
 11
5176.599307372462
 21
-3805.547156162727
 31
0.0
  0
LINE
  5
89E0C
330
18
100
AcDbEntity
  8
実線
100
AcDbLine
 10
5176.099307372461
 20
-3804.547156162727
 30
0.0
 11
5176.099307372461
 21
-3791.147156162727
 31
0.0
  0
LINE
  5
89E0D
330
18
100
AcDbEntity
  8
実線
100
AcDbLine
 10
5175.599307372461
 20
-3805.047156162727
 30
0.0
 11
5175.599307372461
 21
-3791.147156162727
 31
0.0
  0
LINE
  5
89E0E
330
18
100
AcDbEntity
  8
実線
100
AcDbLine
 10
5162.899307372462
 20
-3788.197156162727
 30
0.0
 11
5163.899307372463
 21
-3788.197156162727
 31
0.0
  0
LINE
  5
89E0F
330
18
100
AcDbEntity
  8
実線
100
AcDbLine
 10
5174.994307372461
 20
-3790.847156162728
 30
0.0
 11
5174.994307372461
 21
-3781.847156162728
 31
0.0
  0
LINE
  5
89E10
330
18
100
AcDbEntity
  8
実線
100
AcDbLine
 10
5164.899307372462
 20
-3788.083420900177
 30
0.0
 11
5166.199307372462
 21
-3788.197156162727
 31
0.0
  0
LINE
  5
89E11
330
18
100
AcDbEntity
  8
実線
100
AcDbLine
 10
5163.899307372463
 20
-3790.347156162728
 30
0.0
 11
5164.899307372462
 21
-3790.347156162728
 31
0.0
  0
LINE
  5
89E12
330
18
100
AcDbEntity
  8
実線
100
AcDbLine
 10
5167.404307372462
 20
-3790.847156162728
 30
0.0
 11
5170.854307372462
 21
-3790.847156162728
 31
0.0
  0
LINE
  5
89E13
330
18
100
AcDbEntity
  8
実線
100
AcDbLine
 10
5171.544307372462
 20
-3790.847156162728
 30
0.0
 11
5174.994307372461
 21
-3790.847156162728
 31
0.0
  0
LINE
  5
89E14
330
18
100
AcDbEntity
  8
実線
100
AcDbLine
 10
5171.544307372462
 20
-3790.847156162728
 30
0.0
 11
5171.544307372462
 21
-3781.847156162728
 31
0.0
  0
LINE
  5
89E15
330
18
100
AcDbEntity
  8
実線
100
AcDbLine
 10
5176.099307372461
 20
-3791.147156162727
 30
0.0
 11
5166.299307372462
 21
-3791.147156162727
 31
0.0
  0
LINE
  5
89E16
330
18
100
AcDbEntity
  8
実線
100
AcDbLine
 10
5165.599307372461
 20
-3791.847156162728
 30
0.0
 11
5162.899307372462
 21
-3791.847156162728
 31
0.0
  0
LINE
  5
89E17
330
18
100
AcDbEntity
  8
実線
100
AcDbLine
 10
5170.854307372462
 20
-3790.847156162728
 30
0.0
 11
5170.854307372462
 21
-3781.847156162728
 31
0.0
  0
LINE
  5
89E18
330
18
100
AcDbEntity
  8
実線
100
AcDbLine
 10
5164.399307372462
 20
-3793.347156162728
 30
0.0
 11
5165.799307372462
 21
-3793.347156162728
 31
0.0
  0
LINE
  5
89E19
330
18
100
AcDbEntity
  8
実線
100
AcDbLine
 10
5166.341049802962
 20
-3793.547156162727
 30
0.0
 11
5165.399307372462
 21
-3793.547156162727
 31
0.0
  0
LINE
  5
89E1A
330
18
100
AcDbEntity
  8
実線
100
AcDbLine
 10
5166.199307372462
 20
-3786.697156162727
 30
0.0
 11
5164.899307372462
 21
-3783.647156162727
 31
0.0
  0
LINE
  5
89E1B
330
18
100
AcDbEntity
  8
実線
100
AcDbLine
 10
5167.799307372462
 20
-3805.547156162727
 30
0.0
 11
5167.799307372462
 21
-3791.147156162727
 31
0.0
  0
LINE
  5
89E1C
330
18
100
AcDbEntity
  8
実線
100
AcDbLine
 10
5167.404307372462
 20
-3790.847156162728
 30
0.0
 11
5167.404307372462
 21
-3781.847156162728
 31
0.0
  0
LINE
  5
89E1D
330
18
100
AcDbEntity
  8
実線
100
AcDbLine
 10
5167.299307372462
 20
-3805.547156162727
 30
0.0
 11
5167.299307372462
 21
-3791.147156162727
 31
0.0
  0
LINE
  5
89E1E
330
18
100
AcDbEntity
  8
実線
100
AcDbLine
 10
5166.799307372462
 20
-3791.147156162727
 30
0.0
 11
5166.799307372462
 21
-3804.547156162727
 31
0.0
  0
LINE
  5
89E1F
330
18
100
AcDbEntity
  8
実線
100
AcDbLine
 10
5166.341049802962
 20
-3804.547156162727
 30
0.0
 11
5166.341049802962
 21
-3793.547156162727
 31
0.0
  0
LINE
  5
89E20
330
18
100
AcDbEntity
  8
実線
100
AcDbLine
 10
5166.299307372462
 20
-3791.147156162727
 30
0.0
 11
5166.299307372462
 21
-3793.547156162727
 31
0.0
  0
LINE
  5
89E21
330
18
100
AcDbEntity
  8
実線
100
AcDbLine
 10
5166.199307372462
 20
-3788.197156162727
 30
0.0
 11
5166.199307372462
 21
-3786.697156162727
 31
0.0
  0
LINE
  5
89E22
330
18
100
AcDbEntity
  8
実線
100
AcDbLine
 10
5165.757564941962
 20
-3804.547156162727
 30
0.0
 11
5165.757564941962
 21
-3805.547156162727
 31
0.0
  0
LINE
  5
89E23
330
18
100
AcDbEntity
  8
実線
100
AcDbLine
 10
5165.299307372462
 20
-3805.547156162727
 30
0.0
 11
5165.299307372462
 21
-3804.547156162727
 31
0.0
  0
LINE
  5
89E24
330
18
100
AcDbEntity
  8
実線
100
AcDbLine
 10
5162.899307372462
 20
-3798.347156162729
 30
0.0
 11
5162.399307372463
 21
-3798.347156162729
 31
0.0
  0
LINE
  5
89E25
330
18
100
AcDbEntity
  8
実線
100
AcDbLine
 10
5164.899307372462
 20
-3805.547156162727
 30
0.0
 11
5164.899307372462
 21
-3794.047156162727
 31
0.0
  0
LINE
  5
89E26
330
18
100
AcDbEntity
  8
実線
100
AcDbLine
 10
5164.899307372462
 20
-3791.847156162728
 30
0.0
 11
5164.899307372462
 21
-3788.083420900177
 31
0.0
  0
LINE
  5
89E27
330
18
100
AcDbEntity
  8
実線
100
AcDbLine
 10
5163.899307372463
 20
-3799.347156162728
 30
0.0
 11
5164.899307372462
 21
-3793.347156162728
 31
0.0
  0
LINE
  5
89E28
330
18
100
AcDbEntity
  8
実線
100
AcDbLine
 10
5162.399307372463
 20
-3799.347156162728
 30
0.0
 11
5163.899307372463
 21
-3799.347156162728
 31
0.0
  0
LINE
  5
89E29
330
18
100
AcDbEntity
  8
実線
100
AcDbLine
 10
5163.899307372463
 20
-3799.347156162728
 30
0.0
 11
5163.899307372463
 21
-3793.847156162728
 31
0.0
  0
LINE
  5
89E2A
330
18
100
AcDbEntity
  8
実線
100
AcDbLine
 10
5163.899307372463
 20
-3791.347156162728
 30
0.0
 11
5163.899307372463
 21
-3788.197156162727
 31
0.0
  0
LINE
  5
89E2B
330
18
100
AcDbEntity
  8
実線
100
AcDbLine
 10
5162.899307372462
 20
-3784.647156162727
 30
0.0
 11
5162.899307372462
 21
-3798.347156162729
 31
0.0
  0
LINE
  5
89E2C
330
18
100
AcDbEntity
  8
実線
100
AcDbLine
 10
5162.399307372463
 20
-3789.063181566528
 30
0.0
 11
5162.399307372463
 21
-3799.347156162728
 31
0.0
  0
LINE
  5
89E2D
330
18
100
AcDbEntity
  8
実線
100
AcDbLine
 10
5162.899307372462
 20
-3788.197156162727
 30
0.0
 11
5162.399307372463
 21
-3789.063181566528
 31
0.0
  0
LINE
  5
89E2E
330
18
100
AcDbEntity
  8
実線
100
AcDbLine
 10
5163.899307372463
 20
-3783.647156162727
 30
0.0
 11
5162.899307372462
 21
-3784.647156162727
 31
0.0
  0
LINE
  5
89E2F
330
18
100
AcDbEntity
  8
実線
100
AcDbLine
 10
5176.599307372462
 20
-3804.547156162727
 30
0.0
 11
5176.099307372461
 21
-3804.547156162727
 31
0.0
  0
LINE
  5
89E30
330
18
100
AcDbEntity
  8
実線
100
AcDbLine
 10
5166.799307372462
 20
-3804.547156162727
 30
0.0
 11
5165.299307372462
 21
-3804.547156162727
 31
0.0
  0
LINE
  5
89E31
330
18
100
AcDbEntity
  8
実線
100
AcDbLine
 10
5177.099307372461
 20
-3805.047156162727
 30
0.0
 11
5175.599307372461
 21
-3805.047156162727
 31
0.0
  0
LINE
  5
89E32
330
18
100
AcDbEntity
  8
実線
100
AcDbLine
 10
5177.099307372461
 20
-3805.547156162727
 30
0.0
 11
5164.899307372462
 21
-3805.547156162727
 31
0.0
  0
ARC
  5
89E33
330
18
100
AcDbEntity
  8
実線
100
AcDbCircle
 10
5165.599307372461
 20
-3791.147156162727
 30
0.0
 40
0.7
100
AcDbArc
 50
270.0
 51
0.0
  0
ARC
  5
89E34
330
18
100
AcDbEntity
  8
実線
100
AcDbCircle
 10
5165.799307372462
 20
-3793.847156162728
 30
0.0
 40
0.5
100
AcDbArc
 50
37.24116237545892
 51
90.0
  0
ARC
  5
89E35
330
18
100
AcDbEntity
  8
実線
100
AcDbCircle
 10
5164.399307372462
 20
-3793.847156162728
 30
0.0
 40
0.5
100
AcDbArc
 50
90.0
 51
180.0
  0
ARC
  5
89E36
330
18
100
AcDbEntity
  8
実線
100
AcDbCircle
 10
5176.599307372462
 20
-3805.047156162727
 30
0.0
 40
0.5
100
AcDbArc
 50
0.0
 51
90.0
  0
ARC
  5
89E37
330
18
100
AcDbEntity
  8
実線
100
AcDbCircle
 10
5164.399307372462
 20
-3791.347156162728
 30
0.0
 40
0.5
100
AcDbArc
 50
180.0
 51
270.0
  0
ARC
  5
89E38
330
18
100
AcDbEntity
  8
実線
100
AcDbCircle
 10
5165.399307372462
 20
-3794.047156162727
 30
0.0
 40
0.5
100
AcDbArc
 50
90.0
 51
180.0
  0
ARC
  5
89E39
330
18
100
AcDbEntity
  8
実線
100
AcDbCircle
 10
5175.294307372462
 20
-3790.847156162728
 30
0.0
 40
0.3
100
AcDbArc
 50
180.0
 51
270.0
  0
ARC
  5
89E3A
330
18
100
AcDbEntity
  8
実線
100
AcDbCircle
 10
5171.244307372461
 20
-3790.847156162728
 30
0.0
 40
0.3
100
AcDbArc
 50
270.0
 51
0.0
  0
ARC
  5
89E3B
330
18
100
AcDbEntity
  8
実線
100
AcDbCircle
 10
5167.104307372462
 20
-3790.847156162728
 30
0.0
 40
0.3
100
AcDbArc
 50
270.0
 51
0.0
  0
ARC
  5
89E3C
330
18
100
AcDbEntity
  8
実線
100
AcDbCircle
 10
5171.154307372463
 20
-3790.847156162728
 30
0.0
 40
0.3
100
AcDbArc
 50
180.0
 51
270.0
  0
LINE
  5
89E3D
330
18
100
AcDbEntity
  8
実線
100
AcDbLine
 10
5176.099307372461
 20
-3804.547156162727
 30
0.0
 11
5175.599307372461
 21
-3805.047156162727
 31
0.0
  0
SPLINE
  5
8A5C1
330
18
100
AcDbEntity
  8
細線
 48
0.5
100
AcDbSpline
210
0.0
220
0.0
230
1.0
 70
  1064
 71
     3
 72
     9
 73
     5
 74
     3
 42
0.000000001
 43
0.0000000001
 44
0.0000000001
 40
0.0
 40
0.0
 40
0.0
 40
0.0
 40
1.781692860185327
 40
3.124187336643988
 40
3.124187336643988
 40
3.124187336643988
 40
3.124187336643988
 10
5239.195064827316
 20
-3601.847111061252
 30
0.0
 10
5238.84528810211
 20
-3602.411810707357
 30
0.0
 10
5238.231956792343
 20
-3603.402008020706
 30
0.0
 10
5238.908562953013
 20
-3604.30785819948
 30
0.0
 10
5239.19930737246
 20
-3604.697111061253
 30
0.0
 11
5239.195064827316
 21
-3601.847111061252
 31
0.0
 11
5238.565261927782
 21
-3603.513777721317
 31
0.0
 11
5239.19930737246
 21
-3604.697111061253
 31
0.0
  0
SPLINE
  5
8A5C2
330
18
100
AcDbEntity
  8
細線
 48
0.5
100
AcDbSpline
210
0.0
220
0.0
230
1.0
 70
  1064
 71
     3
 72
    11
 73
     7
 74
     5
 42
0.000000001
 43
0.0000000001
 44
0.0000000001
 40
0.0
 40
0.0
 40
0.0
 40
0.0
 40
1.342494468698568
 40
3.124187337119641
 40
4.908897205342011
 40
6.25139168180196
 40
6.25139168180196
 40
6.25139168180196
 40
6.25139168180196
 10
5239.19930737246
 20
-3598.997111061252
 30
0.0
 10
5238.908717412041
 20
-3599.386307297699
 30
0.0
 10
5238.232470696837
 20
-3600.292025706166
 30
0.0
 10
5239.192792792482
 20
-3601.849117307483
 30
0.0
 10
5240.168900296163
 20
-3603.400422198524
 30
0.0
 10
5239.490529040089
 20
-3604.307644632851
 30
0.0
 10
5239.19930737246
 20
-3604.697111061253
 30
0.0
 11
5239.19930737246
 21
-3598.997111061252
 31
0.0
 11
5238.56526192778
 21
-3600.180444392383
 31
0.0
 11
5239.195064827316
 21
-3601.847111061252
 31
0.0
 11
5239.833352817143
 21
-3603.513777721317
 31
0.0
 11
5239.19930737246
 21
-3604.697111061253
 31
0.0
  0
LINE
  5
8A5C3
330
18
100
AcDbEntity
  8
実線
100
AcDbLine
 10
5244.199307372463
 20
-3598.997111061252
 30
0.0
 11
5239.19930737246
 21
-3598.997111061252
 31
0.0
  0
LINE
  5
8A5C4
330
18
100
AcDbEntity
  8
実線
100
AcDbLine
 10
5244.199307372463
 20
-3604.697111061253
 30
0.0
 11
5239.19930737246
 21
-3604.697111061253
 31
0.0
  0
LINE
  5
8A633
330
18
100
AcDbEntity
  8
実線
100
AcDbLine
 10
5168.349307372461
 20
-3815.547156162728
 30
0.0
 11
5168.349307372461
 21
-3838.997111061252
 31
0.0
  0
LINE
  5
8A634
330
18
100
AcDbEntity
  8
実線
100
AcDbLine
 10
5174.049307372462
 20
-3815.547156162728
 30
0.0
 11
5174.049307372462
 21
-3838.997111061252
 31
0.0
  0
ARC
  5
8A635
330
18
100
AcDbEntity
  8
実線
100
AcDbCircle
 10
5209.049307372462
 20
-3838.997111061252
 30
0.0
 40
35.00000000000001
100
AcDbArc
 50
180.0
 51
270.0
  0
ARC
  5
8A636
330
18
100
AcDbEntity
  8
実線
100
AcDbCircle
 10
5209.049307372462
 20
-3838.997111061252
 30
0.0
 40
40.70000000000001
100
AcDbArc
 50
180.0
 51
270.0
  0
SPLINE
  5
8A639
330
18
100
AcDbEntity
  8
細線
 48
0.5
100
AcDbSpline
210
0.0
220
0.0
230
1.0
 70
  1064
 71
     3
 72
     9
 73
     5
 74
     3
 42
0.000000001
 43
0.0000000001
 44
0.0000000001
 40
0.0
 40
0.0
 40
0.0
 40
0.0
 40
1.461279472201566
 40
3.036235517912297
 40
3.036235517912297
 40
3.036235517912297
 40
3.036235517912297
 10
5214.199307372464
 20
-3876.847111061252
 30
0.0
 10
5214.454558583661
 20
-3877.30081345853
 30
0.0
 10
5214.984917634185
 20
-3878.243512893774
 30
0.0
 10
5214.467633165092
 20
-3879.200633482666
 30
0.0
 10
5214.199307372464
 20
-3879.697111061253
 30
0.0
 11
5214.199307372464
 21
-3876.847111061252
 31
0.0
 11
5214.722394864323
 21
-3878.21155863142
 31
0.0
 11
5214.199307372464
 21
-3879.697111061253
 31
0.0
  0
SPLINE
  5
8A63A
330
18
100
AcDbEntity
  8
細線
 48
0.5
100
AcDbSpline
210
0.0
220
0.0
230
1.0
 70
  1064
 71
     3
 72
    11
 73
     7
 74
     5
 42
0.000000001
 43
0.0000000001
 44
0.0000000001
 40
0.0
 40
0.0
 40
0.0
 40
0.0
 40
1.555065021322454
 40
3.036070102306571
 40
4.49734957450944
 40
6.07230562022138
 40
6.07230562022138
 40
6.07230562022138
 40
6.07230562022138
 10
5214.199307372464
 20
-3873.997111061251
 30
0.0
 10
5214.465110253448
 20
-3874.485981924681
 30
0.0
 10
5214.984057158561
 20
-3875.440441186508
 30
0.0
 10
5214.203850586034
 20
-3876.842063102234
 30
0.0
 10
5213.413399332367
 20
-3878.243220841445
 30
0.0
 10
5213.930879873402
 20
-3879.200533731967
 30
0.0
 10
5214.199307372464
 20
-3879.697111061253
 30
0.0
 11
5214.199307372464
 21
-3873.997111061251
 31
0.0
 11
5214.722394864324
 21
-3875.461558635048
 31
0.0
 11
5214.199307372464
 21
-3876.847111061252
 31
0.0
 11
5213.6762198806
 21
-3878.21155863142
 31
0.0
 11
5214.199307372464
 21
-3879.697111061253
 31
0.0
  0
SPLINE
  5
8A63B
330
18
100
AcDbEntity
  8
細線
 48
0.5
100
AcDbSpline
210
0.0
220
0.0
230
1.0
 70
  1064
 71
     3
 72
     9
 73
     5
 74
     3
 42
0.000000001
 43
0.0000000001
 44
0.0000000001
 40
0.0
 40
0.0
 40
0.0
 40
0.0
 40
1.468130713949827
 40
3.039244816786296
 40
3.039244816786296
 40
3.039244816786296
 40
3.039244816786296
 10
5216.197171337604
 20
-3876.851184837852
 30
0.0
 10
5215.942226131232
 20
-3876.394601176398
 30
0.0
 10
5215.414452350822
 20
-3875.44940636961
 30
0.0
 10
5215.931845160803
 20
-3874.492022993322
 30
0.0
 10
5216.19930737246
 20
-3873.997111061251
 30
0.0
 11
5216.197171337604
 21
-3876.851184837852
 31
0.0
 11
5215.6762198806
 21
-3875.478589714486
 31
0.0
 11
5216.19930737246
 21
-3873.997111061251
 31
0.0
  0
SPLINE
  5
8A63C
330
18
100
AcDbEntity
  8
細線
 48
0.5
100
AcDbSpline
210
0.0
220
0.0
230
1.0
 70
  1064
 71
     3
 72
    11
 73
     7
 74
     5
 42
0.000000001
 43
0.0000000001
 44
0.0000000001
 40
0.0
 40
0.0
 40
0.0
 40
0.0
 40
1.558902011257945
 40
3.031530479243328
 40
4.501182521640687
 40
6.072296624478368
 40
6.072296624478368
 40
6.072296624478368
 40
6.072296624478368
 10
5216.19930737246
 20
-3879.697111061253
 30
0.0
 10
5215.932964926593
 20
-3879.206784067783
 30
0.0
 10
5215.415020093157
 20
-3878.253266005219
 30
0.0
 10
5216.195387801247
 20
-3876.851303918956
 30
0.0
 10
5216.985634364154
 20
-3875.450485822056
 30
0.0
 10
5216.467182807127
 20
-3874.492227469437
 30
0.0
 10
5216.19930737246
 20
-3873.997111061251
 30
0.0
 11
5216.19930737246
 21
-3879.697111061253
 31
0.0
 11
5215.676219880599
 21
-3878.228589710858
 31
0.0
 11
5216.197171337602
 21
-3876.851184837857
 31
0.0
 11
5216.722394864323
 21
-3875.478589714486
 31
0.0
 11
5216.19930737246
 21
-3873.997111061251
 31
0.0
  0
LINE
  5
8A63D
330
18
100
AcDbEntity
  8
実線
100
AcDbLine
 10
5244.199307372454
 20
-3873.997111061251
 30
0.0
 11
5216.19930737246
 21
-3873.997111061251
 31
0.0
  0
LINE
  5
8A63E
330
18
100
AcDbEntity
  8
実線
100
AcDbLine
 10
5244.199307372454
 20
-3879.697111061253
 30
0.0
 11
5216.19930737246
 21
-3879.697111061253
 31
0.0
  0
LINE
  5
8A63F
330
18
100
AcDbEntity
  8
実線
100
AcDbLine
 10
5214.199307372464
 20
-3873.997111061251
 30
0.0
 11
5209.049307372462
 21
-3873.997111061251
 31
0.0
  0
LINE
  5
8A640
330
18
100
AcDbEntity
  8
実線
100
AcDbLine
 10
5214.199307372464
 20
-3879.697111061253
 30
0.0
 11
5209.049307372462
 21
-3879.697111061253
 31
0.0
  0
LINE
  5
8A691
330
18
100
AcDbEntity
  8
実線
100
AcDbLine
 10
5168.078943644268
 20
-3805.547156162727
 30
0.0
 11
5169.068943644268
 21
-3815.547156162728
 31
0.0
  0
LINE
  5
8A692
330
18
100
AcDbEntity
  8
実線
100
AcDbLine
 10
5173.329671100655
 20
-3815.547156162728
 30
0.0
 11
5174.319671100656
 21
-3805.547156162727
 31
0.0
  0
LINE
  5
8A693
330
18
100
AcDbEntity
  8
実線
100
AcDbLine
 10
5169.777205295516
 20
-3805.547156162727
 30
0.0
 11
5170.767205295516
 21
-3815.547156162728
 31
0.0
  0
LINE
  5
8A694
330
18
100
AcDbEntity
  8
実線
100
AcDbLine
 10
5171.631409449407
 20
-3815.547156162728
 30
0.0
 11
5172.621409449408
 21
-3805.547156162727
 31
0.0
  0
LINE
  5
8A936
330
18
100
AcDbEntity
  8
実線
100
AcDbLine
 10
5661.549888053034
 20
-3598.347111582042
 30
0.0
 11
5661.549888053034
 21
-3605.347111582041
 31
0.0
  0
LINE
  5
8A937
330
18
100
AcDbEntity
  8
実線
100
AcDbLine
 10
5661.249888053031
 20
-3599.39711158204
 30
0.0
 11
5661.249888053031
 21
-3604.297111582042
 31
0.0
  0
LINE
  5
8A938
330
18
100
AcDbEntity
  8
実線
100
AcDbLine
 10
5661.549888053034
 20
-3605.347111582041
 30
0.0
 11
5661.249888053031
 21
-3604.297111582042
 31
0.0
  0
LINE
  5
8A939
330
18
100
AcDbEntity
  8
実線
100
AcDbLine
 10
5661.549888053034
 20
-3605.347111582041
 30
0.0
 11
5662.049888053034
 21
-3605.347111582041
 31
0.0
  0
LINE
  5
8A93A
330
18
100
AcDbEntity
  8
実線
100
AcDbLine
 10
5661.549888053034
 20
-3598.347111582042
 30
0.0
 11
5662.049888053034
 21
-3598.347111582042
 31
0.0
  0
LINE
  5
8A93B
330
18
100
AcDbEntity
  8
実線
100
AcDbLine
 10
5661.549888053034
 20
-3598.347111582042
 30
0.0
 11
5661.249888053031
 21
-3599.39711158204
 31
0.0
  0
LINE
  5
8A93C
330
18
100
AcDbEntity
  8
実線
100
AcDbLine
 10
5662.049888053034
 20
-3598.347111582042
 30
0.0
 11
5662.049888053034
 21
-3605.347111582041
 31
0.0
  0
LINE
  5
8A97A
330
18
100
AcDbEntity
  8
実線
100
AcDbLine
 10
5347.949309626359
 20
-3863.147110053803
 30
0.0
 11
5340.949309626359
 21
-3863.147110053803
 31
0.0
  0
LINE
  5
8A97B
330
18
100
AcDbEntity
  8
実線
100
AcDbLine
 10
5347.949309626359
 20
-3862.647110053803
 30
0.0
 11
5346.899309626359
 21
-3862.3471100538
 31
0.0
  0
LINE
  5
8A97C
330
18
100
AcDbEntity
  8
実線
100
AcDbLine
 10
5347.949309626359
 20
-3862.647110053803
 30
0.0
 11
5347.949309626359
 21
-3863.147110053803
 31
0.0
  0
LINE
  5
8A97D
330
18
100
AcDbEntity
  8
実線
100
AcDbLine
 10
5340.949309626359
 20
-3862.647110053803
 30
0.0
 11
5340.949309626359
 21
-3863.147110053803
 31
0.0
  0
LINE
  5
8A97E
330
18
100
AcDbEntity
  8
実線
100
AcDbLine
 10
5346.899309626359
 20
-3862.3471100538
 30
0.0
 11
5341.999309626358
 21
-3862.3471100538
 31
0.0
  0
LINE
  5
8A97F
330
18
100
AcDbEntity
  8
実線
100
AcDbLine
 10
5347.949309626359
 20
-3862.647110053803
 30
0.0
 11
5340.949309626359
 21
-3862.647110053803
 31
0.0
  0
LINE
  5
8A980
330
18
100
AcDbEntity
  8
実線
100
AcDbLine
 10
5340.949309626359
 20
-3862.647110053803
 30
0.0
 11
5341.999309626358
 21
-3862.3471100538
 31
0.0
  0
LINE
  5
8A9BC
330
18
100
AcDbEntity
  8
実線
100
AcDbLine
 10
5471.449307372238
 20
-3863.147110053804
 30
0.0
 11
5464.449307372237
 21
-3863.147110053804
 31
0.0
  0
LINE
  5
8A9BD
330
18
100
AcDbEntity
  8
実線
100
AcDbLine
 10
5471.449307372238
 20
-3862.647110053804
 30
0.0
 11
5470.399307372239
 21
-3862.347110053801
 31
0.0
  0
LINE
  5
8A9BE
330
18
100
AcDbEntity
  8
実線
100
AcDbLine
 10
5471.449307372238
 20
-3862.647110053804
 30
0.0
 11
5471.449307372238
 21
-3863.147110053804
 31
0.0
  0
LINE
  5
8A9BF
330
18
100
AcDbEntity
  8
実線
100
AcDbLine
 10
5464.449307372237
 20
-3862.647110053804
 30
0.0
 11
5464.449307372237
 21
-3863.147110053804
 31
0.0
  0
LINE
  5
8A9C0
330
18
100
AcDbEntity
  8
実線
100
AcDbLine
 10
5470.399307372239
 20
-3862.347110053801
 30
0.0
 11
5465.499307372237
 21
-3862.347110053801
 31
0.0
  0
LINE
  5
8A9C1
330
18
100
AcDbEntity
  8
実線
100
AcDbLine
 10
5471.449307372238
 20
-3862.647110053804
 30
0.0
 11
5464.449307372237
 21
-3862.647110053804
 31
0.0
  0
LINE
  5
8A9C2
330
18
100
AcDbEntity
  8
実線
100
AcDbLine
 10
5464.449307372237
 20
-3862.647110053804
 30
0.0
 11
5465.499307372237
 21
-3862.347110053801
 31
0.0
  0
TEXT
  5
8AFFE
330
18
100
AcDbEntity
  8
文字
100
AcDbText
 10
5923.864635516519
 20
-3916.743004053922
 30
0.0
 40
3.2
  1
τDISCモータ ND250-55-FSPB-UC（ABS） NMR-SEMJA2A-711APB-UC
 41
0.4200000000000001
  7
まこ
100
AcDbText
  0
TEXT
  5
8AFFF
330
18
100
AcDbEntity
  8
文字
100
AcDbText
 10
5925.673374534618
 20
-3927.9681729285
 30
0.0
 40
6.0
  1
外形図（ABS_高精度）
 41
0.6
  7
まこ
100
AcDbText
  0
TEXT
  5
8B000
330
18
100
AcDbEntity
  8
文字
100
AcDbText
 10
5923.824925352628
 20
-3939.326079696347
 30
0.0
 40
7.0
  1
ＳＥ－７６６２０Ａ
 41
0.9529999999999999
  7
まこ
100
AcDbText
  0
CIRCLE
  5
8B00E
330
18
100
AcDbEntity
  8
実線
100
AcDbCircle
 10
5406.224136358372
 20
-3601.824878921789
 30
0.0
 40
32.5
  0
CIRCLE
  5
8B00F
330
18
100
AcDbEntity
  8
実線
100
AcDbCircle
 10
5902.620473898068
 20
-3601.815965516288
 30
0.0
 40
32.5
  0
CIRCLE
  5
8B010
330
18
100
AcDbEntity
  8
実線
100
AcDbCircle
 10
5902.614767500223
 20
-3601.830923601878
 30
0.0
 40
34.0
  0
CIRCLE
  5
8B011
330
18
100
AcDbEntity
  8
実線
100
AcDbCircle
 10
5902.63403146087
 20
-3601.838582081706
 30
0.0
 40
34.5
  0
CIRCLE
  5
8B012
330
18
100
AcDbEntity
  8
実線
100
AcDbCircle
 10
5902.625009941949
 20
-3601.860849151791
 30
0.0
 40
84.0
  0
CIRCLE
  5
8B014
330
18
100
AcDbEntity
  8
実線
100
AcDbCircle
 10
5902.614028858867
 20
-3601.823119607816
 30
0.0
 40
85.0
  0
LWPOLYLINE
  5
8B09D
330
18
100
AcDbEntity
  8
文字
100
AcDbPolyline
 90
        6
 70
   129
 43
0.0
 10
5666.644738053037
 20
-3622.452203010877
 10
5689.701838053037
 20
-3635.764225902608
 42
0.5773502691896259
 10
5690.749888053037
 20
-3635.159133952984
 10
5690.749888053037
 20
-3608.53508816952
 42
0.5773502691896262
 10
5689.701838053037
 20
-3607.929996219896
 10
5666.644738053037
 20
-3621.242019111628
 42
0.5773502691896262
  0
SPLINE
  5
8B09E
330
18
100
AcDbEntity
  8
文字
100
AcDbSpline
210
0.0
220
0.0
230
1.0
 70
  1064
 71
     3
 72
    11
 73
     7
 74
     5
 42
0.000000001
 43
0.0000000001
 44
0.0000000001
 40
0.0
 40
0.0
 40
0.0
 40
0.0
 40
3.50036830584443
 40
6.267490993923532
 40
8.842055688450869
 40
14.55347537638492
 40
14.55347537638492
 40
14.55347537638492
 40
14.55347537638492
 10
5673.41048213004
 20
-3621.847111061252
 30
0.0
 10
5674.433306814393
 20
-3622.548052581065
 30
0.0
 10
5676.264698238787
 20
-3623.803104700968
 30
0.0
 10
5679.336744604569
 20
-3622.714352448607
 30
0.0
 10
5681.698788051561
 20
-3619.438994717345
 30
0.0
 10
5684.688866462956
 20
-3620.864517215404
 30
0.0
 10
5686.749888053037
 20
-3621.847111061252
 30
0.0
 11
5673.41048213004
 21
-3621.847111061252
 31
0.0
 11
5676.586929338061
 21
-3623.317744058029
 31
0.0
 11
5679.211943738528
 21
-3622.442377067431
 31
0.0
 11
5681.146164748281
 21
-3620.743208902788
 31
0.0
 11
5686.749888053037
 21
-3621.847111061252
 31
0.0
  0
SPLINE
  5
8B09F
330
18
100
AcDbEntity
  8
文字
100
AcDbSpline
210
0.0
220
0.0
230
1.0
 70
  1064
 71
     3
 72
    11
 73
     7
 74
     5
 42
0.000000001
 43
0.0000000001
 44
0.0000000001
 40
0.0
 40
0.0
 40
0.0
 40
0.0
 40
3.50036830584443
 40
6.267490993923532
 40
8.842055688450869
 40
14.55347537638492
 40
14.55347537638492
 40
14.55347537638492
 40
14.55347537638492
 10
5673.41048213004
 20
-3624.847111061252
 30
0.0
 10
5674.433306814393
 20
-3625.548052581065
 30
0.0
 10
5676.264698238787
 20
-3626.803104700969
 30
0.0
 10
5679.336744604569
 20
-3625.714352448607
 30
0.0
 10
5681.698788051561
 20
-3622.438994717346
 30
0.0
 10
5684.688866462956
 20
-3623.864517215404
 30
0.0
 10
5686.749888053037
 20
-3624.847111061252
 30
0.0
 11
5673.41048213004
 21
-3624.847111061252
 31
0.0
 11
5676.586929338061
 21
-3626.317744058029
 31
0.0
 11
5679.211943738528
 21
-3625.442377067431
 31
0.0
 11
5681.146164748281
 21
-3623.743208902789
 31
0.0
 11
5686.749888053037
 21
-3624.847111061252
 31
0.0
  0
SPLINE
  5
8B0A0
330
18
100
AcDbEntity
  8
文字
100
AcDbSpline
210
0.0
220
0.0
230
1.0
 70
  1064
 71
     3
 72
    11
 73
     7
 74
     5
 42
0.000000001
 43
0.0000000001
 44
0.0000000001
 40
0.0
 40
0.0
 40
0.0
 40
0.0
 40
3.50036830584443
 40
6.267490993923532
 40
8.842055688450869
 40
14.55347537638492
 40
14.55347537638492
 40
14.55347537638492
 40
14.55347537638492
 10
5673.41048213004
 20
-3618.847111061252
 30
0.0
 10
5674.433306814393
 20
-3619.548052581065
 30
0.0
 10
5676.264698238787
 20
-3620.803104700968
 30
0.0
 10
5679.336744604569
 20
-3619.714352448607
 30
0.0
 10
5681.698788051561
 20
-3616.438994717345
 30
0.0
 10
5684.688866462956
 20
-3617.864517215404
 30
0.0
 10
5686.749888053037
 20
-3618.847111061252
 30
0.0
 11
5673.41048213004
 21
-3618.847111061252
 31
0.0
 11
5676.586929338061
 21
-3620.317744058028
 31
0.0
 11
5679.211943738528
 21
-3619.442377067431
 31
0.0
 11
5681.146164748281
 21
-3617.743208902788
 31
0.0
 11
5686.749888053037
 21
-3618.847111061252
 31
0.0
  0
LINE
  5
8B0A1
330
18
100
AcDbEntity
  8
文字
100
AcDbLine
 10
5687.749888053037
 20
-3626.847111061252
 30
0.0
 11
5687.749888053037
 21
-3616.847111061253
 31
0.0
  0
TEXT
  5
8B139
330
18
100
AcDbEntity
  8
文字
370
     9
100
AcDbText
 10
5712.753659833847
 20
-3692.842861254026
 30
0.0
 40
1.44
  1
DENSO
 50
90.0
  7
TIMESNR
100
AcDbText
  0
TEXT
  5
8B13A
330
18
100
AcDbEntity
  8
文字
370
     9
100
AcDbText
 10
5711.056897424862
 20
-3692.721448143885
 30
0.0
 40
1.44
  1
NIKKI
 50
90.0
  7
TIMESNR
100
AcDbText
  0
TEXT
  5
8B13B
330
18
100
AcDbEntity
  8
文字
370
     9
100
AcDbText
 10
5707.140761067314
 20
-3698.507315400823
 30
0.0
 40
2.0
  1
Certificate
 50
90.0
  7
TIMESNR
 11
5707.780117354819
 21
-3698.507315400823
 31
0.0
100
AcDbText
 73
     1
  0
LINE
  5
8B13C
330
18
100
AcDbEntity
  8
文字
100
AcDbLine
 10
5708.099888053038
 20
-3699.722033880031
 30
0.0
 11
5708.099888053038
 21
-3684.722033880031
 31
0.0
  0
LWPOLYLINE
  5
8B13D
330
18
100
AcDbEntity
  8
文字
100
AcDbPolyline
 90
        8
 70
     1
 43
0.0
 10
5714.099888053037
 20
-3699.222033880031
 10
5714.09988805304
 20
-3685.222033880031
 42
0.4142135623730951
 10
5713.599888053041
 20
-3684.722033880031
 10
5704.59988805304
 20
-3684.722033880031
 42
0.4142135623730951
 10
5704.099888053041
 20
-3685.222033880031
 10
5704.099888053041
 20
-3699.222033880031
 42
0.4142135623730996
 10
5704.59988805304
 20
-3699.722033880031
 10
5713.599888053037
 20
-3699.722033880031
 42
0.4142135623730904
  0
LINE
  5
8B13E
330
18
100
AcDbEntity
  8
文字
370
     9
100
AcDbLine
 10
5712.801393972424
 20
-3694.059460478411
 30
0.0
 11
5710.798893972426
 21
-3693.819160478414
 31
0.0
  0
LINE
  5
8B13F
330
18
100
AcDbEntity
  8
文字
370
     9
100
AcDbLine
 10
5712.801393972424
 20
-3698.464960478412
 30
0.0
 11
5709.597393972426
 21
-3698.064460478412
 31
0.0
  0
LINE
  5
8B140
330
18
100
AcDbEntity
  8
文字
370
     9
100
AcDbLine
 10
5709.597393972426
 20
-3698.064460478412
 30
0.0
 11
5709.597393972426
 21
-3693.658960478411
 31
0.0
  0
ARC
  5
8B141
330
18
100
AcDbEntity
  8
文字
370
     9
100
AcDbCircle
 10
5711.599893972432
 20
-3696.061960478414
 30
0.0
 40
0.8009999999999999
100
AcDbArc
 50
0.0
 51
180.0
  0
CIRCLE
  5
8B142
330
18
100
AcDbEntity
  8
文字
370
     9
100
AcDbCircle
 10
5711.399643972431
 20
-3696.061960478414
 30
0.0
 40
0.6007500000000002
  0
ARC
  5
8B143
330
18
100
AcDbEntity
  8
文字
370
     9
100
AcDbCircle
 10
5711.397781181734
 20
-3696.061029083066
 30
0.0
 40
1.00311322310025
100
AcDbArc
 50
203.589777272609
 51
359.9468005913759
  0
LINE
  5
8B144
330
18
100
AcDbEntity
  8
文字
370
     9
100
AcDbLine
 10
5709.597393972426
 20
-3693.658960478411
 30
0.0
 11
5710.478493972425
 21
-3696.462460478413
 31
0.0
  0
LINE
  5
8B145
330
18
100
AcDbEntity
  8
文字
370
     9
100
AcDbLine
 10
5710.798893972426
 20
-3696.061960478413
 30
0.0
 11
5710.798893972426
 21
-3693.819160478414
 31
0.0
  0
LINE
  5
8B146
330
18
100
AcDbEntity
  8
文字
370
     9
100
AcDbLine
 10
5712.801393972424
 20
-3698.464960478412
 30
0.0
 11
5712.801393972424
 21
-3694.059460478411
 31
0.0
  0
LINE
  5
8B147
330
18
100
AcDbEntity
  8
文字
100
AcDbLine
 10
5699.748630132713
 20
-3504.47219032565
 30
0.0
 11
5699.748630132713
 21
-3538.47219032565
 31
0.0
  0
LINE
  5
8B148
330
18
100
AcDbEntity
  8
文字
100
AcDbLine
 10
5711.748630132714
 20
-3538.47219032565
 30
0.0
 11
5711.748630132714
 21
-3504.47219032565
 31
0.0
  0
LINE
  5
8B149
330
18
100
AcDbEntity
  8
文字
100
AcDbLine
 10
5706.748630132714
 20
-3538.97219032565
 30
0.0
 11
5706.748630132714
 21
-3503.97219032565
 31
0.0
  0
TEXT
  5
8B14A
330
18
100
AcDbEntity
  8
文字
100
AcDbText
 10
5706.189889816969
 20
-3537.175346867597
 30
0.0
 40
2.0
  1
SER No.******
 50
90.0
 41
1.199999999999999
  7
MS\U+FF7A\U+FF9E\U+FF7C\U+FF6F\U+FF78N
 11
5706.55523356697
 21
-3537.175346867597
 31
0.0
100
AcDbText
 73
     1
  0
LINE
  5
8B14B
330
18
100
AcDbEntity
  8
文字
100
AcDbLine
 10
5707.69110671471
 20
-3531.620143824573
 30
0.0
 11
5708.572206714709
 21
-3534.423643824571
 31
0.0
  0
LINE
  5
8B14C
330
18
100
AcDbEntity
  8
文字
100
AcDbLine
 10
5707.69110671471
 20
-3536.025643824574
 30
0.0
 11
5707.69110671471
 21
-3531.620143824573
 31
0.0
  0
LINE
  5
8B14D
330
18
100
AcDbEntity
  8
文字
100
AcDbLine
 10
5708.892606714713
 20
-3534.023143824571
 30
0.0
 11
5708.892606714713
 21
-3531.780343824571
 31
0.0
  0
ARC
  5
8B14E
330
18
100
AcDbEntity
  8
文字
100
AcDbCircle
 10
5709.693606714712
 20
-3534.023143824573
 30
0.0
 40
0.8009999999999999
100
AcDbArc
 50
0.0
 51
180.0
  0
CIRCLE
  5
8B14F
330
18
100
AcDbEntity
  8
文字
100
AcDbCircle
 10
5709.493356714711
 20
-3534.023143824573
 30
0.0
 40
0.6007500000000002
  0
LINE
  5
8B150
330
18
100
AcDbEntity
  8
文字
100
AcDbLine
 10
5710.895106714712
 20
-3536.426143824574
 30
0.0
 11
5710.895106714712
 21
-3532.020643824573
 31
0.0
  0
LINE
  5
8B151
330
18
100
AcDbEntity
  8
文字
100
AcDbLine
 10
5700.248630132714
 20
-3538.97219032565
 30
0.0
 11
5711.248630132714
 21
-3538.97219032565
 31
0.0
  0
LINE
  5
8B152
330
18
100
AcDbEntity
  8
文字
100
AcDbLine
 10
5710.895106714712
 20
-3536.426143824574
 30
0.0
 11
5707.69110671471
 21
-3536.025643824574
 31
0.0
  0
ARC
  5
8B153
330
18
100
AcDbEntity
  8
文字
100
AcDbCircle
 10
5709.491493924013
 20
-3534.022212429224
 30
0.0
 40
1.00311322310025
100
AcDbArc
 50
203.589777272609
 51
359.9468005913759
  0
ARC
  5
8B154
330
18
100
AcDbEntity
  8
文字
100
AcDbCircle
 10
5700.248630132714
 20
-3538.472190325651
 30
0.0
 40
0.5
100
AcDbArc
 50
180.0
 51
270.0
  0
ARC
  5
8B155
330
18
100
AcDbEntity
  8
文字
100
AcDbCircle
 10
5711.248630132714
 20
-3538.472190325651
 30
0.0
 40
0.5
100
AcDbArc
 50
270.0
 51
0.0
  0
LINE
  5
8B156
330
18
100
AcDbEntity
  8
文字
100
AcDbLine
 10
5710.895106714712
 20
-3532.020643824573
 30
0.0
 11
5708.892606714713
 21
-3531.780343824571
 31
0.0
  0
TEXT
  5
8B157
330
18
100
AcDbEntity
  8
文字
100
AcDbText
 10
5710.847372576127
 20
-3530.804044600188
 30
0.0
 40
1.44
  1
DENSO
 50
90.0
 41
1.3
  7
TIMESNR
100
AcDbText
  0
TEXT
  5
8B158
330
18
100
AcDbEntity
  8
文字
100
AcDbText
 10
5709.150610167142
 20
-3530.682631490048
 30
0.0
 40
1.44
  1
NIKKI
 50
90.0
 41
1.25
  7
TIMESNR
100
AcDbText
  0
LINE
  5
8B159
330
18
100
AcDbEntity
  8
文字
100
AcDbLine
 10
5711.248630132714
 20
-3503.97219032565
 30
0.0
 11
5700.248630132714
 21
-3503.97219032565
 31
0.0
  0
ARC
  5
8B15A
330
18
100
AcDbEntity
  8
文字
100
AcDbCircle
 10
5700.248630132714
 20
-3504.472190325652
 30
0.0
 40
0.5
100
AcDbArc
 50
90.0
 51
180.0
  0
ARC
  5
8B15B
330
18
100
AcDbEntity
  8
文字
100
AcDbCircle
 10
5711.248630132714
 20
-3504.472190325652
 30
0.0
 40
0.5
100
AcDbArc
 50
0.0
 51
90.0
  0
TEXT
  5
8B15C
330
18
100
AcDbEntity
  8
文字
100
AcDbText
 10
5711.113924769289
 20
-3518.430515002822
 30
137.5
 40
1.5
  1
MADE IN JAPAN
 50
90.0
  7
MS\U+FF7A\U+FF9E\U+FF7C\U+FF6F\U+FF78N
 11
5711.387932581789
 21
-3518.430515002822
 31
137.5
100
AcDbText
 73
     1
  0
TEXT
  5
8B15D
330
18
100
AcDbEntity
  8
文字
100
AcDbText
 10
5709.244138718904
 20
-3518.430515002822
 30
137.5
 40
1.5
  1
SN-16140
 50
90.0
  7
MS\U+FF7A\U+FF9E\U+FF7C\U+FF6F\U+FF78N
 11
5709.518146531403
 21
-3518.430515002822
 31
137.5
100
AcDbText
 73
     1
  0
TEXT
  5
8B15E
330
18
100
AcDbEntity
  8
文字
100
AcDbText
 10
5710.848630496448
 20
-3566.804044600187
 30
0.0
 40
1.44
  1
DENSO
 50
90.0
 41
1.3
  7
TIMESNR
100
AcDbText
  0
TEXT
  5
8B15F
330
18
100
AcDbEntity
  8
文字
100
AcDbText
 10
5709.151868087463
 20
-3566.682631490046
 30
0.0
 40
1.44
  1
NIKKI
 50
90.0
 41
1.25
  7
TIMESNR
100
AcDbText
  0
TEXT
  5
8B160
330
18
100
AcDbEntity
  8
文字
100
AcDbText
 10
5703.367155933909
 20
-3573.148220294785
 30
0.0
 40
2.6
  1
ENCODER
 50
90.0
 41
1.199999999999999
  7
MS\U+FF7A\U+FF9E\U+FF7C\U+FF6F\U+FF78N
 11
5703.842102808909
 21
-3573.148220294785
 31
0.0
100
AcDbText
 73
     1
  0
TEXT
  5
8B161
330
18
100
AcDbEntity
  8
文字
100
AcDbText
 10
5706.191147737291
 20
-3573.175346867596
 30
0.0
 40
2.0
  1
******PPR
 50
90.0
 41
1.199999999999999
  7
MS\U+FF7A\U+FF9E\U+FF7C\U+FF6F\U+FF78N
 11
5706.55649148729
 21
-3573.175346867596
 31
0.0
100
AcDbText
 73
     1
  0
LINE
  5
8B162
330
18
100
AcDbEntity
  8
文字
100
AcDbLine
 10
5706.749888053031
 20
-3574.972190325649
 30
0.0
 11
5706.749888053031
 21
-3539.97219032565
 31
0.0
  0
LINE
  5
8B163
330
18
100
AcDbEntity
  8
文字
100
AcDbLine
 10
5711.749888053031
 20
-3574.47219032565
 30
0.0
 11
5711.749888053031
 21
-3540.47219032565
 31
0.0
  0
LINE
  5
8B164
330
18
100
AcDbEntity
  8
文字
100
AcDbLine
 10
5699.749888053031
 20
-3540.47219032565
 30
0.0
 11
5699.749888053031
 21
-3574.47219032565
 31
0.0
  0
ARC
  5
8B165
330
18
100
AcDbEntity
  8
文字
100
AcDbCircle
 10
5711.249888053035
 20
-3574.47219032565
 30
0.0
 40
0.5
100
AcDbArc
 50
270.0
 51
0.0
  0
ARC
  5
8B166
330
18
100
AcDbEntity
  8
文字
100
AcDbCircle
 10
5700.249888053035
 20
-3574.47219032565
 30
0.0
 40
0.5
100
AcDbArc
 50
180.0
 51
270.0
  0
LINE
  5
8B167
330
18
100
AcDbEntity
  8
文字
100
AcDbLine
 10
5700.249888053031
 20
-3574.972190325649
 30
0.0
 11
5711.249888053031
 21
-3574.972190325649
 31
0.0
  0
ARC
  5
8B168
330
18
100
AcDbEntity
  8
文字
100
AcDbCircle
 10
5709.694864635034
 20
-3570.023143824573
 30
0.0
 40
0.8009999999999999
100
AcDbArc
 50
0.0
 51
180.0
  0
LINE
  5
8B169
330
18
100
AcDbEntity
  8
文字
100
AcDbLine
 10
5710.896364635029
 20
-3568.020643824573
 30
0.0
 11
5708.89386463503
 21
-3567.780343824571
 31
0.0
  0
LINE
  5
8B16A
330
18
100
AcDbEntity
  8
文字
100
AcDbLine
 10
5710.896364635029
 20
-3572.426143824574
 30
0.0
 11
5707.692364635028
 21
-3572.025643824574
 31
0.0
  0
ARC
  5
8B16B
330
18
100
AcDbEntity
  8
文字
100
AcDbCircle
 10
5709.492751844335
 20
-3570.022212429223
 30
0.0
 40
1.00311322310025
100
AcDbArc
 50
203.589777272609
 51
359.9468005913759
  0
LINE
  5
8B16C
330
18
100
AcDbEntity
  8
文字
100
AcDbLine
 10
5708.89386463503
 20
-3570.023143824571
 30
0.0
 11
5708.89386463503
 21
-3567.780343824571
 31
0.0
  0
LINE
  5
8B16D
330
18
100
AcDbEntity
  8
文字
100
AcDbLine
 10
5707.692364635028
 20
-3572.025643824574
 30
0.0
 11
5707.692364635028
 21
-3567.620143824573
 31
0.0
  0
LINE
  5
8B16E
330
18
100
AcDbEntity
  8
文字
100
AcDbLine
 10
5707.692364635028
 20
-3567.620143824573
 30
0.0
 11
5708.573464635026
 21
-3570.423643824571
 31
0.0
  0
CIRCLE
  5
8B16F
330
18
100
AcDbEntity
  8
文字
100
AcDbCircle
 10
5709.494614635032
 20
-3570.023143824573
 30
0.0
 40
0.6007500000000002
  0
LINE
  5
8B170
330
18
100
AcDbEntity
  8
文字
100
AcDbLine
 10
5710.896364635029
 20
-3572.426143824574
 30
0.0
 11
5710.896364635029
 21
-3568.020643824573
 31
0.0
  0
LINE
  5
8B171
330
18
100
AcDbEntity
  8
文字
100
AcDbLine
 10
5711.249888053031
 20
-3539.97219032565
 30
0.0
 11
5700.249888053031
 21
-3539.97219032565
 31
0.0
  0
ARC
  5
8B172
330
18
100
AcDbEntity
  8
文字
100
AcDbCircle
 10
5700.249888053035
 20
-3540.472190325651
 30
0.0
 40
0.5
100
AcDbArc
 50
90.0
 51
180.0
  0
ARC
  5
8B173
330
18
100
AcDbEntity
  8
文字
100
AcDbCircle
 10
5711.249888053035
 20
-3540.472190325651
 30
0.0
 40
0.5
100
AcDbArc
 50
0.0
 51
90.0
  0
TEXT
  5
8B174
330
18
100
AcDbEntity
  8
文字
100
AcDbText
 10
5711.11518268961
 20
-3555.3505299311
 30
137.5
 40
1.5
  1
MADE IN JAPAN
 50
90.0
  7
MS\U+FF7A\U+FF9E\U+FF7C\U+FF6F\U+FF78N
 11
5711.38919050211
 21
-3555.3505299311
 31
137.5
100
AcDbText
 73
     1
  0
TEXT
  5
8B175
330
18
100
AcDbEntity
  8
文字
100
AcDbText
 10
5709.245396639225
 20
-3555.3505299311
 30
137.5
 40
1.5
  1
SN-16140
 50
90.0
  7
MS\U+FF7A\U+FF9E\U+FF7C\U+FF6F\U+FF78N
 11
5709.519404451725
 21
-3555.3505299311
 31
137.5
100
AcDbText
 73
     1
  0
LINE
  5
8B176
330
18
100
AcDbEntity
  8
文字
100
AcDbLine
 10
5706.316446516916
 20
-3640.695533880031
 30
0.0
 11
5706.316446516916
 21
-3634.90403388003
 31
0.0
  0
HATCH
  5
8B177
330
18
100
AcDbEntity
  8
文字
100
AcDbHatch
 10
0.0
 20
0.0
 30
0.0
210
0.0
220
0.0
230
1.0
  2
ANSI37
 70
     0
 71
     0
 91
        2
 92
       17
 93
        1
 72
     2
 10
5708.685696516917
 20
-3638.063033880031
 40
0.7897500000000002
 50
90.0
 51
450.0
 73
     1
 97
        0
 92
        1
 93
        8
 72
     2
 10
5708.683247679708
 20
-3638.061809461426
 40
1.318699405648644
 50
203.5897772726301
 51
359.946800591415
 73
     1
 72
     2
 10
5708.948946516917
 20
-3638.063033880031
 40
1.053
 50
0.0
 51
180.0
 73
     1
 72
     1
 10
5707.895946516917
 20
-3638.063033880031
 11
5707.895946516917
 21
-3635.114633880032
 72
     1
 10
5707.895946516917
 20
-3635.11463388003
 11
5710.528446516917
 21
-3635.430533880029
 72
     1
 10
5710.528446516917
 20
-3635.430533880029
 11
5710.528446516917
 21
-3641.222033880029
 72
     1
 10
5710.528446516917
 20
-3641.222033880031
 11
5706.316446516917
 21
-3640.695533880031
 72
     1
 10
5706.316446516916
 20
-3640.695533880031
 11
5706.316446516916
 21
-3634.904033880032
 72
     1
 10
5706.316446516916
 20
-3634.90403388003
 11
5707.474746516915
 21
-3638.58953388003
 97
        0
 75
     0
 76
     1
 52
89.99999999999998
 41
0.8424000000000001
 77
     0
 78
     2
 53
135.0
 43
5705.42616220856
 44
-3902.926989846611
 45
-0.0744583440589435
 46
-0.0744583440589434
 79
     0
 53
225.0
 43
5705.42616220856
 44
-3902.926989846611
 45
0.0744583440589434
 46
-0.0744583440589435
 79
     0
 98
        1
 10
5705.42616220856
 20
-3902.926989846611
  0
TEXT
  5
8B178
330
18
100
AcDbEntity
  8
文字
100
AcDbText
 10
5704.698483649948
 20
-3641.327867335154
 30
0.0
 40
2.1
  1
SER No : 
 50
90.0
  7
MS\U+FF7A\U+FF9E\U+FF7C\U+FF6F\U+FF78
 11
5703.648483649947
 21
-3641.327867335154
 31
0.0
100
AcDbText
 73
     2
  0
TEXT
  5
8B179
330
18
100
AcDbEntity
  8
文字
100
AcDbText
 10
5702.180510635376
 20
-3682.295818470555
 30
0.0
 40
1.8
  1
OUT PUT: 714W　
 50
90.0
  7
MS\U+FF7A\U+FF9E\U+FF7C\U+FF6F\U+FF78
 11
5701.280510635375
 21
-3682.295818470555
 31
0.0
100
AcDbText
 73
     2
  0
TEXT
  5
8B17A
330
18
100
AcDbEntity
  8
文字
100
AcDbText
 10
5704.457759207688
 20
-3682.257238725088
 30
0.0
 40
1.8
  1
AMPS   : 6.0A
 50
90.0
  7
MS\U+FF7A\U+FF9E\U+FF7C\U+FF6F\U+FF78
 11
5703.557759207688
 21
-3682.257238725088
 31
0.0
100
AcDbText
 73
     2
  0
TEXT
  5
8B17B
330
18
100
AcDbEntity
  8
文字
100
AcDbText
 10
5706.736635348562
 20
-3682.33103941164
 30
0.0
 40
1.8
  1
DUTY  : CONT/S1
 50
90.0
  7
MS\U+FF7A\U+FF9E\U+FF7C\U+FF6F\U+FF78
 11
5705.836635348561
 21
-3682.33103941164
 31
0.0
100
AcDbText
 73
     2
  0
TEXT
  5
8B17C
330
18
100
AcDbEntity
  8
文字
100
AcDbText
 10
5709.018023068701
 20
-3682.341012730689
 30
0.0
 40
1.8
  1
FREQ   : 75Hz
 50
90.0
  7
MS\U+FF7A\U+FF9E\U+FF7C\U+FF6F\U+FF78
 11
5708.118023068703
 21
-3682.341012730689
 31
0.0
100
AcDbText
 73
     2
  0
TEXT
  5
8B17D
330
18
100
AcDbEntity
  8
文字
100
AcDbText
 10
5711.301996624192
 20
-3682.69772085916
 30
0.0
 40
1.8
  1
INS. 　: F
 50
90.0
  7
MS\U+FF7A\U+FF9E\U+FF7C\U+FF6F\U+FF78
 11
5710.401996624192
 21
-3682.69772085916
 31
0.0
100
AcDbText
 73
     2
  0
LINE
  5
8B17E
330
18
100
AcDbEntity
  8
文字
100
AcDbLine
 10
5714.099888053039
 20
-3641.722033880031
 30
0.0
 11
5714.099888053039
 21
-3603.722033880031
 31
0.0
  0
LINE
  5
8B17F
330
18
100
AcDbEntity
  8
文字
100
AcDbLine
 10
5697.099888053038
 20
-3682.722033880031
 30
0.0
 11
5697.099888053038
 21
-3644.722033880031
 31
0.0
  0
TEXT
  5
8B180
330
18
100
AcDbEntity
  8
文字
100
AcDbText
 10
5699.901940728987
 20
-3682.313134987799
 30
0.0
 40
1.8
  1
MODEL:NMR-SEMJA2A-711APB-UC
 50
90.0
  7
MS\U+FF7A\U+FF9E\U+FF7C\U+FF6F\U+FF78
 11
5699.001940728988
 21
-3682.313134987799
 31
0.0
100
AcDbText
 73
     2
  0
LINE
  5
8B181
330
18
100
AcDbEntity
  8
文字
100
AcDbLine
 10
5701.099888053039
 20
-3642.722033880031
 30
0.0
 11
5701.099888053039
 21
-3602.722033880031
 31
0.0
  0
LINE
  5
8B182
330
18
100
AcDbEntity
  8
文字
100
AcDbLine
 10
5714.099888053039
 20
-3683.722033880031
 30
0.0
 11
5698.099888053039
 21
-3683.722033880031
 31
0.0
  0
ARC
  5
8B183
330
18
100
AcDbEntity
  8
文字
100
AcDbCircle
 10
5713.09988805304
 20
-3641.722033880031
 30
0.0
 40
1.0
100
AcDbArc
 50
270.0
 51
0.0
  0
LINE
  5
8B184
330
18
100
AcDbEntity
  8
文字
100
AcDbLine
 10
5710.528446516917
 20
-3641.222033880031
 30
0.0
 11
5706.316446516916
 21
-3640.695533880031
 31
0.0
  0
ARC
  5
8B185
330
18
100
AcDbEntity
  8
文字
100
AcDbCircle
 10
5698.09988805304
 20
-3682.722033880031
 30
0.0
 40
1.0
100
AcDbArc
 50
180.0
 51
270.0
  0
LINE
  5
8B186
330
18
100
AcDbEntity
  8
文字
100
AcDbLine
 10
5698.099888053039
 20
-3643.722033880031
 30
0.0
 11
5714.099888053039
 21
-3643.722033880031
 31
0.0
  0
TEXT
  5
8B187
330
18
100
AcDbEntity
  8
文字
100
AcDbText
 10
5702.186787073788
 20
-3663.266386198797
 30
0.0
 40
1.8
  1
VOLTS : 96V
 50
90.0
  7
MS\U+FF7A\U+FF9E\U+FF7C\U+FF6F\U+FF78
 11
5701.286787073788
 21
-3663.266386198797
 31
0.0
100
AcDbText
 73
     2
  0
TEXT
  5
8B188
330
18
100
AcDbEntity
  8
文字
100
AcDbText
 10
5704.45782781012
 20
-3663.320915075278
 30
0.0
 40
1.8
  1
TORQUE : 37.9N\U+FF65m
 50
90.0
 41
0.9
  7
MS\U+FF7A\U+FF9E\U+FF7C\U+FF6F\U+FF78
 11
5703.55782781012
 21
-3663.320915075278
 31
0.0
100
AcDbText
 73
     2
  0
TEXT
  5
8B189
330
18
100
AcDbEntity
  8
文字
100
AcDbText
 10
5706.737062517094
 20
-3663.312799848835
 30
0.0
 40
1.8
  1
SPEED : 3rps
 50
90.0
  7
MS\U+FF7A\U+FF9E\U+FF7C\U+FF6F\U+FF78
 11
5705.837062517094
 21
-3663.312799848835
 31
0.0
100
AcDbText
 73
     2
  0
TEXT
  5
8B18A
330
18
100
AcDbEntity
  8
文字
100
AcDbText
 10
5709.016846434964
 20
-3663.331470210223
 30
0.0
 40
1.8
  1
TEMP  :
 50
90.0
  7
MS\U+FF7A\U+FF9E\U+FF7C\U+FF6F\U+FF78
 11
5708.116846434965
 21
-3663.331470210223
 31
0.0
100
AcDbText
 73
     2
  0
TEXT
  5
8B18B
330
18
100
AcDbEntity
  8
文字
100
AcDbText
 10
5713.387413840109
 20
-3640.569592061581
 30
0.0
 40
1.8
  1
NIKKI DENSO CO.,LTD.
 50
90.0
 41
0.55
 11
5712.48741384011
 21
-3640.569592061581
 31
0.0
100
AcDbText
 73
     2
  0
TEXT
  5
8B18C
330
18
100
AcDbEntity
  8
文字
100
AcDbText
 10
5708.235696786297
 20
-3633.608656388318
 30
0.0
 40
1.9
  1
NIKKI
 50
90.0
  7
TIMESNR
 11
5707.285696786297
 21
-3633.608656388318
 31
0.0
100
AcDbText
 73
     2
  0
TEXT
  5
8B18D
330
18
100
AcDbEntity
  8
文字
100
AcDbText
 10
5710.473958355821
 20
-3633.59070713809
 30
0.0
 40
1.9
  1
DENSO
 50
90.0
  7
TIMESNR
 11
5709.523958355822
 21
-3633.59070713809
 31
0.0
100
AcDbText
 73
     2
  0
LINE
  5
8B18E
330
18
100
AcDbEntity
  8
文字
100
AcDbLine
 10
5710.528446516917
 20
-3635.430533880029
 30
0.0
 11
5707.895946516917
 21
-3635.11463388003
 31
0.0
  0
LINE
  5
8B18F
330
18
100
AcDbEntity
  8
文字
100
AcDbLine
 10
5707.895946516917
 20
-3638.063033880031
 30
0.0
 11
5707.895946516917
 21
-3635.11463388003
 31
0.0
  0
LINE
  5
8B190
330
18
100
AcDbEntity
  8
文字
100
AcDbLine
 10
5706.316446516916
 20
-3634.90403388003
 30
0.0
 11
5707.474746516917
 21
-3638.589533880031
 31
0.0
  0
ARC
  5
8B191
330
18
100
AcDbEntity
  8
文字
100
AcDbCircle
 10
5708.948946516917
 20
-3638.063033880031
 30
0.0
 40
1.053
100
AcDbArc
 50
0.0
 51
180.0
  0
CIRCLE
  5
8B192
330
18
100
AcDbEntity
  8
文字
100
AcDbCircle
 10
5708.685696516917
 20
-3638.063033880031
 30
0.0
 40
0.7897500000000002
  0
ARC
  5
8B193
330
18
100
AcDbEntity
  8
文字
100
AcDbCircle
 10
5708.683247679708
 20
-3638.061809461426
 30
0.0
 40
1.318699405648644
100
AcDbArc
 50
203.589777272609
 51
359.9468005913759
  0
TEXT
  5
8B194
330
18
100
AcDbEntity
  8
文字
100
AcDbText
 10
5704.614945572418
 20
-3629.77539298107
 30
0.0
 40
2.1
  1
*******
 50
90.0
  7
MS\U+FF7A\U+FF9E\U+FF7C\U+FF6F\U+FF78
 11
5703.564945572418
 21
-3629.77539298107
 31
0.0
100
AcDbText
 73
     2
  0
TEXT
  5
8B195
330
18
100
AcDbEntity
  8
文字
100
AcDbText
 10
5713.377330235941
 20
-3623.82005432472
 30
0.0
 40
1.8
  1
MADE IN JAPAN
 50
90.0
 41
0.55
 11
5712.477330235941
 21
-3623.82005432472
 31
0.0
100
AcDbText
 73
     2
  0
ARC
  5
8B196
330
18
100
AcDbEntity
  8
文字
100
AcDbCircle
 10
5713.09988805304
 20
-3603.722033880031
 30
0.0
 40
1.0
100
AcDbArc
 50
0.0
 51
90.0
  0
ARC
  5
8B197
102
{ACAD_REACTORS
330
8B199
102
}
330
18
100
AcDbEntity
  8
文字
100
AcDbCircle
 10
5709.70901521819
 20
-3607.710267761296
 30
0.0
 40
0.3145728000000001
100
AcDbArc
 50
0.0
 51
110.0000000000471
  0
LINE
  5
8B198
102
{ACAD_REACTORS
330
8B199
102
}
330
18
100
AcDbEntity
  8
文字
100
AcDbLine
 10
5705.96559889819
 20
-3608.737998494656
 30
0.0
 11
5709.601424984048
 21
-3607.414666022435
 31
0.0
  0
HATCH
  5
8B199
330
18
100
AcDbEntity
  8
文字
100
AcDbHatch
 10
0.0
 20
0.0
 30
0.0
210
0.0
220
0.0
230
1.0
  2
SOLID
 70
     1
 71
     1
 91
        2
 92
        1
 93
       16
 72
     1
 10
5705.96559889819
 20
-3613.470338580065
 11
5705.96559889819
 21
-3610.751264414657
 72
     1
 10
5705.96559889819
 20
-3610.751264414657
 11
5708.76529681819
 21
-3609.73225770684
 72
     1
 10
5708.76529681819
 20
-3609.732257706838
 11
5708.76529681819
 21
-3608.977282986839
 72
     1
 10
5708.76529681819
 20
-3608.977282986839
 11
5705.96559889819
 21
-3609.996289694656
 72
     1
 10
5705.96559889819
 20
-3609.996289694656
 11
5705.96559889819
 21
-3608.737998494656
 72
     1
 10
5705.96559889819
 20
-3608.737998494656
 11
5709.601424984048
 21
-3607.414666022435
 72
     2
 10
5709.70901521819
 20
-3607.710267761296
 40
0.3145728000000001
 50
249.9999999999289
 51
360.0
 73
     0
 72
     1
 10
5710.02358801819
 20
-3607.710267761296
 11
5710.02358801819
 21
-3610.532568364
 72
     1
 10
5710.02358801819
 20
-3610.532568364
 11
5708.51363857819
 21
-3611.082145015406
 72
     1
 10
5708.51363857819
 20
-3611.082145015406
 11
5708.51363857819
 21
-3611.312623502739
 72
     1
 10
5708.51363857819
 20
-3611.312623502739
 11
5710.02358801819
 21
-3611.633573164
 72
     1
 10
5710.02358801819
 20
-3611.633573164
 11
5710.02358801819
 21
-3612.891864364
 72
     1
 10
5710.02358801819
 20
-3612.891864364
 11
5708.51363857819
 21
-3612.570914702739
 72
     1
 10
5708.51363857819
 20
-3612.570914702739
 11
5708.51363857819
 21
-3613.441441015407
 72
     1
 10
5708.51363857819
 20
-3613.441441015407
 11
5706.809924966474
 21
-3614.061542057786
 72
     2
 10
5706.59474449819
 20
-3613.470338580065
 40
0.6291456000000003
 50
70.00000000011285
 51
180.0
 73
     0
 97
       16
330
8B19B
330
8B19F
330
8B1A1
330
8B19E
330
8B19D
330
8B19C
330
8B1A8
330
8B1A7
330
8B1A9
330
8B1A4
330
8B197
330
8B198
330
8B1AD
330
8B1A2
330
8B1AC
330
8B1A3
 92
       16
 93
        4
 72
     1
 10
5706.877860018191
 20
-3612.778524521097
 11
5707.601377458189
 21
-3612.515185708965
 72
     1
 10
5707.601377458189
 20
-3612.515185708965
 11
5707.601377458189
 21
-3611.414180908965
 72
     1
 10
5707.601377458189
 20
-3611.414180908965
 11
5706.877860018191
 21
-3611.677519721098
 72
     1
 10
5706.877860018191
 20
-3611.677519721098
 11
5706.877860018191
 21
-3612.778524521097
 97
        4
330
8B1AB
330
8B1A5
330
8B1AA
330
8B1A6
 75
     0
 76
     1
 98
        2
 10
5707.851035142951
 20
-3612.237969366198
 10
5707.851035142951
 20
-3612.237969366198
  0
TEXT
  5
8B19A
330
18
100
AcDbEntity
  8
文字
100
AcDbText
 10
5709.014383887787
 20
-3653.857512206922
 30
0.0
 40
1.8
  1
0～+40℃
 50
90.0
 41
0.8
  7
MS\U+FF7A\U+FF9E\U+FF7C\U+FF6F\U+FF78
 11
5708.114383887787
 21
-3653.857512206922
 31
0.0
100
AcDbText
 73
     2
  0
LINE
  5
8B19B
102
{ACAD_REACTORS
330
8B199
102
}
330
18
100
AcDbEntity
  8
文字
100
AcDbLine
 10
5705.96559889819
 20
-3613.470338580065
 30
0.0
 11
5705.96559889819
 21
-3610.751264414657
 31
0.0
  0
LINE
  5
8B19C
102
{ACAD_REACTORS
330
8B199
102
}
330
18
100
AcDbEntity
  8
文字
100
AcDbLine
 10
5710.02358801819
 20
-3612.891864364
 30
0.0
 11
5710.02358801819
 21
-3611.633573164
 31
0.0
  0
LINE
  5
8B19D
102
{ACAD_REACTORS
330
8B199
102
}
330
18
100
AcDbEntity
  8
文字
100
AcDbLine
 10
5710.02358801819
 20
-3612.891864364
 30
0.0
 11
5708.51363857819
 21
-3612.570914702739
 31
0.0
  0
LINE
  5
8B19E
102
{ACAD_REACTORS
330
8B199
102
}
330
18
100
AcDbEntity
  8
文字
100
AcDbLine
 10
5708.51363857819
 20
-3613.441441015407
 30
0.0
 11
5708.51363857819
 21
-3612.570914702739
 31
0.0
  0
ARC
  5
8B19F
102
{ACAD_REACTORS
330
8B199
102
}
330
18
100
AcDbEntity
  8
文字
100
AcDbCircle
 10
5706.59474449819
 20
-3613.470338580065
 30
0.0
 40
0.6291456000000003
100
AcDbArc
 50
180.0
 51
289.9999999998824
  0
TEXT
  5
8B1A0
330
18
100
AcDbEntity
  8
文字
100
AcDbText
 10
5710.046725694194
 20
-3615.257637443937
 30
0.0
 40
1.79306496
  1
C
 50
90.0
  7
MS\U+FF7A\U+FF9E\U+FF7C\U+FF6F\U+FF78
100
AcDbText
  0
LINE
  5
8B1A1
102
{ACAD_REACTORS
330
8B199
102
}
330
18
100
AcDbEntity
  8
文字
100
AcDbLine
 10
5706.809924966474
 20
-3614.061542057786
 30
0.0
 11
5708.51363857819
 21
-3613.441441015407
 31
0.0
  0
LINE
  5
8B1A2
102
{ACAD_REACTORS
330
8B199
102
}
330
18
100
AcDbEntity
  8
文字
100
AcDbLine
 10
5705.96559889819
 20
-3609.996289694656
 30
0.0
 11
5708.76529681819
 21
-3608.977282986839
 31
0.0
  0
LINE
  5
8B1A3
102
{ACAD_REACTORS
330
8B199
102
}
330
18
100
AcDbEntity
  8
文字
100
AcDbLine
 10
5705.96559889819
 20
-3610.751264414657
 30
0.0
 11
5708.76529681819
 21
-3609.73225770684
 31
0.0
  0
LINE
  5
8B1A4
102
{ACAD_REACTORS
330
8B199
102
}
330
18
100
AcDbEntity
  8
文字
100
AcDbLine
 10
5710.02358801819
 20
-3610.532568364
 30
0.0
 11
5710.02358801819
 21
-3607.710267761296
 31
0.0
  0
LINE
  5
8B1A5
102
{ACAD_REACTORS
330
8B199
102
}
330
18
100
AcDbEntity
  8
文字
100
AcDbLine
 10
5706.877860018191
 20
-3612.778524521097
 30
0.0
 11
5706.877860018191
 21
-3611.677519721098
 31
0.0
  0
LINE
  5
8B1A6
102
{ACAD_REACTORS
330
8B199
102
}
330
18
100
AcDbEntity
  8
文字
100
AcDbLine
 10
5707.601377458189
 20
-3612.515185708965
 30
0.0
 11
5707.601377458189
 21
-3611.414180908965
 31
0.0
  0
LINE
  5
8B1A7
102
{ACAD_REACTORS
330
8B199
102
}
330
18
100
AcDbEntity
  8
文字
100
AcDbLine
 10
5708.51363857819
 20
-3611.312623502739
 30
0.0
 11
5708.51363857819
 21
-3611.082145015406
 31
0.0
  0
LINE
  5
8B1A8
102
{ACAD_REACTORS
330
8B199
102
}
330
18
100
AcDbEntity
  8
文字
100
AcDbLine
 10
5710.02358801819
 20
-3611.633573164
 30
0.0
 11
5708.51363857819
 21
-3611.312623502739
 31
0.0
  0
LINE
  5
8B1A9
102
{ACAD_REACTORS
330
8B199
102
}
330
18
100
AcDbEntity
  8
文字
100
AcDbLine
 10
5708.51363857819
 20
-3611.082145015406
 30
0.0
 11
5710.02358801819
 21
-3610.532568364
 31
0.0
  0
LINE
  5
8B1AA
102
{ACAD_REACTORS
330
8B199
102
}
330
18
100
AcDbEntity
  8
文字
100
AcDbLine
 10
5706.877860018191
 20
-3611.677519721098
 30
0.0
 11
5707.601377458189
 21
-3611.414180908965
 31
0.0
  0
LINE
  5
8B1AB
102
{ACAD_REACTORS
330
8B199
102
}
330
18
100
AcDbEntity
  8
文字
100
AcDbLine
 10
5706.877860018191
 20
-3612.778524521097
 30
0.0
 11
5707.601377458189
 21
-3612.515185708965
 31
0.0
  0
LINE
  5
8B1AC
102
{ACAD_REACTORS
330
8B199
102
}
330
18
100
AcDbEntity
  8
文字
100
AcDbLine
 10
5708.76529681819
 20
-3609.732257706838
 30
0.0
 11
5708.76529681819
 21
-3608.977282986839
 31
0.0
  0
LINE
  5
8B1AD
102
{ACAD_REACTORS
330
8B199
102
}
330
18
100
AcDbEntity
  8
文字
100
AcDbLine
 10
5705.96559889819
 20
-3609.996289694656
 30
0.0
 11
5705.96559889819
 21
-3608.737998494656
 31
0.0
  0
TEXT
  5
8B1AE
330
18
100
AcDbEntity
  8
文字
100
AcDbText
 10
5710.046725694194
 20
-3605.795161941408
 30
0.0
 40
1.79306496
  1
S
 50
90.0
  7
MS\U+FF7A\U+FF9E\U+FF7C\U+FF6F\U+FF78
100
AcDbText
  0
TEXT
  5
8B1AF
330
18
100
AcDbEntity
  8
文字
100
AcDbText
 10
5710.046725694194
 20
-3607.094002250201
 30
0.0
 40
1.79306496
  1
U
 50
90.0
  7
MS\U+FF7A\U+FF9E\U+FF7C\U+FF6F\U+FF78
100
AcDbText
  0
ARC
  5
8B1B0
330
18
100
AcDbEntity
  8
文字
100
AcDbCircle
 10
5698.09988805304
 20
-3644.722033880031
 30
0.0
 40
1.0
100
AcDbArc
 50
90.0
 51
180.0
  0
TEXT
  5
8B1B1
330
18
100
AcDbEntity
  8
文字
100
AcDbText
 10
5713.347852512274
 20
-3611.075038219323
 30
0.0
 40
1.8
  1
SN-＊＊＊＊＊
 50
90.0
 41
0.5
 11
5712.447852512274
 21
-3611.075038219323
 31
0.0
100
AcDbText
 73
     2
  0
TEXT
  5
8B1B2
330
18
100
AcDbEntity
  8
文字
100
AcDbText
 10
5713.552996883613
 20
-3682.348930325679
 30
0.0
 40
1.8
  1
Ph3
 50
90.0
  7
MS\U+FF7A\U+FF9E\U+FF7C\U+FF6F\U+FF78
 11
5712.652996883614
 21
-3682.348930325679
 31
0.0
100
AcDbText
 73
     2
  0
TEXT
  5
8B1B3
330
18
100
AcDbEntity
  8
文字
100
AcDbText
 10
5704.309400508932
 20
-3611.665367089305
 30
0.0
 40
2.1
  1
#100 R
 50
90.0
  7
MS\U+FF7A\U+FF9E\U+FF7C\U+FF6F\U+FF78
 11
5703.259400508932
 21
-3611.665367089305
 31
0.0
100
AcDbText
 73
     2
  0
ARC
  5
8B1B4
330
18
100
AcDbEntity
  8
文字
 48
3.0
100
AcDbCircle
 10
5708.035637864812
 20
-3616.969900890986
 30
0.0
 40
1.8
100
AcDbArc
 50
279.5940682268241
 51
0.0
  0
ARC
  5
8B1B5
330
18
100
AcDbEntity
  8
文字
 48
3.0
100
AcDbCircle
 10
5708.035637864812
 20
-3620.585871323602
 30
0.0
 40
2.4
100
AcDbArc
 50
180.0
 51
0.0
  0
ARC
  5
8B1B6
330
18
100
AcDbEntity
  8
文字
 48
3.0
100
AcDbCircle
 10
5708.035637864812
 20
-3620.585871323602
 30
0.0
 40
1.8
100
AcDbArc
 50
180.0
 51
0.0
  0
HATCH
  5
8B1B7
330
18
100
AcDbEntity
  8
文字
 48
3.0
100
AcDbHatch
 10
0.0
 20
0.0
 30
0.0
210
0.0
220
0.0
230
1.0
  2
SOLID
 70
     1
 71
     0
 91
        1
 92
        7
 72
     1
 73
     1
 93
        4
 10
5710.435637864812
 20
-3620.585871323602
 42
0.0
 10
5709.835637864811
 20
-3620.585871323602
 42
-1.0
 10
5706.235637864811
 20
-3620.585871323602
 42
0.0
 10
5705.635637864812
 20
-3620.585871323602
 42
1.0
 97
        0
 75
     0
 76
     1
 47
0.0446283734803627
 98
        1
 10
5707.178295512478
 20
-3622.552358301192
  0
ARC
  5
8B1B8
330
18
100
AcDbEntity
  8
文字
 48
3.0
100
AcDbCircle
 10
5708.035637864812
 20
-3616.969900890986
 30
0.0
 40
2.4
100
AcDbArc
 50
180.0
 51
0.0
  0
HATCH
  5
8B1B9
330
18
100
AcDbEntity
  8
文字
 48
3.0
100
AcDbHatch
 10
0.0
 20
0.0
 30
0.0
210
0.0
220
0.0
230
1.0
  2
SOLID
 70
     1
 71
     0
 91
        1
 92
        7
 72
     1
 73
     1
 93
        8
 10
5707.735637864811
 20
-3618.744724825916
 42
-0.3659773818630374
 10
5706.235637864811
 20
-3616.969900890986
 42
0.0
 10
5705.635637864812
 20
-3616.969900890986
 42
1.0
 10
5710.435637864812
 20
-3616.969900890986
 42
0.0
 10
5709.835637864811
 20
-3616.969900890986
 42
-0.3659773818630525
 10
5708.335637864811
 20
-3618.744724825916
 42
0.0
 10
5708.335637864811
 20
-3617.169900890985
 42
0.0
 10
5707.735637864811
 20
-3617.169900890985
 42
0.0
 97
        0
 75
     0
 76
     1
 47
0.0446283734803627
 98
        1
 10
5707.928052201761
 20
-3618.855352031902
  0
LINE
  5
8B1BA
330
18
100
AcDbEntity
  8
文字
 48
3.0
100
AcDbLine
 10
5709.835637864811
 20
-3616.969900890986
 30
0.0
 11
5710.435637864812
 21
-3616.969900890986
 31
0.0
  0
LINE
  5
8B1BB
330
18
100
AcDbEntity
  8
文字
 48
3.0
100
AcDbLine
 10
5709.835637864811
 20
-3620.585871323602
 30
0.0
 11
5710.435637864812
 21
-3620.585871323602
 31
0.0
  0
LINE
  5
8B1BC
330
18
100
AcDbEntity
  8
文字
 48
3.0
100
AcDbLine
 10
5705.635637864812
 20
-3616.969900890986
 30
0.0
 11
5706.235637864811
 21
-3616.969900890986
 31
0.0
  0
LINE
  5
8B1BD
330
18
100
AcDbEntity
  8
文字
 48
3.0
100
AcDbLine
 10
5707.735637864811
 20
-3618.744724825916
 30
0.0
 11
5707.735637864811
 21
-3617.169900890985
 31
0.0
  0
LINE
  5
8B1BE
330
18
100
AcDbEntity
  8
文字
 48
3.0
100
AcDbLine
 10
5708.335637864811
 20
-3618.744724825916
 30
0.0
 11
5708.335637864811
 21
-3617.169900890985
 31
0.0
  0
LINE
  5
8B1BF
330
18
100
AcDbEntity
  8
文字
 48
3.0
100
AcDbLine
 10
5707.735637864811
 20
-3617.169900890985
 30
0.0
 11
5708.335637864811
 21
-3617.169900890985
 31
0.0
  0
ARC
  5
8B1C0
330
18
100
AcDbEntity
  8
文字
 48
3.0
100
AcDbCircle
 10
5708.035637864812
 20
-3616.969900890986
 30
0.0
 40
1.8
100
AcDbArc
 50
180.0
 51
260.4059317731202
  0
LINE
  5
8B1C1
330
18
100
AcDbEntity
  8
文字
 48
3.0
100
AcDbLine
 10
5705.635637864812
 20
-3620.585871323602
 30
0.0
 11
5706.235637864811
 21
-3620.585871323602
 31
0.0
  0
TEXT
  5
8B1C2
330
18
100
AcDbEntity
  8
文字
100
AcDbText
 10
5711.227437352857
 20
-3663.130155335657
 30
0.0
 40
1.8
  1
MASS: 10.7kg
 50
90.0
  7
MS\U+FF7A\U+FF9E\U+FF7C\U+FF6F\U+FF78
 11
5710.327437352858
 21
-3663.130155335657
 31
0.0
100
AcDbText
 73
     2
  0
TEXT
  5
8B1C3
330
18
100
AcDbEntity
  8
文字
100
AcDbText
 10
5713.629006179115
 20
-3672.614192577476
 30
0.0
 40
1.8
  1
T E
 50
90.0
  7
MS\U+FF7A\U+FF9E\U+FF7C\U+FF6F\U+FF78
 11
5712.729006179117
 21
-3672.614192577476
 31
0.0
100
AcDbText
 73
     2
  0
TEXT
  5
8B1C4
330
18
100
AcDbEntity
  8
文字
100
AcDbText
 10
5713.629006179115
 20
-3663.421650658733
 30
0.0
 40
1.8
  1
IP40
 50
90.0
  7
MS\U+FF7A\U+FF9E\U+FF7C\U+FF6F\U+FF78
 11
5712.729006179117
 21
-3663.421650658733
 31
0.0
100
AcDbText
 73
     2
  0
TEXT
  5
8B1C5
330
18
100
AcDbEntity
  8
文字
100
AcDbText
 10
5713.629006179115
 20
-3654.349774564698
 30
0.0
 40
1.8
  1
EN60034
 50
90.0
  7
MS\U+FF7A\U+FF9E\U+FF7C\U+FF6F\U+FF78
 11
5712.729006179117
 21
-3654.349774564698
 31
0.0
100
AcDbText
 73
     2
  0
LINE
  5
8B1C6
330
18
100
AcDbEntity
  8
文字
100
AcDbLine
 10
5714.099888053039
 20
-3643.722033880031
 30
0.0
 11
5714.099888053039
 21
-3683.722033880031
 31
0.0
  0
LINE
  5
8B1C7
330
18
100
AcDbEntity
  8
文字
100
AcDbLine
 10
5701.099888053039
 20
-3602.722033880031
 30
0.0
 11
5713.09988805304
 21
-3602.722033880031
 31
0.0
  0
LINE
  5
8B1C8
330
18
100
AcDbEntity
  8
文字
100
AcDbLine
 10
5701.099888053039
 20
-3642.722033880031
 30
0.0
 11
5713.09988805304
 21
-3642.722033880031
 31
0.0
  0
HATCH
  5
8B258
330
18
100
AcDbEntity
  8
ハッチング
100
AcDbHatch
 10
0.0
 20
0.0
 30
0.0
210
0.0
220
0.0
230
1.0
  2
SOLID
 70
     1
 71
     0
 91
        3
 92
        7
 72
     1
 73
     1
 93
        4
 10
5333.754870400783
 20
-3621.25853944394
 42
0.0
 10
5332.978413265475
 20
-3618.360761965073
 42
0.2446984432291988
 10
5330.935792538425
 20
-3620.232479013963
 42
0.1494012440317082
 10
5330.843841983335
 20
-3621.983738418576
 42
0.008824216471513
 97
        0
 92
        7
 72
     1
 73
     1
 93
        4
 10
5334.53132753609
 20
-3624.156316922807
 42
0.2446984432289402
 10
5336.57394826314
 20
-3622.284599873918
 42
0.1539147210589496
 10
5336.652647879651
 20
-3620.482082308634
 42
0.0
 10
5333.754870400782
 20
-3621.258539443942
 42
0.0
 97
        0
 92
        7
 72
     1
 73
     1
 93
        3
 10
5330.857092921915
 20
-3622.034996579249
 42
0.0
 10
5333.754870400778
 20
-3621.258539443943
 42
-0.0088242164715121
 10
5330.843841983335
 20
-3621.983738418576
 42
0.0044120223149393
 97
        0
 75
     0
 76
     1
 47
0.0
 98
        3
 10
5331.888958533506
 20
-3620.491559507995
 10
5335.425169723034
 20
-3622.35802329904
 10
5330.994834599028
 20
-3621.974714574494
1001
ACAD
1010
0.0
1020
0.0
1030
0.0
  0
VIEWPORT
  5
8B005
102
{ACAD_XDICTIONARY
360
8B2AC
102
}
330
8B001
100
AcDbEntity
 67
     1
  8
0
100
AcDbViewport
 10
6.872653620640947
 20
2.521885141659383
 30
0.0
 40
14.114494043311
 41
9.047752591866025
 68
     1
 69
     1
 12
6.872653620640947
 22
2.521885141659383
 13
0.0
 23
0.0
 14
0.5
 24
0.5
 15
0.0
 25
0.0
 16
0.0
 26
0.0
 36
1.0
 17
0.0
 27
0.0
 37
0.0
 42
50.0
 43
0.0
 44
0.0
 45
9.047752591866025
 50
0.0
 51
0.0
 72
   100
 90
   557168
  1

281
     0
 71
     1
 74
     0
110
0.0
120
0.0
130
0.0
111
1.0
121
0.0
131
0.0
112
0.0
122
1.0
132
0.0
 79
     0
146
0.0
  0
VIEWPORT
  5
8B006
102
{ACAD_XDICTIONARY
360
8B007
102
}
330
8B001
100
AcDbEntity
 67
     1
  8
0
100
AcDbViewport
 10
5.25
 20
3.5
 30
0.0
 40
8.4
 41
5.6
 68
     2
 69
     2
 12
5614.126735667572
 22
-3734.42211055753
 13
0.0
 23
0.0
 14
0.5
 24
0.5
 15
0.0
 25
0.0
 16
0.0
 26
0.0
 36
1.0
 17
0.0
 27
0.0
 37
0.0
 42
50.0
 43
0.0
 44
0.0
 45
622.8493024813506
 50
0.0
 51
0.0
 72
   100
341
E
 90
   557152
  1

281
     0
 71
     1
 74
     0
110
0.0
120
0.0
130
0.0
111
1.0
121
0.0
131
0.0
112
0.0
122
1.0
132
0.0
 79
     0
146
0.0
  0
ENDSEC
  0
SECTION
  2
OBJECTS
  0
DICTIONARY
  5
C
330
0
100
AcDbDictionary
281
     1
  3
ACAD_2007HEADERVARS_RT
350
8B268
  3
ACAD_CIP_PREVIOUS_PRODUCT_INFO
350
886B3
  3
ACAD_COLOR
350
8B01E
  3
ACAD_DETAILVIEWSTYLE
350
8AF65
  3
ACAD_GROUP
350
D
  3
ACAD_IMAGE_VARS
350
88FD7
  3
ACAD_LAYOUT
350
73F
  3
ACAD_MATERIAL
350
8AF11
  3
ACAD_MLEADERSTYLE
350
8AF17
  3
ACAD_MLINESTYLE
350
1B
  3
ACAD_PLOTSETTINGS
350
740
  3
ACAD_PLOTSTYLENAME
350
73D
  3
ACAD_SCALELIST
350
88696
  3
ACAD_SECTIONVIEWSTYLE
350
8AF66
  3
ACAD_TABLESTYLE
350
8AF15
  3
ACAD_VISUALSTYLE
350
8AEF8
  3
AcadDim
350
881A3
  3
ACDB_RECOMPOSE_DATA
350
8B266
  3
AcDbVariableDictionary
350
11AC
  3
AcDsDecomposeData
350
8B270
  3
APPDATA
350
88FD5
  3
DWGPROPS
350
8B267
  0
DICTIONARY
  5
1E591
330
2
100
AcDbDictionary
280
     1
281
     1
  3
ACAD_LAYERSTATES
360
1E615
  3
ACLYDICTIONARY
360
8B00C
  0
DICTIONARY
  5
886FF
330
E
100
AcDbDictionary
280
     1
281
     1
  3
ADSK_XREC_LAYER_RECONCILED
360
88700
  0
DICTIONARY
  5
88707
330
8C6
100
AcDbDictionary
280
     1
281
     1
  3
ADSK_XREC_LAYER_RECONCILED
360
88708
  0
DICTIONARY
  5
8870D
330
96A
100
AcDbDictionary
280
     1
281
     1
  3
ADSK_XREC_LAYER_RECONCILED
360
8870E
  0
DICTIONARY
  5
8870F
330
1521
100
AcDbDictionary
280
     1
281
     1
  3
ADSK_XREC_LAYER_RECONCILED
360
88710
  0
DICTIONARY
  5
88713
330
1523
100
AcDbDictionary
280
     1
281
     1
  3
ADSK_XREC_LAYER_RECONCILED
360
88714
  0
DICTIONARY
  5
8871F
330
7920D
100
AcDbDictionary
280
     1
281
     1
  3
ADSK_XREC_LAYER_RECONCILED
360
88720
  0
DICTIONARY
  5
88721
330
7CE53
100
AcDbDictionary
280
     1
281
     1
  3
ADSK_XREC_LAYER_RECONCILED
360
88722
  0
DICTIONARY
  5
88723
330
80436
100
AcDbDictionary
280
     1
281
     1
  3
ADSK_XREC_LAYER_RECONCILED
360
88724
  0
DICTIONARY
  5
8B226
330
8B225
100
AcDbDictionary
280
     1
281
     1
  3
ADSK_XREC_LAYER_RECONCILED
360
8B227
  0
DICTIONARY
  5
8B22A
330
8B229
100
AcDbDictionary
280
     1
281
     1
  3
ADSK_XREC_LAYER_RECONCILED
360
8B22B
  0
DICTIONARY
  5
8B2AC
330
8B005
100
AcDbDictionary
280
     1
281
     1
  3
ACAD_XREC_ROUNDTRIP
360
8B2AD
  0
DICTIONARY
  5
8B007
330
8B006
100
AcDbDictionary
280
     1
281
     1
  3
ACAD_XREC_ROUNDTRIP
360
8B2AE
  3
ASDK_XREC_ANNOTATION_SCALE_INFO
360
8B008
  0
DICTIONARY
  5
8B268
102
{ACAD_REACTORS
330
C
102
}
330
C
100
AcDbDictionary
281
     1
  3
INTERFERECOLOR
350
8B269
  0
XRECORD
  5
886B3
102
{ACAD_REACTORS
330
C
102
}
330
C
100
AcDbXrecord
280
     1
300
ACDLT
300
2019
300
87085ACDLT_2019_0F
  0
DICTIONARY
  5
8B01E
102
{ACAD_REACTORS
330
C
102
}
330
C
100
AcDbDictionary
281
     1
  0
DICTIONARY
  5
8AF65
102
{ACAD_REACTORS
330
C
102
}
330
C
100
AcDbDictionary
281
     1
  3
Imperial24
350
8B020
  0
DICTIONARY
  5
D
102
{ACAD_REACTORS
330
C
102
}
330
C
100
AcDbDictionary
281
     1
  0
RASTERVARIABLES
  5
88FD7
102
{ACAD_REACTORS
330
C
102
}
330
C
100
AcDbRasterVariables
 90
        0
 70
     1
 71
     1
 72
     0
  0
DICTIONARY
  5
73F
102
{ACAD_REACTORS
330
C
102
}
330
C
100
AcDbDictionary
281
     1
  3
Model
350
741
  3
Sheet1
350
8B002
  0
DICTIONARY
  5
8AF11
102
{ACAD_REACTORS
330
C
102
}
330
C
100
AcDbDictionary
281
     1
  3
ByBlock
350
8B016
  3
ByLayer
350
8AF12
  3
Global
350
8AF14
  0
DICTIONARY
  5
8AF17
102
{ACAD_REACTORS
330
C
102
}
330
C
100
AcDbDictionary
281
     1
  3
Standard
350
8AF18
  0
DICTIONARY
  5
1B
102
{ACAD_REACTORS
330
C
102
}
330
C
100
AcDbDictionary
281
     1
  3
STANDARD
350
1C
  0
DICTIONARY
  5
740
102
{ACAD_REACTORS
330
C
102
}
330
C
100
AcDbDictionary
281
     1
  0
ACDBDICTIONARYWDFLT
  5
73D
102
{ACAD_REACTORS
330
C
102
}
330
C
100
AcDbDictionary
281
     1
  3
Normal
350
73E
100
AcDbDictionaryWithDefault
340
73E
  0
DICTIONARY
  5
88696
102
{ACAD_REACTORS
330
C
102
}
330
C
100
AcDbDictionary
281
     1
  3
*A1
350
8B23B
  3
A0
350
88697
  3
A1
350
88698
  3
A2
350
88699
  3
A3
350
8869A
  3
A4
350
8869B
  3
A5
350
8869C
  3
A6
350
8869D
  3
A7
350
8869E
  3
A8
350
8869F
  3
A9
350
886A0
  3
B0
350
886A1
  3
B1
350
886A2
  3
B2
350
886A3
  3
B3
350
886A4
  3
B4
350
886A5
  3
B5
350
886A6
  3
B6
350
886A7
  0
DICTIONARY
  5
8AF66
102
{ACAD_REACTORS
330
C
102
}
330
C
100
AcDbDictionary
281
     1
  3
Imperial24
350
8B01F
  0
DICTIONARY
  5
8AF15
102
{ACAD_REACTORS
330
C
102
}
330
C
100
AcDbDictionary
281
     1
  3
Standard
350
8AF16
  0
DICTIONARY
  5
8AEF8
102
{ACAD_REACTORS
330
C
102
}
330
C
100
AcDbDictionary
281
     1
  3
2dWireframe
350
8AEFD
  3
Basic
350
8AF00
  3
Brighten
350
8AF04
  3
ColorChange
350
8AF08
  3
Conceptual
350
8AF02
  3
Dim
350
8AF03
  3
EdgeColorOff
350
8AF0B
  3
Facepattern
350
8AF07
  3
Flat
350
8AEF9
  3
FlatWithEdges
350
8AEFA
  3
Gouraud
350
8AEFB
  3
GouraudWithEdges
350
8AEFC
  3
Hidden
350
8AEFF
  3
JitterOff
350
8AF09
  3
Linepattern
350
8AF06
  3
OverhangOff
350
8AF0A
  3
Realistic
350
8AF01
  3
Shaded
350
8AF10
  3
Shaded with edges
350
8AF0F
  3
Shades of Gray
350
8AF0C
  3
Sketchy
350
8AF0D
  3
Thicken
350
8AF05
  3
Wireframe
350
8AEFE
  3
X-Ray
350
8AF0E
  0
XRECORD
  5
881A3
102
{ACAD_REACTORS
330
C
102
}
330
C
100
AcDbXrecord
280
     1
 90
   990106
  3

 60
     4
 61
     0
 62
     4
 63
     4
 64
     1
 65
     0
 66
     0
 67
     3
 68
     1
 69
     0
 70
     0
 71
     0
 72
     0
 40
0.0
170
     0
340
0
  0
XRECORD
  5
8B266
102
{ACAD_REACTORS
330
C
102
}
330
C
100
AcDbXrecord
280
     1
 90
        1
330
8AF16
  0
DICTIONARY
  5
11AC
102
{ACAD_REACTORS
330
C
102
}
330
C
100
AcDbDictionary
281
     1
  3
CANNOSCALE
350
8B259
  3
CMLEADERSTYLE
350
8AF63
  3
CTABLESTYLE
350
8AF62
  3
CVIEWDETAILSTYLE
350
8B07A
  3
CVIEWSECTIONSTYLE
350
8B07B
  3
DGNFRAME
350
8B080
  3
DIMASSOC
350
11AD
  3
HIDETEXT
350
8B07F
  3
HPTRANSPARENCY
350
8A10E
  3
INDEXCTL
350
88912
  3
LAYEREVAL
350
8B07D
  3
LAYERNOTIFY
350
8B07E
  3
LIGHTINGUNITS
350
8B07C
  3
LOFTANG1
350
8B221
  3
LOFTANG2
350
8B222
  3
MSLTSCALE
350
8AF64
  3
SORTENTS
350
AD08
  3
XCLIPFRAME
350
8B223
  0
DICTIONARY
  5
8B270
102
{ACAD_REACTORS
330
C
102
}
330
C
100
AcDbDictionary
281
     1
  3
AcDsRecords
350
8B272
  3
AcDsSchemas
350
8B271
1001
ACAD
1070
     2
  0
DICTIONARY
  5
88FD5
102
{ACAD_REACTORS
330
C
102
}
330
C
100
AcDbDictionary
281
     1
  0
XRECORD
  5
8B267
102
{ACAD_REACTORS
330
C
102
}
330
C
100
AcDbXrecord
280
     1
  1
DWGPROPS COOKIE
  2

  3

  4

  6

  7

  8
NI0949
  9

300
=
301
=
302
=
303
=
304
=
305
=
306
=
307
=
308
=
309
=
 40
15.58390628472222
 41
2452479.723113426
 42
2458554.389791667
  1

 90
        0
  0
DICTIONARY
  5
1E615
102
{ACAD_REACTORS
330
1E591
102
}
330
1E591
100
AcDbDictionary
281
     1
  0
DICTIONARY
  5
8B00C
102
{ACAD_REACTORS
330
1E591
102
}
330
1E591
100
AcDbDictionary
281
     1
1001
ACAD
1000
<All
  0
XRECORD
  5
88700
102
{ACAD_REACTORS
330
886FF
102
}
330
886FF
100
AcDbXrecord
280
     1
290
     1
  0
XRECORD
  5
88708
102
{ACAD_REACTORS
330
88707
102
}
330
88707
100
AcDbXrecord
280
     1
290
     1
  0
XRECORD
  5
8870E
102
{ACAD_REACTORS
330
8870D
102
}
330
8870D
100
AcDbXrecord
280
     1
290
     1
  0
XRECORD
  5
88710
102
{ACAD_REACTORS
330
8870F
102
}
330
8870F
100
AcDbXrecord
280
     1
290
     1
  0
XRECORD
  5
88714
102
{ACAD_REACTORS
330
88713
102
}
330
88713
100
AcDbXrecord
280
     1
290
     1
  0
XRECORD
  5
88720
102
{ACAD_REACTORS
330
8871F
102
}
330
8871F
100
AcDbXrecord
280
     1
290
     1
  0
XRECORD
  5
88722
102
{ACAD_REACTORS
330
88721
102
}
330
88721
100
AcDbXrecord
280
     1
290
     1
  0
XRECORD
  5
88724
102
{ACAD_REACTORS
330
88723
102
}
330
88723
100
AcDbXrecord
280
     1
290
     1
  0
XRECORD
  5
8B227
102
{ACAD_REACTORS
330
8B226
102
}
330
8B226
100
AcDbXrecord
280
     1
290
     1
  0
XRECORD
  5
8B22B
102
{ACAD_REACTORS
330
8B22A
102
}
330
8B22A
100
AcDbXrecord
280
     1
290
     1
  0
XRECORD
  5
8B2AD
102
{ACAD_REACTORS
330
8B2AC
102
}
330
8B2AC
100
AcDbXrecord
280
     1
102
SHADEPLOT
 70
     0
  0
XRECORD
  5
8B2AE
102
{ACAD_REACTORS
330
8B007
102
}
330
8B007
100
AcDbXrecord
280
     1
102
SHADEPLOT
 70
     0
  0
XRECORD
  5
8B008
102
{ACAD_REACTORS
330
8B007
102
}
330
8B007
100
AcDbXrecord
280
     1
 90
        1
340
88697
  0
XRECORD
  5
8B269
102
{ACAD_REACTORS
330
8B268
102
}
330
8B268
100
AcDbXrecord
280
     1
1004
1800000001000000000000C0000000000000000000000000
  0
ACDBDETAILVIEWSTYLE
  5
8B020
102
{ACAD_XDICTIONARY
360
8B2B3
102
}
102
{ACAD_REACTORS
330
8AF65
102
}
330
8AF65
100
AcDbModelDocViewStyle
 70
     0
  3
Imperial24
290
     0
100
AcDbDetailViewStyle
 70
     0
 71
     0
 90
        3
 71
     1
340
F
 40
0.24
340
0
 40
0.24
300

 40
0.36
280
     3
 71
     2
340
14
 90
       25
 71
     3
340
F
 40
0.24
 90
        1
 40
0.75
 90
        1
300
%<\AcVar ViewType \f "%tc1">% %<\AcVar ViewDetailId>%\PSCALE %<\AcVar ViewScale \f "%sn">%
 71
     4
340
14
 90
       25
340
14
 90
       25
280
     0
  0
LAYOUT
  5
741
102
{ACAD_XDICTIONARY
360
8B273
102
}
102
{ACAD_REACTORS
330
73F
102
}
330
73F
100
AcDbPlotSettings
  1

  2
HP DesignJet 750C (D/A1) Color
  4
ANSI_A_(11.00_x_8.50_Inches)
  6

 40
6.349999999999999
 41
19.05
 42
6.349999999999999
 43
19.05
 44
279.4
 45
215.9
 46
0.0
 47
0.0
 48
0.0
 49
0.0
140
0.0
141
0.0
142
1.0
143
108.2514615001134
 70
 11952
 72
     0
 73
     0
 74
     0
  7
monochrome.ctb
 75
     0
147
0.0092377505683741
148
-129825.2132863207
149
104900.0860492006
100
AcDbLayout
  1
Model
 70
     1
 71
     0
 10
0.0
 20
0.0
 11
12.0
 21
9.0
 12
0.0
 22
0.0
 32
0.0
 14
5156.149307372462
 24
-4010.847110053808
 34
0.0
 15
6072.104163962684
 25
-3461.847111061261
 35
0.0
146
0.0
 13
0.0
 23
0.0
 33
0.0
 16
1.0
 26
0.0
 36
0.0
 17
0.0
 27
1.0
 37
0.0
 76
     0
330
18
  0
LAYOUT
  5
8B002
102
{ACAD_XDICTIONARY
360
8B2AA
102
}
102
{ACAD_REACTORS
330
73F
102
}
330
73F
100
AcDbPlotSettings
  1

  2
none_device
  4
ANSI_A_(11.00_x_8.50_Inches)
  6

 40
6.349999999999999
 41
19.05
 42
6.349999999999999
 43
19.05
 44
279.4
 45
215.9
 46
0.0
 47
0.0
 48
0.0
 49
0.0
140
0.0
141
0.0
142
1.0
143
1.0
 70
   688
 72
     0
 73
     0
 74
     5
  7

 75
    16
147
1.0
148
0.0
149
0.0
100
AcDbLayout
  1
Sheet1
 70
     1
 71
     1
 10
0.0
 20
0.0
 11
0.0
 21
0.0
 12
0.0
 22
0.0
 32
0.0
 14
1.049455284454694
 24
0.6996368563031297
 34
-0.0015258207003583
 15
9.450288413116116
 25
6.300192275410744
 35
0.0000000349246037
146
0.0
 13
0.0
 23
0.0
 33
0.0
 16
1.0
 26
0.0
 36
0.0
 17
0.0
 27
1.0
 37
0.0
 76
     0
330
8B001
331
8B005
  0
MATERIAL
  5
8B016
102
{ACAD_XDICTIONARY
360
8B2AF
102
}
102
{ACAD_REACTORS
330
8AF11
102
}
330
8AF11
100
AcDbMaterial
  1
ByBlock
 72
     0
 43
0.0208333333333333
 43
0.0
 43
0.0
 43
0.0
 43
0.0
 43
0.0208333333333333
 43
0.0
 43
0.0
 43
0.0
 43
0.0
 43
1.0
 43
0.0
 43
0.0
 43
0.0
 43
0.0
 43
1.0
 77
     0
 47
0.0208333333333333
 47
0.0
 47
0.0
 47
0.0
 47
0.0
 47
0.0208333333333333
 47
0.0
 47
0.0
 47
0.0
 47
0.0
 47
1.0
 47
0.0
 47
0.0
 47
0.0
 47
0.0
 47
1.0
171
     0
 49
0.0208333333333333
 49
0.0
 49
0.0
 49
0.0
 49
0.0
 49
0.0208333333333333
 49
0.0
 49
0.0
 49
0.0
 49
0.0
 49
1.0
 49
0.0
 49
0.0
 49
0.0
 49
0.0
 49
1.0
175
     0
142
0.0208333333333333
142
0.0
142
0.0
142
0.0
142
0.0
142
0.0208333333333333
142
0.0
142
0.0
142
0.0
142
0.0
142
1.0
142
0.0
142
0.0
142
0.0
142
0.0
142
1.0
179
     0
144
0.0208333333333333
144
0.0
144
0.0
144
0.0
144
0.0
144
0.0208333333333333
144
0.0
144
0.0
144
0.0
144
0.0
144
1.0
144
0.0
144
0.0
144
0.0
144
0.0
144
1.0
147
0.0208333333333333
147
0.0
147
0.0
147
0.0
147
0.0
147
0.0208333333333333
147
0.0
147
0.0
147
0.0
147
0.0
147
1.0
147
0.0
147
0.0
147
0.0
147
0.0
147
1.0
  0
MATERIAL
  5
8AF12
102
{ACAD_XDICTIONARY
360
8B2A5
102
}
102
{ACAD_REACTORS
330
8AF11
102
}
330
8AF11
100
AcDbMaterial
  1
ByLayer
 73
     1
 78
     1
172
     1
176
     1
270
     1
274
     1
  0
MATERIAL
  5
8AF14
102
{ACAD_XDICTIONARY
360
8B2A7
102
}
102
{ACAD_REACTORS
330
8AF11
102
}
330
8AF11
100
AcDbMaterial
  1
Global
 73
     1
 78
     1
172
     1
176
     1
270
     1
274
     1
  0
MLEADERSTYLE
  5
8AF18
102
{ACAD_REACTORS
330
8AF17
102
}
330
8AF17
100
AcDbMLeaderStyle
170
     2
171
     1
172
     0
 90
        2
 40
0.0
 41
0.0
173
     1
 91
-1056964608
340
12
 92
       -2
290
     1
 42
0.09
291
     1
 43
0.36
  3
Standard
 44
0.18
300

342
F
174
     1
178
     6
175
     1
176
     0
 93
-1056964608
 45
0.18
292
     0
297
     0
 46
0.18
 94
-1056964608
 47
1.0
 49
1.0
140
1.0
293
     1
141
0.0
294
     1
177
     0
142
1.0
295
     0
296
     0
143
0.125
1001
ACAD_MLEADERVER
1070
     2
  0
MLINESTYLE
  5
1C
102
{ACAD_REACTORS
330
1B
102
}
330
1B
100
AcDbMlineStyle
  2
STANDARD
 70
     0
  3

 62
   256
 51
90.0
 52
90.0
 71
     2
 49
0.5
 62
   256
  6
BYLAYER
 49
-0.5
 62
   256
  6
BYLAYER
  0
ACDBPLACEHOLDER
  5
73E
102
{ACAD_REACTORS
330
73D
102
}
330
73D
  0
SCALE
  5
8B23B
102
{ACAD_REACTORS
330
88696
102
}
330
88696
100
AcDbScale
 70
     0
300
1:1_XREF_XREF
140
1.0
141
1.0
290
     1
  0
SCALE
  5
88697
102
{ACAD_REACTORS
330
88696
102
}
330
88696
100
AcDbScale
 70
     0
300
1:1
140
1.0
141
1.0
290
     1
  0
SCALE
  5
88698
102
{ACAD_REACTORS
330
88696
102
}
330
88696
100
AcDbScale
 70
     0
300
1/128" = 1'-0"
140
0.0078125
141
12.0
290
     0
  0
SCALE
  5
88699
102
{ACAD_REACTORS
330
88696
102
}
330
88696
100
AcDbScale
 70
     0
300
1/64" = 1'-0"
140
0.015625
141
12.0
290
     0
  0
SCALE
  5
8869A
102
{ACAD_REACTORS
330
88696
102
}
330
88696
100
AcDbScale
 70
     0
300
1/32" = 1'-0"
140
0.03125
141
12.0
290
     0
  0
SCALE
  5
8869B
102
{ACAD_REACTORS
330
88696
102
}
330
88696
100
AcDbScale
 70
     0
300
1/16" = 1'-0"
140
0.0625
141
12.0
290
     0
  0
SCALE
  5
8869C
102
{ACAD_REACTORS
330
88696
102
}
330
88696
100
AcDbScale
 70
     0
300
3/32" = 1'-0"
140
0.09375
141
12.0
290
     0
  0
SCALE
  5
8869D
102
{ACAD_REACTORS
330
88696
102
}
330
88696
100
AcDbScale
 70
     0
300
1/8" = 1'-0"
140
0.125
141
12.0
290
     0
  0
SCALE
  5
8869E
102
{ACAD_REACTORS
330
88696
102
}
330
88696
100
AcDbScale
 70
     0
300
3/16" = 1'-0"
140
0.1875
141
12.0
290
     0
  0
SCALE
  5
8869F
102
{ACAD_REACTORS
330
88696
102
}
330
88696
100
AcDbScale
 70
     0
300
1/4" = 1'-0"
140
0.25
141
12.0
290
     0
  0
SCALE
  5
886A0
102
{ACAD_REACTORS
330
88696
102
}
330
88696
100
AcDbScale
 70
     0
300
3/8" = 1'-0"
140
0.375
141
12.0
290
     0
  0
SCALE
  5
886A1
102
{ACAD_REACTORS
330
88696
102
}
330
88696
100
AcDbScale
 70
     0
300
1/2" = 1'-0"
140
0.5
141
12.0
290
     0
  0
SCALE
  5
886A2
102
{ACAD_REACTORS
330
88696
102
}
330
88696
100
AcDbScale
 70
     0
300
3/4" = 1'-0"
140
0.75
141
12.0
290
     0
  0
SCALE
  5
886A3
102
{ACAD_REACTORS
330
88696
102
}
330
88696
100
AcDbScale
 70
     0
300
1" = 1'-0"
140
1.0
141
12.0
290
     0
  0
SCALE
  5
886A4
102
{ACAD_REACTORS
330
88696
102
}
330
88696
100
AcDbScale
 70
     0
300
1-1/2" = 1'-0"
140
1.5
141
12.0
290
     0
  0
SCALE
  5
886A5
102
{ACAD_REACTORS
330
88696
102
}
330
88696
100
AcDbScale
 70
     0
300
3" = 1'-0"
140
3.0
141
12.0
290
     0
  0
SCALE
  5
886A6
102
{ACAD_REACTORS
330
88696
102
}
330
88696
100
AcDbScale
 70
     0
300
6" = 1'-0"
140
6.0
141
12.0
290
     0
  0
SCALE
  5
886A7
102
{ACAD_REACTORS
330
88696
102
}
330
88696
100
AcDbScale
 70
     0
300
1'-0" = 1'-0"
140
12.0
141
12.0
290
     0
  0
ACDBSECTIONVIEWSTYLE
  5
8B01F
102
{ACAD_XDICTIONARY
360
8B2B1
102
}
102
{ACAD_REACTORS
330
8AF66
102
}
330
8AF66
100
AcDbModelDocViewStyle
 70
     0
  3
Imperial24
290
     0
100
AcDbSectionViewStyle
 70
     0
 71
     0
 90
       78
 71
     1
340
F
 40
0.24
340
0
340
0
 40
0.24
300
I, O, Q, S, X, Z
 40
0.48
 90
        3
 40
0.18
 90
        1
 71
     2
340
14
 90
       25
340
14
 90
       50
 40
0.24
 40
0.0
 40
0.24
 71
     3
340
F
 40
0.24
 90
        1
 40
0.75
 90
        1
300
%<\AcVar ViewType \f "%tc1">% %<\AcVar ViewSectionStartId>%-%<\AcVar ViewSectionEndId>%\PSCALE %<\AcVar ViewScale \f "%sn">%
 71
     4
300
ANSI31
 40
1.0
 90
        0
290
     0
290
     0
 90
        6
 40
0.0
 40
1.570796326794896
 40
0.2617993877991494
 40
1.308996938995747
 40
-0.2617993877991494
 40
1.832595714594046
  0
TABLESTYLE
  5
8AF16
102
{ACAD_XDICTIONARY
360
8B264
102
}
102
{ACAD_REACTORS
330
8AF15
102
}
330
8AF15
100
AcDbTableStyle
  3
Standard
 70
     0
 71
     0
 40
0.06
 41
0.06
280
     0
281
     0
  7
STANDARD
140
0.18
170
     2
 62
     0
 63
     7
283
     0
274
    -2
284
     1
 64
     0
275
    -2
285
     1
 65
     0
276
    -2
286
     1
 66
     0
277
    -2
287
     1
 67
     0
278
    -2
288
     1
 68
     0
279
    -2
289
     1
 69
     0
  7
STANDARD
140
0.25
170
     5
 62
     0
 63
     7
283
     0
274
    -2
284
     1
 64
     0
275
    -2
285
     1
 65
     0
276
    -2
286
     1
 66
     0
277
    -2
287
     1
 67
     0
278
    -2
288
     1
 68
     0
279
    -2
289
     1
 69
     0
  7
STANDARD
140
0.18
170
     5
 62
     0
 63
     7
283
     0
274
    -2
284
     1
 64
     0
275
    -2
285
     1
 65
     0
276
    -2
286
     1
 66
     0
277
    -2
287
     1
 67
     0
278
    -2
288
     1
 68
     0
279
    -2
289
     1
 69
     0
  0
VISUALSTYLE
  5
8AEFD
102
{ACAD_XDICTIONARY
360
8B27D
102
}
102
{ACAD_REACTORS
330
8AEF8
102
}
330
8AEF8
100
AcDbVisualStyle
  2
2dWireframe
 70
     4
 71
     0
 72
     2
 73
     0
 90
        0
 40
-0.6
 41
-30.0
 62
     5
 63
     7
 74
     1
 91
        4
 64
     7
 65
   257
 75
     1
175
     1
 42
1.0
 92
        0
 66
   257
 43
1.0
 76
     1
 77
     6
 78
     2
 67
     7
 79
     5
170
     0
171
     0
290
     0
174
     0
 93
        1
 44
0.0
173
     0
291
     0
 45
0.0
1001
ACAD
1000
AcDbSavedByObjectVersion
1070
     0
  0
VISUALSTYLE
  5
8AF00
102
{ACAD_XDICTIONARY
360
8B283
102
}
102
{ACAD_REACTORS
330
8AEF8
102
}
330
8AEF8
100
AcDbVisualStyle
  2
Basic
 70
     7
 71
     1
 72
     0
 73
     1
 90
        0
 40
-0.6
 41
-30.0
 62
     5
 63
     7
 74
     0
 91
        4
 64
     7
 65
   257
 75
     1
175
     1
 42
1.0
 92
        8
 66
     7
 43
1.0
 76
     1
 77
     6
 78
     2
 67
     7
 79
     5
170
     0
171
     0
290
     0
174
     0
 93
        1
 44
0.0
173
     0
291
     1
 45
0.0
1001
ACAD
1000
AcDbSavedByObjectVersion
1070
     0
  0
VISUALSTYLE
  5
8AF04
102
{ACAD_XDICTIONARY
360
8B28B
102
}
102
{ACAD_REACTORS
330
8AEF8
102
}
330
8AEF8
100
AcDbVisualStyle
  2
Brighten
 70
    12
 71
     2
 72
     2
 73
     0
 90
        0
 40
-0.6
 41
-30.0
 62
     5
 63
     7
 74
     1
 91
        4
 64
     7
 65
   257
 75
     1
175
     1
 42
1.0
 92
        8
 66
     7
 43
1.0
 76
     1
 77
     6
 78
     2
 67
     7
 79
     5
170
     0
171
     0
290
     0
174
     0
 93
        1
 44
50.0
173
     0
291
     1
 45
0.0
1001
ACAD
1000
AcDbSavedByObjectVersion
1070
     0
  0
VISUALSTYLE
  5
8AF08
102
{ACAD_XDICTIONARY
360
8B293
102
}
102
{ACAD_REACTORS
330
8AEF8
102
}
330
8AEF8
100
AcDbVisualStyle
  2
ColorChange
 70
    16
 71
     2
 72
     2
 73
     3
 90
        0
 40
-0.6
 41
-30.0
 62
     5
 63
     8
 74
     1
 91
        4
 64
     7
 65
   257
 75
     1
175
     1
 42
1.0
 92
        8
 66
     8
 43
1.0
 76
     1
 77
     6
 78
     2
 67
     7
 79
     5
170
     0
171
     0
290
     0
174
     0
 93
        1
 44
0.0
173
     0
291
     1
 45
0.0
1001
ACAD
1000
AcDbSavedByObjectVersion
1070
     0
  0
VISUALSTYLE
  5
8AF02
102
{ACAD_XDICTIONARY
360
8B287
102
}
102
{ACAD_REACTORS
330
8AEF8
102
}
330
8AEF8
100
AcDbVisualStyle
  2
Conceptual
 70
     9
 71
     3
 72
     2
 73
     0
 90
        0
 40
-0.6
 41
-30.0
 62
     5
 63
     7
 74
     2
 91
        2
 64
     7
 65
   257
 75
     1
175
     1
 42
179.0
 92
        8
 66
     7
 43
1.0
 76
     1
 77
     6
 78
     2
 67
     7
 79
     3
170
     0
171
     0
290
     0
174
     0
 93
        1
 44
0.0
173
     0
291
     0
 45
0.0
1001
ACAD
1000
AcDbSavedByObjectVersion
1070
     0
  0
VISUALSTYLE
  5
8AF03
102
{ACAD_XDICTIONARY
360
8B289
102
}
102
{ACAD_REACTORS
330
8AEF8
102
}
330
8AEF8
100
AcDbVisualStyle
  2
Dim
 70
    11
 71
     2
 72
     2
 73
     0
 90
        0
 40
-0.6
 41
-30.0
 62
     5
 63
     7
 74
     1
 91
        4
 64
     7
 65
   257
 75
     1
175
     1
 42
1.0
 92
        8
 66
     7
 43
1.0
 76
     1
 77
     6
 78
     2
 67
     7
 79
     5
170
     0
171
     0
290
     0
174
     0
 93
        1
 44
-50.0
173
     0
291
     1
 45
0.0
1001
ACAD
1000
AcDbSavedByObjectVersion
1070
     0
  0
VISUALSTYLE
  5
8AF0B
102
{ACAD_XDICTIONARY
360
8B299
102
}
102
{ACAD_REACTORS
330
8AEF8
102
}
330
8AEF8
100
AcDbVisualStyle
  2
EdgeColorOff
 70
    22
 71
     2
 72
     2
 73
     0
 90
        0
 40
-0.6
 41
-30.0
 62
     5
 63
     7
 74
     1
 91
        4
 64
     7
 65
   257
 75
     1
175
     1
 42
1.0
 92
        8
 66
     7
 43
1.0
 76
     1
 77
     6
 78
     2
 67
     7
 79
     5
170
     0
171
     0
290
     0
174
     0
 93
        1
 44
0.0
173
     0
291
     1
 45
0.0
1001
ACAD
1000
AcDbSavedByObjectVersion
1070
     0
  0
VISUALSTYLE
  5
8AF07
102
{ACAD_XDICTIONARY
360
8B291
102
}
102
{ACAD_REACTORS
330
8AEF8
102
}
330
8AEF8
100
AcDbVisualStyle
  2
Facepattern
 70
    15
 71
     2
 72
     2
 73
     0
 90
        0
 40
-0.6
 41
-30.0
 62
     5
 63
     7
 74
     1
 91
        4
 64
     7
 65
   257
 75
     1
175
     1
 42
1.0
 92
        8
 66
     7
 43
1.0
 76
     1
 77
     6
 78
     2
 67
     7
 79
     5
170
     0
171
     0
290
     0
174
     0
 93
        1
 44
0.0
173
     0
291
     1
 45
0.0
1001
ACAD
1000
AcDbSavedByObjectVersion
1070
     0
  0
VISUALSTYLE
  5
8AEF9
102
{ACAD_XDICTIONARY
360
8B275
102
}
102
{ACAD_REACTORS
330
8AEF8
102
}
330
8AEF8
100
AcDbVisualStyle
  2
Flat
 70
     0
 71
     2
 72
     1
 73
     1
 90
        2
 40
-0.6
 41
30.0
 62
     5
 63
     7
 74
     0
 91
        0
 64
     7
 65
   257
 75
     1
175
     1
 42
1.0
 92
        8
 66
     7
 43
1.0
 76
     1
 77
     6
 78
     2
 67
     7
 79
     5
170
     0
171
     0
290
     0
174
     0
 93
       13
 44
0.0
173
     0
291
     1
 45
0.0
1001
ACAD
1000
AcDbSavedByObjectVersion
1070
     0
  0
VISUALSTYLE
  5
8AEFA
102
{ACAD_XDICTIONARY
360
8B277
102
}
102
{ACAD_REACTORS
330
8AEF8
102
}
330
8AEF8
100
AcDbVisualStyle
  2
FlatWithEdges
 70
     1
 71
     2
 72
     1
 73
     1
 90
        2
 40
-0.6
 41
30.0
 62
     5
 63
     7
 74
     1
 91
        0
 64
     7
 65
   257
 75
     1
175
     1
 42
1.0
 92
        0
 66
   257
 43
1.0
 76
     1
 77
     6
 78
     2
 67
     7
 79
     5
170
     0
171
     0
290
     0
174
     0
 93
       13
 44
0.0
173
     0
291
     1
 45
0.0
1001
ACAD
1000
AcDbSavedByObjectVersion
1070
     0
  0
VISUALSTYLE
  5
8AEFB
102
{ACAD_XDICTIONARY
360
8B279
102
}
102
{ACAD_REACTORS
330
8AEF8
102
}
330
8AEF8
100
AcDbVisualStyle
  2
Gouraud
 70
     2
 71
     2
 72
     2
 73
     1
 90
        2
 40
-0.6
 41
30.0
 62
     5
 63
     7
 74
     0
 91
        0
 64
     7
 65
   257
 75
     1
175
     1
 42
1.0
 92
        0
 66
     7
 43
1.0
 76
     1
 77
     6
 78
     2
 67
     7
 79
     5
170
     0
171
     0
290
     0
174
     0
 93
       13
 44
0.0
173
     0
291
     1
 45
0.0
1001
ACAD
1000
AcDbSavedByObjectVersion
1070
     0
  0
VISUALSTYLE
  5
8AEFC
102
{ACAD_XDICTIONARY
360
8B27B
102
}
102
{ACAD_REACTORS
330
8AEF8
102
}
330
8AEF8
100
AcDbVisualStyle
  2
GouraudWithEdges
 70
     3
 71
     2
 72
     2
 73
     1
 90
        2
 40
-0.6
 41
30.0
 62
     5
 63
     7
 74
     1
 91
        0
 64
     7
 65
   257
 75
     1
175
     1
 42
1.0
 92
        0
 66
   257
 43
1.0
 76
     1
 77
     6
 78
     2
 67
     7
 79
     5
170
     0
171
     0
290
     0
174
     0
 93
       13
 44
0.0
173
     0
291
     1
 45
0.0
1001
ACAD
1000
AcDbSavedByObjectVersion
1070
     0
  0
VISUALSTYLE
  5
8AEFF
102
{ACAD_XDICTIONARY
360
8B281
102
}
102
{ACAD_REACTORS
330
8AEF8
102
}
330
8AEF8
100
AcDbVisualStyle
  2
Hidden
 70
     6
 71
     1
 72
     2
 73
     2
 90
        0
 40
-0.6
 41
-30.0
 62
     5
 63
     7
 74
     2
 91
        2
 64
     7
 65
   257
 75
     2
175
     1
 42
40.0
 92
        0
 66
   257
 43
1.0
 76
     1
 77
     6
 78
     2
 67
     7
 79
     3
170
     0
171
     0
290
     0
174
     0
 93
        1
 44
0.0
173
     0
291
     0
 45
0.0
1001
ACAD
1000
AcDbSavedByObjectVersion
1070
     0
  0
VISUALSTYLE
  5
8AF09
102
{ACAD_XDICTIONARY
360
8B295
102
}
102
{ACAD_REACTORS
330
8AEF8
102
}
330
8AEF8
100
AcDbVisualStyle
  2
JitterOff
 70
    20
 71
     2
 72
     2
 73
     0
 90
        0
 40
-0.6
 41
-30.0
 62
     5
 63
     7
 74
     1
 91
        4
 64
     7
 65
   257
 75
     1
175
     1
 42
1.0
 92
       10
 66
     7
 43
1.0
 76
     1
 77
     6
 78
     2
 67
     7
 79
     5
170
     0
171
     0
290
     0
174
     0
 93
        1
 44
0.0
173
     0
291
     1
 45
0.0
1001
ACAD
1000
AcDbSavedByObjectVersion
1070
     0
  0
VISUALSTYLE
  5
8AF06
102
{ACAD_XDICTIONARY
360
8B28F
102
}
102
{ACAD_REACTORS
330
8AEF8
102
}
330
8AEF8
100
AcDbVisualStyle
  2
Linepattern
 70
    14
 71
     2
 72
     2
 73
     0
 90
        0
 40
-0.6
 41
-30.0
 62
     5
 63
     7
 74
     1
 91
        4
 64
     7
 65
   257
 75
     7
175
     7
 42
1.0
 92
        8
 66
     7
 43
1.0
 76
     1
 77
     6
 78
     2
 67
     7
 79
     5
170
     0
171
     0
290
     0
174
     0
 93
        1
 44
0.0
173
     0
291
     1
 45
0.0
1001
ACAD
1000
AcDbSavedByObjectVersion
1070
     0
  0
VISUALSTYLE
  5
8AF0A
102
{ACAD_XDICTIONARY
360
8B297
102
}
102
{ACAD_REACTORS
330
8AEF8
102
}
330
8AEF8
100
AcDbVisualStyle
  2
OverhangOff
 70
    21
 71
     2
 72
     2
 73
     0
 90
        0
 40
-0.6
 41
-30.0
 62
     5
 63
     7
 74
     1
 91
        4
 64
     7
 65
   257
 75
     1
175
     1
 42
1.0
 92
        9
 66
     7
 43
1.0
 76
     1
 77
     6
 78
     2
 67
     7
 79
     5
170
     0
171
     0
290
     0
174
     0
 93
        1
 44
0.0
173
     0
291
     1
 45
0.0
1001
ACAD
1000
AcDbSavedByObjectVersion
1070
     0
  0
VISUALSTYLE
  5
8AF01
102
{ACAD_XDICTIONARY
360
8B285
102
}
102
{ACAD_REACTORS
330
8AEF8
102
}
330
8AEF8
100
AcDbVisualStyle
  2
Realistic
 70
     8
 71
     2
 72
     2
 73
     0
 90
        2
 40
-0.6
 41
30.0
 62
     5
 63
     7
 74
     0
 91
        0
 64
     7
 65
   257
 75
     1
175
     1
 42
1.0
 92
        8
 66
   257
 43
1.0
 76
     1
 77
     6
 78
     2
 67
     7
 79
     3
170
     0
171
     0
290
     0
174
     0
 93
       13
 44
0.0
173
     0
291
     0
 45
0.0
1001
ACAD
1000
AcDbSavedByObjectVersion
1070
     0
  0
VISUALSTYLE
  5
8AF10
102
{ACAD_XDICTIONARY
360
8B2A3
102
}
102
{ACAD_REACTORS
330
8AEF8
102
}
330
8AEF8
100
AcDbVisualStyle
  2
Shaded
 70
    27
 71
     2
 72
     2
 73
     1
 90
        2
 40
-0.6
 41
30.0
 62
     5
 63
     7
 74
     0
 91
        4
 64
     7
 65
   257
 75
     1
175
     1
 42
1.0
 92
        8
 66
   257
 43
1.0
 76
     1
 77
     6
 78
     2
 67
     8
 79
     3
170
     0
171
     0
290
     0
174
     0
 93
        5
 44
0.0
173
     0
291
     0
 45
0.0
1001
ACAD
1000
AcDbSavedByObjectVersion
1070
     0
  0
VISUALSTYLE
  5
8AF0F
102
{ACAD_XDICTIONARY
360
8B2A1
102
}
102
{ACAD_REACTORS
330
8AEF8
102
}
330
8AEF8
100
AcDbVisualStyle
  2
Shaded with edges
 70
    26
 71
     2
 72
     2
 73
     1
 90
        2
 40
-0.6
 41
30.0
 62
     5
 63
     7
 74
     1
 91
        2
 64
     7
 65
   257
 75
     2
175
     1
 42
1.0
 92
        8
 66
   257
 43
1.0
 76
     1
 77
     6
 78
     2
 67
     7
 79
     3
170
     0
171
     0
290
     0
174
     0
 93
        5
 44
0.0
173
     0
291
     0
 45
0.0
1001
ACAD
1000
AcDbSavedByObjectVersion
1070
     0
  0
VISUALSTYLE
  5
8AF0C
102
{ACAD_XDICTIONARY
360
8B29B
102
}
102
{ACAD_REACTORS
330
8AEF8
102
}
330
8AEF8
100
AcDbVisualStyle
  2
Shades of Gray
 70
    23
 71
     2
 72
     2
 73
     3
 90
        0
 40
-0.6
 41
-30.0
 62
     5
 63
     7
 74
     2
 91
        2
 64
     7
 65
     7
 75
     1
175
     1
 42
40.0
 92
        8
 66
     7
 43
1.0
 76
     1
 77
     6
 78
     2
 67
     7
 79
     3
170
     0
171
     0
290
     0
174
     0
 93
        1
 44
0.0
173
     0
291
     0
 45
0.0
1001
ACAD
1000
AcDbSavedByObjectVersion
1070
     0
  0
VISUALSTYLE
  5
8AF0D
102
{ACAD_XDICTIONARY
360
8B29D
102
}
102
{ACAD_REACTORS
330
8AEF8
102
}
330
8AEF8
100
AcDbVisualStyle
  2
Sketchy
 70
    24
 71
     1
 72
     2
 73
     2
 90
        0
 40
-0.6
 41
-30.0
 62
     5
 63
     7
 74
     2
 91
        2
 64
     7
 65
     7
 75
     1
175
     1
 42
40.0
 92
       11
 66
     7
 43
1.0
 76
     1
 77
     6
 78
     2
 67
     7
 79
     6
170
     0
171
     0
290
     0
174
     0
 93
        1
 44
0.0
173
     0
291
     0
 45
0.0
1001
ACAD
1000
AcDbSavedByObjectVersion
1070
     0
  0
VISUALSTYLE
  5
8AF05
102
{ACAD_XDICTIONARY
360
8B28D
102
}
102
{ACAD_REACTORS
330
8AEF8
102
}
330
8AEF8
100
AcDbVisualStyle
  2
Thicken
 70
    13
 71
     2
 72
     2
 73
     0
 90
        0
 40
-0.6
 41
-30.0
 62
     5
 63
     7
 74
     1
 91
        4
 64
     7
 65
   257
 75
     1
175
     1
 42
1.0
 92
       12
 66
     7
 43
1.0
 76
     1
 77
     6
 78
     2
 67
     7
 79
     5
170
     0
171
     0
290
     0
174
     0
 93
        1
 44
0.0
173
     0
291
     1
 45
0.0
1001
ACAD
1000
AcDbSavedByObjectVersion
1070
     0
  0
VISUALSTYLE
  5
8AEFE
102
{ACAD_XDICTIONARY
360
8B27F
102
}
102
{ACAD_REACTORS
330
8AEF8
102
}
330
8AEF8
100
AcDbVisualStyle
  2
Wireframe
 70
     5
 71
     0
 72
     2
 73
     0
 90
        0
 40
-0.6
 41
-30.0
 62
     5
 63
     7
 74
     1
 91
        4
 64
     7
 65
   257
 75
     1
175
     1
 42
1.0
 92
        0
 66
   257
 43
1.0
 76
     1
 77
     6
 78
     2
 67
     7
 79
     3
170
     0
171
     0
290
     0
174
     0
 93
        1
 44
0.0
173
     0
291
     0
 45
0.0
1001
ACAD
1000
AcDbSavedByObjectVersion
1070
     0
  0
VISUALSTYLE
  5
8AF0E
102
{ACAD_XDICTIONARY
360
8B29F
102
}
102
{ACAD_REACTORS
330
8AEF8
102
}
330
8AEF8
100
AcDbVisualStyle
  2
X-Ray
 70
    25
 71
     2
 72
     2
 73
     1
 90
        1
 40
0.5
 41
-30.0
 62
     5
 63
     7
 74
     1
 91
        0
 64
     7
 65
   257
 75
     1
175
     1
 42
1.0
 92
        8
 66
     7
 43
1.0
 76
     1
 77
     6
 78
     2
 67
     7
 79
     3
170
     0
171
     0
290
     0
174
     0
 93
       13
 44
0.0
173
     0
291
     0
 45
0.0
1001
ACAD
1000
AcDbSavedByObjectVersion
1070
     0
  0
DICTIONARYVAR
  5
8B259
102
{ACAD_REACTORS
330
11AC
102
}
330
11AC
100
DictionaryVariables
280
     0
  1
1:1
  0
DICTIONARYVAR
  5
8AF63
102
{ACAD_REACTORS
330
11AC
102
}
330
11AC
100
DictionaryVariables
280
     0
  1
STANDARD
  0
DICTIONARYVAR
  5
8AF62
102
{ACAD_REACTORS
330
11AC
102
}
330
11AC
100
DictionaryVariables
280
     0
  1
STANDARD
  0
DICTIONARYVAR
  5
8B07A
102
{ACAD_REACTORS
330
11AC
102
}
330
11AC
100
DictionaryVariables
280
     0
  1
Imperial24
  0
DICTIONARYVAR
  5
8B07B
102
{ACAD_REACTORS
330
11AC
102
}
330
11AC
100
DictionaryVariables
280
     0
  1
Imperial24
  0
DICTIONARYVAR
  5
8B080
102
{ACAD_REACTORS
330
11AC
102
}
330
11AC
100
DictionaryVariables
280
     0
  1
2
  0
DICTIONARYVAR
  5
11AD
102
{ACAD_REACTORS
330
11AC
102
}
330
11AC
100
DictionaryVariables
280
     0
  1
1
  0
DICTIONARYVAR
  5
8B07F
102
{ACAD_REACTORS
330
11AC
102
}
330
11AC
100
DictionaryVariables
280
     0
  1
1
  0
DICTIONARYVAR
  5
8A10E
102
{ACAD_REACTORS
330
11AC
102
}
330
11AC
100
DictionaryVariables
280
     0
  1
ByLayer
  0
DICTIONARYVAR
  5
88912
102
{ACAD_REACTORS
330
11AC
102
}
330
11AC
100
DictionaryVariables
280
     0
  1
0
  0
DICTIONARYVAR
  5
8B07D
102
{ACAD_REACTORS
330
11AC
102
}
330
11AC
100
DictionaryVariables
280
     0
  1
0
  0
DICTIONARYVAR
  5
8B07E
102
{ACAD_REACTORS
330
11AC
102
}
330
11AC
100
DictionaryVariables
280
     0
  1
0
  0
DICTIONARYVAR
  5
8B07C
102
{ACAD_REACTORS
330
11AC
102
}
330
11AC
100
DictionaryVariables
280
     0
  1
2
  0
DICTIONARYVAR
  5
8B221
102
{ACAD_REACTORS
330
11AC
102
}
330
11AC
100
DictionaryVariables
280
     0
  1
1.570796
  0
DICTIONARYVAR
  5
8B222
102
{ACAD_REACTORS
330
11AC
102
}
330
11AC
100
DictionaryVariables
280
     0
  1
1.570796
  0
DICTIONARYVAR
  5
8AF64
102
{ACAD_REACTORS
330
11AC
102
}
330
11AC
100
DictionaryVariables
280
     0
  1
0
  0
DICTIONARYVAR
  5
AD08
102
{ACAD_REACTORS
330
11AC
102
}
330
11AC
100
DictionaryVariables
280
     0
  1
96
  0
DICTIONARYVAR
  5
8B223
102
{ACAD_REACTORS
330
11AC
102
}
330
11AC
100
DictionaryVariables
280
     0
  1
2
  0
DICTIONARY
  5
8B272
102
{ACAD_REACTORS
330
8B270
102
}
330
8B270
100
AcDbDictionary
281
     1
  0
DICTIONARY
  5
8B271
102
{ACAD_REACTORS
330
8B270
102
}
330
8B270
100
AcDbDictionary
281
     1
  3
2947584991520
350
8B26A
  3
2947584991536
350
8B26B
  3
2947584991552
350
8B26C
  3
2947584991568
350
8B26D
  3
2947584991584
350
8B26E
  3
2947584991600
350
8B26F
  0
DICTIONARY
  5
8B2B3
330
8B020
100
AcDbDictionary
280
     1
281
     1
  3
ACAD_XREC_ROUNDTRIP
360
8B2B4
  0
DICTIONARY
  5
8B273
330
741
100
AcDbDictionary
280
     1
281
     1
  3
ACAD_XREC_ROUNDTRIP
360
8B274
  0
DICTIONARY
  5
8B2AA
330
8B002
100
AcDbDictionary
280
     1
281
     1
  3
ACAD_XREC_ROUNDTRIP
360
8B2AB
  0
DICTIONARY
  5
8B2AF
330
8B016
100
AcDbDictionary
280
     1
281
     1
  3
ACAD_XREC_ROUNDTRIP
360
8B2B0
  0
DICTIONARY
  5
8B2A5
330
8AF12
100
AcDbDictionary
280
     1
281
     1
  3
ACAD_XREC_ROUNDTRIP
360
8B2A6
  0
DICTIONARY
  5
8B2A7
330
8AF14
100
AcDbDictionary
280
     1
281
     1
  3
ACAD_XREC_ROUNDTRIP
360
8B2A8
  0
DICTIONARY
  5
8B2B1
330
8B01F
100
AcDbDictionary
280
     1
281
     1
  3
ACAD_XREC_ROUNDTRIP
360
8B2B2
  0
DICTIONARY
  5
8B264
330
8AF16
100
AcDbDictionary
280
     1
281
     1
  3
ACAD_ROUNDTRIP_2008_TABLESTYLE_CELLSTYLEMAP
360
8B265
  3
ACAD_XREC_ROUNDTRIP
360
8B2A9
  0
DICTIONARY
  5
8B27D
330
8AEFD
100
AcDbDictionary
280
     1
281
     1
  3
ACAD_XREC_ROUNDTRIP
360
8B27E
  0
DICTIONARY
  5
8B283
330
8AF00
100
AcDbDictionary
280
     1
281
     1
  3
ACAD_XREC_ROUNDTRIP
360
8B284
  0
DICTIONARY
  5
8B28B
330
8AF04
100
AcDbDictionary
280
     1
281
     1
  3
ACAD_XREC_ROUNDTRIP
360
8B28C
  0
DICTIONARY
  5
8B293
330
8AF08
100
AcDbDictionary
280
     1
281
     1
  3
ACAD_XREC_ROUNDTRIP
360
8B294
  0
DICTIONARY
  5
8B287
330
8AF02
100
AcDbDictionary
280
     1
281
     1
  3
ACAD_XREC_ROUNDTRIP
360
8B288
  0
DICTIONARY
  5
8B289
330
8AF03
100
AcDbDictionary
280
     1
281
     1
  3
ACAD_XREC_ROUNDTRIP
360
8B28A
  0
DICTIONARY
  5
8B299
330
8AF0B
100
AcDbDictionary
280
     1
281
     1
  3
ACAD_XREC_ROUNDTRIP
360
8B29A
  0
DICTIONARY
  5
8B291
330
8AF07
100
AcDbDictionary
280
     1
281
     1
  3
ACAD_XREC_ROUNDTRIP
360
8B292
  0
DICTIONARY
  5
8B275
330
8AEF9
100
AcDbDictionary
280
     1
281
     1
  3
ACAD_XREC_ROUNDTRIP
360
8B276
  0
DICTIONARY
  5
8B277
330
8AEFA
100
AcDbDictionary
280
     1
281
     1
  3
ACAD_XREC_ROUNDTRIP
360
8B278
  0
DICTIONARY
  5
8B279
330
8AEFB
100
AcDbDictionary
280
     1
281
     1
  3
ACAD_XREC_ROUNDTRIP
360
8B27A
  0
DICTIONARY
  5
8B27B
330
8AEFC
100
AcDbDictionary
280
     1
281
     1
  3
ACAD_XREC_ROUNDTRIP
360
8B27C
  0
DICTIONARY
  5
8B281
330
8AEFF
100
AcDbDictionary
280
     1
281
     1
  3
ACAD_XREC_ROUNDTRIP
360
8B282
  0
DICTIONARY
  5
8B295
330
8AF09
100
AcDbDictionary
280
     1
281
     1
  3
ACAD_XREC_ROUNDTRIP
360
8B296
  0
DICTIONARY
  5
8B28F
330
8AF06
100
AcDbDictionary
280
     1
281
     1
  3
ACAD_XREC_ROUNDTRIP
360
8B290
  0
DICTIONARY
  5
8B297
330
8AF0A
100
AcDbDictionary
280
     1
281
     1
  3
ACAD_XREC_ROUNDTRIP
360
8B298
  0
DICTIONARY
  5
8B285
330
8AF01
100
AcDbDictionary
280
     1
281
     1
  3
ACAD_XREC_ROUNDTRIP
360
8B286
  0
DICTIONARY
  5
8B2A3
330
8AF10
100
AcDbDictionary
280
     1
281
     1
  3
ACAD_XREC_ROUNDTRIP
360
8B2A4
  0
DICTIONARY
  5
8B2A1
330
8AF0F
100
AcDbDictionary
280
     1
281
     1
  3
ACAD_XREC_ROUNDTRIP
360
8B2A2
  0
DICTIONARY
  5
8B29B
330
8AF0C
100
AcDbDictionary
280
     1
281
     1
  3
ACAD_XREC_ROUNDTRIP
360
8B29C
  0
DICTIONARY
  5
8B29D
330
8AF0D
100
AcDbDictionary
280
     1
281
     1
  3
ACAD_XREC_ROUNDTRIP
360
8B29E
  0
DICTIONARY
  5
8B28D
330
8AF05
100
AcDbDictionary
280
     1
281
     1
  3
ACAD_XREC_ROUNDTRIP
360
8B28E
  0
DICTIONARY
  5
8B27F
330
8AEFE
100
AcDbDictionary
280
     1
281
     1
  3
ACAD_XREC_ROUNDTRIP
360
8B280
  0
DICTIONARY
  5
8B29F
330
8AF0E
100
AcDbDictionary
280
     1
281
     1
  3
ACAD_XREC_ROUNDTRIP
360
8B2A0
  0
XRECORD
  5
8B26A
102
{ACAD_REACTORS
330
8B271
102
}
330
8B271
100
AcDbXrecord
280
     1
  1
AcDb_Thumbnail_Schema
102
{ATTRRECORD
341
8B26C
  2
AcDbDs::TreatedAsObjectData
280
     1
291
     1
102
ATTRRECORD}
102
{ATTRRECORD
341
8B26D
  2
AcDbDs::Legacy
280
     1
291
     1
102
ATTRRECORD}
  2
AcDbDs::ID
280
    10
 91
        8
102
{ATTRRECORD
341
8B26E
  2
AcDs:Indexable
280
     1
291
     1
102
ATTRRECORD}
102
{ATTRRECORD
341
8B26F
  2
AcDbDs::HandleAttribute
280
     7
282
     1
102
ATTRRECORD}
  2
Thumbnail_Data
280
    15
 91
        0
  0
XRECORD
  5
8B26B
102
{ACAD_REACTORS
330
8B271
102
}
330
8B271
100
AcDbXrecord
280
     1
  1
AcDb3DSolid_ASM_Data
102
{ATTRRECORD
341
8B26C
  2
AcDbDs::TreatedAsObjectData
280
     1
291
     1
102
ATTRRECORD}
102
{ATTRRECORD
341
8B26D
  2
AcDbDs::Legacy
280
     1
291
     1
102
ATTRRECORD}
  2
AcDbDs::ID
280
    10
 91
        8
102
{ATTRRECORD
341
8B26E
  2
AcDs:Indexable
280
     1
291
     1
102
ATTRRECORD}
102
{ATTRRECORD
341
8B26F
  2
AcDbDs::HandleAttribute
280
     7
282
     1
102
ATTRRECORD}
  2
ASM_Data
280
    15
 91
        0
  0
XRECORD
  5
8B26C
102
{ACAD_REACTORS
330
8B271
102
}
330
8B271
100
AcDbXrecord
280
     1
  1
AcDbDs::TreatedAsObjectDataSchema
  2
AcDbDs::TreatedAsObjectData
280
     1
 91
        0
  0
XRECORD
  5
8B26D
102
{ACAD_REACTORS
330
8B271
102
}
330
8B271
100
AcDbXrecord
280
     1
  1
AcDbDs::LegacySchema
  2
AcDbDs::Legacy
280
     1
 91
        0
  0
XRECORD
  5
8B26E
102
{ACAD_REACTORS
330
8B271
102
}
330
8B271
100
AcDbXrecord
280
     1
  1
AcDbDs::IndexedPropertySchema
  2
AcDs:Indexable
280
     1
 91
        0
  0
XRECORD
  5
8B26F
102
{ACAD_REACTORS
330
8B271
102
}
330
8B271
100
AcDbXrecord
280
     1
  1
AcDbDs::HandleAttributeSchema
  2
AcDbDs::HandleAttribute
280
     7
 91
        1
284
     1
  0
XRECORD
  5
8B2B4
102
{ACAD_REACTORS
330
8B2B3
102
}
330
8B2B3
100
AcDbXrecord
280
     1
102
DISPLAYNAME
  1
Imperial24
102
FLAGS
 90
        0
  0
XRECORD
  5
8B274
102
{ACAD_REACTORS
330
8B273
102
}
330
8B273
100
AcDbXrecord
280
     1
102
SHADEPLOT
 70
     0
102
SHADEPLOTRESLEVEL
 70
     2
102
SHADEPLOTCUSTOMDPI
 70
   300
  0
XRECORD
  5
8B2AB
102
{ACAD_REACTORS
330
8B2AA
102
}
330
8B2AA
100
AcDbXrecord
280
     1
102
SHADEPLOT
 70
     0
102
SHADEPLOTRESLEVEL
 70
     2
102
SHADEPLOTCUSTOMDPI
 70
   300
  0
XRECORD
  5
8B2B0
102
{ACAD_REACTORS
330
8B2AF
102
}
330
8B2AF
100
AcDbXrecord
280
     1
102
MATERIAL
148
0.0
149
0.0
149
0.0
 93
        0
 94
      127
282
     0
 72
     0
 77
     0
171
     0
175
     0
179
     0
273
     0
  0
XRECORD
  5
8B2A6
102
{ACAD_REACTORS
330
8B2A5
102
}
330
8B2A5
100
AcDbXrecord
280
     1
102
MATERIAL
148
0.0
149
0.0
149
0.0
 93
        0
 94
      127
282
     0
 72
     1
 77
     1
171
     1
175
     1
179
     1
273
     0
  0
XRECORD
  5
8B2A8
102
{ACAD_REACTORS
330
8B2A7
102
}
330
8B2A7
100
AcDbXrecord
280
     1
102
MATERIAL
148
0.0
149
0.0
149
0.0
 93
        0
 94
      127
282
     0
 72
     1
 77
     1
171
     1
175
     1
179
     1
273
     0
  0
XRECORD
  5
8B2B2
102
{ACAD_REACTORS
330
8B2B1
102
}
330
8B2B1
100
AcDbXrecord
280
     1
102
DISPLAYNAME
  1
Imperial24
102
FLAGS
 90
        0
  0
CELLSTYLEMAP
  5
8B265
102
{ACAD_REACTORS
330
8B264
102
}
330
8B264
100
AcDbCellStyleMap
 90
        3
300
CELLSTYLE
  1
TABLEFORMAT_BEGIN
 90
        5
170
     1
 91
        0
 92
    32768
 62
   257
 93
        1
300
CONTENTFORMAT
  1
CONTENTFORMAT_BEGIN
 90
        0
 91
        0
 92
        4
 93
        0
300

 40
0.0
140
1.0
 94
        5
 62
     0
340
F
144
0.25
309
CONTENTFORMAT_END
171
     1
301
MARGIN
  1
CELLMARGIN_BEGIN
 40
0.06
 40
0.06
 40
0.06
 40
0.06
 40
0.06
 40
0.06
309
CELLMARGIN_END
 94
        6
 95
        1
302
GRIDFORMAT
  1
GRIDFORMAT_BEGIN
 90
        0
 91
        1
 62
     0
 92
       -2
340
12
 93
        0
 40
0.045
309
GRIDFORMAT_END
 95
        2
302
GRIDFORMAT
  1
GRIDFORMAT_BEGIN
 90
        0
 91
        1
 62
     0
 92
       -2
340
12
 93
        0
 40
0.045
309
GRIDFORMAT_END
 95
        4
302
GRIDFORMAT
  1
GRIDFORMAT_BEGIN
 90
        0
 91
        1
 62
     0
 92
       -2
340
12
 93
        0
 40
0.045
309
GRIDFORMAT_END
 95
        8
302
GRIDFORMAT
  1
GRIDFORMAT_BEGIN
 90
        0
 91
        1
 62
     0
 92
       -2
340
12
 93
        0
 40
0.045
309
GRIDFORMAT_END
 95
       16
302
GRIDFORMAT
  1
GRIDFORMAT_BEGIN
 90
        0
 91
        1
 62
     0
 92
       -2
340
12
 93
        0
 40
0.045
309
GRIDFORMAT_END
 95
       32
302
GRIDFORMAT
  1
GRIDFORMAT_BEGIN
 90
        0
 91
        1
 62
     0
 92
       -2
340
12
 93
        0
 40
0.045
309
GRIDFORMAT_END
309
TABLEFORMAT_END
  1
CELLSTYLE_BEGIN
 90
        1
 91
        1
300
_TITLE
309
CELLSTYLE_END
300
CELLSTYLE
  1
TABLEFORMAT_BEGIN
 90
        5
170
     1
 91
        0
 92
        0
 62
   257
 93
        1
300
CONTENTFORMAT
  1
CONTENTFORMAT_BEGIN
 90
        0
 91
        0
 92
        4
 93
        0
300

 40
0.0
140
1.0
 94
        5
 62
     0
340
F
144
0.18
309
CONTENTFORMAT_END
171
     1
301
MARGIN
  1
CELLMARGIN_BEGIN
 40
0.06
 40
0.06
 40
0.06
 40
0.06
 40
0.06
 40
0.06
309
CELLMARGIN_END
 94
        6
 95
        1
302
GRIDFORMAT
  1
GRIDFORMAT_BEGIN
 90
        0
 91
        1
 62
     0
 92
       -2
340
12
 93
        0
 40
0.045
309
GRIDFORMAT_END
 95
        2
302
GRIDFORMAT
  1
GRIDFORMAT_BEGIN
 90
        0
 91
        1
 62
     0
 92
       -2
340
12
 93
        0
 40
0.045
309
GRIDFORMAT_END
 95
        4
302
GRIDFORMAT
  1
GRIDFORMAT_BEGIN
 90
        0
 91
        1
 62
     0
 92
       -2
340
12
 93
        0
 40
0.045
309
GRIDFORMAT_END
 95
        8
302
GRIDFORMAT
  1
GRIDFORMAT_BEGIN
 90
        0
 91
        1
 62
     0
 92
       -2
340
12
 93
        0
 40
0.045
309
GRIDFORMAT_END
 95
       16
302
GRIDFORMAT
  1
GRIDFORMAT_BEGIN
 90
        0
 91
        1
 62
     0
 92
       -2
340
12
 93
        0
 40
0.045
309
GRIDFORMAT_END
 95
       32
302
GRIDFORMAT
  1
GRIDFORMAT_BEGIN
 90
        0
 91
        1
 62
     0
 92
       -2
340
12
 93
        0
 40
0.045
309
GRIDFORMAT_END
309
TABLEFORMAT_END
  1
CELLSTYLE_BEGIN
 90
        2
 91
        1
300
_HEADER
309
CELLSTYLE_END
300
CELLSTYLE
  1
TABLEFORMAT_BEGIN
 90
        5
170
     1
 91
        0
 92
        0
 62
   257
 93
        1
300
CONTENTFORMAT
  1
CONTENTFORMAT_BEGIN
 90
        0
 91
        0
 92
        4
 93
        0
300

 40
0.0
140
1.0
 94
        2
 62
     0
340
F
144
0.18
309
CONTENTFORMAT_END
171
     1
301
MARGIN
  1
CELLMARGIN_BEGIN
 40
0.06
 40
0.06
 40
0.06
 40
0.06
 40
0.06
 40
0.06
309
CELLMARGIN_END
 94
        6
 95
        1
302
GRIDFORMAT
  1
GRIDFORMAT_BEGIN
 90
        0
 91
        1
 62
     0
 92
       -2
340
12
 93
        0
 40
0.045
309
GRIDFORMAT_END
 95
        2
302
GRIDFORMAT
  1
GRIDFORMAT_BEGIN
 90
        0
 91
        1
 62
     0
 92
       -2
340
12
 93
        0
 40
0.045
309
GRIDFORMAT_END
 95
        4
302
GRIDFORMAT
  1
GRIDFORMAT_BEGIN
 90
        0
 91
        1
 62
     0
 92
       -2
340
12
 93
        0
 40
0.045
309
GRIDFORMAT_END
 95
        8
302
GRIDFORMAT
  1
GRIDFORMAT_BEGIN
 90
        0
 91
        1
 62
     0
 92
       -2
340
12
 93
        0
 40
0.045
309
GRIDFORMAT_END
 95
       16
302
GRIDFORMAT
  1
GRIDFORMAT_BEGIN
 90
        0
 91
        1
 62
     0
 92
       -2
340
12
 93
        0
 40
0.045
309
GRIDFORMAT_END
 95
       32
302
GRIDFORMAT
  1
GRIDFORMAT_BEGIN
 90
        0
 91
        1
 62
     0
 92
       -2
340
12
 93
        0
 40
0.045
309
GRIDFORMAT_END
309
TABLEFORMAT_END
  1
CELLSTYLE_BEGIN
 90
        3
 91
        2
300
_DATA
309
CELLSTYLE_END
  0
XRECORD
  5
8B2A9
102
{ACAD_REACTORS
330
8B264
102
}
330
8B264
100
AcDbXrecord
280
     1
102
ACAD_ROUNDTRIP_PRE2007_TABLESTYLE
 90
        4
 91
        0
  1

 92
        4
 93
        0
  2

 94
        4
 95
        0
  3

  0
XRECORD
  5
8B27E
102
{ACAD_REACTORS
330
8B27D
102
}
330
8B27D
100
AcDbXrecord
280
     1
102
RTVSPost2010Prop28
280
     1
102
RTVSPost2010PropOp28
 70
     1
102
RTVSPost2010Prop29
280
     1
102
RTVSPost2010PropOp29
 70
     1
102
RTVSPost2010Prop30
280
     0
102
RTVSPost2010PropOp30
 70
     1
102
RTVSPost2010Prop31
280
     0
102
RTVSPost2010PropOp31
 70
     1
102
RTVSPost2010Prop32
280
     0
102
RTVSPost2010PropOp32
 70
     1
102
RTVSPost2010Prop33
280
     0
102
RTVSPost2010PropOp33
 70
     1
102
RTVSPost2010Prop34
280
     0
102
RTVSPost2010PropOp34
 70
     1
102
RTVSPost2010Prop35
280
     0
102
RTVSPost2010PropOp35
 70
     1
102
RTVSPost2010Prop36
280
     0
102
RTVSPost2010PropOp36
 70
     1
102
RTVSPost2010Prop37
 90
       50
102
RTVSPost2010PropOp37
 70
     1
102
RTVSPost2010Prop38
140
0.0
102
RTVSPost2010PropOp38
 70
     1
102
RTVSPost2010Prop39
140
1.0
102
RTVSPost2010PropOp39
 70
     1
102
RTVSPost2010Prop40
 90
        0
102
RTVSPost2010PropOp40
 70
     1
102
RTVSPost2010Prop41ColorIndex
 90
       18
102
RTVSPost2010Prop41ColorRGB
 90
        0
102
RTVSPost2010PropOp41
 70
     1
102
RTVSPost2010Prop42
 90
       50
102
RTVSPost2010PropOp42
 70
     1
102
RTVSPost2010Prop43
 90
        3
102
RTVSPost2010PropOp43
 70
     1
102
RTVSPost2010Prop44ColorIndex
 90
        5
102
RTVSPost2010Prop44ColorRGB
 90
      255
102
RTVSPost2010PropOp44
 70
     1
102
RTVSPost2010Prop45
280
     0
102
RTVSPost2010PropOp45
 70
     1
102
RTVSPost2010Prop46
 90
       50
102
RTVSPost2010PropOp46
 70
     1
102
RTVSPost2010Prop47
 90
       50
102
RTVSPost2010PropOp47
 70
     1
102
RTVSPost2010Prop48
 90
       50
102
RTVSPost2010PropOp48
 70
     1
102
RTVSPost2010Prop49
280
     0
102
RTVSPost2010PropOp49
 70
     1
102
RTVSPost2010Prop50
 90
       50
102
RTVSPost2010PropOp50
 70
     1
102
RTVSPost2010Prop51ColorIndex
 90
      256
102
RTVSPost2010Prop51ColorRGB
 90
-16777216
102
RTVSPost2010PropOp51
 70
     0
102
RTVSPost2010Prop52
140
1.0
102
RTVSPost2010PropOp52
 70
     0
102
RTVSPost2010Prop53
 90
        2
102
RTVSPost2010PropOp53
 70
     1
102
RTVSPost2010Prop54
  1
strokes_ogs.tif
102
RTVSPost2010PropOp54
 70
     1
102
RTVSPost2010Prop55
280
     0
102
RTVSPost2010PropOp55
 70
     1
102
RTVSPost2010Prop56
140
1.0
102
RTVSPost2010PropOp56
 70
     1
102
RTVSPost2010Prop57
140
1.0
102
RTVSPost2010PropOp57
 70
     1
102
RTVSPropertyOp0
 70
     1
102
RTVSPropertyOp1
 70
     1
102
RTVSPropertyOp2
 70
     1
102
RTVSPropertyOp3
 70
     1
102
RTVSPropertyOp4
 70
     1
102
RTVSPropertyOp5
 70
     1
102
RTVSPropertyOp6
 70
     1
102
RTVSPropertyOp7
 70
     1
102
RTVSPropertyOp8
 70
     1
102
RTVSPropertyOp9
 70
     1
102
RTVSPropertyOp10
 70
     1
102
RTVSPropertyOp11
 70
     1
102
RTVSPropertyOp12
 70
     1
102
RTVSPropertyOp13
 70
     1
102
RTVSPropertyOp14
 70
     1
102
RTVSPropertyOp15
 70
     1
102
RTVSPropertyOp16
 70
     1
102
RTVSPropertyOp17
 70
     1
102
RTVSPropertyOp18
 70
     1
102
RTVSPropertyOp19
 70
     1
102
RTVSPropertyOp20
 70
     1
102
RTVSPropertyOp21
 70
     1
102
RTVSPropertyOp22
 70
     1
102
RTVSPropertyOp23
 70
     1
102
RTVSPropertyOp24
 70
     1
102
RTVSPropertyOp25
 70
     1
102
RTVSPropertyOp26
 70
     1
102
RTVSPropertyOp27
 70
     1
102
RTVSPropertyOp28
 70
     1
102
RTVSPropertyOp29
 70
     1
102
RTVSPropertyOp30
 70
     1
102
RTVSPropertyOp31
 70
     1
102
RTVSPropertyOp32
 70
     1
102
RTVSPropertyOp33
 70
     1
102
RTVSPropertyOp34
 70
     1
102
RTVSPropertyOp35
 70
     1
102
RTVSPropertyOp36
 70
     1
102
RTVSPropertyOp37
 70
     1
102
RTVSPropertyOp38
 70
     1
102
RTVSPropertyOp39
 70
     1
102
RTVSPropertyOp40
 70
     1
102
RTVSPropertyOp41
 70
     1
102
RTVSPropertyOp42
 70
     1
102
RTVSPropertyOp43
 70
     1
102
RTVSPropertyOp44
 70
     1
102
RTVSPropertyOp45
 70
     1
102
RTVSPropertyOp46
 70
     1
102
RTVSPropertyOp47
 70
     1
102
RTVSPropertyOp48
 70
     1
102
RTVSPropertyOp49
 70
     1
102
RTVSPropertyOp50
 70
     1
102
RTVSPropertyOp51
 70
     0
102
RTVSPropertyOp52
 70
     0
102
RTVSPropertyOp53
 70
     1
102
RTVSPropertyOp54
 70
     1
102
RTVSPropertyOp55
 70
     1
102
RTVSPropertyOp56
 70
     1
102
RTVSPropertyOp57
 70
     1
102
RTVSPropertyOp58
 70
     1
102
RTVSPropertyOp59
 70
     1
102
RTVSPropertyOp60
 70
     1
102
RTVSPropertyOp61
 70
     1
102
RTVSPropertyOp62
 70
     1
  0
XRECORD
  5
8B284
102
{ACAD_REACTORS
330
8B283
102
}
330
8B283
100
AcDbXrecord
280
     1
102
RTVSPost2010Prop28
280
     0
102
RTVSPost2010PropOp28
 70
     1
102
RTVSPost2010Prop29
280
     1
102
RTVSPost2010PropOp29
 70
     1
102
RTVSPost2010Prop30
280
     1
102
RTVSPost2010PropOp30
 70
     1
102
RTVSPost2010Prop31
280
     0
102
RTVSPost2010PropOp31
 70
     1
102
RTVSPost2010Prop32
280
     0
102
RTVSPost2010PropOp32
 70
     1
102
RTVSPost2010Prop33
280
     0
102
RTVSPost2010PropOp33
 70
     1
102
RTVSPost2010Prop34
280
     0
102
RTVSPost2010PropOp34
 70
     1
102
RTVSPost2010Prop35
280
     0
102
RTVSPost2010PropOp35
 70
     1
102
RTVSPost2010Prop36
280
     0
102
RTVSPost2010PropOp36
 70
     1
102
RTVSPost2010Prop37
 90
       50
102
RTVSPost2010PropOp37
 70
     1
102
RTVSPost2010Prop38
140
0.0
102
RTVSPost2010PropOp38
 70
     1
102
RTVSPost2010Prop39
140
1.0
102
RTVSPost2010PropOp39
 70
     1
102
RTVSPost2010Prop40
 90
        0
102
RTVSPost2010PropOp40
 70
     1
102
RTVSPost2010Prop41ColorIndex
 90
       18
102
RTVSPost2010Prop41ColorRGB
 90
        0
102
RTVSPost2010PropOp41
 70
     1
102
RTVSPost2010Prop42
 90
       50
102
RTVSPost2010PropOp42
 70
     1
102
RTVSPost2010Prop43
 90
        3
102
RTVSPost2010PropOp43
 70
     1
102
RTVSPost2010Prop44ColorIndex
 90
        5
102
RTVSPost2010Prop44ColorRGB
 90
      255
102
RTVSPost2010PropOp44
 70
     1
102
RTVSPost2010Prop45
280
     0
102
RTVSPost2010PropOp45
 70
     1
102
RTVSPost2010Prop46
 90
       50
102
RTVSPost2010PropOp46
 70
     1
102
RTVSPost2010Prop47
 90
       50
102
RTVSPost2010PropOp47
 70
     1
102
RTVSPost2010Prop48
 90
       50
102
RTVSPost2010PropOp48
 70
     1
102
RTVSPost2010Prop49
280
     0
102
RTVSPost2010PropOp49
 70
     1
102
RTVSPost2010Prop50
 90
       50
102
RTVSPost2010PropOp50
 70
     1
102
RTVSPost2010Prop51ColorIndex
 90
      256
102
RTVSPost2010Prop51ColorRGB
 90
-16777216
102
RTVSPost2010PropOp51
 70
     0
102
RTVSPost2010Prop52
140
1.0
102
RTVSPost2010PropOp52
 70
     0
102
RTVSPost2010Prop53
 90
        2
102
RTVSPost2010PropOp53
 70
     1
102
RTVSPost2010Prop54
  1
strokes_ogs.tif
102
RTVSPost2010PropOp54
 70
     1
102
RTVSPost2010Prop55
280
     0
102
RTVSPost2010PropOp55
 70
     1
102
RTVSPost2010Prop56
140
1.0
102
RTVSPost2010PropOp56
 70
     1
102
RTVSPost2010Prop57
140
1.0
102
RTVSPost2010PropOp57
 70
     1
102
RTVSPropertyOp0
 70
     1
102
RTVSPropertyOp1
 70
     1
102
RTVSPropertyOp2
 70
     1
102
RTVSPropertyOp3
 70
     1
102
RTVSPropertyOp4
 70
     1
102
RTVSPropertyOp5
 70
     1
102
RTVSPropertyOp6
 70
     1
102
RTVSPropertyOp7
 70
     1
102
RTVSPropertyOp8
 70
     1
102
RTVSPropertyOp9
 70
     1
102
RTVSPropertyOp10
 70
     1
102
RTVSPropertyOp11
 70
     1
102
RTVSPropertyOp12
 70
     1
102
RTVSPropertyOp13
 70
     1
102
RTVSPropertyOp14
 70
     1
102
RTVSPropertyOp15
 70
     1
102
RTVSPropertyOp16
 70
     1
102
RTVSPropertyOp17
 70
     1
102
RTVSPropertyOp18
 70
     1
102
RTVSPropertyOp19
 70
     1
102
RTVSPropertyOp20
 70
     1
102
RTVSPropertyOp21
 70
     1
102
RTVSPropertyOp22
 70
     1
102
RTVSPropertyOp23
 70
     1
102
RTVSPropertyOp24
 70
     1
102
RTVSPropertyOp25
 70
     1
102
RTVSPropertyOp26
 70
     1
102
RTVSPropertyOp27
 70
     1
102
RTVSPropertyOp28
 70
     1
102
RTVSPropertyOp29
 70
     1
102
RTVSPropertyOp30
 70
     1
102
RTVSPropertyOp31
 70
     1
102
RTVSPropertyOp32
 70
     1
102
RTVSPropertyOp33
 70
     1
102
RTVSPropertyOp34
 70
     1
102
RTVSPropertyOp35
 70
     1
102
RTVSPropertyOp36
 70
     1
102
RTVSPropertyOp37
 70
     1
102
RTVSPropertyOp38
 70
     1
102
RTVSPropertyOp39
 70
     1
102
RTVSPropertyOp40
 70
     1
102
RTVSPropertyOp41
 70
     1
102
RTVSPropertyOp42
 70
     1
102
RTVSPropertyOp43
 70
     1
102
RTVSPropertyOp44
 70
     1
102
RTVSPropertyOp45
 70
     1
102
RTVSPropertyOp46
 70
     1
102
RTVSPropertyOp47
 70
     1
102
RTVSPropertyOp48
 70
     1
102
RTVSPropertyOp49
 70
     1
102
RTVSPropertyOp50
 70
     1
102
RTVSPropertyOp51
 70
     0
102
RTVSPropertyOp52
 70
     0
102
RTVSPropertyOp53
 70
     1
102
RTVSPropertyOp54
 70
     1
102
RTVSPropertyOp55
 70
     1
102
RTVSPropertyOp56
 70
     1
102
RTVSPropertyOp57
 70
     1
102
RTVSPropertyOp58
 70
     1
102
RTVSPropertyOp59
 70
     1
102
RTVSPropertyOp60
 70
     1
102
RTVSPropertyOp61
 70
     1
102
RTVSPropertyOp62
 70
     1
  0
XRECORD
  5
8B28C
102
{ACAD_REACTORS
330
8B28B
102
}
330
8B28B
100
AcDbXrecord
280
     1
102
RTVSPost2010Prop28
280
     0
102
RTVSPost2010PropOp28
 70
     1
102
RTVSPost2010Prop29
280
     1
102
RTVSPost2010PropOp29
 70
     1
102
RTVSPost2010Prop30
280
     1
102
RTVSPost2010PropOp30
 70
     1
102
RTVSPost2010Prop31
280
     0
102
RTVSPost2010PropOp31
 70
     1
102
RTVSPost2010Prop32
280
     0
102
RTVSPost2010PropOp32
 70
     1
102
RTVSPost2010Prop33
280
     0
102
RTVSPost2010PropOp33
 70
     1
102
RTVSPost2010Prop34
280
     0
102
RTVSPost2010PropOp34
 70
     1
102
RTVSPost2010Prop35
280
     0
102
RTVSPost2010PropOp35
 70
     1
102
RTVSPost2010Prop36
280
     0
102
RTVSPost2010PropOp36
 70
     1
102
RTVSPost2010Prop37
 90
       50
102
RTVSPost2010PropOp37
 70
     1
102
RTVSPost2010Prop38
140
0.0
102
RTVSPost2010PropOp38
 70
     1
102
RTVSPost2010Prop39
140
1.0
102
RTVSPost2010PropOp39
 70
     1
102
RTVSPost2010Prop40
 90
        0
102
RTVSPost2010PropOp40
 70
     1
102
RTVSPost2010Prop41ColorIndex
 90
       18
102
RTVSPost2010Prop41ColorRGB
 90
        0
102
RTVSPost2010PropOp41
 70
     1
102
RTVSPost2010Prop42
 90
       50
102
RTVSPost2010PropOp42
 70
     1
102
RTVSPost2010Prop43
 90
        3
102
RTVSPost2010PropOp43
 70
     1
102
RTVSPost2010Prop44ColorIndex
 90
        5
102
RTVSPost2010Prop44ColorRGB
 90
      255
102
RTVSPost2010PropOp44
 70
     1
102
RTVSPost2010Prop45
280
     0
102
RTVSPost2010PropOp45
 70
     1
102
RTVSPost2010Prop46
 90
       50
102
RTVSPost2010PropOp46
 70
     1
102
RTVSPost2010Prop47
 90
       50
102
RTVSPost2010PropOp47
 70
     1
102
RTVSPost2010Prop48
 90
       50
102
RTVSPost2010PropOp48
 70
     1
102
RTVSPost2010Prop49
280
     0
102
RTVSPost2010PropOp49
 70
     1
102
RTVSPost2010Prop50
 90
       50
102
RTVSPost2010PropOp50
 70
     1
102
RTVSPost2010Prop51ColorIndex
 90
      256
102
RTVSPost2010Prop51ColorRGB
 90
-16777216
102
RTVSPost2010PropOp51
 70
     0
102
RTVSPost2010Prop52
140
1.0
102
RTVSPost2010PropOp52
 70
     0
102
RTVSPost2010Prop53
 90
        2
102
RTVSPost2010PropOp53
 70
     1
102
RTVSPost2010Prop54
  1
strokes_ogs.tif
102
RTVSPost2010PropOp54
 70
     1
102
RTVSPost2010Prop55
280
     0
102
RTVSPost2010PropOp55
 70
     1
102
RTVSPost2010Prop56
140
1.0
102
RTVSPost2010PropOp56
 70
     1
102
RTVSPost2010Prop57
140
1.0
102
RTVSPost2010PropOp57
 70
     1
102
RTVSPropertyOp0
 70
     1
102
RTVSPropertyOp1
 70
     1
102
RTVSPropertyOp2
 70
     1
102
RTVSPropertyOp3
 70
     1
102
RTVSPropertyOp4
 70
     1
102
RTVSPropertyOp5
 70
     1
102
RTVSPropertyOp6
 70
     1
102
RTVSPropertyOp7
 70
     1
102
RTVSPropertyOp8
 70
     1
102
RTVSPropertyOp9
 70
     1
102
RTVSPropertyOp10
 70
     1
102
RTVSPropertyOp11
 70
     1
102
RTVSPropertyOp12
 70
     1
102
RTVSPropertyOp13
 70
     1
102
RTVSPropertyOp14
 70
     1
102
RTVSPropertyOp15
 70
     1
102
RTVSPropertyOp16
 70
     1
102
RTVSPropertyOp17
 70
     1
102
RTVSPropertyOp18
 70
     1
102
RTVSPropertyOp19
 70
     1
102
RTVSPropertyOp20
 70
     1
102
RTVSPropertyOp21
 70
     1
102
RTVSPropertyOp22
 70
     1
102
RTVSPropertyOp23
 70
     1
102
RTVSPropertyOp24
 70
     1
102
RTVSPropertyOp25
 70
     1
102
RTVSPropertyOp26
 70
     1
102
RTVSPropertyOp27
 70
     1
102
RTVSPropertyOp28
 70
     1
102
RTVSPropertyOp29
 70
     1
102
RTVSPropertyOp30
 70
     1
102
RTVSPropertyOp31
 70
     1
102
RTVSPropertyOp32
 70
     1
102
RTVSPropertyOp33
 70
     1
102
RTVSPropertyOp34
 70
     1
102
RTVSPropertyOp35
 70
     1
102
RTVSPropertyOp36
 70
     1
102
RTVSPropertyOp37
 70
     1
102
RTVSPropertyOp38
 70
     1
102
RTVSPropertyOp39
 70
     1
102
RTVSPropertyOp40
 70
     1
102
RTVSPropertyOp41
 70
     1
102
RTVSPropertyOp42
 70
     1
102
RTVSPropertyOp43
 70
     1
102
RTVSPropertyOp44
 70
     1
102
RTVSPropertyOp45
 70
     1
102
RTVSPropertyOp46
 70
     1
102
RTVSPropertyOp47
 70
     1
102
RTVSPropertyOp48
 70
     1
102
RTVSPropertyOp49
 70
     1
102
RTVSPropertyOp50
 70
     1
102
RTVSPropertyOp51
 70
     0
102
RTVSPropertyOp52
 70
     0
102
RTVSPropertyOp53
 70
     1
102
RTVSPropertyOp54
 70
     1
102
RTVSPropertyOp55
 70
     1
102
RTVSPropertyOp56
 70
     1
102
RTVSPropertyOp57
 70
     1
102
RTVSPropertyOp58
 70
     1
102
RTVSPropertyOp59
 70
     1
102
RTVSPropertyOp60
 70
     1
102
RTVSPropertyOp61
 70
     1
102
RTVSPropertyOp62
 70
     1
  0
XRECORD
  5
8B294
102
{ACAD_REACTORS
330
8B293
102
}
330
8B293
100
AcDbXrecord
280
     1
102
RTVSPost2010Prop28
280
     0
102
RTVSPost2010PropOp28
 70
     1
102
RTVSPost2010Prop29
280
     1
102
RTVSPost2010PropOp29
 70
     1
102
RTVSPost2010Prop30
280
     1
102
RTVSPost2010PropOp30
 70
     1
102
RTVSPost2010Prop31
280
     0
102
RTVSPost2010PropOp31
 70
     1
102
RTVSPost2010Prop32
280
     0
102
RTVSPost2010PropOp32
 70
     1
102
RTVSPost2010Prop33
280
     0
102
RTVSPost2010PropOp33
 70
     1
102
RTVSPost2010Prop34
280
     0
102
RTVSPost2010PropOp34
 70
     1
102
RTVSPost2010Prop35
280
     0
102
RTVSPost2010PropOp35
 70
     1
102
RTVSPost2010Prop36
280
     0
102
RTVSPost2010PropOp36
 70
     1
102
RTVSPost2010Prop37
 90
       50
102
RTVSPost2010PropOp37
 70
     1
102
RTVSPost2010Prop38
140
0.0
102
RTVSPost2010PropOp38
 70
     1
102
RTVSPost2010Prop39
140
1.0
102
RTVSPost2010PropOp39
 70
     1
102
RTVSPost2010Prop40
 90
        0
102
RTVSPost2010PropOp40
 70
     1
102
RTVSPost2010Prop41ColorIndex
 90
       18
102
RTVSPost2010Prop41ColorRGB
 90
        0
102
RTVSPost2010PropOp41
 70
     1
102
RTVSPost2010Prop42
 90
       50
102
RTVSPost2010PropOp42
 70
     1
102
RTVSPost2010Prop43
 90
        3
102
RTVSPost2010PropOp43
 70
     1
102
RTVSPost2010Prop44ColorIndex
 90
        5
102
RTVSPost2010Prop44ColorRGB
 90
      255
102
RTVSPost2010PropOp44
 70
     1
102
RTVSPost2010Prop45
280
     0
102
RTVSPost2010PropOp45
 70
     1
102
RTVSPost2010Prop46
 90
       50
102
RTVSPost2010PropOp46
 70
     1
102
RTVSPost2010Prop47
 90
       50
102
RTVSPost2010PropOp47
 70
     1
102
RTVSPost2010Prop48
 90
       50
102
RTVSPost2010PropOp48
 70
     1
102
RTVSPost2010Prop49
280
     0
102
RTVSPost2010PropOp49
 70
     1
102
RTVSPost2010Prop50
 90
       50
102
RTVSPost2010PropOp50
 70
     1
102
RTVSPost2010Prop51ColorIndex
 90
      256
102
RTVSPost2010Prop51ColorRGB
 90
-16777216
102
RTVSPost2010PropOp51
 70
     0
102
RTVSPost2010Prop52
140
1.0
102
RTVSPost2010PropOp52
 70
     0
102
RTVSPost2010Prop53
 90
        2
102
RTVSPost2010PropOp53
 70
     1
102
RTVSPost2010Prop54
  1
strokes_ogs.tif
102
RTVSPost2010PropOp54
 70
     1
102
RTVSPost2010Prop55
280
     0
102
RTVSPost2010PropOp55
 70
     1
102
RTVSPost2010Prop56
140
1.0
102
RTVSPost2010PropOp56
 70
     1
102
RTVSPost2010Prop57
140
1.0
102
RTVSPost2010PropOp57
 70
     1
102
RTVSPropertyOp0
 70
     1
102
RTVSPropertyOp1
 70
     1
102
RTVSPropertyOp2
 70
     1
102
RTVSPropertyOp3
 70
     1
102
RTVSPropertyOp4
 70
     1
102
RTVSPropertyOp5
 70
     1
102
RTVSPropertyOp6
 70
     1
102
RTVSPropertyOp7
 70
     1
102
RTVSPropertyOp8
 70
     1
102
RTVSPropertyOp9
 70
     1
102
RTVSPropertyOp10
 70
     1
102
RTVSPropertyOp11
 70
     1
102
RTVSPropertyOp12
 70
     1
102
RTVSPropertyOp13
 70
     1
102
RTVSPropertyOp14
 70
     1
102
RTVSPropertyOp15
 70
     1
102
RTVSPropertyOp16
 70
     1
102
RTVSPropertyOp17
 70
     1
102
RTVSPropertyOp18
 70
     1
102
RTVSPropertyOp19
 70
     1
102
RTVSPropertyOp20
 70
     1
102
RTVSPropertyOp21
 70
     1
102
RTVSPropertyOp22
 70
     1
102
RTVSPropertyOp23
 70
     1
102
RTVSPropertyOp24
 70
     1
102
RTVSPropertyOp25
 70
     1
102
RTVSPropertyOp26
 70
     1
102
RTVSPropertyOp27
 70
     1
102
RTVSPropertyOp28
 70
     1
102
RTVSPropertyOp29
 70
     1
102
RTVSPropertyOp30
 70
     1
102
RTVSPropertyOp31
 70
     1
102
RTVSPropertyOp32
 70
     1
102
RTVSPropertyOp33
 70
     1
102
RTVSPropertyOp34
 70
     1
102
RTVSPropertyOp35
 70
     1
102
RTVSPropertyOp36
 70
     1
102
RTVSPropertyOp37
 70
     1
102
RTVSPropertyOp38
 70
     1
102
RTVSPropertyOp39
 70
     1
102
RTVSPropertyOp40
 70
     1
102
RTVSPropertyOp41
 70
     1
102
RTVSPropertyOp42
 70
     1
102
RTVSPropertyOp43
 70
     1
102
RTVSPropertyOp44
 70
     1
102
RTVSPropertyOp45
 70
     1
102
RTVSPropertyOp46
 70
     1
102
RTVSPropertyOp47
 70
     1
102
RTVSPropertyOp48
 70
     1
102
RTVSPropertyOp49
 70
     1
102
RTVSPropertyOp50
 70
     1
102
RTVSPropertyOp51
 70
     0
102
RTVSPropertyOp52
 70
     0
102
RTVSPropertyOp53
 70
     1
102
RTVSPropertyOp54
 70
     1
102
RTVSPropertyOp55
 70
     1
102
RTVSPropertyOp56
 70
     1
102
RTVSPropertyOp57
 70
     1
102
RTVSPropertyOp58
 70
     1
102
RTVSPropertyOp59
 70
     1
102
RTVSPropertyOp60
 70
     1
102
RTVSPropertyOp61
 70
     1
102
RTVSPropertyOp62
 70
     1
  0
XRECORD
  5
8B288
102
{ACAD_REACTORS
330
8B287
102
}
330
8B287
100
AcDbXrecord
280
     1
102
RTVSPost2010Prop28
280
     0
102
RTVSPost2010PropOp28
 70
     1
102
RTVSPost2010Prop29
280
     1
102
RTVSPost2010PropOp29
 70
     1
102
RTVSPost2010Prop30
280
     1
102
RTVSPost2010PropOp30
 70
     1
102
RTVSPost2010Prop31
280
     0
102
RTVSPost2010PropOp31
 70
     1
102
RTVSPost2010Prop32
280
     0
102
RTVSPost2010PropOp32
 70
     1
102
RTVSPost2010Prop33
280
     0
102
RTVSPost2010PropOp33
 70
     1
102
RTVSPost2010Prop34
280
     0
102
RTVSPost2010PropOp34
 70
     1
102
RTVSPost2010Prop35
280
     0
102
RTVSPost2010PropOp35
 70
     1
102
RTVSPost2010Prop36
280
     0
102
RTVSPost2010PropOp36
 70
     1
102
RTVSPost2010Prop37
 90
       50
102
RTVSPost2010PropOp37
 70
     1
102
RTVSPost2010Prop38
140
0.0
102
RTVSPost2010PropOp38
 70
     1
102
RTVSPost2010Prop39
140
1.0
102
RTVSPost2010PropOp39
 70
     1
102
RTVSPost2010Prop40
 90
        0
102
RTVSPost2010PropOp40
 70
     1
102
RTVSPost2010Prop41ColorIndex
 90
       18
102
RTVSPost2010Prop41ColorRGB
 90
        0
102
RTVSPost2010PropOp41
 70
     1
102
RTVSPost2010Prop42
 90
       50
102
RTVSPost2010PropOp42
 70
     1
102
RTVSPost2010Prop43
 90
        3
102
RTVSPost2010PropOp43
 70
     1
102
RTVSPost2010Prop44ColorIndex
 90
        5
102
RTVSPost2010Prop44ColorRGB
 90
      255
102
RTVSPost2010PropOp44
 70
     1
102
RTVSPost2010Prop45
280
     0
102
RTVSPost2010PropOp45
 70
     1
102
RTVSPost2010Prop46
 90
       50
102
RTVSPost2010PropOp46
 70
     1
102
RTVSPost2010Prop47
 90
       50
102
RTVSPost2010PropOp47
 70
     1
102
RTVSPost2010Prop48
 90
       50
102
RTVSPost2010PropOp48
 70
     1
102
RTVSPost2010Prop49
280
     0
102
RTVSPost2010PropOp49
 70
     1
102
RTVSPost2010Prop50
 90
       50
102
RTVSPost2010PropOp50
 70
     1
102
RTVSPost2010Prop51ColorIndex
 90
      256
102
RTVSPost2010Prop51ColorRGB
 90
-16777216
102
RTVSPost2010PropOp51
 70
     0
102
RTVSPost2010Prop52
140
1.0
102
RTVSPost2010PropOp52
 70
     0
102
RTVSPost2010Prop53
 90
        2
102
RTVSPost2010PropOp53
 70
     1
102
RTVSPost2010Prop54
  1
strokes_ogs.tif
102
RTVSPost2010PropOp54
 70
     1
102
RTVSPost2010Prop55
280
     0
102
RTVSPost2010PropOp55
 70
     1
102
RTVSPost2010Prop56
140
1.0
102
RTVSPost2010PropOp56
 70
     1
102
RTVSPost2010Prop57
140
1.0
102
RTVSPost2010PropOp57
 70
     1
102
RTVSPropertyOp0
 70
     1
102
RTVSPropertyOp1
 70
     1
102
RTVSPropertyOp2
 70
     1
102
RTVSPropertyOp3
 70
     1
102
RTVSPropertyOp4
 70
     1
102
RTVSPropertyOp5
 70
     1
102
RTVSPropertyOp6
 70
     1
102
RTVSPropertyOp7
 70
     1
102
RTVSPropertyOp8
 70
     1
102
RTVSPropertyOp9
 70
     1
102
RTVSPropertyOp10
 70
     1
102
RTVSPropertyOp11
 70
     1
102
RTVSPropertyOp12
 70
     1
102
RTVSPropertyOp13
 70
     1
102
RTVSPropertyOp14
 70
     1
102
RTVSPropertyOp15
 70
     1
102
RTVSPropertyOp16
 70
     1
102
RTVSPropertyOp17
 70
     1
102
RTVSPropertyOp18
 70
     1
102
RTVSPropertyOp19
 70
     1
102
RTVSPropertyOp20
 70
     1
102
RTVSPropertyOp21
 70
     1
102
RTVSPropertyOp22
 70
     1
102
RTVSPropertyOp23
 70
     1
102
RTVSPropertyOp24
 70
     1
102
RTVSPropertyOp25
 70
     1
102
RTVSPropertyOp26
 70
     1
102
RTVSPropertyOp27
 70
     1
102
RTVSPropertyOp28
 70
     1
102
RTVSPropertyOp29
 70
     1
102
RTVSPropertyOp30
 70
     1
102
RTVSPropertyOp31
 70
     1
102
RTVSPropertyOp32
 70
     1
102
RTVSPropertyOp33
 70
     1
102
RTVSPropertyOp34
 70
     1
102
RTVSPropertyOp35
 70
     1
102
RTVSPropertyOp36
 70
     1
102
RTVSPropertyOp37
 70
     1
102
RTVSPropertyOp38
 70
     1
102
RTVSPropertyOp39
 70
     1
102
RTVSPropertyOp40
 70
     1
102
RTVSPropertyOp41
 70
     1
102
RTVSPropertyOp42
 70
     1
102
RTVSPropertyOp43
 70
     1
102
RTVSPropertyOp44
 70
     1
102
RTVSPropertyOp45
 70
     1
102
RTVSPropertyOp46
 70
     1
102
RTVSPropertyOp47
 70
     1
102
RTVSPropertyOp48
 70
     1
102
RTVSPropertyOp49
 70
     1
102
RTVSPropertyOp50
 70
     1
102
RTVSPropertyOp51
 70
     0
102
RTVSPropertyOp52
 70
     0
102
RTVSPropertyOp53
 70
     1
102
RTVSPropertyOp54
 70
     1
102
RTVSPropertyOp55
 70
     1
102
RTVSPropertyOp56
 70
     1
102
RTVSPropertyOp57
 70
     1
102
RTVSPropertyOp58
 70
     1
102
RTVSPropertyOp59
 70
     1
102
RTVSPropertyOp60
 70
     1
102
RTVSPropertyOp61
 70
     1
102
RTVSPropertyOp62
 70
     1
  0
XRECORD
  5
8B28A
102
{ACAD_REACTORS
330
8B289
102
}
330
8B289
100
AcDbXrecord
280
     1
102
RTVSPost2010Prop28
280
     0
102
RTVSPost2010PropOp28
 70
     1
102
RTVSPost2010Prop29
280
     1
102
RTVSPost2010PropOp29
 70
     1
102
RTVSPost2010Prop30
280
     1
102
RTVSPost2010PropOp30
 70
     1
102
RTVSPost2010Prop31
280
     0
102
RTVSPost2010PropOp31
 70
     1
102
RTVSPost2010Prop32
280
     0
102
RTVSPost2010PropOp32
 70
     1
102
RTVSPost2010Prop33
280
     0
102
RTVSPost2010PropOp33
 70
     1
102
RTVSPost2010Prop34
280
     0
102
RTVSPost2010PropOp34
 70
     1
102
RTVSPost2010Prop35
280
     0
102
RTVSPost2010PropOp35
 70
     1
102
RTVSPost2010Prop36
280
     0
102
RTVSPost2010PropOp36
 70
     1
102
RTVSPost2010Prop37
 90
       50
102
RTVSPost2010PropOp37
 70
     1
102
RTVSPost2010Prop38
140
0.0
102
RTVSPost2010PropOp38
 70
     1
102
RTVSPost2010Prop39
140
1.0
102
RTVSPost2010PropOp39
 70
     1
102
RTVSPost2010Prop40
 90
        0
102
RTVSPost2010PropOp40
 70
     1
102
RTVSPost2010Prop41ColorIndex
 90
       18
102
RTVSPost2010Prop41ColorRGB
 90
        0
102
RTVSPost2010PropOp41
 70
     1
102
RTVSPost2010Prop42
 90
       50
102
RTVSPost2010PropOp42
 70
     1
102
RTVSPost2010Prop43
 90
        3
102
RTVSPost2010PropOp43
 70
     1
102
RTVSPost2010Prop44ColorIndex
 90
        5
102
RTVSPost2010Prop44ColorRGB
 90
      255
102
RTVSPost2010PropOp44
 70
     1
102
RTVSPost2010Prop45
280
     0
102
RTVSPost2010PropOp45
 70
     1
102
RTVSPost2010Prop46
 90
       50
102
RTVSPost2010PropOp46
 70
     1
102
RTVSPost2010Prop47
 90
       50
102
RTVSPost2010PropOp47
 70
     1
102
RTVSPost2010Prop48
 90
       50
102
RTVSPost2010PropOp48
 70
     1
102
RTVSPost2010Prop49
280
     0
102
RTVSPost2010PropOp49
 70
     1
102
RTVSPost2010Prop50
 90
       50
102
RTVSPost2010PropOp50
 70
     1
102
RTVSPost2010Prop51ColorIndex
 90
      256
102
RTVSPost2010Prop51ColorRGB
 90
-16777216
102
RTVSPost2010PropOp51
 70
     0
102
RTVSPost2010Prop52
140
1.0
102
RTVSPost2010PropOp52
 70
     0
102
RTVSPost2010Prop53
 90
        2
102
RTVSPost2010PropOp53
 70
     1
102
RTVSPost2010Prop54
  1
strokes_ogs.tif
102
RTVSPost2010PropOp54
 70
     1
102
RTVSPost2010Prop55
280
     0
102
RTVSPost2010PropOp55
 70
     1
102
RTVSPost2010Prop56
140
1.0
102
RTVSPost2010PropOp56
 70
     1
102
RTVSPost2010Prop57
140
1.0
102
RTVSPost2010PropOp57
 70
     1
102
RTVSPropertyOp0
 70
     1
102
RTVSPropertyOp1
 70
     1
102
RTVSPropertyOp2
 70
     1
102
RTVSPropertyOp3
 70
     1
102
RTVSPropertyOp4
 70
     1
102
RTVSPropertyOp5
 70
     1
102
RTVSPropertyOp6
 70
     1
102
RTVSPropertyOp7
 70
     1
102
RTVSPropertyOp8
 70
     1
102
RTVSPropertyOp9
 70
     1
102
RTVSPropertyOp10
 70
     1
102
RTVSPropertyOp11
 70
     1
102
RTVSPropertyOp12
 70
     1
102
RTVSPropertyOp13
 70
     1
102
RTVSPropertyOp14
 70
     1
102
RTVSPropertyOp15
 70
     1
102
RTVSPropertyOp16
 70
     1
102
RTVSPropertyOp17
 70
     1
102
RTVSPropertyOp18
 70
     1
102
RTVSPropertyOp19
 70
     1
102
RTVSPropertyOp20
 70
     1
102
RTVSPropertyOp21
 70
     1
102
RTVSPropertyOp22
 70
     1
102
RTVSPropertyOp23
 70
     1
102
RTVSPropertyOp24
 70
     1
102
RTVSPropertyOp25
 70
     1
102
RTVSPropertyOp26
 70
     1
102
RTVSPropertyOp27
 70
     1
102
RTVSPropertyOp28
 70
     1
102
RTVSPropertyOp29
 70
     1
102
RTVSPropertyOp30
 70
     1
102
RTVSPropertyOp31
 70
     1
102
RTVSPropertyOp32
 70
     1
102
RTVSPropertyOp33
 70
     1
102
RTVSPropertyOp34
 70
     1
102
RTVSPropertyOp35
 70
     1
102
RTVSPropertyOp36
 70
     1
102
RTVSPropertyOp37
 70
     1
102
RTVSPropertyOp38
 70
     1
102
RTVSPropertyOp39
 70
     1
102
RTVSPropertyOp40
 70
     1
102
RTVSPropertyOp41
 70
     1
102
RTVSPropertyOp42
 70
     1
102
RTVSPropertyOp43
 70
     1
102
RTVSPropertyOp44
 70
     1
102
RTVSPropertyOp45
 70
     1
102
RTVSPropertyOp46
 70
     1
102
RTVSPropertyOp47
 70
     1
102
RTVSPropertyOp48
 70
     1
102
RTVSPropertyOp49
 70
     1
102
RTVSPropertyOp50
 70
     1
102
RTVSPropertyOp51
 70
     0
102
RTVSPropertyOp52
 70
     0
102
RTVSPropertyOp53
 70
     1
102
RTVSPropertyOp54
 70
     1
102
RTVSPropertyOp55
 70
     1
102
RTVSPropertyOp56
 70
     1
102
RTVSPropertyOp57
 70
     1
102
RTVSPropertyOp58
 70
     1
102
RTVSPropertyOp59
 70
     1
102
RTVSPropertyOp60
 70
     1
102
RTVSPropertyOp61
 70
     1
102
RTVSPropertyOp62
 70
     1
  0
XRECORD
  5
8B29A
102
{ACAD_REACTORS
330
8B299
102
}
330
8B299
100
AcDbXrecord
280
     1
102
RTVSPost2010Prop28
280
     0
102
RTVSPost2010PropOp28
 70
     0
102
RTVSPost2010Prop29
280
     1
102
RTVSPost2010PropOp29
 70
     0
102
RTVSPost2010Prop30
280
     1
102
RTVSPost2010PropOp30
 70
     0
102
RTVSPost2010Prop31
280
     0
102
RTVSPost2010PropOp31
 70
     0
102
RTVSPost2010Prop32
280
     0
102
RTVSPost2010PropOp32
 70
     0
102
RTVSPost2010Prop33
280
     0
102
RTVSPost2010PropOp33
 70
     0
102
RTVSPost2010Prop34
280
     0
102
RTVSPost2010PropOp34
 70
     0
102
RTVSPost2010Prop35
280
     0
102
RTVSPost2010PropOp35
 70
     0
102
RTVSPost2010Prop36
280
     0
102
RTVSPost2010PropOp36
 70
     0
102
RTVSPost2010Prop37
 90
       50
102
RTVSPost2010PropOp37
 70
     0
102
RTVSPost2010Prop38
140
0.0
102
RTVSPost2010PropOp38
 70
     0
102
RTVSPost2010Prop39
140
1.0
102
RTVSPost2010PropOp39
 70
     0
102
RTVSPost2010Prop40
 90
        0
102
RTVSPost2010PropOp40
 70
     0
102
RTVSPost2010Prop41ColorIndex
 90
       18
102
RTVSPost2010Prop41ColorRGB
 90
        0
102
RTVSPost2010PropOp41
 70
     0
102
RTVSPost2010Prop42
 90
       50
102
RTVSPost2010PropOp42
 70
     0
102
RTVSPost2010Prop43
 90
        3
102
RTVSPost2010PropOp43
 70
     0
102
RTVSPost2010Prop44ColorIndex
 90
        5
102
RTVSPost2010Prop44ColorRGB
 90
      255
102
RTVSPost2010PropOp44
 70
     0
102
RTVSPost2010Prop45
280
     0
102
RTVSPost2010PropOp45
 70
     0
102
RTVSPost2010Prop46
 90
       50
102
RTVSPost2010PropOp46
 70
     0
102
RTVSPost2010Prop47
 90
       50
102
RTVSPost2010PropOp47
 70
     0
102
RTVSPost2010Prop48
 90
       50
102
RTVSPost2010PropOp48
 70
     0
102
RTVSPost2010Prop49
280
     0
102
RTVSPost2010PropOp49
 70
     0
102
RTVSPost2010Prop50
 90
       50
102
RTVSPost2010PropOp50
 70
     0
102
RTVSPost2010Prop51ColorIndex
 90
      256
102
RTVSPost2010Prop51ColorRGB
 90
-16777216
102
RTVSPost2010PropOp51
 70
     0
102
RTVSPost2010Prop52
140
1.0
102
RTVSPost2010PropOp52
 70
     0
102
RTVSPost2010Prop53
 90
        2
102
RTVSPost2010PropOp53
 70
     0
102
RTVSPost2010Prop54
  1
strokes_ogs.tif
102
RTVSPost2010PropOp54
 70
     0
102
RTVSPost2010Prop55
280
     0
102
RTVSPost2010PropOp55
 70
     0
102
RTVSPost2010Prop56
140
1.0
102
RTVSPost2010PropOp56
 70
     0
102
RTVSPost2010Prop57
140
1.0
102
RTVSPost2010PropOp57
 70
     0
102
RTVSPropertyOp0
 70
     0
102
RTVSPropertyOp1
 70
     0
102
RTVSPropertyOp2
 70
     0
102
RTVSPropertyOp3
 70
     0
102
RTVSPropertyOp4
 70
     0
102
RTVSPropertyOp5
 70
     0
102
RTVSPropertyOp6
 70
     0
102
RTVSPropertyOp7
 70
     0
102
RTVSPropertyOp8
 70
     0
102
RTVSPropertyOp9
 70
     0
102
RTVSPropertyOp10
 70
     0
102
RTVSPropertyOp11
 70
     0
102
RTVSPropertyOp12
 70
     0
102
RTVSPropertyOp13
 70
     0
102
RTVSPropertyOp14
 70
     2
102
RTVSPropertyOp15
 70
     0
102
RTVSPropertyOp16
 70
     0
102
RTVSPropertyOp17
 70
     0
102
RTVSPropertyOp18
 70
     0
102
RTVSPropertyOp19
 70
     0
102
RTVSPropertyOp20
 70
     0
102
RTVSPropertyOp21
 70
     0
102
RTVSPropertyOp22
 70
     0
102
RTVSPropertyOp23
 70
     0
102
RTVSPropertyOp24
 70
     0
102
RTVSPropertyOp25
 70
     0
102
RTVSPropertyOp26
 70
     0
102
RTVSPropertyOp27
 70
     0
102
RTVSPropertyOp28
 70
     0
102
RTVSPropertyOp29
 70
     0
102
RTVSPropertyOp30
 70
     0
102
RTVSPropertyOp31
 70
     0
102
RTVSPropertyOp32
 70
     0
102
RTVSPropertyOp33
 70
     0
102
RTVSPropertyOp34
 70
     0
102
RTVSPropertyOp35
 70
     0
102
RTVSPropertyOp36
 70
     0
102
RTVSPropertyOp37
 70
     0
102
RTVSPropertyOp38
 70
     0
102
RTVSPropertyOp39
 70
     0
102
RTVSPropertyOp40
 70
     0
102
RTVSPropertyOp41
 70
     0
102
RTVSPropertyOp42
 70
     0
102
RTVSPropertyOp43
 70
     0
102
RTVSPropertyOp44
 70
     0
102
RTVSPropertyOp45
 70
     0
102
RTVSPropertyOp46
 70
     0
102
RTVSPropertyOp47
 70
     0
102
RTVSPropertyOp48
 70
     0
102
RTVSPropertyOp49
 70
     0
102
RTVSPropertyOp50
 70
     0
102
RTVSPropertyOp51
 70
     0
102
RTVSPropertyOp52
 70
     0
102
RTVSPropertyOp53
 70
     0
102
RTVSPropertyOp54
 70
     0
102
RTVSPropertyOp55
 70
     0
102
RTVSPropertyOp56
 70
     0
102
RTVSPropertyOp57
 70
     0
102
RTVSPropertyOp58
 70
     1
102
RTVSPropertyOp59
 70
     1
102
RTVSPropertyOp60
 70
     1
102
RTVSPropertyOp61
 70
     1
102
RTVSPropertyOp62
 70
     1
  0
XRECORD
  5
8B292
102
{ACAD_REACTORS
330
8B291
102
}
330
8B291
100
AcDbXrecord
280
     1
102
RTVSPost2010Prop28
280
     0
102
RTVSPost2010PropOp28
 70
     1
102
RTVSPost2010Prop29
280
     1
102
RTVSPost2010PropOp29
 70
     1
102
RTVSPost2010Prop30
280
     1
102
RTVSPost2010PropOp30
 70
     1
102
RTVSPost2010Prop31
280
     0
102
RTVSPost2010PropOp31
 70
     1
102
RTVSPost2010Prop32
280
     0
102
RTVSPost2010PropOp32
 70
     1
102
RTVSPost2010Prop33
280
     0
102
RTVSPost2010PropOp33
 70
     1
102
RTVSPost2010Prop34
280
     0
102
RTVSPost2010PropOp34
 70
     1
102
RTVSPost2010Prop35
280
     0
102
RTVSPost2010PropOp35
 70
     1
102
RTVSPost2010Prop36
280
     0
102
RTVSPost2010PropOp36
 70
     1
102
RTVSPost2010Prop37
 90
       50
102
RTVSPost2010PropOp37
 70
     1
102
RTVSPost2010Prop38
140
0.0
102
RTVSPost2010PropOp38
 70
     1
102
RTVSPost2010Prop39
140
1.0
102
RTVSPost2010PropOp39
 70
     1
102
RTVSPost2010Prop40
 90
        0
102
RTVSPost2010PropOp40
 70
     1
102
RTVSPost2010Prop41ColorIndex
 90
       18
102
RTVSPost2010Prop41ColorRGB
 90
        0
102
RTVSPost2010PropOp41
 70
     1
102
RTVSPost2010Prop42
 90
       50
102
RTVSPost2010PropOp42
 70
     1
102
RTVSPost2010Prop43
 90
        3
102
RTVSPost2010PropOp43
 70
     1
102
RTVSPost2010Prop44ColorIndex
 90
        5
102
RTVSPost2010Prop44ColorRGB
 90
      255
102
RTVSPost2010PropOp44
 70
     1
102
RTVSPost2010Prop45
280
     0
102
RTVSPost2010PropOp45
 70
     1
102
RTVSPost2010Prop46
 90
       50
102
RTVSPost2010PropOp46
 70
     1
102
RTVSPost2010Prop47
 90
       50
102
RTVSPost2010PropOp47
 70
     1
102
RTVSPost2010Prop48
 90
       50
102
RTVSPost2010PropOp48
 70
     1
102
RTVSPost2010Prop49
280
     0
102
RTVSPost2010PropOp49
 70
     1
102
RTVSPost2010Prop50
 90
       50
102
RTVSPost2010PropOp50
 70
     1
102
RTVSPost2010Prop51ColorIndex
 90
      256
102
RTVSPost2010Prop51ColorRGB
 90
-16777216
102
RTVSPost2010PropOp51
 70
     0
102
RTVSPost2010Prop52
140
1.0
102
RTVSPost2010PropOp52
 70
     0
102
RTVSPost2010Prop53
 90
        2
102
RTVSPost2010PropOp53
 70
     1
102
RTVSPost2010Prop54
  1
strokes_ogs.tif
102
RTVSPost2010PropOp54
 70
     1
102
RTVSPost2010Prop55
280
     0
102
RTVSPost2010PropOp55
 70
     1
102
RTVSPost2010Prop56
140
1.0
102
RTVSPost2010PropOp56
 70
     1
102
RTVSPost2010Prop57
140
1.0
102
RTVSPost2010PropOp57
 70
     1
102
RTVSPropertyOp0
 70
     1
102
RTVSPropertyOp1
 70
     1
102
RTVSPropertyOp2
 70
     1
102
RTVSPropertyOp3
 70
     1
102
RTVSPropertyOp4
 70
     1
102
RTVSPropertyOp5
 70
     1
102
RTVSPropertyOp6
 70
     1
102
RTVSPropertyOp7
 70
     1
102
RTVSPropertyOp8
 70
     1
102
RTVSPropertyOp9
 70
     1
102
RTVSPropertyOp10
 70
     1
102
RTVSPropertyOp11
 70
     1
102
RTVSPropertyOp12
 70
     1
102
RTVSPropertyOp13
 70
     1
102
RTVSPropertyOp14
 70
     1
102
RTVSPropertyOp15
 70
     1
102
RTVSPropertyOp16
 70
     1
102
RTVSPropertyOp17
 70
     1
102
RTVSPropertyOp18
 70
     1
102
RTVSPropertyOp19
 70
     1
102
RTVSPropertyOp20
 70
     1
102
RTVSPropertyOp21
 70
     1
102
RTVSPropertyOp22
 70
     1
102
RTVSPropertyOp23
 70
     1
102
RTVSPropertyOp24
 70
     1
102
RTVSPropertyOp25
 70
     1
102
RTVSPropertyOp26
 70
     1
102
RTVSPropertyOp27
 70
     1
102
RTVSPropertyOp28
 70
     1
102
RTVSPropertyOp29
 70
     1
102
RTVSPropertyOp30
 70
     1
102
RTVSPropertyOp31
 70
     1
102
RTVSPropertyOp32
 70
     1
102
RTVSPropertyOp33
 70
     1
102
RTVSPropertyOp34
 70
     1
102
RTVSPropertyOp35
 70
     1
102
RTVSPropertyOp36
 70
     1
102
RTVSPropertyOp37
 70
     1
102
RTVSPropertyOp38
 70
     1
102
RTVSPropertyOp39
 70
     1
102
RTVSPropertyOp40
 70
     1
102
RTVSPropertyOp41
 70
     1
102
RTVSPropertyOp42
 70
     1
102
RTVSPropertyOp43
 70
     1
102
RTVSPropertyOp44
 70
     1
102
RTVSPropertyOp45
 70
     1
102
RTVSPropertyOp46
 70
     1
102
RTVSPropertyOp47
 70
     1
102
RTVSPropertyOp48
 70
     1
102
RTVSPropertyOp49
 70
     1
102
RTVSPropertyOp50
 70
     1
102
RTVSPropertyOp51
 70
     0
102
RTVSPropertyOp52
 70
     0
102
RTVSPropertyOp53
 70
     1
102
RTVSPropertyOp54
 70
     1
102
RTVSPropertyOp55
 70
     1
102
RTVSPropertyOp56
 70
     1
102
RTVSPropertyOp57
 70
     1
102
RTVSPropertyOp58
 70
     1
102
RTVSPropertyOp59
 70
     1
102
RTVSPropertyOp60
 70
     1
102
RTVSPropertyOp61
 70
     1
102
RTVSPropertyOp62
 70
     1
  0
XRECORD
  5
8B276
102
{ACAD_REACTORS
330
8B275
102
}
330
8B275
100
AcDbXrecord
280
     1
102
RTVSPost2010Prop28
280
     0
102
RTVSPost2010PropOp28
 70
     1
102
RTVSPost2010Prop29
280
     1
102
RTVSPost2010PropOp29
 70
     1
102
RTVSPost2010Prop30
280
     1
102
RTVSPost2010PropOp30
 70
     1
102
RTVSPost2010Prop31
280
     0
102
RTVSPost2010PropOp31
 70
     1
102
RTVSPost2010Prop32
280
     0
102
RTVSPost2010PropOp32
 70
     1
102
RTVSPost2010Prop33
280
     0
102
RTVSPost2010PropOp33
 70
     1
102
RTVSPost2010Prop34
280
     0
102
RTVSPost2010PropOp34
 70
     1
102
RTVSPost2010Prop35
280
     0
102
RTVSPost2010PropOp35
 70
     1
102
RTVSPost2010Prop36
280
     0
102
RTVSPost2010PropOp36
 70
     1
102
RTVSPost2010Prop37
 90
       50
102
RTVSPost2010PropOp37
 70
     1
102
RTVSPost2010Prop38
140
0.0
102
RTVSPost2010PropOp38
 70
     1
102
RTVSPost2010Prop39
140
1.0
102
RTVSPost2010PropOp39
 70
     1
102
RTVSPost2010Prop40
 90
        0
102
RTVSPost2010PropOp40
 70
     1
102
RTVSPost2010Prop41ColorIndex
 90
       18
102
RTVSPost2010Prop41ColorRGB
 90
        0
102
RTVSPost2010PropOp41
 70
     1
102
RTVSPost2010Prop42
 90
       50
102
RTVSPost2010PropOp42
 70
     1
102
RTVSPost2010Prop43
 90
        3
102
RTVSPost2010PropOp43
 70
     1
102
RTVSPost2010Prop44ColorIndex
 90
        5
102
RTVSPost2010Prop44ColorRGB
 90
      255
102
RTVSPost2010PropOp44
 70
     1
102
RTVSPost2010Prop45
280
     0
102
RTVSPost2010PropOp45
 70
     1
102
RTVSPost2010Prop46
 90
       50
102
RTVSPost2010PropOp46
 70
     1
102
RTVSPost2010Prop47
 90
       50
102
RTVSPost2010PropOp47
 70
     1
102
RTVSPost2010Prop48
 90
       50
102
RTVSPost2010PropOp48
 70
     1
102
RTVSPost2010Prop49
280
     0
102
RTVSPost2010PropOp49
 70
     1
102
RTVSPost2010Prop50
 90
       50
102
RTVSPost2010PropOp50
 70
     1
102
RTVSPost2010Prop51ColorIndex
 90
      256
102
RTVSPost2010Prop51ColorRGB
 90
-16777216
102
RTVSPost2010PropOp51
 70
     0
102
RTVSPost2010Prop52
140
1.0
102
RTVSPost2010PropOp52
 70
     0
102
RTVSPost2010Prop53
 90
        2
102
RTVSPost2010PropOp53
 70
     1
102
RTVSPost2010Prop54
  1
strokes_ogs.tif
102
RTVSPost2010PropOp54
 70
     1
102
RTVSPost2010Prop55
280
     0
102
RTVSPost2010PropOp55
 70
     1
102
RTVSPost2010Prop56
140
1.0
102
RTVSPost2010PropOp56
 70
     1
102
RTVSPost2010Prop57
140
1.0
102
RTVSPost2010PropOp57
 70
     1
102
RTVSPropertyOp0
 70
     1
102
RTVSPropertyOp1
 70
     1
102
RTVSPropertyOp2
 70
     1
102
RTVSPropertyOp3
 70
     1
102
RTVSPropertyOp4
 70
     1
102
RTVSPropertyOp5
 70
     1
102
RTVSPropertyOp6
 70
     1
102
RTVSPropertyOp7
 70
     1
102
RTVSPropertyOp8
 70
     1
102
RTVSPropertyOp9
 70
     1
102
RTVSPropertyOp10
 70
     1
102
RTVSPropertyOp11
 70
     1
102
RTVSPropertyOp12
 70
     1
102
RTVSPropertyOp13
 70
     1
102
RTVSPropertyOp14
 70
     1
102
RTVSPropertyOp15
 70
     1
102
RTVSPropertyOp16
 70
     1
102
RTVSPropertyOp17
 70
     1
102
RTVSPropertyOp18
 70
     1
102
RTVSPropertyOp19
 70
     1
102
RTVSPropertyOp20
 70
     1
102
RTVSPropertyOp21
 70
     1
102
RTVSPropertyOp22
 70
     1
102
RTVSPropertyOp23
 70
     1
102
RTVSPropertyOp24
 70
     1
102
RTVSPropertyOp25
 70
     1
102
RTVSPropertyOp26
 70
     1
102
RTVSPropertyOp27
 70
     1
102
RTVSPropertyOp28
 70
     1
102
RTVSPropertyOp29
 70
     1
102
RTVSPropertyOp30
 70
     1
102
RTVSPropertyOp31
 70
     1
102
RTVSPropertyOp32
 70
     1
102
RTVSPropertyOp33
 70
     1
102
RTVSPropertyOp34
 70
     1
102
RTVSPropertyOp35
 70
     1
102
RTVSPropertyOp36
 70
     1
102
RTVSPropertyOp37
 70
     1
102
RTVSPropertyOp38
 70
     1
102
RTVSPropertyOp39
 70
     1
102
RTVSPropertyOp40
 70
     1
102
RTVSPropertyOp41
 70
     1
102
RTVSPropertyOp42
 70
     1
102
RTVSPropertyOp43
 70
     1
102
RTVSPropertyOp44
 70
     1
102
RTVSPropertyOp45
 70
     1
102
RTVSPropertyOp46
 70
     1
102
RTVSPropertyOp47
 70
     1
102
RTVSPropertyOp48
 70
     1
102
RTVSPropertyOp49
 70
     1
102
RTVSPropertyOp50
 70
     1
102
RTVSPropertyOp51
 70
     0
102
RTVSPropertyOp52
 70
     0
102
RTVSPropertyOp53
 70
     1
102
RTVSPropertyOp54
 70
     1
102
RTVSPropertyOp55
 70
     1
102
RTVSPropertyOp56
 70
     1
102
RTVSPropertyOp57
 70
     1
102
RTVSPropertyOp58
 70
     1
102
RTVSPropertyOp59
 70
     1
102
RTVSPropertyOp60
 70
     1
102
RTVSPropertyOp61
 70
     1
102
RTVSPropertyOp62
 70
     1
  0
XRECORD
  5
8B278
102
{ACAD_REACTORS
330
8B277
102
}
330
8B277
100
AcDbXrecord
280
     1
102
RTVSPost2010Prop28
280
     0
102
RTVSPost2010PropOp28
 70
     1
102
RTVSPost2010Prop29
280
     1
102
RTVSPost2010PropOp29
 70
     1
102
RTVSPost2010Prop30
280
     1
102
RTVSPost2010PropOp30
 70
     1
102
RTVSPost2010Prop31
280
     0
102
RTVSPost2010PropOp31
 70
     1
102
RTVSPost2010Prop32
280
     0
102
RTVSPost2010PropOp32
 70
     1
102
RTVSPost2010Prop33
280
     0
102
RTVSPost2010PropOp33
 70
     1
102
RTVSPost2010Prop34
280
     0
102
RTVSPost2010PropOp34
 70
     1
102
RTVSPost2010Prop35
280
     0
102
RTVSPost2010PropOp35
 70
     1
102
RTVSPost2010Prop36
280
     0
102
RTVSPost2010PropOp36
 70
     1
102
RTVSPost2010Prop37
 90
       50
102
RTVSPost2010PropOp37
 70
     1
102
RTVSPost2010Prop38
140
0.0
102
RTVSPost2010PropOp38
 70
     1
102
RTVSPost2010Prop39
140
1.0
102
RTVSPost2010PropOp39
 70
     1
102
RTVSPost2010Prop40
 90
        0
102
RTVSPost2010PropOp40
 70
     1
102
RTVSPost2010Prop41ColorIndex
 90
       18
102
RTVSPost2010Prop41ColorRGB
 90
        0
102
RTVSPost2010PropOp41
 70
     1
102
RTVSPost2010Prop42
 90
       50
102
RTVSPost2010PropOp42
 70
     1
102
RTVSPost2010Prop43
 90
        3
102
RTVSPost2010PropOp43
 70
     1
102
RTVSPost2010Prop44ColorIndex
 90
        5
102
RTVSPost2010Prop44ColorRGB
 90
      255
102
RTVSPost2010PropOp44
 70
     1
102
RTVSPost2010Prop45
280
     0
102
RTVSPost2010PropOp45
 70
     1
102
RTVSPost2010Prop46
 90
       50
102
RTVSPost2010PropOp46
 70
     1
102
RTVSPost2010Prop47
 90
       50
102
RTVSPost2010PropOp47
 70
     1
102
RTVSPost2010Prop48
 90
       50
102
RTVSPost2010PropOp48
 70
     1
102
RTVSPost2010Prop49
280
     0
102
RTVSPost2010PropOp49
 70
     1
102
RTVSPost2010Prop50
 90
       50
102
RTVSPost2010PropOp50
 70
     1
102
RTVSPost2010Prop51ColorIndex
 90
      256
102
RTVSPost2010Prop51ColorRGB
 90
-16777216
102
RTVSPost2010PropOp51
 70
     0
102
RTVSPost2010Prop52
140
1.0
102
RTVSPost2010PropOp52
 70
     0
102
RTVSPost2010Prop53
 90
        2
102
RTVSPost2010PropOp53
 70
     1
102
RTVSPost2010Prop54
  1
strokes_ogs.tif
102
RTVSPost2010PropOp54
 70
     1
102
RTVSPost2010Prop55
280
     0
102
RTVSPost2010PropOp55
 70
     1
102
RTVSPost2010Prop56
140
1.0
102
RTVSPost2010PropOp56
 70
     1
102
RTVSPost2010Prop57
140
1.0
102
RTVSPost2010PropOp57
 70
     1
102
RTVSPropertyOp0
 70
     1
102
RTVSPropertyOp1
 70
     1
102
RTVSPropertyOp2
 70
     1
102
RTVSPropertyOp3
 70
     1
102
RTVSPropertyOp4
 70
     1
102
RTVSPropertyOp5
 70
     1
102
RTVSPropertyOp6
 70
     1
102
RTVSPropertyOp7
 70
     1
102
RTVSPropertyOp8
 70
     1
102
RTVSPropertyOp9
 70
     1
102
RTVSPropertyOp10
 70
     1
102
RTVSPropertyOp11
 70
     1
102
RTVSPropertyOp12
 70
     1
102
RTVSPropertyOp13
 70
     1
102
RTVSPropertyOp14
 70
     1
102
RTVSPropertyOp15
 70
     1
102
RTVSPropertyOp16
 70
     1
102
RTVSPropertyOp17
 70
     1
102
RTVSPropertyOp18
 70
     1
102
RTVSPropertyOp19
 70
     1
102
RTVSPropertyOp20
 70
     1
102
RTVSPropertyOp21
 70
     1
102
RTVSPropertyOp22
 70
     1
102
RTVSPropertyOp23
 70
     1
102
RTVSPropertyOp24
 70
     1
102
RTVSPropertyOp25
 70
     1
102
RTVSPropertyOp26
 70
     1
102
RTVSPropertyOp27
 70
     1
102
RTVSPropertyOp28
 70
     1
102
RTVSPropertyOp29
 70
     1
102
RTVSPropertyOp30
 70
     1
102
RTVSPropertyOp31
 70
     1
102
RTVSPropertyOp32
 70
     1
102
RTVSPropertyOp33
 70
     1
102
RTVSPropertyOp34
 70
     1
102
RTVSPropertyOp35
 70
     1
102
RTVSPropertyOp36
 70
     1
102
RTVSPropertyOp37
 70
     1
102
RTVSPropertyOp38
 70
     1
102
RTVSPropertyOp39
 70
     1
102
RTVSPropertyOp40
 70
     1
102
RTVSPropertyOp41
 70
     1
102
RTVSPropertyOp42
 70
     1
102
RTVSPropertyOp43
 70
     1
102
RTVSPropertyOp44
 70
     1
102
RTVSPropertyOp45
 70
     1
102
RTVSPropertyOp46
 70
     1
102
RTVSPropertyOp47
 70
     1
102
RTVSPropertyOp48
 70
     1
102
RTVSPropertyOp49
 70
     1
102
RTVSPropertyOp50
 70
     1
102
RTVSPropertyOp51
 70
     0
102
RTVSPropertyOp52
 70
     0
102
RTVSPropertyOp53
 70
     1
102
RTVSPropertyOp54
 70
     1
102
RTVSPropertyOp55
 70
     1
102
RTVSPropertyOp56
 70
     1
102
RTVSPropertyOp57
 70
     1
102
RTVSPropertyOp58
 70
     1
102
RTVSPropertyOp59
 70
     1
102
RTVSPropertyOp60
 70
     1
102
RTVSPropertyOp61
 70
     1
102
RTVSPropertyOp62
 70
     1
  0
XRECORD
  5
8B27A
102
{ACAD_REACTORS
330
8B279
102
}
330
8B279
100
AcDbXrecord
280
     1
102
RTVSPost2010Prop28
280
     0
102
RTVSPost2010PropOp28
 70
     1
102
RTVSPost2010Prop29
280
     1
102
RTVSPost2010PropOp29
 70
     1
102
RTVSPost2010Prop30
280
     1
102
RTVSPost2010PropOp30
 70
     1
102
RTVSPost2010Prop31
280
     0
102
RTVSPost2010PropOp31
 70
     1
102
RTVSPost2010Prop32
280
     0
102
RTVSPost2010PropOp32
 70
     1
102
RTVSPost2010Prop33
280
     0
102
RTVSPost2010PropOp33
 70
     1
102
RTVSPost2010Prop34
280
     0
102
RTVSPost2010PropOp34
 70
     1
102
RTVSPost2010Prop35
280
     0
102
RTVSPost2010PropOp35
 70
     1
102
RTVSPost2010Prop36
280
     0
102
RTVSPost2010PropOp36
 70
     1
102
RTVSPost2010Prop37
 90
       50
102
RTVSPost2010PropOp37
 70
     1
102
RTVSPost2010Prop38
140
0.0
102
RTVSPost2010PropOp38
 70
     1
102
RTVSPost2010Prop39
140
1.0
102
RTVSPost2010PropOp39
 70
     1
102
RTVSPost2010Prop40
 90
        0
102
RTVSPost2010PropOp40
 70
     1
102
RTVSPost2010Prop41ColorIndex
 90
       18
102
RTVSPost2010Prop41ColorRGB
 90
        0
102
RTVSPost2010PropOp41
 70
     1
102
RTVSPost2010Prop42
 90
       50
102
RTVSPost2010PropOp42
 70
     1
102
RTVSPost2010Prop43
 90
        3
102
RTVSPost2010PropOp43
 70
     1
102
RTVSPost2010Prop44ColorIndex
 90
        5
102
RTVSPost2010Prop44ColorRGB
 90
      255
102
RTVSPost2010PropOp44
 70
     1
102
RTVSPost2010Prop45
280
     0
102
RTVSPost2010PropOp45
 70
     1
102
RTVSPost2010Prop46
 90
       50
102
RTVSPost2010PropOp46
 70
     1
102
RTVSPost2010Prop47
 90
       50
102
RTVSPost2010PropOp47
 70
     1
102
RTVSPost2010Prop48
 90
       50
102
RTVSPost2010PropOp48
 70
     1
102
RTVSPost2010Prop49
280
     0
102
RTVSPost2010PropOp49
 70
     1
102
RTVSPost2010Prop50
 90
       50
102
RTVSPost2010PropOp50
 70
     1
102
RTVSPost2010Prop51ColorIndex
 90
      256
102
RTVSPost2010Prop51ColorRGB
 90
-16777216
102
RTVSPost2010PropOp51
 70
     0
102
RTVSPost2010Prop52
140
1.0
102
RTVSPost2010PropOp52
 70
     0
102
RTVSPost2010Prop53
 90
        2
102
RTVSPost2010PropOp53
 70
     1
102
RTVSPost2010Prop54
  1
strokes_ogs.tif
102
RTVSPost2010PropOp54
 70
     1
102
RTVSPost2010Prop55
280
     0
102
RTVSPost2010PropOp55
 70
     1
102
RTVSPost2010Prop56
140
1.0
102
RTVSPost2010PropOp56
 70
     1
102
RTVSPost2010Prop57
140
1.0
102
RTVSPost2010PropOp57
 70
     1
102
RTVSPropertyOp0
 70
     1
102
RTVSPropertyOp1
 70
     1
102
RTVSPropertyOp2
 70
     1
102
RTVSPropertyOp3
 70
     1
102
RTVSPropertyOp4
 70
     1
102
RTVSPropertyOp5
 70
     1
102
RTVSPropertyOp6
 70
     1
102
RTVSPropertyOp7
 70
     1
102
RTVSPropertyOp8
 70
     1
102
RTVSPropertyOp9
 70
     1
102
RTVSPropertyOp10
 70
     1
102
RTVSPropertyOp11
 70
     1
102
RTVSPropertyOp12
 70
     1
102
RTVSPropertyOp13
 70
     1
102
RTVSPropertyOp14
 70
     1
102
RTVSPropertyOp15
 70
     1
102
RTVSPropertyOp16
 70
     1
102
RTVSPropertyOp17
 70
     1
102
RTVSPropertyOp18
 70
     1
102
RTVSPropertyOp19
 70
     1
102
RTVSPropertyOp20
 70
     1
102
RTVSPropertyOp21
 70
     1
102
RTVSPropertyOp22
 70
     1
102
RTVSPropertyOp23
 70
     1
102
RTVSPropertyOp24
 70
     1
102
RTVSPropertyOp25
 70
     1
102
RTVSPropertyOp26
 70
     1
102
RTVSPropertyOp27
 70
     1
102
RTVSPropertyOp28
 70
     1
102
RTVSPropertyOp29
 70
     1
102
RTVSPropertyOp30
 70
     1
102
RTVSPropertyOp31
 70
     1
102
RTVSPropertyOp32
 70
     1
102
RTVSPropertyOp33
 70
     1
102
RTVSPropertyOp34
 70
     1
102
RTVSPropertyOp35
 70
     1
102
RTVSPropertyOp36
 70
     1
102
RTVSPropertyOp37
 70
     1
102
RTVSPropertyOp38
 70
     1
102
RTVSPropertyOp39
 70
     1
102
RTVSPropertyOp40
 70
     1
102
RTVSPropertyOp41
 70
     1
102
RTVSPropertyOp42
 70
     1
102
RTVSPropertyOp43
 70
     1
102
RTVSPropertyOp44
 70
     1
102
RTVSPropertyOp45
 70
     1
102
RTVSPropertyOp46
 70
     1
102
RTVSPropertyOp47
 70
     1
102
RTVSPropertyOp48
 70
     1
102
RTVSPropertyOp49
 70
     1
102
RTVSPropertyOp50
 70
     1
102
RTVSPropertyOp51
 70
     0
102
RTVSPropertyOp52
 70
     0
102
RTVSPropertyOp53
 70
     1
102
RTVSPropertyOp54
 70
     1
102
RTVSPropertyOp55
 70
     1
102
RTVSPropertyOp56
 70
     1
102
RTVSPropertyOp57
 70
     1
102
RTVSPropertyOp58
 70
     1
102
RTVSPropertyOp59
 70
     1
102
RTVSPropertyOp60
 70
     1
102
RTVSPropertyOp61
 70
     1
102
RTVSPropertyOp62
 70
     1
  0
XRECORD
  5
8B27C
102
{ACAD_REACTORS
330
8B27B
102
}
330
8B27B
100
AcDbXrecord
280
     1
102
RTVSPost2010Prop28
280
     0
102
RTVSPost2010PropOp28
 70
     1
102
RTVSPost2010Prop29
280
     1
102
RTVSPost2010PropOp29
 70
     1
102
RTVSPost2010Prop30
280
     1
102
RTVSPost2010PropOp30
 70
     1
102
RTVSPost2010Prop31
280
     0
102
RTVSPost2010PropOp31
 70
     1
102
RTVSPost2010Prop32
280
     0
102
RTVSPost2010PropOp32
 70
     1
102
RTVSPost2010Prop33
280
     0
102
RTVSPost2010PropOp33
 70
     1
102
RTVSPost2010Prop34
280
     0
102
RTVSPost2010PropOp34
 70
     1
102
RTVSPost2010Prop35
280
     0
102
RTVSPost2010PropOp35
 70
     1
102
RTVSPost2010Prop36
280
     0
102
RTVSPost2010PropOp36
 70
     1
102
RTVSPost2010Prop37
 90
       50
102
RTVSPost2010PropOp37
 70
     1
102
RTVSPost2010Prop38
140
0.0
102
RTVSPost2010PropOp38
 70
     1
102
RTVSPost2010Prop39
140
1.0
102
RTVSPost2010PropOp39
 70
     1
102
RTVSPost2010Prop40
 90
        0
102
RTVSPost2010PropOp40
 70
     1
102
RTVSPost2010Prop41ColorIndex
 90
       18
102
RTVSPost2010Prop41ColorRGB
 90
        0
102
RTVSPost2010PropOp41
 70
     1
102
RTVSPost2010Prop42
 90
       50
102
RTVSPost2010PropOp42
 70
     1
102
RTVSPost2010Prop43
 90
        3
102
RTVSPost2010PropOp43
 70
     1
102
RTVSPost2010Prop44ColorIndex
 90
        5
102
RTVSPost2010Prop44ColorRGB
 90
      255
102
RTVSPost2010PropOp44
 70
     1
102
RTVSPost2010Prop45
280
     0
102
RTVSPost2010PropOp45
 70
     1
102
RTVSPost2010Prop46
 90
       50
102
RTVSPost2010PropOp46
 70
     1
102
RTVSPost2010Prop47
 90
       50
102
RTVSPost2010PropOp47
 70
     1
102
RTVSPost2010Prop48
 90
       50
102
RTVSPost2010PropOp48
 70
     1
102
RTVSPost2010Prop49
280
     0
102
RTVSPost2010PropOp49
 70
     1
102
RTVSPost2010Prop50
 90
       50
102
RTVSPost2010PropOp50
 70
     1
102
RTVSPost2010Prop51ColorIndex
 90
      256
102
RTVSPost2010Prop51ColorRGB
 90
-16777216
102
RTVSPost2010PropOp51
 70
     0
102
RTVSPost2010Prop52
140
1.0
102
RTVSPost2010PropOp52
 70
     0
102
RTVSPost2010Prop53
 90
        2
102
RTVSPost2010PropOp53
 70
     1
102
RTVSPost2010Prop54
  1
strokes_ogs.tif
102
RTVSPost2010PropOp54
 70
     1
102
RTVSPost2010Prop55
280
     0
102
RTVSPost2010PropOp55
 70
     1
102
RTVSPost2010Prop56
140
1.0
102
RTVSPost2010PropOp56
 70
     1
102
RTVSPost2010Prop57
140
1.0
102
RTVSPost2010PropOp57
 70
     1
102
RTVSPropertyOp0
 70
     1
102
RTVSPropertyOp1
 70
     1
102
RTVSPropertyOp2
 70
     1
102
RTVSPropertyOp3
 70
     1
102
RTVSPropertyOp4
 70
     1
102
RTVSPropertyOp5
 70
     1
102
RTVSPropertyOp6
 70
     1
102
RTVSPropertyOp7
 70
     1
102
RTVSPropertyOp8
 70
     1
102
RTVSPropertyOp9
 70
     1
102
RTVSPropertyOp10
 70
     1
102
RTVSPropertyOp11
 70
     1
102
RTVSPropertyOp12
 70
     1
102
RTVSPropertyOp13
 70
     1
102
RTVSPropertyOp14
 70
     1
102
RTVSPropertyOp15
 70
     1
102
RTVSPropertyOp16
 70
     1
102
RTVSPropertyOp17
 70
     1
102
RTVSPropertyOp18
 70
     1
102
RTVSPropertyOp19
 70
     1
102
RTVSPropertyOp20
 70
     1
102
RTVSPropertyOp21
 70
     1
102
RTVSPropertyOp22
 70
     1
102
RTVSPropertyOp23
 70
     1
102
RTVSPropertyOp24
 70
     1
102
RTVSPropertyOp25
 70
     1
102
RTVSPropertyOp26
 70
     1
102
RTVSPropertyOp27
 70
     1
102
RTVSPropertyOp28
 70
     1
102
RTVSPropertyOp29
 70
     1
102
RTVSPropertyOp30
 70
     1
102
RTVSPropertyOp31
 70
     1
102
RTVSPropertyOp32
 70
     1
102
RTVSPropertyOp33
 70
     1
102
RTVSPropertyOp34
 70
     1
102
RTVSPropertyOp35
 70
     1
102
RTVSPropertyOp36
 70
     1
102
RTVSPropertyOp37
 70
     1
102
RTVSPropertyOp38
 70
     1
102
RTVSPropertyOp39
 70
     1
102
RTVSPropertyOp40
 70
     1
102
RTVSPropertyOp41
 70
     1
102
RTVSPropertyOp42
 70
     1
102
RTVSPropertyOp43
 70
     1
102
RTVSPropertyOp44
 70
     1
102
RTVSPropertyOp45
 70
     1
102
RTVSPropertyOp46
 70
     1
102
RTVSPropertyOp47
 70
     1
102
RTVSPropertyOp48
 70
     1
102
RTVSPropertyOp49
 70
     1
102
RTVSPropertyOp50
 70
     1
102
RTVSPropertyOp51
 70
     0
102
RTVSPropertyOp52
 70
     0
102
RTVSPropertyOp53
 70
     1
102
RTVSPropertyOp54
 70
     1
102
RTVSPropertyOp55
 70
     1
102
RTVSPropertyOp56
 70
     1
102
RTVSPropertyOp57
 70
     1
102
RTVSPropertyOp58
 70
     1
102
RTVSPropertyOp59
 70
     1
102
RTVSPropertyOp60
 70
     1
102
RTVSPropertyOp61
 70
     1
102
RTVSPropertyOp62
 70
     1
  0
XRECORD
  5
8B282
102
{ACAD_REACTORS
330
8B281
102
}
330
8B281
100
AcDbXrecord
280
     1
102
RTVSPost2010Prop28
280
     0
102
RTVSPost2010PropOp28
 70
     1
102
RTVSPost2010Prop29
280
     1
102
RTVSPost2010PropOp29
 70
     1
102
RTVSPost2010Prop30
280
     1
102
RTVSPost2010PropOp30
 70
     1
102
RTVSPost2010Prop31
280
     0
102
RTVSPost2010PropOp31
 70
     1
102
RTVSPost2010Prop32
280
     0
102
RTVSPost2010PropOp32
 70
     1
102
RTVSPost2010Prop33
280
     0
102
RTVSPost2010PropOp33
 70
     1
102
RTVSPost2010Prop34
280
     0
102
RTVSPost2010PropOp34
 70
     1
102
RTVSPost2010Prop35
280
     0
102
RTVSPost2010PropOp35
 70
     1
102
RTVSPost2010Prop36
280
     0
102
RTVSPost2010PropOp36
 70
     1
102
RTVSPost2010Prop37
 90
       50
102
RTVSPost2010PropOp37
 70
     1
102
RTVSPost2010Prop38
140
0.0
102
RTVSPost2010PropOp38
 70
     1
102
RTVSPost2010Prop39
140
1.0
102
RTVSPost2010PropOp39
 70
     1
102
RTVSPost2010Prop40
 90
        0
102
RTVSPost2010PropOp40
 70
     1
102
RTVSPost2010Prop41ColorIndex
 90
       18
102
RTVSPost2010Prop41ColorRGB
 90
        0
102
RTVSPost2010PropOp41
 70
     1
102
RTVSPost2010Prop42
 90
       50
102
RTVSPost2010PropOp42
 70
     1
102
RTVSPost2010Prop43
 90
        3
102
RTVSPost2010PropOp43
 70
     1
102
RTVSPost2010Prop44ColorIndex
 90
        5
102
RTVSPost2010Prop44ColorRGB
 90
      255
102
RTVSPost2010PropOp44
 70
     1
102
RTVSPost2010Prop45
280
     0
102
RTVSPost2010PropOp45
 70
     1
102
RTVSPost2010Prop46
 90
       50
102
RTVSPost2010PropOp46
 70
     1
102
RTVSPost2010Prop47
 90
       50
102
RTVSPost2010PropOp47
 70
     1
102
RTVSPost2010Prop48
 90
       50
102
RTVSPost2010PropOp48
 70
     1
102
RTVSPost2010Prop49
280
     0
102
RTVSPost2010PropOp49
 70
     1
102
RTVSPost2010Prop50
 90
       50
102
RTVSPost2010PropOp50
 70
     1
102
RTVSPost2010Prop51ColorIndex
 90
      256
102
RTVSPost2010Prop51ColorRGB
 90
-16777216
102
RTVSPost2010PropOp51
 70
     0
102
RTVSPost2010Prop52
140
1.0
102
RTVSPost2010PropOp52
 70
     0
102
RTVSPost2010Prop53
 90
        2
102
RTVSPost2010PropOp53
 70
     1
102
RTVSPost2010Prop54
  1
strokes_ogs.tif
102
RTVSPost2010PropOp54
 70
     1
102
RTVSPost2010Prop55
280
     0
102
RTVSPost2010PropOp55
 70
     1
102
RTVSPost2010Prop56
140
1.0
102
RTVSPost2010PropOp56
 70
     1
102
RTVSPost2010Prop57
140
1.0
102
RTVSPost2010PropOp57
 70
     1
102
RTVSPropertyOp0
 70
     1
102
RTVSPropertyOp1
 70
     1
102
RTVSPropertyOp2
 70
     1
102
RTVSPropertyOp3
 70
     1
102
RTVSPropertyOp4
 70
     1
102
RTVSPropertyOp5
 70
     1
102
RTVSPropertyOp6
 70
     1
102
RTVSPropertyOp7
 70
     1
102
RTVSPropertyOp8
 70
     1
102
RTVSPropertyOp9
 70
     1
102
RTVSPropertyOp10
 70
     1
102
RTVSPropertyOp11
 70
     1
102
RTVSPropertyOp12
 70
     1
102
RTVSPropertyOp13
 70
     1
102
RTVSPropertyOp14
 70
     1
102
RTVSPropertyOp15
 70
     1
102
RTVSPropertyOp16
 70
     1
102
RTVSPropertyOp17
 70
     1
102
RTVSPropertyOp18
 70
     1
102
RTVSPropertyOp19
 70
     1
102
RTVSPropertyOp20
 70
     1
102
RTVSPropertyOp21
 70
     1
102
RTVSPropertyOp22
 70
     1
102
RTVSPropertyOp23
 70
     1
102
RTVSPropertyOp24
 70
     1
102
RTVSPropertyOp25
 70
     1
102
RTVSPropertyOp26
 70
     1
102
RTVSPropertyOp27
 70
     1
102
RTVSPropertyOp28
 70
     1
102
RTVSPropertyOp29
 70
     1
102
RTVSPropertyOp30
 70
     1
102
RTVSPropertyOp31
 70
     1
102
RTVSPropertyOp32
 70
     1
102
RTVSPropertyOp33
 70
     1
102
RTVSPropertyOp34
 70
     1
102
RTVSPropertyOp35
 70
     1
102
RTVSPropertyOp36
 70
     1
102
RTVSPropertyOp37
 70
     1
102
RTVSPropertyOp38
 70
     1
102
RTVSPropertyOp39
 70
     1
102
RTVSPropertyOp40
 70
     1
102
RTVSPropertyOp41
 70
     1
102
RTVSPropertyOp42
 70
     1
102
RTVSPropertyOp43
 70
     1
102
RTVSPropertyOp44
 70
     1
102
RTVSPropertyOp45
 70
     1
102
RTVSPropertyOp46
 70
     1
102
RTVSPropertyOp47
 70
     1
102
RTVSPropertyOp48
 70
     1
102
RTVSPropertyOp49
 70
     1
102
RTVSPropertyOp50
 70
     1
102
RTVSPropertyOp51
 70
     0
102
RTVSPropertyOp52
 70
     0
102
RTVSPropertyOp53
 70
     1
102
RTVSPropertyOp54
 70
     1
102
RTVSPropertyOp55
 70
     1
102
RTVSPropertyOp56
 70
     1
102
RTVSPropertyOp57
 70
     1
102
RTVSPropertyOp58
 70
     1
102
RTVSPropertyOp59
 70
     1
102
RTVSPropertyOp60
 70
     1
102
RTVSPropertyOp61
 70
     1
102
RTVSPropertyOp62
 70
     1
  0
XRECORD
  5
8B296
102
{ACAD_REACTORS
330
8B295
102
}
330
8B295
100
AcDbXrecord
280
     1
102
RTVSPost2010Prop28
280
     0
102
RTVSPost2010PropOp28
 70
     0
102
RTVSPost2010Prop29
280
     1
102
RTVSPost2010PropOp29
 70
     0
102
RTVSPost2010Prop30
280
     1
102
RTVSPost2010PropOp30
 70
     0
102
RTVSPost2010Prop31
280
     0
102
RTVSPost2010PropOp31
 70
     0
102
RTVSPost2010Prop32
280
     0
102
RTVSPost2010PropOp32
 70
     0
102
RTVSPost2010Prop33
280
     0
102
RTVSPost2010PropOp33
 70
     0
102
RTVSPost2010Prop34
280
     0
102
RTVSPost2010PropOp34
 70
     0
102
RTVSPost2010Prop35
280
     0
102
RTVSPost2010PropOp35
 70
     0
102
RTVSPost2010Prop36
280
     0
102
RTVSPost2010PropOp36
 70
     0
102
RTVSPost2010Prop37
 90
       50
102
RTVSPost2010PropOp37
 70
     0
102
RTVSPost2010Prop38
140
0.0
102
RTVSPost2010PropOp38
 70
     0
102
RTVSPost2010Prop39
140
1.0
102
RTVSPost2010PropOp39
 70
     0
102
RTVSPost2010Prop40
 90
        0
102
RTVSPost2010PropOp40
 70
     0
102
RTVSPost2010Prop41ColorIndex
 90
       18
102
RTVSPost2010Prop41ColorRGB
 90
        0
102
RTVSPost2010PropOp41
 70
     0
102
RTVSPost2010Prop42
 90
       50
102
RTVSPost2010PropOp42
 70
     0
102
RTVSPost2010Prop43
 90
        3
102
RTVSPost2010PropOp43
 70
     0
102
RTVSPost2010Prop44ColorIndex
 90
        5
102
RTVSPost2010Prop44ColorRGB
 90
      255
102
RTVSPost2010PropOp44
 70
     0
102
RTVSPost2010Prop45
280
     0
102
RTVSPost2010PropOp45
 70
     0
102
RTVSPost2010Prop46
 90
       50
102
RTVSPost2010PropOp46
 70
     0
102
RTVSPost2010Prop47
 90
       50
102
RTVSPost2010PropOp47
 70
     0
102
RTVSPost2010Prop48
 90
       50
102
RTVSPost2010PropOp48
 70
     0
102
RTVSPost2010Prop49
280
     0
102
RTVSPost2010PropOp49
 70
     0
102
RTVSPost2010Prop50
 90
       50
102
RTVSPost2010PropOp50
 70
     0
102
RTVSPost2010Prop51ColorIndex
 90
      256
102
RTVSPost2010Prop51ColorRGB
 90
-16777216
102
RTVSPost2010PropOp51
 70
     0
102
RTVSPost2010Prop52
140
1.0
102
RTVSPost2010PropOp52
 70
     0
102
RTVSPost2010Prop53
 90
        2
102
RTVSPost2010PropOp53
 70
     0
102
RTVSPost2010Prop54
  1
strokes_ogs.tif
102
RTVSPost2010PropOp54
 70
     0
102
RTVSPost2010Prop55
280
     0
102
RTVSPost2010PropOp55
 70
     0
102
RTVSPost2010Prop56
140
1.0
102
RTVSPost2010PropOp56
 70
     0
102
RTVSPost2010Prop57
140
1.0
102
RTVSPost2010PropOp57
 70
     0
102
RTVSPropertyOp0
 70
     0
102
RTVSPropertyOp1
 70
     0
102
RTVSPropertyOp2
 70
     0
102
RTVSPropertyOp3
 70
     0
102
RTVSPropertyOp4
 70
     0
102
RTVSPropertyOp5
 70
     0
102
RTVSPropertyOp6
 70
     0
102
RTVSPropertyOp7
 70
     0
102
RTVSPropertyOp8
 70
     0
102
RTVSPropertyOp9
 70
     0
102
RTVSPropertyOp10
 70
     0
102
RTVSPropertyOp11
 70
     0
102
RTVSPropertyOp12
 70
     0
102
RTVSPropertyOp13
 70
     0
102
RTVSPropertyOp14
 70
     2
102
RTVSPropertyOp15
 70
     0
102
RTVSPropertyOp16
 70
     0
102
RTVSPropertyOp17
 70
     0
102
RTVSPropertyOp18
 70
     0
102
RTVSPropertyOp19
 70
     0
102
RTVSPropertyOp20
 70
     0
102
RTVSPropertyOp21
 70
     0
102
RTVSPropertyOp22
 70
     0
102
RTVSPropertyOp23
 70
     0
102
RTVSPropertyOp24
 70
     0
102
RTVSPropertyOp25
 70
     0
102
RTVSPropertyOp26
 70
     0
102
RTVSPropertyOp27
 70
     0
102
RTVSPropertyOp28
 70
     0
102
RTVSPropertyOp29
 70
     0
102
RTVSPropertyOp30
 70
     0
102
RTVSPropertyOp31
 70
     0
102
RTVSPropertyOp32
 70
     0
102
RTVSPropertyOp33
 70
     0
102
RTVSPropertyOp34
 70
     0
102
RTVSPropertyOp35
 70
     0
102
RTVSPropertyOp36
 70
     0
102
RTVSPropertyOp37
 70
     0
102
RTVSPropertyOp38
 70
     0
102
RTVSPropertyOp39
 70
     0
102
RTVSPropertyOp40
 70
     0
102
RTVSPropertyOp41
 70
     0
102
RTVSPropertyOp42
 70
     0
102
RTVSPropertyOp43
 70
     0
102
RTVSPropertyOp44
 70
     0
102
RTVSPropertyOp45
 70
     0
102
RTVSPropertyOp46
 70
     0
102
RTVSPropertyOp47
 70
     0
102
RTVSPropertyOp48
 70
     0
102
RTVSPropertyOp49
 70
     0
102
RTVSPropertyOp50
 70
     0
102
RTVSPropertyOp51
 70
     0
102
RTVSPropertyOp52
 70
     0
102
RTVSPropertyOp53
 70
     0
102
RTVSPropertyOp54
 70
     0
102
RTVSPropertyOp55
 70
     0
102
RTVSPropertyOp56
 70
     0
102
RTVSPropertyOp57
 70
     0
102
RTVSPropertyOp58
 70
     1
102
RTVSPropertyOp59
 70
     1
102
RTVSPropertyOp60
 70
     1
102
RTVSPropertyOp61
 70
     1
102
RTVSPropertyOp62
 70
     1
  0
XRECORD
  5
8B290
102
{ACAD_REACTORS
330
8B28F
102
}
330
8B28F
100
AcDbXrecord
280
     1
102
RTVSPost2010Prop28
280
     0
102
RTVSPost2010PropOp28
 70
     1
102
RTVSPost2010Prop29
280
     1
102
RTVSPost2010PropOp29
 70
     1
102
RTVSPost2010Prop30
280
     1
102
RTVSPost2010PropOp30
 70
     1
102
RTVSPost2010Prop31
280
     0
102
RTVSPost2010PropOp31
 70
     1
102
RTVSPost2010Prop32
280
     0
102
RTVSPost2010PropOp32
 70
     1
102
RTVSPost2010Prop33
280
     0
102
RTVSPost2010PropOp33
 70
     1
102
RTVSPost2010Prop34
280
     0
102
RTVSPost2010PropOp34
 70
     1
102
RTVSPost2010Prop35
280
     0
102
RTVSPost2010PropOp35
 70
     1
102
RTVSPost2010Prop36
280
     0
102
RTVSPost2010PropOp36
 70
     1
102
RTVSPost2010Prop37
 90
       50
102
RTVSPost2010PropOp37
 70
     1
102
RTVSPost2010Prop38
140
0.0
102
RTVSPost2010PropOp38
 70
     1
102
RTVSPost2010Prop39
140
1.0
102
RTVSPost2010PropOp39
 70
     1
102
RTVSPost2010Prop40
 90
        0
102
RTVSPost2010PropOp40
 70
     1
102
RTVSPost2010Prop41ColorIndex
 90
       18
102
RTVSPost2010Prop41ColorRGB
 90
        0
102
RTVSPost2010PropOp41
 70
     1
102
RTVSPost2010Prop42
 90
       50
102
RTVSPost2010PropOp42
 70
     1
102
RTVSPost2010Prop43
 90
        3
102
RTVSPost2010PropOp43
 70
     1
102
RTVSPost2010Prop44ColorIndex
 90
        5
102
RTVSPost2010Prop44ColorRGB
 90
      255
102
RTVSPost2010PropOp44
 70
     1
102
RTVSPost2010Prop45
280
     0
102
RTVSPost2010PropOp45
 70
     1
102
RTVSPost2010Prop46
 90
       50
102
RTVSPost2010PropOp46
 70
     1
102
RTVSPost2010Prop47
 90
       50
102
RTVSPost2010PropOp47
 70
     1
102
RTVSPost2010Prop48
 90
       50
102
RTVSPost2010PropOp48
 70
     1
102
RTVSPost2010Prop49
280
     0
102
RTVSPost2010PropOp49
 70
     1
102
RTVSPost2010Prop50
 90
       50
102
RTVSPost2010PropOp50
 70
     1
102
RTVSPost2010Prop51ColorIndex
 90
      256
102
RTVSPost2010Prop51ColorRGB
 90
-16777216
102
RTVSPost2010PropOp51
 70
     0
102
RTVSPost2010Prop52
140
1.0
102
RTVSPost2010PropOp52
 70
     0
102
RTVSPost2010Prop53
 90
        2
102
RTVSPost2010PropOp53
 70
     1
102
RTVSPost2010Prop54
  1
strokes_ogs.tif
102
RTVSPost2010PropOp54
 70
     1
102
RTVSPost2010Prop55
280
     0
102
RTVSPost2010PropOp55
 70
     1
102
RTVSPost2010Prop56
140
1.0
102
RTVSPost2010PropOp56
 70
     1
102
RTVSPost2010Prop57
140
1.0
102
RTVSPost2010PropOp57
 70
     1
102
RTVSPropertyOp0
 70
     1
102
RTVSPropertyOp1
 70
     1
102
RTVSPropertyOp2
 70
     1
102
RTVSPropertyOp3
 70
     1
102
RTVSPropertyOp4
 70
     1
102
RTVSPropertyOp5
 70
     1
102
RTVSPropertyOp6
 70
     1
102
RTVSPropertyOp7
 70
     1
102
RTVSPropertyOp8
 70
     1
102
RTVSPropertyOp9
 70
     1
102
RTVSPropertyOp10
 70
     1
102
RTVSPropertyOp11
 70
     1
102
RTVSPropertyOp12
 70
     1
102
RTVSPropertyOp13
 70
     1
102
RTVSPropertyOp14
 70
     1
102
RTVSPropertyOp15
 70
     1
102
RTVSPropertyOp16
 70
     1
102
RTVSPropertyOp17
 70
     1
102
RTVSPropertyOp18
 70
     1
102
RTVSPropertyOp19
 70
     1
102
RTVSPropertyOp20
 70
     1
102
RTVSPropertyOp21
 70
     1
102
RTVSPropertyOp22
 70
     1
102
RTVSPropertyOp23
 70
     1
102
RTVSPropertyOp24
 70
     1
102
RTVSPropertyOp25
 70
     1
102
RTVSPropertyOp26
 70
     1
102
RTVSPropertyOp27
 70
     1
102
RTVSPropertyOp28
 70
     1
102
RTVSPropertyOp29
 70
     1
102
RTVSPropertyOp30
 70
     1
102
RTVSPropertyOp31
 70
     1
102
RTVSPropertyOp32
 70
     1
102
RTVSPropertyOp33
 70
     1
102
RTVSPropertyOp34
 70
     1
102
RTVSPropertyOp35
 70
     1
102
RTVSPropertyOp36
 70
     1
102
RTVSPropertyOp37
 70
     1
102
RTVSPropertyOp38
 70
     1
102
RTVSPropertyOp39
 70
     1
102
RTVSPropertyOp40
 70
     1
102
RTVSPropertyOp41
 70
     1
102
RTVSPropertyOp42
 70
     1
102
RTVSPropertyOp43
 70
     1
102
RTVSPropertyOp44
 70
     1
102
RTVSPropertyOp45
 70
     1
102
RTVSPropertyOp46
 70
     1
102
RTVSPropertyOp47
 70
     1
102
RTVSPropertyOp48
 70
     1
102
RTVSPropertyOp49
 70
     1
102
RTVSPropertyOp50
 70
     1
102
RTVSPropertyOp51
 70
     0
102
RTVSPropertyOp52
 70
     0
102
RTVSPropertyOp53
 70
     1
102
RTVSPropertyOp54
 70
     1
102
RTVSPropertyOp55
 70
     1
102
RTVSPropertyOp56
 70
     1
102
RTVSPropertyOp57
 70
     1
102
RTVSPropertyOp58
 70
     1
102
RTVSPropertyOp59
 70
     1
102
RTVSPropertyOp60
 70
     1
102
RTVSPropertyOp61
 70
     1
102
RTVSPropertyOp62
 70
     1
  0
XRECORD
  5
8B298
102
{ACAD_REACTORS
330
8B297
102
}
330
8B297
100
AcDbXrecord
280
     1
102
RTVSPost2010Prop28
280
     0
102
RTVSPost2010PropOp28
 70
     0
102
RTVSPost2010Prop29
280
     1
102
RTVSPost2010PropOp29
 70
     0
102
RTVSPost2010Prop30
280
     1
102
RTVSPost2010PropOp30
 70
     0
102
RTVSPost2010Prop31
280
     0
102
RTVSPost2010PropOp31
 70
     0
102
RTVSPost2010Prop32
280
     0
102
RTVSPost2010PropOp32
 70
     0
102
RTVSPost2010Prop33
280
     0
102
RTVSPost2010PropOp33
 70
     0
102
RTVSPost2010Prop34
280
     0
102
RTVSPost2010PropOp34
 70
     0
102
RTVSPost2010Prop35
280
     0
102
RTVSPost2010PropOp35
 70
     0
102
RTVSPost2010Prop36
280
     0
102
RTVSPost2010PropOp36
 70
     0
102
RTVSPost2010Prop37
 90
       50
102
RTVSPost2010PropOp37
 70
     0
102
RTVSPost2010Prop38
140
0.0
102
RTVSPost2010PropOp38
 70
     0
102
RTVSPost2010Prop39
140
1.0
102
RTVSPost2010PropOp39
 70
     0
102
RTVSPost2010Prop40
 90
        0
102
RTVSPost2010PropOp40
 70
     0
102
RTVSPost2010Prop41ColorIndex
 90
       18
102
RTVSPost2010Prop41ColorRGB
 90
        0
102
RTVSPost2010PropOp41
 70
     0
102
RTVSPost2010Prop42
 90
       50
102
RTVSPost2010PropOp42
 70
     0
102
RTVSPost2010Prop43
 90
        3
102
RTVSPost2010PropOp43
 70
     0
102
RTVSPost2010Prop44ColorIndex
 90
        5
102
RTVSPost2010Prop44ColorRGB
 90
      255
102
RTVSPost2010PropOp44
 70
     0
102
RTVSPost2010Prop45
280
     0
102
RTVSPost2010PropOp45
 70
     0
102
RTVSPost2010Prop46
 90
       50
102
RTVSPost2010PropOp46
 70
     0
102
RTVSPost2010Prop47
 90
       50
102
RTVSPost2010PropOp47
 70
     0
102
RTVSPost2010Prop48
 90
       50
102
RTVSPost2010PropOp48
 70
     0
102
RTVSPost2010Prop49
280
     0
102
RTVSPost2010PropOp49
 70
     0
102
RTVSPost2010Prop50
 90
       50
102
RTVSPost2010PropOp50
 70
     0
102
RTVSPost2010Prop51ColorIndex
 90
      256
102
RTVSPost2010Prop51ColorRGB
 90
-16777216
102
RTVSPost2010PropOp51
 70
     0
102
RTVSPost2010Prop52
140
1.0
102
RTVSPost2010PropOp52
 70
     0
102
RTVSPost2010Prop53
 90
        2
102
RTVSPost2010PropOp53
 70
     0
102
RTVSPost2010Prop54
  1
strokes_ogs.tif
102
RTVSPost2010PropOp54
 70
     0
102
RTVSPost2010Prop55
280
     0
102
RTVSPost2010PropOp55
 70
     0
102
RTVSPost2010Prop56
140
1.0
102
RTVSPost2010PropOp56
 70
     0
102
RTVSPost2010Prop57
140
1.0
102
RTVSPost2010PropOp57
 70
     0
102
RTVSPropertyOp0
 70
     0
102
RTVSPropertyOp1
 70
     0
102
RTVSPropertyOp2
 70
     0
102
RTVSPropertyOp3
 70
     0
102
RTVSPropertyOp4
 70
     0
102
RTVSPropertyOp5
 70
     0
102
RTVSPropertyOp6
 70
     0
102
RTVSPropertyOp7
 70
     0
102
RTVSPropertyOp8
 70
     0
102
RTVSPropertyOp9
 70
     0
102
RTVSPropertyOp10
 70
     0
102
RTVSPropertyOp11
 70
     0
102
RTVSPropertyOp12
 70
     0
102
RTVSPropertyOp13
 70
     0
102
RTVSPropertyOp14
 70
     2
102
RTVSPropertyOp15
 70
     0
102
RTVSPropertyOp16
 70
     0
102
RTVSPropertyOp17
 70
     0
102
RTVSPropertyOp18
 70
     0
102
RTVSPropertyOp19
 70
     0
102
RTVSPropertyOp20
 70
     0
102
RTVSPropertyOp21
 70
     0
102
RTVSPropertyOp22
 70
     0
102
RTVSPropertyOp23
 70
     0
102
RTVSPropertyOp24
 70
     0
102
RTVSPropertyOp25
 70
     0
102
RTVSPropertyOp26
 70
     0
102
RTVSPropertyOp27
 70
     0
102
RTVSPropertyOp28
 70
     0
102
RTVSPropertyOp29
 70
     0
102
RTVSPropertyOp30
 70
     0
102
RTVSPropertyOp31
 70
     0
102
RTVSPropertyOp32
 70
     0
102
RTVSPropertyOp33
 70
     0
102
RTVSPropertyOp34
 70
     0
102
RTVSPropertyOp35
 70
     0
102
RTVSPropertyOp36
 70
     0
102
RTVSPropertyOp37
 70
     0
102
RTVSPropertyOp38
 70
     0
102
RTVSPropertyOp39
 70
     0
102
RTVSPropertyOp40
 70
     0
102
RTVSPropertyOp41
 70
     0
102
RTVSPropertyOp42
 70
     0
102
RTVSPropertyOp43
 70
     0
102
RTVSPropertyOp44
 70
     0
102
RTVSPropertyOp45
 70
     0
102
RTVSPropertyOp46
 70
     0
102
RTVSPropertyOp47
 70
     0
102
RTVSPropertyOp48
 70
     0
102
RTVSPropertyOp49
 70
     0
102
RTVSPropertyOp50
 70
     0
102
RTVSPropertyOp51
 70
     0
102
RTVSPropertyOp52
 70
     0
102
RTVSPropertyOp53
 70
     0
102
RTVSPropertyOp54
 70
     0
102
RTVSPropertyOp55
 70
     0
102
RTVSPropertyOp56
 70
     0
102
RTVSPropertyOp57
 70
     0
102
RTVSPropertyOp58
 70
     1
102
RTVSPropertyOp59
 70
     1
102
RTVSPropertyOp60
 70
     1
102
RTVSPropertyOp61
 70
     1
102
RTVSPropertyOp62
 70
     1
  0
XRECORD
  5
8B286
102
{ACAD_REACTORS
330
8B285
102
}
330
8B285
100
AcDbXrecord
280
     1
102
RTVSPost2010Prop28
280
     0
102
RTVSPost2010PropOp28
 70
     1
102
RTVSPost2010Prop29
280
     1
102
RTVSPost2010PropOp29
 70
     1
102
RTVSPost2010Prop30
280
     1
102
RTVSPost2010PropOp30
 70
     1
102
RTVSPost2010Prop31
280
     0
102
RTVSPost2010PropOp31
 70
     1
102
RTVSPost2010Prop32
280
     0
102
RTVSPost2010PropOp32
 70
     1
102
RTVSPost2010Prop33
280
     0
102
RTVSPost2010PropOp33
 70
     1
102
RTVSPost2010Prop34
280
     0
102
RTVSPost2010PropOp34
 70
     1
102
RTVSPost2010Prop35
280
     0
102
RTVSPost2010PropOp35
 70
     1
102
RTVSPost2010Prop36
280
     0
102
RTVSPost2010PropOp36
 70
     1
102
RTVSPost2010Prop37
 90
       50
102
RTVSPost2010PropOp37
 70
     1
102
RTVSPost2010Prop38
140
0.0
102
RTVSPost2010PropOp38
 70
     1
102
RTVSPost2010Prop39
140
1.0
102
RTVSPost2010PropOp39
 70
     1
102
RTVSPost2010Prop40
 90
        0
102
RTVSPost2010PropOp40
 70
     1
102
RTVSPost2010Prop41ColorIndex
 90
       18
102
RTVSPost2010Prop41ColorRGB
 90
        0
102
RTVSPost2010PropOp41
 70
     1
102
RTVSPost2010Prop42
 90
       50
102
RTVSPost2010PropOp42
 70
     1
102
RTVSPost2010Prop43
 90
        3
102
RTVSPost2010PropOp43
 70
     1
102
RTVSPost2010Prop44ColorIndex
 90
        5
102
RTVSPost2010Prop44ColorRGB
 90
      255
102
RTVSPost2010PropOp44
 70
     1
102
RTVSPost2010Prop45
280
     0
102
RTVSPost2010PropOp45
 70
     1
102
RTVSPost2010Prop46
 90
       50
102
RTVSPost2010PropOp46
 70
     1
102
RTVSPost2010Prop47
 90
       50
102
RTVSPost2010PropOp47
 70
     1
102
RTVSPost2010Prop48
 90
       50
102
RTVSPost2010PropOp48
 70
     1
102
RTVSPost2010Prop49
280
     0
102
RTVSPost2010PropOp49
 70
     1
102
RTVSPost2010Prop50
 90
       50
102
RTVSPost2010PropOp50
 70
     1
102
RTVSPost2010Prop51ColorIndex
 90
      256
102
RTVSPost2010Prop51ColorRGB
 90
-16777216
102
RTVSPost2010PropOp51
 70
     0
102
RTVSPost2010Prop52
140
1.0
102
RTVSPost2010PropOp52
 70
     0
102
RTVSPost2010Prop53
 90
        2
102
RTVSPost2010PropOp53
 70
     1
102
RTVSPost2010Prop54
  1
strokes_ogs.tif
102
RTVSPost2010PropOp54
 70
     1
102
RTVSPost2010Prop55
280
     0
102
RTVSPost2010PropOp55
 70
     1
102
RTVSPost2010Prop56
140
1.0
102
RTVSPost2010PropOp56
 70
     1
102
RTVSPost2010Prop57
140
1.0
102
RTVSPost2010PropOp57
 70
     1
102
RTVSPropertyOp0
 70
     1
102
RTVSPropertyOp1
 70
     1
102
RTVSPropertyOp2
 70
     1
102
RTVSPropertyOp3
 70
     1
102
RTVSPropertyOp4
 70
     1
102
RTVSPropertyOp5
 70
     1
102
RTVSPropertyOp6
 70
     1
102
RTVSPropertyOp7
 70
     1
102
RTVSPropertyOp8
 70
     1
102
RTVSPropertyOp9
 70
     1
102
RTVSPropertyOp10
 70
     1
102
RTVSPropertyOp11
 70
     1
102
RTVSPropertyOp12
 70
     1
102
RTVSPropertyOp13
 70
     1
102
RTVSPropertyOp14
 70
     1
102
RTVSPropertyOp15
 70
     1
102
RTVSPropertyOp16
 70
     1
102
RTVSPropertyOp17
 70
     1
102
RTVSPropertyOp18
 70
     1
102
RTVSPropertyOp19
 70
     1
102
RTVSPropertyOp20
 70
     1
102
RTVSPropertyOp21
 70
     1
102
RTVSPropertyOp22
 70
     1
102
RTVSPropertyOp23
 70
     1
102
RTVSPropertyOp24
 70
     1
102
RTVSPropertyOp25
 70
     1
102
RTVSPropertyOp26
 70
     1
102
RTVSPropertyOp27
 70
     1
102
RTVSPropertyOp28
 70
     1
102
RTVSPropertyOp29
 70
     1
102
RTVSPropertyOp30
 70
     1
102
RTVSPropertyOp31
 70
     1
102
RTVSPropertyOp32
 70
     1
102
RTVSPropertyOp33
 70
     1
102
RTVSPropertyOp34
 70
     1
102
RTVSPropertyOp35
 70
     1
102
RTVSPropertyOp36
 70
     1
102
RTVSPropertyOp37
 70
     1
102
RTVSPropertyOp38
 70
     1
102
RTVSPropertyOp39
 70
     1
102
RTVSPropertyOp40
 70
     1
102
RTVSPropertyOp41
 70
     1
102
RTVSPropertyOp42
 70
     1
102
RTVSPropertyOp43
 70
     1
102
RTVSPropertyOp44
 70
     1
102
RTVSPropertyOp45
 70
     1
102
RTVSPropertyOp46
 70
     1
102
RTVSPropertyOp47
 70
     1
102
RTVSPropertyOp48
 70
     1
102
RTVSPropertyOp49
 70
     1
102
RTVSPropertyOp50
 70
     1
102
RTVSPropertyOp51
 70
     0
102
RTVSPropertyOp52
 70
     0
102
RTVSPropertyOp53
 70
     1
102
RTVSPropertyOp54
 70
     1
102
RTVSPropertyOp55
 70
     1
102
RTVSPropertyOp56
 70
     1
102
RTVSPropertyOp57
 70
     1
102
RTVSPropertyOp58
 70
     1
102
RTVSPropertyOp59
 70
     1
102
RTVSPropertyOp60
 70
     1
102
RTVSPropertyOp61
 70
     1
102
RTVSPropertyOp62
 70
     1
  0
XRECORD
  5
8B2A4
102
{ACAD_REACTORS
330
8B2A3
102
}
330
8B2A3
100
AcDbXrecord
280
     1
102
RTVSPost2010Prop28
280
     0
102
RTVSPost2010PropOp28
 70
     1
102
RTVSPost2010Prop29
280
     1
102
RTVSPost2010PropOp29
 70
     1
102
RTVSPost2010Prop30
280
     1
102
RTVSPost2010PropOp30
 70
     1
102
RTVSPost2010Prop31
280
     0
102
RTVSPost2010PropOp31
 70
     1
102
RTVSPost2010Prop32
280
     0
102
RTVSPost2010PropOp32
 70
     1
102
RTVSPost2010Prop33
280
     0
102
RTVSPost2010PropOp33
 70
     1
102
RTVSPost2010Prop34
280
     0
102
RTVSPost2010PropOp34
 70
     1
102
RTVSPost2010Prop35
280
     0
102
RTVSPost2010PropOp35
 70
     1
102
RTVSPost2010Prop36
280
     0
102
RTVSPost2010PropOp36
 70
     1
102
RTVSPost2010Prop37
 90
       50
102
RTVSPost2010PropOp37
 70
     1
102
RTVSPost2010Prop38
140
0.0
102
RTVSPost2010PropOp38
 70
     1
102
RTVSPost2010Prop39
140
1.0
102
RTVSPost2010PropOp39
 70
     1
102
RTVSPost2010Prop40
 90
        0
102
RTVSPost2010PropOp40
 70
     1
102
RTVSPost2010Prop41ColorIndex
 90
       18
102
RTVSPost2010Prop41ColorRGB
 90
        0
102
RTVSPost2010PropOp41
 70
     1
102
RTVSPost2010Prop42
 90
       50
102
RTVSPost2010PropOp42
 70
     1
102
RTVSPost2010Prop43
 90
        3
102
RTVSPost2010PropOp43
 70
     1
102
RTVSPost2010Prop44ColorIndex
 90
        5
102
RTVSPost2010Prop44ColorRGB
 90
      255
102
RTVSPost2010PropOp44
 70
     1
102
RTVSPost2010Prop45
280
     0
102
RTVSPost2010PropOp45
 70
     1
102
RTVSPost2010Prop46
 90
       50
102
RTVSPost2010PropOp46
 70
     1
102
RTVSPost2010Prop47
 90
       50
102
RTVSPost2010PropOp47
 70
     1
102
RTVSPost2010Prop48
 90
       50
102
RTVSPost2010PropOp48
 70
     1
102
RTVSPost2010Prop49
280
     0
102
RTVSPost2010PropOp49
 70
     1
102
RTVSPost2010Prop50
 90
       50
102
RTVSPost2010PropOp50
 70
     1
102
RTVSPost2010Prop51ColorIndex
 90
      256
102
RTVSPost2010Prop51ColorRGB
 90
-16777216
102
RTVSPost2010PropOp51
 70
     0
102
RTVSPost2010Prop52
140
1.0
102
RTVSPost2010PropOp52
 70
     0
102
RTVSPost2010Prop53
 90
        2
102
RTVSPost2010PropOp53
 70
     1
102
RTVSPost2010Prop54
  1
strokes_ogs.tif
102
RTVSPost2010PropOp54
 70
     1
102
RTVSPost2010Prop55
280
     0
102
RTVSPost2010PropOp55
 70
     1
102
RTVSPost2010Prop56
140
1.0
102
RTVSPost2010PropOp56
 70
     1
102
RTVSPost2010Prop57
140
1.0
102
RTVSPost2010PropOp57
 70
     1
102
RTVSPropertyOp0
 70
     1
102
RTVSPropertyOp1
 70
     1
102
RTVSPropertyOp2
 70
     1
102
RTVSPropertyOp3
 70
     1
102
RTVSPropertyOp4
 70
     1
102
RTVSPropertyOp5
 70
     1
102
RTVSPropertyOp6
 70
     1
102
RTVSPropertyOp7
 70
     1
102
RTVSPropertyOp8
 70
     1
102
RTVSPropertyOp9
 70
     1
102
RTVSPropertyOp10
 70
     1
102
RTVSPropertyOp11
 70
     1
102
RTVSPropertyOp12
 70
     1
102
RTVSPropertyOp13
 70
     1
102
RTVSPropertyOp14
 70
     1
102
RTVSPropertyOp15
 70
     1
102
RTVSPropertyOp16
 70
     1
102
RTVSPropertyOp17
 70
     1
102
RTVSPropertyOp18
 70
     1
102
RTVSPropertyOp19
 70
     1
102
RTVSPropertyOp20
 70
     1
102
RTVSPropertyOp21
 70
     1
102
RTVSPropertyOp22
 70
     1
102
RTVSPropertyOp23
 70
     1
102
RTVSPropertyOp24
 70
     1
102
RTVSPropertyOp25
 70
     1
102
RTVSPropertyOp26
 70
     1
102
RTVSPropertyOp27
 70
     1
102
RTVSPropertyOp28
 70
     1
102
RTVSPropertyOp29
 70
     1
102
RTVSPropertyOp30
 70
     1
102
RTVSPropertyOp31
 70
     1
102
RTVSPropertyOp32
 70
     1
102
RTVSPropertyOp33
 70
     1
102
RTVSPropertyOp34
 70
     1
102
RTVSPropertyOp35
 70
     1
102
RTVSPropertyOp36
 70
     1
102
RTVSPropertyOp37
 70
     1
102
RTVSPropertyOp38
 70
     1
102
RTVSPropertyOp39
 70
     1
102
RTVSPropertyOp40
 70
     1
102
RTVSPropertyOp41
 70
     1
102
RTVSPropertyOp42
 70
     1
102
RTVSPropertyOp43
 70
     1
102
RTVSPropertyOp44
 70
     1
102
RTVSPropertyOp45
 70
     1
102
RTVSPropertyOp46
 70
     1
102
RTVSPropertyOp47
 70
     1
102
RTVSPropertyOp48
 70
     1
102
RTVSPropertyOp49
 70
     1
102
RTVSPropertyOp50
 70
     1
102
RTVSPropertyOp51
 70
     0
102
RTVSPropertyOp52
 70
     0
102
RTVSPropertyOp53
 70
     1
102
RTVSPropertyOp54
 70
     1
102
RTVSPropertyOp55
 70
     1
102
RTVSPropertyOp56
 70
     1
102
RTVSPropertyOp57
 70
     1
102
RTVSPropertyOp58
 70
     1
102
RTVSPropertyOp59
 70
     1
102
RTVSPropertyOp60
 70
     1
102
RTVSPropertyOp61
 70
     1
102
RTVSPropertyOp62
 70
     1
  0
XRECORD
  5
8B2A2
102
{ACAD_REACTORS
330
8B2A1
102
}
330
8B2A1
100
AcDbXrecord
280
     1
102
RTVSPost2010Prop28
280
     0
102
RTVSPost2010PropOp28
 70
     1
102
RTVSPost2010Prop29
280
     1
102
RTVSPost2010PropOp29
 70
     1
102
RTVSPost2010Prop30
280
     1
102
RTVSPost2010PropOp30
 70
     1
102
RTVSPost2010Prop31
280
     0
102
RTVSPost2010PropOp31
 70
     1
102
RTVSPost2010Prop32
280
     0
102
RTVSPost2010PropOp32
 70
     1
102
RTVSPost2010Prop33
280
     0
102
RTVSPost2010PropOp33
 70
     1
102
RTVSPost2010Prop34
280
     0
102
RTVSPost2010PropOp34
 70
     1
102
RTVSPost2010Prop35
280
     0
102
RTVSPost2010PropOp35
 70
     1
102
RTVSPost2010Prop36
280
     0
102
RTVSPost2010PropOp36
 70
     1
102
RTVSPost2010Prop37
 90
       50
102
RTVSPost2010PropOp37
 70
     1
102
RTVSPost2010Prop38
140
0.0
102
RTVSPost2010PropOp38
 70
     1
102
RTVSPost2010Prop39
140
1.0
102
RTVSPost2010PropOp39
 70
     1
102
RTVSPost2010Prop40
 90
        0
102
RTVSPost2010PropOp40
 70
     1
102
RTVSPost2010Prop41ColorIndex
 90
       18
102
RTVSPost2010Prop41ColorRGB
 90
        0
102
RTVSPost2010PropOp41
 70
     1
102
RTVSPost2010Prop42
 90
       50
102
RTVSPost2010PropOp42
 70
     1
102
RTVSPost2010Prop43
 90
        3
102
RTVSPost2010PropOp43
 70
     1
102
RTVSPost2010Prop44ColorIndex
 90
        5
102
RTVSPost2010Prop44ColorRGB
 90
      255
102
RTVSPost2010PropOp44
 70
     1
102
RTVSPost2010Prop45
280
     0
102
RTVSPost2010PropOp45
 70
     1
102
RTVSPost2010Prop46
 90
       50
102
RTVSPost2010PropOp46
 70
     1
102
RTVSPost2010Prop47
 90
       50
102
RTVSPost2010PropOp47
 70
     1
102
RTVSPost2010Prop48
 90
       50
102
RTVSPost2010PropOp48
 70
     1
102
RTVSPost2010Prop49
280
     0
102
RTVSPost2010PropOp49
 70
     1
102
RTVSPost2010Prop50
 90
       50
102
RTVSPost2010PropOp50
 70
     1
102
RTVSPost2010Prop51ColorIndex
 90
      256
102
RTVSPost2010Prop51ColorRGB
 90
-16777216
102
RTVSPost2010PropOp51
 70
     0
102
RTVSPost2010Prop52
140
1.0
102
RTVSPost2010PropOp52
 70
     0
102
RTVSPost2010Prop53
 90
        2
102
RTVSPost2010PropOp53
 70
     1
102
RTVSPost2010Prop54
  1
strokes_ogs.tif
102
RTVSPost2010PropOp54
 70
     1
102
RTVSPost2010Prop55
280
     0
102
RTVSPost2010PropOp55
 70
     1
102
RTVSPost2010Prop56
140
1.0
102
RTVSPost2010PropOp56
 70
     1
102
RTVSPost2010Prop57
140
1.0
102
RTVSPost2010PropOp57
 70
     1
102
RTVSPropertyOp0
 70
     1
102
RTVSPropertyOp1
 70
     1
102
RTVSPropertyOp2
 70
     1
102
RTVSPropertyOp3
 70
     1
102
RTVSPropertyOp4
 70
     1
102
RTVSPropertyOp5
 70
     1
102
RTVSPropertyOp6
 70
     1
102
RTVSPropertyOp7
 70
     1
102
RTVSPropertyOp8
 70
     1
102
RTVSPropertyOp9
 70
     1
102
RTVSPropertyOp10
 70
     1
102
RTVSPropertyOp11
 70
     1
102
RTVSPropertyOp12
 70
     1
102
RTVSPropertyOp13
 70
     1
102
RTVSPropertyOp14
 70
     1
102
RTVSPropertyOp15
 70
     1
102
RTVSPropertyOp16
 70
     1
102
RTVSPropertyOp17
 70
     1
102
RTVSPropertyOp18
 70
     1
102
RTVSPropertyOp19
 70
     1
102
RTVSPropertyOp20
 70
     1
102
RTVSPropertyOp21
 70
     1
102
RTVSPropertyOp22
 70
     1
102
RTVSPropertyOp23
 70
     1
102
RTVSPropertyOp24
 70
     1
102
RTVSPropertyOp25
 70
     1
102
RTVSPropertyOp26
 70
     1
102
RTVSPropertyOp27
 70
     1
102
RTVSPropertyOp28
 70
     1
102
RTVSPropertyOp29
 70
     1
102
RTVSPropertyOp30
 70
     1
102
RTVSPropertyOp31
 70
     1
102
RTVSPropertyOp32
 70
     1
102
RTVSPropertyOp33
 70
     1
102
RTVSPropertyOp34
 70
     1
102
RTVSPropertyOp35
 70
     1
102
RTVSPropertyOp36
 70
     1
102
RTVSPropertyOp37
 70
     1
102
RTVSPropertyOp38
 70
     1
102
RTVSPropertyOp39
 70
     1
102
RTVSPropertyOp40
 70
     1
102
RTVSPropertyOp41
 70
     1
102
RTVSPropertyOp42
 70
     1
102
RTVSPropertyOp43
 70
     1
102
RTVSPropertyOp44
 70
     1
102
RTVSPropertyOp45
 70
     1
102
RTVSPropertyOp46
 70
     1
102
RTVSPropertyOp47
 70
     1
102
RTVSPropertyOp48
 70
     1
102
RTVSPropertyOp49
 70
     1
102
RTVSPropertyOp50
 70
     1
102
RTVSPropertyOp51
 70
     0
102
RTVSPropertyOp52
 70
     0
102
RTVSPropertyOp53
 70
     1
102
RTVSPropertyOp54
 70
     1
102
RTVSPropertyOp55
 70
     1
102
RTVSPropertyOp56
 70
     1
102
RTVSPropertyOp57
 70
     1
102
RTVSPropertyOp58
 70
     1
102
RTVSPropertyOp59
 70
     1
102
RTVSPropertyOp60
 70
     1
102
RTVSPropertyOp61
 70
     1
102
RTVSPropertyOp62
 70
     1
  0
XRECORD
  5
8B29C
102
{ACAD_REACTORS
330
8B29B
102
}
330
8B29B
100
AcDbXrecord
280
     1
102
RTVSPost2010Prop28
280
     0
102
RTVSPost2010PropOp28
 70
     1
102
RTVSPost2010Prop29
280
     1
102
RTVSPost2010PropOp29
 70
     1
102
RTVSPost2010Prop30
280
     1
102
RTVSPost2010PropOp30
 70
     1
102
RTVSPost2010Prop31
280
     0
102
RTVSPost2010PropOp31
 70
     1
102
RTVSPost2010Prop32
280
     0
102
RTVSPost2010PropOp32
 70
     1
102
RTVSPost2010Prop33
280
     0
102
RTVSPost2010PropOp33
 70
     1
102
RTVSPost2010Prop34
280
     0
102
RTVSPost2010PropOp34
 70
     1
102
RTVSPost2010Prop35
280
     0
102
RTVSPost2010PropOp35
 70
     1
102
RTVSPost2010Prop36
280
     0
102
RTVSPost2010PropOp36
 70
     1
102
RTVSPost2010Prop37
 90
       50
102
RTVSPost2010PropOp37
 70
     1
102
RTVSPost2010Prop38
140
0.0
102
RTVSPost2010PropOp38
 70
     1
102
RTVSPost2010Prop39
140
1.0
102
RTVSPost2010PropOp39
 70
     1
102
RTVSPost2010Prop40
 90
        0
102
RTVSPost2010PropOp40
 70
     1
102
RTVSPost2010Prop41ColorIndex
 90
       18
102
RTVSPost2010Prop41ColorRGB
 90
        0
102
RTVSPost2010PropOp41
 70
     1
102
RTVSPost2010Prop42
 90
       50
102
RTVSPost2010PropOp42
 70
     1
102
RTVSPost2010Prop43
 90
        3
102
RTVSPost2010PropOp43
 70
     1
102
RTVSPost2010Prop44ColorIndex
 90
        5
102
RTVSPost2010Prop44ColorRGB
 90
      255
102
RTVSPost2010PropOp44
 70
     1
102
RTVSPost2010Prop45
280
     0
102
RTVSPost2010PropOp45
 70
     1
102
RTVSPost2010Prop46
 90
       50
102
RTVSPost2010PropOp46
 70
     1
102
RTVSPost2010Prop47
 90
       50
102
RTVSPost2010PropOp47
 70
     1
102
RTVSPost2010Prop48
 90
       50
102
RTVSPost2010PropOp48
 70
     1
102
RTVSPost2010Prop49
280
     0
102
RTVSPost2010PropOp49
 70
     1
102
RTVSPost2010Prop50
 90
       50
102
RTVSPost2010PropOp50
 70
     1
102
RTVSPost2010Prop51ColorIndex
 90
      256
102
RTVSPost2010Prop51ColorRGB
 90
-16777216
102
RTVSPost2010PropOp51
 70
     0
102
RTVSPost2010Prop52
140
1.0
102
RTVSPost2010PropOp52
 70
     0
102
RTVSPost2010Prop53
 90
        2
102
RTVSPost2010PropOp53
 70
     1
102
RTVSPost2010Prop54
  1
strokes_ogs.tif
102
RTVSPost2010PropOp54
 70
     1
102
RTVSPost2010Prop55
280
     0
102
RTVSPost2010PropOp55
 70
     1
102
RTVSPost2010Prop56
140
1.0
102
RTVSPost2010PropOp56
 70
     1
102
RTVSPost2010Prop57
140
1.0
102
RTVSPost2010PropOp57
 70
     1
102
RTVSPropertyOp0
 70
     1
102
RTVSPropertyOp1
 70
     1
102
RTVSPropertyOp2
 70
     1
102
RTVSPropertyOp3
 70
     1
102
RTVSPropertyOp4
 70
     1
102
RTVSPropertyOp5
 70
     1
102
RTVSPropertyOp6
 70
     1
102
RTVSPropertyOp7
 70
     1
102
RTVSPropertyOp8
 70
     1
102
RTVSPropertyOp9
 70
     1
102
RTVSPropertyOp10
 70
     1
102
RTVSPropertyOp11
 70
     1
102
RTVSPropertyOp12
 70
     1
102
RTVSPropertyOp13
 70
     1
102
RTVSPropertyOp14
 70
     1
102
RTVSPropertyOp15
 70
     1
102
RTVSPropertyOp16
 70
     1
102
RTVSPropertyOp17
 70
     1
102
RTVSPropertyOp18
 70
     1
102
RTVSPropertyOp19
 70
     1
102
RTVSPropertyOp20
 70
     1
102
RTVSPropertyOp21
 70
     1
102
RTVSPropertyOp22
 70
     1
102
RTVSPropertyOp23
 70
     1
102
RTVSPropertyOp24
 70
     1
102
RTVSPropertyOp25
 70
     1
102
RTVSPropertyOp26
 70
     1
102
RTVSPropertyOp27
 70
     1
102
RTVSPropertyOp28
 70
     1
102
RTVSPropertyOp29
 70
     1
102
RTVSPropertyOp30
 70
     1
102
RTVSPropertyOp31
 70
     1
102
RTVSPropertyOp32
 70
     1
102
RTVSPropertyOp33
 70
     1
102
RTVSPropertyOp34
 70
     1
102
RTVSPropertyOp35
 70
     1
102
RTVSPropertyOp36
 70
     1
102
RTVSPropertyOp37
 70
     1
102
RTVSPropertyOp38
 70
     1
102
RTVSPropertyOp39
 70
     1
102
RTVSPropertyOp40
 70
     1
102
RTVSPropertyOp41
 70
     1
102
RTVSPropertyOp42
 70
     1
102
RTVSPropertyOp43
 70
     1
102
RTVSPropertyOp44
 70
     1
102
RTVSPropertyOp45
 70
     1
102
RTVSPropertyOp46
 70
     1
102
RTVSPropertyOp47
 70
     1
102
RTVSPropertyOp48
 70
     1
102
RTVSPropertyOp49
 70
     1
102
RTVSPropertyOp50
 70
     1
102
RTVSPropertyOp51
 70
     0
102
RTVSPropertyOp52
 70
     0
102
RTVSPropertyOp53
 70
     1
102
RTVSPropertyOp54
 70
     1
102
RTVSPropertyOp55
 70
     1
102
RTVSPropertyOp56
 70
     1
102
RTVSPropertyOp57
 70
     1
102
RTVSPropertyOp58
 70
     1
102
RTVSPropertyOp59
 70
     1
102
RTVSPropertyOp60
 70
     1
102
RTVSPropertyOp61
 70
     1
102
RTVSPropertyOp62
 70
     1
  0
XRECORD
  5
8B29E
102
{ACAD_REACTORS
330
8B29D
102
}
330
8B29D
100
AcDbXrecord
280
     1
102
RTVSPost2010Prop28
280
     0
102
RTVSPost2010PropOp28
 70
     1
102
RTVSPost2010Prop29
280
     1
102
RTVSPost2010PropOp29
 70
     1
102
RTVSPost2010Prop30
280
     1
102
RTVSPost2010PropOp30
 70
     1
102
RTVSPost2010Prop31
280
     0
102
RTVSPost2010PropOp31
 70
     1
102
RTVSPost2010Prop32
280
     0
102
RTVSPost2010PropOp32
 70
     1
102
RTVSPost2010Prop33
280
     0
102
RTVSPost2010PropOp33
 70
     1
102
RTVSPost2010Prop34
280
     0
102
RTVSPost2010PropOp34
 70
     1
102
RTVSPost2010Prop35
280
     0
102
RTVSPost2010PropOp35
 70
     1
102
RTVSPost2010Prop36
280
     0
102
RTVSPost2010PropOp36
 70
     1
102
RTVSPost2010Prop37
 90
       50
102
RTVSPost2010PropOp37
 70
     1
102
RTVSPost2010Prop38
140
0.0
102
RTVSPost2010PropOp38
 70
     1
102
RTVSPost2010Prop39
140
1.0
102
RTVSPost2010PropOp39
 70
     1
102
RTVSPost2010Prop40
 90
        0
102
RTVSPost2010PropOp40
 70
     1
102
RTVSPost2010Prop41ColorIndex
 90
       18
102
RTVSPost2010Prop41ColorRGB
 90
        0
102
RTVSPost2010PropOp41
 70
     1
102
RTVSPost2010Prop42
 90
       50
102
RTVSPost2010PropOp42
 70
     1
102
RTVSPost2010Prop43
 90
        3
102
RTVSPost2010PropOp43
 70
     1
102
RTVSPost2010Prop44ColorIndex
 90
        5
102
RTVSPost2010Prop44ColorRGB
 90
      255
102
RTVSPost2010PropOp44
 70
     1
102
RTVSPost2010Prop45
280
     0
102
RTVSPost2010PropOp45
 70
     1
102
RTVSPost2010Prop46
 90
       50
102
RTVSPost2010PropOp46
 70
     1
102
RTVSPost2010Prop47
 90
       50
102
RTVSPost2010PropOp47
 70
     1
102
RTVSPost2010Prop48
 90
       50
102
RTVSPost2010PropOp48
 70
     1
102
RTVSPost2010Prop49
280
     0
102
RTVSPost2010PropOp49
 70
     1
102
RTVSPost2010Prop50
 90
       50
102
RTVSPost2010PropOp50
 70
     1
102
RTVSPost2010Prop51ColorIndex
 90
      256
102
RTVSPost2010Prop51ColorRGB
 90
-16777216
102
RTVSPost2010PropOp51
 70
     0
102
RTVSPost2010Prop52
140
1.0
102
RTVSPost2010PropOp52
 70
     0
102
RTVSPost2010Prop53
 90
        2
102
RTVSPost2010PropOp53
 70
     1
102
RTVSPost2010Prop54
  1
strokes_ogs.tif
102
RTVSPost2010PropOp54
 70
     1
102
RTVSPost2010Prop55
280
     0
102
RTVSPost2010PropOp55
 70
     1
102
RTVSPost2010Prop56
140
1.0
102
RTVSPost2010PropOp56
 70
     1
102
RTVSPost2010Prop57
140
1.0
102
RTVSPost2010PropOp57
 70
     1
102
RTVSPropertyOp0
 70
     1
102
RTVSPropertyOp1
 70
     1
102
RTVSPropertyOp2
 70
     1
102
RTVSPropertyOp3
 70
     1
102
RTVSPropertyOp4
 70
     1
102
RTVSPropertyOp5
 70
     1
102
RTVSPropertyOp6
 70
     1
102
RTVSPropertyOp7
 70
     1
102
RTVSPropertyOp8
 70
     1
102
RTVSPropertyOp9
 70
     1
102
RTVSPropertyOp10
 70
     1
102
RTVSPropertyOp11
 70
     1
102
RTVSPropertyOp12
 70
     1
102
RTVSPropertyOp13
 70
     1
102
RTVSPropertyOp14
 70
     1
102
RTVSPropertyOp15
 70
     1
102
RTVSPropertyOp16
 70
     1
102
RTVSPropertyOp17
 70
     1
102
RTVSPropertyOp18
 70
     1
102
RTVSPropertyOp19
 70
     1
102
RTVSPropertyOp20
 70
     1
102
RTVSPropertyOp21
 70
     1
102
RTVSPropertyOp22
 70
     1
102
RTVSPropertyOp23
 70
     1
102
RTVSPropertyOp24
 70
     1
102
RTVSPropertyOp25
 70
     1
102
RTVSPropertyOp26
 70
     1
102
RTVSPropertyOp27
 70
     1
102
RTVSPropertyOp28
 70
     1
102
RTVSPropertyOp29
 70
     1
102
RTVSPropertyOp30
 70
     1
102
RTVSPropertyOp31
 70
     1
102
RTVSPropertyOp32
 70
     1
102
RTVSPropertyOp33
 70
     1
102
RTVSPropertyOp34
 70
     1
102
RTVSPropertyOp35
 70
     1
102
RTVSPropertyOp36
 70
     1
102
RTVSPropertyOp37
 70
     1
102
RTVSPropertyOp38
 70
     1
102
RTVSPropertyOp39
 70
     1
102
RTVSPropertyOp40
 70
     1
102
RTVSPropertyOp41
 70
     1
102
RTVSPropertyOp42
 70
     1
102
RTVSPropertyOp43
 70
     1
102
RTVSPropertyOp44
 70
     1
102
RTVSPropertyOp45
 70
     1
102
RTVSPropertyOp46
 70
     1
102
RTVSPropertyOp47
 70
     1
102
RTVSPropertyOp48
 70
     1
102
RTVSPropertyOp49
 70
     1
102
RTVSPropertyOp50
 70
     1
102
RTVSPropertyOp51
 70
     0
102
RTVSPropertyOp52
 70
     0
102
RTVSPropertyOp53
 70
     1
102
RTVSPropertyOp54
 70
     1
102
RTVSPropertyOp55
 70
     1
102
RTVSPropertyOp56
 70
     1
102
RTVSPropertyOp57
 70
     1
102
RTVSPropertyOp58
 70
     1
102
RTVSPropertyOp59
 70
     1
102
RTVSPropertyOp60
 70
     1
102
RTVSPropertyOp61
 70
     1
102
RTVSPropertyOp62
 70
     1
  0
XRECORD
  5
8B28E
102
{ACAD_REACTORS
330
8B28D
102
}
330
8B28D
100
AcDbXrecord
280
     1
102
RTVSPost2010Prop28
280
     0
102
RTVSPost2010PropOp28
 70
     1
102
RTVSPost2010Prop29
280
     1
102
RTVSPost2010PropOp29
 70
     1
102
RTVSPost2010Prop30
280
     1
102
RTVSPost2010PropOp30
 70
     1
102
RTVSPost2010Prop31
280
     0
102
RTVSPost2010PropOp31
 70
     1
102
RTVSPost2010Prop32
280
     0
102
RTVSPost2010PropOp32
 70
     1
102
RTVSPost2010Prop33
280
     0
102
RTVSPost2010PropOp33
 70
     1
102
RTVSPost2010Prop34
280
     0
102
RTVSPost2010PropOp34
 70
     1
102
RTVSPost2010Prop35
280
     0
102
RTVSPost2010PropOp35
 70
     1
102
RTVSPost2010Prop36
280
     0
102
RTVSPost2010PropOp36
 70
     1
102
RTVSPost2010Prop37
 90
       50
102
RTVSPost2010PropOp37
 70
     1
102
RTVSPost2010Prop38
140
0.0
102
RTVSPost2010PropOp38
 70
     1
102
RTVSPost2010Prop39
140
1.0
102
RTVSPost2010PropOp39
 70
     1
102
RTVSPost2010Prop40
 90
        0
102
RTVSPost2010PropOp40
 70
     1
102
RTVSPost2010Prop41ColorIndex
 90
       18
102
RTVSPost2010Prop41ColorRGB
 90
        0
102
RTVSPost2010PropOp41
 70
     1
102
RTVSPost2010Prop42
 90
       50
102
RTVSPost2010PropOp42
 70
     1
102
RTVSPost2010Prop43
 90
        3
102
RTVSPost2010PropOp43
 70
     1
102
RTVSPost2010Prop44ColorIndex
 90
        5
102
RTVSPost2010Prop44ColorRGB
 90
      255
102
RTVSPost2010PropOp44
 70
     1
102
RTVSPost2010Prop45
280
     0
102
RTVSPost2010PropOp45
 70
     1
102
RTVSPost2010Prop46
 90
       50
102
RTVSPost2010PropOp46
 70
     1
102
RTVSPost2010Prop47
 90
       50
102
RTVSPost2010PropOp47
 70
     1
102
RTVSPost2010Prop48
 90
       50
102
RTVSPost2010PropOp48
 70
     1
102
RTVSPost2010Prop49
280
     0
102
RTVSPost2010PropOp49
 70
     1
102
RTVSPost2010Prop50
 90
       50
102
RTVSPost2010PropOp50
 70
     1
102
RTVSPost2010Prop51ColorIndex
 90
      256
102
RTVSPost2010Prop51ColorRGB
 90
-16777216
102
RTVSPost2010PropOp51
 70
     0
102
RTVSPost2010Prop52
140
1.0
102
RTVSPost2010PropOp52
 70
     0
102
RTVSPost2010Prop53
 90
        2
102
RTVSPost2010PropOp53
 70
     1
102
RTVSPost2010Prop54
  1
strokes_ogs.tif
102
RTVSPost2010PropOp54
 70
     1
102
RTVSPost2010Prop55
280
     0
102
RTVSPost2010PropOp55
 70
     1
102
RTVSPost2010Prop56
140
1.0
102
RTVSPost2010PropOp56
 70
     1
102
RTVSPost2010Prop57
140
1.0
102
RTVSPost2010PropOp57
 70
     1
102
RTVSPropertyOp0
 70
     1
102
RTVSPropertyOp1
 70
     1
102
RTVSPropertyOp2
 70
     1
102
RTVSPropertyOp3
 70
     1
102
RTVSPropertyOp4
 70
     1
102
RTVSPropertyOp5
 70
     1
102
RTVSPropertyOp6
 70
     1
102
RTVSPropertyOp7
 70
     1
102
RTVSPropertyOp8
 70
     1
102
RTVSPropertyOp9
 70
     1
102
RTVSPropertyOp10
 70
     1
102
RTVSPropertyOp11
 70
     1
102
RTVSPropertyOp12
 70
     1
102
RTVSPropertyOp13
 70
     1
102
RTVSPropertyOp14
 70
     1
102
RTVSPropertyOp15
 70
     1
102
RTVSPropertyOp16
 70
     1
102
RTVSPropertyOp17
 70
     1
102
RTVSPropertyOp18
 70
     1
102
RTVSPropertyOp19
 70
     1
102
RTVSPropertyOp20
 70
     1
102
RTVSPropertyOp21
 70
     1
102
RTVSPropertyOp22
 70
     1
102
RTVSPropertyOp23
 70
     1
102
RTVSPropertyOp24
 70
     1
102
RTVSPropertyOp25
 70
     1
102
RTVSPropertyOp26
 70
     1
102
RTVSPropertyOp27
 70
     1
102
RTVSPropertyOp28
 70
     1
102
RTVSPropertyOp29
 70
     1
102
RTVSPropertyOp30
 70
     1
102
RTVSPropertyOp31
 70
     1
102
RTVSPropertyOp32
 70
     1
102
RTVSPropertyOp33
 70
     1
102
RTVSPropertyOp34
 70
     1
102
RTVSPropertyOp35
 70
     1
102
RTVSPropertyOp36
 70
     1
102
RTVSPropertyOp37
 70
     1
102
RTVSPropertyOp38
 70
     1
102
RTVSPropertyOp39
 70
     1
102
RTVSPropertyOp40
 70
     1
102
RTVSPropertyOp41
 70
     1
102
RTVSPropertyOp42
 70
     1
102
RTVSPropertyOp43
 70
     1
102
RTVSPropertyOp44
 70
     1
102
RTVSPropertyOp45
 70
     1
102
RTVSPropertyOp46
 70
     1
102
RTVSPropertyOp47
 70
     1
102
RTVSPropertyOp48
 70
     1
102
RTVSPropertyOp49
 70
     1
102
RTVSPropertyOp50
 70
     1
102
RTVSPropertyOp51
 70
     0
102
RTVSPropertyOp52
 70
     0
102
RTVSPropertyOp53
 70
     1
102
RTVSPropertyOp54
 70
     1
102
RTVSPropertyOp55
 70
     1
102
RTVSPropertyOp56
 70
     1
102
RTVSPropertyOp57
 70
     1
102
RTVSPropertyOp58
 70
     1
102
RTVSPropertyOp59
 70
     1
102
RTVSPropertyOp60
 70
     1
102
RTVSPropertyOp61
 70
     1
102
RTVSPropertyOp62
 70
     1
  0
XRECORD
  5
8B280
102
{ACAD_REACTORS
330
8B27F
102
}
330
8B27F
100
AcDbXrecord
280
     1
102
RTVSPost2010Prop28
280
     0
102
RTVSPost2010PropOp28
 70
     1
102
RTVSPost2010Prop29
280
     1
102
RTVSPost2010PropOp29
 70
     1
102
RTVSPost2010Prop30
280
     1
102
RTVSPost2010PropOp30
 70
     1
102
RTVSPost2010Prop31
280
     0
102
RTVSPost2010PropOp31
 70
     1
102
RTVSPost2010Prop32
280
     0
102
RTVSPost2010PropOp32
 70
     1
102
RTVSPost2010Prop33
280
     0
102
RTVSPost2010PropOp33
 70
     1
102
RTVSPost2010Prop34
280
     0
102
RTVSPost2010PropOp34
 70
     1
102
RTVSPost2010Prop35
280
     0
102
RTVSPost2010PropOp35
 70
     1
102
RTVSPost2010Prop36
280
     0
102
RTVSPost2010PropOp36
 70
     1
102
RTVSPost2010Prop37
 90
       50
102
RTVSPost2010PropOp37
 70
     1
102
RTVSPost2010Prop38
140
0.0
102
RTVSPost2010PropOp38
 70
     1
102
RTVSPost2010Prop39
140
1.0
102
RTVSPost2010PropOp39
 70
     1
102
RTVSPost2010Prop40
 90
        0
102
RTVSPost2010PropOp40
 70
     1
102
RTVSPost2010Prop41ColorIndex
 90
       18
102
RTVSPost2010Prop41ColorRGB
 90
        0
102
RTVSPost2010PropOp41
 70
     1
102
RTVSPost2010Prop42
 90
       50
102
RTVSPost2010PropOp42
 70
     1
102
RTVSPost2010Prop43
 90
        3
102
RTVSPost2010PropOp43
 70
     1
102
RTVSPost2010Prop44ColorIndex
 90
        5
102
RTVSPost2010Prop44ColorRGB
 90
      255
102
RTVSPost2010PropOp44
 70
     1
102
RTVSPost2010Prop45
280
     0
102
RTVSPost2010PropOp45
 70
     1
102
RTVSPost2010Prop46
 90
       50
102
RTVSPost2010PropOp46
 70
     1
102
RTVSPost2010Prop47
 90
       50
102
RTVSPost2010PropOp47
 70
     1
102
RTVSPost2010Prop48
 90
       50
102
RTVSPost2010PropOp48
 70
     1
102
RTVSPost2010Prop49
280
     0
102
RTVSPost2010PropOp49
 70
     1
102
RTVSPost2010Prop50
 90
       50
102
RTVSPost2010PropOp50
 70
     1
102
RTVSPost2010Prop51ColorIndex
 90
      256
102
RTVSPost2010Prop51ColorRGB
 90
-16777216
102
RTVSPost2010PropOp51
 70
     0
102
RTVSPost2010Prop52
140
1.0
102
RTVSPost2010PropOp52
 70
     0
102
RTVSPost2010Prop53
 90
        2
102
RTVSPost2010PropOp53
 70
     1
102
RTVSPost2010Prop54
  1
strokes_ogs.tif
102
RTVSPost2010PropOp54
 70
     1
102
RTVSPost2010Prop55
280
     0
102
RTVSPost2010PropOp55
 70
     1
102
RTVSPost2010Prop56
140
1.0
102
RTVSPost2010PropOp56
 70
     1
102
RTVSPost2010Prop57
140
1.0
102
RTVSPost2010PropOp57
 70
     1
102
RTVSPropertyOp0
 70
     1
102
RTVSPropertyOp1
 70
     1
102
RTVSPropertyOp2
 70
     1
102
RTVSPropertyOp3
 70
     1
102
RTVSPropertyOp4
 70
     1
102
RTVSPropertyOp5
 70
     1
102
RTVSPropertyOp6
 70
     1
102
RTVSPropertyOp7
 70
     1
102
RTVSPropertyOp8
 70
     1
102
RTVSPropertyOp9
 70
     1
102
RTVSPropertyOp10
 70
     1
102
RTVSPropertyOp11
 70
     1
102
RTVSPropertyOp12
 70
     1
102
RTVSPropertyOp13
 70
     1
102
RTVSPropertyOp14
 70
     1
102
RTVSPropertyOp15
 70
     1
102
RTVSPropertyOp16
 70
     1
102
RTVSPropertyOp17
 70
     1
102
RTVSPropertyOp18
 70
     1
102
RTVSPropertyOp19
 70
     1
102
RTVSPropertyOp20
 70
     1
102
RTVSPropertyOp21
 70
     1
102
RTVSPropertyOp22
 70
     1
102
RTVSPropertyOp23
 70
     1
102
RTVSPropertyOp24
 70
     1
102
RTVSPropertyOp25
 70
     1
102
RTVSPropertyOp26
 70
     1
102
RTVSPropertyOp27
 70
     1
102
RTVSPropertyOp28
 70
     1
102
RTVSPropertyOp29
 70
     1
102
RTVSPropertyOp30
 70
     1
102
RTVSPropertyOp31
 70
     1
102
RTVSPropertyOp32
 70
     1
102
RTVSPropertyOp33
 70
     1
102
RTVSPropertyOp34
 70
     1
102
RTVSPropertyOp35
 70
     1
102
RTVSPropertyOp36
 70
     1
102
RTVSPropertyOp37
 70
     1
102
RTVSPropertyOp38
 70
     1
102
RTVSPropertyOp39
 70
     1
102
RTVSPropertyOp40
 70
     1
102
RTVSPropertyOp41
 70
     1
102
RTVSPropertyOp42
 70
     1
102
RTVSPropertyOp43
 70
     1
102
RTVSPropertyOp44
 70
     1
102
RTVSPropertyOp45
 70
     1
102
RTVSPropertyOp46
 70
     1
102
RTVSPropertyOp47
 70
     1
102
RTVSPropertyOp48
 70
     1
102
RTVSPropertyOp49
 70
     1
102
RTVSPropertyOp50
 70
     1
102
RTVSPropertyOp51
 70
     0
102
RTVSPropertyOp52
 70
     0
102
RTVSPropertyOp53
 70
     1
102
RTVSPropertyOp54
 70
     1
102
RTVSPropertyOp55
 70
     1
102
RTVSPropertyOp56
 70
     1
102
RTVSPropertyOp57
 70
     1
102
RTVSPropertyOp58
 70
     1
102
RTVSPropertyOp59
 70
     1
102
RTVSPropertyOp60
 70
     1
102
RTVSPropertyOp61
 70
     1
102
RTVSPropertyOp62
 70
     1
  0
XRECORD
  5
8B2A0
102
{ACAD_REACTORS
330
8B29F
102
}
330
8B29F
100
AcDbXrecord
280
     1
102
RTVSPost2010Prop28
280
     0
102
RTVSPost2010PropOp28
 70
     1
102
RTVSPost2010Prop29
280
     1
102
RTVSPost2010PropOp29
 70
     1
102
RTVSPost2010Prop30
280
     1
102
RTVSPost2010PropOp30
 70
     1
102
RTVSPost2010Prop31
280
     0
102
RTVSPost2010PropOp31
 70
     1
102
RTVSPost2010Prop32
280
     0
102
RTVSPost2010PropOp32
 70
     1
102
RTVSPost2010Prop33
280
     0
102
RTVSPost2010PropOp33
 70
     1
102
RTVSPost2010Prop34
280
     0
102
RTVSPost2010PropOp34
 70
     1
102
RTVSPost2010Prop35
280
     0
102
RTVSPost2010PropOp35
 70
     1
102
RTVSPost2010Prop36
280
     0
102
RTVSPost2010PropOp36
 70
     1
102
RTVSPost2010Prop37
 90
       50
102
RTVSPost2010PropOp37
 70
     1
102
RTVSPost2010Prop38
140
0.0
102
RTVSPost2010PropOp38
 70
     1
102
RTVSPost2010Prop39
140
1.0
102
RTVSPost2010PropOp39
 70
     1
102
RTVSPost2010Prop40
 90
        0
102
RTVSPost2010PropOp40
 70
     1
102
RTVSPost2010Prop41ColorIndex
 90
       18
102
RTVSPost2010Prop41ColorRGB
 90
        0
102
RTVSPost2010PropOp41
 70
     1
102
RTVSPost2010Prop42
 90
       50
102
RTVSPost2010PropOp42
 70
     1
102
RTVSPost2010Prop43
 90
        3
102
RTVSPost2010PropOp43
 70
     1
102
RTVSPost2010Prop44ColorIndex
 90
        5
102
RTVSPost2010Prop44ColorRGB
 90
      255
102
RTVSPost2010PropOp44
 70
     1
102
RTVSPost2010Prop45
280
     0
102
RTVSPost2010PropOp45
 70
     1
102
RTVSPost2010Prop46
 90
       50
102
RTVSPost2010PropOp46
 70
     1
102
RTVSPost2010Prop47
 90
       50
102
RTVSPost2010PropOp47
 70
     1
102
RTVSPost2010Prop48
 90
       50
102
RTVSPost2010PropOp48
 70
     1
102
RTVSPost2010Prop49
280
     0
102
RTVSPost2010PropOp49
 70
     1
102
RTVSPost2010Prop50
 90
       50
102
RTVSPost2010PropOp50
 70
     1
102
RTVSPost2010Prop51ColorIndex
 90
      256
102
RTVSPost2010Prop51ColorRGB
 90
-16777216
102
RTVSPost2010PropOp51
 70
     0
102
RTVSPost2010Prop52
140
1.0
102
RTVSPost2010PropOp52
 70
     0
102
RTVSPost2010Prop53
 90
        2
102
RTVSPost2010PropOp53
 70
     1
102
RTVSPost2010Prop54
  1
strokes_ogs.tif
102
RTVSPost2010PropOp54
 70
     1
102
RTVSPost2010Prop55
280
     0
102
RTVSPost2010PropOp55
 70
     1
102
RTVSPost2010Prop56
140
1.0
102
RTVSPost2010PropOp56
 70
     1
102
RTVSPost2010Prop57
140
1.0
102
RTVSPost2010PropOp57
 70
     1
102
RTVSPropertyOp0
 70
     1
102
RTVSPropertyOp1
 70
     1
102
RTVSPropertyOp2
 70
     1
102
RTVSPropertyOp3
 70
     1
102
RTVSPropertyOp4
 70
     1
102
RTVSPropertyOp5
 70
     1
102
RTVSPropertyOp6
 70
     1
102
RTVSPropertyOp7
 70
     1
102
RTVSPropertyOp8
 70
     1
102
RTVSPropertyOp9
 70
     1
102
RTVSPropertyOp10
 70
     1
102
RTVSPropertyOp11
 70
     1
102
RTVSPropertyOp12
 70
     1
102
RTVSPropertyOp13
 70
     1
102
RTVSPropertyOp14
 70
     1
102
RTVSPropertyOp15
 70
     1
102
RTVSPropertyOp16
 70
     1
102
RTVSPropertyOp17
 70
     1
102
RTVSPropertyOp18
 70
     1
102
RTVSPropertyOp19
 70
     1
102
RTVSPropertyOp20
 70
     1
102
RTVSPropertyOp21
 70
     1
102
RTVSPropertyOp22
 70
     1
102
RTVSPropertyOp23
 70
     1
102
RTVSPropertyOp24
 70
     1
102
RTVSPropertyOp25
 70
     1
102
RTVSPropertyOp26
 70
     1
102
RTVSPropertyOp27
 70
     1
102
RTVSPropertyOp28
 70
     1
102
RTVSPropertyOp29
 70
     1
102
RTVSPropertyOp30
 70
     1
102
RTVSPropertyOp31
 70
     1
102
RTVSPropertyOp32
 70
     1
102
RTVSPropertyOp33
 70
     1
102
RTVSPropertyOp34
 70
     1
102
RTVSPropertyOp35
 70
     1
102
RTVSPropertyOp36
 70
     1
102
RTVSPropertyOp37
 70
     1
102
RTVSPropertyOp38
 70
     1
102
RTVSPropertyOp39
 70
     1
102
RTVSPropertyOp40
 70
     1
102
RTVSPropertyOp41
 70
     1
102
RTVSPropertyOp42
 70
     1
102
RTVSPropertyOp43
 70
     1
102
RTVSPropertyOp44
 70
     1
102
RTVSPropertyOp45
 70
     1
102
RTVSPropertyOp46
 70
     1
102
RTVSPropertyOp47
 70
     1
102
RTVSPropertyOp48
 70
     1
102
RTVSPropertyOp49
 70
     1
102
RTVSPropertyOp50
 70
     1
102
RTVSPropertyOp51
 70
     0
102
RTVSPropertyOp52
 70
     0
102
RTVSPropertyOp53
 70
     1
102
RTVSPropertyOp54
 70
     1
102
RTVSPropertyOp55
 70
     1
102
RTVSPropertyOp56
 70
     1
102
RTVSPropertyOp57
 70
     1
102
RTVSPropertyOp58
 70
     1
102
RTVSPropertyOp59
 70
     1
102
RTVSPropertyOp60
 70
     1
102
RTVSPropertyOp61
 70
     1
102
RTVSPropertyOp62
 70
     1
  0
ENDSEC
  0
EOF
