  0
SECTION
  2
HEADER
  9
$ACADVER
  1
AC1015
  9
$ACADMAINTVER
 70
    20
  9
$DWGCODEPAGE
  3
ANSI_932
  9
$INSBASE
 10
0.0
 20
0.0
 30
0.0
  9
$EXTMIN
 10
5183.597491566583
 20
-1732.60017004812
 30
0.0
  9
$EXTMAX
 10
5896.522969975272
 20
-1328.237519332518
 30
137.5
  9
$LIMMIN
 10
0.0
 20
0.0
  9
$LIMMAX
 10
420.0
 20
297.0
  9
$ORTHOMODE
 70
     1
  9
$REGENMODE
 70
     1
  9
$FILLMODE
 70
     1
  9
$QTEXTMODE
 70
     0
  9
$MIRRTEXT
 70
     0
  9
$LTSCALE
 40
1.0
  9
$ATTMODE
 70
     1
  9
$TEXTSIZE
 40
0.2
  9
$TRACEWID
 40
1.0
  9
$TEXTSTYLE
  7
\U+FF7D\U+FF80\U+FF72\U+FF991
  9
$CLAYER
  8
細線
  9
$CELTYPE
  6
BYLAYER
  9
$CECOLOR
 62
   256
  9
$CELTSCALE
 40
1.0
  9
$DISPSILH
 70
     0
  9
$DIMSCALE
 40
2.0
  9
$DIMASZ
 40
2.5
  9
$DIMEXO
 40
1.0
  9
$DIMDLI
 40
0.38
  9
$DIMRND
 40
0.0
  9
$DIMDLE
 40
0.0
  9
$DIMEXE
 40
0.8
  9
$DIMTP
 40
0.0
  9
$DIMTM
 40
0.0
  9
$DIMTXT
 40
2.5
  9
$DIMCEN
 40
0.0
  9
$DIMTSZ
 40
0.0
  9
$DIMTOL
 70
     0
  9
$DIMLIM
 70
     0
  9
$DIMTIH
 70
     0
  9
$DIMTOH
 70
     0
  9
$DIMSE1
 70
     0
  9
$DIMSE2
 70
     0
  9
$DIMTAD
 70
     3
  9
$DIMZIN
 70
     8
  9
$DIMBLK
  1
Open30
  9
$DIMASO
 70
     1
  9
$DIMSHO
 70
     1
  9
$DIMPOST
  1

  9
$DIMAPOST
  1

  9
$DIMALT
 70
     0
  9
$DIMALTD
 70
     2
  9
$DIMALTF
 40
25.4
  9
$DIMLFAC
 40
1.0
  9
$DIMTOFL
 70
     0
  9
$DIMTVP
 40
0.0
  9
$DIMTIX
 70
     0
  9
$DIMSOXD
 70
     0
  9
$DIMSAH
 70
     0
  9
$DIMBLK1
  1

  9
$DIMBLK2
  1

  9
$DIMSTYLE
  2
まこ-10
  9
$DIMCLRD
 70
     4
  9
$DIMCLRE
 70
     4
  9
$DIMCLRT
 70
   256
  9
$DIMTFAC
 40
1.0
  9
$DIMGAP
 40
0.5
  9
$DIMJUST
 70
     0
  9
$DIMSD1
 70
     0
  9
$DIMSD2
 70
     0
  9
$DIMTOLJ
 70
     1
  9
$DIMTZIN
 70
     0
  9
$DIMALTZ
 70
     0
  9
$DIMALTTZ
 70
     0
  9
$DIMUPT
 70
     0
  9
$DIMDEC
 70
     5
  9
$DIMTDEC
 70
     5
  9
$DIMALTU
 70
     2
  9
$DIMALTTD
 70
     2
  9
$DIMTXSTY
  7
MS\U+FF7A\U+FF9E\U+FF7C\U+FF6F\U+FF78-0
  9
$DIMAUNIT
 70
     0
  9
$DIMADEC
 70
     5
  9
$DIMALTRND
 40
0.0
  9
$DIMAZIN
 70
     2
  9
$DIMDSEP
 70
    46
  9
$DIMATFIT
 70
     1
  9
$DIMFRAC
 70
     0
  9
$DIMLDRBLK
  1
Open30
  9
$DIMLUNIT
 70
     2
  9
$DIMLWD
 70
    13
  9
$DIMLWE
 70
    13
  9
$DIMTMOVE
 70
     0
  9
$LUNITS
 70
     2
  9
$LUPREC
 70
     4
  9
$SKETCHINC
 40
1.0
  9
$FILLETRAD
 40
0.4
  9
$AUNITS
 70
     0
  9
$AUPREC
 70
     0
  9
$MENU
  1
.
  9
$ELEVATION
 40
0.0
  9
$PELEVATION
 40
0.0
  9
$THICKNESS
 40
0.0
  9
$LIMCHECK
 70
     0
  9
$CHAMFERA
 40
0.5
  9
$CHAMFERB
 40
0.5
  9
$CHAMFERC
 40
20.0
  9
$CHAMFERD
 40
0.0
  9
$SKPOLY
 70
     0
  9
$TDCREATE
 40
2452479.723113426
  9
$TDUCREATE
 40
2452479.348123183
  9
$TDUPDATE
 40
2458554.388182871
  9
$TDUUPDATE
 40
2458554.013182871
  9
$TDINDWG
 40
16.0437001157
  9
$TDUSRTIMER
 40
2458333.035525567
  9
$USRTIMER
 70
     1
  9
$ANGBASE
 50
0.0
  9
$ANGDIR
 70
     0
  9
$PDMODE
 70
     0
  9
$PDSIZE
 40
0.0
  9
$PLINEWID
 40
0.0
  9
$SPLFRAME
 70
     0
  9
$SPLINETYPE
 70
     6
  9
$SPLINESEGS
 70
     8
  9
$HANDSEED
  5
BF6BC
  9
$SURFTAB1
 70
     6
  9
$SURFTAB2
 70
     6
  9
$SURFTYPE
 70
     6
  9
$SURFU
 70
     6
  9
$SURFV
 70
     6
  9
$UCSBASE
  2

  9
$UCSNAME
  2

  9
$UCSORG
 10
0.0
 20
0.0
 30
0.0
  9
$UCSXDIR
 10
1.0
 20
0.0
 30
0.0
  9
$UCSYDIR
 10
0.0
 20
1.0
 30
0.0
  9
$UCSORTHOREF
  2

  9
$UCSORTHOVIEW
 70
     0
  9
$UCSORGTOP
 10
0.0
 20
0.0
 30
0.0
  9
$UCSORGBOTTOM
 10
0.0
 20
0.0
 30
0.0
  9
$UCSORGLEFT
 10
0.0
 20
0.0
 30
0.0
  9
$UCSORGRIGHT
 10
0.0
 20
0.0
 30
0.0
  9
$UCSORGFRONT
 10
0.0
 20
0.0
 30
0.0
  9
$UCSORGBACK
 10
0.0
 20
0.0
 30
0.0
  9
$PUCSBASE
  2

  9
$PUCSNAME
  2

  9
$PUCSORG
 10
0.0
 20
0.0
 30
0.0
  9
$PUCSXDIR
 10
1.0
 20
0.0
 30
0.0
  9
$PUCSYDIR
 10
0.0
 20
1.0
 30
0.0
  9
$PUCSORTHOREF
  2

  9
$PUCSORTHOVIEW
 70
     0
  9
$PUCSORGTOP
 10
0.0
 20
0.0
 30
0.0
  9
$PUCSORGBOTTOM
 10
0.0
 20
0.0
 30
0.0
  9
$PUCSORGLEFT
 10
0.0
 20
0.0
 30
0.0
  9
$PUCSORGRIGHT
 10
0.0
 20
0.0
 30
0.0
  9
$PUCSORGFRONT
 10
0.0
 20
0.0
 30
0.0
  9
$PUCSORGBACK
 10
0.0
 20
0.0
 30
0.0
  9
$USERI1
 70
     0
  9
$USERI2
 70
     0
  9
$USERI3
 70
     0
  9
$USERI4
 70
     0
  9
$USERI5
 70
     0
  9
$USERR1
 40
10.0
  9
$USERR2
 40
0.0
  9
$USERR3
 40
0.0
  9
$USERR4
 40
0.0
  9
$USERR5
 40
0.0
  9
$WORLDVIEW
 70
     1
  9
$SHADEDGE
 70
     3
  9
$SHADEDIF
 70
    70
  9
$TILEMODE
 70
     0
  9
$MAXACTVP
 70
    48
  9
$PINSBASE
 10
0.0
 20
0.0
 30
0.0
  9
$PLIMCHECK
 70
     0
  9
$PEXTMIN
 10
1.049999999999999
 20
0.6999999999999998
 30
0.0
  9
$PEXTMAX
 10
9.449999999999999
 20
6.3
 30
0.0
  9
$PLIMMIN
 10
0.0
 20
0.0
  9
$PLIMMAX
 10
0.0
 20
0.0
  9
$UNITMODE
 70
     0
  9
$VISRETAIN
 70
     1
  9
$PLINEGEN
 70
     0
  9
$PSLTSCALE
 70
     1
  9
$TREEDEPTH
 70
  3020
  9
$CMLSTYLE
  2
STANDARD
  9
$CMLJUST
 70
     0
  9
$CMLSCALE
 40
20.0
  9
$PROXYGRAPHICS
 70
     1
  9
$MEASUREMENT
 70
     0
  9
$CELWEIGHT
370
    -1
  9
$ENDCAPS
280
     0
  9
$JOINSTYLE
280
     0
  9
$LWDISPLAY
290
     1
  9
$INSUNITS
 70
     0
  9
$HYPERLINKBASE
  1

  9
$STYLESHEET
  1
monochrome.ctb
  9
$XEDIT
290
     1
  9
$CEPSNTYPE
380
     0
  9
$PSTYLEMODE
290
     1
  9
$FINGERPRINTGUID
  2
{6B368F64-F7EB-11D4-BFBA-00004C030E53}
  9
$VERSIONGUID
  2
{58D2EA23-0172-5941-8136-03DEA7A64F75}
  9
$EXTNAMES
290
     1
  9
$PSVPSCALE
 40
0.0
  9
$OLESTARTUP
290
     0
  0
ENDSEC
  0
SECTION
  2
CLASSES
  0
CLASS
  1
ACDBDICTIONARYWDFLT
  2
AcDbDictionaryWithDefault
  3
ObjectDBX Classes
 90
        0
280
     0
281
     0
  0
CLASS
  1
ACDBPLACEHOLDER
  2
AcDbPlaceHolder
  3
ObjectDBX Classes
 90
        0
280
     0
281
     0
  0
CLASS
  1
LAYOUT
  2
AcDbLayout
  3
ObjectDBX Classes
 90
        0
280
     0
281
     0
  0
CLASS
  1
DICTIONARYVAR
  2
AcDbDictionaryVar
  3
ObjectDBX Classes
 90
        0
280
     0
281
     0
  0
CLASS
  1
MATERIAL
  2
AcDbMaterial
  3
ObjectDBX Classes
 90
     1153
280
     0
281
     0
  0
CLASS
  1
VISUALSTYLE
  2
AcDbVisualStyle
  3
ObjectDBX Classes
 90
     4095
280
     0
281
     0
  0
CLASS
  1
TABLESTYLE
  2
AcDbTableStyle
  3
ObjectDBX Classes
 90
     4095
280
     0
281
     0
  0
CLASS
  1
SCALE
  2
AcDbScale
  3
ObjectDBX Classes
 90
     1153
280
     0
281
     0
  0
CLASS
  1
MLEADERSTYLE
  2
AcDbMLeaderStyle
  3
ACDB_MLEADERSTYLE_CLASS
 90
     4095
280
     0
281
     0
  0
CLASS
  1
SORTENTSTABLE
  2
AcDbSortentsTable
  3
ObjectDBX Classes
 90
    32768
280
     0
281
     0
  0
CLASS
  1
CELLSTYLEMAP
  2
AcDbCellStyleMap
  3
ObjectDBX Classes
 90
     1152
280
     0
281
     0
  0
CLASS
  1
SUN
  2
AcDbSun
  3
SCENEOE
 90
     1153
280
     0
281
     0
  0
CLASS
  1
RASTERVARIABLES
  2
AcDbRasterVariables
  3
ISM
 90
        0
280
     0
281
     0
  0
CLASS
  1
ACDBSECTIONVIEWSTYLE
  2
AcDbSectionViewStyle
  3
ObjectDBX Classes
 90
     1025
280
     0
281
     0
  0
CLASS
  1
ACDBDETAILVIEWSTYLE
  2
AcDbDetailViewStyle
  3
ObjectDBX Classes
 90
     1025
280
     0
281
     0
  0
ENDSEC
  0
SECTION
  2
TABLES
  0
TABLE
  2
VPORT
  5
8
102
{ACAD_XDICTIONARY
360
BF3CA
102
}
330
0
100
AcDbSymbolTable
 70
     1
  0
VPORT
  5
A2A92
330
8
100
AcDbSymbolTableRecord
100
AcDbViewportTableRecord
  2
*Active
 70
     0
 10
0.0
 20
0.0
 11
1.0
 21
1.0
 12
5580.103805833603
 22
-1493.339522496958
 13
-147.9468458676922
 23
19.55743956420332
 14
10.0
 24
10.0
 15
10.0
 25
10.0
 16
0.0
 26
0.0
 36
1.0
 17
0.0
 27
0.0
 37
0.0
 40
114.719386370054
 41
1.523404255319148
 42
50.0
 43
0.0
 44
0.0
 50
0.0
 51
0.0
 71
    16
 72
   100
 73
     1
 74
     0
 75
     0
 76
     0
 77
     0
 78
     0
281
     0
 65
     1
110
0.0
120
0.0
130
0.0
111
1.0
121
0.0
131
0.0
112
0.0
122
1.0
132
0.0
 79
     0
146
0.0
1001
ACAD_NAV_VCDISPLAY
1070
     3
  0
ENDTAB
  0
TABLE
  2
LTYPE
  5
5
330
0
100
AcDbSymbolTable
 70
     2
  0
LTYPE
  5
12
330
5
100
AcDbSymbolTableRecord
100
AcDbLinetypeTableRecord
  2
BYBLOCK
 70
     0
  3

 72
    65
 73
     0
 40
0.0
  0
LTYPE
  5
13
330
5
100
AcDbSymbolTableRecord
100
AcDbLinetypeTableRecord
  2
BYLAYER
 70
     0
  3

 72
    65
 73
     0
 40
0.0
  0
LTYPE
  5
14
330
5
100
AcDbSymbolTableRecord
100
AcDbLinetypeTableRecord
  2
CONTINUOUS
 70
     0
  3
Solid line
 72
    65
 73
     0
 40
0.0
  0
LTYPE
  5
8930E
330
5
100
AcDbSymbolTableRecord
100
AcDbLinetypeTableRecord
  2
CENTER
 70
     0
  3
____ _ ____ _ ____ _ ____ _ ____ _ ____ _ ____
 72
    65
 73
     4
 40
17.5
 49
13.0
 74
     0
 49
-1.5
 74
     0
 49
1.5
 74
     0
 49
-1.5
 74
     0
  0
ENDTAB
  0
TABLE
  2
LAYER
  5
2
102
{ACAD_XDICTIONARY
360
1E591
102
}
330
0
100
AcDbSymbolTable
 70
     8
  0
LAYER
  5
E
102
{ACAD_XDICTIONARY
360
A2CED
102
}
330
2
100
AcDbSymbolTableRecord
100
AcDbLayerTableRecord
  2
0
 70
     2
 62
     7
  6
CONTINUOUS
370
    -3
390
73E
  0
LAYER
  5
8C6
102
{ACAD_XDICTIONARY
360
A2CF5
102
}
330
2
100
AcDbSymbolTableRecord
100
AcDbLayerTableRecord
  2
文字
 70
     0
 62
     7
  6
CONTINUOUS
370
    20
390
73E
  0
LAYER
  5
1521
102
{ACAD_XDICTIONARY
360
A2CFD
102
}
330
2
100
AcDbSymbolTableRecord
100
AcDbLayerTableRecord
  2
実線
 70
     0
 62
     7
  6
CONTINUOUS
370
    30
390
73E
  0
LAYER
  5
1523
102
{ACAD_XDICTIONARY
360
A2D01
102
}
330
2
100
AcDbSymbolTableRecord
100
AcDbLayerTableRecord
  2
細線
 70
     0
 62
     7
  6
CONTINUOUS
370
    13
390
73E
  0
LAYER
  5
7EA59
102
{ACAD_XDICTIONARY
360
A2D09
102
}
330
2
100
AcDbSymbolTableRecord
100
AcDbLayerTableRecord
  2
dimension
 70
     0
 62
     7
  6
CONTINUOUS
370
    13
390
73E
  0
LAYER
  5
89319
102
{ACAD_XDICTIONARY
360
A2D33
102
}
330
2
100
AcDbSymbolTableRecord
100
AcDbLayerTableRecord
  2
ハッチング
 70
     0
 62
     7
  6
CONTINUOUS
370
     5
390
73E
  0
LAYER
  5
A2EBD
102
{ACAD_XDICTIONARY
360
A2EBE
102
}
330
2
100
AcDbSymbolTableRecord
100
AcDbLayerTableRecord
  2
CENTER
 70
     0
 62
     7
  6
CENTER
370
    13
390
73E
  0
LAYER
  5
AC472
330
2
100
AcDbSymbolTableRecord
100
AcDbLayerTableRecord
  2
OBJECT
 70
     0
 62
     7
  6
CONTINUOUS
370
    30
390
73E
  0
ENDTAB
  0
TABLE
  2
STYLE
  5
3
330
0
100
AcDbSymbolTable
 70
     7
  0
STYLE
  5
F
330
3
100
AcDbSymbolTableRecord
100
AcDbTextStyleTableRecord
  2
STANDARD
 70
     0
 40
0.0
 41
1.0
 50
0.0
 71
     0
 42
2.5
  3
simplex.shx
  4
bigfont.shx
  0
STYLE
  5
8D7
330
3
100
AcDbSymbolTableRecord
100
AcDbTextStyleTableRecord
  2
MS\U+FF7A\U+FF9E\U+FF7C\U+FF6F\U+FF78-0
 70
     0
 40
0.0
 41
1.0
 50
0.0
 71
     0
 42
4.0
  3
simplex.shx
  4
bigfont.shx
  0
STYLE
  5
1529
330
3
100
AcDbSymbolTableRecord
100
AcDbTextStyleTableRecord
  2
まこ
 70
     0
 40
0.0
 41
1.0
 50
0.0
 71
     0
 42
3.2
  3
simplex.shx
  4
bigfont.shx
  0
STYLE
  5
80335
330
3
100
AcDbSymbolTableRecord
100
AcDbTextStyleTableRecord
  2
\U+FF7D\U+FF80\U+FF72\U+FF991
 70
     0
 40
0.0
 41
1.0
 50
0.0
 71
     0
 42
0.2
  3
simplex.shx
  4
extfont.shx
  0
STYLE
  5
BF43F
330
3
100
AcDbSymbolTableRecord
100
AcDbTextStyleTableRecord
  2
TIMESNR
 70
     0
 40
0.0
 41
1.0
 50
0.0
 71
     0
 42
2.0
  3
times.ttf
  4

1001
ACAD
1000
Times New Roman
1071
       18
  0
STYLE
  5
BF440
330
3
100
AcDbSymbolTableRecord
100
AcDbTextStyleTableRecord
  2
MS\U+FF7A\U+FF9E\U+FF7C\U+FF6F\U+FF78
 70
     0
 40
0.0
 41
1.0
 50
0.0
 71
     0
 42
5.0
  3

  4

1001
ACAD
1000
MS Gothic
1071
    32817
  0
STYLE
  5
BF441
330
3
100
AcDbSymbolTableRecord
100
AcDbTextStyleTableRecord
  2
MS\U+FF7A\U+FF9E\U+FF7C\U+FF6F\U+FF78N
 70
     0
 40
0.0
 41
1.0
 50
0.0
 71
     0
 42
5.0
  3

  4

1001
ACAD
1000
MS Gothic
1071
    32817
  0
ENDTAB
  0
TABLE
  2
VIEW
  5
6
330
0
100
AcDbSymbolTable
 70
     0
  0
ENDTAB
  0
TABLE
  2
UCS
  5
7
330
0
100
AcDbSymbolTable
 70
     0
  0
ENDTAB
  0
TABLE
  2
APPID
  5
9
330
0
100
AcDbSymbolTable
 70
    18
  0
APPID
  5
10
330
9
100
AcDbSymbolTableRecord
100
AcDbRegAppTableRecord
  2
ACAD
 70
     0
  0
APPID
  5
8F834
330
9
100
AcDbSymbolTableRecord
100
AcDbRegAppTableRecord
  2
ACAD_DSTYLE_DIMRADIAL_EXTENSION
 70
     0
  0
APPID
  5
8F835
330
9
100
AcDbSymbolTableRecord
100
AcDbRegAppTableRecord
  2
ACAD_DSTYLE_DIMFLIPARROW_WHICH_SYMBOL
 70
     0
  0
APPID
  5
9F979
330
9
100
AcDbSymbolTableRecord
100
AcDbRegAppTableRecord
  2
AcadAnnotative
 70
     0
  0
APPID
  5
A2AF3
330
9
100
AcDbSymbolTableRecord
100
AcDbRegAppTableRecord
  2
ACAD_EXEMPT_FROM_CAD_STANDARDS
 70
     0
  0
APPID
  5
A2AF5
330
9
100
AcDbSymbolTableRecord
100
AcDbRegAppTableRecord
  2
ACAD_PSEXT
 70
     0
  0
APPID
  5
A2AF6
330
9
100
AcDbSymbolTableRecord
100
AcDbRegAppTableRecord
  2
ACAD_NAV_VCDISPLAY
 70
     0
  0
APPID
  5
A2B75
330
9
100
AcDbSymbolTableRecord
100
AcDbRegAppTableRecord
  2
AcAecLayerStandard
 70
     0
  0
APPID
  5
A2B76
330
9
100
AcDbSymbolTableRecord
100
AcDbRegAppTableRecord
  2
AcCmTransparency
 70
     0
  0
APPID
  5
A2D87
330
9
100
AcDbSymbolTableRecord
100
AcDbRegAppTableRecord
  2
ACAD_MLEADERVER
 70
     0
  0
APPID
  5
A2EFD
330
9
100
AcDbSymbolTableRecord
100
AcDbRegAppTableRecord
  2
PE_CLOUD
 70
     0
  0
APPID
  5
A2EFE
330
9
100
AcDbSymbolTableRecord
100
AcDbRegAppTableRecord
  2
PLOTTRANSPARENCY
 70
     0
  0
APPID
  5
A926D
330
9
100
AcDbSymbolTableRecord
100
AcDbRegAppTableRecord
  2
ACAD_DSTYLE_DIMFLIPARROW_SYMBOL
 70
     0
  0
APPID
  5
A9FC8
330
9
100
AcDbSymbolTableRecord
100
AcDbRegAppTableRecord
  2
ACAD_DIMASSOC_DIMLFAC
 70
     0
  0
APPID
  5
A9FC9
330
9
100
AcDbSymbolTableRecord
100
AcDbRegAppTableRecord
  2
ACAD_DIMASSOC_CALC_DIMLFAC
 70
     0
  0
APPID
  5
A9FCA
330
9
100
AcDbSymbolTableRecord
100
AcDbRegAppTableRecord
  2
ACAD_DIMASSOC_OVERRIDDEN_DIMLFAC
 70
     0
  0
APPID
  5
B0518
330
9
100
AcDbSymbolTableRecord
100
AcDbRegAppTableRecord
  2
ACAD_DSTYLE_DIMBREAK
 70
     0
  0
APPID
  5
B0519
330
9
100
AcDbSymbolTableRecord
100
AcDbRegAppTableRecord
  2
ACAD_DSTYLE_DIMJAG
 70
     0
  0
ENDTAB
  0
TABLE
  2
DIMSTYLE
  5
A
330
0
100
AcDbSymbolTable
 70
     2
100
AcDbDimStyleTable
 71
     0
  0
DIMSTYLE
105
1D
330
A
100
AcDbSymbolTableRecord
100
AcDbDimStyleTableRecord
  2
STANDARD
 70
     0
 41
3.0
 42
0.8
 44
0.8
 73
     0
 74
     0
 77
     3
 78
     8
 79
     2
140
3.0
141
0.0
147
0.5
176
     4
177
     4
178
   256
340
8D7
341
89E
342
89E
371
    13
372
    13
  0
DIMSTYLE
105
8264
330
A
100
AcDbSymbolTableRecord
100
AcDbDimStyleTableRecord
  2
まこ-10
 70
     0
 40
2.0
 41
2.5
 42
1.0
 44
0.8
 73
     0
 74
     0
 77
     3
 78
     8
 79
     2
140
2.5
141
0.0
147
0.5
176
     4
177
     4
178
   256
179
     5
271
     5
272
     5
289
     1
340
8D7
341
89E
342
89E
371
    13
372
    13
  0
ENDTAB
  0
TABLE
  2
BLOCK_RECORD
  5
1
330
0
100
AcDbSymbolTable
 70
     2
  0
BLOCK_RECORD
  5
18
330
1
100
AcDbSymbolTableRecord
100
AcDbBlockTableRecord
  2
*MODEL_SPACE
340
741
  0
BLOCK_RECORD
  5
BF3A3
330
1
100
AcDbSymbolTableRecord
100
AcDbBlockTableRecord
  2
*Paper_Space
340
BF3A4
  0
BLOCK_RECORD
  5
89E
330
1
100
AcDbSymbolTableRecord
100
AcDbBlockTableRecord
  2
_Open30
340
0
  0
BLOCK_RECORD
  5
A95FF
330
1
100
AcDbSymbolTableRecord
100
AcDbBlockTableRecord
  2
A$C2323
340
0
102
{BLKREFS
331
A967F
102
}
  0
ENDTAB
  0
ENDSEC
  0
SECTION
  2
BLOCKS
  0
BLOCK
  5
19
330
18
100
AcDbEntity
  8
0
100
AcDbBlockBegin
  2
*MODEL_SPACE
 70
     0
 10
0.0
 20
0.0
 30
0.0
  3
*MODEL_SPACE
  1
*MODEL_SPACE
  0
ENDBLK
  5
1A
330
18
100
AcDbEntity
  8
0
100
AcDbBlockEnd
  0
BLOCK
  5
BF3A5
330
BF3A3
100
AcDbEntity
 67
     1
  8
0
100
AcDbBlockBegin
  2
*Paper_Space
 70
     0
 10
0.0
 20
0.0
 30
0.0
  3
*Paper_Space
  1

  0
ENDBLK
  5
BF3A6
330
BF3A3
100
AcDbEntity
 67
     1
  8
0
100
AcDbBlockEnd
  0
BLOCK
  5
8A2
330
89E
100
AcDbEntity
  8
0
100
AcDbBlockBegin
  2
_Open30
 70
     0
 10
0.0
 20
0.0
 30
0.0
  3
_Open30
  1
_Open30
  0
LINE
  5
89F
330
89E
100
AcDbEntity
  8
0
  6
ByBlock
 62
     0
370
    -2
100
AcDbLine
 10
-1.0
 20
0.26794919
 30
0.0
 11
0.0
 21
0.0
 31
0.0
  0
LINE
  5
8A0
330
89E
100
AcDbEntity
  8
0
  6
ByBlock
 62
     0
370
    -2
100
AcDbLine
 10
0.0
 20
0.0
 30
0.0
 11
-1.0
 21
-0.26794919
 31
0.0
  0
LINE
  5
8A1
330
89E
100
AcDbEntity
  8
0
  6
ByBlock
 62
     0
370
    -2
100
AcDbLine
 10
0.0
 20
0.0
 30
0.0
 11
-1.0
 21
0.0
 31
0.0
  0
ENDBLK
  5
8A3
330
89E
100
AcDbEntity
  8
0
100
AcDbBlockEnd
  0
BLOCK
  5
A967D
330
A95FF
100
AcDbEntity
  8
0
100
AcDbBlockBegin
  2
A$C2323
 70
     0
 10
0.0
 20
0.0
 30
0.0
  3
A$C2323
  1
A$C2323
  0
CIRCLE
  5
A9633
330
A95FF
100
AcDbEntity
  8
実線
 48
0.1
100
AcDbCircle
 10
0.0
 20
0.0
 30
0.0
 40
9.350000000000363
  0
LINE
  5
A9634
330
A95FF
100
AcDbEntity
  8
実線
 48
0.1
100
AcDbLine
 10
-8.5
 20
3.895189340713841
 30
0.0
 11
-8.499999999996362
 21
-3.895189340717478
 31
0.0
  0
LINE
  5
A9635
330
A95FF
100
AcDbEntity
  8
実線
 48
0.1
100
AcDbLine
 10
-7.62333292160838
 20
-5.413621261806837
 30
0.0
 11
-0.8766670783879817
 21
-9.308810602524317
 31
0.0
  0
LINE
  5
A9636
330
A95FF
100
AcDbEntity
  8
実線
 48
0.1
100
AcDbLine
 10
0.8766670783952577
 20
-9.308810602524317
 30
0.0
 11
7.623332921612018
 21
-5.413621261812295
 31
0.0
  0
LINE
  5
A9637
330
A95FF
100
AcDbEntity
  8
実線
 48
0.1
100
AcDbLine
 10
8.500000000007275
 20
-3.895189340710203
 30
0.0
 11
8.5
 21
3.895189340713841
 31
0.0
  0
LINE
  5
A9638
330
A95FF
100
AcDbEntity
  8
実線
 48
0.1
100
AcDbLine
 10
7.623332921604742
 20
5.413621261817752
 30
0.0
 11
0.8766670784025336
 21
9.308810602522498
 31
0.0
  0
LINE
  5
A9639
330
A95FF
100
AcDbEntity
  8
実線
 48
0.1
100
AcDbLine
 10
-0.8766670783879817
 20
9.308810602524317
 30
0.0
 11
-7.62333292160838
 21
5.413621261812295
 31
0.0
  0
CIRCLE
  5
A963A
102
{ACAD_REACTORS
330
A967C
102
}
330
A95FF
100
AcDbEntity
  8
実線
 48
0.1
100
AcDbCircle
 10
0.0
 20
0.0
 30
0.0
 40
3.45
  0
CIRCLE
  5
A963B
330
A95FF
100
AcDbEntity
  8
実線
 48
0.1
100
AcDbCircle
 10
0.0
 20
0.0
 30
0.0
 40
8.5
  0
LINE
  5
A963C
330
A95FF
100
AcDbEntity
  8
実線
100
AcDbLine
 10
7.5
 20
3.0
 30
0.0
 11
7.5
 21
3.464101615139953
 31
0.0
  0
LINE
  5
A963D
330
A95FF
100
AcDbEntity
  8
実線
100
AcDbLine
 10
7.099999999998544
 20
2.200000000000728
 30
0.0
 11
7.099999999998544
 21
3.0
 31
0.0
  0
LINE
  5
A963E
330
A95FF
100
AcDbEntity
  8
実線
100
AcDbLine
 10
7.499999999996362
 20
3.0
 30
0.0
 11
7.099999999998544
 21
3.0
 31
0.0
  0
LINE
  5
A963F
330
A95FF
100
AcDbEntity
  8
実線
100
AcDbLine
 10
5.655255888323154
 20
5.395190528382954
 30
0.0
 11
1.844744111673207
 21
7.595190528383682
 31
0.0
  0
LINE
  5
A9640
330
A95FF
100
AcDbEntity
  8
実線
100
AcDbLine
 10
6.148076211349689
 20
4.648780366869686
 30
0.0
 11
5.455255888322425
 21
5.048780366869323
 31
0.0
  0
LINE
  5
A9641
330
A95FF
100
AcDbEntity
  8
実線
100
AcDbLine
 10
6.348076211350416
 20
4.995190528383317
 30
0.0
 11
6.148076211349689
 21
4.648780366869686
 31
0.0
  0
LINE
  5
A9642
330
A95FF
100
AcDbEntity
  8
実線
100
AcDbLine
 10
6.75
 20
4.763139720815161
 30
0.0
 11
6.348076211350416
 21
4.995190528385137
 31
0.0
  0
LINE
  5
A9643
330
A95FF
100
AcDbEntity
  8
実線
100
AcDbLine
 10
5.655255888323154
 20
5.395190528382954
 30
0.0
 11
5.455255888322425
 21
5.048780366869323
 31
0.0
  0
LINE
  5
A9644
330
A95FF
100
AcDbEntity
  8
実線
100
AcDbLine
 10
7.499999999996362
 20
2.200000000000728
 30
0.0
 11
7.099999999998544
 21
2.200000000000728
 31
0.0
  0
LINE
  5
A9645
330
A95FF
100
AcDbEntity
  8
実線
100
AcDbLine
 10
6.75
 20
4.763139720815161
 30
0.0
 11
7.5
 21
3.464101615138134
 31
0.0
  0
LINE
  5
A9646
330
A95FF
100
AcDbEntity
  8
実線
100
AcDbLine
 10
6.348076211350416
 20
-4.995190528381498
 30
0.0
 11
6.75
 21
-4.763139720813342
 31
0.0
  0
LINE
  5
A9647
330
A95FF
100
AcDbEntity
  8
実線
100
AcDbLine
 10
5.455255888326063
 20
-5.048780366867504
 30
0.0
 11
6.148076211353327
 21
-4.648780366867867
 31
0.0
  0
LINE
  5
A9648
330
A95FF
100
AcDbEntity
  8
実線
100
AcDbLine
 10
6.348076211350416
 20
-4.995190528381498
 30
0.0
 11
6.148076211353327
 21
-4.648780366867867
 31
0.0
  0
LINE
  5
A9649
330
A95FF
100
AcDbEntity
  8
実線
100
AcDbLine
 10
7.5
 20
-2.199999999998909
 30
0.0
 11
7.5
 21
2.200000000000728
 31
0.0
  0
LINE
  5
A964A
330
A95FF
100
AcDbEntity
  8
実線
100
AcDbLine
 10
7.099999999998544
 20
-3.0
 30
0.0
 11
7.099999999998544
 21
-2.199999999998909
 31
0.0
  0
LINE
  5
A964B
330
A95FF
100
AcDbEntity
  8
実線
100
AcDbLine
 10
7.499999999996362
 20
-2.999999999998181
 30
0.0
 11
7.099999999998544
 21
-2.999999999998181
 31
0.0
  0
LINE
  5
A964C
330
A95FF
100
AcDbEntity
  8
実線
100
AcDbLine
 10
7.5
 20
-3.464101615136315
 30
0.0
 11
7.5
 21
-2.999999999998181
 31
0.0
  0
LINE
  5
A964D
330
A95FF
100
AcDbEntity
  8
実線
100
AcDbLine
 10
7.5
 20
-2.199999999998909
 30
0.0
 11
7.099999999998544
 21
-2.199999999998909
 31
0.0
  0
LINE
  5
A964E
330
A95FF
100
AcDbEntity
  8
実線
100
AcDbLine
 10
5.655255888323154
 20
-5.395190528381135
 30
0.0
 11
5.455255888326063
 21
-5.048780366867504
 31
0.0
  0
LINE
  5
A964F
330
A95FF
100
AcDbEntity
  8
実線
100
AcDbLine
 10
7.5
 20
-3.464101615136315
 30
0.0
 11
6.75
 21
-4.763139720813342
 31
0.0
  0
LINE
  5
A9650
330
A95FF
100
AcDbEntity
  8
実線
100
AcDbLine
 10
-1.151923788649583
 20
-7.995190528381498
 30
0.0
 11
-0.75
 21
-8.227241335951475
 31
0.0
  0
LINE
  5
A9651
330
A95FF
100
AcDbEntity
  8
実線
100
AcDbLine
 10
-1.644744111676117
 20
-7.248780366868231
 30
0.0
 11
-0.9519237886488554
 21
-7.648780366867867
 31
0.0
  0
LINE
  5
A9652
330
A95FF
100
AcDbEntity
  8
実線
100
AcDbLine
 10
-1.151923788645945
 20
-7.995190528381498
 30
0.0
 11
-0.9519237886488554
 21
-7.648780366867867
 31
0.0
  0
LINE
  5
A9653
330
A95FF
100
AcDbEntity
  8
実線
100
AcDbLine
 10
1.844744111673207
 20
-7.595190528381863
 30
0.0
 11
5.655255888323154
 21
-5.395190528382954
 31
0.0
  0
LINE
  5
A9654
330
A95FF
100
AcDbEntity
  8
実線
100
AcDbLine
 10
0.9519237886452174
 20
-7.648780366867867
 30
0.0
 11
1.644744111672479
 21
-7.248780366866412
 31
0.0
  0
LINE
  5
A9655
330
A95FF
100
AcDbEntity
  8
実線
100
AcDbLine
 10
1.151923788645945
 20
-7.995190528381498
 30
0.0
 11
0.9519237886452174
 21
-7.648780366867867
 31
0.0
  0
LINE
  5
A9656
330
A95FF
100
AcDbEntity
  8
実線
100
AcDbLine
 10
0.75
 20
-8.227241335951475
 30
0.0
 11
1.151923788645945
 21
-7.995190528381498
 31
0.0
  0
LINE
  5
A9657
330
A95FF
100
AcDbEntity
  8
実線
100
AcDbLine
 10
1.844744111673207
 20
-7.595190528381863
 30
0.0
 11
1.644744111672479
 21
-7.248780366868231
 31
0.0
  0
LINE
  5
A9658
330
A95FF
100
AcDbEntity
  8
実線
100
AcDbLine
 10
-1.844744111673207
 20
-7.595190528380044
 30
0.0
 11
-1.644744111676117
 21
-7.248780366868231
 31
0.0
  0
LINE
  5
A9659
330
A95FF
100
AcDbEntity
  8
実線
100
AcDbLine
 10
0.75
 20
-8.227241335949656
 30
0.0
 11
-0.75
 21
-8.227241335949656
 31
0.0
  0
LINE
  5
A965A
330
A95FF
100
AcDbEntity
  8
実線
100
AcDbLine
 10
-7.5
 20
-2.999999999998181
 30
0.0
 11
-7.5
 21
-3.464101615136315
 31
0.0
  0
LINE
  5
A965B
330
A95FF
100
AcDbEntity
  8
実線
100
AcDbLine
 10
-7.099999999998544
 20
-2.200000000000728
 30
0.0
 11
-7.100000000002182
 21
-3.0
 31
0.0
  0
LINE
  5
A965C
330
A95FF
100
AcDbEntity
  8
実線
100
AcDbLine
 10
-7.5
 20
-3.0
 30
0.0
 11
-7.100000000002182
 21
-3.0
 31
0.0
  0
LINE
  5
A965D
330
A95FF
100
AcDbEntity
  8
実線
100
AcDbLine
 10
-5.655255888326792
 20
-5.395190528382954
 30
0.0
 11
-1.844744111673207
 21
-7.595190528381863
 31
0.0
  0
LINE
  5
A965E
330
A95FF
100
AcDbEntity
  8
実線
100
AcDbLine
 10
-6.148076211353327
 20
-4.648780366867867
 30
0.0
 11
-5.455255888326063
 21
-5.048780366867504
 31
0.0
  0
LINE
  5
A965F
330
A95FF
100
AcDbEntity
  8
実線
100
AcDbLine
 10
-6.348076211354054
 20
-4.995190528381498
 30
0.0
 11
-6.148076211353327
 21
-4.648780366867867
 31
0.0
  0
LINE
  5
A9660
330
A95FF
100
AcDbEntity
  8
実線
100
AcDbLine
 10
-6.75
 20
-4.763139720813342
 30
0.0
 11
-6.348076211354054
 21
-4.995190528381498
 31
0.0
  0
LINE
  5
A9661
330
A95FF
100
AcDbEntity
  8
実線
100
AcDbLine
 10
-5.655255888326792
 20
-5.395190528382954
 30
0.0
 11
-5.455255888326063
 21
-5.048780366869323
 31
0.0
  0
LINE
  5
A9662
330
A95FF
100
AcDbEntity
  8
実線
100
AcDbLine
 10
-7.5
 20
-2.199999999998909
 30
0.0
 11
-7.100000000002182
 21
-2.199999999998909
 31
0.0
  0
LINE
  5
A9663
330
A95FF
100
AcDbEntity
  8
実線
100
AcDbLine
 10
-6.75
 20
-4.763139720813342
 30
0.0
 11
-7.5
 21
-3.464101615136315
 31
0.0
  0
LINE
  5
A9664
330
A95FF
100
AcDbEntity
  8
実線
100
AcDbLine
 10
-6.348076211354054
 20
4.995190528385137
 30
0.0
 11
-6.750000000003637
 21
4.763139720815161
 31
0.0
  0
LINE
  5
A9665
330
A95FF
100
AcDbEntity
  8
実線
100
AcDbLine
 10
-5.455255888326063
 20
5.048780366869323
 30
0.0
 11
-6.148076211353327
 21
4.648780366871505
 31
0.0
  0
LINE
  5
A9666
330
A95FF
100
AcDbEntity
  8
実線
100
AcDbLine
 10
-6.348076211354054
 20
4.995190528383317
 30
0.0
 11
-6.148076211353327
 21
4.648780366871505
 31
0.0
  0
LINE
  5
A9667
330
A95FF
100
AcDbEntity
  8
実線
100
AcDbLine
 10
-7.5
 20
2.200000000000728
 30
0.0
 11
-7.5
 21
-2.199999999998909
 31
0.0
  0
LINE
  5
A9668
330
A95FF
100
AcDbEntity
  8
実線
100
AcDbLine
 10
-7.099999999998544
 20
3.0
 30
0.0
 11
-7.099999999998544
 21
2.200000000000728
 31
0.0
  0
LINE
  5
A9669
330
A95FF
100
AcDbEntity
  8
実線
100
AcDbLine
 10
-7.5
 20
3.0
 30
0.0
 11
-7.100000000002182
 21
3.0
 31
0.0
  0
LINE
  5
A966A
330
A95FF
100
AcDbEntity
  8
実線
100
AcDbLine
 10
-7.5
 20
3.464101615139953
 30
0.0
 11
-7.5
 21
3.0
 31
0.0
  0
LINE
  5
A966B
330
A95FF
100
AcDbEntity
  8
実線
100
AcDbLine
 10
-7.5
 20
2.200000000000728
 30
0.0
 11
-7.100000000002182
 21
2.200000000000728
 31
0.0
  0
LINE
  5
A966C
330
A95FF
100
AcDbEntity
  8
実線
100
AcDbLine
 10
-5.655255888326792
 20
5.395190528382954
 30
0.0
 11
-5.455255888326063
 21
5.048780366869323
 31
0.0
  0
LINE
  5
A966D
330
A95FF
100
AcDbEntity
  8
実線
100
AcDbLine
 10
-7.5
 20
3.464101615138134
 30
0.0
 11
-6.75
 21
4.763139720815161
 31
0.0
  0
LINE
  5
A966E
330
A95FF
100
AcDbEntity
  8
実線
100
AcDbLine
 10
-0.75
 20
8.227241335953294
 30
0.0
 11
0.75
 21
8.227241335953294
 31
0.0
  0
LINE
  5
A966F
330
A95FF
100
AcDbEntity
  8
実線
100
AcDbLine
 10
1.844744111673207
 20
7.595190528383682
 30
0.0
 11
1.644744111672479
 21
7.24878036687005
 31
0.0
  0
LINE
  5
A9670
330
A95FF
100
AcDbEntity
  8
実線
100
AcDbLine
 10
-1.844744111676845
 20
7.595190528383682
 30
0.0
 11
-1.644744111676117
 21
7.24878036687005
 31
0.0
  0
CIRCLE
  5
A9671
330
A95FF
100
AcDbEntity
  8
実線
100
AcDbCircle
 10
0.0
 20
0.0
 30
0.0
 40
3.7
  0
LINE
  5
A9672
330
A95FF
100
AcDbEntity
  8
実線
100
AcDbLine
 10
-0.75
 20
8.227241335953294
 30
0.0
 11
-1.151923788649583
 21
7.995190528383317
 31
0.0
  0
LINE
  5
A9673
330
A95FF
100
AcDbEntity
  8
実線
100
AcDbLine
 10
-1.151923788649583
 20
7.995190528383317
 30
0.0
 11
-0.9519237886488554
 21
7.648780366869686
 31
0.0
  0
LINE
  5
A9674
330
A95FF
100
AcDbEntity
  8
実線
100
AcDbLine
 10
-0.9519237886488554
 20
7.648780366869686
 30
0.0
 11
-1.644744111676117
 21
7.248780366868231
 31
0.0
  0
LINE
  5
A9675
330
A95FF
100
AcDbEntity
  8
実線
100
AcDbLine
 10
-1.844744111676845
 20
7.595190528383682
 30
0.0
 11
-5.655255888326792
 21
5.395190528382954
 31
0.0
  0
LINE
  5
A9676
330
A95FF
100
AcDbEntity
  8
実線
100
AcDbLine
 10
1.151923788645945
 20
7.995190528383317
 30
0.0
 11
0.9519237886452174
 21
7.648780366869686
 31
0.0
  0
LINE
  5
A9677
330
A95FF
100
AcDbEntity
  8
実線
100
AcDbLine
 10
1.644744111672479
 20
7.24878036687005
 30
0.0
 11
0.9519237886452174
 21
7.648780366869686
 31
0.0
  0
LINE
  5
A9678
330
A95FF
100
AcDbEntity
  8
実線
100
AcDbLine
 10
1.151923788645945
 20
7.995190528383317
 30
0.0
 11
0.7499999999963621
 21
8.227241335953294
 31
0.0
  0
CIRCLE
  5
A9679
330
A95FF
100
AcDbEntity
  8
実線
100
AcDbCircle
 10
0.0
 20
0.0
 30
0.0
 40
7.499999999999926
  0
LINE
  5
A967A
102
{ACAD_REACTORS
330
A967C
102
}
330
A95FF
100
AcDbEntity
  8
実線
 48
0.1
100
AcDbLine
 10
-3.449999999999818
 20
0.0
 30
0.0
 11
3.449999999999818
 21
0.0
 31
0.0
  0
LINE
  5
A967B
102
{ACAD_REACTORS
330
A967C
102
}
330
A95FF
100
AcDbEntity
  8
実線
 48
0.1
100
AcDbLine
 10
0.0
 20
3.450000000000045
 30
0.0
 11
0.0
 21
-3.450000000000045
 31
0.0
  0
HATCH
  5
A967C
330
A95FF
100
AcDbEntity
  8
ハッチング
 62
     7
100
AcDbHatch
 10
0.0
 20
0.0
 30
0.0
210
0.0
220
0.0
230
1.0
  2
SOLID
 70
     1
 71
     1
 91
        2
 92
        7
 72
     1
 73
     1
 93
        3
 10
0.0
 20
0.0
 42
0.0
 10
0.0
 20
3.450000000000014
 42
0.4142135623730961
 10
-3.44999999999998
 20
0.0
 42
0.0
 97
        3
330
A967B
330
A963A
330
A967A
 92
        7
 72
     1
 73
     1
 93
        3
 10
0.0
 20
-3.450000000000014
 42
0.4142135623730961
 10
3.44999999999998
 20
0.0
 42
0.0
 10
0.0
 20
0.0
 42
0.0
 97
        3
330
A963A
330
A967A
330
A967B
 75
     0
 76
     1
 47
0.0
 98
        2
 10
-2.08219665471006
 20
1.120085387104609
 10
0.9685827918337963
 20
-0.8981225544548578
1001
ACAD
1010
0.0
1020
0.0
1030
0.0
  0
ENDBLK
  5
A967E
330
A95FF
100
AcDbEntity
  8
0
100
AcDbBlockEnd
  0
ENDSEC
  0
SECTION
  2
ENTITIES
  0
TEXT
  5
16EAD
330
18
100
AcDbEntity
  8
文字
100
AcDbText
 10
-213.0399041533702
 20
458.6683596617151
 30
0.0
 40
2.699999892000001
  1

  7
まこ
 72
     1
 11
-213.0399041533702
 21
460.0183596077151
 31
0.0
100
AcDbText
 73
     2
  0
CIRCLE
  5
98BC5
330
18
100
AcDbEntity
  8
実線
100
AcDbCircle
 10
5801.522969975273
 20
-1423.23751933253
 30
0.0
 40
90.0
  0
LINE
  5
98BC7
330
18
100
AcDbEntity
  8
CENTER
100
AcDbLine
 10
5801.522969975273
 20
-1328.23751933253
 30
0.0
 11
5801.522969975273
 21
-1520.830236163632
 31
0.0
  0
CIRCLE
  5
98BCA
330
18
100
AcDbEntity
  8
実線
100
AcDbCircle
 10
5801.522969975273
 20
-1423.23751933253
 30
0.0
 40
70.00000000000003
  0
LINE
  5
98BCB
330
18
100
AcDbEntity
  8
CENTER
100
AcDbLine
 10
5896.522969975272
 20
-1423.237519332531
 30
0.0
 11
5706.522969975273
 21
-1423.237519332531
 31
0.0
  0
CIRCLE
  5
98BCC
330
18
100
AcDbEntity
  8
実線
100
AcDbCircle
 10
5801.522969975258
 20
-1423.237519332509
 30
0.0
 40
69.5
  0
CIRCLE
  5
98BD0
330
18
100
AcDbEntity
  8
実線
100
AcDbCircle
 10
5723.522969975273
 20
-1423.23751933253
 30
0.0
 40
2.499999999999943
  0
CIRCLE
  5
98BD1
330
18
100
AcDbEntity
  8
細線
100
AcDbCircle
 10
5723.522969975273
 20
-1423.23751933253
 30
0.0
 40
3.0
  0
LINE
  5
98BD2
330
18
100
AcDbEntity
  8
CENTER
100
AcDbLine
 10
5718.891160780728
 20
-1423.237519332532
 30
0.0
 11
5728.154779169813
 21
-1423.237519332533
 31
0.0
  0
CIRCLE
  5
98BD7
330
18
100
AcDbEntity
  8
実線
100
AcDbCircle
 10
5801.522969975273
 20
-1423.23751933253
 30
0.0
 40
18.9
  0
CIRCLE
  5
98BD8
330
18
100
AcDbEntity
  8
実線
100
AcDbCircle
 10
5801.522969975273
 20
-1423.23751933253
 30
0.0
 40
17.5
  0
CIRCLE
  5
98BD9
330
18
100
AcDbEntity
  8
実線
100
AcDbCircle
 10
5801.522969975273
 20
-1423.23751933253
 30
0.0
 40
19.5
  0
ARC
  5
98BDD
330
18
100
AcDbEntity
  8
実線
100
AcDbCircle
 10
5755.644497792578
 20
-1470.153508312439
 30
0.0
 40
0.446923180059133
100
AcDbArc
 50
35.0000114591743
 51
155.0000114592098
  0
ARC
  5
98BDE
330
18
100
AcDbEntity
  8
実線
100
AcDbCircle
 10
5754.693064920811
 20
-1468.794721931475
 30
0.0
 40
0.446923180059133
100
AcDbArc
 50
275.0000114591626
 51
35.0000114591743
  0
ARC
  5
98BDF
330
18
100
AcDbEntity
  8
実線
100
AcDbCircle
 10
5755.561029198107
 20
-1469.199460109642
 30
0.0
 40
0.83000019153839
100
AcDbArc
 50
242.7957839552051
 51
247.2042389632391
  0
ARC
  5
98BE0
330
18
100
AcDbEntity
  8
実線
100
AcDbCircle
 10
5755.561029198107
 20
-1469.199460109642
 30
0.0
 40
0.83000019153839
100
AcDbArc
 50
182.7957839551418
 51
187.2042389631681
  0
ARC
  5
98BE1
330
18
100
AcDbEntity
  8
実線
100
AcDbCircle
 10
5754.776533515287
 20
-1469.748770134272
 30
0.0
 40
0.446923180059133
100
AcDbArc
 50
335.0000114592099
 51
95.00001145916268
  0
ARC
  5
98BE2
330
18
100
AcDbEntity
  8
実線
100
AcDbCircle
 10
5755.561029198107
 20
-1469.199460109642
 30
0.0
 40
0.83000019153839
100
AcDbArc
 50
302.7957839551673
 51
307.2042389630155
  0
ARC
  5
98BE3
330
18
100
AcDbEntity
  8
実線
100
AcDbCircle
 10
5756.428993475398
 20
-1469.60419828781
 30
0.0
 40
0.446923180059133
100
AcDbArc
 50
95.00001145916268
 51
215.0000114591743
  0
ARC
  5
98BE4
330
18
100
AcDbEntity
  8
実線
100
AcDbCircle
 10
5755.561029198107
 20
-1469.199460109642
 30
0.0
 40
0.83000019153839
100
AcDbArc
 50
2.795783955141808
 51
7.20423896305905
  0
ARC
  5
98BE5
330
18
100
AcDbEntity
  8
実線
100
AcDbCircle
 10
5755.561029198107
 20
-1469.199460109642
 30
0.0
 40
0.83000019153839
100
AcDbArc
 50
122.7957839551673
 51
127.2042389630154
  0
ARC
  5
98BE6
330
18
100
AcDbEntity
  8
実線
100
AcDbCircle
 10
5755.561029198107
 20
-1469.199460109642
 30
0.0
 40
0.83000019153839
100
AcDbArc
 50
62.7957839551206
 51
67.20423896323906
  0
ARC
  5
98BE7
330
18
100
AcDbEntity
  8
実線
100
AcDbCircle
 10
5755.477560603634
 20
-1468.245411906847
 30
0.0
 40
0.446923180059133
100
AcDbArc
 50
215.0000114591743
 51
335.0000114592099
  0
ARC
  5
98BE8
330
18
100
AcDbEntity
  8
実線
100
AcDbCircle
 10
5756.34552488093
 20
-1468.650150085013
 30
0.0
 40
0.446923180059133
100
AcDbArc
 50
155.0000114592098
 51
275.0000114591626
  0
CIRCLE
  5
98BE9
330
18
100
AcDbEntity
  8
実線
100
AcDbCircle
 10
5762.522969975271
 20
-1490.787500827716
 30
0.0
 40
2.499999999999943
  0
CIRCLE
  5
98BEA
330
18
100
AcDbEntity
  8
細線
100
AcDbCircle
 10
5762.522969975272
 20
-1490.787500827719
 30
0.0
 40
3.0
  0
LINE
  5
98BEB
330
18
100
AcDbEntity
  8
CENTER
100
AcDbLine
 10
5760.207065378004
 20
-1494.798765255675
 30
0.0
 11
5764.838874572546
 21
-1486.776236399763
 31
0.0
  0
CIRCLE
  5
98BEC
330
18
100
AcDbEntity
  8
実線
100
AcDbCircle
 10
5755.561029279053
 20
-1469.199459936051
 30
0.0
 40
2.858333333333337
  0
CIRCLE
  5
98BED
330
18
100
AcDbEntity
  8
実線
100
AcDbCircle
 10
5755.561029279053
 20
-1469.199459936051
 30
0.0
 40
3.5
  0
ARC
  5
98BEE
330
18
100
AcDbEntity
  8
実線
100
AcDbCircle
 10
5848.438958955171
 20
-1469.115991515214
 30
0.0
 40
0.446923180059133
100
AcDbArc
 50
125.0000114591504
 51
245.0000114592485
  0
ARC
  5
98BEF
330
18
100
AcDbEntity
  8
実線
100
AcDbCircle
 10
5847.080172574208
 20
-1470.067424386979
 30
0.0
 40
0.446923180059133
100
AcDbArc
 50
5.000011459102054
 51
125.0000114591504
  0
ARC
  5
98BF0
330
18
100
AcDbEntity
  8
実線
100
AcDbCircle
 10
5847.484910752375
 20
-1469.199460109686
 30
0.0
 40
0.83000019153839
100
AcDbArc
 50
332.7957839552047
 51
337.2042389631835
  0
ARC
  5
98BF1
330
18
100
AcDbEntity
  8
実線
100
AcDbCircle
 10
5847.484910752375
 20
-1469.199460109686
 30
0.0
 40
0.83000019153839
100
AcDbArc
 50
272.7957839551433
 51
277.2042389631525
  0
ARC
  5
98BF2
330
18
100
AcDbEntity
  8
実線
100
AcDbCircle
 10
5848.034220777005
 20
-1469.983955792504
 30
0.0
 40
0.446923180059133
100
AcDbArc
 50
65.00001145924852
 51
185.000011459102
  0
ARC
  5
98BF3
330
18
100
AcDbEntity
  8
実線
100
AcDbCircle
 10
5847.484910752375
 20
-1469.199460109686
 30
0.0
 40
0.83000019153839
100
AcDbArc
 50
32.79578395523708
 51
37.20423896306244
  0
ARC
  5
98BF4
330
18
100
AcDbEntity
  8
実線
100
AcDbCircle
 10
5847.889648930543
 20
-1468.331495832393
 30
0.0
 40
0.446923180059133
100
AcDbArc
 50
185.000011459102
 51
305.0000114591504
  0
ARC
  5
98BF5
330
18
100
AcDbEntity
  8
実線
100
AcDbCircle
 10
5847.484910752375
 20
-1469.199460109686
 30
0.0
 40
0.83000019153839
100
AcDbArc
 50
92.79578395514333
 51
97.20423896308824
  0
ARC
  5
98BF6
330
18
100
AcDbEntity
  8
実線
100
AcDbCircle
 10
5847.484910752375
 20
-1469.199460109686
 30
0.0
 40
0.83000019153839
100
AcDbArc
 50
212.7957839552371
 51
217.2042389630624
  0
ARC
  5
98BF7
330
18
100
AcDbEntity
  8
実線
100
AcDbCircle
 10
5847.484910752375
 20
-1469.199460109686
 30
0.0
 40
0.83000019153839
100
AcDbArc
 50
152.7957839551489
 51
157.2042389631835
  0
ARC
  5
98BF8
330
18
100
AcDbEntity
  8
実線
100
AcDbCircle
 10
5846.53086254958
 20
-1469.282928704158
 30
0.0
 40
0.446923180059133
100
AcDbArc
 50
305.0000114591504
 51
65.00001145924852
  0
ARC
  5
98BF9
330
18
100
AcDbEntity
  8
実線
100
AcDbCircle
 10
5846.935600727745
 20
-1468.414964426863
 30
0.0
 40
0.446923180059133
100
AcDbArc
 50
245.0000114592485
 51
5.000011459102054
  0
CIRCLE
  5
98BFC
330
18
100
AcDbEntity
  8
実線
100
AcDbCircle
 10
5840.522969975271
 20
-1490.787500827716
 30
0.0
 40
2.499999999999943
  0
CIRCLE
  5
98BFD
330
18
100
AcDbEntity
  8
細線
100
AcDbCircle
 10
5840.522969975268
 20
-1490.787500827717
 30
0.0
 40
3.0
  0
LINE
  5
98BFE
330
18
100
AcDbEntity
  8
CENTER
100
AcDbLine
 10
5842.838874572549
 20
-1494.798765255673
 30
0.0
 11
5838.207065378007
 21
-1486.776236399761
 31
0.0
  0
CIRCLE
  5
98BFF
330
18
100
AcDbEntity
  8
実線
100
AcDbCircle
 10
5847.484910578782
 20
-1469.199460028738
 30
0.0
 40
2.858333333333337
  0
CIRCLE
  5
98C00
330
18
100
AcDbEntity
  8
実線
100
AcDbCircle
 10
5847.484910578782
 20
-1469.199460028738
 30
0.0
 40
3.5
  0
LINE
  5
98C16
330
18
100
AcDbEntity
  8
CENTER
100
AcDbLine
 10
5760.207065378001
 20
-1351.676273409387
 30
0.0
 11
5764.838874572543
 21
-1359.698802265299
 31
0.0
  0
CIRCLE
  5
98C17
330
18
100
AcDbEntity
  8
実線
100
AcDbCircle
 10
5762.522969975273
 20
-1355.687537837344
 30
0.0
 40
2.500000000000114
  0
CIRCLE
  5
98C18
330
18
100
AcDbEntity
  8
細線
100
AcDbCircle
 10
5762.522969975273
 20
-1355.687537837342
 30
0.0
 40
3.0
  0
ARC
  5
98C19
330
18
100
AcDbEntity
  8
実線
100
AcDbCircle
 10
5754.60698099535
 20
-1377.359047149846
 30
0.0
 40
0.446923180059133
100
AcDbArc
 50
305.0000114591504
 51
65.00001145924852
  0
ARC
  5
98C1A
330
18
100
AcDbEntity
  8
実線
100
AcDbCircle
 10
5755.965767376314
 20
-1376.407614278081
 30
0.0
 40
0.446923180059133
100
AcDbArc
 50
185.000011459102
 51
305.0000114591504
  0
ARC
  5
98C1B
330
18
100
AcDbEntity
  8
実線
100
AcDbCircle
 10
5755.561029198147
 20
-1377.275578555375
 30
0.0
 40
0.83000019153839
100
AcDbArc
 50
152.7957839552048
 51
157.2042389631835
  0
ARC
  5
98C1C
330
18
100
AcDbEntity
  8
実線
100
AcDbCircle
 10
5755.561029198147
 20
-1377.275578555375
 30
0.0
 40
0.83000019153839
100
AcDbArc
 50
92.79578395514333
 51
97.20423896315253
  0
ARC
  5
98C1D
330
18
100
AcDbEntity
  8
実線
100
AcDbCircle
 10
5755.011719173517
 20
-1376.491082872556
 30
0.0
 40
0.446923180059133
100
AcDbArc
 50
245.0000114592485
 51
5.000011459102054
  0
ARC
  5
98C1E
330
18
100
AcDbEntity
  8
実線
100
AcDbCircle
 10
5755.561029198147
 20
-1377.275578555375
 30
0.0
 40
0.83000019153839
100
AcDbArc
 50
212.7957839552371
 51
217.2042389630624
  0
ARC
  5
98C1F
330
18
100
AcDbEntity
  8
実線
100
AcDbCircle
 10
5755.561029198147
 20
-1377.275578555375
 30
0.0
 40
0.83000019153839
100
AcDbArc
 50
32.79578395523708
 51
37.20423896306244
  0
ARC
  5
98C20
330
18
100
AcDbEntity
  8
実線
100
AcDbCircle
 10
5755.561029198147
 20
-1377.275578555375
 30
0.0
 40
0.83000019153839
100
AcDbArc
 50
332.7957839551489
 51
337.2042389631835
  0
ARC
  5
98C21
330
18
100
AcDbEntity
  8
実線
100
AcDbCircle
 10
5756.515077400941
 20
-1377.192109960903
 30
0.0
 40
0.446923180059133
100
AcDbArc
 50
125.0000114591504
 51
245.0000114592485
  0
ARC
  5
98C22
330
18
100
AcDbEntity
  8
実線
100
AcDbCircle
 10
5755.561029198147
 20
-1377.275578555375
 30
0.0
 40
0.83000019153839
100
AcDbArc
 50
272.7957839551433
 51
277.2042389630881
  0
CIRCLE
  5
98C23
330
18
100
AcDbEntity
  8
実線
100
AcDbCircle
 10
5755.561029371738
 20
-1377.275578636322
 30
0.0
 40
2.858333333333337
  0
CIRCLE
  5
98C24
330
18
100
AcDbEntity
  8
実線
100
AcDbCircle
 10
5755.561029371738
 20
-1377.275578636322
 30
0.0
 40
3.5
  0
ARC
  5
98C25
330
18
100
AcDbEntity
  8
実線
100
AcDbCircle
 10
5755.156291019979
 20
-1378.143542832668
 30
0.0
 40
0.446923180059133
100
AcDbArc
 50
5.000011459102054
 51
125.0000114591504
  0
ARC
  5
98C26
330
18
100
AcDbEntity
  8
実線
100
AcDbCircle
 10
5756.110339222776
 20
-1378.060074238198
 30
0.0
 40
0.446923180059133
100
AcDbArc
 50
65.00001145924852
 51
185.000011459102
  0
LINE
  5
98C27
330
18
100
AcDbEntity
  8
CENTER
100
AcDbLine
 10
5842.838874572543
 20
-1351.676273409386
 30
0.0
 11
5838.207065378
 21
-1359.698802265297
 31
0.0
  0
CIRCLE
  5
98C28
330
18
100
AcDbEntity
  8
実線
100
AcDbCircle
 10
5840.522969975273
 20
-1355.687537837344
 30
0.0
 40
2.500000000000114
  0
CIRCLE
  5
98C29
330
18
100
AcDbEntity
  8
細線
100
AcDbCircle
 10
5840.522969975273
 20
-1355.687537837343
 30
0.0
 40
3.0
  0
CIRCLE
  5
98C2A
330
18
100
AcDbEntity
  8
実線
100
AcDbCircle
 10
5847.48491067147
 20
-1377.275578729008
 30
0.0
 40
3.5
  0
CIRCLE
  5
98C2B
330
18
100
AcDbEntity
  8
実線
100
AcDbCircle
 10
5767.228291087718
 20
-1388.942840444982
 30
0.0
 40
4.720231971247017
  0
LINE
  5
98C2C
330
18
100
AcDbEntity
  8
実線
100
AcDbLine
 10
5761.266193486077
 20
-1389.616184479252
 30
0.0
 11
5763.664109247733
 21
-1393.769496410711
 31
0.0
  0
LINE
  5
98C2D
330
18
100
AcDbEntity
  8
実線
100
AcDbLine
 10
5763.664109247733
 20
-1384.116184479252
 30
0.0
 11
5761.266193486077
 21
-1388.269496410711
 31
0.0
  0
LINE
  5
98C2E
330
18
100
AcDbEntity
  8
実線
100
AcDbLine
 10
5769.626206849376
 20
-1383.442840444982
 30
0.0
 11
5764.830375326062
 21
-1383.442840444982
 31
0.0
  0
ARC
  5
98C2F
330
18
100
AcDbEntity
  8
実線
100
AcDbCircle
 10
5767.228291087718
 20
-1388.942840444982
 30
0.0
 40
6.000000000000245
100
AcDbArc
 50
53.55646430915494
 51
66.44353569094251
  0
ARC
  5
98C30
330
18
100
AcDbEntity
  8
実線
100
AcDbCircle
 10
5767.228291087718
 20
-1388.942840444982
 30
0.0
 40
5.999999999999767
100
AcDbArc
 50
113.5564643090592
 51
126.4435356908477
  0
LINE
  5
98C31
330
18
100
AcDbEntity
  8
実線
100
AcDbLine
 10
5764.830375326062
 20
-1394.442840444982
 30
0.0
 11
5769.626206849376
 21
-1394.442840444982
 31
0.0
  0
CIRCLE
  5
98C32
330
18
100
AcDbEntity
  8
実線
100
AcDbCircle
 10
5767.228291087718
 20
-1388.942840444982
 30
0.0
 40
3.600000000000023
  0
CIRCLE
  5
98C33
330
18
100
AcDbEntity
  8
実線
100
AcDbCircle
 10
5767.228291087718
 20
-1388.942840444982
 30
0.0
 40
3.250141012381403
  0
HATCH
  5
98C34
330
18
100
AcDbEntity
  8
ハッチング
100
AcDbHatch
 10
0.0
 20
0.0
 30
0.0
210
0.0
220
0.0
230
1.0
  2
SOLID
 70
     1
 71
     0
 91
        2
 92
        7
 72
     1
 73
     1
 93
        3
 10
5763.978150075338
 20
-1388.942840444977
 42
0.0
 10
5767.228291087718
 20
-1388.942840444977
 42
0.0
 10
5767.228291087718
 20
-1392.19298145736
 42
-0.4142135623730913
 97
        0
 92
        7
 72
     1
 73
     1
 93
        3
 10
5767.228291087718
 20
-1388.942840444977
 42
0.0
 10
5767.228291087718
 20
-1385.692699432597
 42
-0.4142135623730913
 10
5770.478432100099
 20
-1388.942840444977
 42
0.0
 97
        0
 75
     0
 76
     1
 47
0.0093541955041491
 98
        2
 10
5765.967537597411
 20
-1390.547975541805
 10
5768.722761080773
 20
-1388.045272729662
  0
ARC
  5
98C35
330
18
100
AcDbEntity
  8
実線
100
AcDbCircle
 10
5767.228291087718
 20
-1388.942840444982
 30
0.0
 40
6.000000000000412
100
AcDbArc
 50
0.0
 51
6.443535690913357
  0
ARC
  5
98C36
330
18
100
AcDbEntity
  8
実線
100
AcDbCircle
 10
5767.228291087718
 20
-1388.942840444982
 30
0.0
 40
6.0
100
AcDbArc
 50
353.5564643090856
 51
0.0
  0
ARC
  5
98C37
330
18
100
AcDbEntity
  8
実線
100
AcDbCircle
 10
5767.228291087718
 20
-1388.942840444982
 30
0.0
 40
5.999999999999842
100
AcDbArc
 50
293.5564643090593
 51
306.4435356908476
  0
LINE
  5
98C38
330
18
100
AcDbEntity
  8
実線
100
AcDbLine
 10
5770.792472927704
 20
-1393.769496410711
 30
0.0
 11
5773.190388689361
 21
-1389.616184479252
 31
0.0
  0
ARC
  5
98C39
330
18
100
AcDbEntity
  8
実線
100
AcDbCircle
 10
5767.228291087718
 20
-1388.942840444982
 30
0.0
 40
5.99999999999986
100
AcDbArc
 50
233.5564643091523
 51
246.4435356909408
  0
CIRCLE
  5
98C3A
330
18
100
AcDbEntity
  8
実線
100
AcDbCircle
 10
5767.228291087718
 20
-1388.942840444982
 30
0.0
 40
4.300000000000011
  0
CIRCLE
  5
98C3B
330
18
100
AcDbEntity
  8
実線
100
AcDbCircle
 10
5767.228291087718
 20
-1388.942840444982
 30
0.0
 40
4.100000000000023
  0
LINE
  5
98C3C
330
18
100
AcDbEntity
  8
実線
100
AcDbLine
 10
5773.190388689361
 20
-1388.269496410711
 30
0.0
 11
5770.792472927704
 21
-1384.116184479252
 31
0.0
  0
ARC
  5
98C3D
330
18
100
AcDbEntity
  8
実線
100
AcDbCircle
 10
5767.228291087718
 20
-1388.942840444982
 30
0.0
 40
6.0
100
AcDbArc
 50
173.5564643090857
 51
180.0
  0
ARC
  5
98C3E
330
18
100
AcDbEntity
  8
実線
100
AcDbCircle
 10
5767.228291087718
 20
-1388.942840444982
 30
0.0
 40
5.999999999999436
100
AcDbArc
 50
180.0
 51
186.4435356909143
  0
CIRCLE
  5
98C3F
330
18
100
AcDbEntity
  8
実線
100
AcDbCircle
 10
5847.48491067147
 20
-1377.275578729008
 30
0.0
 40
2.858333333333337
  0
ARC
  5
98C40
330
18
100
AcDbEntity
  8
実線
100
AcDbCircle
 10
5847.401442157947
 20
-1376.321530352619
 30
0.0
 40
0.446923180059133
100
AcDbArc
 50
215.0000114591743
 51
335.0000114592099
  0
ARC
  5
98C41
330
18
100
AcDbEntity
  8
実線
100
AcDbCircle
 10
5848.352875029711
 20
-1377.680316733584
 30
0.0
 40
0.446923180059133
100
AcDbArc
 50
95.00001145916268
 51
215.0000114591743
  0
ARC
  5
98C42
330
18
100
AcDbEntity
  8
実線
100
AcDbCircle
 10
5847.484910752418
 20
-1377.275578555416
 30
0.0
 40
0.83000019153839
100
AcDbArc
 50
62.79578395520515
 51
67.20423896323906
  0
ARC
  5
98C43
330
18
100
AcDbEntity
  8
実線
100
AcDbCircle
 10
5847.484910752418
 20
-1377.275578555416
 30
0.0
 40
0.83000019153839
100
AcDbArc
 50
2.795783955141808
 51
7.204238963168053
  0
ARC
  5
98C44
330
18
100
AcDbEntity
  8
実線
100
AcDbCircle
 10
5848.269406435236
 20
-1376.726268530787
 30
0.0
 40
0.446923180059133
100
AcDbArc
 50
155.0000114592098
 51
275.0000114591626
  0
ARC
  5
98C45
330
18
100
AcDbEntity
  8
実線
100
AcDbCircle
 10
5847.484910752418
 20
-1377.275578555416
 30
0.0
 40
0.83000019153839
100
AcDbArc
 50
122.7957839551673
 51
127.2042389630154
  0
ARC
  5
98C46
330
18
100
AcDbEntity
  8
実線
100
AcDbCircle
 10
5846.616946475124
 20
-1376.870840377249
 30
0.0
 40
0.446923180059133
100
AcDbArc
 50
275.0000114591626
 51
35.0000114591743
  0
ARC
  5
98C47
330
18
100
AcDbEntity
  8
実線
100
AcDbCircle
 10
5847.484910752418
 20
-1377.275578555416
 30
0.0
 40
0.83000019153839
100
AcDbArc
 50
182.7957839551418
 51
187.2042389630589
  0
ARC
  5
98C48
330
18
100
AcDbEntity
  8
実線
100
AcDbCircle
 10
5847.484910752418
 20
-1377.275578555416
 30
0.0
 40
0.83000019153839
100
AcDbArc
 50
302.7957839551673
 51
307.2042389630155
  0
ARC
  5
98C49
330
18
100
AcDbEntity
  8
実線
100
AcDbCircle
 10
5847.484910752418
 20
-1377.275578555416
 30
0.0
 40
0.83000019153839
100
AcDbArc
 50
242.7957839551206
 51
247.2042389632391
  0
ARC
  5
98C4A
330
18
100
AcDbEntity
  8
実線
100
AcDbCircle
 10
5847.568379346891
 20
-1378.229626758211
 30
0.0
 40
0.446923180059133
100
AcDbArc
 50
35.0000114591743
 51
155.0000114592098
  0
ARC
  5
98C4B
330
18
100
AcDbEntity
  8
実線
100
AcDbCircle
 10
5846.700415069595
 20
-1377.824888580046
 30
0.0
 40
0.446923180059133
100
AcDbArc
 50
335.0000114592099
 51
95.00001145916268
  0
ARC
  5
98C4C
330
18
100
AcDbEntity
  8
CENTER
100
AcDbCircle
 10
5801.522969975265
 20
-1423.23751933253
 30
0.0
 40
48.5
100
AcDbArc
 50
126.0
 51
143.9307288930968
  0
LINE
  5
98C4D
330
18
100
AcDbEntity
  8
CENTER
100
AcDbLine
 10
5774.688235631169
 20
-1396.402784988432
 30
0.0
 11
5759.768346544268
 21
-1381.482895901531
 31
0.0
  0
CIRCLE
  5
98C4E
330
18
100
AcDbEntity
  8
実線
100
AcDbCircle
 10
5879.522969975273
 20
-1423.23751933253
 30
0.0
 40
2.500000000000027
  0
CIRCLE
  5
98C4F
330
18
100
AcDbEntity
  8
細線
100
AcDbCircle
 10
5879.522969975272
 20
-1423.237519332529
 30
0.0
 40
3.0
  0
LINE
  5
98C50
330
18
100
AcDbEntity
  8
CENTER
100
AcDbLine
 10
5884.154779169819
 20
-1423.237519332528
 30
0.0
 11
5874.891160780734
 21
-1423.237519332527
 31
0.0
  0
LINE
  5
9A426
330
18
100
AcDbEntity
  8
CENTER
100
AcDbLine
 10
5306.097491566596
 20
-1328.237519332518
 30
0.0
 11
5306.097491566596
 21
-1521.36822820329
 31
0.0
  0
LINE
  5
9A427
330
18
100
AcDbEntity
  8
CENTER
100
AcDbLine
 10
5401.097491566595
 20
-1423.237519332518
 30
0.0
 11
5211.097491566595
 21
-1423.237519332518
 31
0.0
  0
LINE
  5
A7A4B
330
18
100
AcDbEntity
  8
CENTER
100
AcDbLine
 10
5306.097491566596
 20
-1423.237519332518
 30
0.0
 11
5293.544767879123
 21
-1376.390116757498
 31
0.0
  0
CIRCLE
  5
A929D
330
18
100
AcDbEntity
  8
dimension
100
AcDbCircle
 10
5801.522969975273
 20
-1423.237519332531
 30
0.0
 40
0.0
  0
ARC
  5
A929E
330
18
100
AcDbEntity
  8
CENTER
100
AcDbCircle
 10
5801.522969975254
 20
-1423.237519332531
 30
0.0
 40
57.5
100
AcDbArc
 50
78.00000000000001
 51
101.8289092876025
  0
INSERT
  5
A967F
330
18
100
AcDbEntity
  8
dimension
100
AcDbBlockReference
  2
A$C2323
 10
5801.522969975273
 20
-1365.737519332531
 30
0.0
  0
LINE
  5
A97D1
330
18
100
AcDbEntity
  8
CENTER
100
AcDbLine
 10
5852.788211611297
 20
-1371.972277696506
 30
0.0
 11
5860.56638620435
 21
-1364.194103103454
 31
0.0
  0
CIRCLE
  5
A97D2
330
18
100
AcDbEntity
  8
実線
100
AcDbCircle
 10
5856.677298907824
 20
-1368.08319039998
 30
0.0
 40
3.0
  0
LINE
  5
A97D4
330
18
100
AcDbEntity
  8
実線
100
AcDbLine
 10
5854.555978564263
 20
-1365.961870056421
 30
0.0
 11
5858.798619251384
 21
-1370.20451074354
 31
0.0
  0
LINE
  5
A97D5
330
18
100
AcDbEntity
  8
実線
100
AcDbLine
 10
5858.798619251384
 20
-1365.961870056421
 30
0.0
 11
5854.555978564263
 21
-1370.20451074354
 31
0.0
  0
HATCH
  5
A97D6
330
18
100
AcDbEntity
  8
ハッチング
100
AcDbHatch
 10
0.0
 20
0.0
 30
0.0
210
0.0
220
0.0
230
1.0
  2
SOLID
 70
     1
 71
     0
 91
        3
 92
        7
 72
     1
 73
     1
 93
        3
 10
5856.677298907824
 20
-1368.08319039998
 42
0.0
 10
5858.798619251382
 20
-1365.961870056421
 42
0.4142135623733739
 10
5854.555978564263
 20
-1365.961870056421
 42
0.0
 97
        0
 92
        7
 72
     1
 73
     1
 93
        3
 10
5858.757432337139
 20
-1370.244913073277
 42
0.0096162737763162
 10
5856.677298907824
 20
-1368.08319039998
 42
0.0
 10
5854.555978564263
 20
-1370.20451074354
 42
0.4085918058412639
 97
        0
 92
        7
 72
     1
 73
     1
 93
        3
 10
5858.798619251382
 20
-1370.20451074354
 42
0.0
 10
5856.677298907815
 20
-1368.083190399972
 42
-0.0096162737766037
 10
5858.757432337139
 20
-1370.244913073277
 42
0.0048080257375348
 97
        0
 75
     0
 76
     1
 47
0.0
 98
        3
 10
5856.128671116981
 20
-1366.232857176064
 10
5856.532019361115
 20
-1369.606315217915
 10
5858.631472071301
 20
-1370.069561712488
1001
ACAD
1010
0.0
1020
0.0
1030
0.0
  0
LINE
  5
B72CD
330
18
100
AcDbEntity
  8
実線
100
AcDbLine
 10
5376.097491566592
 20
-1644.450170048115
 30
0.0
 11
5376.097491566592
 21
-1646.550170048115
 31
0.0
  0
LINE
  5
B72CE
330
18
100
AcDbEntity
  8
実線
100
AcDbLine
 10
5396.097491566596
 20
-1581.850170048114
 30
0.0
 11
5396.097491566592
 21
-1644.050170048115
 31
0.0
  0
LINE
  5
B72CF
330
18
100
AcDbEntity
  8
実線
100
AcDbLine
 10
5396.097491566592
 20
-1644.050170048115
 30
0.0
 11
5216.097491566596
 21
-1644.050170048115
 31
0.0
  0
LINE
  5
B72D0
330
18
100
AcDbEntity
  8
実線
100
AcDbLine
 10
5216.097491566596
 20
-1581.850170048114
 30
0.0
 11
5216.097491566592
 21
-1644.050170048115
 31
0.0
  0
LINE
  5
B72D1
330
18
100
AcDbEntity
  8
実線
100
AcDbLine
 10
5236.097491566592
 20
-1644.450170048115
 30
0.0
 11
5236.097491566592
 21
-1646.550170048115
 31
0.0
  0
LINE
  5
B7322
330
18
100
AcDbEntity
  8
CENTER
100
AcDbLine
 10
5384.097491566592
 20
-1641.550170048115
 30
0.0
 11
5384.097491566592
 21
-1646.550170048115
 31
0.0
  0
LINE
  5
B7323
330
18
100
AcDbEntity
  8
CENTER
100
AcDbLine
 10
5228.097491566592
 20
-1641.550170048115
 30
0.0
 11
5228.097491566592
 21
-1646.550170048115
 31
0.0
  0
LINE
  5
B7329
330
18
100
AcDbEntity
  8
実線
100
AcDbLine
 10
5353.497491566596
 20
-1577.250170048115
 30
0.0
 11
5258.697491566596
 21
-1577.250170048115
 31
0.0
  0
LINE
  5
B732C
330
18
100
AcDbEntity
  8
実線
100
AcDbLine
 10
5256.097491566595
 20
-1580.050170048115
 30
0.0
 11
5256.097491566595
 21
-1581.350170048116
 31
0.0
  0
LINE
  5
B732D
330
18
100
AcDbEntity
  8
実線
100
AcDbLine
 10
5356.097491566596
 20
-1580.050170048115
 30
0.0
 11
5356.097491566596
 21
-1581.35017004812
 31
0.0
  0
LINE
  5
B732E
330
18
100
AcDbEntity
  8
実線
100
AcDbLine
 10
5353.997491566595
 20
-1577.750170048115
 30
0.0
 11
5353.997491566595
 21
-1579.650170048114
 31
0.0
  0
LINE
  5
B732F
330
18
100
AcDbEntity
  8
実線
100
AcDbLine
 10
5356.097491566596
 20
-1580.050170048115
 30
0.0
 11
5256.097491566595
 21
-1580.050170048115
 31
0.0
  0
LINE
  5
B7330
330
18
100
AcDbEntity
  8
実線
100
AcDbLine
 10
5258.197491566596
 20
-1577.750170048115
 30
0.0
 11
5258.197491566596
 21
-1579.650170048114
 31
0.0
  0
LINE
  5
B7363
330
18
100
AcDbEntity
  8
CENTER
100
AcDbLine
 10
5349.097491566595
 20
-1574.550170048117
 30
0.0
 11
5349.097491566595
 21
-1584.350170048112
 31
0.0
  0
LINE
  5
B7388
330
18
100
AcDbEntity
  8
実線
100
AcDbLine
 10
5236.597491566592
 20
-1647.050170048115
 30
0.0
 11
5236.597491566592
 21
-1647.550170048115
 31
0.0
  0
LINE
  5
B7389
330
18
100
AcDbEntity
  8
実線
100
AcDbLine
 10
5375.597491566592
 20
-1647.050170048115
 30
0.0
 11
5375.597491566592
 21
-1647.550170048115
 31
0.0
  0
LINE
  5
B738A
330
18
100
AcDbEntity
  8
実線
100
AcDbLine
 10
5236.597491566592
 20
-1647.050170048115
 30
0.0
 11
5375.597491566592
 21
-1647.05017004812
 31
0.0
  0
LINE
  5
B738D
330
18
100
AcDbEntity
  8
実線
100
AcDbLine
 10
5236.597491566592
 20
-1647.550170048115
 30
0.0
 11
5375.597491566592
 21
-1647.55017004812
 31
0.0
  0
LINE
  5
B7390
330
18
100
AcDbEntity
  8
実線
100
AcDbLine
 10
5217.097491566596
 20
-1581.350170048114
 30
0.0
 11
5217.097491566596
 21
-1581.850170048114
 31
0.0
  0
LINE
  5
B7391
330
18
100
AcDbEntity
  8
実線
100
AcDbLine
 10
5395.097491566596
 20
-1581.350170048114
 30
0.0
 11
5395.097491566596
 21
-1581.850170048114
 31
0.0
  0
LINE
  5
B7394
330
18
100
AcDbEntity
  8
実線
100
AcDbLine
 10
5217.097491566596
 20
-1581.350170048114
 30
0.0
 11
5395.097491566596
 21
-1581.350170048122
 31
0.0
  0
LINE
  5
B73A2
330
18
100
AcDbEntity
  8
OBJECT
100
AcDbLine
 10
5217.5974915666
 20
-1580.850170048102
 30
0.0
 11
5218.647491566599
 21
-1580.550170048103
 31
0.0
  0
LINE
  5
B73A3
330
18
100
AcDbEntity
  8
OBJECT
100
AcDbLine
 10
5224.5974915666
 20
-1580.850170048103
 30
0.0
 11
5217.5974915666
 21
-1580.850170048102
 31
0.0
  0
LINE
  5
B73A4
330
18
100
AcDbEntity
  8
OBJECT
100
AcDbLine
 10
5224.5974915666
 20
-1581.350170048103
 30
0.0
 11
5217.5974915666
 21
-1581.350170048102
 31
0.0
  0
LINE
  5
B73A5
330
18
100
AcDbEntity
  8
OBJECT
100
AcDbLine
 10
5224.5974915666
 20
-1580.850170048103
 30
0.0
 11
5224.5974915666
 21
-1581.350170048103
 31
0.0
  0
LINE
  5
B73A6
330
18
100
AcDbEntity
  8
OBJECT
100
AcDbLine
 10
5224.5974915666
 20
-1580.850170048103
 30
0.0
 11
5223.547491566597
 21
-1580.550170048103
 31
0.0
  0
LINE
  5
B73A7
330
18
100
AcDbEntity
  8
OBJECT
100
AcDbLine
 10
5223.547491566597
 20
-1580.550170048103
 30
0.0
 11
5218.647491566599
 21
-1580.550170048103
 31
0.0
  0
LINE
  5
B73A8
330
18
100
AcDbEntity
  8
OBJECT
100
AcDbLine
 10
5217.5974915666
 20
-1580.850170048102
 30
0.0
 11
5217.5974915666
 21
-1581.350170048102
 31
0.0
  0
LINE
  5
B73B4
330
18
100
AcDbEntity
  8
実線
100
AcDbLine
 10
5216.097491566596
 20
-1581.850170048102
 30
0.0
 11
5396.097491566596
 21
-1581.850170048116
 31
0.0
  0
LINE
  5
B742E
330
18
100
AcDbEntity
  8
CENTER
100
AcDbLine
 10
5306.097491566596
 20
-1574.550170048115
 30
0.0
 11
5306.097491566591
 21
-1674.550170048116
 31
0.0
  0
LINE
  5
B747B
330
18
100
AcDbEntity
  8
実線
 48
0.1
100
AcDbLine
 10
5301.334351845781
 20
-1652.550170048112
 30
0.0
 11
5301.334351845775
 21
-1647.550170048115
 31
0.0
  0
LINE
  5
B747C
330
18
100
AcDbEntity
  8
実線
 48
0.1
100
AcDbLine
 10
5302.633389951455
 20
-1652.550170048112
 30
0.0
 11
5302.633389951456
 21
-1647.550170048116
 31
0.0
  0
LINE
  5
B747D
330
18
100
AcDbEntity
  8
実線
 48
0.1
100
AcDbLine
 10
5309.561593181728
 20
-1652.550170048115
 30
0.0
 11
5309.561593181729
 21
-1647.550170048112
 31
0.0
  0
LINE
  5
B747E
330
18
100
AcDbEntity
  8
実線
 48
0.1
100
AcDbLine
 10
5310.860631287408
 20
-1652.550170048115
 30
0.0
 11
5310.860631287408
 21
-1647.550170048113
 31
0.0
  0
LINE
  5
B747F
330
18
100
AcDbEntity
  8
実線
100
AcDbLine
 10
5297.870250230637
 20
-1652.550170048112
 30
0.0
 11
5297.870250230639
 21
-1647.550170048115
 31
0.0
  0
LINE
  5
B7480
330
18
100
AcDbEntity
  8
実線
100
AcDbLine
 10
5314.324732902544
 20
-1652.550170048117
 30
0.0
 11
5314.324732902545
 21
-1647.550170048113
 31
0.0
  0
LINE
  5
B7481
330
18
100
AcDbEntity
  8
実線
100
AcDbLine
 10
5314.324732902543
 20
-1664.483182750008
 30
0.0
 11
5314.324732902544
 21
-1656.550170048117
 31
0.0
  0
LINE
  5
B7482
330
18
100
AcDbEntity
  8
実線
100
AcDbLine
 10
5297.870250230637
 20
-1664.483182750006
 30
0.0
 11
5297.870250230637
 21
-1656.550170048112
 31
0.0
  0
LINE
  5
B7483
330
18
100
AcDbEntity
  8
実線
 48
0.1
100
AcDbLine
 10
5301.334351845779
 20
-1665.050170048112
 30
0.0
 11
5301.334351845781
 21
-1656.550170048112
 31
0.0
  0
LINE
  5
B7484
330
18
100
AcDbEntity
  8
実線
 48
0.1
100
AcDbLine
 10
5302.633389951454
 20
-1665.050170048112
 30
0.0
 11
5302.633389951455
 21
-1656.550170048112
 31
0.0
  0
LINE
  5
B7485
330
18
100
AcDbEntity
  8
実線
 48
0.1
100
AcDbLine
 10
5310.860631287408
 20
-1665.050170048113
 30
0.0
 11
5310.860631287408
 21
-1656.550170048116
 31
0.0
  0
LINE
  5
B7486
330
18
100
AcDbEntity
  8
実線
 48
0.1
100
AcDbLine
 10
5309.561593181734
 20
-1665.050170048112
 30
0.0
 11
5309.561593181728
 21
-1656.550170048116
 31
0.0
  0
LINE
  5
B7487
330
18
100
AcDbEntity
  8
実線
100
AcDbLine
 10
5298.102301038209
 20
-1664.715233557574
 30
0.0
 11
5298.102301038209
 21
-1656.550170048112
 31
0.0
  0
LINE
  5
B7488
330
18
100
AcDbEntity
  8
実線
100
AcDbLine
 10
5298.50230103821
 20
-1665.050170048112
 30
0.0
 11
5298.502301038212
 21
-1656.550170048112
 31
0.0
  0
LINE
  5
B7489
330
18
100
AcDbEntity
  8
実線
100
AcDbLine
 10
5300.702301038207
 20
-1665.050170048112
 30
0.0
 11
5300.702301038208
 21
-1656.550170048112
 31
0.0
  0
LINE
  5
B748A
330
18
100
AcDbEntity
  8
実線
100
AcDbLine
 10
5301.102301038209
 20
-1665.050170048112
 30
0.0
 11
5301.102301038209
 21
-1656.550170048112
 31
0.0
  0
LINE
  5
B748B
330
18
100
AcDbEntity
  8
実線
100
AcDbLine
 10
5314.092682094972
 20
-1664.715233557576
 30
0.0
 11
5314.092682094972
 21
-1656.550170048113
 31
0.0
  0
LINE
  5
B748C
330
18
100
AcDbEntity
  8
実線
100
AcDbLine
 10
5313.692682094977
 20
-1665.050170048113
 30
0.0
 11
5313.692682094978
 21
-1656.550170048113
 31
0.0
  0
LINE
  5
B748D
330
18
100
AcDbEntity
  8
実線
100
AcDbLine
 10
5311.492682094973
 20
-1665.050170048113
 30
0.0
 11
5311.492682094974
 21
-1656.550170048113
 31
0.0
  0
LINE
  5
B748E
330
18
100
AcDbEntity
  8
実線
100
AcDbLine
 10
5311.092682094979
 20
-1665.050170048113
 30
0.0
 11
5311.092682094972
 21
-1656.550170048113
 31
0.0
  0
LINE
  5
B748F
330
18
100
AcDbEntity
  8
実線
100
AcDbLine
 10
5303.09749156659
 20
-1665.050170048112
 30
0.0
 11
5303.097491566592
 21
-1656.550170048112
 31
0.0
  0
LINE
  5
B7490
330
18
100
AcDbEntity
  8
実線
100
AcDbLine
 10
5309.09749156659
 20
-1665.050170048112
 30
0.0
 11
5309.097491566591
 21
-1656.550170048112
 31
0.0
  0
LINE
  5
B7491
330
18
100
AcDbEntity
  8
実線
100
AcDbLine
 10
5303.897491566593
 20
-1665.050170048112
 30
0.0
 11
5303.897491566594
 21
-1656.550170048116
 31
0.0
  0
LINE
  5
B7492
330
18
100
AcDbEntity
  8
実線
100
AcDbLine
 10
5308.297491566595
 20
-1665.050170048112
 30
0.0
 11
5308.297491566595
 21
-1656.550170048112
 31
0.0
  0
LINE
  5
B7493
330
18
100
AcDbEntity
  8
実線
100
AcDbLine
 10
5298.437237528745
 20
-1665.050170048112
 30
0.0
 11
5297.870250230637
 21
-1664.483182750006
 31
0.0
  0
LINE
  5
B7494
330
18
100
AcDbEntity
  8
実線
100
AcDbLine
 10
5313.757745604434
 20
-1665.050170048113
 30
0.0
 11
5314.324732902543
 21
-1664.483182750008
 31
0.0
  0
ARC
  5
B7495
330
18
100
AcDbEntity
  8
実線
100
AcDbCircle
 10
5302.59749156659
 20
-1665.550170048116
 30
0.0
 40
4.0
100
AcDbArc
 50
179.9999999999967
 51
270.0
  0
ARC
  5
B7496
330
18
100
AcDbEntity
  8
実線
100
AcDbCircle
 10
5309.597491566591
 20
-1665.550170048116
 30
0.0
 40
4.0
100
AcDbArc
 50
270.0
 51
359.9999999999968
  0
LINE
  5
B7497
330
18
100
AcDbEntity
  8
実線
100
AcDbLine
 10
5298.59749156659
 20
-1665.050170048115
 30
0.0
 11
5298.59749156659
 21
-1665.550170048115
 31
0.0
  0
LINE
  5
B7498
330
18
100
AcDbEntity
  8
実線
100
AcDbLine
 10
5313.59749156659
 20
-1665.050170048113
 30
0.0
 11
5313.59749156659
 21
-1665.550170048116
 31
0.0
  0
LINE
  5
B7499
330
18
100
AcDbEntity
  8
実線
100
AcDbLine
 10
5313.757745604434
 20
-1665.050170048113
 30
0.0
 11
5298.437237528745
 21
-1665.050170048112
 31
0.0
  0
LINE
  5
B749A
330
18
100
AcDbEntity
  8
実線
100
AcDbLine
 10
5299.597491566591
 20
-1652.550170048115
 30
0.0
 11
5299.597491566591
 21
-1656.550170048112
 31
0.0
  0
LINE
  5
B749B
330
18
100
AcDbEntity
  8
実線
100
AcDbLine
 10
5312.597491566592
 20
-1652.550170048113
 30
0.0
 11
5312.597491566592
 21
-1656.550170048113
 31
0.0
  0
LINE
  5
B749C
330
18
100
AcDbEntity
  8
実線
100
AcDbLine
 10
5314.324732902544
 20
-1656.550170048117
 30
0.0
 11
5297.870250230637
 21
-1656.550170048112
 31
0.0
  0
LINE
  5
B749D
330
18
100
AcDbEntity
  8
実線
100
AcDbLine
 10
5309.597491566591
 20
-1669.550170048116
 30
0.0
 11
5302.59749156659
 21
-1669.550170048116
 31
0.0
  0
LINE
  5
B749E
330
18
100
AcDbEntity
  8
実線
100
AcDbLine
 10
5314.324732902544
 20
-1652.550170048117
 30
0.0
 11
5297.870250230637
 21
-1652.550170048112
 31
0.0
  0
LINE
  5
B74A2
330
18
100
AcDbEntity
  8
実線
100
AcDbLine
 10
5314.324732902545
 20
-1647.550170048113
 30
0.0
 11
5297.870250230639
 21
-1647.550170048112
 31
0.0
  0
LINE
  5
B74BA
330
18
100
AcDbEntity
  8
実線
100
AcDbLine
 10
5308.947491566589
 20
-1669.550170048116
 30
0.0
 11
5308.947491566589
 21
-1673.050170048115
 31
0.0
  0
LINE
  5
B74BB
330
18
100
AcDbEntity
  8
実線
100
AcDbLine
 10
5303.247491566591
 20
-1669.550170048116
 30
0.0
 11
5303.247491566591
 21
-1673.050170048116
 31
0.0
  0
LINE
  5
B74CE
330
18
100
AcDbEntity
  8
実線
100
AcDbLine
 10
5339.557235076053
 20
-1653.552670048117
 30
0.0
 11
5340.392171566591
 21
-1653.552670048117
 31
0.0
  0
LINE
  5
B74CF
330
18
100
AcDbEntity
  8
実線
100
AcDbLine
 10
5339.557235076053
 20
-1660.050170048118
 30
0.0
 11
5340.392171566591
 21
-1660.050170048118
 31
0.0
  0
LINE
  5
B74D2
330
18
100
AcDbEntity
  8
実線
100
AcDbLine
 10
5340.392171566592
 20
-1649.350170048117
 30
0.0
 11
5339.557235076055
 21
-1649.350170048117
 31
0.0
  0
LINE
  5
B74D3
330
18
100
AcDbEntity
  8
実線
100
AcDbLine
 10
5340.392171566592
 20
-1647.850170048117
 30
0.0
 11
5339.557235076055
 21
-1647.850170048117
 31
0.0
  0
LINE
  5
B74D4
330
18
100
AcDbEntity
  8
実線
100
AcDbLine
 10
5345.400213706218
 20
-1650.912669990383
 30
0.0
 11
5335.384129426971
 21
-1650.662669990382
 31
0.0
  0
LINE
  5
B74D6
330
18
100
AcDbEntity
  8
実線
100
AcDbLine
 10
5340.392171566592
 20
-1649.850170048117
 30
0.0
 11
5335.601485049889
 21
-1649.850170048117
 31
0.0
  0
LINE
  5
B74D9
330
18
100
AcDbEntity
  8
実線
100
AcDbLine
 10
5338.279900614535
 20
-1647.550170048118
 30
0.0
 11
5340.392171566592
 21
-1647.550170048118
 31
0.0
  0
LINE
  5
B74DF
330
18
100
AcDbEntity
  8
実線
100
AcDbLine
 10
5336.292171566592
 20
-1663.152670048119
 30
0.0
 11
5340.39217156659
 21
-1663.152670048119
 31
0.0
  0
LINE
  5
B74E0
330
18
100
AcDbEntity
  8
実線
100
AcDbLine
 10
5340.392171566591
 20
-1661.752670048118
 30
0.0
 11
5335.671939595346
 21
-1661.752670048117
 31
0.0
  0
LINE
  5
B74E1
330
18
100
AcDbEntity
  8
実線
100
AcDbLine
 10
5340.392171566591
 20
-1662.152670048119
 30
0.0
 11
5336.092171566595
 21
-1662.152670048119
 31
0.0
  0
LINE
  5
B74E2
330
18
100
AcDbEntity
  8
実線
100
AcDbLine
 10
5345.400213706218
 20
-1652.912669990383
 30
0.0
 11
5335.384129426971
 21
-1652.662669990382
 31
0.0
  0
LINE
  5
B74E3
330
18
100
AcDbEntity
  8
実線
100
AcDbLine
 10
5345.400213706218
 20
-1652.412669990383
 30
0.0
 11
5335.384129426971
 21
-1652.162669990382
 31
0.0
  0
LINE
  5
B74E4
330
18
100
AcDbEntity
  8
実線
100
AcDbLine
 10
5345.400213706218
 20
-1651.912669990383
 30
0.0
 11
5335.384129426971
 21
-1651.662669990382
 31
0.0
  0
LINE
  5
B74E5
330
18
100
AcDbEntity
  8
実線
100
AcDbLine
 10
5335.192171566593
 20
-1653.252670048117
 30
0.0
 11
5340.392171566591
 21
-1653.252670048118
 31
0.0
  0
LINE
  5
B74E6
330
18
100
AcDbEntity
  8
実線
100
AcDbLine
 10
5345.400213706218
 20
-1651.412669990383
 30
0.0
 11
5335.384129426971
 21
-1651.162669990382
 31
0.0
  0
LINE
  5
B74E7
330
18
100
AcDbEntity
  8
実線
100
AcDbLine
 10
5339.557235076053
 20
-1660.050170048118
 30
0.0
 11
5339.557235076053
 21
-1653.552670048117
 31
0.0
  0
LINE
  5
B74E9
330
18
100
AcDbEntity
  8
実線
100
AcDbLine
 10
5339.557235076055
 20
-1649.350170048117
 30
0.0
 11
5339.557235076055
 21
-1647.850170048117
 31
0.0
  0
LINE
  5
B74EA
330
18
100
AcDbEntity
  8
実線
100
AcDbLine
 10
5334.892171566592
 20
-1649.350170048117
 30
0.0
 11
5334.892171566592
 21
-1647.850170048117
 31
0.0
  0
ARC
  5
B74EB
330
18
100
AcDbEntity
  8
実線
100
AcDbCircle
 10
5337.642171566596
 20
-1645.425068412032
 30
0.0
 40
4.367366609166622
100
AcDbArc
 50
243.9921761143784
 51
296.0078238856216
  0
LINE
  5
B74EC
330
18
100
AcDbEntity
  8
実線
100
AcDbLine
 10
5339.557235076055
 20
-1647.850170048117
 30
0.0
 11
5335.727108057133
 21
-1647.850170048117
 31
0.0
  0
LINE
  5
B74ED
330
18
100
AcDbEntity
  8
実線
100
AcDbLine
 10
5335.590429136088
 20
-1647.550170048118
 30
0.0
 11
5338.279900614535
 21
-1647.550170048118
 31
0.0
  0
LINE
  5
B74F9
330
18
100
AcDbEntity
  8
実線
100
AcDbLine
 10
5335.672804566594
 20
-1650.475169932648
 30
0.0
 11
5335.672804566594
 21
-1650.050170048118
 31
0.0
  0
LINE
  5
B74FB
330
18
100
AcDbEntity
  8
実線
100
AcDbLine
 10
5335.727108057133
 20
-1649.350170048117
 30
0.0
 11
5335.727108057133
 21
-1647.850170048117
 31
0.0
  0
ARC
  5
B74FC
330
18
100
AcDbEntity
  8
実線
100
AcDbCircle
 10
5335.590429136088
 20
-1648.050170048118
 30
0.0
 40
0.5000000000001075
100
AcDbArc
 50
90.0
 51
156.4218215216422
  0
ARC
  5
B74FD
330
18
100
AcDbEntity
  8
実線
100
AcDbCircle
 10
5335.472804566594
 20
-1650.050170048118
 30
0.0
 40
0.2000000000000028
100
AcDbArc
 50
0.0
 51
90.0
  0
LINE
  5
B74FE
330
18
100
AcDbEntity
  8
実線
100
AcDbLine
 10
5335.392171566592
 20
-1649.850170048117
 30
0.0
 11
5335.602171566591
 21
-1649.850170048117
 31
0.0
  0
ARC
  5
B74FF
330
18
100
AcDbEntity
  8
実線
100
AcDbCircle
 10
5335.420213725085
 20
-1650.662669990382
 30
0.0
 40
0.0360842981141831
100
AcDbArc
 50
120.0000172983804
 51
239.9999827016197
  0
ARC
  5
B7500
330
18
100
AcDbEntity
  8
実線
100
AcDbCircle
 10
5335.420213725085
 20
-1651.162669990382
 30
0.0
 40
0.0360842981141831
100
AcDbArc
 50
120.0000172983804
 51
239.9999827016197
  0
LINE
  5
B7501
330
18
100
AcDbEntity
  8
実線
100
AcDbLine
 10
5335.402171566593
 20
-1650.631420076984
 30
0.0
 11
5335.672804566594
 21
-1650.475169932648
 31
0.0
  0
LINE
  5
B7502
330
18
100
AcDbEntity
  8
実線
100
AcDbLine
 10
5335.672804566593
 20
-1650.850170048117
 30
0.0
 11
5335.402171566593
 21
-1650.69391990378
 31
0.0
  0
LINE
  5
B7503
330
18
100
AcDbEntity
  8
実線
100
AcDbLine
 10
5335.672804566593
 20
-1650.850170048117
 30
0.0
 11
5335.672804566593
 21
-1650.975169932648
 31
0.0
  0
LINE
  5
B7504
330
18
100
AcDbEntity
  8
実線
100
AcDbLine
 10
5335.672804566593
 20
-1650.850170048117
 30
0.0
 11
5335.672804566593
 21
-1650.975169932648
 31
0.0
  0
LINE
  5
B7505
330
18
100
AcDbEntity
  8
実線
100
AcDbLine
 10
5335.402171566593
 20
-1651.131420076984
 30
0.0
 11
5335.672804566593
 21
-1650.975169932648
 31
0.0
  0
LINE
  5
B7506
330
18
100
AcDbEntity
  8
実線
100
AcDbLine
 10
5335.672804566593
 20
-1650.850170048117
 30
0.0
 11
5335.672804566593
 21
-1650.975169932648
 31
0.0
  0
LINE
  5
B7507
330
18
100
AcDbEntity
  8
実線
100
AcDbLine
 10
5335.727108057133
 20
-1647.850170048117
 30
0.0
 11
5334.892171566592
 21
-1647.850170048117
 31
0.0
  0
LINE
  5
B7508
330
18
100
AcDbEntity
  8
実線
100
AcDbLine
 10
5334.892171566592
 20
-1649.350170048117
 30
0.0
 11
5335.392171566592
 21
-1649.850170048117
 31
0.0
  0
LINE
  5
B7509
330
18
100
AcDbEntity
  8
実線
100
AcDbLine
 10
5334.892171566592
 20
-1649.350170048117
 30
0.0
 11
5335.727108057133
 21
-1649.350170048117
 31
0.0
  0
ARC
  5
B751D
330
18
100
AcDbEntity
  8
実線
100
AcDbCircle
 10
5337.642171566591
 20
-1660.330380760584
 30
0.0
 40
7.043069696315601
100
AcDbArc
 50
74.22219389955039
 51
105.7778061004186
  0
LINE
  5
B751E
330
18
100
AcDbEntity
  8
実線
100
AcDbLine
 10
5335.192171566593
 20
-1653.252670048117
 30
0.0
 11
5334.892171566591
 21
-1653.552670048116
 31
0.0
  0
LINE
  5
B751F
330
18
100
AcDbEntity
  8
実線
100
AcDbLine
 10
5334.892171566591
 20
-1659.050170048118
 30
0.0
 11
5334.892171566591
 21
-1660.050170048118
 31
0.0
  0
LINE
  5
B7520
330
18
100
AcDbEntity
  8
実線
100
AcDbLine
 10
5334.892171566591
 20
-1654.552670048118
 30
0.0
 11
5334.892171566591
 21
-1653.552670048116
 31
0.0
  0
LINE
  5
B7521
330
18
100
AcDbEntity
  8
実線
100
AcDbLine
 10
5334.892171566591
 20
-1653.552670048116
 30
0.0
 11
5334.892171566591
 21
-1660.050170048118
 31
0.0
  0
ARC
  5
B7522
330
18
100
AcDbEntity
  8
実線
100
AcDbCircle
 10
5337.642171566591
 20
-1656.125068412024
 30
0.0
 40
4.367366609175967
100
AcDbArc
 50
243.9921761143851
 51
296.0078238856682
  0
LINE
  5
B7523
330
18
100
AcDbEntity
  8
実線
100
AcDbLine
 10
5336.292171566592
 20
-1663.152670048119
 30
0.0
 11
5336.092171566595
 21
-1662.152670048119
 31
0.0
  0
LINE
  5
B7524
330
18
100
AcDbEntity
  8
実線
100
AcDbLine
 10
5336.092171566595
 20
-1662.152670048119
 30
0.0
 11
5336.092171566595
 21
-1661.752670048117
 31
0.0
  0
LINE
  5
B7525
330
18
100
AcDbEntity
  8
実線
100
AcDbLine
 10
5335.727108057131
 20
-1660.050170048118
 30
0.0
 11
5335.727108057131
 21
-1653.552670048116
 31
0.0
  0
LINE
  5
B7526
330
18
100
AcDbEntity
  8
実線
100
AcDbLine
 10
5334.892171566591
 20
-1660.050170048118
 30
0.0
 11
5335.671939595346
 21
-1661.752670048117
 31
0.0
  0
LINE
  5
B7527
330
18
100
AcDbEntity
  8
実線
100
AcDbLine
 10
5334.892171566591
 20
-1660.050170048118
 30
0.0
 11
5335.727108057131
 21
-1660.050170048118
 31
0.0
  0
LINE
  5
B7528
330
18
100
AcDbEntity
  8
実線
100
AcDbLine
 10
5334.892171566591
 20
-1653.552670048116
 30
0.0
 11
5335.727108057131
 21
-1653.552670048116
 31
0.0
  0
LINE
  5
B7529
330
18
100
AcDbEntity
  8
実線
100
AcDbLine
 10
5339.055231571769
 20
-1653.254300163473
 30
0.0
 11
5335.384129426971
 21
-1653.162669990382
 31
0.0
  0
LINE
  5
B752A
330
18
100
AcDbEntity
  8
実線
100
AcDbLine
 10
5335.672804566593
 20
-1651.850170048117
 30
0.0
 11
5335.672804566593
 21
-1651.975169932648
 31
0.0
  0
ARC
  5
B752B
330
18
100
AcDbEntity
  8
実線
100
AcDbCircle
 10
5335.420213725085
 20
-1651.662669990382
 30
0.0
 40
0.0360842981141831
100
AcDbArc
 50
120.0000172983804
 51
239.9999827016197
  0
LINE
  5
B752C
330
18
100
AcDbEntity
  8
実線
100
AcDbLine
 10
5335.672804566593
 20
-1651.350170048117
 30
0.0
 11
5335.672804566593
 21
-1651.475169932648
 31
0.0
  0
LINE
  5
B752D
330
18
100
AcDbEntity
  8
実線
100
AcDbLine
 10
5335.402171566593
 20
-1651.631420076984
 30
0.0
 11
5335.672804566593
 21
-1651.475169932648
 31
0.0
  0
LINE
  5
B752E
330
18
100
AcDbEntity
  8
実線
100
AcDbLine
 10
5335.672804566593
 20
-1651.850170048117
 30
0.0
 11
5335.402171566593
 21
-1651.69391990378
 31
0.0
  0
LINE
  5
B752F
330
18
100
AcDbEntity
  8
実線
100
AcDbLine
 10
5335.672804566593
 20
-1651.350170048117
 30
0.0
 11
5335.672804566593
 21
-1651.475169932648
 31
0.0
  0
ARC
  5
B7530
330
18
100
AcDbEntity
  8
実線
100
AcDbCircle
 10
5335.420213725085
 20
-1652.162669990382
 30
0.0
 40
0.0360842981141831
100
AcDbArc
 50
120.0000172983804
 51
239.9999827016197
  0
ARC
  5
B7531
330
18
100
AcDbEntity
  8
実線
100
AcDbCircle
 10
5335.420213725085
 20
-1652.662669990382
 30
0.0
 40
0.0360842981141831
100
AcDbArc
 50
120.0000172983804
 51
239.9999827016197
  0
ARC
  5
B7532
330
18
100
AcDbEntity
  8
実線
100
AcDbCircle
 10
5335.420213725085
 20
-1653.162669990382
 30
0.0
 40
0.0360842981133093
100
AcDbArc
 50
120.0000172991024
 51
239.9999827008976
  0
LINE
  5
B7533
330
18
100
AcDbEntity
  8
実線
100
AcDbLine
 10
5335.402171566593
 20
-1652.131420076984
 30
0.0
 11
5335.672804566593
 21
-1651.975169932648
 31
0.0
  0
LINE
  5
B7534
330
18
100
AcDbEntity
  8
実線
100
AcDbLine
 10
5335.672804566593
 20
-1652.350170048117
 30
0.0
 11
5335.402171566593
 21
-1652.19391990378
 31
0.0
  0
LINE
  5
B7535
330
18
100
AcDbEntity
  8
実線
100
AcDbLine
 10
5335.402171566593
 20
-1652.631420076984
 30
0.0
 11
5335.672804566593
 21
-1652.475169932648
 31
0.0
  0
LINE
  5
B7536
330
18
100
AcDbEntity
  8
実線
100
AcDbLine
 10
5335.672804566593
 20
-1652.850170048117
 30
0.0
 11
5335.402171566593
 21
-1652.69391990378
 31
0.0
  0
LINE
  5
B7537
330
18
100
AcDbEntity
  8
実線
100
AcDbLine
 10
5335.672804566593
 20
-1652.350170048117
 30
0.0
 11
5335.672804566593
 21
-1652.475169932648
 31
0.0
  0
LINE
  5
B7538
330
18
100
AcDbEntity
  8
実線
100
AcDbLine
 10
5335.402171566593
 20
-1653.131420076984
 30
0.0
 11
5335.672804566593
 21
-1652.975169932648
 31
0.0
  0
LINE
  5
B7539
330
18
100
AcDbEntity
  8
実線
100
AcDbLine
 10
5335.672804566593
 20
-1652.850170048117
 30
0.0
 11
5335.672804566593
 21
-1652.975169932648
 31
0.0
  0
LINE
  5
B753A
330
18
100
AcDbEntity
  8
実線
100
AcDbLine
 10
5335.50392973059
 20
-1653.252670048117
 30
0.0
 11
5335.402171566593
 21
-1653.193919903778
 31
0.0
  0
LINE
  5
B753B
330
18
100
AcDbEntity
  8
実線
100
AcDbLine
 10
5335.672804566593
 20
-1651.350170048117
 30
0.0
 11
5335.402171566593
 21
-1651.19391990378
 31
0.0
  0
LINE
  5
B753C
330
18
100
AcDbEntity
  8
実線
100
AcDbLine
 10
5341.227108057132
 20
-1653.552670048117
 30
0.0
 11
5341.227108057132
 21
-1660.050170048118
 31
0.0
  0
LINE
  5
B753D
330
18
100
AcDbEntity
  8
実線
100
AcDbLine
 10
5340.392171566591
 20
-1653.552670048117
 30
0.0
 11
5341.227108057132
 21
-1653.552670048117
 31
0.0
  0
LINE
  5
B753E
330
18
100
AcDbEntity
  8
実線
100
AcDbLine
 10
5340.392171566591
 20
-1660.050170048118
 30
0.0
 11
5341.227108057132
 21
-1660.050170048118
 31
0.0
  0
LINE
  5
B7540
330
18
100
AcDbEntity
  8
実線
100
AcDbLine
 10
5341.227108057129
 20
-1647.850170048117
 30
0.0
 11
5341.227108057132
 21
-1649.350170048117
 31
0.0
  0
LINE
  5
B7541
330
18
100
AcDbEntity
  8
実線
100
AcDbLine
 10
5341.227108057129
 20
-1647.850170048117
 30
0.0
 11
5340.392171566592
 21
-1647.850170048117
 31
0.0
  0
ARC
  5
B7542
330
18
100
AcDbEntity
  8
実線
100
AcDbCircle
 10
5343.142171566592
 20
-1645.425068412033
 30
0.0
 40
4.367366609167325
100
AcDbArc
 50
243.9921761143835
 51
296.0078238856163
  0
LINE
  5
B7543
330
18
100
AcDbEntity
  8
実線
100
AcDbLine
 10
5342.504442518649
 20
-1647.550170048118
 30
0.0
 11
5345.193913997099
 21
-1647.550170048119
 31
0.0
  0
LINE
  5
B7544
330
18
100
AcDbEntity
  8
実線
100
AcDbLine
 10
5345.182858083294
 20
-1649.850170048118
 30
0.0
 11
5340.392171566592
 21
-1649.850170048117
 31
0.0
  0
LINE
  5
B7545
330
18
100
AcDbEntity
  8
実線
100
AcDbLine
 10
5345.057235076055
 20
-1647.850170048118
 30
0.0
 11
5341.227108057129
 21
-1647.850170048117
 31
0.0
  0
LINE
  5
B7552
330
18
100
AcDbEntity
  8
実線
100
AcDbLine
 10
5345.111538566593
 20
-1650.044902416623
 30
0.0
 11
5345.111538566593
 21
-1650.725169932648
 31
0.0
  0
LINE
  5
B7553
330
18
100
AcDbEntity
  8
実線
100
AcDbLine
 10
5345.057235076055
 20
-1647.850170048118
 30
0.0
 11
5345.057235076055
 21
-1649.350170048118
 31
0.0
  0
LINE
  5
B7554
330
18
100
AcDbEntity
  8
実線
100
AcDbLine
 10
5345.892171566593
 20
-1647.850170048118
 30
0.0
 11
5345.892171566593
 21
-1649.350170048118
 31
0.0
  0
ARC
  5
B7555
330
18
100
AcDbEntity
  8
実線
100
AcDbCircle
 10
5345.193913997099
 20
-1648.050170048119
 30
0.0
 40
0.5
100
AcDbArc
 50
23.57817847833394
 51
90.0
  0
LINE
  5
B7558
330
18
100
AcDbEntity
  8
実線
100
AcDbLine
 10
5345.892171566593
 20
-1647.850170048118
 30
0.0
 11
5345.057235076055
 21
-1647.850170048118
 31
0.0
  0
ARC
  5
B7559
330
18
100
AcDbEntity
  8
実線
100
AcDbCircle
 10
5345.311538566594
 20
-1650.050170048119
 30
0.0
 40
0.2000000000003013
100
AcDbArc
 50
90.0
 51
180.0
  0
LINE
  5
B755A
330
18
100
AcDbEntity
  8
実線
100
AcDbLine
 10
5345.057235076055
 20
-1649.350170048118
 30
0.0
 11
5345.892171566593
 21
-1649.350170048118
 31
0.0
  0
LINE
  5
B755B
330
18
100
AcDbEntity
  8
実線
100
AcDbLine
 10
5345.392171566592
 20
-1649.850170048118
 30
0.0
 11
5345.892171566593
 21
-1649.350170048118
 31
0.0
  0
LINE
  5
B755C
330
18
100
AcDbEntity
  8
実線
100
AcDbLine
 10
5345.182171566593
 20
-1649.850170048118
 30
0.0
 11
5345.392171566592
 21
-1649.850170048118
 31
0.0
  0
ARC
  5
B755D
330
18
100
AcDbEntity
  8
実線
100
AcDbCircle
 10
5345.364129408101
 20
-1650.912669990383
 30
0.0
 40
0.0360842981133216
100
AcDbArc
 50
300.0000172924752
 51
59.99998270752481
  0
LINE
  5
B755E
330
18
100
AcDbEntity
  8
実線
100
AcDbLine
 10
5345.111538566593
 20
-1651.225169932648
 30
0.0
 11
5345.111538566593
 21
-1651.100170048118
 31
0.0
  0
LINE
  5
B755F
330
18
100
AcDbEntity
  8
実線
100
AcDbLine
 10
5345.111538566593
 20
-1651.225169932648
 30
0.0
 11
5345.111538566593
 21
-1651.100170048118
 31
0.0
  0
LINE
  5
B7560
330
18
100
AcDbEntity
  8
実線
100
AcDbLine
 10
5345.111538566593
 20
-1651.225169932648
 30
0.0
 11
5345.111538566593
 21
-1651.100170048118
 31
0.0
  0
LINE
  5
B7561
330
18
100
AcDbEntity
  8
実線
100
AcDbLine
 10
5345.382171566592
 20
-1650.943919903781
 30
0.0
 11
5345.111538566593
 21
-1651.100170048118
 31
0.0
  0
LINE
  5
B7562
330
18
100
AcDbEntity
  8
実線
100
AcDbLine
 10
5345.111538566593
 20
-1650.725169932648
 30
0.0
 11
5345.382171566592
 21
-1650.881420076985
 31
0.0
  0
LINE
  5
B7563
330
18
100
AcDbEntity
  8
実線
100
AcDbLine
 10
5340.392171566592
 20
-1647.550170048118
 30
0.0
 11
5342.504442518649
 21
-1647.550170048118
 31
0.0
  0
LINE
  5
B7564
330
18
100
AcDbEntity
  8
実線
100
AcDbLine
 10
5341.227108057132
 20
-1649.350170048117
 30
0.0
 11
5340.392171566592
 21
-1649.350170048117
 31
0.0
  0
ARC
  5
B7578
330
18
100
AcDbEntity
  8
実線
100
AcDbCircle
 10
5343.142171566591
 20
-1660.330380760585
 30
0.0
 40
7.043069696315629
100
AcDbArc
 50
74.22219389955039
 51
105.7778061004186
  0
LINE
  5
B7579
330
18
100
AcDbEntity
  8
実線
100
AcDbLine
 10
5345.892171566591
 20
-1653.552670048117
 30
0.0
 11
5345.592171566596
 21
-1653.252670048118
 31
0.0
  0
ARC
  5
B757A
330
18
100
AcDbEntity
  8
実線
100
AcDbCircle
 10
5343.142171566591
 20
-1656.125068412024
 30
0.0
 40
4.367366609175923
100
AcDbArc
 50
243.9921761143851
 51
296.0078238856682
  0
LINE
  5
B757B
330
18
100
AcDbEntity
  8
実線
100
AcDbLine
 10
5344.692171566594
 20
-1662.152670048119
 30
0.0
 11
5340.392171566591
 21
-1662.152670048119
 31
0.0
  0
LINE
  5
B757C
330
18
100
AcDbEntity
  8
実線
100
AcDbLine
 10
5345.112403537839
 20
-1661.752670048118
 30
0.0
 11
5340.392171566591
 21
-1661.752670048118
 31
0.0
  0
LINE
  5
B757D
330
18
100
AcDbEntity
  8
実線
100
AcDbLine
 10
5340.39217156659
 20
-1663.152670048119
 30
0.0
 11
5344.492171566589
 21
-1663.152670048119
 31
0.0
  0
LINE
  5
B757E
330
18
100
AcDbEntity
  8
実線
100
AcDbLine
 10
5344.692171566594
 20
-1662.152670048119
 30
0.0
 11
5344.492171566589
 21
-1663.152670048119
 31
0.0
  0
LINE
  5
B757F
330
18
100
AcDbEntity
  8
実線
100
AcDbLine
 10
5345.112403537839
 20
-1661.752670048118
 30
0.0
 11
5345.892171566591
 21
-1660.050170048119
 31
0.0
  0
LINE
  5
B7580
330
18
100
AcDbEntity
  8
実線
100
AcDbLine
 10
5345.057235076054
 20
-1660.050170048119
 30
0.0
 11
5345.892171566591
 21
-1660.050170048119
 31
0.0
  0
LINE
  5
B7581
330
18
100
AcDbEntity
  8
実線
100
AcDbLine
 10
5344.692171566594
 20
-1661.752670048118
 30
0.0
 11
5344.692171566594
 21
-1662.152670048119
 31
0.0
  0
LINE
  5
B7582
330
18
100
AcDbEntity
  8
実線
100
AcDbLine
 10
5345.892171566591
 20
-1653.552670048117
 30
0.0
 11
5345.892171566591
 21
-1654.552670048119
 31
0.0
  0
LINE
  5
B7583
330
18
100
AcDbEntity
  8
実線
100
AcDbLine
 10
5345.057235076054
 20
-1653.552670048117
 30
0.0
 11
5345.892171566591
 21
-1653.552670048117
 31
0.0
  0
LINE
  5
B7584
330
18
100
AcDbEntity
  8
実線
100
AcDbLine
 10
5345.057235076054
 20
-1653.552670048117
 30
0.0
 11
5345.057235076054
 21
-1660.050170048119
 31
0.0
  0
LINE
  5
B7585
330
18
100
AcDbEntity
  8
実線
100
AcDbLine
 10
5345.892171566591
 20
-1660.050170048119
 30
0.0
 11
5345.892171566591
 21
-1653.552670048117
 31
0.0
  0
LINE
  5
B7586
330
18
100
AcDbEntity
  8
実線
100
AcDbLine
 10
5345.892171566591
 20
-1660.050170048119
 30
0.0
 11
5345.892171566591
 21
-1659.050170048119
 31
0.0
  0
LINE
  5
B7587
330
18
100
AcDbEntity
  8
実線
100
AcDbLine
 10
5340.392171566591
 20
-1653.252670048118
 30
0.0
 11
5345.592171566596
 21
-1653.252670048118
 31
0.0
  0
ARC
  5
B7588
330
18
100
AcDbEntity
  8
実線
100
AcDbCircle
 10
5345.364129408101
 20
-1651.912669990383
 30
0.0
 40
0.0360842981133216
100
AcDbArc
 50
300.0000172991024
 51
59.99998270752481
  0
ARC
  5
B7589
330
18
100
AcDbEntity
  8
実線
100
AcDbCircle
 10
5345.364129408101
 20
-1651.412669990383
 30
0.0
 40
0.0360842981133216
100
AcDbArc
 50
300.0000172924752
 51
59.99998270752481
  0
LINE
  5
B758A
330
18
100
AcDbEntity
  8
実線
100
AcDbLine
 10
5345.111538566593
 20
-1651.725169932648
 30
0.0
 11
5345.111538566593
 21
-1651.600170048118
 31
0.0
  0
LINE
  5
B758B
330
18
100
AcDbEntity
  8
実線
100
AcDbLine
 10
5345.111538566593
 20
-1651.725169932648
 30
0.0
 11
5345.382171566592
 21
-1651.881420076985
 31
0.0
  0
LINE
  5
B758C
330
18
100
AcDbEntity
  8
実線
100
AcDbLine
 10
5345.111538566593
 20
-1651.725169932648
 30
0.0
 11
5345.111538566593
 21
-1651.600170048118
 31
0.0
  0
LINE
  5
B758D
330
18
100
AcDbEntity
  8
実線
100
AcDbLine
 10
5345.382171566592
 20
-1651.443919903781
 30
0.0
 11
5345.111538566593
 21
-1651.600170048118
 31
0.0
  0
ARC
  5
B758E
330
18
100
AcDbEntity
  8
実線
100
AcDbCircle
 10
5345.364129408101
 20
-1652.912669990383
 30
0.0
 40
0.0360842981133216
100
AcDbArc
 50
300.0000172991024
 51
59.99998270752481
  0
ARC
  5
B758F
330
18
100
AcDbEntity
  8
実線
100
AcDbCircle
 10
5345.364129408101
 20
-1652.412669990383
 30
0.0
 40
0.0360842981133216
100
AcDbArc
 50
300.0000172924752
 51
59.99998270752481
  0
LINE
  5
B7590
330
18
100
AcDbEntity
  8
実線
100
AcDbLine
 10
5345.382171566592
 20
-1652.943919903779
 30
0.0
 11
5345.111538566593
 21
-1653.100170048118
 31
0.0
  0
LINE
  5
B7591
330
18
100
AcDbEntity
  8
実線
100
AcDbLine
 10
5345.111538566593
 20
-1653.225169932648
 30
0.0
 11
5345.111538566593
 21
-1653.100170048118
 31
0.0
  0
LINE
  5
B7592
330
18
100
AcDbEntity
  8
実線
100
AcDbLine
 10
5345.111538566593
 20
-1653.225169932648
 30
0.0
 11
5345.159170130593
 21
-1653.252670048118
 31
0.0
  0
LINE
  5
B7593
330
18
100
AcDbEntity
  8
実線
100
AcDbLine
 10
5345.382171566592
 20
-1652.943919903779
 30
0.0
 11
5345.111538566593
 21
-1653.100170048118
 31
0.0
  0
LINE
  5
B7594
330
18
100
AcDbEntity
  8
実線
100
AcDbLine
 10
5345.111538566593
 20
-1652.725169932648
 30
0.0
 11
5345.382171566592
 21
-1652.881420076985
 31
0.0
  0
LINE
  5
B7595
330
18
100
AcDbEntity
  8
実線
100
AcDbLine
 10
5345.111538566593
 20
-1652.725169932648
 30
0.0
 11
5345.111538566593
 21
-1652.600170048118
 31
0.0
  0
LINE
  5
B7596
330
18
100
AcDbEntity
  8
実線
100
AcDbLine
 10
5345.111538566593
 20
-1652.225169932648
 30
0.0
 11
5345.111538566593
 21
-1652.100170048118
 31
0.0
  0
LINE
  5
B7597
330
18
100
AcDbEntity
  8
実線
100
AcDbLine
 10
5345.111538566593
 20
-1652.225169932648
 30
0.0
 11
5345.382171566592
 21
-1652.381420076985
 31
0.0
  0
LINE
  5
B7598
330
18
100
AcDbEntity
  8
実線
100
AcDbLine
 10
5345.382171566592
 20
-1652.443919903781
 30
0.0
 11
5345.111538566593
 21
-1652.600170048118
 31
0.0
  0
LINE
  5
B7599
330
18
100
AcDbEntity
  8
実線
100
AcDbLine
 10
5345.382171566592
 20
-1651.943919903779
 30
0.0
 11
5345.111538566593
 21
-1652.100170048118
 31
0.0
  0
LINE
  5
B759A
330
18
100
AcDbEntity
  8
実線
100
AcDbLine
 10
5345.111538566593
 20
-1651.225169932648
 30
0.0
 11
5345.382171566592
 21
-1651.381420076985
 31
0.0
  0
LINE
  5
B75A3
330
18
100
AcDbEntity
  8
CENTER
100
AcDbLine
 10
5340.392171566589
 20
-1674.550170048116
 30
0.0
 11
5340.392171566592
 21
-1642.86109263525
 31
0.0
  0
LINE
  5
B75A7
330
18
100
AcDbEntity
  8
実線
100
AcDbLine
 10
5343.692171564716
 20
-1663.152670048119
 30
0.0
 11
5343.692171564716
 21
-1673.050170046302
 31
0.0
  0
LINE
  5
B75A8
330
18
100
AcDbEntity
  8
実線
100
AcDbLine
 10
5337.092171564717
 20
-1663.152670048119
 30
0.0
 11
5337.092171564716
 21
-1673.050170048116
 31
0.0
  0
ARC
  5
B75A9
330
18
100
AcDbEntity
  8
実線
100
AcDbCircle
 10
5371.692171564715
 20
-1686.269783353241
 30
0.0
 40
28.0
100
AcDbArc
 50
179.9999999999958
 51
269.9999999999963
  0
ARC
  5
B75AA
330
18
100
AcDbEntity
  8
実線
100
AcDbCircle
 10
5371.692171564715
 20
-1686.269783353241
 30
0.0
 40
34.6
100
AcDbArc
 50
179.9999999999959
 51
269.9999999999955
  0
LINE
  5
B75E7
330
18
100
AcDbEntity
  8
実線
100
AcDbLine
 10
5446.93905574064
 20
-1706.200170048122
 30
0.0
 11
5446.939055740638
 21
-1728.900170048122
 31
0.0
  0
LINE
  5
B75E8
330
18
100
AcDbEntity
  8
実線
100
AcDbLine
 10
5418.139055740636
 20
-1714.250170048119
 30
0.0
 11
5418.139055740635
 21
-1720.850170048117
 31
0.0
  0
LWPOLYLINE
  5
B75E9
330
18
100
AcDbEntity
  8
実線
100
AcDbPolyline
 90
        4
 70
   129
 43
0.0
 10
5434.939055740638
 20
-1728.900170048121
 10
5458.139055740635
 20
-1728.900170048123
 10
5458.139055740637
 20
-1706.200170048122
 10
5434.939055740639
 20
-1706.200170048121
  0
LINE
  5
B75EA
330
18
100
AcDbEntity
  8
実線
100
AcDbLine
 10
5449.88642416169
 20
-1732.60017004812
 30
0.0
 11
5458.139055740635
 21
-1728.900170048123
 31
0.0
  0
LINE
  5
B75EB
330
18
100
AcDbEntity
  8
実線
100
AcDbLine
 10
5449.88642416169
 20
-1732.60017004812
 30
0.0
 11
5446.939055740638
 21
-1728.900170048122
 31
0.0
  0
LINE
  5
B75EC
330
18
100
AcDbEntity
  8
実線
100
AcDbLine
 10
5418.139055740636
 20
-1719.100170048121
 30
0.0
 11
5434.939055740638
 21
-1720.735975050132
 31
0.0
  0
LINE
  5
B75ED
330
18
100
AcDbEntity
  8
実線
100
AcDbLine
 10
5434.939055740638
 20
-1722.863975050129
 30
0.0
 11
5418.139055740635
 21
-1720.100170048121
 31
0.0
  0
LINE
  5
B75EE
330
18
100
AcDbEntity
  8
実線
100
AcDbLine
 10
5434.939055740638
 20
-1718.607975050131
 30
0.0
 11
5418.139055740636
 21
-1718.100170048121
 31
0.0
  0
LINE
  5
B75EF
330
18
100
AcDbEntity
  8
実線
100
AcDbLine
 10
5449.886424161693
 20
-1702.500170048121
 30
0.0
 11
5458.139055740637
 21
-1706.200170048122
 31
0.0
  0
LINE
  5
B75F0
330
18
100
AcDbEntity
  8
実線
100
AcDbLine
 10
5449.886424161693
 20
-1702.500170048121
 30
0.0
 11
5446.93905574064
 21
-1706.200170048122
 31
0.0
  0
LINE
  5
B75F1
330
18
100
AcDbEntity
  8
実線
100
AcDbLine
 10
5418.139055740636
 20
-1715.100170048121
 30
0.0
 11
5434.939055740638
 21
-1712.22397505013
 31
0.0
  0
LINE
  5
B75F2
330
18
100
AcDbEntity
  8
実線
100
AcDbLine
 10
5434.939055740638
 20
-1714.35197505013
 30
0.0
 11
5418.139055740636
 21
-1716.100170048121
 31
0.0
  0
LINE
  5
B75F3
330
18
100
AcDbEntity
  8
実線
100
AcDbLine
 10
5418.139055740636
 20
-1717.100170048121
 30
0.0
 11
5434.939055740638
 21
-1716.479975050131
 31
0.0
  0
LINE
  5
B75F4
330
18
100
AcDbEntity
  8
実線
100
AcDbLine
 10
5371.692171564713
 20
-1720.850170048113
 30
0.0
 11
5418.139055740635
 21
-1720.850170048116
 31
0.0
  0
LINE
  5
B75F5
330
18
100
AcDbEntity
  8
実線
100
AcDbLine
 10
5371.692171564713
 20
-1714.250170048114
 30
0.0
 11
5418.139055740636
 21
-1714.250170048118
 31
0.0
  0
LINE
  5
B75FE
330
18
100
AcDbEntity
  8
実線
 48
0.5
100
AcDbLine
 10
5183.597491566583
 20
-1721.325170048113
 30
0.0
 11
5193.097491566582
 21
-1721.325170048114
 31
0.0
  0
LINE
  5
B75FF
330
18
100
AcDbEntity
  8
実線
 48
0.5
100
AcDbLine
 10
5189.794634423726
 20
-1710.371598619543
 30
0.0
 11
5193.097491566584
 21
-1710.371598619543
 31
0.0
  0
LINE
  5
B7600
330
18
100
AcDbEntity
  8
実線
 48
0.5
100
AcDbLine
 10
5189.697491566582
 20
-1711.537312905258
 30
0.0
 11
5193.097491566584
 21
-1711.537312905258
 31
0.0
  0
LINE
  5
B7601
330
18
100
AcDbEntity
  8
実線
 48
0.5
100
AcDbLine
 10
5183.597491566583
 20
-1713.775170048114
 30
0.0
 11
5193.097491566584
 21
-1713.775170048114
 31
0.0
  0
LINE
  5
B7602
330
18
100
AcDbEntity
  8
実線
 48
0.5
100
AcDbLine
 10
5183.597491566583
 20
-1717.875170048112
 30
0.0
 11
5193.097491566584
 21
-1717.875170048113
 31
0.0
  0
LINE
  5
B7603
330
18
100
AcDbEntity
  8
実線
 48
0.5
100
AcDbLine
 10
5183.597491566583
 20
-1717.225170048114
 30
0.0
 11
5193.097491566584
 21
-1717.225170048115
 31
0.0
  0
LINE
  5
B7604
330
18
100
AcDbEntity
  8
実線
 48
0.5
100
AcDbLine
 10
5188.337491566581
 20
-1709.400170048114
 30
0.0
 11
5199.606062995155
 21
-1709.400170048113
 31
0.0
  0
LINE
  5
B7605
330
18
100
AcDbEntity
  8
実線
 48
0.5
100
AcDbLine
 10
5190.21234870944
 20
-1708.982455762399
 30
0.0
 11
5200.577491566583
 21
-1708.9824557624
 31
0.0
  0
LINE
  5
B7606
330
18
100
AcDbEntity
  8
実線
 48
0.5
100
AcDbLine
 10
5193.097491566582
 20
-1722.800170048116
 30
0.0
 11
5193.097491566584
 21
-1712.800170048116
 31
0.0
  0
LINE
  5
B7607
330
18
100
AcDbEntity
  8
実線
 48
0.5
100
AcDbLine
 10
5207.297536668058
 20
-1723.700163995073
 30
0.0
 11
5207.297536668059
 21
-1711.900163995072
 31
0.0
  0
LINE
  5
B7608
330
18
100
AcDbEntity
  8
実線
 48
0.5
100
AcDbLine
 10
5193.097491566584
 20
-1712.800170048116
 30
0.0
 11
5193.097491566584
 21
-1708.982455762399
 31
0.0
  0
ARC
  5
B7609
330
18
100
AcDbEntity
  8
実線
 48
0.5
100
AcDbCircle
 10
5195.195777280869
 20
-1711.813747262067
 30
0.0
 40
0.4857142857142857
100
AcDbArc
 50
99.99999999988389
 51
180.0
  0
LINE
  5
B760A
330
18
100
AcDbEntity
  8
実線
 48
0.5
100
AcDbLine
 10
5194.710062995153
 20
-1712.314455762401
 30
0.0
 11
5194.710062995153
 21
-1711.813747262067
 31
0.0
  0
ARC
  5
B760B
330
18
100
AcDbEntity
  8
実線
 48
0.5
100
AcDbCircle
 10
5195.195777280869
 20
-1712.314455762401
 30
0.0
 40
0.4857142857142857
100
AcDbArc
 50
180.0
 51
270.0
  0
LINE
  5
B760C
330
18
100
AcDbEntity
  8
実線
 48
0.5
100
AcDbLine
 10
5200.577491566583
 20
-1710.371598619542
 30
0.0
 11
5200.577491566583
 21
-1708.9824557624
 31
0.0
  0
LINE
  5
B760D
330
18
100
AcDbEntity
  8
実線
 48
0.5
100
AcDbLine
 10
5199.606062995155
 20
-1709.400170048113
 30
0.0
 11
5199.606062995155
 21
-1708.9824557624
 31
0.0
  0
LINE
  5
B760E
330
18
100
AcDbEntity
  8
実線
 48
0.5
100
AcDbLine
 10
5206.19753666806
 20
-1712.800170048115
 30
0.0
 11
5206.19753666806
 21
-1711.900163995072
 31
0.0
  0
LINE
  5
B760F
330
18
100
AcDbEntity
  8
実線
 48
0.5
100
AcDbLine
 10
5207.297536668059
 20
-1711.900163995072
 30
0.0
 11
5206.19753666806
 21
-1711.900163995072
 31
0.0
  0
LINE
  5
B7610
330
18
100
AcDbEntity
  8
実線
 48
0.5
100
AcDbLine
 10
5195.111433880288
 20
-1711.335412067745
 30
0.0
 11
5200.577491566583
 21
-1710.371598619542
 31
0.0
  0
LINE
  5
B7611
330
18
100
AcDbEntity
  8
実線
 48
0.5
100
AcDbLine
 10
5206.19753666806
 20
-1712.800170048115
 30
0.0
 11
5193.097491566584
 21
-1712.800170048116
 31
0.0
  0
LINE
  5
B7612
330
18
100
AcDbEntity
  8
実線
100
AcDbLine
 10
5217.297536668059
 20
-1714.700170048116
 30
0.0
 11
5217.297536668057
 21
-1720.400170048116
 31
0.0
  0
LINE
  5
B7613
330
18
100
AcDbEntity
  8
実線
100
AcDbLine
 10
5217.297536668059
 20
-1715.550170048116
 30
0.0
 11
5217.297536668059
 21
-1719.550170048116
 31
0.0
  0
LINE
  5
B7614
330
18
100
AcDbEntity
  8
実線
 48
0.5
100
AcDbLine
 10
5206.197536668057
 20
-1723.700163995073
 30
0.0
 11
5206.197536668057
 21
-1722.800170048115
 31
0.0
  0
LINE
  5
B7615
330
18
100
AcDbEntity
  8
実線
 48
0.5
100
AcDbLine
 10
5207.297536668058
 20
-1723.700163995073
 30
0.0
 11
5206.197536668057
 21
-1723.700163995073
 31
0.0
  0
LINE
  5
B7616
330
18
100
AcDbEntity
  8
実線
 48
0.5
100
AcDbLine
 10
5206.19753666806
 20
-1722.800170048115
 30
0.0
 11
5193.097491566582
 21
-1722.800170048116
 31
0.0
  0
LINE
  5
B7617
330
18
100
AcDbEntity
  8
実線
 48
0.5
100
AcDbLine
 10
5183.597491566583
 20
-1717.225170048114
 30
0.0
 11
5183.597491566583
 21
-1713.775170048114
 31
0.0
  0
LINE
  5
B7618
330
18
100
AcDbEntity
  8
実線
 48
0.5
100
AcDbLine
 10
5188.337491566581
 20
-1709.400170048114
 30
0.0
 11
5187.366062995153
 21
-1710.371598619543
 31
0.0
  0
LINE
  5
B7619
330
18
100
AcDbEntity
  8
実線
 48
0.5
100
AcDbLine
 10
5189.794634423726
 20
-1710.371598619543
 30
0.0
 11
5189.794634423726
 21
-1709.400170048114
 31
0.0
  0
LINE
  5
B761A
330
18
100
AcDbEntity
  8
実線
 48
0.5
100
AcDbLine
 10
5189.794634423726
 20
-1709.400170048114
 30
0.0
 11
5190.21234870944
 21
-1708.982455762399
 31
0.0
  0
LINE
  5
B761B
330
18
100
AcDbEntity
  8
実線
 48
0.5
100
AcDbLine
 10
5188.337491566581
 20
-1712.60588433383
 30
0.0
 11
5189.794634423726
 21
-1712.60588433383
 31
0.0
  0
LINE
  5
B761C
330
18
100
AcDbEntity
  8
実線
 48
0.5
100
AcDbLine
 10
5187.366062995153
 20
-1711.634455762401
 30
0.0
 11
5188.337491566581
 21
-1712.60588433383
 31
0.0
  0
LINE
  5
B761D
330
18
100
AcDbEntity
  8
実線
 48
0.5
100
AcDbLine
 10
5189.794634423726
 20
-1712.60588433383
 30
0.0
 11
5189.697491566582
 21
-1711.537312905258
 31
0.0
  0
LINE
  5
B761E
330
18
100
AcDbEntity
  8
実線
 48
0.5
100
AcDbLine
 10
5187.366062995153
 20
-1711.634455762401
 30
0.0
 11
5187.366062995153
 21
-1710.371598619543
 31
0.0
  0
LINE
  5
B761F
330
18
100
AcDbEntity
  8
実線
 48
0.5
100
AcDbLine
 10
5183.597491566583
 20
-1721.325170048113
 30
0.0
 11
5183.597491566583
 21
-1717.875170048112
 31
0.0
  0
LINE
  5
B7626
330
18
100
AcDbEntity
  8
実線
100
AcDbLine
 10
5217.297536668059
 20
-1715.31830370857
 30
0.0
 11
5207.297536668059
 21
-1714.65330370857
 31
0.0
  0
LINE
  5
B7627
330
18
100
AcDbEntity
  8
実線
100
AcDbLine
 10
5217.297536668059
 20
-1717.012036387662
 30
0.0
 11
5207.297536668059
 21
-1716.347036387662
 31
0.0
  0
LINE
  5
B7628
330
18
100
AcDbEntity
  8
実線
100
AcDbLine
 10
5217.297536668059
 20
-1718.08830370857
 30
0.0
 11
5207.297536668059
 21
-1718.753303708568
 31
0.0
  0
LINE
  5
B7629
330
18
100
AcDbEntity
  8
実線
100
AcDbLine
 10
5217.297536668057
 20
-1719.782036387662
 30
0.0
 11
5207.297536668058
 21
-1720.44703638766
 31
0.0
  0
ARC
  5
B762C
330
18
100
AcDbEntity
  8
実線
100
AcDbCircle
 10
5268.247491566592
 20
-1679.700170048119
 30
0.0
 40
35.00000000000001
100
AcDbArc
 50
269.9999999999955
 51
359.9999999999955
  0
ARC
  5
B762D
330
18
100
AcDbEntity
  8
実線
100
AcDbCircle
 10
5268.247491566592
 20
-1679.700170048119
 30
0.0
 40
40.70000000000001
100
AcDbArc
 50
269.9999999999948
 51
359.9999999999955
  0
LINE
  5
B762E
330
18
100
AcDbEntity
  8
実線
100
AcDbLine
 10
5217.297536668057
 20
-1720.400170048116
 30
0.0
 11
5268.247491566588
 21
-1720.40017004812
 31
0.0
  0
LINE
  5
B762F
330
18
100
AcDbEntity
  8
実線
100
AcDbLine
 10
5217.297536668059
 20
-1714.700170048116
 30
0.0
 11
5268.247491566589
 21
-1714.700170048119
 31
0.0
  0
LINE
  5
B763B
330
18
100
AcDbEntity
  8
実線
100
AcDbLine
 10
5262.585551566589
 20
-1648.350170048115
 30
0.0
 11
5257.685551566587
 21
-1648.350170048115
 31
0.0
  0
LINE
  5
B7649
330
18
100
AcDbEntity
  8
実線
100
AcDbLine
 10
5256.635551566592
 20
-1648.050170048115
 30
0.0
 11
5256.635551566592
 21
-1647.550170048115
 31
0.0
  0
LINE
  5
B764A
330
18
100
AcDbEntity
  8
実線
100
AcDbLine
 10
5263.635551566592
 20
-1647.550170048115
 30
0.0
 11
5256.635551566592
 21
-1647.550170048115
 31
0.0
  0
LINE
  5
B764B
330
18
100
AcDbEntity
  8
実線
100
AcDbLine
 10
5263.635551566592
 20
-1648.050170048115
 30
0.0
 11
5263.635551566592
 21
-1647.550170048115
 31
0.0
  0
LINE
  5
B764C
330
18
100
AcDbEntity
  8
実線
100
AcDbLine
 10
5256.635551566592
 20
-1648.050170048115
 30
0.0
 11
5257.685551566587
 21
-1648.350170048115
 31
0.0
  0
LINE
  5
B764D
330
18
100
AcDbEntity
  8
実線
100
AcDbLine
 10
5263.635551566592
 20
-1648.050170048115
 30
0.0
 11
5256.635551566592
 21
-1648.050170048115
 31
0.0
  0
LINE
  5
B764E
330
18
100
AcDbEntity
  8
実線
100
AcDbLine
 10
5263.635551566592
 20
-1648.050170048115
 30
0.0
 11
5262.585551566589
 21
-1648.350170048115
 31
0.0
  0
LINE
  5
B769A
330
18
100
AcDbEntity
  8
実線
100
AcDbLine
 10
5258.697491566596
 20
-1577.250170048115
 30
0.0
 11
5258.197491566596
 21
-1577.750170048115
 31
0.0
  0
LINE
  5
B769B
330
18
100
AcDbEntity
  8
実線
100
AcDbLine
 10
5353.497491566596
 20
-1577.250170048115
 30
0.0
 11
5353.997491566595
 21
-1577.750170048115
 31
0.0
  0
ARC
  5
B769C
330
18
100
AcDbEntity
  8
実線
100
AcDbCircle
 10
5354.397491566595
 20
-1579.650170048114
 30
0.0
 40
0.4000000000000002
100
AcDbArc
 50
180.0
 51
270.0
  0
ARC
  5
B769D
330
18
100
AcDbEntity
  8
実線
100
AcDbCircle
 10
5257.797491566596
 20
-1579.650170048114
 30
0.0
 40
0.4000000000000002
100
AcDbArc
 50
270.0
 51
0.0
  0
ARC
  5
B769E
330
18
100
AcDbEntity
  8
実線
100
AcDbCircle
 10
5235.697491566592
 20
-1644.450170048115
 30
0.0
 40
0.4000000000000002
100
AcDbArc
 50
0.0
 51
90.0
  0
ARC
  5
B769F
330
18
100
AcDbEntity
  8
実線
100
AcDbCircle
 10
5376.497491566592
 20
-1644.450170048115
 30
0.0
 40
0.4000000000000002
100
AcDbArc
 50
90.0
 51
180.0
  0
LINE
  5
B76A0
330
18
100
AcDbEntity
  8
実線
100
AcDbLine
 10
5236.597491566592
 20
-1647.050170048115
 30
0.0
 11
5236.097491566592
 21
-1646.550170048115
 31
0.0
  0
LINE
  5
B76A1
330
18
100
AcDbEntity
  8
実線
100
AcDbLine
 10
5375.597491566592
 20
-1647.050170048115
 30
0.0
 11
5376.097491566592
 21
-1646.550170048115
 31
0.0
  0
CIRCLE
  5
B86CD
330
18
100
AcDbEntity
  8
実線
100
AcDbCircle
 10
5306.097491566596
 20
-1423.237519332518
 30
0.0
 40
90.0
  0
LINE
  5
B86D3
330
18
100
AcDbEntity
  8
実線
100
AcDbLine
 10
5304.847491566595
 20
-1333.246200306735
 30
0.0
 11
5304.847491566595
 21
-1334.246297855341
 31
0.0
  0
LINE
  5
B86D4
330
18
100
AcDbEntity
  8
実線
100
AcDbLine
 10
5307.347491566595
 20
-1333.246200306735
 30
0.0
 11
5307.347491566595
 21
-1334.246297855341
 31
0.0
  0
CIRCLE
  5
B86E2
330
18
100
AcDbEntity
  8
実線
100
AcDbCircle
 10
5306.097491566596
 20
-1423.237519332518
 30
0.0
 40
17.5
  0
CIRCLE
  5
B86E3
330
18
100
AcDbEntity
  8
実線
100
AcDbCircle
 10
5306.097491566596
 20
-1423.237519332518
 30
0.0
 40
38.0
  0
CIRCLE
  5
B86E4
330
18
100
AcDbEntity
  8
実線
100
AcDbCircle
 10
5306.097491566596
 20
-1423.237519332518
 30
0.0
 40
47.9
  0
CIRCLE
  5
B86E5
330
18
100
AcDbEntity
  8
実線
100
AcDbCircle
 10
5306.097491566596
 20
-1423.237519332518
 30
0.0
 40
50.0
  0
CIRCLE
  5
B86E6
102
{ACAD_REACTORS
330
B86FD
102
}
330
18
100
AcDbEntity
  8
CENTER
100
AcDbCircle
 10
5306.097491566596
 20
-1423.237519332518
 30
0.0
 40
43.0
  0
LINE
  5
B86E7
330
18
100
AcDbEntity
  8
CENTER
100
AcDbLine
 10
5296.391777375252
 20
-1387.015300846677
 30
0.0
 11
5293.544767879126
 21
-1376.390116757498
 31
0.0
  0
CIRCLE
  5
B86E8
330
18
100
AcDbEntity
  8
細線
100
AcDbCircle
 10
5306.097491566596
 20
-1380.237519332518
 30
0.0
 40
2.5
  0
CIRCLE
  5
B86E9
330
18
100
AcDbEntity
  8
実線
100
AcDbCircle
 10
5306.097491566596
 20
-1380.237519332518
 30
0.0
 40
2.0
  0
LINE
  5
B86EA
330
18
100
AcDbEntity
  8
CENTER
100
AcDbLine
 10
5306.097491566596
 20
-1375.237519332518
 30
0.0
 11
5306.097491566596
 21
-1385.237519332518
 31
0.0
  0
CIRCLE
  5
B86EB
330
18
100
AcDbEntity
  8
細線
100
AcDbCircle
 10
5268.858399203864
 20
-1401.73751933252
 30
0.0
 40
2.5
  0
CIRCLE
  5
B86EC
330
18
100
AcDbEntity
  8
実線
100
AcDbCircle
 10
5268.858399203864
 20
-1401.73751933252
 30
0.0
 40
2.0
  0
LINE
  5
B86ED
330
18
100
AcDbEntity
  8
CENTER
100
AcDbLine
 10
5264.528272184946
 20
-1399.23751933252
 30
0.0
 11
5273.188526222789
 21
-1404.23751933252
 31
0.0
  0
CIRCLE
  5
B86EE
330
18
100
AcDbEntity
  8
細線
100
AcDbCircle
 10
5268.858399203864
 20
-1444.737519332517
 30
0.0
 40
2.5
  0
CIRCLE
  5
B86EF
330
18
100
AcDbEntity
  8
実線
100
AcDbCircle
 10
5268.858399203864
 20
-1444.737519332517
 30
0.0
 40
2.0
  0
LINE
  5
B86F0
330
18
100
AcDbEntity
  8
CENTER
100
AcDbLine
 10
5264.528272184942
 20
-1447.237519332517
 30
0.0
 11
5273.188526222786
 21
-1442.237519332517
 31
0.0
  0
CIRCLE
  5
B86F1
330
18
100
AcDbEntity
  8
細線
100
AcDbCircle
 10
5306.097491566596
 20
-1466.237519332519
 30
0.0
 40
2.5
  0
CIRCLE
  5
B86F2
330
18
100
AcDbEntity
  8
実線
100
AcDbCircle
 10
5306.097491566596
 20
-1466.237519332519
 30
0.0
 40
2.0
  0
LINE
  5
B86F3
330
18
100
AcDbEntity
  8
CENTER
100
AcDbLine
 10
5306.097491566596
 20
-1471.237519332519
 30
0.0
 11
5306.097491566596
 21
-1461.237519332519
 31
0.0
  0
CIRCLE
  5
B86F4
330
18
100
AcDbEntity
  8
細線
100
AcDbCircle
 10
5343.336583929331
 20
-1444.737519332518
 30
0.0
 40
2.5
  0
CIRCLE
  5
B86F5
330
18
100
AcDbEntity
  8
実線
100
AcDbCircle
 10
5343.336583929331
 20
-1444.737519332518
 30
0.0
 40
2.0
  0
LINE
  5
B86F6
330
18
100
AcDbEntity
  8
CENTER
100
AcDbLine
 10
5347.666710948253
 20
-1447.237519332518
 30
0.0
 11
5339.006456910409
 21
-1442.237519332518
 31
0.0
  0
CIRCLE
  5
B86F7
330
18
100
AcDbEntity
  8
細線
100
AcDbCircle
 10
5343.336583929327
 20
-1401.737519332518
 30
0.0
 40
2.5
  0
CIRCLE
  5
B86F8
330
18
100
AcDbEntity
  8
実線
100
AcDbCircle
 10
5343.336583929327
 20
-1401.737519332518
 30
0.0
 40
2.0
  0
LINE
  5
B86F9
330
18
100
AcDbEntity
  8
CENTER
100
AcDbLine
 10
5347.666710948249
 20
-1399.237519332518
 30
0.0
 11
5339.006456910405
 21
-1404.237519332518
 31
0.0
  0
CIRCLE
  5
B86FA
102
{ACAD_REACTORS
330
B86FD
102
}
330
18
100
AcDbEntity
  8
実線
100
AcDbCircle
 10
5294.968272627187
 20
-1381.702708802088
 30
0.0
 40
3.0
  0
LINE
  5
B86FB
102
{ACAD_REACTORS
330
B86FD
102
}
330
18
100
AcDbEntity
  8
実線
100
AcDbLine
 10
5294.19181549188
 20
-1378.804931323221
 30
0.0
 11
5295.744729762495
 21
-1384.600486280955
 31
0.0
  0
LINE
  5
B86FC
102
{ACAD_REACTORS
330
B86FD
102
}
330
18
100
AcDbEntity
  8
実線
100
AcDbLine
 10
5292.070495148319
 20
-1382.479165937395
 30
0.0
 11
5297.866050106053
 21
-1380.926251666781
 31
0.0
  0
HATCH
  5
B86FD
330
18
100
AcDbEntity
  8
ハッチング
100
AcDbHatch
 10
0.0
 20
0.0
 30
0.0
210
0.0
220
0.0
230
1.0
  2
SOLID
 70
     1
 71
     1
 91
        3
 92
        7
 72
     1
 73
     1
 93
        4
 10
5294.968272627187
 20
-1381.702708802088
 42
0.0
 10
5294.19181549188
 20
-1378.804931323221
 42
0.339454258863273
 10
5291.968272627188
 20
-1381.702708802088
 42
0.0655434628156155
 10
5292.07049514832
 20
-1382.479165937395
 42
0.0
 97
        3
330
B86FB
330
B86FA
330
B86FC
 92
        7
 72
     1
 73
     1
 93
        4
 10
5295.744729762495
 20
-1384.600486280955
 42
0.3394542588633276
 10
5297.968272627187
 20
-1381.702708802088
 42
0.0567880741979719
 10
5297.891372168363
 20
-1381.027809496724
 42
0.0174471698325578
 10
5294.968272627187
 20
-1381.702708802088
 42
0.0
 97
        3
330
B86FA
330
B86E6
330
B86FB
 92
        7
 72
     1
 73
     1
 93
        3
 10
5297.891372168363
 20
-1381.027809496724
 42
0.0087229211554271
 10
5297.866050106054
 20
-1380.92625166678
 42
0.0
 10
5294.968272627192
 20
-1381.702708802086
 42
-0.0174471698325065
 97
        3
330
B86FA
330
B86FC
330
B86E6
 75
     0
 76
     1
 47
0.0
 98
        3
 10
5293.262135841843
 20
-1381.291983797719
 10
5296.156854117917
 20
-1382.539707192579
 10
5297.774276474878
 20
-1381.02067202589
1001
ACAD
1010
0.0
1020
0.0
1030
0.0
  0
CIRCLE
  5
B86FF
330
18
100
AcDbEntity
  8
実線
100
AcDbCircle
 10
5306.097491566596
 20
-1403.237519332518
 30
0.0
 40
1.25
  0
CIRCLE
  5
B8701
330
18
100
AcDbEntity
  8
実線
100
AcDbCircle
 10
5288.776983490907
 20
-1433.237519332517
 30
0.0
 40
1.25
  0
CIRCLE
  5
B8703
330
18
100
AcDbEntity
  8
実線
100
AcDbCircle
 10
5323.417999642288
 20
-1433.237519332518
 30
0.0
 40
1.25
  0
ARC
  5
B870C
330
18
100
AcDbEntity
  8
実線
100
AcDbCircle
 10
5348.592218625412
 20
-1495.769691526453
 30
0.0
 40
0.5
100
AcDbArc
 50
222.6261269922651
 51
317.9333516672135
  0
ARC
  5
B870D
330
18
100
AcDbEntity
  8
実線
100
AcDbCircle
 10
5349.53015138439
 20
-1496.305118589312
 30
0.0
 40
0.5
100
AcDbArc
 50
162.626126991925
 51
257.9333516668972
  0
ARC
  5
B870E
330
18
100
AcDbEntity
  8
実線
100
AcDbCircle
 10
5347.659558807618
 20
-1496.314251591338
 30
0.0
 40
0.5
100
AcDbArc
 50
282.6261269923108
 51
17.93335166620327
  0
ARC
  5
B870F
330
18
100
AcDbEntity
  8
実線
100
AcDbCircle
 10
5349.535424325569
 20
-1497.385105717052
 30
0.0
 40
0.5
100
AcDbArc
 50
102.6261269923109
 51
197.9333516662033
  0
CIRCLE
  5
B8710
330
18
100
AcDbEntity
  8
実線
100
AcDbCircle
 10
5348.597491566596
 20
-1496.849678654196
 30
0.0
 40
0.8299999999999998
  0
ARC
  5
B8711
330
18
100
AcDbEntity
  8
実線
100
AcDbCircle
 10
5348.602764507772
 20
-1497.929665781939
 30
0.0
 40
0.5
100
AcDbArc
 50
42.62612699117676
 51
137.9333516666054
  0
ARC
  5
B8712
330
18
100
AcDbEntity
  8
実線
100
AcDbCircle
 10
5347.664831748801
 20
-1497.394238719081
 30
0.0
 40
0.5
100
AcDbArc
 50
342.6261269919249
 51
77.93335166689718
  0
CIRCLE
  5
B8713
330
18
100
AcDbEntity
  8
実線
100
AcDbCircle
 10
5348.597491566596
 20
-1496.849678654195
 30
0.0
 40
3.5
  0
ARC
  5
B8714
330
18
100
AcDbEntity
  8
実線
100
AcDbCircle
 10
5390.159558807618
 20
-1422.702092269666
 30
0.0
 40
0.5
100
AcDbArc
 50
282.6261269923108
 51
17.93335166724153
  0
ARC
  5
B8715
330
18
100
AcDbEntity
  8
実線
100
AcDbCircle
 10
5391.092218625415
 20
-1422.157532204779
 30
0.0
 40
0.5
100
AcDbArc
 50
222.626126992137
 51
317.9333516672135
  0
ARC
  5
B8716
330
18
100
AcDbEntity
  8
実線
100
AcDbCircle
 10
5390.164831748798
 20
-1423.782079397407
 30
0.0
 40
0.5
100
AcDbArc
 50
342.6261269924782
 51
77.93335166604371
  0
ARC
  5
B8717
330
18
100
AcDbEntity
  8
実線
100
AcDbCircle
 10
5392.030151384389
 20
-1422.692959267633
 30
0.0
 40
0.5
100
AcDbArc
 50
162.6261269922794
 51
257.9333516660437
  0
CIRCLE
  5
B8718
330
18
100
AcDbEntity
  8
実線
100
AcDbCircle
 10
5391.097491566596
 20
-1423.237519332518
 30
0.0
 40
0.8299999999999998
  0
ARC
  5
B8719
330
18
100
AcDbEntity
  8
実線
100
AcDbCircle
 10
5392.03542432557
 20
-1423.77294639538
 30
0.0
 40
0.5
100
AcDbArc
 50
102.6261269910278
 51
197.9333516665824
  0
ARC
  5
B871A
330
18
100
AcDbEntity
  8
実線
100
AcDbCircle
 10
5391.102764507776
 20
-1424.31750646026
 30
0.0
 40
0.5
100
AcDbArc
 50
42.6261269916569
 51
137.9333516666054
  0
CIRCLE
  5
B871B
330
18
100
AcDbEntity
  8
実線
100
AcDbCircle
 10
5391.097491566596
 20
-1423.237519332518
 30
0.0
 40
3.5
  0
ARC
  5
B871C
330
18
100
AcDbEntity
  8
実線
100
AcDbCircle
 10
5347.664831748805
 20
-1350.169920075732
 30
0.0
 40
0.5
100
AcDbArc
 50
342.6261269923787
 51
77.93335166732117
  0
ARC
  5
B871D
330
18
100
AcDbEntity
  8
実線
100
AcDbCircle
 10
5347.659558807625
 20
-1349.089932947983
 30
0.0
 40
0.5
100
AcDbArc
 50
282.626126991887
 51
17.93335166673844
  0
ARC
  5
B871E
330
18
100
AcDbEntity
  8
実線
100
AcDbCircle
 10
5348.602764507775
 20
-1350.705347138588
 30
0.0
 40
0.5
100
AcDbArc
 50
42.62612699228429
 51
137.9333516659973
  0
ARC
  5
B871F
330
18
100
AcDbEntity
  8
実線
100
AcDbCircle
 10
5348.592218625416
 20
-1348.545372883098
 30
0.0
 40
0.5
100
AcDbArc
 50
222.6261269922843
 51
317.9333516665861
  0
CIRCLE
  5
B8720
330
18
100
AcDbEntity
  8
実線
100
AcDbCircle
 10
5348.597491566599
 20
-1349.625360010839
 30
0.0
 40
0.8299999999999998
  0
ARC
  5
B8721
330
18
100
AcDbEntity
  8
実線
100
AcDbCircle
 10
5349.530151384393
 20
-1349.080799945957
 30
0.0
 40
0.5
100
AcDbArc
 50
162.6261269911354
 51
257.9333516668972
  0
ARC
  5
B8722
330
18
100
AcDbEntity
  8
実線
100
AcDbCircle
 10
5349.535424325569
 20
-1350.160787073698
 30
0.0
 40
0.5
100
AcDbArc
 50
102.626126991887
 51
197.9333516667384
  0
CIRCLE
  5
B8723
330
18
100
AcDbEntity
  8
実線
100
AcDbCircle
 10
5348.597491566599
 20
-1349.625360010843
 30
0.0
 40
3.5
  0
CIRCLE
  5
B874D
330
18
100
AcDbEntity
  8
実線
100
AcDbCircle
 10
5306.097491566596
 20
-1423.237519332518
 30
0.0
 40
89.0
  0
CIRCLE
  5
B874E
330
18
100
AcDbEntity
  8
実線
100
AcDbCircle
 10
5306.097491566596
 20
-1423.237519332518
 30
0.0
 40
50.5
  0
ARC
  5
B874F
330
18
100
AcDbEntity
  8
実線
100
AcDbCircle
 10
5263.60276450778
 20
-1495.769691526453
 30
0.0
 40
0.5
100
AcDbArc
 50
222.0666483327865
 51
317.3738730077349
  0
ARC
  5
B8750
330
18
100
AcDbEntity
  8
実線
100
AcDbCircle
 10
5262.664831748802
 20
-1496.305118589312
 30
0.0
 40
0.5
100
AcDbArc
 50
282.0666483331028
 51
17.37387300807505
  0
ARC
  5
B8751
330
18
100
AcDbEntity
  8
実線
100
AcDbCircle
 10
5264.535424325573
 20
-1496.314251591338
 30
0.0
 40
0.5
100
AcDbArc
 50
162.0666483337967
 51
257.3738730076892
  0
ARC
  5
B8752
330
18
100
AcDbEntity
  8
実線
100
AcDbCircle
 10
5262.659558807621
 20
-1497.385105717052
 30
0.0
 40
0.5
100
AcDbArc
 50
342.0666483337969
 51
77.37387300768914
  0
CIRCLE
  5
B8753
330
18
100
AcDbEntity
  8
実線
100
AcDbCircle
 10
5263.597491566596
 20
-1496.849678654196
 30
0.0
 40
0.8299999999999998
  0
ARC
  5
B8754
330
18
100
AcDbEntity
  8
実線
100
AcDbCircle
 10
5263.592218625419
 20
-1497.929665781939
 30
0.0
 40
0.5
100
AcDbArc
 50
42.0666483333946
 51
137.3738730088232
  0
ARC
  5
B8755
330
18
100
AcDbEntity
  8
実線
100
AcDbCircle
 10
5264.53015138439
 20
-1497.394238719081
 30
0.0
 40
0.5
100
AcDbArc
 50
102.0666483331028
 51
197.373873008075
  0
CIRCLE
  5
B8756
330
18
100
AcDbEntity
  8
実線
100
AcDbCircle
 10
5263.597491566596
 20
-1496.849678654195
 30
0.0
 40
3.5
  0
ARC
  5
B8757
330
18
100
AcDbEntity
  8
実線
100
AcDbCircle
 10
5222.035424325573
 20
-1422.702092269666
 30
0.0
 40
0.5
100
AcDbArc
 50
162.0666483327585
 51
257.3738730076892
  0
ARC
  5
B8758
330
18
100
AcDbEntity
  8
実線
100
AcDbCircle
 10
5221.102764507776
 20
-1422.157532204779
 30
0.0
 40
0.5
100
AcDbArc
 50
222.0666483327865
 51
317.3738730078631
  0
ARC
  5
B8759
330
18
100
AcDbEntity
  8
実線
100
AcDbCircle
 10
5222.030151384394
 20
-1423.782079397407
 30
0.0
 40
0.5
100
AcDbArc
 50
102.0666483339563
 51
197.3738730075217
  0
ARC
  5
B875A
330
18
100
AcDbEntity
  8
実線
100
AcDbCircle
 10
5220.164831748801
 20
-1422.692959267633
 30
0.0
 40
0.5
100
AcDbArc
 50
282.0666483339563
 51
17.37387300772066
  0
CIRCLE
  5
B875B
330
18
100
AcDbEntity
  8
実線
100
AcDbCircle
 10
5221.097491566595
 20
-1423.237519332518
 30
0.0
 40
0.8299999999999998
  0
ARC
  5
B875C
330
18
100
AcDbEntity
  8
実線
100
AcDbCircle
 10
5220.159558807622
 20
-1423.77294639538
 30
0.0
 40
0.5
100
AcDbArc
 50
342.0666483334176
 51
77.37387300897218
  0
ARC
  5
B875D
330
18
100
AcDbEntity
  8
実線
100
AcDbCircle
 10
5221.092218625416
 20
-1424.31750646026
 30
0.0
 40
0.5
100
AcDbArc
 50
42.0666483333946
 51
137.3738730083431
  0
CIRCLE
  5
B875E
330
18
100
AcDbEntity
  8
実線
100
AcDbCircle
 10
5221.097491566595
 20
-1423.237519332518
 30
0.0
 40
3.5
  0
ARC
  5
B875F
330
18
100
AcDbEntity
  8
実線
100
AcDbCircle
 10
5264.530151384386
 20
-1350.169920075732
 30
0.0
 40
0.5
100
AcDbArc
 50
102.0666483326788
 51
197.3738730076212
  0
ARC
  5
B8760
330
18
100
AcDbEntity
  8
実線
100
AcDbCircle
 10
5264.535424325566
 20
-1349.089932947983
 30
0.0
 40
0.5
100
AcDbArc
 50
162.0666483332616
 51
257.3738730081129
  0
ARC
  5
B8761
330
18
100
AcDbEntity
  8
実線
100
AcDbCircle
 10
5263.592218625415
 20
-1350.705347138588
 30
0.0
 40
0.5
100
AcDbArc
 50
42.06664833400273
 51
137.3738730077157
  0
ARC
  5
B8762
330
18
100
AcDbEntity
  8
実線
100
AcDbCircle
 10
5263.602764507776
 20
-1348.545372883098
 30
0.0
 40
0.5
100
AcDbArc
 50
222.066648333414
 51
317.3738730077157
  0
CIRCLE
  5
B8763
330
18
100
AcDbEntity
  8
実線
100
AcDbCircle
 10
5263.597491566592
 20
-1349.625360010839
 30
0.0
 40
0.8299999999999998
  0
ARC
  5
B8764
330
18
100
AcDbEntity
  8
実線
100
AcDbCircle
 10
5262.664831748798
 20
-1349.080799945957
 30
0.0
 40
0.5
100
AcDbArc
 50
282.0666483331028
 51
17.37387300886467
  0
ARC
  5
B8765
330
18
100
AcDbEntity
  8
実線
100
AcDbCircle
 10
5262.659558807621
 20
-1350.160787073698
 30
0.0
 40
0.5
100
AcDbArc
 50
342.0666483332615
 51
77.37387300811303
  0
CIRCLE
  5
B8766
330
18
100
AcDbEntity
  8
実線
100
AcDbCircle
 10
5263.597491566592
 20
-1349.625360010843
 30
0.0
 40
3.5
  0
LINE
  5
BE3F2
330
18
100
AcDbEntity
  8
CENTER
100
AcDbLine
 10
5263.097491566596
 20
-1574.550170048114
 30
0.0
 11
5263.097491566594
 21
-1584.350170048109
 31
0.0
  0
ARC
  5
BE453
330
18
100
AcDbEntity
  8
細線
100
AcDbCircle
 10
5304.672491566591
 20
-1671.359545048115
 30
0.0
 40
2.211071661124284
100
AcDbArc
 50
229.8730118731681
 51
310.1269881268319
  0
ARC
  5
BE454
330
18
100
AcDbEntity
  8
細線
100
AcDbCircle
 10
5307.52249156659
 20
-1671.35954504812
 30
0.0
 40
2.211071661119286
100
AcDbArc
 50
229.8730118731206
 51
310.126988126887
  0
ARC
  5
BE455
330
18
100
AcDbEntity
  8
細線
100
AcDbCircle
 10
5307.52249156659
 20
-1674.74079504811
 30
0.0
 40
2.211071661119003
100
AcDbArc
 50
49.87301187308363
 51
130.1269881268908
  0
ARC
  5
BE456
330
18
100
AcDbEntity
  8
細線
100
AcDbCircle
 10
5304.672491566591
 20
-1677.740795048116
 30
0.0
 40
2.211071661124284
100
AcDbArc
 50
49.87301187316813
 51
130.1269881268319
  0
ARC
  5
BE457
330
18
100
AcDbEntity
  8
細線
100
AcDbCircle
 10
5304.672491566591
 20
-1674.359545048115
 30
0.0
 40
2.211071661124284
100
AcDbArc
 50
229.8730118731681
 51
310.1269881268319
  0
ARC
  5
BE458
330
18
100
AcDbEntity
  8
細線
100
AcDbCircle
 10
5307.522491566591
 20
-1677.740795048113
 30
0.0
 40
2.211071661120743
100
AcDbArc
 50
49.87301187312159
 51
130.1269881268784
  0
ARC
  5
BE459
330
18
100
AcDbEntity
  8
細線
100
AcDbCircle
 10
5338.742171008692
 20
-1670.577671882998
 30
0.0
 40
2.972498165118008
100
AcDbArc
 50
236.2831917469717
 51
303.7168082530283
  0
ARC
  5
BE45A
330
18
100
AcDbEntity
  8
細線
100
AcDbCircle
 10
5342.042171007332
 20
-1670.577668212331
 30
0.0
 40
2.972501834877725
100
AcDbArc
 50
236.283213213531
 51
303.7167868494849
  0
ARC
  5
BE45B
330
18
100
AcDbEntity
  8
細線
100
AcDbCircle
 10
5342.042171010051
 20
-1675.522671882088
 30
0.0
 40
2.972501834879552
100
AcDbArc
 50
56.28321321353354
 51
123.7167868494387
  0
ARC
  5
BE45C
330
18
100
AcDbEntity
  8
細線
100
AcDbCircle
 10
5338.742171008691
 20
-1678.522668213236
 30
0.0
 40
2.972498165120783
100
AcDbArc
 50
56.28319174698629
 51
123.7168082529943
  0
ARC
  5
BE45D
330
18
100
AcDbEntity
  8
細線
100
AcDbCircle
 10
5338.742171008692
 20
-1673.577671882996
 30
0.0
 40
2.972498165120025
100
AcDbArc
 50
236.2831917469765
 51
303.7168082530014
  0
ARC
  5
BE45E
330
18
100
AcDbEntity
  8
細線
100
AcDbCircle
 10
5342.042171007332
 20
-1678.5226718839
 30
0.0
 40
2.972501834876915
100
AcDbArc
 50
56.28321315052481
 51
123.7167867864785
  0
LINE
  5
BE460
330
18
100
AcDbEntity
  8
実線
100
AcDbLine
 10
5337.092171564715
 20
-1676.050170048116
 30
0.0
 11
5337.092171564715
 21
-1686.269783353239
 31
0.0
  0
LINE
  5
BE461
330
18
100
AcDbEntity
  8
実線
100
AcDbLine
 10
5343.692171564715
 20
-1676.05017004993
 30
0.0
 11
5343.692171564715
 21
-1686.269783353239
 31
0.0
  0
LINE
  5
BE462
330
18
100
AcDbEntity
  8
実線
100
AcDbLine
 10
5303.247491566591
 20
-1676.050170048116
 30
0.0
 11
5303.247491566591
 21
-1679.700170048119
 31
0.0
  0
LINE
  5
BE463
330
18
100
AcDbEntity
  8
実線
100
AcDbLine
 10
5308.947491566591
 20
-1676.050170048116
 30
0.0
 11
5308.947491566591
 21
-1679.700170048119
 31
0.0
  0
LINE
  5
BE83B
330
18
100
AcDbEntity
  8
実線
100
AcDbLine
 10
5599.467628651255
 20
-1353.237519332518
 30
0.0
 11
5601.567628651255
 21
-1353.237519332518
 31
0.0
  0
LINE
  5
BE83C
330
18
100
AcDbEntity
  8
実線
100
AcDbLine
 10
5536.867628651254
 20
-1333.237519332515
 30
0.0
 11
5599.067628651255
 21
-1333.237519332518
 31
0.0
  0
LINE
  5
BE83D
330
18
100
AcDbEntity
  8
実線
100
AcDbLine
 10
5599.067628651255
 20
-1333.237519332518
 30
0.0
 11
5599.067628651255
 21
-1513.237519332515
 31
0.0
  0
LINE
  5
BE83E
330
18
100
AcDbEntity
  8
実線
100
AcDbLine
 10
5536.867628651254
 20
-1513.237519332515
 30
0.0
 11
5599.067628651255
 21
-1513.237519332518
 31
0.0
  0
LINE
  5
BE83F
330
18
100
AcDbEntity
  8
実線
100
AcDbLine
 10
5599.467628651255
 20
-1493.237519332518
 30
0.0
 11
5601.567628651255
 21
-1493.237519332518
 31
0.0
  0
LINE
  5
BE840
330
18
100
AcDbEntity
  8
CENTER
100
AcDbLine
 10
5596.567628651255
 20
-1345.237519332518
 30
0.0
 11
5601.567628651255
 21
-1345.237519332518
 31
0.0
  0
LINE
  5
BE841
330
18
100
AcDbEntity
  8
CENTER
100
AcDbLine
 10
5596.567628651255
 20
-1501.237519332518
 30
0.0
 11
5601.567628651255
 21
-1501.237519332518
 31
0.0
  0
LINE
  5
BE847
330
18
100
AcDbEntity
  8
実線
100
AcDbLine
 10
5532.267628651255
 20
-1375.837519332515
 30
0.0
 11
5532.267628651255
 21
-1470.637519332515
 31
0.0
  0
LINE
  5
BE848
330
18
100
AcDbEntity
  8
実線
100
AcDbLine
 10
5535.067628651255
 20
-1473.237519332515
 30
0.0
 11
5536.367628651256
 21
-1473.237519332515
 31
0.0
  0
LINE
  5
BE849
330
18
100
AcDbEntity
  8
実線
100
AcDbLine
 10
5535.067628651255
 20
-1373.237519332515
 30
0.0
 11
5536.367628651261
 21
-1373.237519332515
 31
0.0
  0
LINE
  5
BE84A
330
18
100
AcDbEntity
  8
実線
100
AcDbLine
 10
5532.767628651255
 20
-1375.337519332515
 30
0.0
 11
5534.667628651255
 21
-1375.337519332515
 31
0.0
  0
LINE
  5
BE84B
330
18
100
AcDbEntity
  8
実線
100
AcDbLine
 10
5535.067628651255
 20
-1373.237519332515
 30
0.0
 11
5535.067628651255
 21
-1473.237519332515
 31
0.0
  0
LINE
  5
BE84C
330
18
100
AcDbEntity
  8
実線
100
AcDbLine
 10
5532.767628651255
 20
-1471.137519332515
 30
0.0
 11
5534.667628651255
 21
-1471.137519332515
 31
0.0
  0
LINE
  5
BE84D
330
18
100
AcDbEntity
  8
実線
100
AcDbLine
 10
5602.067628651255
 20
-1492.737519332518
 30
0.0
 11
5602.567628651256
 21
-1492.737519332518
 31
0.0
  0
LINE
  5
BE84E
330
18
100
AcDbEntity
  8
実線
100
AcDbLine
 10
5602.067628651255
 20
-1353.737519332518
 30
0.0
 11
5602.567628651256
 21
-1353.737519332518
 31
0.0
  0
LINE
  5
BE84F
330
18
100
AcDbEntity
  8
実線
100
AcDbLine
 10
5602.067628651255
 20
-1492.737519332518
 30
0.0
 11
5602.067628651259
 21
-1353.737519332518
 31
0.0
  0
LINE
  5
BE850
330
18
100
AcDbEntity
  8
実線
100
AcDbLine
 10
5602.567628651256
 20
-1492.737519332518
 30
0.0
 11
5602.56762865126
 21
-1353.737519332518
 31
0.0
  0
LINE
  5
BE851
330
18
100
AcDbEntity
  8
実線
100
AcDbLine
 10
5536.367628651254
 20
-1512.237519332515
 30
0.0
 11
5536.867628651254
 21
-1512.237519332515
 31
0.0
  0
LINE
  5
BE852
330
18
100
AcDbEntity
  8
実線
100
AcDbLine
 10
5536.367628651254
 20
-1334.237519332515
 30
0.0
 11
5536.867628651254
 21
-1334.237519332515
 31
0.0
  0
LINE
  5
BE853
330
18
100
AcDbEntity
  8
実線
100
AcDbLine
 10
5536.367628651254
 20
-1512.237519332515
 30
0.0
 11
5536.367628651262
 21
-1334.237519332515
 31
0.0
  0
LINE
  5
BE854
330
18
100
AcDbEntity
  8
OBJECT
100
AcDbLine
 10
5535.867628651255
 20
-1500.349678654196
 30
0.0
 11
5535.567628651255
 21
-1499.299678654197
 31
0.0
  0
LINE
  5
BE855
330
18
100
AcDbEntity
  8
OBJECT
100
AcDbLine
 10
5535.867628651255
 20
-1493.349678654196
 30
0.0
 11
5535.867628651255
 21
-1500.349678654196
 31
0.0
  0
LINE
  5
BE856
330
18
100
AcDbEntity
  8
OBJECT
100
AcDbLine
 10
5536.367628651254
 20
-1493.349678654196
 30
0.0
 11
5536.367628651254
 21
-1500.349678654196
 31
0.0
  0
LINE
  5
BE857
330
18
100
AcDbEntity
  8
OBJECT
100
AcDbLine
 10
5535.867628651255
 20
-1493.349678654196
 30
0.0
 11
5536.367628651254
 21
-1493.349678654196
 31
0.0
  0
LINE
  5
BE858
330
18
100
AcDbEntity
  8
OBJECT
100
AcDbLine
 10
5535.867628651255
 20
-1493.349678654196
 30
0.0
 11
5535.567628651255
 21
-1494.399678654199
 31
0.0
  0
LINE
  5
BE859
330
18
100
AcDbEntity
  8
OBJECT
100
AcDbLine
 10
5535.567628651255
 20
-1494.399678654199
 30
0.0
 11
5535.567628651255
 21
-1499.299678654197
 31
0.0
  0
LINE
  5
BE85A
330
18
100
AcDbEntity
  8
OBJECT
100
AcDbLine
 10
5535.867628651255
 20
-1500.349678654196
 30
0.0
 11
5536.367628651254
 21
-1500.349678654196
 31
0.0
  0
LINE
  5
BE85B
330
18
100
AcDbEntity
  8
実線
100
AcDbLine
 10
5536.867628651242
 20
-1513.237519332515
 30
0.0
 11
5536.867628651257
 21
-1333.237519332515
 31
0.0
  0
LINE
  5
BE85C
330
18
100
AcDbEntity
  8
CENTER
100
AcDbLine
 10
5517.067628651255
 20
-1423.237519332514
 30
0.0
 11
5607.567628651257
 21
-1423.237519332518
 31
0.0
  0
LINE
  5
BE85D
330
18
100
AcDbEntity
  8
実線
 48
0.1
100
AcDbLine
 10
5607.567631795401
 20
-1370.500659053329
 30
0.0
 11
5602.567631795404
 21
-1370.500659053335
 31
0.0
  0
LINE
  5
BE85E
330
18
100
AcDbEntity
  8
実線
 48
0.1
100
AcDbLine
 10
5607.567631795401
 20
-1369.201620947656
 30
0.0
 11
5602.567631795404
 21
-1369.201620947655
 31
0.0
  0
LINE
  5
BE85F
330
18
100
AcDbEntity
  8
実線
 48
0.1
100
AcDbLine
 10
5607.567631795404
 20
-1362.273417717383
 30
0.0
 11
5602.5676317954
 21
-1362.273417717382
 31
0.0
  0
LINE
  5
BE860
330
18
100
AcDbEntity
  8
実線
 48
0.1
100
AcDbLine
 10
5607.567631795404
 20
-1360.974379611702
 30
0.0
 11
5602.567631795402
 21
-1360.974379611701
 31
0.0
  0
LINE
  5
BE861
330
18
100
AcDbEntity
  8
実線
100
AcDbLine
 10
5607.567631795399
 20
-1373.964760668473
 30
0.0
 11
5603.121680660445
 21
-1373.964760668472
 31
0.0
  0
LINE
  5
BE862
330
18
100
AcDbEntity
  8
実線
100
AcDbLine
 10
5607.567631795404
 20
-1357.510277996566
 30
0.0
 11
5602.567631795402
 21
-1357.510277996565
 31
0.0
  0
LINE
  5
BE863
330
18
100
AcDbEntity
  8
実線
100
AcDbLine
 10
5619.500644497296
 20
-1357.510277996567
 30
0.0
 11
5611.567631795405
 21
-1357.510277996566
 31
0.0
  0
LINE
  5
BE864
330
18
100
AcDbEntity
  8
実線
100
AcDbLine
 10
5619.500644497294
 20
-1373.964760668473
 30
0.0
 11
5611.567631795399
 21
-1373.964760668473
 31
0.0
  0
LINE
  5
BE865
330
18
100
AcDbEntity
  8
実線
 48
0.1
100
AcDbLine
 10
5620.0676317954
 20
-1370.50065905333
 30
0.0
 11
5611.5676317954
 21
-1370.500659053329
 31
0.0
  0
LINE
  5
BE866
330
18
100
AcDbEntity
  8
実線
 48
0.1
100
AcDbLine
 10
5620.0676317954
 20
-1369.201620947656
 30
0.0
 11
5611.5676317954
 21
-1369.201620947656
 31
0.0
  0
LINE
  5
BE867
330
18
100
AcDbEntity
  8
実線
 48
0.1
100
AcDbLine
 10
5620.067631795401
 20
-1360.974379611703
 30
0.0
 11
5611.567631795405
 21
-1360.974379611702
 31
0.0
  0
LINE
  5
BE868
330
18
100
AcDbEntity
  8
実線
 48
0.1
100
AcDbLine
 10
5620.0676317954
 20
-1362.273417717377
 30
0.0
 11
5611.567631795404
 21
-1362.273417717383
 31
0.0
  0
LINE
  5
BE869
330
18
100
AcDbEntity
  8
実線
100
AcDbLine
 10
5619.732695304862
 20
-1373.732709860902
 30
0.0
 11
5611.567631795399
 21
-1373.732709860901
 31
0.0
  0
LINE
  5
BE86A
330
18
100
AcDbEntity
  8
実線
100
AcDbLine
 10
5620.067631795399
 20
-1373.3327098609
 30
0.0
 11
5611.567631795399
 21
-1373.332709860899
 31
0.0
  0
LINE
  5
BE86B
330
18
100
AcDbEntity
  8
実線
100
AcDbLine
 10
5620.0676317954
 20
-1371.132709860903
 30
0.0
 11
5611.5676317954
 21
-1371.132709860902
 31
0.0
  0
LINE
  5
BE86C
330
18
100
AcDbEntity
  8
実線
100
AcDbLine
 10
5620.0676317954
 20
-1370.732709860902
 30
0.0
 11
5611.5676317954
 21
-1370.732709860901
 31
0.0
  0
LINE
  5
BE86D
330
18
100
AcDbEntity
  8
実線
100
AcDbLine
 10
5619.732695304865
 20
-1357.742328804139
 30
0.0
 11
5611.567631795401
 21
-1357.742328804138
 31
0.0
  0
LINE
  5
BE86E
330
18
100
AcDbEntity
  8
実線
100
AcDbLine
 10
5620.067631795401
 20
-1358.142328804133
 30
0.0
 11
5611.567631795401
 21
-1358.142328804132
 31
0.0
  0
LINE
  5
BE86F
330
18
100
AcDbEntity
  8
実線
100
AcDbLine
 10
5620.067631795401
 20
-1360.342328804137
 30
0.0
 11
5611.567631795401
 21
-1360.342328804136
 31
0.0
  0
LINE
  5
BE870
330
18
100
AcDbEntity
  8
実線
100
AcDbLine
 10
5620.067631795401
 20
-1360.742328804131
 30
0.0
 11
5611.567631795401
 21
-1360.742328804138
 31
0.0
  0
LINE
  5
BE871
330
18
100
AcDbEntity
  8
実線
100
AcDbLine
 10
5620.0676317954
 20
-1368.73751933252
 30
0.0
 11
5611.5676317954
 21
-1368.737519332519
 31
0.0
  0
LINE
  5
BE872
330
18
100
AcDbEntity
  8
実線
100
AcDbLine
 10
5620.0676317954
 20
-1362.73751933252
 30
0.0
 11
5611.5676317954
 21
-1362.737519332519
 31
0.0
  0
LINE
  5
BE873
330
18
100
AcDbEntity
  8
実線
100
AcDbLine
 10
5620.0676317954
 20
-1367.937519332517
 30
0.0
 11
5611.567631795404
 21
-1367.937519332516
 31
0.0
  0
LINE
  5
BE874
330
18
100
AcDbEntity
  8
実線
100
AcDbLine
 10
5620.0676317954
 20
-1363.537519332516
 30
0.0
 11
5611.5676317954
 21
-1363.537519332515
 31
0.0
  0
LINE
  5
BE875
330
18
100
AcDbEntity
  8
実線
100
AcDbLine
 10
5620.067631795399
 20
-1373.397773370365
 30
0.0
 11
5619.500644497294
 21
-1373.964760668473
 31
0.0
  0
LINE
  5
BE876
330
18
100
AcDbEntity
  8
実線
100
AcDbLine
 10
5620.067631795401
 20
-1358.077265294676
 30
0.0
 11
5619.500644497296
 21
-1357.510277996567
 31
0.0
  0
ARC
  5
BE877
330
18
100
AcDbEntity
  8
実線
100
AcDbCircle
 10
5620.567631795404
 20
-1369.23751933252
 30
0.0
 40
4.0
100
AcDbArc
 50
270.0
 51
0.0
  0
ARC
  5
BE878
330
18
100
AcDbEntity
  8
実線
100
AcDbCircle
 10
5620.567631795404
 20
-1362.23751933252
 30
0.0
 40
4.0
100
AcDbArc
 50
0.0
 51
89.99999999998697
  0
LINE
  5
BE879
330
18
100
AcDbEntity
  8
実線
100
AcDbLine
 10
5620.067631795404
 20
-1373.23751933252
 30
0.0
 11
5620.567631795404
 21
-1373.23751933252
 31
0.0
  0
LINE
  5
BE87A
330
18
100
AcDbEntity
  8
実線
100
AcDbLine
 10
5620.067631795401
 20
-1358.23751933252
 30
0.0
 11
5620.567631795405
 21
-1358.23751933252
 31
0.0
  0
LINE
  5
BE87B
330
18
100
AcDbEntity
  8
実線
100
AcDbLine
 10
5620.067631795401
 20
-1358.077265294676
 30
0.0
 11
5620.067631795399
 21
-1373.397773370365
 31
0.0
  0
LINE
  5
BE87C
330
18
100
AcDbEntity
  8
実線
100
AcDbLine
 10
5607.567631795404
 20
-1372.237519332519
 30
0.0
 11
5611.5676317954
 21
-1372.237519332519
 31
0.0
  0
LINE
  5
BE87D
330
18
100
AcDbEntity
  8
実線
100
AcDbLine
 10
5607.567631795401
 20
-1359.237519332519
 30
0.0
 11
5611.567631795401
 21
-1359.237519332519
 31
0.0
  0
LINE
  5
BE87E
330
18
100
AcDbEntity
  8
実線
100
AcDbLine
 10
5611.567631795405
 20
-1357.510277996566
 30
0.0
 11
5611.567631795399
 21
-1373.964760668473
 31
0.0
  0
LINE
  5
BE87F
330
18
100
AcDbEntity
  8
実線
100
AcDbLine
 10
5624.567631795404
 20
-1362.23751933252
 30
0.0
 11
5624.567631795404
 21
-1369.23751933252
 31
0.0
  0
LINE
  5
BE880
330
18
100
AcDbEntity
  8
実線
100
AcDbLine
 10
5607.567631795404
 20
-1357.510277996566
 30
0.0
 11
5607.567631795399
 21
-1373.964760668473
 31
0.0
  0
LINE
  5
BE881
330
18
100
AcDbEntity
  8
実線
100
AcDbLine
 10
5602.567631795402
 20
-1357.510277996565
 30
0.0
 11
5602.567631795399
 21
-1373.964760668472
 31
0.0
  0
LINE
  5
BE882
330
18
100
AcDbEntity
  8
実線
100
AcDbLine
 10
5608.570128651257
 20
-1389.777775823056
 30
0.0
 11
5608.570128651257
 21
-1388.942839332519
 31
0.0
  0
LINE
  5
BE883
330
18
100
AcDbEntity
  8
実線
100
AcDbLine
 10
5615.067628651259
 20
-1389.777775823056
 30
0.0
 11
5615.067628651259
 21
-1388.942839332519
 31
0.0
  0
LINE
  5
BE884
330
18
100
AcDbEntity
  8
実線
100
AcDbLine
 10
5604.367628651258
 20
-1388.942839332518
 30
0.0
 11
5604.367628651258
 21
-1389.777775823055
 31
0.0
  0
LINE
  5
BE885
330
18
100
AcDbEntity
  8
実線
100
AcDbLine
 10
5602.867628651258
 20
-1388.942839332518
 30
0.0
 11
5602.867628651258
 21
-1389.777775823055
 31
0.0
  0
LINE
  5
BE886
330
18
100
AcDbEntity
  8
実線
100
AcDbLine
 10
5605.930128593523
 20
-1383.934797192892
 30
0.0
 11
5605.680128593522
 21
-1393.950881472139
 31
0.0
  0
LINE
  5
BE887
330
18
100
AcDbEntity
  8
実線
100
AcDbLine
 10
5604.867628651258
 20
-1388.942839332518
 30
0.0
 11
5604.867628651257
 21
-1393.733525849221
 31
0.0
  0
LINE
  5
BE888
330
18
100
AcDbEntity
  8
実線
100
AcDbLine
 10
5602.567628651257
 20
-1391.055110284575
 30
0.0
 11
5602.567628651259
 21
-1388.942839332518
 31
0.0
  0
LINE
  5
BE889
330
18
100
AcDbEntity
  8
実線
100
AcDbLine
 10
5618.170128651259
 20
-1393.042839332519
 30
0.0
 11
5618.17012865126
 21
-1388.94283933252
 31
0.0
  0
LINE
  5
BE88A
330
18
100
AcDbEntity
  8
実線
100
AcDbLine
 10
5616.770128651258
 20
-1388.942839332519
 30
0.0
 11
5616.770128651257
 21
-1393.663071303764
 31
0.0
  0
LINE
  5
BE88B
330
18
100
AcDbEntity
  8
実線
100
AcDbLine
 10
5617.17012865126
 20
-1388.942839332519
 30
0.0
 11
5617.170128651259
 21
-1393.242839332515
 31
0.0
  0
LINE
  5
BE88C
330
18
100
AcDbEntity
  8
実線
100
AcDbLine
 10
5607.930128593523
 20
-1383.934797192892
 30
0.0
 11
5607.680128593522
 21
-1393.950881472139
 31
0.0
  0
LINE
  5
BE88D
330
18
100
AcDbEntity
  8
実線
100
AcDbLine
 10
5607.430128593523
 20
-1383.934797192892
 30
0.0
 11
5607.180128593522
 21
-1393.950881472139
 31
0.0
  0
LINE
  5
BE88E
330
18
100
AcDbEntity
  8
実線
100
AcDbLine
 10
5606.930128593522
 20
-1383.934797192892
 30
0.0
 11
5606.680128593523
 21
-1393.950881472139
 31
0.0
  0
LINE
  5
BE88F
330
18
100
AcDbEntity
  8
実線
100
AcDbLine
 10
5608.270128651257
 20
-1394.142839332516
 30
0.0
 11
5608.270128651259
 21
-1388.942839332519
 31
0.0
  0
LINE
  5
BE890
330
18
100
AcDbEntity
  8
実線
100
AcDbLine
 10
5606.430128593522
 20
-1383.934797192892
 30
0.0
 11
5606.180128593522
 21
-1393.950881472139
 31
0.0
  0
LINE
  5
BE891
330
18
100
AcDbEntity
  8
実線
100
AcDbLine
 10
5615.067628651259
 20
-1389.777775823056
 30
0.0
 11
5608.570128651257
 21
-1389.777775823056
 31
0.0
  0
LINE
  5
BE892
330
18
100
AcDbEntity
  8
実線
100
AcDbLine
 10
5604.367628651258
 20
-1389.777775823055
 30
0.0
 11
5602.867628651258
 21
-1389.777775823055
 31
0.0
  0
LINE
  5
BE893
330
18
100
AcDbEntity
  8
実線
100
AcDbLine
 10
5604.367628651257
 20
-1394.442839332518
 30
0.0
 11
5602.867628651257
 21
-1394.442839332518
 31
0.0
  0
ARC
  5
BE894
330
18
100
AcDbEntity
  8
実線
100
AcDbCircle
 10
5600.442527015172
 20
-1391.692839332515
 30
0.0
 40
4.367366609166622
100
AcDbArc
 50
333.9921761143864
 51
26.00782388561362
  0
LINE
  5
BE895
330
18
100
AcDbEntity
  8
実線
100
AcDbLine
 10
5602.867628651258
 20
-1389.777775823055
 30
0.0
 11
5602.867628651257
 21
-1393.607902841978
 31
0.0
  0
LINE
  5
BE896
330
18
100
AcDbEntity
  8
実線
100
AcDbLine
 10
5602.567628651257
 20
-1393.744581763022
 30
0.0
 11
5602.567628651257
 21
-1391.055110284575
 31
0.0
  0
LINE
  5
BE897
330
18
100
AcDbEntity
  8
実線
100
AcDbLine
 10
5605.492628535788
 20
-1393.662206332516
 30
0.0
 11
5605.067628651259
 21
-1393.662206332516
 31
0.0
  0
LINE
  5
BE898
330
18
100
AcDbEntity
  8
実線
100
AcDbLine
 10
5604.367628651257
 20
-1393.607902841978
 30
0.0
 11
5602.867628651257
 21
-1393.607902841978
 31
0.0
  0
ARC
  5
BE899
330
18
100
AcDbEntity
  8
実線
100
AcDbCircle
 10
5603.067628651258
 20
-1393.744581763022
 30
0.0
 40
0.5000000000001075
100
AcDbArc
 50
180.0
 51
246.4218215215944
  0
ARC
  5
BE89A
330
18
100
AcDbEntity
  8
実線
100
AcDbCircle
 10
5605.067628651259
 20
-1393.862206332517
 30
0.0
 40
0.2000000000000028
100
AcDbArc
 50
90.0
 51
180.0
  0
LINE
  5
BE89B
330
18
100
AcDbEntity
  8
実線
100
AcDbLine
 10
5604.867628651257
 20
-1393.942839332518
 30
0.0
 11
5604.867628651257
 21
-1393.732839332519
 31
0.0
  0
ARC
  5
BE89C
330
18
100
AcDbEntity
  8
実線
100
AcDbCircle
 10
5605.680128593522
 20
-1393.914797174025
 30
0.0
 40
0.0360842981141831
100
AcDbArc
 50
210.0000172993667
 51
329.999982702606
  0
ARC
  5
BE89D
330
18
100
AcDbEntity
  8
実線
100
AcDbCircle
 10
5606.180128593522
 20
-1393.914797174025
 30
0.0
 40
0.0360842981141831
100
AcDbArc
 50
210.0000172993667
 51
329.999982702606
  0
LINE
  5
BE89E
330
18
100
AcDbEntity
  8
実線
100
AcDbLine
 10
5605.648878680124
 20
-1393.932839332517
 30
0.0
 11
5605.492628535788
 21
-1393.662206332516
 31
0.0
  0
LINE
  5
BE89F
330
18
100
AcDbEntity
  8
実線
100
AcDbLine
 10
5605.867628651257
 20
-1393.662206332517
 30
0.0
 11
5605.71137850692
 21
-1393.932839332517
 31
0.0
  0
LINE
  5
BE8A0
330
18
100
AcDbEntity
  8
実線
100
AcDbLine
 10
5605.867628651257
 20
-1393.662206332517
 30
0.0
 11
5605.992628535788
 21
-1393.662206332517
 31
0.0
  0
LINE
  5
BE8A1
330
18
100
AcDbEntity
  8
実線
100
AcDbLine
 10
5605.867628651257
 20
-1393.662206332517
 30
0.0
 11
5605.992628535788
 21
-1393.662206332517
 31
0.0
  0
LINE
  5
BE8A2
330
18
100
AcDbEntity
  8
実線
100
AcDbLine
 10
5606.148878680125
 20
-1393.932839332517
 30
0.0
 11
5605.992628535788
 21
-1393.662206332517
 31
0.0
  0
LINE
  5
BE8A3
330
18
100
AcDbEntity
  8
実線
100
AcDbLine
 10
5605.867628651257
 20
-1393.662206332517
 30
0.0
 11
5605.992628535788
 21
-1393.662206332517
 31
0.0
  0
LINE
  5
BE8A4
330
18
100
AcDbEntity
  8
実線
100
AcDbLine
 10
5602.867628651257
 20
-1393.607902841978
 30
0.0
 11
5602.867628651257
 21
-1394.442839332518
 31
0.0
  0
LINE
  5
BE8A5
330
18
100
AcDbEntity
  8
実線
100
AcDbLine
 10
5604.367628651257
 20
-1394.442839332518
 30
0.0
 11
5604.867628651257
 21
-1393.942839332518
 31
0.0
  0
LINE
  5
BE8A6
330
18
100
AcDbEntity
  8
実線
100
AcDbLine
 10
5604.367628651257
 20
-1394.442839332518
 30
0.0
 11
5604.367628651257
 21
-1393.607902841978
 31
0.0
  0
ARC
  5
BE8A7
330
18
100
AcDbEntity
  8
実線
100
AcDbCircle
 10
5615.347839363725
 20
-1391.692839332519
 30
0.0
 40
7.043069696315601
100
AcDbArc
 50
164.2221938995504
 51
195.7778061004191
  0
LINE
  5
BE8A8
330
18
100
AcDbEntity
  8
実線
100
AcDbLine
 10
5608.270128651257
 20
-1394.142839332516
 30
0.0
 11
5608.570128651257
 21
-1394.442839332519
 31
0.0
  0
LINE
  5
BE8A9
330
18
100
AcDbEntity
  8
実線
100
AcDbLine
 10
5614.067628651258
 20
-1394.442839332519
 30
0.0
 11
5615.067628651257
 21
-1394.442839332519
 31
0.0
  0
LINE
  5
BE8AA
330
18
100
AcDbEntity
  8
実線
100
AcDbLine
 10
5609.57012865126
 20
-1394.442839332519
 30
0.0
 11
5608.570128651257
 21
-1394.442839332519
 31
0.0
  0
LINE
  5
BE8AB
330
18
100
AcDbEntity
  8
実線
100
AcDbLine
 10
5608.570128651257
 20
-1394.442839332519
 30
0.0
 11
5615.067628651257
 21
-1394.442839332519
 31
0.0
  0
ARC
  5
BE8AC
330
18
100
AcDbEntity
  8
実線
100
AcDbCircle
 10
5611.142527015164
 20
-1391.692839332519
 30
0.0
 40
4.367366609175967
100
AcDbArc
 50
333.9921761143852
 51
26.00782388566815
  0
LINE
  5
BE8AD
330
18
100
AcDbEntity
  8
実線
100
AcDbLine
 10
5618.170128651259
 20
-1393.042839332519
 30
0.0
 11
5617.170128651259
 21
-1393.242839332515
 31
0.0
  0
LINE
  5
BE8AE
330
18
100
AcDbEntity
  8
実線
100
AcDbLine
 10
5617.170128651259
 20
-1393.242839332515
 30
0.0
 11
5616.770128651257
 21
-1393.242839332515
 31
0.0
  0
LINE
  5
BE8AF
330
18
100
AcDbEntity
  8
実線
100
AcDbLine
 10
5615.067628651257
 20
-1393.607902841979
 30
0.0
 11
5608.570128651257
 21
-1393.607902841979
 31
0.0
  0
LINE
  5
BE8B0
330
18
100
AcDbEntity
  8
実線
100
AcDbLine
 10
5615.067628651257
 20
-1394.442839332519
 30
0.0
 11
5616.770128651257
 21
-1393.663071303764
 31
0.0
  0
LINE
  5
BE8B1
330
18
100
AcDbEntity
  8
実線
100
AcDbLine
 10
5615.067628651257
 20
-1394.442839332519
 30
0.0
 11
5615.067628651257
 21
-1393.607902841979
 31
0.0
  0
LINE
  5
BE8B2
330
18
100
AcDbEntity
  8
実線
100
AcDbLine
 10
5608.570128651257
 20
-1394.442839332519
 30
0.0
 11
5608.570128651257
 21
-1393.607902841979
 31
0.0
  0
LINE
  5
BE8B3
330
18
100
AcDbEntity
  8
実線
100
AcDbLine
 10
5608.271758766614
 20
-1390.27977932734
 30
0.0
 11
5608.180128593523
 21
-1393.950881472139
 31
0.0
  0
LINE
  5
BE8B4
330
18
100
AcDbEntity
  8
実線
100
AcDbLine
 10
5606.867628651258
 20
-1393.662206332517
 30
0.0
 11
5606.992628535788
 21
-1393.662206332517
 31
0.0
  0
ARC
  5
BE8B5
330
18
100
AcDbEntity
  8
実線
100
AcDbCircle
 10
5606.680128593523
 20
-1393.914797174025
 30
0.0
 40
0.0360842981141831
100
AcDbArc
 50
210.0000172993667
 51
329.999982702606
  0
LINE
  5
BE8B6
330
18
100
AcDbEntity
  8
実線
100
AcDbLine
 10
5606.367628651257
 20
-1393.662206332517
 30
0.0
 11
5606.492628535788
 21
-1393.662206332517
 31
0.0
  0
LINE
  5
BE8B7
330
18
100
AcDbEntity
  8
実線
100
AcDbLine
 10
5606.648878680124
 20
-1393.932839332517
 30
0.0
 11
5606.492628535788
 21
-1393.662206332517
 31
0.0
  0
LINE
  5
BE8B8
330
18
100
AcDbEntity
  8
実線
100
AcDbLine
 10
5606.867628651258
 20
-1393.662206332517
 30
0.0
 11
5606.711378506919
 21
-1393.932839332517
 31
0.0
  0
LINE
  5
BE8B9
330
18
100
AcDbEntity
  8
実線
100
AcDbLine
 10
5606.367628651257
 20
-1393.662206332517
 30
0.0
 11
5606.492628535788
 21
-1393.662206332517
 31
0.0
  0
ARC
  5
BE8BA
330
18
100
AcDbEntity
  8
実線
100
AcDbCircle
 10
5607.180128593522
 20
-1393.914797174025
 30
0.0
 40
0.0360842981141831
100
AcDbArc
 50
210.0000172993667
 51
329.999982702606
  0
ARC
  5
BE8BB
330
18
100
AcDbEntity
  8
実線
100
AcDbCircle
 10
5607.680128593522
 20
-1393.914797174025
 30
0.0
 40
0.0360842981141831
100
AcDbArc
 50
210.0000172993667
 51
329.999982702606
  0
ARC
  5
BE8BC
330
18
100
AcDbEntity
  8
実線
100
AcDbCircle
 10
5608.180128593523
 20
-1393.914797174025
 30
0.0
 40
0.0360842981133093
100
AcDbArc
 50
210.0000173000888
 51
329.9999826999112
  0
LINE
  5
BE8BD
330
18
100
AcDbEntity
  8
実線
100
AcDbLine
 10
5607.148878680124
 20
-1393.932839332517
 30
0.0
 11
5606.992628535788
 21
-1393.662206332517
 31
0.0
  0
LINE
  5
BE8BE
330
18
100
AcDbEntity
  8
実線
100
AcDbLine
 10
5607.367628651257
 20
-1393.662206332517
 30
0.0
 11
5607.21137850692
 21
-1393.932839332517
 31
0.0
  0
LINE
  5
BE8BF
330
18
100
AcDbEntity
  8
実線
100
AcDbLine
 10
5607.648878680125
 20
-1393.932839332517
 30
0.0
 11
5607.492628535788
 21
-1393.662206332517
 31
0.0
  0
LINE
  5
BE8C0
330
18
100
AcDbEntity
  8
実線
100
AcDbLine
 10
5607.867628651257
 20
-1393.662206332517
 30
0.0
 11
5607.71137850692
 21
-1393.932839332517
 31
0.0
  0
LINE
  5
BE8C1
330
18
100
AcDbEntity
  8
実線
100
AcDbLine
 10
5607.367628651257
 20
-1393.662206332517
 30
0.0
 11
5607.492628535788
 21
-1393.662206332517
 31
0.0
  0
LINE
  5
BE8C2
330
18
100
AcDbEntity
  8
実線
100
AcDbLine
 10
5608.148878680125
 20
-1393.932839332517
 30
0.0
 11
5607.992628535788
 21
-1393.662206332517
 31
0.0
  0
LINE
  5
BE8C3
330
18
100
AcDbEntity
  8
実線
100
AcDbLine
 10
5607.867628651257
 20
-1393.662206332517
 30
0.0
 11
5607.992628535788
 21
-1393.662206332517
 31
0.0
  0
LINE
  5
BE8C4
330
18
100
AcDbEntity
  8
実線
100
AcDbLine
 10
5608.270128651257
 20
-1393.83108116852
 30
0.0
 11
5608.211378506918
 21
-1393.932839332517
 31
0.0
  0
LINE
  5
BE8C5
330
18
100
AcDbEntity
  8
実線
100
AcDbLine
 10
5606.367628651257
 20
-1393.662206332517
 30
0.0
 11
5606.21137850692
 21
-1393.932839332517
 31
0.0
  0
LINE
  5
BE8C6
330
18
100
AcDbEntity
  8
実線
100
AcDbLine
 10
5608.570128651257
 20
-1388.107902841979
 30
0.0
 11
5615.067628651259
 21
-1388.107902841979
 31
0.0
  0
LINE
  5
BE8C7
330
18
100
AcDbEntity
  8
実線
100
AcDbLine
 10
5608.570128651257
 20
-1388.942839332519
 30
0.0
 11
5608.570128651257
 21
-1388.107902841979
 31
0.0
  0
LINE
  5
BE8C8
330
18
100
AcDbEntity
  8
実線
100
AcDbLine
 10
5615.067628651259
 20
-1388.942839332519
 30
0.0
 11
5615.067628651259
 21
-1388.107902841979
 31
0.0
  0
LINE
  5
BE8C9
330
18
100
AcDbEntity
  8
実線
100
AcDbLine
 10
5602.867628651258
 20
-1388.107902841981
 30
0.0
 11
5604.367628651258
 21
-1388.107902841978
 31
0.0
  0
LINE
  5
BE8CA
330
18
100
AcDbEntity
  8
実線
100
AcDbLine
 10
5602.867628651258
 20
-1388.107902841981
 30
0.0
 11
5602.867628651258
 21
-1388.942839332518
 31
0.0
  0
ARC
  5
BE8CB
330
18
100
AcDbEntity
  8
実線
100
AcDbCircle
 10
5600.442527015173
 20
-1386.192839332518
 30
0.0
 40
4.367366609167325
100
AcDbArc
 50
333.9921761143756
 51
26.00782388562436
  0
LINE
  5
BE8CC
330
18
100
AcDbEntity
  8
実線
100
AcDbLine
 10
5602.567628651259
 20
-1386.830568380462
 30
0.0
 11
5602.567628651259
 21
-1384.141096902011
 31
0.0
  0
LINE
  5
BE8CD
330
18
100
AcDbEntity
  8
実線
100
AcDbLine
 10
5604.867628651258
 20
-1384.152152815816
 30
0.0
 11
5604.867628651258
 21
-1388.942839332518
 31
0.0
  0
LINE
  5
BE8CE
330
18
100
AcDbEntity
  8
実線
100
AcDbLine
 10
5602.867628651258
 20
-1384.277775823055
 30
0.0
 11
5602.867628651258
 21
-1388.107902841981
 31
0.0
  0
LINE
  5
BE8CF
330
18
100
AcDbEntity
  8
実線
100
AcDbLine
 10
5605.062361019764
 20
-1384.223472332517
 30
0.0
 11
5605.742628535789
 21
-1384.223472332518
 31
0.0
  0
LINE
  5
BE8D0
330
18
100
AcDbEntity
  8
実線
100
AcDbLine
 10
5602.867628651258
 20
-1384.277775823055
 30
0.0
 11
5604.367628651258
 21
-1384.277775823055
 31
0.0
  0
LINE
  5
BE8D1
330
18
100
AcDbEntity
  8
実線
100
AcDbLine
 10
5602.867628651258
 20
-1383.442839332518
 30
0.0
 11
5604.367628651258
 21
-1383.442839332518
 31
0.0
  0
ARC
  5
BE8D2
330
18
100
AcDbEntity
  8
実線
100
AcDbCircle
 10
5603.067628651259
 20
-1384.141096902011
 30
0.0
 40
0.5
100
AcDbArc
 50
113.5781784782892
 51
180.0
  0
LINE
  5
BE8D3
330
18
100
AcDbEntity
  8
実線
100
AcDbLine
 10
5602.867628651258
 20
-1383.442839332518
 30
0.0
 11
5602.867628651258
 21
-1384.277775823055
 31
0.0
  0
ARC
  5
BE8D4
330
18
100
AcDbEntity
  8
実線
100
AcDbCircle
 10
5605.067628651259
 20
-1384.023472332516
 30
0.0
 40
0.2000000000003013
100
AcDbArc
 50
180.0
 51
270.0
  0
LINE
  5
BE8D5
330
18
100
AcDbEntity
  8
実線
100
AcDbLine
 10
5604.367628651258
 20
-1384.277775823055
 30
0.0
 11
5604.367628651258
 21
-1383.442839332518
 31
0.0
  0
LINE
  5
BE8D6
330
18
100
AcDbEntity
  8
実線
100
AcDbLine
 10
5604.867628651258
 20
-1383.942839332518
 30
0.0
 11
5604.367628651258
 21
-1383.442839332518
 31
0.0
  0
LINE
  5
BE8D7
330
18
100
AcDbEntity
  8
実線
100
AcDbLine
 10
5604.867628651258
 20
-1384.152839332517
 30
0.0
 11
5604.867628651258
 21
-1383.942839332518
 31
0.0
  0
ARC
  5
BE8D8
330
18
100
AcDbEntity
  8
実線
100
AcDbCircle
 10
5605.930128593523
 20
-1383.97088149101
 30
0.0
 40
0.0360842981133216
100
AcDbArc
 50
30.00001729166936
 51
149.9999827083307
  0
LINE
  5
BE8D9
330
18
100
AcDbEntity
  8
実線
100
AcDbLine
 10
5606.242628535788
 20
-1384.223472332518
 30
0.0
 11
5606.117628651258
 21
-1384.223472332518
 31
0.0
  0
LINE
  5
BE8DA
330
18
100
AcDbEntity
  8
実線
100
AcDbLine
 10
5606.242628535788
 20
-1384.223472332518
 30
0.0
 11
5606.117628651258
 21
-1384.223472332518
 31
0.0
  0
LINE
  5
BE8DB
330
18
100
AcDbEntity
  8
実線
100
AcDbLine
 10
5606.242628535788
 20
-1384.223472332518
 30
0.0
 11
5606.117628651258
 21
-1384.223472332518
 31
0.0
  0
LINE
  5
BE8DC
330
18
100
AcDbEntity
  8
実線
100
AcDbLine
 10
5605.961378506922
 20
-1383.952839332518
 30
0.0
 11
5606.117628651258
 21
-1384.223472332518
 31
0.0
  0
LINE
  5
BE8DD
330
18
100
AcDbEntity
  8
実線
100
AcDbLine
 10
5605.742628535789
 20
-1384.223472332518
 30
0.0
 11
5605.898878680125
 21
-1383.952839332518
 31
0.0
  0
LINE
  5
BE8DE
330
18
100
AcDbEntity
  8
実線
100
AcDbLine
 10
5602.567628651259
 20
-1388.942839332518
 30
0.0
 11
5602.567628651259
 21
-1386.830568380462
 31
0.0
  0
LINE
  5
BE8DF
330
18
100
AcDbEntity
  8
実線
100
AcDbLine
 10
5604.367628651258
 20
-1388.107902841978
 30
0.0
 11
5604.367628651258
 21
-1388.942839332518
 31
0.0
  0
ARC
  5
BE8E0
330
18
100
AcDbEntity
  8
実線
100
AcDbCircle
 10
5615.347839363725
 20
-1386.192839332519
 30
0.0
 40
7.043069696315629
100
AcDbArc
 50
164.2221938995504
 51
195.7778061004191
  0
LINE
  5
BE8E1
330
18
100
AcDbEntity
  8
実線
100
AcDbLine
 10
5608.570128651257
 20
-1383.442839332519
 30
0.0
 11
5608.270128651259
 21
-1383.742839332515
 31
0.0
  0
ARC
  5
BE8E2
330
18
100
AcDbEntity
  8
実線
100
AcDbCircle
 10
5611.142527015164
 20
-1386.192839332519
 30
0.0
 40
4.367366609175923
100
AcDbArc
 50
333.9921761143852
 51
26.00782388566815
  0
LINE
  5
BE8E3
330
18
100
AcDbEntity
  8
実線
100
AcDbLine
 10
5617.17012865126
 20
-1384.642839332516
 30
0.0
 11
5617.17012865126
 21
-1388.942839332519
 31
0.0
  0
LINE
  5
BE8E4
330
18
100
AcDbEntity
  8
実線
100
AcDbLine
 10
5616.770128651258
 20
-1384.222607361271
 30
0.0
 11
5616.770128651258
 21
-1388.942839332519
 31
0.0
  0
LINE
  5
BE8E5
330
18
100
AcDbEntity
  8
実線
100
AcDbLine
 10
5618.17012865126
 20
-1388.94283933252
 30
0.0
 11
5618.17012865126
 21
-1384.842839332522
 31
0.0
  0
LINE
  5
BE8E6
330
18
100
AcDbEntity
  8
実線
100
AcDbLine
 10
5617.17012865126
 20
-1384.642839332516
 30
0.0
 11
5618.17012865126
 21
-1384.842839332522
 31
0.0
  0
LINE
  5
BE8E7
330
18
100
AcDbEntity
  8
実線
100
AcDbLine
 10
5616.770128651258
 20
-1384.222607361271
 30
0.0
 11
5615.067628651259
 21
-1383.442839332519
 31
0.0
  0
LINE
  5
BE8E8
330
18
100
AcDbEntity
  8
実線
100
AcDbLine
 10
5615.067628651259
 20
-1384.277775823056
 30
0.0
 11
5615.067628651259
 21
-1383.442839332519
 31
0.0
  0
LINE
  5
BE8E9
330
18
100
AcDbEntity
  8
実線
100
AcDbLine
 10
5616.770128651258
 20
-1384.642839332516
 30
0.0
 11
5617.17012865126
 21
-1384.642839332516
 31
0.0
  0
LINE
  5
BE8EA
330
18
100
AcDbEntity
  8
実線
100
AcDbLine
 10
5608.570128651257
 20
-1383.442839332519
 30
0.0
 11
5609.57012865126
 21
-1383.442839332519
 31
0.0
  0
LINE
  5
BE8EB
330
18
100
AcDbEntity
  8
実線
100
AcDbLine
 10
5608.570128651257
 20
-1384.277775823056
 30
0.0
 11
5608.570128651257
 21
-1383.442839332519
 31
0.0
  0
LINE
  5
BE8EC
330
18
100
AcDbEntity
  8
実線
100
AcDbLine
 10
5608.570128651257
 20
-1384.277775823056
 30
0.0
 11
5615.067628651259
 21
-1384.277775823056
 31
0.0
  0
LINE
  5
BE8ED
330
18
100
AcDbEntity
  8
実線
100
AcDbLine
 10
5615.067628651259
 20
-1383.442839332519
 30
0.0
 11
5608.570128651257
 21
-1383.442839332519
 31
0.0
  0
LINE
  5
BE8EE
330
18
100
AcDbEntity
  8
実線
100
AcDbLine
 10
5615.067628651259
 20
-1383.442839332519
 30
0.0
 11
5614.067628651259
 21
-1383.442839332519
 31
0.0
  0
LINE
  5
BE8EF
330
18
100
AcDbEntity
  8
実線
100
AcDbLine
 10
5608.270128651259
 20
-1388.942839332519
 30
0.0
 11
5608.270128651259
 21
-1383.742839332515
 31
0.0
  0
ARC
  5
BE8F0
330
18
100
AcDbEntity
  8
実線
100
AcDbCircle
 10
5606.930128593522
 20
-1383.97088149101
 30
0.0
 40
0.0360842981133216
100
AcDbArc
 50
30.00001729780341
 51
149.9999827083307
  0
ARC
  5
BE8F1
330
18
100
AcDbEntity
  8
実線
100
AcDbCircle
 10
5606.430128593522
 20
-1383.97088149101
 30
0.0
 40
0.0360842981133216
100
AcDbArc
 50
30.00001729166936
 51
149.9999827083307
  0
LINE
  5
BE8F2
330
18
100
AcDbEntity
  8
実線
100
AcDbLine
 10
5606.742628535789
 20
-1384.223472332518
 30
0.0
 11
5606.617628651259
 21
-1384.223472332518
 31
0.0
  0
LINE
  5
BE8F3
330
18
100
AcDbEntity
  8
実線
100
AcDbLine
 10
5606.742628535789
 20
-1384.223472332518
 30
0.0
 11
5606.898878680126
 21
-1383.952839332518
 31
0.0
  0
LINE
  5
BE8F4
330
18
100
AcDbEntity
  8
実線
100
AcDbLine
 10
5606.742628535789
 20
-1384.223472332518
 30
0.0
 11
5606.617628651259
 21
-1384.223472332518
 31
0.0
  0
LINE
  5
BE8F5
330
18
100
AcDbEntity
  8
実線
100
AcDbLine
 10
5606.461378506921
 20
-1383.952839332518
 30
0.0
 11
5606.617628651259
 21
-1384.223472332518
 31
0.0
  0
ARC
  5
BE8F6
330
18
100
AcDbEntity
  8
実線
100
AcDbCircle
 10
5607.930128593523
 20
-1383.97088149101
 30
0.0
 40
0.0360842981133216
100
AcDbArc
 50
30.00001729780341
 51
149.9999827083307
  0
ARC
  5
BE8F7
330
18
100
AcDbEntity
  8
実線
100
AcDbCircle
 10
5607.430128593523
 20
-1383.97088149101
 30
0.0
 40
0.0360842981133216
100
AcDbArc
 50
30.00001729166936
 51
149.9999827083307
  0
LINE
  5
BE8F8
330
18
100
AcDbEntity
  8
実線
100
AcDbLine
 10
5607.96137850692
 20
-1383.952839332518
 30
0.0
 11
5608.117628651258
 21
-1384.223472332518
 31
0.0
  0
LINE
  5
BE8F9
330
18
100
AcDbEntity
  8
実線
100
AcDbLine
 10
5608.242628535789
 20
-1384.223472332518
 30
0.0
 11
5608.117628651258
 21
-1384.223472332518
 31
0.0
  0
LINE
  5
BE8FA
330
18
100
AcDbEntity
  8
実線
100
AcDbLine
 10
5608.242628535789
 20
-1384.223472332518
 30
0.0
 11
5608.270128651259
 21
-1384.175840768517
 31
0.0
  0
LINE
  5
BE8FB
330
18
100
AcDbEntity
  8
実線
100
AcDbLine
 10
5607.96137850692
 20
-1383.952839332518
 30
0.0
 11
5608.117628651258
 21
-1384.223472332518
 31
0.0
  0
LINE
  5
BE8FC
330
18
100
AcDbEntity
  8
実線
100
AcDbLine
 10
5607.742628535788
 20
-1384.223472332518
 30
0.0
 11
5607.898878680125
 21
-1383.952839332518
 31
0.0
  0
LINE
  5
BE8FD
330
18
100
AcDbEntity
  8
実線
100
AcDbLine
 10
5607.742628535788
 20
-1384.223472332518
 30
0.0
 11
5607.617628651258
 21
-1384.223472332518
 31
0.0
  0
LINE
  5
BE8FE
330
18
100
AcDbEntity
  8
実線
100
AcDbLine
 10
5607.242628535789
 20
-1384.223472332518
 30
0.0
 11
5607.117628651258
 21
-1384.223472332518
 31
0.0
  0
LINE
  5
BE8FF
330
18
100
AcDbEntity
  8
実線
100
AcDbLine
 10
5607.242628535789
 20
-1384.223472332518
 30
0.0
 11
5607.398878680125
 21
-1383.952839332518
 31
0.0
  0
LINE
  5
BE900
330
18
100
AcDbEntity
  8
実線
100
AcDbLine
 10
5607.461378506922
 20
-1383.952839332518
 30
0.0
 11
5607.617628651258
 21
-1384.223472332518
 31
0.0
  0
LINE
  5
BE901
330
18
100
AcDbEntity
  8
実線
100
AcDbLine
 10
5606.96137850692
 20
-1383.952839332518
 30
0.0
 11
5607.117628651258
 21
-1384.223472332518
 31
0.0
  0
LINE
  5
BE902
330
18
100
AcDbEntity
  8
実線
100
AcDbLine
 10
5606.242628535788
 20
-1384.223472332518
 30
0.0
 11
5606.398878680125
 21
-1383.952839332518
 31
0.0
  0
LINE
  5
BE903
330
18
100
AcDbEntity
  8
CENTER
100
AcDbLine
 10
5629.567628651256
 20
-1388.942839332521
 30
0.0
 11
5597.878551238391
 21
-1388.942839332518
 31
0.0
  0
LINE
  5
BE904
330
18
100
AcDbEntity
  8
実線
100
AcDbLine
 10
5603.367628651255
 20
-1466.749460109645
 30
0.0
 11
5603.367628651255
 21
-1471.649460109646
 31
0.0
  0
LINE
  5
BE905
330
18
100
AcDbEntity
  8
実線
100
AcDbLine
 10
5603.067628651256
 20
-1472.699460109642
 30
0.0
 11
5602.567628651256
 21
-1472.699460109642
 31
0.0
  0
LINE
  5
BE906
330
18
100
AcDbEntity
  8
実線
100
AcDbLine
 10
5602.567628651256
 20
-1465.699460109642
 30
0.0
 11
5602.567628651256
 21
-1472.699460109642
 31
0.0
  0
LINE
  5
BE907
330
18
100
AcDbEntity
  8
実線
100
AcDbLine
 10
5603.067628651256
 20
-1465.699460109642
 30
0.0
 11
5602.567628651256
 21
-1465.699460109642
 31
0.0
  0
LINE
  5
BE908
330
18
100
AcDbEntity
  8
実線
100
AcDbLine
 10
5603.067628651256
 20
-1472.699460109642
 30
0.0
 11
5603.367628651255
 21
-1471.649460109646
 31
0.0
  0
LINE
  5
BE909
330
18
100
AcDbEntity
  8
実線
100
AcDbLine
 10
5603.067628651256
 20
-1465.699460109642
 30
0.0
 11
5603.067628651256
 21
-1472.699460109642
 31
0.0
  0
LINE
  5
BE90A
330
18
100
AcDbEntity
  8
実線
100
AcDbLine
 10
5603.067628651256
 20
-1465.699460109642
 30
0.0
 11
5603.367628651255
 21
-1466.749460109645
 31
0.0
  0
LINE
  5
BE90B
330
18
100
AcDbEntity
  8
実線
100
AcDbLine
 10
5532.267628651255
 20
-1470.637519332515
 30
0.0
 11
5532.767628651255
 21
-1471.137519332515
 31
0.0
  0
LINE
  5
BE90C
330
18
100
AcDbEntity
  8
実線
100
AcDbLine
 10
5532.267628651255
 20
-1375.837519332515
 30
0.0
 11
5532.767628651255
 21
-1375.337519332515
 31
0.0
  0
ARC
  5
BE90D
330
18
100
AcDbEntity
  8
実線
100
AcDbCircle
 10
5534.667628651255
 20
-1374.937519332515
 30
0.0
 40
0.4000000000000002
100
AcDbArc
 50
270.0
 51
0.0
  0
ARC
  5
BE90E
330
18
100
AcDbEntity
  8
実線
100
AcDbCircle
 10
5534.667628651255
 20
-1471.537519332514
 30
0.0
 40
0.4000000000000002
100
AcDbArc
 50
0.0
 51
90.0
  0
ARC
  5
BE90F
330
18
100
AcDbEntity
  8
実線
100
AcDbCircle
 10
5599.467628651255
 20
-1493.637519332518
 30
0.0
 40
0.4000000000000002
100
AcDbArc
 50
90.0
 51
180.0
  0
ARC
  5
BE910
330
18
100
AcDbEntity
  8
実線
100
AcDbCircle
 10
5599.467628651255
 20
-1352.837519332519
 30
0.0
 40
0.4000000000000002
100
AcDbArc
 50
180.0
 51
270.0
  0
LINE
  5
BE911
330
18
100
AcDbEntity
  8
実線
100
AcDbLine
 10
5602.067628651255
 20
-1492.737519332518
 30
0.0
 11
5601.567628651255
 21
-1493.237519332518
 31
0.0
  0
LINE
  5
BE912
330
18
100
AcDbEntity
  8
実線
100
AcDbLine
 10
5602.067628651255
 20
-1353.737519332518
 30
0.0
 11
5601.567628651255
 21
-1353.237519332518
 31
0.0
  0
LINE
  5
BE913
330
18
100
AcDbEntity
  8
CENTER
100
AcDbLine
 10
5529.567628651258
 20
-1380.237519332515
 30
0.0
 11
5539.367628651253
 21
-1380.237519332515
 31
0.0
  0
LINE
  5
BE914
330
18
100
AcDbEntity
  8
CENTER
100
AcDbLine
 10
5529.567628651254
 20
-1466.237519332515
 30
0.0
 11
5539.367628651249
 21
-1466.237519332516
 31
0.0
  0
ARC
  5
BE915
330
18
100
AcDbEntity
  8
細線
100
AcDbCircle
 10
5626.377006795404
 20
-1367.162519332519
 30
0.0
 40
2.211071661124284
100
AcDbArc
 50
319.8730118731598
 51
40.12698812684017
  0
ARC
  5
BE916
330
18
100
AcDbEntity
  8
細線
100
AcDbCircle
 10
5626.377006795408
 20
-1364.31251933252
 30
0.0
 40
2.211071661119286
100
AcDbArc
 50
319.873011873129
 51
40.12698812687107
  0
ARC
  5
BE917
330
18
100
AcDbEntity
  8
細線
100
AcDbCircle
 10
5629.758256795398
 20
-1364.31251933252
 30
0.0
 40
2.211071661119003
100
AcDbArc
 50
139.8730118731002
 51
220.1269881268998
  0
ARC
  5
BE91B
330
18
100
AcDbEntity
  8
細線
100
AcDbCircle
 10
5625.595130486138
 20
-1390.592839890418
 30
0.0
 40
2.972498165118008
100
AcDbArc
 50
326.2831917469777
 51
33.71680825302225
  0
ARC
  5
BE91C
330
18
100
AcDbEntity
  8
細線
100
AcDbCircle
 10
5625.595126815472
 20
-1387.292839891778
 30
0.0
 40
2.972501834877725
100
AcDbArc
 50
326.283213213531
 51
33.71678684947517
  0
ARC
  5
BE91D
330
18
100
AcDbEntity
  8
細線
100
AcDbCircle
 10
5630.540130485227
 20
-1387.292839889059
 30
0.0
 40
2.972501834879552
100
AcDbArc
 50
146.2832132135359
 51
213.7167868494387
  0
LINE
  5
BE922
330
18
100
AcDbEntity
  8
実線
100
AcDbLine
 10
5618.170128651259
 20
-1392.242839334393
 30
0.0
 11
5628.067628651256
 21
-1392.242839334394
 31
0.0
  0
LINE
  5
BE925
330
18
100
AcDbEntity
  8
実線
100
AcDbLine
 10
5618.17012865126
 20
-1385.642839334394
 30
0.0
 11
5628.067628649442
 21
-1385.642839334394
 31
0.0
  0
LINE
  5
BE926
330
18
100
AcDbEntity
  8
実線
100
AcDbLine
 10
5624.567631795404
 20
-1368.587519332519
 30
0.0
 11
5628.067631795404
 21
-1368.587519332519
 31
0.0
  0
LINE
  5
BE928
330
18
100
AcDbEntity
  8
実線
100
AcDbLine
 10
5624.567631795404
 20
-1362.887519332522
 30
0.0
 11
5628.067631795403
 21
-1362.887519332521
 31
0.0
  0
LINE
  5
BE9A9
330
18
100
AcDbEntity
  8
OBJECT
100
AcDbLine
 10
5260.097491566599
 20
-1579.550170048102
 30
0.0
 11
5261.147491566599
 21
-1579.250170048103
 31
0.0
  0
LINE
  5
BE9AA
330
18
100
AcDbEntity
  8
OBJECT
100
AcDbLine
 10
5267.097491566599
 20
-1579.550170048103
 30
0.0
 11
5260.097491566599
 21
-1579.550170048102
 31
0.0
  0
LINE
  5
BE9AB
330
18
100
AcDbEntity
  8
OBJECT
100
AcDbLine
 10
5267.097491566599
 20
-1580.050170048103
 30
0.0
 11
5260.097491566599
 21
-1580.050170048102
 31
0.0
  0
LINE
  5
BE9AC
330
18
100
AcDbEntity
  8
OBJECT
100
AcDbLine
 10
5267.097491566599
 20
-1579.550170048103
 30
0.0
 11
5267.097491566599
 21
-1580.050170048103
 31
0.0
  0
LINE
  5
BE9AD
330
18
100
AcDbEntity
  8
OBJECT
100
AcDbLine
 10
5267.097491566599
 20
-1579.550170048103
 30
0.0
 11
5266.047491566596
 21
-1579.250170048103
 31
0.0
  0
LINE
  5
BE9AE
330
18
100
AcDbEntity
  8
OBJECT
100
AcDbLine
 10
5266.047491566596
 20
-1579.250170048103
 30
0.0
 11
5261.147491566599
 21
-1579.250170048103
 31
0.0
  0
LINE
  5
BE9AF
330
18
100
AcDbEntity
  8
OBJECT
100
AcDbLine
 10
5260.097491566599
 20
-1579.550170048102
 30
0.0
 11
5260.097491566599
 21
-1580.050170048102
 31
0.0
  0
LINE
  5
BE9B0
330
18
100
AcDbEntity
  8
OBJECT
100
AcDbLine
 10
5352.09749156659
 20
-1579.550170048106
 30
0.0
 11
5351.047491566591
 21
-1579.250170048106
 31
0.0
  0
LINE
  5
BE9B1
330
18
100
AcDbEntity
  8
OBJECT
100
AcDbLine
 10
5345.09749156659
 20
-1579.550170048106
 30
0.0
 11
5352.09749156659
 21
-1579.550170048106
 31
0.0
  0
LINE
  5
BE9B2
330
18
100
AcDbEntity
  8
OBJECT
100
AcDbLine
 10
5345.09749156659
 20
-1580.050170048106
 30
0.0
 11
5352.09749156659
 21
-1580.050170048106
 31
0.0
  0
LINE
  5
BE9B3
330
18
100
AcDbEntity
  8
OBJECT
100
AcDbLine
 10
5345.09749156659
 20
-1579.550170048106
 30
0.0
 11
5345.09749156659
 21
-1580.050170048106
 31
0.0
  0
LINE
  5
BE9B4
330
18
100
AcDbEntity
  8
OBJECT
100
AcDbLine
 10
5345.09749156659
 20
-1579.550170048106
 30
0.0
 11
5346.147491566593
 21
-1579.250170048106
 31
0.0
  0
LINE
  5
BE9B5
330
18
100
AcDbEntity
  8
OBJECT
100
AcDbLine
 10
5346.147491566593
 20
-1579.250170048106
 30
0.0
 11
5351.047491566591
 21
-1579.250170048106
 31
0.0
  0
LINE
  5
BE9B6
330
18
100
AcDbEntity
  8
OBJECT
100
AcDbLine
 10
5352.09749156659
 20
-1579.550170048106
 30
0.0
 11
5352.09749156659
 21
-1580.050170048106
 31
0.0
  0
LINE
  5
BE9B7
330
18
100
AcDbEntity
  8
OBJECT
100
AcDbLine
 10
5394.59749156659
 20
-1580.850170048108
 30
0.0
 11
5393.54749156659
 21
-1580.550170048109
 31
0.0
  0
LINE
  5
BE9B8
330
18
100
AcDbEntity
  8
OBJECT
100
AcDbLine
 10
5387.59749156659
 20
-1580.850170048109
 30
0.0
 11
5394.59749156659
 21
-1580.850170048108
 31
0.0
  0
LINE
  5
BE9B9
330
18
100
AcDbEntity
  8
OBJECT
100
AcDbLine
 10
5387.59749156659
 20
-1581.350170048109
 30
0.0
 11
5394.59749156659
 21
-1581.350170048108
 31
0.0
  0
LINE
  5
BE9BA
330
18
100
AcDbEntity
  8
OBJECT
100
AcDbLine
 10
5387.59749156659
 20
-1580.850170048109
 30
0.0
 11
5387.59749156659
 21
-1581.350170048109
 31
0.0
  0
LINE
  5
BE9BB
330
18
100
AcDbEntity
  8
OBJECT
100
AcDbLine
 10
5387.59749156659
 20
-1580.850170048109
 30
0.0
 11
5388.647491566593
 21
-1580.550170048109
 31
0.0
  0
LINE
  5
BE9BC
330
18
100
AcDbEntity
  8
OBJECT
100
AcDbLine
 10
5388.647491566593
 20
-1580.550170048109
 30
0.0
 11
5393.54749156659
 21
-1580.550170048109
 31
0.0
  0
LINE
  5
BE9BD
330
18
100
AcDbEntity
  8
OBJECT
100
AcDbLine
 10
5394.59749156659
 20
-1580.850170048108
 30
0.0
 11
5394.59749156659
 21
-1581.350170048108
 31
0.0
  0
LINE
  5
BE9C0
330
18
100
AcDbEntity
  8
実線
100
AcDbLine
 10
5349.609431566596
 20
-1648.350170048119
 30
0.0
 11
5354.509431566597
 21
-1648.35017004812
 31
0.0
  0
LINE
  5
BE9C1
330
18
100
AcDbEntity
  8
実線
100
AcDbLine
 10
5355.559431566593
 20
-1648.050170048121
 30
0.0
 11
5355.559431566593
 21
-1647.550170048121
 31
0.0
  0
LINE
  5
BE9C2
330
18
100
AcDbEntity
  8
実線
100
AcDbLine
 10
5348.559431566593
 20
-1647.55017004812
 30
0.0
 11
5355.559431566593
 21
-1647.550170048121
 31
0.0
  0
LINE
  5
BE9C3
330
18
100
AcDbEntity
  8
実線
100
AcDbLine
 10
5348.559431566593
 20
-1648.05017004812
 30
0.0
 11
5348.559431566593
 21
-1647.55017004812
 31
0.0
  0
LINE
  5
BE9C4
330
18
100
AcDbEntity
  8
実線
100
AcDbLine
 10
5355.559431566593
 20
-1648.050170048121
 30
0.0
 11
5354.509431566597
 21
-1648.35017004812
 31
0.0
  0
LINE
  5
BE9C5
330
18
100
AcDbEntity
  8
実線
100
AcDbLine
 10
5348.559431566593
 20
-1648.05017004812
 30
0.0
 11
5355.559431566593
 21
-1648.050170048121
 31
0.0
  0
LINE
  5
BE9C6
330
18
100
AcDbEntity
  8
実線
100
AcDbLine
 10
5348.559431566593
 20
-1648.05017004812
 30
0.0
 11
5349.609431566596
 21
-1648.350170048119
 31
0.0
  0
LINE
  5
BEB2A
330
18
100
AcDbEntity
  8
CENTER
100
AcDbLine
 10
5599.56762865126
 20
-1365.737519332518
 30
0.0
 11
5629.567628651258
 21
-1365.737519332519
 31
0.0
  0
LINE
  5
BEB64
330
18
100
AcDbEntity
  8
実線
100
AcDbLine
 10
5603.367628651258
 20
-1374.825578636325
 30
0.0
 11
5603.367628651258
 21
-1379.725578636327
 31
0.0
  0
LINE
  5
BEB65
330
18
100
AcDbEntity
  8
実線
100
AcDbLine
 10
5603.067628651259
 20
-1380.775578636322
 30
0.0
 11
5602.567628651259
 21
-1380.775578636322
 31
0.0
  0
LINE
  5
BEB66
330
18
100
AcDbEntity
  8
実線
100
AcDbLine
 10
5602.567628651259
 20
-1373.775578636322
 30
0.0
 11
5602.567628651259
 21
-1380.775578636322
 31
0.0
  0
LINE
  5
BEB67
330
18
100
AcDbEntity
  8
実線
100
AcDbLine
 10
5603.067628651259
 20
-1373.775578636322
 30
0.0
 11
5602.567628651259
 21
-1373.775578636322
 31
0.0
  0
LINE
  5
BEB68
330
18
100
AcDbEntity
  8
実線
100
AcDbLine
 10
5603.067628651259
 20
-1380.775578636322
 30
0.0
 11
5603.367628651258
 21
-1379.725578636327
 31
0.0
  0
LINE
  5
BEB69
330
18
100
AcDbEntity
  8
実線
100
AcDbLine
 10
5603.067628651259
 20
-1373.775578636322
 30
0.0
 11
5603.067628651259
 21
-1380.775578636322
 31
0.0
  0
LINE
  5
BEB6A
330
18
100
AcDbEntity
  8
実線
100
AcDbLine
 10
5603.067628651259
 20
-1373.775578636322
 30
0.0
 11
5603.367628651258
 21
-1374.825578636325
 31
0.0
  0
LINE
  5
BEBA7
330
18
100
AcDbEntity
  8
OBJECT
100
AcDbLine
 10
5535.867628651257
 20
-1426.737519332515
 30
0.0
 11
5535.567628651258
 21
-1425.687519332516
 31
0.0
  0
LINE
  5
BEBA8
330
18
100
AcDbEntity
  8
OBJECT
100
AcDbLine
 10
5535.867628651258
 20
-1419.737519332515
 30
0.0
 11
5535.867628651257
 21
-1426.737519332515
 31
0.0
  0
LINE
  5
BEBA9
330
18
100
AcDbEntity
  8
OBJECT
100
AcDbLine
 10
5536.367628651259
 20
-1419.737519332515
 30
0.0
 11
5536.367628651257
 21
-1426.737519332515
 31
0.0
  0
LINE
  5
BEBAA
330
18
100
AcDbEntity
  8
OBJECT
100
AcDbLine
 10
5535.867628651258
 20
-1419.737519332515
 30
0.0
 11
5536.367628651259
 21
-1419.737519332515
 31
0.0
  0
LINE
  5
BEBAB
330
18
100
AcDbEntity
  8
OBJECT
100
AcDbLine
 10
5535.867628651258
 20
-1419.737519332515
 30
0.0
 11
5535.567628651258
 21
-1420.787519332518
 31
0.0
  0
LINE
  5
BEBAC
330
18
100
AcDbEntity
  8
OBJECT
100
AcDbLine
 10
5535.567628651258
 20
-1420.787519332518
 30
0.0
 11
5535.567628651258
 21
-1425.687519332516
 31
0.0
  0
LINE
  5
BEBAD
330
18
100
AcDbEntity
  8
OBJECT
100
AcDbLine
 10
5535.867628651257
 20
-1426.737519332515
 30
0.0
 11
5536.367628651257
 21
-1426.737519332515
 31
0.0
  0
LINE
  5
BEBE7
330
18
100
AcDbEntity
  8
OBJECT
100
AcDbLine
 10
5535.867628651261
 20
-1353.125360010839
 30
0.0
 11
5535.567628651262
 21
-1352.07536001084
 31
0.0
  0
LINE
  5
BEBE8
330
18
100
AcDbEntity
  8
OBJECT
100
AcDbLine
 10
5535.867628651262
 20
-1346.125360010839
 30
0.0
 11
5535.867628651261
 21
-1353.125360010839
 31
0.0
  0
LINE
  5
BEBE9
330
18
100
AcDbEntity
  8
OBJECT
100
AcDbLine
 10
5536.367628651262
 20
-1346.125360010839
 30
0.0
 11
5536.367628651261
 21
-1353.125360010839
 31
0.0
  0
LINE
  5
BEBEA
330
18
100
AcDbEntity
  8
OBJECT
100
AcDbLine
 10
5535.867628651262
 20
-1346.125360010839
 30
0.0
 11
5536.367628651262
 21
-1346.125360010839
 31
0.0
  0
LINE
  5
BEBEB
330
18
100
AcDbEntity
  8
OBJECT
100
AcDbLine
 10
5535.867628651262
 20
-1346.125360010839
 30
0.0
 11
5535.567628651262
 21
-1347.175360010842
 31
0.0
  0
LINE
  5
BEBEC
330
18
100
AcDbEntity
  8
OBJECT
100
AcDbLine
 10
5535.567628651262
 20
-1347.175360010842
 30
0.0
 11
5535.567628651262
 21
-1352.07536001084
 31
0.0
  0
LINE
  5
BEBED
330
18
100
AcDbEntity
  8
OBJECT
100
AcDbLine
 10
5535.867628651261
 20
-1353.125360010839
 30
0.0
 11
5536.367628651261
 21
-1353.125360010839
 31
0.0
  0
TEXT
  5
BF3A0
330
18
100
AcDbEntity
  8
文字
100
AcDbText
 10
5799.447520644712
 20
-1693.693103411326
 30
0.0
 40
3.5
  1
τDISCモータ ND180-70-LSPB-UC（ABS） NMR-SSMJA2A-501APB-UC
 41
0.38
  7
まこ
100
AcDbText
  0
TEXT
  5
BF3A1
330
18
100
AcDbEntity
  8
文字
100
AcDbText
 10
5801.107724820811
 20
-1704.918272285904
 30
0.0
 40
6.0
  1
外形図（ABS_高精度）
 41
0.6
  7
まこ
100
AcDbText
  0
TEXT
  5
BF3A2
330
18
100
AcDbEntity
  8
文字
100
AcDbText
 10
5799.259275638822
 20
-1716.276179053751
 30
0.0
 40
7.0
  1
ＳＥ－７８５８０Ａ
 41
0.9529999999999999
  7
まこ
100
AcDbText
  0
CIRCLE
  5
BF3AF
330
18
100
AcDbEntity
  8
CENTER
100
AcDbCircle
 10
5801.592730061289
 20
-1423.252654431179
 30
0.0
 40
78.0
  0
LWPOLYLINE
  5
BF43A
330
18
100
AcDbEntity
  8
文字
100
AcDbPolyline
 90
        6
 70
   129
 43
0.0
 10
5557.901428651254
 20
-1423.540065307329
 10
5569.429978651253
 20
-1430.196076753195
 42
0.5773502691896259
 10
5569.954003651254
 20
-1429.893530778383
 10
5569.954003651254
 20
-1416.581507886651
 42
0.5773502691896262
 10
5569.429978651253
 20
-1416.278961911839
 10
5557.901428651254
 20
-1422.934973357705
 42
0.5773502691896262
  0
LINE
  5
BF43B
330
18
100
AcDbEntity
  8
文字
100
AcDbLine
 10
5568.454003651254
 20
-1425.737519332517
 30
0.0
 11
5568.454003651254
 21
-1420.737519332518
 31
0.0
  0
SPLINE
  5
BF43C
330
18
100
AcDbEntity
  8
文字
100
AcDbSpline
210
0.0
220
0.0
230
1.0
 70
  1064
 71
     3
 72
    11
 73
     7
 74
     5
 42
0.000000001
 43
0.0000000001
 44
0.0000000001
 40
0.0
 40
0.0
 40
0.0
 40
0.0
 40
1.750184152921611
 40
3.133745496961306
 40
4.421027844225058
 40
7.276737688192085
 40
7.276737688192085
 40
7.276737688192085
 40
7.276737688192085
 10
5561.284300689756
 20
-1424.737519332517
 30
0.0
 10
5561.795713031932
 20
-1425.087990092424
 30
0.0
 10
5562.71140874413
 20
-1425.715516152375
 30
0.0
 10
5564.247431927018
 20
-1425.171140026194
 30
0.0
 10
5565.428453650518
 20
-1423.533461160565
 30
0.0
 10
5566.923492856215
 20
-1424.246222409594
 30
0.0
 10
5567.954003651255
 20
-1424.737519332517
 30
0.0
 11
5561.284300689756
 21
-1424.737519332517
 31
0.0
 11
5562.872524293766
 21
-1425.472835830905
 31
0.0
 11
5564.185031493999
 21
-1425.035152335606
 31
0.0
 11
5565.152141998876
 21
-1424.185568253285
 31
0.0
 11
5567.954003651255
 21
-1424.737519332517
 31
0.0
  0
SPLINE
  5
BF43D
330
18
100
AcDbEntity
  8
文字
100
AcDbSpline
210
0.0
220
0.0
230
1.0
 70
  1064
 71
     3
 72
    11
 73
     7
 74
     5
 42
0.000000001
 43
0.0000000001
 44
0.0000000001
 40
0.0
 40
0.0
 40
0.0
 40
0.0
 40
1.750184152921611
 40
3.133745496961306
 40
4.421027844225058
 40
7.276737688192085
 40
7.276737688192085
 40
7.276737688192085
 40
7.276737688192085
 10
5561.284300689756
 20
-1423.237519332517
 30
0.0
 10
5561.795713031932
 20
-1423.587990092424
 30
0.0
 10
5562.71140874413
 20
-1424.215516152376
 30
0.0
 10
5564.247431927018
 20
-1423.671140026194
 30
0.0
 10
5565.428453650518
 20
-1422.033461160565
 30
0.0
 10
5566.923492856215
 20
-1422.746222409594
 30
0.0
 10
5567.954003651255
 20
-1423.237519332517
 30
0.0
 11
5561.284300689756
 21
-1423.237519332517
 31
0.0
 11
5562.872524293766
 21
-1423.972835830905
 31
0.0
 11
5564.185031493999
 21
-1423.535152335606
 31
0.0
 11
5565.152141998876
 21
-1422.685568253285
 31
0.0
 11
5567.954003651255
 21
-1423.237519332517
 31
0.0
  0
SPLINE
  5
BF43E
330
18
100
AcDbEntity
  8
文字
100
AcDbSpline
210
0.0
220
0.0
230
1.0
 70
  1064
 71
     3
 72
    11
 73
     7
 74
     5
 42
0.000000001
 43
0.0000000001
 44
0.0000000001
 40
0.0
 40
0.0
 40
0.0
 40
0.0
 40
1.750184152921611
 40
3.133745496961306
 40
4.421027844225058
 40
7.276737688192085
 40
7.276737688192085
 40
7.276737688192085
 40
7.276737688192085
 10
5561.284300689756
 20
-1421.737519332517
 30
0.0
 10
5561.795713031932
 20
-1422.087990092424
 30
0.0
 10
5562.71140874413
 20
-1422.715516152376
 30
0.0
 10
5564.247431927018
 20
-1422.171140026194
 30
0.0
 10
5565.428453650518
 20
-1420.533461160565
 30
0.0
 10
5566.923492856215
 20
-1421.246222409594
 30
0.0
 10
5567.954003651255
 20
-1421.737519332517
 30
0.0
 11
5561.284300689756
 21
-1421.737519332517
 31
0.0
 11
5562.872524293766
 21
-1422.472835830905
 31
0.0
 11
5564.185031493999
 21
-1422.035152335606
 31
0.0
 11
5565.152141998876
 21
-1421.185568253285
 31
0.0
 11
5567.954003651255
 21
-1421.737519332517
 31
0.0
  0
TEXT
  5
BF4D8
330
18
100
AcDbEntity
  8
文字
100
AcDbText
 10
5596.221400432062
 20
-1500.858346706512
 30
0.0
 40
1.44
  1
DENSO
 50
90.0
  7
TIMESNR
100
AcDbText
  0
TEXT
  5
BF4D9
330
18
100
AcDbEntity
  8
文字
100
AcDbText
 10
5594.524638023077
 20
-1500.736933596371
 30
0.0
 40
1.44
  1
NIKKI
 50
90.0
  7
TIMESNR
100
AcDbText
  0
TEXT
  5
BF4DA
330
18
100
AcDbEntity
  8
文字
100
AcDbText
 10
5590.609069200332
 20
-1506.52280085331
 30
0.0
 40
2.0
  1
Certificate
 50
90.0
  7
TIMESNR
 11
5591.247857953035
 21
-1506.52280085331
 31
0.0
100
AcDbText
 73
     1
  0
LINE
  5
BF4DB
330
18
100
AcDbEntity
  8
文字
100
AcDbLine
 10
5591.567628651253
 20
-1507.737519332517
 30
0.0
 11
5591.567628651253
 21
-1492.737519332517
 31
0.0
  0
LWPOLYLINE
  5
BF4DC
330
18
100
AcDbEntity
  8
文字
100
AcDbPolyline
 90
        8
 70
     1
 43
0.0
 10
5597.567628651252
 20
-1507.237519332517
 10
5597.567628651257
 20
-1493.237519332517
 42
0.4142135623730951
 10
5597.067628651256
 20
-1492.737519332517
 10
5588.067628651256
 20
-1492.737519332517
 42
0.4142135623730951
 10
5587.567628651257
 20
-1493.237519332517
 10
5587.567628651257
 20
-1507.237519332517
 42
0.4142135623730996
 10
5588.067628651256
 20
-1507.737519332517
 10
5597.067628651252
 20
-1507.737519332517
 42
0.4142135623730904
  0
LINE
  5
BF4DD
330
18
100
AcDbEntity
  8
文字
100
AcDbLine
 10
5596.26913457064
 20
-1502.074945930897
 30
0.0
 11
5594.266634570641
 21
-1501.8346459309
 31
0.0
  0
LINE
  5
BF4DE
330
18
100
AcDbEntity
  8
文字
100
AcDbLine
 10
5596.26913457064
 20
-1506.480445930898
 30
0.0
 11
5593.065134570642
 21
-1506.079945930898
 31
0.0
  0
LINE
  5
BF4DF
330
18
100
AcDbEntity
  8
文字
100
AcDbLine
 10
5593.065134570642
 20
-1506.079945930898
 30
0.0
 11
5593.065134570642
 21
-1501.674445930898
 31
0.0
  0
ARC
  5
BF4E0
330
18
100
AcDbEntity
  8
文字
100
AcDbCircle
 10
5595.067634570648
 20
-1504.0774459309
 30
0.0
 40
0.8009999999999999
100
AcDbArc
 50
0.0
 51
180.0
  0
CIRCLE
  5
BF4E1
330
18
100
AcDbEntity
  8
文字
100
AcDbCircle
 10
5594.867384570647
 20
-1504.0774459309
 30
0.0
 40
0.6007500000000002
  0
ARC
  5
BF4E2
330
18
100
AcDbEntity
  8
文字
100
AcDbCircle
 10
5594.865521779949
 20
-1504.076514535552
 30
0.0
 40
1.00311322310025
100
AcDbArc
 50
203.5897772725971
 51
359.9468005913629
  0
LINE
  5
BF4E3
330
18
100
AcDbEntity
  8
文字
100
AcDbLine
 10
5593.065134570642
 20
-1501.674445930898
 30
0.0
 11
5593.94623457064
 21
-1504.477945930899
 31
0.0
  0
LINE
  5
BF4E4
330
18
100
AcDbEntity
  8
文字
100
AcDbLine
 10
5594.266634570641
 20
-1504.0774459309
 30
0.0
 11
5594.266634570641
 21
-1501.8346459309
 31
0.0
  0
LINE
  5
BF4E5
330
18
100
AcDbEntity
  8
文字
100
AcDbLine
 10
5596.26913457064
 20
-1506.480445930898
 30
0.0
 11
5596.26913457064
 21
-1502.074945930897
 31
0.0
  0
LINE
  5
BF4E6
330
18
100
AcDbEntity
  8
文字
100
AcDbLine
 10
5585.567628651255
 20
-1339.237519332517
 30
0.0
 11
5585.567628651255
 21
-1373.237519332517
 31
0.0
  0
LINE
  5
BF4E7
330
18
100
AcDbEntity
  8
文字
100
AcDbLine
 10
5597.567628651255
 20
-1373.237519332517
 30
0.0
 11
5597.567628651255
 21
-1339.237519332517
 31
0.0
  0
LINE
  5
BF4E8
330
18
100
AcDbEntity
  8
文字
100
AcDbLine
 10
5592.567628651256
 20
-1373.737519332517
 30
0.0
 11
5592.567628651256
 21
-1338.737519332517
 31
0.0
  0
TEXT
  5
BF4E9
330
18
100
AcDbEntity
  8
文字
100
AcDbText
 10
5592.008749852008
 20
-1371.940675874464
 30
0.0
 40
2.0
  1
SER No.******
 50
90.0
 41
1.199999999999999
  7
MS\U+FF7A\U+FF9E\U+FF7C\U+FF6F\U+FF78N
 11
5592.374232085511
 21
-1371.940675874464
 31
0.0
100
AcDbText
 73
     1
  0
LINE
  5
BF4EA
330
18
100
AcDbEntity
  8
文字
100
AcDbLine
 10
5593.510105233252
 20
-1366.38547283144
 30
0.0
 11
5594.39120523325
 21
-1369.188972831438
 31
0.0
  0
LINE
  5
BF4EB
330
18
100
AcDbEntity
  8
文字
100
AcDbLine
 10
5593.510105233252
 20
-1370.79097283144
 30
0.0
 11
5593.510105233252
 21
-1366.38547283144
 31
0.0
  0
LINE
  5
BF4EC
330
18
100
AcDbEntity
  8
文字
100
AcDbLine
 10
5594.711605233254
 20
-1368.788472831438
 30
0.0
 11
5594.711605233254
 21
-1366.545672831438
 31
0.0
  0
ARC
  5
BF4ED
330
18
100
AcDbEntity
  8
文字
100
AcDbCircle
 10
5595.512605233254
 20
-1368.78847283144
 30
0.0
 40
0.8009999999999999
100
AcDbArc
 50
0.0
 51
180.0
  0
CIRCLE
  5
BF4EE
330
18
100
AcDbEntity
  8
文字
100
AcDbCircle
 10
5595.312355233253
 20
-1368.78847283144
 30
0.0
 40
0.6007500000000002
  0
LINE
  5
BF4EF
330
18
100
AcDbEntity
  8
文字
100
AcDbLine
 10
5596.714105233253
 20
-1371.19147283144
 30
0.0
 11
5596.714105233253
 21
-1366.785972831439
 31
0.0
  0
LINE
  5
BF4F0
330
18
100
AcDbEntity
  8
文字
100
AcDbLine
 10
5586.067628651256
 20
-1373.737519332517
 30
0.0
 11
5597.067628651256
 21
-1373.737519332517
 31
0.0
  0
LINE
  5
BF4F1
330
18
100
AcDbEntity
  8
文字
100
AcDbLine
 10
5596.714105233253
 20
-1371.19147283144
 30
0.0
 11
5593.510105233252
 21
-1370.79097283144
 31
0.0
  0
ARC
  5
BF4F2
330
18
100
AcDbEntity
  8
文字
100
AcDbCircle
 10
5595.310492442555
 20
-1368.787541436091
 30
0.0
 40
1.00311322310025
100
AcDbArc
 50
203.5897772725971
 51
359.9468005913629
  0
ARC
  5
BF4F3
330
18
100
AcDbEntity
  8
文字
100
AcDbCircle
 10
5586.067628651256
 20
-1373.237519332519
 30
0.0
 40
0.5
100
AcDbArc
 50
180.0
 51
270.0
  0
ARC
  5
BF4F4
330
18
100
AcDbEntity
  8
文字
100
AcDbCircle
 10
5597.067628651256
 20
-1373.237519332519
 30
0.0
 40
0.5
100
AcDbArc
 50
270.0
 51
0.0
  0
LINE
  5
BF4F5
330
18
100
AcDbEntity
  8
文字
100
AcDbLine
 10
5596.714105233253
 20
-1366.785972831439
 30
0.0
 11
5594.711605233254
 21
-1366.545672831438
 31
0.0
  0
TEXT
  5
BF4F6
330
18
100
AcDbEntity
  8
文字
100
AcDbText
 10
5596.666371094669
 20
-1365.569373607055
 30
0.0
 40
1.44
  1
DENSO
 50
90.0
 41
1.3
  7
TIMESNR
100
AcDbText
  0
TEXT
  5
BF4F7
330
18
100
AcDbEntity
  8
文字
100
AcDbText
 10
5594.969608685683
 20
-1365.447960496914
 30
0.0
 40
1.44
  1
NIKKI
 50
90.0
 41
1.25
  7
TIMESNR
100
AcDbText
  0
LINE
  5
BF4F8
330
18
100
AcDbEntity
  8
文字
100
AcDbLine
 10
5597.067628651256
 20
-1338.737519332517
 30
0.0
 11
5586.067628651256
 21
-1338.737519332517
 31
0.0
  0
ARC
  5
BF4F9
330
18
100
AcDbEntity
  8
文字
100
AcDbCircle
 10
5586.067628651256
 20
-1339.237519332519
 30
0.0
 40
0.5
100
AcDbArc
 50
90.0
 51
180.0
  0
ARC
  5
BF4FA
330
18
100
AcDbEntity
  8
文字
100
AcDbCircle
 10
5597.067628651256
 20
-1339.237519332519
 30
0.0
 40
0.5
100
AcDbArc
 50
0.0
 51
90.0
  0
TEXT
  5
BF4FB
330
18
100
AcDbEntity
  8
文字
100
AcDbText
 10
5596.932819425204
 20
-1353.195844009688
 30
137.5
 40
1.5
  1
MADE IN JAPAN
 50
90.0
  7
MS\U+FF7A\U+FF9E\U+FF7C\U+FF6F\U+FF78N
 11
5597.20693110033
 21
-1353.195844009688
 31
137.5
100
AcDbText
 73
     1
  0
TEXT
  5
BF4FC
330
18
100
AcDbEntity
  8
文字
100
AcDbText
 10
5595.063033374819
 20
-1353.195844009688
 30
137.5
 40
1.5
  1
SN-16140
 50
90.0
  7
MS\U+FF7A\U+FF9E\U+FF7C\U+FF6F\U+FF78N
 11
5595.337145049946
 21
-1353.195844009688
 31
137.5
100
AcDbText
 73
     1
  0
TEXT
  5
BF4FD
330
18
100
AcDbEntity
  8
文字
100
AcDbText
 10
5596.666371094673
 20
-1401.569373607054
 30
0.0
 40
1.44
  1
DENSO
 50
90.0
 41
1.3
  7
TIMESNR
100
AcDbText
  0
TEXT
  5
BF4FE
330
18
100
AcDbEntity
  8
文字
100
AcDbText
 10
5594.969608685687
 20
-1401.447960496914
 30
0.0
 40
1.44
  1
NIKKI
 50
90.0
 41
1.25
  7
TIMESNR
100
AcDbText
  0
TEXT
  5
BF4FF
330
18
100
AcDbEntity
  8
文字
100
AcDbText
 10
5589.18471650358
 20
-1407.913549301652
 30
0.0
 40
2.6
  1
ENCODER
 50
90.0
 41
1.199999999999999
  7
MS\U+FF7A\U+FF9E\U+FF7C\U+FF6F\U+FF78N
 11
5589.659843407133
 21
-1407.913549301652
 31
0.0
100
AcDbText
 73
     1
  0
TEXT
  5
BF500
330
18
100
AcDbEntity
  8
文字
100
AcDbText
 10
5592.008749852012
 20
-1407.940675874463
 30
0.0
 40
2.0
  1
******PPR
 50
90.0
 41
1.199999999999999
  7
MS\U+FF7A\U+FF9E\U+FF7C\U+FF6F\U+FF78N
 11
5592.374232085514
 21
-1407.940675874463
 31
0.0
100
AcDbText
 73
     1
  0
LINE
  5
BF501
330
18
100
AcDbEntity
  8
文字
100
AcDbLine
 10
5592.567628651256
 20
-1409.737519332517
 30
0.0
 11
5592.567628651256
 21
-1374.737519332517
 31
0.0
  0
LINE
  5
BF502
330
18
100
AcDbEntity
  8
文字
100
AcDbLine
 10
5597.567628651255
 20
-1409.237519332517
 30
0.0
 11
5597.567628651255
 21
-1375.237519332517
 31
0.0
  0
LINE
  5
BF503
330
18
100
AcDbEntity
  8
文字
100
AcDbLine
 10
5585.567628651255
 20
-1375.237519332517
 30
0.0
 11
5585.567628651255
 21
-1409.237519332517
 31
0.0
  0
ARC
  5
BF504
330
18
100
AcDbEntity
  8
文字
100
AcDbCircle
 10
5597.067628651259
 20
-1409.237519332518
 30
0.0
 40
0.5
100
AcDbArc
 50
270.0
 51
0.0
  0
ARC
  5
BF505
330
18
100
AcDbEntity
  8
文字
100
AcDbCircle
 10
5586.067628651259
 20
-1409.237519332518
 30
0.0
 40
0.5
100
AcDbArc
 50
180.0
 51
270.0
  0
LINE
  5
BF506
330
18
100
AcDbEntity
  8
文字
100
AcDbLine
 10
5586.067628651256
 20
-1409.737519332517
 30
0.0
 11
5597.067628651256
 21
-1409.737519332517
 31
0.0
  0
ARC
  5
BF507
330
18
100
AcDbEntity
  8
文字
100
AcDbCircle
 10
5595.512605233258
 20
-1404.788472831439
 30
0.0
 40
0.8009999999999999
100
AcDbArc
 50
0.0
 51
180.0
  0
LINE
  5
BF508
330
18
100
AcDbEntity
  8
文字
100
AcDbLine
 10
5596.714105233253
 20
-1402.78597283144
 30
0.0
 11
5594.711605233254
 21
-1402.545672831438
 31
0.0
  0
LINE
  5
BF509
330
18
100
AcDbEntity
  8
文字
100
AcDbLine
 10
5596.714105233253
 20
-1407.19147283144
 30
0.0
 11
5593.510105233252
 21
-1406.790972831441
 31
0.0
  0
ARC
  5
BF50A
330
18
100
AcDbEntity
  8
文字
100
AcDbCircle
 10
5595.310492442559
 20
-1404.78754143609
 30
0.0
 40
1.00311322310025
100
AcDbArc
 50
203.5897772725971
 51
359.9468005913629
  0
LINE
  5
BF50B
330
18
100
AcDbEntity
  8
文字
100
AcDbLine
 10
5594.711605233254
 20
-1404.788472831438
 30
0.0
 11
5594.711605233254
 21
-1402.545672831438
 31
0.0
  0
LINE
  5
BF50C
330
18
100
AcDbEntity
  8
文字
100
AcDbLine
 10
5593.510105233252
 20
-1406.790972831441
 30
0.0
 11
5593.510105233252
 21
-1402.38547283144
 31
0.0
  0
LINE
  5
BF50D
330
18
100
AcDbEntity
  8
文字
100
AcDbLine
 10
5593.510105233252
 20
-1402.38547283144
 30
0.0
 11
5594.39120523325
 21
-1405.188972831438
 31
0.0
  0
CIRCLE
  5
BF50E
330
18
100
AcDbEntity
  8
文字
100
AcDbCircle
 10
5595.312355233256
 20
-1404.788472831439
 30
0.0
 40
0.6007500000000002
  0
LINE
  5
BF50F
330
18
100
AcDbEntity
  8
文字
100
AcDbLine
 10
5596.714105233253
 20
-1407.19147283144
 30
0.0
 11
5596.714105233253
 21
-1402.78597283144
 31
0.0
  0
LINE
  5
BF510
330
18
100
AcDbEntity
  8
文字
100
AcDbLine
 10
5597.067628651256
 20
-1374.737519332517
 30
0.0
 11
5586.067628651256
 21
-1374.737519332517
 31
0.0
  0
ARC
  5
BF511
330
18
100
AcDbEntity
  8
文字
100
AcDbCircle
 10
5586.067628651259
 20
-1375.237519332518
 30
0.0
 40
0.5
100
AcDbArc
 50
90.0
 51
180.0
  0
ARC
  5
BF512
330
18
100
AcDbEntity
  8
文字
100
AcDbCircle
 10
5597.067628651259
 20
-1375.237519332518
 30
0.0
 40
0.5
100
AcDbArc
 50
0.0
 51
90.0
  0
TEXT
  5
BF513
330
18
100
AcDbEntity
  8
文字
100
AcDbText
 10
5596.932819425208
 20
-1390.115858937967
 30
137.5
 40
1.5
  1
MADE IN JAPAN
 50
90.0
  7
MS\U+FF7A\U+FF9E\U+FF7C\U+FF6F\U+FF78N
 11
5597.206931100334
 21
-1390.115858937967
 31
137.5
100
AcDbText
 73
     1
  0
TEXT
  5
BF514
330
18
100
AcDbEntity
  8
文字
100
AcDbText
 10
5595.063033374822
 20
-1390.115858937967
 30
137.5
 40
1.5
  1
SN-16140
 50
90.0
  7
MS\U+FF7A\U+FF9E\U+FF7C\U+FF6F\U+FF78N
 11
5595.337145049949
 21
-1390.115858937967
 31
137.5
100
AcDbText
 73
     1
  0
LINE
  5
BF515
330
18
100
AcDbEntity
  8
文字
100
AcDbLine
 10
5589.784187115132
 20
-1448.711019332517
 30
0.0
 11
5589.784187115132
 21
-1442.919519332516
 31
0.0
  0
HATCH
  5
BF516
330
18
100
AcDbEntity
  8
文字
100
AcDbHatch
 10
0.0
 20
0.0
 30
0.0
210
0.0
220
0.0
230
1.0
  2
ANSI37
 70
     0
 71
     0
 91
        2
 92
       17
 93
        1
 72
     2
 10
5592.153437115133
 20
-1446.078519332517
 40
0.7897500000000002
 50
90.0
 51
450.0
 73
     1
 97
        0
 92
        1
 93
        8
 72
     2
 10
5592.150988277924
 20
-1446.077294913912
 40
1.318699405648644
 50
203.5897772726301
 51
359.946800591415
 73
     1
 72
     2
 10
5592.416687115132
 20
-1446.078519332517
 40
1.053
 50
0.0
 51
180.0
 73
     1
 72
     1
 10
5591.363687115133
 20
-1446.078519332517
 11
5591.363687115133
 21
-1443.130119332518
 72
     1
 10
5591.363687115133
 20
-1443.130119332516
 11
5593.996187115132
 21
-1443.446019332516
 72
     1
 10
5593.996187115132
 20
-1443.446019332516
 11
5593.996187115132
 21
-1449.237519332515
 72
     1
 10
5593.996187115132
 20
-1449.237519332517
 11
5589.784187115133
 21
-1448.711019332517
 72
     1
 10
5589.784187115132
 20
-1448.711019332517
 11
5589.784187115132
 21
-1442.919519332518
 72
     1
 10
5589.784187115132
 20
-1442.919519332516
 11
5590.942487115131
 21
-1446.605019332516
 97
        0
 75
     0
 76
     1
 52
89.99999999999998
 41
0.8424000000000001
 77
     0
 78
     2
 53
135.0
 43
5588.893902806775
 44
-1710.942475299096
 45
-0.0744583440589435
 46
-0.0744583440589434
 79
     0
 53
225.0
 43
5588.893902806775
 44
-1710.942475299096
 45
0.0744583440589434
 46
-0.0744583440589435
 79
     0
 98
        1
 10
5588.893902806775
 20
-1710.942475299096
  0
TEXT
  5
BF517
330
18
100
AcDbEntity
  8
文字
100
AcDbText
 10
5588.166224248164
 20
-1449.34335278764
 30
0.0
 40
2.1
  1
SER No : 
 50
90.0
  7
MS\U+FF7A\U+FF9E\U+FF7C\U+FF6F\U+FF78
 11
5587.116224248163
 21
-1449.34335278764
 31
0.0
100
AcDbText
 73
     2
  0
TEXT
  5
BF518
330
18
100
AcDbEntity
  8
文字
100
AcDbText
 10
5585.648251233591
 20
-1490.311303923041
 30
0.0
 40
1.8
  1
OUT PUT: 502W　
 50
90.0
  7
MS\U+FF7A\U+FF9E\U+FF7C\U+FF6F\U+FF78
 11
5584.748251233591
 21
-1490.311303923041
 31
0.0
100
AcDbText
 73
     2
  0
TEXT
  5
BF519
330
18
100
AcDbEntity
  8
文字
100
AcDbText
 10
5587.925499805903
 20
-1490.272724177574
 30
0.0
 40
1.8
  1
AMPS   : 5.0A
 50
90.0
  7
MS\U+FF7A\U+FF9E\U+FF7C\U+FF6F\U+FF78
 11
5587.025499805903
 21
-1490.272724177574
 31
0.0
100
AcDbText
 73
     2
  0
TEXT
  5
BF51A
330
18
100
AcDbEntity
  8
文字
100
AcDbText
 10
5590.204375946777
 20
-1490.346524864126
 30
0.0
 40
1.8
  1
DUTY  : CONT/S1
 50
90.0
  7
MS\U+FF7A\U+FF9E\U+FF7C\U+FF6F\U+FF78
 11
5589.304375946777
 21
-1490.346524864126
 31
0.0
100
AcDbText
 73
     2
  0
TEXT
  5
BF51B
330
18
100
AcDbEntity
  8
文字
100
AcDbText
 10
5592.485763666918
 20
-1490.356498183175
 30
0.0
 40
1.8
  1
FREQ   : 75Hz
 50
90.0
  7
MS\U+FF7A\U+FF9E\U+FF7C\U+FF6F\U+FF78
 11
5591.585763666918
 21
-1490.356498183175
 31
0.0
100
AcDbText
 73
     2
  0
TEXT
  5
BF51C
330
18
100
AcDbEntity
  8
文字
100
AcDbText
 10
5594.769737222407
 20
-1490.713206311646
 30
0.0
 40
1.8
  1
INS. 　: F
 50
90.0
  7
MS\U+FF7A\U+FF9E\U+FF7C\U+FF6F\U+FF78
 11
5593.869737222408
 21
-1490.713206311646
 31
0.0
100
AcDbText
 73
     2
  0
LINE
  5
BF51D
330
18
100
AcDbEntity
  8
文字
100
AcDbLine
 10
5597.567628651255
 20
-1449.737519332517
 30
0.0
 11
5597.567628651255
 21
-1411.737519332517
 31
0.0
  0
LINE
  5
BF51E
330
18
100
AcDbEntity
  8
文字
100
AcDbLine
 10
5580.567628651254
 20
-1490.737519332517
 30
0.0
 11
5580.567628651254
 21
-1452.737519332517
 31
0.0
  0
TEXT
  5
BF51F
330
18
100
AcDbEntity
  8
文字
100
AcDbText
 10
5583.369681327202
 20
-1490.328620440285
 30
0.0
 40
1.8
  1
MODEL:NMR-SSMJA2A-501APB-UC
 50
90.0
  7
MS\U+FF7A\U+FF9E\U+FF7C\U+FF6F\U+FF78
 11
5582.469681327204
 21
-1490.328620440285
 31
0.0
100
AcDbText
 73
     2
  0
LINE
  5
BF520
330
18
100
AcDbEntity
  8
文字
100
AcDbLine
 10
5584.567628651254
 20
-1450.737519332517
 30
0.0
 11
5584.567628651254
 21
-1410.737519332517
 31
0.0
  0
LINE
  5
BF521
330
18
100
AcDbEntity
  8
文字
100
AcDbLine
 10
5596.567628651256
 20
-1450.737519332517
 30
0.0
 11
5584.567628651254
 21
-1450.737519332517
 31
0.0
  0
ARC
  5
BF522
330
18
100
AcDbEntity
  8
文字
100
AcDbCircle
 10
5596.567628651256
 20
-1449.737519332517
 30
0.0
 40
1.0
100
AcDbArc
 50
270.0
 51
0.0
  0
LINE
  5
BF523
330
18
100
AcDbEntity
  8
文字
100
AcDbLine
 10
5593.996187115132
 20
-1449.237519332517
 30
0.0
 11
5589.784187115132
 21
-1448.711019332517
 31
0.0
  0
ARC
  5
BF524
330
18
100
AcDbEntity
  8
文字
100
AcDbCircle
 10
5581.567628651256
 20
-1490.737519332517
 30
0.0
 40
1.0
100
AcDbArc
 50
180.0
 51
270.0
  0
LINE
  5
BF525
330
18
100
AcDbEntity
  8
文字
100
AcDbLine
 10
5581.567628651254
 20
-1451.737519332517
 30
0.0
 11
5597.567628651255
 21
-1451.737519332517
 31
0.0
  0
TEXT
  5
BF526
330
18
100
AcDbEntity
  8
文字
100
AcDbText
 10
5585.654527672003
 20
-1471.281871651283
 30
0.0
 40
1.8
  1
VOLTS : 83V
 50
90.0
  7
MS\U+FF7A\U+FF9E\U+FF7C\U+FF6F\U+FF78
 11
5584.754527672004
 21
-1471.281871651283
 31
0.0
100
AcDbText
 73
     2
  0
TEXT
  5
BF527
330
18
100
AcDbEntity
  8
文字
100
AcDbText
 10
5587.925568408335
 20
-1471.336400527763
 30
0.0
 40
1.8
  1
TORQUE : 16N\U+FF65m
 50
90.0
 41
0.9
  7
MS\U+FF7A\U+FF9E\U+FF7C\U+FF6F\U+FF78
 11
5587.025568408336
 21
-1471.336400527763
 31
0.0
100
AcDbText
 73
     2
  0
TEXT
  5
BF528
330
18
100
AcDbEntity
  8
文字
100
AcDbText
 10
5590.204803115309
 20
-1471.328285301321
 30
0.0
 40
1.8
  1
SPEED : 5rps
 50
90.0
  7
MS\U+FF7A\U+FF9E\U+FF7C\U+FF6F\U+FF78
 11
5589.304803115309
 21
-1471.328285301321
 31
0.0
100
AcDbText
 73
     2
  0
TEXT
  5
BF529
330
18
100
AcDbEntity
  8
文字
100
AcDbText
 10
5592.48458703318
 20
-1471.34695566271
 30
0.0
 40
1.8
  1
TEMP  :
 50
90.0
  7
MS\U+FF7A\U+FF9E\U+FF7C\U+FF6F\U+FF78
 11
5591.584587033181
 21
-1471.34695566271
 31
0.0
100
AcDbText
 73
     2
  0
TEXT
  5
BF52A
330
18
100
AcDbEntity
  8
文字
100
AcDbText
 10
5596.855154438325
 20
-1448.585077514067
 30
0.0
 40
1.8
  1
NIKKI DENSO CO.,LTD.
 50
90.0
 41
0.55
 11
5595.955154438326
 21
-1448.585077514067
 31
0.0
100
AcDbText
 73
     2
  0
TEXT
  5
BF52B
330
18
100
AcDbEntity
  8
文字
100
AcDbText
 10
5591.703437384513
 20
-1441.624141840805
 30
0.0
 40
1.9
  1
NIKKI
 50
90.0
  7
TIMESNR
 11
5590.753437384513
 21
-1441.624141840805
 31
0.0
100
AcDbText
 73
     2
  0
TEXT
  5
BF52C
330
18
100
AcDbEntity
  8
文字
100
AcDbText
 10
5593.941698954036
 20
-1441.606192590576
 30
0.0
 40
1.9
  1
DENSO
 50
90.0
  7
TIMESNR
 11
5592.991698954037
 21
-1441.606192590576
 31
0.0
100
AcDbText
 73
     2
  0
LINE
  5
BF52D
330
18
100
AcDbEntity
  8
文字
100
AcDbLine
 10
5593.996187115132
 20
-1443.446019332516
 30
0.0
 11
5591.363687115133
 21
-1443.130119332516
 31
0.0
  0
LINE
  5
BF52E
330
18
100
AcDbEntity
  8
文字
100
AcDbLine
 10
5591.363687115133
 20
-1446.078519332517
 30
0.0
 11
5591.363687115133
 21
-1443.130119332516
 31
0.0
  0
LINE
  5
BF52F
330
18
100
AcDbEntity
  8
文字
100
AcDbLine
 10
5589.784187115132
 20
-1442.919519332516
 30
0.0
 11
5590.942487115132
 21
-1446.605019332517
 31
0.0
  0
ARC
  5
BF530
330
18
100
AcDbEntity
  8
文字
100
AcDbCircle
 10
5592.416687115132
 20
-1446.078519332517
 30
0.0
 40
1.053
100
AcDbArc
 50
0.0
 51
180.0
  0
CIRCLE
  5
BF531
330
18
100
AcDbEntity
  8
文字
100
AcDbCircle
 10
5592.153437115133
 20
-1446.078519332517
 30
0.0
 40
0.7897500000000002
  0
ARC
  5
BF532
330
18
100
AcDbEntity
  8
文字
100
AcDbCircle
 10
5592.150988277924
 20
-1446.077294913912
 30
0.0
 40
1.318699405648644
100
AcDbArc
 50
203.589777272609
 51
359.9468005913759
  0
TEXT
  5
BF533
330
18
100
AcDbEntity
  8
文字
100
AcDbText
 10
5588.082686170634
 20
-1437.790878433556
 30
0.0
 40
2.1
  1
*******
 50
90.0
  7
MS\U+FF7A\U+FF9E\U+FF7C\U+FF6F\U+FF78
 11
5587.032686170633
 21
-1437.790878433556
 31
0.0
100
AcDbText
 73
     2
  0
TEXT
  5
BF534
330
18
100
AcDbEntity
  8
文字
100
AcDbText
 10
5596.845070834156
 20
-1431.835539777207
 30
0.0
 40
1.8
  1
MADE IN JAPAN
 50
90.0
 41
0.55
 11
5595.945070834156
 21
-1431.835539777207
 31
0.0
100
AcDbText
 73
     2
  0
ARC
  5
BF535
330
18
100
AcDbEntity
  8
文字
100
AcDbCircle
 10
5596.567628651256
 20
-1411.737519332517
 30
0.0
 40
1.0
100
AcDbArc
 50
0.0
 51
90.0
  0
ARC
  5
BF536
102
{ACAD_REACTORS
330
BF538
102
}
330
18
100
AcDbEntity
  8
文字
100
AcDbCircle
 10
5593.176755816405
 20
-1415.725753213782
 30
0.0
 40
0.3145728000000001
100
AcDbArc
 50
0.0
 51
109.9999999998779
  0
LINE
  5
BF537
102
{ACAD_REACTORS
330
BF538
102
}
330
18
100
AcDbEntity
  8
文字
100
AcDbLine
 10
5589.433339496406
 20
-1416.753483947142
 30
0.0
 11
5593.069165582264
 21
-1415.430151474921
 31
0.0
  0
HATCH
  5
BF538
330
18
100
AcDbEntity
  8
文字
100
AcDbHatch
 10
0.0
 20
0.0
 30
0.0
210
0.0
220
0.0
230
1.0
  2
SOLID
 70
     1
 71
     1
 91
        2
 92
        1
 93
       16
 72
     1
 10
5589.433339496406
 20
-1421.485824032551
 11
5589.433339496406
 21
-1418.766749867143
 72
     1
 10
5589.433339496406
 20
-1418.766749867143
 11
5592.233037416406
 21
-1417.747743159326
 72
     1
 10
5592.233037416406
 20
-1417.747743159324
 11
5592.233037416406
 21
-1416.992768439325
 72
     1
 10
5592.233037416406
 20
-1416.992768439325
 11
5589.433339496406
 21
-1418.011775147142
 72
     1
 10
5589.433339496406
 20
-1418.011775147142
 11
5589.433339496406
 21
-1416.753483947142
 72
     1
 10
5589.433339496406
 20
-1416.753483947142
 11
5593.069165582264
 21
-1415.430151474921
 72
     2
 10
5593.176755816405
 20
-1415.725753213782
 40
0.3145728000000001
 50
250.0000000001128
 51
360.0
 73
     0
 72
     1
 10
5593.491328616405
 20
-1415.725753213782
 11
5593.491328616405
 21
-1418.548053816486
 72
     1
 10
5593.491328616405
 20
-1418.548053816486
 11
5591.981379176406
 21
-1419.097630467893
 72
     1
 10
5591.981379176406
 20
-1419.097630467893
 11
5591.981379176406
 21
-1419.328108955225
 72
     1
 10
5591.981379176406
 20
-1419.328108955225
 11
5593.491328616405
 21
-1419.649058616486
 72
     1
 10
5593.491328616405
 20
-1419.649058616486
 11
5593.491328616405
 21
-1420.907349816486
 72
     1
 10
5593.491328616405
 20
-1420.907349816486
 11
5591.981379176406
 21
-1420.586400155225
 72
     1
 10
5591.981379176406
 20
-1420.586400155225
 11
5591.981379176406
 21
-1421.456926467893
 72
     1
 10
5591.981379176406
 20
-1421.456926467893
 11
5590.277665564689
 21
-1422.077027510272
 72
     2
 10
5590.062485096406
 20
-1421.485824032551
 40
0.6291456000000003
 50
69.99999999994303
 51
180.0
 73
     0
 97
       16
330
BF53A
330
BF53E
330
BF540
330
BF53D
330
BF53C
330
BF53B
330
BF547
330
BF546
330
BF548
330
BF543
330
BF536
330
BF537
330
BF54C
330
BF541
330
BF54B
330
BF542
 92
       16
 93
        4
 72
     1
 10
5590.345600616406
 20
-1420.794009973583
 11
5591.069118056406
 21
-1420.530671161451
 72
     1
 10
5591.069118056406
 20
-1420.530671161451
 11
5591.069118056406
 21
-1419.42966636145
 72
     1
 10
5591.069118056406
 20
-1419.42966636145
 11
5590.345600616406
 21
-1419.693005173584
 72
     1
 10
5590.345600616406
 20
-1419.693005173584
 11
5590.345600616406
 21
-1420.794009973583
 97
        4
330
BF54A
330
BF544
330
BF549
330
BF545
 75
     0
 76
     1
 98
        2
 10
5591.318775741166
 20
-1420.253454818684
 10
5591.318775741166
 20
-1420.253454818684
  0
TEXT
  5
BF539
330
18
100
AcDbEntity
  8
文字
100
AcDbText
 10
5592.482124486003
 20
-1461.872997659408
 30
0.0
 40
1.8
  1
0～+40℃
 50
90.0
 41
0.8
  7
MS\U+FF7A\U+FF9E\U+FF7C\U+FF6F\U+FF78
 11
5591.582124486002
 21
-1461.872997659408
 31
0.0
100
AcDbText
 73
     2
  0
LINE
  5
BF53A
102
{ACAD_REACTORS
330
BF538
102
}
330
18
100
AcDbEntity
  8
文字
100
AcDbLine
 10
5589.433339496406
 20
-1421.485824032551
 30
0.0
 11
5589.433339496406
 21
-1418.766749867143
 31
0.0
  0
LINE
  5
BF53B
102
{ACAD_REACTORS
330
BF538
102
}
330
18
100
AcDbEntity
  8
文字
100
AcDbLine
 10
5593.491328616405
 20
-1420.907349816486
 30
0.0
 11
5593.491328616405
 21
-1419.649058616486
 31
0.0
  0
LINE
  5
BF53C
102
{ACAD_REACTORS
330
BF538
102
}
330
18
100
AcDbEntity
  8
文字
100
AcDbLine
 10
5593.491328616405
 20
-1420.907349816486
 30
0.0
 11
5591.981379176406
 21
-1420.586400155225
 31
0.0
  0
LINE
  5
BF53D
102
{ACAD_REACTORS
330
BF538
102
}
330
18
100
AcDbEntity
  8
文字
100
AcDbLine
 10
5591.981379176406
 20
-1421.456926467893
 30
0.0
 11
5591.981379176406
 21
-1420.586400155225
 31
0.0
  0
ARC
  5
BF53E
102
{ACAD_REACTORS
330
BF538
102
}
330
18
100
AcDbEntity
  8
文字
100
AcDbCircle
 10
5590.062485096406
 20
-1421.485824032551
 30
0.0
 40
0.6291456000000003
100
AcDbArc
 50
180.0
 51
290.0000000000471
  0
TEXT
  5
BF53F
330
18
100
AcDbEntity
  8
文字
100
AcDbText
 10
5593.514466292409
 20
-1423.273122896423
 30
0.0
 40
1.79306496
  1
C
 50
90.0
  7
MS\U+FF7A\U+FF9E\U+FF7C\U+FF6F\U+FF78
100
AcDbText
  0
LINE
  5
BF540
102
{ACAD_REACTORS
330
BF538
102
}
330
18
100
AcDbEntity
  8
文字
100
AcDbLine
 10
5590.277665564689
 20
-1422.077027510272
 30
0.0
 11
5591.981379176406
 21
-1421.456926467893
 31
0.0
  0
LINE
  5
BF541
102
{ACAD_REACTORS
330
BF538
102
}
330
18
100
AcDbEntity
  8
文字
100
AcDbLine
 10
5589.433339496406
 20
-1418.011775147142
 30
0.0
 11
5592.233037416406
 21
-1416.992768439325
 31
0.0
  0
LINE
  5
BF542
102
{ACAD_REACTORS
330
BF538
102
}
330
18
100
AcDbEntity
  8
文字
100
AcDbLine
 10
5589.433339496406
 20
-1418.766749867143
 30
0.0
 11
5592.233037416406
 21
-1417.747743159326
 31
0.0
  0
LINE
  5
BF543
102
{ACAD_REACTORS
330
BF538
102
}
330
18
100
AcDbEntity
  8
文字
100
AcDbLine
 10
5593.491328616405
 20
-1418.548053816486
 30
0.0
 11
5593.491328616405
 21
-1415.725753213782
 31
0.0
  0
LINE
  5
BF544
102
{ACAD_REACTORS
330
BF538
102
}
330
18
100
AcDbEntity
  8
文字
100
AcDbLine
 10
5590.345600616406
 20
-1420.794009973583
 30
0.0
 11
5590.345600616406
 21
-1419.693005173584
 31
0.0
  0
LINE
  5
BF545
102
{ACAD_REACTORS
330
BF538
102
}
330
18
100
AcDbEntity
  8
文字
100
AcDbLine
 10
5591.069118056406
 20
-1420.530671161451
 30
0.0
 11
5591.069118056406
 21
-1419.42966636145
 31
0.0
  0
LINE
  5
BF546
102
{ACAD_REACTORS
330
BF538
102
}
330
18
100
AcDbEntity
  8
文字
100
AcDbLine
 10
5591.981379176406
 20
-1419.328108955225
 30
0.0
 11
5591.981379176406
 21
-1419.097630467893
 31
0.0
  0
LINE
  5
BF547
102
{ACAD_REACTORS
330
BF538
102
}
330
18
100
AcDbEntity
  8
文字
100
AcDbLine
 10
5593.491328616405
 20
-1419.649058616486
 30
0.0
 11
5591.981379176406
 21
-1419.328108955225
 31
0.0
  0
LINE
  5
BF548
102
{ACAD_REACTORS
330
BF538
102
}
330
18
100
AcDbEntity
  8
文字
100
AcDbLine
 10
5591.981379176406
 20
-1419.097630467893
 30
0.0
 11
5593.491328616405
 21
-1418.548053816486
 31
0.0
  0
LINE
  5
BF549
102
{ACAD_REACTORS
330
BF538
102
}
330
18
100
AcDbEntity
  8
文字
100
AcDbLine
 10
5590.345600616406
 20
-1419.693005173584
 30
0.0
 11
5591.069118056406
 21
-1419.42966636145
 31
0.0
  0
LINE
  5
BF54A
102
{ACAD_REACTORS
330
BF538
102
}
330
18
100
AcDbEntity
  8
文字
100
AcDbLine
 10
5590.345600616406
 20
-1420.794009973583
 30
0.0
 11
5591.069118056406
 21
-1420.530671161451
 31
0.0
  0
LINE
  5
BF54B
102
{ACAD_REACTORS
330
BF538
102
}
330
18
100
AcDbEntity
  8
文字
100
AcDbLine
 10
5592.233037416406
 20
-1417.747743159324
 30
0.0
 11
5592.233037416406
 21
-1416.992768439325
 31
0.0
  0
LINE
  5
BF54C
102
{ACAD_REACTORS
330
BF538
102
}
330
18
100
AcDbEntity
  8
文字
100
AcDbLine
 10
5589.433339496406
 20
-1418.011775147142
 30
0.0
 11
5589.433339496406
 21
-1416.753483947142
 31
0.0
  0
TEXT
  5
BF54D
330
18
100
AcDbEntity
  8
文字
100
AcDbText
 10
5593.514466292409
 20
-1413.810647393894
 30
0.0
 40
1.79306496
  1
S
 50
90.0
  7
MS\U+FF7A\U+FF9E\U+FF7C\U+FF6F\U+FF78
100
AcDbText
  0
TEXT
  5
BF54E
330
18
100
AcDbEntity
  8
文字
100
AcDbText
 10
5593.514466292409
 20
-1415.109487702687
 30
0.0
 40
1.79306496
  1
U
 50
90.0
  7
MS\U+FF7A\U+FF9E\U+FF7C\U+FF6F\U+FF78
100
AcDbText
  0
ARC
  5
BF54F
330
18
100
AcDbEntity
  8
文字
100
AcDbCircle
 10
5581.567628651256
 20
-1452.737519332517
 30
0.0
 40
1.0
100
AcDbArc
 50
90.0
 51
180.0
  0
TEXT
  5
BF550
330
18
100
AcDbEntity
  8
文字
100
AcDbText
 10
5596.81559311049
 20
-1419.090523671809
 30
0.0
 40
1.8
  1
SN-*****
 50
90.0
 41
0.55
 11
5595.915593110491
 21
-1419.090523671809
 31
0.0
100
AcDbText
 73
     2
  0
TEXT
  5
BF551
330
18
100
AcDbEntity
  8
文字
100
AcDbText
 10
5597.02073748183
 20
-1490.364415778166
 30
0.0
 40
1.8
  1
Ph3
 50
90.0
  7
MS\U+FF7A\U+FF9E\U+FF7C\U+FF6F\U+FF78
 11
5596.120737481831
 21
-1490.364415778166
 31
0.0
100
AcDbText
 73
     2
  0
TEXT
  5
BF552
330
18
100
AcDbEntity
  8
文字
100
AcDbText
 10
5587.777141107148
 20
-1419.680852541791
 30
0.0
 40
2.1
  1
#100 R
 50
90.0
  7
MS\U+FF7A\U+FF9E\U+FF7C\U+FF6F\U+FF78
 11
5586.727141107147
 21
-1419.680852541791
 31
0.0
100
AcDbText
 73
     2
  0
ARC
  5
BF553
330
18
100
AcDbEntity
  8
文字
 48
3.0
100
AcDbCircle
 10
5591.503378463028
 20
-1424.985386343472
 30
0.0
 40
1.8
100
AcDbArc
 50
279.5940682268776
 51
0.0
  0
ARC
  5
BF554
330
18
100
AcDbEntity
  8
文字
 48
3.0
100
AcDbCircle
 10
5591.503378463028
 20
-1428.601356776088
 30
0.0
 40
2.4
100
AcDbArc
 50
180.0
 51
0.0
  0
ARC
  5
BF555
330
18
100
AcDbEntity
  8
文字
 48
3.0
100
AcDbCircle
 10
5591.503378463028
 20
-1428.601356776088
 30
0.0
 40
1.8
100
AcDbArc
 50
180.0
 51
0.0
  0
HATCH
  5
BF556
330
18
100
AcDbEntity
  8
文字
 48
3.0
100
AcDbHatch
 10
0.0
 20
0.0
 30
0.0
210
0.0
220
0.0
230
1.0
  2
SOLID
 70
     1
 71
     0
 91
        1
 92
        7
 72
     1
 73
     1
 93
        4
 10
5593.903378463028
 20
-1428.601356776088
 42
0.0
 10
5593.303378463028
 20
-1428.601356776088
 42
-1.0
 10
5589.703378463029
 20
-1428.601356776088
 42
0.0
 10
5589.103378463028
 20
-1428.601356776088
 42
1.0
 97
        0
 75
     0
 76
     1
 47
0.0446283734803627
 98
        1
 10
5590.646036110694
 20
-1430.567843753678
  0
ARC
  5
BF557
330
18
100
AcDbEntity
  8
文字
 48
3.0
100
AcDbCircle
 10
5591.503378463028
 20
-1424.985386343472
 30
0.0
 40
2.4
100
AcDbArc
 50
180.0
 51
0.0
  0
HATCH
  5
BF558
330
18
100
AcDbEntity
  8
文字
 48
3.0
100
AcDbHatch
 10
0.0
 20
0.0
 30
0.0
210
0.0
220
0.0
230
1.0
  2
SOLID
 70
     1
 71
     0
 91
        1
 92
        7
 72
     1
 73
     1
 93
        8
 10
5591.203378463029
 20
-1426.760210278401
 42
-0.3659773818630374
 10
5589.703378463029
 20
-1424.985386343472
 42
0.0
 10
5589.103378463028
 20
-1424.985386343472
 42
1.0
 10
5593.903378463028
 20
-1424.985386343472
 42
0.0
 10
5593.303378463028
 20
-1424.985386343472
 42
-0.3659773818630525
 10
5591.803378463028
 20
-1426.760210278401
 42
0.0
 10
5591.803378463028
 20
-1425.185386343472
 42
0.0
 10
5591.203378463029
 20
-1425.185386343472
 42
0.0
 97
        0
 75
     0
 76
     1
 47
0.0446283734803627
 98
        1
 10
5591.395792799978
 20
-1426.870837484388
  0
LINE
  5
BF559
330
18
100
AcDbEntity
  8
文字
 48
3.0
100
AcDbLine
 10
5593.303378463028
 20
-1424.985386343472
 30
0.0
 11
5593.903378463028
 21
-1424.985386343472
 31
0.0
  0
LINE
  5
BF55A
330
18
100
AcDbEntity
  8
文字
 48
3.0
100
AcDbLine
 10
5593.303378463028
 20
-1428.601356776088
 30
0.0
 11
5593.903378463028
 21
-1428.601356776088
 31
0.0
  0
LINE
  5
BF55B
330
18
100
AcDbEntity
  8
文字
 48
3.0
100
AcDbLine
 10
5589.103378463028
 20
-1424.985386343472
 30
0.0
 11
5589.703378463029
 21
-1424.985386343472
 31
0.0
  0
LINE
  5
BF55C
330
18
100
AcDbEntity
  8
文字
 48
3.0
100
AcDbLine
 10
5591.203378463029
 20
-1426.760210278401
 30
0.0
 11
5591.203378463029
 21
-1425.185386343472
 31
0.0
  0
LINE
  5
BF55D
330
18
100
AcDbEntity
  8
文字
 48
3.0
100
AcDbLine
 10
5591.803378463028
 20
-1426.760210278401
 30
0.0
 11
5591.803378463028
 21
-1425.185386343472
 31
0.0
  0
LINE
  5
BF55E
330
18
100
AcDbEntity
  8
文字
 48
3.0
100
AcDbLine
 10
5591.203378463029
 20
-1425.185386343472
 30
0.0
 11
5591.803378463028
 21
-1425.185386343472
 31
0.0
  0
ARC
  5
BF55F
330
18
100
AcDbEntity
  8
文字
 48
3.0
100
AcDbCircle
 10
5591.503378463028
 20
-1424.985386343472
 30
0.0
 40
1.8
100
AcDbArc
 50
180.0
 51
260.4059317731737
  0
LINE
  5
BF560
330
18
100
AcDbEntity
  8
文字
 48
3.0
100
AcDbLine
 10
5589.103378463028
 20
-1428.601356776088
 30
0.0
 11
5589.703378463029
 21
-1428.601356776088
 31
0.0
  0
TEXT
  5
BF561
330
18
100
AcDbEntity
  8
文字
100
AcDbText
 10
5594.769666061629
 20
-1471.145640788142
 30
0.0
 40
1.8
  1
MASS: 5.8kg
 50
90.0
  7
MS\U+FF7A\U+FF9E\U+FF7C\U+FF6F\U+FF78
 11
5593.869666061628
 21
-1471.145640788142
 31
0.0
100
AcDbText
 73
     2
  0
TEXT
  5
BF562
330
18
100
AcDbEntity
  8
文字
100
AcDbText
 10
5597.096746777332
 20
-1480.629678029963
 30
0.0
 40
1.8
  1
T E
 50
90.0
  7
MS\U+FF7A\U+FF9E\U+FF7C\U+FF6F\U+FF78
 11
5596.196746777333
 21
-1480.629678029963
 31
0.0
100
AcDbText
 73
     2
  0
TEXT
  5
BF563
330
18
100
AcDbEntity
  8
文字
100
AcDbText
 10
5597.096746777332
 20
-1471.437136111219
 30
0.0
 40
1.8
  1
IP40
 50
90.0
  7
MS\U+FF7A\U+FF9E\U+FF7C\U+FF6F\U+FF78
 11
5596.196746777333
 21
-1471.437136111219
 31
0.0
100
AcDbText
 73
     2
  0
TEXT
  5
BF564
330
18
100
AcDbEntity
  8
文字
100
AcDbText
 10
5597.096746777332
 20
-1462.365260017184
 30
0.0
 40
1.8
  1
EN60034
 50
90.0
  7
MS\U+FF7A\U+FF9E\U+FF7C\U+FF6F\U+FF78
 11
5596.196746777333
 21
-1462.365260017184
 31
0.0
100
AcDbText
 73
     2
  0
LINE
  5
BF565
330
18
100
AcDbEntity
  8
文字
100
AcDbLine
 10
5597.567628651255
 20
-1451.737519332517
 30
0.0
 11
5597.567628651255
 21
-1491.737519332517
 31
0.0
  0
LINE
  5
BF566
330
18
100
AcDbEntity
  8
文字
100
AcDbLine
 10
5597.567628651255
 20
-1491.737519332517
 30
0.0
 11
5581.567628651254
 21
-1491.737519332517
 31
0.0
  0
LINE
  5
BF567
330
18
100
AcDbEntity
  8
文字
100
AcDbLine
 10
5584.567628651254
 20
-1410.737519332517
 30
0.0
 11
5596.567628651256
 21
-1410.737519332517
 31
0.0
  0
VIEWPORT
  5
BF3A7
102
{ACAD_XDICTIONARY
360
BF6B3
102
}
330
BF3A3
100
AcDbEntity
 67
     1
  8
0
100
AcDbViewport
 10
5.994278488757156
 20
3.500270615554786
 30
0.0
 40
8.450454326774208
 41
5.416957901778338
 68
     1
 69
     1
 12
5.994278488757156
 22
3.500270615554786
 13
0.0
 23
0.0
 14
0.5
 24
0.5
 15
0.0
 25
0.0
 16
0.0
 26
0.0
 36
1.0
 17
0.0
 27
0.0
 37
0.0
 42
50.0
 43
0.0
 44
0.0
 45
5.416957901778338
 50
0.0
 51
0.0
 72
   100
 90
   557152
  1

281
     0
 71
     1
 74
     0
110
0.0
120
0.0
130
0.0
111
1.0
121
0.0
131
0.0
112
0.0
122
1.0
132
0.0
 79
     0
146
0.0
  0
VIEWPORT
  5
BF3A8
102
{ACAD_XDICTIONARY
360
BF3A9
102
}
330
BF3A3
100
AcDbEntity
 67
     1
  8
0
100
AcDbViewport
 10
5.25
 20
3.5
 30
0.0
 40
8.4
 41
5.6
 68
     2
 69
     2
 12
5540.060230770928
 22
-1530.418844690319
 13
0.0
 23
0.0
 14
0.5
 24
0.5
 15
0.0
 25
0.0
 16
0.0
 26
0.0
 36
1.0
 17
0.0
 27
0.0
 37
0.0
 42
50.0
 43
0.0
 44
0.0
 45
484.789325317909
 50
0.0
 51
0.0
 72
   100
341
E
 90
   557152
  1

281
     0
 71
     1
 74
     0
110
0.0
120
0.0
130
0.0
111
1.0
121
0.0
131
0.0
112
0.0
122
1.0
132
0.0
 79
     0
146
0.0
  0
ENDSEC
  0
SECTION
  2
OBJECTS
  0
DICTIONARY
  5
C
330
0
100
AcDbDictionary
281
     1
  3
ACAD_2007HEADERVARS_RT
350
BF678
  3
ACAD_CIP_PREVIOUS_PRODUCT_INFO
350
A2AF1
  3
ACAD_COLOR
350
BF3B1
  3
ACAD_DETAILVIEWSTYLE
350
BF31E
  3
ACAD_GROUP
350
D
  3
ACAD_IMAGE_VARS
350
A2EA9
  3
ACAD_LAYOUT
350
73F
  3
ACAD_MATERIAL
350
BF351
  3
ACAD_MLEADERSTYLE
350
BF357
  3
ACAD_MLINESTYLE
350
1B
  3
ACAD_PLOTSETTINGS
350
740
  3
ACAD_PLOTSTYLENAME
350
73D
  3
ACAD_SCALELIST
350
A2AD3
  3
ACAD_SECTIONVIEWSTYLE
350
BF31F
  3
ACAD_TABLESTYLE
350
BF355
  3
ACAD_VISUALSTYLE
350
BF338
  3
AcadDim
350
A8E9B
  3
ACDB_RECOMPOSE_DATA
350
BF676
  3
AcDbVariableDictionary
350
11AC
  3
APPDATA
350
A2EA7
  3
DWGPROPS
350
BF677
  3
FX_DICT_DIMENSION_PALETTE
350
B04A0
  0
DICTIONARY
  5
BF3CA
330
8
100
AcDbDictionary
280
     1
281
     1
  0
DICTIONARY
  5
1E591
330
2
100
AcDbDictionary
280
     1
281
     1
  3
ACAD_LAYERSTATES
360
1E615
  3
ACLYDICTIONARY
360
BF3AD
  0
DICTIONARY
  5
A2CED
330
E
100
AcDbDictionary
280
     1
281
     1
  3
ADSK_XREC_LAYER_RECONCILED
360
A2CEE
  0
DICTIONARY
  5
A2CF5
330
8C6
100
AcDbDictionary
280
     1
281
     1
  3
ADSK_XREC_LAYER_RECONCILED
360
A2CF6
  0
DICTIONARY
  5
A2CFD
330
1521
100
AcDbDictionary
280
     1
281
     1
  3
ADSK_XREC_LAYER_RECONCILED
360
A2CFE
  0
DICTIONARY
  5
A2D01
330
1523
100
AcDbDictionary
280
     1
281
     1
  3
ADSK_XREC_LAYER_RECONCILED
360
A2D02
  0
DICTIONARY
  5
A2D09
330
7EA59
100
AcDbDictionary
280
     1
281
     1
  3
ADSK_XREC_LAYER_RECONCILED
360
A2D0A
  0
DICTIONARY
  5
A2D33
330
89319
100
AcDbDictionary
280
     1
281
     1
  3
ADSK_XREC_LAYER_RECONCILED
360
A2D34
  0
DICTIONARY
  5
A2EBE
330
A2EBD
100
AcDbDictionary
280
     1
281
     1
  3
ADSK_XREC_LAYER_RECONCILED
360
A2EBF
  0
DICTIONARY
  5
BF6B3
330
BF3A7
100
AcDbDictionary
280
     1
281
     1
  3
ACAD_XREC_ROUNDTRIP
360
BF6B4
  0
DICTIONARY
  5
BF3A9
330
BF3A8
100
AcDbDictionary
280
     1
281
     1
  3
ACAD_XREC_ROUNDTRIP
360
BF6B5
  3
ASDK_XREC_ANNOTATION_SCALE_INFO
360
BF3AA
  0
DICTIONARY
  5
BF678
102
{ACAD_REACTORS
330
C
102
}
330
C
100
AcDbDictionary
281
     1
  3
INTERFERECOLOR
350
BF679
  0
XRECORD
  5
A2AF1
102
{ACAD_REACTORS
330
C
102
}
330
C
100
AcDbXrecord
280
     1
300
ACDLT
300
2019
300
87085ACDLT_2019_0F
  0
DICTIONARY
  5
BF3B1
102
{ACAD_REACTORS
330
C
102
}
330
C
100
AcDbDictionary
281
     1
  0
DICTIONARY
  5
BF31E
102
{ACAD_REACTORS
330
C
102
}
330
C
100
AcDbDictionary
281
     1
  3
Imperial24
350
BF3B3
  0
DICTIONARY
  5
D
102
{ACAD_REACTORS
330
C
102
}
330
C
100
AcDbDictionary
281
     1
  0
RASTERVARIABLES
  5
A2EA9
102
{ACAD_REACTORS
330
C
102
}
330
C
100
AcDbRasterVariables
 90
        0
 70
     1
 71
     1
 72
     0
  0
DICTIONARY
  5
73F
102
{ACAD_REACTORS
330
C
102
}
330
C
100
AcDbDictionary
281
     1
  3
Model
350
741
  3
Sheet1
350
BF3A4
  0
DICTIONARY
  5
BF351
102
{ACAD_REACTORS
330
C
102
}
330
C
100
AcDbDictionary
281
     1
  3
ByBlock
350
BF3AE
  3
ByLayer
350
BF352
  3
Global
350
BF354
  0
DICTIONARY
  5
BF357
102
{ACAD_REACTORS
330
C
102
}
330
C
100
AcDbDictionary
281
     1
  3
Standard
350
BF358
  0
DICTIONARY
  5
1B
102
{ACAD_REACTORS
330
C
102
}
330
C
100
AcDbDictionary
281
     1
  3
STANDARD
350
1C
  0
DICTIONARY
  5
740
102
{ACAD_REACTORS
330
C
102
}
330
C
100
AcDbDictionary
281
     1
  0
ACDBDICTIONARYWDFLT
  5
73D
102
{ACAD_REACTORS
330
C
102
}
330
C
100
AcDbDictionary
281
     1
  3
Normal
350
73E
100
AcDbDictionaryWithDefault
340
73E
  0
DICTIONARY
  5
A2AD3
102
{ACAD_REACTORS
330
C
102
}
330
C
100
AcDbDictionary
281
     1
  3
A0
350
A2AD4
  3
A1
350
A2AD5
  3
A2
350
A2AD6
  3
A3
350
A2AD7
  3
A4
350
A2AD8
  3
A5
350
A2AD9
  3
A6
350
A2ADA
  3
A7
350
A2ADB
  3
A8
350
A2ADC
  3
A9
350
A2ADD
  3
B0
350
A2ADE
  3
B1
350
A2ADF
  3
B2
350
A2AE0
  3
B3
350
A2AE1
  3
B4
350
A2AE2
  3
B5
350
A2AE3
  3
B6
350
A2AE4
  0
DICTIONARY
  5
BF31F
102
{ACAD_REACTORS
330
C
102
}
330
C
100
AcDbDictionary
281
     1
  3
Imperial24
350
BF3B2
  0
DICTIONARY
  5
BF355
102
{ACAD_REACTORS
330
C
102
}
330
C
100
AcDbDictionary
281
     1
  3
Standard
350
BF356
  0
DICTIONARY
  5
BF338
102
{ACAD_REACTORS
330
C
102
}
330
C
100
AcDbDictionary
281
     1
  3
2dWireframe
350
BF33D
  3
Basic
350
BF340
  3
Brighten
350
BF344
  3
ColorChange
350
BF348
  3
Conceptual
350
BF342
  3
Dim
350
BF343
  3
EdgeColorOff
350
BF34B
  3
Facepattern
350
BF347
  3
Flat
350
BF339
  3
FlatWithEdges
350
BF33A
  3
Gouraud
350
BF33B
  3
GouraudWithEdges
350
BF33C
  3
Hidden
350
BF33F
  3
JitterOff
350
BF349
  3
Linepattern
350
BF346
  3
OverhangOff
350
BF34A
  3
Realistic
350
BF341
  3
Shaded
350
BF350
  3
Shaded with edges
350
BF34F
  3
Shades of Gray
350
BF34C
  3
Sketchy
350
BF34D
  3
Thicken
350
BF345
  3
Wireframe
350
BF33E
  3
X-Ray
350
BF34E
  0
XRECORD
  5
A8E9B
102
{ACAD_REACTORS
330
C
102
}
330
C
100
AcDbXrecord
280
     1
340
0
 72
     0
 71
     0
 70
     0
 69
     0
 68
     1
 67
     3
 66
     0
 65
     0
 64
     1
 63
     5
 62
     5
 61
     0
 60
     0
 40
0.0
  0
XRECORD
  5
BF676
102
{ACAD_REACTORS
330
C
102
}
330
C
100
AcDbXrecord
280
     1
 90
        1
330
BF356
  0
DICTIONARY
  5
11AC
102
{ACAD_REACTORS
330
C
102
}
330
C
100
AcDbDictionary
281
     1
  3
CANNOSCALE
350
BF360
  3
CMLEADERSTYLE
350
BF35D
  3
CTABLESTYLE
350
BF35C
  3
CVIEWDETAILSTYLE
350
BF40E
  3
CVIEWSECTIONSTYLE
350
BF40F
  3
DGNFRAME
350
BF414
  3
DIMASSOC
350
11AD
  3
HIDETEXT
350
BF413
  3
HPTRANSPARENCY
350
A6C00
  3
INDEXCTL
350
A2D8B
  3
LAYEREVAL
350
BF411
  3
LAYERNOTIFY
350
BF412
  3
LIGHTINGUNITS
350
BF410
  3
LOFTANG1
350
BF672
  3
LOFTANG2
350
BF673
  3
MSLTSCALE
350
BF35E
  3
SORTENTS
350
AD08
  3
XCLIPFRAME
350
BF674
  0
DICTIONARY
  5
A2EA7
102
{ACAD_REACTORS
330
C
102
}
330
C
100
AcDbDictionary
281
     1
  0
XRECORD
  5
BF677
102
{ACAD_REACTORS
330
C
102
}
330
C
100
AcDbXrecord
280
     1
  1
DWGPROPS COOKIE
  2

  3

  4

  6

  7

  8
NI0949
  9

300
=
301
=
302
=
303
=
304
=
305
=
306
=
307
=
308
=
309
=
 40
16.04370011574074
 41
2452479.723113426
 42
2458554.388182871
  1

 90
        0
  0
DICTIONARY
  5
B04A0
102
{ACAD_REACTORS
330
C
102
}
330
C
100
AcDbDictionary
281
     1
  0
DICTIONARY
  5
1E615
102
{ACAD_REACTORS
330
1E591
102
}
330
1E591
100
AcDbDictionary
281
     1
  3
ARGON_LAYERP_3
350
B8768
  0
DICTIONARY
  5
BF3AD
102
{ACAD_REACTORS
330
1E591
102
}
330
1E591
100
AcDbDictionary
281
     1
1001
ACAD
1000
<All
  0
XRECORD
  5
A2CEE
102
{ACAD_REACTORS
330
A2CED
102
}
330
A2CED
100
AcDbXrecord
280
     1
290
     1
  0
XRECORD
  5
A2CF6
102
{ACAD_REACTORS
330
A2CF5
102
}
330
A2CF5
100
AcDbXrecord
280
     1
290
     1
  0
XRECORD
  5
A2CFE
102
{ACAD_REACTORS
330
A2CFD
102
}
330
A2CFD
100
AcDbXrecord
280
     1
290
     1
  0
XRECORD
  5
A2D02
102
{ACAD_REACTORS
330
A2D01
102
}
330
A2D01
100
AcDbXrecord
280
     1
290
     1
  0
XRECORD
  5
A2D0A
102
{ACAD_REACTORS
330
A2D09
102
}
330
A2D09
100
AcDbXrecord
280
     1
290
     1
  0
XRECORD
  5
A2D34
102
{ACAD_REACTORS
330
A2D33
102
}
330
A2D33
100
AcDbXrecord
280
     1
290
     1
  0
XRECORD
  5
A2EBF
102
{ACAD_REACTORS
330
A2EBE
102
}
330
A2EBE
100
AcDbXrecord
280
     1
290
     1
  0
XRECORD
  5
BF6B4
102
{ACAD_REACTORS
330
BF6B3
102
}
330
BF6B3
100
AcDbXrecord
280
     1
102
SHADEPLOT
 70
     0
  0
XRECORD
  5
BF6B5
102
{ACAD_REACTORS
330
BF3A9
102
}
330
BF3A9
100
AcDbXrecord
280
     1
102
SHADEPLOT
 70
     0
  0
XRECORD
  5
BF3AA
102
{ACAD_REACTORS
330
BF3A9
102
}
330
BF3A9
100
AcDbXrecord
280
     1
 90
        1
340
A2AD4
  0
XRECORD
  5
BF679
102
{ACAD_REACTORS
330
BF678
102
}
330
BF678
100
AcDbXrecord
280
     1
1004
1800000001000000000000C0000000000000000000000000
  0
ACDBDETAILVIEWSTYLE
  5
BF3B3
102
{ACAD_XDICTIONARY
360
BF6BA
102
}
102
{ACAD_REACTORS
330
BF31E
102
}
330
BF31E
100
AcDbModelDocViewStyle
 70
     0
  3
Imperial24
290
     0
100
AcDbDetailViewStyle
 70
     0
 71
     0
 90
        3
 71
     1
340
F
 40
0.24
340
0
 40
0.24
300

 40
0.36
280
     3
 71
     2
340
14
 90
       25
 71
     3
340
F
 40
0.24
 90
        1
 40
0.75
 90
        1
300
%<\AcVar ViewType \f "%tc1">% %<\AcVar ViewDetailId>%\PSCALE %<\AcVar ViewScale \f "%sn">%
 71
     4
340
14
 90
       25
340
14
 90
       25
280
     0
  0
LAYOUT
  5
741
102
{ACAD_XDICTIONARY
360
BF67A
102
}
102
{ACAD_REACTORS
330
73F
102
}
330
73F
100
AcDbPlotSettings
  1

  2
HP DesignJet 750C (D/A1) Color
  4
ANSI_A_(11.00_x_8.50_Inches)
  6

 40
6.349999999999999
 41
19.05
 42
6.349999999999999
 43
19.05
 44
279.4
 45
215.9
 46
0.0
 47
0.0
 48
0.0
 49
0.0
140
0.0
141
0.0
142
1.0
143
131.0153896462917
 70
 11952
 72
     0
 73
     0
 74
     0
  7
monochrome.ctb
 75
     0
147
0.0076326911113248
148
-129073.9064414952
149
50474.93667297666
100
AcDbLayout
  1
Model
 70
     1
 71
     0
 10
0.0
 20
0.0
 11
12.0
 21
9.0
 12
0.0
 22
0.0
 32
0.0
 14
5183.597491566583
 24
-1732.60017004812
 34
0.0
 15
5896.522969975272
 25
-1328.237519332518
 35
0.0
146
0.0
 13
0.0
 23
0.0
 33
0.0
 16
1.0
 26
0.0
 36
0.0
 17
0.0
 27
1.0
 37
0.0
 76
     0
330
18
  0
LAYOUT
  5
BF3A4
102
{ACAD_XDICTIONARY
360
BF6B1
102
}
102
{ACAD_REACTORS
330
73F
102
}
330
73F
100
AcDbPlotSettings
  1

  2
none_device
  4
ANSI_A_(11.00_x_8.50_Inches)
  6

 40
6.349999999999999
 41
19.05
 42
6.349999999999999
 43
19.05
 44
279.4
 45
215.9
 46
0.0
 47
0.0
 48
0.0
 49
0.0
140
0.0
141
0.0
142
1.0
143
1.0
 70
   688
 72
     0
 73
     0
 74
     5
  7

 75
    16
147
1.0
148
0.0
149
0.0
100
AcDbLayout
  1
Sheet1
 70
     1
 71
     1
 10
0.0
 20
0.0
 11
0.0
 21
0.0
 12
0.0
 22
0.0
 32
0.0
 14
1.049999999999999
 24
0.6999999999999998
 34
0.0
 15
9.449999999999999
 25
6.3
 35
0.0
146
0.0
 13
0.0
 23
0.0
 33
0.0
 16
1.0
 26
0.0
 36
0.0
 17
0.0
 27
1.0
 37
0.0
 76
     0
330
BF3A3
331
BF3A7
  0
MATERIAL
  5
BF3AE
102
{ACAD_XDICTIONARY
360
BF6B6
102
}
102
{ACAD_REACTORS
330
BF351
102
}
330
BF351
100
AcDbMaterial
  1
ByBlock
 73
     1
 78
     1
172
     1
176
     1
270
     1
274
     1
  0
MATERIAL
  5
BF352
102
{ACAD_XDICTIONARY
360
BF6AC
102
}
102
{ACAD_REACTORS
330
BF351
102
}
330
BF351
100
AcDbMaterial
  1
ByLayer
 73
     1
 78
     1
172
     1
176
     1
270
     1
274
     1
  0
MATERIAL
  5
BF354
102
{ACAD_XDICTIONARY
360
BF6AE
102
}
102
{ACAD_REACTORS
330
BF351
102
}
330
BF351
100
AcDbMaterial
  1
Global
 73
     1
 78
     1
172
     1
176
     1
270
     1
274
     1
  0
MLEADERSTYLE
  5
BF358
102
{ACAD_REACTORS
330
BF357
102
}
330
BF357
100
AcDbMLeaderStyle
170
     2
171
     1
172
     0
 90
        2
 40
0.0
 41
0.0
173
     1
 91
-1056964608
340
12
 92
       -2
290
     1
 42
0.09
291
     1
 43
0.36
  3
Standard
 44
0.18
300

342
F
174
     1
178
     6
175
     1
176
     0
 93
-1056964608
 45
0.18
292
     0
297
     0
 46
0.18
 94
-1056964608
 47
1.0
 49
1.0
140
1.0
293
     1
141
0.0
294
     1
177
     0
142
1.0
295
     0
296
     0
143
0.125
1001
ACAD_MLEADERVER
1070
     2
  0
MLINESTYLE
  5
1C
102
{ACAD_REACTORS
330
1B
102
}
330
1B
100
AcDbMlineStyle
  2
STANDARD
 70
     0
  3

 62
   256
 51
90.0
 52
90.0
 71
     2
 49
0.5
 62
   256
  6
BYLAYER
 49
-0.5
 62
   256
  6
BYLAYER
  0
ACDBPLACEHOLDER
  5
73E
102
{ACAD_REACTORS
330
73D
102
}
330
73D
  0
SCALE
  5
A2AD4
102
{ACAD_REACTORS
330
A2AD3
102
}
330
A2AD3
100
AcDbScale
 70
     0
300
1:1
140
1.0
141
1.0
290
     1
  0
SCALE
  5
A2AD5
102
{ACAD_REACTORS
330
A2AD3
102
}
330
A2AD3
100
AcDbScale
 70
     0
300
1/128" = 1'-0"
140
0.0078125
141
12.0
290
     0
  0
SCALE
  5
A2AD6
102
{ACAD_REACTORS
330
A2AD3
102
}
330
A2AD3
100
AcDbScale
 70
     0
300
1/64" = 1'-0"
140
0.015625
141
12.0
290
     0
  0
SCALE
  5
A2AD7
102
{ACAD_REACTORS
330
A2AD3
102
}
330
A2AD3
100
AcDbScale
 70
     0
300
1/32" = 1'-0"
140
0.03125
141
12.0
290
     0
  0
SCALE
  5
A2AD8
102
{ACAD_REACTORS
330
A2AD3
102
}
330
A2AD3
100
AcDbScale
 70
     0
300
1/16" = 1'-0"
140
0.0625
141
12.0
290
     0
  0
SCALE
  5
A2AD9
102
{ACAD_REACTORS
330
A2AD3
102
}
330
A2AD3
100
AcDbScale
 70
     0
300
3/32" = 1'-0"
140
0.09375
141
12.0
290
     0
  0
SCALE
  5
A2ADA
102
{ACAD_REACTORS
330
A2AD3
102
}
330
A2AD3
100
AcDbScale
 70
     0
300
1/8" = 1'-0"
140
0.125
141
12.0
290
     0
  0
SCALE
  5
A2ADB
102
{ACAD_REACTORS
330
A2AD3
102
}
330
A2AD3
100
AcDbScale
 70
     0
300
3/16" = 1'-0"
140
0.1875
141
12.0
290
     0
  0
SCALE
  5
A2ADC
102
{ACAD_REACTORS
330
A2AD3
102
}
330
A2AD3
100
AcDbScale
 70
     0
300
1/4" = 1'-0"
140
0.25
141
12.0
290
     0
  0
SCALE
  5
A2ADD
102
{ACAD_REACTORS
330
A2AD3
102
}
330
A2AD3
100
AcDbScale
 70
     0
300
3/8" = 1'-0"
140
0.375
141
12.0
290
     0
  0
SCALE
  5
A2ADE
102
{ACAD_REACTORS
330
A2AD3
102
}
330
A2AD3
100
AcDbScale
 70
     0
300
1/2" = 1'-0"
140
0.5
141
12.0
290
     0
  0
SCALE
  5
A2ADF
102
{ACAD_REACTORS
330
A2AD3
102
}
330
A2AD3
100
AcDbScale
 70
     0
300
3/4" = 1'-0"
140
0.75
141
12.0
290
     0
  0
SCALE
  5
A2AE0
102
{ACAD_REACTORS
330
A2AD3
102
}
330
A2AD3
100
AcDbScale
 70
     0
300
1" = 1'-0"
140
1.0
141
12.0
290
     0
  0
SCALE
  5
A2AE1
102
{ACAD_REACTORS
330
A2AD3
102
}
330
A2AD3
100
AcDbScale
 70
     0
300
1-1/2" = 1'-0"
140
1.5
141
12.0
290
     0
  0
SCALE
  5
A2AE2
102
{ACAD_REACTORS
330
A2AD3
102
}
330
A2AD3
100
AcDbScale
 70
     0
300
3" = 1'-0"
140
3.0
141
12.0
290
     0
  0
SCALE
  5
A2AE3
102
{ACAD_REACTORS
330
A2AD3
102
}
330
A2AD3
100
AcDbScale
 70
     0
300
6" = 1'-0"
140
6.0
141
12.0
290
     0
  0
SCALE
  5
A2AE4
102
{ACAD_REACTORS
330
A2AD3
102
}
330
A2AD3
100
AcDbScale
 70
     0
300
1'-0" = 1'-0"
140
12.0
141
12.0
290
     0
  0
ACDBSECTIONVIEWSTYLE
  5
BF3B2
102
{ACAD_XDICTIONARY
360
BF6B8
102
}
102
{ACAD_REACTORS
330
BF31F
102
}
330
BF31F
100
AcDbModelDocViewStyle
 70
     0
  3
Imperial24
290
     0
100
AcDbSectionViewStyle
 70
     0
 71
     0
 90
       78
 71
     1
340
F
 40
0.24
340
0
340
0
 40
0.24
300
I, O, Q, S, X, Z
 40
0.48
 90
        3
 40
0.18
 90
        1
 71
     2
340
14
 90
       25
340
14
 90
       50
 40
0.24
 40
0.0
 40
0.24
 71
     3
340
F
 40
0.24
 90
        1
 40
0.75
 90
        1
300
%<\AcVar ViewType \f "%tc1">% %<\AcVar ViewSectionStartId>%-%<\AcVar ViewSectionEndId>%\PSCALE %<\AcVar ViewScale \f "%sn">%
 71
     4
300
ANSI31
 40
1.0
 90
        0
290
     0
290
     0
 90
        6
 40
0.0
 40
1.570796326794896
 40
0.2617993877991494
 40
1.308996938995747
 40
-0.2617993877991494
 40
1.832595714594046
  0
TABLESTYLE
  5
BF356
102
{ACAD_XDICTIONARY
360
BF3BB
102
}
102
{ACAD_REACTORS
330
BF355
102
}
330
BF355
100
AcDbTableStyle
  3
Standard
 70
     0
 71
     0
 40
0.06
 41
0.06
280
     0
281
     0
  7
STANDARD
140
0.18
170
     2
 62
     0
 63
     7
283
     0
274
    -2
284
     1
 64
     0
275
    -2
285
     1
 65
     0
276
    -2
286
     1
 66
     0
277
    -2
287
     1
 67
     0
278
    -2
288
     1
 68
     0
279
    -2
289
     1
 69
     0
  7
STANDARD
140
0.25
170
     5
 62
     0
 63
     7
283
     0
274
    -2
284
     1
 64
     0
275
    -2
285
     1
 65
     0
276
    -2
286
     1
 66
     0
277
    -2
287
     1
 67
     0
278
    -2
288
     1
 68
     0
279
    -2
289
     1
 69
     0
  7
STANDARD
140
0.18
170
     5
 62
     0
 63
     7
283
     0
274
    -2
284
     1
 64
     0
275
    -2
285
     1
 65
     0
276
    -2
286
     1
 66
     0
277
    -2
287
     1
 67
     0
278
    -2
288
     1
 68
     0
279
    -2
289
     1
 69
     0
  0
VISUALSTYLE
  5
BF33D
102
{ACAD_XDICTIONARY
360
BF684
102
}
102
{ACAD_REACTORS
330
BF338
102
}
330
BF338
100
AcDbVisualStyle
  2
2dWireframe
 70
     4
 71
     0
 72
     2
 73
     0
 90
        0
 40
-0.6
 41
-30.0
 62
     5
 63
     7
 74
     1
 91
        4
 64
     7
 65
   257
 75
     1
175
     1
 42
1.0
 92
        0
 66
   257
 43
1.0
 76
     1
 77
     6
 78
     2
 67
     7
 79
     5
170
     0
171
     0
290
     0
174
     0
 93
        1
 44
0.0
173
     0
291
     0
 45
0.0
1001
ACAD
1000
AcDbSavedByObjectVersion
1070
     0
  0
VISUALSTYLE
  5
BF340
102
{ACAD_XDICTIONARY
360
BF68A
102
}
102
{ACAD_REACTORS
330
BF338
102
}
330
BF338
100
AcDbVisualStyle
  2
Basic
 70
     7
 71
     1
 72
     0
 73
     1
 90
        0
 40
-0.6
 41
-30.0
 62
     5
 63
     7
 74
     0
 91
        4
 64
     7
 65
   257
 75
     1
175
     1
 42
1.0
 92
        8
 66
     7
 43
1.0
 76
     1
 77
     6
 78
     2
 67
     7
 79
     5
170
     0
171
     0
290
     0
174
     0
 93
        1
 44
0.0
173
     0
291
     1
 45
0.0
1001
ACAD
1000
AcDbSavedByObjectVersion
1070
     0
  0
VISUALSTYLE
  5
BF344
102
{ACAD_XDICTIONARY
360
BF692
102
}
102
{ACAD_REACTORS
330
BF338
102
}
330
BF338
100
AcDbVisualStyle
  2
Brighten
 70
    12
 71
     2
 72
     2
 73
     0
 90
        0
 40
-0.6
 41
-30.0
 62
     5
 63
     7
 74
     1
 91
        4
 64
     7
 65
   257
 75
     1
175
     1
 42
1.0
 92
        8
 66
     7
 43
1.0
 76
     1
 77
     6
 78
     2
 67
     7
 79
     5
170
     0
171
     0
290
     0
174
     0
 93
        1
 44
50.0
173
     0
291
     1
 45
0.0
1001
ACAD
1000
AcDbSavedByObjectVersion
1070
     0
  0
VISUALSTYLE
  5
BF348
102
{ACAD_XDICTIONARY
360
BF69A
102
}
102
{ACAD_REACTORS
330
BF338
102
}
330
BF338
100
AcDbVisualStyle
  2
ColorChange
 70
    16
 71
     2
 72
     2
 73
     3
 90
        0
 40
-0.6
 41
-30.0
 62
     5
 63
     8
 74
     1
 91
        4
 64
     7
 65
   257
 75
     1
175
     1
 42
1.0
 92
        8
 66
     8
 43
1.0
 76
     1
 77
     6
 78
     2
 67
     7
 79
     5
170
     0
171
     0
290
     0
174
     0
 93
        1
 44
0.0
173
     0
291
     1
 45
0.0
1001
ACAD
1000
AcDbSavedByObjectVersion
1070
     0
  0
VISUALSTYLE
  5
BF342
102
{ACAD_XDICTIONARY
360
BF68E
102
}
102
{ACAD_REACTORS
330
BF338
102
}
330
BF338
100
AcDbVisualStyle
  2
Conceptual
 70
     9
 71
     3
 72
     2
 73
     0
 90
        0
 40
-0.6
 41
-30.0
 62
     5
 63
     7
 74
     2
 91
        2
 64
     7
 65
   257
 75
     1
175
     1
 42
179.0
 92
        8
 66
     7
 43
1.0
 76
     1
 77
     6
 78
     2
 67
     7
 79
     3
170
     0
171
     0
290
     0
174
     0
 93
        1
 44
0.0
173
     0
291
     0
 45
0.0
1001
ACAD
1000
AcDbSavedByObjectVersion
1070
     0
  0
VISUALSTYLE
  5
BF343
102
{ACAD_XDICTIONARY
360
BF690
102
}
102
{ACAD_REACTORS
330
BF338
102
}
330
BF338
100
AcDbVisualStyle
  2
Dim
 70
    11
 71
     2
 72
     2
 73
     0
 90
        0
 40
-0.6
 41
-30.0
 62
     5
 63
     7
 74
     1
 91
        4
 64
     7
 65
   257
 75
     1
175
     1
 42
1.0
 92
        8
 66
     7
 43
1.0
 76
     1
 77
     6
 78
     2
 67
     7
 79
     5
170
     0
171
     0
290
     0
174
     0
 93
        1
 44
-50.0
173
     0
291
     1
 45
0.0
1001
ACAD
1000
AcDbSavedByObjectVersion
1070
     0
  0
VISUALSTYLE
  5
BF34B
102
{ACAD_XDICTIONARY
360
BF6A0
102
}
102
{ACAD_REACTORS
330
BF338
102
}
330
BF338
100
AcDbVisualStyle
  2
EdgeColorOff
 70
    22
 71
     2
 72
     2
 73
     0
 90
        0
 40
-0.6
 41
-30.0
 62
     5
 63
     7
 74
     1
 91
        4
 64
     7
 65
   257
 75
     1
175
     1
 42
1.0
 92
        8
 66
     7
 43
1.0
 76
     1
 77
     6
 78
     2
 67
     7
 79
     5
170
     0
171
     0
290
     0
174
     0
 93
        1
 44
0.0
173
     0
291
     1
 45
0.0
1001
ACAD
1000
AcDbSavedByObjectVersion
1070
     0
  0
VISUALSTYLE
  5
BF347
102
{ACAD_XDICTIONARY
360
BF698
102
}
102
{ACAD_REACTORS
330
BF338
102
}
330
BF338
100
AcDbVisualStyle
  2
Facepattern
 70
    15
 71
     2
 72
     2
 73
     0
 90
        0
 40
-0.6
 41
-30.0
 62
     5
 63
     7
 74
     1
 91
        4
 64
     7
 65
   257
 75
     1
175
     1
 42
1.0
 92
        8
 66
     7
 43
1.0
 76
     1
 77
     6
 78
     2
 67
     7
 79
     5
170
     0
171
     0
290
     0
174
     0
 93
        1
 44
0.0
173
     0
291
     1
 45
0.0
1001
ACAD
1000
AcDbSavedByObjectVersion
1070
     0
  0
VISUALSTYLE
  5
BF339
102
{ACAD_XDICTIONARY
360
BF67C
102
}
102
{ACAD_REACTORS
330
BF338
102
}
330
BF338
100
AcDbVisualStyle
  2
Flat
 70
     0
 71
     2
 72
     1
 73
     1
 90
        2
 40
-0.6
 41
30.0
 62
     5
 63
     7
 74
     0
 91
        0
 64
     7
 65
   257
 75
     1
175
     1
 42
1.0
 92
        8
 66
     7
 43
1.0
 76
     1
 77
     6
 78
     2
 67
     7
 79
     5
170
     0
171
     0
290
     0
174
     0
 93
       13
 44
0.0
173
     0
291
     1
 45
0.0
1001
ACAD
1000
AcDbSavedByObjectVersion
1070
     0
  0
VISUALSTYLE
  5
BF33A
102
{ACAD_XDICTIONARY
360
BF67E
102
}
102
{ACAD_REACTORS
330
BF338
102
}
330
BF338
100
AcDbVisualStyle
  2
FlatWithEdges
 70
     1
 71
     2
 72
     1
 73
     1
 90
        2
 40
-0.6
 41
30.0
 62
     5
 63
     7
 74
     1
 91
        0
 64
     7
 65
   257
 75
     1
175
     1
 42
1.0
 92
        0
 66
   257
 43
1.0
 76
     1
 77
     6
 78
     2
 67
     7
 79
     5
170
     0
171
     0
290
     0
174
     0
 93
       13
 44
0.0
173
     0
291
     1
 45
0.0
1001
ACAD
1000
AcDbSavedByObjectVersion
1070
     0
  0
VISUALSTYLE
  5
BF33B
102
{ACAD_XDICTIONARY
360
BF680
102
}
102
{ACAD_REACTORS
330
BF338
102
}
330
BF338
100
AcDbVisualStyle
  2
Gouraud
 70
     2
 71
     2
 72
     2
 73
     1
 90
        2
 40
-0.6
 41
30.0
 62
     5
 63
     7
 74
     0
 91
        0
 64
     7
 65
   257
 75
     1
175
     1
 42
1.0
 92
        0
 66
     7
 43
1.0
 76
     1
 77
     6
 78
     2
 67
     7
 79
     5
170
     0
171
     0
290
     0
174
     0
 93
       13
 44
0.0
173
     0
291
     1
 45
0.0
1001
ACAD
1000
AcDbSavedByObjectVersion
1070
     0
  0
VISUALSTYLE
  5
BF33C
102
{ACAD_XDICTIONARY
360
BF682
102
}
102
{ACAD_REACTORS
330
BF338
102
}
330
BF338
100
AcDbVisualStyle
  2
GouraudWithEdges
 70
     3
 71
     2
 72
     2
 73
     1
 90
        2
 40
-0.6
 41
30.0
 62
     5
 63
     7
 74
     1
 91
        0
 64
     7
 65
   257
 75
     1
175
     1
 42
1.0
 92
        0
 66
   257
 43
1.0
 76
     1
 77
     6
 78
     2
 67
     7
 79
     5
170
     0
171
     0
290
     0
174
     0
 93
       13
 44
0.0
173
     0
291
     1
 45
0.0
1001
ACAD
1000
AcDbSavedByObjectVersion
1070
     0
  0
VISUALSTYLE
  5
BF33F
102
{ACAD_XDICTIONARY
360
BF688
102
}
102
{ACAD_REACTORS
330
BF338
102
}
330
BF338
100
AcDbVisualStyle
  2
Hidden
 70
     6
 71
     1
 72
     2
 73
     2
 90
        0
 40
-0.6
 41
-30.0
 62
     5
 63
     7
 74
     2
 91
        2
 64
     7
 65
   257
 75
     2
175
     1
 42
40.0
 92
        0
 66
   257
 43
1.0
 76
     1
 77
     6
 78
     2
 67
     7
 79
     3
170
     0
171
     0
290
     0
174
     0
 93
        1
 44
0.0
173
     0
291
     0
 45
0.0
1001
ACAD
1000
AcDbSavedByObjectVersion
1070
     0
  0
VISUALSTYLE
  5
BF349
102
{ACAD_XDICTIONARY
360
BF69C
102
}
102
{ACAD_REACTORS
330
BF338
102
}
330
BF338
100
AcDbVisualStyle
  2
JitterOff
 70
    20
 71
     2
 72
     2
 73
     0
 90
        0
 40
-0.6
 41
-30.0
 62
     5
 63
     7
 74
     1
 91
        4
 64
     7
 65
   257
 75
     1
175
     1
 42
1.0
 92
       10
 66
     7
 43
1.0
 76
     1
 77
     6
 78
     2
 67
     7
 79
     5
170
     0
171
     0
290
     0
174
     0
 93
        1
 44
0.0
173
     0
291
     1
 45
0.0
1001
ACAD
1000
AcDbSavedByObjectVersion
1070
     0
  0
VISUALSTYLE
  5
BF346
102
{ACAD_XDICTIONARY
360
BF696
102
}
102
{ACAD_REACTORS
330
BF338
102
}
330
BF338
100
AcDbVisualStyle
  2
Linepattern
 70
    14
 71
     2
 72
     2
 73
     0
 90
        0
 40
-0.6
 41
-30.0
 62
     5
 63
     7
 74
     1
 91
        4
 64
     7
 65
   257
 75
     7
175
     7
 42
1.0
 92
        8
 66
     7
 43
1.0
 76
     1
 77
     6
 78
     2
 67
     7
 79
     5
170
     0
171
     0
290
     0
174
     0
 93
        1
 44
0.0
173
     0
291
     1
 45
0.0
1001
ACAD
1000
AcDbSavedByObjectVersion
1070
     0
  0
VISUALSTYLE
  5
BF34A
102
{ACAD_XDICTIONARY
360
BF69E
102
}
102
{ACAD_REACTORS
330
BF338
102
}
330
BF338
100
AcDbVisualStyle
  2
OverhangOff
 70
    21
 71
     2
 72
     2
 73
     0
 90
        0
 40
-0.6
 41
-30.0
 62
     5
 63
     7
 74
     1
 91
        4
 64
     7
 65
   257
 75
     1
175
     1
 42
1.0
 92
        9
 66
     7
 43
1.0
 76
     1
 77
     6
 78
     2
 67
     7
 79
     5
170
     0
171
     0
290
     0
174
     0
 93
        1
 44
0.0
173
     0
291
     1
 45
0.0
1001
ACAD
1000
AcDbSavedByObjectVersion
1070
     0
  0
VISUALSTYLE
  5
BF341
102
{ACAD_XDICTIONARY
360
BF68C
102
}
102
{ACAD_REACTORS
330
BF338
102
}
330
BF338
100
AcDbVisualStyle
  2
Realistic
 70
     8
 71
     2
 72
     2
 73
     0
 90
        2
 40
-0.6
 41
30.0
 62
     5
 63
     7
 74
     0
 91
        0
 64
     7
 65
   257
 75
     1
175
     1
 42
1.0
 92
        8
 66
   257
 43
1.0
 76
     1
 77
     6
 78
     2
 67
     7
 79
     3
170
     0
171
     0
290
     0
174
     0
 93
       13
 44
0.0
173
     0
291
     0
 45
0.0
1001
ACAD
1000
AcDbSavedByObjectVersion
1070
     0
  0
VISUALSTYLE
  5
BF350
102
{ACAD_XDICTIONARY
360
BF6AA
102
}
102
{ACAD_REACTORS
330
BF338
102
}
330
BF338
100
AcDbVisualStyle
  2
Shaded
 70
    27
 71
     2
 72
     2
 73
     1
 90
        2
 40
-0.6
 41
30.0
 62
     5
 63
     7
 74
     0
 91
        4
 64
     7
 65
   257
 75
     1
175
     1
 42
1.0
 92
        8
 66
   257
 43
1.0
 76
     1
 77
     6
 78
     2
 67
     8
 79
     3
170
     0
171
     0
290
     0
174
     0
 93
        5
 44
0.0
173
     0
291
     0
 45
0.0
1001
ACAD
1000
AcDbSavedByObjectVersion
1070
     0
  0
VISUALSTYLE
  5
BF34F
102
{ACAD_XDICTIONARY
360
BF6A8
102
}
102
{ACAD_REACTORS
330
BF338
102
}
330
BF338
100
AcDbVisualStyle
  2
Shaded with edges
 70
    26
 71
     2
 72
     2
 73
     1
 90
        2
 40
-0.6
 41
30.0
 62
     5
 63
     7
 74
     1
 91
        2
 64
     7
 65
   257
 75
     2
175
     1
 42
1.0
 92
        8
 66
   257
 43
1.0
 76
     1
 77
     6
 78
     2
 67
     7
 79
     3
170
     0
171
     0
290
     0
174
     0
 93
        5
 44
0.0
173
     0
291
     0
 45
0.0
1001
ACAD
1000
AcDbSavedByObjectVersion
1070
     0
  0
VISUALSTYLE
  5
BF34C
102
{ACAD_XDICTIONARY
360
BF6A2
102
}
102
{ACAD_REACTORS
330
BF338
102
}
330
BF338
100
AcDbVisualStyle
  2
Shades of Gray
 70
    23
 71
     2
 72
     2
 73
     3
 90
        0
 40
-0.6
 41
-30.0
 62
     5
 63
     7
 74
     2
 91
        2
 64
     7
 65
     7
 75
     1
175
     1
 42
40.0
 92
        8
 66
     7
 43
1.0
 76
     1
 77
     6
 78
     2
 67
     7
 79
     3
170
     0
171
     0
290
     0
174
     0
 93
        1
 44
0.0
173
     0
291
     0
 45
0.0
1001
ACAD
1000
AcDbSavedByObjectVersion
1070
     0
  0
VISUALSTYLE
  5
BF34D
102
{ACAD_XDICTIONARY
360
BF6A4
102
}
102
{ACAD_REACTORS
330
BF338
102
}
330
BF338
100
AcDbVisualStyle
  2
Sketchy
 70
    24
 71
     1
 72
     2
 73
     2
 90
        0
 40
-0.6
 41
-30.0
 62
     5
 63
     7
 74
     2
 91
        2
 64
     7
 65
     7
 75
     1
175
     1
 42
40.0
 92
       11
 66
     7
 43
1.0
 76
     1
 77
     6
 78
     2
 67
     7
 79
     6
170
     0
171
     0
290
     0
174
     0
 93
        1
 44
0.0
173
     0
291
     0
 45
0.0
1001
ACAD
1000
AcDbSavedByObjectVersion
1070
     0
  0
VISUALSTYLE
  5
BF345
102
{ACAD_XDICTIONARY
360
BF694
102
}
102
{ACAD_REACTORS
330
BF338
102
}
330
BF338
100
AcDbVisualStyle
  2
Thicken
 70
    13
 71
     2
 72
     2
 73
     0
 90
        0
 40
-0.6
 41
-30.0
 62
     5
 63
     7
 74
     1
 91
        4
 64
     7
 65
   257
 75
     1
175
     1
 42
1.0
 92
       12
 66
     7
 43
1.0
 76
     1
 77
     6
 78
     2
 67
     7
 79
     5
170
     0
171
     0
290
     0
174
     0
 93
        1
 44
0.0
173
     0
291
     1
 45
0.0
1001
ACAD
1000
AcDbSavedByObjectVersion
1070
     0
  0
VISUALSTYLE
  5
BF33E
102
{ACAD_XDICTIONARY
360
BF686
102
}
102
{ACAD_REACTORS
330
BF338
102
}
330
BF338
100
AcDbVisualStyle
  2
Wireframe
 70
     5
 71
     0
 72
     2
 73
     0
 90
        0
 40
-0.6
 41
-30.0
 62
     5
 63
     7
 74
     1
 91
        4
 64
     7
 65
   257
 75
     1
175
     1
 42
1.0
 92
        0
 66
   257
 43
1.0
 76
     1
 77
     6
 78
     2
 67
     7
 79
     3
170
     0
171
     0
290
     0
174
     0
 93
        1
 44
0.0
173
     0
291
     0
 45
0.0
1001
ACAD
1000
AcDbSavedByObjectVersion
1070
     0
  0
VISUALSTYLE
  5
BF34E
102
{ACAD_XDICTIONARY
360
BF6A6
102
}
102
{ACAD_REACTORS
330
BF338
102
}
330
BF338
100
AcDbVisualStyle
  2
X-Ray
 70
    25
 71
     2
 72
     2
 73
     1
 90
        1
 40
0.5
 41
-30.0
 62
     5
 63
     7
 74
     1
 91
        0
 64
     7
 65
   257
 75
     1
175
     1
 42
1.0
 92
        8
 66
     7
 43
1.0
 76
     1
 77
     6
 78
     2
 67
     7
 79
     3
170
     0
171
     0
290
     0
174
     0
 93
       13
 44
0.0
173
     0
291
     0
 45
0.0
1001
ACAD
1000
AcDbSavedByObjectVersion
1070
     0
  0
DICTIONARYVAR
  5
BF360
102
{ACAD_REACTORS
330
11AC
102
}
330
11AC
100
DictionaryVariables
280
     0
  1
1:1
  0
DICTIONARYVAR
  5
BF35D
102
{ACAD_REACTORS
330
11AC
102
}
330
11AC
100
DictionaryVariables
280
     0
  1
STANDARD
  0
DICTIONARYVAR
  5
BF35C
102
{ACAD_REACTORS
330
11AC
102
}
330
11AC
100
DictionaryVariables
280
     0
  1
STANDARD
  0
DICTIONARYVAR
  5
BF40E
102
{ACAD_REACTORS
330
11AC
102
}
330
11AC
100
DictionaryVariables
280
     0
  1
Imperial24
  0
DICTIONARYVAR
  5
BF40F
102
{ACAD_REACTORS
330
11AC
102
}
330
11AC
100
DictionaryVariables
280
     0
  1
Imperial24
  0
DICTIONARYVAR
  5
BF414
102
{ACAD_REACTORS
330
11AC
102
}
330
11AC
100
DictionaryVariables
280
     0
  1
2
  0
DICTIONARYVAR
  5
11AD
102
{ACAD_REACTORS
330
11AC
102
}
330
11AC
100
DictionaryVariables
280
     0
  1
1
  0
DICTIONARYVAR
  5
BF413
102
{ACAD_REACTORS
330
11AC
102
}
330
11AC
100
DictionaryVariables
280
     0
  1
1
  0
DICTIONARYVAR
  5
A6C00
102
{ACAD_REACTORS
330
11AC
102
}
330
11AC
100
DictionaryVariables
280
     0
  1
ByLayer
  0
DICTIONARYVAR
  5
A2D8B
102
{ACAD_REACTORS
330
11AC
102
}
330
11AC
100
DictionaryVariables
280
     0
  1
0
  0
DICTIONARYVAR
  5
BF411
102
{ACAD_REACTORS
330
11AC
102
}
330
11AC
100
DictionaryVariables
280
     0
  1
0
  0
DICTIONARYVAR
  5
BF412
102
{ACAD_REACTORS
330
11AC
102
}
330
11AC
100
DictionaryVariables
280
     0
  1
0
  0
DICTIONARYVAR
  5
BF410
102
{ACAD_REACTORS
330
11AC
102
}
330
11AC
100
DictionaryVariables
280
     0
  1
2
  0
DICTIONARYVAR
  5
BF672
102
{ACAD_REACTORS
330
11AC
102
}
330
11AC
100
DictionaryVariables
280
     0
  1
1.570796
  0
DICTIONARYVAR
  5
BF673
102
{ACAD_REACTORS
330
11AC
102
}
330
11AC
100
DictionaryVariables
280
     0
  1
1.570796
  0
DICTIONARYVAR
  5
BF35E
102
{ACAD_REACTORS
330
11AC
102
}
330
11AC
100
DictionaryVariables
280
     0
  1
0
  0
DICTIONARYVAR
  5
AD08
102
{ACAD_REACTORS
330
11AC
102
}
330
11AC
100
DictionaryVariables
280
     0
  1
96
  0
DICTIONARYVAR
  5
BF674
102
{ACAD_REACTORS
330
11AC
102
}
330
11AC
100
DictionaryVariables
280
     0
  1
2
  0
XRECORD
  5
B8768
102
{ACAD_REACTORS
330
1E615
102
}
330
1E615
100
AcDbXrecord
280
     1
 91
    34815
301

290
     0
302
細線
330
E
 90
       24
 62
     7
370
    -3
331
14
  1
Color_7
440
 33554687
330
8C6
 90
        8
 62
    40
370
    20
331
14
  1
Color_40
440
 33554687
330
1521
 90
        8
 62
     3
370
    30
331
14
  1
Color_3
440
 33554687
330
1523
 90
        8
 62
     7
370
    13
331
14
  1
Color_7
440
 33554687
330
7EA59
 90
        8
 62
     4
370
    13
331
14
  1
Color_4
440
 33554687
330
89319
 90
        8
 62
     7
370
     5
331
14
  1
Color_7
440
 33554687
330
A2EBD
 90
        8
 62
     1
370
    13
331
8930E
  1
Color_1
440
 33554687
330
AC472
 90
        8
 62
     3
370
    30
331
14
  1
Color_3
440
 33554687
  0
DICTIONARY
  5
BF6BA
330
BF3B3
100
AcDbDictionary
280
     1
281
     1
  3
ACAD_XREC_ROUNDTRIP
360
BF6BB
  0
DICTIONARY
  5
BF67A
330
741
100
AcDbDictionary
280
     1
281
     1
  3
ACAD_XREC_ROUNDTRIP
360
BF67B
  0
DICTIONARY
  5
BF6B1
330
BF3A4
100
AcDbDictionary
280
     1
281
     1
  3
ACAD_XREC_ROUNDTRIP
360
BF6B2
  0
DICTIONARY
  5
BF6B6
330
BF3AE
100
AcDbDictionary
280
     1
281
     1
  3
ACAD_XREC_ROUNDTRIP
360
BF6B7
  0
DICTIONARY
  5
BF6AC
330
BF352
100
AcDbDictionary
280
     1
281
     1
  3
ACAD_XREC_ROUNDTRIP
360
BF6AD
  0
DICTIONARY
  5
BF6AE
330
BF354
100
AcDbDictionary
280
     1
281
     1
  3
ACAD_XREC_ROUNDTRIP
360
BF6AF
  0
DICTIONARY
  5
BF6B8
330
BF3B2
100
AcDbDictionary
280
     1
281
     1
  3
ACAD_XREC_ROUNDTRIP
360
BF6B9
  0
DICTIONARY
  5
BF3BB
330
BF356
100
AcDbDictionary
280
     1
281
     1
  3
ACAD_ROUNDTRIP_2008_TABLESTYLE_CELLSTYLEMAP
360
BF675
  3
ACAD_XREC_ROUNDTRIP
360
BF6B0
  0
DICTIONARY
  5
BF684
330
BF33D
100
AcDbDictionary
280
     1
281
     1
  3
ACAD_XREC_ROUNDTRIP
360
BF685
  0
DICTIONARY
  5
BF68A
330
BF340
100
AcDbDictionary
280
     1
281
     1
  3
ACAD_XREC_ROUNDTRIP
360
BF68B
  0
DICTIONARY
  5
BF692
330
BF344
100
AcDbDictionary
280
     1
281
     1
  3
ACAD_XREC_ROUNDTRIP
360
BF693
  0
DICTIONARY
  5
BF69A
330
BF348
100
AcDbDictionary
280
     1
281
     1
  3
ACAD_XREC_ROUNDTRIP
360
BF69B
  0
DICTIONARY
  5
BF68E
330
BF342
100
AcDbDictionary
280
     1
281
     1
  3
ACAD_XREC_ROUNDTRIP
360
BF68F
  0
DICTIONARY
  5
BF690
330
BF343
100
AcDbDictionary
280
     1
281
     1
  3
ACAD_XREC_ROUNDTRIP
360
BF691
  0
DICTIONARY
  5
BF6A0
330
BF34B
100
AcDbDictionary
280
     1
281
     1
  3
ACAD_XREC_ROUNDTRIP
360
BF6A1
  0
DICTIONARY
  5
BF698
330
BF347
100
AcDbDictionary
280
     1
281
     1
  3
ACAD_XREC_ROUNDTRIP
360
BF699
  0
DICTIONARY
  5
BF67C
330
BF339
100
AcDbDictionary
280
     1
281
     1
  3
ACAD_XREC_ROUNDTRIP
360
BF67D
  0
DICTIONARY
  5
BF67E
330
BF33A
100
AcDbDictionary
280
     1
281
     1
  3
ACAD_XREC_ROUNDTRIP
360
BF67F
  0
DICTIONARY
  5
BF680
330
BF33B
100
AcDbDictionary
280
     1
281
     1
  3
ACAD_XREC_ROUNDTRIP
360
BF681
  0
DICTIONARY
  5
BF682
330
BF33C
100
AcDbDictionary
280
     1
281
     1
  3
ACAD_XREC_ROUNDTRIP
360
BF683
  0
DICTIONARY
  5
BF688
330
BF33F
100
AcDbDictionary
280
     1
281
     1
  3
ACAD_XREC_ROUNDTRIP
360
BF689
  0
DICTIONARY
  5
BF69C
330
BF349
100
AcDbDictionary
280
     1
281
     1
  3
ACAD_XREC_ROUNDTRIP
360
BF69D
  0
DICTIONARY
  5
BF696
330
BF346
100
AcDbDictionary
280
     1
281
     1
  3
ACAD_XREC_ROUNDTRIP
360
BF697
  0
DICTIONARY
  5
BF69E
330
BF34A
100
AcDbDictionary
280
     1
281
     1
  3
ACAD_XREC_ROUNDTRIP
360
BF69F
  0
DICTIONARY
  5
BF68C
330
BF341
100
AcDbDictionary
280
     1
281
     1
  3
ACAD_XREC_ROUNDTRIP
360
BF68D
  0
DICTIONARY
  5
BF6AA
330
BF350
100
AcDbDictionary
280
     1
281
     1
  3
ACAD_XREC_ROUNDTRIP
360
BF6AB
  0
DICTIONARY
  5
BF6A8
330
BF34F
100
AcDbDictionary
280
     1
281
     1
  3
ACAD_XREC_ROUNDTRIP
360
BF6A9
  0
DICTIONARY
  5
BF6A2
330
BF34C
100
AcDbDictionary
280
     1
281
     1
  3
ACAD_XREC_ROUNDTRIP
360
BF6A3
  0
DICTIONARY
  5
BF6A4
330
BF34D
100
AcDbDictionary
280
     1
281
     1
  3
ACAD_XREC_ROUNDTRIP
360
BF6A5
  0
DICTIONARY
  5
BF694
330
BF345
100
AcDbDictionary
280
     1
281
     1
  3
ACAD_XREC_ROUNDTRIP
360
BF695
  0
DICTIONARY
  5
BF686
330
BF33E
100
AcDbDictionary
280
     1
281
     1
  3
ACAD_XREC_ROUNDTRIP
360
BF687
  0
DICTIONARY
  5
BF6A6
330
BF34E
100
AcDbDictionary
280
     1
281
     1
  3
ACAD_XREC_ROUNDTRIP
360
BF6A7
  0
XRECORD
  5
BF6BB
102
{ACAD_REACTORS
330
BF6BA
102
}
330
BF6BA
100
AcDbXrecord
280
     1
102
DISPLAYNAME
  1
Imperial24
102
FLAGS
 90
        0
  0
XRECORD
  5
BF67B
102
{ACAD_REACTORS
330
BF67A
102
}
330
BF67A
100
AcDbXrecord
280
     1
102
SHADEPLOT
 70
     0
102
SHADEPLOTRESLEVEL
 70
     2
102
SHADEPLOTCUSTOMDPI
 70
   300
  0
XRECORD
  5
BF6B2
102
{ACAD_REACTORS
330
BF6B1
102
}
330
BF6B1
100
AcDbXrecord
280
     1
102
SHADEPLOT
 70
     0
102
SHADEPLOTRESLEVEL
 70
     2
102
SHADEPLOTCUSTOMDPI
 70
   300
  0
XRECORD
  5
BF6B7
102
{ACAD_REACTORS
330
BF6B6
102
}
330
BF6B6
100
AcDbXrecord
280
     1
102
MATERIAL
148
0.0
149
0.0
149
0.0
 93
        0
 94
      127
282
     0
 72
     1
 77
     1
171
     1
175
     1
179
     1
273
     0
  0
XRECORD
  5
BF6AD
102
{ACAD_REACTORS
330
BF6AC
102
}
330
BF6AC
100
AcDbXrecord
280
     1
102
MATERIAL
148
0.0
149
0.0
149
0.0
 93
        0
 94
      127
282
     0
 72
     1
 77
     1
171
     1
175
     1
179
     1
273
     0
  0
XRECORD
  5
BF6AF
102
{ACAD_REACTORS
330
BF6AE
102
}
330
BF6AE
100
AcDbXrecord
280
     1
102
MATERIAL
148
0.0
149
0.0
149
0.0
 93
        0
 94
      127
282
     0
 72
     1
 77
     1
171
     1
175
     1
179
     1
273
     0
  0
XRECORD
  5
BF6B9
102
{ACAD_REACTORS
330
BF6B8
102
}
330
BF6B8
100
AcDbXrecord
280
     1
102
DISPLAYNAME
  1
Imperial24
102
FLAGS
 90
        0
  0
CELLSTYLEMAP
  5
BF675
102
{ACAD_REACTORS
330
BF3BB
102
}
330
BF3BB
100
AcDbCellStyleMap
 90
        3
300
CELLSTYLE
  1
TABLEFORMAT_BEGIN
 90
        5
170
     1
 91
        0
 92
    32768
 62
   257
 93
        1
300
CONTENTFORMAT
  1
CONTENTFORMAT_BEGIN
 90
        0
 91
        0
 92
        4
 93
        0
300

 40
0.0
140
1.0
 94
        5
 62
     0
340
F
144
0.25
309
CONTENTFORMAT_END
171
     1
301
MARGIN
  1
CELLMARGIN_BEGIN
 40
0.06
 40
0.06
 40
0.06
 40
0.06
 40
0.06
 40
0.06
309
CELLMARGIN_END
 94
        6
 95
        1
302
GRIDFORMAT
  1
GRIDFORMAT_BEGIN
 90
        0
 91
        1
 62
     0
 92
       -2
340
12
 93
        0
 40
0.045
309
GRIDFORMAT_END
 95
        2
302
GRIDFORMAT
  1
GRIDFORMAT_BEGIN
 90
        0
 91
        1
 62
     0
 92
       -2
340
12
 93
        0
 40
0.045
309
GRIDFORMAT_END
 95
        4
302
GRIDFORMAT
  1
GRIDFORMAT_BEGIN
 90
        0
 91
        1
 62
     0
 92
       -2
340
12
 93
        0
 40
0.045
309
GRIDFORMAT_END
 95
        8
302
GRIDFORMAT
  1
GRIDFORMAT_BEGIN
 90
        0
 91
        1
 62
     0
 92
       -2
340
12
 93
        0
 40
0.045
309
GRIDFORMAT_END
 95
       16
302
GRIDFORMAT
  1
GRIDFORMAT_BEGIN
 90
        0
 91
        1
 62
     0
 92
       -2
340
12
 93
        0
 40
0.045
309
GRIDFORMAT_END
 95
       32
302
GRIDFORMAT
  1
GRIDFORMAT_BEGIN
 90
        0
 91
        1
 62
     0
 92
       -2
340
12
 93
        0
 40
0.045
309
GRIDFORMAT_END
309
TABLEFORMAT_END
  1
CELLSTYLE_BEGIN
 90
        1
 91
        1
300
_TITLE
309
CELLSTYLE_END
300
CELLSTYLE
  1
TABLEFORMAT_BEGIN
 90
        5
170
     1
 91
        0
 92
        0
 62
   257
 93
        1
300
CONTENTFORMAT
  1
CONTENTFORMAT_BEGIN
 90
        0
 91
        0
 92
        4
 93
        0
300

 40
0.0
140
1.0
 94
        5
 62
     0
340
F
144
0.18
309
CONTENTFORMAT_END
171
     1
301
MARGIN
  1
CELLMARGIN_BEGIN
 40
0.06
 40
0.06
 40
0.06
 40
0.06
 40
0.06
 40
0.06
309
CELLMARGIN_END
 94
        6
 95
        1
302
GRIDFORMAT
  1
GRIDFORMAT_BEGIN
 90
        0
 91
        1
 62
     0
 92
       -2
340
12
 93
        0
 40
0.045
309
GRIDFORMAT_END
 95
        2
302
GRIDFORMAT
  1
GRIDFORMAT_BEGIN
 90
        0
 91
        1
 62
     0
 92
       -2
340
12
 93
        0
 40
0.045
309
GRIDFORMAT_END
 95
        4
302
GRIDFORMAT
  1
GRIDFORMAT_BEGIN
 90
        0
 91
        1
 62
     0
 92
       -2
340
12
 93
        0
 40
0.045
309
GRIDFORMAT_END
 95
        8
302
GRIDFORMAT
  1
GRIDFORMAT_BEGIN
 90
        0
 91
        1
 62
     0
 92
       -2
340
12
 93
        0
 40
0.045
309
GRIDFORMAT_END
 95
       16
302
GRIDFORMAT
  1
GRIDFORMAT_BEGIN
 90
        0
 91
        1
 62
     0
 92
       -2
340
12
 93
        0
 40
0.045
309
GRIDFORMAT_END
 95
       32
302
GRIDFORMAT
  1
GRIDFORMAT_BEGIN
 90
        0
 91
        1
 62
     0
 92
       -2
340
12
 93
        0
 40
0.045
309
GRIDFORMAT_END
309
TABLEFORMAT_END
  1
CELLSTYLE_BEGIN
 90
        2
 91
        1
300
_HEADER
309
CELLSTYLE_END
300
CELLSTYLE
  1
TABLEFORMAT_BEGIN
 90
        5
170
     1
 91
        0
 92
        0
 62
   257
 93
        1
300
CONTENTFORMAT
  1
CONTENTFORMAT_BEGIN
 90
        0
 91
        0
 92
        4
 93
        0
300

 40
0.0
140
1.0
 94
        2
 62
     0
340
F
144
0.18
309
CONTENTFORMAT_END
171
     1
301
MARGIN
  1
CELLMARGIN_BEGIN
 40
0.06
 40
0.06
 40
0.06
 40
0.06
 40
0.06
 40
0.06
309
CELLMARGIN_END
 94
        6
 95
        1
302
GRIDFORMAT
  1
GRIDFORMAT_BEGIN
 90
        0
 91
        1
 62
     0
 92
       -2
340
12
 93
        0
 40
0.045
309
GRIDFORMAT_END
 95
        2
302
GRIDFORMAT
  1
GRIDFORMAT_BEGIN
 90
        0
 91
        1
 62
     0
 92
       -2
340
12
 93
        0
 40
0.045
309
GRIDFORMAT_END
 95
        4
302
GRIDFORMAT
  1
GRIDFORMAT_BEGIN
 90
        0
 91
        1
 62
     0
 92
       -2
340
12
 93
        0
 40
0.045
309
GRIDFORMAT_END
 95
        8
302
GRIDFORMAT
  1
GRIDFORMAT_BEGIN
 90
        0
 91
        1
 62
     0
 92
       -2
340
12
 93
        0
 40
0.045
309
GRIDFORMAT_END
 95
       16
302
GRIDFORMAT
  1
GRIDFORMAT_BEGIN
 90
        0
 91
        1
 62
     0
 92
       -2
340
12
 93
        0
 40
0.045
309
GRIDFORMAT_END
 95
       32
302
GRIDFORMAT
  1
GRIDFORMAT_BEGIN
 90
        0
 91
        1
 62
     0
 92
       -2
340
12
 93
        0
 40
0.045
309
GRIDFORMAT_END
309
TABLEFORMAT_END
  1
CELLSTYLE_BEGIN
 90
        3
 91
        2
300
_DATA
309
CELLSTYLE_END
  0
XRECORD
  5
BF6B0
102
{ACAD_REACTORS
330
BF3BB
102
}
330
BF3BB
100
AcDbXrecord
280
     1
102
ACAD_ROUNDTRIP_PRE2007_TABLESTYLE
 90
        4
 91
        0
  1

 92
        4
 93
        0
  2

 94
        4
 95
        0
  3

  0
XRECORD
  5
BF685
102
{ACAD_REACTORS
330
BF684
102
}
330
BF684
100
AcDbXrecord
280
     1
102
RTVSPost2010Prop28
280
     1
102
RTVSPost2010PropOp28
 70
     1
102
RTVSPost2010Prop29
280
     1
102
RTVSPost2010PropOp29
 70
     1
102
RTVSPost2010Prop30
280
     0
102
RTVSPost2010PropOp30
 70
     1
102
RTVSPost2010Prop31
280
     0
102
RTVSPost2010PropOp31
 70
     1
102
RTVSPost2010Prop32
280
     0
102
RTVSPost2010PropOp32
 70
     1
102
RTVSPost2010Prop33
280
     0
102
RTVSPost2010PropOp33
 70
     1
102
RTVSPost2010Prop34
280
     0
102
RTVSPost2010PropOp34
 70
     1
102
RTVSPost2010Prop35
280
     0
102
RTVSPost2010PropOp35
 70
     1
102
RTVSPost2010Prop36
280
     0
102
RTVSPost2010PropOp36
 70
     1
102
RTVSPost2010Prop37
 90
       50
102
RTVSPost2010PropOp37
 70
     1
102
RTVSPost2010Prop38
140
0.0
102
RTVSPost2010PropOp38
 70
     1
102
RTVSPost2010Prop39
140
1.0
102
RTVSPost2010PropOp39
 70
     1
102
RTVSPost2010Prop40
 90
        0
102
RTVSPost2010PropOp40
 70
     1
102
RTVSPost2010Prop41ColorIndex
 90
       18
102
RTVSPost2010Prop41ColorRGB
 90
        0
102
RTVSPost2010PropOp41
 70
     1
102
RTVSPost2010Prop42
 90
       50
102
RTVSPost2010PropOp42
 70
     1
102
RTVSPost2010Prop43
 90
        3
102
RTVSPost2010PropOp43
 70
     1
102
RTVSPost2010Prop44ColorIndex
 90
        5
102
RTVSPost2010Prop44ColorRGB
 90
      255
102
RTVSPost2010PropOp44
 70
     1
102
RTVSPost2010Prop45
280
     0
102
RTVSPost2010PropOp45
 70
     1
102
RTVSPost2010Prop46
 90
       50
102
RTVSPost2010PropOp46
 70
     1
102
RTVSPost2010Prop47
 90
       50
102
RTVSPost2010PropOp47
 70
     1
102
RTVSPost2010Prop48
 90
       50
102
RTVSPost2010PropOp48
 70
     1
102
RTVSPost2010Prop49
280
     0
102
RTVSPost2010PropOp49
 70
     1
102
RTVSPost2010Prop50
 90
       50
102
RTVSPost2010PropOp50
 70
     1
102
RTVSPost2010Prop51ColorIndex
 90
      256
102
RTVSPost2010Prop51ColorRGB
 90
-16777216
102
RTVSPost2010PropOp51
 70
     0
102
RTVSPost2010Prop52
140
1.0
102
RTVSPost2010PropOp52
 70
     0
102
RTVSPost2010Prop53
 90
        2
102
RTVSPost2010PropOp53
 70
     1
102
RTVSPost2010Prop54
  1
strokes_ogs.tif
102
RTVSPost2010PropOp54
 70
     1
102
RTVSPost2010Prop55
280
     0
102
RTVSPost2010PropOp55
 70
     1
102
RTVSPost2010Prop56
140
1.0
102
RTVSPost2010PropOp56
 70
     1
102
RTVSPost2010Prop57
140
1.0
102
RTVSPost2010PropOp57
 70
     1
102
RTVSPropertyOp0
 70
     1
102
RTVSPropertyOp1
 70
     1
102
RTVSPropertyOp2
 70
     1
102
RTVSPropertyOp3
 70
     1
102
RTVSPropertyOp4
 70
     1
102
RTVSPropertyOp5
 70
     1
102
RTVSPropertyOp6
 70
     1
102
RTVSPropertyOp7
 70
     1
102
RTVSPropertyOp8
 70
     1
102
RTVSPropertyOp9
 70
     1
102
RTVSPropertyOp10
 70
     1
102
RTVSPropertyOp11
 70
     1
102
RTVSPropertyOp12
 70
     1
102
RTVSPropertyOp13
 70
     1
102
RTVSPropertyOp14
 70
     1
102
RTVSPropertyOp15
 70
     1
102
RTVSPropertyOp16
 70
     1
102
RTVSPropertyOp17
 70
     1
102
RTVSPropertyOp18
 70
     1
102
RTVSPropertyOp19
 70
     1
102
RTVSPropertyOp20
 70
     1
102
RTVSPropertyOp21
 70
     1
102
RTVSPropertyOp22
 70
     1
102
RTVSPropertyOp23
 70
     1
102
RTVSPropertyOp24
 70
     1
102
RTVSPropertyOp25
 70
     1
102
RTVSPropertyOp26
 70
     1
102
RTVSPropertyOp27
 70
     1
102
RTVSPropertyOp28
 70
     1
102
RTVSPropertyOp29
 70
     1
102
RTVSPropertyOp30
 70
     1
102
RTVSPropertyOp31
 70
     1
102
RTVSPropertyOp32
 70
     1
102
RTVSPropertyOp33
 70
     1
102
RTVSPropertyOp34
 70
     1
102
RTVSPropertyOp35
 70
     1
102
RTVSPropertyOp36
 70
     1
102
RTVSPropertyOp37
 70
     1
102
RTVSPropertyOp38
 70
     1
102
RTVSPropertyOp39
 70
     1
102
RTVSPropertyOp40
 70
     1
102
RTVSPropertyOp41
 70
     1
102
RTVSPropertyOp42
 70
     1
102
RTVSPropertyOp43
 70
     1
102
RTVSPropertyOp44
 70
     1
102
RTVSPropertyOp45
 70
     1
102
RTVSPropertyOp46
 70
     1
102
RTVSPropertyOp47
 70
     1
102
RTVSPropertyOp48
 70
     1
102
RTVSPropertyOp49
 70
     1
102
RTVSPropertyOp50
 70
     1
102
RTVSPropertyOp51
 70
     0
102
RTVSPropertyOp52
 70
     0
102
RTVSPropertyOp53
 70
     1
102
RTVSPropertyOp54
 70
     1
102
RTVSPropertyOp55
 70
     1
102
RTVSPropertyOp56
 70
     1
102
RTVSPropertyOp57
 70
     1
102
RTVSPropertyOp58
 70
     1
102
RTVSPropertyOp59
 70
     1
102
RTVSPropertyOp60
 70
     1
102
RTVSPropertyOp61
 70
     1
102
RTVSPropertyOp62
 70
     1
  0
XRECORD
  5
BF68B
102
{ACAD_REACTORS
330
BF68A
102
}
330
BF68A
100
AcDbXrecord
280
     1
102
RTVSPost2010Prop28
280
     0
102
RTVSPost2010PropOp28
 70
     1
102
RTVSPost2010Prop29
280
     1
102
RTVSPost2010PropOp29
 70
     1
102
RTVSPost2010Prop30
280
     1
102
RTVSPost2010PropOp30
 70
     1
102
RTVSPost2010Prop31
280
     0
102
RTVSPost2010PropOp31
 70
     1
102
RTVSPost2010Prop32
280
     0
102
RTVSPost2010PropOp32
 70
     1
102
RTVSPost2010Prop33
280
     0
102
RTVSPost2010PropOp33
 70
     1
102
RTVSPost2010Prop34
280
     0
102
RTVSPost2010PropOp34
 70
     1
102
RTVSPost2010Prop35
280
     0
102
RTVSPost2010PropOp35
 70
     1
102
RTVSPost2010Prop36
280
     0
102
RTVSPost2010PropOp36
 70
     1
102
RTVSPost2010Prop37
 90
       50
102
RTVSPost2010PropOp37
 70
     1
102
RTVSPost2010Prop38
140
0.0
102
RTVSPost2010PropOp38
 70
     1
102
RTVSPost2010Prop39
140
1.0
102
RTVSPost2010PropOp39
 70
     1
102
RTVSPost2010Prop40
 90
        0
102
RTVSPost2010PropOp40
 70
     1
102
RTVSPost2010Prop41ColorIndex
 90
       18
102
RTVSPost2010Prop41ColorRGB
 90
        0
102
RTVSPost2010PropOp41
 70
     1
102
RTVSPost2010Prop42
 90
       50
102
RTVSPost2010PropOp42
 70
     1
102
RTVSPost2010Prop43
 90
        3
102
RTVSPost2010PropOp43
 70
     1
102
RTVSPost2010Prop44ColorIndex
 90
        5
102
RTVSPost2010Prop44ColorRGB
 90
      255
102
RTVSPost2010PropOp44
 70
     1
102
RTVSPost2010Prop45
280
     0
102
RTVSPost2010PropOp45
 70
     1
102
RTVSPost2010Prop46
 90
       50
102
RTVSPost2010PropOp46
 70
     1
102
RTVSPost2010Prop47
 90
       50
102
RTVSPost2010PropOp47
 70
     1
102
RTVSPost2010Prop48
 90
       50
102
RTVSPost2010PropOp48
 70
     1
102
RTVSPost2010Prop49
280
     0
102
RTVSPost2010PropOp49
 70
     1
102
RTVSPost2010Prop50
 90
       50
102
RTVSPost2010PropOp50
 70
     1
102
RTVSPost2010Prop51ColorIndex
 90
      256
102
RTVSPost2010Prop51ColorRGB
 90
-16777216
102
RTVSPost2010PropOp51
 70
     0
102
RTVSPost2010Prop52
140
1.0
102
RTVSPost2010PropOp52
 70
     0
102
RTVSPost2010Prop53
 90
        2
102
RTVSPost2010PropOp53
 70
     1
102
RTVSPost2010Prop54
  1
strokes_ogs.tif
102
RTVSPost2010PropOp54
 70
     1
102
RTVSPost2010Prop55
280
     0
102
RTVSPost2010PropOp55
 70
     1
102
RTVSPost2010Prop56
140
1.0
102
RTVSPost2010PropOp56
 70
     1
102
RTVSPost2010Prop57
140
1.0
102
RTVSPost2010PropOp57
 70
     1
102
RTVSPropertyOp0
 70
     1
102
RTVSPropertyOp1
 70
     1
102
RTVSPropertyOp2
 70
     1
102
RTVSPropertyOp3
 70
     1
102
RTVSPropertyOp4
 70
     1
102
RTVSPropertyOp5
 70
     1
102
RTVSPropertyOp6
 70
     1
102
RTVSPropertyOp7
 70
     1
102
RTVSPropertyOp8
 70
     1
102
RTVSPropertyOp9
 70
     1
102
RTVSPropertyOp10
 70
     1
102
RTVSPropertyOp11
 70
     1
102
RTVSPropertyOp12
 70
     1
102
RTVSPropertyOp13
 70
     1
102
RTVSPropertyOp14
 70
     1
102
RTVSPropertyOp15
 70
     1
102
RTVSPropertyOp16
 70
     1
102
RTVSPropertyOp17
 70
     1
102
RTVSPropertyOp18
 70
     1
102
RTVSPropertyOp19
 70
     1
102
RTVSPropertyOp20
 70
     1
102
RTVSPropertyOp21
 70
     1
102
RTVSPropertyOp22
 70
     1
102
RTVSPropertyOp23
 70
     1
102
RTVSPropertyOp24
 70
     1
102
RTVSPropertyOp25
 70
     1
102
RTVSPropertyOp26
 70
     1
102
RTVSPropertyOp27
 70
     1
102
RTVSPropertyOp28
 70
     1
102
RTVSPropertyOp29
 70
     1
102
RTVSPropertyOp30
 70
     1
102
RTVSPropertyOp31
 70
     1
102
RTVSPropertyOp32
 70
     1
102
RTVSPropertyOp33
 70
     1
102
RTVSPropertyOp34
 70
     1
102
RTVSPropertyOp35
 70
     1
102
RTVSPropertyOp36
 70
     1
102
RTVSPropertyOp37
 70
     1
102
RTVSPropertyOp38
 70
     1
102
RTVSPropertyOp39
 70
     1
102
RTVSPropertyOp40
 70
     1
102
RTVSPropertyOp41
 70
     1
102
RTVSPropertyOp42
 70
     1
102
RTVSPropertyOp43
 70
     1
102
RTVSPropertyOp44
 70
     1
102
RTVSPropertyOp45
 70
     1
102
RTVSPropertyOp46
 70
     1
102
RTVSPropertyOp47
 70
     1
102
RTVSPropertyOp48
 70
     1
102
RTVSPropertyOp49
 70
     1
102
RTVSPropertyOp50
 70
     1
102
RTVSPropertyOp51
 70
     0
102
RTVSPropertyOp52
 70
     0
102
RTVSPropertyOp53
 70
     1
102
RTVSPropertyOp54
 70
     1
102
RTVSPropertyOp55
 70
     1
102
RTVSPropertyOp56
 70
     1
102
RTVSPropertyOp57
 70
     1
102
RTVSPropertyOp58
 70
     1
102
RTVSPropertyOp59
 70
     1
102
RTVSPropertyOp60
 70
     1
102
RTVSPropertyOp61
 70
     1
102
RTVSPropertyOp62
 70
     1
  0
XRECORD
  5
BF693
102
{ACAD_REACTORS
330
BF692
102
}
330
BF692
100
AcDbXrecord
280
     1
102
RTVSPost2010Prop28
280
     0
102
RTVSPost2010PropOp28
 70
     1
102
RTVSPost2010Prop29
280
     1
102
RTVSPost2010PropOp29
 70
     1
102
RTVSPost2010Prop30
280
     1
102
RTVSPost2010PropOp30
 70
     1
102
RTVSPost2010Prop31
280
     0
102
RTVSPost2010PropOp31
 70
     1
102
RTVSPost2010Prop32
280
     0
102
RTVSPost2010PropOp32
 70
     1
102
RTVSPost2010Prop33
280
     0
102
RTVSPost2010PropOp33
 70
     1
102
RTVSPost2010Prop34
280
     0
102
RTVSPost2010PropOp34
 70
     1
102
RTVSPost2010Prop35
280
     0
102
RTVSPost2010PropOp35
 70
     1
102
RTVSPost2010Prop36
280
     0
102
RTVSPost2010PropOp36
 70
     1
102
RTVSPost2010Prop37
 90
       50
102
RTVSPost2010PropOp37
 70
     1
102
RTVSPost2010Prop38
140
0.0
102
RTVSPost2010PropOp38
 70
     1
102
RTVSPost2010Prop39
140
1.0
102
RTVSPost2010PropOp39
 70
     1
102
RTVSPost2010Prop40
 90
        0
102
RTVSPost2010PropOp40
 70
     1
102
RTVSPost2010Prop41ColorIndex
 90
       18
102
RTVSPost2010Prop41ColorRGB
 90
        0
102
RTVSPost2010PropOp41
 70
     1
102
RTVSPost2010Prop42
 90
       50
102
RTVSPost2010PropOp42
 70
     1
102
RTVSPost2010Prop43
 90
        3
102
RTVSPost2010PropOp43
 70
     1
102
RTVSPost2010Prop44ColorIndex
 90
        5
102
RTVSPost2010Prop44ColorRGB
 90
      255
102
RTVSPost2010PropOp44
 70
     1
102
RTVSPost2010Prop45
280
     0
102
RTVSPost2010PropOp45
 70
     1
102
RTVSPost2010Prop46
 90
       50
102
RTVSPost2010PropOp46
 70
     1
102
RTVSPost2010Prop47
 90
       50
102
RTVSPost2010PropOp47
 70
     1
102
RTVSPost2010Prop48
 90
       50
102
RTVSPost2010PropOp48
 70
     1
102
RTVSPost2010Prop49
280
     0
102
RTVSPost2010PropOp49
 70
     1
102
RTVSPost2010Prop50
 90
       50
102
RTVSPost2010PropOp50
 70
     1
102
RTVSPost2010Prop51ColorIndex
 90
      256
102
RTVSPost2010Prop51ColorRGB
 90
-16777216
102
RTVSPost2010PropOp51
 70
     0
102
RTVSPost2010Prop52
140
1.0
102
RTVSPost2010PropOp52
 70
     0
102
RTVSPost2010Prop53
 90
        2
102
RTVSPost2010PropOp53
 70
     1
102
RTVSPost2010Prop54
  1
strokes_ogs.tif
102
RTVSPost2010PropOp54
 70
     1
102
RTVSPost2010Prop55
280
     0
102
RTVSPost2010PropOp55
 70
     1
102
RTVSPost2010Prop56
140
1.0
102
RTVSPost2010PropOp56
 70
     1
102
RTVSPost2010Prop57
140
1.0
102
RTVSPost2010PropOp57
 70
     1
102
RTVSPropertyOp0
 70
     1
102
RTVSPropertyOp1
 70
     1
102
RTVSPropertyOp2
 70
     1
102
RTVSPropertyOp3
 70
     1
102
RTVSPropertyOp4
 70
     1
102
RTVSPropertyOp5
 70
     1
102
RTVSPropertyOp6
 70
     1
102
RTVSPropertyOp7
 70
     1
102
RTVSPropertyOp8
 70
     1
102
RTVSPropertyOp9
 70
     1
102
RTVSPropertyOp10
 70
     1
102
RTVSPropertyOp11
 70
     1
102
RTVSPropertyOp12
 70
     1
102
RTVSPropertyOp13
 70
     1
102
RTVSPropertyOp14
 70
     1
102
RTVSPropertyOp15
 70
     1
102
RTVSPropertyOp16
 70
     1
102
RTVSPropertyOp17
 70
     1
102
RTVSPropertyOp18
 70
     1
102
RTVSPropertyOp19
 70
     1
102
RTVSPropertyOp20
 70
     1
102
RTVSPropertyOp21
 70
     1
102
RTVSPropertyOp22
 70
     1
102
RTVSPropertyOp23
 70
     1
102
RTVSPropertyOp24
 70
     1
102
RTVSPropertyOp25
 70
     1
102
RTVSPropertyOp26
 70
     1
102
RTVSPropertyOp27
 70
     1
102
RTVSPropertyOp28
 70
     1
102
RTVSPropertyOp29
 70
     1
102
RTVSPropertyOp30
 70
     1
102
RTVSPropertyOp31
 70
     1
102
RTVSPropertyOp32
 70
     1
102
RTVSPropertyOp33
 70
     1
102
RTVSPropertyOp34
 70
     1
102
RTVSPropertyOp35
 70
     1
102
RTVSPropertyOp36
 70
     1
102
RTVSPropertyOp37
 70
     1
102
RTVSPropertyOp38
 70
     1
102
RTVSPropertyOp39
 70
     1
102
RTVSPropertyOp40
 70
     1
102
RTVSPropertyOp41
 70
     1
102
RTVSPropertyOp42
 70
     1
102
RTVSPropertyOp43
 70
     1
102
RTVSPropertyOp44
 70
     1
102
RTVSPropertyOp45
 70
     1
102
RTVSPropertyOp46
 70
     1
102
RTVSPropertyOp47
 70
     1
102
RTVSPropertyOp48
 70
     1
102
RTVSPropertyOp49
 70
     1
102
RTVSPropertyOp50
 70
     1
102
RTVSPropertyOp51
 70
     0
102
RTVSPropertyOp52
 70
     0
102
RTVSPropertyOp53
 70
     1
102
RTVSPropertyOp54
 70
     1
102
RTVSPropertyOp55
 70
     1
102
RTVSPropertyOp56
 70
     1
102
RTVSPropertyOp57
 70
     1
102
RTVSPropertyOp58
 70
     1
102
RTVSPropertyOp59
 70
     1
102
RTVSPropertyOp60
 70
     1
102
RTVSPropertyOp61
 70
     1
102
RTVSPropertyOp62
 70
     1
  0
XRECORD
  5
BF69B
102
{ACAD_REACTORS
330
BF69A
102
}
330
BF69A
100
AcDbXrecord
280
     1
102
RTVSPost2010Prop28
280
     0
102
RTVSPost2010PropOp28
 70
     1
102
RTVSPost2010Prop29
280
     1
102
RTVSPost2010PropOp29
 70
     1
102
RTVSPost2010Prop30
280
     1
102
RTVSPost2010PropOp30
 70
     1
102
RTVSPost2010Prop31
280
     0
102
RTVSPost2010PropOp31
 70
     1
102
RTVSPost2010Prop32
280
     0
102
RTVSPost2010PropOp32
 70
     1
102
RTVSPost2010Prop33
280
     0
102
RTVSPost2010PropOp33
 70
     1
102
RTVSPost2010Prop34
280
     0
102
RTVSPost2010PropOp34
 70
     1
102
RTVSPost2010Prop35
280
     0
102
RTVSPost2010PropOp35
 70
     1
102
RTVSPost2010Prop36
280
     0
102
RTVSPost2010PropOp36
 70
     1
102
RTVSPost2010Prop37
 90
       50
102
RTVSPost2010PropOp37
 70
     1
102
RTVSPost2010Prop38
140
0.0
102
RTVSPost2010PropOp38
 70
     1
102
RTVSPost2010Prop39
140
1.0
102
RTVSPost2010PropOp39
 70
     1
102
RTVSPost2010Prop40
 90
        0
102
RTVSPost2010PropOp40
 70
     1
102
RTVSPost2010Prop41ColorIndex
 90
       18
102
RTVSPost2010Prop41ColorRGB
 90
        0
102
RTVSPost2010PropOp41
 70
     1
102
RTVSPost2010Prop42
 90
       50
102
RTVSPost2010PropOp42
 70
     1
102
RTVSPost2010Prop43
 90
        3
102
RTVSPost2010PropOp43
 70
     1
102
RTVSPost2010Prop44ColorIndex
 90
        5
102
RTVSPost2010Prop44ColorRGB
 90
      255
102
RTVSPost2010PropOp44
 70
     1
102
RTVSPost2010Prop45
280
     0
102
RTVSPost2010PropOp45
 70
     1
102
RTVSPost2010Prop46
 90
       50
102
RTVSPost2010PropOp46
 70
     1
102
RTVSPost2010Prop47
 90
       50
102
RTVSPost2010PropOp47
 70
     1
102
RTVSPost2010Prop48
 90
       50
102
RTVSPost2010PropOp48
 70
     1
102
RTVSPost2010Prop49
280
     0
102
RTVSPost2010PropOp49
 70
     1
102
RTVSPost2010Prop50
 90
       50
102
RTVSPost2010PropOp50
 70
     1
102
RTVSPost2010Prop51ColorIndex
 90
      256
102
RTVSPost2010Prop51ColorRGB
 90
-16777216
102
RTVSPost2010PropOp51
 70
     0
102
RTVSPost2010Prop52
140
1.0
102
RTVSPost2010PropOp52
 70
     0
102
RTVSPost2010Prop53
 90
        2
102
RTVSPost2010PropOp53
 70
     1
102
RTVSPost2010Prop54
  1
strokes_ogs.tif
102
RTVSPost2010PropOp54
 70
     1
102
RTVSPost2010Prop55
280
     0
102
RTVSPost2010PropOp55
 70
     1
102
RTVSPost2010Prop56
140
1.0
102
RTVSPost2010PropOp56
 70
     1
102
RTVSPost2010Prop57
140
1.0
102
RTVSPost2010PropOp57
 70
     1
102
RTVSPropertyOp0
 70
     1
102
RTVSPropertyOp1
 70
     1
102
RTVSPropertyOp2
 70
     1
102
RTVSPropertyOp3
 70
     1
102
RTVSPropertyOp4
 70
     1
102
RTVSPropertyOp5
 70
     1
102
RTVSPropertyOp6
 70
     1
102
RTVSPropertyOp7
 70
     1
102
RTVSPropertyOp8
 70
     1
102
RTVSPropertyOp9
 70
     1
102
RTVSPropertyOp10
 70
     1
102
RTVSPropertyOp11
 70
     1
102
RTVSPropertyOp12
 70
     1
102
RTVSPropertyOp13
 70
     1
102
RTVSPropertyOp14
 70
     1
102
RTVSPropertyOp15
 70
     1
102
RTVSPropertyOp16
 70
     1
102
RTVSPropertyOp17
 70
     1
102
RTVSPropertyOp18
 70
     1
102
RTVSPropertyOp19
 70
     1
102
RTVSPropertyOp20
 70
     1
102
RTVSPropertyOp21
 70
     1
102
RTVSPropertyOp22
 70
     1
102
RTVSPropertyOp23
 70
     1
102
RTVSPropertyOp24
 70
     1
102
RTVSPropertyOp25
 70
     1
102
RTVSPropertyOp26
 70
     1
102
RTVSPropertyOp27
 70
     1
102
RTVSPropertyOp28
 70
     1
102
RTVSPropertyOp29
 70
     1
102
RTVSPropertyOp30
 70
     1
102
RTVSPropertyOp31
 70
     1
102
RTVSPropertyOp32
 70
     1
102
RTVSPropertyOp33
 70
     1
102
RTVSPropertyOp34
 70
     1
102
RTVSPropertyOp35
 70
     1
102
RTVSPropertyOp36
 70
     1
102
RTVSPropertyOp37
 70
     1
102
RTVSPropertyOp38
 70
     1
102
RTVSPropertyOp39
 70
     1
102
RTVSPropertyOp40
 70
     1
102
RTVSPropertyOp41
 70
     1
102
RTVSPropertyOp42
 70
     1
102
RTVSPropertyOp43
 70
     1
102
RTVSPropertyOp44
 70
     1
102
RTVSPropertyOp45
 70
     1
102
RTVSPropertyOp46
 70
     1
102
RTVSPropertyOp47
 70
     1
102
RTVSPropertyOp48
 70
     1
102
RTVSPropertyOp49
 70
     1
102
RTVSPropertyOp50
 70
     1
102
RTVSPropertyOp51
 70
     0
102
RTVSPropertyOp52
 70
     0
102
RTVSPropertyOp53
 70
     1
102
RTVSPropertyOp54
 70
     1
102
RTVSPropertyOp55
 70
     1
102
RTVSPropertyOp56
 70
     1
102
RTVSPropertyOp57
 70
     1
102
RTVSPropertyOp58
 70
     1
102
RTVSPropertyOp59
 70
     1
102
RTVSPropertyOp60
 70
     1
102
RTVSPropertyOp61
 70
     1
102
RTVSPropertyOp62
 70
     1
  0
XRECORD
  5
BF68F
102
{ACAD_REACTORS
330
BF68E
102
}
330
BF68E
100
AcDbXrecord
280
     1
102
RTVSPost2010Prop28
280
     0
102
RTVSPost2010PropOp28
 70
     1
102
RTVSPost2010Prop29
280
     1
102
RTVSPost2010PropOp29
 70
     1
102
RTVSPost2010Prop30
280
     1
102
RTVSPost2010PropOp30
 70
     1
102
RTVSPost2010Prop31
280
     0
102
RTVSPost2010PropOp31
 70
     1
102
RTVSPost2010Prop32
280
     0
102
RTVSPost2010PropOp32
 70
     1
102
RTVSPost2010Prop33
280
     0
102
RTVSPost2010PropOp33
 70
     1
102
RTVSPost2010Prop34
280
     0
102
RTVSPost2010PropOp34
 70
     1
102
RTVSPost2010Prop35
280
     0
102
RTVSPost2010PropOp35
 70
     1
102
RTVSPost2010Prop36
280
     0
102
RTVSPost2010PropOp36
 70
     1
102
RTVSPost2010Prop37
 90
       50
102
RTVSPost2010PropOp37
 70
     1
102
RTVSPost2010Prop38
140
0.0
102
RTVSPost2010PropOp38
 70
     1
102
RTVSPost2010Prop39
140
1.0
102
RTVSPost2010PropOp39
 70
     1
102
RTVSPost2010Prop40
 90
        0
102
RTVSPost2010PropOp40
 70
     1
102
RTVSPost2010Prop41ColorIndex
 90
       18
102
RTVSPost2010Prop41ColorRGB
 90
        0
102
RTVSPost2010PropOp41
 70
     1
102
RTVSPost2010Prop42
 90
       50
102
RTVSPost2010PropOp42
 70
     1
102
RTVSPost2010Prop43
 90
        3
102
RTVSPost2010PropOp43
 70
     1
102
RTVSPost2010Prop44ColorIndex
 90
        5
102
RTVSPost2010Prop44ColorRGB
 90
      255
102
RTVSPost2010PropOp44
 70
     1
102
RTVSPost2010Prop45
280
     0
102
RTVSPost2010PropOp45
 70
     1
102
RTVSPost2010Prop46
 90
       50
102
RTVSPost2010PropOp46
 70
     1
102
RTVSPost2010Prop47
 90
       50
102
RTVSPost2010PropOp47
 70
     1
102
RTVSPost2010Prop48
 90
       50
102
RTVSPost2010PropOp48
 70
     1
102
RTVSPost2010Prop49
280
     0
102
RTVSPost2010PropOp49
 70
     1
102
RTVSPost2010Prop50
 90
       50
102
RTVSPost2010PropOp50
 70
     1
102
RTVSPost2010Prop51ColorIndex
 90
      256
102
RTVSPost2010Prop51ColorRGB
 90
-16777216
102
RTVSPost2010PropOp51
 70
     0
102
RTVSPost2010Prop52
140
1.0
102
RTVSPost2010PropOp52
 70
     0
102
RTVSPost2010Prop53
 90
        2
102
RTVSPost2010PropOp53
 70
     1
102
RTVSPost2010Prop54
  1
strokes_ogs.tif
102
RTVSPost2010PropOp54
 70
     1
102
RTVSPost2010Prop55
280
     0
102
RTVSPost2010PropOp55
 70
     1
102
RTVSPost2010Prop56
140
1.0
102
RTVSPost2010PropOp56
 70
     1
102
RTVSPost2010Prop57
140
1.0
102
RTVSPost2010PropOp57
 70
     1
102
RTVSPropertyOp0
 70
     1
102
RTVSPropertyOp1
 70
     1
102
RTVSPropertyOp2
 70
     1
102
RTVSPropertyOp3
 70
     1
102
RTVSPropertyOp4
 70
     1
102
RTVSPropertyOp5
 70
     1
102
RTVSPropertyOp6
 70
     1
102
RTVSPropertyOp7
 70
     1
102
RTVSPropertyOp8
 70
     1
102
RTVSPropertyOp9
 70
     1
102
RTVSPropertyOp10
 70
     1
102
RTVSPropertyOp11
 70
     1
102
RTVSPropertyOp12
 70
     1
102
RTVSPropertyOp13
 70
     1
102
RTVSPropertyOp14
 70
     1
102
RTVSPropertyOp15
 70
     1
102
RTVSPropertyOp16
 70
     1
102
RTVSPropertyOp17
 70
     1
102
RTVSPropertyOp18
 70
     1
102
RTVSPropertyOp19
 70
     1
102
RTVSPropertyOp20
 70
     1
102
RTVSPropertyOp21
 70
     1
102
RTVSPropertyOp22
 70
     1
102
RTVSPropertyOp23
 70
     1
102
RTVSPropertyOp24
 70
     1
102
RTVSPropertyOp25
 70
     1
102
RTVSPropertyOp26
 70
     1
102
RTVSPropertyOp27
 70
     1
102
RTVSPropertyOp28
 70
     1
102
RTVSPropertyOp29
 70
     1
102
RTVSPropertyOp30
 70
     1
102
RTVSPropertyOp31
 70
     1
102
RTVSPropertyOp32
 70
     1
102
RTVSPropertyOp33
 70
     1
102
RTVSPropertyOp34
 70
     1
102
RTVSPropertyOp35
 70
     1
102
RTVSPropertyOp36
 70
     1
102
RTVSPropertyOp37
 70
     1
102
RTVSPropertyOp38
 70
     1
102
RTVSPropertyOp39
 70
     1
102
RTVSPropertyOp40
 70
     1
102
RTVSPropertyOp41
 70
     1
102
RTVSPropertyOp42
 70
     1
102
RTVSPropertyOp43
 70
     1
102
RTVSPropertyOp44
 70
     1
102
RTVSPropertyOp45
 70
     1
102
RTVSPropertyOp46
 70
     1
102
RTVSPropertyOp47
 70
     1
102
RTVSPropertyOp48
 70
     1
102
RTVSPropertyOp49
 70
     1
102
RTVSPropertyOp50
 70
     1
102
RTVSPropertyOp51
 70
     0
102
RTVSPropertyOp52
 70
     0
102
RTVSPropertyOp53
 70
     1
102
RTVSPropertyOp54
 70
     1
102
RTVSPropertyOp55
 70
     1
102
RTVSPropertyOp56
 70
     1
102
RTVSPropertyOp57
 70
     1
102
RTVSPropertyOp58
 70
     1
102
RTVSPropertyOp59
 70
     1
102
RTVSPropertyOp60
 70
     1
102
RTVSPropertyOp61
 70
     1
102
RTVSPropertyOp62
 70
     1
  0
XRECORD
  5
BF691
102
{ACAD_REACTORS
330
BF690
102
}
330
BF690
100
AcDbXrecord
280
     1
102
RTVSPost2010Prop28
280
     0
102
RTVSPost2010PropOp28
 70
     1
102
RTVSPost2010Prop29
280
     1
102
RTVSPost2010PropOp29
 70
     1
102
RTVSPost2010Prop30
280
     1
102
RTVSPost2010PropOp30
 70
     1
102
RTVSPost2010Prop31
280
     0
102
RTVSPost2010PropOp31
 70
     1
102
RTVSPost2010Prop32
280
     0
102
RTVSPost2010PropOp32
 70
     1
102
RTVSPost2010Prop33
280
     0
102
RTVSPost2010PropOp33
 70
     1
102
RTVSPost2010Prop34
280
     0
102
RTVSPost2010PropOp34
 70
     1
102
RTVSPost2010Prop35
280
     0
102
RTVSPost2010PropOp35
 70
     1
102
RTVSPost2010Prop36
280
     0
102
RTVSPost2010PropOp36
 70
     1
102
RTVSPost2010Prop37
 90
       50
102
RTVSPost2010PropOp37
 70
     1
102
RTVSPost2010Prop38
140
0.0
102
RTVSPost2010PropOp38
 70
     1
102
RTVSPost2010Prop39
140
1.0
102
RTVSPost2010PropOp39
 70
     1
102
RTVSPost2010Prop40
 90
        0
102
RTVSPost2010PropOp40
 70
     1
102
RTVSPost2010Prop41ColorIndex
 90
       18
102
RTVSPost2010Prop41ColorRGB
 90
        0
102
RTVSPost2010PropOp41
 70
     1
102
RTVSPost2010Prop42
 90
       50
102
RTVSPost2010PropOp42
 70
     1
102
RTVSPost2010Prop43
 90
        3
102
RTVSPost2010PropOp43
 70
     1
102
RTVSPost2010Prop44ColorIndex
 90
        5
102
RTVSPost2010Prop44ColorRGB
 90
      255
102
RTVSPost2010PropOp44
 70
     1
102
RTVSPost2010Prop45
280
     0
102
RTVSPost2010PropOp45
 70
     1
102
RTVSPost2010Prop46
 90
       50
102
RTVSPost2010PropOp46
 70
     1
102
RTVSPost2010Prop47
 90
       50
102
RTVSPost2010PropOp47
 70
     1
102
RTVSPost2010Prop48
 90
       50
102
RTVSPost2010PropOp48
 70
     1
102
RTVSPost2010Prop49
280
     0
102
RTVSPost2010PropOp49
 70
     1
102
RTVSPost2010Prop50
 90
       50
102
RTVSPost2010PropOp50
 70
     1
102
RTVSPost2010Prop51ColorIndex
 90
      256
102
RTVSPost2010Prop51ColorRGB
 90
-16777216
102
RTVSPost2010PropOp51
 70
     0
102
RTVSPost2010Prop52
140
1.0
102
RTVSPost2010PropOp52
 70
     0
102
RTVSPost2010Prop53
 90
        2
102
RTVSPost2010PropOp53
 70
     1
102
RTVSPost2010Prop54
  1
strokes_ogs.tif
102
RTVSPost2010PropOp54
 70
     1
102
RTVSPost2010Prop55
280
     0
102
RTVSPost2010PropOp55
 70
     1
102
RTVSPost2010Prop56
140
1.0
102
RTVSPost2010PropOp56
 70
     1
102
RTVSPost2010Prop57
140
1.0
102
RTVSPost2010PropOp57
 70
     1
102
RTVSPropertyOp0
 70
     1
102
RTVSPropertyOp1
 70
     1
102
RTVSPropertyOp2
 70
     1
102
RTVSPropertyOp3
 70
     1
102
RTVSPropertyOp4
 70
     1
102
RTVSPropertyOp5
 70
     1
102
RTVSPropertyOp6
 70
     1
102
RTVSPropertyOp7
 70
     1
102
RTVSPropertyOp8
 70
     1
102
RTVSPropertyOp9
 70
     1
102
RTVSPropertyOp10
 70
     1
102
RTVSPropertyOp11
 70
     1
102
RTVSPropertyOp12
 70
     1
102
RTVSPropertyOp13
 70
     1
102
RTVSPropertyOp14
 70
     1
102
RTVSPropertyOp15
 70
     1
102
RTVSPropertyOp16
 70
     1
102
RTVSPropertyOp17
 70
     1
102
RTVSPropertyOp18
 70
     1
102
RTVSPropertyOp19
 70
     1
102
RTVSPropertyOp20
 70
     1
102
RTVSPropertyOp21
 70
     1
102
RTVSPropertyOp22
 70
     1
102
RTVSPropertyOp23
 70
     1
102
RTVSPropertyOp24
 70
     1
102
RTVSPropertyOp25
 70
     1
102
RTVSPropertyOp26
 70
     1
102
RTVSPropertyOp27
 70
     1
102
RTVSPropertyOp28
 70
     1
102
RTVSPropertyOp29
 70
     1
102
RTVSPropertyOp30
 70
     1
102
RTVSPropertyOp31
 70
     1
102
RTVSPropertyOp32
 70
     1
102
RTVSPropertyOp33
 70
     1
102
RTVSPropertyOp34
 70
     1
102
RTVSPropertyOp35
 70
     1
102
RTVSPropertyOp36
 70
     1
102
RTVSPropertyOp37
 70
     1
102
RTVSPropertyOp38
 70
     1
102
RTVSPropertyOp39
 70
     1
102
RTVSPropertyOp40
 70
     1
102
RTVSPropertyOp41
 70
     1
102
RTVSPropertyOp42
 70
     1
102
RTVSPropertyOp43
 70
     1
102
RTVSPropertyOp44
 70
     1
102
RTVSPropertyOp45
 70
     1
102
RTVSPropertyOp46
 70
     1
102
RTVSPropertyOp47
 70
     1
102
RTVSPropertyOp48
 70
     1
102
RTVSPropertyOp49
 70
     1
102
RTVSPropertyOp50
 70
     1
102
RTVSPropertyOp51
 70
     0
102
RTVSPropertyOp52
 70
     0
102
RTVSPropertyOp53
 70
     1
102
RTVSPropertyOp54
 70
     1
102
RTVSPropertyOp55
 70
     1
102
RTVSPropertyOp56
 70
     1
102
RTVSPropertyOp57
 70
     1
102
RTVSPropertyOp58
 70
     1
102
RTVSPropertyOp59
 70
     1
102
RTVSPropertyOp60
 70
     1
102
RTVSPropertyOp61
 70
     1
102
RTVSPropertyOp62
 70
     1
  0
XRECORD
  5
BF6A1
102
{ACAD_REACTORS
330
BF6A0
102
}
330
BF6A0
100
AcDbXrecord
280
     1
102
RTVSPost2010Prop28
280
     0
102
RTVSPost2010PropOp28
 70
     0
102
RTVSPost2010Prop29
280
     1
102
RTVSPost2010PropOp29
 70
     0
102
RTVSPost2010Prop30
280
     1
102
RTVSPost2010PropOp30
 70
     0
102
RTVSPost2010Prop31
280
     0
102
RTVSPost2010PropOp31
 70
     0
102
RTVSPost2010Prop32
280
     0
102
RTVSPost2010PropOp32
 70
     0
102
RTVSPost2010Prop33
280
     0
102
RTVSPost2010PropOp33
 70
     0
102
RTVSPost2010Prop34
280
     0
102
RTVSPost2010PropOp34
 70
     0
102
RTVSPost2010Prop35
280
     0
102
RTVSPost2010PropOp35
 70
     0
102
RTVSPost2010Prop36
280
     0
102
RTVSPost2010PropOp36
 70
     0
102
RTVSPost2010Prop37
 90
       50
102
RTVSPost2010PropOp37
 70
     0
102
RTVSPost2010Prop38
140
0.0
102
RTVSPost2010PropOp38
 70
     0
102
RTVSPost2010Prop39
140
1.0
102
RTVSPost2010PropOp39
 70
     0
102
RTVSPost2010Prop40
 90
        0
102
RTVSPost2010PropOp40
 70
     0
102
RTVSPost2010Prop41ColorIndex
 90
       18
102
RTVSPost2010Prop41ColorRGB
 90
        0
102
RTVSPost2010PropOp41
 70
     0
102
RTVSPost2010Prop42
 90
       50
102
RTVSPost2010PropOp42
 70
     0
102
RTVSPost2010Prop43
 90
        3
102
RTVSPost2010PropOp43
 70
     0
102
RTVSPost2010Prop44ColorIndex
 90
        5
102
RTVSPost2010Prop44ColorRGB
 90
      255
102
RTVSPost2010PropOp44
 70
     0
102
RTVSPost2010Prop45
280
     0
102
RTVSPost2010PropOp45
 70
     0
102
RTVSPost2010Prop46
 90
       50
102
RTVSPost2010PropOp46
 70
     0
102
RTVSPost2010Prop47
 90
       50
102
RTVSPost2010PropOp47
 70
     0
102
RTVSPost2010Prop48
 90
       50
102
RTVSPost2010PropOp48
 70
     0
102
RTVSPost2010Prop49
280
     0
102
RTVSPost2010PropOp49
 70
     0
102
RTVSPost2010Prop50
 90
       50
102
RTVSPost2010PropOp50
 70
     0
102
RTVSPost2010Prop51ColorIndex
 90
      256
102
RTVSPost2010Prop51ColorRGB
 90
-16777216
102
RTVSPost2010PropOp51
 70
     0
102
RTVSPost2010Prop52
140
1.0
102
RTVSPost2010PropOp52
 70
     0
102
RTVSPost2010Prop53
 90
        2
102
RTVSPost2010PropOp53
 70
     0
102
RTVSPost2010Prop54
  1
strokes_ogs.tif
102
RTVSPost2010PropOp54
 70
     0
102
RTVSPost2010Prop55
280
     0
102
RTVSPost2010PropOp55
 70
     0
102
RTVSPost2010Prop56
140
1.0
102
RTVSPost2010PropOp56
 70
     0
102
RTVSPost2010Prop57
140
1.0
102
RTVSPost2010PropOp57
 70
     0
102
RTVSPropertyOp0
 70
     0
102
RTVSPropertyOp1
 70
     0
102
RTVSPropertyOp2
 70
     0
102
RTVSPropertyOp3
 70
     0
102
RTVSPropertyOp4
 70
     0
102
RTVSPropertyOp5
 70
     0
102
RTVSPropertyOp6
 70
     0
102
RTVSPropertyOp7
 70
     0
102
RTVSPropertyOp8
 70
     0
102
RTVSPropertyOp9
 70
     0
102
RTVSPropertyOp10
 70
     0
102
RTVSPropertyOp11
 70
     0
102
RTVSPropertyOp12
 70
     0
102
RTVSPropertyOp13
 70
     0
102
RTVSPropertyOp14
 70
     2
102
RTVSPropertyOp15
 70
     0
102
RTVSPropertyOp16
 70
     0
102
RTVSPropertyOp17
 70
     0
102
RTVSPropertyOp18
 70
     0
102
RTVSPropertyOp19
 70
     0
102
RTVSPropertyOp20
 70
     0
102
RTVSPropertyOp21
 70
     0
102
RTVSPropertyOp22
 70
     0
102
RTVSPropertyOp23
 70
     0
102
RTVSPropertyOp24
 70
     0
102
RTVSPropertyOp25
 70
     0
102
RTVSPropertyOp26
 70
     0
102
RTVSPropertyOp27
 70
     0
102
RTVSPropertyOp28
 70
     0
102
RTVSPropertyOp29
 70
     0
102
RTVSPropertyOp30
 70
     0
102
RTVSPropertyOp31
 70
     0
102
RTVSPropertyOp32
 70
     0
102
RTVSPropertyOp33
 70
     0
102
RTVSPropertyOp34
 70
     0
102
RTVSPropertyOp35
 70
     0
102
RTVSPropertyOp36
 70
     0
102
RTVSPropertyOp37
 70
     0
102
RTVSPropertyOp38
 70
     0
102
RTVSPropertyOp39
 70
     0
102
RTVSPropertyOp40
 70
     0
102
RTVSPropertyOp41
 70
     0
102
RTVSPropertyOp42
 70
     0
102
RTVSPropertyOp43
 70
     0
102
RTVSPropertyOp44
 70
     0
102
RTVSPropertyOp45
 70
     0
102
RTVSPropertyOp46
 70
     0
102
RTVSPropertyOp47
 70
     0
102
RTVSPropertyOp48
 70
     0
102
RTVSPropertyOp49
 70
     0
102
RTVSPropertyOp50
 70
     0
102
RTVSPropertyOp51
 70
     0
102
RTVSPropertyOp52
 70
     0
102
RTVSPropertyOp53
 70
     0
102
RTVSPropertyOp54
 70
     0
102
RTVSPropertyOp55
 70
     0
102
RTVSPropertyOp56
 70
     0
102
RTVSPropertyOp57
 70
     0
102
RTVSPropertyOp58
 70
     1
102
RTVSPropertyOp59
 70
     1
102
RTVSPropertyOp60
 70
     1
102
RTVSPropertyOp61
 70
     1
102
RTVSPropertyOp62
 70
     1
  0
XRECORD
  5
BF699
102
{ACAD_REACTORS
330
BF698
102
}
330
BF698
100
AcDbXrecord
280
     1
102
RTVSPost2010Prop28
280
     0
102
RTVSPost2010PropOp28
 70
     1
102
RTVSPost2010Prop29
280
     1
102
RTVSPost2010PropOp29
 70
     1
102
RTVSPost2010Prop30
280
     1
102
RTVSPost2010PropOp30
 70
     1
102
RTVSPost2010Prop31
280
     0
102
RTVSPost2010PropOp31
 70
     1
102
RTVSPost2010Prop32
280
     0
102
RTVSPost2010PropOp32
 70
     1
102
RTVSPost2010Prop33
280
     0
102
RTVSPost2010PropOp33
 70
     1
102
RTVSPost2010Prop34
280
     0
102
RTVSPost2010PropOp34
 70
     1
102
RTVSPost2010Prop35
280
     0
102
RTVSPost2010PropOp35
 70
     1
102
RTVSPost2010Prop36
280
     0
102
RTVSPost2010PropOp36
 70
     1
102
RTVSPost2010Prop37
 90
       50
102
RTVSPost2010PropOp37
 70
     1
102
RTVSPost2010Prop38
140
0.0
102
RTVSPost2010PropOp38
 70
     1
102
RTVSPost2010Prop39
140
1.0
102
RTVSPost2010PropOp39
 70
     1
102
RTVSPost2010Prop40
 90
        0
102
RTVSPost2010PropOp40
 70
     1
102
RTVSPost2010Prop41ColorIndex
 90
       18
102
RTVSPost2010Prop41ColorRGB
 90
        0
102
RTVSPost2010PropOp41
 70
     1
102
RTVSPost2010Prop42
 90
       50
102
RTVSPost2010PropOp42
 70
     1
102
RTVSPost2010Prop43
 90
        3
102
RTVSPost2010PropOp43
 70
     1
102
RTVSPost2010Prop44ColorIndex
 90
        5
102
RTVSPost2010Prop44ColorRGB
 90
      255
102
RTVSPost2010PropOp44
 70
     1
102
RTVSPost2010Prop45
280
     0
102
RTVSPost2010PropOp45
 70
     1
102
RTVSPost2010Prop46
 90
       50
102
RTVSPost2010PropOp46
 70
     1
102
RTVSPost2010Prop47
 90
       50
102
RTVSPost2010PropOp47
 70
     1
102
RTVSPost2010Prop48
 90
       50
102
RTVSPost2010PropOp48
 70
     1
102
RTVSPost2010Prop49
280
     0
102
RTVSPost2010PropOp49
 70
     1
102
RTVSPost2010Prop50
 90
       50
102
RTVSPost2010PropOp50
 70
     1
102
RTVSPost2010Prop51ColorIndex
 90
      256
102
RTVSPost2010Prop51ColorRGB
 90
-16777216
102
RTVSPost2010PropOp51
 70
     0
102
RTVSPost2010Prop52
140
1.0
102
RTVSPost2010PropOp52
 70
     0
102
RTVSPost2010Prop53
 90
        2
102
RTVSPost2010PropOp53
 70
     1
102
RTVSPost2010Prop54
  1
strokes_ogs.tif
102
RTVSPost2010PropOp54
 70
     1
102
RTVSPost2010Prop55
280
     0
102
RTVSPost2010PropOp55
 70
     1
102
RTVSPost2010Prop56
140
1.0
102
RTVSPost2010PropOp56
 70
     1
102
RTVSPost2010Prop57
140
1.0
102
RTVSPost2010PropOp57
 70
     1
102
RTVSPropertyOp0
 70
     1
102
RTVSPropertyOp1
 70
     1
102
RTVSPropertyOp2
 70
     1
102
RTVSPropertyOp3
 70
     1
102
RTVSPropertyOp4
 70
     1
102
RTVSPropertyOp5
 70
     1
102
RTVSPropertyOp6
 70
     1
102
RTVSPropertyOp7
 70
     1
102
RTVSPropertyOp8
 70
     1
102
RTVSPropertyOp9
 70
     1
102
RTVSPropertyOp10
 70
     1
102
RTVSPropertyOp11
 70
     1
102
RTVSPropertyOp12
 70
     1
102
RTVSPropertyOp13
 70
     1
102
RTVSPropertyOp14
 70
     1
102
RTVSPropertyOp15
 70
     1
102
RTVSPropertyOp16
 70
     1
102
RTVSPropertyOp17
 70
     1
102
RTVSPropertyOp18
 70
     1
102
RTVSPropertyOp19
 70
     1
102
RTVSPropertyOp20
 70
     1
102
RTVSPropertyOp21
 70
     1
102
RTVSPropertyOp22
 70
     1
102
RTVSPropertyOp23
 70
     1
102
RTVSPropertyOp24
 70
     1
102
RTVSPropertyOp25
 70
     1
102
RTVSPropertyOp26
 70
     1
102
RTVSPropertyOp27
 70
     1
102
RTVSPropertyOp28
 70
     1
102
RTVSPropertyOp29
 70
     1
102
RTVSPropertyOp30
 70
     1
102
RTVSPropertyOp31
 70
     1
102
RTVSPropertyOp32
 70
     1
102
RTVSPropertyOp33
 70
     1
102
RTVSPropertyOp34
 70
     1
102
RTVSPropertyOp35
 70
     1
102
RTVSPropertyOp36
 70
     1
102
RTVSPropertyOp37
 70
     1
102
RTVSPropertyOp38
 70
     1
102
RTVSPropertyOp39
 70
     1
102
RTVSPropertyOp40
 70
     1
102
RTVSPropertyOp41
 70
     1
102
RTVSPropertyOp42
 70
     1
102
RTVSPropertyOp43
 70
     1
102
RTVSPropertyOp44
 70
     1
102
RTVSPropertyOp45
 70
     1
102
RTVSPropertyOp46
 70
     1
102
RTVSPropertyOp47
 70
     1
102
RTVSPropertyOp48
 70
     1
102
RTVSPropertyOp49
 70
     1
102
RTVSPropertyOp50
 70
     1
102
RTVSPropertyOp51
 70
     0
102
RTVSPropertyOp52
 70
     0
102
RTVSPropertyOp53
 70
     1
102
RTVSPropertyOp54
 70
     1
102
RTVSPropertyOp55
 70
     1
102
RTVSPropertyOp56
 70
     1
102
RTVSPropertyOp57
 70
     1
102
RTVSPropertyOp58
 70
     1
102
RTVSPropertyOp59
 70
     1
102
RTVSPropertyOp60
 70
     1
102
RTVSPropertyOp61
 70
     1
102
RTVSPropertyOp62
 70
     1
  0
XRECORD
  5
BF67D
102
{ACAD_REACTORS
330
BF67C
102
}
330
BF67C
100
AcDbXrecord
280
     1
102
RTVSPost2010Prop28
280
     0
102
RTVSPost2010PropOp28
 70
     1
102
RTVSPost2010Prop29
280
     1
102
RTVSPost2010PropOp29
 70
     1
102
RTVSPost2010Prop30
280
     1
102
RTVSPost2010PropOp30
 70
     1
102
RTVSPost2010Prop31
280
     0
102
RTVSPost2010PropOp31
 70
     1
102
RTVSPost2010Prop32
280
     0
102
RTVSPost2010PropOp32
 70
     1
102
RTVSPost2010Prop33
280
     0
102
RTVSPost2010PropOp33
 70
     1
102
RTVSPost2010Prop34
280
     0
102
RTVSPost2010PropOp34
 70
     1
102
RTVSPost2010Prop35
280
     0
102
RTVSPost2010PropOp35
 70
     1
102
RTVSPost2010Prop36
280
     0
102
RTVSPost2010PropOp36
 70
     1
102
RTVSPost2010Prop37
 90
       50
102
RTVSPost2010PropOp37
 70
     1
102
RTVSPost2010Prop38
140
0.0
102
RTVSPost2010PropOp38
 70
     1
102
RTVSPost2010Prop39
140
1.0
102
RTVSPost2010PropOp39
 70
     1
102
RTVSPost2010Prop40
 90
        0
102
RTVSPost2010PropOp40
 70
     1
102
RTVSPost2010Prop41ColorIndex
 90
       18
102
RTVSPost2010Prop41ColorRGB
 90
        0
102
RTVSPost2010PropOp41
 70
     1
102
RTVSPost2010Prop42
 90
       50
102
RTVSPost2010PropOp42
 70
     1
102
RTVSPost2010Prop43
 90
        3
102
RTVSPost2010PropOp43
 70
     1
102
RTVSPost2010Prop44ColorIndex
 90
        5
102
RTVSPost2010Prop44ColorRGB
 90
      255
102
RTVSPost2010PropOp44
 70
     1
102
RTVSPost2010Prop45
280
     0
102
RTVSPost2010PropOp45
 70
     1
102
RTVSPost2010Prop46
 90
       50
102
RTVSPost2010PropOp46
 70
     1
102
RTVSPost2010Prop47
 90
       50
102
RTVSPost2010PropOp47
 70
     1
102
RTVSPost2010Prop48
 90
       50
102
RTVSPost2010PropOp48
 70
     1
102
RTVSPost2010Prop49
280
     0
102
RTVSPost2010PropOp49
 70
     1
102
RTVSPost2010Prop50
 90
       50
102
RTVSPost2010PropOp50
 70
     1
102
RTVSPost2010Prop51ColorIndex
 90
      256
102
RTVSPost2010Prop51ColorRGB
 90
-16777216
102
RTVSPost2010PropOp51
 70
     0
102
RTVSPost2010Prop52
140
1.0
102
RTVSPost2010PropOp52
 70
     0
102
RTVSPost2010Prop53
 90
        2
102
RTVSPost2010PropOp53
 70
     1
102
RTVSPost2010Prop54
  1
strokes_ogs.tif
102
RTVSPost2010PropOp54
 70
     1
102
RTVSPost2010Prop55
280
     0
102
RTVSPost2010PropOp55
 70
     1
102
RTVSPost2010Prop56
140
1.0
102
RTVSPost2010PropOp56
 70
     1
102
RTVSPost2010Prop57
140
1.0
102
RTVSPost2010PropOp57
 70
     1
102
RTVSPropertyOp0
 70
     1
102
RTVSPropertyOp1
 70
     1
102
RTVSPropertyOp2
 70
     1
102
RTVSPropertyOp3
 70
     1
102
RTVSPropertyOp4
 70
     1
102
RTVSPropertyOp5
 70
     1
102
RTVSPropertyOp6
 70
     1
102
RTVSPropertyOp7
 70
     1
102
RTVSPropertyOp8
 70
     1
102
RTVSPropertyOp9
 70
     1
102
RTVSPropertyOp10
 70
     1
102
RTVSPropertyOp11
 70
     1
102
RTVSPropertyOp12
 70
     1
102
RTVSPropertyOp13
 70
     1
102
RTVSPropertyOp14
 70
     1
102
RTVSPropertyOp15
 70
     1
102
RTVSPropertyOp16
 70
     1
102
RTVSPropertyOp17
 70
     1
102
RTVSPropertyOp18
 70
     1
102
RTVSPropertyOp19
 70
     1
102
RTVSPropertyOp20
 70
     1
102
RTVSPropertyOp21
 70
     1
102
RTVSPropertyOp22
 70
     1
102
RTVSPropertyOp23
 70
     1
102
RTVSPropertyOp24
 70
     1
102
RTVSPropertyOp25
 70
     1
102
RTVSPropertyOp26
 70
     1
102
RTVSPropertyOp27
 70
     1
102
RTVSPropertyOp28
 70
     1
102
RTVSPropertyOp29
 70
     1
102
RTVSPropertyOp30
 70
     1
102
RTVSPropertyOp31
 70
     1
102
RTVSPropertyOp32
 70
     1
102
RTVSPropertyOp33
 70
     1
102
RTVSPropertyOp34
 70
     1
102
RTVSPropertyOp35
 70
     1
102
RTVSPropertyOp36
 70
     1
102
RTVSPropertyOp37
 70
     1
102
RTVSPropertyOp38
 70
     1
102
RTVSPropertyOp39
 70
     1
102
RTVSPropertyOp40
 70
     1
102
RTVSPropertyOp41
 70
     1
102
RTVSPropertyOp42
 70
     1
102
RTVSPropertyOp43
 70
     1
102
RTVSPropertyOp44
 70
     1
102
RTVSPropertyOp45
 70
     1
102
RTVSPropertyOp46
 70
     1
102
RTVSPropertyOp47
 70
     1
102
RTVSPropertyOp48
 70
     1
102
RTVSPropertyOp49
 70
     1
102
RTVSPropertyOp50
 70
     1
102
RTVSPropertyOp51
 70
     0
102
RTVSPropertyOp52
 70
     0
102
RTVSPropertyOp53
 70
     1
102
RTVSPropertyOp54
 70
     1
102
RTVSPropertyOp55
 70
     1
102
RTVSPropertyOp56
 70
     1
102
RTVSPropertyOp57
 70
     1
102
RTVSPropertyOp58
 70
     1
102
RTVSPropertyOp59
 70
     1
102
RTVSPropertyOp60
 70
     1
102
RTVSPropertyOp61
 70
     1
102
RTVSPropertyOp62
 70
     1
  0
XRECORD
  5
BF67F
102
{ACAD_REACTORS
330
BF67E
102
}
330
BF67E
100
AcDbXrecord
280
     1
102
RTVSPost2010Prop28
280
     0
102
RTVSPost2010PropOp28
 70
     1
102
RTVSPost2010Prop29
280
     1
102
RTVSPost2010PropOp29
 70
     1
102
RTVSPost2010Prop30
280
     1
102
RTVSPost2010PropOp30
 70
     1
102
RTVSPost2010Prop31
280
     0
102
RTVSPost2010PropOp31
 70
     1
102
RTVSPost2010Prop32
280
     0
102
RTVSPost2010PropOp32
 70
     1
102
RTVSPost2010Prop33
280
     0
102
RTVSPost2010PropOp33
 70
     1
102
RTVSPost2010Prop34
280
     0
102
RTVSPost2010PropOp34
 70
     1
102
RTVSPost2010Prop35
280
     0
102
RTVSPost2010PropOp35
 70
     1
102
RTVSPost2010Prop36
280
     0
102
RTVSPost2010PropOp36
 70
     1
102
RTVSPost2010Prop37
 90
       50
102
RTVSPost2010PropOp37
 70
     1
102
RTVSPost2010Prop38
140
0.0
102
RTVSPost2010PropOp38
 70
     1
102
RTVSPost2010Prop39
140
1.0
102
RTVSPost2010PropOp39
 70
     1
102
RTVSPost2010Prop40
 90
        0
102
RTVSPost2010PropOp40
 70
     1
102
RTVSPost2010Prop41ColorIndex
 90
       18
102
RTVSPost2010Prop41ColorRGB
 90
        0
102
RTVSPost2010PropOp41
 70
     1
102
RTVSPost2010Prop42
 90
       50
102
RTVSPost2010PropOp42
 70
     1
102
RTVSPost2010Prop43
 90
        3
102
RTVSPost2010PropOp43
 70
     1
102
RTVSPost2010Prop44ColorIndex
 90
        5
102
RTVSPost2010Prop44ColorRGB
 90
      255
102
RTVSPost2010PropOp44
 70
     1
102
RTVSPost2010Prop45
280
     0
102
RTVSPost2010PropOp45
 70
     1
102
RTVSPost2010Prop46
 90
       50
102
RTVSPost2010PropOp46
 70
     1
102
RTVSPost2010Prop47
 90
       50
102
RTVSPost2010PropOp47
 70
     1
102
RTVSPost2010Prop48
 90
       50
102
RTVSPost2010PropOp48
 70
     1
102
RTVSPost2010Prop49
280
     0
102
RTVSPost2010PropOp49
 70
     1
102
RTVSPost2010Prop50
 90
       50
102
RTVSPost2010PropOp50
 70
     1
102
RTVSPost2010Prop51ColorIndex
 90
      256
102
RTVSPost2010Prop51ColorRGB
 90
-16777216
102
RTVSPost2010PropOp51
 70
     0
102
RTVSPost2010Prop52
140
1.0
102
RTVSPost2010PropOp52
 70
     0
102
RTVSPost2010Prop53
 90
        2
102
RTVSPost2010PropOp53
 70
     1
102
RTVSPost2010Prop54
  1
strokes_ogs.tif
102
RTVSPost2010PropOp54
 70
     1
102
RTVSPost2010Prop55
280
     0
102
RTVSPost2010PropOp55
 70
     1
102
RTVSPost2010Prop56
140
1.0
102
RTVSPost2010PropOp56
 70
     1
102
RTVSPost2010Prop57
140
1.0
102
RTVSPost2010PropOp57
 70
     1
102
RTVSPropertyOp0
 70
     1
102
RTVSPropertyOp1
 70
     1
102
RTVSPropertyOp2
 70
     1
102
RTVSPropertyOp3
 70
     1
102
RTVSPropertyOp4
 70
     1
102
RTVSPropertyOp5
 70
     1
102
RTVSPropertyOp6
 70
     1
102
RTVSPropertyOp7
 70
     1
102
RTVSPropertyOp8
 70
     1
102
RTVSPropertyOp9
 70
     1
102
RTVSPropertyOp10
 70
     1
102
RTVSPropertyOp11
 70
     1
102
RTVSPropertyOp12
 70
     1
102
RTVSPropertyOp13
 70
     1
102
RTVSPropertyOp14
 70
     1
102
RTVSPropertyOp15
 70
     1
102
RTVSPropertyOp16
 70
     1
102
RTVSPropertyOp17
 70
     1
102
RTVSPropertyOp18
 70
     1
102
RTVSPropertyOp19
 70
     1
102
RTVSPropertyOp20
 70
     1
102
RTVSPropertyOp21
 70
     1
102
RTVSPropertyOp22
 70
     1
102
RTVSPropertyOp23
 70
     1
102
RTVSPropertyOp24
 70
     1
102
RTVSPropertyOp25
 70
     1
102
RTVSPropertyOp26
 70
     1
102
RTVSPropertyOp27
 70
     1
102
RTVSPropertyOp28
 70
     1
102
RTVSPropertyOp29
 70
     1
102
RTVSPropertyOp30
 70
     1
102
RTVSPropertyOp31
 70
     1
102
RTVSPropertyOp32
 70
     1
102
RTVSPropertyOp33
 70
     1
102
RTVSPropertyOp34
 70
     1
102
RTVSPropertyOp35
 70
     1
102
RTVSPropertyOp36
 70
     1
102
RTVSPropertyOp37
 70
     1
102
RTVSPropertyOp38
 70
     1
102
RTVSPropertyOp39
 70
     1
102
RTVSPropertyOp40
 70
     1
102
RTVSPropertyOp41
 70
     1
102
RTVSPropertyOp42
 70
     1
102
RTVSPropertyOp43
 70
     1
102
RTVSPropertyOp44
 70
     1
102
RTVSPropertyOp45
 70
     1
102
RTVSPropertyOp46
 70
     1
102
RTVSPropertyOp47
 70
     1
102
RTVSPropertyOp48
 70
     1
102
RTVSPropertyOp49
 70
     1
102
RTVSPropertyOp50
 70
     1
102
RTVSPropertyOp51
 70
     0
102
RTVSPropertyOp52
 70
     0
102
RTVSPropertyOp53
 70
     1
102
RTVSPropertyOp54
 70
     1
102
RTVSPropertyOp55
 70
     1
102
RTVSPropertyOp56
 70
     1
102
RTVSPropertyOp57
 70
     1
102
RTVSPropertyOp58
 70
     1
102
RTVSPropertyOp59
 70
     1
102
RTVSPropertyOp60
 70
     1
102
RTVSPropertyOp61
 70
     1
102
RTVSPropertyOp62
 70
     1
  0
XRECORD
  5
BF681
102
{ACAD_REACTORS
330
BF680
102
}
330
BF680
100
AcDbXrecord
280
     1
102
RTVSPost2010Prop28
280
     0
102
RTVSPost2010PropOp28
 70
     1
102
RTVSPost2010Prop29
280
     1
102
RTVSPost2010PropOp29
 70
     1
102
RTVSPost2010Prop30
280
     1
102
RTVSPost2010PropOp30
 70
     1
102
RTVSPost2010Prop31
280
     0
102
RTVSPost2010PropOp31
 70
     1
102
RTVSPost2010Prop32
280
     0
102
RTVSPost2010PropOp32
 70
     1
102
RTVSPost2010Prop33
280
     0
102
RTVSPost2010PropOp33
 70
     1
102
RTVSPost2010Prop34
280
     0
102
RTVSPost2010PropOp34
 70
     1
102
RTVSPost2010Prop35
280
     0
102
RTVSPost2010PropOp35
 70
     1
102
RTVSPost2010Prop36
280
     0
102
RTVSPost2010PropOp36
 70
     1
102
RTVSPost2010Prop37
 90
       50
102
RTVSPost2010PropOp37
 70
     1
102
RTVSPost2010Prop38
140
0.0
102
RTVSPost2010PropOp38
 70
     1
102
RTVSPost2010Prop39
140
1.0
102
RTVSPost2010PropOp39
 70
     1
102
RTVSPost2010Prop40
 90
        0
102
RTVSPost2010PropOp40
 70
     1
102
RTVSPost2010Prop41ColorIndex
 90
       18
102
RTVSPost2010Prop41ColorRGB
 90
        0
102
RTVSPost2010PropOp41
 70
     1
102
RTVSPost2010Prop42
 90
       50
102
RTVSPost2010PropOp42
 70
     1
102
RTVSPost2010Prop43
 90
        3
102
RTVSPost2010PropOp43
 70
     1
102
RTVSPost2010Prop44ColorIndex
 90
        5
102
RTVSPost2010Prop44ColorRGB
 90
      255
102
RTVSPost2010PropOp44
 70
     1
102
RTVSPost2010Prop45
280
     0
102
RTVSPost2010PropOp45
 70
     1
102
RTVSPost2010Prop46
 90
       50
102
RTVSPost2010PropOp46
 70
     1
102
RTVSPost2010Prop47
 90
       50
102
RTVSPost2010PropOp47
 70
     1
102
RTVSPost2010Prop48
 90
       50
102
RTVSPost2010PropOp48
 70
     1
102
RTVSPost2010Prop49
280
     0
102
RTVSPost2010PropOp49
 70
     1
102
RTVSPost2010Prop50
 90
       50
102
RTVSPost2010PropOp50
 70
     1
102
RTVSPost2010Prop51ColorIndex
 90
      256
102
RTVSPost2010Prop51ColorRGB
 90
-16777216
102
RTVSPost2010PropOp51
 70
     0
102
RTVSPost2010Prop52
140
1.0
102
RTVSPost2010PropOp52
 70
     0
102
RTVSPost2010Prop53
 90
        2
102
RTVSPost2010PropOp53
 70
     1
102
RTVSPost2010Prop54
  1
strokes_ogs.tif
102
RTVSPost2010PropOp54
 70
     1
102
RTVSPost2010Prop55
280
     0
102
RTVSPost2010PropOp55
 70
     1
102
RTVSPost2010Prop56
140
1.0
102
RTVSPost2010PropOp56
 70
     1
102
RTVSPost2010Prop57
140
1.0
102
RTVSPost2010PropOp57
 70
     1
102
RTVSPropertyOp0
 70
     1
102
RTVSPropertyOp1
 70
     1
102
RTVSPropertyOp2
 70
     1
102
RTVSPropertyOp3
 70
     1
102
RTVSPropertyOp4
 70
     1
102
RTVSPropertyOp5
 70
     1
102
RTVSPropertyOp6
 70
     1
102
RTVSPropertyOp7
 70
     1
102
RTVSPropertyOp8
 70
     1
102
RTVSPropertyOp9
 70
     1
102
RTVSPropertyOp10
 70
     1
102
RTVSPropertyOp11
 70
     1
102
RTVSPropertyOp12
 70
     1
102
RTVSPropertyOp13
 70
     1
102
RTVSPropertyOp14
 70
     1
102
RTVSPropertyOp15
 70
     1
102
RTVSPropertyOp16
 70
     1
102
RTVSPropertyOp17
 70
     1
102
RTVSPropertyOp18
 70
     1
102
RTVSPropertyOp19
 70
     1
102
RTVSPropertyOp20
 70
     1
102
RTVSPropertyOp21
 70
     1
102
RTVSPropertyOp22
 70
     1
102
RTVSPropertyOp23
 70
     1
102
RTVSPropertyOp24
 70
     1
102
RTVSPropertyOp25
 70
     1
102
RTVSPropertyOp26
 70
     1
102
RTVSPropertyOp27
 70
     1
102
RTVSPropertyOp28
 70
     1
102
RTVSPropertyOp29
 70
     1
102
RTVSPropertyOp30
 70
     1
102
RTVSPropertyOp31
 70
     1
102
RTVSPropertyOp32
 70
     1
102
RTVSPropertyOp33
 70
     1
102
RTVSPropertyOp34
 70
     1
102
RTVSPropertyOp35
 70
     1
102
RTVSPropertyOp36
 70
     1
102
RTVSPropertyOp37
 70
     1
102
RTVSPropertyOp38
 70
     1
102
RTVSPropertyOp39
 70
     1
102
RTVSPropertyOp40
 70
     1
102
RTVSPropertyOp41
 70
     1
102
RTVSPropertyOp42
 70
     1
102
RTVSPropertyOp43
 70
     1
102
RTVSPropertyOp44
 70
     1
102
RTVSPropertyOp45
 70
     1
102
RTVSPropertyOp46
 70
     1
102
RTVSPropertyOp47
 70
     1
102
RTVSPropertyOp48
 70
     1
102
RTVSPropertyOp49
 70
     1
102
RTVSPropertyOp50
 70
     1
102
RTVSPropertyOp51
 70
     0
102
RTVSPropertyOp52
 70
     0
102
RTVSPropertyOp53
 70
     1
102
RTVSPropertyOp54
 70
     1
102
RTVSPropertyOp55
 70
     1
102
RTVSPropertyOp56
 70
     1
102
RTVSPropertyOp57
 70
     1
102
RTVSPropertyOp58
 70
     1
102
RTVSPropertyOp59
 70
     1
102
RTVSPropertyOp60
 70
     1
102
RTVSPropertyOp61
 70
     1
102
RTVSPropertyOp62
 70
     1
  0
XRECORD
  5
BF683
102
{ACAD_REACTORS
330
BF682
102
}
330
BF682
100
AcDbXrecord
280
     1
102
RTVSPost2010Prop28
280
     0
102
RTVSPost2010PropOp28
 70
     1
102
RTVSPost2010Prop29
280
     1
102
RTVSPost2010PropOp29
 70
     1
102
RTVSPost2010Prop30
280
     1
102
RTVSPost2010PropOp30
 70
     1
102
RTVSPost2010Prop31
280
     0
102
RTVSPost2010PropOp31
 70
     1
102
RTVSPost2010Prop32
280
     0
102
RTVSPost2010PropOp32
 70
     1
102
RTVSPost2010Prop33
280
     0
102
RTVSPost2010PropOp33
 70
     1
102
RTVSPost2010Prop34
280
     0
102
RTVSPost2010PropOp34
 70
     1
102
RTVSPost2010Prop35
280
     0
102
RTVSPost2010PropOp35
 70
     1
102
RTVSPost2010Prop36
280
     0
102
RTVSPost2010PropOp36
 70
     1
102
RTVSPost2010Prop37
 90
       50
102
RTVSPost2010PropOp37
 70
     1
102
RTVSPost2010Prop38
140
0.0
102
RTVSPost2010PropOp38
 70
     1
102
RTVSPost2010Prop39
140
1.0
102
RTVSPost2010PropOp39
 70
     1
102
RTVSPost2010Prop40
 90
        0
102
RTVSPost2010PropOp40
 70
     1
102
RTVSPost2010Prop41ColorIndex
 90
       18
102
RTVSPost2010Prop41ColorRGB
 90
        0
102
RTVSPost2010PropOp41
 70
     1
102
RTVSPost2010Prop42
 90
       50
102
RTVSPost2010PropOp42
 70
     1
102
RTVSPost2010Prop43
 90
        3
102
RTVSPost2010PropOp43
 70
     1
102
RTVSPost2010Prop44ColorIndex
 90
        5
102
RTVSPost2010Prop44ColorRGB
 90
      255
102
RTVSPost2010PropOp44
 70
     1
102
RTVSPost2010Prop45
280
     0
102
RTVSPost2010PropOp45
 70
     1
102
RTVSPost2010Prop46
 90
       50
102
RTVSPost2010PropOp46
 70
     1
102
RTVSPost2010Prop47
 90
       50
102
RTVSPost2010PropOp47
 70
     1
102
RTVSPost2010Prop48
 90
       50
102
RTVSPost2010PropOp48
 70
     1
102
RTVSPost2010Prop49
280
     0
102
RTVSPost2010PropOp49
 70
     1
102
RTVSPost2010Prop50
 90
       50
102
RTVSPost2010PropOp50
 70
     1
102
RTVSPost2010Prop51ColorIndex
 90
      256
102
RTVSPost2010Prop51ColorRGB
 90
-16777216
102
RTVSPost2010PropOp51
 70
     0
102
RTVSPost2010Prop52
140
1.0
102
RTVSPost2010PropOp52
 70
     0
102
RTVSPost2010Prop53
 90
        2
102
RTVSPost2010PropOp53
 70
     1
102
RTVSPost2010Prop54
  1
strokes_ogs.tif
102
RTVSPost2010PropOp54
 70
     1
102
RTVSPost2010Prop55
280
     0
102
RTVSPost2010PropOp55
 70
     1
102
RTVSPost2010Prop56
140
1.0
102
RTVSPost2010PropOp56
 70
     1
102
RTVSPost2010Prop57
140
1.0
102
RTVSPost2010PropOp57
 70
     1
102
RTVSPropertyOp0
 70
     1
102
RTVSPropertyOp1
 70
     1
102
RTVSPropertyOp2
 70
     1
102
RTVSPropertyOp3
 70
     1
102
RTVSPropertyOp4
 70
     1
102
RTVSPropertyOp5
 70
     1
102
RTVSPropertyOp6
 70
     1
102
RTVSPropertyOp7
 70
     1
102
RTVSPropertyOp8
 70
     1
102
RTVSPropertyOp9
 70
     1
102
RTVSPropertyOp10
 70
     1
102
RTVSPropertyOp11
 70
     1
102
RTVSPropertyOp12
 70
     1
102
RTVSPropertyOp13
 70
     1
102
RTVSPropertyOp14
 70
     1
102
RTVSPropertyOp15
 70
     1
102
RTVSPropertyOp16
 70
     1
102
RTVSPropertyOp17
 70
     1
102
RTVSPropertyOp18
 70
     1
102
RTVSPropertyOp19
 70
     1
102
RTVSPropertyOp20
 70
     1
102
RTVSPropertyOp21
 70
     1
102
RTVSPropertyOp22
 70
     1
102
RTVSPropertyOp23
 70
     1
102
RTVSPropertyOp24
 70
     1
102
RTVSPropertyOp25
 70
     1
102
RTVSPropertyOp26
 70
     1
102
RTVSPropertyOp27
 70
     1
102
RTVSPropertyOp28
 70
     1
102
RTVSPropertyOp29
 70
     1
102
RTVSPropertyOp30
 70
     1
102
RTVSPropertyOp31
 70
     1
102
RTVSPropertyOp32
 70
     1
102
RTVSPropertyOp33
 70
     1
102
RTVSPropertyOp34
 70
     1
102
RTVSPropertyOp35
 70
     1
102
RTVSPropertyOp36
 70
     1
102
RTVSPropertyOp37
 70
     1
102
RTVSPropertyOp38
 70
     1
102
RTVSPropertyOp39
 70
     1
102
RTVSPropertyOp40
 70
     1
102
RTVSPropertyOp41
 70
     1
102
RTVSPropertyOp42
 70
     1
102
RTVSPropertyOp43
 70
     1
102
RTVSPropertyOp44
 70
     1
102
RTVSPropertyOp45
 70
     1
102
RTVSPropertyOp46
 70
     1
102
RTVSPropertyOp47
 70
     1
102
RTVSPropertyOp48
 70
     1
102
RTVSPropertyOp49
 70
     1
102
RTVSPropertyOp50
 70
     1
102
RTVSPropertyOp51
 70
     0
102
RTVSPropertyOp52
 70
     0
102
RTVSPropertyOp53
 70
     1
102
RTVSPropertyOp54
 70
     1
102
RTVSPropertyOp55
 70
     1
102
RTVSPropertyOp56
 70
     1
102
RTVSPropertyOp57
 70
     1
102
RTVSPropertyOp58
 70
     1
102
RTVSPropertyOp59
 70
     1
102
RTVSPropertyOp60
 70
     1
102
RTVSPropertyOp61
 70
     1
102
RTVSPropertyOp62
 70
     1
  0
XRECORD
  5
BF689
102
{ACAD_REACTORS
330
BF688
102
}
330
BF688
100
AcDbXrecord
280
     1
102
RTVSPost2010Prop28
280
     0
102
RTVSPost2010PropOp28
 70
     1
102
RTVSPost2010Prop29
280
     1
102
RTVSPost2010PropOp29
 70
     1
102
RTVSPost2010Prop30
280
     1
102
RTVSPost2010PropOp30
 70
     1
102
RTVSPost2010Prop31
280
     0
102
RTVSPost2010PropOp31
 70
     1
102
RTVSPost2010Prop32
280
     0
102
RTVSPost2010PropOp32
 70
     1
102
RTVSPost2010Prop33
280
     0
102
RTVSPost2010PropOp33
 70
     1
102
RTVSPost2010Prop34
280
     0
102
RTVSPost2010PropOp34
 70
     1
102
RTVSPost2010Prop35
280
     0
102
RTVSPost2010PropOp35
 70
     1
102
RTVSPost2010Prop36
280
     0
102
RTVSPost2010PropOp36
 70
     1
102
RTVSPost2010Prop37
 90
       50
102
RTVSPost2010PropOp37
 70
     1
102
RTVSPost2010Prop38
140
0.0
102
RTVSPost2010PropOp38
 70
     1
102
RTVSPost2010Prop39
140
1.0
102
RTVSPost2010PropOp39
 70
     1
102
RTVSPost2010Prop40
 90
        0
102
RTVSPost2010PropOp40
 70
     1
102
RTVSPost2010Prop41ColorIndex
 90
       18
102
RTVSPost2010Prop41ColorRGB
 90
        0
102
RTVSPost2010PropOp41
 70
     1
102
RTVSPost2010Prop42
 90
       50
102
RTVSPost2010PropOp42
 70
     1
102
RTVSPost2010Prop43
 90
        3
102
RTVSPost2010PropOp43
 70
     1
102
RTVSPost2010Prop44ColorIndex
 90
        5
102
RTVSPost2010Prop44ColorRGB
 90
      255
102
RTVSPost2010PropOp44
 70
     1
102
RTVSPost2010Prop45
280
     0
102
RTVSPost2010PropOp45
 70
     1
102
RTVSPost2010Prop46
 90
       50
102
RTVSPost2010PropOp46
 70
     1
102
RTVSPost2010Prop47
 90
       50
102
RTVSPost2010PropOp47
 70
     1
102
RTVSPost2010Prop48
 90
       50
102
RTVSPost2010PropOp48
 70
     1
102
RTVSPost2010Prop49
280
     0
102
RTVSPost2010PropOp49
 70
     1
102
RTVSPost2010Prop50
 90
       50
102
RTVSPost2010PropOp50
 70
     1
102
RTVSPost2010Prop51ColorIndex
 90
      256
102
RTVSPost2010Prop51ColorRGB
 90
-16777216
102
RTVSPost2010PropOp51
 70
     0
102
RTVSPost2010Prop52
140
1.0
102
RTVSPost2010PropOp52
 70
     0
102
RTVSPost2010Prop53
 90
        2
102
RTVSPost2010PropOp53
 70
     1
102
RTVSPost2010Prop54
  1
strokes_ogs.tif
102
RTVSPost2010PropOp54
 70
     1
102
RTVSPost2010Prop55
280
     0
102
RTVSPost2010PropOp55
 70
     1
102
RTVSPost2010Prop56
140
1.0
102
RTVSPost2010PropOp56
 70
     1
102
RTVSPost2010Prop57
140
1.0
102
RTVSPost2010PropOp57
 70
     1
102
RTVSPropertyOp0
 70
     1
102
RTVSPropertyOp1
 70
     1
102
RTVSPropertyOp2
 70
     1
102
RTVSPropertyOp3
 70
     1
102
RTVSPropertyOp4
 70
     1
102
RTVSPropertyOp5
 70
     1
102
RTVSPropertyOp6
 70
     1
102
RTVSPropertyOp7
 70
     1
102
RTVSPropertyOp8
 70
     1
102
RTVSPropertyOp9
 70
     1
102
RTVSPropertyOp10
 70
     1
102
RTVSPropertyOp11
 70
     1
102
RTVSPropertyOp12
 70
     1
102
RTVSPropertyOp13
 70
     1
102
RTVSPropertyOp14
 70
     1
102
RTVSPropertyOp15
 70
     1
102
RTVSPropertyOp16
 70
     1
102
RTVSPropertyOp17
 70
     1
102
RTVSPropertyOp18
 70
     1
102
RTVSPropertyOp19
 70
     1
102
RTVSPropertyOp20
 70
     1
102
RTVSPropertyOp21
 70
     1
102
RTVSPropertyOp22
 70
     1
102
RTVSPropertyOp23
 70
     1
102
RTVSPropertyOp24
 70
     1
102
RTVSPropertyOp25
 70
     1
102
RTVSPropertyOp26
 70
     1
102
RTVSPropertyOp27
 70
     1
102
RTVSPropertyOp28
 70
     1
102
RTVSPropertyOp29
 70
     1
102
RTVSPropertyOp30
 70
     1
102
RTVSPropertyOp31
 70
     1
102
RTVSPropertyOp32
 70
     1
102
RTVSPropertyOp33
 70
     1
102
RTVSPropertyOp34
 70
     1
102
RTVSPropertyOp35
 70
     1
102
RTVSPropertyOp36
 70
     1
102
RTVSPropertyOp37
 70
     1
102
RTVSPropertyOp38
 70
     1
102
RTVSPropertyOp39
 70
     1
102
RTVSPropertyOp40
 70
     1
102
RTVSPropertyOp41
 70
     1
102
RTVSPropertyOp42
 70
     1
102
RTVSPropertyOp43
 70
     1
102
RTVSPropertyOp44
 70
     1
102
RTVSPropertyOp45
 70
     1
102
RTVSPropertyOp46
 70
     1
102
RTVSPropertyOp47
 70
     1
102
RTVSPropertyOp48
 70
     1
102
RTVSPropertyOp49
 70
     1
102
RTVSPropertyOp50
 70
     1
102
RTVSPropertyOp51
 70
     0
102
RTVSPropertyOp52
 70
     0
102
RTVSPropertyOp53
 70
     1
102
RTVSPropertyOp54
 70
     1
102
RTVSPropertyOp55
 70
     1
102
RTVSPropertyOp56
 70
     1
102
RTVSPropertyOp57
 70
     1
102
RTVSPropertyOp58
 70
     1
102
RTVSPropertyOp59
 70
     1
102
RTVSPropertyOp60
 70
     1
102
RTVSPropertyOp61
 70
     1
102
RTVSPropertyOp62
 70
     1
  0
XRECORD
  5
BF69D
102
{ACAD_REACTORS
330
BF69C
102
}
330
BF69C
100
AcDbXrecord
280
     1
102
RTVSPost2010Prop28
280
     0
102
RTVSPost2010PropOp28
 70
     0
102
RTVSPost2010Prop29
280
     1
102
RTVSPost2010PropOp29
 70
     0
102
RTVSPost2010Prop30
280
     1
102
RTVSPost2010PropOp30
 70
     0
102
RTVSPost2010Prop31
280
     0
102
RTVSPost2010PropOp31
 70
     0
102
RTVSPost2010Prop32
280
     0
102
RTVSPost2010PropOp32
 70
     0
102
RTVSPost2010Prop33
280
     0
102
RTVSPost2010PropOp33
 70
     0
102
RTVSPost2010Prop34
280
     0
102
RTVSPost2010PropOp34
 70
     0
102
RTVSPost2010Prop35
280
     0
102
RTVSPost2010PropOp35
 70
     0
102
RTVSPost2010Prop36
280
     0
102
RTVSPost2010PropOp36
 70
     0
102
RTVSPost2010Prop37
 90
       50
102
RTVSPost2010PropOp37
 70
     0
102
RTVSPost2010Prop38
140
0.0
102
RTVSPost2010PropOp38
 70
     0
102
RTVSPost2010Prop39
140
1.0
102
RTVSPost2010PropOp39
 70
     0
102
RTVSPost2010Prop40
 90
        0
102
RTVSPost2010PropOp40
 70
     0
102
RTVSPost2010Prop41ColorIndex
 90
       18
102
RTVSPost2010Prop41ColorRGB
 90
        0
102
RTVSPost2010PropOp41
 70
     0
102
RTVSPost2010Prop42
 90
       50
102
RTVSPost2010PropOp42
 70
     0
102
RTVSPost2010Prop43
 90
        3
102
RTVSPost2010PropOp43
 70
     0
102
RTVSPost2010Prop44ColorIndex
 90
        5
102
RTVSPost2010Prop44ColorRGB
 90
      255
102
RTVSPost2010PropOp44
 70
     0
102
RTVSPost2010Prop45
280
     0
102
RTVSPost2010PropOp45
 70
     0
102
RTVSPost2010Prop46
 90
       50
102
RTVSPost2010PropOp46
 70
     0
102
RTVSPost2010Prop47
 90
       50
102
RTVSPost2010PropOp47
 70
     0
102
RTVSPost2010Prop48
 90
       50
102
RTVSPost2010PropOp48
 70
     0
102
RTVSPost2010Prop49
280
     0
102
RTVSPost2010PropOp49
 70
     0
102
RTVSPost2010Prop50
 90
       50
102
RTVSPost2010PropOp50
 70
     0
102
RTVSPost2010Prop51ColorIndex
 90
      256
102
RTVSPost2010Prop51ColorRGB
 90
-16777216
102
RTVSPost2010PropOp51
 70
     0
102
RTVSPost2010Prop52
140
1.0
102
RTVSPost2010PropOp52
 70
     0
102
RTVSPost2010Prop53
 90
        2
102
RTVSPost2010PropOp53
 70
     0
102
RTVSPost2010Prop54
  1
strokes_ogs.tif
102
RTVSPost2010PropOp54
 70
     0
102
RTVSPost2010Prop55
280
     0
102
RTVSPost2010PropOp55
 70
     0
102
RTVSPost2010Prop56
140
1.0
102
RTVSPost2010PropOp56
 70
     0
102
RTVSPost2010Prop57
140
1.0
102
RTVSPost2010PropOp57
 70
     0
102
RTVSPropertyOp0
 70
     0
102
RTVSPropertyOp1
 70
     0
102
RTVSPropertyOp2
 70
     0
102
RTVSPropertyOp3
 70
     0
102
RTVSPropertyOp4
 70
     0
102
RTVSPropertyOp5
 70
     0
102
RTVSPropertyOp6
 70
     0
102
RTVSPropertyOp7
 70
     0
102
RTVSPropertyOp8
 70
     0
102
RTVSPropertyOp9
 70
     0
102
RTVSPropertyOp10
 70
     0
102
RTVSPropertyOp11
 70
     0
102
RTVSPropertyOp12
 70
     0
102
RTVSPropertyOp13
 70
     0
102
RTVSPropertyOp14
 70
     2
102
RTVSPropertyOp15
 70
     0
102
RTVSPropertyOp16
 70
     0
102
RTVSPropertyOp17
 70
     0
102
RTVSPropertyOp18
 70
     0
102
RTVSPropertyOp19
 70
     0
102
RTVSPropertyOp20
 70
     0
102
RTVSPropertyOp21
 70
     0
102
RTVSPropertyOp22
 70
     0
102
RTVSPropertyOp23
 70
     0
102
RTVSPropertyOp24
 70
     0
102
RTVSPropertyOp25
 70
     0
102
RTVSPropertyOp26
 70
     0
102
RTVSPropertyOp27
 70
     0
102
RTVSPropertyOp28
 70
     0
102
RTVSPropertyOp29
 70
     0
102
RTVSPropertyOp30
 70
     0
102
RTVSPropertyOp31
 70
     0
102
RTVSPropertyOp32
 70
     0
102
RTVSPropertyOp33
 70
     0
102
RTVSPropertyOp34
 70
     0
102
RTVSPropertyOp35
 70
     0
102
RTVSPropertyOp36
 70
     0
102
RTVSPropertyOp37
 70
     0
102
RTVSPropertyOp38
 70
     0
102
RTVSPropertyOp39
 70
     0
102
RTVSPropertyOp40
 70
     0
102
RTVSPropertyOp41
 70
     0
102
RTVSPropertyOp42
 70
     0
102
RTVSPropertyOp43
 70
     0
102
RTVSPropertyOp44
 70
     0
102
RTVSPropertyOp45
 70
     0
102
RTVSPropertyOp46
 70
     0
102
RTVSPropertyOp47
 70
     0
102
RTVSPropertyOp48
 70
     0
102
RTVSPropertyOp49
 70
     0
102
RTVSPropertyOp50
 70
     0
102
RTVSPropertyOp51
 70
     0
102
RTVSPropertyOp52
 70
     0
102
RTVSPropertyOp53
 70
     0
102
RTVSPropertyOp54
 70
     0
102
RTVSPropertyOp55
 70
     0
102
RTVSPropertyOp56
 70
     0
102
RTVSPropertyOp57
 70
     0
102
RTVSPropertyOp58
 70
     1
102
RTVSPropertyOp59
 70
     1
102
RTVSPropertyOp60
 70
     1
102
RTVSPropertyOp61
 70
     1
102
RTVSPropertyOp62
 70
     1
  0
XRECORD
  5
BF697
102
{ACAD_REACTORS
330
BF696
102
}
330
BF696
100
AcDbXrecord
280
     1
102
RTVSPost2010Prop28
280
     0
102
RTVSPost2010PropOp28
 70
     1
102
RTVSPost2010Prop29
280
     1
102
RTVSPost2010PropOp29
 70
     1
102
RTVSPost2010Prop30
280
     1
102
RTVSPost2010PropOp30
 70
     1
102
RTVSPost2010Prop31
280
     0
102
RTVSPost2010PropOp31
 70
     1
102
RTVSPost2010Prop32
280
     0
102
RTVSPost2010PropOp32
 70
     1
102
RTVSPost2010Prop33
280
     0
102
RTVSPost2010PropOp33
 70
     1
102
RTVSPost2010Prop34
280
     0
102
RTVSPost2010PropOp34
 70
     1
102
RTVSPost2010Prop35
280
     0
102
RTVSPost2010PropOp35
 70
     1
102
RTVSPost2010Prop36
280
     0
102
RTVSPost2010PropOp36
 70
     1
102
RTVSPost2010Prop37
 90
       50
102
RTVSPost2010PropOp37
 70
     1
102
RTVSPost2010Prop38
140
0.0
102
RTVSPost2010PropOp38
 70
     1
102
RTVSPost2010Prop39
140
1.0
102
RTVSPost2010PropOp39
 70
     1
102
RTVSPost2010Prop40
 90
        0
102
RTVSPost2010PropOp40
 70
     1
102
RTVSPost2010Prop41ColorIndex
 90
       18
102
RTVSPost2010Prop41ColorRGB
 90
        0
102
RTVSPost2010PropOp41
 70
     1
102
RTVSPost2010Prop42
 90
       50
102
RTVSPost2010PropOp42
 70
     1
102
RTVSPost2010Prop43
 90
        3
102
RTVSPost2010PropOp43
 70
     1
102
RTVSPost2010Prop44ColorIndex
 90
        5
102
RTVSPost2010Prop44ColorRGB
 90
      255
102
RTVSPost2010PropOp44
 70
     1
102
RTVSPost2010Prop45
280
     0
102
RTVSPost2010PropOp45
 70
     1
102
RTVSPost2010Prop46
 90
       50
102
RTVSPost2010PropOp46
 70
     1
102
RTVSPost2010Prop47
 90
       50
102
RTVSPost2010PropOp47
 70
     1
102
RTVSPost2010Prop48
 90
       50
102
RTVSPost2010PropOp48
 70
     1
102
RTVSPost2010Prop49
280
     0
102
RTVSPost2010PropOp49
 70
     1
102
RTVSPost2010Prop50
 90
       50
102
RTVSPost2010PropOp50
 70
     1
102
RTVSPost2010Prop51ColorIndex
 90
      256
102
RTVSPost2010Prop51ColorRGB
 90
-16777216
102
RTVSPost2010PropOp51
 70
     0
102
RTVSPost2010Prop52
140
1.0
102
RTVSPost2010PropOp52
 70
     0
102
RTVSPost2010Prop53
 90
        2
102
RTVSPost2010PropOp53
 70
     1
102
RTVSPost2010Prop54
  1
strokes_ogs.tif
102
RTVSPost2010PropOp54
 70
     1
102
RTVSPost2010Prop55
280
     0
102
RTVSPost2010PropOp55
 70
     1
102
RTVSPost2010Prop56
140
1.0
102
RTVSPost2010PropOp56
 70
     1
102
RTVSPost2010Prop57
140
1.0
102
RTVSPost2010PropOp57
 70
     1
102
RTVSPropertyOp0
 70
     1
102
RTVSPropertyOp1
 70
     1
102
RTVSPropertyOp2
 70
     1
102
RTVSPropertyOp3
 70
     1
102
RTVSPropertyOp4
 70
     1
102
RTVSPropertyOp5
 70
     1
102
RTVSPropertyOp6
 70
     1
102
RTVSPropertyOp7
 70
     1
102
RTVSPropertyOp8
 70
     1
102
RTVSPropertyOp9
 70
     1
102
RTVSPropertyOp10
 70
     1
102
RTVSPropertyOp11
 70
     1
102
RTVSPropertyOp12
 70
     1
102
RTVSPropertyOp13
 70
     1
102
RTVSPropertyOp14
 70
     1
102
RTVSPropertyOp15
 70
     1
102
RTVSPropertyOp16
 70
     1
102
RTVSPropertyOp17
 70
     1
102
RTVSPropertyOp18
 70
     1
102
RTVSPropertyOp19
 70
     1
102
RTVSPropertyOp20
 70
     1
102
RTVSPropertyOp21
 70
     1
102
RTVSPropertyOp22
 70
     1
102
RTVSPropertyOp23
 70
     1
102
RTVSPropertyOp24
 70
     1
102
RTVSPropertyOp25
 70
     1
102
RTVSPropertyOp26
 70
     1
102
RTVSPropertyOp27
 70
     1
102
RTVSPropertyOp28
 70
     1
102
RTVSPropertyOp29
 70
     1
102
RTVSPropertyOp30
 70
     1
102
RTVSPropertyOp31
 70
     1
102
RTVSPropertyOp32
 70
     1
102
RTVSPropertyOp33
 70
     1
102
RTVSPropertyOp34
 70
     1
102
RTVSPropertyOp35
 70
     1
102
RTVSPropertyOp36
 70
     1
102
RTVSPropertyOp37
 70
     1
102
RTVSPropertyOp38
 70
     1
102
RTVSPropertyOp39
 70
     1
102
RTVSPropertyOp40
 70
     1
102
RTVSPropertyOp41
 70
     1
102
RTVSPropertyOp42
 70
     1
102
RTVSPropertyOp43
 70
     1
102
RTVSPropertyOp44
 70
     1
102
RTVSPropertyOp45
 70
     1
102
RTVSPropertyOp46
 70
     1
102
RTVSPropertyOp47
 70
     1
102
RTVSPropertyOp48
 70
     1
102
RTVSPropertyOp49
 70
     1
102
RTVSPropertyOp50
 70
     1
102
RTVSPropertyOp51
 70
     0
102
RTVSPropertyOp52
 70
     0
102
RTVSPropertyOp53
 70
     1
102
RTVSPropertyOp54
 70
     1
102
RTVSPropertyOp55
 70
     1
102
RTVSPropertyOp56
 70
     1
102
RTVSPropertyOp57
 70
     1
102
RTVSPropertyOp58
 70
     1
102
RTVSPropertyOp59
 70
     1
102
RTVSPropertyOp60
 70
     1
102
RTVSPropertyOp61
 70
     1
102
RTVSPropertyOp62
 70
     1
  0
XRECORD
  5
BF69F
102
{ACAD_REACTORS
330
BF69E
102
}
330
BF69E
100
AcDbXrecord
280
     1
102
RTVSPost2010Prop28
280
     0
102
RTVSPost2010PropOp28
 70
     0
102
RTVSPost2010Prop29
280
     1
102
RTVSPost2010PropOp29
 70
     0
102
RTVSPost2010Prop30
280
     1
102
RTVSPost2010PropOp30
 70
     0
102
RTVSPost2010Prop31
280
     0
102
RTVSPost2010PropOp31
 70
     0
102
RTVSPost2010Prop32
280
     0
102
RTVSPost2010PropOp32
 70
     0
102
RTVSPost2010Prop33
280
     0
102
RTVSPost2010PropOp33
 70
     0
102
RTVSPost2010Prop34
280
     0
102
RTVSPost2010PropOp34
 70
     0
102
RTVSPost2010Prop35
280
     0
102
RTVSPost2010PropOp35
 70
     0
102
RTVSPost2010Prop36
280
     0
102
RTVSPost2010PropOp36
 70
     0
102
RTVSPost2010Prop37
 90
       50
102
RTVSPost2010PropOp37
 70
     0
102
RTVSPost2010Prop38
140
0.0
102
RTVSPost2010PropOp38
 70
     0
102
RTVSPost2010Prop39
140
1.0
102
RTVSPost2010PropOp39
 70
     0
102
RTVSPost2010Prop40
 90
        0
102
RTVSPost2010PropOp40
 70
     0
102
RTVSPost2010Prop41ColorIndex
 90
       18
102
RTVSPost2010Prop41ColorRGB
 90
        0
102
RTVSPost2010PropOp41
 70
     0
102
RTVSPost2010Prop42
 90
       50
102
RTVSPost2010PropOp42
 70
     0
102
RTVSPost2010Prop43
 90
        3
102
RTVSPost2010PropOp43
 70
     0
102
RTVSPost2010Prop44ColorIndex
 90
        5
102
RTVSPost2010Prop44ColorRGB
 90
      255
102
RTVSPost2010PropOp44
 70
     0
102
RTVSPost2010Prop45
280
     0
102
RTVSPost2010PropOp45
 70
     0
102
RTVSPost2010Prop46
 90
       50
102
RTVSPost2010PropOp46
 70
     0
102
RTVSPost2010Prop47
 90
       50
102
RTVSPost2010PropOp47
 70
     0
102
RTVSPost2010Prop48
 90
       50
102
RTVSPost2010PropOp48
 70
     0
102
RTVSPost2010Prop49
280
     0
102
RTVSPost2010PropOp49
 70
     0
102
RTVSPost2010Prop50
 90
       50
102
RTVSPost2010PropOp50
 70
     0
102
RTVSPost2010Prop51ColorIndex
 90
      256
102
RTVSPost2010Prop51ColorRGB
 90
-16777216
102
RTVSPost2010PropOp51
 70
     0
102
RTVSPost2010Prop52
140
1.0
102
RTVSPost2010PropOp52
 70
     0
102
RTVSPost2010Prop53
 90
        2
102
RTVSPost2010PropOp53
 70
     0
102
RTVSPost2010Prop54
  1
strokes_ogs.tif
102
RTVSPost2010PropOp54
 70
     0
102
RTVSPost2010Prop55
280
     0
102
RTVSPost2010PropOp55
 70
     0
102
RTVSPost2010Prop56
140
1.0
102
RTVSPost2010PropOp56
 70
     0
102
RTVSPost2010Prop57
140
1.0
102
RTVSPost2010PropOp57
 70
     0
102
RTVSPropertyOp0
 70
     0
102
RTVSPropertyOp1
 70
     0
102
RTVSPropertyOp2
 70
     0
102
RTVSPropertyOp3
 70
     0
102
RTVSPropertyOp4
 70
     0
102
RTVSPropertyOp5
 70
     0
102
RTVSPropertyOp6
 70
     0
102
RTVSPropertyOp7
 70
     0
102
RTVSPropertyOp8
 70
     0
102
RTVSPropertyOp9
 70
     0
102
RTVSPropertyOp10
 70
     0
102
RTVSPropertyOp11
 70
     0
102
RTVSPropertyOp12
 70
     0
102
RTVSPropertyOp13
 70
     0
102
RTVSPropertyOp14
 70
     2
102
RTVSPropertyOp15
 70
     0
102
RTVSPropertyOp16
 70
     0
102
RTVSPropertyOp17
 70
     0
102
RTVSPropertyOp18
 70
     0
102
RTVSPropertyOp19
 70
     0
102
RTVSPropertyOp20
 70
     0
102
RTVSPropertyOp21
 70
     0
102
RTVSPropertyOp22
 70
     0
102
RTVSPropertyOp23
 70
     0
102
RTVSPropertyOp24
 70
     0
102
RTVSPropertyOp25
 70
     0
102
RTVSPropertyOp26
 70
     0
102
RTVSPropertyOp27
 70
     0
102
RTVSPropertyOp28
 70
     0
102
RTVSPropertyOp29
 70
     0
102
RTVSPropertyOp30
 70
     0
102
RTVSPropertyOp31
 70
     0
102
RTVSPropertyOp32
 70
     0
102
RTVSPropertyOp33
 70
     0
102
RTVSPropertyOp34
 70
     0
102
RTVSPropertyOp35
 70
     0
102
RTVSPropertyOp36
 70
     0
102
RTVSPropertyOp37
 70
     0
102
RTVSPropertyOp38
 70
     0
102
RTVSPropertyOp39
 70
     0
102
RTVSPropertyOp40
 70
     0
102
RTVSPropertyOp41
 70
     0
102
RTVSPropertyOp42
 70
     0
102
RTVSPropertyOp43
 70
     0
102
RTVSPropertyOp44
 70
     0
102
RTVSPropertyOp45
 70
     0
102
RTVSPropertyOp46
 70
     0
102
RTVSPropertyOp47
 70
     0
102
RTVSPropertyOp48
 70
     0
102
RTVSPropertyOp49
 70
     0
102
RTVSPropertyOp50
 70
     0
102
RTVSPropertyOp51
 70
     0
102
RTVSPropertyOp52
 70
     0
102
RTVSPropertyOp53
 70
     0
102
RTVSPropertyOp54
 70
     0
102
RTVSPropertyOp55
 70
     0
102
RTVSPropertyOp56
 70
     0
102
RTVSPropertyOp57
 70
     0
102
RTVSPropertyOp58
 70
     1
102
RTVSPropertyOp59
 70
     1
102
RTVSPropertyOp60
 70
     1
102
RTVSPropertyOp61
 70
     1
102
RTVSPropertyOp62
 70
     1
  0
XRECORD
  5
BF68D
102
{ACAD_REACTORS
330
BF68C
102
}
330
BF68C
100
AcDbXrecord
280
     1
102
RTVSPost2010Prop28
280
     0
102
RTVSPost2010PropOp28
 70
     1
102
RTVSPost2010Prop29
280
     1
102
RTVSPost2010PropOp29
 70
     1
102
RTVSPost2010Prop30
280
     1
102
RTVSPost2010PropOp30
 70
     1
102
RTVSPost2010Prop31
280
     0
102
RTVSPost2010PropOp31
 70
     1
102
RTVSPost2010Prop32
280
     0
102
RTVSPost2010PropOp32
 70
     1
102
RTVSPost2010Prop33
280
     0
102
RTVSPost2010PropOp33
 70
     1
102
RTVSPost2010Prop34
280
     0
102
RTVSPost2010PropOp34
 70
     1
102
RTVSPost2010Prop35
280
     0
102
RTVSPost2010PropOp35
 70
     1
102
RTVSPost2010Prop36
280
     0
102
RTVSPost2010PropOp36
 70
     1
102
RTVSPost2010Prop37
 90
       50
102
RTVSPost2010PropOp37
 70
     1
102
RTVSPost2010Prop38
140
0.0
102
RTVSPost2010PropOp38
 70
     1
102
RTVSPost2010Prop39
140
1.0
102
RTVSPost2010PropOp39
 70
     1
102
RTVSPost2010Prop40
 90
        0
102
RTVSPost2010PropOp40
 70
     1
102
RTVSPost2010Prop41ColorIndex
 90
       18
102
RTVSPost2010Prop41ColorRGB
 90
        0
102
RTVSPost2010PropOp41
 70
     1
102
RTVSPost2010Prop42
 90
       50
102
RTVSPost2010PropOp42
 70
     1
102
RTVSPost2010Prop43
 90
        3
102
RTVSPost2010PropOp43
 70
     1
102
RTVSPost2010Prop44ColorIndex
 90
        5
102
RTVSPost2010Prop44ColorRGB
 90
      255
102
RTVSPost2010PropOp44
 70
     1
102
RTVSPost2010Prop45
280
     0
102
RTVSPost2010PropOp45
 70
     1
102
RTVSPost2010Prop46
 90
       50
102
RTVSPost2010PropOp46
 70
     1
102
RTVSPost2010Prop47
 90
       50
102
RTVSPost2010PropOp47
 70
     1
102
RTVSPost2010Prop48
 90
       50
102
RTVSPost2010PropOp48
 70
     1
102
RTVSPost2010Prop49
280
     0
102
RTVSPost2010PropOp49
 70
     1
102
RTVSPost2010Prop50
 90
       50
102
RTVSPost2010PropOp50
 70
     1
102
RTVSPost2010Prop51ColorIndex
 90
      256
102
RTVSPost2010Prop51ColorRGB
 90
-16777216
102
RTVSPost2010PropOp51
 70
     0
102
RTVSPost2010Prop52
140
1.0
102
RTVSPost2010PropOp52
 70
     0
102
RTVSPost2010Prop53
 90
        2
102
RTVSPost2010PropOp53
 70
     1
102
RTVSPost2010Prop54
  1
strokes_ogs.tif
102
RTVSPost2010PropOp54
 70
     1
102
RTVSPost2010Prop55
280
     0
102
RTVSPost2010PropOp55
 70
     1
102
RTVSPost2010Prop56
140
1.0
102
RTVSPost2010PropOp56
 70
     1
102
RTVSPost2010Prop57
140
1.0
102
RTVSPost2010PropOp57
 70
     1
102
RTVSPropertyOp0
 70
     1
102
RTVSPropertyOp1
 70
     1
102
RTVSPropertyOp2
 70
     1
102
RTVSPropertyOp3
 70
     1
102
RTVSPropertyOp4
 70
     1
102
RTVSPropertyOp5
 70
     1
102
RTVSPropertyOp6
 70
     1
102
RTVSPropertyOp7
 70
     1
102
RTVSPropertyOp8
 70
     1
102
RTVSPropertyOp9
 70
     1
102
RTVSPropertyOp10
 70
     1
102
RTVSPropertyOp11
 70
     1
102
RTVSPropertyOp12
 70
     1
102
RTVSPropertyOp13
 70
     1
102
RTVSPropertyOp14
 70
     1
102
RTVSPropertyOp15
 70
     1
102
RTVSPropertyOp16
 70
     1
102
RTVSPropertyOp17
 70
     1
102
RTVSPropertyOp18
 70
     1
102
RTVSPropertyOp19
 70
     1
102
RTVSPropertyOp20
 70
     1
102
RTVSPropertyOp21
 70
     1
102
RTVSPropertyOp22
 70
     1
102
RTVSPropertyOp23
 70
     1
102
RTVSPropertyOp24
 70
     1
102
RTVSPropertyOp25
 70
     1
102
RTVSPropertyOp26
 70
     1
102
RTVSPropertyOp27
 70
     1
102
RTVSPropertyOp28
 70
     1
102
RTVSPropertyOp29
 70
     1
102
RTVSPropertyOp30
 70
     1
102
RTVSPropertyOp31
 70
     1
102
RTVSPropertyOp32
 70
     1
102
RTVSPropertyOp33
 70
     1
102
RTVSPropertyOp34
 70
     1
102
RTVSPropertyOp35
 70
     1
102
RTVSPropertyOp36
 70
     1
102
RTVSPropertyOp37
 70
     1
102
RTVSPropertyOp38
 70
     1
102
RTVSPropertyOp39
 70
     1
102
RTVSPropertyOp40
 70
     1
102
RTVSPropertyOp41
 70
     1
102
RTVSPropertyOp42
 70
     1
102
RTVSPropertyOp43
 70
     1
102
RTVSPropertyOp44
 70
     1
102
RTVSPropertyOp45
 70
     1
102
RTVSPropertyOp46
 70
     1
102
RTVSPropertyOp47
 70
     1
102
RTVSPropertyOp48
 70
     1
102
RTVSPropertyOp49
 70
     1
102
RTVSPropertyOp50
 70
     1
102
RTVSPropertyOp51
 70
     0
102
RTVSPropertyOp52
 70
     0
102
RTVSPropertyOp53
 70
     1
102
RTVSPropertyOp54
 70
     1
102
RTVSPropertyOp55
 70
     1
102
RTVSPropertyOp56
 70
     1
102
RTVSPropertyOp57
 70
     1
102
RTVSPropertyOp58
 70
     1
102
RTVSPropertyOp59
 70
     1
102
RTVSPropertyOp60
 70
     1
102
RTVSPropertyOp61
 70
     1
102
RTVSPropertyOp62
 70
     1
  0
XRECORD
  5
BF6AB
102
{ACAD_REACTORS
330
BF6AA
102
}
330
BF6AA
100
AcDbXrecord
280
     1
102
RTVSPost2010Prop28
280
     0
102
RTVSPost2010PropOp28
 70
     1
102
RTVSPost2010Prop29
280
     1
102
RTVSPost2010PropOp29
 70
     1
102
RTVSPost2010Prop30
280
     1
102
RTVSPost2010PropOp30
 70
     1
102
RTVSPost2010Prop31
280
     0
102
RTVSPost2010PropOp31
 70
     1
102
RTVSPost2010Prop32
280
     0
102
RTVSPost2010PropOp32
 70
     1
102
RTVSPost2010Prop33
280
     0
102
RTVSPost2010PropOp33
 70
     1
102
RTVSPost2010Prop34
280
     0
102
RTVSPost2010PropOp34
 70
     1
102
RTVSPost2010Prop35
280
     0
102
RTVSPost2010PropOp35
 70
     1
102
RTVSPost2010Prop36
280
     0
102
RTVSPost2010PropOp36
 70
     1
102
RTVSPost2010Prop37
 90
       50
102
RTVSPost2010PropOp37
 70
     1
102
RTVSPost2010Prop38
140
0.0
102
RTVSPost2010PropOp38
 70
     1
102
RTVSPost2010Prop39
140
1.0
102
RTVSPost2010PropOp39
 70
     1
102
RTVSPost2010Prop40
 90
        0
102
RTVSPost2010PropOp40
 70
     1
102
RTVSPost2010Prop41ColorIndex
 90
       18
102
RTVSPost2010Prop41ColorRGB
 90
        0
102
RTVSPost2010PropOp41
 70
     1
102
RTVSPost2010Prop42
 90
       50
102
RTVSPost2010PropOp42
 70
     1
102
RTVSPost2010Prop43
 90
        3
102
RTVSPost2010PropOp43
 70
     1
102
RTVSPost2010Prop44ColorIndex
 90
        5
102
RTVSPost2010Prop44ColorRGB
 90
      255
102
RTVSPost2010PropOp44
 70
     1
102
RTVSPost2010Prop45
280
     0
102
RTVSPost2010PropOp45
 70
     1
102
RTVSPost2010Prop46
 90
       50
102
RTVSPost2010PropOp46
 70
     1
102
RTVSPost2010Prop47
 90
       50
102
RTVSPost2010PropOp47
 70
     1
102
RTVSPost2010Prop48
 90
       50
102
RTVSPost2010PropOp48
 70
     1
102
RTVSPost2010Prop49
280
     0
102
RTVSPost2010PropOp49
 70
     1
102
RTVSPost2010Prop50
 90
       50
102
RTVSPost2010PropOp50
 70
     1
102
RTVSPost2010Prop51ColorIndex
 90
      256
102
RTVSPost2010Prop51ColorRGB
 90
-16777216
102
RTVSPost2010PropOp51
 70
     0
102
RTVSPost2010Prop52
140
1.0
102
RTVSPost2010PropOp52
 70
     0
102
RTVSPost2010Prop53
 90
        2
102
RTVSPost2010PropOp53
 70
     1
102
RTVSPost2010Prop54
  1
strokes_ogs.tif
102
RTVSPost2010PropOp54
 70
     1
102
RTVSPost2010Prop55
280
     0
102
RTVSPost2010PropOp55
 70
     1
102
RTVSPost2010Prop56
140
1.0
102
RTVSPost2010PropOp56
 70
     1
102
RTVSPost2010Prop57
140
1.0
102
RTVSPost2010PropOp57
 70
     1
102
RTVSPropertyOp0
 70
     1
102
RTVSPropertyOp1
 70
     1
102
RTVSPropertyOp2
 70
     1
102
RTVSPropertyOp3
 70
     1
102
RTVSPropertyOp4
 70
     1
102
RTVSPropertyOp5
 70
     1
102
RTVSPropertyOp6
 70
     1
102
RTVSPropertyOp7
 70
     1
102
RTVSPropertyOp8
 70
     1
102
RTVSPropertyOp9
 70
     1
102
RTVSPropertyOp10
 70
     1
102
RTVSPropertyOp11
 70
     1
102
RTVSPropertyOp12
 70
     1
102
RTVSPropertyOp13
 70
     1
102
RTVSPropertyOp14
 70
     1
102
RTVSPropertyOp15
 70
     1
102
RTVSPropertyOp16
 70
     1
102
RTVSPropertyOp17
 70
     1
102
RTVSPropertyOp18
 70
     1
102
RTVSPropertyOp19
 70
     1
102
RTVSPropertyOp20
 70
     1
102
RTVSPropertyOp21
 70
     1
102
RTVSPropertyOp22
 70
     1
102
RTVSPropertyOp23
 70
     1
102
RTVSPropertyOp24
 70
     1
102
RTVSPropertyOp25
 70
     1
102
RTVSPropertyOp26
 70
     1
102
RTVSPropertyOp27
 70
     1
102
RTVSPropertyOp28
 70
     1
102
RTVSPropertyOp29
 70
     1
102
RTVSPropertyOp30
 70
     1
102
RTVSPropertyOp31
 70
     1
102
RTVSPropertyOp32
 70
     1
102
RTVSPropertyOp33
 70
     1
102
RTVSPropertyOp34
 70
     1
102
RTVSPropertyOp35
 70
     1
102
RTVSPropertyOp36
 70
     1
102
RTVSPropertyOp37
 70
     1
102
RTVSPropertyOp38
 70
     1
102
RTVSPropertyOp39
 70
     1
102
RTVSPropertyOp40
 70
     1
102
RTVSPropertyOp41
 70
     1
102
RTVSPropertyOp42
 70
     1
102
RTVSPropertyOp43
 70
     1
102
RTVSPropertyOp44
 70
     1
102
RTVSPropertyOp45
 70
     1
102
RTVSPropertyOp46
 70
     1
102
RTVSPropertyOp47
 70
     1
102
RTVSPropertyOp48
 70
     1
102
RTVSPropertyOp49
 70
     1
102
RTVSPropertyOp50
 70
     1
102
RTVSPropertyOp51
 70
     0
102
RTVSPropertyOp52
 70
     0
102
RTVSPropertyOp53
 70
     1
102
RTVSPropertyOp54
 70
     1
102
RTVSPropertyOp55
 70
     1
102
RTVSPropertyOp56
 70
     1
102
RTVSPropertyOp57
 70
     1
102
RTVSPropertyOp58
 70
     1
102
RTVSPropertyOp59
 70
     1
102
RTVSPropertyOp60
 70
     1
102
RTVSPropertyOp61
 70
     1
102
RTVSPropertyOp62
 70
     1
  0
XRECORD
  5
BF6A9
102
{ACAD_REACTORS
330
BF6A8
102
}
330
BF6A8
100
AcDbXrecord
280
     1
102
RTVSPost2010Prop28
280
     0
102
RTVSPost2010PropOp28
 70
     1
102
RTVSPost2010Prop29
280
     1
102
RTVSPost2010PropOp29
 70
     1
102
RTVSPost2010Prop30
280
     1
102
RTVSPost2010PropOp30
 70
     1
102
RTVSPost2010Prop31
280
     0
102
RTVSPost2010PropOp31
 70
     1
102
RTVSPost2010Prop32
280
     0
102
RTVSPost2010PropOp32
 70
     1
102
RTVSPost2010Prop33
280
     0
102
RTVSPost2010PropOp33
 70
     1
102
RTVSPost2010Prop34
280
     0
102
RTVSPost2010PropOp34
 70
     1
102
RTVSPost2010Prop35
280
     0
102
RTVSPost2010PropOp35
 70
     1
102
RTVSPost2010Prop36
280
     0
102
RTVSPost2010PropOp36
 70
     1
102
RTVSPost2010Prop37
 90
       50
102
RTVSPost2010PropOp37
 70
     1
102
RTVSPost2010Prop38
140
0.0
102
RTVSPost2010PropOp38
 70
     1
102
RTVSPost2010Prop39
140
1.0
102
RTVSPost2010PropOp39
 70
     1
102
RTVSPost2010Prop40
 90
        0
102
RTVSPost2010PropOp40
 70
     1
102
RTVSPost2010Prop41ColorIndex
 90
       18
102
RTVSPost2010Prop41ColorRGB
 90
        0
102
RTVSPost2010PropOp41
 70
     1
102
RTVSPost2010Prop42
 90
       50
102
RTVSPost2010PropOp42
 70
     1
102
RTVSPost2010Prop43
 90
        3
102
RTVSPost2010PropOp43
 70
     1
102
RTVSPost2010Prop44ColorIndex
 90
        5
102
RTVSPost2010Prop44ColorRGB
 90
      255
102
RTVSPost2010PropOp44
 70
     1
102
RTVSPost2010Prop45
280
     0
102
RTVSPost2010PropOp45
 70
     1
102
RTVSPost2010Prop46
 90
       50
102
RTVSPost2010PropOp46
 70
     1
102
RTVSPost2010Prop47
 90
       50
102
RTVSPost2010PropOp47
 70
     1
102
RTVSPost2010Prop48
 90
       50
102
RTVSPost2010PropOp48
 70
     1
102
RTVSPost2010Prop49
280
     0
102
RTVSPost2010PropOp49
 70
     1
102
RTVSPost2010Prop50
 90
       50
102
RTVSPost2010PropOp50
 70
     1
102
RTVSPost2010Prop51ColorIndex
 90
      256
102
RTVSPost2010Prop51ColorRGB
 90
-16777216
102
RTVSPost2010PropOp51
 70
     0
102
RTVSPost2010Prop52
140
1.0
102
RTVSPost2010PropOp52
 70
     0
102
RTVSPost2010Prop53
 90
        2
102
RTVSPost2010PropOp53
 70
     1
102
RTVSPost2010Prop54
  1
strokes_ogs.tif
102
RTVSPost2010PropOp54
 70
     1
102
RTVSPost2010Prop55
280
     0
102
RTVSPost2010PropOp55
 70
     1
102
RTVSPost2010Prop56
140
1.0
102
RTVSPost2010PropOp56
 70
     1
102
RTVSPost2010Prop57
140
1.0
102
RTVSPost2010PropOp57
 70
     1
102
RTVSPropertyOp0
 70
     1
102
RTVSPropertyOp1
 70
     1
102
RTVSPropertyOp2
 70
     1
102
RTVSPropertyOp3
 70
     1
102
RTVSPropertyOp4
 70
     1
102
RTVSPropertyOp5
 70
     1
102
RTVSPropertyOp6
 70
     1
102
RTVSPropertyOp7
 70
     1
102
RTVSPropertyOp8
 70
     1
102
RTVSPropertyOp9
 70
     1
102
RTVSPropertyOp10
 70
     1
102
RTVSPropertyOp11
 70
     1
102
RTVSPropertyOp12
 70
     1
102
RTVSPropertyOp13
 70
     1
102
RTVSPropertyOp14
 70
     1
102
RTVSPropertyOp15
 70
     1
102
RTVSPropertyOp16
 70
     1
102
RTVSPropertyOp17
 70
     1
102
RTVSPropertyOp18
 70
     1
102
RTVSPropertyOp19
 70
     1
102
RTVSPropertyOp20
 70
     1
102
RTVSPropertyOp21
 70
     1
102
RTVSPropertyOp22
 70
     1
102
RTVSPropertyOp23
 70
     1
102
RTVSPropertyOp24
 70
     1
102
RTVSPropertyOp25
 70
     1
102
RTVSPropertyOp26
 70
     1
102
RTVSPropertyOp27
 70
     1
102
RTVSPropertyOp28
 70
     1
102
RTVSPropertyOp29
 70
     1
102
RTVSPropertyOp30
 70
     1
102
RTVSPropertyOp31
 70
     1
102
RTVSPropertyOp32
 70
     1
102
RTVSPropertyOp33
 70
     1
102
RTVSPropertyOp34
 70
     1
102
RTVSPropertyOp35
 70
     1
102
RTVSPropertyOp36
 70
     1
102
RTVSPropertyOp37
 70
     1
102
RTVSPropertyOp38
 70
     1
102
RTVSPropertyOp39
 70
     1
102
RTVSPropertyOp40
 70
     1
102
RTVSPropertyOp41
 70
     1
102
RTVSPropertyOp42
 70
     1
102
RTVSPropertyOp43
 70
     1
102
RTVSPropertyOp44
 70
     1
102
RTVSPropertyOp45
 70
     1
102
RTVSPropertyOp46
 70
     1
102
RTVSPropertyOp47
 70
     1
102
RTVSPropertyOp48
 70
     1
102
RTVSPropertyOp49
 70
     1
102
RTVSPropertyOp50
 70
     1
102
RTVSPropertyOp51
 70
     0
102
RTVSPropertyOp52
 70
     0
102
RTVSPropertyOp53
 70
     1
102
RTVSPropertyOp54
 70
     1
102
RTVSPropertyOp55
 70
     1
102
RTVSPropertyOp56
 70
     1
102
RTVSPropertyOp57
 70
     1
102
RTVSPropertyOp58
 70
     1
102
RTVSPropertyOp59
 70
     1
102
RTVSPropertyOp60
 70
     1
102
RTVSPropertyOp61
 70
     1
102
RTVSPropertyOp62
 70
     1
  0
XRECORD
  5
BF6A3
102
{ACAD_REACTORS
330
BF6A2
102
}
330
BF6A2
100
AcDbXrecord
280
     1
102
RTVSPost2010Prop28
280
     0
102
RTVSPost2010PropOp28
 70
     1
102
RTVSPost2010Prop29
280
     1
102
RTVSPost2010PropOp29
 70
     1
102
RTVSPost2010Prop30
280
     1
102
RTVSPost2010PropOp30
 70
     1
102
RTVSPost2010Prop31
280
     0
102
RTVSPost2010PropOp31
 70
     1
102
RTVSPost2010Prop32
280
     0
102
RTVSPost2010PropOp32
 70
     1
102
RTVSPost2010Prop33
280
     0
102
RTVSPost2010PropOp33
 70
     1
102
RTVSPost2010Prop34
280
     0
102
RTVSPost2010PropOp34
 70
     1
102
RTVSPost2010Prop35
280
     0
102
RTVSPost2010PropOp35
 70
     1
102
RTVSPost2010Prop36
280
     0
102
RTVSPost2010PropOp36
 70
     1
102
RTVSPost2010Prop37
 90
       50
102
RTVSPost2010PropOp37
 70
     1
102
RTVSPost2010Prop38
140
0.0
102
RTVSPost2010PropOp38
 70
     1
102
RTVSPost2010Prop39
140
1.0
102
RTVSPost2010PropOp39
 70
     1
102
RTVSPost2010Prop40
 90
        0
102
RTVSPost2010PropOp40
 70
     1
102
RTVSPost2010Prop41ColorIndex
 90
       18
102
RTVSPost2010Prop41ColorRGB
 90
        0
102
RTVSPost2010PropOp41
 70
     1
102
RTVSPost2010Prop42
 90
       50
102
RTVSPost2010PropOp42
 70
     1
102
RTVSPost2010Prop43
 90
        3
102
RTVSPost2010PropOp43
 70
     1
102
RTVSPost2010Prop44ColorIndex
 90
        5
102
RTVSPost2010Prop44ColorRGB
 90
      255
102
RTVSPost2010PropOp44
 70
     1
102
RTVSPost2010Prop45
280
     0
102
RTVSPost2010PropOp45
 70
     1
102
RTVSPost2010Prop46
 90
       50
102
RTVSPost2010PropOp46
 70
     1
102
RTVSPost2010Prop47
 90
       50
102
RTVSPost2010PropOp47
 70
     1
102
RTVSPost2010Prop48
 90
       50
102
RTVSPost2010PropOp48
 70
     1
102
RTVSPost2010Prop49
280
     0
102
RTVSPost2010PropOp49
 70
     1
102
RTVSPost2010Prop50
 90
       50
102
RTVSPost2010PropOp50
 70
     1
102
RTVSPost2010Prop51ColorIndex
 90
      256
102
RTVSPost2010Prop51ColorRGB
 90
-16777216
102
RTVSPost2010PropOp51
 70
     0
102
RTVSPost2010Prop52
140
1.0
102
RTVSPost2010PropOp52
 70
     0
102
RTVSPost2010Prop53
 90
        2
102
RTVSPost2010PropOp53
 70
     1
102
RTVSPost2010Prop54
  1
strokes_ogs.tif
102
RTVSPost2010PropOp54
 70
     1
102
RTVSPost2010Prop55
280
     0
102
RTVSPost2010PropOp55
 70
     1
102
RTVSPost2010Prop56
140
1.0
102
RTVSPost2010PropOp56
 70
     1
102
RTVSPost2010Prop57
140
1.0
102
RTVSPost2010PropOp57
 70
     1
102
RTVSPropertyOp0
 70
     1
102
RTVSPropertyOp1
 70
     1
102
RTVSPropertyOp2
 70
     1
102
RTVSPropertyOp3
 70
     1
102
RTVSPropertyOp4
 70
     1
102
RTVSPropertyOp5
 70
     1
102
RTVSPropertyOp6
 70
     1
102
RTVSPropertyOp7
 70
     1
102
RTVSPropertyOp8
 70
     1
102
RTVSPropertyOp9
 70
     1
102
RTVSPropertyOp10
 70
     1
102
RTVSPropertyOp11
 70
     1
102
RTVSPropertyOp12
 70
     1
102
RTVSPropertyOp13
 70
     1
102
RTVSPropertyOp14
 70
     1
102
RTVSPropertyOp15
 70
     1
102
RTVSPropertyOp16
 70
     1
102
RTVSPropertyOp17
 70
     1
102
RTVSPropertyOp18
 70
     1
102
RTVSPropertyOp19
 70
     1
102
RTVSPropertyOp20
 70
     1
102
RTVSPropertyOp21
 70
     1
102
RTVSPropertyOp22
 70
     1
102
RTVSPropertyOp23
 70
     1
102
RTVSPropertyOp24
 70
     1
102
RTVSPropertyOp25
 70
     1
102
RTVSPropertyOp26
 70
     1
102
RTVSPropertyOp27
 70
     1
102
RTVSPropertyOp28
 70
     1
102
RTVSPropertyOp29
 70
     1
102
RTVSPropertyOp30
 70
     1
102
RTVSPropertyOp31
 70
     1
102
RTVSPropertyOp32
 70
     1
102
RTVSPropertyOp33
 70
     1
102
RTVSPropertyOp34
 70
     1
102
RTVSPropertyOp35
 70
     1
102
RTVSPropertyOp36
 70
     1
102
RTVSPropertyOp37
 70
     1
102
RTVSPropertyOp38
 70
     1
102
RTVSPropertyOp39
 70
     1
102
RTVSPropertyOp40
 70
     1
102
RTVSPropertyOp41
 70
     1
102
RTVSPropertyOp42
 70
     1
102
RTVSPropertyOp43
 70
     1
102
RTVSPropertyOp44
 70
     1
102
RTVSPropertyOp45
 70
     1
102
RTVSPropertyOp46
 70
     1
102
RTVSPropertyOp47
 70
     1
102
RTVSPropertyOp48
 70
     1
102
RTVSPropertyOp49
 70
     1
102
RTVSPropertyOp50
 70
     1
102
RTVSPropertyOp51
 70
     0
102
RTVSPropertyOp52
 70
     0
102
RTVSPropertyOp53
 70
     1
102
RTVSPropertyOp54
 70
     1
102
RTVSPropertyOp55
 70
     1
102
RTVSPropertyOp56
 70
     1
102
RTVSPropertyOp57
 70
     1
102
RTVSPropertyOp58
 70
     1
102
RTVSPropertyOp59
 70
     1
102
RTVSPropertyOp60
 70
     1
102
RTVSPropertyOp61
 70
     1
102
RTVSPropertyOp62
 70
     1
  0
XRECORD
  5
BF6A5
102
{ACAD_REACTORS
330
BF6A4
102
}
330
BF6A4
100
AcDbXrecord
280
     1
102
RTVSPost2010Prop28
280
     0
102
RTVSPost2010PropOp28
 70
     1
102
RTVSPost2010Prop29
280
     1
102
RTVSPost2010PropOp29
 70
     1
102
RTVSPost2010Prop30
280
     1
102
RTVSPost2010PropOp30
 70
     1
102
RTVSPost2010Prop31
280
     0
102
RTVSPost2010PropOp31
 70
     1
102
RTVSPost2010Prop32
280
     0
102
RTVSPost2010PropOp32
 70
     1
102
RTVSPost2010Prop33
280
     0
102
RTVSPost2010PropOp33
 70
     1
102
RTVSPost2010Prop34
280
     0
102
RTVSPost2010PropOp34
 70
     1
102
RTVSPost2010Prop35
280
     0
102
RTVSPost2010PropOp35
 70
     1
102
RTVSPost2010Prop36
280
     0
102
RTVSPost2010PropOp36
 70
     1
102
RTVSPost2010Prop37
 90
       50
102
RTVSPost2010PropOp37
 70
     1
102
RTVSPost2010Prop38
140
0.0
102
RTVSPost2010PropOp38
 70
     1
102
RTVSPost2010Prop39
140
1.0
102
RTVSPost2010PropOp39
 70
     1
102
RTVSPost2010Prop40
 90
        0
102
RTVSPost2010PropOp40
 70
     1
102
RTVSPost2010Prop41ColorIndex
 90
       18
102
RTVSPost2010Prop41ColorRGB
 90
        0
102
RTVSPost2010PropOp41
 70
     1
102
RTVSPost2010Prop42
 90
       50
102
RTVSPost2010PropOp42
 70
     1
102
RTVSPost2010Prop43
 90
        3
102
RTVSPost2010PropOp43
 70
     1
102
RTVSPost2010Prop44ColorIndex
 90
        5
102
RTVSPost2010Prop44ColorRGB
 90
      255
102
RTVSPost2010PropOp44
 70
     1
102
RTVSPost2010Prop45
280
     0
102
RTVSPost2010PropOp45
 70
     1
102
RTVSPost2010Prop46
 90
       50
102
RTVSPost2010PropOp46
 70
     1
102
RTVSPost2010Prop47
 90
       50
102
RTVSPost2010PropOp47
 70
     1
102
RTVSPost2010Prop48
 90
       50
102
RTVSPost2010PropOp48
 70
     1
102
RTVSPost2010Prop49
280
     0
102
RTVSPost2010PropOp49
 70
     1
102
RTVSPost2010Prop50
 90
       50
102
RTVSPost2010PropOp50
 70
     1
102
RTVSPost2010Prop51ColorIndex
 90
      256
102
RTVSPost2010Prop51ColorRGB
 90
-16777216
102
RTVSPost2010PropOp51
 70
     0
102
RTVSPost2010Prop52
140
1.0
102
RTVSPost2010PropOp52
 70
     0
102
RTVSPost2010Prop53
 90
        2
102
RTVSPost2010PropOp53
 70
     1
102
RTVSPost2010Prop54
  1
strokes_ogs.tif
102
RTVSPost2010PropOp54
 70
     1
102
RTVSPost2010Prop55
280
     0
102
RTVSPost2010PropOp55
 70
     1
102
RTVSPost2010Prop56
140
1.0
102
RTVSPost2010PropOp56
 70
     1
102
RTVSPost2010Prop57
140
1.0
102
RTVSPost2010PropOp57
 70
     1
102
RTVSPropertyOp0
 70
     1
102
RTVSPropertyOp1
 70
     1
102
RTVSPropertyOp2
 70
     1
102
RTVSPropertyOp3
 70
     1
102
RTVSPropertyOp4
 70
     1
102
RTVSPropertyOp5
 70
     1
102
RTVSPropertyOp6
 70
     1
102
RTVSPropertyOp7
 70
     1
102
RTVSPropertyOp8
 70
     1
102
RTVSPropertyOp9
 70
     1
102
RTVSPropertyOp10
 70
     1
102
RTVSPropertyOp11
 70
     1
102
RTVSPropertyOp12
 70
     1
102
RTVSPropertyOp13
 70
     1
102
RTVSPropertyOp14
 70
     1
102
RTVSPropertyOp15
 70
     1
102
RTVSPropertyOp16
 70
     1
102
RTVSPropertyOp17
 70
     1
102
RTVSPropertyOp18
 70
     1
102
RTVSPropertyOp19
 70
     1
102
RTVSPropertyOp20
 70
     1
102
RTVSPropertyOp21
 70
     1
102
RTVSPropertyOp22
 70
     1
102
RTVSPropertyOp23
 70
     1
102
RTVSPropertyOp24
 70
     1
102
RTVSPropertyOp25
 70
     1
102
RTVSPropertyOp26
 70
     1
102
RTVSPropertyOp27
 70
     1
102
RTVSPropertyOp28
 70
     1
102
RTVSPropertyOp29
 70
     1
102
RTVSPropertyOp30
 70
     1
102
RTVSPropertyOp31
 70
     1
102
RTVSPropertyOp32
 70
     1
102
RTVSPropertyOp33
 70
     1
102
RTVSPropertyOp34
 70
     1
102
RTVSPropertyOp35
 70
     1
102
RTVSPropertyOp36
 70
     1
102
RTVSPropertyOp37
 70
     1
102
RTVSPropertyOp38
 70
     1
102
RTVSPropertyOp39
 70
     1
102
RTVSPropertyOp40
 70
     1
102
RTVSPropertyOp41
 70
     1
102
RTVSPropertyOp42
 70
     1
102
RTVSPropertyOp43
 70
     1
102
RTVSPropertyOp44
 70
     1
102
RTVSPropertyOp45
 70
     1
102
RTVSPropertyOp46
 70
     1
102
RTVSPropertyOp47
 70
     1
102
RTVSPropertyOp48
 70
     1
102
RTVSPropertyOp49
 70
     1
102
RTVSPropertyOp50
 70
     1
102
RTVSPropertyOp51
 70
     0
102
RTVSPropertyOp52
 70
     0
102
RTVSPropertyOp53
 70
     1
102
RTVSPropertyOp54
 70
     1
102
RTVSPropertyOp55
 70
     1
102
RTVSPropertyOp56
 70
     1
102
RTVSPropertyOp57
 70
     1
102
RTVSPropertyOp58
 70
     1
102
RTVSPropertyOp59
 70
     1
102
RTVSPropertyOp60
 70
     1
102
RTVSPropertyOp61
 70
     1
102
RTVSPropertyOp62
 70
     1
  0
XRECORD
  5
BF695
102
{ACAD_REACTORS
330
BF694
102
}
330
BF694
100
AcDbXrecord
280
     1
102
RTVSPost2010Prop28
280
     0
102
RTVSPost2010PropOp28
 70
     1
102
RTVSPost2010Prop29
280
     1
102
RTVSPost2010PropOp29
 70
     1
102
RTVSPost2010Prop30
280
     1
102
RTVSPost2010PropOp30
 70
     1
102
RTVSPost2010Prop31
280
     0
102
RTVSPost2010PropOp31
 70
     1
102
RTVSPost2010Prop32
280
     0
102
RTVSPost2010PropOp32
 70
     1
102
RTVSPost2010Prop33
280
     0
102
RTVSPost2010PropOp33
 70
     1
102
RTVSPost2010Prop34
280
     0
102
RTVSPost2010PropOp34
 70
     1
102
RTVSPost2010Prop35
280
     0
102
RTVSPost2010PropOp35
 70
     1
102
RTVSPost2010Prop36
280
     0
102
RTVSPost2010PropOp36
 70
     1
102
RTVSPost2010Prop37
 90
       50
102
RTVSPost2010PropOp37
 70
     1
102
RTVSPost2010Prop38
140
0.0
102
RTVSPost2010PropOp38
 70
     1
102
RTVSPost2010Prop39
140
1.0
102
RTVSPost2010PropOp39
 70
     1
102
RTVSPost2010Prop40
 90
        0
102
RTVSPost2010PropOp40
 70
     1
102
RTVSPost2010Prop41ColorIndex
 90
       18
102
RTVSPost2010Prop41ColorRGB
 90
        0
102
RTVSPost2010PropOp41
 70
     1
102
RTVSPost2010Prop42
 90
       50
102
RTVSPost2010PropOp42
 70
     1
102
RTVSPost2010Prop43
 90
        3
102
RTVSPost2010PropOp43
 70
     1
102
RTVSPost2010Prop44ColorIndex
 90
        5
102
RTVSPost2010Prop44ColorRGB
 90
      255
102
RTVSPost2010PropOp44
 70
     1
102
RTVSPost2010Prop45
280
     0
102
RTVSPost2010PropOp45
 70
     1
102
RTVSPost2010Prop46
 90
       50
102
RTVSPost2010PropOp46
 70
     1
102
RTVSPost2010Prop47
 90
       50
102
RTVSPost2010PropOp47
 70
     1
102
RTVSPost2010Prop48
 90
       50
102
RTVSPost2010PropOp48
 70
     1
102
RTVSPost2010Prop49
280
     0
102
RTVSPost2010PropOp49
 70
     1
102
RTVSPost2010Prop50
 90
       50
102
RTVSPost2010PropOp50
 70
     1
102
RTVSPost2010Prop51ColorIndex
 90
      256
102
RTVSPost2010Prop51ColorRGB
 90
-16777216
102
RTVSPost2010PropOp51
 70
     0
102
RTVSPost2010Prop52
140
1.0
102
RTVSPost2010PropOp52
 70
     0
102
RTVSPost2010Prop53
 90
        2
102
RTVSPost2010PropOp53
 70
     1
102
RTVSPost2010Prop54
  1
strokes_ogs.tif
102
RTVSPost2010PropOp54
 70
     1
102
RTVSPost2010Prop55
280
     0
102
RTVSPost2010PropOp55
 70
     1
102
RTVSPost2010Prop56
140
1.0
102
RTVSPost2010PropOp56
 70
     1
102
RTVSPost2010Prop57
140
1.0
102
RTVSPost2010PropOp57
 70
     1
102
RTVSPropertyOp0
 70
     1
102
RTVSPropertyOp1
 70
     1
102
RTVSPropertyOp2
 70
     1
102
RTVSPropertyOp3
 70
     1
102
RTVSPropertyOp4
 70
     1
102
RTVSPropertyOp5
 70
     1
102
RTVSPropertyOp6
 70
     1
102
RTVSPropertyOp7
 70
     1
102
RTVSPropertyOp8
 70
     1
102
RTVSPropertyOp9
 70
     1
102
RTVSPropertyOp10
 70
     1
102
RTVSPropertyOp11
 70
     1
102
RTVSPropertyOp12
 70
     1
102
RTVSPropertyOp13
 70
     1
102
RTVSPropertyOp14
 70
     1
102
RTVSPropertyOp15
 70
     1
102
RTVSPropertyOp16
 70
     1
102
RTVSPropertyOp17
 70
     1
102
RTVSPropertyOp18
 70
     1
102
RTVSPropertyOp19
 70
     1
102
RTVSPropertyOp20
 70
     1
102
RTVSPropertyOp21
 70
     1
102
RTVSPropertyOp22
 70
     1
102
RTVSPropertyOp23
 70
     1
102
RTVSPropertyOp24
 70
     1
102
RTVSPropertyOp25
 70
     1
102
RTVSPropertyOp26
 70
     1
102
RTVSPropertyOp27
 70
     1
102
RTVSPropertyOp28
 70
     1
102
RTVSPropertyOp29
 70
     1
102
RTVSPropertyOp30
 70
     1
102
RTVSPropertyOp31
 70
     1
102
RTVSPropertyOp32
 70
     1
102
RTVSPropertyOp33
 70
     1
102
RTVSPropertyOp34
 70
     1
102
RTVSPropertyOp35
 70
     1
102
RTVSPropertyOp36
 70
     1
102
RTVSPropertyOp37
 70
     1
102
RTVSPropertyOp38
 70
     1
102
RTVSPropertyOp39
 70
     1
102
RTVSPropertyOp40
 70
     1
102
RTVSPropertyOp41
 70
     1
102
RTVSPropertyOp42
 70
     1
102
RTVSPropertyOp43
 70
     1
102
RTVSPropertyOp44
 70
     1
102
RTVSPropertyOp45
 70
     1
102
RTVSPropertyOp46
 70
     1
102
RTVSPropertyOp47
 70
     1
102
RTVSPropertyOp48
 70
     1
102
RTVSPropertyOp49
 70
     1
102
RTVSPropertyOp50
 70
     1
102
RTVSPropertyOp51
 70
     0
102
RTVSPropertyOp52
 70
     0
102
RTVSPropertyOp53
 70
     1
102
RTVSPropertyOp54
 70
     1
102
RTVSPropertyOp55
 70
     1
102
RTVSPropertyOp56
 70
     1
102
RTVSPropertyOp57
 70
     1
102
RTVSPropertyOp58
 70
     1
102
RTVSPropertyOp59
 70
     1
102
RTVSPropertyOp60
 70
     1
102
RTVSPropertyOp61
 70
     1
102
RTVSPropertyOp62
 70
     1
  0
XRECORD
  5
BF687
102
{ACAD_REACTORS
330
BF686
102
}
330
BF686
100
AcDbXrecord
280
     1
102
RTVSPost2010Prop28
280
     0
102
RTVSPost2010PropOp28
 70
     1
102
RTVSPost2010Prop29
280
     1
102
RTVSPost2010PropOp29
 70
     1
102
RTVSPost2010Prop30
280
     1
102
RTVSPost2010PropOp30
 70
     1
102
RTVSPost2010Prop31
280
     0
102
RTVSPost2010PropOp31
 70
     1
102
RTVSPost2010Prop32
280
     0
102
RTVSPost2010PropOp32
 70
     1
102
RTVSPost2010Prop33
280
     0
102
RTVSPost2010PropOp33
 70
     1
102
RTVSPost2010Prop34
280
     0
102
RTVSPost2010PropOp34
 70
     1
102
RTVSPost2010Prop35
280
     0
102
RTVSPost2010PropOp35
 70
     1
102
RTVSPost2010Prop36
280
     0
102
RTVSPost2010PropOp36
 70
     1
102
RTVSPost2010Prop37
 90
       50
102
RTVSPost2010PropOp37
 70
     1
102
RTVSPost2010Prop38
140
0.0
102
RTVSPost2010PropOp38
 70
     1
102
RTVSPost2010Prop39
140
1.0
102
RTVSPost2010PropOp39
 70
     1
102
RTVSPost2010Prop40
 90
        0
102
RTVSPost2010PropOp40
 70
     1
102
RTVSPost2010Prop41ColorIndex
 90
       18
102
RTVSPost2010Prop41ColorRGB
 90
        0
102
RTVSPost2010PropOp41
 70
     1
102
RTVSPost2010Prop42
 90
       50
102
RTVSPost2010PropOp42
 70
     1
102
RTVSPost2010Prop43
 90
        3
102
RTVSPost2010PropOp43
 70
     1
102
RTVSPost2010Prop44ColorIndex
 90
        5
102
RTVSPost2010Prop44ColorRGB
 90
      255
102
RTVSPost2010PropOp44
 70
     1
102
RTVSPost2010Prop45
280
     0
102
RTVSPost2010PropOp45
 70
     1
102
RTVSPost2010Prop46
 90
       50
102
RTVSPost2010PropOp46
 70
     1
102
RTVSPost2010Prop47
 90
       50
102
RTVSPost2010PropOp47
 70
     1
102
RTVSPost2010Prop48
 90
       50
102
RTVSPost2010PropOp48
 70
     1
102
RTVSPost2010Prop49
280
     0
102
RTVSPost2010PropOp49
 70
     1
102
RTVSPost2010Prop50
 90
       50
102
RTVSPost2010PropOp50
 70
     1
102
RTVSPost2010Prop51ColorIndex
 90
      256
102
RTVSPost2010Prop51ColorRGB
 90
-16777216
102
RTVSPost2010PropOp51
 70
     0
102
RTVSPost2010Prop52
140
1.0
102
RTVSPost2010PropOp52
 70
     0
102
RTVSPost2010Prop53
 90
        2
102
RTVSPost2010PropOp53
 70
     1
102
RTVSPost2010Prop54
  1
strokes_ogs.tif
102
RTVSPost2010PropOp54
 70
     1
102
RTVSPost2010Prop55
280
     0
102
RTVSPost2010PropOp55
 70
     1
102
RTVSPost2010Prop56
140
1.0
102
RTVSPost2010PropOp56
 70
     1
102
RTVSPost2010Prop57
140
1.0
102
RTVSPost2010PropOp57
 70
     1
102
RTVSPropertyOp0
 70
     1
102
RTVSPropertyOp1
 70
     1
102
RTVSPropertyOp2
 70
     1
102
RTVSPropertyOp3
 70
     1
102
RTVSPropertyOp4
 70
     1
102
RTVSPropertyOp5
 70
     1
102
RTVSPropertyOp6
 70
     1
102
RTVSPropertyOp7
 70
     1
102
RTVSPropertyOp8
 70
     1
102
RTVSPropertyOp9
 70
     1
102
RTVSPropertyOp10
 70
     1
102
RTVSPropertyOp11
 70
     1
102
RTVSPropertyOp12
 70
     1
102
RTVSPropertyOp13
 70
     1
102
RTVSPropertyOp14
 70
     1
102
RTVSPropertyOp15
 70
     1
102
RTVSPropertyOp16
 70
     1
102
RTVSPropertyOp17
 70
     1
102
RTVSPropertyOp18
 70
     1
102
RTVSPropertyOp19
 70
     1
102
RTVSPropertyOp20
 70
     1
102
RTVSPropertyOp21
 70
     1
102
RTVSPropertyOp22
 70
     1
102
RTVSPropertyOp23
 70
     1
102
RTVSPropertyOp24
 70
     1
102
RTVSPropertyOp25
 70
     1
102
RTVSPropertyOp26
 70
     1
102
RTVSPropertyOp27
 70
     1
102
RTVSPropertyOp28
 70
     1
102
RTVSPropertyOp29
 70
     1
102
RTVSPropertyOp30
 70
     1
102
RTVSPropertyOp31
 70
     1
102
RTVSPropertyOp32
 70
     1
102
RTVSPropertyOp33
 70
     1
102
RTVSPropertyOp34
 70
     1
102
RTVSPropertyOp35
 70
     1
102
RTVSPropertyOp36
 70
     1
102
RTVSPropertyOp37
 70
     1
102
RTVSPropertyOp38
 70
     1
102
RTVSPropertyOp39
 70
     1
102
RTVSPropertyOp40
 70
     1
102
RTVSPropertyOp41
 70
     1
102
RTVSPropertyOp42
 70
     1
102
RTVSPropertyOp43
 70
     1
102
RTVSPropertyOp44
 70
     1
102
RTVSPropertyOp45
 70
     1
102
RTVSPropertyOp46
 70
     1
102
RTVSPropertyOp47
 70
     1
102
RTVSPropertyOp48
 70
     1
102
RTVSPropertyOp49
 70
     1
102
RTVSPropertyOp50
 70
     1
102
RTVSPropertyOp51
 70
     0
102
RTVSPropertyOp52
 70
     0
102
RTVSPropertyOp53
 70
     1
102
RTVSPropertyOp54
 70
     1
102
RTVSPropertyOp55
 70
     1
102
RTVSPropertyOp56
 70
     1
102
RTVSPropertyOp57
 70
     1
102
RTVSPropertyOp58
 70
     1
102
RTVSPropertyOp59
 70
     1
102
RTVSPropertyOp60
 70
     1
102
RTVSPropertyOp61
 70
     1
102
RTVSPropertyOp62
 70
     1
  0
XRECORD
  5
BF6A7
102
{ACAD_REACTORS
330
BF6A6
102
}
330
BF6A6
100
AcDbXrecord
280
     1
102
RTVSPost2010Prop28
280
     0
102
RTVSPost2010PropOp28
 70
     1
102
RTVSPost2010Prop29
280
     1
102
RTVSPost2010PropOp29
 70
     1
102
RTVSPost2010Prop30
280
     1
102
RTVSPost2010PropOp30
 70
     1
102
RTVSPost2010Prop31
280
     0
102
RTVSPost2010PropOp31
 70
     1
102
RTVSPost2010Prop32
280
     0
102
RTVSPost2010PropOp32
 70
     1
102
RTVSPost2010Prop33
280
     0
102
RTVSPost2010PropOp33
 70
     1
102
RTVSPost2010Prop34
280
     0
102
RTVSPost2010PropOp34
 70
     1
102
RTVSPost2010Prop35
280
     0
102
RTVSPost2010PropOp35
 70
     1
102
RTVSPost2010Prop36
280
     0
102
RTVSPost2010PropOp36
 70
     1
102
RTVSPost2010Prop37
 90
       50
102
RTVSPost2010PropOp37
 70
     1
102
RTVSPost2010Prop38
140
0.0
102
RTVSPost2010PropOp38
 70
     1
102
RTVSPost2010Prop39
140
1.0
102
RTVSPost2010PropOp39
 70
     1
102
RTVSPost2010Prop40
 90
        0
102
RTVSPost2010PropOp40
 70
     1
102
RTVSPost2010Prop41ColorIndex
 90
       18
102
RTVSPost2010Prop41ColorRGB
 90
        0
102
RTVSPost2010PropOp41
 70
     1
102
RTVSPost2010Prop42
 90
       50
102
RTVSPost2010PropOp42
 70
     1
102
RTVSPost2010Prop43
 90
        3
102
RTVSPost2010PropOp43
 70
     1
102
RTVSPost2010Prop44ColorIndex
 90
        5
102
RTVSPost2010Prop44ColorRGB
 90
      255
102
RTVSPost2010PropOp44
 70
     1
102
RTVSPost2010Prop45
280
     0
102
RTVSPost2010PropOp45
 70
     1
102
RTVSPost2010Prop46
 90
       50
102
RTVSPost2010PropOp46
 70
     1
102
RTVSPost2010Prop47
 90
       50
102
RTVSPost2010PropOp47
 70
     1
102
RTVSPost2010Prop48
 90
       50
102
RTVSPost2010PropOp48
 70
     1
102
RTVSPost2010Prop49
280
     0
102
RTVSPost2010PropOp49
 70
     1
102
RTVSPost2010Prop50
 90
       50
102
RTVSPost2010PropOp50
 70
     1
102
RTVSPost2010Prop51ColorIndex
 90
      256
102
RTVSPost2010Prop51ColorRGB
 90
-16777216
102
RTVSPost2010PropOp51
 70
     0
102
RTVSPost2010Prop52
140
1.0
102
RTVSPost2010PropOp52
 70
     0
102
RTVSPost2010Prop53
 90
        2
102
RTVSPost2010PropOp53
 70
     1
102
RTVSPost2010Prop54
  1
strokes_ogs.tif
102
RTVSPost2010PropOp54
 70
     1
102
RTVSPost2010Prop55
280
     0
102
RTVSPost2010PropOp55
 70
     1
102
RTVSPost2010Prop56
140
1.0
102
RTVSPost2010PropOp56
 70
     1
102
RTVSPost2010Prop57
140
1.0
102
RTVSPost2010PropOp57
 70
     1
102
RTVSPropertyOp0
 70
     1
102
RTVSPropertyOp1
 70
     1
102
RTVSPropertyOp2
 70
     1
102
RTVSPropertyOp3
 70
     1
102
RTVSPropertyOp4
 70
     1
102
RTVSPropertyOp5
 70
     1
102
RTVSPropertyOp6
 70
     1
102
RTVSPropertyOp7
 70
     1
102
RTVSPropertyOp8
 70
     1
102
RTVSPropertyOp9
 70
     1
102
RTVSPropertyOp10
 70
     1
102
RTVSPropertyOp11
 70
     1
102
RTVSPropertyOp12
 70
     1
102
RTVSPropertyOp13
 70
     1
102
RTVSPropertyOp14
 70
     1
102
RTVSPropertyOp15
 70
     1
102
RTVSPropertyOp16
 70
     1
102
RTVSPropertyOp17
 70
     1
102
RTVSPropertyOp18
 70
     1
102
RTVSPropertyOp19
 70
     1
102
RTVSPropertyOp20
 70
     1
102
RTVSPropertyOp21
 70
     1
102
RTVSPropertyOp22
 70
     1
102
RTVSPropertyOp23
 70
     1
102
RTVSPropertyOp24
 70
     1
102
RTVSPropertyOp25
 70
     1
102
RTVSPropertyOp26
 70
     1
102
RTVSPropertyOp27
 70
     1
102
RTVSPropertyOp28
 70
     1
102
RTVSPropertyOp29
 70
     1
102
RTVSPropertyOp30
 70
     1
102
RTVSPropertyOp31
 70
     1
102
RTVSPropertyOp32
 70
     1
102
RTVSPropertyOp33
 70
     1
102
RTVSPropertyOp34
 70
     1
102
RTVSPropertyOp35
 70
     1
102
RTVSPropertyOp36
 70
     1
102
RTVSPropertyOp37
 70
     1
102
RTVSPropertyOp38
 70
     1
102
RTVSPropertyOp39
 70
     1
102
RTVSPropertyOp40
 70
     1
102
RTVSPropertyOp41
 70
     1
102
RTVSPropertyOp42
 70
     1
102
RTVSPropertyOp43
 70
     1
102
RTVSPropertyOp44
 70
     1
102
RTVSPropertyOp45
 70
     1
102
RTVSPropertyOp46
 70
     1
102
RTVSPropertyOp47
 70
     1
102
RTVSPropertyOp48
 70
     1
102
RTVSPropertyOp49
 70
     1
102
RTVSPropertyOp50
 70
     1
102
RTVSPropertyOp51
 70
     0
102
RTVSPropertyOp52
 70
     0
102
RTVSPropertyOp53
 70
     1
102
RTVSPropertyOp54
 70
     1
102
RTVSPropertyOp55
 70
     1
102
RTVSPropertyOp56
 70
     1
102
RTVSPropertyOp57
 70
     1
102
RTVSPropertyOp58
 70
     1
102
RTVSPropertyOp59
 70
     1
102
RTVSPropertyOp60
 70
     1
102
RTVSPropertyOp61
 70
     1
102
RTVSPropertyOp62
 70
     1
  0
ENDSEC
  0
EOF
