  0
SECTION
  2
HEADER
  9
$ACADVER
  1
AC1015
  9
$ACADMAINTVER
 70
    20
  9
$DWGCODEPAGE
  3
ANSI_932
  9
$INSBASE
 10
0.0
 20
0.0
 30
0.0
  9
$EXTMIN
 10
5181.047491566596
 20
-1721.73751933252
 30
0.0
  9
$EXTMAX
 10
5917.522969975276
 20
-1318.23751575624
 30
137.5
  9
$LIMMIN
 10
0.0
 20
0.0
  9
$LIMMAX
 10
420.0
 20
297.0
  9
$ORTHOMODE
 70
     0
  9
$REGENMODE
 70
     1
  9
$FILLMODE
 70
     1
  9
$QTEXTMODE
 70
     0
  9
$MIRRTEXT
 70
     0
  9
$LTSCALE
 40
1.0
  9
$ATTMODE
 70
     1
  9
$TEXTSIZE
 40
0.2
  9
$TRACEWID
 40
1.0
  9
$TEXTSTYLE
  7
\U+FF7D\U+FF80\U+FF72\U+FF991
  9
$CLAYER
  8
dimension
  9
$CELTYPE
  6
BYLAYER
  9
$CECOLOR
 62
   256
  9
$CELTSCALE
 40
1.0
  9
$DISPSILH
 70
     0
  9
$DIMSCALE
 40
2.0
  9
$DIMASZ
 40
2.5
  9
$DIMEXO
 40
1.0
  9
$DIMDLI
 40
0.38
  9
$DIMRND
 40
0.0
  9
$DIMDLE
 40
0.0
  9
$DIMEXE
 40
0.8
  9
$DIMTP
 40
0.0
  9
$DIMTM
 40
0.0
  9
$DIMTXT
 40
2.5
  9
$DIMCEN
 40
0.0
  9
$DIMTSZ
 40
0.0
  9
$DIMTOL
 70
     0
  9
$DIMLIM
 70
     0
  9
$DIMTIH
 70
     0
  9
$DIMTOH
 70
     0
  9
$DIMSE1
 70
     0
  9
$DIMSE2
 70
     0
  9
$DIMTAD
 70
     3
  9
$DIMZIN
 70
     8
  9
$DIMBLK
  1
Open30
  9
$DIMASO
 70
     1
  9
$DIMSHO
 70
     1
  9
$DIMPOST
  1

  9
$DIMAPOST
  1

  9
$DIMALT
 70
     0
  9
$DIMALTD
 70
     2
  9
$DIMALTF
 40
25.4
  9
$DIMLFAC
 40
1.0
  9
$DIMTOFL
 70
     0
  9
$DIMTVP
 40
0.0
  9
$DIMTIX
 70
     0
  9
$DIMSOXD
 70
     0
  9
$DIMSAH
 70
     0
  9
$DIMBLK1
  1

  9
$DIMBLK2
  1

  9
$DIMSTYLE
  2
まこ-10
  9
$DIMCLRD
 70
     4
  9
$DIMCLRE
 70
     4
  9
$DIMCLRT
 70
   256
  9
$DIMTFAC
 40
1.0
  9
$DIMGAP
 40
0.5
  9
$DIMJUST
 70
     0
  9
$DIMSD1
 70
     0
  9
$DIMSD2
 70
     0
  9
$DIMTOLJ
 70
     1
  9
$DIMTZIN
 70
     0
  9
$DIMALTZ
 70
     0
  9
$DIMALTTZ
 70
     0
  9
$DIMUPT
 70
     0
  9
$DIMDEC
 70
     5
  9
$DIMTDEC
 70
     5
  9
$DIMALTU
 70
     2
  9
$DIMALTTD
 70
     2
  9
$DIMTXSTY
  7
MS\U+FF7A\U+FF9E\U+FF7C\U+FF6F\U+FF78-0
  9
$DIMAUNIT
 70
     0
  9
$DIMADEC
 70
     5
  9
$DIMALTRND
 40
0.0
  9
$DIMAZIN
 70
     2
  9
$DIMDSEP
 70
    46
  9
$DIMATFIT
 70
     1
  9
$DIMFRAC
 70
     0
  9
$DIMLDRBLK
  1
Open30
  9
$DIMLUNIT
 70
     2
  9
$DIMLWD
 70
    13
  9
$DIMLWE
 70
    13
  9
$DIMTMOVE
 70
     0
  9
$LUNITS
 70
     2
  9
$LUPREC
 70
     4
  9
$SKETCHINC
 40
1.0
  9
$FILLETRAD
 40
35.0
  9
$AUNITS
 70
     0
  9
$AUPREC
 70
     0
  9
$MENU
  1
.
  9
$ELEVATION
 40
0.0
  9
$PELEVATION
 40
0.0
  9
$THICKNESS
 40
0.0
  9
$LIMCHECK
 70
     0
  9
$CHAMFERA
 40
0.5
  9
$CHAMFERB
 40
0.5
  9
$CHAMFERC
 40
20.0
  9
$CHAMFERD
 40
0.0
  9
$SKPOLY
 70
     0
  9
$TDCREATE
 40
2452479.723113426
  9
$TDUCREATE
 40
2452479.348123183
  9
$TDUPDATE
 40
2458554.387951389
  9
$TDUUPDATE
 40
2458554.012951389
  9
$TDINDWG
 40
16.0397001389
  9
$TDUSRTIMER
 40
2458551.208168380
  9
$USRTIMER
 70
     1
  9
$ANGBASE
 50
0.0
  9
$ANGDIR
 70
     0
  9
$PDMODE
 70
     0
  9
$PDSIZE
 40
0.0
  9
$PLINEWID
 40
0.0
  9
$SPLFRAME
 70
     0
  9
$SPLINETYPE
 70
     6
  9
$SPLINESEGS
 70
     8
  9
$HANDSEED
  5
B3C8C
  9
$SURFTAB1
 70
     6
  9
$SURFTAB2
 70
     6
  9
$SURFTYPE
 70
     6
  9
$SURFU
 70
     6
  9
$SURFV
 70
     6
  9
$UCSBASE
  2

  9
$UCSNAME
  2

  9
$UCSORG
 10
0.0
 20
0.0
 30
0.0
  9
$UCSXDIR
 10
1.0
 20
0.0
 30
0.0
  9
$UCSYDIR
 10
0.0
 20
1.0
 30
0.0
  9
$UCSORTHOREF
  2

  9
$UCSORTHOVIEW
 70
     0
  9
$UCSORGTOP
 10
0.0
 20
0.0
 30
0.0
  9
$UCSORGBOTTOM
 10
0.0
 20
0.0
 30
0.0
  9
$UCSORGLEFT
 10
0.0
 20
0.0
 30
0.0
  9
$UCSORGRIGHT
 10
0.0
 20
0.0
 30
0.0
  9
$UCSORGFRONT
 10
0.0
 20
0.0
 30
0.0
  9
$UCSORGBACK
 10
0.0
 20
0.0
 30
0.0
  9
$PUCSBASE
  2

  9
$PUCSNAME
  2

  9
$PUCSORG
 10
0.0
 20
0.0
 30
0.0
  9
$PUCSXDIR
 10
1.0
 20
0.0
 30
0.0
  9
$PUCSYDIR
 10
0.0
 20
1.0
 30
0.0
  9
$PUCSORTHOREF
  2

  9
$PUCSORTHOVIEW
 70
     0
  9
$PUCSORGTOP
 10
0.0
 20
0.0
 30
0.0
  9
$PUCSORGBOTTOM
 10
0.0
 20
0.0
 30
0.0
  9
$PUCSORGLEFT
 10
0.0
 20
0.0
 30
0.0
  9
$PUCSORGRIGHT
 10
0.0
 20
0.0
 30
0.0
  9
$PUCSORGFRONT
 10
0.0
 20
0.0
 30
0.0
  9
$PUCSORGBACK
 10
0.0
 20
0.0
 30
0.0
  9
$USERI1
 70
     0
  9
$USERI2
 70
     0
  9
$USERI3
 70
     0
  9
$USERI4
 70
     0
  9
$USERI5
 70
     0
  9
$USERR1
 40
10.0
  9
$USERR2
 40
0.0
  9
$USERR3
 40
0.0
  9
$USERR4
 40
0.0
  9
$USERR5
 40
0.0
  9
$WORLDVIEW
 70
     1
  9
$SHADEDGE
 70
     3
  9
$SHADEDIF
 70
    70
  9
$TILEMODE
 70
     0
  9
$MAXACTVP
 70
    48
  9
$PINSBASE
 10
0.0
 20
0.0
 30
0.0
  9
$PLIMCHECK
 70
     0
  9
$PEXTMIN
 10
1.068900220610878
 20
0.7264526316292255
 30
-0.0015258207003583
  9
$PEXTMAX
 10
9.624431574813016
 20
6.540213864274434
 30
0.0000000349246037
  9
$PLIMMIN
 10
-0.5000004805917815
 20
-0.4999999924907535
  9
$PLIMMAX
 10
11.19333222156434
 20
7.766666449899748
  9
$UNITMODE
 70
     0
  9
$VISRETAIN
 70
     1
  9
$PLINEGEN
 70
     0
  9
$PSLTSCALE
 70
     1
  9
$TREEDEPTH
 70
  3020
  9
$CMLSTYLE
  2
STANDARD
  9
$CMLJUST
 70
     0
  9
$CMLSCALE
 40
20.0
  9
$PROXYGRAPHICS
 70
     1
  9
$MEASUREMENT
 70
     0
  9
$CELWEIGHT
370
    -1
  9
$ENDCAPS
280
     0
  9
$JOINSTYLE
280
     0
  9
$LWDISPLAY
290
     1
  9
$INSUNITS
 70
     0
  9
$HYPERLINKBASE
  1

  9
$STYLESHEET
  1
monochrome.ctb
  9
$XEDIT
290
     1
  9
$CEPSNTYPE
380
     0
  9
$PSTYLEMODE
290
     1
  9
$FINGERPRINTGUID
  2
{6B368F64-F7EB-11D4-BFBA-00004C030E53}
  9
$VERSIONGUID
  2
{A9B1086D-2302-B049-923D-8F67CEDA14E0}
  9
$EXTNAMES
290
     1
  9
$PSVPSCALE
 40
0.0
  9
$OLESTARTUP
290
     0
  0
ENDSEC
  0
SECTION
  2
CLASSES
  0
CLASS
  1
ACDBDICTIONARYWDFLT
  2
AcDbDictionaryWithDefault
  3
ObjectDBX Classes
 90
        0
280
     0
281
     0
  0
CLASS
  1
ACDBPLACEHOLDER
  2
AcDbPlaceHolder
  3
ObjectDBX Classes
 90
        0
280
     0
281
     0
  0
CLASS
  1
LAYOUT
  2
AcDbLayout
  3
ObjectDBX Classes
 90
        0
280
     0
281
     0
  0
CLASS
  1
DICTIONARYVAR
  2
AcDbDictionaryVar
  3
ObjectDBX Classes
 90
        0
280
     0
281
     0
  0
CLASS
  1
MATERIAL
  2
AcDbMaterial
  3
ObjectDBX Classes
 90
     1153
280
     0
281
     0
  0
CLASS
  1
VISUALSTYLE
  2
AcDbVisualStyle
  3
ObjectDBX Classes
 90
     4095
280
     0
281
     0
  0
CLASS
  1
TABLESTYLE
  2
AcDbTableStyle
  3
ObjectDBX Classes
 90
     4095
280
     0
281
     0
  0
CLASS
  1
SCALE
  2
AcDbScale
  3
ObjectDBX Classes
 90
     1153
280
     0
281
     0
  0
CLASS
  1
MLEADERSTYLE
  2
AcDbMLeaderStyle
  3
ACDB_MLEADERSTYLE_CLASS
 90
     4095
280
     0
281
     0
  0
CLASS
  1
SORTENTSTABLE
  2
AcDbSortentsTable
  3
ObjectDBX Classes
 90
    32768
280
     0
281
     0
  0
CLASS
  1
CELLSTYLEMAP
  2
AcDbCellStyleMap
  3
ObjectDBX Classes
 90
     1152
280
     0
281
     0
  0
CLASS
  1
SUN
  2
AcDbSun
  3
SCENEOE
 90
     1153
280
     0
281
     0
  0
CLASS
  1
RASTERVARIABLES
  2
AcDbRasterVariables
  3
ISM
 90
        0
280
     0
281
     0
  0
CLASS
  1
ACDBSECTIONVIEWSTYLE
  2
AcDbSectionViewStyle
  3
ObjectDBX Classes
 90
     1025
280
     0
281
     0
  0
CLASS
  1
ACDBDETAILVIEWSTYLE
  2
AcDbDetailViewStyle
  3
ObjectDBX Classes
 90
     1025
280
     0
281
     0
  0
ENDSEC
  0
SECTION
  2
TABLES
  0
TABLE
  2
VPORT
  5
8
330
0
100
AcDbSymbolTable
 70
     1
  0
VPORT
  5
A2A92
330
8
100
AcDbSymbolTableRecord
100
AcDbViewportTableRecord
  2
*Active
 70
     0
 10
0.0
 20
0.0
 11
1.0
 21
1.0
 12
5832.468360472977
 22
-1508.906594656394
 13
-147.9468458676921
 23
19.55743956420332
 14
10.0
 24
10.0
 15
10.0
 25
10.0
 16
0.0
 26
0.0
 36
1.0
 17
0.0
 27
0.0
 37
0.0
 40
863.2710965030144
 41
3.337552742616033
 42
50.0
 43
0.0
 44
0.0
 50
0.0
 51
0.0
 71
    16
 72
   100
 73
     1
 74
     0
 75
     0
 76
     0
 77
     0
 78
     0
281
     0
 65
     1
110
0.0
120
0.0
130
0.0
111
1.0
121
0.0
131
0.0
112
0.0
122
1.0
132
0.0
 79
     0
146
0.0
1001
ACAD_NAV_VCDISPLAY
1070
     3
  0
ENDTAB
  0
TABLE
  2
LTYPE
  5
5
330
0
100
AcDbSymbolTable
 70
     2
  0
LTYPE
  5
12
330
5
100
AcDbSymbolTableRecord
100
AcDbLinetypeTableRecord
  2
BYBLOCK
 70
     0
  3

 72
    65
 73
     0
 40
0.0
  0
LTYPE
  5
13
330
5
100
AcDbSymbolTableRecord
100
AcDbLinetypeTableRecord
  2
BYLAYER
 70
     0
  3

 72
    65
 73
     0
 40
0.0
  0
LTYPE
  5
14
330
5
100
AcDbSymbolTableRecord
100
AcDbLinetypeTableRecord
  2
CONTINUOUS
 70
     0
  3
Solid line
 72
    65
 73
     0
 40
0.0
  0
LTYPE
  5
8930E
330
5
100
AcDbSymbolTableRecord
100
AcDbLinetypeTableRecord
  2
CENTER
 70
     0
  3
____ _ ____ _ ____ _ ____ _ ____ _ ____ _ ____
 72
    65
 73
     4
 40
17.5
 49
13.0
 74
     0
 49
-1.5
 74
     0
 49
1.5
 74
     0
 49
-1.5
 74
     0
  0
ENDTAB
  0
TABLE
  2
LAYER
  5
2
102
{ACAD_XDICTIONARY
360
1E591
102
}
330
0
100
AcDbSymbolTable
 70
     8
  0
LAYER
  5
E
102
{ACAD_XDICTIONARY
360
A2CED
102
}
330
2
100
AcDbSymbolTableRecord
100
AcDbLayerTableRecord
  2
0
 70
     2
 62
     7
  6
CONTINUOUS
370
    -3
390
73E
  0
LAYER
  5
12B
330
2
100
AcDbSymbolTableRecord
100
AcDbLayerTableRecord
  2
DEFPOINTS
 70
     4
 62
     7
  6
CONTINUOUS
290
     0
370
    -3
390
73E
  0
LAYER
  5
8C6
102
{ACAD_XDICTIONARY
360
A2CF5
102
}
330
2
100
AcDbSymbolTableRecord
100
AcDbLayerTableRecord
  2
文字
 70
     0
 62
     7
  6
CONTINUOUS
370
    20
390
73E
  0
LAYER
  5
1521
102
{ACAD_XDICTIONARY
360
A2CFD
102
}
330
2
100
AcDbSymbolTableRecord
100
AcDbLayerTableRecord
  2
実線
 70
     0
 62
     7
  6
CONTINUOUS
370
    30
390
73E
  0
LAYER
  5
1523
102
{ACAD_XDICTIONARY
360
A2D01
102
}
330
2
100
AcDbSymbolTableRecord
100
AcDbLayerTableRecord
  2
細線
 70
     0
 62
     7
  6
CONTINUOUS
370
    13
390
73E
  0
LAYER
  5
7EA59
102
{ACAD_XDICTIONARY
360
A2D09
102
}
330
2
100
AcDbSymbolTableRecord
100
AcDbLayerTableRecord
  2
dimension
 70
     0
 62
     7
  6
CONTINUOUS
370
    13
390
73E
  0
LAYER
  5
A2EBD
102
{ACAD_XDICTIONARY
360
A2EBE
102
}
330
2
100
AcDbSymbolTableRecord
100
AcDbLayerTableRecord
  2
CENTER
 70
     0
 62
     7
  6
CENTER
370
    13
390
73E
  0
LAYER
  5
B3BCC
102
{ACAD_XDICTIONARY
360
B3BCD
102
}
330
2
100
AcDbSymbolTableRecord
100
AcDbLayerTableRecord
  2
ハッチング
 70
     0
 62
     7
  6
CONTINUOUS
370
     5
390
73E
  0
ENDTAB
  0
TABLE
  2
STYLE
  5
3
330
0
100
AcDbSymbolTable
 70
     7
  0
STYLE
  5
F
330
3
100
AcDbSymbolTableRecord
100
AcDbTextStyleTableRecord
  2
STANDARD
 70
     0
 40
0.0
 41
1.0
 50
0.0
 71
     0
 42
2.5
  3
simplex.shx
  4
bigfont.shx
  0
STYLE
  5
34
330
3
100
AcDbSymbolTableRecord
100
AcDbTextStyleTableRecord
  2
TIMESNR
 70
     0
 40
0.0
 41
1.0
 50
0.0
 71
     0
 42
2.0
  3
times.ttf
  4

1001
ACAD
1000
Times New Roman
1071
       18
  0
STYLE
  5
35
330
3
100
AcDbSymbolTableRecord
100
AcDbTextStyleTableRecord
  2
MS\U+FF7A\U+FF9E\U+FF7C\U+FF6F\U+FF78
 70
     0
 40
0.0
 41
1.0
 50
0.0
 71
     0
 42
5.0
  3

  4

1001
ACAD
1000
MS Gothic
1071
    32817
  0
STYLE
  5
8D7
330
3
100
AcDbSymbolTableRecord
100
AcDbTextStyleTableRecord
  2
MS\U+FF7A\U+FF9E\U+FF7C\U+FF6F\U+FF78-0
 70
     0
 40
0.0
 41
1.0
 50
0.0
 71
     0
 42
4.0
  3
simplex.shx
  4
bigfont.shx
  0
STYLE
  5
1529
330
3
100
AcDbSymbolTableRecord
100
AcDbTextStyleTableRecord
  2
まこ
 70
     0
 40
0.0
 41
1.0
 50
0.0
 71
     0
 42
3.2
  3
simplex.shx
  4
bigfont.shx
  0
STYLE
  5
1A5A7
330
3
100
AcDbSymbolTableRecord
100
AcDbTextStyleTableRecord
  2
MS\U+FF7A\U+FF9E\U+FF7C\U+FF6F\U+FF78N
 70
     0
 40
0.0
 41
1.0
 50
0.0
 71
     0
 42
5.0
  3

  4

1001
ACAD
1000
MS Gothic
1071
    32817
  0
STYLE
  5
80335
330
3
100
AcDbSymbolTableRecord
100
AcDbTextStyleTableRecord
  2
\U+FF7D\U+FF80\U+FF72\U+FF991
 70
     0
 40
0.0
 41
1.0
 50
0.0
 71
     0
 42
0.2
  3
simplex.shx
  4
extfont.shx
  0
ENDTAB
  0
TABLE
  2
VIEW
  5
6
330
0
100
AcDbSymbolTable
 70
     0
  0
ENDTAB
  0
TABLE
  2
UCS
  5
7
330
0
100
AcDbSymbolTable
 70
     0
  0
ENDTAB
  0
TABLE
  2
APPID
  5
9
330
0
100
AcDbSymbolTable
 70
    18
  0
APPID
  5
10
330
9
100
AcDbSymbolTableRecord
100
AcDbRegAppTableRecord
  2
ACAD
 70
     0
  0
APPID
  5
8F834
330
9
100
AcDbSymbolTableRecord
100
AcDbRegAppTableRecord
  2
ACAD_DSTYLE_DIMRADIAL_EXTENSION
 70
     0
  0
APPID
  5
8F835
330
9
100
AcDbSymbolTableRecord
100
AcDbRegAppTableRecord
  2
ACAD_DSTYLE_DIMFLIPARROW_WHICH_SYMBOL
 70
     0
  0
APPID
  5
9F979
330
9
100
AcDbSymbolTableRecord
100
AcDbRegAppTableRecord
  2
AcadAnnotative
 70
     0
  0
APPID
  5
A2AF3
330
9
100
AcDbSymbolTableRecord
100
AcDbRegAppTableRecord
  2
ACAD_EXEMPT_FROM_CAD_STANDARDS
 70
     0
  0
APPID
  5
A2AF5
330
9
100
AcDbSymbolTableRecord
100
AcDbRegAppTableRecord
  2
ACAD_PSEXT
 70
     0
  0
APPID
  5
A2AF6
330
9
100
AcDbSymbolTableRecord
100
AcDbRegAppTableRecord
  2
ACAD_NAV_VCDISPLAY
 70
     0
  0
APPID
  5
A2B75
330
9
100
AcDbSymbolTableRecord
100
AcDbRegAppTableRecord
  2
AcAecLayerStandard
 70
     0
  0
APPID
  5
A2B76
330
9
100
AcDbSymbolTableRecord
100
AcDbRegAppTableRecord
  2
AcCmTransparency
 70
     0
  0
APPID
  5
A2D87
330
9
100
AcDbSymbolTableRecord
100
AcDbRegAppTableRecord
  2
ACAD_MLEADERVER
 70
     0
  0
APPID
  5
A2EFD
330
9
100
AcDbSymbolTableRecord
100
AcDbRegAppTableRecord
  2
PE_CLOUD
 70
     0
  0
APPID
  5
A2EFE
330
9
100
AcDbSymbolTableRecord
100
AcDbRegAppTableRecord
  2
PLOTTRANSPARENCY
 70
     0
  0
APPID
  5
A926D
330
9
100
AcDbSymbolTableRecord
100
AcDbRegAppTableRecord
  2
ACAD_DSTYLE_DIMFLIPARROW_SYMBOL
 70
     0
  0
APPID
  5
A9FC8
330
9
100
AcDbSymbolTableRecord
100
AcDbRegAppTableRecord
  2
ACAD_DIMASSOC_DIMLFAC
 70
     0
  0
APPID
  5
A9FC9
330
9
100
AcDbSymbolTableRecord
100
AcDbRegAppTableRecord
  2
ACAD_DIMASSOC_CALC_DIMLFAC
 70
     0
  0
APPID
  5
A9FCA
330
9
100
AcDbSymbolTableRecord
100
AcDbRegAppTableRecord
  2
ACAD_DIMASSOC_OVERRIDDEN_DIMLFAC
 70
     0
  0
APPID
  5
B2101
330
9
100
AcDbSymbolTableRecord
100
AcDbRegAppTableRecord
  2
FX_RP_XDATA
 70
     0
  0
APPID
  5
B39F5
330
9
100
AcDbSymbolTableRecord
100
AcDbRegAppTableRecord
  2
TB_S_MPD
 70
     0
  0
ENDTAB
  0
TABLE
  2
DIMSTYLE
  5
A
330
0
100
AcDbSymbolTable
 70
     1
100
AcDbDimStyleTable
 71
     0
  0
DIMSTYLE
105
8264
330
A
100
AcDbSymbolTableRecord
100
AcDbDimStyleTableRecord
  2
まこ-10
 70
     0
 40
2.0
 41
2.5
 42
1.0
 44
0.8
 73
     0
 74
     0
 77
     3
 78
     8
 79
     2
140
2.5
141
0.0
147
0.5
176
     4
177
     4
178
   256
179
     5
271
     5
272
     5
289
     1
340
8D7
341
89E
342
89E
371
    13
372
    13
  0
ENDTAB
  0
TABLE
  2
BLOCK_RECORD
  5
1
330
0
100
AcDbSymbolTable
 70
     1
  0
BLOCK_RECORD
  5
18
330
1
100
AcDbSymbolTableRecord
100
AcDbBlockTableRecord
  2
*MODEL_SPACE
340
741
  0
BLOCK_RECORD
  5
B3AD8
330
1
100
AcDbSymbolTableRecord
100
AcDbBlockTableRecord
  2
*Paper_Space
340
B3AD9
  0
BLOCK_RECORD
  5
89E
330
1
100
AcDbSymbolTableRecord
100
AcDbBlockTableRecord
  2
_Open30
340
0
  0
ENDTAB
  0
ENDSEC
  0
SECTION
  2
BLOCKS
  0
BLOCK
  5
19
330
18
100
AcDbEntity
  8
0
100
AcDbBlockBegin
  2
*MODEL_SPACE
 70
     0
 10
0.0
 20
0.0
 30
0.0
  3
*MODEL_SPACE
  1

  0
ENDBLK
  5
1A
330
18
100
AcDbEntity
  8
0
100
AcDbBlockEnd
  0
BLOCK
  5
B3ADA
330
B3AD8
100
AcDbEntity
 67
     1
  8
0
100
AcDbBlockBegin
  2
*Paper_Space
 70
     0
 10
0.0
 20
0.0
 30
0.0
  3
*Paper_Space
  1

  0
ENDBLK
  5
B3ADB
330
B3AD8
100
AcDbEntity
 67
     1
  8
0
100
AcDbBlockEnd
  0
BLOCK
  5
8A2
330
89E
100
AcDbEntity
  8
0
100
AcDbBlockBegin
  2
_Open30
 70
     0
 10
0.0
 20
0.0
 30
0.0
  3
_Open30
  1

  0
LINE
  5
89F
330
89E
100
AcDbEntity
  8
0
  6
ByBlock
 62
     0
370
    -2
100
AcDbLine
 10
-1.0
 20
0.26794919
 30
0.0
 11
0.0
 21
0.0
 31
0.0
  0
LINE
  5
8A0
330
89E
100
AcDbEntity
  8
0
  6
ByBlock
 62
     0
370
    -2
100
AcDbLine
 10
0.0
 20
0.0
 30
0.0
 11
-1.0
 21
-0.26794919
 31
0.0
  0
LINE
  5
8A1
330
89E
100
AcDbEntity
  8
0
  6
ByBlock
 62
     0
370
    -2
100
AcDbLine
 10
0.0
 20
0.0
 30
0.0
 11
-1.0
 21
0.0
 31
0.0
  0
ENDBLK
  5
8A3
330
89E
100
AcDbEntity
  8
0
100
AcDbBlockEnd
  0
ENDSEC
  0
SECTION
  2
ENTITIES
  0
LINE
  5
AC0CF
330
18
100
AcDbEntity
  8
文字
100
AcDbLine
 10
5622.526789234808
 20
-1446.797010277696
 30
0.0
 11
5622.526789234808
 21
-1441.005510277694
 31
0.0
  0
HATCH
  5
AC0D0
330
18
100
AcDbEntity
  8
文字
100
AcDbHatch
 10
0.0
 20
0.0
 30
0.0
210
0.0
220
0.0
230
1.0
  2
ANSI37
 70
     0
 71
     0
 91
        2
 92
       17
 93
        1
 72
     2
 10
5624.89603923481
 20
-1444.164510277696
 40
0.7897500000000002
 50
90.0
 51
450.0
 73
     1
 97
        0
 92
        1
 93
        8
 72
     2
 10
5624.893590397601
 20
-1444.16328585909
 40
1.318699405648644
 50
203.5897772726301
 51
359.946800591415
 73
     1
 72
     2
 10
5625.15928923481
 20
-1444.164510277696
 40
1.053
 50
0.0
 51
180.0
 73
     1
 72
     1
 10
5624.10628923481
 20
-1444.164510277696
 11
5624.10628923481
 21
-1441.216110277697
 72
     1
 10
5624.10628923481
 20
-1441.216110277695
 11
5626.73878923481
 21
-1441.532010277694
 72
     1
 10
5626.73878923481
 20
-1441.532010277694
 11
5626.73878923481
 21
-1447.323510277694
 72
     1
 10
5626.73878923481
 20
-1447.323510277696
 11
5622.52678923481
 21
-1446.797010277696
 72
     1
 10
5622.526789234808
 20
-1446.797010277696
 11
5622.526789234808
 21
-1441.005510277696
 72
     1
 10
5622.526789234808
 20
-1441.005510277694
 11
5623.685089234808
 21
-1444.691010277694
 97
        0
 75
     0
 76
     1
 52
89.99999999999998
 41
0.8424000000000001
 77
     0
 78
     2
 53
135.0
 43
5621.636504926453
 44
-1709.028466244275
 45
-0.0744583440589435
 46
-0.0744583440589434
 79
     0
 53
225.0
 43
5621.636504926453
 44
-1709.028466244275
 45
0.0744583440589434
 46
-0.0744583440589435
 79
     0
 98
        1
 10
5621.636504926453
 20
-1709.028466244275
  0
TEXT
  5
AC0D1
330
18
100
AcDbEntity
  8
文字
100
AcDbText
 10
5620.90882636784
 20
-1447.429343732819
 30
0.0
 40
2.1
  1
SER No : 
 50
90.0
  7
MS\U+FF7A\U+FF9E\U+FF7C\U+FF6F\U+FF78
 11
5619.85882636784
 21
-1447.429343732819
 31
0.0
100
AcDbText
 73
     2
  0
TEXT
  5
AC0D2
330
18
100
AcDbEntity
  8
文字
100
AcDbText
 10
5618.390853353268
 20
-1488.39729486822
 30
0.0
 40
1.8
  1
OUT PUT: 502W　
 50
90.0
  7
MS\U+FF7A\U+FF9E\U+FF7C\U+FF6F\U+FF78
 11
5617.490853353269
 21
-1488.39729486822
 31
0.0
100
AcDbText
 73
     2
  0
TEXT
  5
AC0D3
330
18
100
AcDbEntity
  8
文字
100
AcDbText
 10
5620.668101925581
 20
-1488.358715122752
 30
0.0
 40
1.8
  1
AMPS   : 5A
 50
90.0
  7
MS\U+FF7A\U+FF9E\U+FF7C\U+FF6F\U+FF78
 11
5619.768101925582
 21
-1488.358715122752
 31
0.0
100
AcDbText
 73
     2
  0
TEXT
  5
AC0D4
330
18
100
AcDbEntity
  8
文字
100
AcDbText
 10
5622.946978066455
 20
-1488.432515809305
 30
0.0
 40
1.8
  1
DUTY  : CONT/S1
 50
90.0
  7
MS\U+FF7A\U+FF9E\U+FF7C\U+FF6F\U+FF78
 11
5622.046978066455
 21
-1488.432515809305
 31
0.0
100
AcDbText
 73
     2
  0
TEXT
  5
AC0D5
330
18
100
AcDbEntity
  8
文字
100
AcDbText
 10
5625.228365786596
 20
-1488.442489128354
 30
0.0
 40
1.8
  1
FREQ   : 75Hz
 50
90.0
  7
MS\U+FF7A\U+FF9E\U+FF7C\U+FF6F\U+FF78
 11
5624.328365786595
 21
-1488.442489128354
 31
0.0
100
AcDbText
 73
     2
  0
TEXT
  5
AC0D6
330
18
100
AcDbEntity
  8
文字
100
AcDbText
 10
5627.512339342086
 20
-1488.799197256825
 30
0.0
 40
1.8
  1
INS. 　: F
 50
90.0
  7
MS\U+FF7A\U+FF9E\U+FF7C\U+FF6F\U+FF78
 11
5626.612339342085
 21
-1488.799197256825
 31
0.0
100
AcDbText
 73
     2
  0
LINE
  5
AC0D7
330
18
100
AcDbEntity
  8
文字
100
AcDbLine
 10
5630.310230770931
 20
-1447.823510277696
 30
0.0
 11
5630.310230770931
 21
-1409.823510277696
 31
0.0
  0
LINE
  5
AC0D8
330
18
100
AcDbEntity
  8
文字
100
AcDbLine
 10
5613.310230770932
 20
-1488.823510277696
 30
0.0
 11
5613.310230770932
 21
-1450.823510277696
 31
0.0
  0
TEXT
  5
AC0D9
330
18
100
AcDbEntity
  8
文字
100
AcDbText
 10
5616.112283446881
 20
-1488.414611385463
 30
0.0
 40
1.8
  1
MODEL:NMR-SDMJA2A-501APB-UC
 50
90.0
  7
MS\U+FF7A\U+FF9E\U+FF7C\U+FF6F\U+FF78
 11
5615.212283446881
 21
-1488.414611385463
 31
0.0
100
AcDbText
 73
     2
  0
LINE
  5
AC0DA
330
18
100
AcDbEntity
  8
文字
100
AcDbLine
 10
5617.310230770931
 20
-1448.823510277696
 30
0.0
 11
5617.310230770931
 21
-1408.823510277696
 31
0.0
  0
LINE
  5
AC0DB
330
18
100
AcDbEntity
  8
文字
100
AcDbLine
 10
5629.310230770933
 20
-1448.823510277696
 30
0.0
 11
5617.310230770931
 21
-1448.823510277696
 31
0.0
  0
ARC
  5
AC0DC
330
18
100
AcDbEntity
  8
文字
100
AcDbCircle
 10
5629.310230770933
 20
-1447.823510277696
 30
0.0
 40
1.0
100
AcDbArc
 50
270.0
 51
0.0
  0
LINE
  5
AC0DD
330
18
100
AcDbEntity
  8
文字
100
AcDbLine
 10
5626.73878923481
 20
-1447.323510277696
 30
0.0
 11
5622.526789234808
 21
-1446.797010277696
 31
0.0
  0
ARC
  5
AC0DE
330
18
100
AcDbEntity
  8
文字
100
AcDbCircle
 10
5614.310230770934
 20
-1488.823510277696
 30
0.0
 40
1.0
100
AcDbArc
 50
180.0
 51
270.0
  0
LINE
  5
AC0DF
330
18
100
AcDbEntity
  8
文字
100
AcDbLine
 10
5614.310230770932
 20
-1449.823510277696
 30
0.0
 11
5630.310230770932
 21
-1449.823510277696
 31
0.0
  0
TEXT
  5
AC0E0
330
18
100
AcDbEntity
  8
文字
100
AcDbText
 10
5618.397129791681
 20
-1469.367862596462
 30
0.0
 40
1.8
  1
VOLTS : 83V
 50
90.0
  7
MS\U+FF7A\U+FF9E\U+FF7C\U+FF6F\U+FF78
 11
5617.497129791682
 21
-1469.367862596462
 31
0.0
100
AcDbText
 73
     2
  0
TEXT
  5
AC0E1
330
18
100
AcDbEntity
  8
文字
100
AcDbText
 10
5620.668170528013
 20
-1469.422391472942
 30
0.0
 40
1.8
  1
TORQUE : 16N\U+FF65m
 50
90.0
 41
0.9
  7
MS\U+FF7A\U+FF9E\U+FF7C\U+FF6F\U+FF78
 11
5619.768170528014
 21
-1469.422391472942
 31
0.0
100
AcDbText
 73
     2
  0
TEXT
  5
AC0E2
330
18
100
AcDbEntity
  8
文字
100
AcDbText
 10
5622.947405234987
 20
-1469.414276246499
 30
0.0
 40
1.8
  1
SPEED : 5rps
 50
90.0
  7
MS\U+FF7A\U+FF9E\U+FF7C\U+FF6F\U+FF78
 11
5622.047405234987
 21
-1469.414276246499
 31
0.0
100
AcDbText
 73
     2
  0
TEXT
  5
AC0E3
330
18
100
AcDbEntity
  8
文字
100
AcDbText
 10
5625.227189152858
 20
-1469.432946607888
 30
0.0
 40
1.8
  1
TEMP  :
 50
90.0
  7
MS\U+FF7A\U+FF9E\U+FF7C\U+FF6F\U+FF78
 11
5624.327189152858
 21
-1469.432946607888
 31
0.0
100
AcDbText
 73
     2
  0
TEXT
  5
AC0E4
330
18
100
AcDbEntity
  8
文字
100
AcDbText
 10
5629.597756558002
 20
-1446.671068459246
 30
0.0
 40
1.8
  1
NIKKI DENSO CO.,LTD.
 50
90.0
 41
0.55
 11
5628.697756558003
 21
-1446.671068459246
 31
0.0
100
AcDbText
 73
     2
  0
TEXT
  5
AC0E5
330
18
100
AcDbEntity
  8
文字
100
AcDbText
 10
5624.446039504189
 20
-1439.710132785983
 30
0.0
 40
1.9
  1
NIKKI
 50
90.0
  7
TIMESNR
 11
5623.49603950419
 21
-1439.710132785983
 31
0.0
100
AcDbText
 73
     2
  0
TEXT
  5
AC0E6
330
18
100
AcDbEntity
  8
文字
100
AcDbText
 10
5626.684301073714
 20
-1439.692183535755
 30
0.0
 40
1.9
  1
DENSO
 50
90.0
  7
TIMESNR
 11
5625.734301073714
 21
-1439.692183535755
 31
0.0
100
AcDbText
 73
     2
  0
LINE
  5
AC0E7
330
18
100
AcDbEntity
  8
文字
100
AcDbLine
 10
5626.73878923481
 20
-1441.532010277694
 30
0.0
 11
5624.10628923481
 21
-1441.216110277695
 31
0.0
  0
LINE
  5
AC0E8
330
18
100
AcDbEntity
  8
文字
100
AcDbLine
 10
5624.10628923481
 20
-1444.164510277696
 30
0.0
 11
5624.10628923481
 21
-1441.216110277695
 31
0.0
  0
LINE
  5
AC0E9
330
18
100
AcDbEntity
  8
文字
100
AcDbLine
 10
5622.526789234808
 20
-1441.005510277694
 30
0.0
 11
5623.685089234809
 21
-1444.691010277696
 31
0.0
  0
ARC
  5
AC0EA
330
18
100
AcDbEntity
  8
文字
100
AcDbCircle
 10
5625.15928923481
 20
-1444.164510277696
 30
0.0
 40
1.053
100
AcDbArc
 50
0.0
 51
180.0
  0
CIRCLE
  5
AC0EB
330
18
100
AcDbEntity
  8
文字
100
AcDbCircle
 10
5624.89603923481
 20
-1444.164510277696
 30
0.0
 40
0.7897500000000002
  0
ARC
  5
AC0EC
330
18
100
AcDbEntity
  8
文字
100
AcDbCircle
 10
5624.893590397601
 20
-1444.16328585909
 30
0.0
 40
1.318699405648644
100
AcDbArc
 50
203.5897772726257
 51
359.946800591377
  0
TEXT
  5
AC0ED
330
18
100
AcDbEntity
  8
文字
100
AcDbText
 10
5620.825288290311
 20
-1435.876869378734
 30
0.0
 40
2.1
  1
*******
 50
90.0
  7
MS\U+FF7A\U+FF9E\U+FF7C\U+FF6F\U+FF78
 11
5619.77528829031
 21
-1435.876869378734
 31
0.0
100
AcDbText
 73
     2
  0
TEXT
  5
AC0EE
330
18
100
AcDbEntity
  8
文字
100
AcDbText
 10
5629.587672953833
 20
-1429.921530722385
 30
0.0
 40
1.8
  1
MADE IN JAPAN
 50
90.0
 41
0.55
 11
5628.687672953834
 21
-1429.921530722385
 31
0.0
100
AcDbText
 73
     2
  0
ARC
  5
AC0EF
330
18
100
AcDbEntity
  8
文字
100
AcDbCircle
 10
5629.310230770933
 20
-1409.823510277696
 30
0.0
 40
1.0
100
AcDbArc
 50
0.0
 51
90.0
  0
ARC
  5
AC0F0
102
{ACAD_REACTORS
330
AC0F2
102
}
330
18
100
AcDbEntity
  8
文字
100
AcDbCircle
 10
5625.919357936083
 20
-1413.811744158961
 30
0.0
 40
0.3145728000000001
100
AcDbArc
 50
0.0
 51
110.000000000057
  0
LINE
  5
AC0F1
102
{ACAD_REACTORS
330
AC0F2
102
}
330
18
100
AcDbEntity
  8
文字
100
AcDbLine
 10
5622.175941616083
 20
-1414.83947489232
 30
0.0
 11
5625.811767701941
 21
-1413.5161424201
 31
0.0
  0
HATCH
  5
AC0F2
330
18
100
AcDbEntity
  8
文字
100
AcDbHatch
 10
0.0
 20
0.0
 30
0.0
210
0.0
220
0.0
230
1.0
  2
SOLID
 70
     1
 71
     1
 91
        2
 92
        1
 93
       16
 72
     1
 10
5622.175941616083
 20
-1419.57181497773
 11
5622.175941616083
 21
-1416.852740812321
 72
     1
 10
5622.175941616083
 20
-1416.852740812321
 11
5624.975639536082
 21
-1415.833734104505
 72
     1
 10
5624.975639536082
 20
-1415.833734104503
 11
5624.975639536082
 21
-1415.078759384504
 72
     1
 10
5624.975639536082
 20
-1415.078759384504
 11
5622.175941616083
 21
-1416.09776609232
 72
     1
 10
5622.175941616083
 20
-1416.09776609232
 11
5622.175941616083
 21
-1414.83947489232
 72
     1
 10
5622.175941616083
 20
-1414.83947489232
 11
5625.811767701941
 21
-1413.5161424201
 72
     2
 10
5625.919357936083
 20
-1413.811744158961
 40
0.3145728000000001
 50
249.999999999943
 51
360.0
 73
     0
 72
     1
 10
5626.233930736082
 20
-1413.811744158961
 11
5626.233930736082
 21
-1416.634044761664
 72
     1
 10
5626.233930736082
 20
-1416.634044761664
 11
5624.723981296082
 21
-1417.183621413071
 72
     1
 10
5624.723981296082
 20
-1417.183621413071
 11
5624.723981296082
 21
-1417.414099900403
 72
     1
 10
5624.723981296082
 20
-1417.414099900403
 11
5626.233930736082
 21
-1417.735049561665
 72
     1
 10
5626.233930736082
 20
-1417.735049561665
 11
5626.233930736082
 21
-1418.993340761665
 72
     1
 10
5626.233930736082
 20
-1418.993340761665
 11
5624.723981296082
 21
-1418.672391100403
 72
     1
 10
5624.723981296082
 20
-1418.672391100403
 11
5624.723981296082
 21
-1419.542917413072
 72
     1
 10
5624.723981296082
 20
-1419.542917413072
 11
5623.020267684367
 21
-1420.163018455451
 72
     2
 10
5622.805087216082
 20
-1419.57181497773
 40
0.6291456000000003
 50
70.00000000002791
 51
180.0
 73
     0
 97
       16
330
AC0F4
330
AC0F8
330
AC0FA
330
AC0F7
330
AC0F6
330
AC0F5
330
AC101
330
AC100
330
AC102
330
AC0FD
330
AC0F0
330
AC0F1
330
AC106
330
AC0FB
330
AC105
330
AC0FC
 92
       16
 93
        4
 72
     1
 10
5623.088202736084
 20
-1418.880000918762
 11
5623.811720176082
 21
-1418.61666210663
 72
     1
 10
5623.811720176082
 20
-1418.61666210663
 11
5623.811720176082
 21
-1417.515657306629
 72
     1
 10
5623.811720176082
 20
-1417.515657306629
 11
5623.088202736084
 21
-1417.778996118763
 72
     1
 10
5623.088202736084
 20
-1417.778996118763
 11
5623.088202736084
 21
-1418.880000918762
 97
        4
330
AC104
330
AC0FE
330
AC103
330
AC0FF
 75
     0
 76
     1
 98
        2
 10
5624.061377860844
 20
-1418.339445763863
 10
5624.061377860844
 20
-1418.339445763863
  0
TEXT
  5
AC0F3
330
18
100
AcDbEntity
  8
文字
100
AcDbText
 10
5625.22472660568
 20
-1459.958988604586
 30
0.0
 40
1.8
  1
0～+40℃
 50
90.0
 41
0.8
  7
MS\U+FF7A\U+FF9E\U+FF7C\U+FF6F\U+FF78
 11
5624.324726605681
 21
-1459.958988604586
 31
0.0
100
AcDbText
 73
     2
  0
LINE
  5
AC0F4
102
{ACAD_REACTORS
330
AC0F2
102
}
330
18
100
AcDbEntity
  8
文字
100
AcDbLine
 10
5622.175941616083
 20
-1419.57181497773
 30
0.0
 11
5622.175941616083
 21
-1416.852740812321
 31
0.0
  0
LINE
  5
AC0F5
102
{ACAD_REACTORS
330
AC0F2
102
}
330
18
100
AcDbEntity
  8
文字
100
AcDbLine
 10
5626.233930736082
 20
-1418.993340761665
 30
0.0
 11
5626.233930736082
 21
-1417.735049561665
 31
0.0
  0
LINE
  5
AC0F6
102
{ACAD_REACTORS
330
AC0F2
102
}
330
18
100
AcDbEntity
  8
文字
100
AcDbLine
 10
5626.233930736082
 20
-1418.993340761665
 30
0.0
 11
5624.723981296082
 21
-1418.672391100403
 31
0.0
  0
LINE
  5
AC0F7
102
{ACAD_REACTORS
330
AC0F2
102
}
330
18
100
AcDbEntity
  8
文字
100
AcDbLine
 10
5624.723981296082
 20
-1419.542917413072
 30
0.0
 11
5624.723981296082
 21
-1418.672391100403
 31
0.0
  0
ARC
  5
AC0F8
102
{ACAD_REACTORS
330
AC0F2
102
}
330
18
100
AcDbEntity
  8
文字
100
AcDbCircle
 10
5622.805087216082
 20
-1419.57181497773
 30
0.0
 40
0.6291456000000003
100
AcDbArc
 50
180.0
 51
289.9999999999721
  0
TEXT
  5
AC0F9
330
18
100
AcDbEntity
  8
文字
100
AcDbText
 10
5626.257068412087
 20
-1421.359113841602
 30
0.0
 40
1.79306496
  1
C
 50
90.0
  7
MS\U+FF7A\U+FF9E\U+FF7C\U+FF6F\U+FF78
100
AcDbText
  0
LINE
  5
AC0FA
102
{ACAD_REACTORS
330
AC0F2
102
}
330
18
100
AcDbEntity
  8
文字
100
AcDbLine
 10
5623.020267684367
 20
-1420.163018455451
 30
0.0
 11
5624.723981296082
 21
-1419.542917413072
 31
0.0
  0
LINE
  5
AC0FB
102
{ACAD_REACTORS
330
AC0F2
102
}
330
18
100
AcDbEntity
  8
文字
100
AcDbLine
 10
5622.175941616083
 20
-1416.09776609232
 30
0.0
 11
5624.975639536082
 21
-1415.078759384504
 31
0.0
  0
LINE
  5
AC0FC
102
{ACAD_REACTORS
330
AC0F2
102
}
330
18
100
AcDbEntity
  8
文字
100
AcDbLine
 10
5622.175941616083
 20
-1416.852740812321
 30
0.0
 11
5624.975639536082
 21
-1415.833734104505
 31
0.0
  0
LINE
  5
AC0FD
102
{ACAD_REACTORS
330
AC0F2
102
}
330
18
100
AcDbEntity
  8
文字
100
AcDbLine
 10
5626.233930736082
 20
-1416.634044761664
 30
0.0
 11
5626.233930736082
 21
-1413.811744158961
 31
0.0
  0
LINE
  5
AC0FE
102
{ACAD_REACTORS
330
AC0F2
102
}
330
18
100
AcDbEntity
  8
文字
100
AcDbLine
 10
5623.088202736084
 20
-1418.880000918762
 30
0.0
 11
5623.088202736084
 21
-1417.778996118763
 31
0.0
  0
LINE
  5
AC0FF
102
{ACAD_REACTORS
330
AC0F2
102
}
330
18
100
AcDbEntity
  8
文字
100
AcDbLine
 10
5623.811720176082
 20
-1418.61666210663
 30
0.0
 11
5623.811720176082
 21
-1417.515657306629
 31
0.0
  0
LINE
  5
AC100
102
{ACAD_REACTORS
330
AC0F2
102
}
330
18
100
AcDbEntity
  8
文字
100
AcDbLine
 10
5624.723981296082
 20
-1417.414099900403
 30
0.0
 11
5624.723981296082
 21
-1417.183621413071
 31
0.0
  0
LINE
  5
AC101
102
{ACAD_REACTORS
330
AC0F2
102
}
330
18
100
AcDbEntity
  8
文字
100
AcDbLine
 10
5626.233930736082
 20
-1417.735049561665
 30
0.0
 11
5624.723981296082
 21
-1417.414099900403
 31
0.0
  0
LINE
  5
AC102
102
{ACAD_REACTORS
330
AC0F2
102
}
330
18
100
AcDbEntity
  8
文字
100
AcDbLine
 10
5624.723981296082
 20
-1417.183621413071
 30
0.0
 11
5626.233930736082
 21
-1416.634044761664
 31
0.0
  0
LINE
  5
AC103
102
{ACAD_REACTORS
330
AC0F2
102
}
330
18
100
AcDbEntity
  8
文字
100
AcDbLine
 10
5623.088202736084
 20
-1417.778996118763
 30
0.0
 11
5623.811720176082
 21
-1417.515657306629
 31
0.0
  0
LINE
  5
AC104
102
{ACAD_REACTORS
330
AC0F2
102
}
330
18
100
AcDbEntity
  8
文字
100
AcDbLine
 10
5623.088202736084
 20
-1418.880000918762
 30
0.0
 11
5623.811720176082
 21
-1418.61666210663
 31
0.0
  0
LINE
  5
AC105
102
{ACAD_REACTORS
330
AC0F2
102
}
330
18
100
AcDbEntity
  8
文字
100
AcDbLine
 10
5624.975639536082
 20
-1415.833734104503
 30
0.0
 11
5624.975639536082
 21
-1415.078759384504
 31
0.0
  0
LINE
  5
AC106
102
{ACAD_REACTORS
330
AC0F2
102
}
330
18
100
AcDbEntity
  8
文字
100
AcDbLine
 10
5622.175941616083
 20
-1416.09776609232
 30
0.0
 11
5622.175941616083
 21
-1414.83947489232
 31
0.0
  0
TEXT
  5
AC107
330
18
100
AcDbEntity
  8
文字
100
AcDbText
 10
5626.257068412087
 20
-1411.896638339073
 30
0.0
 40
1.79306496
  1
S
 50
90.0
  7
MS\U+FF7A\U+FF9E\U+FF7C\U+FF6F\U+FF78
100
AcDbText
  0
TEXT
  5
AC108
330
18
100
AcDbEntity
  8
文字
100
AcDbText
 10
5626.257068412087
 20
-1413.195478647866
 30
0.0
 40
1.79306496
  1
U
 50
90.0
  7
MS\U+FF7A\U+FF9E\U+FF7C\U+FF6F\U+FF78
100
AcDbText
  0
ARC
  5
AC109
330
18
100
AcDbEntity
  8
文字
100
AcDbCircle
 10
5614.310230770934
 20
-1450.823510277696
 30
0.0
 40
1.0
100
AcDbArc
 50
90.0
 51
180.0
  0
TEXT
  5
AC10A
330
18
100
AcDbEntity
  8
文字
100
AcDbText
 10
5629.558195230167
 20
-1417.176514616987
 30
0.0
 40
1.8
  1
SN-*****
 50
90.0
 41
0.55
 11
5628.658195230166
 21
-1417.176514616987
 31
0.0
100
AcDbText
 73
     2
  0
TEXT
  5
AC10B
330
18
100
AcDbEntity
  8
文字
100
AcDbText
 10
5629.763339601507
 20
-1488.450406723344
 30
0.0
 40
1.8
  1
Ph3
 50
90.0
  7
MS\U+FF7A\U+FF9E\U+FF7C\U+FF6F\U+FF78
 11
5628.863339601508
 21
-1488.450406723344
 31
0.0
100
AcDbText
 73
     2
  0
TEXT
  5
AC10C
330
18
100
AcDbEntity
  8
文字
100
AcDbText
 10
5620.519743226825
 20
-1417.766843486969
 30
0.0
 40
2.1
  1
#100 R
 50
90.0
  7
MS\U+FF7A\U+FF9E\U+FF7C\U+FF6F\U+FF78
 11
5619.469743226825
 21
-1417.766843486969
 31
0.0
100
AcDbText
 73
     2
  0
ARC
  5
AC10D
330
18
100
AcDbEntity
  8
文字
 48
3.0
100
AcDbCircle
 10
5624.245980582704
 20
-1423.07137728865
 30
0.0
 40
1.8
100
AcDbArc
 50
279.5940682268367
 51
0.0
  0
ARC
  5
AC10E
330
18
100
AcDbEntity
  8
文字
 48
3.0
100
AcDbCircle
 10
5624.245980582704
 20
-1426.687347721267
 30
0.0
 40
2.4
100
AcDbArc
 50
180.0
 51
0.0
  0
ARC
  5
AC10F
330
18
100
AcDbEntity
  8
文字
 48
3.0
100
AcDbCircle
 10
5624.245980582704
 20
-1426.687347721267
 30
0.0
 40
1.8
100
AcDbArc
 50
180.0
 51
0.0
  0
HATCH
  5
AC110
330
18
100
AcDbEntity
  8
文字
 48
3.0
100
AcDbHatch
 10
0.0
 20
0.0
 30
0.0
210
0.0
220
0.0
230
1.0
  2
SOLID
 70
     1
 71
     0
 91
        1
 92
        7
 72
     1
 73
     1
 93
        4
 10
5626.645980582704
 20
-1426.687347721267
 42
0.0
 10
5626.045980582706
 20
-1426.687347721267
 42
-1.0
 10
5622.445980582704
 20
-1426.687347721267
 42
0.0
 10
5621.845980582705
 20
-1426.687347721267
 42
1.0
 97
        0
 75
     0
 76
     1
 47
0.0446283734803627
 98
        1
 10
5623.38863823037
 20
-1428.653834698856
  0
ARC
  5
AC111
330
18
100
AcDbEntity
  8
文字
 48
3.0
100
AcDbCircle
 10
5624.245980582704
 20
-1423.07137728865
 30
0.0
 40
2.4
100
AcDbArc
 50
180.0
 51
0.0
  0
HATCH
  5
AC112
330
18
100
AcDbEntity
  8
文字
 48
3.0
100
AcDbHatch
 10
0.0
 20
0.0
 30
0.0
210
0.0
220
0.0
230
1.0
  2
SOLID
 70
     1
 71
     0
 91
        1
 92
        7
 72
     1
 73
     1
 93
        8
 10
5623.945980582704
 20
-1424.84620122358
 42
-0.3659773818630374
 10
5622.445980582704
 20
-1423.07137728865
 42
0.0
 10
5621.845980582705
 20
-1423.07137728865
 42
1.0
 10
5626.645980582704
 20
-1423.07137728865
 42
0.0
 10
5626.045980582706
 20
-1423.07137728865
 42
-0.3659773818630525
 10
5624.545980582706
 20
-1424.84620122358
 42
0.0
 10
5624.545980582706
 20
-1423.27137728865
 42
0.0
 10
5623.945980582704
 20
-1423.27137728865
 42
0.0
 97
        0
 75
     0
 76
     1
 47
0.0446283734803627
 98
        1
 10
5624.138394919655
 20
-1424.956828429567
  0
LINE
  5
AC113
330
18
100
AcDbEntity
  8
文字
 48
3.0
100
AcDbLine
 10
5626.045980582706
 20
-1423.07137728865
 30
0.0
 11
5626.645980582704
 21
-1423.07137728865
 31
0.0
  0
LINE
  5
AC114
330
18
100
AcDbEntity
  8
文字
 48
3.0
100
AcDbLine
 10
5626.045980582706
 20
-1426.687347721267
 30
0.0
 11
5626.645980582704
 21
-1426.687347721267
 31
0.0
  0
LINE
  5
AC115
330
18
100
AcDbEntity
  8
文字
 48
3.0
100
AcDbLine
 10
5621.845980582705
 20
-1423.07137728865
 30
0.0
 11
5622.445980582704
 21
-1423.07137728865
 31
0.0
  0
LINE
  5
AC116
330
18
100
AcDbEntity
  8
文字
 48
3.0
100
AcDbLine
 10
5623.945980582704
 20
-1424.84620122358
 30
0.0
 11
5623.945980582704
 21
-1423.27137728865
 31
0.0
  0
LINE
  5
AC117
330
18
100
AcDbEntity
  8
文字
 48
3.0
100
AcDbLine
 10
5624.545980582706
 20
-1424.84620122358
 30
0.0
 11
5624.545980582706
 21
-1423.27137728865
 31
0.0
  0
LINE
  5
AC118
330
18
100
AcDbEntity
  8
文字
 48
3.0
100
AcDbLine
 10
5623.945980582704
 20
-1423.27137728865
 30
0.0
 11
5624.545980582706
 21
-1423.27137728865
 31
0.0
  0
ARC
  5
AC119
330
18
100
AcDbEntity
  8
文字
 48
3.0
100
AcDbCircle
 10
5624.245980582704
 20
-1423.07137728865
 30
0.0
 40
1.8
100
AcDbArc
 50
180.0
 51
260.4059317731335
  0
LINE
  5
AC11A
330
18
100
AcDbEntity
  8
文字
 48
3.0
100
AcDbLine
 10
5621.845980582705
 20
-1426.687347721267
 30
0.0
 11
5622.445980582704
 21
-1426.687347721267
 31
0.0
  0
TEXT
  5
AC11B
330
18
100
AcDbEntity
  8
文字
100
AcDbText
 10
5627.498788711724
 20
-1469.231631733321
 30
0.0
 40
1.8
  1
MASS: 5.3kg
 50
90.0
  7
MS\U+FF7A\U+FF9E\U+FF7C\U+FF6F\U+FF78
 11
5626.598788711724
 21
-1469.231631733321
 31
0.0
100
AcDbText
 73
     2
  0
TEXT
  5
AC11C
330
18
100
AcDbEntity
  8
文字
100
AcDbText
 10
5629.83934889701
 20
-1478.715668975141
 30
0.0
 40
1.8
  1
T E
 50
90.0
  7
MS\U+FF7A\U+FF9E\U+FF7C\U+FF6F\U+FF78
 11
5628.939348897009
 21
-1478.715668975141
 31
0.0
100
AcDbText
 73
     2
  0
TEXT
  5
AC11D
330
18
100
AcDbEntity
  8
文字
100
AcDbText
 10
5629.83934889701
 20
-1469.523127056398
 30
0.0
 40
1.8
  1
IP40
 50
90.0
  7
MS\U+FF7A\U+FF9E\U+FF7C\U+FF6F\U+FF78
 11
5628.939348897009
 21
-1469.523127056398
 31
0.0
100
AcDbText
 73
     2
  0
TEXT
  5
AC11E
330
18
100
AcDbEntity
  8
文字
100
AcDbText
 10
5629.83934889701
 20
-1460.451250962362
 30
0.0
 40
1.8
  1
EN60034
 50
90.0
  7
MS\U+FF7A\U+FF9E\U+FF7C\U+FF6F\U+FF78
 11
5628.939348897009
 21
-1460.451250962362
 31
0.0
100
AcDbText
 73
     2
  0
LINE
  5
AC11F
330
18
100
AcDbEntity
  8
文字
100
AcDbLine
 10
5630.310230770932
 20
-1449.823510277696
 30
0.0
 11
5630.310230770932
 21
-1489.823510277696
 31
0.0
  0
LINE
  5
AC120
330
18
100
AcDbEntity
  8
文字
100
AcDbLine
 10
5630.310230770932
 20
-1489.823510277696
 30
0.0
 11
5614.310230770932
 21
-1489.823510277696
 31
0.0
  0
LINE
  5
AC121
330
18
100
AcDbEntity
  8
文字
100
AcDbLine
 10
5617.310230770931
 20
-1408.823510277696
 30
0.0
 11
5629.310230770933
 21
-1408.823510277696
 31
0.0
  0
LINE
  5
AF7F1
330
18
100
AcDbEntity
  8
CENTER
100
AcDbLine
 10
5376.097491566595
 20
-1318.23751575624
 30
0.0
 11
5376.097491566595
 21
-1511.54589204012
 31
0.0
  0
LINE
  5
AF7F2
330
18
100
AcDbEntity
  8
CENTER
100
AcDbLine
 10
5251.355256839413
 20
-1413.237519332518
 30
0.0
 11
5471.097495142872
 21
-1413.237519332518
 31
0.0
  0
LINE
  5
AF7F6
330
18
100
AcDbEntity
  8
実線
100
AcDbLine
 10
5299.011500621418
 20
-1323.237519332518
 30
0.0
 11
5453.183482511773
 21
-1323.237519332518
 31
0.0
  0
LINE
  5
AF7F7
330
18
100
AcDbEntity
  8
実線
100
AcDbLine
 10
5299.011500621418
 20
-1503.237519332518
 30
0.0
 11
5453.183482511773
 21
-1503.237519332518
 31
0.0
  0
LINE
  5
AF7F8
330
18
100
AcDbEntity
  8
実線
100
AcDbLine
 10
5286.097491566596
 20
-1336.151528387341
 30
0.0
 11
5286.097491566596
 21
-1378.211872267363
 31
0.0
  0
LINE
  5
AF7F9
330
18
100
AcDbEntity
  8
実線
100
AcDbLine
 10
5466.097491566596
 20
-1336.151528387341
 30
0.0
 11
5466.097491566596
 21
-1490.323510277695
 31
0.0
  0
ARC
  5
AF7FA
330
18
100
AcDbEntity
  8
実線
100
AcDbCircle
 10
5376.097491566595
 20
-1413.237519332518
 30
0.0
 40
90.0
100
AcDbArc
 50
203.7141508053476
 51
156.2858491946524
  0
ARC
  5
AF7FB
330
18
100
AcDbEntity
  8
実線
100
AcDbCircle
 10
5376.097491566595
 20
-1413.237519332518
 30
0.0
 40
118.5
100
AcDbArc
 50
40.58041865600955
 51
49.41958134399062
  0
ARC
  5
AF7FC
330
18
100
AcDbEntity
  8
実線
100
AcDbCircle
 10
5376.097491566595
 20
-1413.237519332518
 30
0.0
 40
118.5
100
AcDbArc
 50
130.5804186560094
 51
139.4195813439906
  0
ARC
  5
AF7FD
330
18
100
AcDbEntity
  8
実線
100
AcDbCircle
 10
5376.097491566595
 20
-1413.237519332518
 30
0.0
 40
118.5
100
AcDbArc
 50
220.5804186560094
 51
229.4195813439906
  0
ARC
  5
AF7FE
330
18
100
AcDbEntity
  8
実線
100
AcDbCircle
 10
5376.097491566595
 20
-1413.237519332518
 30
0.0
 40
118.5
100
AcDbArc
 50
310.5804186560093
 51
319.4195813439906
  0
ARC
  5
AF7FF
330
18
100
AcDbEntity
  8
CENTER
100
AcDbCircle
 10
5376.097491566595
 20
-1413.237519332518
 30
0.0
 40
102.5
100
AcDbArc
 50
127.4482616028442
 51
143.8975966282455
  0
LINE
  5
AF800
330
18
100
AcDbEntity
  8
CENTER
100
AcDbLine
 10
5313.164988040993
 20
-1350.305015806915
 30
0.0
 11
5294.073104948957
 21
-1331.213132714879
 31
0.0
  0
CIRCLE
  5
AF801
330
18
100
AcDbEntity
  8
実線
100
AcDbCircle
 10
5303.619046494974
 20
-1340.759074260897
 30
0.0
 40
5.5
  0
CIRCLE
  5
AF802
330
18
100
AcDbEntity
  8
実線
100
AcDbCircle
 10
5303.619046494974
 20
-1340.759074260897
 30
0.0
 40
11.0
  0
CIRCLE
  5
AF803
330
18
100
AcDbEntity
  8
実線
100
AcDbCircle
 10
5303.619046494974
 20
-1485.715964404141
 30
0.0
 40
5.5
  0
CIRCLE
  5
AF804
330
18
100
AcDbEntity
  8
実線
100
AcDbCircle
 10
5303.619046494974
 20
-1485.715964404141
 30
0.0
 40
11.0
  0
LINE
  5
AF805
330
18
100
AcDbEntity
  8
CENTER
100
AcDbLine
 10
5313.164988040991
 20
-1476.170022858122
 30
0.0
 11
5294.073104948957
 21
-1495.261905950158
 31
0.0
  0
ARC
  5
AF806
330
18
100
AcDbEntity
  8
CENTER
100
AcDbCircle
 10
5376.097491566595
 20
-1413.237519332519
 30
0.0
 40
102.5
100
AcDbArc
 50
216.1024033717542
 51
233.8975966282449
  0
CIRCLE
  5
AF807
330
18
100
AcDbEntity
  8
実線
100
AcDbCircle
 10
5448.575936638217
 20
-1485.71596440414
 30
0.0
 40
5.5
  0
CIRCLE
  5
AF808
330
18
100
AcDbEntity
  8
実線
100
AcDbCircle
 10
5448.575936638217
 20
-1485.71596440414
 30
0.0
 40
11.0
  0
LINE
  5
AF809
330
18
100
AcDbEntity
  8
CENTER
100
AcDbLine
 10
5439.029995092198
 20
-1476.170022858122
 30
0.0
 11
5458.121878184234
 21
-1495.261905950158
 31
0.0
  0
ARC
  5
AF80A
330
18
100
AcDbEntity
  8
CENTER
100
AcDbCircle
 10
5376.097491566595
 20
-1413.237519332518
 30
0.0
 40
102.5
100
AcDbArc
 50
307.4482616028441
 51
323.8975966282457
  0
CIRCLE
  5
AF80B
330
18
100
AcDbEntity
  8
実線
100
AcDbCircle
 10
5448.575936638215
 20
-1340.759074260898
 30
0.0
 40
5.5
  0
CIRCLE
  5
AF80C
330
18
100
AcDbEntity
  8
実線
100
AcDbCircle
 10
5448.575936638215
 20
-1340.759074260898
 30
0.0
 40
11.0
  0
LINE
  5
AF80D
330
18
100
AcDbEntity
  8
CENTER
100
AcDbLine
 10
5439.029995092196
 20
-1350.305015806917
 30
0.0
 11
5458.121878184234
 21
-1331.21313271488
 31
0.0
  0
ARC
  5
AF80E
330
18
100
AcDbEntity
  8
CENTER
100
AcDbCircle
 10
5376.097491566594
 20
-1413.237519332519
 30
0.0
 40
102.5
100
AcDbArc
 50
37.44826160284453
 51
52.55173839715575
  0
ARC
  5
AF81D
330
18
100
AcDbEntity
  8
実線
100
AcDbCircle
 10
5376.097491566595
 20
-1413.237519332518
 30
0.0
 40
96.5
100
AcDbArc
 50
159.5612204239182
 51
200.9311878840043
  0
LINE
  5
AF81E
330
18
100
AcDbEntity
  8
実線
100
AcDbLine
 10
5287.546658707722
 20
-1378.237519332518
 30
0.0
 11
5291.865668601637
 21
-1378.237519332518
 31
0.0
  0
LINE
  5
AF81F
330
18
100
AcDbEntity
  8
実線
100
AcDbLine
 10
5287.546658707722
 20
-1448.237519332518
 30
0.0
 11
5291.865668601638
 21
-1448.237519332518
 31
0.0
  0
ARC
  5
AF820
330
18
100
AcDbEntity
  8
実線
100
AcDbCircle
 10
5287.546658707722
 20
-1380.237519332518
 30
0.0
 40
2.0
100
AcDbArc
 50
149.5748865259638
 51
159.5612204239254
  0
ARC
  5
AF822
330
18
100
AcDbEntity
  8
実線
100
AcDbCircle
 10
5287.546658707722
 20
-1446.237519332518
 30
0.0
 40
2.0
100
AcDbArc
 50
200.4387795760746
 51
270.0
  0
ARC
  5
AF823
330
18
100
AcDbEntity
  8
実線
100
AcDbCircle
 10
5291.865668601638
 20
-1450.237519332518
 30
0.0
 40
2.0
100
AcDbArc
 50
23.71415080534746
 51
90.0
  0
LINE
  5
AF824
330
18
100
AcDbEntity
  8
実線
100
AcDbLine
 10
5286.097491566596
 20
-1448.426295952344
 30
0.0
 11
5286.097491566596
 21
-1490.323510277695
 31
0.0
  0
ARC
  5
AF825
330
18
100
AcDbEntity
  8
実線
100
AcDbCircle
 10
5284.097491566596
 20
-1378.211872267363
 30
0.0
 40
2.0
100
AcDbArc
 50
329.5748865259639
 51
0.0
  0
ARC
  5
AF826
330
18
100
AcDbEntity
  8
実線
100
AcDbCircle
 10
5287.546658707722
 20
-1380.237519332518
 30
0.0
 40
2.0
100
AcDbArc
 50
90.0
 51
159.5612204239254
  0
ARC
  5
AF827
330
18
100
AcDbEntity
  8
実線
100
AcDbCircle
 10
5284.097491566596
 20
-1448.426295952344
 30
0.0
 40
2.0
100
AcDbArc
 50
0.0
 51
20.93118788400769
  0
CIRCLE
  5
AF830
330
18
100
AcDbEntity
  8
実線
100
AcDbCircle
 10
5376.097491566595
 20
-1413.237519332518
 30
0.0
 40
15.0
  0
CIRCLE
  5
AF831
330
18
100
AcDbEntity
  8
実線
100
AcDbCircle
 10
5376.097491566595
 20
-1413.237519332518
 30
0.0
 40
38.0
  0
CIRCLE
  5
AF832
330
18
100
AcDbEntity
  8
実線
100
AcDbCircle
 10
5376.097491566595
 20
-1413.237519332518
 30
0.0
 40
47.9
  0
CIRCLE
  5
AF833
330
18
100
AcDbEntity
  8
実線
100
AcDbCircle
 10
5376.097491566595
 20
-1413.237519332518
 30
0.0
 40
50.0
  0
CIRCLE
  5
AF835
330
18
100
AcDbEntity
  8
CENTER
100
AcDbCircle
 10
5376.097491566595
 20
-1413.237519332518
 30
0.0
 40
43.0
  0
LINE
  5
AF836
330
18
100
AcDbEntity
  8
CENTER
100
AcDbLine
 10
5339.875273080756
 20
-1422.943233523863
 30
0.0
 11
5329.250088991577
 21
-1425.79024301999
 31
0.0
  0
CIRCLE
  5
AF837
330
18
100
AcDbEntity
  8
実線
100
AcDbCircle
 10
5334.562681036167
 20
-1424.366738271926
 30
0.0
 40
3.0
  0
LINE
  5
AF838
330
18
100
AcDbEntity
  8
実線
100
AcDbLine
 10
5333.786223900857
 20
-1421.46896079306
 30
0.0
 11
5335.339138171472
 21
-1427.264515750794
 31
0.0
  0
LINE
  5
AF839
330
18
100
AcDbEntity
  8
実線
100
AcDbLine
 10
5331.6649035573
 20
-1425.143195407234
 30
0.0
 11
5337.460458515034
 21
-1423.590281136619
 31
0.0
  0
CIRCLE
  5
AF83A
330
18
100
AcDbEntity
  8
細線
100
AcDbCircle
 10
5333.097491566595
 20
-1413.237519332518
 30
0.0
 40
2.5
  0
CIRCLE
  5
AF83B
330
18
100
AcDbEntity
  8
実線
100
AcDbCircle
 10
5333.097491566595
 20
-1413.237519332518
 30
0.0
 40
2.0
  0
LINE
  5
AF83C
330
18
100
AcDbEntity
  8
CENTER
100
AcDbLine
 10
5328.097491566595
 20
-1413.237519332518
 30
0.0
 11
5338.097491566596
 21
-1413.237519332518
 31
0.0
  0
CIRCLE
  5
AF83D
330
18
100
AcDbEntity
  8
細線
100
AcDbCircle
 10
5354.597491566596
 20
-1450.476611695249
 30
0.0
 40
2.5
  0
CIRCLE
  5
AF83E
330
18
100
AcDbEntity
  8
実線
100
AcDbCircle
 10
5354.597491566596
 20
-1450.476611695249
 30
0.0
 40
2.0
  0
LINE
  5
AF83F
330
18
100
AcDbEntity
  8
CENTER
100
AcDbLine
 10
5352.097491566595
 20
-1454.806738714171
 30
0.0
 11
5357.097491566595
 21
-1446.146484676327
 31
0.0
  0
CIRCLE
  5
AF840
330
18
100
AcDbEntity
  8
細線
100
AcDbCircle
 10
5397.597491566596
 20
-1450.476611695249
 30
0.0
 40
2.5
  0
CIRCLE
  5
AF841
330
18
100
AcDbEntity
  8
実線
100
AcDbCircle
 10
5397.597491566596
 20
-1450.476611695249
 30
0.0
 40
2.0
  0
LINE
  5
AF842
330
18
100
AcDbEntity
  8
CENTER
100
AcDbLine
 10
5400.097491566596
 20
-1454.806738714171
 30
0.0
 11
5395.097491566596
 21
-1446.146484676327
 31
0.0
  0
CIRCLE
  5
AF843
330
18
100
AcDbEntity
  8
細線
100
AcDbCircle
 10
5419.097491566596
 20
-1413.237519332518
 30
0.0
 40
2.5
  0
CIRCLE
  5
AF844
330
18
100
AcDbEntity
  8
実線
100
AcDbCircle
 10
5419.097491566596
 20
-1413.237519332518
 30
0.0
 40
2.0
  0
LINE
  5
AF845
330
18
100
AcDbEntity
  8
CENTER
100
AcDbLine
 10
5424.097491566596
 20
-1413.237519332518
 30
0.0
 11
5414.097491566596
 21
-1413.237519332518
 31
0.0
  0
CIRCLE
  5
AF846
330
18
100
AcDbEntity
  8
細線
100
AcDbCircle
 10
5397.597491566593
 20
-1375.998426969786
 30
0.0
 40
2.5
  0
CIRCLE
  5
AF847
330
18
100
AcDbEntity
  8
実線
100
AcDbCircle
 10
5397.597491566593
 20
-1375.998426969786
 30
0.0
 40
2.0
  0
LINE
  5
AF848
330
18
100
AcDbEntity
  8
CENTER
100
AcDbLine
 10
5400.097491566594
 20
-1371.668299950864
 30
0.0
 11
5395.097491566594
 21
-1380.328553988709
 31
0.0
  0
CIRCLE
  5
AF849
330
18
100
AcDbEntity
  8
細線
100
AcDbCircle
 10
5354.597491566596
 20
-1375.998426969786
 30
0.0
 40
2.5
  0
CIRCLE
  5
AF84A
330
18
100
AcDbEntity
  8
実線
100
AcDbCircle
 10
5354.597491566596
 20
-1375.998426969786
 30
0.0
 40
2.0
  0
LINE
  5
AF84B
330
18
100
AcDbEntity
  8
CENTER
100
AcDbLine
 10
5352.097491566595
 20
-1371.668299950863
 30
0.0
 11
5357.097491566595
 21
-1380.328553988708
 31
0.0
  0
CIRCLE
  5
AF84C
330
18
100
AcDbEntity
  8
実線
100
AcDbCircle
 10
5356.097491566596
 20
-1413.237519332518
 30
0.0
 40
1.25
  0
CIRCLE
  5
AF84E
330
18
100
AcDbEntity
  8
実線
100
AcDbCircle
 10
5386.097491566595
 20
-1430.558027408206
 30
0.0
 40
1.25
  0
CIRCLE
  5
AF850
330
18
100
AcDbEntity
  8
実線
100
AcDbCircle
 10
5386.097491566594
 20
-1395.917011256829
 30
0.0
 40
1.25
  0
LINE
  5
AF871
330
18
100
AcDbEntity
  8
実線
 48
0.1
100
AcDbLine
 10
5274.597491566595
 20
-1408.474379611705
 30
0.0
 11
5279.597491566592
 21
-1408.474379611703
 31
0.0
  0
LINE
  5
AF872
330
18
100
AcDbEntity
  8
実線
 48
0.1
100
AcDbLine
 10
5274.597491566595
 20
-1409.77341771738
 30
0.0
 11
5279.597491566592
 21
-1409.77341771738
 31
0.0
  0
LINE
  5
AF873
330
18
100
AcDbEntity
  8
実線
 48
0.1
100
AcDbLine
 10
5274.597491566591
 20
-1416.701620947656
 30
0.0
 11
5279.597491566596
 21
-1416.701620947656
 31
0.0
  0
LINE
  5
AF874
330
18
100
AcDbEntity
  8
実線
 48
0.1
100
AcDbLine
 10
5274.597491566591
 20
-1418.000659053332
 30
0.0
 11
5279.597491566596
 21
-1418.000659053332
 31
0.0
  0
LINE
  5
AF875
330
18
100
AcDbEntity
  8
実線
100
AcDbLine
 10
5274.597491566595
 20
-1405.010277996567
 30
0.0
 11
5279.597491566592
 21
-1405.010277996567
 31
0.0
  0
LINE
  5
AF876
330
18
100
AcDbEntity
  8
実線
100
AcDbLine
 10
5274.597491566591
 20
-1421.46476066847
 30
0.0
 11
5279.597491566596
 21
-1421.46476066847
 31
0.0
  0
LINE
  5
AF877
330
18
100
AcDbEntity
  8
実線
100
AcDbLine
 10
5262.664478864701
 20
-1421.464760668471
 30
0.0
 11
5270.597491566592
 21
-1421.464760668471
 31
0.0
  0
LINE
  5
AF878
330
18
100
AcDbEntity
  8
実線
100
AcDbLine
 10
5262.664478864701
 20
-1405.010277996567
 30
0.0
 11
5270.597491566595
 21
-1405.010277996567
 31
0.0
  0
LINE
  5
AF879
330
18
100
AcDbEntity
  8
実線
 48
0.1
100
AcDbLine
 10
5262.097491566596
 20
-1408.474379611705
 30
0.0
 11
5270.597491566595
 21
-1408.474379611705
 31
0.0
  0
LINE
  5
AF87A
330
18
100
AcDbEntity
  8
実線
 48
0.1
100
AcDbLine
 10
5262.097491566596
 20
-1409.77341771738
 30
0.0
 11
5270.597491566595
 21
-1409.77341771738
 31
0.0
  0
LINE
  5
AF87B
330
18
100
AcDbEntity
  8
実線
 48
0.1
100
AcDbLine
 10
5262.097491566596
 20
-1418.000659053333
 30
0.0
 11
5270.597491566592
 21
-1418.000659053332
 31
0.0
  0
LINE
  5
AF87C
330
18
100
AcDbEntity
  8
実線
 48
0.1
100
AcDbLine
 10
5262.097491566596
 20
-1416.701620947658
 30
0.0
 11
5270.597491566592
 21
-1416.701620947656
 31
0.0
  0
LINE
  5
AF87D
330
18
100
AcDbEntity
  8
実線
100
AcDbLine
 10
5262.432428057133
 20
-1405.242328804137
 30
0.0
 11
5270.597491566595
 21
-1405.242328804137
 31
0.0
  0
LINE
  5
AF87E
330
18
100
AcDbEntity
  8
実線
100
AcDbLine
 10
5262.097491566596
 20
-1405.642328804136
 30
0.0
 11
5270.597491566595
 21
-1405.642328804136
 31
0.0
  0
LINE
  5
AF87F
330
18
100
AcDbEntity
  8
実線
100
AcDbLine
 10
5262.097491566596
 20
-1407.842328804135
 30
0.0
 11
5270.597491566595
 21
-1407.842328804135
 31
0.0
  0
LINE
  5
AF880
330
18
100
AcDbEntity
  8
実線
100
AcDbLine
 10
5262.097491566596
 20
-1408.242328804137
 30
0.0
 11
5270.597491566595
 21
-1408.242328804137
 31
0.0
  0
LINE
  5
AF881
330
18
100
AcDbEntity
  8
実線
100
AcDbLine
 10
5262.432428057133
 20
-1421.2327098609
 30
0.0
 11
5270.597491566595
 21
-1421.232709860901
 31
0.0
  0
LINE
  5
AF882
330
18
100
AcDbEntity
  8
実線
100
AcDbLine
 10
5262.097491566596
 20
-1420.832709860902
 30
0.0
 11
5270.597491566595
 21
-1420.832709860902
 31
0.0
  0
LINE
  5
AF883
330
18
100
AcDbEntity
  8
実線
100
AcDbLine
 10
5262.097491566596
 20
-1418.632709860901
 30
0.0
 11
5270.597491566595
 21
-1418.632709860901
 31
0.0
  0
LINE
  5
AF884
330
18
100
AcDbEntity
  8
実線
100
AcDbLine
 10
5262.097491566596
 20
-1418.232709860903
 30
0.0
 11
5270.597491566595
 21
-1418.232709860902
 31
0.0
  0
LINE
  5
AF885
330
18
100
AcDbEntity
  8
実線
100
AcDbLine
 10
5262.097491566596
 20
-1410.23751933252
 30
0.0
 11
5270.597491566595
 21
-1410.23751933252
 31
0.0
  0
LINE
  5
AF886
330
18
100
AcDbEntity
  8
実線
100
AcDbLine
 10
5262.097491566596
 20
-1416.237519332518
 30
0.0
 11
5270.597491566595
 21
-1416.237519332518
 31
0.0
  0
LINE
  5
AF887
330
18
100
AcDbEntity
  8
実線
100
AcDbLine
 10
5262.097491566596
 20
-1411.037519332519
 30
0.0
 11
5270.597491566592
 21
-1411.037519332519
 31
0.0
  0
LINE
  5
AF888
330
18
100
AcDbEntity
  8
実線
100
AcDbLine
 10
5262.097491566596
 20
-1415.437519332519
 30
0.0
 11
5270.597491566595
 21
-1415.437519332519
 31
0.0
  0
LINE
  5
AF889
330
18
100
AcDbEntity
  8
実線
100
AcDbLine
 10
5262.097491566596
 20
-1405.577265294674
 30
0.0
 11
5262.664478864701
 21
-1405.010277996567
 31
0.0
  0
LINE
  5
AF88A
330
18
100
AcDbEntity
  8
実線
100
AcDbLine
 10
5262.097491566596
 20
-1420.897773370363
 30
0.0
 11
5262.664478864701
 21
-1421.464760668471
 31
0.0
  0
ARC
  5
AF88B
330
18
100
AcDbEntity
  8
実線
100
AcDbCircle
 10
5261.597491566592
 20
-1409.737519332518
 30
0.0
 40
4.0
100
AcDbArc
 50
90.0
 51
180.0
  0
ARC
  5
AF88C
330
18
100
AcDbEntity
  8
実線
100
AcDbCircle
 10
5261.597491566592
 20
-1416.737519332518
 30
0.0
 40
4.0
100
AcDbArc
 50
180.0
 51
270.0
  0
LINE
  5
AF88D
330
18
100
AcDbEntity
  8
実線
100
AcDbLine
 10
5262.097491566592
 20
-1405.737519332518
 30
0.0
 11
5261.597491566592
 21
-1405.737519332518
 31
0.0
  0
LINE
  5
AF88E
330
18
100
AcDbEntity
  8
実線
100
AcDbLine
 10
5262.097491566596
 20
-1420.737519332518
 30
0.0
 11
5261.597491566592
 21
-1420.737519332518
 31
0.0
  0
LINE
  5
AF88F
330
18
100
AcDbEntity
  8
実線
100
AcDbLine
 10
5262.097491566596
 20
-1420.897773370363
 30
0.0
 11
5262.097491566596
 21
-1405.577265294674
 31
0.0
  0
LINE
  5
AF890
330
18
100
AcDbEntity
  8
実線
100
AcDbLine
 10
5274.597491566591
 20
-1406.737519332518
 30
0.0
 11
5270.597491566595
 21
-1406.737519332518
 31
0.0
  0
LINE
  5
AF891
330
18
100
AcDbEntity
  8
実線
100
AcDbLine
 10
5274.597491566595
 20
-1419.737519332518
 30
0.0
 11
5270.597491566595
 21
-1419.737519332518
 31
0.0
  0
LINE
  5
AF892
330
18
100
AcDbEntity
  8
実線
100
AcDbLine
 10
5270.597491566592
 20
-1421.464760668471
 30
0.0
 11
5270.597491566595
 21
-1405.010277996567
 31
0.0
  0
LINE
  5
AF893
330
18
100
AcDbEntity
  8
実線
100
AcDbLine
 10
5257.597491566592
 20
-1416.737519332518
 30
0.0
 11
5257.597491566592
 21
-1409.737519332518
 31
0.0
  0
LINE
  5
AF894
330
18
100
AcDbEntity
  8
実線
100
AcDbLine
 10
5274.597491566591
 20
-1421.46476066847
 30
0.0
 11
5274.597491566595
 21
-1405.010277996567
 31
0.0
  0
LINE
  5
AF895
330
18
100
AcDbEntity
  8
実線
100
AcDbLine
 10
5279.597491566596
 20
-1421.464760668471
 30
0.0
 11
5279.597491566596
 21
-1405.010277996567
 31
0.0
  0
LINE
  5
AF896
330
18
100
AcDbEntity
  8
実線
100
AcDbLine
 10
5279.784200687299
 20
-1407.237519332518
 30
0.0
 11
5279.597491566596
 21
-1407.237519332518
 31
0.0
  0
LINE
  5
AF897
330
18
100
AcDbEntity
  8
実線
100
AcDbLine
 10
5279.784200687299
 20
-1419.237519332518
 30
0.0
 11
5279.597491566596
 21
-1419.237519332518
 31
0.0
  0
ARC
  5
AF89A
330
18
100
AcDbEntity
  8
細線
100
AcDbCircle
 10
5250.910686928118
 20
-1414.662519332518
 30
0.0
 40
2.208151916960512
100
AcDbArc
 50
319.8091251986832
 51
40.19087480131672
  0
ARC
  5
AF89B
330
18
100
AcDbEntity
  8
細線
100
AcDbCircle
 10
5254.284296205067
 20
-1411.812519332518
 30
0.0
 40
2.208151916961353
100
AcDbArc
 50
139.809125198694
 51
220.1908748013105
  0
ARC
  5
AF89C
330
18
100
AcDbEntity
  8
細線
100
AcDbCircle
 10
5254.284296205065
 20
-1414.662519332518
 30
0.0
 40
2.208151916959563
100
AcDbArc
 50
139.8091251986393
 51
220.1908748013607
  0
CIRCLE
  5
AF8A9
330
18
100
AcDbEntity
  8
実線
100
AcDbCircle
 10
5418.847491566595
 20
-1339.192347308949
 30
0.0
 40
3.5
  0
ARC
  5
AF8AA
330
18
100
AcDbEntity
  8
実線
100
AcDbCircle
 10
5419.782799002682
 20
-1339.732347308949
 30
0.0
 40
0.5
100
AcDbArc
 50
102.3463876629017
 51
197.6536123372037
  0
ARC
  5
AF8AB
330
18
100
AcDbEntity
  8
実線
100
AcDbCircle
 10
5419.782799002682
 20
-1338.652347308951
 30
0.0
 40
0.5
100
AcDbArc
 50
162.3463876624171
 51
257.6536123370983
  0
CIRCLE
  5
AF8AC
330
18
100
AcDbEntity
  8
実線
100
AcDbCircle
 10
5418.847491566595
 20
-1339.192347308949
 30
0.0
 40
0.8299999999999998
  0
ARC
  5
AF8AD
330
18
100
AcDbEntity
  8
実線
100
AcDbCircle
 10
5418.847491566595
 20
-1338.11234730895
 30
0.0
 40
0.5
100
AcDbArc
 50
222.3463876626885
 51
317.6536123370169
  0
ARC
  5
AF8AE
330
18
100
AcDbEntity
  8
実線
100
AcDbCircle
 10
5418.847491566592
 20
-1340.272347308947
 30
0.0
 40
0.5
100
AcDbArc
 50
42.34638766268857
 51
137.6536123370169
  0
ARC
  5
AF8AF
330
18
100
AcDbEntity
  8
実線
100
AcDbCircle
 10
5417.91218413051
 20
-1338.652347308948
 30
0.0
 40
0.5
100
AcDbArc
 50
282.346387662687
 51
17.65361233720371
  0
ARC
  5
AF8B0
330
18
100
AcDbEntity
  8
実線
100
AcDbCircle
 10
5417.912184130506
 20
-1339.732347308949
 30
0.0
 40
0.5
100
AcDbArc
 50
342.346387663356
 51
77.65361233709829
  0
CIRCLE
  5
AF8B1
330
18
100
AcDbEntity
  8
実線
100
AcDbCircle
 10
5461.597491566596
 20
-1413.237519332517
 30
0.0
 40
3.5
  0
ARC
  5
AF8B2
330
18
100
AcDbEntity
  8
実線
100
AcDbCircle
 10
5461.597491566593
 20
-1414.317519332517
 30
0.0
 40
0.5
100
AcDbArc
 50
42.34638766298305
 51
137.6536123373114
  0
ARC
  5
AF8B3
330
18
100
AcDbEntity
  8
実線
100
AcDbCircle
 10
5462.53279900268
 20
-1413.777519332518
 30
0.0
 40
0.5
100
AcDbArc
 50
102.3463876624722
 51
197.6536123369735
  0
CIRCLE
  5
AF8B4
330
18
100
AcDbEntity
  8
実線
100
AcDbCircle
 10
5461.597491566596
 20
-1413.237519332517
 30
0.0
 40
0.8299999999999998
  0
ARC
  5
AF8B5
330
18
100
AcDbEntity
  8
実線
100
AcDbCircle
 10
5462.53279900268
 20
-1412.697519332518
 30
0.0
 40
0.5
100
AcDbArc
 50
162.3463876626473
 51
257.6536123370983
  0
ARC
  5
AF8B6
330
18
100
AcDbEntity
  8
実線
100
AcDbCircle
 10
5460.662184130508
 20
-1413.777519332513
 30
0.0
 40
0.5
100
AcDbArc
 50
342.3463876626473
 51
77.65361233709829
  0
ARC
  5
AF8B7
330
18
100
AcDbEntity
  8
実線
100
AcDbCircle
 10
5461.597491566596
 20
-1412.157519332517
 30
0.0
 40
0.5
100
AcDbArc
 50
222.3463876626885
 51
317.6536123371642
  0
ARC
  5
AF8B8
330
18
100
AcDbEntity
  8
実線
100
AcDbCircle
 10
5460.662184130506
 20
-1412.697519332516
 30
0.0
 40
0.5
100
AcDbArc
 50
282.3463876633257
 51
17.65361233720371
  0
CIRCLE
  5
AF8B9
330
18
100
AcDbEntity
  8
実線
100
AcDbCircle
 10
5418.847491566595
 20
-1487.282691356088
 30
0.0
 40
3.5
  0
ARC
  5
AF8BA
330
18
100
AcDbEntity
  8
実線
100
AcDbCircle
 10
5419.782799002682
 20
-1487.822691356089
 30
0.0
 40
0.5
100
AcDbArc
 50
102.3463876629017
 51
197.6536123372037
  0
ARC
  5
AF8BB
330
18
100
AcDbEntity
  8
実線
100
AcDbCircle
 10
5419.782799002682
 20
-1486.742691356091
 30
0.0
 40
0.5
100
AcDbArc
 50
162.3463876624171
 51
257.6536123370983
  0
CIRCLE
  5
AF8BC
330
18
100
AcDbEntity
  8
実線
100
AcDbCircle
 10
5418.847491566595
 20
-1487.282691356088
 30
0.0
 40
0.8299999999999998
  0
ARC
  5
AF8BD
330
18
100
AcDbEntity
  8
実線
100
AcDbCircle
 10
5418.847491566595
 20
-1486.20269135609
 30
0.0
 40
0.5
100
AcDbArc
 50
222.3463876626885
 51
317.6536123370169
  0
ARC
  5
AF8BE
330
18
100
AcDbEntity
  8
実線
100
AcDbCircle
 10
5418.847491566592
 20
-1488.362691356086
 30
0.0
 40
0.5
100
AcDbArc
 50
42.34638766268857
 51
137.6536123370169
  0
ARC
  5
AF8BF
330
18
100
AcDbEntity
  8
実線
100
AcDbCircle
 10
5417.91218413051
 20
-1486.742691356087
 30
0.0
 40
0.5
100
AcDbArc
 50
282.346387662687
 51
17.65361233720371
  0
ARC
  5
AF8C0
330
18
100
AcDbEntity
  8
実線
100
AcDbCircle
 10
5417.912184130506
 20
-1487.822691356089
 30
0.0
 40
0.5
100
AcDbArc
 50
342.3463876633064
 51
77.65361233709829
  0
CIRCLE
  5
AF8E9
330
18
100
AcDbEntity
  8
実線
100
AcDbCircle
 10
5376.097491566595
 20
-1413.237519332518
 30
0.0
 40
50.5
  0
ARC
  5
AF8EA
330
18
100
AcDbEntity
  8
実線
100
AcDbCircle
 10
5376.097491566595
 20
-1413.237519332518
 30
0.0
 40
89.0
100
AcDbArc
 50
203.303673997071
 51
156.6963260029296
  0
CIRCLE
  5
AFA16
330
18
100
AcDbEntity
  8
実線
100
AcDbCircle
 10
5333.347493820529
 20
-1339.192346007713
 30
0.0
 40
3.5
  0
ARC
  5
AFA17
330
18
100
AcDbEntity
  8
実線
100
AcDbCircle
 10
5332.871491526288
 20
-1338.367885849564
 30
0.0
 40
0.3170045884846654
100
AcDbArc
 50
254.6530614096725
 51
345.3469385903993
  0
CIRCLE
  5
AFA18
330
18
100
AcDbEntity
  8
実線
100
AcDbCircle
 10
5333.347493820529
 20
-1339.192346007713
 30
0.0
 40
0.875
  0
ARC
  5
AFA19
330
18
100
AcDbEntity
  8
実線
100
AcDbCircle
 10
5332.741276037879
 20
-1338.842346007716
 30
0.0
 40
0.175
100
AcDbArc
 50
74.6530614094753
 51
225.3469385904495
  0
ARC
  5
AFA1A
330
18
100
AcDbEntity
  8
実線
100
AcDbCircle
 10
5333.347493820529
 20
-1338.492346007717
 30
0.0
 40
0.175
100
AcDbArc
 50
14.65306140964836
 51
165.3469385904957
  0
ARC
  5
AFA1B
330
18
100
AcDbEntity
  8
実線
100
AcDbCircle
 10
5333.82349611477
 20
-1338.367885849566
 30
0.0
 40
0.3170045884846654
100
AcDbArc
 50
194.6530614097597
 51
285.3469385903275
  0
ARC
  5
AFA1C
330
18
100
AcDbEntity
  8
実線
100
AcDbCircle
 10
5334.299498409013
 20
-1339.192346007714
 30
0.0
 40
0.3170045884846654
100
AcDbArc
 50
134.6530614096826
 51
225.3469385903174
  0
ARC
  5
AFA1D
330
18
100
AcDbEntity
  8
実線
100
AcDbCircle
 10
5333.823496114772
 20
-1340.016806165861
 30
0.0
 40
0.3170045884846654
100
AcDbArc
 50
74.65306140967252
 51
165.3469385903993
  0
ARC
  5
AFA1E
330
18
100
AcDbEntity
  8
実線
100
AcDbCircle
 10
5332.871491526288
 20
-1340.016806165861
 30
0.0
 40
0.3170045884846654
100
AcDbArc
 50
14.65306140975972
 51
105.3469385903275
  0
ARC
  5
AFA1F
330
18
100
AcDbEntity
  8
実線
100
AcDbCircle
 10
5332.395489232045
 20
-1339.192346007713
 30
0.0
 40
0.3170045884846654
100
AcDbArc
 50
314.6530614096826
 51
45.34693859031743
  0
ARC
  5
AFA20
330
18
100
AcDbEntity
  8
実線
100
AcDbCircle
 10
5332.741276037879
 20
-1339.542346007715
 30
0.0
 40
0.175
100
AcDbArc
 50
134.6530614095504
 51
285.3469385902179
  0
ARC
  5
AFA21
330
18
100
AcDbEntity
  8
実線
100
AcDbCircle
 10
5333.953711603177
 20
-1338.842346007716
 30
0.0
 40
0.175
100
AcDbArc
 50
314.6530614095504
 51
105.3469385902178
  0
ARC
  5
AFA22
330
18
100
AcDbEntity
  8
実線
100
AcDbCircle
 10
5333.953711603177
 20
-1339.542346007709
 30
0.0
 40
0.175
100
AcDbArc
 50
254.6530614094753
 51
45.34693859044955
  0
ARC
  5
AFA23
330
18
100
AcDbEntity
  8
実線
100
AcDbCircle
 10
5333.347493820529
 20
-1339.892346007712
 30
0.0
 40
0.175
100
AcDbArc
 50
194.6530614096483
 51
345.3469385904957
  0
CIRCLE
  5
AFA24
330
18
100
AcDbEntity
  8
実線
100
AcDbCircle
 10
5298.608175774983
 20
-1377.103657953715
 30
0.0
 40
3.5
  0
ARC
  5
AFA25
330
18
100
AcDbEntity
  8
実線
100
AcDbCircle
 10
5297.745366603142
 20
-1376.701323429361
 30
0.0
 40
0.3170045884846654
100
AcDbArc
 50
289.653061409627
 51
20.34693859041611
  0
CIRCLE
  5
AFA26
330
18
100
AcDbEntity
  8
実線
100
AcDbCircle
 10
5298.608175774983
 20
-1377.103657953715
 30
0.0
 40
0.875
  0
ARC
  5
AFA27
330
18
100
AcDbEntity
  8
実線
100
AcDbCircle
 10
5297.91083948632
 20
-1377.164666973643
 30
0.0
 40
0.175
100
AcDbArc
 50
109.6530614094482
 51
260.3469385903647
  0
ARC
  5
AFA28
330
18
100
AcDbEntity
  8
実線
100
AcDbCircle
 10
5298.20667226954
 20
-1376.530251522713
 30
0.0
 40
0.175
100
AcDbArc
 50
49.65306140987334
 51
200.3469385904603
  0
ARC
  5
AFA29
330
18
100
AcDbEntity
  8
実線
100
AcDbCircle
 10
5298.525203107972
 20
-1376.155276030109
 30
0.0
 40
0.3170045884846654
100
AcDbArc
 50
229.6530614096639
 51
320.346938590143
  0
ARC
  5
AFA2A
330
18
100
AcDbEntity
  8
実線
100
AcDbCircle
 10
5299.388012279811
 20
-1376.557610554465
 30
0.0
 40
0.3170045884846654
100
AcDbArc
 50
169.65306140973
 51
260.3469385902058
  0
ARC
  5
AFA2B
330
18
100
AcDbEntity
  8
実線
100
AcDbCircle
 10
5299.47098494682
 20
-1377.50599247807
 30
0.0
 40
0.3170045884846654
100
AcDbArc
 50
109.6530614096269
 51
200.3469385904161
  0
ARC
  5
AFA2C
330
18
100
AcDbEntity
  8
実線
100
AcDbCircle
 10
5298.691148441993
 20
-1378.052039877323
 30
0.0
 40
0.3170045884846654
100
AcDbArc
 50
49.65306140966395
 51
140.346938590143
  0
ARC
  5
AFA2D
330
18
100
AcDbEntity
  8
実線
100
AcDbCircle
 10
5297.828339270153
 20
-1377.649705352969
 30
0.0
 40
0.3170045884846654
100
AcDbArc
 50
349.65306140973
 51
80.34693859020581
  0
ARC
  5
AFA2E
330
18
100
AcDbEntity
  8
実線
100
AcDbCircle
 10
5298.312342991765
 20
-1377.738073404643
 30
0.0
 40
0.175
100
AcDbArc
 50
169.6530614097689
 51
320.3469385901836
  0
ARC
  5
AFA2F
330
18
100
AcDbEntity
  8
実線
100
AcDbCircle
 10
5298.904008558199
 20
-1376.46924250279
 30
0.0
 40
0.175
100
AcDbArc
 50
349.6530614097689
 51
140.3469385901836
  0
ARC
  5
AFA30
330
18
100
AcDbEntity
  8
実線
100
AcDbCircle
 10
5299.305512063647
 20
-1377.042648933789
 30
0.0
 40
0.175
100
AcDbArc
 50
289.6530614094483
 51
80.34693859036471
  0
ARC
  5
AFA31
330
18
100
AcDbEntity
  8
実線
100
AcDbCircle
 10
5299.009679280425
 20
-1377.677064384718
 30
0.0
 40
0.175
100
AcDbArc
 50
229.6530614098733
 51
20.34693859046027
  0
CIRCLE
  5
AFA32
330
18
100
AcDbEntity
  8
実線
100
AcDbCircle
 10
5298.608175774983
 20
-1449.371380711321
 30
0.0
 40
3.5
  0
ARC
  5
AFA33
330
18
100
AcDbEntity
  8
実線
100
AcDbCircle
 10
5297.745366603142
 20
-1449.773715235676
 30
0.0
 40
0.3170045884846654
100
AcDbArc
 50
339.6530614095839
 51
70.34693859037306
  0
CIRCLE
  5
AFA34
330
18
100
AcDbEntity
  8
実線
100
AcDbCircle
 10
5298.608175774983
 20
-1449.371380711321
 30
0.0
 40
0.875
  0
ARC
  5
AFA35
330
18
100
AcDbEntity
  8
実線
100
AcDbCircle
 10
5297.91083948632
 20
-1449.310371691393
 30
0.0
 40
0.175
100
AcDbArc
 50
99.6530614096353
 51
250.3469385905518
  0
ARC
  5
AFA36
330
18
100
AcDbEntity
  8
実線
100
AcDbCircle
 10
5298.20667226954
 20
-1449.944787142323
 30
0.0
 40
0.175
100
AcDbArc
 50
159.6530614095397
 51
310.3469385901267
  0
ARC
  5
AFA37
330
18
100
AcDbEntity
  8
実線
100
AcDbCircle
 10
5298.525203107972
 20
-1450.319762634926
 30
0.0
 40
0.3170045884846654
100
AcDbArc
 50
39.65306140985703
 51
130.346938590336
  0
ARC
  5
AFA38
330
18
100
AcDbEntity
  8
実線
100
AcDbCircle
 10
5299.388012279811
 20
-1449.917428110571
 30
0.0
 40
0.3170045884846654
100
AcDbArc
 50
99.65306140979421
 51
190.34693859027
  0
ARC
  5
AFA39
330
18
100
AcDbEntity
  8
実線
100
AcDbCircle
 10
5299.47098494682
 20
-1448.969046186966
 30
0.0
 40
0.3170045884846654
100
AcDbArc
 50
159.6530614095839
 51
250.3469385903731
  0
ARC
  5
AFA3A
330
18
100
AcDbEntity
  8
実線
100
AcDbCircle
 10
5298.691148441993
 20
-1448.422998787713
 30
0.0
 40
0.3170045884846654
100
AcDbArc
 50
219.653061409857
 51
310.346938590336
  0
ARC
  5
AFA3B
330
18
100
AcDbEntity
  8
実線
100
AcDbCircle
 10
5297.828339270153
 20
-1448.825333312068
 30
0.0
 40
0.3170045884846654
100
AcDbArc
 50
279.6530614097942
 51
10.34693859027001
  0
ARC
  5
AFA3C
330
18
100
AcDbEntity
  8
実線
100
AcDbCircle
 10
5298.312342991765
 20
-1448.736965260393
 30
0.0
 40
0.175
100
AcDbArc
 50
39.65306140981635
 51
190.346938590231
  0
ARC
  5
AFA3D
330
18
100
AcDbEntity
  8
実線
100
AcDbCircle
 10
5298.904008558199
 20
-1450.005796162245
 30
0.0
 40
0.175
100
AcDbArc
 50
219.6530614098163
 51
10.34693859023106
  0
ARC
  5
AFA3E
330
18
100
AcDbEntity
  8
実線
100
AcDbCircle
 10
5299.305512063647
 20
-1449.432389731247
 30
0.0
 40
0.175
100
AcDbArc
 50
279.6530614096353
 51
70.34693859055174
  0
ARC
  5
AFA3F
330
18
100
AcDbEntity
  8
実線
100
AcDbCircle
 10
5299.009679280425
 20
-1448.797974280319
 30
0.0
 40
0.175
100
AcDbArc
 50
339.6530614095397
 51
130.3469385901266
  0
CIRCLE
  5
AFA40
330
18
100
AcDbEntity
  8
実線
100
AcDbCircle
 10
5333.347493820529
 20
-1487.282692657323
 30
0.0
 40
3.5
  0
ARC
  5
AFA41
330
18
100
AcDbEntity
  8
実線
100
AcDbCircle
 10
5332.871491526288
 20
-1488.107152815473
 30
0.0
 40
0.3170045884846654
100
AcDbArc
 50
14.65306140960068
 51
105.3469385903275
  0
CIRCLE
  5
AFA42
330
18
100
AcDbEntity
  8
実線
100
AcDbCircle
 10
5333.347493820529
 20
-1487.282692657323
 30
0.0
 40
0.875
  0
ARC
  5
AFA43
330
18
100
AcDbEntity
  8
実線
100
AcDbCircle
 10
5332.741276037879
 20
-1487.632692657321
 30
0.0
 40
0.175
100
AcDbArc
 50
134.6530614096028
 51
285.3469385905247
  0
ARC
  5
AFA44
330
18
100
AcDbEntity
  8
実線
100
AcDbCircle
 10
5333.347493820529
 20
-1487.98269265732
 30
0.0
 40
0.175
100
AcDbArc
 50
194.6530614095043
 51
345.3469385903517
  0
ARC
  5
AFA45
330
18
100
AcDbEntity
  8
実線
100
AcDbCircle
 10
5333.82349611477
 20
-1488.107152815469
 30
0.0
 40
0.3170045884846654
100
AcDbArc
 50
74.65306140967252
 51
165.3469385902402
  0
ARC
  5
AFA46
330
18
100
AcDbEntity
  8
実線
100
AcDbCircle
 10
5334.299498409013
 20
-1487.282692657323
 30
0.0
 40
0.3170045884846654
100
AcDbArc
 50
134.6530614096826
 51
225.3469385903174
  0
ARC
  5
AFA47
330
18
100
AcDbEntity
  8
実線
100
AcDbCircle
 10
5333.823496114772
 20
-1486.458232499176
 30
0.0
 40
0.3170045884846654
100
AcDbArc
 50
194.6530614096007
 51
285.3469385903275
  0
ARC
  5
AFA48
330
18
100
AcDbEntity
  8
実線
100
AcDbCircle
 10
5332.871491526288
 20
-1486.458232499176
 30
0.0
 40
0.3170045884846654
100
AcDbArc
 50
254.6530614096725
 51
345.3469385902403
  0
ARC
  5
AFA49
330
18
100
AcDbEntity
  8
実線
100
AcDbCircle
 10
5332.395489232045
 20
-1487.282692657323
 30
0.0
 40
0.3170045884846654
100
AcDbArc
 50
314.6530614096826
 51
45.34693859031743
  0
ARC
  5
AFA4A
330
18
100
AcDbEntity
  8
実線
100
AcDbCircle
 10
5332.741276037879
 20
-1486.932692657321
 30
0.0
 40
0.175
100
AcDbArc
 50
74.65306140978215
 51
225.3469385903972
  0
ARC
  5
AFA4B
330
18
100
AcDbEntity
  8
実線
100
AcDbCircle
 10
5333.953711603177
 20
-1487.632692657321
 30
0.0
 40
0.175
100
AcDbArc
 50
254.6530614097822
 51
45.34693859039723
  0
ARC
  5
AFA4C
330
18
100
AcDbEntity
  8
実線
100
AcDbCircle
 10
5333.953711603177
 20
-1486.932692657328
 30
0.0
 40
0.175
100
AcDbArc
 50
314.6530614096028
 51
105.3469385905247
  0
ARC
  5
AFA4D
330
18
100
AcDbEntity
  8
実線
100
AcDbCircle
 10
5333.347493820529
 20
-1486.582692657326
 30
0.0
 40
0.175
100
AcDbArc
 50
14.65306140950432
 51
165.3469385903516
  0
LINE
  5
AFA4E
330
18
100
AcDbEntity
  8
実線
100
AcDbLine
 10
5288.776245583733
 20
-1447.237519332524
 30
0.0
 11
5292.52117913299
 21
-1447.237519332524
 31
0.0
  0
ARC
  5
AFA4F
330
18
100
AcDbEntity
  8
実線
100
AcDbCircle
 10
5288.776245583733
 20
-1445.237519332525
 30
0.0
 40
2.0
100
AcDbArc
 50
200.126013111371
 51
270.0
  0
ARC
  5
AFA50
330
18
100
AcDbEntity
  8
実線
100
AcDbCircle
 10
5292.52117913299
 20
-1449.237519332523
 30
0.0
 40
2.0
100
AcDbArc
 50
23.30367399705378
 51
90.0
  0
ARC
  5
AFA51
330
18
100
AcDbEntity
  8
実線
100
AcDbCircle
 10
5376.097491566597
 20
-1413.23751933252
 30
0.0
 40
95.0
100
AcDbArc
 50
159.8739868886166
 51
200.1260131113833
  0
ARC
  5
AFA52
330
18
100
AcDbEntity
  8
実線
100
AcDbCircle
 10
5288.776245583733
 20
-1381.237519332515
 30
0.0
 40
2.0
100
AcDbArc
 50
90.0
 51
159.873986888629
  0
LINE
  5
AFA53
330
18
100
AcDbEntity
  8
実線
100
AcDbLine
 10
5288.776245583733
 20
-1379.237519332515
 30
0.0
 11
5292.52117913299
 21
-1379.237519332515
 31
0.0
  0
ARC
  5
AFA54
330
18
100
AcDbEntity
  8
実線
100
AcDbCircle
 10
5292.52117913299
 20
-1377.237519332515
 30
0.0
 40
2.0
100
AcDbArc
 50
270.0
 51
336.6963260029462
  0
ARC
  5
AFA55
330
18
100
AcDbEntity
  8
実線
100
AcDbCircle
 10
5291.865668601637
 20
-1376.237519332518
 30
0.0
 40
2.0
100
AcDbArc
 50
270.0
 51
336.2858491946525
  0
LINE
  5
B0BD4
330
18
100
AcDbEntity
  8
CENTER
100
AcDbLine
 10
5893.022969975274
 20
-1413.23751933253
 30
0.0
 11
5696.522966398996
 21
-1413.23751933253
 31
0.0
  0
ARC
  5
B0BD5
330
18
100
AcDbEntity
  8
実線
100
AcDbCircle
 10
5791.522969975273
 20
-1413.23751933253
 30
0.0
 40
118.5
100
AcDbArc
 50
220.5804186560094
 51
229.4195813439906
  0
ARC
  5
B0BD6
330
18
100
AcDbEntity
  8
実線
100
AcDbCircle
 10
5791.522969975273
 20
-1413.23751933253
 30
0.0
 40
118.5
100
AcDbArc
 50
130.5804186560094
 51
139.4195813439905
  0
ARC
  5
B0BD7
330
18
100
AcDbEntity
  8
実線
100
AcDbCircle
 10
5791.522969975273
 20
-1413.23751933253
 30
0.0
 40
118.5
100
AcDbArc
 50
310.5804186560094
 51
319.4195813439906
  0
ARC
  5
B0BD8
330
18
100
AcDbEntity
  8
実線
100
AcDbCircle
 10
5791.522969975273
 20
-1413.23751933253
 30
0.0
 40
118.5
100
AcDbArc
 50
40.58041865600938
 51
49.41958134399062
  0
LINE
  5
B0BD9
330
18
100
AcDbEntity
  8
実線
100
AcDbLine
 10
5868.60896092045
 20
-1503.23751933253
 30
0.0
 11
5714.436979030096
 21
-1503.23751933253
 31
0.0
  0
LINE
  5
B0BDA
330
18
100
AcDbEntity
  8
実線
100
AcDbLine
 10
5868.60896092045
 20
-1323.23751933253
 30
0.0
 11
5714.436979030096
 21
-1323.23751933253
 31
0.0
  0
LINE
  5
B0BDB
330
18
100
AcDbEntity
  8
実線
100
AcDbLine
 10
5701.522969975273
 20
-1490.323510277708
 30
0.0
 11
5701.522969975273
 21
-1336.151528387353
 31
0.0
  0
CIRCLE
  5
B0BDC
330
18
100
AcDbEntity
  8
実線
100
AcDbCircle
 10
5864.001415046894
 20
-1485.715964404152
 30
0.0
 40
5.5
  0
LINE
  5
B0BDD
330
18
100
AcDbEntity
  8
CENTER
100
AcDbLine
 10
5858.344560797401
 20
-1480.05911015466
 30
0.0
 11
5869.658269296386
 21
-1491.372818653644
 31
0.0
  0
ARC
  5
B0BDE
330
18
100
AcDbEntity
  8
CENTER
100
AcDbCircle
 10
5791.522969975273
 20
-1413.23751933253
 30
0.0
 40
102.5
100
AcDbArc
 50
310.5269984670409
 51
319.4730015329592
  0
CIRCLE
  5
B0BDF
330
18
100
AcDbEntity
  8
実線
100
AcDbCircle
 10
5864.001415046894
 20
-1340.759074260908
 30
0.0
 40
5.5
  0
LINE
  5
B0BE0
330
18
100
AcDbEntity
  8
CENTER
100
AcDbLine
 10
5858.344560797402
 20
-1346.415928510401
 30
0.0
 11
5869.658269296388
 21
-1335.102220011416
 31
0.0
  0
ARC
  5
B0BE1
330
18
100
AcDbEntity
  8
CENTER
100
AcDbCircle
 10
5791.522969975273
 20
-1413.237519332529
 30
0.0
 40
102.5
100
AcDbArc
 50
40.52699846704075
 51
49.47300153295906
  0
CIRCLE
  5
B0BE2
330
18
100
AcDbEntity
  8
実線
100
AcDbCircle
 10
5719.044524903651
 20
-1340.759074260909
 30
0.0
 40
5.5
  0
LINE
  5
B0BE3
330
18
100
AcDbEntity
  8
CENTER
100
AcDbLine
 10
5724.701379153144
 20
-1346.415928510401
 30
0.0
 11
5713.38767065416
 21
-1335.102220011417
 31
0.0
  0
ARC
  5
B0BE4
330
18
100
AcDbEntity
  8
CENTER
100
AcDbCircle
 10
5791.522969975273
 20
-1413.23751933253
 30
0.0
 40
102.5
100
AcDbArc
 50
130.5269984670409
 51
139.4730015329592
  0
CIRCLE
  5
B0BE5
330
18
100
AcDbEntity
  8
実線
100
AcDbCircle
 10
5719.044524903653
 20
-1485.715964404151
 30
0.0
 40
5.5
  0
LINE
  5
B0BE6
330
18
100
AcDbEntity
  8
CENTER
100
AcDbLine
 10
5724.701379153144
 20
-1480.059110154659
 30
0.0
 11
5713.38767065416
 21
-1491.372818653642
 31
0.0
  0
ARC
  5
B0BE7
330
18
100
AcDbEntity
  8
CENTER
100
AcDbCircle
 10
5791.522969975274
 20
-1413.237519332529
 30
0.0
 40
102.5
100
AcDbArc
 50
220.5269984670408
 51
229.473001532959
  0
ARC
  5
B0BE8
330
18
100
AcDbEntity
  8
実線
100
AcDbCircle
 10
5880.073802834146
 20
-1446.23751933253
 30
0.0
 40
2.0
100
AcDbArc
 50
329.5748865259639
 51
339.5612204239193
  0
ARC
  5
B0BE9
330
18
100
AcDbEntity
  8
実線
100
AcDbCircle
 10
5791.522969975273
 20
-1413.23751933253
 30
0.0
 40
96.5
100
AcDbArc
 50
339.5612204239183
 51
20.93118788400431
  0
LINE
  5
B0BEA
330
18
100
AcDbEntity
  8
実線
100
AcDbLine
 10
5881.522969975272
 20
-1378.048742712704
 30
0.0
 11
5881.522969975272
 21
-1336.151528387353
 31
0.0
  0
LINE
  5
B0BEB
330
18
100
AcDbEntity
  8
実線
100
AcDbLine
 10
5881.522969975272
 20
-1490.323510277708
 30
0.0
 11
5881.522969975272
 21
-1448.263166397685
 31
0.0
  0
ARC
  5
B0BEC
330
18
100
AcDbEntity
  8
実線
100
AcDbCircle
 10
5883.522969975273
 20
-1448.263166397685
 30
0.0
 40
2.0
100
AcDbArc
 50
149.5748865259638
 51
180.0
  0
ARC
  5
B0BED
330
18
100
AcDbEntity
  8
実線
100
AcDbCircle
 10
5883.522969975273
 20
-1378.048742712704
 30
0.0
 40
2.0
100
AcDbArc
 50
180.0
 51
200.9311878840077
  0
CIRCLE
  5
B0BEE
330
18
100
AcDbEntity
  8
実線
100
AcDbCircle
 10
5791.522969975273
 20
-1413.23751933253
 30
0.0
 40
15.0
  0
ARC
  5
B0BEF
330
18
100
AcDbEntity
  8
実線
100
AcDbCircle
 10
5791.522969975273
 20
-1413.23751933253
 30
0.0
 40
75.0
100
AcDbArc
 50
212.2309526355022
 51
237.7690473644979
  0
LINE
  5
B0BF0
330
18
100
AcDbEntity
  8
実線
100
AcDbLine
 10
5881.522969975272
 20
-1453.23751933253
 30
0.0
 11
5854.96585767752
 21
-1453.23751933253
 31
0.0
  0
LINE
  5
B0BF1
330
18
100
AcDbEntity
  8
実線
100
AcDbLine
 10
5881.522969975272
 20
-1373.237519332531
 30
0.0
 11
5854.96585767752
 21
-1373.237519332531
 31
0.0
  0
LINE
  5
B0BF2
330
18
100
AcDbEntity
  8
実線
100
AcDbLine
 10
5831.522969975273
 20
-1503.23751933253
 30
0.0
 11
5831.522969975273
 21
-1476.680407034778
 31
0.0
  0
LINE
  5
B0BF3
330
18
100
AcDbEntity
  8
実線
100
AcDbLine
 10
5751.522969975273
 20
-1503.23751933253
 30
0.0
 11
5751.522969975273
 21
-1476.680407034778
 31
0.0
  0
ARC
  5
B0BF4
330
18
100
AcDbEntity
  8
実線
100
AcDbCircle
 10
5791.522969975273
 20
-1413.23751933253
 30
0.0
 40
75.0
100
AcDbArc
 50
302.2309526355021
 51
327.7690473644978
  0
ARC
  5
B0BF5
330
18
100
AcDbEntity
  8
実線
100
AcDbCircle
 10
5791.522969975273
 20
-1413.23751933253
 30
0.0
 40
75.0
100
AcDbArc
 50
32.23095263550219
 51
57.7690473644979
  0
ARC
  5
B0BF6
330
18
100
AcDbEntity
  8
実線
100
AcDbCircle
 10
5791.522969975273
 20
-1413.23751933253
 30
0.0
 40
75.0
100
AcDbArc
 50
122.2309526355021
 51
147.7690473644978
  0
LINE
  5
B0BF7
330
18
100
AcDbEntity
  8
実線
100
AcDbLine
 10
5728.080082273026
 20
-1373.237519332531
 30
0.0
 11
5701.522969975273
 21
-1373.237519332531
 31
0.0
  0
LINE
  5
B0BF8
330
18
100
AcDbEntity
  8
実線
100
AcDbLine
 10
5831.522969975273
 20
-1349.794631630283
 30
0.0
 11
5831.522969975273
 21
-1323.23751933253
 31
0.0
  0
LINE
  5
B0BF9
330
18
100
AcDbEntity
  8
実線
100
AcDbLine
 10
5728.080082273026
 20
-1453.23751933253
 30
0.0
 11
5701.522969975273
 21
-1453.23751933253
 31
0.0
  0
LINE
  5
B0BFA
330
18
100
AcDbEntity
  8
実線
100
AcDbLine
 10
5751.522969975273
 20
-1349.794631630283
 30
0.0
 11
5751.522969975273
 21
-1323.23751933253
 31
0.0
  0
CIRCLE
  5
B0BFB
330
18
100
AcDbEntity
  8
実線
100
AcDbCircle
 10
5791.522969975273
 20
-1413.23751933253
 30
0.0
 40
59.5
  0
LINE
  5
B0BFD
330
18
100
AcDbEntity
  8
CENTER
100
AcDbLine
 10
5739.040726049152
 20
-1338.285107280088
 30
0.0
 11
5843.431637465043
 21
-1487.370779340684
 31
0.0
  0
CIRCLE
  5
B0BFE
330
18
100
AcDbEntity
  8
CENTER
100
AcDbCircle
 10
5791.522969975273
 20
-1413.23751933253
 30
0.0
 40
85.0
  0
CIRCLE
  5
B0BFF
330
18
100
AcDbEntity
  8
実線
100
AcDbCircle
 10
5840.276967065112
 20
-1482.865443097094
 30
0.0
 40
3.0
  0
ARC
  5
B0C00
330
18
100
AcDbEntity
  8
実線
100
AcDbCircle
 10
5743.342549321785
 20
-1344.428747612254
 30
0.0
 40
3.0
100
AcDbArc
 50
215.0000000000155
 51
35.00000000001551
  0
ARC
  5
B0C01
330
18
100
AcDbEntity
  8
実線
100
AcDbCircle
 10
5742.195396449083
 20
-1342.790443523677
 30
0.0
 40
3.0
100
AcDbArc
 50
35.00000000001551
 51
215.0000000000155
  0
LINE
  5
B0C02
330
18
100
AcDbEntity
  8
実線
100
AcDbLine
 10
5745.800005454651
 20
-1342.708018303201
 30
0.0
 11
5744.65285258195
 21
-1341.069714214623
 31
0.0
  0
LINE
  5
B0C03
330
18
100
AcDbEntity
  8
実線
100
AcDbLine
 10
5740.885093188919
 20
-1346.149476921308
 30
0.0
 11
5739.737940316217
 21
-1344.51117283273
 31
0.0
  0
LINE
  5
B0C04
330
18
100
AcDbEntity
  8
実線
100
AcDbLine
 10
5842.734423197981
 20
-1481.144713788042
 30
0.0
 11
5837.819510932246
 21
-1484.586172406149
 31
0.0
  0
LINE
  5
B0C05
330
18
100
AcDbEntity
  8
実線
100
AcDbLine
 10
5841.997696374167
 20
-1485.322899229961
 30
0.0
 11
5838.55623775606
 21
-1480.407986964228
 31
0.0
  0
LINE
  5
B0C23
330
18
100
AcDbEntity
  8
実線
 48
0.1
100
AcDbLine
 10
5893.022969975273
 20
-1418.000659053344
 30
0.0
 11
5888.022969975276
 21
-1418.000659053346
 31
0.0
  0
LINE
  5
B0C24
330
18
100
AcDbEntity
  8
実線
 48
0.1
100
AcDbLine
 10
5893.022969975273
 20
-1416.701620947669
 30
0.0
 11
5888.022969975276
 21
-1416.701620947669
 31
0.0
  0
LINE
  5
B0C25
330
18
100
AcDbEntity
  8
実線
 48
0.1
100
AcDbLine
 10
5893.022969975277
 20
-1409.773417717392
 30
0.0
 11
5888.022969975272
 21
-1409.773417717392
 31
0.0
  0
LINE
  5
B0C26
330
18
100
AcDbEntity
  8
実線
 48
0.1
100
AcDbLine
 10
5893.022969975277
 20
-1408.474379611717
 30
0.0
 11
5888.022969975272
 21
-1408.474379611717
 31
0.0
  0
LINE
  5
B0C27
330
18
100
AcDbEntity
  8
実線
100
AcDbLine
 10
5893.022969975273
 20
-1421.464760668482
 30
0.0
 11
5888.022969975276
 21
-1421.464760668482
 31
0.0
  0
LINE
  5
B0C28
330
18
100
AcDbEntity
  8
実線
100
AcDbLine
 10
5893.022969975277
 20
-1405.010277996579
 30
0.0
 11
5888.022969975272
 21
-1405.010277996579
 31
0.0
  0
LINE
  5
B0C29
330
18
100
AcDbEntity
  8
実線
100
AcDbLine
 10
5904.955982677168
 20
-1405.010277996577
 30
0.0
 11
5897.022969975276
 21
-1405.010277996577
 31
0.0
  0
LINE
  5
B0C2A
330
18
100
AcDbEntity
  8
実線
100
AcDbLine
 10
5904.955982677168
 20
-1421.464760668482
 30
0.0
 11
5897.022969975273
 21
-1421.464760668482
 31
0.0
  0
LINE
  5
B0C2B
330
18
100
AcDbEntity
  8
実線
 48
0.1
100
AcDbLine
 10
5905.522969975272
 20
-1418.000659053344
 30
0.0
 11
5897.022969975273
 21
-1418.000659053344
 31
0.0
  0
LINE
  5
B0C2C
330
18
100
AcDbEntity
  8
実線
 48
0.1
100
AcDbLine
 10
5905.522969975272
 20
-1416.701620947669
 30
0.0
 11
5897.022969975273
 21
-1416.701620947669
 31
0.0
  0
LINE
  5
B0C2D
330
18
100
AcDbEntity
  8
実線
 48
0.1
100
AcDbLine
 10
5905.522969975272
 20
-1408.474379611715
 30
0.0
 11
5897.022969975276
 21
-1408.474379611717
 31
0.0
  0
LINE
  5
B0C2E
330
18
100
AcDbEntity
  8
実線
 48
0.1
100
AcDbLine
 10
5905.522969975272
 20
-1409.773417717391
 30
0.0
 11
5897.022969975276
 21
-1409.773417717392
 31
0.0
  0
LINE
  5
B0C2F
330
18
100
AcDbEntity
  8
実線
100
AcDbLine
 10
5905.188033484735
 20
-1421.232709860912
 30
0.0
 11
5897.022969975273
 21
-1421.232709860912
 31
0.0
  0
LINE
  5
B0C30
330
18
100
AcDbEntity
  8
実線
100
AcDbLine
 10
5905.522969975272
 20
-1420.832709860912
 30
0.0
 11
5897.022969975273
 21
-1420.832709860912
 31
0.0
  0
LINE
  5
B0C31
330
18
100
AcDbEntity
  8
実線
100
AcDbLine
 10
5905.522969975272
 20
-1418.632709860913
 30
0.0
 11
5897.022969975273
 21
-1418.632709860913
 31
0.0
  0
LINE
  5
B0C32
330
18
100
AcDbEntity
  8
実線
100
AcDbLine
 10
5905.522969975272
 20
-1418.232709860912
 30
0.0
 11
5897.022969975273
 21
-1418.232709860912
 31
0.0
  0
LINE
  5
B0C33
330
18
100
AcDbEntity
  8
実線
100
AcDbLine
 10
5905.188033484735
 20
-1405.242328804149
 30
0.0
 11
5897.022969975273
 21
-1405.242328804147
 31
0.0
  0
LINE
  5
B0C34
330
18
100
AcDbEntity
  8
実線
100
AcDbLine
 10
5905.522969975272
 20
-1405.642328804147
 30
0.0
 11
5897.022969975273
 21
-1405.642328804147
 31
0.0
  0
LINE
  5
B0C35
330
18
100
AcDbEntity
  8
実線
100
AcDbLine
 10
5905.522969975272
 20
-1407.842328804148
 30
0.0
 11
5897.022969975273
 21
-1407.842328804148
 31
0.0
  0
LINE
  5
B0C36
330
18
100
AcDbEntity
  8
実線
100
AcDbLine
 10
5905.522969975272
 20
-1408.242328804145
 30
0.0
 11
5897.022969975273
 21
-1408.242328804147
 31
0.0
  0
LINE
  5
B0C37
330
18
100
AcDbEntity
  8
実線
100
AcDbLine
 10
5905.522969975272
 20
-1416.237519332529
 30
0.0
 11
5897.022969975273
 21
-1416.237519332529
 31
0.0
  0
LINE
  5
B0C38
330
18
100
AcDbEntity
  8
実線
100
AcDbLine
 10
5905.522969975272
 20
-1410.23751933253
 30
0.0
 11
5897.022969975273
 21
-1410.23751933253
 31
0.0
  0
LINE
  5
B0C39
330
18
100
AcDbEntity
  8
実線
100
AcDbLine
 10
5905.522969975272
 20
-1415.437519332529
 30
0.0
 11
5897.022969975276
 21
-1415.437519332529
 31
0.0
  0
LINE
  5
B0C3A
330
18
100
AcDbEntity
  8
実線
100
AcDbLine
 10
5905.522969975272
 20
-1411.03751933253
 30
0.0
 11
5897.022969975273
 21
-1411.03751933253
 31
0.0
  0
LINE
  5
B0C3B
330
18
100
AcDbEntity
  8
実線
100
AcDbLine
 10
5905.522969975272
 20
-1420.897773370375
 30
0.0
 11
5904.955982677168
 21
-1421.464760668482
 31
0.0
  0
LINE
  5
B0C3C
330
18
100
AcDbEntity
  8
実線
100
AcDbLine
 10
5905.522969975272
 20
-1405.577265294686
 30
0.0
 11
5904.955982677168
 21
-1405.010277996577
 31
0.0
  0
ARC
  5
B0C3D
330
18
100
AcDbEntity
  8
実線
100
AcDbCircle
 10
5906.022969975277
 20
-1416.73751933253
 30
0.0
 40
4.0
100
AcDbArc
 50
270.0
 51
0.0
  0
ARC
  5
B0C3E
330
18
100
AcDbEntity
  8
実線
100
AcDbCircle
 10
5906.022969975277
 20
-1409.73751933253
 30
0.0
 40
4.0
100
AcDbArc
 50
0.0
 51
90.0
  0
LINE
  5
B0C3F
330
18
100
AcDbEntity
  8
実線
100
AcDbLine
 10
5905.522969975276
 20
-1420.73751933253
 30
0.0
 11
5906.022969975277
 21
-1420.73751933253
 31
0.0
  0
LINE
  5
B0C40
330
18
100
AcDbEntity
  8
実線
100
AcDbLine
 10
5905.522969975272
 20
-1405.73751933253
 30
0.0
 11
5906.022969975277
 21
-1405.73751933253
 31
0.0
  0
LINE
  5
B0C41
330
18
100
AcDbEntity
  8
実線
100
AcDbLine
 10
5905.522969975272
 20
-1405.577265294686
 30
0.0
 11
5905.522969975272
 21
-1420.897773370375
 31
0.0
  0
LINE
  5
B0C42
330
18
100
AcDbEntity
  8
実線
100
AcDbLine
 10
5893.022969975277
 20
-1419.737519332531
 30
0.0
 11
5897.022969975273
 21
-1419.737519332531
 31
0.0
  0
LINE
  5
B0C43
330
18
100
AcDbEntity
  8
実線
100
AcDbLine
 10
5893.022969975273
 20
-1406.73751933253
 30
0.0
 11
5897.022969975273
 21
-1406.73751933253
 31
0.0
  0
LINE
  5
B0C44
330
18
100
AcDbEntity
  8
実線
100
AcDbLine
 10
5897.022969975276
 20
-1405.010277996577
 30
0.0
 11
5897.022969975273
 21
-1421.464760668482
 31
0.0
  0
LINE
  5
B0C45
330
18
100
AcDbEntity
  8
実線
100
AcDbLine
 10
5910.022969975276
 20
-1409.73751933253
 30
0.0
 11
5910.022969975276
 21
-1416.73751933253
 31
0.0
  0
LINE
  5
B0C46
330
18
100
AcDbEntity
  8
実線
100
AcDbLine
 10
5893.022969975277
 20
-1405.010277996579
 30
0.0
 11
5893.022969975273
 21
-1421.464760668482
 31
0.0
  0
LINE
  5
B0C47
330
18
100
AcDbEntity
  8
実線
100
AcDbLine
 10
5888.022969975272
 20
-1405.010277996577
 30
0.0
 11
5888.022969975272
 21
-1421.464760668482
 31
0.0
  0
LINE
  5
B0C48
330
18
100
AcDbEntity
  8
CENTER
100
AcDbLine
 10
5877.522969975276
 20
-1413.23751933253
 30
0.0
 11
5917.522969975276
 21
-1413.23751933253
 31
0.0
  0
LINE
  5
B0C49
330
18
100
AcDbEntity
  8
実線
100
AcDbLine
 10
5887.836260854569
 20
-1419.23751933253
 30
0.0
 11
5888.022969975272
 21
-1419.23751933253
 31
0.0
  0
LINE
  5
B0C4A
330
18
100
AcDbEntity
  8
実線
100
AcDbLine
 10
5887.836260854569
 20
-1407.237519332531
 30
0.0
 11
5888.022969975272
 21
-1407.237519332531
 31
0.0
  0
LINE
  5
B0C4B
330
18
100
AcDbEntity
  8
実線
100
AcDbLine
 10
5910.022969975276
 20
-1416.53751933253
 30
0.0
 11
5915.022969975276
 21
-1416.53751933253
 31
0.0
  0
LINE
  5
B0C4C
330
18
100
AcDbEntity
  8
実線
100
AcDbLine
 10
5910.022969975276
 20
-1409.93751933253
 30
0.0
 11
5915.022969975276
 21
-1409.93751933253
 31
0.0
  0
ARC
  5
B0C4D
330
18
100
AcDbEntity
  8
細線
100
AcDbCircle
 10
5917.495469975275
 20
-1411.587519332531
 30
0.0
 40
2.972499999998164
100
AcDbArc
 50
146.2832024645082
 51
213.7167975354917
  0
ARC
  5
B0C4E
330
18
100
AcDbEntity
  8
細線
100
AcDbCircle
 10
5912.550469975278
 20
-1414.88751933253
 30
0.0
 40
2.972499999998164
100
AcDbArc
 50
326.2832024645082
 51
33.71679753549174
  0
ARC
  5
B0C4F
330
18
100
AcDbEntity
  8
細線
100
AcDbCircle
 10
5912.550469975278
 20
-1411.587519332531
 30
0.0
 40
2.972499999998164
100
AcDbArc
 50
326.2832024645082
 51
33.71679753549174
  0
CIRCLE
  5
B0C50
330
18
100
AcDbEntity
  8
実線
100
AcDbCircle
 10
5791.522969975273
 20
-1413.23751933253
 30
0.0
 40
16.3
  0
CIRCLE
  5
B0C51
330
18
100
AcDbEntity
  8
実線
100
AcDbCircle
 10
5791.522969975273
 20
-1413.23751933253
 30
0.0
 40
16.8
  0
CIRCLE
  5
B0C99
330
18
100
AcDbEntity
  8
実線
100
AcDbCircle
 10
5791.522969975273
 20
-1413.23751933253
 30
0.0
 40
59.0
  0
CIRCLE
  5
B0CDC
330
18
100
AcDbEntity
  8
実線
100
AcDbCircle
 10
5830.413842940532
 20
-1374.34664636727
 30
0.0
 40
3.5
  0
CIRCLE
  5
B0CDD
330
18
100
AcDbEntity
  8
実線
100
AcDbCircle
 10
5830.413842940532
 20
-1374.34664636727
 30
0.0
 40
2.858333333333338
  0
ARC
  5
B0CDE
330
18
100
AcDbEntity
  8
実線
100
AcDbCircle
 10
5830.661712141747
 20
-1373.42158628472
 30
0.0
 40
0.446923180059133
100
AcDbArc
 50
195.0000000001042
 51
315.0000000002886
  0
ARC
  5
B0CDF
330
18
100
AcDbEntity
  8
実線
100
AcDbCircle
 10
5831.091033957304
 20
-1375.023837113165
 30
0.0
 40
0.446923180059133
100
AcDbArc
 50
75.00000000003109
 51
195.0000000000759
  0
ARC
  5
B0CE0
330
18
100
AcDbEntity
  8
実線
100
AcDbCircle
 10
5830.41384307597
 20
-1374.346646231833
 30
0.0
 40
0.83000019153839
100
AcDbArc
 50
42.79577249611936
 51
47.20422750413615
  0
ARC
  5
B0CE1
330
18
100
AcDbEntity
  8
実線
100
AcDbCircle
 10
5830.41384307597
 20
-1374.346646231833
 30
0.0
 40
0.83000019153839
100
AcDbArc
 50
342.7957724960834
 51
347.2042275040843
  0
ARC
  5
B0CE2
330
18
100
AcDbEntity
  8
実線
100
AcDbCircle
 10
5831.33890302308
 20
-1374.098777166051
 30
0.0
 40
0.446923180059133
100
AcDbArc
 50
135.0000000001237
 51
255.0000000002714
  0
ARC
  5
B0CE3
330
18
100
AcDbEntity
  8
実線
100
AcDbCircle
 10
5830.41384307597
 20
-1374.346646231833
 30
0.0
 40
0.83000019153839
100
AcDbArc
 50
102.7957724961523
 51
107.2042275039615
  0
ARC
  5
B0CE4
330
18
100
AcDbEntity
  8
実線
100
AcDbCircle
 10
5829.736652194634
 20
-1373.6694553505
 30
0.0
 40
0.446923180059133
100
AcDbArc
 50
255.0000000000311
 51
15.00000000021678
  0
ARC
  5
B0CE5
330
18
100
AcDbEntity
  8
実線
100
AcDbCircle
 10
5830.41384307597
 20
-1374.346646231833
 30
0.0
 40
0.83000019153839
100
AcDbArc
 50
162.7957724960984
 51
167.2042275040536
  0
ARC
  5
B0CE6
330
18
100
AcDbEntity
  8
実線
100
AcDbCircle
 10
5830.41384307597
 20
-1374.346646231833
 30
0.0
 40
0.83000019153839
100
AcDbArc
 50
282.7957724960876
 51
287.2042275039616
  0
ARC
  5
B0CE7
330
18
100
AcDbEntity
  8
実線
100
AcDbCircle
 10
5830.41384307597
 20
-1374.346646231833
 30
0.0
 40
0.83000019153839
100
AcDbArc
 50
222.7957724961079
 51
227.2042275042249
  0
ARC
  5
B0CE8
330
18
100
AcDbEntity
  8
実線
100
AcDbCircle
 10
5830.165974010194
 20
-1375.271706178945
 30
0.0
 40
0.446923180059133
100
AcDbArc
 50
15.00000000016047
 51
135.0000000002679
  0
ARC
  5
B0CE9
330
18
100
AcDbEntity
  8
実線
100
AcDbCircle
 10
5829.488783128855
 20
-1374.594515297613
 30
0.0
 40
0.446923180059133
100
AcDbArc
 50
315.0000000002679
 51
75.00000000015127
  0
CIRCLE
  5
B0D24
330
18
100
AcDbEntity
  8
実線
100
AcDbCircle
 10
5333.347493820529
 20
-1339.192346007713
 30
0.0
 40
2.858333333333338
  0
CIRCLE
  5
B0D5A
330
18
100
AcDbEntity
  8
実線
100
AcDbCircle
 10
5298.608175774983
 20
-1377.103657953715
 30
0.0
 40
2.858333333333338
  0
CIRCLE
  5
B0D90
330
18
100
AcDbEntity
  8
実線
100
AcDbCircle
 10
5298.608175774983
 20
-1449.371380711321
 30
0.0
 40
2.858333333333338
  0
CIRCLE
  5
B0DC6
330
18
100
AcDbEntity
  8
実線
100
AcDbCircle
 10
5333.347493820529
 20
-1487.282692657323
 30
0.0
 40
2.858333333333338
  0
CIRCLE
  5
B0DFC
330
18
100
AcDbEntity
  8
実線
100
AcDbCircle
 10
5418.847491566595
 20
-1487.282691356088
 30
0.0
 40
2.858333333333338
  0
CIRCLE
  5
B0E32
330
18
100
AcDbEntity
  8
実線
100
AcDbCircle
 10
5461.597491566596
 20
-1413.237519332517
 30
0.0
 40
2.858333333333338
  0
CIRCLE
  5
B0E68
330
18
100
AcDbEntity
  8
実線
100
AcDbCircle
 10
5418.847491566595
 20
-1339.192347308949
 30
0.0
 40
2.858333333333338
  0
CIRCLE
  5
B0E69
330
18
100
AcDbEntity
  8
実線
100
AcDbCircle
 10
5830.413842940532
 20
-1374.34664636727
 30
0.0
 40
0.8300000957683895
  0
CIRCLE
  5
B0E6B
330
18
100
AcDbEntity
  8
実線
100
AcDbCircle
 10
5752.632097010012
 20
-1374.346646367271
 30
0.0
 40
3.5
  0
CIRCLE
  5
B0E6C
330
18
100
AcDbEntity
  8
実線
100
AcDbCircle
 10
5752.632097010012
 20
-1374.346646367271
 30
0.0
 40
2.858333333333338
  0
ARC
  5
B0E6D
330
18
100
AcDbEntity
  8
実線
100
AcDbCircle
 10
5751.707036927462
 20
-1374.098777166056
 30
0.0
 40
0.446923180059133
100
AcDbArc
 50
285.0000000002168
 51
45.00000000022672
  0
ARC
  5
B0E6E
330
18
100
AcDbEntity
  8
実線
100
AcDbCircle
 10
5753.309287755907
 20
-1373.6694553505
 30
0.0
 40
0.446923180059133
100
AcDbArc
 50
165.0000000000386
 51
285.000000000089
  0
ARC
  5
B0E6F
330
18
100
AcDbEntity
  8
実線
100
AcDbCircle
 10
5752.632096874575
 20
-1374.346646231833
 30
0.0
 40
0.83000019153839
100
AcDbArc
 50
132.7957724961193
 51
137.2042275041583
  0
ARC
  5
B0E70
330
18
100
AcDbEntity
  8
実線
100
AcDbCircle
 10
5752.632096874575
 20
-1374.346646231833
 30
0.0
 40
0.83000019153839
100
AcDbArc
 50
72.79577249610309
 51
77.20422750410652
  0
ARC
  5
B0E71
330
18
100
AcDbEntity
  8
実線
100
AcDbCircle
 10
5752.384227808793
 20
-1373.421586284724
 30
0.0
 40
0.446923180059133
100
AcDbArc
 50
225.0000000000618
 51
345.0000000002639
  0
ARC
  5
B0E72
330
18
100
AcDbEntity
  8
実線
100
AcDbCircle
 10
5752.632096874575
 20
-1374.346646231833
 30
0.0
 40
0.83000019153839
100
AcDbArc
 50
192.7957724961453
 51
197.2042275039615
  0
ARC
  5
B0E73
330
18
100
AcDbEntity
  8
実線
100
AcDbCircle
 10
5751.954905993242
 20
-1375.023837113169
 30
0.0
 40
0.446923180059133
100
AcDbArc
 50
345.0000000000386
 51
105.0000000002168
  0
ARC
  5
B0E74
330
18
100
AcDbEntity
  8
実線
100
AcDbCircle
 10
5752.632096874575
 20
-1374.346646231833
 30
0.0
 40
0.83000019153839
100
AcDbArc
 50
252.7957724961031
 51
257.2042275040418
  0
ARC
  5
B0E75
330
18
100
AcDbEntity
  8
実線
100
AcDbCircle
 10
5752.632096874575
 20
-1374.346646231833
 30
0.0
 40
0.83000019153839
100
AcDbArc
 50
12.79577249608411
 51
17.20422750396152
  0
ARC
  5
B0E76
330
18
100
AcDbEntity
  8
実線
100
AcDbCircle
 10
5752.632096874575
 20
-1374.346646231833
 30
0.0
 40
0.83000019153839
100
AcDbArc
 50
312.7957724961194
 51
317.2042275042471
  0
ARC
  5
B0E77
330
18
100
AcDbEntity
  8
実線
100
AcDbCircle
 10
5753.557156821687
 20
-1374.594515297609
 30
0.0
 40
0.446923180059133
100
AcDbArc
 50
105.000000000089
 51
225.000000000371
  0
ARC
  5
B0E78
330
18
100
AcDbEntity
  8
実線
100
AcDbCircle
 10
5752.879965940355
 20
-1375.271706178948
 30
0.0
 40
0.446923180059133
100
AcDbArc
 50
45.00000000022672
 51
165.0000000001231
  0
CIRCLE
  5
B0E79
330
18
100
AcDbEntity
  8
実線
100
AcDbCircle
 10
5752.632097010012
 20
-1374.346646367271
 30
0.0
 40
0.8300000957683895
  0
CIRCLE
  5
B0E7B
330
18
100
AcDbEntity
  8
実線
100
AcDbCircle
 10
5752.632097010013
 20
-1452.128392297791
 30
0.0
 40
3.5
  0
CIRCLE
  5
B0E7C
330
18
100
AcDbEntity
  8
実線
100
AcDbCircle
 10
5752.632097010013
 20
-1452.128392297791
 30
0.0
 40
2.858333333333338
  0
ARC
  5
B0E7D
330
18
100
AcDbEntity
  8
実線
100
AcDbCircle
 10
5752.384227808797
 20
-1453.053452380341
 30
0.0
 40
0.446923180059133
100
AcDbArc
 50
15.00000000010416
 51
135.0000000002886
  0
ARC
  5
B0E7E
330
18
100
AcDbEntity
  8
実線
100
AcDbCircle
 10
5751.954905993241
 20
-1451.451201551896
 30
0.0
 40
0.446923180059133
100
AcDbArc
 50
255.0000000000311
 51
15.000000000076
  0
ARC
  5
B0E7F
330
18
100
AcDbEntity
  8
実線
100
AcDbCircle
 10
5752.632096874575
 20
-1452.128392433228
 30
0.0
 40
0.83000019153839
100
AcDbArc
 50
222.7957724961193
 51
227.2042275041362
  0
ARC
  5
B0E80
330
18
100
AcDbEntity
  8
実線
100
AcDbCircle
 10
5752.632096874575
 20
-1452.128392433228
 30
0.0
 40
0.83000019153839
100
AcDbArc
 50
162.7957724960834
 51
167.2042275040842
  0
ARC
  5
B0E81
330
18
100
AcDbEntity
  8
実線
100
AcDbCircle
 10
5751.707036927466
 20
-1452.37626149901
 30
0.0
 40
0.446923180059133
100
AcDbArc
 50
315.0000000001236
 51
75.00000000027144
  0
ARC
  5
B0E82
330
18
100
AcDbEntity
  8
実線
100
AcDbCircle
 10
5752.632096874575
 20
-1452.128392433228
 30
0.0
 40
0.83000019153839
100
AcDbArc
 50
282.7957724961523
 51
287.2042275039616
  0
ARC
  5
B0E83
330
18
100
AcDbEntity
  8
実線
100
AcDbCircle
 10
5753.309287755911
 20
-1452.805583314561
 30
0.0
 40
0.446923180059133
100
AcDbArc
 50
75.00000000003109
 51
195.0000000002168
  0
ARC
  5
B0E84
330
18
100
AcDbEntity
  8
実線
100
AcDbCircle
 10
5752.632096874575
 20
-1452.128392433228
 30
0.0
 40
0.83000019153839
100
AcDbArc
 50
342.7957724960985
 51
347.2042275040536
  0
ARC
  5
B0E85
330
18
100
AcDbEntity
  8
実線
100
AcDbCircle
 10
5752.632096874575
 20
-1452.128392433228
 30
0.0
 40
0.83000019153839
100
AcDbArc
 50
102.7957724960876
 51
107.2042275039615
  0
ARC
  5
B0E86
330
18
100
AcDbEntity
  8
実線
100
AcDbCircle
 10
5752.632096874575
 20
-1452.128392433228
 30
0.0
 40
0.83000019153839
100
AcDbArc
 50
42.79577249610784
 51
47.20422750422487
  0
ARC
  5
B0E87
330
18
100
AcDbEntity
  8
実線
100
AcDbCircle
 10
5752.879965940351
 20
-1451.203332486116
 30
0.0
 40
0.446923180059133
100
AcDbArc
 50
195.0000000001604
 51
315.0000000002679
  0
ARC
  5
B0E88
330
18
100
AcDbEntity
  8
実線
100
AcDbCircle
 10
5753.55715682169
 20
-1451.880523367448
 30
0.0
 40
0.446923180059133
100
AcDbArc
 50
135.0000000002679
 51
255.0000000001513
  0
CIRCLE
  5
B0E89
330
18
100
AcDbEntity
  8
実線
100
AcDbCircle
 10
5752.632097010013
 20
-1452.128392297791
 30
0.0
 40
0.8300000957683895
  0
CIRCLE
  5
B0E8B
330
18
100
AcDbEntity
  8
実線
100
AcDbCircle
 10
5830.413842940533
 20
-1452.12839229779
 30
0.0
 40
3.5
  0
CIRCLE
  5
B0E8C
330
18
100
AcDbEntity
  8
実線
100
AcDbCircle
 10
5830.413842940533
 20
-1452.12839229779
 30
0.0
 40
2.858333333333338
  0
ARC
  5
B0E8D
330
18
100
AcDbEntity
  8
実線
100
AcDbCircle
 10
5831.338903023084
 20
-1452.376261499006
 30
0.0
 40
0.446923180059133
100
AcDbArc
 50
105.000000000089
 51
225.000000000371
  0
ARC
  5
B0E8E
330
18
100
AcDbEntity
  8
実線
100
AcDbCircle
 10
5829.736652194638
 20
-1452.805583314562
 30
0.0
 40
0.446923180059133
100
AcDbArc
 50
345.0000000000386
 51
104.9999999999689
  0
ARC
  5
B0E8F
330
18
100
AcDbEntity
  8
実線
100
AcDbCircle
 10
5830.41384307597
 20
-1452.128392433228
 30
0.0
 40
0.83000019153839
100
AcDbArc
 50
312.7957724961194
 51
317.2042275041583
  0
ARC
  5
B0E90
330
18
100
AcDbEntity
  8
実線
100
AcDbCircle
 10
5830.41384307597
 20
-1452.128392433228
 30
0.0
 40
0.83000019153839
100
AcDbArc
 50
252.7957724961031
 51
257.2042275041066
  0
ARC
  5
B0E91
330
18
100
AcDbEntity
  8
実線
100
AcDbCircle
 10
5830.661712141752
 20
-1453.053452380337
 30
0.0
 40
0.446923180059133
100
AcDbArc
 50
45.00000000006184
 51
165.0000000002639
  0
ARC
  5
B0E92
330
18
100
AcDbEntity
  8
実線
100
AcDbCircle
 10
5830.41384307597
 20
-1452.128392433228
 30
0.0
 40
0.83000019153839
100
AcDbArc
 50
12.79577249614533
 51
17.20422750396152
  0
ARC
  5
B0E93
330
18
100
AcDbEntity
  8
実線
100
AcDbCircle
 10
5831.091033957303
 20
-1451.451201551892
 30
0.0
 40
0.446923180059133
100
AcDbArc
 50
165.0000000000105
 51
285.0000000002168
  0
ARC
  5
B0E94
330
18
100
AcDbEntity
  8
実線
100
AcDbCircle
 10
5830.41384307597
 20
-1452.128392433228
 30
0.0
 40
0.83000019153839
100
AcDbArc
 50
72.79577249610309
 51
77.20422750404181
  0
ARC
  5
B0E95
330
18
100
AcDbEntity
  8
実線
100
AcDbCircle
 10
5830.41384307597
 20
-1452.128392433228
 30
0.0
 40
0.83000019153839
100
AcDbArc
 50
192.7957724960841
 51
197.2042275039615
  0
ARC
  5
B0E96
330
18
100
AcDbEntity
  8
実線
100
AcDbCircle
 10
5830.41384307597
 20
-1452.128392433228
 30
0.0
 40
0.83000019153839
100
AcDbArc
 50
132.7957724960413
 51
137.2042275041698
  0
ARC
  5
B0E97
330
18
100
AcDbEntity
  8
実線
100
AcDbCircle
 10
5829.488783128859
 20
-1451.880523367452
 30
0.0
 40
0.446923180059133
100
AcDbArc
 50
285.000000000089
 51
45.00000000022672
  0
ARC
  5
B0E98
330
18
100
AcDbEntity
  8
実線
100
AcDbCircle
 10
5830.16597401019
 20
-1451.203332486113
 30
0.0
 40
0.446923180059133
100
AcDbArc
 50
225.0000000002267
 51
345.0000000001513
  0
CIRCLE
  5
B0E99
330
18
100
AcDbEntity
  8
実線
100
AcDbCircle
 10
5830.413842940533
 20
-1452.12839229779
 30
0.0
 40
0.8300000957683895
  0
LINE
  5
B105B
330
18
100
AcDbEntity
  8
実線
100
AcDbLine
 10
5579.110230741128
 20
-1503.237519332525
 30
0.0
 11
5631.810230770932
 21
-1503.237519332524
 31
0.0
  0
ARC
  5
B105C
330
18
100
AcDbEntity
  8
実線
 48
2.0
100
AcDbCircle
 10
5576.410230797032
 20
-1364.937518915226
 30
0.0
 40
0.4000000000000057
100
AcDbArc
 50
270.0
 51
0.0
  0
ARC
  5
B105D
330
18
100
AcDbEntity
  8
実線
 48
2.0
100
AcDbCircle
 10
5576.410230797032
 20
-1461.537519749825
 30
0.0
 40
0.4000000000000057
100
AcDbArc
 50
0.0
 51
90.0
  0
LINE
  5
B105E
330
18
100
AcDbEntity
  8
実線
100
AcDbLine
 10
5578.110230741131
 20
-1483.782691356013
 30
0.0
 11
5578.110230741131
 21
-1490.782691356013
 31
0.0
  0
LINE
  5
B105F
330
18
100
AcDbEntity
  8
実線
100
AcDbLine
 10
5577.610230741131
 20
-1483.782691356013
 30
0.0
 11
5577.310230741129
 21
-1484.832691356012
 31
0.0
  0
LINE
  5
B1060
330
18
100
AcDbEntity
  8
実線
100
AcDbLine
 10
5577.610230741131
 20
-1483.782691356013
 30
0.0
 11
5578.110230741131
 21
-1483.782691356013
 31
0.0
  0
LINE
  5
B1061
330
18
100
AcDbEntity
  8
実線
100
AcDbLine
 10
5577.610230741131
 20
-1490.782691356013
 30
0.0
 11
5578.110230741131
 21
-1490.782691356013
 31
0.0
  0
LINE
  5
B1062
330
18
100
AcDbEntity
  8
実線
100
AcDbLine
 10
5577.610230741131
 20
-1490.782691356013
 30
0.0
 11
5577.310230741129
 21
-1489.732691356014
 31
0.0
  0
LINE
  5
B1063
330
18
100
AcDbEntity
  8
実線
100
AcDbLine
 10
5577.610230741131
 20
-1483.782691356013
 30
0.0
 11
5577.610230741131
 21
-1490.782691356013
 31
0.0
  0
LINE
  5
B1064
330
18
100
AcDbEntity
  8
実線
100
AcDbLine
 10
5577.310230741129
 20
-1484.832691356012
 30
0.0
 11
5577.310230741129
 21
-1489.732691356014
 31
0.0
  0
LINE
  5
B1065
330
18
100
AcDbEntity
  8
実線
100
AcDbLine
 10
5578.110230741131
 20
-1335.692347309036
 30
0.0
 11
5578.110230741131
 21
-1342.692347309036
 31
0.0
  0
LINE
  5
B1066
330
18
100
AcDbEntity
  8
実線
100
AcDbLine
 10
5577.610230741131
 20
-1335.692347309036
 30
0.0
 11
5577.310230741129
 21
-1336.742347309035
 31
0.0
  0
LINE
  5
B1067
330
18
100
AcDbEntity
  8
実線
100
AcDbLine
 10
5577.610230741131
 20
-1335.692347309036
 30
0.0
 11
5578.110230741131
 21
-1335.692347309036
 31
0.0
  0
LINE
  5
B1068
330
18
100
AcDbEntity
  8
実線
100
AcDbLine
 10
5577.610230741131
 20
-1342.692347309036
 30
0.0
 11
5578.110230741131
 21
-1342.692347309036
 31
0.0
  0
LINE
  5
B1069
330
18
100
AcDbEntity
  8
実線
100
AcDbLine
 10
5577.610230741131
 20
-1342.692347309036
 30
0.0
 11
5577.310230741129
 21
-1341.642347309036
 31
0.0
  0
LINE
  5
B106A
330
18
100
AcDbEntity
  8
実線
100
AcDbLine
 10
5577.610230741131
 20
-1335.692347309036
 30
0.0
 11
5577.610230741131
 21
-1342.692347309036
 31
0.0
  0
LINE
  5
B106B
330
18
100
AcDbEntity
  8
実線
100
AcDbLine
 10
5577.310230741129
 20
-1336.742347309035
 30
0.0
 11
5577.310230741129
 21
-1341.642347309036
 31
0.0
  0
LINE
  5
B106C
330
18
100
AcDbEntity
  8
実線
100
AcDbLine
 10
5611.810230770932
 20
-1336.151528387341
 30
0.0
 11
5631.810230770932
 21
-1336.151528387341
 31
0.0
  0
LINE
  5
B106D
330
18
100
AcDbEntity
  8
実線
100
AcDbLine
 10
5611.810230770932
 20
-1490.323510277695
 30
0.0
 11
5631.810230770932
 21
-1490.323510277695
 31
0.0
  0
LINE
  5
B106E
330
18
100
AcDbEntity
  8
実線
100
AcDbLine
 10
5574.010230770932
 20
-1365.837518915224
 30
0.0
 11
5574.510230770933
 21
-1365.337518915225
 31
0.0
  0
LINE
  5
B106F
330
18
100
AcDbEntity
  8
実線
100
AcDbLine
 10
5574.510230770936
 20
-1461.137519749822
 30
0.0
 11
5574.010230770936
 21
-1460.637519749822
 31
0.0
  0
LINE
  5
B1070
330
18
100
AcDbEntity
  8
実線
100
AcDbLine
 10
5579.110230741128
 20
-1503.237519332525
 30
0.0
 11
5578.610230741127
 21
-1502.737519332525
 31
0.0
  0
LINE
  5
B1071
330
18
100
AcDbEntity
  8
実線
100
AcDbLine
 10
5579.110230741129
 20
-1323.237515756344
 30
0.0
 11
5578.610230741129
 21
-1323.737515756346
 31
0.0
  0
LINE
  5
B1072
330
18
100
AcDbEntity
  8
CENTER
100
AcDbLine
 10
5581.110230741128
 20
-1370.237519332475
 30
0.0
 11
5571.310230770933
 21
-1370.237519332475
 31
0.0
  0
LINE
  5
B1073
330
18
100
AcDbEntity
  8
実線
100
AcDbLine
 10
5578.110230741131
 20
-1463.237520077521
 30
0.0
 11
5576.810230797031
 21
-1463.237520077522
 31
0.0
  0
LINE
  5
B1074
330
18
100
AcDbEntity
  8
実線
100
AcDbLine
 10
5576.410230797032
 20
-1461.137519749824
 30
0.0
 11
5574.510230770936
 21
-1461.137519749823
 31
0.0
  0
LINE
  5
B1075
330
18
100
AcDbEntity
  8
CENTER
100
AcDbLine
 10
5581.110230741128
 20
-1456.237519332573
 30
0.0
 11
5571.310230770937
 21
-1456.237519332573
 31
0.0
  0
LINE
  5
B1076
330
18
100
AcDbEntity
  8
実線
100
AcDbLine
 10
5574.010230770936
 20
-1460.637519749822
 30
0.0
 11
5574.010230770932
 21
-1365.837518915224
 31
0.0
  0
LINE
  5
B1077
330
18
100
AcDbEntity
  8
実線
100
AcDbLine
 10
5631.810230770932
 20
-1373.237518438422
 30
0.0
 11
5631.810230770932
 21
-1323.23751575622
 31
0.0
  0
LINE
  5
B1078
330
18
100
AcDbEntity
  8
CENTER
100
AcDbLine
 10
5636.810230770931
 20
-1413.237519332524
 30
0.0
 11
5561.361235433832
 21
-1413.237519332524
 31
0.0
  0
LINE
  5
B1079
330
18
100
AcDbEntity
  8
実線
100
AcDbLine
 10
5579.110230741129
 20
-1323.237515756344
 30
0.0
 11
5631.810230770934
 21
-1323.23751575622
 31
0.0
  0
LINE
  5
B107A
330
18
100
AcDbEntity
  8
実線
100
AcDbLine
 10
5576.410230797032
 20
-1365.337518915225
 30
0.0
 11
5574.510230770933
 21
-1365.337518915225
 31
0.0
  0
LINE
  5
B107B
330
18
100
AcDbEntity
  8
実線
100
AcDbLine
 10
5576.810230797031
 20
-1363.237518587526
 30
0.0
 11
5576.810230797031
 21
-1463.237520077522
 31
0.0
  0
LINE
  5
B107C
330
18
100
AcDbEntity
  8
実線
100
AcDbLine
 10
5578.110230741131
 20
-1363.237518587528
 30
0.0
 11
5576.810230797031
 21
-1363.237518587526
 31
0.0
  0
LINE
  5
B107D
330
18
100
AcDbEntity
  8
実線
100
AcDbLine
 10
5578.610230741127
 20
-1502.737519332525
 30
0.0
 11
5578.610230741129
 21
-1323.737515756346
 31
0.0
  0
LINE
  5
B107E
330
18
100
AcDbEntity
  8
実線
100
AcDbLine
 10
5578.110230741131
 20
-1324.237519332526
 30
0.0
 11
5578.110230741131
 21
-1501.737519332523
 31
0.0
  0
LINE
  5
B107F
330
18
100
AcDbEntity
  8
実線
100
AcDbLine
 10
5578.110230741131
 20
-1501.737519332523
 30
0.0
 11
5578.610230741131
 21
-1501.737519332523
 31
0.0
  0
LINE
  5
B1080
330
18
100
AcDbEntity
  8
実線
100
AcDbLine
 10
5578.110230741131
 20
-1324.237519332526
 30
0.0
 11
5578.610230741131
 21
-1324.237519332526
 31
0.0
  0
LINE
  5
B1081
330
18
100
AcDbEntity
  8
実線
100
AcDbLine
 10
5611.810230770932
 20
-1503.237519332524
 30
0.0
 11
5611.810230770932
 21
-1323.23751575622
 31
0.0
  0
LINE
  5
B10E0
330
18
100
AcDbEntity
  8
実線
100
AcDbLine
 10
5631.510229611633
 20
-1373.237518438422
 30
0.0
 11
5631.510229611633
 21
-1453.237516650322
 31
0.0
  0
LINE
  5
B10E1
330
18
100
AcDbEntity
  8
実線
100
AcDbLine
 10
5631.810229102033
 20
-1453.237516650322
 30
0.0
 11
5631.510229611633
 21
-1453.237516650322
 31
0.0
  0
LINE
  5
B10E2
330
18
100
AcDbEntity
  8
実線
100
AcDbLine
 10
5631.510229611633
 20
-1373.237518438422
 30
0.0
 11
5631.810229102033
 21
-1373.237518438422
 31
0.0
  0
LINE
  5
B10E3
330
18
100
AcDbEntity
  8
実線
100
AcDbLine
 10
5631.810230770932
 20
-1503.237519332524
 30
0.0
 11
5631.810230770932
 21
-1453.237516650322
 31
0.0
  0
LINE
  5
B10EF
330
18
100
AcDbEntity
  8
CENTER
100
AcDbLine
 10
5629.310230770933
 20
-1340.759072472749
 30
0.0
 11
5634.310230770932
 21
-1340.759072472749
 31
0.0
  0
LINE
  5
B1120
330
18
100
AcDbEntity
  8
CENTER
100
AcDbLine
 10
5629.310230770933
 20
-1485.7159661923
 30
0.0
 11
5634.310230770932
 21
-1485.7159661923
 31
0.0
  0
LINE
  5
B1B04
330
18
100
AcDbEntity
  8
実線
100
AcDbLine
 10
5279.597491566596
 20
-1641.237519332518
 30
0.0
 11
5336.097491566595
 21
-1641.237519332518
 31
0.0
  0
LINE
  5
B1B05
330
18
100
AcDbEntity
  8
CENTER
100
AcDbLine
 10
5376.097491566595
 20
-1578.237519332518
 30
0.0
 11
5376.097491566595
 21
-1646.237519332518
 31
0.0
  0
LINE
  5
B1B06
330
18
100
AcDbEntity
  8
実線
100
AcDbLine
 10
5466.097491566596
 20
-1588.037519332518
 30
0.0
 11
5466.097491566596
 21
-1641.237519332518
 31
0.0
  0
LINE
  5
B1B07
330
18
100
AcDbEntity
  8
実線
100
AcDbLine
 10
5279.597491566596
 20
-1588.037519332518
 30
0.0
 11
5279.597491566596
 21
-1641.237519332518
 31
0.0
  0
LINE
  5
B1B0E
330
18
100
AcDbEntity
  8
実線
100
AcDbLine
 10
5336.097491566595
 20
-1640.937519332518
 30
0.0
 11
5336.097491566595
 21
-1641.237519332518
 31
0.0
  0
LINE
  5
B1B0F
330
18
100
AcDbEntity
  8
実線
100
AcDbLine
 10
5416.097491566596
 20
-1640.937519332518
 30
0.0
 11
5416.097491566596
 21
-1641.237519332518
 31
0.0
  0
LINE
  5
B1B10
330
18
100
AcDbEntity
  8
実線
100
AcDbLine
 10
5336.097491566595
 20
-1640.937519332518
 30
0.0
 11
5416.097491566596
 21
-1640.937519332518
 31
0.0
  0
LINE
  5
B1B11
330
18
100
AcDbEntity
  8
実線
100
AcDbLine
 10
5416.097491566596
 20
-1641.237519332518
 30
0.0
 11
5466.097491566596
 21
-1641.237519332518
 31
0.0
  0
LINE
  5
B1B12
330
18
100
AcDbEntity
  8
CENTER
100
AcDbLine
 10
5277.097491566596
 20
-1630.237519332518
 30
0.0
 11
5282.097491566595
 21
-1630.237519332518
 31
0.0
  0
LINE
  5
B1B13
330
18
100
AcDbEntity
  8
CENTER
100
AcDbLine
 10
5277.097491566596
 20
-1601.237519332518
 30
0.0
 11
5282.097491566595
 21
-1601.237519332518
 31
0.0
  0
LINE
  5
B1B96
330
18
100
AcDbEntity
  8
実線
100
AcDbLine
 10
5423.997491566595
 20
-1583.937519332518
 30
0.0
 11
5423.997491566595
 21
-1585.837519332518
 31
0.0
  0
LINE
  5
B1B97
330
18
100
AcDbEntity
  8
実線
100
AcDbLine
 10
5328.197491566597
 20
-1583.937519332518
 30
0.0
 11
5328.197491566596
 21
-1585.837519332518
 31
0.0
  0
LINE
  5
B1B98
330
18
100
AcDbEntity
  8
実線
100
AcDbLine
 10
5326.097491566596
 20
-1586.237519332518
 30
0.0
 11
5326.097491566596
 21
-1587.537519332517
 31
0.0
  0
LINE
  5
B1B9B
330
18
100
AcDbEntity
  8
実線
100
AcDbLine
 10
5326.097491566596
 20
-1586.237519332518
 30
0.0
 11
5426.097491566595
 21
-1586.237519332518
 31
0.0
  0
LINE
  5
B1B9D
330
18
100
AcDbEntity
  8
実線
100
AcDbLine
 10
5328.697491566596
 20
-1583.437519332518
 30
0.0
 11
5423.497491566595
 21
-1583.437519332518
 31
0.0
  0
LINE
  5
B1B9E
330
18
100
AcDbEntity
  8
実線
100
AcDbLine
 10
5426.097491566595
 20
-1586.237519332518
 30
0.0
 11
5426.097491566595
 21
-1587.537519332517
 31
0.0
  0
LINE
  5
B1BE9
330
18
100
AcDbEntity
  8
CENTER
100
AcDbLine
 10
5333.097491566595
 20
-1580.737519332518
 30
0.0
 11
5333.097491566595
 21
-1590.537519332517
 31
0.0
  0
LINE
  5
B1BF4
330
18
100
AcDbEntity
  8
CENTER
100
AcDbLine
 10
5419.097491566592
 20
-1580.737519332518
 30
0.0
 11
5419.097491566592
 21
-1590.537519332517
 31
0.0
  0
LINE
  5
B1EC2
330
18
100
AcDbEntity
  8
実線
100
AcDbLine
 10
5281.097491566596
 20
-1587.537519332517
 30
0.0
 11
5281.097491566596
 21
-1588.037519332518
 31
0.0
  0
LINE
  5
B1EC3
330
18
100
AcDbEntity
  8
実線
100
AcDbLine
 10
5465.097491566595
 20
-1587.537519332517
 30
0.0
 11
5465.097491566595
 21
-1588.037519332518
 31
0.0
  0
LINE
  5
B1EC6
330
18
100
AcDbEntity
  8
実線
100
AcDbLine
 10
5279.597491566596
 20
-1588.037519332518
 30
0.0
 11
5466.097491566596
 21
-1588.037519332518
 31
0.0
  0
LINE
  5
B1EC9
330
18
100
AcDbEntity
  8
実線
100
AcDbLine
 10
5281.097491566596
 20
-1587.537519332517
 30
0.0
 11
5465.097491566595
 21
-1587.537519332517
 31
0.0
  0
LINE
  5
B1F0A
330
18
100
AcDbEntity
  8
実線
 48
0.1
100
AcDbLine
 10
5274.597491566595
 20
-1596.474379611705
 30
0.0
 11
5279.597491566592
 21
-1596.474379611703
 31
0.0
  0
LINE
  5
B1F0B
330
18
100
AcDbEntity
  8
実線
 48
0.1
100
AcDbLine
 10
5274.597491566595
 20
-1597.77341771738
 30
0.0
 11
5279.597491566592
 21
-1597.77341771738
 31
0.0
  0
LINE
  5
B1F0C
330
18
100
AcDbEntity
  8
実線
 48
0.1
100
AcDbLine
 10
5274.597491566591
 20
-1604.701620947656
 30
0.0
 11
5279.597491566596
 21
-1604.701620947656
 31
0.0
  0
LINE
  5
B1F0D
330
18
100
AcDbEntity
  8
実線
 48
0.1
100
AcDbLine
 10
5274.597491566591
 20
-1606.000659053331
 30
0.0
 11
5279.597491566596
 21
-1606.000659053331
 31
0.0
  0
LINE
  5
B1F0E
330
18
100
AcDbEntity
  8
実線
100
AcDbLine
 10
5274.597491566595
 20
-1593.010277996567
 30
0.0
 11
5279.597491566592
 21
-1593.010277996567
 31
0.0
  0
LINE
  5
B1F0F
330
18
100
AcDbEntity
  8
実線
100
AcDbLine
 10
5274.597491566591
 20
-1609.46476066847
 30
0.0
 11
5279.597491566596
 21
-1609.46476066847
 31
0.0
  0
LINE
  5
B1F10
330
18
100
AcDbEntity
  8
実線
100
AcDbLine
 10
5262.664478864701
 20
-1609.464760668472
 30
0.0
 11
5270.597491566592
 21
-1609.464760668472
 31
0.0
  0
LINE
  5
B1F11
330
18
100
AcDbEntity
  8
実線
100
AcDbLine
 10
5262.664478864701
 20
-1593.010277996567
 30
0.0
 11
5270.597491566595
 21
-1593.010277996567
 31
0.0
  0
LINE
  5
B1F12
330
18
100
AcDbEntity
  8
実線
 48
0.1
100
AcDbLine
 10
5262.097491566596
 20
-1596.474379611705
 30
0.0
 11
5270.597491566595
 21
-1596.474379611705
 31
0.0
  0
LINE
  5
B1F13
330
18
100
AcDbEntity
  8
実線
 48
0.1
100
AcDbLine
 10
5262.097491566596
 20
-1597.77341771738
 30
0.0
 11
5270.597491566595
 21
-1597.77341771738
 31
0.0
  0
LINE
  5
B1F14
330
18
100
AcDbEntity
  8
実線
 48
0.1
100
AcDbLine
 10
5262.097491566596
 20
-1606.000659053333
 30
0.0
 11
5270.597491566592
 21
-1606.000659053331
 31
0.0
  0
LINE
  5
B1F15
330
18
100
AcDbEntity
  8
実線
 48
0.1
100
AcDbLine
 10
5262.097491566596
 20
-1604.701620947658
 30
0.0
 11
5270.597491566592
 21
-1604.701620947656
 31
0.0
  0
LINE
  5
B1F16
330
18
100
AcDbEntity
  8
実線
100
AcDbLine
 10
5262.432428057133
 20
-1593.242328804137
 30
0.0
 11
5270.597491566595
 21
-1593.242328804137
 31
0.0
  0
LINE
  5
B1F17
330
18
100
AcDbEntity
  8
実線
100
AcDbLine
 10
5262.097491566596
 20
-1593.642328804136
 30
0.0
 11
5270.597491566595
 21
-1593.642328804136
 31
0.0
  0
LINE
  5
B1F18
330
18
100
AcDbEntity
  8
実線
100
AcDbLine
 10
5262.097491566596
 20
-1595.842328804135
 30
0.0
 11
5270.597491566595
 21
-1595.842328804135
 31
0.0
  0
LINE
  5
B1F19
330
18
100
AcDbEntity
  8
実線
100
AcDbLine
 10
5262.097491566596
 20
-1596.242328804137
 30
0.0
 11
5270.597491566595
 21
-1596.242328804137
 31
0.0
  0
LINE
  5
B1F1A
330
18
100
AcDbEntity
  8
実線
100
AcDbLine
 10
5262.432428057133
 20
-1609.2327098609
 30
0.0
 11
5270.597491566595
 21
-1609.232709860901
 31
0.0
  0
LINE
  5
B1F1B
330
18
100
AcDbEntity
  8
実線
100
AcDbLine
 10
5262.097491566596
 20
-1608.832709860902
 30
0.0
 11
5270.597491566595
 21
-1608.832709860902
 31
0.0
  0
LINE
  5
B1F1C
330
18
100
AcDbEntity
  8
実線
100
AcDbLine
 10
5262.097491566596
 20
-1606.632709860901
 30
0.0
 11
5270.597491566595
 21
-1606.632709860901
 31
0.0
  0
LINE
  5
B1F1D
330
18
100
AcDbEntity
  8
実線
100
AcDbLine
 10
5262.097491566596
 20
-1606.232709860903
 30
0.0
 11
5270.597491566595
 21
-1606.232709860902
 31
0.0
  0
LINE
  5
B1F1E
330
18
100
AcDbEntity
  8
実線
100
AcDbLine
 10
5262.097491566596
 20
-1598.23751933252
 30
0.0
 11
5270.597491566595
 21
-1598.23751933252
 31
0.0
  0
LINE
  5
B1F1F
330
18
100
AcDbEntity
  8
実線
100
AcDbLine
 10
5262.097491566596
 20
-1604.237519332518
 30
0.0
 11
5270.597491566595
 21
-1604.237519332518
 31
0.0
  0
LINE
  5
B1F20
330
18
100
AcDbEntity
  8
実線
100
AcDbLine
 10
5262.097491566596
 20
-1599.037519332519
 30
0.0
 11
5270.597491566592
 21
-1599.037519332519
 31
0.0
  0
LINE
  5
B1F21
330
18
100
AcDbEntity
  8
実線
100
AcDbLine
 10
5262.097491566596
 20
-1603.437519332519
 30
0.0
 11
5270.597491566595
 21
-1603.437519332519
 31
0.0
  0
LINE
  5
B1F22
330
18
100
AcDbEntity
  8
実線
100
AcDbLine
 10
5262.097491566596
 20
-1593.577265294674
 30
0.0
 11
5262.664478864701
 21
-1593.010277996567
 31
0.0
  0
LINE
  5
B1F23
330
18
100
AcDbEntity
  8
実線
100
AcDbLine
 10
5262.097491566596
 20
-1608.897773370363
 30
0.0
 11
5262.664478864701
 21
-1609.464760668472
 31
0.0
  0
ARC
  5
B1F24
330
18
100
AcDbEntity
  8
実線
100
AcDbCircle
 10
5261.597491566592
 20
-1597.737519332518
 30
0.0
 40
4.0
100
AcDbArc
 50
90.0
 51
180.0
  0
ARC
  5
B1F25
330
18
100
AcDbEntity
  8
実線
100
AcDbCircle
 10
5261.597491566592
 20
-1604.737519332518
 30
0.0
 40
4.0
100
AcDbArc
 50
180.0
 51
270.0
  0
LINE
  5
B1F26
330
18
100
AcDbEntity
  8
実線
100
AcDbLine
 10
5262.097491566592
 20
-1593.737519332518
 30
0.0
 11
5261.597491566592
 21
-1593.737519332518
 31
0.0
  0
LINE
  5
B1F27
330
18
100
AcDbEntity
  8
実線
100
AcDbLine
 10
5262.097491566596
 20
-1608.737519332518
 30
0.0
 11
5261.597491566592
 21
-1608.737519332518
 31
0.0
  0
LINE
  5
B1F28
330
18
100
AcDbEntity
  8
実線
100
AcDbLine
 10
5262.097491566596
 20
-1608.897773370363
 30
0.0
 11
5262.097491566596
 21
-1593.577265294674
 31
0.0
  0
LINE
  5
B1F29
330
18
100
AcDbEntity
  8
実線
100
AcDbLine
 10
5274.597491566591
 20
-1594.737519332518
 30
0.0
 11
5270.597491566595
 21
-1594.737519332518
 31
0.0
  0
LINE
  5
B1F2A
330
18
100
AcDbEntity
  8
実線
100
AcDbLine
 10
5274.597491566595
 20
-1607.737519332518
 30
0.0
 11
5270.597491566595
 21
-1607.737519332518
 31
0.0
  0
LINE
  5
B1F2B
330
18
100
AcDbEntity
  8
実線
100
AcDbLine
 10
5270.597491566592
 20
-1609.464760668472
 30
0.0
 11
5270.597491566595
 21
-1593.010277996567
 31
0.0
  0
LINE
  5
B1F2C
330
18
100
AcDbEntity
  8
実線
100
AcDbLine
 10
5257.597491566592
 20
-1604.737519332518
 30
0.0
 11
5257.597491566592
 21
-1597.737519332518
 31
0.0
  0
LINE
  5
B1F2D
330
18
100
AcDbEntity
  8
実線
100
AcDbLine
 10
5274.597491566591
 20
-1609.46476066847
 30
0.0
 11
5274.597491566595
 21
-1593.010277996567
 31
0.0
  0
LINE
  5
B1F31
330
18
100
AcDbEntity
  8
実線
100
AcDbLine
 10
5279.597491566596
 20
-1609.464760668472
 30
0.0
 11
5279.597491566596
 21
-1593.010277996567
 31
0.0
  0
LINE
  5
B1F35
330
18
100
AcDbEntity
  8
CENTER
100
AcDbLine
 10
5282.097491566595
 20
-1601.237519332518
 30
0.0
 11
5255.097491566592
 21
-1601.237519332518
 31
0.0
  0
LINE
  5
B1F36
330
18
100
AcDbEntity
  8
実線
 48
0.1
100
AcDbLine
 10
5274.597491566595
 20
-1625.474379611705
 30
0.0
 11
5279.597491566592
 21
-1625.474379611703
 31
0.0
  0
LINE
  5
B1F37
330
18
100
AcDbEntity
  8
実線
 48
0.1
100
AcDbLine
 10
5274.597491566595
 20
-1626.77341771738
 30
0.0
 11
5279.597491566592
 21
-1626.77341771738
 31
0.0
  0
LINE
  5
B1F38
330
18
100
AcDbEntity
  8
実線
 48
0.1
100
AcDbLine
 10
5274.597491566591
 20
-1633.701620947656
 30
0.0
 11
5279.597491566596
 21
-1633.701620947656
 31
0.0
  0
LINE
  5
B1F39
330
18
100
AcDbEntity
  8
実線
 48
0.1
100
AcDbLine
 10
5274.597491566591
 20
-1635.000659053332
 30
0.0
 11
5279.597491566596
 21
-1635.000659053332
 31
0.0
  0
LINE
  5
B1F3A
330
18
100
AcDbEntity
  8
実線
100
AcDbLine
 10
5274.597491566595
 20
-1622.010277996567
 30
0.0
 11
5279.597491566592
 21
-1622.010277996567
 31
0.0
  0
LINE
  5
B1F3B
330
18
100
AcDbEntity
  8
実線
100
AcDbLine
 10
5274.597491566591
 20
-1638.46476066847
 30
0.0
 11
5279.597491566596
 21
-1638.46476066847
 31
0.0
  0
LINE
  5
B1F3C
330
18
100
AcDbEntity
  8
実線
100
AcDbLine
 10
5262.664478864701
 20
-1638.464760668471
 30
0.0
 11
5270.597491566592
 21
-1638.464760668471
 31
0.0
  0
LINE
  5
B1F3D
330
18
100
AcDbEntity
  8
実線
100
AcDbLine
 10
5262.664478864701
 20
-1622.010277996567
 30
0.0
 11
5270.597491566595
 21
-1622.010277996567
 31
0.0
  0
LINE
  5
B1F3E
330
18
100
AcDbEntity
  8
実線
 48
0.1
100
AcDbLine
 10
5262.097491566596
 20
-1625.474379611705
 30
0.0
 11
5270.597491566595
 21
-1625.474379611705
 31
0.0
  0
LINE
  5
B1F3F
330
18
100
AcDbEntity
  8
実線
 48
0.1
100
AcDbLine
 10
5262.097491566596
 20
-1626.77341771738
 30
0.0
 11
5270.597491566595
 21
-1626.77341771738
 31
0.0
  0
LINE
  5
B1F40
330
18
100
AcDbEntity
  8
実線
 48
0.1
100
AcDbLine
 10
5262.097491566596
 20
-1635.000659053333
 30
0.0
 11
5270.597491566592
 21
-1635.000659053332
 31
0.0
  0
LINE
  5
B1F41
330
18
100
AcDbEntity
  8
実線
 48
0.1
100
AcDbLine
 10
5262.097491566596
 20
-1633.701620947658
 30
0.0
 11
5270.597491566592
 21
-1633.701620947656
 31
0.0
  0
LINE
  5
B1F42
330
18
100
AcDbEntity
  8
実線
100
AcDbLine
 10
5262.432428057133
 20
-1622.242328804137
 30
0.0
 11
5270.597491566595
 21
-1622.242328804137
 31
0.0
  0
LINE
  5
B1F43
330
18
100
AcDbEntity
  8
実線
100
AcDbLine
 10
5262.097491566596
 20
-1622.642328804136
 30
0.0
 11
5270.597491566595
 21
-1622.642328804136
 31
0.0
  0
LINE
  5
B1F44
330
18
100
AcDbEntity
  8
実線
100
AcDbLine
 10
5262.097491566596
 20
-1624.842328804135
 30
0.0
 11
5270.597491566595
 21
-1624.842328804135
 31
0.0
  0
LINE
  5
B1F45
330
18
100
AcDbEntity
  8
実線
100
AcDbLine
 10
5262.097491566596
 20
-1625.242328804137
 30
0.0
 11
5270.597491566595
 21
-1625.242328804137
 31
0.0
  0
LINE
  5
B1F46
330
18
100
AcDbEntity
  8
実線
100
AcDbLine
 10
5262.432428057133
 20
-1638.2327098609
 30
0.0
 11
5270.597491566595
 21
-1638.232709860902
 31
0.0
  0
LINE
  5
B1F47
330
18
100
AcDbEntity
  8
実線
100
AcDbLine
 10
5262.097491566596
 20
-1637.832709860902
 30
0.0
 11
5270.597491566595
 21
-1637.832709860902
 31
0.0
  0
LINE
  5
B1F48
330
18
100
AcDbEntity
  8
実線
100
AcDbLine
 10
5262.097491566596
 20
-1635.632709860901
 30
0.0
 11
5270.597491566595
 21
-1635.632709860901
 31
0.0
  0
LINE
  5
B1F49
330
18
100
AcDbEntity
  8
実線
100
AcDbLine
 10
5262.097491566596
 20
-1635.232709860903
 30
0.0
 11
5270.597491566595
 21
-1635.232709860902
 31
0.0
  0
LINE
  5
B1F4A
330
18
100
AcDbEntity
  8
実線
100
AcDbLine
 10
5262.097491566596
 20
-1627.23751933252
 30
0.0
 11
5270.597491566595
 21
-1627.23751933252
 31
0.0
  0
LINE
  5
B1F4B
330
18
100
AcDbEntity
  8
実線
100
AcDbLine
 10
5262.097491566596
 20
-1633.237519332518
 30
0.0
 11
5270.597491566595
 21
-1633.237519332518
 31
0.0
  0
LINE
  5
B1F4C
330
18
100
AcDbEntity
  8
実線
100
AcDbLine
 10
5262.097491566596
 20
-1628.037519332519
 30
0.0
 11
5270.597491566592
 21
-1628.037519332519
 31
0.0
  0
LINE
  5
B1F4D
330
18
100
AcDbEntity
  8
実線
100
AcDbLine
 10
5262.097491566596
 20
-1632.437519332519
 30
0.0
 11
5270.597491566595
 21
-1632.437519332519
 31
0.0
  0
LINE
  5
B1F4E
330
18
100
AcDbEntity
  8
実線
100
AcDbLine
 10
5262.097491566596
 20
-1622.577265294674
 30
0.0
 11
5262.664478864701
 21
-1622.010277996567
 31
0.0
  0
LINE
  5
B1F4F
330
18
100
AcDbEntity
  8
実線
100
AcDbLine
 10
5262.097491566596
 20
-1637.897773370363
 30
0.0
 11
5262.664478864701
 21
-1638.464760668471
 31
0.0
  0
ARC
  5
B1F50
330
18
100
AcDbEntity
  8
実線
100
AcDbCircle
 10
5261.597491566592
 20
-1626.737519332518
 30
0.0
 40
4.0
100
AcDbArc
 50
90.0
 51
180.0
  0
ARC
  5
B1F51
330
18
100
AcDbEntity
  8
実線
100
AcDbCircle
 10
5261.597491566592
 20
-1633.737519332518
 30
0.0
 40
4.0
100
AcDbArc
 50
180.0
 51
270.0
  0
LINE
  5
B1F52
330
18
100
AcDbEntity
  8
実線
100
AcDbLine
 10
5262.097491566592
 20
-1622.737519332518
 30
0.0
 11
5261.597491566592
 21
-1622.737519332518
 31
0.0
  0
LINE
  5
B1F53
330
18
100
AcDbEntity
  8
実線
100
AcDbLine
 10
5262.097491566596
 20
-1637.737519332518
 30
0.0
 11
5261.597491566592
 21
-1637.737519332518
 31
0.0
  0
LINE
  5
B1F54
330
18
100
AcDbEntity
  8
実線
100
AcDbLine
 10
5262.097491566596
 20
-1637.897773370363
 30
0.0
 11
5262.097491566596
 21
-1622.577265294674
 31
0.0
  0
LINE
  5
B1F55
330
18
100
AcDbEntity
  8
実線
100
AcDbLine
 10
5274.597491566591
 20
-1623.737519332518
 30
0.0
 11
5270.597491566595
 21
-1623.737519332518
 31
0.0
  0
LINE
  5
B1F56
330
18
100
AcDbEntity
  8
実線
100
AcDbLine
 10
5274.597491566595
 20
-1636.737519332518
 30
0.0
 11
5270.597491566595
 21
-1636.737519332518
 31
0.0
  0
LINE
  5
B1F57
330
18
100
AcDbEntity
  8
実線
100
AcDbLine
 10
5270.597491566592
 20
-1638.464760668471
 30
0.0
 11
5270.597491566595
 21
-1622.010277996567
 31
0.0
  0
LINE
  5
B1F58
330
18
100
AcDbEntity
  8
実線
100
AcDbLine
 10
5257.597491566592
 20
-1633.737519332518
 30
0.0
 11
5257.597491566592
 21
-1626.737519332518
 31
0.0
  0
LINE
  5
B1F59
330
18
100
AcDbEntity
  8
実線
100
AcDbLine
 10
5274.597491566591
 20
-1638.46476066847
 30
0.0
 11
5274.597491566595
 21
-1622.010277996567
 31
0.0
  0
LINE
  5
B1F5D
330
18
100
AcDbEntity
  8
実線
100
AcDbLine
 10
5279.597491566596
 20
-1638.464760668471
 30
0.0
 11
5279.597491566596
 21
-1622.010277996567
 31
0.0
  0
LINE
  5
B1F61
330
18
100
AcDbEntity
  8
CENTER
100
AcDbLine
 10
5282.097491566595
 20
-1630.237519332518
 30
0.0
 11
5255.097491566592
 21
-1630.237519332518
 31
0.0
  0
LINE
  5
B1F69
330
18
100
AcDbEntity
  8
実線
100
AcDbLine
 10
5207.447491566594
 20
-1710.537519332521
 30
0.0
 11
5184.747491566593
 21
-1710.537519332521
 31
0.0
  0
LINE
  5
B1F6A
330
18
100
AcDbEntity
  8
実線
100
AcDbLine
 10
5199.397491566595
 20
-1681.73751933252
 30
0.0
 11
5192.797491566596
 21
-1681.73751933252
 31
0.0
  0
LWPOLYLINE
  5
B1F6B
330
18
100
AcDbEntity
  8
実線
100
AcDbPolyline
 90
        4
 70
   129
 43
0.0
 10
5184.747491566593
 20
-1698.537519332521
 10
5184.747491566593
 20
-1721.73751933252
 10
5207.447491566594
 20
-1721.73751933252
 10
5207.447491566594
 20
-1698.537519332521
  0
LINE
  5
B1F6C
330
18
100
AcDbEntity
  8
実線
100
AcDbLine
 10
5181.047491566596
 20
-1713.484887753573
 30
0.0
 11
5184.747491566593
 21
-1710.537519332521
 31
0.0
  0
LINE
  5
B1F6D
330
18
100
AcDbEntity
  8
実線
100
AcDbLine
 10
5194.547491566592
 20
-1681.73751933252
 30
0.0
 11
5192.911686564583
 21
-1698.537519332521
 31
0.0
  0
LINE
  5
B1F6E
330
18
100
AcDbEntity
  8
実線
100
AcDbLine
 10
5190.783686564586
 20
-1698.537519332521
 30
0.0
 11
5193.547491566593
 21
-1681.73751933252
 31
0.0
  0
LINE
  5
B1F6F
330
18
100
AcDbEntity
  8
実線
100
AcDbLine
 10
5195.039686564584
 20
-1698.537519332521
 30
0.0
 11
5195.547491566593
 21
-1681.73751933252
 31
0.0
  0
LINE
  5
B1F70
330
18
100
AcDbEntity
  8
実線
100
AcDbLine
 10
5211.147491566595
 20
-1713.484887753573
 30
0.0
 11
5207.447491566594
 21
-1710.537519332521
 31
0.0
  0
LINE
  5
B1F71
330
18
100
AcDbEntity
  8
実線
100
AcDbLine
 10
5198.547491566593
 20
-1681.73751933252
 30
0.0
 11
5201.423686564585
 21
-1698.537519332521
 31
0.0
  0
LINE
  5
B1F72
330
18
100
AcDbEntity
  8
実線
100
AcDbLine
 10
5199.295686564585
 20
-1698.537519332521
 30
0.0
 11
5197.547491566592
 21
-1681.73751933252
 31
0.0
  0
LINE
  5
B1F73
330
18
100
AcDbEntity
  8
実線
100
AcDbLine
 10
5196.547491566593
 20
-1681.73751933252
 30
0.0
 11
5197.167686564584
 21
-1698.537519332521
 31
0.0
  0
ARC
  5
B1F74
330
18
100
AcDbEntity
  8
実線
100
AcDbCircle
 10
5227.397491566595
 20
-1661.537519330642
 30
0.0
 40
28.0
100
AcDbArc
 50
90.0
 51
180.0
  0
ARC
  5
B1F75
330
18
100
AcDbEntity
  8
実線
100
AcDbCircle
 10
5227.397491566595
 20
-1661.537519330642
 30
0.0
 40
34.6
100
AcDbArc
 50
90.0
 51
180.0
  0
LINE
  5
B1F76
330
18
100
AcDbEntity
  8
実線
100
AcDbLine
 10
5257.597491566592
 20
-1633.537519330644
 30
0.0
 11
5227.397491566595
 21
-1633.537519330642
 31
0.0
  0
LINE
  5
B1F77
330
18
100
AcDbEntity
  8
実線
100
AcDbLine
 10
5257.597491566592
 20
-1626.937519330644
 30
0.0
 11
5227.397491566595
 21
-1626.937519330642
 31
0.0
  0
LINE
  5
B1F78
330
18
100
AcDbEntity
  8
実線
100
AcDbLine
 10
5192.797491566596
 20
-1661.537519330642
 30
0.0
 11
5192.797491566596
 21
-1670.63751933158
 31
0.0
  0
LINE
  5
B1F79
330
18
100
AcDbEntity
  8
実線
100
AcDbLine
 10
5199.397491566595
 20
-1661.537519330642
 30
0.0
 11
5199.397491566595
 21
-1670.63751933158
 31
0.0
  0
ARC
  5
B1F7A
330
18
100
AcDbEntity
  8
細線
100
AcDbCircle
 10
5197.747491566597
 20
-1675.110019331579
 30
0.0
 40
2.972499999998164
100
AcDbArc
 50
56.28320246454958
 51
123.716797535533
  0
ARC
  5
B1F7B
330
18
100
AcDbEntity
  8
細線
100
AcDbCircle
 10
5194.447491566598
 20
-1675.110019331579
 30
0.0
 40
2.972499999998164
100
AcDbArc
 50
56.28320246454958
 51
123.716797535533
  0
ARC
  5
B1F7C
330
18
100
AcDbEntity
  8
細線
100
AcDbCircle
 10
5194.447491566598
 20
-1670.165019331583
 30
0.0
 40
2.972499999998164
100
AcDbArc
 50
236.2832024644669
 51
303.7167975354504
  0
ARC
  5
B1F7D
330
18
100
AcDbEntity
  8
細線
100
AcDbCircle
 10
5194.447491566598
 20
-1668.165019331583
 30
0.0
 40
2.972499999998164
100
AcDbArc
 50
236.2832024644669
 51
303.7167975354504
  0
ARC
  5
B1F7E
330
18
100
AcDbEntity
  8
細線
100
AcDbCircle
 10
5197.747491566597
 20
-1668.165019331583
 30
0.0
 40
2.972499999998164
100
AcDbArc
 50
236.2832024644669
 51
303.7167975354504
  0
ARC
  5
B1F7F
330
18
100
AcDbEntity
  8
細線
100
AcDbCircle
 10
5197.747491566597
 20
-1673.110019331579
 30
0.0
 40
2.972499999998164
100
AcDbArc
 50
56.28320246454958
 51
123.716797535533
  0
LINE
  5
B1F80
330
18
100
AcDbEntity
  8
実線
100
AcDbLine
 10
5199.397491566595
 20
-1672.637519331581
 30
0.0
 11
5199.397491566595
 21
-1681.73751933252
 31
0.0
  0
LINE
  5
B1F81
330
18
100
AcDbEntity
  8
実線
100
AcDbLine
 10
5192.797491566596
 20
-1672.637519331581
 30
0.0
 11
5192.797491566596
 21
-1681.73751933252
 31
0.0
  0
LINE
  5
B1F84
330
18
100
AcDbEntity
  8
実線
 48
0.5
100
AcDbLine
 10
5192.322491566594
 20
-1498.737519332516
 30
0.0
 11
5192.322491566594
 21
-1508.237519332516
 31
0.0
  0
LINE
  5
B1F85
330
18
100
AcDbEntity
  8
実線
 48
0.5
100
AcDbLine
 10
5203.276062995165
 20
-1504.934662189658
 30
0.0
 11
5203.276062995165
 21
-1508.237519332516
 31
0.0
  0
LINE
  5
B1F86
330
18
100
AcDbEntity
  8
実線
 48
0.5
100
AcDbLine
 10
5202.110348709449
 20
-1504.837519332515
 30
0.0
 11
5202.110348709449
 21
-1508.237519332516
 31
0.0
  0
LINE
  5
B1F87
330
18
100
AcDbEntity
  8
実線
 48
0.5
100
AcDbLine
 10
5199.872491566594
 20
-1498.737519332516
 30
0.0
 11
5199.872491566594
 21
-1508.237519332516
 31
0.0
  0
LINE
  5
B1F88
330
18
100
AcDbEntity
  8
実線
 48
0.5
100
AcDbLine
 10
5195.772491566595
 20
-1498.737519332516
 30
0.0
 11
5195.772491566595
 21
-1508.237519332516
 31
0.0
  0
LINE
  5
B1F89
330
18
100
AcDbEntity
  8
実線
 48
0.5
100
AcDbLine
 10
5196.422491566593
 20
-1498.737519332516
 30
0.0
 11
5196.422491566593
 21
-1508.237519332516
 31
0.0
  0
LINE
  5
B1F8A
330
18
100
AcDbEntity
  8
実線
 48
0.5
100
AcDbLine
 10
5204.247491566594
 20
-1503.477519332514
 30
0.0
 11
5204.247491566597
 21
-1514.746090761087
 31
0.0
  0
LINE
  5
B1F8B
330
18
100
AcDbEntity
  8
実線
 48
0.5
100
AcDbLine
 10
5204.665205852308
 20
-1505.352376475373
 30
0.0
 11
5204.665205852308
 21
-1515.717519332516
 31
0.0
  0
LINE
  5
B1F8C
330
18
100
AcDbEntity
  8
実線
 48
0.5
100
AcDbLine
 10
5190.847491566592
 20
-1508.237519332516
 30
0.0
 11
5200.847491566592
 21
-1508.237519332516
 31
0.0
  0
LINE
  5
B1F8D
330
18
100
AcDbEntity
  8
実線
 48
0.5
100
AcDbLine
 10
5189.947497619638
 20
-1522.437564433992
 30
0.0
 11
5201.747497619638
 21
-1522.437564433992
 31
0.0
  0
LINE
  5
B1F8E
330
18
100
AcDbEntity
  8
実線
 48
0.5
100
AcDbLine
 10
5200.847491566592
 20
-1508.237519332516
 30
0.0
 11
5204.665205852308
 21
-1508.237519332516
 31
0.0
  0
ARC
  5
B1F8F
330
18
100
AcDbEntity
  8
実線
 48
0.5
100
AcDbCircle
 10
5201.833914352641
 20
-1510.335805046801
 30
0.0
 40
0.4857142857142857
100
AcDbArc
 50
9.999999999879239
 51
90.0
  0
LINE
  5
B1F90
330
18
100
AcDbEntity
  8
実線
 48
0.5
100
AcDbLine
 10
5201.333205852307
 20
-1509.850090761086
 30
0.0
 11
5201.833914352641
 21
-1509.850090761086
 31
0.0
  0
ARC
  5
B1F91
330
18
100
AcDbEntity
  8
実線
 48
0.5
100
AcDbCircle
 10
5201.333205852307
 20
-1510.335805046801
 30
0.0
 40
0.4857142857142857
100
AcDbArc
 50
90.0
 51
180.0
  0
LINE
  5
B1F92
330
18
100
AcDbEntity
  8
実線
 48
0.5
100
AcDbLine
 10
5203.276062995168
 20
-1515.717519332516
 30
0.0
 11
5204.665205852308
 21
-1515.717519332516
 31
0.0
  0
LINE
  5
B1F93
330
18
100
AcDbEntity
  8
実線
 48
0.5
100
AcDbLine
 10
5204.247491566597
 20
-1514.746090761087
 30
0.0
 11
5204.665205852308
 21
-1514.746090761087
 31
0.0
  0
LINE
  5
B1F94
330
18
100
AcDbEntity
  8
実線
 48
0.5
100
AcDbLine
 10
5200.847491566595
 20
-1521.337564433993
 30
0.0
 11
5201.747497619638
 21
-1521.337564433993
 31
0.0
  0
LINE
  5
B1F95
330
18
100
AcDbEntity
  8
実線
 48
0.5
100
AcDbLine
 10
5201.747497619638
 20
-1522.437564433992
 30
0.0
 11
5201.747497619638
 21
-1521.337564433993
 31
0.0
  0
LINE
  5
B1F96
330
18
100
AcDbEntity
  8
実線
 48
0.5
100
AcDbLine
 10
5202.312249546963
 20
-1510.251461646221
 30
0.0
 11
5203.276062995168
 21
-1515.717519332516
 31
0.0
  0
LINE
  5
B1F97
330
18
100
AcDbEntity
  8
実線
 48
0.5
100
AcDbLine
 10
5200.847491566595
 20
-1521.337564433993
 30
0.0
 11
5200.847491566592
 21
-1508.237519332516
 31
0.0
  0
LINE
  5
B1F98
330
18
100
AcDbEntity
  8
実線
100
AcDbLine
 10
5198.947491566594
 20
-1532.437564433992
 30
0.0
 11
5193.247491566595
 21
-1532.437564433992
 31
0.0
  0
LINE
  5
B1F99
330
18
100
AcDbEntity
  8
実線
100
AcDbLine
 10
5198.097491566596
 20
-1532.437564433992
 30
0.0
 11
5194.097491566595
 21
-1532.437564433992
 31
0.0
  0
LINE
  5
B1F9A
330
18
100
AcDbEntity
  8
実線
 48
0.5
100
AcDbLine
 10
5189.947497619638
 20
-1521.33756443399
 30
0.0
 11
5190.847491566596
 21
-1521.33756443399
 31
0.0
  0
LINE
  5
B1F9B
330
18
100
AcDbEntity
  8
実線
 48
0.5
100
AcDbLine
 10
5189.947497619638
 20
-1522.437564433992
 30
0.0
 11
5189.947497619638
 21
-1521.33756443399
 31
0.0
  0
LINE
  5
B1F9C
330
18
100
AcDbEntity
  8
実線
 48
0.5
100
AcDbLine
 10
5190.847491566596
 20
-1521.337564433993
 30
0.0
 11
5190.847491566592
 21
-1508.237519332516
 31
0.0
  0
LINE
  5
B1F9D
330
18
100
AcDbEntity
  8
実線
 48
0.5
100
AcDbLine
 10
5196.422491566593
 20
-1498.737519332516
 30
0.0
 11
5199.872491566594
 21
-1498.737519332516
 31
0.0
  0
LINE
  5
B1F9E
330
18
100
AcDbEntity
  8
実線
 48
0.5
100
AcDbLine
 10
5204.247491566594
 20
-1503.477519332514
 30
0.0
 11
5203.276062995165
 21
-1502.506090761085
 31
0.0
  0
LINE
  5
B1F9F
330
18
100
AcDbEntity
  8
実線
 48
0.5
100
AcDbLine
 10
5203.276062995165
 20
-1504.934662189658
 30
0.0
 11
5204.247491566594
 21
-1504.934662189658
 31
0.0
  0
LINE
  5
B1FA0
330
18
100
AcDbEntity
  8
実線
 48
0.5
100
AcDbLine
 10
5204.247491566594
 20
-1504.934662189658
 30
0.0
 11
5204.665205852308
 21
-1505.352376475373
 31
0.0
  0
LINE
  5
B1FA1
330
18
100
AcDbEntity
  8
実線
 48
0.5
100
AcDbLine
 10
5201.041777280877
 20
-1503.477519332514
 30
0.0
 11
5201.041777280877
 21
-1504.934662189658
 31
0.0
  0
LINE
  5
B1FA2
330
18
100
AcDbEntity
  8
実線
 48
0.5
100
AcDbLine
 10
5202.013205852306
 20
-1502.506090761085
 30
0.0
 11
5201.041777280877
 21
-1503.477519332514
 31
0.0
  0
LINE
  5
B1FA3
330
18
100
AcDbEntity
  8
実線
 48
0.5
100
AcDbLine
 10
5201.041777280877
 20
-1504.934662189658
 30
0.0
 11
5202.110348709449
 21
-1504.837519332515
 31
0.0
  0
LINE
  5
B1FA4
330
18
100
AcDbEntity
  8
実線
 48
0.5
100
AcDbLine
 10
5202.013205852306
 20
-1502.506090761085
 30
0.0
 11
5203.276062995165
 21
-1502.506090761085
 31
0.0
  0
LINE
  5
B1FA5
330
18
100
AcDbEntity
  8
実線
 48
0.5
100
AcDbLine
 10
5192.322491566594
 20
-1498.737519332516
 30
0.0
 11
5195.772491566595
 21
-1498.737519332516
 31
0.0
  0
ARC
  5
B1FA6
330
18
100
AcDbEntity
  8
細線
100
AcDbCircle
 10
5197.522491566594
 20
-1554.921916883255
 30
0.0
 40
2.211071661122416
100
AcDbArc
 50
229.873011873189
 51
310.1269881268661
  0
ARC
  5
B1FA7
330
18
100
AcDbEntity
  8
細線
100
AcDbCircle
 10
5194.672491566596
 20
-1554.921916883254
 30
0.0
 40
2.211071661123588
100
AcDbArc
 50
229.873011873153
 51
310.1269881268471
  0
ARC
  5
B1FA8
330
18
100
AcDbEntity
  8
細線
100
AcDbCircle
 10
5194.672491566596
 20
-1558.303166883253
 30
0.0
 40
2.211071661123588
100
AcDbArc
 50
49.87301187315294
 51
130.126988126847
  0
ARC
  5
B1FA9
330
18
100
AcDbEntity
  8
細線
100
AcDbCircle
 10
5194.672491566591
 20
-1560.303166883252
 30
0.0
 40
2.211071661125347
100
AcDbArc
 50
49.87301187309888
 51
130.1269881266582
  0
ARC
  5
B1FAA
330
18
100
AcDbEntity
  8
細線
100
AcDbCircle
 10
5197.52249156659
 20
-1560.303166883255
 30
0.0
 40
2.211071661123564
100
AcDbArc
 50
49.87301187299828
 51
130.1269881267398
  0
ARC
  5
B1FAB
330
18
100
AcDbEntity
  8
細線
100
AcDbCircle
 10
5197.522491566598
 20
-1556.921916883251
 30
0.0
 40
2.211071661128367
100
AcDbArc
 50
229.873011873134
 51
310.1269881266231
  0
LINE
  5
B1FB3
330
18
100
AcDbEntity
  8
実線
100
AcDbLine
 10
5257.597491566592
 20
-1604.737519332518
 30
0.0
 11
5257.597491566592
 21
-1597.737519332518
 31
0.0
  0
LINE
  5
B2014
330
18
100
AcDbEntity
  8
実線
100
AcDbLine
 10
5181.047491566596
 20
-1713.484887753573
 30
0.0
 11
5184.747491566593
 21
-1721.73751933252
 31
0.0
  0
LINE
  5
B2015
330
18
100
AcDbEntity
  8
実線
100
AcDbLine
 10
5211.147491566595
 20
-1713.484887753573
 30
0.0
 11
5207.447491566594
 21
-1721.73751933252
 31
0.0
  0
LINE
  5
B2103
330
18
100
AcDbEntity
  8
実線
100
AcDbLine
 10
5328.697491566596
 20
-1583.437519332518
 30
0.0
 11
5328.197491566597
 21
-1583.937519332518
 31
0.0
  0
LINE
  5
B2104
330
18
100
AcDbEntity
  8
実線
100
AcDbLine
 10
5423.497491566595
 20
-1583.437519332518
 30
0.0
 11
5423.997491566595
 21
-1583.937519332518
 31
0.0
  0
ARC
  5
B2105
330
18
100
AcDbEntity
  8
実線
100
AcDbCircle
 10
5424.397491566595
 20
-1585.837519332518
 30
0.0
 40
0.4000000000000003
100
AcDbArc
 50
180.0
 51
270.0
  0
ARC
  5
B2106
330
18
100
AcDbEntity
  8
実線
100
AcDbCircle
 10
5327.797491566596
 20
-1585.837519332518
 30
0.0
 40
0.4000000000000003
100
AcDbArc
 50
270.0
 51
359.9999999999675
  0
LINE
  5
B2107
330
18
100
AcDbEntity
  8
実線
100
AcDbLine
 10
5286.097491566596
 20
-1588.037519332518
 30
0.0
 11
5286.097491566596
 21
-1641.237519332518
 31
0.0
  0
LINE
  5
B2109
330
18
100
AcDbEntity
  8
実線
100
AcDbLine
 10
5293.847871506685
 20
-1588.037519332518
 30
0.0
 11
5293.847871506685
 21
-1621.237519332518
 31
0.0
  0
LINE
  5
B2118
330
18
100
AcDbEntity
  8
実線
100
AcDbLine
 10
5286.097491566596
 20
-1621.237519332518
 30
0.0
 11
5466.097491566596
 21
-1621.237519332518
 31
0.0
  0
LINE
  5
B2119
330
18
100
AcDbEntity
  8
実線
100
AcDbLine
 10
5299.011500621418
 20
-1621.237519332518
 30
0.0
 11
5299.011500621418
 21
-1641.237519332518
 31
0.0
  0
LINE
  5
B211A
330
18
100
AcDbEntity
  8
実線
100
AcDbLine
 10
5453.183482511773
 20
-1621.237519332518
 30
0.0
 11
5453.183482511773
 21
-1641.237519332518
 31
0.0
  0
LINE
  5
B219B
330
18
100
AcDbEntity
  8
実線
100
AcDbLine
 10
5302.108175774983
 20
-1587.537519332517
 30
0.0
 11
5295.108175774983
 21
-1587.537519332517
 31
0.0
  0
LINE
  5
B219C
330
18
100
AcDbEntity
  8
実線
100
AcDbLine
 10
5302.108175774983
 20
-1587.037519332517
 30
0.0
 11
5301.058175774984
 21
-1586.737519332515
 31
0.0
  0
LINE
  5
B219D
330
18
100
AcDbEntity
  8
実線
100
AcDbLine
 10
5302.108175774983
 20
-1587.037519332517
 30
0.0
 11
5302.108175774983
 21
-1587.537519332517
 31
0.0
  0
LINE
  5
B219E
330
18
100
AcDbEntity
  8
実線
100
AcDbLine
 10
5295.108175774983
 20
-1587.037519332517
 30
0.0
 11
5295.108175774983
 21
-1587.537519332517
 31
0.0
  0
LINE
  5
B219F
330
18
100
AcDbEntity
  8
実線
100
AcDbLine
 10
5295.108175774983
 20
-1587.037519332517
 30
0.0
 11
5296.158175774983
 21
-1586.737519332515
 31
0.0
  0
LINE
  5
B21A0
330
18
100
AcDbEntity
  8
実線
100
AcDbLine
 10
5302.108175774983
 20
-1587.037519332517
 30
0.0
 11
5295.108175774983
 21
-1587.037519332517
 31
0.0
  0
LINE
  5
B21A1
330
18
100
AcDbEntity
  8
実線
100
AcDbLine
 10
5301.058175774984
 20
-1586.737519332515
 30
0.0
 11
5296.158175774983
 21
-1586.737519332515
 31
0.0
  0
LINE
  5
B21DD
330
18
100
AcDbEntity
  8
実線
100
AcDbLine
 10
5336.847493820529
 20
-1587.537519332517
 30
0.0
 11
5329.847493820529
 21
-1587.537519332517
 31
0.0
  0
LINE
  5
B21DE
330
18
100
AcDbEntity
  8
実線
100
AcDbLine
 10
5336.847493820529
 20
-1587.037519332517
 30
0.0
 11
5335.79749382053
 21
-1586.737519332515
 31
0.0
  0
LINE
  5
B21DF
330
18
100
AcDbEntity
  8
実線
100
AcDbLine
 10
5336.847493820529
 20
-1587.037519332517
 30
0.0
 11
5336.847493820529
 21
-1587.537519332517
 31
0.0
  0
LINE
  5
B21E0
330
18
100
AcDbEntity
  8
実線
100
AcDbLine
 10
5329.847493820529
 20
-1587.037519332517
 30
0.0
 11
5329.847493820529
 21
-1587.537519332517
 31
0.0
  0
LINE
  5
B21E1
330
18
100
AcDbEntity
  8
実線
100
AcDbLine
 10
5329.847493820529
 20
-1587.037519332517
 30
0.0
 11
5330.897493820528
 21
-1586.737519332515
 31
0.0
  0
LINE
  5
B21E2
330
18
100
AcDbEntity
  8
実線
100
AcDbLine
 10
5336.847493820529
 20
-1587.037519332517
 30
0.0
 11
5329.847493820529
 21
-1587.037519332517
 31
0.0
  0
LINE
  5
B21E3
330
18
100
AcDbEntity
  8
実線
100
AcDbLine
 10
5335.79749382053
 20
-1586.737519332515
 30
0.0
 11
5330.897493820528
 21
-1586.737519332515
 31
0.0
  0
LINE
  5
B221F
330
18
100
AcDbEntity
  8
実線
100
AcDbLine
 10
5422.347491566596
 20
-1587.537519332517
 30
0.0
 11
5415.347491566596
 21
-1587.537519332517
 31
0.0
  0
LINE
  5
B2220
330
18
100
AcDbEntity
  8
実線
100
AcDbLine
 10
5422.347491566596
 20
-1587.037519332517
 30
0.0
 11
5421.297491566597
 21
-1586.737519332515
 31
0.0
  0
LINE
  5
B2221
330
18
100
AcDbEntity
  8
実線
100
AcDbLine
 10
5422.347491566596
 20
-1587.037519332517
 30
0.0
 11
5422.347491566596
 21
-1587.537519332517
 31
0.0
  0
LINE
  5
B2222
330
18
100
AcDbEntity
  8
実線
100
AcDbLine
 10
5415.347491566596
 20
-1587.037519332517
 30
0.0
 11
5415.347491566596
 21
-1587.537519332517
 31
0.0
  0
LINE
  5
B2223
330
18
100
AcDbEntity
  8
実線
100
AcDbLine
 10
5415.347491566596
 20
-1587.037519332517
 30
0.0
 11
5416.397491566595
 21
-1586.737519332515
 31
0.0
  0
LINE
  5
B2224
330
18
100
AcDbEntity
  8
実線
100
AcDbLine
 10
5422.347491566596
 20
-1587.037519332517
 30
0.0
 11
5415.347491566596
 21
-1587.037519332517
 31
0.0
  0
LINE
  5
B2225
330
18
100
AcDbEntity
  8
実線
100
AcDbLine
 10
5421.297491566597
 20
-1586.737519332515
 30
0.0
 11
5416.397491566595
 21
-1586.737519332515
 31
0.0
  0
LINE
  5
B2261
330
18
100
AcDbEntity
  8
実線
100
AcDbLine
 10
5465.097491566595
 20
-1587.537519332517
 30
0.0
 11
5458.097491566595
 21
-1587.537519332517
 31
0.0
  0
LINE
  5
B2262
330
18
100
AcDbEntity
  8
実線
100
AcDbLine
 10
5465.097491566595
 20
-1587.037519332517
 30
0.0
 11
5464.047491566596
 21
-1586.737519332515
 31
0.0
  0
LINE
  5
B2263
330
18
100
AcDbEntity
  8
実線
100
AcDbLine
 10
5465.097491566595
 20
-1587.037519332517
 30
0.0
 11
5465.097491566595
 21
-1587.537519332517
 31
0.0
  0
LINE
  5
B2264
330
18
100
AcDbEntity
  8
実線
100
AcDbLine
 10
5458.097491566595
 20
-1587.037519332517
 30
0.0
 11
5458.097491566595
 21
-1587.537519332517
 31
0.0
  0
LINE
  5
B2265
330
18
100
AcDbEntity
  8
実線
100
AcDbLine
 10
5458.097491566595
 20
-1587.037519332517
 30
0.0
 11
5459.147491566595
 21
-1586.737519332515
 31
0.0
  0
LINE
  5
B2266
330
18
100
AcDbEntity
  8
実線
100
AcDbLine
 10
5465.097491566595
 20
-1587.037519332517
 30
0.0
 11
5458.097491566595
 21
-1587.037519332517
 31
0.0
  0
LINE
  5
B2267
330
18
100
AcDbEntity
  8
実線
100
AcDbLine
 10
5464.047491566596
 20
-1586.737519332515
 30
0.0
 11
5459.147491566595
 21
-1586.737519332515
 31
0.0
  0
LINE
  5
B22A8
330
18
100
AcDbEntity
  8
実線
100
AcDbLine
 10
5578.110230741131
 20
-1409.737519332524
 30
0.0
 11
5578.11023074113
 21
-1416.737519332524
 31
0.0
  0
LINE
  5
B22A9
330
18
100
AcDbEntity
  8
実線
100
AcDbLine
 10
5577.610230741131
 20
-1409.737519332524
 30
0.0
 11
5577.310230741129
 21
-1410.787519332524
 31
0.0
  0
LINE
  5
B22AA
330
18
100
AcDbEntity
  8
実線
100
AcDbLine
 10
5577.610230741131
 20
-1409.737519332524
 30
0.0
 11
5578.110230741131
 21
-1409.737519332524
 31
0.0
  0
LINE
  5
B22AB
330
18
100
AcDbEntity
  8
実線
100
AcDbLine
 10
5577.61023074113
 20
-1416.737519332524
 30
0.0
 11
5578.11023074113
 21
-1416.737519332524
 31
0.0
  0
LINE
  5
B22AC
330
18
100
AcDbEntity
  8
実線
100
AcDbLine
 10
5577.61023074113
 20
-1416.737519332524
 30
0.0
 11
5577.310230741129
 21
-1415.687519332525
 31
0.0
  0
LINE
  5
B22AD
330
18
100
AcDbEntity
  8
実線
100
AcDbLine
 10
5577.610230741131
 20
-1409.737519332524
 30
0.0
 11
5577.61023074113
 21
-1416.737519332524
 31
0.0
  0
LINE
  5
B22AE
330
18
100
AcDbEntity
  8
実線
100
AcDbLine
 10
5577.310230741129
 20
-1410.787519332524
 30
0.0
 11
5577.310230741129
 21
-1415.687519332525
 31
0.0
  0
LINE
  5
B22EB
330
18
100
AcDbEntity
  8
CENTER
100
AcDbLine
 10
5791.522969975273
 20
-1509.920368587264
 30
0.0
 11
5791.522969975273
 21
-1318.237515756251
 31
0.0
  0
LINE
  5
B2383
330
18
100
AcDbEntity
  8
CENTER
100
AcDbLine
 10
5303.619046494974
 20
-1638.737519332518
 30
0.0
 11
5303.619046494974
 21
-1643.737519332518
 31
0.0
  0
LINE
  5
B23C8
330
18
100
AcDbEntity
  8
CENTER
100
AcDbLine
 10
5448.575936638216
 20
-1638.737519332518
 30
0.0
 11
5448.575936638216
 21
-1643.737519332518
 31
0.0
  0
POINT
  5
B2436
330
18
100
AcDbEntity
  8
DEFPOINTS
100
AcDbPoint
 10
5306.097491566596
 20
-1423.237519332518
 30
0.0
  0
LINE
  5
B29AB
330
18
100
AcDbEntity
  8
文字
100
AcDbLine
 10
5618.310230770933
 20
-1337.151528387341
 30
0.0
 11
5618.310230770933
 21
-1371.151528387341
 31
0.0
  0
LINE
  5
B29AC
330
18
100
AcDbEntity
  8
文字
100
AcDbLine
 10
5630.310230770932
 20
-1371.151528387341
 30
0.0
 11
5630.310230770932
 21
-1337.151528387341
 31
0.0
  0
LINE
  5
B29AD
330
18
100
AcDbEntity
  8
文字
100
AcDbLine
 10
5625.310230770932
 20
-1371.651528387341
 30
0.0
 11
5625.310230770932
 21
-1336.651528387341
 31
0.0
  0
TEXT
  5
B29AE
330
18
100
AcDbEntity
  8
文字
100
AcDbText
 10
5624.751351971685
 20
-1369.854684929288
 30
0.0
 40
2.0
  1
SER No.******
 50
90.0
 41
1.199999999999999
  7
MS\U+FF7A\U+FF9E\U+FF7C\U+FF6F\U+FF78N
 11
5625.116834205187
 21
-1369.854684929288
 31
0.0
100
AcDbText
 73
     1
  0
LINE
  5
B29AF
330
18
100
AcDbEntity
  8
文字
100
AcDbLine
 10
5626.252707352929
 20
-1364.299481886264
 30
0.0
 11
5627.133807352928
 21
-1367.102981886262
 31
0.0
  0
LINE
  5
B29B0
330
18
100
AcDbEntity
  8
文字
100
AcDbLine
 10
5626.252707352929
 20
-1368.704981886265
 30
0.0
 11
5626.252707352929
 21
-1364.299481886264
 31
0.0
  0
LINE
  5
B29B1
330
18
100
AcDbEntity
  8
文字
100
AcDbLine
 10
5627.454207352932
 20
-1366.702481886262
 30
0.0
 11
5627.454207352932
 21
-1364.459681886262
 31
0.0
  0
ARC
  5
B29B2
330
18
100
AcDbEntity
  8
文字
100
AcDbCircle
 10
5628.255207352932
 20
-1366.702481886264
 30
0.0
 40
0.8009999999999999
100
AcDbArc
 50
0.0
 51
180.0
  0
CIRCLE
  5
B29B3
330
18
100
AcDbEntity
  8
文字
100
AcDbCircle
 10
5628.054957352929
 20
-1366.702481886264
 30
0.0
 40
0.6007500000000002
  0
LINE
  5
B29B4
330
18
100
AcDbEntity
  8
文字
100
AcDbLine
 10
5629.456707352931
 20
-1369.105481886264
 30
0.0
 11
5629.456707352931
 21
-1364.699981886263
 31
0.0
  0
LINE
  5
B29B5
330
18
100
AcDbEntity
  8
文字
100
AcDbLine
 10
5618.810230770932
 20
-1371.651528387341
 30
0.0
 11
5629.810230770932
 21
-1371.651528387341
 31
0.0
  0
LINE
  5
B29B6
330
18
100
AcDbEntity
  8
文字
100
AcDbLine
 10
5629.456707352931
 20
-1369.105481886264
 30
0.0
 11
5626.252707352929
 21
-1368.704981886265
 31
0.0
  0
ARC
  5
B29B7
330
18
100
AcDbEntity
  8
文字
100
AcDbCircle
 10
5628.053094562233
 20
-1366.701550490915
 30
0.0
 40
1.00311322310025
100
AcDbArc
 50
203.5897772725903
 51
359.9468005913668
  0
ARC
  5
B29B8
330
18
100
AcDbEntity
  8
文字
100
AcDbCircle
 10
5618.810230770932
 20
-1371.151528387343
 30
0.0
 40
0.5
100
AcDbArc
 50
180.0
 51
270.0
  0
ARC
  5
B29B9
330
18
100
AcDbEntity
  8
文字
100
AcDbCircle
 10
5629.810230770932
 20
-1371.151528387343
 30
0.0
 40
0.5
100
AcDbArc
 50
270.0
 51
0.0
  0
LINE
  5
B29BA
330
18
100
AcDbEntity
  8
文字
100
AcDbLine
 10
5629.456707352931
 20
-1364.699981886263
 30
0.0
 11
5627.454207352932
 21
-1364.459681886262
 31
0.0
  0
TEXT
  5
B29BB
330
18
100
AcDbEntity
  8
文字
100
AcDbText
 10
5629.408973214346
 20
-1363.483382661879
 30
0.0
 40
1.44
  1
DENSO
 50
90.0
 41
1.3
  7
TIMESNR
100
AcDbText
  0
TEXT
  5
B29BC
330
18
100
AcDbEntity
  8
文字
100
AcDbText
 10
5627.712210805361
 20
-1363.361969551738
 30
0.0
 40
1.44
  1
NIKKI
 50
90.0
 41
1.25
  7
TIMESNR
100
AcDbText
  0
LINE
  5
B29BD
330
18
100
AcDbEntity
  8
文字
100
AcDbLine
 10
5629.810230770932
 20
-1336.651528387341
 30
0.0
 11
5618.810230770932
 21
-1336.651528387341
 31
0.0
  0
ARC
  5
B29BE
330
18
100
AcDbEntity
  8
文字
100
AcDbCircle
 10
5618.810230770932
 20
-1337.151528387343
 30
0.0
 40
0.5
100
AcDbArc
 50
90.0
 51
180.0
  0
ARC
  5
B29BF
330
18
100
AcDbEntity
  8
文字
100
AcDbCircle
 10
5629.810230770932
 20
-1337.151528387343
 30
0.0
 40
0.5
100
AcDbArc
 50
0.0
 51
90.0
  0
TEXT
  5
B29C0
330
18
100
AcDbEntity
  8
文字
100
AcDbText
 10
5629.675421544881
 20
-1351.109853064512
 30
137.5
 40
1.5
  1
MADE IN JAPAN
 50
90.0
  7
MS\U+FF7A\U+FF9E\U+FF7C\U+FF6F\U+FF78N
 11
5629.949533220008
 21
-1351.109853064512
 31
137.5
100
AcDbText
 73
     1
  0
TEXT
  5
B29C1
330
18
100
AcDbEntity
  8
文字
100
AcDbText
 10
5627.805635494496
 20
-1351.109853064512
 30
137.5
 40
1.5
  1
SN-16140
 50
90.0
  7
MS\U+FF7A\U+FF9E\U+FF7C\U+FF6F\U+FF78N
 11
5628.079747169622
 21
-1351.109853064512
 31
137.5
100
AcDbText
 73
     1
  0
TEXT
  5
B29C2
330
18
100
AcDbEntity
  8
文字
100
AcDbText
 10
5629.408973214348
 20
-1399.483382661878
 30
0.0
 40
1.44
  1
DENSO
 50
90.0
 41
1.3
  7
TIMESNR
100
AcDbText
  0
TEXT
  5
B29C3
330
18
100
AcDbEntity
  8
文字
100
AcDbText
 10
5627.712210805364
 20
-1399.361969551738
 30
0.0
 40
1.44
  1
NIKKI
 50
90.0
 41
1.25
  7
TIMESNR
100
AcDbText
  0
TEXT
  5
B29C4
330
18
100
AcDbEntity
  8
文字
100
AcDbText
 10
5621.927318623256
 20
-1405.827558356476
 30
0.0
 40
2.6
  1
ENCODER
 50
90.0
 41
1.199999999999999
  7
MS\U+FF7A\U+FF9E\U+FF7C\U+FF6F\U+FF78N
 11
5622.402445526809
 21
-1405.827558356476
 31
0.0
100
AcDbText
 73
     1
  0
TEXT
  5
B29C5
330
18
100
AcDbEntity
  8
文字
100
AcDbText
 10
5624.751351971688
 20
-1405.854684929287
 30
0.0
 40
2.0
  1
******PPR
 50
90.0
 41
1.199999999999999
  7
MS\U+FF7A\U+FF9E\U+FF7C\U+FF6F\U+FF78N
 11
5625.11683420519
 21
-1405.854684929287
 31
0.0
100
AcDbText
 73
     1
  0
LINE
  5
B29C6
330
18
100
AcDbEntity
  8
文字
100
AcDbLine
 10
5625.310230770931
 20
-1407.651528387341
 30
0.0
 11
5625.310230770931
 21
-1372.651528387341
 31
0.0
  0
LINE
  5
B29C7
330
18
100
AcDbEntity
  8
文字
100
AcDbLine
 10
5630.310230770931
 20
-1407.151528387341
 30
0.0
 11
5630.310230770931
 21
-1373.151528387341
 31
0.0
  0
LINE
  5
B29C8
330
18
100
AcDbEntity
  8
文字
100
AcDbLine
 10
5618.310230770931
 20
-1373.151528387341
 30
0.0
 11
5618.310230770931
 21
-1407.151528387341
 31
0.0
  0
ARC
  5
B29C9
330
18
100
AcDbEntity
  8
文字
100
AcDbCircle
 10
5629.810230770935
 20
-1407.151528387342
 30
0.0
 40
0.5
100
AcDbArc
 50
270.0
 51
0.0
  0
ARC
  5
B29CA
330
18
100
AcDbEntity
  8
文字
100
AcDbCircle
 10
5618.810230770935
 20
-1407.151528387342
 30
0.0
 40
0.5
100
AcDbArc
 50
180.0
 51
270.0
  0
LINE
  5
B29CB
330
18
100
AcDbEntity
  8
文字
100
AcDbLine
 10
5618.810230770932
 20
-1407.651528387341
 30
0.0
 11
5629.810230770932
 21
-1407.651528387341
 31
0.0
  0
ARC
  5
B29CC
330
18
100
AcDbEntity
  8
文字
100
AcDbCircle
 10
5628.255207352935
 20
-1402.702481886263
 30
0.0
 40
0.8009999999999999
100
AcDbArc
 50
0.0
 51
180.0
  0
LINE
  5
B29CD
330
18
100
AcDbEntity
  8
文字
100
AcDbLine
 10
5629.45670735293
 20
-1400.699981886264
 30
0.0
 11
5627.454207352931
 21
-1400.459681886262
 31
0.0
  0
LINE
  5
B29CE
330
18
100
AcDbEntity
  8
文字
100
AcDbLine
 10
5629.45670735293
 20
-1405.105481886264
 30
0.0
 11
5626.252707352929
 21
-1404.704981886264
 31
0.0
  0
ARC
  5
B29CF
330
18
100
AcDbEntity
  8
文字
100
AcDbCircle
 10
5628.053094562235
 20
-1402.701550490914
 30
0.0
 40
1.00311322310025
100
AcDbArc
 50
203.5897772725903
 51
359.9468005913668
  0
LINE
  5
B29D0
330
18
100
AcDbEntity
  8
文字
100
AcDbLine
 10
5627.454207352931
 20
-1402.702481886262
 30
0.0
 11
5627.454207352931
 21
-1400.459681886262
 31
0.0
  0
LINE
  5
B29D1
330
18
100
AcDbEntity
  8
文字
100
AcDbLine
 10
5626.252707352929
 20
-1404.704981886264
 30
0.0
 11
5626.252707352929
 21
-1400.299481886264
 31
0.0
  0
LINE
  5
B29D2
330
18
100
AcDbEntity
  8
文字
100
AcDbLine
 10
5626.252707352929
 20
-1400.299481886264
 30
0.0
 11
5627.133807352927
 21
-1403.102981886262
 31
0.0
  0
CIRCLE
  5
B29D3
330
18
100
AcDbEntity
  8
文字
100
AcDbCircle
 10
5628.054957352933
 20
-1402.702481886263
 30
0.0
 40
0.6007500000000002
  0
LINE
  5
B29D4
330
18
100
AcDbEntity
  8
文字
100
AcDbLine
 10
5629.45670735293
 20
-1405.105481886264
 30
0.0
 11
5629.45670735293
 21
-1400.699981886264
 31
0.0
  0
LINE
  5
B29D5
330
18
100
AcDbEntity
  8
文字
100
AcDbLine
 10
5629.810230770932
 20
-1372.651528387341
 30
0.0
 11
5618.810230770932
 21
-1372.651528387341
 31
0.0
  0
ARC
  5
B29D6
330
18
100
AcDbEntity
  8
文字
100
AcDbCircle
 10
5618.810230770935
 20
-1373.151528387342
 30
0.0
 40
0.5
100
AcDbArc
 50
90.0
 51
180.0
  0
ARC
  5
B29D7
330
18
100
AcDbEntity
  8
文字
100
AcDbCircle
 10
5629.810230770935
 20
-1373.151528387342
 30
0.0
 40
0.5
100
AcDbArc
 50
0.0
 51
90.0
  0
TEXT
  5
B29D8
330
18
100
AcDbEntity
  8
文字
100
AcDbText
 10
5629.675421544884
 20
-1388.029867992791
 30
137.5
 40
1.5
  1
MADE IN JAPAN
 50
90.0
  7
MS\U+FF7A\U+FF9E\U+FF7C\U+FF6F\U+FF78N
 11
5629.94953322001
 21
-1388.029867992791
 31
137.5
100
AcDbText
 73
     1
  0
TEXT
  5
B29D9
330
18
100
AcDbEntity
  8
文字
100
AcDbText
 10
5627.805635494499
 20
-1388.029867992791
 30
137.5
 40
1.5
  1
SN-16140
 50
90.0
  7
MS\U+FF7A\U+FF9E\U+FF7C\U+FF6F\U+FF78N
 11
5628.079747169625
 21
-1388.029867992791
 31
137.5
100
AcDbText
 73
     1
  0
LINE
  5
B2A2E
330
18
100
AcDbEntity
  8
文字
100
AcDbLine
 10
5630.310230770932
 20
-1378.144395705074
 30
0.0
 11
5630.310230770932
 21
-1349.469527885189
 31
0.0
  0
LWPOLYLINE
  5
B3647
330
18
100
AcDbEntity
  8
文字
100
AcDbPolyline
 90
        6
 70
   129
 43
0.0
 10
5589.27128075603
 20
-1413.540065307336
 10
5600.79983075603
 20
-1420.196076753202
 42
0.5773502691896259
 10
5601.323855756031
 20
-1419.893530778391
 10
5601.323855756031
 20
-1406.581507886658
 42
0.5773502691896262
 10
5600.79983075603
 20
-1406.278961911846
 10
5589.27128075603
 20
-1412.934973357712
 42
0.5773502691896262
  0
LINE
  5
B3648
330
18
100
AcDbEntity
  8
文字
100
AcDbLine
 10
5599.823855756031
 20
-1415.737519332525
 30
0.0
 11
5599.823855756031
 21
-1410.737519332524
 31
0.0
  0
SPLINE
  5
B3649
330
18
100
AcDbEntity
  8
文字
100
AcDbSpline
210
0.0
220
0.0
230
1.0
 70
  1064
 71
     3
 72
    11
 73
     7
 74
     5
 42
0.000000001
 43
0.0000000001
 44
0.0000000001
 40
0.0
 40
0.0
 40
0.0
 40
0.0
 40
1.750184152921611
 40
3.133745496961306
 40
4.421027844225058
 40
7.276737688192085
 40
7.276737688192085
 40
7.276737688192085
 40
7.276737688192085
 10
5592.654152794532
 20
-1414.737519332525
 30
0.0
 10
5593.165565136708
 20
-1415.087990092431
 30
0.0
 10
5594.081260848904
 20
-1415.715516152383
 30
0.0
 10
5595.617284031796
 20
-1415.171140026201
 30
0.0
 10
5596.798305755294
 20
-1413.533461160572
 30
0.0
 10
5598.293344960991
 20
-1414.246222409601
 30
0.0
 10
5599.323855756031
 20
-1414.737519332525
 30
0.0
 11
5592.654152794532
 21
-1414.737519332525
 31
0.0
 11
5594.242376398542
 21
-1415.472835830913
 31
0.0
 11
5595.554883598776
 21
-1415.035152335613
 31
0.0
 11
5596.521994103653
 21
-1414.185568253293
 31
0.0
 11
5599.323855756031
 21
-1414.737519332525
 31
0.0
  0
SPLINE
  5
B364A
330
18
100
AcDbEntity
  8
文字
100
AcDbSpline
210
0.0
220
0.0
230
1.0
 70
  1064
 71
     3
 72
    11
 73
     7
 74
     5
 42
0.000000001
 43
0.0000000001
 44
0.0000000001
 40
0.0
 40
0.0
 40
0.0
 40
0.0
 40
1.750184152921611
 40
3.133745496961306
 40
4.421027844225058
 40
7.276737688192085
 40
7.276737688192085
 40
7.276737688192085
 40
7.276737688192085
 10
5592.654152794532
 20
-1413.237519332525
 30
0.0
 10
5593.165565136708
 20
-1413.587990092431
 30
0.0
 10
5594.081260848904
 20
-1414.215516152382
 30
0.0
 10
5595.617284031796
 20
-1413.671140026201
 30
0.0
 10
5596.798305755294
 20
-1412.033461160572
 30
0.0
 10
5598.293344960991
 20
-1412.746222409601
 30
0.0
 10
5599.323855756031
 20
-1413.237519332525
 30
0.0
 11
5592.654152794532
 21
-1413.237519332525
 31
0.0
 11
5594.242376398542
 21
-1413.972835830912
 31
0.0
 11
5595.554883598776
 21
-1413.535152335613
 31
0.0
 11
5596.521994103653
 21
-1412.685568253293
 31
0.0
 11
5599.323855756031
 21
-1413.237519332525
 31
0.0
  0
SPLINE
  5
B364B
330
18
100
AcDbEntity
  8
文字
100
AcDbSpline
210
0.0
220
0.0
230
1.0
 70
  1064
 71
     3
 72
    11
 73
     7
 74
     5
 42
0.000000001
 43
0.0000000001
 44
0.0000000001
 40
0.0
 40
0.0
 40
0.0
 40
0.0
 40
1.750184152921611
 40
3.133745496961306
 40
4.421027844225058
 40
7.276737688192085
 40
7.276737688192085
 40
7.276737688192085
 40
7.276737688192085
 10
5592.654152794532
 20
-1411.737519332525
 30
0.0
 10
5593.165565136708
 20
-1412.087990092431
 30
0.0
 10
5594.081260848904
 20
-1412.715516152382
 30
0.0
 10
5595.617284031796
 20
-1412.171140026201
 30
0.0
 10
5596.798305755294
 20
-1410.533461160572
 30
0.0
 10
5598.293344960991
 20
-1411.246222409601
 30
0.0
 10
5599.323855756031
 20
-1411.737519332525
 30
0.0
 11
5592.654152794532
 21
-1411.737519332525
 31
0.0
 11
5594.242376398542
 21
-1412.472835830912
 31
0.0
 11
5595.554883598776
 21
-1412.035152335613
 31
0.0
 11
5596.521994103653
 21
-1411.185568253293
 31
0.0
 11
5599.323855756031
 21
-1411.737519332525
 31
0.0
  0
LINE
  5
B365D
330
18
100
AcDbEntity
  8
実線
100
AcDbLine
 10
5257.597491566592
 20
-1416.087519332518
 30
0.0
 11
5252.597491566592
 21
-1416.087519332518
 31
0.0
  0
LINE
  5
B365E
330
18
100
AcDbEntity
  8
実線
100
AcDbLine
 10
5257.597491566592
 20
-1410.387519332518
 30
0.0
 11
5252.597491566592
 21
-1410.387519332518
 31
0.0
  0
LINE
  5
B365F
330
18
100
AcDbEntity
  8
実線
100
AcDbLine
 10
5193.247491566595
 20
-1556.612541883254
 30
0.0
 11
5193.247491566595
 21
-1532.437564433992
 31
0.0
  0
LINE
  5
B3660
330
18
100
AcDbEntity
  8
実線
100
AcDbLine
 10
5198.947491566594
 20
-1556.612541883254
 30
0.0
 11
5198.947491566594
 21
-1532.437564433992
 31
0.0
  0
LINE
  5
B3661
330
18
100
AcDbEntity
  8
実線
100
AcDbLine
 10
5193.247491566594
 20
-1563.387519332517
 30
0.0
 11
5193.247491566595
 21
-1558.612541883247
 31
0.0
  0
LINE
  5
B3662
330
18
100
AcDbEntity
  8
実線
100
AcDbLine
 10
5198.947491566594
 20
-1563.387519332517
 30
0.0
 11
5198.947491566594
 21
-1558.612541883259
 31
0.0
  0
LINE
  5
B3663
330
18
100
AcDbEntity
  8
実線
100
AcDbLine
 10
5257.597491566592
 20
-1598.387519332517
 30
0.0
 11
5233.947491566595
 21
-1598.387519332517
 31
0.0
  0
LINE
  5
B3664
330
18
100
AcDbEntity
  8
実線
100
AcDbLine
 10
5257.597491566592
 20
-1604.087519332519
 30
0.0
 11
5233.947491566592
 21
-1604.087519332517
 31
0.0
  0
ARC
  5
B3665
330
18
100
AcDbEntity
  8
実線
100
AcDbCircle
 10
5233.947491566595
 20
-1563.387519332517
 30
0.0
 40
35.00000000000001
100
AcDbArc
 50
180.0
 51
270.0
  0
ARC
  5
B3666
330
18
100
AcDbEntity
  8
実線
100
AcDbCircle
 10
5233.947491566595
 20
-1563.387519332517
 30
0.0
 40
40.70000000000001
100
AcDbArc
 50
180.0
 51
270.0
  0
LINE
  5
B3667
330
18
100
AcDbEntity
  8
実線
100
AcDbLine
 10
5193.865625227048
 20
-1532.437564433992
 30
0.0
 11
5193.200625227049
 21
-1522.437564433992
 31
0.0
  0
LINE
  5
B3668
330
18
100
AcDbEntity
  8
実線
100
AcDbLine
 10
5195.559357906141
 20
-1532.437564433992
 30
0.0
 11
5194.894357906141
 21
-1522.437564433992
 31
0.0
  0
LINE
  5
B3669
330
18
100
AcDbEntity
  8
実線
100
AcDbLine
 10
5196.635625227049
 20
-1532.437564433992
 30
0.0
 11
5197.300625227048
 21
-1522.437564433992
 31
0.0
  0
LINE
  5
B366A
330
18
100
AcDbEntity
  8
実線
100
AcDbLine
 10
5198.329357906141
 20
-1532.437564433992
 30
0.0
 11
5198.994357906141
 21
-1522.437564433992
 31
0.0
  0
TEXT
  5
B3ACE
330
18
100
AcDbEntity
  8
文字
100
AcDbText
 10
5801.870931635935
 20
-1601.453345996517
 30
0.0
 40
6.0
  1
外形図（ABS_高精度）
 41
0.6
  7
まこ
100
AcDbText
  0
TEXT
  5
B3ACF
330
18
100
AcDbEntity
  8
文字
100
AcDbText
 10
5800.022482453947
 20
-1612.811252764364
 30
0.0
 40
7.0
  1
ＳＥ－７７１２０Ａ
 41
0.9529999999999999
  7
まこ
100
AcDbText
  0
TEXT
  5
B3AD0
330
18
100
AcDbEntity
  8
文字
100
AcDbText
 10
5800.210727459836
 20
-1590.22817712194
 30
0.0
 40
3.5
  1
τDISCモータ ND180-55-FSPB-UC（ABS） NMR-SDMJA2A-501APB-UC
 41
0.38
  7
まこ
100
AcDbText
  0
HATCH
  5
B3BFB
330
18
100
AcDbEntity
  8
ハッチング
100
AcDbHatch
 10
0.0
 20
0.0
 30
0.0
210
0.0
220
0.0
230
1.0
  2
SOLID
 70
     1
 71
     0
 91
        3
 92
        7
 72
     1
 73
     1
 93
        3
 10
5335.33913817147
 20
-1427.264515750794
 42
0.0
 10
5334.562681036163
 20
-1424.366738271928
 42
0.0
 10
5331.664903557297
 20
-1425.143195407235
 42
0.4142135623726431
 97
        0
 92
        7
 72
     1
 73
     1
 93
        3
 10
5337.460458515032
 20
-1423.590281136619
 42
0.4040308163789767
 10
5333.887781730799
 20
-1421.443638730751
 42
0.017447169832273
 10
5334.562681036164
 20
-1424.366738271927
 42
0.0
 97
        0
 92
        7
 72
     1
 73
     1
 93
        3
 10
5334.56268103616
 20
-1424.366738271922
 42
-0.0174471698319597
 10
5333.887781730799
 20
-1421.443638730751
 42
0.0087229211480204
 10
5333.786223900855
 20
-1421.46896079306
 42
0.0
 97
        0
 75
     0
 76
     1
 47
0.0
 98
        3
 10
5334.005794614161
 20
-1426.011739699597
 10
5335.883197350497
 20
-1422.576092692105
 10
5333.891534381706
 20
-1421.624973431278
1001
ACAD
1010
0.0
1020
0.0
1030
0.0
  0
HATCH
  5
B3C30
330
18
100
AcDbEntity
  8
ハッチング
100
AcDbHatch
 10
0.0
 20
0.0
 30
0.0
210
0.0
220
0.0
230
1.0
  2
SOLID
 70
     1
 71
     0
 91
        3
 92
        7
 72
     1
 73
     1
 93
        4
 10
5840.276967065114
 20
-1482.865443097095
 42
0.0
 10
5838.556237756061
 20
-1480.407986964229
 42
0.2446984432291988
 10
5837.276967065113
 20
-1482.865443097096
 42
0.1494012440317082
 10
5837.789527799584
 20
-1484.542537578724
 42
0.008824216471513
 97
        0
 92
        7
 72
     1
 73
     1
 93
        4
 10
5841.997696374167
 20
-1485.322899229962
 42
0.2446984432289402
 10
5843.276967065113
 20
-1482.865443097096
 42
0.1539147210589496
 10
5842.734423197981
 20
-1481.144713788043
 42
0.0
 10
5840.276967065114
 20
-1482.865443097096
 42
0.0
 97
        0
 92
        7
 72
     1
 73
     1
 93
        3
 10
5837.819510932246
 20
-1484.58617240615
 42
0.0
 10
5840.27696706511
 20
-1482.8654430971
 42
-0.0088242164715121
 10
5837.789527799584
 20
-1484.542537578724
 42
0.0044120223149393
 97
        0
 75
     0
 76
     1
 47
0.0
 98
        3
 10
5838.261260864777
 20
-1482.782897155276
 10
5842.222580638443
 20
-1483.327343948813
 10
5837.928328109897
 20
-1484.482415422967
1001
ACAD
1010
0.0
1020
0.0
1030
0.0
  0
VIEWPORT
  5
B3ADF
102
{ACAD_XDICTIONARY
360
B3AE0
102
}
330
B3AD8
100
AcDbEntity
 67
     1
  8
0
100
AcDbViewport
 10
5.346665897711946
 20
3.633333247951829
 30
0.0
 40
9.149965755378536
 41
5.865362663704189
 68
     1
 69
     1
 12
5.346665897711946
 22
3.633333247951829
 13
0.0
 23
0.0
 14
10.0
 24
10.0
 15
10.0
 25
10.0
 16
0.0
 26
0.0
 36
1.0
 17
0.0
 27
0.0
 37
0.0
 42
50.0
 43
0.0
 44
0.0
 45
5.865362663704189
 50
0.0
 51
0.0
 72
   100
 90
   557104
  1

281
     0
 71
     1
 74
     0
110
0.0
120
0.0
130
0.0
111
1.0
121
0.0
131
0.0
112
0.0
122
1.0
132
0.0
 79
     0
146
0.0
  0
VIEWPORT
  5
B3AE3
102
{ACAD_XDICTIONARY
360
B3AE4
102
}
330
B3AD8
100
AcDbEntity
 67
     1
  8
dimension
100
AcDbViewport
 10
5.346666471226008
 20
3.633333285023846
 30
0.0
 40
8.554666353961614
 41
5.813333256038154
 68
     2
 69
     2
 12
5549.285230770936
 22
-1519.98751754438
 13
-147.9468458676921
 23
19.55743956420332
 14
10.0
 24
10.0
 15
10.0
 25
10.0
 16
0.0
 26
0.0
 36
1.0
 17
0.0
 27
0.0
 37
0.0
 42
50.0
 43
0.0
 44
0.0
 45
504.8310027220396
 50
0.0
 51
0.0
 72
   100
341
E
 90
   819216
  1

281
     0
 71
     1
 74
     0
110
0.0
120
0.0
130
0.0
111
1.0
121
0.0
131
0.0
112
0.0
122
1.0
132
0.0
 79
     0
146
0.0
  0
ENDSEC
  0
SECTION
  2
OBJECTS
  0
DICTIONARY
  5
C
330
0
100
AcDbDictionary
281
     1
  3
ACAD_2007HEADERVARS_RT
350
B3C40
  3
ACAD_CIP_PREVIOUS_PRODUCT_INFO
350
A2AF1
  3
ACAD_COLOR
350
B3A9E
  3
ACAD_DETAILVIEWSTYLE
350
B3763
  3
ACAD_GROUP
350
D
  3
ACAD_IMAGE_VARS
350
A2EA9
  3
ACAD_LAYOUT
350
73F
  3
ACAD_MATERIAL
350
B3A8F
  3
ACAD_MLEADERSTYLE
350
B3A95
  3
ACAD_MLINESTYLE
350
1B
  3
ACAD_PLOTSETTINGS
350
740
  3
ACAD_PLOTSTYLENAME
350
73D
  3
ACAD_SCALELIST
350
A2AD3
  3
ACAD_SECTIONVIEWSTYLE
350
B3764
  3
ACAD_TABLESTYLE
350
B3A93
  3
ACAD_VISUALSTYLE
350
B3A76
  3
AcadDim
350
A8E9B
  3
ACDB_RECOMPOSE_DATA
350
B3C3E
  3
AcDbVariableDictionary
350
11AC
  3
AcDsDecomposeData
350
B3C48
  3
APPDATA
350
A2EA7
  3
DWGPROPS
350
B3C3F
  3
TOOLBOX
350
B39F3
  0
DICTIONARY
  5
1E591
330
2
100
AcDbDictionary
280
     1
281
     1
  3
ACAD_LAYERSTATES
360
1E615
  3
ACLYDICTIONARY
360
A7A48
  0
DICTIONARY
  5
A2CED
330
E
100
AcDbDictionary
280
     1
281
     1
  3
ADSK_XREC_LAYER_RECONCILED
360
A2CEE
  0
DICTIONARY
  5
A2CF5
330
8C6
100
AcDbDictionary
280
     1
281
     1
  3
ADSK_XREC_LAYER_RECONCILED
360
A2CF6
  0
DICTIONARY
  5
A2CFD
330
1521
100
AcDbDictionary
280
     1
281
     1
  3
ADSK_XREC_LAYER_RECONCILED
360
A2CFE
  0
DICTIONARY
  5
A2D01
330
1523
100
AcDbDictionary
280
     1
281
     1
  3
ADSK_XREC_LAYER_RECONCILED
360
A2D02
  0
DICTIONARY
  5
A2D09
330
7EA59
100
AcDbDictionary
280
     1
281
     1
  3
ADSK_XREC_LAYER_RECONCILED
360
A2D0A
  0
DICTIONARY
  5
A2EBE
330
A2EBD
100
AcDbDictionary
280
     1
281
     1
  3
ADSK_XREC_LAYER_RECONCILED
360
A2EBF
  0
DICTIONARY
  5
B3BCD
330
B3BCC
100
AcDbDictionary
280
     1
281
     1
  3
ADSK_XREC_LAYER_RECONCILED
360
B3BCE
  0
DICTIONARY
  5
B3AE0
330
B3ADF
100
AcDbDictionary
280
     1
281
     1
  3
ACAD_XREC_ROUNDTRIP
360
B3C8A
  3
ASDK_XREC_ANNOTATION_SCALE_INFO
360
B3AE1
  0
DICTIONARY
  5
B3AE4
330
B3AE3
100
AcDbDictionary
280
     1
281
     1
  3
ACAD_XREC_ROUNDTRIP
360
B3C8B
  3
ASDK_XREC_ANNOTATION_SCALE_INFO
360
B3AE5
  0
DICTIONARY
  5
B3C40
102
{ACAD_REACTORS
330
C
102
}
330
C
100
AcDbDictionary
281
     1
  3
INTERFERECOLOR
350
B3C41
  0
XRECORD
  5
A2AF1
102
{ACAD_REACTORS
330
C
102
}
330
C
100
AcDbXrecord
280
     1
300
ACDLT
300
2019
300
87085ACDLT_2019_0F
  0
DICTIONARY
  5
B3A9E
102
{ACAD_REACTORS
330
C
102
}
330
C
100
AcDbDictionary
281
     1
  0
DICTIONARY
  5
B3763
102
{ACAD_REACTORS
330
C
102
}
330
C
100
AcDbDictionary
281
     1
  3
Imperial24
350
B3AA0
  0
DICTIONARY
  5
D
102
{ACAD_REACTORS
330
C
102
}
330
C
100
AcDbDictionary
281
     1
  0
RASTERVARIABLES
  5
A2EA9
102
{ACAD_REACTORS
330
C
102
}
330
C
100
AcDbRasterVariables
 90
        0
 70
     1
 71
     1
 72
     0
  0
DICTIONARY
  5
73F
102
{ACAD_REACTORS
330
C
102
}
330
C
100
AcDbDictionary
281
     1
  3
Model
350
741
  3
レイアウト1
350
B3AD9
  0
DICTIONARY
  5
B3A8F
102
{ACAD_REACTORS
330
C
102
}
330
C
100
AcDbDictionary
281
     1
  3
ByBlock
350
B3A91
  3
ByLayer
350
B3A90
  3
Global
350
B3A92
  0
DICTIONARY
  5
B3A95
102
{ACAD_REACTORS
330
C
102
}
330
C
100
AcDbDictionary
281
     1
  3
Standard
350
B3A96
  0
DICTIONARY
  5
1B
102
{ACAD_REACTORS
330
C
102
}
330
C
100
AcDbDictionary
281
     1
  3
STANDARD
350
1C
  0
DICTIONARY
  5
740
102
{ACAD_REACTORS
330
C
102
}
330
C
100
AcDbDictionary
281
     1
  0
ACDBDICTIONARYWDFLT
  5
73D
102
{ACAD_REACTORS
330
C
102
}
330
C
100
AcDbDictionary
281
     1
  3
Normal
350
73E
100
AcDbDictionaryWithDefault
340
73E
  0
DICTIONARY
  5
A2AD3
102
{ACAD_REACTORS
330
C
102
}
330
C
100
AcDbDictionary
281
     1
  3
*A1
350
B3BDE
  3
A0
350
A2AD4
  3
A1
350
A2AD5
  3
A2
350
A2AD6
  3
A3
350
A2AD7
  3
A4
350
A2AD8
  3
A5
350
A2AD9
  3
A6
350
A2ADA
  3
A7
350
A2ADB
  3
A8
350
A2ADC
  3
A9
350
A2ADD
  3
B0
350
A2ADE
  3
B1
350
A2ADF
  3
B2
350
A2AE0
  3
B3
350
A2AE1
  3
B4
350
A2AE2
  3
B5
350
A2AE3
  3
B6
350
A2AE4
  0
DICTIONARY
  5
B3764
102
{ACAD_REACTORS
330
C
102
}
330
C
100
AcDbDictionary
281
     1
  3
Imperial24
350
B3A9F
  0
DICTIONARY
  5
B3A93
102
{ACAD_REACTORS
330
C
102
}
330
C
100
AcDbDictionary
281
     1
  3
Standard
350
B3A94
  0
DICTIONARY
  5
B3A76
102
{ACAD_REACTORS
330
C
102
}
330
C
100
AcDbDictionary
281
     1
  3
2dWireframe
350
B3A7B
  3
Basic
350
B3A7E
  3
Brighten
350
B3A82
  3
ColorChange
350
B3A86
  3
Conceptual
350
B3A80
  3
Dim
350
B3A81
  3
EdgeColorOff
350
B3A89
  3
Facepattern
350
B3A85
  3
Flat
350
B3A77
  3
FlatWithEdges
350
B3A78
  3
Gouraud
350
B3A79
  3
GouraudWithEdges
350
B3A7A
  3
Hidden
350
B3A7D
  3
JitterOff
350
B3A87
  3
Linepattern
350
B3A84
  3
OverhangOff
350
B3A88
  3
Realistic
350
B3A7F
  3
Shaded
350
B3A8E
  3
Shaded with edges
350
B3A8D
  3
Shades of Gray
350
B3A8A
  3
Sketchy
350
B3A8B
  3
Thicken
350
B3A83
  3
Wireframe
350
B3A7C
  3
X-Ray
350
B3A8C
  0
XRECORD
  5
A8E9B
102
{ACAD_REACTORS
330
C
102
}
330
C
100
AcDbXrecord
280
     1
340
0
 72
     0
 71
     0
 70
     0
 69
     0
 68
     1
 67
     3
 66
     0
 65
     0
 64
     1
 63
     5
 62
     5
 61
     0
 60
     0
 40
0.0
  0
XRECORD
  5
B3C3E
102
{ACAD_REACTORS
330
C
102
}
330
C
100
AcDbXrecord
280
     1
 90
        1
330
B3A94
  0
DICTIONARY
  5
11AC
102
{ACAD_REACTORS
330
C
102
}
330
C
100
AcDbDictionary
281
     1
  3
CANNOSCALE
350
B3C31
  3
CMLEADERSTYLE
350
B3A9B
  3
CTABLESTYLE
350
B3A9A
  3
CVIEWDETAILSTYLE
350
B3BBE
  3
CVIEWSECTIONSTYLE
350
B3BBF
  3
DGNFRAME
350
B3BC4
  3
DIMASSOC
350
11AD
  3
HIDETEXT
350
B3BC3
  3
HPTRANSPARENCY
350
A6C00
  3
INDEXCTL
350
A2D8B
  3
LAYEREVAL
350
B3BC1
  3
LAYERNOTIFY
350
B3BC2
  3
LIGHTINGUNITS
350
B3BC0
  3
MSLTSCALE
350
B3A9C
  3
SORTENTS
350
AD08
  3
XCLIPFRAME
350
B3BC5
  0
DICTIONARY
  5
B3C48
102
{ACAD_REACTORS
330
C
102
}
330
C
100
AcDbDictionary
281
     1
  3
AcDsRecords
350
B3C4A
  3
AcDsSchemas
350
B3C49
1001
ACAD
1070
     2
  0
DICTIONARY
  5
A2EA7
102
{ACAD_REACTORS
330
C
102
}
330
C
100
AcDbDictionary
281
     1
  0
XRECORD
  5
B3C3F
102
{ACAD_REACTORS
330
C
102
}
330
C
100
AcDbXrecord
280
     1
  1
DWGPROPS COOKIE
  2

  3

  4

  6

  7

  8
NI0949
  9

300
=
301
=
302
=
303
=
304
=
305
=
306
=
307
=
308
=
309
=
 40
16.03970013888889
 41
2452479.723113426
 42
2458554.387951389
  1

 90
        0
  0
DICTIONARY
  5
B39F3
102
{ACAD_REACTORS
330
C
102
}
330
C
100
AcDbDictionary
281
     1
  3
REVISIONTABLE
350
B39F4
  0
DICTIONARY
  5
1E615
102
{ACAD_REACTORS
330
1E591
102
}
330
1E591
100
AcDbDictionary
281
     1
  3
ARGON_LAYERP_6
350
B335B
  0
DICTIONARY
  5
A7A48
102
{ACAD_REACTORS
330
1E591
102
}
330
1E591
100
AcDbDictionary
281
     1
1001
ACAD
1000
<All
  0
XRECORD
  5
A2CEE
102
{ACAD_REACTORS
330
A2CED
102
}
330
A2CED
100
AcDbXrecord
280
     1
290
     1
  0
XRECORD
  5
A2CF6
102
{ACAD_REACTORS
330
A2CF5
102
}
330
A2CF5
100
AcDbXrecord
280
     1
290
     1
  0
XRECORD
  5
A2CFE
102
{ACAD_REACTORS
330
A2CFD
102
}
330
A2CFD
100
AcDbXrecord
280
     1
290
     1
  0
XRECORD
  5
A2D02
102
{ACAD_REACTORS
330
A2D01
102
}
330
A2D01
100
AcDbXrecord
280
     1
290
     1
  0
XRECORD
  5
A2D0A
102
{ACAD_REACTORS
330
A2D09
102
}
330
A2D09
100
AcDbXrecord
280
     1
290
     1
  0
XRECORD
  5
A2EBF
102
{ACAD_REACTORS
330
A2EBE
102
}
330
A2EBE
100
AcDbXrecord
280
     1
290
     1
  0
XRECORD
  5
B3BCE
102
{ACAD_REACTORS
330
B3BCD
102
}
330
B3BCD
100
AcDbXrecord
280
     1
290
     1
  0
XRECORD
  5
B3C8A
102
{ACAD_REACTORS
330
B3AE0
102
}
330
B3AE0
100
AcDbXrecord
280
     1
102
SHADEPLOT
 70
     0
  0
XRECORD
  5
B3AE1
102
{ACAD_REACTORS
330
B3AE0
102
}
330
B3AE0
100
AcDbXrecord
280
     1
 90
        1
340
A2AD4
  0
XRECORD
  5
B3C8B
102
{ACAD_REACTORS
330
B3AE4
102
}
330
B3AE4
100
AcDbXrecord
280
     1
102
SHADEPLOT
 70
     0
  0
XRECORD
  5
B3AE5
102
{ACAD_REACTORS
330
B3AE4
102
}
330
B3AE4
100
AcDbXrecord
280
     1
 90
        1
340
A2AD4
  0
XRECORD
  5
B3C41
102
{ACAD_REACTORS
330
B3C40
102
}
330
B3C40
100
AcDbXrecord
280
     1
1004
1800000001000000000000C0000000000000000000000000
  0
ACDBDETAILVIEWSTYLE
  5
B3AA0
102
{ACAD_XDICTIONARY
360
B3C86
102
}
102
{ACAD_REACTORS
330
B3763
102
}
330
B3763
100
AcDbModelDocViewStyle
 70
     0
  3
Imperial24
290
     0
100
AcDbDetailViewStyle
 70
     0
 71
     0
 90
        3
 71
     1
340
F
 40
0.24
340
0
 40
0.24
300

 40
0.36
280
     3
 71
     2
340
14
 90
       25
 71
     3
340
F
 40
0.24
 90
        1
 40
0.75
 90
        1
300
%<\AcVar ViewType \f "%tc1">% %<\AcVar ViewDetailId>%\PSCALE %<\AcVar ViewScale \f "%sn">%
 71
     4
340
14
 90
       25
340
14
 90
       25
280
     0
  0
LAYOUT
  5
741
102
{ACAD_XDICTIONARY
360
B3C4B
102
}
102
{ACAD_REACTORS
330
73F
102
}
330
73F
100
AcDbPlotSettings
  1

  2
HP DesignJet 750C (D/A1) Color
  4
ANSI_A_(11.00_x_8.50_Inches)
  6

 40
6.349999999999999
 41
19.05
 42
6.349999999999999
 43
19.05
 44
279.4
 45
215.9
 46
0.0
 47
0.0
 48
0.0
 49
0.0
140
0.0
141
0.0
142
1.0
143
131.0153896462917
 70
 11952
 72
     0
 73
     0
 74
     0
  7
monochrome.ctb
 75
     0
147
0.0076326911113248
148
-129073.9064414952
149
50474.93667297665
100
AcDbLayout
  1
Model
 70
     1
 71
     0
 10
0.0
 20
0.0
 11
12.0
 21
9.0
 12
0.0
 22
0.0
 32
0.0
 14
5179.947497619638
 24
-1764.094592593432
 34
0.0
 15
5938.380434045687
 25
-1296.300019332518
 35
137.5
146
0.0
 13
0.0
 23
0.0
 33
0.0
 16
1.0
 26
0.0
 36
0.0
 17
0.0
 27
1.0
 37
0.0
 76
     0
330
18
  0
LAYOUT
  5
B3AD9
102
{ACAD_XDICTIONARY
360
B3C88
102
}
102
{ACAD_REACTORS
330
73F
102
}
330
73F
100
AcDbPlotSettings
  1

  2
OneNote
  4
A4
  6

 40
12.69999980926513
 41
12.69998168945312
 42
12.69999694824219
 43
12.70001220703125
 44
209.9733276367187
 45
297.0106506347656
 46
0.0
 47
0.0
 48
0.0
 49
0.0
140
0.0
141
0.0
142
1.0
143
1.0
 70
   688
 72
     0
 73
     1
 74
     5
  7

 75
    16
147
1.0
148
0.0
149
0.0
100
AcDbLayout
  1
レイアウト1
 70
     1
 71
     1
 10
-0.5000004805917815
 20
-0.4999999924907535
 11
11.19333222156434
 21
7.766666449899748
 12
0.0
 22
0.0
 32
0.0
 14
1.068900220610878
 24
0.7264526316292255
 34
-0.0015258207003583
 15
9.624431574813016
 25
6.540213864274434
 35
0.0000000349246037
146
0.0
 13
0.0
 23
0.0
 33
0.0
 16
1.0
 26
0.0
 36
0.0
 17
0.0
 27
1.0
 37
0.0
 76
     0
330
B3AD8
331
B3ADF
1001
ACAD_PSEXT
1000
OneNote
1000
Microsoft Software Printer Driver
1000
Microsoft.Office.OneNote_16001.11231.20118.0_x64__8wekyb3d8bbwe_microsoft.onenoteim_S-1-5-21-1435986300-947959228-466798804-2227
1000

1070
     0
  0
MATERIAL
  5
B3A91
102
{ACAD_XDICTIONARY
360
B3C7F
102
}
102
{ACAD_REACTORS
330
B3A8F
102
}
330
B3A8F
100
AcDbMaterial
  1
ByBlock
 73
     1
 78
     1
172
     1
176
     1
270
     1
274
     1
  0
MATERIAL
  5
B3A90
102
{ACAD_XDICTIONARY
360
B3C7D
102
}
102
{ACAD_REACTORS
330
B3A8F
102
}
330
B3A8F
100
AcDbMaterial
  1
ByLayer
 73
     1
 78
     1
172
     1
176
     1
270
     1
274
     1
  0
MATERIAL
  5
B3A92
102
{ACAD_XDICTIONARY
360
B3C81
102
}
102
{ACAD_REACTORS
330
B3A8F
102
}
330
B3A8F
100
AcDbMaterial
  1
Global
 73
     1
 78
     1
172
     1
176
     1
270
     1
274
     1
  0
MLEADERSTYLE
  5
B3A96
102
{ACAD_REACTORS
330
B3A95
102
}
330
B3A95
100
AcDbMLeaderStyle
170
     2
171
     1
172
     0
 90
        2
 40
0.0
 41
0.0
173
     1
 91
-1056964608
340
12
 92
       -2
290
     1
 42
0.09
291
     1
 43
0.36
  3
Standard
 44
0.18
300

342
F
174
     1
178
     6
175
     1
176
     0
 93
-1056964608
 45
0.18
292
     0
297
     0
 46
0.18
 94
-1056964608
 47
1.0
 49
1.0
140
1.0
293
     1
141
0.0
294
     1
177
     0
142
1.0
295
     0
296
     0
143
0.125
1001
ACAD_MLEADERVER
1070
     2
  0
MLINESTYLE
  5
1C
102
{ACAD_REACTORS
330
1B
102
}
330
1B
100
AcDbMlineStyle
  2
STANDARD
 70
     0
  3

 62
   256
 51
90.0
 52
90.0
 71
     2
 49
0.5
 62
   256
  6
BYLAYER
 49
-0.5
 62
   256
  6
BYLAYER
  0
ACDBPLACEHOLDER
  5
73E
102
{ACAD_REACTORS
330
73D
102
}
330
73D
  0
SCALE
  5
B3BDE
102
{ACAD_REACTORS
330
A2AD3
102
}
330
A2AD3
100
AcDbScale
 70
     0
300
1:1_XREF_XREF
140
1.0
141
1.0
290
     1
  0
SCALE
  5
A2AD4
102
{ACAD_REACTORS
330
A2AD3
102
}
330
A2AD3
100
AcDbScale
 70
     0
300
1:1
140
1.0
141
1.0
290
     1
  0
SCALE
  5
A2AD5
102
{ACAD_REACTORS
330
A2AD3
102
}
330
A2AD3
100
AcDbScale
 70
     0
300
1/128" = 1'-0"
140
0.0078125
141
12.0
290
     0
  0
SCALE
  5
A2AD6
102
{ACAD_REACTORS
330
A2AD3
102
}
330
A2AD3
100
AcDbScale
 70
     0
300
1/64" = 1'-0"
140
0.015625
141
12.0
290
     0
  0
SCALE
  5
A2AD7
102
{ACAD_REACTORS
330
A2AD3
102
}
330
A2AD3
100
AcDbScale
 70
     0
300
1/32" = 1'-0"
140
0.03125
141
12.0
290
     0
  0
SCALE
  5
A2AD8
102
{ACAD_REACTORS
330
A2AD3
102
}
330
A2AD3
100
AcDbScale
 70
     0
300
1/16" = 1'-0"
140
0.0625
141
12.0
290
     0
  0
SCALE
  5
A2AD9
102
{ACAD_REACTORS
330
A2AD3
102
}
330
A2AD3
100
AcDbScale
 70
     0
300
3/32" = 1'-0"
140
0.09375
141
12.0
290
     0
  0
SCALE
  5
A2ADA
102
{ACAD_REACTORS
330
A2AD3
102
}
330
A2AD3
100
AcDbScale
 70
     0
300
1/8" = 1'-0"
140
0.125
141
12.0
290
     0
  0
SCALE
  5
A2ADB
102
{ACAD_REACTORS
330
A2AD3
102
}
330
A2AD3
100
AcDbScale
 70
     0
300
3/16" = 1'-0"
140
0.1875
141
12.0
290
     0
  0
SCALE
  5
A2ADC
102
{ACAD_REACTORS
330
A2AD3
102
}
330
A2AD3
100
AcDbScale
 70
     0
300
1/4" = 1'-0"
140
0.25
141
12.0
290
     0
  0
SCALE
  5
A2ADD
102
{ACAD_REACTORS
330
A2AD3
102
}
330
A2AD3
100
AcDbScale
 70
     0
300
3/8" = 1'-0"
140
0.375
141
12.0
290
     0
  0
SCALE
  5
A2ADE
102
{ACAD_REACTORS
330
A2AD3
102
}
330
A2AD3
100
AcDbScale
 70
     0
300
1/2" = 1'-0"
140
0.5
141
12.0
290
     0
  0
SCALE
  5
A2ADF
102
{ACAD_REACTORS
330
A2AD3
102
}
330
A2AD3
100
AcDbScale
 70
     0
300
3/4" = 1'-0"
140
0.75
141
12.0
290
     0
  0
SCALE
  5
A2AE0
102
{ACAD_REACTORS
330
A2AD3
102
}
330
A2AD3
100
AcDbScale
 70
     0
300
1" = 1'-0"
140
1.0
141
12.0
290
     0
  0
SCALE
  5
A2AE1
102
{ACAD_REACTORS
330
A2AD3
102
}
330
A2AD3
100
AcDbScale
 70
     0
300
1-1/2" = 1'-0"
140
1.5
141
12.0
290
     0
  0
SCALE
  5
A2AE2
102
{ACAD_REACTORS
330
A2AD3
102
}
330
A2AD3
100
AcDbScale
 70
     0
300
3" = 1'-0"
140
3.0
141
12.0
290
     0
  0
SCALE
  5
A2AE3
102
{ACAD_REACTORS
330
A2AD3
102
}
330
A2AD3
100
AcDbScale
 70
     0
300
6" = 1'-0"
140
6.0
141
12.0
290
     0
  0
SCALE
  5
A2AE4
102
{ACAD_REACTORS
330
A2AD3
102
}
330
A2AD3
100
AcDbScale
 70
     0
300
1'-0" = 1'-0"
140
12.0
141
12.0
290
     0
  0
ACDBSECTIONVIEWSTYLE
  5
B3A9F
102
{ACAD_XDICTIONARY
360
B3C84
102
}
102
{ACAD_REACTORS
330
B3764
102
}
330
B3764
100
AcDbModelDocViewStyle
 70
     0
  3
Imperial24
290
     0
100
AcDbSectionViewStyle
 70
     0
 71
     0
 90
       78
 71
     1
340
F
 40
0.24
340
0
340
0
 40
0.24
300
I, O, Q, S, X, Z
 40
0.48
 90
        3
 40
0.18
 90
        1
 71
     2
340
14
 90
       25
340
14
 90
       50
 40
0.24
 40
0.0
 40
0.24
 71
     3
340
F
 40
0.24
 90
        1
 40
0.75
 90
        1
300
%<\AcVar ViewType \f "%tc1">% %<\AcVar ViewSectionStartId>%-%<\AcVar ViewSectionEndId>%\PSCALE %<\AcVar ViewScale \f "%sn">%
 71
     4
300
ANSI31
 40
1.0
 90
        0
290
     0
290
     0
 90
        6
 40
0.0
 40
1.570796326794896
 40
0.2617993877991494
 40
1.308996938995747
 40
-0.2617993877991494
 40
1.832595714594046
  0
TABLESTYLE
  5
B3A94
102
{ACAD_XDICTIONARY
360
B3C3C
102
}
102
{ACAD_REACTORS
330
B3A93
102
}
330
B3A93
100
AcDbTableStyle
  3
Standard
 70
     0
 71
     0
 40
0.06
 41
0.06
280
     0
281
     0
  7
STANDARD
140
0.18
170
     2
 62
     0
 63
     7
283
     0
274
    -2
284
     1
 64
     0
275
    -2
285
     1
 65
     0
276
    -2
286
     1
 66
     0
277
    -2
287
     1
 67
     0
278
    -2
288
     1
 68
     0
279
    -2
289
     1
 69
     0
  7
STANDARD
140
0.25
170
     5
 62
     0
 63
     7
283
     0
274
    -2
284
     1
 64
     0
275
    -2
285
     1
 65
     0
276
    -2
286
     1
 66
     0
277
    -2
287
     1
 67
     0
278
    -2
288
     1
 68
     0
279
    -2
289
     1
 69
     0
  7
STANDARD
140
0.18
170
     5
 62
     0
 63
     7
283
     0
274
    -2
284
     1
 64
     0
275
    -2
285
     1
 65
     0
276
    -2
286
     1
 66
     0
277
    -2
287
     1
 67
     0
278
    -2
288
     1
 68
     0
279
    -2
289
     1
 69
     0
  0
VISUALSTYLE
  5
B3A7B
102
{ACAD_XDICTIONARY
360
B3C55
102
}
102
{ACAD_REACTORS
330
B3A76
102
}
330
B3A76
100
AcDbVisualStyle
  2
2dWireframe
 70
     4
 71
     0
 72
     2
 73
     0
 90
        0
 40
-0.6
 41
-30.0
 62
     5
 63
     7
 74
     1
 91
        4
 64
     7
 65
   257
 75
     1
175
     1
 42
1.0
 92
        0
 66
   257
 43
1.0
 76
     1
 77
     6
 78
     2
 67
     7
 79
     5
170
     0
171
     0
290
     0
174
     0
 93
        1
 44
0.0
173
     0
291
     0
 45
0.0
1001
ACAD
1000
AcDbSavedByObjectVersion
1070
     0
  0
VISUALSTYLE
  5
B3A7E
102
{ACAD_XDICTIONARY
360
B3C5B
102
}
102
{ACAD_REACTORS
330
B3A76
102
}
330
B3A76
100
AcDbVisualStyle
  2
Basic
 70
     7
 71
     1
 72
     0
 73
     1
 90
        0
 40
-0.6
 41
-30.0
 62
     5
 63
     7
 74
     0
 91
        4
 64
     7
 65
   257
 75
     1
175
     1
 42
1.0
 92
        8
 66
     7
 43
1.0
 76
     1
 77
     6
 78
     2
 67
     7
 79
     5
170
     0
171
     0
290
     0
174
     0
 93
        1
 44
0.0
173
     0
291
     1
 45
0.0
1001
ACAD
1000
AcDbSavedByObjectVersion
1070
     0
  0
VISUALSTYLE
  5
B3A82
102
{ACAD_XDICTIONARY
360
B3C63
102
}
102
{ACAD_REACTORS
330
B3A76
102
}
330
B3A76
100
AcDbVisualStyle
  2
Brighten
 70
    12
 71
     2
 72
     2
 73
     0
 90
        0
 40
-0.6
 41
-30.0
 62
     5
 63
     7
 74
     1
 91
        4
 64
     7
 65
   257
 75
     1
175
     1
 42
1.0
 92
        8
 66
     7
 43
1.0
 76
     1
 77
     6
 78
     2
 67
     7
 79
     5
170
     0
171
     0
290
     0
174
     0
 93
        1
 44
50.0
173
     0
291
     1
 45
0.0
1001
ACAD
1000
AcDbSavedByObjectVersion
1070
     0
  0
VISUALSTYLE
  5
B3A86
102
{ACAD_XDICTIONARY
360
B3C6B
102
}
102
{ACAD_REACTORS
330
B3A76
102
}
330
B3A76
100
AcDbVisualStyle
  2
ColorChange
 70
    16
 71
     2
 72
     2
 73
     3
 90
        0
 40
-0.6
 41
-30.0
 62
     5
 63
     8
 74
     1
 91
        4
 64
     7
 65
   257
 75
     1
175
     1
 42
1.0
 92
        8
 66
     8
 43
1.0
 76
     1
 77
     6
 78
     2
 67
     7
 79
     5
170
     0
171
     0
290
     0
174
     0
 93
        1
 44
0.0
173
     0
291
     1
 45
0.0
1001
ACAD
1000
AcDbSavedByObjectVersion
1070
     0
  0
VISUALSTYLE
  5
B3A80
102
{ACAD_XDICTIONARY
360
B3C5F
102
}
102
{ACAD_REACTORS
330
B3A76
102
}
330
B3A76
100
AcDbVisualStyle
  2
Conceptual
 70
     9
 71
     3
 72
     2
 73
     0
 90
        0
 40
-0.6
 41
-30.0
 62
     5
 63
     7
 74
     2
 91
        2
 64
     7
 65
   257
 75
     1
175
     1
 42
179.0
 92
        8
 66
     7
 43
1.0
 76
     1
 77
     6
 78
     2
 67
     7
 79
     3
170
     0
171
     0
290
     0
174
     0
 93
        1
 44
0.0
173
     0
291
     0
 45
0.0
1001
ACAD
1000
AcDbSavedByObjectVersion
1070
     0
  0
VISUALSTYLE
  5
B3A81
102
{ACAD_XDICTIONARY
360
B3C61
102
}
102
{ACAD_REACTORS
330
B3A76
102
}
330
B3A76
100
AcDbVisualStyle
  2
Dim
 70
    11
 71
     2
 72
     2
 73
     0
 90
        0
 40
-0.6
 41
-30.0
 62
     5
 63
     7
 74
     1
 91
        4
 64
     7
 65
   257
 75
     1
175
     1
 42
1.0
 92
        8
 66
     7
 43
1.0
 76
     1
 77
     6
 78
     2
 67
     7
 79
     5
170
     0
171
     0
290
     0
174
     0
 93
        1
 44
-50.0
173
     0
291
     1
 45
0.0
1001
ACAD
1000
AcDbSavedByObjectVersion
1070
     0
  0
VISUALSTYLE
  5
B3A89
102
{ACAD_XDICTIONARY
360
B3C71
102
}
102
{ACAD_REACTORS
330
B3A76
102
}
330
B3A76
100
AcDbVisualStyle
  2
EdgeColorOff
 70
    22
 71
     2
 72
     2
 73
     0
 90
        0
 40
-0.6
 41
-30.0
 62
     5
 63
     7
 74
     1
 91
        4
 64
     7
 65
   257
 75
     1
175
     1
 42
1.0
 92
        8
 66
     7
 43
1.0
 76
     1
 77
     6
 78
     2
 67
     7
 79
     5
170
     0
171
     0
290
     0
174
     0
 93
        1
 44
0.0
173
     0
291
     1
 45
0.0
1001
ACAD
1000
AcDbSavedByObjectVersion
1070
     0
  0
VISUALSTYLE
  5
B3A85
102
{ACAD_XDICTIONARY
360
B3C69
102
}
102
{ACAD_REACTORS
330
B3A76
102
}
330
B3A76
100
AcDbVisualStyle
  2
Facepattern
 70
    15
 71
     2
 72
     2
 73
     0
 90
        0
 40
-0.6
 41
-30.0
 62
     5
 63
     7
 74
     1
 91
        4
 64
     7
 65
   257
 75
     1
175
     1
 42
1.0
 92
        8
 66
     7
 43
1.0
 76
     1
 77
     6
 78
     2
 67
     7
 79
     5
170
     0
171
     0
290
     0
174
     0
 93
        1
 44
0.0
173
     0
291
     1
 45
0.0
1001
ACAD
1000
AcDbSavedByObjectVersion
1070
     0
  0
VISUALSTYLE
  5
B3A77
102
{ACAD_XDICTIONARY
360
B3C4D
102
}
102
{ACAD_REACTORS
330
B3A76
102
}
330
B3A76
100
AcDbVisualStyle
  2
Flat
 70
     0
 71
     2
 72
     1
 73
     1
 90
        2
 40
-0.6
 41
30.0
 62
     5
 63
     7
 74
     0
 91
        0
 64
     7
 65
   257
 75
     1
175
     1
 42
1.0
 92
        8
 66
     7
 43
1.0
 76
     1
 77
     6
 78
     2
 67
     7
 79
     5
170
     0
171
     0
290
     0
174
     0
 93
       13
 44
0.0
173
     0
291
     1
 45
0.0
1001
ACAD
1000
AcDbSavedByObjectVersion
1070
     0
  0
VISUALSTYLE
  5
B3A78
102
{ACAD_XDICTIONARY
360
B3C4F
102
}
102
{ACAD_REACTORS
330
B3A76
102
}
330
B3A76
100
AcDbVisualStyle
  2
FlatWithEdges
 70
     1
 71
     2
 72
     1
 73
     1
 90
        2
 40
-0.6
 41
30.0
 62
     5
 63
     7
 74
     1
 91
        0
 64
     7
 65
   257
 75
     1
175
     1
 42
1.0
 92
        0
 66
   257
 43
1.0
 76
     1
 77
     6
 78
     2
 67
     7
 79
     5
170
     0
171
     0
290
     0
174
     0
 93
       13
 44
0.0
173
     0
291
     1
 45
0.0
1001
ACAD
1000
AcDbSavedByObjectVersion
1070
     0
  0
VISUALSTYLE
  5
B3A79
102
{ACAD_XDICTIONARY
360
B3C51
102
}
102
{ACAD_REACTORS
330
B3A76
102
}
330
B3A76
100
AcDbVisualStyle
  2
Gouraud
 70
     2
 71
     2
 72
     2
 73
     1
 90
        2
 40
-0.6
 41
30.0
 62
     5
 63
     7
 74
     0
 91
        0
 64
     7
 65
   257
 75
     1
175
     1
 42
1.0
 92
        0
 66
     7
 43
1.0
 76
     1
 77
     6
 78
     2
 67
     7
 79
     5
170
     0
171
     0
290
     0
174
     0
 93
       13
 44
0.0
173
     0
291
     1
 45
0.0
1001
ACAD
1000
AcDbSavedByObjectVersion
1070
     0
  0
VISUALSTYLE
  5
B3A7A
102
{ACAD_XDICTIONARY
360
B3C53
102
}
102
{ACAD_REACTORS
330
B3A76
102
}
330
B3A76
100
AcDbVisualStyle
  2
GouraudWithEdges
 70
     3
 71
     2
 72
     2
 73
     1
 90
        2
 40
-0.6
 41
30.0
 62
     5
 63
     7
 74
     1
 91
        0
 64
     7
 65
   257
 75
     1
175
     1
 42
1.0
 92
        0
 66
   257
 43
1.0
 76
     1
 77
     6
 78
     2
 67
     7
 79
     5
170
     0
171
     0
290
     0
174
     0
 93
       13
 44
0.0
173
     0
291
     1
 45
0.0
1001
ACAD
1000
AcDbSavedByObjectVersion
1070
     0
  0
VISUALSTYLE
  5
B3A7D
102
{ACAD_XDICTIONARY
360
B3C59
102
}
102
{ACAD_REACTORS
330
B3A76
102
}
330
B3A76
100
AcDbVisualStyle
  2
Hidden
 70
     6
 71
     1
 72
     2
 73
     2
 90
        0
 40
-0.6
 41
-30.0
 62
     5
 63
     7
 74
     2
 91
        2
 64
     7
 65
   257
 75
     2
175
     1
 42
40.0
 92
        0
 66
   257
 43
1.0
 76
     1
 77
     6
 78
     2
 67
     7
 79
     3
170
     0
171
     0
290
     0
174
     0
 93
        1
 44
0.0
173
     0
291
     0
 45
0.0
1001
ACAD
1000
AcDbSavedByObjectVersion
1070
     0
  0
VISUALSTYLE
  5
B3A87
102
{ACAD_XDICTIONARY
360
B3C6D
102
}
102
{ACAD_REACTORS
330
B3A76
102
}
330
B3A76
100
AcDbVisualStyle
  2
JitterOff
 70
    20
 71
     2
 72
     2
 73
     0
 90
        0
 40
-0.6
 41
-30.0
 62
     5
 63
     7
 74
     1
 91
        4
 64
     7
 65
   257
 75
     1
175
     1
 42
1.0
 92
       10
 66
     7
 43
1.0
 76
     1
 77
     6
 78
     2
 67
     7
 79
     5
170
     0
171
     0
290
     0
174
     0
 93
        1
 44
0.0
173
     0
291
     1
 45
0.0
1001
ACAD
1000
AcDbSavedByObjectVersion
1070
     0
  0
VISUALSTYLE
  5
B3A84
102
{ACAD_XDICTIONARY
360
B3C67
102
}
102
{ACAD_REACTORS
330
B3A76
102
}
330
B3A76
100
AcDbVisualStyle
  2
Linepattern
 70
    14
 71
     2
 72
     2
 73
     0
 90
        0
 40
-0.6
 41
-30.0
 62
     5
 63
     7
 74
     1
 91
        4
 64
     7
 65
   257
 75
     7
175
     7
 42
1.0
 92
        8
 66
     7
 43
1.0
 76
     1
 77
     6
 78
     2
 67
     7
 79
     5
170
     0
171
     0
290
     0
174
     0
 93
        1
 44
0.0
173
     0
291
     1
 45
0.0
1001
ACAD
1000
AcDbSavedByObjectVersion
1070
     0
  0
VISUALSTYLE
  5
B3A88
102
{ACAD_XDICTIONARY
360
B3C6F
102
}
102
{ACAD_REACTORS
330
B3A76
102
}
330
B3A76
100
AcDbVisualStyle
  2
OverhangOff
 70
    21
 71
     2
 72
     2
 73
     0
 90
        0
 40
-0.6
 41
-30.0
 62
     5
 63
     7
 74
     1
 91
        4
 64
     7
 65
   257
 75
     1
175
     1
 42
1.0
 92
        9
 66
     7
 43
1.0
 76
     1
 77
     6
 78
     2
 67
     7
 79
     5
170
     0
171
     0
290
     0
174
     0
 93
        1
 44
0.0
173
     0
291
     1
 45
0.0
1001
ACAD
1000
AcDbSavedByObjectVersion
1070
     0
  0
VISUALSTYLE
  5
B3A7F
102
{ACAD_XDICTIONARY
360
B3C5D
102
}
102
{ACAD_REACTORS
330
B3A76
102
}
330
B3A76
100
AcDbVisualStyle
  2
Realistic
 70
     8
 71
     2
 72
     2
 73
     0
 90
        2
 40
-0.6
 41
30.0
 62
     5
 63
     7
 74
     0
 91
        0
 64
     7
 65
   257
 75
     1
175
     1
 42
1.0
 92
        8
 66
   257
 43
1.0
 76
     1
 77
     6
 78
     2
 67
     7
 79
     3
170
     0
171
     0
290
     0
174
     0
 93
       13
 44
0.0
173
     0
291
     0
 45
0.0
1001
ACAD
1000
AcDbSavedByObjectVersion
1070
     0
  0
VISUALSTYLE
  5
B3A8E
102
{ACAD_XDICTIONARY
360
B3C7B
102
}
102
{ACAD_REACTORS
330
B3A76
102
}
330
B3A76
100
AcDbVisualStyle
  2
Shaded
 70
    27
 71
     2
 72
     2
 73
     1
 90
        2
 40
-0.6
 41
30.0
 62
     5
 63
     7
 74
     0
 91
        4
 64
     7
 65
   257
 75
     1
175
     1
 42
1.0
 92
        8
 66
   257
 43
1.0
 76
     1
 77
     6
 78
     2
 67
     8
 79
     3
170
     0
171
     0
290
     0
174
     0
 93
        5
 44
0.0
173
     0
291
     0
 45
0.0
1001
ACAD
1000
AcDbSavedByObjectVersion
1070
     0
  0
VISUALSTYLE
  5
B3A8D
102
{ACAD_XDICTIONARY
360
B3C79
102
}
102
{ACAD_REACTORS
330
B3A76
102
}
330
B3A76
100
AcDbVisualStyle
  2
Shaded with edges
 70
    26
 71
     2
 72
     2
 73
     1
 90
        2
 40
-0.6
 41
30.0
 62
     5
 63
     7
 74
     1
 91
        2
 64
     7
 65
   257
 75
     2
175
     1
 42
1.0
 92
        8
 66
   257
 43
1.0
 76
     1
 77
     6
 78
     2
 67
     7
 79
     3
170
     0
171
     0
290
     0
174
     0
 93
        5
 44
0.0
173
     0
291
     0
 45
0.0
1001
ACAD
1000
AcDbSavedByObjectVersion
1070
     0
  0
VISUALSTYLE
  5
B3A8A
102
{ACAD_XDICTIONARY
360
B3C73
102
}
102
{ACAD_REACTORS
330
B3A76
102
}
330
B3A76
100
AcDbVisualStyle
  2
Shades of Gray
 70
    23
 71
     2
 72
     2
 73
     3
 90
        0
 40
-0.6
 41
-30.0
 62
     5
 63
     7
 74
     2
 91
        2
 64
     7
 65
     7
 75
     1
175
     1
 42
40.0
 92
        8
 66
     7
 43
1.0
 76
     1
 77
     6
 78
     2
 67
     7
 79
     3
170
     0
171
     0
290
     0
174
     0
 93
        1
 44
0.0
173
     0
291
     0
 45
0.0
1001
ACAD
1000
AcDbSavedByObjectVersion
1070
     0
  0
VISUALSTYLE
  5
B3A8B
102
{ACAD_XDICTIONARY
360
B3C75
102
}
102
{ACAD_REACTORS
330
B3A76
102
}
330
B3A76
100
AcDbVisualStyle
  2
Sketchy
 70
    24
 71
     1
 72
     2
 73
     2
 90
        0
 40
-0.6
 41
-30.0
 62
     5
 63
     7
 74
     2
 91
        2
 64
     7
 65
     7
 75
     1
175
     1
 42
40.0
 92
       11
 66
     7
 43
1.0
 76
     1
 77
     6
 78
     2
 67
     7
 79
     6
170
     0
171
     0
290
     0
174
     0
 93
        1
 44
0.0
173
     0
291
     0
 45
0.0
1001
ACAD
1000
AcDbSavedByObjectVersion
1070
     0
  0
VISUALSTYLE
  5
B3A83
102
{ACAD_XDICTIONARY
360
B3C65
102
}
102
{ACAD_REACTORS
330
B3A76
102
}
330
B3A76
100
AcDbVisualStyle
  2
Thicken
 70
    13
 71
     2
 72
     2
 73
     0
 90
        0
 40
-0.6
 41
-30.0
 62
     5
 63
     7
 74
     1
 91
        4
 64
     7
 65
   257
 75
     1
175
     1
 42
1.0
 92
       12
 66
     7
 43
1.0
 76
     1
 77
     6
 78
     2
 67
     7
 79
     5
170
     0
171
     0
290
     0
174
     0
 93
        1
 44
0.0
173
     0
291
     1
 45
0.0
1001
ACAD
1000
AcDbSavedByObjectVersion
1070
     0
  0
VISUALSTYLE
  5
B3A7C
102
{ACAD_XDICTIONARY
360
B3C57
102
}
102
{ACAD_REACTORS
330
B3A76
102
}
330
B3A76
100
AcDbVisualStyle
  2
Wireframe
 70
     5
 71
     0
 72
     2
 73
     0
 90
        0
 40
-0.6
 41
-30.0
 62
     5
 63
     7
 74
     1
 91
        4
 64
     7
 65
   257
 75
     1
175
     1
 42
1.0
 92
        0
 66
   257
 43
1.0
 76
     1
 77
     6
 78
     2
 67
     7
 79
     3
170
     0
171
     0
290
     0
174
     0
 93
        1
 44
0.0
173
     0
291
     0
 45
0.0
1001
ACAD
1000
AcDbSavedByObjectVersion
1070
     0
  0
VISUALSTYLE
  5
B3A8C
102
{ACAD_XDICTIONARY
360
B3C77
102
}
102
{ACAD_REACTORS
330
B3A76
102
}
330
B3A76
100
AcDbVisualStyle
  2
X-Ray
 70
    25
 71
     2
 72
     2
 73
     1
 90
        1
 40
0.5
 41
-30.0
 62
     5
 63
     7
 74
     1
 91
        0
 64
     7
 65
   257
 75
     1
175
     1
 42
1.0
 92
        8
 66
     7
 43
1.0
 76
     1
 77
     6
 78
     2
 67
     7
 79
     3
170
     0
171
     0
290
     0
174
     0
 93
       13
 44
0.0
173
     0
291
     0
 45
0.0
1001
ACAD
1000
AcDbSavedByObjectVersion
1070
     0
  0
DICTIONARYVAR
  5
B3C31
102
{ACAD_REACTORS
330
11AC
102
}
330
11AC
100
DictionaryVariables
280
     0
  1
1:1
  0
DICTIONARYVAR
  5
B3A9B
102
{ACAD_REACTORS
330
11AC
102
}
330
11AC
100
DictionaryVariables
280
     0
  1
STANDARD
  0
DICTIONARYVAR
  5
B3A9A
102
{ACAD_REACTORS
330
11AC
102
}
330
11AC
100
DictionaryVariables
280
     0
  1
STANDARD
  0
DICTIONARYVAR
  5
B3BBE
102
{ACAD_REACTORS
330
11AC
102
}
330
11AC
100
DictionaryVariables
280
     0
  1
Imperial24
  0
DICTIONARYVAR
  5
B3BBF
102
{ACAD_REACTORS
330
11AC
102
}
330
11AC
100
DictionaryVariables
280
     0
  1
Imperial24
  0
DICTIONARYVAR
  5
B3BC4
102
{ACAD_REACTORS
330
11AC
102
}
330
11AC
100
DictionaryVariables
280
     0
  1
2
  0
DICTIONARYVAR
  5
11AD
102
{ACAD_REACTORS
330
11AC
102
}
330
11AC
100
DictionaryVariables
280
     0
  1
1
  0
DICTIONARYVAR
  5
B3BC3
102
{ACAD_REACTORS
330
11AC
102
}
330
11AC
100
DictionaryVariables
280
     0
  1
1
  0
DICTIONARYVAR
  5
A6C00
102
{ACAD_REACTORS
330
11AC
102
}
330
11AC
100
DictionaryVariables
280
     0
  1
ByLayer
  0
DICTIONARYVAR
  5
A2D8B
102
{ACAD_REACTORS
330
11AC
102
}
330
11AC
100
DictionaryVariables
280
     0
  1
0
  0
DICTIONARYVAR
  5
B3BC1
102
{ACAD_REACTORS
330
11AC
102
}
330
11AC
100
DictionaryVariables
280
     0
  1
0
  0
DICTIONARYVAR
  5
B3BC2
102
{ACAD_REACTORS
330
11AC
102
}
330
11AC
100
DictionaryVariables
280
     0
  1
0
  0
DICTIONARYVAR
  5
B3BC0
102
{ACAD_REACTORS
330
11AC
102
}
330
11AC
100
DictionaryVariables
280
     0
  1
2
  0
DICTIONARYVAR
  5
B3A9C
102
{ACAD_REACTORS
330
11AC
102
}
330
11AC
100
DictionaryVariables
280
     0
  1
0
  0
DICTIONARYVAR
  5
AD08
102
{ACAD_REACTORS
330
11AC
102
}
330
11AC
100
DictionaryVariables
280
     0
  1
96
  0
DICTIONARYVAR
  5
B3BC5
102
{ACAD_REACTORS
330
11AC
102
}
330
11AC
100
DictionaryVariables
280
     0
  1
2
  0
DICTIONARY
  5
B3C4A
102
{ACAD_REACTORS
330
B3C48
102
}
330
B3C48
100
AcDbDictionary
281
     1
  0
DICTIONARY
  5
B3C49
102
{ACAD_REACTORS
330
B3C48
102
}
330
B3C48
100
AcDbDictionary
281
     1
  3
2948116563360
350
B3C42
  3
2948116563376
350
B3C43
  3
2948116563392
350
B3C44
  3
2948116563408
350
B3C45
  3
2948116563424
350
B3C46
  3
2948116563440
350
B3C47
  0
DICTIONARY
  5
B39F4
102
{ACAD_REACTORS
330
B39F3
102
}
330
B39F3
100
AcDbDictionary
281
     1
1001
TB_S_MPD
1070
   101
1000
MS\U+FF7A\U+FF9E\U+FF7C\U+FF6F\U+FF78-0
1070
   301
1040
2.5
1070
   201
1070
     0
1070
   202
1070
     0
1070
   203
1070
     0
1070
   204
1070
     1
1070
   205
1070
     0
1070
   206
1070
     0
1070
   207
1070
     1
1070
   208
1070
     0
1070
   209
1070
     0
  0
XRECORD
  5
B335B
102
{ACAD_REACTORS
330
1E615
102
}
330
1E615
100
AcDbXrecord
280
     1
 91
     1023
301

290
     0
302
DEFPOINTS
330
E
 90
       24
 62
     7
370
    -3
331
14
  1
Color_7
330
0
 90
        9
 62
     1
370
    -3
331
14
  1
Color_1
330
12B
 90
        1
 62
     7
370
    -3
331
14
  1
Color_7
330
0
 90
        8
 62
     7
370
    -3
331
14
  1
Color_7
330
0
 90
        8
 62
    40
370
    30
331
14
  1
Color_40
330
8C6
 90
        8
 62
    40
370
    20
331
14
  1
Color_40
330
0
 90
        8
 62
     7
370
    -3
331
14
  1
Color_7
330
0
 90
        8
 62
     7
370
    -3
331
14
  1
Color_7
330
0
 90
        8
 62
    13
370
    13
331
0
  1
Color_13
330
1521
 90
        8
 62
     3
370
    30
331
14
  1
Color_3
330
0
 90
        8
 62
   252
370
    13
331
0
  1
Color_252
330
1523
 90
        8
 62
     7
370
    13
331
14
  1
Color_7
330
0
 90
        8
 62
     3
370
    15
331
14
  1
Color_3
330
7EA59
 90
        8
 62
     4
370
    13
331
14
  1
Color_4
330
0
 90
        8
 62
     7
370
     5
331
14
  1
Color_7
330
A2EBD
 90
        8
 62
     1
370
    13
331
8930E
  1
Color_1
330
0
 90
        8
 62
    31
370
    30
331
14
  1
Color_31
330
0
 90
        8
 62
   121
370
    30
331
14
  1
Color_121
330
0
 90
        8
 62
     7
370
    30
331
14
  1
Color_7
330
0
 90
        8
 62
     7
370
    -3
331
14
  1
Color_7
330
0
 90
        8
 62
     7
370
    -3
331
14
  1
Color_7
330
0
 90
        8
 62
   252
370
    13
331
0
  1
Color_252
330
0
 90
        8
 62
     7
370
    -3
331
14
  1
Color_7
330
0
 90
        8
 62
     3
370
     5
331
14
  1
Color_3
330
0
 90
        8
 62
   191
370
     5
331
0
  1
Color_191
330
0
 90
        8
 62
    11
370
     5
331
14
  1
Color_11
330
0
 90
        8
 62
     4
370
    25
331
14
  1
Color_4
330
0
 90
        8
 62
   241
370
     9
331
0
  1
Color_241
330
0
 90
        8
 62
     7
370
    -3
331
14
  1
Color_7
330
0
 90
        8
 62
   252
370
    18
331
0
  1
Color_252
330
0
 90
        8
 62
     3
370
    30
331
14
  1
Color_3
330
0
 90
        8
 62
     3
370
    30
331
14
  1
Color_3
330
0
 90
        8
 62
     7
370
    18
331
14
  1
Color_7
  0
DICTIONARY
  5
B3C86
330
B3AA0
100
AcDbDictionary
280
     1
281
     1
  3
ACAD_XREC_ROUNDTRIP
360
B3C87
  0
DICTIONARY
  5
B3C4B
330
741
100
AcDbDictionary
280
     1
281
     1
  3
ACAD_XREC_ROUNDTRIP
360
B3C4C
  0
DICTIONARY
  5
B3C88
330
B3AD9
100
AcDbDictionary
280
     1
281
     1
  3
ACAD_XREC_ROUNDTRIP
360
B3C89
  0
DICTIONARY
  5
B3C7F
330
B3A91
100
AcDbDictionary
280
     1
281
     1
  3
ACAD_XREC_ROUNDTRIP
360
B3C80
  0
DICTIONARY
  5
B3C7D
330
B3A90
100
AcDbDictionary
280
     1
281
     1
  3
ACAD_XREC_ROUNDTRIP
360
B3C7E
  0
DICTIONARY
  5
B3C81
330
B3A92
100
AcDbDictionary
280
     1
281
     1
  3
ACAD_XREC_ROUNDTRIP
360
B3C82
  0
DICTIONARY
  5
B3C84
330
B3A9F
100
AcDbDictionary
280
     1
281
     1
  3
ACAD_XREC_ROUNDTRIP
360
B3C85
  0
DICTIONARY
  5
B3C3C
330
B3A94
100
AcDbDictionary
280
     1
281
     1
  3
ACAD_ROUNDTRIP_2008_TABLESTYLE_CELLSTYLEMAP
360
B3C3D
  3
ACAD_XREC_ROUNDTRIP
360
B3C83
  0
DICTIONARY
  5
B3C55
330
B3A7B
100
AcDbDictionary
280
     1
281
     1
  3
ACAD_XREC_ROUNDTRIP
360
B3C56
  0
DICTIONARY
  5
B3C5B
330
B3A7E
100
AcDbDictionary
280
     1
281
     1
  3
ACAD_XREC_ROUNDTRIP
360
B3C5C
  0
DICTIONARY
  5
B3C63
330
B3A82
100
AcDbDictionary
280
     1
281
     1
  3
ACAD_XREC_ROUNDTRIP
360
B3C64
  0
DICTIONARY
  5
B3C6B
330
B3A86
100
AcDbDictionary
280
     1
281
     1
  3
ACAD_XREC_ROUNDTRIP
360
B3C6C
  0
DICTIONARY
  5
B3C5F
330
B3A80
100
AcDbDictionary
280
     1
281
     1
  3
ACAD_XREC_ROUNDTRIP
360
B3C60
  0
DICTIONARY
  5
B3C61
330
B3A81
100
AcDbDictionary
280
     1
281
     1
  3
ACAD_XREC_ROUNDTRIP
360
B3C62
  0
DICTIONARY
  5
B3C71
330
B3A89
100
AcDbDictionary
280
     1
281
     1
  3
ACAD_XREC_ROUNDTRIP
360
B3C72
  0
DICTIONARY
  5
B3C69
330
B3A85
100
AcDbDictionary
280
     1
281
     1
  3
ACAD_XREC_ROUNDTRIP
360
B3C6A
  0
DICTIONARY
  5
B3C4D
330
B3A77
100
AcDbDictionary
280
     1
281
     1
  3
ACAD_XREC_ROUNDTRIP
360
B3C4E
  0
DICTIONARY
  5
B3C4F
330
B3A78
100
AcDbDictionary
280
     1
281
     1
  3
ACAD_XREC_ROUNDTRIP
360
B3C50
  0
DICTIONARY
  5
B3C51
330
B3A79
100
AcDbDictionary
280
     1
281
     1
  3
ACAD_XREC_ROUNDTRIP
360
B3C52
  0
DICTIONARY
  5
B3C53
330
B3A7A
100
AcDbDictionary
280
     1
281
     1
  3
ACAD_XREC_ROUNDTRIP
360
B3C54
  0
DICTIONARY
  5
B3C59
330
B3A7D
100
AcDbDictionary
280
     1
281
     1
  3
ACAD_XREC_ROUNDTRIP
360
B3C5A
  0
DICTIONARY
  5
B3C6D
330
B3A87
100
AcDbDictionary
280
     1
281
     1
  3
ACAD_XREC_ROUNDTRIP
360
B3C6E
  0
DICTIONARY
  5
B3C67
330
B3A84
100
AcDbDictionary
280
     1
281
     1
  3
ACAD_XREC_ROUNDTRIP
360
B3C68
  0
DICTIONARY
  5
B3C6F
330
B3A88
100
AcDbDictionary
280
     1
281
     1
  3
ACAD_XREC_ROUNDTRIP
360
B3C70
  0
DICTIONARY
  5
B3C5D
330
B3A7F
100
AcDbDictionary
280
     1
281
     1
  3
ACAD_XREC_ROUNDTRIP
360
B3C5E
  0
DICTIONARY
  5
B3C7B
330
B3A8E
100
AcDbDictionary
280
     1
281
     1
  3
ACAD_XREC_ROUNDTRIP
360
B3C7C
  0
DICTIONARY
  5
B3C79
330
B3A8D
100
AcDbDictionary
280
     1
281
     1
  3
ACAD_XREC_ROUNDTRIP
360
B3C7A
  0
DICTIONARY
  5
B3C73
330
B3A8A
100
AcDbDictionary
280
     1
281
     1
  3
ACAD_XREC_ROUNDTRIP
360
B3C74
  0
DICTIONARY
  5
B3C75
330
B3A8B
100
AcDbDictionary
280
     1
281
     1
  3
ACAD_XREC_ROUNDTRIP
360
B3C76
  0
DICTIONARY
  5
B3C65
330
B3A83
100
AcDbDictionary
280
     1
281
     1
  3
ACAD_XREC_ROUNDTRIP
360
B3C66
  0
DICTIONARY
  5
B3C57
330
B3A7C
100
AcDbDictionary
280
     1
281
     1
  3
ACAD_XREC_ROUNDTRIP
360
B3C58
  0
DICTIONARY
  5
B3C77
330
B3A8C
100
AcDbDictionary
280
     1
281
     1
  3
ACAD_XREC_ROUNDTRIP
360
B3C78
  0
XRECORD
  5
B3C42
102
{ACAD_REACTORS
330
B3C49
102
}
330
B3C49
100
AcDbXrecord
280
     1
  1
AcDb_Thumbnail_Schema
102
{ATTRRECORD
341
B3C44
  2
AcDbDs::TreatedAsObjectData
280
     1
291
     1
102
ATTRRECORD}
102
{ATTRRECORD
341
B3C45
  2
AcDbDs::Legacy
280
     1
291
     1
102
ATTRRECORD}
  2
AcDbDs::ID
280
    10
 91
        8
102
{ATTRRECORD
341
B3C46
  2
AcDs:Indexable
280
     1
291
     1
102
ATTRRECORD}
102
{ATTRRECORD
341
B3C47
  2
AcDbDs::HandleAttribute
280
     7
282
     1
102
ATTRRECORD}
  2
Thumbnail_Data
280
    15
 91
        0
  0
XRECORD
  5
B3C43
102
{ACAD_REACTORS
330
B3C49
102
}
330
B3C49
100
AcDbXrecord
280
     1
  1
AcDb3DSolid_ASM_Data
102
{ATTRRECORD
341
B3C44
  2
AcDbDs::TreatedAsObjectData
280
     1
291
     1
102
ATTRRECORD}
102
{ATTRRECORD
341
B3C45
  2
AcDbDs::Legacy
280
     1
291
     1
102
ATTRRECORD}
  2
AcDbDs::ID
280
    10
 91
        8
102
{ATTRRECORD
341
B3C46
  2
AcDs:Indexable
280
     1
291
     1
102
ATTRRECORD}
102
{ATTRRECORD
341
B3C47
  2
AcDbDs::HandleAttribute
280
     7
282
     1
102
ATTRRECORD}
  2
ASM_Data
280
    15
 91
        0
  0
XRECORD
  5
B3C44
102
{ACAD_REACTORS
330
B3C49
102
}
330
B3C49
100
AcDbXrecord
280
     1
  1
AcDbDs::TreatedAsObjectDataSchema
  2
AcDbDs::TreatedAsObjectData
280
     1
 91
        0
  0
XRECORD
  5
B3C45
102
{ACAD_REACTORS
330
B3C49
102
}
330
B3C49
100
AcDbXrecord
280
     1
  1
AcDbDs::LegacySchema
  2
AcDbDs::Legacy
280
     1
 91
        0
  0
XRECORD
  5
B3C46
102
{ACAD_REACTORS
330
B3C49
102
}
330
B3C49
100
AcDbXrecord
280
     1
  1
AcDbDs::IndexedPropertySchema
  2
AcDs:Indexable
280
     1
 91
        0
  0
XRECORD
  5
B3C47
102
{ACAD_REACTORS
330
B3C49
102
}
330
B3C49
100
AcDbXrecord
280
     1
  1
AcDbDs::HandleAttributeSchema
  2
AcDbDs::HandleAttribute
280
     7
 91
        1
284
     1
  0
XRECORD
  5
B3C87
102
{ACAD_REACTORS
330
B3C86
102
}
330
B3C86
100
AcDbXrecord
280
     1
102
DISPLAYNAME
  1
Imperial24
102
FLAGS
 90
        0
  0
XRECORD
  5
B3C4C
102
{ACAD_REACTORS
330
B3C4B
102
}
330
B3C4B
100
AcDbXrecord
280
     1
102
SHADEPLOT
 70
     0
102
SHADEPLOTRESLEVEL
 70
     2
102
SHADEPLOTCUSTOMDPI
 70
   300
  0
XRECORD
  5
B3C89
102
{ACAD_REACTORS
330
B3C88
102
}
330
B3C88
100
AcDbXrecord
280
     1
102
SHADEPLOT
 70
     0
102
SHADEPLOTRESLEVEL
 70
     2
102
SHADEPLOTCUSTOMDPI
 70
   300
  0
XRECORD
  5
B3C80
102
{ACAD_REACTORS
330
B3C7F
102
}
330
B3C7F
100
AcDbXrecord
280
     1
102
MATERIAL
148
0.0
149
0.0
149
0.0
 93
        0
 94
      127
282
     0
 72
     1
 77
     1
171
     1
175
     1
179
     1
273
     0
  0
XRECORD
  5
B3C7E
102
{ACAD_REACTORS
330
B3C7D
102
}
330
B3C7D
100
AcDbXrecord
280
     1
102
MATERIAL
148
0.0
149
0.0
149
0.0
 93
        0
 94
      127
282
     0
 72
     1
 77
     1
171
     1
175
     1
179
     1
273
     0
  0
XRECORD
  5
B3C82
102
{ACAD_REACTORS
330
B3C81
102
}
330
B3C81
100
AcDbXrecord
280
     1
102
MATERIAL
148
0.0
149
0.0
149
0.0
 93
        0
 94
      127
282
     0
 72
     1
 77
     1
171
     1
175
     1
179
     1
273
     0
  0
XRECORD
  5
B3C85
102
{ACAD_REACTORS
330
B3C84
102
}
330
B3C84
100
AcDbXrecord
280
     1
102
DISPLAYNAME
  1
Imperial24
102
FLAGS
 90
        0
  0
CELLSTYLEMAP
  5
B3C3D
102
{ACAD_REACTORS
330
B3C3C
102
}
330
B3C3C
100
AcDbCellStyleMap
 90
        3
300
CELLSTYLE
  1
TABLEFORMAT_BEGIN
 90
        5
170
     1
 91
        0
 92
    32768
 62
   257
 93
        1
300
CONTENTFORMAT
  1
CONTENTFORMAT_BEGIN
 90
        0
 91
        0
 92
        4
 93
        0
300

 40
0.0
140
1.0
 94
        5
 62
     0
340
F
144
0.25
309
CONTENTFORMAT_END
171
     1
301
MARGIN
  1
CELLMARGIN_BEGIN
 40
0.06
 40
0.06
 40
0.06
 40
0.06
 40
0.06
 40
0.06
309
CELLMARGIN_END
 94
        6
 95
        1
302
GRIDFORMAT
  1
GRIDFORMAT_BEGIN
 90
        0
 91
        1
 62
     0
 92
       -2
340
12
 93
        0
 40
0.045
309
GRIDFORMAT_END
 95
        2
302
GRIDFORMAT
  1
GRIDFORMAT_BEGIN
 90
        0
 91
        1
 62
     0
 92
       -2
340
12
 93
        0
 40
0.045
309
GRIDFORMAT_END
 95
        4
302
GRIDFORMAT
  1
GRIDFORMAT_BEGIN
 90
        0
 91
        1
 62
     0
 92
       -2
340
12
 93
        0
 40
0.045
309
GRIDFORMAT_END
 95
        8
302
GRIDFORMAT
  1
GRIDFORMAT_BEGIN
 90
        0
 91
        1
 62
     0
 92
       -2
340
12
 93
        0
 40
0.045
309
GRIDFORMAT_END
 95
       16
302
GRIDFORMAT
  1
GRIDFORMAT_BEGIN
 90
        0
 91
        1
 62
     0
 92
       -2
340
12
 93
        0
 40
0.045
309
GRIDFORMAT_END
 95
       32
302
GRIDFORMAT
  1
GRIDFORMAT_BEGIN
 90
        0
 91
        1
 62
     0
 92
       -2
340
12
 93
        0
 40
0.045
309
GRIDFORMAT_END
309
TABLEFORMAT_END
  1
CELLSTYLE_BEGIN
 90
        1
 91
        1
300
_TITLE
309
CELLSTYLE_END
300
CELLSTYLE
  1
TABLEFORMAT_BEGIN
 90
        5
170
     1
 91
        0
 92
        0
 62
   257
 93
        1
300
CONTENTFORMAT
  1
CONTENTFORMAT_BEGIN
 90
        0
 91
        0
 92
        4
 93
        0
300

 40
0.0
140
1.0
 94
        5
 62
     0
340
F
144
0.18
309
CONTENTFORMAT_END
171
     1
301
MARGIN
  1
CELLMARGIN_BEGIN
 40
0.06
 40
0.06
 40
0.06
 40
0.06
 40
0.06
 40
0.06
309
CELLMARGIN_END
 94
        6
 95
        1
302
GRIDFORMAT
  1
GRIDFORMAT_BEGIN
 90
        0
 91
        1
 62
     0
 92
       -2
340
12
 93
        0
 40
0.045
309
GRIDFORMAT_END
 95
        2
302
GRIDFORMAT
  1
GRIDFORMAT_BEGIN
 90
        0
 91
        1
 62
     0
 92
       -2
340
12
 93
        0
 40
0.045
309
GRIDFORMAT_END
 95
        4
302
GRIDFORMAT
  1
GRIDFORMAT_BEGIN
 90
        0
 91
        1
 62
     0
 92
       -2
340
12
 93
        0
 40
0.045
309
GRIDFORMAT_END
 95
        8
302
GRIDFORMAT
  1
GRIDFORMAT_BEGIN
 90
        0
 91
        1
 62
     0
 92
       -2
340
12
 93
        0
 40
0.045
309
GRIDFORMAT_END
 95
       16
302
GRIDFORMAT
  1
GRIDFORMAT_BEGIN
 90
        0
 91
        1
 62
     0
 92
       -2
340
12
 93
        0
 40
0.045
309
GRIDFORMAT_END
 95
       32
302
GRIDFORMAT
  1
GRIDFORMAT_BEGIN
 90
        0
 91
        1
 62
     0
 92
       -2
340
12
 93
        0
 40
0.045
309
GRIDFORMAT_END
309
TABLEFORMAT_END
  1
CELLSTYLE_BEGIN
 90
        2
 91
        1
300
_HEADER
309
CELLSTYLE_END
300
CELLSTYLE
  1
TABLEFORMAT_BEGIN
 90
        5
170
     1
 91
        0
 92
        0
 62
   257
 93
        1
300
CONTENTFORMAT
  1
CONTENTFORMAT_BEGIN
 90
        0
 91
        0
 92
        4
 93
        0
300

 40
0.0
140
1.0
 94
        2
 62
     0
340
F
144
0.18
309
CONTENTFORMAT_END
171
     1
301
MARGIN
  1
CELLMARGIN_BEGIN
 40
0.06
 40
0.06
 40
0.06
 40
0.06
 40
0.06
 40
0.06
309
CELLMARGIN_END
 94
        6
 95
        1
302
GRIDFORMAT
  1
GRIDFORMAT_BEGIN
 90
        0
 91
        1
 62
     0
 92
       -2
340
12
 93
        0
 40
0.045
309
GRIDFORMAT_END
 95
        2
302
GRIDFORMAT
  1
GRIDFORMAT_BEGIN
 90
        0
 91
        1
 62
     0
 92
       -2
340
12
 93
        0
 40
0.045
309
GRIDFORMAT_END
 95
        4
302
GRIDFORMAT
  1
GRIDFORMAT_BEGIN
 90
        0
 91
        1
 62
     0
 92
       -2
340
12
 93
        0
 40
0.045
309
GRIDFORMAT_END
 95
        8
302
GRIDFORMAT
  1
GRIDFORMAT_BEGIN
 90
        0
 91
        1
 62
     0
 92
       -2
340
12
 93
        0
 40
0.045
309
GRIDFORMAT_END
 95
       16
302
GRIDFORMAT
  1
GRIDFORMAT_BEGIN
 90
        0
 91
        1
 62
     0
 92
       -2
340
12
 93
        0
 40
0.045
309
GRIDFORMAT_END
 95
       32
302
GRIDFORMAT
  1
GRIDFORMAT_BEGIN
 90
        0
 91
        1
 62
     0
 92
       -2
340
12
 93
        0
 40
0.045
309
GRIDFORMAT_END
309
TABLEFORMAT_END
  1
CELLSTYLE_BEGIN
 90
        3
 91
        2
300
_DATA
309
CELLSTYLE_END
  0
XRECORD
  5
B3C83
102
{ACAD_REACTORS
330
B3C3C
102
}
330
B3C3C
100
AcDbXrecord
280
     1
102
ACAD_ROUNDTRIP_PRE2007_TABLESTYLE
 90
        4
 91
        0
  1

 92
        4
 93
        0
  2

 94
        4
 95
        0
  3

  0
XRECORD
  5
B3C56
102
{ACAD_REACTORS
330
B3C55
102
}
330
B3C55
100
AcDbXrecord
280
     1
102
RTVSPost2010Prop28
280
     1
102
RTVSPost2010PropOp28
 70
     1
102
RTVSPost2010Prop29
280
     1
102
RTVSPost2010PropOp29
 70
     1
102
RTVSPost2010Prop30
280
     0
102
RTVSPost2010PropOp30
 70
     1
102
RTVSPost2010Prop31
280
     0
102
RTVSPost2010PropOp31
 70
     1
102
RTVSPost2010Prop32
280
     0
102
RTVSPost2010PropOp32
 70
     1
102
RTVSPost2010Prop33
280
     0
102
RTVSPost2010PropOp33
 70
     1
102
RTVSPost2010Prop34
280
     0
102
RTVSPost2010PropOp34
 70
     1
102
RTVSPost2010Prop35
280
     0
102
RTVSPost2010PropOp35
 70
     1
102
RTVSPost2010Prop36
280
     0
102
RTVSPost2010PropOp36
 70
     1
102
RTVSPost2010Prop37
 90
       50
102
RTVSPost2010PropOp37
 70
     1
102
RTVSPost2010Prop38
140
0.0
102
RTVSPost2010PropOp38
 70
     1
102
RTVSPost2010Prop39
140
1.0
102
RTVSPost2010PropOp39
 70
     1
102
RTVSPost2010Prop40
 90
        0
102
RTVSPost2010PropOp40
 70
     1
102
RTVSPost2010Prop41ColorIndex
 90
       18
102
RTVSPost2010Prop41ColorRGB
 90
        0
102
RTVSPost2010PropOp41
 70
     1
102
RTVSPost2010Prop42
 90
       50
102
RTVSPost2010PropOp42
 70
     1
102
RTVSPost2010Prop43
 90
        3
102
RTVSPost2010PropOp43
 70
     1
102
RTVSPost2010Prop44ColorIndex
 90
        5
102
RTVSPost2010Prop44ColorRGB
 90
      255
102
RTVSPost2010PropOp44
 70
     1
102
RTVSPost2010Prop45
280
     0
102
RTVSPost2010PropOp45
 70
     1
102
RTVSPost2010Prop46
 90
       50
102
RTVSPost2010PropOp46
 70
     1
102
RTVSPost2010Prop47
 90
       50
102
RTVSPost2010PropOp47
 70
     1
102
RTVSPost2010Prop48
 90
       50
102
RTVSPost2010PropOp48
 70
     1
102
RTVSPost2010Prop49
280
     0
102
RTVSPost2010PropOp49
 70
     1
102
RTVSPost2010Prop50
 90
       50
102
RTVSPost2010PropOp50
 70
     1
102
RTVSPost2010Prop51ColorIndex
 90
      256
102
RTVSPost2010Prop51ColorRGB
 90
-16777216
102
RTVSPost2010PropOp51
 70
     0
102
RTVSPost2010Prop52
140
1.0
102
RTVSPost2010PropOp52
 70
     0
102
RTVSPost2010Prop53
 90
        2
102
RTVSPost2010PropOp53
 70
     1
102
RTVSPost2010Prop54
  1
strokes_ogs.tif
102
RTVSPost2010PropOp54
 70
     1
102
RTVSPost2010Prop55
280
     0
102
RTVSPost2010PropOp55
 70
     1
102
RTVSPost2010Prop56
140
1.0
102
RTVSPost2010PropOp56
 70
     1
102
RTVSPost2010Prop57
140
1.0
102
RTVSPost2010PropOp57
 70
     1
102
RTVSPropertyOp0
 70
     1
102
RTVSPropertyOp1
 70
     1
102
RTVSPropertyOp2
 70
     1
102
RTVSPropertyOp3
 70
     1
102
RTVSPropertyOp4
 70
     1
102
RTVSPropertyOp5
 70
     1
102
RTVSPropertyOp6
 70
     1
102
RTVSPropertyOp7
 70
     1
102
RTVSPropertyOp8
 70
     1
102
RTVSPropertyOp9
 70
     1
102
RTVSPropertyOp10
 70
     1
102
RTVSPropertyOp11
 70
     1
102
RTVSPropertyOp12
 70
     1
102
RTVSPropertyOp13
 70
     1
102
RTVSPropertyOp14
 70
     1
102
RTVSPropertyOp15
 70
     1
102
RTVSPropertyOp16
 70
     1
102
RTVSPropertyOp17
 70
     1
102
RTVSPropertyOp18
 70
     1
102
RTVSPropertyOp19
 70
     1
102
RTVSPropertyOp20
 70
     1
102
RTVSPropertyOp21
 70
     1
102
RTVSPropertyOp22
 70
     1
102
RTVSPropertyOp23
 70
     1
102
RTVSPropertyOp24
 70
     1
102
RTVSPropertyOp25
 70
     1
102
RTVSPropertyOp26
 70
     1
102
RTVSPropertyOp27
 70
     1
102
RTVSPropertyOp28
 70
     1
102
RTVSPropertyOp29
 70
     1
102
RTVSPropertyOp30
 70
     1
102
RTVSPropertyOp31
 70
     1
102
RTVSPropertyOp32
 70
     1
102
RTVSPropertyOp33
 70
     1
102
RTVSPropertyOp34
 70
     1
102
RTVSPropertyOp35
 70
     1
102
RTVSPropertyOp36
 70
     1
102
RTVSPropertyOp37
 70
     1
102
RTVSPropertyOp38
 70
     1
102
RTVSPropertyOp39
 70
     1
102
RTVSPropertyOp40
 70
     1
102
RTVSPropertyOp41
 70
     1
102
RTVSPropertyOp42
 70
     1
102
RTVSPropertyOp43
 70
     1
102
RTVSPropertyOp44
 70
     1
102
RTVSPropertyOp45
 70
     1
102
RTVSPropertyOp46
 70
     1
102
RTVSPropertyOp47
 70
     1
102
RTVSPropertyOp48
 70
     1
102
RTVSPropertyOp49
 70
     1
102
RTVSPropertyOp50
 70
     1
102
RTVSPropertyOp51
 70
     0
102
RTVSPropertyOp52
 70
     0
102
RTVSPropertyOp53
 70
     1
102
RTVSPropertyOp54
 70
     1
102
RTVSPropertyOp55
 70
     1
102
RTVSPropertyOp56
 70
     1
102
RTVSPropertyOp57
 70
     1
102
RTVSPropertyOp58
 70
     1
102
RTVSPropertyOp59
 70
     1
102
RTVSPropertyOp60
 70
     1
102
RTVSPropertyOp61
 70
     1
102
RTVSPropertyOp62
 70
     1
  0
XRECORD
  5
B3C5C
102
{ACAD_REACTORS
330
B3C5B
102
}
330
B3C5B
100
AcDbXrecord
280
     1
102
RTVSPost2010Prop28
280
     0
102
RTVSPost2010PropOp28
 70
     1
102
RTVSPost2010Prop29
280
     1
102
RTVSPost2010PropOp29
 70
     1
102
RTVSPost2010Prop30
280
     1
102
RTVSPost2010PropOp30
 70
     1
102
RTVSPost2010Prop31
280
     0
102
RTVSPost2010PropOp31
 70
     1
102
RTVSPost2010Prop32
280
     0
102
RTVSPost2010PropOp32
 70
     1
102
RTVSPost2010Prop33
280
     0
102
RTVSPost2010PropOp33
 70
     1
102
RTVSPost2010Prop34
280
     0
102
RTVSPost2010PropOp34
 70
     1
102
RTVSPost2010Prop35
280
     0
102
RTVSPost2010PropOp35
 70
     1
102
RTVSPost2010Prop36
280
     0
102
RTVSPost2010PropOp36
 70
     1
102
RTVSPost2010Prop37
 90
       50
102
RTVSPost2010PropOp37
 70
     1
102
RTVSPost2010Prop38
140
0.0
102
RTVSPost2010PropOp38
 70
     1
102
RTVSPost2010Prop39
140
1.0
102
RTVSPost2010PropOp39
 70
     1
102
RTVSPost2010Prop40
 90
        0
102
RTVSPost2010PropOp40
 70
     1
102
RTVSPost2010Prop41ColorIndex
 90
       18
102
RTVSPost2010Prop41ColorRGB
 90
        0
102
RTVSPost2010PropOp41
 70
     1
102
RTVSPost2010Prop42
 90
       50
102
RTVSPost2010PropOp42
 70
     1
102
RTVSPost2010Prop43
 90
        3
102
RTVSPost2010PropOp43
 70
     1
102
RTVSPost2010Prop44ColorIndex
 90
        5
102
RTVSPost2010Prop44ColorRGB
 90
      255
102
RTVSPost2010PropOp44
 70
     1
102
RTVSPost2010Prop45
280
     0
102
RTVSPost2010PropOp45
 70
     1
102
RTVSPost2010Prop46
 90
       50
102
RTVSPost2010PropOp46
 70
     1
102
RTVSPost2010Prop47
 90
       50
102
RTVSPost2010PropOp47
 70
     1
102
RTVSPost2010Prop48
 90
       50
102
RTVSPost2010PropOp48
 70
     1
102
RTVSPost2010Prop49
280
     0
102
RTVSPost2010PropOp49
 70
     1
102
RTVSPost2010Prop50
 90
       50
102
RTVSPost2010PropOp50
 70
     1
102
RTVSPost2010Prop51ColorIndex
 90
      256
102
RTVSPost2010Prop51ColorRGB
 90
-16777216
102
RTVSPost2010PropOp51
 70
     0
102
RTVSPost2010Prop52
140
1.0
102
RTVSPost2010PropOp52
 70
     0
102
RTVSPost2010Prop53
 90
        2
102
RTVSPost2010PropOp53
 70
     1
102
RTVSPost2010Prop54
  1
strokes_ogs.tif
102
RTVSPost2010PropOp54
 70
     1
102
RTVSPost2010Prop55
280
     0
102
RTVSPost2010PropOp55
 70
     1
102
RTVSPost2010Prop56
140
1.0
102
RTVSPost2010PropOp56
 70
     1
102
RTVSPost2010Prop57
140
1.0
102
RTVSPost2010PropOp57
 70
     1
102
RTVSPropertyOp0
 70
     1
102
RTVSPropertyOp1
 70
     1
102
RTVSPropertyOp2
 70
     1
102
RTVSPropertyOp3
 70
     1
102
RTVSPropertyOp4
 70
     1
102
RTVSPropertyOp5
 70
     1
102
RTVSPropertyOp6
 70
     1
102
RTVSPropertyOp7
 70
     1
102
RTVSPropertyOp8
 70
     1
102
RTVSPropertyOp9
 70
     1
102
RTVSPropertyOp10
 70
     1
102
RTVSPropertyOp11
 70
     1
102
RTVSPropertyOp12
 70
     1
102
RTVSPropertyOp13
 70
     1
102
RTVSPropertyOp14
 70
     1
102
RTVSPropertyOp15
 70
     1
102
RTVSPropertyOp16
 70
     1
102
RTVSPropertyOp17
 70
     1
102
RTVSPropertyOp18
 70
     1
102
RTVSPropertyOp19
 70
     1
102
RTVSPropertyOp20
 70
     1
102
RTVSPropertyOp21
 70
     1
102
RTVSPropertyOp22
 70
     1
102
RTVSPropertyOp23
 70
     1
102
RTVSPropertyOp24
 70
     1
102
RTVSPropertyOp25
 70
     1
102
RTVSPropertyOp26
 70
     1
102
RTVSPropertyOp27
 70
     1
102
RTVSPropertyOp28
 70
     1
102
RTVSPropertyOp29
 70
     1
102
RTVSPropertyOp30
 70
     1
102
RTVSPropertyOp31
 70
     1
102
RTVSPropertyOp32
 70
     1
102
RTVSPropertyOp33
 70
     1
102
RTVSPropertyOp34
 70
     1
102
RTVSPropertyOp35
 70
     1
102
RTVSPropertyOp36
 70
     1
102
RTVSPropertyOp37
 70
     1
102
RTVSPropertyOp38
 70
     1
102
RTVSPropertyOp39
 70
     1
102
RTVSPropertyOp40
 70
     1
102
RTVSPropertyOp41
 70
     1
102
RTVSPropertyOp42
 70
     1
102
RTVSPropertyOp43
 70
     1
102
RTVSPropertyOp44
 70
     1
102
RTVSPropertyOp45
 70
     1
102
RTVSPropertyOp46
 70
     1
102
RTVSPropertyOp47
 70
     1
102
RTVSPropertyOp48
 70
     1
102
RTVSPropertyOp49
 70
     1
102
RTVSPropertyOp50
 70
     1
102
RTVSPropertyOp51
 70
     0
102
RTVSPropertyOp52
 70
     0
102
RTVSPropertyOp53
 70
     1
102
RTVSPropertyOp54
 70
     1
102
RTVSPropertyOp55
 70
     1
102
RTVSPropertyOp56
 70
     1
102
RTVSPropertyOp57
 70
     1
102
RTVSPropertyOp58
 70
     1
102
RTVSPropertyOp59
 70
     1
102
RTVSPropertyOp60
 70
     1
102
RTVSPropertyOp61
 70
     1
102
RTVSPropertyOp62
 70
     1
  0
XRECORD
  5
B3C64
102
{ACAD_REACTORS
330
B3C63
102
}
330
B3C63
100
AcDbXrecord
280
     1
102
RTVSPost2010Prop28
280
     0
102
RTVSPost2010PropOp28
 70
     1
102
RTVSPost2010Prop29
280
     1
102
RTVSPost2010PropOp29
 70
     1
102
RTVSPost2010Prop30
280
     1
102
RTVSPost2010PropOp30
 70
     1
102
RTVSPost2010Prop31
280
     0
102
RTVSPost2010PropOp31
 70
     1
102
RTVSPost2010Prop32
280
     0
102
RTVSPost2010PropOp32
 70
     1
102
RTVSPost2010Prop33
280
     0
102
RTVSPost2010PropOp33
 70
     1
102
RTVSPost2010Prop34
280
     0
102
RTVSPost2010PropOp34
 70
     1
102
RTVSPost2010Prop35
280
     0
102
RTVSPost2010PropOp35
 70
     1
102
RTVSPost2010Prop36
280
     0
102
RTVSPost2010PropOp36
 70
     1
102
RTVSPost2010Prop37
 90
       50
102
RTVSPost2010PropOp37
 70
     1
102
RTVSPost2010Prop38
140
0.0
102
RTVSPost2010PropOp38
 70
     1
102
RTVSPost2010Prop39
140
1.0
102
RTVSPost2010PropOp39
 70
     1
102
RTVSPost2010Prop40
 90
        0
102
RTVSPost2010PropOp40
 70
     1
102
RTVSPost2010Prop41ColorIndex
 90
       18
102
RTVSPost2010Prop41ColorRGB
 90
        0
102
RTVSPost2010PropOp41
 70
     1
102
RTVSPost2010Prop42
 90
       50
102
RTVSPost2010PropOp42
 70
     1
102
RTVSPost2010Prop43
 90
        3
102
RTVSPost2010PropOp43
 70
     1
102
RTVSPost2010Prop44ColorIndex
 90
        5
102
RTVSPost2010Prop44ColorRGB
 90
      255
102
RTVSPost2010PropOp44
 70
     1
102
RTVSPost2010Prop45
280
     0
102
RTVSPost2010PropOp45
 70
     1
102
RTVSPost2010Prop46
 90
       50
102
RTVSPost2010PropOp46
 70
     1
102
RTVSPost2010Prop47
 90
       50
102
RTVSPost2010PropOp47
 70
     1
102
RTVSPost2010Prop48
 90
       50
102
RTVSPost2010PropOp48
 70
     1
102
RTVSPost2010Prop49
280
     0
102
RTVSPost2010PropOp49
 70
     1
102
RTVSPost2010Prop50
 90
       50
102
RTVSPost2010PropOp50
 70
     1
102
RTVSPost2010Prop51ColorIndex
 90
      256
102
RTVSPost2010Prop51ColorRGB
 90
-16777216
102
RTVSPost2010PropOp51
 70
     0
102
RTVSPost2010Prop52
140
1.0
102
RTVSPost2010PropOp52
 70
     0
102
RTVSPost2010Prop53
 90
        2
102
RTVSPost2010PropOp53
 70
     1
102
RTVSPost2010Prop54
  1
strokes_ogs.tif
102
RTVSPost2010PropOp54
 70
     1
102
RTVSPost2010Prop55
280
     0
102
RTVSPost2010PropOp55
 70
     1
102
RTVSPost2010Prop56
140
1.0
102
RTVSPost2010PropOp56
 70
     1
102
RTVSPost2010Prop57
140
1.0
102
RTVSPost2010PropOp57
 70
     1
102
RTVSPropertyOp0
 70
     1
102
RTVSPropertyOp1
 70
     1
102
RTVSPropertyOp2
 70
     1
102
RTVSPropertyOp3
 70
     1
102
RTVSPropertyOp4
 70
     1
102
RTVSPropertyOp5
 70
     1
102
RTVSPropertyOp6
 70
     1
102
RTVSPropertyOp7
 70
     1
102
RTVSPropertyOp8
 70
     1
102
RTVSPropertyOp9
 70
     1
102
RTVSPropertyOp10
 70
     1
102
RTVSPropertyOp11
 70
     1
102
RTVSPropertyOp12
 70
     1
102
RTVSPropertyOp13
 70
     1
102
RTVSPropertyOp14
 70
     1
102
RTVSPropertyOp15
 70
     1
102
RTVSPropertyOp16
 70
     1
102
RTVSPropertyOp17
 70
     1
102
RTVSPropertyOp18
 70
     1
102
RTVSPropertyOp19
 70
     1
102
RTVSPropertyOp20
 70
     1
102
RTVSPropertyOp21
 70
     1
102
RTVSPropertyOp22
 70
     1
102
RTVSPropertyOp23
 70
     1
102
RTVSPropertyOp24
 70
     1
102
RTVSPropertyOp25
 70
     1
102
RTVSPropertyOp26
 70
     1
102
RTVSPropertyOp27
 70
     1
102
RTVSPropertyOp28
 70
     1
102
RTVSPropertyOp29
 70
     1
102
RTVSPropertyOp30
 70
     1
102
RTVSPropertyOp31
 70
     1
102
RTVSPropertyOp32
 70
     1
102
RTVSPropertyOp33
 70
     1
102
RTVSPropertyOp34
 70
     1
102
RTVSPropertyOp35
 70
     1
102
RTVSPropertyOp36
 70
     1
102
RTVSPropertyOp37
 70
     1
102
RTVSPropertyOp38
 70
     1
102
RTVSPropertyOp39
 70
     1
102
RTVSPropertyOp40
 70
     1
102
RTVSPropertyOp41
 70
     1
102
RTVSPropertyOp42
 70
     1
102
RTVSPropertyOp43
 70
     1
102
RTVSPropertyOp44
 70
     1
102
RTVSPropertyOp45
 70
     1
102
RTVSPropertyOp46
 70
     1
102
RTVSPropertyOp47
 70
     1
102
RTVSPropertyOp48
 70
     1
102
RTVSPropertyOp49
 70
     1
102
RTVSPropertyOp50
 70
     1
102
RTVSPropertyOp51
 70
     0
102
RTVSPropertyOp52
 70
     0
102
RTVSPropertyOp53
 70
     1
102
RTVSPropertyOp54
 70
     1
102
RTVSPropertyOp55
 70
     1
102
RTVSPropertyOp56
 70
     1
102
RTVSPropertyOp57
 70
     1
102
RTVSPropertyOp58
 70
     1
102
RTVSPropertyOp59
 70
     1
102
RTVSPropertyOp60
 70
     1
102
RTVSPropertyOp61
 70
     1
102
RTVSPropertyOp62
 70
     1
  0
XRECORD
  5
B3C6C
102
{ACAD_REACTORS
330
B3C6B
102
}
330
B3C6B
100
AcDbXrecord
280
     1
102
RTVSPost2010Prop28
280
     0
102
RTVSPost2010PropOp28
 70
     1
102
RTVSPost2010Prop29
280
     1
102
RTVSPost2010PropOp29
 70
     1
102
RTVSPost2010Prop30
280
     1
102
RTVSPost2010PropOp30
 70
     1
102
RTVSPost2010Prop31
280
     0
102
RTVSPost2010PropOp31
 70
     1
102
RTVSPost2010Prop32
280
     0
102
RTVSPost2010PropOp32
 70
     1
102
RTVSPost2010Prop33
280
     0
102
RTVSPost2010PropOp33
 70
     1
102
RTVSPost2010Prop34
280
     0
102
RTVSPost2010PropOp34
 70
     1
102
RTVSPost2010Prop35
280
     0
102
RTVSPost2010PropOp35
 70
     1
102
RTVSPost2010Prop36
280
     0
102
RTVSPost2010PropOp36
 70
     1
102
RTVSPost2010Prop37
 90
       50
102
RTVSPost2010PropOp37
 70
     1
102
RTVSPost2010Prop38
140
0.0
102
RTVSPost2010PropOp38
 70
     1
102
RTVSPost2010Prop39
140
1.0
102
RTVSPost2010PropOp39
 70
     1
102
RTVSPost2010Prop40
 90
        0
102
RTVSPost2010PropOp40
 70
     1
102
RTVSPost2010Prop41ColorIndex
 90
       18
102
RTVSPost2010Prop41ColorRGB
 90
        0
102
RTVSPost2010PropOp41
 70
     1
102
RTVSPost2010Prop42
 90
       50
102
RTVSPost2010PropOp42
 70
     1
102
RTVSPost2010Prop43
 90
        3
102
RTVSPost2010PropOp43
 70
     1
102
RTVSPost2010Prop44ColorIndex
 90
        5
102
RTVSPost2010Prop44ColorRGB
 90
      255
102
RTVSPost2010PropOp44
 70
     1
102
RTVSPost2010Prop45
280
     0
102
RTVSPost2010PropOp45
 70
     1
102
RTVSPost2010Prop46
 90
       50
102
RTVSPost2010PropOp46
 70
     1
102
RTVSPost2010Prop47
 90
       50
102
RTVSPost2010PropOp47
 70
     1
102
RTVSPost2010Prop48
 90
       50
102
RTVSPost2010PropOp48
 70
     1
102
RTVSPost2010Prop49
280
     0
102
RTVSPost2010PropOp49
 70
     1
102
RTVSPost2010Prop50
 90
       50
102
RTVSPost2010PropOp50
 70
     1
102
RTVSPost2010Prop51ColorIndex
 90
      256
102
RTVSPost2010Prop51ColorRGB
 90
-16777216
102
RTVSPost2010PropOp51
 70
     0
102
RTVSPost2010Prop52
140
1.0
102
RTVSPost2010PropOp52
 70
     0
102
RTVSPost2010Prop53
 90
        2
102
RTVSPost2010PropOp53
 70
     1
102
RTVSPost2010Prop54
  1
strokes_ogs.tif
102
RTVSPost2010PropOp54
 70
     1
102
RTVSPost2010Prop55
280
     0
102
RTVSPost2010PropOp55
 70
     1
102
RTVSPost2010Prop56
140
1.0
102
RTVSPost2010PropOp56
 70
     1
102
RTVSPost2010Prop57
140
1.0
102
RTVSPost2010PropOp57
 70
     1
102
RTVSPropertyOp0
 70
     1
102
RTVSPropertyOp1
 70
     1
102
RTVSPropertyOp2
 70
     1
102
RTVSPropertyOp3
 70
     1
102
RTVSPropertyOp4
 70
     1
102
RTVSPropertyOp5
 70
     1
102
RTVSPropertyOp6
 70
     1
102
RTVSPropertyOp7
 70
     1
102
RTVSPropertyOp8
 70
     1
102
RTVSPropertyOp9
 70
     1
102
RTVSPropertyOp10
 70
     1
102
RTVSPropertyOp11
 70
     1
102
RTVSPropertyOp12
 70
     1
102
RTVSPropertyOp13
 70
     1
102
RTVSPropertyOp14
 70
     1
102
RTVSPropertyOp15
 70
     1
102
RTVSPropertyOp16
 70
     1
102
RTVSPropertyOp17
 70
     1
102
RTVSPropertyOp18
 70
     1
102
RTVSPropertyOp19
 70
     1
102
RTVSPropertyOp20
 70
     1
102
RTVSPropertyOp21
 70
     1
102
RTVSPropertyOp22
 70
     1
102
RTVSPropertyOp23
 70
     1
102
RTVSPropertyOp24
 70
     1
102
RTVSPropertyOp25
 70
     1
102
RTVSPropertyOp26
 70
     1
102
RTVSPropertyOp27
 70
     1
102
RTVSPropertyOp28
 70
     1
102
RTVSPropertyOp29
 70
     1
102
RTVSPropertyOp30
 70
     1
102
RTVSPropertyOp31
 70
     1
102
RTVSPropertyOp32
 70
     1
102
RTVSPropertyOp33
 70
     1
102
RTVSPropertyOp34
 70
     1
102
RTVSPropertyOp35
 70
     1
102
RTVSPropertyOp36
 70
     1
102
RTVSPropertyOp37
 70
     1
102
RTVSPropertyOp38
 70
     1
102
RTVSPropertyOp39
 70
     1
102
RTVSPropertyOp40
 70
     1
102
RTVSPropertyOp41
 70
     1
102
RTVSPropertyOp42
 70
     1
102
RTVSPropertyOp43
 70
     1
102
RTVSPropertyOp44
 70
     1
102
RTVSPropertyOp45
 70
     1
102
RTVSPropertyOp46
 70
     1
102
RTVSPropertyOp47
 70
     1
102
RTVSPropertyOp48
 70
     1
102
RTVSPropertyOp49
 70
     1
102
RTVSPropertyOp50
 70
     1
102
RTVSPropertyOp51
 70
     0
102
RTVSPropertyOp52
 70
     0
102
RTVSPropertyOp53
 70
     1
102
RTVSPropertyOp54
 70
     1
102
RTVSPropertyOp55
 70
     1
102
RTVSPropertyOp56
 70
     1
102
RTVSPropertyOp57
 70
     1
102
RTVSPropertyOp58
 70
     1
102
RTVSPropertyOp59
 70
     1
102
RTVSPropertyOp60
 70
     1
102
RTVSPropertyOp61
 70
     1
102
RTVSPropertyOp62
 70
     1
  0
XRECORD
  5
B3C60
102
{ACAD_REACTORS
330
B3C5F
102
}
330
B3C5F
100
AcDbXrecord
280
     1
102
RTVSPost2010Prop28
280
     0
102
RTVSPost2010PropOp28
 70
     1
102
RTVSPost2010Prop29
280
     1
102
RTVSPost2010PropOp29
 70
     1
102
RTVSPost2010Prop30
280
     1
102
RTVSPost2010PropOp30
 70
     1
102
RTVSPost2010Prop31
280
     0
102
RTVSPost2010PropOp31
 70
     1
102
RTVSPost2010Prop32
280
     0
102
RTVSPost2010PropOp32
 70
     1
102
RTVSPost2010Prop33
280
     0
102
RTVSPost2010PropOp33
 70
     1
102
RTVSPost2010Prop34
280
     0
102
RTVSPost2010PropOp34
 70
     1
102
RTVSPost2010Prop35
280
     0
102
RTVSPost2010PropOp35
 70
     1
102
RTVSPost2010Prop36
280
     0
102
RTVSPost2010PropOp36
 70
     1
102
RTVSPost2010Prop37
 90
       50
102
RTVSPost2010PropOp37
 70
     1
102
RTVSPost2010Prop38
140
0.0
102
RTVSPost2010PropOp38
 70
     1
102
RTVSPost2010Prop39
140
1.0
102
RTVSPost2010PropOp39
 70
     1
102
RTVSPost2010Prop40
 90
        0
102
RTVSPost2010PropOp40
 70
     1
102
RTVSPost2010Prop41ColorIndex
 90
       18
102
RTVSPost2010Prop41ColorRGB
 90
        0
102
RTVSPost2010PropOp41
 70
     1
102
RTVSPost2010Prop42
 90
       50
102
RTVSPost2010PropOp42
 70
     1
102
RTVSPost2010Prop43
 90
        3
102
RTVSPost2010PropOp43
 70
     1
102
RTVSPost2010Prop44ColorIndex
 90
        5
102
RTVSPost2010Prop44ColorRGB
 90
      255
102
RTVSPost2010PropOp44
 70
     1
102
RTVSPost2010Prop45
280
     0
102
RTVSPost2010PropOp45
 70
     1
102
RTVSPost2010Prop46
 90
       50
102
RTVSPost2010PropOp46
 70
     1
102
RTVSPost2010Prop47
 90
       50
102
RTVSPost2010PropOp47
 70
     1
102
RTVSPost2010Prop48
 90
       50
102
RTVSPost2010PropOp48
 70
     1
102
RTVSPost2010Prop49
280
     0
102
RTVSPost2010PropOp49
 70
     1
102
RTVSPost2010Prop50
 90
       50
102
RTVSPost2010PropOp50
 70
     1
102
RTVSPost2010Prop51ColorIndex
 90
      256
102
RTVSPost2010Prop51ColorRGB
 90
-16777216
102
RTVSPost2010PropOp51
 70
     0
102
RTVSPost2010Prop52
140
1.0
102
RTVSPost2010PropOp52
 70
     0
102
RTVSPost2010Prop53
 90
        2
102
RTVSPost2010PropOp53
 70
     1
102
RTVSPost2010Prop54
  1
strokes_ogs.tif
102
RTVSPost2010PropOp54
 70
     1
102
RTVSPost2010Prop55
280
     0
102
RTVSPost2010PropOp55
 70
     1
102
RTVSPost2010Prop56
140
1.0
102
RTVSPost2010PropOp56
 70
     1
102
RTVSPost2010Prop57
140
1.0
102
RTVSPost2010PropOp57
 70
     1
102
RTVSPropertyOp0
 70
     1
102
RTVSPropertyOp1
 70
     1
102
RTVSPropertyOp2
 70
     1
102
RTVSPropertyOp3
 70
     1
102
RTVSPropertyOp4
 70
     1
102
RTVSPropertyOp5
 70
     1
102
RTVSPropertyOp6
 70
     1
102
RTVSPropertyOp7
 70
     1
102
RTVSPropertyOp8
 70
     1
102
RTVSPropertyOp9
 70
     1
102
RTVSPropertyOp10
 70
     1
102
RTVSPropertyOp11
 70
     1
102
RTVSPropertyOp12
 70
     1
102
RTVSPropertyOp13
 70
     1
102
RTVSPropertyOp14
 70
     1
102
RTVSPropertyOp15
 70
     1
102
RTVSPropertyOp16
 70
     1
102
RTVSPropertyOp17
 70
     1
102
RTVSPropertyOp18
 70
     1
102
RTVSPropertyOp19
 70
     1
102
RTVSPropertyOp20
 70
     1
102
RTVSPropertyOp21
 70
     1
102
RTVSPropertyOp22
 70
     1
102
RTVSPropertyOp23
 70
     1
102
RTVSPropertyOp24
 70
     1
102
RTVSPropertyOp25
 70
     1
102
RTVSPropertyOp26
 70
     1
102
RTVSPropertyOp27
 70
     1
102
RTVSPropertyOp28
 70
     1
102
RTVSPropertyOp29
 70
     1
102
RTVSPropertyOp30
 70
     1
102
RTVSPropertyOp31
 70
     1
102
RTVSPropertyOp32
 70
     1
102
RTVSPropertyOp33
 70
     1
102
RTVSPropertyOp34
 70
     1
102
RTVSPropertyOp35
 70
     1
102
RTVSPropertyOp36
 70
     1
102
RTVSPropertyOp37
 70
     1
102
RTVSPropertyOp38
 70
     1
102
RTVSPropertyOp39
 70
     1
102
RTVSPropertyOp40
 70
     1
102
RTVSPropertyOp41
 70
     1
102
RTVSPropertyOp42
 70
     1
102
RTVSPropertyOp43
 70
     1
102
RTVSPropertyOp44
 70
     1
102
RTVSPropertyOp45
 70
     1
102
RTVSPropertyOp46
 70
     1
102
RTVSPropertyOp47
 70
     1
102
RTVSPropertyOp48
 70
     1
102
RTVSPropertyOp49
 70
     1
102
RTVSPropertyOp50
 70
     1
102
RTVSPropertyOp51
 70
     0
102
RTVSPropertyOp52
 70
     0
102
RTVSPropertyOp53
 70
     1
102
RTVSPropertyOp54
 70
     1
102
RTVSPropertyOp55
 70
     1
102
RTVSPropertyOp56
 70
     1
102
RTVSPropertyOp57
 70
     1
102
RTVSPropertyOp58
 70
     1
102
RTVSPropertyOp59
 70
     1
102
RTVSPropertyOp60
 70
     1
102
RTVSPropertyOp61
 70
     1
102
RTVSPropertyOp62
 70
     1
  0
XRECORD
  5
B3C62
102
{ACAD_REACTORS
330
B3C61
102
}
330
B3C61
100
AcDbXrecord
280
     1
102
RTVSPost2010Prop28
280
     0
102
RTVSPost2010PropOp28
 70
     1
102
RTVSPost2010Prop29
280
     1
102
RTVSPost2010PropOp29
 70
     1
102
RTVSPost2010Prop30
280
     1
102
RTVSPost2010PropOp30
 70
     1
102
RTVSPost2010Prop31
280
     0
102
RTVSPost2010PropOp31
 70
     1
102
RTVSPost2010Prop32
280
     0
102
RTVSPost2010PropOp32
 70
     1
102
RTVSPost2010Prop33
280
     0
102
RTVSPost2010PropOp33
 70
     1
102
RTVSPost2010Prop34
280
     0
102
RTVSPost2010PropOp34
 70
     1
102
RTVSPost2010Prop35
280
     0
102
RTVSPost2010PropOp35
 70
     1
102
RTVSPost2010Prop36
280
     0
102
RTVSPost2010PropOp36
 70
     1
102
RTVSPost2010Prop37
 90
       50
102
RTVSPost2010PropOp37
 70
     1
102
RTVSPost2010Prop38
140
0.0
102
RTVSPost2010PropOp38
 70
     1
102
RTVSPost2010Prop39
140
1.0
102
RTVSPost2010PropOp39
 70
     1
102
RTVSPost2010Prop40
 90
        0
102
RTVSPost2010PropOp40
 70
     1
102
RTVSPost2010Prop41ColorIndex
 90
       18
102
RTVSPost2010Prop41ColorRGB
 90
        0
102
RTVSPost2010PropOp41
 70
     1
102
RTVSPost2010Prop42
 90
       50
102
RTVSPost2010PropOp42
 70
     1
102
RTVSPost2010Prop43
 90
        3
102
RTVSPost2010PropOp43
 70
     1
102
RTVSPost2010Prop44ColorIndex
 90
        5
102
RTVSPost2010Prop44ColorRGB
 90
      255
102
RTVSPost2010PropOp44
 70
     1
102
RTVSPost2010Prop45
280
     0
102
RTVSPost2010PropOp45
 70
     1
102
RTVSPost2010Prop46
 90
       50
102
RTVSPost2010PropOp46
 70
     1
102
RTVSPost2010Prop47
 90
       50
102
RTVSPost2010PropOp47
 70
     1
102
RTVSPost2010Prop48
 90
       50
102
RTVSPost2010PropOp48
 70
     1
102
RTVSPost2010Prop49
280
     0
102
RTVSPost2010PropOp49
 70
     1
102
RTVSPost2010Prop50
 90
       50
102
RTVSPost2010PropOp50
 70
     1
102
RTVSPost2010Prop51ColorIndex
 90
      256
102
RTVSPost2010Prop51ColorRGB
 90
-16777216
102
RTVSPost2010PropOp51
 70
     0
102
RTVSPost2010Prop52
140
1.0
102
RTVSPost2010PropOp52
 70
     0
102
RTVSPost2010Prop53
 90
        2
102
RTVSPost2010PropOp53
 70
     1
102
RTVSPost2010Prop54
  1
strokes_ogs.tif
102
RTVSPost2010PropOp54
 70
     1
102
RTVSPost2010Prop55
280
     0
102
RTVSPost2010PropOp55
 70
     1
102
RTVSPost2010Prop56
140
1.0
102
RTVSPost2010PropOp56
 70
     1
102
RTVSPost2010Prop57
140
1.0
102
RTVSPost2010PropOp57
 70
     1
102
RTVSPropertyOp0
 70
     1
102
RTVSPropertyOp1
 70
     1
102
RTVSPropertyOp2
 70
     1
102
RTVSPropertyOp3
 70
     1
102
RTVSPropertyOp4
 70
     1
102
RTVSPropertyOp5
 70
     1
102
RTVSPropertyOp6
 70
     1
102
RTVSPropertyOp7
 70
     1
102
RTVSPropertyOp8
 70
     1
102
RTVSPropertyOp9
 70
     1
102
RTVSPropertyOp10
 70
     1
102
RTVSPropertyOp11
 70
     1
102
RTVSPropertyOp12
 70
     1
102
RTVSPropertyOp13
 70
     1
102
RTVSPropertyOp14
 70
     1
102
RTVSPropertyOp15
 70
     1
102
RTVSPropertyOp16
 70
     1
102
RTVSPropertyOp17
 70
     1
102
RTVSPropertyOp18
 70
     1
102
RTVSPropertyOp19
 70
     1
102
RTVSPropertyOp20
 70
     1
102
RTVSPropertyOp21
 70
     1
102
RTVSPropertyOp22
 70
     1
102
RTVSPropertyOp23
 70
     1
102
RTVSPropertyOp24
 70
     1
102
RTVSPropertyOp25
 70
     1
102
RTVSPropertyOp26
 70
     1
102
RTVSPropertyOp27
 70
     1
102
RTVSPropertyOp28
 70
     1
102
RTVSPropertyOp29
 70
     1
102
RTVSPropertyOp30
 70
     1
102
RTVSPropertyOp31
 70
     1
102
RTVSPropertyOp32
 70
     1
102
RTVSPropertyOp33
 70
     1
102
RTVSPropertyOp34
 70
     1
102
RTVSPropertyOp35
 70
     1
102
RTVSPropertyOp36
 70
     1
102
RTVSPropertyOp37
 70
     1
102
RTVSPropertyOp38
 70
     1
102
RTVSPropertyOp39
 70
     1
102
RTVSPropertyOp40
 70
     1
102
RTVSPropertyOp41
 70
     1
102
RTVSPropertyOp42
 70
     1
102
RTVSPropertyOp43
 70
     1
102
RTVSPropertyOp44
 70
     1
102
RTVSPropertyOp45
 70
     1
102
RTVSPropertyOp46
 70
     1
102
RTVSPropertyOp47
 70
     1
102
RTVSPropertyOp48
 70
     1
102
RTVSPropertyOp49
 70
     1
102
RTVSPropertyOp50
 70
     1
102
RTVSPropertyOp51
 70
     0
102
RTVSPropertyOp52
 70
     0
102
RTVSPropertyOp53
 70
     1
102
RTVSPropertyOp54
 70
     1
102
RTVSPropertyOp55
 70
     1
102
RTVSPropertyOp56
 70
     1
102
RTVSPropertyOp57
 70
     1
102
RTVSPropertyOp58
 70
     1
102
RTVSPropertyOp59
 70
     1
102
RTVSPropertyOp60
 70
     1
102
RTVSPropertyOp61
 70
     1
102
RTVSPropertyOp62
 70
     1
  0
XRECORD
  5
B3C72
102
{ACAD_REACTORS
330
B3C71
102
}
330
B3C71
100
AcDbXrecord
280
     1
102
RTVSPost2010Prop28
280
     0
102
RTVSPost2010PropOp28
 70
     0
102
RTVSPost2010Prop29
280
     1
102
RTVSPost2010PropOp29
 70
     0
102
RTVSPost2010Prop30
280
     1
102
RTVSPost2010PropOp30
 70
     0
102
RTVSPost2010Prop31
280
     0
102
RTVSPost2010PropOp31
 70
     0
102
RTVSPost2010Prop32
280
     0
102
RTVSPost2010PropOp32
 70
     0
102
RTVSPost2010Prop33
280
     0
102
RTVSPost2010PropOp33
 70
     0
102
RTVSPost2010Prop34
280
     0
102
RTVSPost2010PropOp34
 70
     0
102
RTVSPost2010Prop35
280
     0
102
RTVSPost2010PropOp35
 70
     0
102
RTVSPost2010Prop36
280
     0
102
RTVSPost2010PropOp36
 70
     0
102
RTVSPost2010Prop37
 90
       50
102
RTVSPost2010PropOp37
 70
     0
102
RTVSPost2010Prop38
140
0.0
102
RTVSPost2010PropOp38
 70
     0
102
RTVSPost2010Prop39
140
1.0
102
RTVSPost2010PropOp39
 70
     0
102
RTVSPost2010Prop40
 90
        0
102
RTVSPost2010PropOp40
 70
     0
102
RTVSPost2010Prop41ColorIndex
 90
       18
102
RTVSPost2010Prop41ColorRGB
 90
        0
102
RTVSPost2010PropOp41
 70
     0
102
RTVSPost2010Prop42
 90
       50
102
RTVSPost2010PropOp42
 70
     0
102
RTVSPost2010Prop43
 90
        3
102
RTVSPost2010PropOp43
 70
     0
102
RTVSPost2010Prop44ColorIndex
 90
        5
102
RTVSPost2010Prop44ColorRGB
 90
      255
102
RTVSPost2010PropOp44
 70
     0
102
RTVSPost2010Prop45
280
     0
102
RTVSPost2010PropOp45
 70
     0
102
RTVSPost2010Prop46
 90
       50
102
RTVSPost2010PropOp46
 70
     0
102
RTVSPost2010Prop47
 90
       50
102
RTVSPost2010PropOp47
 70
     0
102
RTVSPost2010Prop48
 90
       50
102
RTVSPost2010PropOp48
 70
     0
102
RTVSPost2010Prop49
280
     0
102
RTVSPost2010PropOp49
 70
     0
102
RTVSPost2010Prop50
 90
       50
102
RTVSPost2010PropOp50
 70
     0
102
RTVSPost2010Prop51ColorIndex
 90
      256
102
RTVSPost2010Prop51ColorRGB
 90
-16777216
102
RTVSPost2010PropOp51
 70
     0
102
RTVSPost2010Prop52
140
1.0
102
RTVSPost2010PropOp52
 70
     0
102
RTVSPost2010Prop53
 90
        2
102
RTVSPost2010PropOp53
 70
     0
102
RTVSPost2010Prop54
  1
strokes_ogs.tif
102
RTVSPost2010PropOp54
 70
     0
102
RTVSPost2010Prop55
280
     0
102
RTVSPost2010PropOp55
 70
     0
102
RTVSPost2010Prop56
140
1.0
102
RTVSPost2010PropOp56
 70
     0
102
RTVSPost2010Prop57
140
1.0
102
RTVSPost2010PropOp57
 70
     0
102
RTVSPropertyOp0
 70
     0
102
RTVSPropertyOp1
 70
     0
102
RTVSPropertyOp2
 70
     0
102
RTVSPropertyOp3
 70
     0
102
RTVSPropertyOp4
 70
     0
102
RTVSPropertyOp5
 70
     0
102
RTVSPropertyOp6
 70
     0
102
RTVSPropertyOp7
 70
     0
102
RTVSPropertyOp8
 70
     0
102
RTVSPropertyOp9
 70
     0
102
RTVSPropertyOp10
 70
     0
102
RTVSPropertyOp11
 70
     0
102
RTVSPropertyOp12
 70
     0
102
RTVSPropertyOp13
 70
     0
102
RTVSPropertyOp14
 70
     2
102
RTVSPropertyOp15
 70
     0
102
RTVSPropertyOp16
 70
     0
102
RTVSPropertyOp17
 70
     0
102
RTVSPropertyOp18
 70
     0
102
RTVSPropertyOp19
 70
     0
102
RTVSPropertyOp20
 70
     0
102
RTVSPropertyOp21
 70
     0
102
RTVSPropertyOp22
 70
     0
102
RTVSPropertyOp23
 70
     0
102
RTVSPropertyOp24
 70
     0
102
RTVSPropertyOp25
 70
     0
102
RTVSPropertyOp26
 70
     0
102
RTVSPropertyOp27
 70
     0
102
RTVSPropertyOp28
 70
     0
102
RTVSPropertyOp29
 70
     0
102
RTVSPropertyOp30
 70
     0
102
RTVSPropertyOp31
 70
     0
102
RTVSPropertyOp32
 70
     0
102
RTVSPropertyOp33
 70
     0
102
RTVSPropertyOp34
 70
     0
102
RTVSPropertyOp35
 70
     0
102
RTVSPropertyOp36
 70
     0
102
RTVSPropertyOp37
 70
     0
102
RTVSPropertyOp38
 70
     0
102
RTVSPropertyOp39
 70
     0
102
RTVSPropertyOp40
 70
     0
102
RTVSPropertyOp41
 70
     0
102
RTVSPropertyOp42
 70
     0
102
RTVSPropertyOp43
 70
     0
102
RTVSPropertyOp44
 70
     0
102
RTVSPropertyOp45
 70
     0
102
RTVSPropertyOp46
 70
     0
102
RTVSPropertyOp47
 70
     0
102
RTVSPropertyOp48
 70
     0
102
RTVSPropertyOp49
 70
     0
102
RTVSPropertyOp50
 70
     0
102
RTVSPropertyOp51
 70
     0
102
RTVSPropertyOp52
 70
     0
102
RTVSPropertyOp53
 70
     0
102
RTVSPropertyOp54
 70
     0
102
RTVSPropertyOp55
 70
     0
102
RTVSPropertyOp56
 70
     0
102
RTVSPropertyOp57
 70
     0
102
RTVSPropertyOp58
 70
     1
102
RTVSPropertyOp59
 70
     1
102
RTVSPropertyOp60
 70
     1
102
RTVSPropertyOp61
 70
     1
102
RTVSPropertyOp62
 70
     1
  0
XRECORD
  5
B3C6A
102
{ACAD_REACTORS
330
B3C69
102
}
330
B3C69
100
AcDbXrecord
280
     1
102
RTVSPost2010Prop28
280
     0
102
RTVSPost2010PropOp28
 70
     1
102
RTVSPost2010Prop29
280
     1
102
RTVSPost2010PropOp29
 70
     1
102
RTVSPost2010Prop30
280
     1
102
RTVSPost2010PropOp30
 70
     1
102
RTVSPost2010Prop31
280
     0
102
RTVSPost2010PropOp31
 70
     1
102
RTVSPost2010Prop32
280
     0
102
RTVSPost2010PropOp32
 70
     1
102
RTVSPost2010Prop33
280
     0
102
RTVSPost2010PropOp33
 70
     1
102
RTVSPost2010Prop34
280
     0
102
RTVSPost2010PropOp34
 70
     1
102
RTVSPost2010Prop35
280
     0
102
RTVSPost2010PropOp35
 70
     1
102
RTVSPost2010Prop36
280
     0
102
RTVSPost2010PropOp36
 70
     1
102
RTVSPost2010Prop37
 90
       50
102
RTVSPost2010PropOp37
 70
     1
102
RTVSPost2010Prop38
140
0.0
102
RTVSPost2010PropOp38
 70
     1
102
RTVSPost2010Prop39
140
1.0
102
RTVSPost2010PropOp39
 70
     1
102
RTVSPost2010Prop40
 90
        0
102
RTVSPost2010PropOp40
 70
     1
102
RTVSPost2010Prop41ColorIndex
 90
       18
102
RTVSPost2010Prop41ColorRGB
 90
        0
102
RTVSPost2010PropOp41
 70
     1
102
RTVSPost2010Prop42
 90
       50
102
RTVSPost2010PropOp42
 70
     1
102
RTVSPost2010Prop43
 90
        3
102
RTVSPost2010PropOp43
 70
     1
102
RTVSPost2010Prop44ColorIndex
 90
        5
102
RTVSPost2010Prop44ColorRGB
 90
      255
102
RTVSPost2010PropOp44
 70
     1
102
RTVSPost2010Prop45
280
     0
102
RTVSPost2010PropOp45
 70
     1
102
RTVSPost2010Prop46
 90
       50
102
RTVSPost2010PropOp46
 70
     1
102
RTVSPost2010Prop47
 90
       50
102
RTVSPost2010PropOp47
 70
     1
102
RTVSPost2010Prop48
 90
       50
102
RTVSPost2010PropOp48
 70
     1
102
RTVSPost2010Prop49
280
     0
102
RTVSPost2010PropOp49
 70
     1
102
RTVSPost2010Prop50
 90
       50
102
RTVSPost2010PropOp50
 70
     1
102
RTVSPost2010Prop51ColorIndex
 90
      256
102
RTVSPost2010Prop51ColorRGB
 90
-16777216
102
RTVSPost2010PropOp51
 70
     0
102
RTVSPost2010Prop52
140
1.0
102
RTVSPost2010PropOp52
 70
     0
102
RTVSPost2010Prop53
 90
        2
102
RTVSPost2010PropOp53
 70
     1
102
RTVSPost2010Prop54
  1
strokes_ogs.tif
102
RTVSPost2010PropOp54
 70
     1
102
RTVSPost2010Prop55
280
     0
102
RTVSPost2010PropOp55
 70
     1
102
RTVSPost2010Prop56
140
1.0
102
RTVSPost2010PropOp56
 70
     1
102
RTVSPost2010Prop57
140
1.0
102
RTVSPost2010PropOp57
 70
     1
102
RTVSPropertyOp0
 70
     1
102
RTVSPropertyOp1
 70
     1
102
RTVSPropertyOp2
 70
     1
102
RTVSPropertyOp3
 70
     1
102
RTVSPropertyOp4
 70
     1
102
RTVSPropertyOp5
 70
     1
102
RTVSPropertyOp6
 70
     1
102
RTVSPropertyOp7
 70
     1
102
RTVSPropertyOp8
 70
     1
102
RTVSPropertyOp9
 70
     1
102
RTVSPropertyOp10
 70
     1
102
RTVSPropertyOp11
 70
     1
102
RTVSPropertyOp12
 70
     1
102
RTVSPropertyOp13
 70
     1
102
RTVSPropertyOp14
 70
     1
102
RTVSPropertyOp15
 70
     1
102
RTVSPropertyOp16
 70
     1
102
RTVSPropertyOp17
 70
     1
102
RTVSPropertyOp18
 70
     1
102
RTVSPropertyOp19
 70
     1
102
RTVSPropertyOp20
 70
     1
102
RTVSPropertyOp21
 70
     1
102
RTVSPropertyOp22
 70
     1
102
RTVSPropertyOp23
 70
     1
102
RTVSPropertyOp24
 70
     1
102
RTVSPropertyOp25
 70
     1
102
RTVSPropertyOp26
 70
     1
102
RTVSPropertyOp27
 70
     1
102
RTVSPropertyOp28
 70
     1
102
RTVSPropertyOp29
 70
     1
102
RTVSPropertyOp30
 70
     1
102
RTVSPropertyOp31
 70
     1
102
RTVSPropertyOp32
 70
     1
102
RTVSPropertyOp33
 70
     1
102
RTVSPropertyOp34
 70
     1
102
RTVSPropertyOp35
 70
     1
102
RTVSPropertyOp36
 70
     1
102
RTVSPropertyOp37
 70
     1
102
RTVSPropertyOp38
 70
     1
102
RTVSPropertyOp39
 70
     1
102
RTVSPropertyOp40
 70
     1
102
RTVSPropertyOp41
 70
     1
102
RTVSPropertyOp42
 70
     1
102
RTVSPropertyOp43
 70
     1
102
RTVSPropertyOp44
 70
     1
102
RTVSPropertyOp45
 70
     1
102
RTVSPropertyOp46
 70
     1
102
RTVSPropertyOp47
 70
     1
102
RTVSPropertyOp48
 70
     1
102
RTVSPropertyOp49
 70
     1
102
RTVSPropertyOp50
 70
     1
102
RTVSPropertyOp51
 70
     0
102
RTVSPropertyOp52
 70
     0
102
RTVSPropertyOp53
 70
     1
102
RTVSPropertyOp54
 70
     1
102
RTVSPropertyOp55
 70
     1
102
RTVSPropertyOp56
 70
     1
102
RTVSPropertyOp57
 70
     1
102
RTVSPropertyOp58
 70
     1
102
RTVSPropertyOp59
 70
     1
102
RTVSPropertyOp60
 70
     1
102
RTVSPropertyOp61
 70
     1
102
RTVSPropertyOp62
 70
     1
  0
XRECORD
  5
B3C4E
102
{ACAD_REACTORS
330
B3C4D
102
}
330
B3C4D
100
AcDbXrecord
280
     1
102
RTVSPost2010Prop28
280
     0
102
RTVSPost2010PropOp28
 70
     1
102
RTVSPost2010Prop29
280
     1
102
RTVSPost2010PropOp29
 70
     1
102
RTVSPost2010Prop30
280
     1
102
RTVSPost2010PropOp30
 70
     1
102
RTVSPost2010Prop31
280
     0
102
RTVSPost2010PropOp31
 70
     1
102
RTVSPost2010Prop32
280
     0
102
RTVSPost2010PropOp32
 70
     1
102
RTVSPost2010Prop33
280
     0
102
RTVSPost2010PropOp33
 70
     1
102
RTVSPost2010Prop34
280
     0
102
RTVSPost2010PropOp34
 70
     1
102
RTVSPost2010Prop35
280
     0
102
RTVSPost2010PropOp35
 70
     1
102
RTVSPost2010Prop36
280
     0
102
RTVSPost2010PropOp36
 70
     1
102
RTVSPost2010Prop37
 90
       50
102
RTVSPost2010PropOp37
 70
     1
102
RTVSPost2010Prop38
140
0.0
102
RTVSPost2010PropOp38
 70
     1
102
RTVSPost2010Prop39
140
1.0
102
RTVSPost2010PropOp39
 70
     1
102
RTVSPost2010Prop40
 90
        0
102
RTVSPost2010PropOp40
 70
     1
102
RTVSPost2010Prop41ColorIndex
 90
       18
102
RTVSPost2010Prop41ColorRGB
 90
        0
102
RTVSPost2010PropOp41
 70
     1
102
RTVSPost2010Prop42
 90
       50
102
RTVSPost2010PropOp42
 70
     1
102
RTVSPost2010Prop43
 90
        3
102
RTVSPost2010PropOp43
 70
     1
102
RTVSPost2010Prop44ColorIndex
 90
        5
102
RTVSPost2010Prop44ColorRGB
 90
      255
102
RTVSPost2010PropOp44
 70
     1
102
RTVSPost2010Prop45
280
     0
102
RTVSPost2010PropOp45
 70
     1
102
RTVSPost2010Prop46
 90
       50
102
RTVSPost2010PropOp46
 70
     1
102
RTVSPost2010Prop47
 90
       50
102
RTVSPost2010PropOp47
 70
     1
102
RTVSPost2010Prop48
 90
       50
102
RTVSPost2010PropOp48
 70
     1
102
RTVSPost2010Prop49
280
     0
102
RTVSPost2010PropOp49
 70
     1
102
RTVSPost2010Prop50
 90
       50
102
RTVSPost2010PropOp50
 70
     1
102
RTVSPost2010Prop51ColorIndex
 90
      256
102
RTVSPost2010Prop51ColorRGB
 90
-16777216
102
RTVSPost2010PropOp51
 70
     0
102
RTVSPost2010Prop52
140
1.0
102
RTVSPost2010PropOp52
 70
     0
102
RTVSPost2010Prop53
 90
        2
102
RTVSPost2010PropOp53
 70
     1
102
RTVSPost2010Prop54
  1
strokes_ogs.tif
102
RTVSPost2010PropOp54
 70
     1
102
RTVSPost2010Prop55
280
     0
102
RTVSPost2010PropOp55
 70
     1
102
RTVSPost2010Prop56
140
1.0
102
RTVSPost2010PropOp56
 70
     1
102
RTVSPost2010Prop57
140
1.0
102
RTVSPost2010PropOp57
 70
     1
102
RTVSPropertyOp0
 70
     1
102
RTVSPropertyOp1
 70
     1
102
RTVSPropertyOp2
 70
     1
102
RTVSPropertyOp3
 70
     1
102
RTVSPropertyOp4
 70
     1
102
RTVSPropertyOp5
 70
     1
102
RTVSPropertyOp6
 70
     1
102
RTVSPropertyOp7
 70
     1
102
RTVSPropertyOp8
 70
     1
102
RTVSPropertyOp9
 70
     1
102
RTVSPropertyOp10
 70
     1
102
RTVSPropertyOp11
 70
     1
102
RTVSPropertyOp12
 70
     1
102
RTVSPropertyOp13
 70
     1
102
RTVSPropertyOp14
 70
     1
102
RTVSPropertyOp15
 70
     1
102
RTVSPropertyOp16
 70
     1
102
RTVSPropertyOp17
 70
     1
102
RTVSPropertyOp18
 70
     1
102
RTVSPropertyOp19
 70
     1
102
RTVSPropertyOp20
 70
     1
102
RTVSPropertyOp21
 70
     1
102
RTVSPropertyOp22
 70
     1
102
RTVSPropertyOp23
 70
     1
102
RTVSPropertyOp24
 70
     1
102
RTVSPropertyOp25
 70
     1
102
RTVSPropertyOp26
 70
     1
102
RTVSPropertyOp27
 70
     1
102
RTVSPropertyOp28
 70
     1
102
RTVSPropertyOp29
 70
     1
102
RTVSPropertyOp30
 70
     1
102
RTVSPropertyOp31
 70
     1
102
RTVSPropertyOp32
 70
     1
102
RTVSPropertyOp33
 70
     1
102
RTVSPropertyOp34
 70
     1
102
RTVSPropertyOp35
 70
     1
102
RTVSPropertyOp36
 70
     1
102
RTVSPropertyOp37
 70
     1
102
RTVSPropertyOp38
 70
     1
102
RTVSPropertyOp39
 70
     1
102
RTVSPropertyOp40
 70
     1
102
RTVSPropertyOp41
 70
     1
102
RTVSPropertyOp42
 70
     1
102
RTVSPropertyOp43
 70
     1
102
RTVSPropertyOp44
 70
     1
102
RTVSPropertyOp45
 70
     1
102
RTVSPropertyOp46
 70
     1
102
RTVSPropertyOp47
 70
     1
102
RTVSPropertyOp48
 70
     1
102
RTVSPropertyOp49
 70
     1
102
RTVSPropertyOp50
 70
     1
102
RTVSPropertyOp51
 70
     0
102
RTVSPropertyOp52
 70
     0
102
RTVSPropertyOp53
 70
     1
102
RTVSPropertyOp54
 70
     1
102
RTVSPropertyOp55
 70
     1
102
RTVSPropertyOp56
 70
     1
102
RTVSPropertyOp57
 70
     1
102
RTVSPropertyOp58
 70
     1
102
RTVSPropertyOp59
 70
     1
102
RTVSPropertyOp60
 70
     1
102
RTVSPropertyOp61
 70
     1
102
RTVSPropertyOp62
 70
     1
  0
XRECORD
  5
B3C50
102
{ACAD_REACTORS
330
B3C4F
102
}
330
B3C4F
100
AcDbXrecord
280
     1
102
RTVSPost2010Prop28
280
     0
102
RTVSPost2010PropOp28
 70
     1
102
RTVSPost2010Prop29
280
     1
102
RTVSPost2010PropOp29
 70
     1
102
RTVSPost2010Prop30
280
     1
102
RTVSPost2010PropOp30
 70
     1
102
RTVSPost2010Prop31
280
     0
102
RTVSPost2010PropOp31
 70
     1
102
RTVSPost2010Prop32
280
     0
102
RTVSPost2010PropOp32
 70
     1
102
RTVSPost2010Prop33
280
     0
102
RTVSPost2010PropOp33
 70
     1
102
RTVSPost2010Prop34
280
     0
102
RTVSPost2010PropOp34
 70
     1
102
RTVSPost2010Prop35
280
     0
102
RTVSPost2010PropOp35
 70
     1
102
RTVSPost2010Prop36
280
     0
102
RTVSPost2010PropOp36
 70
     1
102
RTVSPost2010Prop37
 90
       50
102
RTVSPost2010PropOp37
 70
     1
102
RTVSPost2010Prop38
140
0.0
102
RTVSPost2010PropOp38
 70
     1
102
RTVSPost2010Prop39
140
1.0
102
RTVSPost2010PropOp39
 70
     1
102
RTVSPost2010Prop40
 90
        0
102
RTVSPost2010PropOp40
 70
     1
102
RTVSPost2010Prop41ColorIndex
 90
       18
102
RTVSPost2010Prop41ColorRGB
 90
        0
102
RTVSPost2010PropOp41
 70
     1
102
RTVSPost2010Prop42
 90
       50
102
RTVSPost2010PropOp42
 70
     1
102
RTVSPost2010Prop43
 90
        3
102
RTVSPost2010PropOp43
 70
     1
102
RTVSPost2010Prop44ColorIndex
 90
        5
102
RTVSPost2010Prop44ColorRGB
 90
      255
102
RTVSPost2010PropOp44
 70
     1
102
RTVSPost2010Prop45
280
     0
102
RTVSPost2010PropOp45
 70
     1
102
RTVSPost2010Prop46
 90
       50
102
RTVSPost2010PropOp46
 70
     1
102
RTVSPost2010Prop47
 90
       50
102
RTVSPost2010PropOp47
 70
     1
102
RTVSPost2010Prop48
 90
       50
102
RTVSPost2010PropOp48
 70
     1
102
RTVSPost2010Prop49
280
     0
102
RTVSPost2010PropOp49
 70
     1
102
RTVSPost2010Prop50
 90
       50
102
RTVSPost2010PropOp50
 70
     1
102
RTVSPost2010Prop51ColorIndex
 90
      256
102
RTVSPost2010Prop51ColorRGB
 90
-16777216
102
RTVSPost2010PropOp51
 70
     0
102
RTVSPost2010Prop52
140
1.0
102
RTVSPost2010PropOp52
 70
     0
102
RTVSPost2010Prop53
 90
        2
102
RTVSPost2010PropOp53
 70
     1
102
RTVSPost2010Prop54
  1
strokes_ogs.tif
102
RTVSPost2010PropOp54
 70
     1
102
RTVSPost2010Prop55
280
     0
102
RTVSPost2010PropOp55
 70
     1
102
RTVSPost2010Prop56
140
1.0
102
RTVSPost2010PropOp56
 70
     1
102
RTVSPost2010Prop57
140
1.0
102
RTVSPost2010PropOp57
 70
     1
102
RTVSPropertyOp0
 70
     1
102
RTVSPropertyOp1
 70
     1
102
RTVSPropertyOp2
 70
     1
102
RTVSPropertyOp3
 70
     1
102
RTVSPropertyOp4
 70
     1
102
RTVSPropertyOp5
 70
     1
102
RTVSPropertyOp6
 70
     1
102
RTVSPropertyOp7
 70
     1
102
RTVSPropertyOp8
 70
     1
102
RTVSPropertyOp9
 70
     1
102
RTVSPropertyOp10
 70
     1
102
RTVSPropertyOp11
 70
     1
102
RTVSPropertyOp12
 70
     1
102
RTVSPropertyOp13
 70
     1
102
RTVSPropertyOp14
 70
     1
102
RTVSPropertyOp15
 70
     1
102
RTVSPropertyOp16
 70
     1
102
RTVSPropertyOp17
 70
     1
102
RTVSPropertyOp18
 70
     1
102
RTVSPropertyOp19
 70
     1
102
RTVSPropertyOp20
 70
     1
102
RTVSPropertyOp21
 70
     1
102
RTVSPropertyOp22
 70
     1
102
RTVSPropertyOp23
 70
     1
102
RTVSPropertyOp24
 70
     1
102
RTVSPropertyOp25
 70
     1
102
RTVSPropertyOp26
 70
     1
102
RTVSPropertyOp27
 70
     1
102
RTVSPropertyOp28
 70
     1
102
RTVSPropertyOp29
 70
     1
102
RTVSPropertyOp30
 70
     1
102
RTVSPropertyOp31
 70
     1
102
RTVSPropertyOp32
 70
     1
102
RTVSPropertyOp33
 70
     1
102
RTVSPropertyOp34
 70
     1
102
RTVSPropertyOp35
 70
     1
102
RTVSPropertyOp36
 70
     1
102
RTVSPropertyOp37
 70
     1
102
RTVSPropertyOp38
 70
     1
102
RTVSPropertyOp39
 70
     1
102
RTVSPropertyOp40
 70
     1
102
RTVSPropertyOp41
 70
     1
102
RTVSPropertyOp42
 70
     1
102
RTVSPropertyOp43
 70
     1
102
RTVSPropertyOp44
 70
     1
102
RTVSPropertyOp45
 70
     1
102
RTVSPropertyOp46
 70
     1
102
RTVSPropertyOp47
 70
     1
102
RTVSPropertyOp48
 70
     1
102
RTVSPropertyOp49
 70
     1
102
RTVSPropertyOp50
 70
     1
102
RTVSPropertyOp51
 70
     0
102
RTVSPropertyOp52
 70
     0
102
RTVSPropertyOp53
 70
     1
102
RTVSPropertyOp54
 70
     1
102
RTVSPropertyOp55
 70
     1
102
RTVSPropertyOp56
 70
     1
102
RTVSPropertyOp57
 70
     1
102
RTVSPropertyOp58
 70
     1
102
RTVSPropertyOp59
 70
     1
102
RTVSPropertyOp60
 70
     1
102
RTVSPropertyOp61
 70
     1
102
RTVSPropertyOp62
 70
     1
  0
XRECORD
  5
B3C52
102
{ACAD_REACTORS
330
B3C51
102
}
330
B3C51
100
AcDbXrecord
280
     1
102
RTVSPost2010Prop28
280
     0
102
RTVSPost2010PropOp28
 70
     1
102
RTVSPost2010Prop29
280
     1
102
RTVSPost2010PropOp29
 70
     1
102
RTVSPost2010Prop30
280
     1
102
RTVSPost2010PropOp30
 70
     1
102
RTVSPost2010Prop31
280
     0
102
RTVSPost2010PropOp31
 70
     1
102
RTVSPost2010Prop32
280
     0
102
RTVSPost2010PropOp32
 70
     1
102
RTVSPost2010Prop33
280
     0
102
RTVSPost2010PropOp33
 70
     1
102
RTVSPost2010Prop34
280
     0
102
RTVSPost2010PropOp34
 70
     1
102
RTVSPost2010Prop35
280
     0
102
RTVSPost2010PropOp35
 70
     1
102
RTVSPost2010Prop36
280
     0
102
RTVSPost2010PropOp36
 70
     1
102
RTVSPost2010Prop37
 90
       50
102
RTVSPost2010PropOp37
 70
     1
102
RTVSPost2010Prop38
140
0.0
102
RTVSPost2010PropOp38
 70
     1
102
RTVSPost2010Prop39
140
1.0
102
RTVSPost2010PropOp39
 70
     1
102
RTVSPost2010Prop40
 90
        0
102
RTVSPost2010PropOp40
 70
     1
102
RTVSPost2010Prop41ColorIndex
 90
       18
102
RTVSPost2010Prop41ColorRGB
 90
        0
102
RTVSPost2010PropOp41
 70
     1
102
RTVSPost2010Prop42
 90
       50
102
RTVSPost2010PropOp42
 70
     1
102
RTVSPost2010Prop43
 90
        3
102
RTVSPost2010PropOp43
 70
     1
102
RTVSPost2010Prop44ColorIndex
 90
        5
102
RTVSPost2010Prop44ColorRGB
 90
      255
102
RTVSPost2010PropOp44
 70
     1
102
RTVSPost2010Prop45
280
     0
102
RTVSPost2010PropOp45
 70
     1
102
RTVSPost2010Prop46
 90
       50
102
RTVSPost2010PropOp46
 70
     1
102
RTVSPost2010Prop47
 90
       50
102
RTVSPost2010PropOp47
 70
     1
102
RTVSPost2010Prop48
 90
       50
102
RTVSPost2010PropOp48
 70
     1
102
RTVSPost2010Prop49
280
     0
102
RTVSPost2010PropOp49
 70
     1
102
RTVSPost2010Prop50
 90
       50
102
RTVSPost2010PropOp50
 70
     1
102
RTVSPost2010Prop51ColorIndex
 90
      256
102
RTVSPost2010Prop51ColorRGB
 90
-16777216
102
RTVSPost2010PropOp51
 70
     0
102
RTVSPost2010Prop52
140
1.0
102
RTVSPost2010PropOp52
 70
     0
102
RTVSPost2010Prop53
 90
        2
102
RTVSPost2010PropOp53
 70
     1
102
RTVSPost2010Prop54
  1
strokes_ogs.tif
102
RTVSPost2010PropOp54
 70
     1
102
RTVSPost2010Prop55
280
     0
102
RTVSPost2010PropOp55
 70
     1
102
RTVSPost2010Prop56
140
1.0
102
RTVSPost2010PropOp56
 70
     1
102
RTVSPost2010Prop57
140
1.0
102
RTVSPost2010PropOp57
 70
     1
102
RTVSPropertyOp0
 70
     1
102
RTVSPropertyOp1
 70
     1
102
RTVSPropertyOp2
 70
     1
102
RTVSPropertyOp3
 70
     1
102
RTVSPropertyOp4
 70
     1
102
RTVSPropertyOp5
 70
     1
102
RTVSPropertyOp6
 70
     1
102
RTVSPropertyOp7
 70
     1
102
RTVSPropertyOp8
 70
     1
102
RTVSPropertyOp9
 70
     1
102
RTVSPropertyOp10
 70
     1
102
RTVSPropertyOp11
 70
     1
102
RTVSPropertyOp12
 70
     1
102
RTVSPropertyOp13
 70
     1
102
RTVSPropertyOp14
 70
     1
102
RTVSPropertyOp15
 70
     1
102
RTVSPropertyOp16
 70
     1
102
RTVSPropertyOp17
 70
     1
102
RTVSPropertyOp18
 70
     1
102
RTVSPropertyOp19
 70
     1
102
RTVSPropertyOp20
 70
     1
102
RTVSPropertyOp21
 70
     1
102
RTVSPropertyOp22
 70
     1
102
RTVSPropertyOp23
 70
     1
102
RTVSPropertyOp24
 70
     1
102
RTVSPropertyOp25
 70
     1
102
RTVSPropertyOp26
 70
     1
102
RTVSPropertyOp27
 70
     1
102
RTVSPropertyOp28
 70
     1
102
RTVSPropertyOp29
 70
     1
102
RTVSPropertyOp30
 70
     1
102
RTVSPropertyOp31
 70
     1
102
RTVSPropertyOp32
 70
     1
102
RTVSPropertyOp33
 70
     1
102
RTVSPropertyOp34
 70
     1
102
RTVSPropertyOp35
 70
     1
102
RTVSPropertyOp36
 70
     1
102
RTVSPropertyOp37
 70
     1
102
RTVSPropertyOp38
 70
     1
102
RTVSPropertyOp39
 70
     1
102
RTVSPropertyOp40
 70
     1
102
RTVSPropertyOp41
 70
     1
102
RTVSPropertyOp42
 70
     1
102
RTVSPropertyOp43
 70
     1
102
RTVSPropertyOp44
 70
     1
102
RTVSPropertyOp45
 70
     1
102
RTVSPropertyOp46
 70
     1
102
RTVSPropertyOp47
 70
     1
102
RTVSPropertyOp48
 70
     1
102
RTVSPropertyOp49
 70
     1
102
RTVSPropertyOp50
 70
     1
102
RTVSPropertyOp51
 70
     0
102
RTVSPropertyOp52
 70
     0
102
RTVSPropertyOp53
 70
     1
102
RTVSPropertyOp54
 70
     1
102
RTVSPropertyOp55
 70
     1
102
RTVSPropertyOp56
 70
     1
102
RTVSPropertyOp57
 70
     1
102
RTVSPropertyOp58
 70
     1
102
RTVSPropertyOp59
 70
     1
102
RTVSPropertyOp60
 70
     1
102
RTVSPropertyOp61
 70
     1
102
RTVSPropertyOp62
 70
     1
  0
XRECORD
  5
B3C54
102
{ACAD_REACTORS
330
B3C53
102
}
330
B3C53
100
AcDbXrecord
280
     1
102
RTVSPost2010Prop28
280
     0
102
RTVSPost2010PropOp28
 70
     1
102
RTVSPost2010Prop29
280
     1
102
RTVSPost2010PropOp29
 70
     1
102
RTVSPost2010Prop30
280
     1
102
RTVSPost2010PropOp30
 70
     1
102
RTVSPost2010Prop31
280
     0
102
RTVSPost2010PropOp31
 70
     1
102
RTVSPost2010Prop32
280
     0
102
RTVSPost2010PropOp32
 70
     1
102
RTVSPost2010Prop33
280
     0
102
RTVSPost2010PropOp33
 70
     1
102
RTVSPost2010Prop34
280
     0
102
RTVSPost2010PropOp34
 70
     1
102
RTVSPost2010Prop35
280
     0
102
RTVSPost2010PropOp35
 70
     1
102
RTVSPost2010Prop36
280
     0
102
RTVSPost2010PropOp36
 70
     1
102
RTVSPost2010Prop37
 90
       50
102
RTVSPost2010PropOp37
 70
     1
102
RTVSPost2010Prop38
140
0.0
102
RTVSPost2010PropOp38
 70
     1
102
RTVSPost2010Prop39
140
1.0
102
RTVSPost2010PropOp39
 70
     1
102
RTVSPost2010Prop40
 90
        0
102
RTVSPost2010PropOp40
 70
     1
102
RTVSPost2010Prop41ColorIndex
 90
       18
102
RTVSPost2010Prop41ColorRGB
 90
        0
102
RTVSPost2010PropOp41
 70
     1
102
RTVSPost2010Prop42
 90
       50
102
RTVSPost2010PropOp42
 70
     1
102
RTVSPost2010Prop43
 90
        3
102
RTVSPost2010PropOp43
 70
     1
102
RTVSPost2010Prop44ColorIndex
 90
        5
102
RTVSPost2010Prop44ColorRGB
 90
      255
102
RTVSPost2010PropOp44
 70
     1
102
RTVSPost2010Prop45
280
     0
102
RTVSPost2010PropOp45
 70
     1
102
RTVSPost2010Prop46
 90
       50
102
RTVSPost2010PropOp46
 70
     1
102
RTVSPost2010Prop47
 90
       50
102
RTVSPost2010PropOp47
 70
     1
102
RTVSPost2010Prop48
 90
       50
102
RTVSPost2010PropOp48
 70
     1
102
RTVSPost2010Prop49
280
     0
102
RTVSPost2010PropOp49
 70
     1
102
RTVSPost2010Prop50
 90
       50
102
RTVSPost2010PropOp50
 70
     1
102
RTVSPost2010Prop51ColorIndex
 90
      256
102
RTVSPost2010Prop51ColorRGB
 90
-16777216
102
RTVSPost2010PropOp51
 70
     0
102
RTVSPost2010Prop52
140
1.0
102
RTVSPost2010PropOp52
 70
     0
102
RTVSPost2010Prop53
 90
        2
102
RTVSPost2010PropOp53
 70
     1
102
RTVSPost2010Prop54
  1
strokes_ogs.tif
102
RTVSPost2010PropOp54
 70
     1
102
RTVSPost2010Prop55
280
     0
102
RTVSPost2010PropOp55
 70
     1
102
RTVSPost2010Prop56
140
1.0
102
RTVSPost2010PropOp56
 70
     1
102
RTVSPost2010Prop57
140
1.0
102
RTVSPost2010PropOp57
 70
     1
102
RTVSPropertyOp0
 70
     1
102
RTVSPropertyOp1
 70
     1
102
RTVSPropertyOp2
 70
     1
102
RTVSPropertyOp3
 70
     1
102
RTVSPropertyOp4
 70
     1
102
RTVSPropertyOp5
 70
     1
102
RTVSPropertyOp6
 70
     1
102
RTVSPropertyOp7
 70
     1
102
RTVSPropertyOp8
 70
     1
102
RTVSPropertyOp9
 70
     1
102
RTVSPropertyOp10
 70
     1
102
RTVSPropertyOp11
 70
     1
102
RTVSPropertyOp12
 70
     1
102
RTVSPropertyOp13
 70
     1
102
RTVSPropertyOp14
 70
     1
102
RTVSPropertyOp15
 70
     1
102
RTVSPropertyOp16
 70
     1
102
RTVSPropertyOp17
 70
     1
102
RTVSPropertyOp18
 70
     1
102
RTVSPropertyOp19
 70
     1
102
RTVSPropertyOp20
 70
     1
102
RTVSPropertyOp21
 70
     1
102
RTVSPropertyOp22
 70
     1
102
RTVSPropertyOp23
 70
     1
102
RTVSPropertyOp24
 70
     1
102
RTVSPropertyOp25
 70
     1
102
RTVSPropertyOp26
 70
     1
102
RTVSPropertyOp27
 70
     1
102
RTVSPropertyOp28
 70
     1
102
RTVSPropertyOp29
 70
     1
102
RTVSPropertyOp30
 70
     1
102
RTVSPropertyOp31
 70
     1
102
RTVSPropertyOp32
 70
     1
102
RTVSPropertyOp33
 70
     1
102
RTVSPropertyOp34
 70
     1
102
RTVSPropertyOp35
 70
     1
102
RTVSPropertyOp36
 70
     1
102
RTVSPropertyOp37
 70
     1
102
RTVSPropertyOp38
 70
     1
102
RTVSPropertyOp39
 70
     1
102
RTVSPropertyOp40
 70
     1
102
RTVSPropertyOp41
 70
     1
102
RTVSPropertyOp42
 70
     1
102
RTVSPropertyOp43
 70
     1
102
RTVSPropertyOp44
 70
     1
102
RTVSPropertyOp45
 70
     1
102
RTVSPropertyOp46
 70
     1
102
RTVSPropertyOp47
 70
     1
102
RTVSPropertyOp48
 70
     1
102
RTVSPropertyOp49
 70
     1
102
RTVSPropertyOp50
 70
     1
102
RTVSPropertyOp51
 70
     0
102
RTVSPropertyOp52
 70
     0
102
RTVSPropertyOp53
 70
     1
102
RTVSPropertyOp54
 70
     1
102
RTVSPropertyOp55
 70
     1
102
RTVSPropertyOp56
 70
     1
102
RTVSPropertyOp57
 70
     1
102
RTVSPropertyOp58
 70
     1
102
RTVSPropertyOp59
 70
     1
102
RTVSPropertyOp60
 70
     1
102
RTVSPropertyOp61
 70
     1
102
RTVSPropertyOp62
 70
     1
  0
XRECORD
  5
B3C5A
102
{ACAD_REACTORS
330
B3C59
102
}
330
B3C59
100
AcDbXrecord
280
     1
102
RTVSPost2010Prop28
280
     0
102
RTVSPost2010PropOp28
 70
     1
102
RTVSPost2010Prop29
280
     1
102
RTVSPost2010PropOp29
 70
     1
102
RTVSPost2010Prop30
280
     1
102
RTVSPost2010PropOp30
 70
     1
102
RTVSPost2010Prop31
280
     0
102
RTVSPost2010PropOp31
 70
     1
102
RTVSPost2010Prop32
280
     0
102
RTVSPost2010PropOp32
 70
     1
102
RTVSPost2010Prop33
280
     0
102
RTVSPost2010PropOp33
 70
     1
102
RTVSPost2010Prop34
280
     0
102
RTVSPost2010PropOp34
 70
     1
102
RTVSPost2010Prop35
280
     0
102
RTVSPost2010PropOp35
 70
     1
102
RTVSPost2010Prop36
280
     0
102
RTVSPost2010PropOp36
 70
     1
102
RTVSPost2010Prop37
 90
       50
102
RTVSPost2010PropOp37
 70
     1
102
RTVSPost2010Prop38
140
0.0
102
RTVSPost2010PropOp38
 70
     1
102
RTVSPost2010Prop39
140
1.0
102
RTVSPost2010PropOp39
 70
     1
102
RTVSPost2010Prop40
 90
        0
102
RTVSPost2010PropOp40
 70
     1
102
RTVSPost2010Prop41ColorIndex
 90
       18
102
RTVSPost2010Prop41ColorRGB
 90
        0
102
RTVSPost2010PropOp41
 70
     1
102
RTVSPost2010Prop42
 90
       50
102
RTVSPost2010PropOp42
 70
     1
102
RTVSPost2010Prop43
 90
        3
102
RTVSPost2010PropOp43
 70
     1
102
RTVSPost2010Prop44ColorIndex
 90
        5
102
RTVSPost2010Prop44ColorRGB
 90
      255
102
RTVSPost2010PropOp44
 70
     1
102
RTVSPost2010Prop45
280
     0
102
RTVSPost2010PropOp45
 70
     1
102
RTVSPost2010Prop46
 90
       50
102
RTVSPost2010PropOp46
 70
     1
102
RTVSPost2010Prop47
 90
       50
102
RTVSPost2010PropOp47
 70
     1
102
RTVSPost2010Prop48
 90
       50
102
RTVSPost2010PropOp48
 70
     1
102
RTVSPost2010Prop49
280
     0
102
RTVSPost2010PropOp49
 70
     1
102
RTVSPost2010Prop50
 90
       50
102
RTVSPost2010PropOp50
 70
     1
102
RTVSPost2010Prop51ColorIndex
 90
      256
102
RTVSPost2010Prop51ColorRGB
 90
-16777216
102
RTVSPost2010PropOp51
 70
     0
102
RTVSPost2010Prop52
140
1.0
102
RTVSPost2010PropOp52
 70
     0
102
RTVSPost2010Prop53
 90
        2
102
RTVSPost2010PropOp53
 70
     1
102
RTVSPost2010Prop54
  1
strokes_ogs.tif
102
RTVSPost2010PropOp54
 70
     1
102
RTVSPost2010Prop55
280
     0
102
RTVSPost2010PropOp55
 70
     1
102
RTVSPost2010Prop56
140
1.0
102
RTVSPost2010PropOp56
 70
     1
102
RTVSPost2010Prop57
140
1.0
102
RTVSPost2010PropOp57
 70
     1
102
RTVSPropertyOp0
 70
     1
102
RTVSPropertyOp1
 70
     1
102
RTVSPropertyOp2
 70
     1
102
RTVSPropertyOp3
 70
     1
102
RTVSPropertyOp4
 70
     1
102
RTVSPropertyOp5
 70
     1
102
RTVSPropertyOp6
 70
     1
102
RTVSPropertyOp7
 70
     1
102
RTVSPropertyOp8
 70
     1
102
RTVSPropertyOp9
 70
     1
102
RTVSPropertyOp10
 70
     1
102
RTVSPropertyOp11
 70
     1
102
RTVSPropertyOp12
 70
     1
102
RTVSPropertyOp13
 70
     1
102
RTVSPropertyOp14
 70
     1
102
RTVSPropertyOp15
 70
     1
102
RTVSPropertyOp16
 70
     1
102
RTVSPropertyOp17
 70
     1
102
RTVSPropertyOp18
 70
     1
102
RTVSPropertyOp19
 70
     1
102
RTVSPropertyOp20
 70
     1
102
RTVSPropertyOp21
 70
     1
102
RTVSPropertyOp22
 70
     1
102
RTVSPropertyOp23
 70
     1
102
RTVSPropertyOp24
 70
     1
102
RTVSPropertyOp25
 70
     1
102
RTVSPropertyOp26
 70
     1
102
RTVSPropertyOp27
 70
     1
102
RTVSPropertyOp28
 70
     1
102
RTVSPropertyOp29
 70
     1
102
RTVSPropertyOp30
 70
     1
102
RTVSPropertyOp31
 70
     1
102
RTVSPropertyOp32
 70
     1
102
RTVSPropertyOp33
 70
     1
102
RTVSPropertyOp34
 70
     1
102
RTVSPropertyOp35
 70
     1
102
RTVSPropertyOp36
 70
     1
102
RTVSPropertyOp37
 70
     1
102
RTVSPropertyOp38
 70
     1
102
RTVSPropertyOp39
 70
     1
102
RTVSPropertyOp40
 70
     1
102
RTVSPropertyOp41
 70
     1
102
RTVSPropertyOp42
 70
     1
102
RTVSPropertyOp43
 70
     1
102
RTVSPropertyOp44
 70
     1
102
RTVSPropertyOp45
 70
     1
102
RTVSPropertyOp46
 70
     1
102
RTVSPropertyOp47
 70
     1
102
RTVSPropertyOp48
 70
     1
102
RTVSPropertyOp49
 70
     1
102
RTVSPropertyOp50
 70
     1
102
RTVSPropertyOp51
 70
     0
102
RTVSPropertyOp52
 70
     0
102
RTVSPropertyOp53
 70
     1
102
RTVSPropertyOp54
 70
     1
102
RTVSPropertyOp55
 70
     1
102
RTVSPropertyOp56
 70
     1
102
RTVSPropertyOp57
 70
     1
102
RTVSPropertyOp58
 70
     1
102
RTVSPropertyOp59
 70
     1
102
RTVSPropertyOp60
 70
     1
102
RTVSPropertyOp61
 70
     1
102
RTVSPropertyOp62
 70
     1
  0
XRECORD
  5
B3C6E
102
{ACAD_REACTORS
330
B3C6D
102
}
330
B3C6D
100
AcDbXrecord
280
     1
102
RTVSPost2010Prop28
280
     0
102
RTVSPost2010PropOp28
 70
     0
102
RTVSPost2010Prop29
280
     1
102
RTVSPost2010PropOp29
 70
     0
102
RTVSPost2010Prop30
280
     1
102
RTVSPost2010PropOp30
 70
     0
102
RTVSPost2010Prop31
280
     0
102
RTVSPost2010PropOp31
 70
     0
102
RTVSPost2010Prop32
280
     0
102
RTVSPost2010PropOp32
 70
     0
102
RTVSPost2010Prop33
280
     0
102
RTVSPost2010PropOp33
 70
     0
102
RTVSPost2010Prop34
280
     0
102
RTVSPost2010PropOp34
 70
     0
102
RTVSPost2010Prop35
280
     0
102
RTVSPost2010PropOp35
 70
     0
102
RTVSPost2010Prop36
280
     0
102
RTVSPost2010PropOp36
 70
     0
102
RTVSPost2010Prop37
 90
       50
102
RTVSPost2010PropOp37
 70
     0
102
RTVSPost2010Prop38
140
0.0
102
RTVSPost2010PropOp38
 70
     0
102
RTVSPost2010Prop39
140
1.0
102
RTVSPost2010PropOp39
 70
     0
102
RTVSPost2010Prop40
 90
        0
102
RTVSPost2010PropOp40
 70
     0
102
RTVSPost2010Prop41ColorIndex
 90
       18
102
RTVSPost2010Prop41ColorRGB
 90
        0
102
RTVSPost2010PropOp41
 70
     0
102
RTVSPost2010Prop42
 90
       50
102
RTVSPost2010PropOp42
 70
     0
102
RTVSPost2010Prop43
 90
        3
102
RTVSPost2010PropOp43
 70
     0
102
RTVSPost2010Prop44ColorIndex
 90
        5
102
RTVSPost2010Prop44ColorRGB
 90
      255
102
RTVSPost2010PropOp44
 70
     0
102
RTVSPost2010Prop45
280
     0
102
RTVSPost2010PropOp45
 70
     0
102
RTVSPost2010Prop46
 90
       50
102
RTVSPost2010PropOp46
 70
     0
102
RTVSPost2010Prop47
 90
       50
102
RTVSPost2010PropOp47
 70
     0
102
RTVSPost2010Prop48
 90
       50
102
RTVSPost2010PropOp48
 70
     0
102
RTVSPost2010Prop49
280
     0
102
RTVSPost2010PropOp49
 70
     0
102
RTVSPost2010Prop50
 90
       50
102
RTVSPost2010PropOp50
 70
     0
102
RTVSPost2010Prop51ColorIndex
 90
      256
102
RTVSPost2010Prop51ColorRGB
 90
-16777216
102
RTVSPost2010PropOp51
 70
     0
102
RTVSPost2010Prop52
140
1.0
102
RTVSPost2010PropOp52
 70
     0
102
RTVSPost2010Prop53
 90
        2
102
RTVSPost2010PropOp53
 70
     0
102
RTVSPost2010Prop54
  1
strokes_ogs.tif
102
RTVSPost2010PropOp54
 70
     0
102
RTVSPost2010Prop55
280
     0
102
RTVSPost2010PropOp55
 70
     0
102
RTVSPost2010Prop56
140
1.0
102
RTVSPost2010PropOp56
 70
     0
102
RTVSPost2010Prop57
140
1.0
102
RTVSPost2010PropOp57
 70
     0
102
RTVSPropertyOp0
 70
     0
102
RTVSPropertyOp1
 70
     0
102
RTVSPropertyOp2
 70
     0
102
RTVSPropertyOp3
 70
     0
102
RTVSPropertyOp4
 70
     0
102
RTVSPropertyOp5
 70
     0
102
RTVSPropertyOp6
 70
     0
102
RTVSPropertyOp7
 70
     0
102
RTVSPropertyOp8
 70
     0
102
RTVSPropertyOp9
 70
     0
102
RTVSPropertyOp10
 70
     0
102
RTVSPropertyOp11
 70
     0
102
RTVSPropertyOp12
 70
     0
102
RTVSPropertyOp13
 70
     0
102
RTVSPropertyOp14
 70
     2
102
RTVSPropertyOp15
 70
     0
102
RTVSPropertyOp16
 70
     0
102
RTVSPropertyOp17
 70
     0
102
RTVSPropertyOp18
 70
     0
102
RTVSPropertyOp19
 70
     0
102
RTVSPropertyOp20
 70
     0
102
RTVSPropertyOp21
 70
     0
102
RTVSPropertyOp22
 70
     0
102
RTVSPropertyOp23
 70
     0
102
RTVSPropertyOp24
 70
     0
102
RTVSPropertyOp25
 70
     0
102
RTVSPropertyOp26
 70
     0
102
RTVSPropertyOp27
 70
     0
102
RTVSPropertyOp28
 70
     0
102
RTVSPropertyOp29
 70
     0
102
RTVSPropertyOp30
 70
     0
102
RTVSPropertyOp31
 70
     0
102
RTVSPropertyOp32
 70
     0
102
RTVSPropertyOp33
 70
     0
102
RTVSPropertyOp34
 70
     0
102
RTVSPropertyOp35
 70
     0
102
RTVSPropertyOp36
 70
     0
102
RTVSPropertyOp37
 70
     0
102
RTVSPropertyOp38
 70
     0
102
RTVSPropertyOp39
 70
     0
102
RTVSPropertyOp40
 70
     0
102
RTVSPropertyOp41
 70
     0
102
RTVSPropertyOp42
 70
     0
102
RTVSPropertyOp43
 70
     0
102
RTVSPropertyOp44
 70
     0
102
RTVSPropertyOp45
 70
     0
102
RTVSPropertyOp46
 70
     0
102
RTVSPropertyOp47
 70
     0
102
RTVSPropertyOp48
 70
     0
102
RTVSPropertyOp49
 70
     0
102
RTVSPropertyOp50
 70
     0
102
RTVSPropertyOp51
 70
     0
102
RTVSPropertyOp52
 70
     0
102
RTVSPropertyOp53
 70
     0
102
RTVSPropertyOp54
 70
     0
102
RTVSPropertyOp55
 70
     0
102
RTVSPropertyOp56
 70
     0
102
RTVSPropertyOp57
 70
     0
102
RTVSPropertyOp58
 70
     1
102
RTVSPropertyOp59
 70
     1
102
RTVSPropertyOp60
 70
     1
102
RTVSPropertyOp61
 70
     1
102
RTVSPropertyOp62
 70
     1
  0
XRECORD
  5
B3C68
102
{ACAD_REACTORS
330
B3C67
102
}
330
B3C67
100
AcDbXrecord
280
     1
102
RTVSPost2010Prop28
280
     0
102
RTVSPost2010PropOp28
 70
     1
102
RTVSPost2010Prop29
280
     1
102
RTVSPost2010PropOp29
 70
     1
102
RTVSPost2010Prop30
280
     1
102
RTVSPost2010PropOp30
 70
     1
102
RTVSPost2010Prop31
280
     0
102
RTVSPost2010PropOp31
 70
     1
102
RTVSPost2010Prop32
280
     0
102
RTVSPost2010PropOp32
 70
     1
102
RTVSPost2010Prop33
280
     0
102
RTVSPost2010PropOp33
 70
     1
102
RTVSPost2010Prop34
280
     0
102
RTVSPost2010PropOp34
 70
     1
102
RTVSPost2010Prop35
280
     0
102
RTVSPost2010PropOp35
 70
     1
102
RTVSPost2010Prop36
280
     0
102
RTVSPost2010PropOp36
 70
     1
102
RTVSPost2010Prop37
 90
       50
102
RTVSPost2010PropOp37
 70
     1
102
RTVSPost2010Prop38
140
0.0
102
RTVSPost2010PropOp38
 70
     1
102
RTVSPost2010Prop39
140
1.0
102
RTVSPost2010PropOp39
 70
     1
102
RTVSPost2010Prop40
 90
        0
102
RTVSPost2010PropOp40
 70
     1
102
RTVSPost2010Prop41ColorIndex
 90
       18
102
RTVSPost2010Prop41ColorRGB
 90
        0
102
RTVSPost2010PropOp41
 70
     1
102
RTVSPost2010Prop42
 90
       50
102
RTVSPost2010PropOp42
 70
     1
102
RTVSPost2010Prop43
 90
        3
102
RTVSPost2010PropOp43
 70
     1
102
RTVSPost2010Prop44ColorIndex
 90
        5
102
RTVSPost2010Prop44ColorRGB
 90
      255
102
RTVSPost2010PropOp44
 70
     1
102
RTVSPost2010Prop45
280
     0
102
RTVSPost2010PropOp45
 70
     1
102
RTVSPost2010Prop46
 90
       50
102
RTVSPost2010PropOp46
 70
     1
102
RTVSPost2010Prop47
 90
       50
102
RTVSPost2010PropOp47
 70
     1
102
RTVSPost2010Prop48
 90
       50
102
RTVSPost2010PropOp48
 70
     1
102
RTVSPost2010Prop49
280
     0
102
RTVSPost2010PropOp49
 70
     1
102
RTVSPost2010Prop50
 90
       50
102
RTVSPost2010PropOp50
 70
     1
102
RTVSPost2010Prop51ColorIndex
 90
      256
102
RTVSPost2010Prop51ColorRGB
 90
-16777216
102
RTVSPost2010PropOp51
 70
     0
102
RTVSPost2010Prop52
140
1.0
102
RTVSPost2010PropOp52
 70
     0
102
RTVSPost2010Prop53
 90
        2
102
RTVSPost2010PropOp53
 70
     1
102
RTVSPost2010Prop54
  1
strokes_ogs.tif
102
RTVSPost2010PropOp54
 70
     1
102
RTVSPost2010Prop55
280
     0
102
RTVSPost2010PropOp55
 70
     1
102
RTVSPost2010Prop56
140
1.0
102
RTVSPost2010PropOp56
 70
     1
102
RTVSPost2010Prop57
140
1.0
102
RTVSPost2010PropOp57
 70
     1
102
RTVSPropertyOp0
 70
     1
102
RTVSPropertyOp1
 70
     1
102
RTVSPropertyOp2
 70
     1
102
RTVSPropertyOp3
 70
     1
102
RTVSPropertyOp4
 70
     1
102
RTVSPropertyOp5
 70
     1
102
RTVSPropertyOp6
 70
     1
102
RTVSPropertyOp7
 70
     1
102
RTVSPropertyOp8
 70
     1
102
RTVSPropertyOp9
 70
     1
102
RTVSPropertyOp10
 70
     1
102
RTVSPropertyOp11
 70
     1
102
RTVSPropertyOp12
 70
     1
102
RTVSPropertyOp13
 70
     1
102
RTVSPropertyOp14
 70
     1
102
RTVSPropertyOp15
 70
     1
102
RTVSPropertyOp16
 70
     1
102
RTVSPropertyOp17
 70
     1
102
RTVSPropertyOp18
 70
     1
102
RTVSPropertyOp19
 70
     1
102
RTVSPropertyOp20
 70
     1
102
RTVSPropertyOp21
 70
     1
102
RTVSPropertyOp22
 70
     1
102
RTVSPropertyOp23
 70
     1
102
RTVSPropertyOp24
 70
     1
102
RTVSPropertyOp25
 70
     1
102
RTVSPropertyOp26
 70
     1
102
RTVSPropertyOp27
 70
     1
102
RTVSPropertyOp28
 70
     1
102
RTVSPropertyOp29
 70
     1
102
RTVSPropertyOp30
 70
     1
102
RTVSPropertyOp31
 70
     1
102
RTVSPropertyOp32
 70
     1
102
RTVSPropertyOp33
 70
     1
102
RTVSPropertyOp34
 70
     1
102
RTVSPropertyOp35
 70
     1
102
RTVSPropertyOp36
 70
     1
102
RTVSPropertyOp37
 70
     1
102
RTVSPropertyOp38
 70
     1
102
RTVSPropertyOp39
 70
     1
102
RTVSPropertyOp40
 70
     1
102
RTVSPropertyOp41
 70
     1
102
RTVSPropertyOp42
 70
     1
102
RTVSPropertyOp43
 70
     1
102
RTVSPropertyOp44
 70
     1
102
RTVSPropertyOp45
 70
     1
102
RTVSPropertyOp46
 70
     1
102
RTVSPropertyOp47
 70
     1
102
RTVSPropertyOp48
 70
     1
102
RTVSPropertyOp49
 70
     1
102
RTVSPropertyOp50
 70
     1
102
RTVSPropertyOp51
 70
     0
102
RTVSPropertyOp52
 70
     0
102
RTVSPropertyOp53
 70
     1
102
RTVSPropertyOp54
 70
     1
102
RTVSPropertyOp55
 70
     1
102
RTVSPropertyOp56
 70
     1
102
RTVSPropertyOp57
 70
     1
102
RTVSPropertyOp58
 70
     1
102
RTVSPropertyOp59
 70
     1
102
RTVSPropertyOp60
 70
     1
102
RTVSPropertyOp61
 70
     1
102
RTVSPropertyOp62
 70
     1
  0
XRECORD
  5
B3C70
102
{ACAD_REACTORS
330
B3C6F
102
}
330
B3C6F
100
AcDbXrecord
280
     1
102
RTVSPost2010Prop28
280
     0
102
RTVSPost2010PropOp28
 70
     0
102
RTVSPost2010Prop29
280
     1
102
RTVSPost2010PropOp29
 70
     0
102
RTVSPost2010Prop30
280
     1
102
RTVSPost2010PropOp30
 70
     0
102
RTVSPost2010Prop31
280
     0
102
RTVSPost2010PropOp31
 70
     0
102
RTVSPost2010Prop32
280
     0
102
RTVSPost2010PropOp32
 70
     0
102
RTVSPost2010Prop33
280
     0
102
RTVSPost2010PropOp33
 70
     0
102
RTVSPost2010Prop34
280
     0
102
RTVSPost2010PropOp34
 70
     0
102
RTVSPost2010Prop35
280
     0
102
RTVSPost2010PropOp35
 70
     0
102
RTVSPost2010Prop36
280
     0
102
RTVSPost2010PropOp36
 70
     0
102
RTVSPost2010Prop37
 90
       50
102
RTVSPost2010PropOp37
 70
     0
102
RTVSPost2010Prop38
140
0.0
102
RTVSPost2010PropOp38
 70
     0
102
RTVSPost2010Prop39
140
1.0
102
RTVSPost2010PropOp39
 70
     0
102
RTVSPost2010Prop40
 90
        0
102
RTVSPost2010PropOp40
 70
     0
102
RTVSPost2010Prop41ColorIndex
 90
       18
102
RTVSPost2010Prop41ColorRGB
 90
        0
102
RTVSPost2010PropOp41
 70
     0
102
RTVSPost2010Prop42
 90
       50
102
RTVSPost2010PropOp42
 70
     0
102
RTVSPost2010Prop43
 90
        3
102
RTVSPost2010PropOp43
 70
     0
102
RTVSPost2010Prop44ColorIndex
 90
        5
102
RTVSPost2010Prop44ColorRGB
 90
      255
102
RTVSPost2010PropOp44
 70
     0
102
RTVSPost2010Prop45
280
     0
102
RTVSPost2010PropOp45
 70
     0
102
RTVSPost2010Prop46
 90
       50
102
RTVSPost2010PropOp46
 70
     0
102
RTVSPost2010Prop47
 90
       50
102
RTVSPost2010PropOp47
 70
     0
102
RTVSPost2010Prop48
 90
       50
102
RTVSPost2010PropOp48
 70
     0
102
RTVSPost2010Prop49
280
     0
102
RTVSPost2010PropOp49
 70
     0
102
RTVSPost2010Prop50
 90
       50
102
RTVSPost2010PropOp50
 70
     0
102
RTVSPost2010Prop51ColorIndex
 90
      256
102
RTVSPost2010Prop51ColorRGB
 90
-16777216
102
RTVSPost2010PropOp51
 70
     0
102
RTVSPost2010Prop52
140
1.0
102
RTVSPost2010PropOp52
 70
     0
102
RTVSPost2010Prop53
 90
        2
102
RTVSPost2010PropOp53
 70
     0
102
RTVSPost2010Prop54
  1
strokes_ogs.tif
102
RTVSPost2010PropOp54
 70
     0
102
RTVSPost2010Prop55
280
     0
102
RTVSPost2010PropOp55
 70
     0
102
RTVSPost2010Prop56
140
1.0
102
RTVSPost2010PropOp56
 70
     0
102
RTVSPost2010Prop57
140
1.0
102
RTVSPost2010PropOp57
 70
     0
102
RTVSPropertyOp0
 70
     0
102
RTVSPropertyOp1
 70
     0
102
RTVSPropertyOp2
 70
     0
102
RTVSPropertyOp3
 70
     0
102
RTVSPropertyOp4
 70
     0
102
RTVSPropertyOp5
 70
     0
102
RTVSPropertyOp6
 70
     0
102
RTVSPropertyOp7
 70
     0
102
RTVSPropertyOp8
 70
     0
102
RTVSPropertyOp9
 70
     0
102
RTVSPropertyOp10
 70
     0
102
RTVSPropertyOp11
 70
     0
102
RTVSPropertyOp12
 70
     0
102
RTVSPropertyOp13
 70
     0
102
RTVSPropertyOp14
 70
     2
102
RTVSPropertyOp15
 70
     0
102
RTVSPropertyOp16
 70
     0
102
RTVSPropertyOp17
 70
     0
102
RTVSPropertyOp18
 70
     0
102
RTVSPropertyOp19
 70
     0
102
RTVSPropertyOp20
 70
     0
102
RTVSPropertyOp21
 70
     0
102
RTVSPropertyOp22
 70
     0
102
RTVSPropertyOp23
 70
     0
102
RTVSPropertyOp24
 70
     0
102
RTVSPropertyOp25
 70
     0
102
RTVSPropertyOp26
 70
     0
102
RTVSPropertyOp27
 70
     0
102
RTVSPropertyOp28
 70
     0
102
RTVSPropertyOp29
 70
     0
102
RTVSPropertyOp30
 70
     0
102
RTVSPropertyOp31
 70
     0
102
RTVSPropertyOp32
 70
     0
102
RTVSPropertyOp33
 70
     0
102
RTVSPropertyOp34
 70
     0
102
RTVSPropertyOp35
 70
     0
102
RTVSPropertyOp36
 70
     0
102
RTVSPropertyOp37
 70
     0
102
RTVSPropertyOp38
 70
     0
102
RTVSPropertyOp39
 70
     0
102
RTVSPropertyOp40
 70
     0
102
RTVSPropertyOp41
 70
     0
102
RTVSPropertyOp42
 70
     0
102
RTVSPropertyOp43
 70
     0
102
RTVSPropertyOp44
 70
     0
102
RTVSPropertyOp45
 70
     0
102
RTVSPropertyOp46
 70
     0
102
RTVSPropertyOp47
 70
     0
102
RTVSPropertyOp48
 70
     0
102
RTVSPropertyOp49
 70
     0
102
RTVSPropertyOp50
 70
     0
102
RTVSPropertyOp51
 70
     0
102
RTVSPropertyOp52
 70
     0
102
RTVSPropertyOp53
 70
     0
102
RTVSPropertyOp54
 70
     0
102
RTVSPropertyOp55
 70
     0
102
RTVSPropertyOp56
 70
     0
102
RTVSPropertyOp57
 70
     0
102
RTVSPropertyOp58
 70
     1
102
RTVSPropertyOp59
 70
     1
102
RTVSPropertyOp60
 70
     1
102
RTVSPropertyOp61
 70
     1
102
RTVSPropertyOp62
 70
     1
  0
XRECORD
  5
B3C5E
102
{ACAD_REACTORS
330
B3C5D
102
}
330
B3C5D
100
AcDbXrecord
280
     1
102
RTVSPost2010Prop28
280
     0
102
RTVSPost2010PropOp28
 70
     1
102
RTVSPost2010Prop29
280
     1
102
RTVSPost2010PropOp29
 70
     1
102
RTVSPost2010Prop30
280
     1
102
RTVSPost2010PropOp30
 70
     1
102
RTVSPost2010Prop31
280
     0
102
RTVSPost2010PropOp31
 70
     1
102
RTVSPost2010Prop32
280
     0
102
RTVSPost2010PropOp32
 70
     1
102
RTVSPost2010Prop33
280
     0
102
RTVSPost2010PropOp33
 70
     1
102
RTVSPost2010Prop34
280
     0
102
RTVSPost2010PropOp34
 70
     1
102
RTVSPost2010Prop35
280
     0
102
RTVSPost2010PropOp35
 70
     1
102
RTVSPost2010Prop36
280
     0
102
RTVSPost2010PropOp36
 70
     1
102
RTVSPost2010Prop37
 90
       50
102
RTVSPost2010PropOp37
 70
     1
102
RTVSPost2010Prop38
140
0.0
102
RTVSPost2010PropOp38
 70
     1
102
RTVSPost2010Prop39
140
1.0
102
RTVSPost2010PropOp39
 70
     1
102
RTVSPost2010Prop40
 90
        0
102
RTVSPost2010PropOp40
 70
     1
102
RTVSPost2010Prop41ColorIndex
 90
       18
102
RTVSPost2010Prop41ColorRGB
 90
        0
102
RTVSPost2010PropOp41
 70
     1
102
RTVSPost2010Prop42
 90
       50
102
RTVSPost2010PropOp42
 70
     1
102
RTVSPost2010Prop43
 90
        3
102
RTVSPost2010PropOp43
 70
     1
102
RTVSPost2010Prop44ColorIndex
 90
        5
102
RTVSPost2010Prop44ColorRGB
 90
      255
102
RTVSPost2010PropOp44
 70
     1
102
RTVSPost2010Prop45
280
     0
102
RTVSPost2010PropOp45
 70
     1
102
RTVSPost2010Prop46
 90
       50
102
RTVSPost2010PropOp46
 70
     1
102
RTVSPost2010Prop47
 90
       50
102
RTVSPost2010PropOp47
 70
     1
102
RTVSPost2010Prop48
 90
       50
102
RTVSPost2010PropOp48
 70
     1
102
RTVSPost2010Prop49
280
     0
102
RTVSPost2010PropOp49
 70
     1
102
RTVSPost2010Prop50
 90
       50
102
RTVSPost2010PropOp50
 70
     1
102
RTVSPost2010Prop51ColorIndex
 90
      256
102
RTVSPost2010Prop51ColorRGB
 90
-16777216
102
RTVSPost2010PropOp51
 70
     0
102
RTVSPost2010Prop52
140
1.0
102
RTVSPost2010PropOp52
 70
     0
102
RTVSPost2010Prop53
 90
        2
102
RTVSPost2010PropOp53
 70
     1
102
RTVSPost2010Prop54
  1
strokes_ogs.tif
102
RTVSPost2010PropOp54
 70
     1
102
RTVSPost2010Prop55
280
     0
102
RTVSPost2010PropOp55
 70
     1
102
RTVSPost2010Prop56
140
1.0
102
RTVSPost2010PropOp56
 70
     1
102
RTVSPost2010Prop57
140
1.0
102
RTVSPost2010PropOp57
 70
     1
102
RTVSPropertyOp0
 70
     1
102
RTVSPropertyOp1
 70
     1
102
RTVSPropertyOp2
 70
     1
102
RTVSPropertyOp3
 70
     1
102
RTVSPropertyOp4
 70
     1
102
RTVSPropertyOp5
 70
     1
102
RTVSPropertyOp6
 70
     1
102
RTVSPropertyOp7
 70
     1
102
RTVSPropertyOp8
 70
     1
102
RTVSPropertyOp9
 70
     1
102
RTVSPropertyOp10
 70
     1
102
RTVSPropertyOp11
 70
     1
102
RTVSPropertyOp12
 70
     1
102
RTVSPropertyOp13
 70
     1
102
RTVSPropertyOp14
 70
     1
102
RTVSPropertyOp15
 70
     1
102
RTVSPropertyOp16
 70
     1
102
RTVSPropertyOp17
 70
     1
102
RTVSPropertyOp18
 70
     1
102
RTVSPropertyOp19
 70
     1
102
RTVSPropertyOp20
 70
     1
102
RTVSPropertyOp21
 70
     1
102
RTVSPropertyOp22
 70
     1
102
RTVSPropertyOp23
 70
     1
102
RTVSPropertyOp24
 70
     1
102
RTVSPropertyOp25
 70
     1
102
RTVSPropertyOp26
 70
     1
102
RTVSPropertyOp27
 70
     1
102
RTVSPropertyOp28
 70
     1
102
RTVSPropertyOp29
 70
     1
102
RTVSPropertyOp30
 70
     1
102
RTVSPropertyOp31
 70
     1
102
RTVSPropertyOp32
 70
     1
102
RTVSPropertyOp33
 70
     1
102
RTVSPropertyOp34
 70
     1
102
RTVSPropertyOp35
 70
     1
102
RTVSPropertyOp36
 70
     1
102
RTVSPropertyOp37
 70
     1
102
RTVSPropertyOp38
 70
     1
102
RTVSPropertyOp39
 70
     1
102
RTVSPropertyOp40
 70
     1
102
RTVSPropertyOp41
 70
     1
102
RTVSPropertyOp42
 70
     1
102
RTVSPropertyOp43
 70
     1
102
RTVSPropertyOp44
 70
     1
102
RTVSPropertyOp45
 70
     1
102
RTVSPropertyOp46
 70
     1
102
RTVSPropertyOp47
 70
     1
102
RTVSPropertyOp48
 70
     1
102
RTVSPropertyOp49
 70
     1
102
RTVSPropertyOp50
 70
     1
102
RTVSPropertyOp51
 70
     0
102
RTVSPropertyOp52
 70
     0
102
RTVSPropertyOp53
 70
     1
102
RTVSPropertyOp54
 70
     1
102
RTVSPropertyOp55
 70
     1
102
RTVSPropertyOp56
 70
     1
102
RTVSPropertyOp57
 70
     1
102
RTVSPropertyOp58
 70
     1
102
RTVSPropertyOp59
 70
     1
102
RTVSPropertyOp60
 70
     1
102
RTVSPropertyOp61
 70
     1
102
RTVSPropertyOp62
 70
     1
  0
XRECORD
  5
B3C7C
102
{ACAD_REACTORS
330
B3C7B
102
}
330
B3C7B
100
AcDbXrecord
280
     1
102
RTVSPost2010Prop28
280
     0
102
RTVSPost2010PropOp28
 70
     1
102
RTVSPost2010Prop29
280
     1
102
RTVSPost2010PropOp29
 70
     1
102
RTVSPost2010Prop30
280
     1
102
RTVSPost2010PropOp30
 70
     1
102
RTVSPost2010Prop31
280
     0
102
RTVSPost2010PropOp31
 70
     1
102
RTVSPost2010Prop32
280
     0
102
RTVSPost2010PropOp32
 70
     1
102
RTVSPost2010Prop33
280
     0
102
RTVSPost2010PropOp33
 70
     1
102
RTVSPost2010Prop34
280
     0
102
RTVSPost2010PropOp34
 70
     1
102
RTVSPost2010Prop35
280
     0
102
RTVSPost2010PropOp35
 70
     1
102
RTVSPost2010Prop36
280
     0
102
RTVSPost2010PropOp36
 70
     1
102
RTVSPost2010Prop37
 90
       50
102
RTVSPost2010PropOp37
 70
     1
102
RTVSPost2010Prop38
140
0.0
102
RTVSPost2010PropOp38
 70
     1
102
RTVSPost2010Prop39
140
1.0
102
RTVSPost2010PropOp39
 70
     1
102
RTVSPost2010Prop40
 90
        0
102
RTVSPost2010PropOp40
 70
     1
102
RTVSPost2010Prop41ColorIndex
 90
       18
102
RTVSPost2010Prop41ColorRGB
 90
        0
102
RTVSPost2010PropOp41
 70
     1
102
RTVSPost2010Prop42
 90
       50
102
RTVSPost2010PropOp42
 70
     1
102
RTVSPost2010Prop43
 90
        3
102
RTVSPost2010PropOp43
 70
     1
102
RTVSPost2010Prop44ColorIndex
 90
        5
102
RTVSPost2010Prop44ColorRGB
 90
      255
102
RTVSPost2010PropOp44
 70
     1
102
RTVSPost2010Prop45
280
     0
102
RTVSPost2010PropOp45
 70
     1
102
RTVSPost2010Prop46
 90
       50
102
RTVSPost2010PropOp46
 70
     1
102
RTVSPost2010Prop47
 90
       50
102
RTVSPost2010PropOp47
 70
     1
102
RTVSPost2010Prop48
 90
       50
102
RTVSPost2010PropOp48
 70
     1
102
RTVSPost2010Prop49
280
     0
102
RTVSPost2010PropOp49
 70
     1
102
RTVSPost2010Prop50
 90
       50
102
RTVSPost2010PropOp50
 70
     1
102
RTVSPost2010Prop51ColorIndex
 90
      256
102
RTVSPost2010Prop51ColorRGB
 90
-16777216
102
RTVSPost2010PropOp51
 70
     0
102
RTVSPost2010Prop52
140
1.0
102
RTVSPost2010PropOp52
 70
     0
102
RTVSPost2010Prop53
 90
        2
102
RTVSPost2010PropOp53
 70
     1
102
RTVSPost2010Prop54
  1
strokes_ogs.tif
102
RTVSPost2010PropOp54
 70
     1
102
RTVSPost2010Prop55
280
     0
102
RTVSPost2010PropOp55
 70
     1
102
RTVSPost2010Prop56
140
1.0
102
RTVSPost2010PropOp56
 70
     1
102
RTVSPost2010Prop57
140
1.0
102
RTVSPost2010PropOp57
 70
     1
102
RTVSPropertyOp0
 70
     1
102
RTVSPropertyOp1
 70
     1
102
RTVSPropertyOp2
 70
     1
102
RTVSPropertyOp3
 70
     1
102
RTVSPropertyOp4
 70
     1
102
RTVSPropertyOp5
 70
     1
102
RTVSPropertyOp6
 70
     1
102
RTVSPropertyOp7
 70
     1
102
RTVSPropertyOp8
 70
     1
102
RTVSPropertyOp9
 70
     1
102
RTVSPropertyOp10
 70
     1
102
RTVSPropertyOp11
 70
     1
102
RTVSPropertyOp12
 70
     1
102
RTVSPropertyOp13
 70
     1
102
RTVSPropertyOp14
 70
     1
102
RTVSPropertyOp15
 70
     1
102
RTVSPropertyOp16
 70
     1
102
RTVSPropertyOp17
 70
     1
102
RTVSPropertyOp18
 70
     1
102
RTVSPropertyOp19
 70
     1
102
RTVSPropertyOp20
 70
     1
102
RTVSPropertyOp21
 70
     1
102
RTVSPropertyOp22
 70
     1
102
RTVSPropertyOp23
 70
     1
102
RTVSPropertyOp24
 70
     1
102
RTVSPropertyOp25
 70
     1
102
RTVSPropertyOp26
 70
     1
102
RTVSPropertyOp27
 70
     1
102
RTVSPropertyOp28
 70
     1
102
RTVSPropertyOp29
 70
     1
102
RTVSPropertyOp30
 70
     1
102
RTVSPropertyOp31
 70
     1
102
RTVSPropertyOp32
 70
     1
102
RTVSPropertyOp33
 70
     1
102
RTVSPropertyOp34
 70
     1
102
RTVSPropertyOp35
 70
     1
102
RTVSPropertyOp36
 70
     1
102
RTVSPropertyOp37
 70
     1
102
RTVSPropertyOp38
 70
     1
102
RTVSPropertyOp39
 70
     1
102
RTVSPropertyOp40
 70
     1
102
RTVSPropertyOp41
 70
     1
102
RTVSPropertyOp42
 70
     1
102
RTVSPropertyOp43
 70
     1
102
RTVSPropertyOp44
 70
     1
102
RTVSPropertyOp45
 70
     1
102
RTVSPropertyOp46
 70
     1
102
RTVSPropertyOp47
 70
     1
102
RTVSPropertyOp48
 70
     1
102
RTVSPropertyOp49
 70
     1
102
RTVSPropertyOp50
 70
     1
102
RTVSPropertyOp51
 70
     0
102
RTVSPropertyOp52
 70
     0
102
RTVSPropertyOp53
 70
     1
102
RTVSPropertyOp54
 70
     1
102
RTVSPropertyOp55
 70
     1
102
RTVSPropertyOp56
 70
     1
102
RTVSPropertyOp57
 70
     1
102
RTVSPropertyOp58
 70
     1
102
RTVSPropertyOp59
 70
     1
102
RTVSPropertyOp60
 70
     1
102
RTVSPropertyOp61
 70
     1
102
RTVSPropertyOp62
 70
     1
  0
XRECORD
  5
B3C7A
102
{ACAD_REACTORS
330
B3C79
102
}
330
B3C79
100
AcDbXrecord
280
     1
102
RTVSPost2010Prop28
280
     0
102
RTVSPost2010PropOp28
 70
     1
102
RTVSPost2010Prop29
280
     1
102
RTVSPost2010PropOp29
 70
     1
102
RTVSPost2010Prop30
280
     1
102
RTVSPost2010PropOp30
 70
     1
102
RTVSPost2010Prop31
280
     0
102
RTVSPost2010PropOp31
 70
     1
102
RTVSPost2010Prop32
280
     0
102
RTVSPost2010PropOp32
 70
     1
102
RTVSPost2010Prop33
280
     0
102
RTVSPost2010PropOp33
 70
     1
102
RTVSPost2010Prop34
280
     0
102
RTVSPost2010PropOp34
 70
     1
102
RTVSPost2010Prop35
280
     0
102
RTVSPost2010PropOp35
 70
     1
102
RTVSPost2010Prop36
280
     0
102
RTVSPost2010PropOp36
 70
     1
102
RTVSPost2010Prop37
 90
       50
102
RTVSPost2010PropOp37
 70
     1
102
RTVSPost2010Prop38
140
0.0
102
RTVSPost2010PropOp38
 70
     1
102
RTVSPost2010Prop39
140
1.0
102
RTVSPost2010PropOp39
 70
     1
102
RTVSPost2010Prop40
 90
        0
102
RTVSPost2010PropOp40
 70
     1
102
RTVSPost2010Prop41ColorIndex
 90
       18
102
RTVSPost2010Prop41ColorRGB
 90
        0
102
RTVSPost2010PropOp41
 70
     1
102
RTVSPost2010Prop42
 90
       50
102
RTVSPost2010PropOp42
 70
     1
102
RTVSPost2010Prop43
 90
        3
102
RTVSPost2010PropOp43
 70
     1
102
RTVSPost2010Prop44ColorIndex
 90
        5
102
RTVSPost2010Prop44ColorRGB
 90
      255
102
RTVSPost2010PropOp44
 70
     1
102
RTVSPost2010Prop45
280
     0
102
RTVSPost2010PropOp45
 70
     1
102
RTVSPost2010Prop46
 90
       50
102
RTVSPost2010PropOp46
 70
     1
102
RTVSPost2010Prop47
 90
       50
102
RTVSPost2010PropOp47
 70
     1
102
RTVSPost2010Prop48
 90
       50
102
RTVSPost2010PropOp48
 70
     1
102
RTVSPost2010Prop49
280
     0
102
RTVSPost2010PropOp49
 70
     1
102
RTVSPost2010Prop50
 90
       50
102
RTVSPost2010PropOp50
 70
     1
102
RTVSPost2010Prop51ColorIndex
 90
      256
102
RTVSPost2010Prop51ColorRGB
 90
-16777216
102
RTVSPost2010PropOp51
 70
     0
102
RTVSPost2010Prop52
140
1.0
102
RTVSPost2010PropOp52
 70
     0
102
RTVSPost2010Prop53
 90
        2
102
RTVSPost2010PropOp53
 70
     1
102
RTVSPost2010Prop54
  1
strokes_ogs.tif
102
RTVSPost2010PropOp54
 70
     1
102
RTVSPost2010Prop55
280
     0
102
RTVSPost2010PropOp55
 70
     1
102
RTVSPost2010Prop56
140
1.0
102
RTVSPost2010PropOp56
 70
     1
102
RTVSPost2010Prop57
140
1.0
102
RTVSPost2010PropOp57
 70
     1
102
RTVSPropertyOp0
 70
     1
102
RTVSPropertyOp1
 70
     1
102
RTVSPropertyOp2
 70
     1
102
RTVSPropertyOp3
 70
     1
102
RTVSPropertyOp4
 70
     1
102
RTVSPropertyOp5
 70
     1
102
RTVSPropertyOp6
 70
     1
102
RTVSPropertyOp7
 70
     1
102
RTVSPropertyOp8
 70
     1
102
RTVSPropertyOp9
 70
     1
102
RTVSPropertyOp10
 70
     1
102
RTVSPropertyOp11
 70
     1
102
RTVSPropertyOp12
 70
     1
102
RTVSPropertyOp13
 70
     1
102
RTVSPropertyOp14
 70
     1
102
RTVSPropertyOp15
 70
     1
102
RTVSPropertyOp16
 70
     1
102
RTVSPropertyOp17
 70
     1
102
RTVSPropertyOp18
 70
     1
102
RTVSPropertyOp19
 70
     1
102
RTVSPropertyOp20
 70
     1
102
RTVSPropertyOp21
 70
     1
102
RTVSPropertyOp22
 70
     1
102
RTVSPropertyOp23
 70
     1
102
RTVSPropertyOp24
 70
     1
102
RTVSPropertyOp25
 70
     1
102
RTVSPropertyOp26
 70
     1
102
RTVSPropertyOp27
 70
     1
102
RTVSPropertyOp28
 70
     1
102
RTVSPropertyOp29
 70
     1
102
RTVSPropertyOp30
 70
     1
102
RTVSPropertyOp31
 70
     1
102
RTVSPropertyOp32
 70
     1
102
RTVSPropertyOp33
 70
     1
102
RTVSPropertyOp34
 70
     1
102
RTVSPropertyOp35
 70
     1
102
RTVSPropertyOp36
 70
     1
102
RTVSPropertyOp37
 70
     1
102
RTVSPropertyOp38
 70
     1
102
RTVSPropertyOp39
 70
     1
102
RTVSPropertyOp40
 70
     1
102
RTVSPropertyOp41
 70
     1
102
RTVSPropertyOp42
 70
     1
102
RTVSPropertyOp43
 70
     1
102
RTVSPropertyOp44
 70
     1
102
RTVSPropertyOp45
 70
     1
102
RTVSPropertyOp46
 70
     1
102
RTVSPropertyOp47
 70
     1
102
RTVSPropertyOp48
 70
     1
102
RTVSPropertyOp49
 70
     1
102
RTVSPropertyOp50
 70
     1
102
RTVSPropertyOp51
 70
     0
102
RTVSPropertyOp52
 70
     0
102
RTVSPropertyOp53
 70
     1
102
RTVSPropertyOp54
 70
     1
102
RTVSPropertyOp55
 70
     1
102
RTVSPropertyOp56
 70
     1
102
RTVSPropertyOp57
 70
     1
102
RTVSPropertyOp58
 70
     1
102
RTVSPropertyOp59
 70
     1
102
RTVSPropertyOp60
 70
     1
102
RTVSPropertyOp61
 70
     1
102
RTVSPropertyOp62
 70
     1
  0
XRECORD
  5
B3C74
102
{ACAD_REACTORS
330
B3C73
102
}
330
B3C73
100
AcDbXrecord
280
     1
102
RTVSPost2010Prop28
280
     0
102
RTVSPost2010PropOp28
 70
     1
102
RTVSPost2010Prop29
280
     1
102
RTVSPost2010PropOp29
 70
     1
102
RTVSPost2010Prop30
280
     1
102
RTVSPost2010PropOp30
 70
     1
102
RTVSPost2010Prop31
280
     0
102
RTVSPost2010PropOp31
 70
     1
102
RTVSPost2010Prop32
280
     0
102
RTVSPost2010PropOp32
 70
     1
102
RTVSPost2010Prop33
280
     0
102
RTVSPost2010PropOp33
 70
     1
102
RTVSPost2010Prop34
280
     0
102
RTVSPost2010PropOp34
 70
     1
102
RTVSPost2010Prop35
280
     0
102
RTVSPost2010PropOp35
 70
     1
102
RTVSPost2010Prop36
280
     0
102
RTVSPost2010PropOp36
 70
     1
102
RTVSPost2010Prop37
 90
       50
102
RTVSPost2010PropOp37
 70
     1
102
RTVSPost2010Prop38
140
0.0
102
RTVSPost2010PropOp38
 70
     1
102
RTVSPost2010Prop39
140
1.0
102
RTVSPost2010PropOp39
 70
     1
102
RTVSPost2010Prop40
 90
        0
102
RTVSPost2010PropOp40
 70
     1
102
RTVSPost2010Prop41ColorIndex
 90
       18
102
RTVSPost2010Prop41ColorRGB
 90
        0
102
RTVSPost2010PropOp41
 70
     1
102
RTVSPost2010Prop42
 90
       50
102
RTVSPost2010PropOp42
 70
     1
102
RTVSPost2010Prop43
 90
        3
102
RTVSPost2010PropOp43
 70
     1
102
RTVSPost2010Prop44ColorIndex
 90
        5
102
RTVSPost2010Prop44ColorRGB
 90
      255
102
RTVSPost2010PropOp44
 70
     1
102
RTVSPost2010Prop45
280
     0
102
RTVSPost2010PropOp45
 70
     1
102
RTVSPost2010Prop46
 90
       50
102
RTVSPost2010PropOp46
 70
     1
102
RTVSPost2010Prop47
 90
       50
102
RTVSPost2010PropOp47
 70
     1
102
RTVSPost2010Prop48
 90
       50
102
RTVSPost2010PropOp48
 70
     1
102
RTVSPost2010Prop49
280
     0
102
RTVSPost2010PropOp49
 70
     1
102
RTVSPost2010Prop50
 90
       50
102
RTVSPost2010PropOp50
 70
     1
102
RTVSPost2010Prop51ColorIndex
 90
      256
102
RTVSPost2010Prop51ColorRGB
 90
-16777216
102
RTVSPost2010PropOp51
 70
     0
102
RTVSPost2010Prop52
140
1.0
102
RTVSPost2010PropOp52
 70
     0
102
RTVSPost2010Prop53
 90
        2
102
RTVSPost2010PropOp53
 70
     1
102
RTVSPost2010Prop54
  1
strokes_ogs.tif
102
RTVSPost2010PropOp54
 70
     1
102
RTVSPost2010Prop55
280
     0
102
RTVSPost2010PropOp55
 70
     1
102
RTVSPost2010Prop56
140
1.0
102
RTVSPost2010PropOp56
 70
     1
102
RTVSPost2010Prop57
140
1.0
102
RTVSPost2010PropOp57
 70
     1
102
RTVSPropertyOp0
 70
     1
102
RTVSPropertyOp1
 70
     1
102
RTVSPropertyOp2
 70
     1
102
RTVSPropertyOp3
 70
     1
102
RTVSPropertyOp4
 70
     1
102
RTVSPropertyOp5
 70
     1
102
RTVSPropertyOp6
 70
     1
102
RTVSPropertyOp7
 70
     1
102
RTVSPropertyOp8
 70
     1
102
RTVSPropertyOp9
 70
     1
102
RTVSPropertyOp10
 70
     1
102
RTVSPropertyOp11
 70
     1
102
RTVSPropertyOp12
 70
     1
102
RTVSPropertyOp13
 70
     1
102
RTVSPropertyOp14
 70
     1
102
RTVSPropertyOp15
 70
     1
102
RTVSPropertyOp16
 70
     1
102
RTVSPropertyOp17
 70
     1
102
RTVSPropertyOp18
 70
     1
102
RTVSPropertyOp19
 70
     1
102
RTVSPropertyOp20
 70
     1
102
RTVSPropertyOp21
 70
     1
102
RTVSPropertyOp22
 70
     1
102
RTVSPropertyOp23
 70
     1
102
RTVSPropertyOp24
 70
     1
102
RTVSPropertyOp25
 70
     1
102
RTVSPropertyOp26
 70
     1
102
RTVSPropertyOp27
 70
     1
102
RTVSPropertyOp28
 70
     1
102
RTVSPropertyOp29
 70
     1
102
RTVSPropertyOp30
 70
     1
102
RTVSPropertyOp31
 70
     1
102
RTVSPropertyOp32
 70
     1
102
RTVSPropertyOp33
 70
     1
102
RTVSPropertyOp34
 70
     1
102
RTVSPropertyOp35
 70
     1
102
RTVSPropertyOp36
 70
     1
102
RTVSPropertyOp37
 70
     1
102
RTVSPropertyOp38
 70
     1
102
RTVSPropertyOp39
 70
     1
102
RTVSPropertyOp40
 70
     1
102
RTVSPropertyOp41
 70
     1
102
RTVSPropertyOp42
 70
     1
102
RTVSPropertyOp43
 70
     1
102
RTVSPropertyOp44
 70
     1
102
RTVSPropertyOp45
 70
     1
102
RTVSPropertyOp46
 70
     1
102
RTVSPropertyOp47
 70
     1
102
RTVSPropertyOp48
 70
     1
102
RTVSPropertyOp49
 70
     1
102
RTVSPropertyOp50
 70
     1
102
RTVSPropertyOp51
 70
     0
102
RTVSPropertyOp52
 70
     0
102
RTVSPropertyOp53
 70
     1
102
RTVSPropertyOp54
 70
     1
102
RTVSPropertyOp55
 70
     1
102
RTVSPropertyOp56
 70
     1
102
RTVSPropertyOp57
 70
     1
102
RTVSPropertyOp58
 70
     1
102
RTVSPropertyOp59
 70
     1
102
RTVSPropertyOp60
 70
     1
102
RTVSPropertyOp61
 70
     1
102
RTVSPropertyOp62
 70
     1
  0
XRECORD
  5
B3C76
102
{ACAD_REACTORS
330
B3C75
102
}
330
B3C75
100
AcDbXrecord
280
     1
102
RTVSPost2010Prop28
280
     0
102
RTVSPost2010PropOp28
 70
     1
102
RTVSPost2010Prop29
280
     1
102
RTVSPost2010PropOp29
 70
     1
102
RTVSPost2010Prop30
280
     1
102
RTVSPost2010PropOp30
 70
     1
102
RTVSPost2010Prop31
280
     0
102
RTVSPost2010PropOp31
 70
     1
102
RTVSPost2010Prop32
280
     0
102
RTVSPost2010PropOp32
 70
     1
102
RTVSPost2010Prop33
280
     0
102
RTVSPost2010PropOp33
 70
     1
102
RTVSPost2010Prop34
280
     0
102
RTVSPost2010PropOp34
 70
     1
102
RTVSPost2010Prop35
280
     0
102
RTVSPost2010PropOp35
 70
     1
102
RTVSPost2010Prop36
280
     0
102
RTVSPost2010PropOp36
 70
     1
102
RTVSPost2010Prop37
 90
       50
102
RTVSPost2010PropOp37
 70
     1
102
RTVSPost2010Prop38
140
0.0
102
RTVSPost2010PropOp38
 70
     1
102
RTVSPost2010Prop39
140
1.0
102
RTVSPost2010PropOp39
 70
     1
102
RTVSPost2010Prop40
 90
        0
102
RTVSPost2010PropOp40
 70
     1
102
RTVSPost2010Prop41ColorIndex
 90
       18
102
RTVSPost2010Prop41ColorRGB
 90
        0
102
RTVSPost2010PropOp41
 70
     1
102
RTVSPost2010Prop42
 90
       50
102
RTVSPost2010PropOp42
 70
     1
102
RTVSPost2010Prop43
 90
        3
102
RTVSPost2010PropOp43
 70
     1
102
RTVSPost2010Prop44ColorIndex
 90
        5
102
RTVSPost2010Prop44ColorRGB
 90
      255
102
RTVSPost2010PropOp44
 70
     1
102
RTVSPost2010Prop45
280
     0
102
RTVSPost2010PropOp45
 70
     1
102
RTVSPost2010Prop46
 90
       50
102
RTVSPost2010PropOp46
 70
     1
102
RTVSPost2010Prop47
 90
       50
102
RTVSPost2010PropOp47
 70
     1
102
RTVSPost2010Prop48
 90
       50
102
RTVSPost2010PropOp48
 70
     1
102
RTVSPost2010Prop49
280
     0
102
RTVSPost2010PropOp49
 70
     1
102
RTVSPost2010Prop50
 90
       50
102
RTVSPost2010PropOp50
 70
     1
102
RTVSPost2010Prop51ColorIndex
 90
      256
102
RTVSPost2010Prop51ColorRGB
 90
-16777216
102
RTVSPost2010PropOp51
 70
     0
102
RTVSPost2010Prop52
140
1.0
102
RTVSPost2010PropOp52
 70
     0
102
RTVSPost2010Prop53
 90
        2
102
RTVSPost2010PropOp53
 70
     1
102
RTVSPost2010Prop54
  1
strokes_ogs.tif
102
RTVSPost2010PropOp54
 70
     1
102
RTVSPost2010Prop55
280
     0
102
RTVSPost2010PropOp55
 70
     1
102
RTVSPost2010Prop56
140
1.0
102
RTVSPost2010PropOp56
 70
     1
102
RTVSPost2010Prop57
140
1.0
102
RTVSPost2010PropOp57
 70
     1
102
RTVSPropertyOp0
 70
     1
102
RTVSPropertyOp1
 70
     1
102
RTVSPropertyOp2
 70
     1
102
RTVSPropertyOp3
 70
     1
102
RTVSPropertyOp4
 70
     1
102
RTVSPropertyOp5
 70
     1
102
RTVSPropertyOp6
 70
     1
102
RTVSPropertyOp7
 70
     1
102
RTVSPropertyOp8
 70
     1
102
RTVSPropertyOp9
 70
     1
102
RTVSPropertyOp10
 70
     1
102
RTVSPropertyOp11
 70
     1
102
RTVSPropertyOp12
 70
     1
102
RTVSPropertyOp13
 70
     1
102
RTVSPropertyOp14
 70
     1
102
RTVSPropertyOp15
 70
     1
102
RTVSPropertyOp16
 70
     1
102
RTVSPropertyOp17
 70
     1
102
RTVSPropertyOp18
 70
     1
102
RTVSPropertyOp19
 70
     1
102
RTVSPropertyOp20
 70
     1
102
RTVSPropertyOp21
 70
     1
102
RTVSPropertyOp22
 70
     1
102
RTVSPropertyOp23
 70
     1
102
RTVSPropertyOp24
 70
     1
102
RTVSPropertyOp25
 70
     1
102
RTVSPropertyOp26
 70
     1
102
RTVSPropertyOp27
 70
     1
102
RTVSPropertyOp28
 70
     1
102
RTVSPropertyOp29
 70
     1
102
RTVSPropertyOp30
 70
     1
102
RTVSPropertyOp31
 70
     1
102
RTVSPropertyOp32
 70
     1
102
RTVSPropertyOp33
 70
     1
102
RTVSPropertyOp34
 70
     1
102
RTVSPropertyOp35
 70
     1
102
RTVSPropertyOp36
 70
     1
102
RTVSPropertyOp37
 70
     1
102
RTVSPropertyOp38
 70
     1
102
RTVSPropertyOp39
 70
     1
102
RTVSPropertyOp40
 70
     1
102
RTVSPropertyOp41
 70
     1
102
RTVSPropertyOp42
 70
     1
102
RTVSPropertyOp43
 70
     1
102
RTVSPropertyOp44
 70
     1
102
RTVSPropertyOp45
 70
     1
102
RTVSPropertyOp46
 70
     1
102
RTVSPropertyOp47
 70
     1
102
RTVSPropertyOp48
 70
     1
102
RTVSPropertyOp49
 70
     1
102
RTVSPropertyOp50
 70
     1
102
RTVSPropertyOp51
 70
     0
102
RTVSPropertyOp52
 70
     0
102
RTVSPropertyOp53
 70
     1
102
RTVSPropertyOp54
 70
     1
102
RTVSPropertyOp55
 70
     1
102
RTVSPropertyOp56
 70
     1
102
RTVSPropertyOp57
 70
     1
102
RTVSPropertyOp58
 70
     1
102
RTVSPropertyOp59
 70
     1
102
RTVSPropertyOp60
 70
     1
102
RTVSPropertyOp61
 70
     1
102
RTVSPropertyOp62
 70
     1
  0
XRECORD
  5
B3C66
102
{ACAD_REACTORS
330
B3C65
102
}
330
B3C65
100
AcDbXrecord
280
     1
102
RTVSPost2010Prop28
280
     0
102
RTVSPost2010PropOp28
 70
     1
102
RTVSPost2010Prop29
280
     1
102
RTVSPost2010PropOp29
 70
     1
102
RTVSPost2010Prop30
280
     1
102
RTVSPost2010PropOp30
 70
     1
102
RTVSPost2010Prop31
280
     0
102
RTVSPost2010PropOp31
 70
     1
102
RTVSPost2010Prop32
280
     0
102
RTVSPost2010PropOp32
 70
     1
102
RTVSPost2010Prop33
280
     0
102
RTVSPost2010PropOp33
 70
     1
102
RTVSPost2010Prop34
280
     0
102
RTVSPost2010PropOp34
 70
     1
102
RTVSPost2010Prop35
280
     0
102
RTVSPost2010PropOp35
 70
     1
102
RTVSPost2010Prop36
280
     0
102
RTVSPost2010PropOp36
 70
     1
102
RTVSPost2010Prop37
 90
       50
102
RTVSPost2010PropOp37
 70
     1
102
RTVSPost2010Prop38
140
0.0
102
RTVSPost2010PropOp38
 70
     1
102
RTVSPost2010Prop39
140
1.0
102
RTVSPost2010PropOp39
 70
     1
102
RTVSPost2010Prop40
 90
        0
102
RTVSPost2010PropOp40
 70
     1
102
RTVSPost2010Prop41ColorIndex
 90
       18
102
RTVSPost2010Prop41ColorRGB
 90
        0
102
RTVSPost2010PropOp41
 70
     1
102
RTVSPost2010Prop42
 90
       50
102
RTVSPost2010PropOp42
 70
     1
102
RTVSPost2010Prop43
 90
        3
102
RTVSPost2010PropOp43
 70
     1
102
RTVSPost2010Prop44ColorIndex
 90
        5
102
RTVSPost2010Prop44ColorRGB
 90
      255
102
RTVSPost2010PropOp44
 70
     1
102
RTVSPost2010Prop45
280
     0
102
RTVSPost2010PropOp45
 70
     1
102
RTVSPost2010Prop46
 90
       50
102
RTVSPost2010PropOp46
 70
     1
102
RTVSPost2010Prop47
 90
       50
102
RTVSPost2010PropOp47
 70
     1
102
RTVSPost2010Prop48
 90
       50
102
RTVSPost2010PropOp48
 70
     1
102
RTVSPost2010Prop49
280
     0
102
RTVSPost2010PropOp49
 70
     1
102
RTVSPost2010Prop50
 90
       50
102
RTVSPost2010PropOp50
 70
     1
102
RTVSPost2010Prop51ColorIndex
 90
      256
102
RTVSPost2010Prop51ColorRGB
 90
-16777216
102
RTVSPost2010PropOp51
 70
     0
102
RTVSPost2010Prop52
140
1.0
102
RTVSPost2010PropOp52
 70
     0
102
RTVSPost2010Prop53
 90
        2
102
RTVSPost2010PropOp53
 70
     1
102
RTVSPost2010Prop54
  1
strokes_ogs.tif
102
RTVSPost2010PropOp54
 70
     1
102
RTVSPost2010Prop55
280
     0
102
RTVSPost2010PropOp55
 70
     1
102
RTVSPost2010Prop56
140
1.0
102
RTVSPost2010PropOp56
 70
     1
102
RTVSPost2010Prop57
140
1.0
102
RTVSPost2010PropOp57
 70
     1
102
RTVSPropertyOp0
 70
     1
102
RTVSPropertyOp1
 70
     1
102
RTVSPropertyOp2
 70
     1
102
RTVSPropertyOp3
 70
     1
102
RTVSPropertyOp4
 70
     1
102
RTVSPropertyOp5
 70
     1
102
RTVSPropertyOp6
 70
     1
102
RTVSPropertyOp7
 70
     1
102
RTVSPropertyOp8
 70
     1
102
RTVSPropertyOp9
 70
     1
102
RTVSPropertyOp10
 70
     1
102
RTVSPropertyOp11
 70
     1
102
RTVSPropertyOp12
 70
     1
102
RTVSPropertyOp13
 70
     1
102
RTVSPropertyOp14
 70
     1
102
RTVSPropertyOp15
 70
     1
102
RTVSPropertyOp16
 70
     1
102
RTVSPropertyOp17
 70
     1
102
RTVSPropertyOp18
 70
     1
102
RTVSPropertyOp19
 70
     1
102
RTVSPropertyOp20
 70
     1
102
RTVSPropertyOp21
 70
     1
102
RTVSPropertyOp22
 70
     1
102
RTVSPropertyOp23
 70
     1
102
RTVSPropertyOp24
 70
     1
102
RTVSPropertyOp25
 70
     1
102
RTVSPropertyOp26
 70
     1
102
RTVSPropertyOp27
 70
     1
102
RTVSPropertyOp28
 70
     1
102
RTVSPropertyOp29
 70
     1
102
RTVSPropertyOp30
 70
     1
102
RTVSPropertyOp31
 70
     1
102
RTVSPropertyOp32
 70
     1
102
RTVSPropertyOp33
 70
     1
102
RTVSPropertyOp34
 70
     1
102
RTVSPropertyOp35
 70
     1
102
RTVSPropertyOp36
 70
     1
102
RTVSPropertyOp37
 70
     1
102
RTVSPropertyOp38
 70
     1
102
RTVSPropertyOp39
 70
     1
102
RTVSPropertyOp40
 70
     1
102
RTVSPropertyOp41
 70
     1
102
RTVSPropertyOp42
 70
     1
102
RTVSPropertyOp43
 70
     1
102
RTVSPropertyOp44
 70
     1
102
RTVSPropertyOp45
 70
     1
102
RTVSPropertyOp46
 70
     1
102
RTVSPropertyOp47
 70
     1
102
RTVSPropertyOp48
 70
     1
102
RTVSPropertyOp49
 70
     1
102
RTVSPropertyOp50
 70
     1
102
RTVSPropertyOp51
 70
     0
102
RTVSPropertyOp52
 70
     0
102
RTVSPropertyOp53
 70
     1
102
RTVSPropertyOp54
 70
     1
102
RTVSPropertyOp55
 70
     1
102
RTVSPropertyOp56
 70
     1
102
RTVSPropertyOp57
 70
     1
102
RTVSPropertyOp58
 70
     1
102
RTVSPropertyOp59
 70
     1
102
RTVSPropertyOp60
 70
     1
102
RTVSPropertyOp61
 70
     1
102
RTVSPropertyOp62
 70
     1
  0
XRECORD
  5
B3C58
102
{ACAD_REACTORS
330
B3C57
102
}
330
B3C57
100
AcDbXrecord
280
     1
102
RTVSPost2010Prop28
280
     0
102
RTVSPost2010PropOp28
 70
     1
102
RTVSPost2010Prop29
280
     1
102
RTVSPost2010PropOp29
 70
     1
102
RTVSPost2010Prop30
280
     1
102
RTVSPost2010PropOp30
 70
     1
102
RTVSPost2010Prop31
280
     0
102
RTVSPost2010PropOp31
 70
     1
102
RTVSPost2010Prop32
280
     0
102
RTVSPost2010PropOp32
 70
     1
102
RTVSPost2010Prop33
280
     0
102
RTVSPost2010PropOp33
 70
     1
102
RTVSPost2010Prop34
280
     0
102
RTVSPost2010PropOp34
 70
     1
102
RTVSPost2010Prop35
280
     0
102
RTVSPost2010PropOp35
 70
     1
102
RTVSPost2010Prop36
280
     0
102
RTVSPost2010PropOp36
 70
     1
102
RTVSPost2010Prop37
 90
       50
102
RTVSPost2010PropOp37
 70
     1
102
RTVSPost2010Prop38
140
0.0
102
RTVSPost2010PropOp38
 70
     1
102
RTVSPost2010Prop39
140
1.0
102
RTVSPost2010PropOp39
 70
     1
102
RTVSPost2010Prop40
 90
        0
102
RTVSPost2010PropOp40
 70
     1
102
RTVSPost2010Prop41ColorIndex
 90
       18
102
RTVSPost2010Prop41ColorRGB
 90
        0
102
RTVSPost2010PropOp41
 70
     1
102
RTVSPost2010Prop42
 90
       50
102
RTVSPost2010PropOp42
 70
     1
102
RTVSPost2010Prop43
 90
        3
102
RTVSPost2010PropOp43
 70
     1
102
RTVSPost2010Prop44ColorIndex
 90
        5
102
RTVSPost2010Prop44ColorRGB
 90
      255
102
RTVSPost2010PropOp44
 70
     1
102
RTVSPost2010Prop45
280
     0
102
RTVSPost2010PropOp45
 70
     1
102
RTVSPost2010Prop46
 90
       50
102
RTVSPost2010PropOp46
 70
     1
102
RTVSPost2010Prop47
 90
       50
102
RTVSPost2010PropOp47
 70
     1
102
RTVSPost2010Prop48
 90
       50
102
RTVSPost2010PropOp48
 70
     1
102
RTVSPost2010Prop49
280
     0
102
RTVSPost2010PropOp49
 70
     1
102
RTVSPost2010Prop50
 90
       50
102
RTVSPost2010PropOp50
 70
     1
102
RTVSPost2010Prop51ColorIndex
 90
      256
102
RTVSPost2010Prop51ColorRGB
 90
-16777216
102
RTVSPost2010PropOp51
 70
     0
102
RTVSPost2010Prop52
140
1.0
102
RTVSPost2010PropOp52
 70
     0
102
RTVSPost2010Prop53
 90
        2
102
RTVSPost2010PropOp53
 70
     1
102
RTVSPost2010Prop54
  1
strokes_ogs.tif
102
RTVSPost2010PropOp54
 70
     1
102
RTVSPost2010Prop55
280
     0
102
RTVSPost2010PropOp55
 70
     1
102
RTVSPost2010Prop56
140
1.0
102
RTVSPost2010PropOp56
 70
     1
102
RTVSPost2010Prop57
140
1.0
102
RTVSPost2010PropOp57
 70
     1
102
RTVSPropertyOp0
 70
     1
102
RTVSPropertyOp1
 70
     1
102
RTVSPropertyOp2
 70
     1
102
RTVSPropertyOp3
 70
     1
102
RTVSPropertyOp4
 70
     1
102
RTVSPropertyOp5
 70
     1
102
RTVSPropertyOp6
 70
     1
102
RTVSPropertyOp7
 70
     1
102
RTVSPropertyOp8
 70
     1
102
RTVSPropertyOp9
 70
     1
102
RTVSPropertyOp10
 70
     1
102
RTVSPropertyOp11
 70
     1
102
RTVSPropertyOp12
 70
     1
102
RTVSPropertyOp13
 70
     1
102
RTVSPropertyOp14
 70
     1
102
RTVSPropertyOp15
 70
     1
102
RTVSPropertyOp16
 70
     1
102
RTVSPropertyOp17
 70
     1
102
RTVSPropertyOp18
 70
     1
102
RTVSPropertyOp19
 70
     1
102
RTVSPropertyOp20
 70
     1
102
RTVSPropertyOp21
 70
     1
102
RTVSPropertyOp22
 70
     1
102
RTVSPropertyOp23
 70
     1
102
RTVSPropertyOp24
 70
     1
102
RTVSPropertyOp25
 70
     1
102
RTVSPropertyOp26
 70
     1
102
RTVSPropertyOp27
 70
     1
102
RTVSPropertyOp28
 70
     1
102
RTVSPropertyOp29
 70
     1
102
RTVSPropertyOp30
 70
     1
102
RTVSPropertyOp31
 70
     1
102
RTVSPropertyOp32
 70
     1
102
RTVSPropertyOp33
 70
     1
102
RTVSPropertyOp34
 70
     1
102
RTVSPropertyOp35
 70
     1
102
RTVSPropertyOp36
 70
     1
102
RTVSPropertyOp37
 70
     1
102
RTVSPropertyOp38
 70
     1
102
RTVSPropertyOp39
 70
     1
102
RTVSPropertyOp40
 70
     1
102
RTVSPropertyOp41
 70
     1
102
RTVSPropertyOp42
 70
     1
102
RTVSPropertyOp43
 70
     1
102
RTVSPropertyOp44
 70
     1
102
RTVSPropertyOp45
 70
     1
102
RTVSPropertyOp46
 70
     1
102
RTVSPropertyOp47
 70
     1
102
RTVSPropertyOp48
 70
     1
102
RTVSPropertyOp49
 70
     1
102
RTVSPropertyOp50
 70
     1
102
RTVSPropertyOp51
 70
     0
102
RTVSPropertyOp52
 70
     0
102
RTVSPropertyOp53
 70
     1
102
RTVSPropertyOp54
 70
     1
102
RTVSPropertyOp55
 70
     1
102
RTVSPropertyOp56
 70
     1
102
RTVSPropertyOp57
 70
     1
102
RTVSPropertyOp58
 70
     1
102
RTVSPropertyOp59
 70
     1
102
RTVSPropertyOp60
 70
     1
102
RTVSPropertyOp61
 70
     1
102
RTVSPropertyOp62
 70
     1
  0
XRECORD
  5
B3C78
102
{ACAD_REACTORS
330
B3C77
102
}
330
B3C77
100
AcDbXrecord
280
     1
102
RTVSPost2010Prop28
280
     0
102
RTVSPost2010PropOp28
 70
     1
102
RTVSPost2010Prop29
280
     1
102
RTVSPost2010PropOp29
 70
     1
102
RTVSPost2010Prop30
280
     1
102
RTVSPost2010PropOp30
 70
     1
102
RTVSPost2010Prop31
280
     0
102
RTVSPost2010PropOp31
 70
     1
102
RTVSPost2010Prop32
280
     0
102
RTVSPost2010PropOp32
 70
     1
102
RTVSPost2010Prop33
280
     0
102
RTVSPost2010PropOp33
 70
     1
102
RTVSPost2010Prop34
280
     0
102
RTVSPost2010PropOp34
 70
     1
102
RTVSPost2010Prop35
280
     0
102
RTVSPost2010PropOp35
 70
     1
102
RTVSPost2010Prop36
280
     0
102
RTVSPost2010PropOp36
 70
     1
102
RTVSPost2010Prop37
 90
       50
102
RTVSPost2010PropOp37
 70
     1
102
RTVSPost2010Prop38
140
0.0
102
RTVSPost2010PropOp38
 70
     1
102
RTVSPost2010Prop39
140
1.0
102
RTVSPost2010PropOp39
 70
     1
102
RTVSPost2010Prop40
 90
        0
102
RTVSPost2010PropOp40
 70
     1
102
RTVSPost2010Prop41ColorIndex
 90
       18
102
RTVSPost2010Prop41ColorRGB
 90
        0
102
RTVSPost2010PropOp41
 70
     1
102
RTVSPost2010Prop42
 90
       50
102
RTVSPost2010PropOp42
 70
     1
102
RTVSPost2010Prop43
 90
        3
102
RTVSPost2010PropOp43
 70
     1
102
RTVSPost2010Prop44ColorIndex
 90
        5
102
RTVSPost2010Prop44ColorRGB
 90
      255
102
RTVSPost2010PropOp44
 70
     1
102
RTVSPost2010Prop45
280
     0
102
RTVSPost2010PropOp45
 70
     1
102
RTVSPost2010Prop46
 90
       50
102
RTVSPost2010PropOp46
 70
     1
102
RTVSPost2010Prop47
 90
       50
102
RTVSPost2010PropOp47
 70
     1
102
RTVSPost2010Prop48
 90
       50
102
RTVSPost2010PropOp48
 70
     1
102
RTVSPost2010Prop49
280
     0
102
RTVSPost2010PropOp49
 70
     1
102
RTVSPost2010Prop50
 90
       50
102
RTVSPost2010PropOp50
 70
     1
102
RTVSPost2010Prop51ColorIndex
 90
      256
102
RTVSPost2010Prop51ColorRGB
 90
-16777216
102
RTVSPost2010PropOp51
 70
     0
102
RTVSPost2010Prop52
140
1.0
102
RTVSPost2010PropOp52
 70
     0
102
RTVSPost2010Prop53
 90
        2
102
RTVSPost2010PropOp53
 70
     1
102
RTVSPost2010Prop54
  1
strokes_ogs.tif
102
RTVSPost2010PropOp54
 70
     1
102
RTVSPost2010Prop55
280
     0
102
RTVSPost2010PropOp55
 70
     1
102
RTVSPost2010Prop56
140
1.0
102
RTVSPost2010PropOp56
 70
     1
102
RTVSPost2010Prop57
140
1.0
102
RTVSPost2010PropOp57
 70
     1
102
RTVSPropertyOp0
 70
     1
102
RTVSPropertyOp1
 70
     1
102
RTVSPropertyOp2
 70
     1
102
RTVSPropertyOp3
 70
     1
102
RTVSPropertyOp4
 70
     1
102
RTVSPropertyOp5
 70
     1
102
RTVSPropertyOp6
 70
     1
102
RTVSPropertyOp7
 70
     1
102
RTVSPropertyOp8
 70
     1
102
RTVSPropertyOp9
 70
     1
102
RTVSPropertyOp10
 70
     1
102
RTVSPropertyOp11
 70
     1
102
RTVSPropertyOp12
 70
     1
102
RTVSPropertyOp13
 70
     1
102
RTVSPropertyOp14
 70
     1
102
RTVSPropertyOp15
 70
     1
102
RTVSPropertyOp16
 70
     1
102
RTVSPropertyOp17
 70
     1
102
RTVSPropertyOp18
 70
     1
102
RTVSPropertyOp19
 70
     1
102
RTVSPropertyOp20
 70
     1
102
RTVSPropertyOp21
 70
     1
102
RTVSPropertyOp22
 70
     1
102
RTVSPropertyOp23
 70
     1
102
RTVSPropertyOp24
 70
     1
102
RTVSPropertyOp25
 70
     1
102
RTVSPropertyOp26
 70
     1
102
RTVSPropertyOp27
 70
     1
102
RTVSPropertyOp28
 70
     1
102
RTVSPropertyOp29
 70
     1
102
RTVSPropertyOp30
 70
     1
102
RTVSPropertyOp31
 70
     1
102
RTVSPropertyOp32
 70
     1
102
RTVSPropertyOp33
 70
     1
102
RTVSPropertyOp34
 70
     1
102
RTVSPropertyOp35
 70
     1
102
RTVSPropertyOp36
 70
     1
102
RTVSPropertyOp37
 70
     1
102
RTVSPropertyOp38
 70
     1
102
RTVSPropertyOp39
 70
     1
102
RTVSPropertyOp40
 70
     1
102
RTVSPropertyOp41
 70
     1
102
RTVSPropertyOp42
 70
     1
102
RTVSPropertyOp43
 70
     1
102
RTVSPropertyOp44
 70
     1
102
RTVSPropertyOp45
 70
     1
102
RTVSPropertyOp46
 70
     1
102
RTVSPropertyOp47
 70
     1
102
RTVSPropertyOp48
 70
     1
102
RTVSPropertyOp49
 70
     1
102
RTVSPropertyOp50
 70
     1
102
RTVSPropertyOp51
 70
     0
102
RTVSPropertyOp52
 70
     0
102
RTVSPropertyOp53
 70
     1
102
RTVSPropertyOp54
 70
     1
102
RTVSPropertyOp55
 70
     1
102
RTVSPropertyOp56
 70
     1
102
RTVSPropertyOp57
 70
     1
102
RTVSPropertyOp58
 70
     1
102
RTVSPropertyOp59
 70
     1
102
RTVSPropertyOp60
 70
     1
102
RTVSPropertyOp61
 70
     1
102
RTVSPropertyOp62
 70
     1
  0
ENDSEC
  0
EOF
