  0
SECTION
  2
HEADER
  9
$ACADVER
  1
AC1015
  9
$ACADMAINTVER
 70
    20
  9
$DWGCODEPAGE
  3
ANSI_932
  9
$INSBASE
 10
0.0
 20
0.0
 30
0.0
  9
$EXTMIN
 10
5587.577496407537
 20
-4164.344645046051
 30
0.0
  9
$EXTMAX
 10
6212.337687066398
 20
-3727.153244349214
 30
137.5
  9
$LIMMIN
 10
0.0
 20
0.0
  9
$LIMMAX
 10
420.0
 20
297.0
  9
$ORTHOMODE
 70
     1
  9
$REGENMODE
 70
     1
  9
$FILLMODE
 70
     1
  9
$QTEXTMODE
 70
     0
  9
$MIRRTEXT
 70
     0
  9
$LTSCALE
 40
1.0
  9
$ATTMODE
 70
     1
  9
$TEXTSIZE
 40
3.2
  9
$TRACEWID
 40
1.0
  9
$TEXTSTYLE
  7
\U+FF7D\U+FF80\U+FF72\U+FF991
  9
$CLAYER
  8
0
  9
$CELTYPE
  6
BYLAYER
  9
$CECOLOR
 62
   256
  9
$CELTSCALE
 40
1.0
  9
$DISPSILH
 70
     0
  9
$DIMSCALE
 40
2.0
  9
$DIMASZ
 40
2.5
  9
$DIMEXO
 40
1.0
  9
$DIMDLI
 40
0.38
  9
$DIMRND
 40
0.0
  9
$DIMDLE
 40
0.0
  9
$DIMEXE
 40
0.8
  9
$DIMTP
 40
0.0
  9
$DIMTM
 40
0.0
  9
$DIMTXT
 40
2.5
  9
$DIMCEN
 40
0.0
  9
$DIMTSZ
 40
0.0
  9
$DIMTOL
 70
     0
  9
$DIMLIM
 70
     0
  9
$DIMTIH
 70
     0
  9
$DIMTOH
 70
     0
  9
$DIMSE1
 70
     0
  9
$DIMSE2
 70
     0
  9
$DIMTAD
 70
     3
  9
$DIMZIN
 70
     8
  9
$DIMBLK
  1
Open30
  9
$DIMASO
 70
     1
  9
$DIMSHO
 70
     1
  9
$DIMPOST
  1

  9
$DIMAPOST
  1

  9
$DIMALT
 70
     0
  9
$DIMALTD
 70
     2
  9
$DIMALTF
 40
25.4
  9
$DIMLFAC
 40
1.0
  9
$DIMTOFL
 70
     0
  9
$DIMTVP
 40
0.0
  9
$DIMTIX
 70
     0
  9
$DIMSOXD
 70
     0
  9
$DIMSAH
 70
     0
  9
$DIMBLK1
  1

  9
$DIMBLK2
  1

  9
$DIMSTYLE
  2
まこ-10
  9
$DIMCLRD
 70
     4
  9
$DIMCLRE
 70
     4
  9
$DIMCLRT
 70
   256
  9
$DIMTFAC
 40
1.0
  9
$DIMGAP
 40
0.5
  9
$DIMJUST
 70
     0
  9
$DIMSD1
 70
     0
  9
$DIMSD2
 70
     0
  9
$DIMTOLJ
 70
     1
  9
$DIMTZIN
 70
     0
  9
$DIMALTZ
 70
     0
  9
$DIMALTTZ
 70
     0
  9
$DIMUPT
 70
     0
  9
$DIMDEC
 70
     5
  9
$DIMTDEC
 70
     5
  9
$DIMALTU
 70
     2
  9
$DIMALTTD
 70
     2
  9
$DIMTXSTY
  7
MS\U+FF7A\U+FF9E\U+FF7C\U+FF6F\U+FF78-0
  9
$DIMAUNIT
 70
     0
  9
$DIMADEC
 70
     5
  9
$DIMALTRND
 40
0.0
  9
$DIMAZIN
 70
     2
  9
$DIMDSEP
 70
    46
  9
$DIMATFIT
 70
     1
  9
$DIMFRAC
 70
     0
  9
$DIMLDRBLK
  1
Open30
  9
$DIMLUNIT
 70
     2
  9
$DIMLWD
 70
    13
  9
$DIMLWE
 70
    13
  9
$DIMTMOVE
 70
     0
  9
$LUNITS
 70
     2
  9
$LUPREC
 70
     4
  9
$SKETCHINC
 40
1.0
  9
$FILLETRAD
 40
0.4
  9
$AUNITS
 70
     0
  9
$AUPREC
 70
     0
  9
$MENU
  1
.
  9
$ELEVATION
 40
0.0
  9
$PELEVATION
 40
0.0
  9
$THICKNESS
 40
0.0
  9
$LIMCHECK
 70
     0
  9
$CHAMFERA
 40
0.5
  9
$CHAMFERB
 40
0.5
  9
$CHAMFERC
 40
20.0
  9
$CHAMFERD
 40
0.0
  9
$SKPOLY
 70
     0
  9
$TDCREATE
 40
2452479.723113426
  9
$TDUCREATE
 40
2452479.348123183
  9
$TDUPDATE
 40
2458954.662106481
  9
$TDUUPDATE
 40
2458954.287106482
  9
$TDINDWG
 40
16.7060195949
  9
$TDUSRTIMER
 40
2457829.011924629
  9
$USRTIMER
 70
     1
  9
$ANGBASE
 50
0.0
  9
$ANGDIR
 70
     0
  9
$PDMODE
 70
     0
  9
$PDSIZE
 40
0.0
  9
$PLINEWID
 40
0.0
  9
$SPLFRAME
 70
     0
  9
$SPLINETYPE
 70
     6
  9
$SPLINESEGS
 70
     8
  9
$HANDSEED
  5
B88A3
  9
$SURFTAB1
 70
     6
  9
$SURFTAB2
 70
     6
  9
$SURFTYPE
 70
     6
  9
$SURFU
 70
     6
  9
$SURFV
 70
     6
  9
$UCSBASE
  2

  9
$UCSNAME
  2

  9
$UCSORG
 10
0.0
 20
0.0
 30
0.0
  9
$UCSXDIR
 10
1.0
 20
0.0
 30
0.0
  9
$UCSYDIR
 10
0.0
 20
1.0
 30
0.0
  9
$UCSORTHOREF
  2

  9
$UCSORTHOVIEW
 70
     0
  9
$UCSORGTOP
 10
0.0
 20
0.0
 30
0.0
  9
$UCSORGBOTTOM
 10
0.0
 20
0.0
 30
0.0
  9
$UCSORGLEFT
 10
0.0
 20
0.0
 30
0.0
  9
$UCSORGRIGHT
 10
0.0
 20
0.0
 30
0.0
  9
$UCSORGFRONT
 10
0.0
 20
0.0
 30
0.0
  9
$UCSORGBACK
 10
0.0
 20
0.0
 30
0.0
  9
$PUCSBASE
  2

  9
$PUCSNAME
  2

  9
$PUCSORG
 10
0.0
 20
0.0
 30
0.0
  9
$PUCSXDIR
 10
1.0
 20
0.0
 30
0.0
  9
$PUCSYDIR
 10
0.0
 20
1.0
 30
0.0
  9
$PUCSORTHOREF
  2

  9
$PUCSORTHOVIEW
 70
     0
  9
$PUCSORGTOP
 10
0.0
 20
0.0
 30
0.0
  9
$PUCSORGBOTTOM
 10
0.0
 20
0.0
 30
0.0
  9
$PUCSORGLEFT
 10
0.0
 20
0.0
 30
0.0
  9
$PUCSORGRIGHT
 10
0.0
 20
0.0
 30
0.0
  9
$PUCSORGFRONT
 10
0.0
 20
0.0
 30
0.0
  9
$PUCSORGBACK
 10
0.0
 20
0.0
 30
0.0
  9
$USERI1
 70
     0
  9
$USERI2
 70
     0
  9
$USERI3
 70
     0
  9
$USERI4
 70
     0
  9
$USERI5
 70
     0
  9
$USERR1
 40
10.0
  9
$USERR2
 40
0.0
  9
$USERR3
 40
0.0
  9
$USERR4
 40
0.0
  9
$USERR5
 40
0.0
  9
$WORLDVIEW
 70
     1
  9
$SHADEDGE
 70
     3
  9
$SHADEDIF
 70
    70
  9
$TILEMODE
 70
     1
  9
$MAXACTVP
 70
    48
  9
$PINSBASE
 10
0.0
 20
0.0
 30
0.0
  9
$PLIMCHECK
 70
     0
  9
$PEXTMIN
 10
1.049999999999999
 20
0.6999999999999998
 30
0.0
  9
$PEXTMAX
 10
9.449999999999999
 20
6.3
 30
0.0
  9
$PLIMMIN
 10
0.0
 20
0.0
  9
$PLIMMAX
 10
0.0
 20
0.0
  9
$UNITMODE
 70
     0
  9
$VISRETAIN
 70
     1
  9
$PLINEGEN
 70
     0
  9
$PSLTSCALE
 70
     1
  9
$TREEDEPTH
 70
  3020
  9
$CMLSTYLE
  2
STANDARD
  9
$CMLJUST
 70
     0
  9
$CMLSCALE
 40
20.0
  9
$PROXYGRAPHICS
 70
     1
  9
$MEASUREMENT
 70
     0
  9
$CELWEIGHT
370
    -1
  9
$ENDCAPS
280
     0
  9
$JOINSTYLE
280
     0
  9
$LWDISPLAY
290
     0
  9
$INSUNITS
 70
     0
  9
$HYPERLINKBASE
  1

  9
$STYLESHEET
  1
monochrome.ctb
  9
$XEDIT
290
     1
  9
$CEPSNTYPE
380
     0
  9
$PSTYLEMODE
290
     1
  9
$FINGERPRINTGUID
  2
{6B368F64-F7EB-11D4-BFBA-00004C030E53}
  9
$VERSIONGUID
  2
{BBF01969-A54B-4320-8DF5-8455E66CD56A}
  9
$EXTNAMES
290
     1
  9
$PSVPSCALE
 40
0.0
  9
$OLESTARTUP
290
     0
  0
ENDSEC
  0
SECTION
  2
CLASSES
  0
CLASS
  1
ACDBDICTIONARYWDFLT
  2
AcDbDictionaryWithDefault
  3
ObjectDBX Classes
 90
        0
280
     0
281
     0
  0
CLASS
  1
ACDBPLACEHOLDER
  2
AcDbPlaceHolder
  3
ObjectDBX Classes
 90
        0
280
     0
281
     0
  0
CLASS
  1
LAYOUT
  2
AcDbLayout
  3
ObjectDBX Classes
 90
        0
280
     0
281
     0
  0
CLASS
  1
DICTIONARYVAR
  2
AcDbDictionaryVar
  3
ObjectDBX Classes
 90
        0
280
     0
281
     0
  0
CLASS
  1
MATERIAL
  2
AcDbMaterial
  3
ObjectDBX Classes
 90
     1153
280
     0
281
     0
  0
CLASS
  1
VISUALSTYLE
  2
AcDbVisualStyle
  3
ObjectDBX Classes
 90
     4095
280
     0
281
     0
  0
CLASS
  1
TABLESTYLE
  2
AcDbTableStyle
  3
ObjectDBX Classes
 90
     4095
280
     0
281
     0
  0
CLASS
  1
SCALE
  2
AcDbScale
  3
ObjectDBX Classes
 90
     1153
280
     0
281
     0
  0
CLASS
  1
MLEADERSTYLE
  2
AcDbMLeaderStyle
  3
ACDB_MLEADERSTYLE_CLASS
 90
     4095
280
     0
281
     0
  0
CLASS
  1
ACDBSECTIONVIEWSTYLE
  2
AcDbSectionViewStyle
  3
ObjectDBX Classes
 90
     1025
280
     0
281
     0
  0
CLASS
  1
ACDBDETAILVIEWSTYLE
  2
AcDbDetailViewStyle
  3
ObjectDBX Classes
 90
     1025
280
     0
281
     0
  0
CLASS
  1
SORTENTSTABLE
  2
AcDbSortentsTable
  3
ObjectDBX Classes
 90
        0
280
     0
281
     0
  0
CLASS
  1
CELLSTYLEMAP
  2
AcDbCellStyleMap
  3
ObjectDBX Classes
 90
     1152
280
     0
281
     0
  0
CLASS
  1
SUN
  2
AcDbSun
  3
SCENEOE
 90
     1153
280
     0
281
     0
  0
CLASS
  1
RASTERVARIABLES
  2
AcDbRasterVariables
  3
ISM
 90
        0
280
     0
281
     0
  0
ENDSEC
  0
SECTION
  2
TABLES
  0
TABLE
  2
VPORT
  5
8
102
{ACAD_XDICTIONARY
360
B8809
102
}
330
0
100
AcDbSymbolTable
 70
     1
  0
VPORT
  5
B7316
330
8
100
AcDbSymbolTableRecord
100
AcDbViewportTableRecord
  2
*Active
 70
     0
 10
0.0
 20
0.0
 11
1.0
 21
1.0
 12
5899.957591736967
 22
-3815.529617349915
 13
-147.9468458676921
 23
19.55743956420332
 14
10.0
 24
10.0
 15
10.0
 25
10.0
 16
0.0
 26
0.0
 36
1.0
 17
0.0
 27
0.0
 37
0.0
 40
706.3738834062072
 41
1.448226950354609
 42
50.0
 43
0.0
 44
0.0
 50
0.0
 51
0.0
 71
    16
 72
   100
 73
     1
 74
     0
 75
     0
 76
     0
 77
     0
 78
     0
281
     0
 65
     1
110
0.0
120
0.0
130
0.0
111
1.0
121
0.0
131
0.0
112
0.0
122
1.0
132
0.0
 79
     0
146
0.0
1001
ACAD_NAV_VCDISPLAY
1070
     3
  0
ENDTAB
  0
TABLE
  2
LTYPE
  5
5
330
0
100
AcDbSymbolTable
 70
     4
  0
LTYPE
  5
12
330
5
100
AcDbSymbolTableRecord
100
AcDbLinetypeTableRecord
  2
BYBLOCK
 70
     0
  3

 72
    65
 73
     0
 40
0.0
  0
LTYPE
  5
13
330
5
100
AcDbSymbolTableRecord
100
AcDbLinetypeTableRecord
  2
BYLAYER
 70
     0
  3

 72
    65
 73
     0
 40
0.0
  0
LTYPE
  5
14
330
5
100
AcDbSymbolTableRecord
100
AcDbLinetypeTableRecord
  2
CONTINUOUS
 70
     0
  3
Solid line
 72
    65
 73
     0
 40
0.0
  0
LTYPE
  5
969
330
5
100
AcDbSymbolTableRecord
100
AcDbLinetypeTableRecord
  2
CENTER2
 70
     0
  3
Center (.5x) ___ _ ___ _ ___ _ ___ _ ___ _ ___
 72
    65
 73
     4
 40
28.575
 49
19.05
 74
     0
 49
-3.174999999999999
 74
     0
 49
3.174999999999999
 74
     0
 49
-3.174999999999999
 74
     0
  0
LTYPE
  5
BB7
330
5
100
AcDbSymbolTableRecord
100
AcDbLinetypeTableRecord
  2
HIDDEN
 70
     0
  3
 Hidden _ _ _ _ _ _ _ _ _ _ _ _ _ _ _ _ _ _ _ _
 72
    65
 73
     2
 40
0.375
 49
0.25
 74
     0
 49
-0.125
 74
     0
  0
LTYPE
  5
808B3
330
5
100
AcDbSymbolTableRecord
100
AcDbLinetypeTableRecord
  2
PHANTOM2
 70
     0
  3
Phantom (.5x) ___ _ _ ___ _ _ ___ _ _ ___ _ _
 72
    65
 73
     6
 40
1.25
 49
0.625
 74
     0
 49
-0.125
 74
     0
 49
0.125
 74
     0
 49
-0.125
 74
     0
 49
0.125
 74
     0
 49
-0.125
 74
     0
  0
ENDTAB
  0
TABLE
  2
LAYER
  5
2
102
{ACAD_XDICTIONARY
360
1E591
102
}
330
0
100
AcDbSymbolTable
 70
     7
  0
LAYER
  5
E
102
{ACAD_XDICTIONARY
360
A181E
102
}
330
2
100
AcDbSymbolTableRecord
100
AcDbLayerTableRecord
  2
0
 70
     2
 62
     7
  6
CONTINUOUS
370
    -3
390
73E
  0
LAYER
  5
8C6
102
{ACAD_XDICTIONARY
360
A1826
102
}
330
2
100
AcDbSymbolTableRecord
100
AcDbLayerTableRecord
  2
文字
 70
     0
 62
     7
  6
CONTINUOUS
370
    20
390
73E
  0
LAYER
  5
96A
102
{ACAD_XDICTIONARY
360
A182C
102
}
330
2
100
AcDbSymbolTableRecord
100
AcDbLayerTableRecord
  2
中心線
 70
     0
 62
     7
  6
CENTER2
370
    13
390
73E
  0
LAYER
  5
1521
102
{ACAD_XDICTIONARY
360
A182E
102
}
330
2
100
AcDbSymbolTableRecord
100
AcDbLayerTableRecord
  2
実線
 70
     0
 62
     7
  6
CONTINUOUS
370
    30
390
73E
  0
LAYER
  5
1522
102
{ACAD_XDICTIONARY
360
A1830
102
}
330
2
100
AcDbSymbolTableRecord
100
AcDbLayerTableRecord
  2
隠れ線
 70
     0
 62
     7
  6
HIDDEN
370
    13
390
73E
  0
LAYER
  5
808B8
102
{ACAD_XDICTIONARY
360
A183E
102
}
330
2
100
AcDbSymbolTableRecord
100
AcDbLayerTableRecord
  2
破線
 70
     0
 62
     7
  6
HIDDEN
370
    13
390
73E
  0
LAYER
  5
89319
102
{ACAD_XDICTIONARY
360
A1864
102
}
330
2
100
AcDbSymbolTableRecord
100
AcDbLayerTableRecord
  2
ハッチング
 70
     0
 62
     7
  6
CONTINUOUS
370
     5
390
73E
  0
ENDTAB
  0
TABLE
  2
STYLE
  5
3
330
0
100
AcDbSymbolTable
 70
     6
  0
STYLE
  5
F
330
3
100
AcDbSymbolTableRecord
100
AcDbTextStyleTableRecord
  2
STANDARD
 70
     0
 40
0.0
 41
1.0
 50
0.0
 71
     0
 42
2.5
  3
simplex.shx
  4
bigfont.shx
  0
STYLE
  5
34
330
3
100
AcDbSymbolTableRecord
100
AcDbTextStyleTableRecord
  2
TIMESNR
 70
     0
 40
0.0
 41
1.0
 50
0.0
 71
     0
 42
2.0
  3
times.ttf
  4

1001
ACAD
1000
Times New Roman
1071
       18
  0
STYLE
  5
8D7
330
3
100
AcDbSymbolTableRecord
100
AcDbTextStyleTableRecord
  2
MS\U+FF7A\U+FF9E\U+FF7C\U+FF6F\U+FF78-0
 70
     0
 40
0.0
 41
1.0
 50
0.0
 71
     0
 42
4.0
  3
simplex.shx
  4
bigfont.shx
  0
STYLE
  5
1529
330
3
100
AcDbSymbolTableRecord
100
AcDbTextStyleTableRecord
  2
まこ
 70
     0
 40
0.0
 41
1.0
 50
0.0
 71
     0
 42
3.2
  3
simplex.shx
  4
bigfont.shx
  0
STYLE
  5
1A5A7
330
3
100
AcDbSymbolTableRecord
100
AcDbTextStyleTableRecord
  2
MS\U+FF7A\U+FF9E\U+FF7C\U+FF6F\U+FF78N
 70
     0
 40
0.0
 41
1.0
 50
0.0
 71
     0
 42
5.0
  3

  4

1001
ACAD
1000
MS Gothic
1071
    32817
  0
STYLE
  5
80335
330
3
100
AcDbSymbolTableRecord
100
AcDbTextStyleTableRecord
  2
\U+FF7D\U+FF80\U+FF72\U+FF991
 70
     0
 40
0.0
 41
1.0
 50
0.0
 71
     0
 42
3.2
  3
simplex.shx
  4
extfont.shx
  0
ENDTAB
  0
TABLE
  2
VIEW
  5
6
330
0
100
AcDbSymbolTable
 70
     0
  0
ENDTAB
  0
TABLE
  2
UCS
  5
7
330
0
100
AcDbSymbolTable
 70
     0
  0
ENDTAB
  0
TABLE
  2
APPID
  5
9
330
0
100
AcDbSymbolTable
 70
    11
  0
APPID
  5
10
330
9
100
AcDbSymbolTableRecord
100
AcDbRegAppTableRecord
  2
ACAD
 70
     0
  0
APPID
  5
8F5A1
330
9
100
AcDbSymbolTableRecord
100
AcDbRegAppTableRecord
  2
ACAD_NAV_VCDISPLAY
 70
     0
  0
APPID
  5
9D2AC
330
9
100
AcDbSymbolTableRecord
100
AcDbRegAppTableRecord
  2
ACAD_EXEMPT_FROM_CAD_STANDARDS
 70
     0
  0
APPID
  5
9F5CA
330
9
100
AcDbSymbolTableRecord
100
AcDbRegAppTableRecord
  2
ACAD_DSTYLE_DIMRADIAL_EXTENSION
 70
     0
  0
APPID
  5
9F624
330
9
100
AcDbSymbolTableRecord
100
AcDbRegAppTableRecord
  2
AcadAnnoMonitorAlertIconDisabled
 70
     0
  0
APPID
  5
A2043
330
9
100
AcDbSymbolTableRecord
100
AcDbRegAppTableRecord
  2
ACAD_MLEADERVER
 70
     0
  0
APPID
  5
A2088
330
9
100
AcDbSymbolTableRecord
100
AcDbRegAppTableRecord
  2
ACAD_DSTYLE_DIMFLIPARROW_WHICH_SYMBOL
 70
     0
  0
APPID
  5
B7063
330
9
100
AcDbSymbolTableRecord
100
AcDbRegAppTableRecord
  2
ACAD_PSEXT
 70
     0
  0
APPID
  5
B7334
330
9
100
AcDbSymbolTableRecord
100
AcDbRegAppTableRecord
  2
ACAD_DSTYLE_DIMFLIPARROW_SYMBOL
 70
     0
  0
APPID
  5
B7534
330
9
100
AcDbSymbolTableRecord
100
AcDbRegAppTableRecord
  2
PE_CLOUD
 70
     0
  0
APPID
  5
B7D87
330
9
100
AcDbSymbolTableRecord
100
AcDbRegAppTableRecord
  2
TB_S_MPD
 70
     0
  0
ENDTAB
  0
TABLE
  2
DIMSTYLE
  5
A
330
0
100
AcDbSymbolTable
 70
     1
100
AcDbDimStyleTable
 71
     0
  0
DIMSTYLE
105
8264
330
A
100
AcDbSymbolTableRecord
100
AcDbDimStyleTableRecord
  2
まこ-10
 70
     0
 40
2.0
 41
2.5
 42
1.0
 44
0.8
 73
     0
 74
     0
 77
     3
 78
     8
 79
     2
140
2.5
141
0.0
147
0.5
176
     4
177
     4
178
   256
179
     5
271
     5
272
     5
289
     1
340
8D7
341
89E
342
89E
371
    13
372
    13
  0
ENDTAB
  0
TABLE
  2
BLOCK_RECORD
  5
1
330
0
100
AcDbSymbolTable
 70
     2
  0
BLOCK_RECORD
  5
18
102
{ACAD_XDICTIONARY
360
9F677
102
}
330
1
100
AcDbSymbolTableRecord
100
AcDbBlockTableRecord
  2
*MODEL_SPACE
340
741
  0
BLOCK_RECORD
  5
B87BC
330
1
100
AcDbSymbolTableRecord
100
AcDbBlockTableRecord
  2
*Paper_Space
340
B87BD
  0
BLOCK_RECORD
  5
89E
330
1
100
AcDbSymbolTableRecord
100
AcDbBlockTableRecord
  2
_Open30
340
0
  0
BLOCK_RECORD
  5
11C3
330
1
100
AcDbSymbolTableRecord
100
AcDbBlockTableRecord
  2
_DatumFilled
340
0
102
{BLKREFS
331
A4A28
331
A4A29
102
}
  0
ENDTAB
  0
ENDSEC
  0
SECTION
  2
BLOCKS
  0
BLOCK
  5
19
330
18
100
AcDbEntity
  8
0
100
AcDbBlockBegin
  2
*MODEL_SPACE
 70
     0
 10
0.0
 20
0.0
 30
0.0
  3
*MODEL_SPACE
  1

  0
ENDBLK
  5
1A
330
18
100
AcDbEntity
  8
0
100
AcDbBlockEnd
  0
BLOCK
  5
B87BE
330
B87BC
100
AcDbEntity
 67
     1
  8
0
100
AcDbBlockBegin
  2
*Paper_Space
 70
     0
 10
0.0
 20
0.0
 30
0.0
  3
*Paper_Space
  1

  0
ENDBLK
  5
B87BF
330
B87BC
100
AcDbEntity
 67
     1
  8
0
100
AcDbBlockEnd
  0
BLOCK
  5
8A2
330
89E
100
AcDbEntity
  8
0
100
AcDbBlockBegin
  2
_Open30
 70
     0
 10
0.0
 20
0.0
 30
0.0
  3
_Open30
  1

  0
LINE
  5
89F
330
89E
100
AcDbEntity
  8
0
  6
ByBlock
 62
     0
370
    -2
100
AcDbLine
 10
-1.0
 20
0.26794919
 30
0.0
 11
0.0
 21
0.0
 31
0.0
  0
LINE
  5
8A0
330
89E
100
AcDbEntity
  8
0
  6
ByBlock
 62
     0
370
    -2
100
AcDbLine
 10
0.0
 20
0.0
 30
0.0
 11
-1.0
 21
-0.26794919
 31
0.0
  0
LINE
  5
8A1
330
89E
100
AcDbEntity
  8
0
  6
ByBlock
 62
     0
370
    -2
100
AcDbLine
 10
0.0
 20
0.0
 30
0.0
 11
-1.0
 21
0.0
 31
0.0
  0
ENDBLK
  5
8A3
330
89E
100
AcDbEntity
  8
0
100
AcDbBlockEnd
  0
BLOCK
  5
11C5
330
11C3
100
AcDbEntity
  8
0
100
AcDbBlockBegin
  2
_DatumFilled
 70
     0
 10
0.0
 20
0.0
 30
0.0
  3
_DatumFilled
  1

  0
SOLID
  5
11C4
330
11C3
100
AcDbEntity
  8
0
  6
ByBlock
 62
     0
100
AcDbTrace
 10
0.0
 20
0.5773502700000001
 30
0.0
 11
-1.0
 21
0.0
 31
0.0
 12
0.0
 22
-0.5773502700000001
 32
0.0
 13
0.0
 23
-0.5773502700000001
 33
0.0
  0
ENDBLK
  5
11C6
330
11C3
100
AcDbEntity
  8
0
100
AcDbBlockEnd
  0
ENDSEC
  0
SECTION
  2
ENTITIES
  0
LINE
  5
A2513
330
18
100
AcDbEntity
  8
実線
100
AcDbLine
 10
5841.435919578749
 20
-4087.540789678561
 30
0.0
 11
5841.435919578749
 21
-4067.54078967856
 31
0.0
  0
LINE
  5
A2515
330
18
100
AcDbEntity
  8
実線
100
AcDbLine
 10
5841.435919578749
 20
-4067.54078967856
 30
0.0
 11
5841.435919578749
 21
-4021.840789678559
 31
0.0
  0
LINE
  5
A2549
330
18
100
AcDbEntity
  8
実線
100
AcDbLine
 10
5688.935919578748
 20
-4087.540789678561
 30
0.0
 11
5736.435919839498
 21
-4087.54079170514
 31
0.0
  0
LINE
  5
A2553
330
18
100
AcDbEntity
  8
中心線
 48
0.5
100
AcDbLine
 10
5768.935919578748
 20
-4089.540789678561
 30
0.0
 11
5768.935919578749
 21
-4014.540789380538
 31
0.0
  0
LINE
  5
A2559
330
18
100
AcDbEntity
  8
実線
100
AcDbLine
 10
5689.435919578749
 20
-4021.34078967856
 30
0.0
 11
5840.93591957875
 21
-4021.34078967856
 31
0.0
  0
LINE
  5
A255B
330
18
100
AcDbEntity
  8
実線
100
AcDbLine
 10
5688.935919578749
 20
-4087.540789678561
 30
0.0
 11
5688.935919578749
 21
-4021.840789678559
 31
0.0
  0
LINE
  5
A261C
330
18
100
AcDbEntity
  8
実線
100
AcDbLine
 10
5733.935919429738
 20
-4020.840789678557
 30
0.0
 11
5733.935919429738
 21
-4019.540788009632
 31
0.0
  0
LINE
  5
A261D
330
18
100
AcDbEntity
  8
実線
100
AcDbLine
 10
5733.935919429738
 20
-4019.540788009632
 30
0.0
 11
5799.334862828833
 21
-4019.540788009632
 31
0.0
  0
LINE
  5
A261E
330
18
100
AcDbEntity
  8
実線
100
AcDbLine
 10
5738.935919161497
 20
-4019.140789406637
 30
0.0
 11
5738.935920040109
 21
-4017.040788501927
 31
0.0
  0
LINE
  5
A261F
330
18
100
AcDbEntity
  8
実線
100
AcDbLine
 10
5739.435919161497
 20
-4016.540789380539
 30
0.0
 11
5798.435919996002
 21
-4016.540789380539
 31
0.0
  0
LINE
  5
A262F
330
18
100
AcDbEntity
  8
中心線
100
AcDbLine
 10
5793.935919578751
 20
-4016.540789380539
 30
0.0
 11
5793.935919578751
 21
-4015.54078938054
 31
0.0
  0
LINE
  5
A2635
330
18
100
AcDbEntity
  8
実線
100
AcDbLine
 10
5803.935919727761
 20
-4019.540788009632
 30
0.0
 11
5803.935919727761
 21
-4020.840789678558
 31
0.0
  0
LINE
  5
A2636
330
18
100
AcDbEntity
  8
実線
100
AcDbLine
 10
5799.334862828833
 20
-4019.540788009632
 30
0.0
 11
5803.935919727761
 21
-4019.540788009632
 31
0.0
  0
LINE
  5
A2637
330
18
100
AcDbEntity
  8
実線
100
AcDbLine
 10
5798.935918908197
 20
-4017.040788292734
 30
0.0
 11
5798.935919996002
 21
-4019.140789406637
 31
0.0
  0
LINE
  5
A2664
330
18
100
AcDbEntity
  8
中心線
100
AcDbLine
 10
5743.935919578747
 20
-4016.540789380539
 30
0.0
 11
5743.935919578747
 21
-4015.54078938054
 31
0.0
  0
LINE
  5
A2854
330
18
100
AcDbEntity
  8
実線
100
AcDbLine
 10
5689.935919586329
 20
-4020.840789678561
 30
0.0
 11
5733.435919578749
 21
-4020.840789678557
 31
0.0
  0
LINE
  5
A2855
330
18
100
AcDbEntity
  8
実線
100
AcDbLine
 10
5733.435919578749
 20
-4020.840789678557
 30
0.0
 11
5840.435919570716
 21
-4020.840789678558
 31
0.0
  0
LINE
  5
A2856
330
18
100
AcDbEntity
  8
実線
100
AcDbLine
 10
5689.935919586329
 20
-4020.840789678558
 30
0.0
 11
5689.935919586329
 21
-4021.34078967856
 31
0.0
  0
LINE
  5
A2859
330
18
100
AcDbEntity
  8
実線
100
AcDbLine
 10
5840.435919570719
 20
-4020.840789678558
 30
0.0
 11
5840.435919570716
 21
-4021.34078967856
 31
0.0
  0
LINE
  5
A291B
330
18
100
AcDbEntity
  8
実線
100
AcDbLine
 10
5688.935919578749
 20
-4026.036101164642
 30
0.0
 11
5688.935919578749
 21
-4043.343701164642
 31
0.0
  0
LINE
  5
A2B11
330
18
100
AcDbEntity
  8
中心線
 48
0.5
100
AcDbLine
 10
5662.994122159194
 20
-4034.68990106906
 30
0.0
 11
5691.426554994182
 21
-4034.68990106906
 31
0.0
  0
LINE
  5
A2B44
330
18
100
AcDbEntity
  8
実線
100
AcDbLine
 10
5670.93591957875
 20
-4043.34370106906
 30
0.0
 11
5666.93591957875
 21
-4039.987302544351
 31
0.0
  0
LINE
  5
A2B45
330
18
100
AcDbEntity
  8
実線
100
AcDbLine
 10
5683.93591957875
 20
-4043.34370106906
 30
0.0
 11
5683.93591957875
 21
-4026.03610106906
 31
0.0
  0
LINE
  5
A2B46
330
18
100
AcDbEntity
  8
実線
100
AcDbLine
 10
5678.93591957875
 20
-4043.34370106906
 30
0.0
 11
5678.93591957875
 21
-4026.03610106906
 31
0.0
  0
LINE
  5
A2B47
330
18
100
AcDbEntity
  8
実線
100
AcDbLine
 10
5666.93591957875
 20
-4039.987302544351
 30
0.0
 11
5666.93591957875
 21
-4029.392499593769
 31
0.0
  0
ARC
  5
A2B48
330
18
100
AcDbEntity
  8
実線
100
AcDbCircle
 10
5678.93591957875
 20
-4034.68990106906
 30
0.0
 40
8.0
100
AcDbArc
 50
153.5214655209415
 51
206.4785344790584
  0
LINE
  5
A2B49
330
18
100
AcDbEntity
  8
実線
100
AcDbLine
 10
5670.93591957875
 20
-4043.34370106906
 30
0.0
 11
5670.93591957875
 21
-4026.03610106906
 31
0.0
  0
LINE
  5
A2B4A
330
18
100
AcDbEntity
  8
実線
100
AcDbLine
 10
5683.93591957875
 20
-4040.689902330695
 30
0.0
 11
5678.93591957875
 21
-4040.689903592329
 31
0.0
  0
LINE
  5
A2B4B
330
18
100
AcDbEntity
  8
実線
100
AcDbLine
 10
5671.775107865683
 20
-4038.256801069059
 30
0.0
 11
5671.775107865683
 21
-4039.77680106906
 31
0.0
  0
LINE
  5
A2B4C
330
18
100
AcDbEntity
  8
実線
100
AcDbLine
 10
5678.93591957875
 20
-4039.77680106906
 30
0.0
 11
5671.775107865683
 21
-4039.77680106906
 31
0.0
  0
LINE
  5
A2B4D
330
18
100
AcDbEntity
  8
実線
100
AcDbLine
 10
5678.93591957875
 20
-4038.256801069059
 30
0.0
 11
5671.775107865683
 21
-4038.256801069059
 31
0.0
  0
LINE
  5
A2B4E
330
18
100
AcDbEntity
  8
実線
100
AcDbLine
 10
5678.93591957875
 20
-4043.34370106906
 30
0.0
 11
5670.93591957875
 21
-4043.34370106906
 31
0.0
  0
ARC
  5
A2B4F
330
18
100
AcDbEntity
  8
実線
100
AcDbCircle
 10
5678.93591957875
 20
-4043.34370106906
 30
0.0
 40
8.0
100
AcDbArc
 50
153.5214655209415
 51
180.0
  0
LINE
  5
A2B50
330
18
100
AcDbEntity
  8
実線
100
AcDbLine
 10
5688.93591957875
 20
-4039.77680106906
 30
0.0
 11
5683.93591957875
 21
-4039.77680106906
 31
0.0
  0
LINE
  5
A2B51
330
18
100
AcDbEntity
  8
実線
100
AcDbLine
 10
5688.93591957875
 20
-4038.256801069059
 30
0.0
 11
5683.93591957875
 21
-4038.256801069059
 31
0.0
  0
LINE
  5
A2B52
330
18
100
AcDbEntity
  8
実線
100
AcDbLine
 10
5688.93591957875
 20
-4043.34370106906
 30
0.0
 11
5683.93591957875
 21
-4043.34370106906
 31
0.0
  0
ARC
  5
A2B53
330
18
100
AcDbEntity
  8
実線
100
AcDbCircle
 10
5678.93591957875
 20
-4026.03610106906
 30
0.0
 40
8.0
100
AcDbArc
 50
180.0
 51
206.4785344790584
  0
LINE
  5
A2B54
330
18
100
AcDbEntity
  8
実線
100
AcDbLine
 10
5670.93591957875
 20
-4026.03610106906
 30
0.0
 11
5666.93591957875
 21
-4029.392499593769
 31
0.0
  0
LINE
  5
A2B55
330
18
100
AcDbEntity
  8
実線
100
AcDbLine
 10
5671.775107865683
 20
-4029.60300106906
 30
0.0
 11
5671.775107865683
 21
-4031.12300106906
 31
0.0
  0
LINE
  5
A2B56
330
18
100
AcDbEntity
  8
実線
100
AcDbLine
 10
5678.93591957875
 20
-4031.12300106906
 30
0.0
 11
5671.775107865683
 21
-4031.12300106906
 31
0.0
  0
LINE
  5
A2B57
330
18
100
AcDbEntity
  8
実線
100
AcDbLine
 10
5678.93591957875
 20
-4029.60300106906
 30
0.0
 11
5671.775107865683
 21
-4029.60300106906
 31
0.0
  0
LINE
  5
A2B58
330
18
100
AcDbEntity
  8
実線
100
AcDbLine
 10
5678.93591957875
 20
-4026.03610106906
 30
0.0
 11
5670.93591957875
 21
-4026.03610106906
 31
0.0
  0
LINE
  5
A2B59
330
18
100
AcDbEntity
  8
実線
100
AcDbLine
 10
5688.93591957875
 20
-4029.60300106906
 30
0.0
 11
5683.93591957875
 21
-4029.60300106906
 31
0.0
  0
LINE
  5
A2B5A
330
18
100
AcDbEntity
  8
実線
100
AcDbLine
 10
5688.93591957875
 20
-4031.12300106906
 30
0.0
 11
5683.93591957875
 21
-4031.12300106906
 31
0.0
  0
LINE
  5
A2B5B
330
18
100
AcDbEntity
  8
実線
100
AcDbLine
 10
5688.93591957875
 20
-4026.03610106906
 30
0.0
 11
5683.93591957875
 21
-4026.03610106906
 31
0.0
  0
LINE
  5
A2B5D
330
18
100
AcDbEntity
  8
実線
100
AcDbLine
 10
5683.93591957875
 20
-4028.689902330692
 30
0.0
 11
5678.93591957875
 21
-4028.689903592325
 31
0.0
  0
LINE
  5
A362E
330
18
100
AcDbEntity
  8
実線
100
AcDbLine
 10
5824.43591957875
 20
-4067.540789678565
 30
0.0
 11
5841.435919578749
 21
-4067.54078967856
 31
0.0
  0
LINE
  5
A3656
330
18
100
AcDbEntity
  8
実線
100
AcDbLine
 10
5841.435919578749
 20
-4067.54078967856
 30
0.0
 11
5696.43591957875
 21
-4067.54078967856
 31
0.0
  0
LINE
  5
A3672
330
18
100
AcDbEntity
  8
実線
100
AcDbLine
 10
5696.435919578753
 20
-4087.540789678561
 30
0.0
 11
5696.435919578753
 21
-4021.34078967856
 31
0.0
  0
LINE
  5
A3679
330
18
100
AcDbEntity
  8
実線
100
AcDbLine
 10
5826.381546284625
 20
-4087.540789678561
 30
0.0
 11
5826.381546284625
 21
-4067.54078967856
 31
0.0
  0
LINE
  5
A367B
330
18
100
AcDbEntity
  8
実線
100
AcDbLine
 10
5711.490293113397
 20
-4087.540789678561
 30
0.0
 11
5711.490293113397
 21
-4067.54078967856
 31
0.0
  0
LINE
  5
A3692
330
18
100
AcDbEntity
  8
中心線
100
AcDbLine
 10
5793.935919578751
 20
-4026.872221979572
 30
0.0
 11
5793.935919578751
 21
-4013.540789380538
 31
0.0
  0
LINE
  5
A3693
330
18
100
AcDbEntity
  8
中心線
 48
0.5
100
AcDbLine
 10
5743.935919578747
 20
-4026.872221979572
 30
0.0
 11
5743.935919578747
 21
-4013.540789380538
 31
0.0
  0
ARC
  5
A3796
330
18
100
AcDbEntity
  8
実線
 48
2.0
100
AcDbCircle
 10
5799.335919996002
 20
-4019.140789406637
 30
0.0
 40
0.4000000000000057
100
AcDbArc
 50
180.0
 51
270.0
  0
LINE
  5
A3797
330
18
100
AcDbEntity
  8
実線
100
AcDbLine
 10
5798.435919996002
 20
-4016.540789380539
 30
0.0
 11
5798.935919996002
 21
-4017.040789380539
 31
0.0
  0
ARC
  5
A3798
330
18
100
AcDbEntity
  8
実線
 48
2.0
100
AcDbCircle
 10
5738.535919161497
 20
-4019.140789406637
 30
0.0
 40
0.4000000000000057
100
AcDbArc
 50
270.0
 51
0.0
  0
LINE
  5
A3799
330
18
100
AcDbEntity
  8
実線
100
AcDbLine
 10
5739.435919161497
 20
-4016.540789380539
 30
0.0
 11
5738.935919161497
 21
-4017.040789380539
 31
0.0
  0
ARC
  5
A49A6
330
18
100
AcDbEntity
  8
実線
100
AcDbCircle
 10
5839.435919578757
 20
-3804.057071009087
 30
0.0
 40
2.000000000000053
100
AcDbArc
 50
0.0
 51
38.83038783556879
  0
ARC
  5
A49A7
330
18
100
AcDbEntity
  8
実線
100
AcDbCircle
 10
5825.680963415198
 20
-3790.302114845532
 30
0.0
 40
1.999999999999993
100
AcDbArc
 50
51.16961216431779
 51
90.0
  0
CIRCLE
  5
A49A8
330
18
100
AcDbEntity
  8
実線
100
AcDbCircle
 10
5827.272229026647
 20
-3802.465805397642
 30
0.0
 40
6.0
  0
CIRCLE
  5
A49A9
330
18
100
AcDbEntity
  8
実線
100
AcDbCircle
 10
5827.272229026647
 20
-3802.465805397642
 30
0.0
 40
3.500000000000056
  0
SPLINE
  5
A49AA
330
18
100
AcDbEntity
  8
実線
100
AcDbSpline
210
0.0
220
0.0
230
1.0
 70
    24
 71
     3
 72
    10
 73
     6
 74
     0
 42
0.000000001
 43
0.0000000001
 40
0.0
 40
0.0
 40
0.0
 40
0.0
 40
0.5
 40
0.5
 40
1.0
 40
1.0
 40
1.0
 40
1.0
 10
5841.435919578755
 20
-3833.783602673319
 30
0.0
 10
5841.435919578755
 20
-3834.876955196497
 30
0.0
 10
5841.435919578755
 20
-3835.967148110898
 30
0.0
 10
5841.435919578755
 20
-3838.142867144736
 30
0.0
 10
5841.435919578755
 20
-3839.228378809914
 30
0.0
 10
5841.435919578755
 20
-3840.312084788261
 30
0.0
  0
SPLINE
  5
A49AB
330
18
100
AcDbEntity
  8
実線
100
AcDbSpline
210
0.0
220
0.0
230
1.0
 70
    24
 71
     3
 72
    12
 73
     8
 74
     0
 42
0.000000001
 43
0.0000000001
 40
0.0
 40
0.0
 40
0.0
 40
0.0
 40
0.249999999999999
 40
0.249999999999999
 40
0.4999999999999981
 40
0.4999999999999981
 40
1.0
 40
1.0
 40
1.0
 40
1.0
 10
5841.435919578755
 20
-3840.312084788261
 30
0.0
 10
5841.435919578755
 20
-3842.011789666296
 30
0.0
 10
5841.435919578755
 20
-3843.716343243155
 30
0.0
 10
5841.435919578755
 20
-3847.128630345009
 30
0.0
 10
5841.435919578755
 20
-3848.836622254066
 30
0.0
 10
5841.435919578755
 20
-3853.962822716338
 30
0.0
 10
5841.435919578755
 20
-3857.383269244551
 30
0.0
 10
5841.435919578755
 20
-3860.802114845532
 30
0.0
  0
LINE
  5
A49AC
330
18
100
AcDbEntity
  8
実線
100
AcDbLine
 10
5841.435912685313
 20
-3804.057071146983
 30
0.0
 11
5841.435912685313
 21
-3833.783606228848
 31
0.0
  0
SPLINE
  5
A49AD
330
18
100
AcDbEntity
  8
実線
100
AcDbSpline
210
0.0
220
0.0
230
1.0
 70
    24
 71
     3
 72
    10
 73
     6
 74
     0
 42
0.000000001
 43
0.0000000001
 40
0.0
 40
0.0
 40
0.0
 40
0.0
 40
0.5
 40
0.5
 40
1.0
 40
1.0
 40
1.0
 40
1.0
 10
5841.435919578755
 20
-3881.292144902806
 30
0.0
 10
5841.435919578755
 20
-3882.375850881148
 30
0.0
 10
5841.435919578755
 20
-3883.46136254633
 30
0.0
 10
5841.435919578755
 20
-3885.637081580166
 30
0.0
 10
5841.435919578755
 20
-3886.72727449457
 30
0.0
 10
5841.435919578755
 20
-3887.820627017744
 30
0.0
  0
ARC
  5
A49AE
330
18
100
AcDbEntity
  8
実線
100
AcDbCircle
 10
5839.435919578757
 20
-3917.547158681977
 30
0.0
 40
2.000000000000026
100
AcDbArc
 50
321.1696121644312
 51
0.0
  0
CIRCLE
  5
A49AF
330
18
100
AcDbEntity
  8
実線
100
AcDbCircle
 10
5827.272229026647
 20
-3919.138424293422
 30
0.0
 40
6.0
  0
CIRCLE
  5
A49B0
330
18
100
AcDbEntity
  8
実線
100
AcDbCircle
 10
5827.272229026647
 20
-3919.138424293422
 30
0.0
 40
3.499999999999971
  0
LINE
  5
A49B1
330
18
100
AcDbEntity
  8
実線
100
AcDbLine
 10
5841.435912685313
 20
-3887.820625839251
 30
0.0
 11
5841.435912685313
 21
-3917.547160921117
 31
0.0
  0
ARC
  5
A49B2
330
18
100
AcDbEntity
  8
実線
100
AcDbCircle
 10
5825.680963415198
 20
-3931.302114845532
 30
0.0
 40
2.000000000000014
100
AcDbArc
 50
270.0
 51
308.8303878356822
  0
SPLINE
  5
A49B3
330
18
100
AcDbEntity
  8
実線
100
AcDbSpline
210
0.0
220
0.0
230
1.0
 70
    24
 71
     3
 72
    12
 73
     8
 74
     0
 42
0.000000001
 43
0.0000000001
 40
0.0
 40
0.0
 40
0.0
 40
0.0
 40
0.25
 40
0.25
 40
0.5
 40
0.5
 40
1.0
 40
1.0
 40
1.0
 40
1.0
 10
5841.435919578755
 20
-3881.292144902806
 30
0.0
 10
5841.435919578755
 20
-3879.592695712354
 30
0.0
 10
5841.435919578755
 20
-3877.888123320288
 30
0.0
 10
5841.435919578755
 20
-3874.475615634383
 30
0.0
 10
5841.435919578755
 20
-3872.767355257622
 30
0.0
 10
5841.435919578755
 20
-3867.641299389101
 30
0.0
 10
5841.435919578755
 20
-3864.22105878601
 30
0.0
 10
5841.435919578755
 20
-3860.802114845532
 30
0.0
  0
SPLINE
  5
A49B4
330
18
100
AcDbEntity
  8
実線
100
AcDbSpline
210
0.0
220
0.0
230
1.0
 70
    24
 71
     3
 72
    10
 73
     6
 74
     0
 42
0.000000001
 43
0.0000000001
 40
0.0
 40
0.0
 40
0.0
 40
0.0
 40
0.5
 40
0.5
 40
1.0
 40
1.0
 40
1.0
 40
1.0
 10
5789.425949636028
 20
-3788.302114845534
 30
0.0
 10
5790.509655614374
 20
-3788.302114845534
 30
0.0
 10
5791.595167279553
 20
-3788.302114845534
 30
0.0
 10
5793.770886313389
 20
-3788.302114845534
 30
0.0
 10
5794.861079227792
 20
-3788.302114845534
 30
0.0
 10
5795.954431750969
 20
-3788.302114845534
 30
0.0
  0
SPLINE
  5
A49B5
330
18
100
AcDbEntity
  8
実線
100
AcDbSpline
210
0.0
220
0.0
230
1.0
 70
    24
 71
     3
 72
    10
 73
     6
 74
     0
 42
0.000000001
 43
0.0000000001
 40
0.0
 40
0.0
 40
0.0
 40
0.0
 40
0.5
 40
0.5
 40
1.0
 40
1.0
 40
1.0
 40
1.0
 10
5741.917407406543
 20
-3788.302114845534
 30
0.0
 10
5743.01075992972
 20
-3788.302114845534
 30
0.0
 10
5744.100952844124
 20
-3788.302114845534
 30
0.0
 10
5746.276671877957
 20
-3788.302114845534
 30
0.0
 10
5747.362183543139
 20
-3788.302114845534
 30
0.0
 10
5748.445889521486
 20
-3788.302114845534
 30
0.0
  0
SPLINE
  5
A49B6
330
18
100
AcDbEntity
  8
実線
100
AcDbSpline
210
0.0
220
0.0
230
1.0
 70
    24
 71
     3
 72
    12
 73
     8
 74
     0
 42
0.000000001
 43
0.0000000001
 40
0.0
 40
0.0
 40
0.0
 40
0.0
 40
0.25
 40
0.25
 40
0.5
 40
0.5
 40
1.0
 40
1.0
 40
1.0
 40
1.0
 10
5748.445889521486
 20
-3788.302114845534
 30
0.0
 10
5750.145594399519
 20
-3788.302114845534
 30
0.0
 10
5751.850147976381
 20
-3788.302114845534
 30
0.0
 10
5755.262435078233
 20
-3788.302114845534
 30
0.0
 10
5756.970426987292
 20
-3788.302114845534
 30
0.0
 10
5762.096627449562
 20
-3788.302114845534
 30
0.0
 10
5765.517073977801
 20
-3788.302114845534
 30
0.0
 10
5768.935919578757
 20
-3788.302114845534
 30
0.0
  0
SPLINE
  5
A49B7
330
18
100
AcDbEntity
  8
実線
100
AcDbSpline
210
0.0
220
0.0
230
1.0
 70
    24
 71
     3
 72
    12
 73
     8
 74
     0
 42
0.000000001
 43
0.0000000001
 40
0.0
 40
0.0
 40
0.0
 40
0.0
 40
0.2499999999999995
 40
0.2499999999999995
 40
0.4999999999999991
 40
0.4999999999999991
 40
1.0
 40
1.0
 40
1.0
 40
1.0
 10
5789.425949636028
 20
-3788.302114845534
 30
0.0
 10
5787.726500445578
 20
-3788.302114845534
 30
0.0
 10
5786.021928053514
 20
-3788.302114845534
 30
0.0
 10
5782.609420367605
 20
-3788.302114845534
 30
0.0
 10
5780.901159990845
 20
-3788.302114845534
 30
0.0
 10
5775.775104122324
 20
-3788.302114845534
 30
0.0
 10
5772.354863519229
 20
-3788.302114845534
 30
0.0
 10
5768.935919578757
 20
-3788.302114845534
 30
0.0
  0
ARC
  5
A49B8
330
18
100
AcDbEntity
  8
実線
100
AcDbCircle
 10
5712.190875742312
 20
-3790.302114845532
 30
0.0
 40
2.000000000000056
100
AcDbArc
 50
90.0
 51
128.8303878356822
  0
CIRCLE
  5
A49B9
330
18
100
AcDbEntity
  8
実線
100
AcDbCircle
 10
5710.599610130866
 20
-3802.465805397642
 30
0.0
 40
3.500000000000056
  0
ARC
  5
A49BA
330
18
100
AcDbEntity
  8
実線
100
AcDbCircle
 10
5698.435919578757
 20
-3804.057071009087
 30
0.0
 40
2.000000000000053
100
AcDbArc
 50
141.1696121644312
 51
180.0
  0
LINE
  5
A49BB
330
18
100
AcDbEntity
  8
実線
100
AcDbLine
 10
5696.435919651604
 20
-3830.802122292536
 30
0.0
 11
5696.435919651606
 21
-3804.057071146983
 31
0.0
  0
CIRCLE
  5
A49BC
330
18
100
AcDbEntity
  8
実線
100
AcDbCircle
 10
5710.599610130866
 20
-3802.465805397642
 30
0.0
 40
6.0
  0
ARC
  5
A49BD
330
18
100
AcDbEntity
  8
実線
100
AcDbCircle
 10
5701.658508808128
 20
-3828.802114845532
 30
0.0
 40
2.00000000000007
100
AcDbArc
 50
270.0
 51
334.5622507631953
  0
ARC
  5
A49BE
330
18
100
AcDbEntity
  8
実線
100
AcDbCircle
 10
5696.134820685951
 20
-3832.802114845532
 30
0.0
 40
1.999999999999998
100
AcDbArc
 50
90.0
 51
158.962778743956
  0
LINE
  5
A49BF
330
18
100
AcDbEntity
  8
実線
100
AcDbLine
 10
5696.134820269265
 20
-3830.802122292536
 30
0.0
 11
5701.658509360471
 21
-3830.802122292536
 31
0.0
  0
LINE
  5
A49C0
330
18
100
AcDbEntity
  8
実線
100
AcDbLine
 10
5712.190875472345
 20
-3788.302118120211
 30
0.0
 11
5741.917408691564
 21
-3788.302118120211
 31
0.0
  0
SPLINE
  5
A49C1
330
18
100
AcDbEntity
  8
実線
100
AcDbSpline
210
0.0
220
0.0
230
1.0
 70
    24
 71
     3
 72
    10
 73
     6
 74
     0
 42
0.000000001
 43
0.0000000001
 40
0.0
 40
0.0
 40
0.0
 40
0.0
 40
0.5
 40
0.5
 40
1.0
 40
1.0
 40
1.0
 40
1.0
 10
5795.954431750969
 20
-3933.302114845531
 30
0.0
 10
5794.861079227792
 20
-3933.302114845531
 30
0.0
 10
5793.770886313389
 20
-3933.302114845531
 30
0.0
 10
5791.595167279553
 20
-3933.302114845531
 30
0.0
 10
5790.509655614374
 20
-3933.302114845531
 30
0.0
 10
5789.425949636028
 20
-3933.302114845531
 30
0.0
  0
SPLINE
  5
A49C2
330
18
100
AcDbEntity
  8
実線
100
AcDbSpline
210
0.0
220
0.0
230
1.0
 70
    24
 71
     3
 72
    10
 73
     6
 74
     0
 42
0.000000001
 43
0.0000000001
 40
0.0
 40
0.0
 40
0.0
 40
0.0
 40
0.5
 40
0.5
 40
1.0
 40
1.0
 40
1.0
 40
1.0
 10
5748.445889521486
 20
-3933.302114845531
 30
0.0
 10
5747.362183543139
 20
-3933.302114845531
 30
0.0
 10
5746.276671877957
 20
-3933.302114845531
 30
0.0
 10
5744.100952844124
 20
-3933.302114845531
 30
0.0
 10
5743.01075992972
 20
-3933.302114845531
 30
0.0
 10
5741.917407406543
 20
-3933.302114845531
 30
0.0
  0
SPLINE
  5
A49C3
330
18
100
AcDbEntity
  8
実線
100
AcDbSpline
210
0.0
220
0.0
230
1.0
 70
    24
 71
     3
 72
    12
 73
     8
 74
     0
 42
0.000000001
 43
0.0000000001
 40
0.0
 40
0.0
 40
0.0
 40
0.0
 40
0.25
 40
0.25
 40
0.5
 40
0.5
 40
1.0
 40
1.0
 40
1.0
 40
1.0
 10
5748.445889521486
 20
-3933.302114845531
 30
0.0
 10
5750.145338711934
 20
-3933.302114845531
 30
0.0
 10
5751.849911103999
 20
-3933.302114845531
 30
0.0
 10
5755.262418789906
 20
-3933.302114845531
 30
0.0
 10
5756.970679166666
 20
-3933.302114845531
 30
0.0
 10
5762.096735035187
 20
-3933.302114845531
 30
0.0
 10
5765.516975638281
 20
-3933.302114845531
 30
0.0
 10
5768.935919578757
 20
-3933.302114845531
 30
0.0
  0
SPLINE
  5
A49C4
330
18
100
AcDbEntity
  8
実線
100
AcDbSpline
210
0.0
220
0.0
230
1.0
 70
    24
 71
     3
 72
    12
 73
     8
 74
     0
 42
0.000000001
 43
0.0000000001
 40
0.0
 40
0.0
 40
0.0
 40
0.0
 40
0.25
 40
0.25
 40
0.5
 40
0.5
 40
1.0
 40
1.0
 40
1.0
 40
1.0
 10
5789.425949636028
 20
-3933.302114845531
 30
0.0
 10
5787.726244757994
 20
-3933.302114845531
 30
0.0
 10
5786.021691181134
 20
-3933.302114845531
 30
0.0
 10
5782.609404079282
 20
-3933.302114845531
 30
0.0
 10
5780.901412170223
 20
-3933.302114845531
 30
0.0
 10
5775.775211707951
 20
-3933.302114845531
 30
0.0
 10
5772.354765179745
 20
-3933.302114845531
 30
0.0
 10
5768.935919578757
 20
-3933.302114845531
 30
0.0
  0
CIRCLE
  5
A49C5
330
18
100
AcDbEntity
  8
実線
100
AcDbCircle
 10
5710.599610130866
 20
-3919.138424293422
 30
0.0
 40
3.500000000000014
  0
LINE
  5
A49C6
330
18
100
AcDbEntity
  8
実線
100
AcDbLine
 10
5701.658509360471
 20
-3890.802117226144
 30
0.0
 11
5696.134820269265
 21
-3890.802117226144
 31
0.0
  0
ARC
  5
A49C7
330
18
100
AcDbEntity
  8
実線
100
AcDbCircle
 10
5701.658508808128
 20
-3892.802114845532
 30
0.0
 40
1.999999999999995
100
AcDbArc
 50
25.43774923680475
 51
90.0
  0
ARC
  5
A49C8
330
18
100
AcDbEntity
  8
実線
100
AcDbCircle
 10
5696.134820685951
 20
-3888.802114845532
 30
0.0
 40
2.000000000000056
100
AcDbArc
 50
201.037221256044
 51
270.0
  0
ARC
  5
A49C9
330
18
100
AcDbEntity
  8
実線
100
AcDbCircle
 10
5698.435919578757
 20
-3917.547158681977
 30
0.0
 40
2.000000000000026
100
AcDbArc
 50
180.0
 51
218.8303878355688
  0
LINE
  5
A49CA
330
18
100
AcDbEntity
  8
実線
100
AcDbLine
 10
5696.435919651606
 20
-3917.547160921117
 30
0.0
 11
5696.435919651606
 21
-3890.802117226144
 31
0.0
  0
CIRCLE
  5
A49CB
330
18
100
AcDbEntity
  8
実線
100
AcDbCircle
 10
5710.599610130866
 20
-3919.138424293422
 30
0.0
 40
6.0
  0
ARC
  5
A49CC
330
18
100
AcDbEntity
  8
実線
100
AcDbCircle
 10
5712.190875742312
 20
-3931.302114845532
 30
0.0
 40
2.000000000000053
100
AcDbArc
 50
231.1696121643178
 51
270.0
  0
LINE
  5
A49CD
330
18
100
AcDbEntity
  8
実線
100
AcDbLine
 10
5741.917408691564
 20
-3933.302113947886
 30
0.0
 11
5712.190875472345
 21
-3933.302113947886
 31
0.0
  0
ARC
  5
A49CE
330
18
100
AcDbEntity
  8
実線
100
AcDbCircle
 10
5768.935919578757
 20
-3860.802114845532
 30
0.0
 40
80.00000000000044
100
AcDbArc
 50
158.962778743956
 51
201.037221256044
  0
ARC
  5
A49CF
330
18
100
AcDbEntity
  8
実線
100
AcDbCircle
 10
5768.935919578757
 20
-3860.802114845532
 30
0.0
 40
72.50000000000003
100
AcDbArc
 50
205.4377492368047
 51
154.5622507631953
  0
LINE
  5
A49D0
330
18
100
AcDbEntity
  8
実線
100
AcDbLine
 10
5825.680959658542
 20
-3933.302113947886
 30
0.0
 11
5795.954432027259
 21
-3933.302113947886
 31
0.0
  0
LINE
  5
A49D1
330
18
100
AcDbEntity
  8
実線
100
AcDbLine
 10
5795.954432027259
 20
-3788.302118120211
 30
0.0
 11
5825.680959658542
 21
-3788.302118120211
 31
0.0
  0
LINE
  5
A49D5
330
18
100
AcDbEntity
  8
中心線
 48
0.5
100
AcDbLine
 10
5768.935919578757
 20
-3941.741985845191
 30
0.0
 11
5768.935919578757
 21
-3777.785867089369
 31
0.0
  0
LINE
  5
A49D6
330
18
100
AcDbEntity
  8
中心線
100
AcDbLine
 10
5783.263846849457
 20
-3835.985418324723
 30
0.0
 11
5779.607993425646
 21
-3842.317541822366
 31
0.0
  0
LINE
  5
A49D7
330
18
100
AcDbEntity
  8
中心線
100
AcDbLine
 10
5797.591772839139
 20
-3860.802115585131
 30
0.0
 11
5790.280066318373
 21
-3860.802115396418
 31
0.0
  0
LINE
  5
A49D8
330
18
100
AcDbEntity
  8
中心線
100
AcDbLine
 10
5783.263845568438
 20
-3885.618812105942
 30
0.0
 11
5779.607992471486
 21
-3879.286688419587
 31
0.0
  0
LINE
  5
A49D9
330
18
100
AcDbEntity
  8
中心線
100
AcDbLine
 10
5754.607992308053
 20
-3885.618811366345
 30
0.0
 11
5758.263845731865
 21
-3879.286687868702
 31
0.0
  0
LINE
  5
A49DA
330
18
100
AcDbEntity
  8
中心線
100
AcDbLine
 10
5740.280066318375
 20
-3860.802114105938
 30
0.0
 11
5747.591772839141
 21
-3860.802114294651
 31
0.0
  0
LINE
  5
A49DB
330
18
100
AcDbEntity
  8
中心線
100
AcDbLine
 10
5754.607993589075
 20
-3835.985417585126
 30
0.0
 11
5758.263846686027
 21
-3842.317541271481
 31
0.0
  0
CIRCLE
  5
A49DC
330
18
100
AcDbEntity
  8
実線
100
AcDbCircle
 10
5756.435920137551
 20
-3839.151479428304
 30
0.0
 40
2.5
  0
CIRCLE
  5
A49DD
330
18
100
AcDbEntity
  8
実線
100
AcDbCircle
 10
5781.435920137553
 20
-3839.151480073542
 30
0.0
 40
2.5
  0
CIRCLE
  5
A49DE
330
18
100
AcDbEntity
  8
実線
100
AcDbCircle
 10
5793.93591957876
 20
-3860.802115490771
 30
0.0
 40
2.5
  0
CIRCLE
  5
A49DF
330
18
100
AcDbEntity
  8
実線
100
AcDbCircle
 10
5781.435919019962
 20
-3882.452750262766
 30
0.0
 40
2.5
  0
CIRCLE
  5
A49E0
330
18
100
AcDbEntity
  8
実線
100
AcDbCircle
 10
5756.435919019966
 20
-3882.452749617525
 30
0.0
 40
2.5
  0
CIRCLE
  5
A49E1
330
18
100
AcDbEntity
  8
実線
100
AcDbCircle
 10
5743.93591957876
 20
-3860.802114200295
 30
0.0
 40
2.5
  0
CIRCLE
  5
A49E2
330
18
100
AcDbEntity
  8
実線
100
AcDbCircle
 10
5768.935919578759
 20
-3860.802114845533
 30
0.0
 40
35.00000000000002
  0
CIRCLE
  5
A49E3
330
18
100
AcDbEntity
  8
実線
100
AcDbCircle
 10
5793.93591957876
 20
-3860.802114845533
 30
0.0
 40
2.099999999999984
  0
CIRCLE
  5
A49E4
330
18
100
AcDbEntity
  8
実線
100
AcDbCircle
 10
5768.935919578759
 20
-3860.802114845533
 30
0.0
 40
30.0
  0
CIRCLE
  5
A49E5
330
18
100
AcDbEntity
  8
中心線
 48
0.5
100
AcDbCircle
 10
5768.935919578759
 20
-3860.802114845533
 30
0.0
 40
25.0
  0
CIRCLE
  5
A49E6
330
18
100
AcDbEntity
  8
実線
100
AcDbCircle
 10
5768.935919578759
 20
-3860.802114845533
 30
0.0
 40
20.00000000000002
  0
CIRCLE
  5
A49E8
330
18
100
AcDbEntity
  8
実線
100
AcDbCircle
 10
5768.935919578759
 20
-3860.802114845533
 30
0.0
 40
9.5
  0
CIRCLE
  5
A49E9
330
18
100
AcDbEntity
  8
実線
100
AcDbCircle
 10
5781.435919578759
 20
-3882.452749940145
 30
0.0
 40
2.099999999999984
  0
CIRCLE
  5
A49EB
330
18
100
AcDbEntity
  8
実線
100
AcDbCircle
 10
5756.435919578759
 20
-3882.452749940145
 30
0.0
 40
2.099999999999984
  0
CIRCLE
  5
A49EC
330
18
100
AcDbEntity
  8
実線
100
AcDbCircle
 10
5743.93591957876
 20
-3860.802114845533
 30
0.0
 40
2.100000000000004
  0
CIRCLE
  5
A49EE
330
18
100
AcDbEntity
  8
実線
100
AcDbCircle
 10
5781.435919578759
 20
-3839.151479750923
 30
0.0
 40
2.100000000000004
  0
CIRCLE
  5
A49EF
330
18
100
AcDbEntity
  8
実線
100
AcDbCircle
 10
5756.435919578759
 20
-3839.151479750923
 30
0.0
 40
2.100000000000004
  0
ARC
  5
A49F0
330
18
100
AcDbEntity
  8
中心線
100
AcDbCircle
 10
5768.935919578759
 20
-3860.802114845533
 30
0.0
 40
82.50000000000364
100
AcDbArc
 50
127.0
 51
143.0
  0
LINE
  5
A49F1
330
18
100
AcDbEntity
  8
中心線
100
AcDbLine
 10
5704.162612500295
 20
-3796.028807767071
 30
0.0
 11
5717.036607761436
 21
-3808.902803028212
 31
0.0
  0
LINE
  5
A49F2
330
18
100
AcDbEntity
  8
中心線
100
AcDbLine
 10
5704.162612500295
 20
-3925.575421923999
 30
0.0
 11
5716.606773748266
 21
-3913.131260676031
 31
0.0
  0
ARC
  5
A49F3
330
18
100
AcDbEntity
  8
中心線
100
AcDbCircle
 10
5768.935919578759
 20
-3860.802114845536
 30
0.0
 40
82.50000000000364
100
AcDbArc
 50
217.0
 51
233.0
  0
LINE
  5
A49F4
330
18
100
AcDbEntity
  8
中心線
100
AcDbLine
 10
5833.709226657223
 20
-3925.575421923996
 30
0.0
 11
5821.508592707806
 21
-3913.374787974577
 31
0.0
  0
ARC
  5
A49F5
330
18
100
AcDbEntity
  8
中心線
100
AcDbCircle
 10
5768.935919578794
 20
-3860.802114845573
 30
0.0
 40
82.49999999995152
100
AcDbArc
 50
307.0
 51
323.0
  0
LINE
  5
A49F6
330
18
100
AcDbEntity
  8
中心線
100
AcDbLine
 10
5833.709226657223
 20
-3796.028807767071
 30
0.0
 11
5820.835231396079
 21
-3808.90280302821
 31
0.0
  0
ARC
  5
A49F7
330
18
100
AcDbEntity
  8
中心線
100
AcDbCircle
 10
5768.935919578759
 20
-3860.802114845533
 30
0.0
 40
82.50000000000364
100
AcDbArc
 50
37.0
 51
53.0
  0
LINE
  5
A49FA
330
18
100
AcDbEntity
  8
実線
100
AcDbLine
 10
5683.935919578757
 20
-3869.455914845534
 30
0.0
 11
5683.935919578757
 21
-3852.148314845534
 31
0.0
  0
LINE
  5
A49FB
330
18
100
AcDbEntity
  8
実線
100
AcDbLine
 10
5666.935919578758
 20
-3866.099516320825
 30
0.0
 11
5666.935919578758
 21
-3855.504713370243
 31
0.0
  0
ARC
  5
A49FC
330
18
100
AcDbEntity
  8
実線
100
AcDbCircle
 10
5678.935919578758
 20
-3860.802114845533
 30
0.0
 40
8.0
100
AcDbArc
 50
153.5214655209427
 51
206.4785344790573
  0
LINE
  5
A49FD
330
18
100
AcDbEntity
  8
実線
100
AcDbLine
 10
5670.935919578758
 20
-3869.455914845534
 30
0.0
 11
5670.935919578758
 21
-3852.148314845534
 31
0.0
  0
LINE
  5
A49FE
330
18
100
AcDbEntity
  8
実線
100
AcDbLine
 10
5683.935919578757
 20
-3866.802116107169
 30
0.0
 11
5678.935919578758
 21
-3866.802117368803
 31
0.0
  0
LINE
  5
A49FF
330
18
100
AcDbEntity
  8
実線
100
AcDbLine
 10
5670.935919578758
 20
-3869.455914845534
 30
0.0
 11
5666.935919578758
 21
-3866.099516320825
 31
0.0
  0
LINE
  5
A4A03
330
18
100
AcDbEntity
  8
実線
100
AcDbLine
 10
5671.77510786569
 20
-3864.369014845534
 30
0.0
 11
5671.77510786569
 21
-3865.889014845534
 31
0.0
  0
LINE
  5
A4A04
330
18
100
AcDbEntity
  8
実線
100
AcDbLine
 10
5678.935919578758
 20
-3865.889014845534
 30
0.0
 11
5671.77510786569
 21
-3865.889014845534
 31
0.0
  0
LINE
  5
A4A05
330
18
100
AcDbEntity
  8
実線
100
AcDbLine
 10
5678.935919578758
 20
-3864.369014845534
 30
0.0
 11
5671.77510786569
 21
-3864.369014845534
 31
0.0
  0
LINE
  5
A4A06
330
18
100
AcDbEntity
  8
実線
100
AcDbLine
 10
5678.935919578758
 20
-3869.455914845534
 30
0.0
 11
5670.935919578758
 21
-3869.455914845534
 31
0.0
  0
ARC
  5
A4A07
330
18
100
AcDbEntity
  8
実線
100
AcDbCircle
 10
5678.935919578758
 20
-3869.455914845534
 30
0.0
 40
8.0
100
AcDbArc
 50
153.5214655209427
 51
180.0
  0
LINE
  5
A4A08
330
18
100
AcDbEntity
  8
実線
100
AcDbLine
 10
5688.935919578757
 20
-3866.802114845534
 30
0.0
 11
5689.161236878041
 21
-3866.802114845534
 31
0.0
  0
LINE
  5
A4A09
330
18
100
AcDbEntity
  8
実線
100
AcDbLine
 10
5688.935919578757
 20
-3866.192114845534
 30
0.0
 11
5689.117701733454
 21
-3866.192114845534
 31
0.0
  0
LINE
  5
A4A0A
330
18
100
AcDbEntity
  8
実線
100
AcDbLine
 10
5688.935919578757
 20
-3865.889014845534
 30
0.0
 11
5683.935919578757
 21
-3865.889014845534
 31
0.0
  0
LINE
  5
A4A0B
330
18
100
AcDbEntity
  8
実線
100
AcDbLine
 10
5688.935919578757
 20
-3864.369014845534
 30
0.0
 11
5683.935919578757
 21
-3864.369014845534
 31
0.0
  0
LINE
  5
A4A0C
330
18
100
AcDbEntity
  8
実線
100
AcDbLine
 10
5688.935919578757
 20
-3869.455914845534
 30
0.0
 11
5683.935919578757
 21
-3869.455914845534
 31
0.0
  0
LINE
  5
A4A0D
330
18
100
AcDbEntity
  8
実線
100
AcDbLine
 10
5683.935919578757
 20
-3854.802116107167
 30
0.0
 11
5678.935919578758
 21
-3854.802117368799
 31
0.0
  0
LINE
  5
A4A0E
330
18
100
AcDbEntity
  8
中心線
 48
0.5
100
AcDbLine
 10
5658.508609881525
 20
-3860.802114845533
 30
0.0
 11
5768.9359195788
 21
-3860.802114845564
 31
0.0
  0
ARC
  5
A4A10
330
18
100
AcDbEntity
  8
実線
100
AcDbCircle
 10
5678.935919578758
 20
-3852.148314845534
 30
0.0
 40
8.0
100
AcDbArc
 50
180.0
 51
206.4785344790573
  0
LINE
  5
A4A11
330
18
100
AcDbEntity
  8
実線
100
AcDbLine
 10
5670.935919578758
 20
-3852.148314845534
 30
0.0
 11
5666.935919578758
 21
-3855.504713370243
 31
0.0
  0
LINE
  5
A4A14
330
18
100
AcDbEntity
  8
実線
100
AcDbLine
 10
5671.77510786569
 20
-3855.715214845534
 30
0.0
 11
5671.77510786569
 21
-3857.235214845534
 31
0.0
  0
LINE
  5
A4A15
330
18
100
AcDbEntity
  8
実線
100
AcDbLine
 10
5678.935919578758
 20
-3857.235214845534
 30
0.0
 11
5671.77510786569
 21
-3857.235214845534
 31
0.0
  0
LINE
  5
A4A16
330
18
100
AcDbEntity
  8
実線
100
AcDbLine
 10
5678.935919578758
 20
-3855.715214845534
 30
0.0
 11
5671.77510786569
 21
-3855.715214845534
 31
0.0
  0
LINE
  5
A4A17
330
18
100
AcDbEntity
  8
実線
100
AcDbLine
 10
5678.935919578758
 20
-3852.148314845534
 30
0.0
 11
5670.935919578758
 21
-3852.148314845534
 31
0.0
  0
LINE
  5
A4A18
330
18
100
AcDbEntity
  8
実線
100
AcDbLine
 10
5688.935919578757
 20
-3854.802114845534
 30
0.0
 11
5689.16123687804
 21
-3854.802114845534
 31
0.0
  0
LINE
  5
A4A19
330
18
100
AcDbEntity
  8
実線
100
AcDbLine
 10
5688.935919578757
 20
-3855.412114845535
 30
0.0
 11
5689.117701733454
 21
-3855.412114845535
 31
0.0
  0
LINE
  5
A4A1A
330
18
100
AcDbEntity
  8
実線
100
AcDbLine
 10
5688.935919578757
 20
-3855.715214845534
 30
0.0
 11
5683.935919578757
 21
-3855.715214845534
 31
0.0
  0
LINE
  5
A4A1B
330
18
100
AcDbEntity
  8
実線
100
AcDbLine
 10
5688.935919578757
 20
-3857.235214845534
 30
0.0
 11
5683.935919578757
 21
-3857.235214845534
 31
0.0
  0
LINE
  5
A4A1C
330
18
100
AcDbEntity
  8
実線
100
AcDbLine
 10
5688.935919578757
 20
-3852.148314845534
 30
0.0
 11
5683.935919578757
 21
-3852.148314845534
 31
0.0
  0
LINE
  5
A4A1D
330
18
100
AcDbEntity
  8
実線
100
AcDbLine
 10
5688.935919578757
 20
-3852.148314845534
 30
0.0
 11
5688.935919578757
 21
-3869.455914845534
 31
0.0
  0
LINE
  5
A4A1E
330
18
100
AcDbEntity
  8
実線
100
AcDbLine
 10
5678.935919578758
 20
-3869.455914845534
 30
0.0
 11
5678.935919578758
 21
-3852.148314845534
 31
0.0
  0
INSERT
  5
A4A28
330
18
100
AcDbEntity
  8
実線
  6
Continuous
100
AcDbBlockReference
  2
_DatumFilled
 10
5735.935919578759
 20
-3860.802114845536
 30
0.0
 41
-2.0
 42
2.0
 43
2.0
 50
180.0
1001
ACAD
1000
DSTYLE
1002
{
1070
   341
1005
11C3
1070
   147
1040
0.5
1070
    77
1070
     0
1002
}
  0
INSERT
  5
A4A29
330
18
100
AcDbEntity
  8
実線
  6
Continuous
100
AcDbBlockReference
  2
_DatumFilled
 10
5731.435919578767
 20
-3860.802114845537
 30
0.0
 41
-2.0
 42
2.0
 43
2.0
1001
ACAD
1000
DSTYLE
1002
{
1070
   341
1005
11C3
1070
   147
1040
0.5
1070
    77
1070
     0
1002
}
  0
CIRCLE
  5
A4A2A
330
18
100
AcDbEntity
  8
破線
 48
5.0
100
AcDbCircle
 10
5733.668539326224
 20
-3860.802114845529
 30
0.0
 40
4.0
  0
ARC
  5
A4A6D
330
18
100
AcDbEntity
  8
実線
100
AcDbCircle
 10
5768.935919578723
 20
-3860.802114845487
 30
0.0
 40
71.50000000003544
100
AcDbArc
 50
204.9226314893661
 51
155.077368513114
  0
ARC
  5
A4A6E
330
18
100
AcDbEntity
  8
実線
100
AcDbCircle
 10
5764.597752913806
 20
-3860.801174307657
 30
0.0
 40
74.45164812064527
100
AcDbArc
 50
158.1435790656319
 51
201.8332945456239
  0
LINE
  5
A4A6F
330
18
100
AcDbEntity
  8
実線
100
AcDbLine
 10
5697.36440756196
 20
-3889.802114845537
 30
0.0
 11
5702.306403573337
 21
-3889.828392667869
 31
0.0
  0
ARC
  5
A4A70
330
18
100
AcDbEntity
  8
実線
100
AcDbCircle
 10
5702.306403573337
 20
-3891.82839266787
 30
0.0
 40
2.0
100
AcDbArc
 50
23.30367399705636
 51
90.0
  0
ARC
  5
A4A71
330
18
100
AcDbEntity
  8
実線
100
AcDbCircle
 10
5697.364407978647
 20
-3887.802112464926
 30
0.0
 40
2.000000000000056
100
AcDbArc
 50
201.037221256044
 51
270.0
  0
LINE
  5
A4A72
330
18
100
AcDbEntity
  8
実線
100
AcDbLine
 10
5697.364407562009
 20
-3831.802114845531
 30
0.0
 11
5702.306403573385
 21
-3831.775837023207
 31
0.0
  0
ARC
  5
A4A73
330
18
100
AcDbEntity
  8
実線
100
AcDbCircle
 10
5702.306403573389
 20
-3829.775837023207
 30
0.0
 40
2.0
100
AcDbArc
 50
269.9999999999088
 51
336.6963260028384
  0
ARC
  5
A4A74
330
18
100
AcDbEntity
  8
実線
100
AcDbCircle
 10
5697.364407978692
 20
-3833.802117226143
 30
0.0
 40
2.000000000000056
100
AcDbArc
 50
89.99999999990881
 51
158.9627787438416
  0
CIRCLE
  5
A4A76
330
18
100
AcDbEntity
  8
実線
100
AcDbCircle
 10
5768.93591957884
 20
-3860.802114845606
 30
0.0
 40
35.49999999992815
  0
ARC
  5
A4A78
330
18
100
AcDbEntity
  8
実線
100
AcDbCircle
 10
5768.935919585723
 20
-3860.802114852191
 30
0.0
 40
92.50000000955591
100
AcDbArc
 50
128.8303878364167
 51
141.1696121638498
  0
ARC
  5
A4A79
330
18
100
AcDbEntity
  8
実線
100
AcDbCircle
 10
5768.935919578963
 20
-3860.802114845404
 30
0.0
 40
92.50000000023099
100
AcDbArc
 50
218.8303878356222
 51
231.1696121643086
  0
ARC
  5
A4A7A
330
18
100
AcDbEntity
  8
実線
100
AcDbCircle
 10
5768.935919578614
 20
-3860.802114845393
 30
0.0
 40
92.50000000024551
100
AcDbArc
 50
308.8303878356548
 51
321.1696121643478
  0
ARC
  5
A4A7B
330
18
100
AcDbEntity
  8
実線
100
AcDbCircle
 10
5768.935919579284
 20
-3860.80211484511
 30
0.0
 40
92.49999999933868
100
AcDbArc
 50
38.83038783564305
 51
51.16961216445208
  0
LINE
  5
A4B06
330
18
100
AcDbEntity
  8
中心線
 48
0.5
100
AcDbLine
 10
5847.450022858255
 20
-3860.802114843347
 30
0.0
 11
5768.935919578447
 21
-3860.802114845564
 31
0.0
  0
LINE
  5
A4E12
330
18
100
AcDbEntity
  8
実線
 48
5.0
100
AcDbLine
 10
5952.870782307243
 20
-3818.05211484553
 30
0.0
 11
5952.870782307243
 21
-3815.55211484553
 31
0.0
  0
LINE
  5
A4E13
330
18
100
AcDbEntity
  8
実線
100
AcDbLine
 10
5907.17078230724
 20
-3933.302114845525
 30
0.0
 11
5972.870782307243
 21
-3933.302114845528
 31
0.0
  0
LINE
  5
A4E14
330
18
100
AcDbEntity
  8
実線
100
AcDbLine
 10
5972.870782307243
 20
-3913.802114845534
 30
0.0
 11
5972.870782307243
 21
-3913.386716768084
 31
0.0
  0
LINE
  5
A4E15
330
18
100
AcDbEntity
  8
中心線
 48
0.5
100
AcDbLine
 10
5974.870782307241
 20
-3860.80211484553
 30
0.0
 11
5889.300396437832
 21
-3860.80211484553
 31
0.0
  0
LINE
  5
A4E16
330
18
100
AcDbEntity
  8
実線
100
AcDbLine
 10
5907.17078230724
 20
-3788.302114845536
 30
0.0
 11
5972.870782307239
 21
-3788.302114845532
 31
0.0
  0
LINE
  5
A4E17
330
18
100
AcDbEntity
  8
実線
100
AcDbLine
 10
5952.870782307281
 20
-3931.302114845529
 30
0.0
 11
5952.870782307243
 21
-3790.302114845534
 31
0.0
  0
LINE
  5
A4E18
330
18
100
AcDbEntity
  8
実線
100
AcDbLine
 10
5972.870782307243
 20
-3933.302114845528
 30
0.0
 11
5972.87078433372
 21
-3893.302114584832
 31
0.0
  0
LINE
  5
A4E19
330
18
100
AcDbEntity
  8
実線
100
AcDbLine
 10
5906.17078230724
 20
-3895.802114994545
 30
0.0
 11
5904.870780638315
 21
-3895.802114994545
 31
0.0
  0
LINE
  5
A4E1A
330
18
100
AcDbEntity
  8
実線
100
AcDbLine
 10
5904.870780638315
 20
-3895.802114994545
 30
0.0
 11
5904.870780638312
 21
-3825.802114696522
 31
0.0
  0
LINE
  5
A4E1B
330
18
100
AcDbEntity
  8
実線
100
AcDbLine
 10
5904.470780638314
 20
-3890.802114174981
 30
0.0
 11
5902.370782009221
 21
-3890.802114174981
 31
0.0
  0
LINE
  5
A4E1C
330
18
100
AcDbEntity
  8
実線
100
AcDbLine
 10
5901.870782009222
 20
-3890.302114174982
 30
0.0
 11
5901.870782009222
 21
-3831.302115516086
 31
0.0
  0
LINE
  5
A4E23
330
18
100
AcDbEntity
  8
実線
100
AcDbLine
 10
5904.870780638315
 20
-3825.802114696522
 30
0.0
 11
5906.17078230724
 21
-3825.802114696522
 31
0.0
  0
LINE
  5
A4E24
330
18
100
AcDbEntity
  8
実線
100
AcDbLine
 10
5902.370782009221
 20
-3830.802115516086
 30
0.0
 11
5904.470780638314
 21
-3830.80211551608
 31
0.0
  0
LINE
  5
A4E26
330
18
100
AcDbEntity
  8
実線
100
AcDbLine
 10
5906.670782307241
 20
-3795.802114845538
 30
0.0
 11
5906.670782307241
 21
-3793.618062241005
 31
0.0
  0
LINE
  5
A4E27
330
18
100
AcDbEntity
  8
実線
100
AcDbLine
 10
5906.670782307241
 20
-3932.802114845526
 30
0.0
 11
5906.670782307241
 21
-3788.802114845536
 31
0.0
  0
LINE
  5
A4E28
330
18
100
AcDbEntity
  8
実線
100
AcDbLine
 10
5906.17078230724
 20
-3789.302114853567
 30
0.0
 11
5906.670782307241
 21
-3789.302114853568
 31
0.0
  0
LINE
  5
A4E29
330
18
100
AcDbEntity
  8
実線
100
AcDbLine
 10
5906.17078230724
 20
-3789.302114853567
 30
0.0
 11
5906.17078230724
 21
-3932.302114837492
 31
0.0
  0
LINE
  5
A4E2A
330
18
100
AcDbEntity
  8
実線
100
AcDbLine
 10
5906.17078230724
 20
-3932.302114837494
 30
0.0
 11
5906.670782307241
 21
-3932.302114837492
 31
0.0
  0
LINE
  5
A4E2B
330
18
100
AcDbEntity
  8
実線
100
AcDbLine
 10
5952.870782307247
 20
-3803.39224851377
 30
0.0
 11
5972.870782307241
 21
-3803.39224851377
 31
0.0
  0
LINE
  5
A4E2C
330
18
100
AcDbEntity
  8
実線
100
AcDbLine
 10
5952.870782307275
 20
-3918.211981177287
 30
0.0
 11
5972.870782307243
 21
-3918.211981177287
 31
0.0
  0
ARC
  5
A4E2D
330
18
100
AcDbEntity
  8
実線
100
AcDbCircle
 10
5954.870782307242
 20
-3790.302114845533
 30
0.0
 40
2.0
100
AcDbArc
 50
90.0
 51
180.0
  0
ARC
  5
A4E2E
330
18
100
AcDbEntity
  8
実線
100
AcDbCircle
 10
5954.870782307281
 20
-3931.302114845527
 30
0.0
 40
2.0
100
AcDbArc
 50
180.0
 51
270.0
  0
LINE
  5
A5371
330
18
100
AcDbEntity
  8
中心線
 48
0.5
100
AcDbLine
 10
5912.202214608432
 20
-3835.802114845529
 30
0.0
 11
5898.870782009399
 21
-3835.802114845529
 31
0.0
  0
LINE
  5
A5372
330
18
100
AcDbEntity
  8
中心線
 48
0.5
100
AcDbLine
 10
5912.202214608432
 20
-3885.802114845532
 30
0.0
 11
5898.870782009399
 21
-3885.802114845532
 31
0.0
  0
LINE
  5
ACCC9
330
18
100
AcDbEntity
  8
実線
100
AcDbLine
 10
5907.17078230724
 20
-3788.302114845536
 30
0.0
 11
5906.670782307241
 21
-3788.802114845536
 31
0.0
  0
LINE
  5
ACCCA
330
18
100
AcDbEntity
  8
実線
100
AcDbLine
 10
5906.670782307241
 20
-3932.802114845526
 30
0.0
 11
5907.17078230724
 21
-3933.302114845525
 31
0.0
  0
LINE
  5
ACCCB
330
18
100
AcDbEntity
  8
実線
100
AcDbLine
 10
5901.870782009222
 20
-3890.302114174982
 30
0.0
 11
5902.370782009221
 21
-3890.802114174981
 31
0.0
  0
LINE
  5
ACCCC
330
18
100
AcDbEntity
  8
実線
100
AcDbLine
 10
5902.370782009221
 20
-3830.802115516086
 30
0.0
 11
5901.870782009222
 21
-3831.302115516086
 31
0.0
  0
CIRCLE
  5
ADAF7
330
18
100
AcDbEntity
  8
実線
100
AcDbCircle
 10
5720.85265845801
 20
-3812.718853724765
 30
0.0
 40
1.999999999999997
  0
ARC
  5
ADB04
330
18
100
AcDbEntity
  8
実線
100
AcDbCircle
 10
5720.852698041011
 20
-3812.716726378365
 30
0.0
 40
1.001241639958591
100
AcDbArc
 50
74.17458914309484
 51
103.8258047777055
  0
LINE
  5
ADB05
330
18
100
AcDbEntity
  8
実線
100
AcDbLine
 10
5721.29014439801
 20
-3812.991937220365
 30
0.0
 11
5721.81807763781
 21
-3812.991937220365
 31
0.0
  0
ARC
  5
ADB06
330
18
100
AcDbEntity
  8
実線
100
AcDbCircle
 10
5721.28945202461
 20
-3813.171164487164
 30
0.0
 40
0.1792286042545498
100
AcDbArc
 50
89.77866162099102
 51
178.2217561067874
  0
LINE
  5
ADB07
330
18
100
AcDbEntity
  8
実線
100
AcDbLine
 10
5721.091884448211
 20
-3813.693211943165
 30
0.0
 11
5721.110309734012
 21
-3813.165602803564
 31
0.0
  0
ARC
  5
ADB08
330
18
100
AcDbEntity
  8
実線
100
AcDbCircle
 10
5720.852615328411
 20
-3812.721070800364
 30
0.0
 40
1.001153391429493
100
AcDbArc
 50
254.1732523392097
 51
283.8271415815996
  0
ARC
  5
ADB09
330
18
100
AcDbEntity
  8
実線
100
AcDbCircle
 10
5720.850452921212
 20
-3812.718810876165
 30
0.0
 40
1.001164912568804
100
AcDbArc
 50
164.1733238934902
 51
193.8270845644064
  0
LINE
  5
ADB0A
330
18
100
AcDbEntity
  8
実線
100
AcDbLine
 10
5720.415170564411
 20
-3812.445764959165
 30
0.0
 11
5719.887241049812
 21
-3812.445764959165
 31
0.0
  0
ARC
  5
ADB0B
330
18
100
AcDbEntity
  8
実線
100
AcDbCircle
 10
5720.41587296121
 20
-3812.266543990565
 30
0.0
 40
0.179222344846895
100
AcDbArc
 50
269.7754494470126
 51
358.2213254801882
  0
LINE
  5
ADB0C
330
18
100
AcDbEntity
  8
実線
100
AcDbLine
 10
5720.613430514011
 20
-3811.744493961564
 30
0.0
 11
5720.595008953611
 21
-3812.272106826564
 31
0.0
  0
CIRCLE
  5
ADB0D
330
18
100
AcDbEntity
  8
実線
100
AcDbCircle
 10
5720.85265845801
 20
-3812.718853724765
 30
0.0
 40
1.199999999999993
  0
ARC
  5
ADB10
330
18
100
AcDbEntity
  8
実線
100
AcDbCircle
 10
5720.854903020811
 20
-3812.718895432965
 30
0.0
 40
1.001127944226705
100
AcDbArc
 50
344.172969803302
 51
13.82740958021292
  0
LINE
  5
ADB13
330
18
100
AcDbEntity
  8
実線
100
AcDbLine
 10
5719.878300353009
 20
-3812.958081782165
 30
0.0
 11
5720.405909492611
 21
-3812.976507067965
 31
0.0
  0
ARC
  5
ADB14
330
18
100
AcDbEntity
  8
実線
100
AcDbCircle
 10
5720.40036020881
 20
-3813.155633671565
 30
0.0
 40
0.1792125405544856
100
AcDbArc
 50
359.7736265172016
 51
88.22556289790055
  0
LINE
  5
ADB15
330
18
100
AcDbEntity
  8
実線
100
AcDbLine
 10
5720.579571350611
 20
-3813.156341731764
 30
0.0
 11
5720.579571350611
 21
-3813.684271246365
 31
0.0
  0
LINE
  5
ADB1B
330
18
100
AcDbEntity
  8
実線
100
AcDbLine
 10
5721.827018334611
 20
-3812.479627847964
 30
0.0
 11
5721.299409194811
 21
-3812.461202562165
 31
0.0
  0
ARC
  5
ADB1C
330
18
100
AcDbEntity
  8
実線
100
AcDbCircle
 10
5721.304976221211
 20
-3812.282055112365
 30
0.0
 40
0.1792339268340504
100
AcDbArc
 50
179.7803174514989
 51
268.2201002763034
  0
LINE
  5
ADB1D
330
18
100
AcDbEntity
  8
実線
100
AcDbLine
 10
5721.125743611811
 20
-3812.281367898164
 30
0.0
 11
5721.125743611811
 21
-3811.753434658364
 31
0.0
  0
CIRCLE
  5
ADB23
330
18
100
AcDbEntity
  8
実線
100
AcDbCircle
 10
5720.852658458002
 20
-3908.885375966338
 30
0.0
 40
1.999999999999997
  0
ARC
  5
ADB24
330
18
100
AcDbEntity
  8
実線
100
AcDbCircle
 10
5720.850531111601
 20
-3908.885336383337
 30
0.0
 40
1.001241639958591
100
AcDbArc
 50
164.1745891430948
 51
193.8258047777054
  0
LINE
  5
ADB25
330
18
100
AcDbEntity
  8
実線
100
AcDbLine
 10
5721.125741953602
 20
-3908.447890026338
 30
0.0
 11
5721.125741953602
 21
-3907.919956786538
 31
0.0
  0
ARC
  5
ADB26
330
18
100
AcDbEntity
  8
実線
100
AcDbCircle
 10
5721.304969220401
 20
-3908.448582399739
 30
0.0
 40
0.1792286042545498
100
AcDbArc
 50
179.778661620991
 51
268.2217561067874
  0
LINE
  5
ADB27
330
18
100
AcDbEntity
  8
実線
100
AcDbLine
 10
5721.827016676401
 20
-3908.646149976136
 30
0.0
 11
5721.299407536802
 21
-3908.627724690337
 31
0.0
  0
ARC
  5
ADB28
330
18
100
AcDbEntity
  8
実線
100
AcDbCircle
 10
5720.854875533603
 20
-3908.885419095938
 30
0.0
 40
1.001153391429493
100
AcDbArc
 50
344.1732523392097
 51
13.82714158159958
  0
ARC
  5
ADB29
330
18
100
AcDbEntity
  8
実線
100
AcDbCircle
 10
5720.852615609402
 20
-3908.887581503137
 30
0.0
 40
1.001164912568804
100
AcDbArc
 50
254.1733238934902
 51
283.8270845644064
  0
LINE
  5
ADB2A
330
18
100
AcDbEntity
  8
実線
100
AcDbLine
 10
5720.579569692401
 20
-3909.322863859937
 30
0.0
 11
5720.579569692401
 21
-3909.850793374536
 31
0.0
  0
ARC
  5
ADB2B
330
18
100
AcDbEntity
  8
実線
100
AcDbCircle
 10
5720.400348723802
 20
-3909.322161463138
 30
0.0
 40
0.179222344846895
100
AcDbArc
 50
359.7754494470126
 51
88.22132548018819
  0
LINE
  5
ADB2C
330
18
100
AcDbEntity
  8
実線
100
AcDbLine
 10
5719.878298694801
 20
-3909.124603910336
 30
0.0
 11
5720.405911559801
 21
-3909.143025470737
 31
0.0
  0
CIRCLE
  5
ADB2D
330
18
100
AcDbEntity
  8
実線
100
AcDbCircle
 10
5720.852658458002
 20
-3908.885375966338
 30
0.0
 40
1.199999999999993
  0
ARC
  5
ADB2E
330
18
100
AcDbEntity
  8
実線
100
AcDbCircle
 10
5720.852700166201
 20
-3908.883131403538
 30
0.0
 40
1.001127944226705
100
AcDbArc
 50
74.17296980330205
 51
103.8274095802129
  0
LINE
  5
ADB2F
330
18
100
AcDbEntity
  8
実線
100
AcDbLine
 10
5721.091886515402
 20
-3909.859734071338
 30
0.0
 11
5721.110311801202
 21
-3909.332124931737
 31
0.0
  0
ARC
  5
ADB30
330
18
100
AcDbEntity
  8
実線
100
AcDbCircle
 10
5721.289438404802
 20
-3909.337674215538
 30
0.0
 40
0.1792125405544856
100
AcDbArc
 50
89.77362651720159
 51
178.2255628979005
  0
LINE
  5
ADB31
330
18
100
AcDbEntity
  8
実線
100
AcDbLine
 10
5721.290146465002
 20
-3909.158463073737
 30
0.0
 11
5721.818075979602
 21
-3909.158463073737
 31
0.0
  0
LINE
  5
ADB32
330
18
100
AcDbEntity
  8
実線
100
AcDbLine
 10
5720.613432581202
 20
-3907.911016089737
 30
0.0
 11
5720.595007295401
 21
-3908.438625229536
 31
0.0
  0
ARC
  5
ADB33
330
18
100
AcDbEntity
  8
実線
100
AcDbCircle
 10
5720.415859845602
 20
-3908.433058203138
 30
0.0
 40
0.1792339268340504
100
AcDbArc
 50
269.7803174514989
 51
358.2201002763034
  0
LINE
  5
ADB34
330
18
100
AcDbEntity
  8
実線
100
AcDbLine
 10
5720.415172631401
 20
-3908.612290812538
 30
0.0
 11
5719.887239391601
 21
-3908.612290812538
 31
0.0
  0
CIRCLE
  5
ADB37
330
18
100
AcDbEntity
  8
実線
100
AcDbCircle
 10
5817.019180699575
 20
-3908.885375966347
 30
0.0
 40
1.999999999999997
  0
ARC
  5
ADB38
330
18
100
AcDbEntity
  8
実線
100
AcDbCircle
 10
5817.019141116574
 20
-3908.887503312747
 30
0.0
 40
1.001241639958591
100
AcDbArc
 50
254.1745891430949
 51
283.8258047777054
  0
LINE
  5
ADB39
330
18
100
AcDbEntity
  8
実線
100
AcDbLine
 10
5816.581694759576
 20
-3908.612292470747
 30
0.0
 11
5816.053761519775
 21
-3908.612292470747
 31
0.0
  0
ARC
  5
ADB3A
330
18
100
AcDbEntity
  8
実線
100
AcDbCircle
 10
5816.582387132975
 20
-3908.433065203947
 30
0.0
 40
0.1792286042545498
100
AcDbArc
 50
269.778661620991
 51
358.2217561067874
  0
LINE
  5
ADB3B
330
18
100
AcDbEntity
  8
実線
100
AcDbLine
 10
5816.779954709375
 20
-3907.911017747947
 30
0.0
 11
5816.761529423575
 21
-3908.438626887547
 31
0.0
  0
ARC
  5
ADB3C
330
18
100
AcDbEntity
  8
実線
100
AcDbCircle
 10
5817.019223829174
 20
-3908.883158890747
 30
0.0
 40
1.001153391429493
100
AcDbArc
 50
74.17325233920959
 51
103.8271415815996
  0
ARC
  5
ADB3D
330
18
100
AcDbEntity
  8
実線
100
AcDbCircle
 10
5817.021386236374
 20
-3908.885418814947
 30
0.0
 40
1.001164912568804
100
AcDbArc
 50
344.1733238934903
 51
13.82708456440637
  0
LINE
  5
ADB3E
330
18
100
AcDbEntity
  8
実線
100
AcDbLine
 10
5817.456668593175
 20
-3909.158464731947
 30
0.0
 11
5817.984598107774
 21
-3909.158464731947
 31
0.0
  0
ARC
  5
ADB3F
330
18
100
AcDbEntity
  8
実線
100
AcDbCircle
 10
5817.455966196376
 20
-3909.337685700547
 30
0.0
 40
0.179222344846895
100
AcDbArc
 50
89.77544944701254
 51
178.2213254801881
  0
LINE
  5
ADB40
330
18
100
AcDbEntity
  8
実線
100
AcDbLine
 10
5817.258408643574
 20
-3909.859735729547
 30
0.0
 11
5817.276830203975
 21
-3909.332122864547
 31
0.0
  0
CIRCLE
  5
ADB41
330
18
100
AcDbEntity
  8
実線
100
AcDbCircle
 10
5817.019180699575
 20
-3908.885375966347
 30
0.0
 40
1.199999999999993
  0
ARC
  5
ADB42
330
18
100
AcDbEntity
  8
実線
100
AcDbCircle
 10
5817.016936136775
 20
-3908.885334258147
 30
0.0
 40
1.001127944226705
100
AcDbArc
 50
164.1729698033019
 51
193.8274095802129
  0
LINE
  5
ADB43
330
18
100
AcDbEntity
  8
実線
100
AcDbLine
 10
5817.993538804576
 20
-3908.646147908946
 30
0.0
 11
5817.465929664975
 21
-3908.627722623147
 31
0.0
  0
ARC
  5
ADB44
330
18
100
AcDbEntity
  8
実線
100
AcDbCircle
 10
5817.471478948775
 20
-3908.448596019547
 30
0.0
 40
0.1792125405544856
100
AcDbArc
 50
179.7736265172015
 51
268.2255628979005
  0
LINE
  5
ADB45
330
18
100
AcDbEntity
  8
実線
100
AcDbLine
 10
5817.292267806975
 20
-3908.447887959347
 30
0.0
 11
5817.292267806975
 21
-3907.919958444747
 31
0.0
  0
LINE
  5
ADB46
330
18
100
AcDbEntity
  8
実線
100
AcDbLine
 10
5816.044820822975
 20
-3909.124601843148
 30
0.0
 11
5816.572429962775
 21
-3909.143027128948
 31
0.0
  0
ARC
  5
ADB47
330
18
100
AcDbEntity
  8
実線
100
AcDbCircle
 10
5816.566862936376
 20
-3909.322174578747
 30
0.0
 40
0.1792339268340504
100
AcDbArc
 50
359.7803174514989
 51
88.22010027630334
  0
LINE
  5
ADB48
330
18
100
AcDbEntity
  8
実線
100
AcDbLine
 10
5816.746095545775
 20
-3909.322861792947
 30
0.0
 11
5816.746095545775
 21
-3909.850795032748
 31
0.0
  0
CIRCLE
  5
ADB4B
330
18
100
AcDbEntity
  8
実線
100
AcDbCircle
 10
5817.019180699585
 20
-3812.718853724774
 30
0.0
 40
1.999999999999997
  0
ARC
  5
ADB4C
330
18
100
AcDbEntity
  8
実線
100
AcDbCircle
 10
5817.021308045983
 20
-3812.718893307776
 30
0.0
 40
1.001241639958591
100
AcDbArc
 50
344.1745891430948
 51
13.82580477770543
  0
LINE
  5
ADB4D
330
18
100
AcDbEntity
  8
実線
100
AcDbLine
 10
5816.746097203983
 20
-3813.156339664774
 30
0.0
 11
5816.746097203983
 21
-3813.684272904574
 31
0.0
  0
ARC
  5
ADB4E
330
18
100
AcDbEntity
  8
実線
100
AcDbCircle
 10
5816.566869937183
 20
-3813.155647291374
 30
0.0
 40
0.1792286042545498
100
AcDbArc
 50
359.778661620991
 51
88.22175610678733
  0
LINE
  5
ADB4F
330
18
100
AcDbEntity
  8
実線
100
AcDbLine
 10
5816.044822481184
 20
-3812.958079714975
 30
0.0
 11
5816.572431620784
 21
-3812.976505000775
 31
0.0
  0
ARC
  5
ADB50
330
18
100
AcDbEntity
  8
実線
100
AcDbCircle
 10
5817.016963623984
 20
-3812.718810595175
 30
0.0
 40
1.001153391429493
100
AcDbArc
 50
164.1732523392096
 51
193.8271415815995
  0
ARC
  5
ADB51
330
18
100
AcDbEntity
  8
実線
100
AcDbCircle
 10
5817.019223548185
 20
-3812.716648187975
 30
0.0
 40
1.001164912568804
100
AcDbArc
 50
74.17332389349019
 51
103.8270845644063
  0
LINE
  5
ADB52
330
18
100
AcDbEntity
  8
実線
100
AcDbLine
 10
5817.292269465184
 20
-3812.281365831174
 30
0.0
 11
5817.292269465184
 21
-3811.753436316575
 31
0.0
  0
ARC
  5
ADB53
330
18
100
AcDbEntity
  8
実線
100
AcDbCircle
 10
5817.471490433783
 20
-3812.282068227974
 30
0.0
 40
0.179222344846895
100
AcDbArc
 50
179.7754494470125
 51
268.2213254801881
  0
LINE
  5
ADB54
330
18
100
AcDbEntity
  8
実線
100
AcDbLine
 10
5817.993540462784
 20
-3812.479625780775
 30
0.0
 11
5817.465927597783
 21
-3812.461204220375
 31
0.0
  0
CIRCLE
  5
ADB55
330
18
100
AcDbEntity
  8
実線
100
AcDbCircle
 10
5817.019180699585
 20
-3812.718853724774
 30
0.0
 40
1.199999999999993
  0
ARC
  5
ADB56
330
18
100
AcDbEntity
  8
実線
100
AcDbCircle
 10
5817.019138991383
 20
-3812.721098287574
 30
0.0
 40
1.001127944226705
100
AcDbArc
 50
254.172969803302
 51
283.8274095802129
  0
LINE
  5
ADB57
330
18
100
AcDbEntity
  8
実線
100
AcDbLine
 10
5816.779952642183
 20
-3811.744495619774
 30
0.0
 11
5816.761527356383
 21
-3812.272104759374
 31
0.0
  0
ARC
  5
ADB58
330
18
100
AcDbEntity
  8
実線
100
AcDbCircle
 10
5816.582400752785
 20
-3812.266555475574
 30
0.0
 40
0.1792125405544856
100
AcDbArc
 50
269.7736265172015
 51
358.2255628979005
  0
LINE
  5
ADB59
330
18
100
AcDbEntity
  8
実線
100
AcDbLine
 10
5816.581692692583
 20
-3812.445766617374
 30
0.0
 11
5816.053763177984
 21
-3812.445766617374
 31
0.0
  0
LINE
  5
ADB5A
330
18
100
AcDbEntity
  8
実線
100
AcDbLine
 10
5817.258406576384
 20
-3813.693213601374
 30
0.0
 11
5817.276831862184
 21
-3813.165604461575
 31
0.0
  0
ARC
  5
ADB5B
330
18
100
AcDbEntity
  8
実線
100
AcDbCircle
 10
5817.455979311984
 20
-3813.171171487974
 30
0.0
 40
0.1792339268340504
100
AcDbArc
 50
89.78031745149886
 51
178.2201002763034
  0
LINE
  5
ADB5C
330
18
100
AcDbEntity
  8
実線
100
AcDbLine
 10
5817.456666526183
 20
-3812.991938878574
 30
0.0
 11
5817.984599765984
 21
-3812.991938878574
 31
0.0
  0
LINE
  5
AEEE9
330
18
100
AcDbEntity
  8
実線
100
AcDbLine
 10
5720.831717278447
 20
-4020.04079274824
 30
0.0
 11
5719.652662898948
 21
-4020.04079274824
 31
0.0
  0
ARC
  5
AEEEA
330
18
100
AcDbEntity
  8
実線
100
AcDbCircle
 10
5719.652661837347
 20
-4020.840790966641
 30
0.0
 40
0.7999999999999972
100
AcDbArc
 50
90.0
 51
180.0
  0
LINE
  5
AEEEB
330
18
100
AcDbEntity
  8
実線
100
AcDbLine
 10
5722.052662547348
 20
-4020.04079274824
 30
0.0
 11
5720.831717278447
 21
-4020.04079274824
 31
0.0
  0
ARC
  5
AEEEC
330
18
100
AcDbEntity
  8
実線
100
AcDbCircle
 10
5722.052661837348
 20
-4020.840790966641
 30
0.0
 40
0.8000000000000397
100
AcDbArc
 50
0.0
 51
90.0
  0
ARC
  5
AEEED
330
18
100
AcDbEntity
  8
実線
100
AcDbCircle
 10
5818.219184078748
 20
-4020.840790966641
 30
0.0
 40
0.8000000000000113
100
AcDbArc
 50
0.0
 51
90.0
  0
LINE
  5
AEEEE
330
18
100
AcDbEntity
  8
実線
100
AcDbLine
 10
5818.219183858149
 20
-4020.04079274824
 30
0.0
 11
5815.819184209748
 21
-4020.04079274824
 31
0.0
  0
ARC
  5
AEEEF
330
18
100
AcDbEntity
  8
実線
100
AcDbCircle
 10
5815.819184078748
 20
-4020.840790966641
 30
0.0
 40
0.7999999999999829
100
AcDbArc
 50
90.0
 51
180.0
  0
LINE
  5
AEEF0
330
18
100
AcDbEntity
  8
実線
100
AcDbLine
 10
5736.435919839498
 20
-4087.240790352139
 30
0.0
 11
5801.435921180599
 21
-4087.240790352139
 31
0.0
  0
LINE
  5
AEEF1
330
18
100
AcDbEntity
  8
実線
100
AcDbLine
 10
5736.435919839498
 20
-4087.54079170514
 30
0.0
 11
5736.435919839498
 21
-4087.240790352139
 31
0.0
  0
LINE
  5
AEEF2
330
18
100
AcDbEntity
  8
実線
100
AcDbLine
 10
5801.435921180599
 20
-4087.240790352139
 30
0.0
 11
5801.435921180599
 21
-4087.54079170514
 31
0.0
  0
LINE
  5
AEEF3
330
18
100
AcDbEntity
  8
実線
100
AcDbLine
 10
5801.435921180599
 20
-4087.54079170514
 30
0.0
 11
5841.435919578749
 21
-4087.540789678561
 31
0.0
  0
LINE
  5
AEEF4
330
18
100
AcDbEntity
  8
実線
100
AcDbLine
 10
5972.570782980721
 20
-3828.302116968933
 30
0.0
 11
5972.570782980721
 21
-3893.302114584832
 31
0.0
  0
LINE
  5
AEEF5
330
18
100
AcDbEntity
  8
実線
100
AcDbLine
 10
5905.37078537682
 20
-3907.685374745434
 30
0.0
 11
5905.37078537682
 21
-3908.906320014334
 31
0.0
  0
LINE
  5
AEEF6
330
18
100
AcDbEntity
  8
実線
100
AcDbLine
 10
5905.37078537682
 20
-3908.906320014334
 30
0.0
 11
5905.37078537682
 21
-3910.085378119133
 31
0.0
  0
ARC
  5
AEEF7
330
18
100
AcDbEntity
  8
実線
100
AcDbCircle
 10
5906.170783595221
 20
-3910.085376272633
 30
0.0
 40
0.8000000000000113
100
AcDbArc
 50
180.0
 51
270.0
  0
ARC
  5
AEEF8
330
18
100
AcDbEntity
  8
実線
100
AcDbCircle
 10
5906.170783595221
 20
-3907.685376272633
 30
0.0
 40
0.8000000000000113
100
AcDbArc
 50
90.0
 51
180.0
  0
LINE
  5
AEEF9
330
18
100
AcDbEntity
  8
実線
100
AcDbLine
 10
5972.87078433372
 20
-3893.302114584832
 30
0.0
 11
5972.570782980721
 21
-3893.302114584832
 31
0.0
  0
LINE
  5
AEEFA
330
18
100
AcDbEntity
  8
実線
100
AcDbLine
 10
5905.37078537682
 20
-3811.518853434633
 30
0.0
 11
5905.37078537682
 21
-3813.918853083033
 31
0.0
  0
ARC
  5
AEEFB
330
18
100
AcDbEntity
  8
実線
100
AcDbCircle
 10
5906.170783595221
 20
-3813.918854031233
 30
0.0
 40
0.8000000000000113
100
AcDbArc
 50
180.0
 51
270.0
  0
ARC
  5
AEEFC
330
18
100
AcDbEntity
  8
実線
100
AcDbCircle
 10
5906.170783595221
 20
-3811.518854031234
 30
0.0
 40
0.8000000000000113
100
AcDbArc
 50
90.0
 51
180.0
  0
LINE
  5
AEEFD
330
18
100
AcDbEntity
  8
実線
100
AcDbLine
 10
5972.570782980721
 20
-3828.302116968933
 30
0.0
 11
5972.87078433372
 21
-3828.302116968933
 31
0.0
  0
LINE
  5
AEEFE
330
18
100
AcDbEntity
  8
実線
100
AcDbLine
 10
5972.87078433372
 20
-3828.302116968933
 30
0.0
 11
5972.870786360198
 21
-3788.302116708237
 31
0.0
  0
ARC
  5
AF712
330
18
100
AcDbEntity
  8
実線
100
AcDbCircle
 10
5640.827496407537
 20
-3996.439900565346
 30
0.0
 40
41.5
100
AcDbArc
 50
180.0
 51
270.0
  0
ARC
  5
AF713
330
18
100
AcDbEntity
  8
実線
100
AcDbCircle
 10
5640.827496407538
 20
-3996.439900565346
 30
0.0
 40
35.0
100
AcDbArc
 50
180.0
 51
270.0
  0
LINE
  5
AF714
330
18
100
AcDbEntity
  8
実線
100
AcDbLine
 10
5605.827496407537
 20
-3996.439900565346
 30
0.0
 11
5605.827496407537
 21
-3973.832228503482
 31
0.0
  0
LINE
  5
AF715
330
18
100
AcDbEntity
  8
実線
100
AcDbLine
 10
5599.327496407537
 20
-3996.439900565346
 30
0.0
 11
5599.327496407537
 21
-3973.832228503482
 31
0.0
  0
LINE
  5
AF716
330
18
100
AcDbEntity
  8
実線
 48
0.5
100
AcDbLine
 10
5606.352496407538
 20
-3940.132183402007
 30
0.0
 11
5602.902496407537
 21
-3940.132183402007
 31
0.0
  0
LINE
  5
AF717
330
18
100
AcDbEntity
  8
実線
 48
0.5
100
AcDbLine
 10
5602.252496407537
 20
-3940.132183402007
 30
0.0
 11
5598.802496407538
 21
-3940.132183402007
 31
0.0
  0
LINE
  5
AF718
330
18
100
AcDbEntity
  8
実線
 48
0.5
100
AcDbLine
 10
5607.827496407537
 20
-3962.732228503483
 30
0.0
 11
5607.827496407537
 21
-3949.632183402006
 31
0.0
  0
LINE
  5
AF719
330
18
100
AcDbEntity
  8
実線
 48
0.5
100
AcDbLine
 10
5597.827496407537
 20
-3962.732228503483
 30
0.0
 11
5597.827496407537
 21
-3949.632183402006
 31
0.0
  0
LINE
  5
AF71A
330
18
100
AcDbEntity
  8
実線
 48
0.5
100
AcDbLine
 10
5596.362738427169
 20
-3951.64612571571
 30
0.0
 11
5595.398924978965
 21
-3957.112183402008
 31
0.0
  0
LINE
  5
AF71B
330
18
100
AcDbEntity
  8
実線
 48
0.5
100
AcDbLine
 10
5594.009782121823
 20
-3946.747040544864
 30
0.0
 11
5594.009782121823
 21
-3957.112183402005
 31
0.0
  0
LINE
  5
AF71C
330
18
100
AcDbEntity
  8
実線
 48
0.5
100
AcDbLine
 10
5594.427496407537
 20
-3944.872183402007
 30
0.0
 11
5594.427496407536
 21
-3956.140754830579
 31
0.0
  0
LINE
  5
AF71D
330
18
100
AcDbEntity
  8
実線
 48
0.5
100
AcDbLine
 10
5608.727490354495
 20
-3962.732228503482
 30
0.0
 11
5607.827496407537
 21
-3962.732228503482
 31
0.0
  0
LINE
  5
AF71E
330
18
100
AcDbEntity
  8
実線
 48
0.5
100
AcDbLine
 10
5608.727490354495
 20
-3963.832228503482
 30
0.0
 11
5608.727490354495
 21
-3962.732228503482
 31
0.0
  0
LINE
  5
AF71F
330
18
100
AcDbEntity
  8
実線
 48
0.5
100
AcDbLine
 10
5597.827496407537
 20
-3962.732228503483
 30
0.0
 11
5596.927490354494
 21
-3962.732228503483
 31
0.0
  0
LINE
  5
AF720
330
18
100
AcDbEntity
  8
実線
 48
0.5
100
AcDbLine
 10
5596.927490354494
 20
-3963.832228503482
 30
0.0
 11
5596.927490354494
 21
-3962.732228503483
 31
0.0
  0
LINE
  5
AF721
330
18
100
AcDbEntity
  8
実線
 48
0.5
100
AcDbLine
 10
5594.427496407536
 20
-3956.140754830579
 30
0.0
 11
5594.009782121823
 21
-3956.140754830579
 31
0.0
  0
LINE
  5
AF722
330
18
100
AcDbEntity
  8
実線
 48
0.5
100
AcDbLine
 10
5595.398924978965
 20
-3957.112183402008
 30
0.0
 11
5594.009782121823
 21
-3957.112183402006
 31
0.0
  0
LINE
  5
AF723
330
18
100
AcDbEntity
  8
実線
 48
0.5
100
AcDbLine
 10
5608.727490354495
 20
-3963.832228503482
 30
0.0
 11
5596.927490354494
 21
-3963.832228503482
 31
0.0
  0
LINE
  5
AF724
330
18
100
AcDbEntity
  8
実線
 48
0.5
100
AcDbLine
 10
5596.661782121824
 20
-3943.900754830578
 30
0.0
 11
5595.398924978965
 21
-3943.900754830578
 31
0.0
  0
LINE
  5
AF725
330
18
100
AcDbEntity
  8
実線
 48
0.5
100
AcDbLine
 10
5597.633210693252
 20
-3946.32932625915
 30
0.0
 11
5596.564639264681
 21
-3946.232183402008
 31
0.0
  0
LINE
  5
AF726
330
18
100
AcDbEntity
  8
実線
 48
0.5
100
AcDbLine
 10
5596.661782121824
 20
-3943.900754830578
 30
0.0
 11
5597.633210693252
 21
-3944.872183402007
 31
0.0
  0
LINE
  5
AF727
330
18
100
AcDbEntity
  8
実線
 48
0.5
100
AcDbLine
 10
5597.633210693252
 20
-3944.872183402007
 30
0.0
 11
5597.633210693252
 21
-3946.32932625915
 31
0.0
  0
ARC
  5
AF728
330
18
100
AcDbEntity
  8
実線
 48
0.5
100
AcDbCircle
 10
5597.341782121823
 20
-3951.730469116292
 30
0.0
 40
0.4857142857142857
100
AcDbArc
 50
0.0
 51
90.0
  0
LINE
  5
AF729
330
18
100
AcDbEntity
  8
実線
 48
0.5
100
AcDbLine
 10
5597.341782121823
 20
-3951.244754830578
 30
0.0
 11
5596.841073621489
 21
-3951.244754830578
 31
0.0
  0
ARC
  5
AF72A
330
18
100
AcDbEntity
  8
実線
 48
0.5
100
AcDbCircle
 10
5596.841073621488
 20
-3951.730469116292
 30
0.0
 40
0.4857142857142857
100
AcDbArc
 50
90.0
 51
169.9999999999961
  0
LINE
  5
AF72B
330
18
100
AcDbEntity
  8
実線
 48
0.5
100
AcDbLine
 10
5596.564639264681
 20
-3946.232183402008
 30
0.0
 11
5596.564639264681
 21
-3949.632183402006
 31
0.0
  0
LINE
  5
AF72C
330
18
100
AcDbEntity
  8
実線
 48
0.5
100
AcDbLine
 10
5595.398924978965
 20
-3946.32932625915
 30
0.0
 11
5595.398924978965
 21
-3949.632183402006
 31
0.0
  0
LINE
  5
AF72D
330
18
100
AcDbEntity
  8
実線
 48
0.5
100
AcDbLine
 10
5594.427496407537
 20
-3946.32932625915
 30
0.0
 11
5594.009782121823
 21
-3946.747040544864
 31
0.0
  0
LINE
  5
AF72E
330
18
100
AcDbEntity
  8
実線
 48
0.5
100
AcDbLine
 10
5595.398924978965
 20
-3946.32932625915
 30
0.0
 11
5594.427496407537
 21
-3946.32932625915
 31
0.0
  0
LINE
  5
AF72F
330
18
100
AcDbEntity
  8
実線
 48
0.5
100
AcDbLine
 10
5594.427496407537
 20
-3944.872183402007
 30
0.0
 11
5595.398924978965
 21
-3943.900754830578
 31
0.0
  0
LINE
  5
AF730
330
18
100
AcDbEntity
  8
実線
 48
0.5
100
AcDbLine
 10
5597.827496407537
 20
-3949.632183402006
 30
0.0
 11
5594.009782121823
 21
-3949.632183402006
 31
0.0
  0
LINE
  5
AF731
330
18
100
AcDbEntity
  8
実線
 48
0.5
100
AcDbLine
 10
5607.827496407537
 20
-3949.632183402006
 30
0.0
 11
5597.827496407537
 21
-3949.632183402006
 31
0.0
  0
LINE
  5
AF732
330
18
100
AcDbEntity
  8
実線
 48
0.5
100
AcDbLine
 10
5604.577496407537
 20
-3973.832228503482
 30
0.0
 11
5600.577496407537
 21
-3973.832228503482
 31
0.0
  0
LINE
  5
AF733
330
18
100
AcDbEntity
  8
実線
100
AcDbLine
 10
5599.327496407537
 20
-3973.832228503482
 30
0.0
 11
5605.827496407537
 21
-3973.832228503482
 31
0.0
  0
LINE
  5
AF734
330
18
100
AcDbEntity
  8
実線
 48
0.5
100
AcDbLine
 10
5601.527496407538
 20
-3963.832228503482
 30
0.0
 11
5602.577496407537
 21
-3973.832228503482
 31
0.0
  0
LINE
  5
AF735
330
18
100
AcDbEntity
  8
実線
 48
0.5
100
AcDbLine
 10
5599.527496407538
 20
-3963.832228503482
 30
0.0
 11
5600.577496407537
 21
-3973.832228503482
 31
0.0
  0
LINE
  5
AF736
330
18
100
AcDbEntity
  8
実線
 48
0.5
100
AcDbLine
 10
5603.627496407536
 20
-3963.832228503482
 30
0.0
 11
5602.577496407537
 21
-3973.832228503482
 31
0.0
  0
LINE
  5
AF737
330
18
100
AcDbEntity
  8
実線
 48
0.5
100
AcDbLine
 10
5605.627496407536
 20
-3963.832228503482
 30
0.0
 11
5604.577496407537
 21
-3973.832228503482
 31
0.0
  0
LINE
  5
AF738
330
18
100
AcDbEntity
  8
実線
 48
0.5
100
AcDbLine
 10
5602.252496407537
 20
-3940.132183402007
 30
0.0
 11
5602.252496407537
 21
-3949.632183402006
 31
0.0
  0
LINE
  5
AF739
330
18
100
AcDbEntity
  8
実線
 48
0.5
100
AcDbLine
 10
5602.902496407537
 20
-3940.132183402007
 30
0.0
 11
5602.902496407537
 21
-3949.632183402006
 31
0.0
  0
LINE
  5
AF73A
330
18
100
AcDbEntity
  8
実線
 48
0.5
100
AcDbLine
 10
5606.352496407538
 20
-3940.132183402007
 30
0.0
 11
5606.352496407537
 21
-3949.632183402006
 31
0.0
  0
LINE
  5
AF73B
330
18
100
AcDbEntity
  8
実線
 48
0.5
100
AcDbLine
 10
5598.802496407538
 20
-3940.132183402007
 30
0.0
 11
5598.802496407538
 21
-3949.632183402006
 31
0.0
  0
SPLINE
  5
AF73C
330
18
100
AcDbEntity
  8
実線
100
AcDbSpline
210
0.0
220
0.0
230
1.0
 70
  1064
 71
     3
 72
    11
 73
     7
 74
     5
 42
0.000000001
 43
0.0000000001
 44
0.0000000001
 40
0.0
 40
0.0
 40
0.0
 40
0.0
 40
1.962294862387989
 40
3.412610777824868
 40
4.859995365035026
 40
6.826861343342191
 40
6.826861343342191
 40
6.826861343342191
 40
6.826861343342191
 10
5651.567278686639
 20
-4037.939901572779
 30
0.0
 10
5651.854689449997
 20
-4037.303271701878
 30
0.0
 10
5652.354523133254
 20
-4036.196113954811
 30
0.0
 10
5651.571452212852
 20
-4034.690123722048
 30
0.0
 10
5650.776938825126
 20
-4033.187315559238
 30
0.0
 10
5651.278399497303
 20
-4032.078603428054
 30
0.0
 10
5651.567278686639
 20
-4031.439901572779
 30
0.0
 11
5651.567278686639
 21
-4037.939901572779
 31
0.0
 11
5652.082440610441
 21
-4036.046436674975
 31
0.0
 11
5651.569382357333
 21
-4034.689901572779
 31
0.0
 11
5651.052116762834
 21
-4033.338103345216
 31
0.0
 11
5651.567278686639
 21
-4031.439901572779
 31
0.0
  0
SPLINE
  5
AF73D
330
18
100
AcDbEntity
  8
実線
100
AcDbSpline
210
0.0
220
0.0
230
1.0
 70
  1064
 71
     3
 72
     9
 73
     5
 74
     3
 42
0.000000001
 43
0.0000000001
 44
0.0000000001
 40
0.0
 40
0.0
 40
0.0
 40
0.0
 40
1.4428857823263
 40
3.409751760632988
 40
3.409751760632988
 40
3.409751760632988
 40
3.409751760632988
 10
5651.567278686639
 20
-4034.685889520061
 30
0.0
 10
5651.801986149211
 20
-4034.239781997281
 30
0.0
 10
5652.356634475187
 20
-4033.185564172238
 30
0.0
 10
5651.85603959929
 20
-4032.078497162643
 30
0.0
 10
5651.567278686639
 20
-4031.439901572779
 30
0.0
 11
5651.567278686639
 21
-4034.685889520061
 31
0.0
 11
5652.082440610441
 21
-4033.338103345216
 31
0.0
 11
5651.567278686639
 21
-4031.439901572779
 31
0.0
  0
SPLINE
  5
AF73E
330
18
100
AcDbEntity
  8
実線
100
AcDbSpline
210
0.0
220
0.0
230
1.0
 70
  1064
 71
     3
 72
    11
 73
     7
 74
     5
 42
0.000000001
 43
0.0000000001
 44
0.0000000001
 40
0.0
 40
0.0
 40
0.0
 40
0.0
 40
1.962294862387989
 40
3.412610777824868
 40
4.859995365035026
 40
6.826861343342191
 40
6.826861343342191
 40
6.826861343342191
 40
6.826861343342191
 10
5656.062658842635
 20
-4031.439900565346
 30
0.0
 10
5655.775248079275
 20
-4032.076530436246
 30
0.0
 10
5655.275414396016
 20
-4033.183688183313
 30
0.0
 10
5656.058485316425
 20
-4034.689678416077
 30
0.0
 10
5656.852998704147
 20
-4036.192486578886
 30
0.0
 10
5656.351538031974
 20
-4037.301198710073
 30
0.0
 10
5656.062658842635
 20
-4037.939900565346
 30
0.0
 11
5656.062658842635
 21
-4031.439900565346
 31
0.0
 11
5655.547496918834
 21
-4033.333365463151
 31
0.0
 11
5656.060555171941
 21
-4034.689900565346
 31
0.0
 11
5656.57782076644
 21
-4036.041698792909
 31
0.0
 11
5656.062658842635
 21
-4037.939900565346
 31
0.0
  0
SPLINE
  5
AF73F
330
18
100
AcDbEntity
  8
実線
100
AcDbSpline
210
0.0
220
0.0
230
1.0
 70
  1064
 71
     3
 72
     9
 73
     5
 74
     3
 42
0.000000001
 43
0.0000000001
 44
0.0000000001
 40
0.0
 40
0.0
 40
0.0
 40
0.0
 40
1.4428857823263
 40
3.409751760632988
 40
3.409751760632988
 40
3.409751760632988
 40
3.409751760632988
 10
5656.062658842635
 20
-4034.693912618063
 30
0.0
 10
5655.827951380062
 20
-4035.140020140842
 30
0.0
 10
5655.273303054084
 20
-4036.194237965886
 30
0.0
 10
5655.773897929984
 20
-4037.301304975481
 30
0.0
 10
5656.062658842635
 20
-4037.939900565346
 30
0.0
 11
5656.062658842635
 21
-4034.693912618063
 31
0.0
 11
5655.547496918834
 21
-4036.041698792909
 31
0.0
 11
5656.062658842635
 21
-4037.939900565346
 31
0.0
  0
LINE
  5
AF740
330
18
100
AcDbEntity
  8
実線
100
AcDbLine
 10
5640.827496407537
 20
-4037.939900565346
 30
0.0
 11
5651.567278686638
 21
-4037.939900565347
 31
0.0
  0
LINE
  5
AF741
330
18
100
AcDbEntity
  8
実線
100
AcDbLine
 10
5640.827496407538
 20
-4031.439900565346
 30
0.0
 11
5651.567278686639
 21
-4031.439900565347
 31
0.0
  0
LINE
  5
AF743
330
18
100
AcDbEntity
  8
実線
100
AcDbLine
 10
5656.062658842636
 20
-4037.939900565341
 30
0.0
 11
5666.93591957875
 21
-4037.939900565342
 31
0.0
  0
LINE
  5
AF744
330
18
100
AcDbEntity
  8
実線
100
AcDbLine
 10
5656.062658842636
 20
-4031.439900565345
 30
0.0
 11
5666.93591957875
 21
-4031.439900565342
 31
0.0
  0
ARC
  5
AFA0E
330
18
100
AcDbEntity
  8
実線
100
AcDbCircle
 10
5904.470780638314
 20
-3891.202114174981
 30
0.0
 40
0.4
100
AcDbArc
 50
0.0
 51
90.0
  0
ARC
  5
AFA0F
330
18
100
AcDbEntity
  8
実線
100
AcDbCircle
 10
5904.470780638314
 20
-3830.40211551608
 30
0.0
 40
0.4
100
AcDbArc
 50
270.0
 51
0.0
  0
LINE
  5
AFA11
330
18
100
AcDbEntity
  8
実線
100
AcDbLine
 10
5689.435919578749
 20
-4021.34078967856
 30
0.0
 11
5688.935919578749
 21
-4021.840789678559
 31
0.0
  0
LINE
  5
AFA12
330
18
100
AcDbEntity
  8
実線
100
AcDbLine
 10
5840.93591957875
 20
-4021.34078967856
 30
0.0
 11
5841.435919578749
 21
-4021.840789678559
 31
0.0
  0
LINE
  5
B33E0
330
18
100
AcDbEntity
  8
中心線
 48
0.5
100
AcDbLine
 10
5827.272229026647
 20
-4088.540790396158
 30
0.0
 11
5827.272229026647
 21
-4066.54079039616
 31
0.0
  0
LINE
  5
B33E1
330
18
100
AcDbEntity
  8
隠れ線
 48
10.0
100
AcDbLine
 10
5823.772229026644
 20
-4069.540790396156
 30
0.0
 11
5823.772229026644
 21
-4087.540790396157
 31
0.0
  0
LINE
  5
B33E2
330
18
100
AcDbEntity
  8
隠れ線
 48
10.0
100
AcDbLine
 10
5833.272229026642
 20
-4069.540790396156
 30
0.0
 11
5821.272229026642
 21
-4069.540790396156
 31
0.0
  0
LINE
  5
B33E3
330
18
100
AcDbEntity
  8
隠れ線
 48
10.0
100
AcDbLine
 10
5821.272229026642
 20
-4067.540790396161
 30
0.0
 11
5821.272229026642
 21
-4069.540790396156
 31
0.0
  0
LINE
  5
B33E4
330
18
100
AcDbEntity
  8
隠れ線
 48
10.0
100
AcDbLine
 10
5830.772229026644
 20
-4087.540790396157
 30
0.0
 11
5830.772229026644
 21
-4069.540790396156
 31
0.0
  0
LINE
  5
B33E5
330
18
100
AcDbEntity
  8
隠れ線
 48
10.0
100
AcDbLine
 10
5833.272229026642
 20
-4069.540790396156
 30
0.0
 11
5833.272229026642
 21
-4067.540790396161
 31
0.0
  0
LINE
  5
B3413
330
18
100
AcDbEntity
  8
中心線
 48
0.5
100
AcDbLine
 10
5973.870783024739
 20
-3802.465807260283
 30
0.0
 11
5951.870783024741
 21
-3802.465807260283
 31
0.0
  0
LINE
  5
B3414
330
18
100
AcDbEntity
  8
隠れ線
 48
10.0
100
AcDbLine
 10
5954.870783024738
 20
-3805.965807260287
 30
0.0
 11
5972.870783024738
 21
-3805.965807260287
 31
0.0
  0
LINE
  5
B3415
330
18
100
AcDbEntity
  8
隠れ線
 48
10.0
100
AcDbLine
 10
5954.870783024738
 20
-3796.465807260289
 30
0.0
 11
5954.870783024738
 21
-3808.465807260289
 31
0.0
  0
LINE
  5
B3416
330
18
100
AcDbEntity
  8
隠れ線
 48
10.0
100
AcDbLine
 10
5952.870783024741
 20
-3808.465807260289
 30
0.0
 11
5954.870783024738
 21
-3808.465807260289
 31
0.0
  0
LINE
  5
B3417
330
18
100
AcDbEntity
  8
隠れ線
 48
10.0
100
AcDbLine
 10
5972.870783024738
 20
-3798.965807260287
 30
0.0
 11
5954.870783024738
 21
-3798.965807260287
 31
0.0
  0
LINE
  5
B3418
330
18
100
AcDbEntity
  8
隠れ線
 48
10.0
100
AcDbLine
 10
5954.870783024738
 20
-3796.465807260289
 30
0.0
 11
5952.870783024741
 21
-3796.465807260289
 31
0.0
  0
LINE
  5
B3419
330
18
100
AcDbEntity
  8
中心線
 48
0.5
100
AcDbLine
 10
5973.870783024739
 20
-3919.138426156083
 30
0.0
 11
5951.870783024741
 21
-3919.138426156083
 31
0.0
  0
LINE
  5
B341A
330
18
100
AcDbEntity
  8
隠れ線
 48
10.0
100
AcDbLine
 10
5954.870783024738
 20
-3915.63842615608
 30
0.0
 11
5972.870783024738
 21
-3915.63842615608
 31
0.0
  0
LINE
  5
B341B
330
18
100
AcDbEntity
  8
隠れ線
 48
10.0
100
AcDbLine
 10
5954.870783024738
 20
-3925.138426156078
 30
0.0
 11
5954.870783024738
 21
-3913.138426156078
 31
0.0
  0
LINE
  5
B341C
330
18
100
AcDbEntity
  8
隠れ線
 48
10.0
100
AcDbLine
 10
5952.870783024741
 20
-3913.138426156078
 30
0.0
 11
5954.870783024738
 21
-3913.138426156078
 31
0.0
  0
LINE
  5
B341D
330
18
100
AcDbEntity
  8
隠れ線
 48
10.0
100
AcDbLine
 10
5972.870783024738
 20
-3922.63842615608
 30
0.0
 11
5954.870783024738
 21
-3922.63842615608
 31
0.0
  0
LINE
  5
B341E
330
18
100
AcDbEntity
  8
隠れ線
 48
10.0
100
AcDbLine
 10
5954.870783024738
 20
-3925.138426156078
 30
0.0
 11
5952.870783024741
 21
-3925.138426156078
 31
0.0
  0
LINE
  5
B3A74
330
18
100
AcDbEntity
  8
隠れ線
 48
10.0
100
AcDbLine
 10
5910.370780608513
 20
-3851.302115151007
 30
0.0
 11
5971.870782307245
 21
-3851.302115151007
 31
0.0
  0
LINE
  5
B3A77
330
18
100
AcDbEntity
  8
隠れ線
 48
10.0
100
AcDbLine
 10
5910.370780608513
 20
-3860.80211484553
 30
0.0
 11
5910.370780608513
 21
-3840.802115292568
 31
0.0
  0
LINE
  5
B3A78
330
18
100
AcDbEntity
  8
隠れ線
 48
10.0
100
AcDbLine
 10
5901.870782009222
 20
-3840.802115292568
 30
0.0
 11
5910.370780608513
 21
-3840.802115292568
 31
0.0
  0
LINE
  5
B3A79
330
18
100
AcDbEntity
  8
隠れ線
 48
10.0
100
AcDbLine
 10
5971.870782307245
 20
-3860.80211484553
 30
0.0
 11
5971.870782307245
 21
-3850.002114565392
 31
0.0
  0
LINE
  5
B3A7A
330
18
100
AcDbEntity
  8
隠れ線
 48
10.0
100
AcDbLine
 10
5959.270782290854
 20
-3850.002114565392
 30
0.0
 11
5971.870782307245
 21
-3850.002114565392
 31
0.0
  0
LINE
  5
B3A8A
330
18
100
AcDbEntity
  8
隠れ線
 48
10.0
100
AcDbLine
 10
5910.370780608513
 20
-3870.302114540053
 30
0.0
 11
5971.870782307245
 21
-3870.302114540053
 31
0.0
  0
LINE
  5
B3A8B
330
18
100
AcDbEntity
  8
隠れ線
 48
10.0
100
AcDbLine
 10
5910.370780608513
 20
-3860.80211484553
 30
0.0
 11
5910.370780608513
 21
-3880.802114398492
 31
0.0
  0
LINE
  5
B3A8C
330
18
100
AcDbEntity
  8
隠れ線
 48
10.0
100
AcDbLine
 10
5901.870782009222
 20
-3880.802114398492
 30
0.0
 11
5910.370780608513
 21
-3880.802114398492
 31
0.0
  0
LINE
  5
B3A8D
330
18
100
AcDbEntity
  8
隠れ線
 48
10.0
100
AcDbLine
 10
5971.870782307245
 20
-3860.80211484553
 30
0.0
 11
5971.870782307245
 21
-3871.602115125668
 31
0.0
  0
LINE
  5
B3A8E
330
18
100
AcDbEntity
  8
隠れ線
 48
10.0
100
AcDbLine
 10
5959.270782290854
 20
-3871.602115125668
 30
0.0
 11
5971.870782307245
 21
-3871.602115125668
 31
0.0
  0
LINE
  5
B3A9D
330
18
100
AcDbEntity
  8
隠れ線
 48
10.0
100
AcDbLine
 10
5778.435919273276
 20
-4025.04078797983
 30
0.0
 11
5778.435919273276
 21
-4086.540789678561
 31
0.0
  0
LINE
  5
B3A9E
330
18
100
AcDbEntity
  8
隠れ線
 48
10.0
100
AcDbLine
 10
5768.935919578749
 20
-4025.04078797983
 30
0.0
 11
5788.935919131715
 21
-4025.04078797983
 31
0.0
  0
LINE
  5
B3A9F
330
18
100
AcDbEntity
  8
隠れ線
 48
10.0
100
AcDbLine
 10
5788.935919131715
 20
-4016.540789380539
 30
0.0
 11
5788.935919131715
 21
-4025.04078797983
 31
0.0
  0
LINE
  5
B3AA0
330
18
100
AcDbEntity
  8
隠れ線
 48
10.0
100
AcDbLine
 10
5768.935919578748
 20
-4086.540789678561
 30
0.0
 11
5779.735919858891
 21
-4086.540789678561
 31
0.0
  0
LINE
  5
B3AA1
330
18
100
AcDbEntity
  8
隠れ線
 48
10.0
100
AcDbLine
 10
5779.735919858891
 20
-4073.940789662171
 30
0.0
 11
5779.735919858891
 21
-4086.540789678561
 31
0.0
  0
LINE
  5
B3AAE
330
18
100
AcDbEntity
  8
隠れ線
 48
10.0
100
AcDbLine
 10
5759.43591988423
 20
-4025.04078797983
 30
0.0
 11
5759.43591988423
 21
-4086.540789678561
 31
0.0
  0
LINE
  5
B3AAF
330
18
100
AcDbEntity
  8
隠れ線
 48
10.0
100
AcDbLine
 10
5768.935919578749
 20
-4025.04078797983
 30
0.0
 11
5748.935920025791
 21
-4025.04078797983
 31
0.0
  0
LINE
  5
B3AB0
330
18
100
AcDbEntity
  8
隠れ線
 48
10.0
100
AcDbLine
 10
5748.935920025791
 20
-4016.540789380539
 30
0.0
 11
5748.935920025791
 21
-4025.04078797983
 31
0.0
  0
LINE
  5
B3AB1
330
18
100
AcDbEntity
  8
隠れ線
 48
10.0
100
AcDbLine
 10
5768.935919578748
 20
-4086.540789678561
 30
0.0
 11
5758.135919298615
 21
-4086.540789678561
 31
0.0
  0
LINE
  5
B3AB2
330
18
100
AcDbEntity
  8
隠れ線
 48
10.0
100
AcDbLine
 10
5758.135919298615
 20
-4073.940789662171
 30
0.0
 11
5758.135919298615
 21
-4086.540789678561
 31
0.0
  0
SPLINE
  5
B3CFF
330
18
100
AcDbEntity
  8
実線
100
AcDbSpline
210
0.0
220
0.0
230
1.0
 70
  1064
 71
     3
 72
    11
 73
     7
 74
     5
 42
0.000000001
 43
0.0000000001
 44
0.0000000001
 40
0.0
 40
0.0
 40
0.0
 40
0.0
 40
1.962294862387989
 40
3.412610777824868
 40
4.859995365035026
 40
6.826861343342191
 40
6.826861343342191
 40
6.826861343342191
 40
6.826861343342191
 10
5661.499289210699
 20
-3857.552114341818
 30
0.0
 10
5661.211878447339
 20
-3858.188744212719
 30
0.0
 10
5660.712044764081
 20
-3859.295901959786
 30
0.0
 10
5661.495115684488
 20
-3860.801892192549
 30
0.0
 10
5662.289629072211
 20
-3862.304700355359
 30
0.0
 10
5661.788168400036
 20
-3863.413412486545
 30
0.0
 10
5661.499289210699
 20
-3864.052114341818
 30
0.0
 11
5661.499289210699
 21
-3857.552114341818
 31
0.0
 11
5660.984127286897
 21
-3859.445579239622
 31
0.0
 11
5661.497185540004
 21
-3860.802114341818
 31
0.0
 11
5662.014451134503
 21
-3862.15391256938
 31
0.0
 11
5661.499289210699
 21
-3864.052114341818
 31
0.0
  0
SPLINE
  5
B3D00
330
18
100
AcDbEntity
  8
実線
100
AcDbSpline
210
0.0
220
0.0
230
1.0
 70
  1064
 71
     3
 72
     9
 73
     5
 74
     3
 42
0.000000001
 43
0.0000000001
 44
0.0000000001
 40
0.0
 40
0.0
 40
0.0
 40
0.0
 40
1.4428857823263
 40
3.409751760632988
 40
3.409751760632988
 40
3.409751760632988
 40
3.409751760632988
 10
5661.499289210699
 20
-3860.806126394535
 30
0.0
 10
5661.264581748125
 20
-3861.252233917315
 30
0.0
 10
5660.709933422147
 20
-3862.306451742358
 30
0.0
 10
5661.210528298046
 20
-3863.413518751953
 30
0.0
 10
5661.499289210699
 20
-3864.052114341818
 30
0.0
 11
5661.499289210699
 21
-3860.806126394535
 31
0.0
 11
5660.984127286897
 21
-3862.15391256938
 31
0.0
 11
5661.499289210699
 21
-3864.052114341818
 31
0.0
  0
LINE
  5
B3D01
330
18
100
AcDbEntity
  8
実線
100
AcDbLine
 10
5661.4992892107
 20
-3864.052114341816
 30
0.0
 11
5666.935919578758
 21
-3864.052114341816
 31
0.0
  0
LINE
  5
B3D02
330
18
100
AcDbEntity
  8
実線
100
AcDbLine
 10
5661.4992892107
 20
-3857.552114341817
 30
0.0
 11
5666.935919578758
 21
-3857.552114341816
 31
0.0
  0
LINE
  5
B5A44
330
18
100
AcDbEntity
  8
実線
 48
0.2
100
AcDbLine
 10
6147.64086826571
 20
-3828.297000533427
 30
0.0
 11
6173.307092655296
 21
-3828.300823349472
 31
0.0
  0
LINE
  5
B5A45
330
18
100
AcDbEntity
  8
実線
 48
0.2
100
AcDbLine
 10
6067.706135069244
 20
-3908.230335988225
 30
0.0
 11
6067.706135069245
 21
-3933.296170632889
 31
0.0
  0
LINE
  5
B5A46
330
18
100
AcDbEntity
  8
実線
 48
0.2
100
AcDbLine
 10
6132.706135069248
 20
-3908.230335988373
 30
0.0
 11
6132.706135069247
 21
-3933.296169452621
 31
0.0
  0
LINE
  5
B5A47
330
18
100
AcDbEntity
  8
実線
 48
0.2
100
AcDbLine
 10
6147.639731772708
 20
-3893.297000364172
 30
0.0
 11
6173.307092655296
 21
-3893.300823349561
 31
0.0
  0
LINE
  5
B5A48
330
18
100
AcDbEntity
  8
実線
 48
0.2
100
AcDbLine
 10
6027.706135522191
 20
-3828.296171085822
 30
0.0
 11
6052.771970166797
 21
-3828.29617108582
 31
0.0
  0
LINE
  5
B5A49
330
18
100
AcDbEntity
  8
実線
 48
0.2
100
AcDbLine
 10
6027.706136702444
 20
-3893.296171085822
 30
0.0
 11
6052.771970166862
 21
-3893.296171085822
 31
0.0
  0
LINE
  5
B5A4A
330
18
100
AcDbEntity
  8
実線
 48
0.2
100
AcDbLine
 10
6067.706135069247
 20
-3788.296172719022
 30
0.0
 11
6067.706135069247
 21
-3813.362006183322
 31
0.0
  0
LINE
  5
B5A4B
330
18
100
AcDbEntity
  8
実線
 48
0.2
100
AcDbLine
 10
6132.706135069246
 20
-3788.296171538754
 30
0.0
 11
6132.706135069246
 21
-3813.362006183174
 31
0.0
  0
ARC
  5
B5A4C
330
18
100
AcDbEntity
  8
中心線
 48
0.5
100
AcDbCircle
 10
6100.206135069248
 20
-3860.796171085749
 30
0.0
 40
82.5
100
AcDbArc
 50
38.58350283282184
 51
51.41649716723907
  0
CIRCLE
  5
B5A4D
330
18
100
AcDbEntity
  8
実線
 48
0.2
100
AcDbCircle
 10
6158.542444517134
 20
-3802.459861637855
 30
0.0
 40
3.5
  0
LINE
  5
B5A4E
330
18
100
AcDbEntity
  8
中心線
 48
0.5
100
AcDbLine
 10
6152.012832829701
 20
-3808.989473325286
 30
0.0
 11
6165.072056204566
 21
-3795.930249950423
 31
0.0
  0
ARC
  5
B5A4F
330
18
100
AcDbEntity
  8
中心線
 48
0.5
100
AcDbCircle
 10
6100.206135069255
 20
-3860.796171085742
 30
0.0
 40
82.5
100
AcDbArc
 50
128.5835028327609
 51
141.4164971671781
  0
CIRCLE
  5
B5A50
330
18
100
AcDbEntity
  8
実線
 48
0.2
100
AcDbCircle
 10
6041.869825621359
 20
-3802.459861637853
 30
0.0
 40
3.5
  0
LINE
  5
B5A51
330
18
100
AcDbEntity
  8
中心線
 48
0.5
100
AcDbLine
 10
6048.399437308791
 20
-3808.989473325288
 30
0.0
 11
6035.340213933928
 21
-3795.930249950423
 31
0.0
  0
ARC
  5
B5A52
330
18
100
AcDbEntity
  8
中心線
 48
0.5
100
AcDbCircle
 10
6100.206135069246
 20
-3860.796171085734
 30
0.0
 40
82.5
100
AcDbArc
 50
218.5835028328218
 51
231.4164971672391
  0
CIRCLE
  5
B5A53
330
18
100
AcDbEntity
  8
実線
 48
0.2
100
AcDbCircle
 10
6041.869825621359
 20
-3919.13248053363
 30
0.0
 40
3.5
  0
LINE
  5
B5A54
330
18
100
AcDbEntity
  8
中心線
 48
0.5
100
AcDbLine
 10
6048.39943730879
 20
-3912.602868846198
 30
0.0
 11
6035.340213933925
 21
-3925.662092221061
 31
0.0
  0
LINE
  5
B5A55
330
18
100
AcDbEntity
  8
中心線
 48
0.5
100
AcDbLine
 10
6152.012832829701
 20
-3912.602868846198
 30
0.0
 11
6165.072056204566
 21
-3925.662092221061
 31
0.0
  0
ARC
  5
B5A56
330
18
100
AcDbEntity
  8
中心線
 48
0.5
100
AcDbCircle
 10
6100.20613506924
 20
-3860.796171085742
 30
0.0
 40
82.5
100
AcDbArc
 50
308.5835028327609
 51
321.4164971671782
  0
CIRCLE
  5
B5A57
330
18
100
AcDbEntity
  8
実線
 48
0.2
100
AcDbCircle
 10
6158.542444517134
 20
-3919.13248053363
 30
0.0
 40
3.5
  0
LINE
  5
B5A58
330
18
100
AcDbEntity
  8
実線
 48
0.2
100
AcDbLine
 10
6063.086817093989
 20
-3802.553950720887
 30
0.0
 11
6061.93966422116
 21
-3800.915646632127
 31
0.0
  0
LINE
  5
B5A59
330
18
100
AcDbEntity
  8
実線
 48
0.2
100
AcDbLine
 10
6058.171904828258
 20
-3805.995409338992
 30
0.0
 11
6057.024751955428
 21
-3804.357105250232
 31
0.0
  0
ARC
  5
B5A5A
330
18
100
AcDbEntity
  8
実線
 48
0.2
100
AcDbCircle
 10
6060.629360961122
 20
-3804.274680029939
 30
0.0
 40
3.0
100
AcDbArc
 50
214.9999999999913
 51
34.99999999999132
  0
ARC
  5
B5A5B
330
18
100
AcDbEntity
  8
実線
 48
0.2
100
AcDbCircle
 10
6059.482208088295
 20
-3802.63637594118
 30
0.0
 40
3.0
100
AcDbArc
 50
34.99999999999132
 51
214.9999999999913
  0
CIRCLE
  5
B5A5C
330
18
100
AcDbEntity
  8
実線
 48
0.2
100
AcDbCircle
 10
6140.356485613909
 20
-3918.136814186106
 30
0.0
 40
3.0
  0
CIRCLE
  5
B5A5D
330
18
100
AcDbEntity
  8
中心線
 48
0.5
100
AcDbCircle
 10
6100.206135069333
 20
-3860.796171085873
 30
0.0
 40
70.0
  0
CIRCLE
  5
B5A5E
330
18
100
AcDbEntity
  8
実線
100
AcDbCircle
 10
6100.206135069293
 20
-3860.796171085782
 30
0.0
 40
0.0000000000618456
  0
ARC
  5
B5A5F
330
18
100
AcDbEntity
  8
実線
 48
0.2
100
AcDbCircle
 10
6100.206135069235
 20
-3860.796171085823
 30
0.0
 40
92.49999999999998
100
AcDbArc
 50
128.3916673618234
 51
141.6083326381042
  0
ARC
  5
B5A60
330
18
100
AcDbEntity
  8
実線
 48
0.2
100
AcDbCircle
 10
6100.206135069235
 20
-3860.796171085823
 30
0.0
 40
92.50000000000003
100
AcDbArc
 50
38.39166736189583
 51
51.60833263817654
  0
LINE
  5
B5A61
330
18
100
AcDbEntity
  8
実線
 48
0.2
100
AcDbLine
 10
6157.651761534575
 20
-3788.296171085793
 30
0.0
 11
6042.760508363351
 21
-3788.296173171986
 31
0.0
  0
ARC
  5
B5A62
330
18
100
AcDbEntity
  8
実線
 48
0.2
100
AcDbCircle
 10
6100.206135069235
 20
-3860.796171085823
 30
0.0
 40
92.5
100
AcDbArc
 50
218.3916673618958
 51
231.6083326381757
  0
ARC
  5
B5A63
330
18
100
AcDbEntity
  8
実線
 48
0.2
100
AcDbCircle
 10
6100.206135069235
 20
-3860.796171085823
 30
0.0
 40
92.50000000000001
100
AcDbArc
 50
308.3916673618235
 51
321.6083326381042
  0
LINE
  5
B5A64
330
18
100
AcDbEntity
  8
実線
 48
0.2
100
AcDbLine
 10
6027.706135069236
 20
-3803.350544620442
 30
0.0
 11
6027.706137155398
 21
-3918.241797791708
 31
0.0
  0
LINE
  5
B5A65
330
18
100
AcDbEntity
  8
実線
 48
0.2
100
AcDbLine
 10
6042.760508603895
 20
-3933.296171085855
 30
0.0
 11
6157.651761775121
 21
-3933.296168999661
 31
0.0
  0
CIRCLE
  5
B5A66
330
18
100
AcDbEntity
  8
実線
100
AcDbCircle
 10
6100.206135069236
 20
-3860.796171085762
 30
0.0
 40
0.0000000000618456
  0
LINE
  5
B5A67
330
18
100
AcDbEntity
  8
中心線
 48
0.5
100
AcDbLine
 10
6100.206135069248
 20
-3784.69831811081
 30
0.0
 11
6100.206135069248
 21
-3948.244467931565
 31
0.0
  0
LINE
  5
B5A68
330
18
100
AcDbEntity
  8
中心線
 48
0.5
100
AcDbLine
 10
6056.868153636738
 20
-3798.900762938064
 30
0.0
 11
6143.539744973145
 21
-3922.694639864133
 31
0.0
  0
LINE
  5
B5A6A
330
18
100
AcDbEntity
  8
中心線
 48
0.5
100
AcDbLine
 10
6020.324133874114
 20
-3860.796171085822
 30
0.0
 11
6212.337687066398
 21
-3860.806788766424
 31
0.0
  0
HATCH
  5
B5A72
330
18
100
AcDbEntity
  8
実線
100
AcDbHatch
 10
0.0
 20
0.0
 30
0.0
210
0.0
220
0.0
230
1.0
  2
SOLID
 70
     1
 71
     0
 91
        2
 92
        7
 72
     1
 73
     1
 93
        3
 10
6142.808705364912
 20
-3916.419751074791
 42
0.4142135623731057
 10
6138.63051992299
 20
-3915.68302425098
 42
0.0
 10
6140.351249232042
 20
-3918.140480383846
 42
0.0
 97
        0
 92
        7
 72
     1
 73
     1
 93
        3
 10
6142.071978541096
 20
-3920.597936516713
 42
0.0
 10
6140.351249232042
 20
-3918.140480383846
 42
0.0
 10
6137.893793099173
 20
-3919.861209692899
 42
0.4142135623731057
 97
        0
 75
     0
 76
     1
 47
0.0110124163047153
 98
        2
 10
6140.660561720234
 20
-3916.762298868555
 10
6140.24886024187
 20
-3920.236547492872
  0
ARC
  5
B5A73
330
18
100
AcDbEntity
  8
実線
 48
0.2
100
AcDbCircle
 10
6100.206135069248
 20
-3860.800823349517
 30
0.0
 40
80.00000000000044
100
AcDbArc
 50
336.0305176822056
 51
23.96948231779443
  0
LINE
  5
B5A74
330
18
100
AcDbEntity
  8
実線
 48
0.2
100
AcDbLine
 10
6172.706134425248
 20
-3895.060858535617
 30
0.0
 11
6172.706135069191
 21
-3918.241797551259
 31
0.0
  0
ARC
  5
B5A75
330
18
100
AcDbEntity
  8
実線
 48
0.2
100
AcDbCircle
 10
6100.206135069248
 20
-3860.800823349517
 30
0.0
 40
80.00000000000044
100
AcDbArc
 50
335.3038954243897
 51
336.0305176822056
  0
ARC
  5
B5A76
330
18
100
AcDbEntity
  8
実線
 48
0.2
100
AcDbCircle
 10
6174.706135069247
 20
-3895.060858375817
 30
0.0
 40
2.000000000000043
100
AcDbArc
 50
155.3038954243899
 51
180.0
  0
LINE
  5
B5A77
330
18
100
AcDbEntity
  8
実線
 48
0.2
100
AcDbLine
 10
6172.706135069191
 20
-3803.350544620388
 30
0.0
 11
6172.706134425248
 21
-3826.540789413317
 31
0.0
  0
ARC
  5
B5A78
330
18
100
AcDbEntity
  8
実線
 48
0.2
100
AcDbCircle
 10
6100.206135069248
 20
-3860.800823349517
 30
0.0
 40
80.00000000000047
100
AcDbArc
 50
23.96948231779443
 51
24.6961045756103
  0
ARC
  5
B5A79
330
18
100
AcDbEntity
  8
実線
 48
0.2
100
AcDbCircle
 10
6174.706135069247
 20
-3826.540788323317
 30
0.0
 40
2.0
100
AcDbArc
 50
180.0
 51
204.6961045756101
  0
CIRCLE
  5
B5A7F
330
18
100
AcDbEntity
  8
実線
 48
0.2
100
AcDbCircle
 10
6100.204902134212
 20
-3860.802234738463
 30
0.0
 40
9.5
  0
CIRCLE
  5
B5A80
330
18
100
AcDbEntity
  8
実線
 48
0.2
100
AcDbCircle
 10
6100.204902134263
 20
-3860.802234738613
 30
0.0
 40
10.8
  0
CIRCLE
  5
B5A81
330
18
100
AcDbEntity
  8
実線
 48
0.2
100
AcDbCircle
 10
6100.204902134158
 20
-3860.802234738493
 30
0.0
 40
10.8
  0
CIRCLE
  5
B5A82
330
18
100
AcDbEntity
  8
実線
 48
0.2
100
AcDbCircle
 10
6100.204902134166
 20
-3860.806887002261
 30
0.0
 40
11.3
  0
ARC
  5
B5A85
330
18
100
AcDbEntity
  8
実線
100
AcDbCircle
 10
6100.206875010466
 20
-3860.801880217091
 30
0.0
 40
57.0
100
AcDbArc
 50
17.03218872133184
 51
72.96781127864329
  0
LINE
  5
B5A87
330
18
100
AcDbEntity
  8
実線
100
AcDbLine
 10
6045.706875010466
 20
-3877.497688074155
 30
0.0
 11
6045.706875010466
 21
-3844.106072360027
 31
0.0
  0
LINE
  5
B5A88
330
18
100
AcDbEntity
  8
実線
100
AcDbLine
 10
6083.511067153402
 20
-3915.301880217091
 30
0.0
 11
6116.902682867531
 21
-3915.301880217091
 31
0.0
  0
LINE
  5
B5A89
330
18
100
AcDbEntity
  8
実線
100
AcDbLine
 10
6083.511067153402
 20
-3806.301880217091
 30
0.0
 11
6116.902682867531
 21
-3806.301880217091
 31
0.0
  0
ARC
  5
B5A8A
330
18
100
AcDbEntity
  8
実線
100
AcDbCircle
 10
6100.206875010466
 20
-3860.801880217091
 30
0.0
 40
57.0
100
AcDbArc
 50
287.0321887213567
 51
342.9678112786681
  0
ARC
  5
B5A8B
330
18
100
AcDbEntity
  8
実線
100
AcDbCircle
 10
6100.206875010466
 20
-3860.801880217091
 30
0.0
 40
57.0
100
AcDbArc
 50
107.0321887213567
 51
162.9678112786681
  0
ARC
  5
B5A8C
330
18
100
AcDbEntity
  8
実線
100
AcDbCircle
 10
6100.206875010466
 20
-3860.801880217091
 30
0.0
 40
57.0
100
AcDbArc
 50
197.0321887213318
 51
252.9678112786433
  0
LINE
  5
B5A8D
330
18
100
AcDbEntity
  8
実線
100
AcDbLine
 10
6062.150864302832
 20
-3821.005434315912
 30
0.0
 11
6061.457423401267
 21
-3821.698875217475
 31
0.0
  0
LINE
  5
B5A8E
330
18
100
AcDbEntity
  8
実線
100
AcDbLine
 10
6061.457423401267
 20
-3821.698875217475
 30
0.0
 11
6060.763982499704
 21
-3821.00543431591
 31
0.0
  0
LINE
  5
B5A8F
330
18
100
AcDbEntity
  8
実線
100
AcDbLine
 10
6060.41042910911
 20
-3821.358987706504
 30
0.0
 11
6060.763982499704
 21
-3821.005434315912
 31
0.0
  0
LINE
  5
B5A90
330
18
100
AcDbEntity
  8
実線
100
AcDbLine
 10
6062.150864302832
 20
-3821.005434315912
 30
0.0
 11
6062.504417693425
 21
-3821.358987706504
 31
0.0
  0
LINE
  5
B5A91
330
18
100
AcDbEntity
  8
実線
100
AcDbLine
 10
6062.504417693425
 20
-3822.745869509633
 30
0.0
 11
6061.810976791861
 21
-3822.052428608069
 31
0.0
  0
LINE
  5
B5A92
330
18
100
AcDbEntity
  8
実線
100
AcDbLine
 10
6062.150864302832
 20
-3823.099422900224
 30
0.0
 11
6061.457423401268
 21
-3822.405981998662
 31
0.0
  0
LINE
  5
B5A93
330
18
100
AcDbEntity
  8
実線
100
AcDbLine
 10
6061.457423401269
 20
-3822.405981998662
 30
0.0
 11
6060.763982499704
 21
-3823.099422900224
 31
0.0
  0
LINE
  5
B5A94
330
18
100
AcDbEntity
  8
実線
100
AcDbLine
 10
6061.103870010675
 20
-3822.052428608067
 30
0.0
 11
6060.41042910911
 21
-3822.745869509633
 31
0.0
  0
LINE
  5
B5A95
330
18
100
AcDbEntity
  8
実線
100
AcDbLine
 10
6062.150864302832
 20
-3823.099422900226
 30
0.0
 11
6062.504417693425
 21
-3822.745869509633
 31
0.0
  0
LINE
  5
B5A96
330
18
100
AcDbEntity
  8
実線
100
AcDbLine
 10
6060.41042910911
 20
-3822.745869509633
 30
0.0
 11
6060.763982499704
 21
-3823.099422900224
 31
0.0
  0
LINE
  5
B5A97
330
18
100
AcDbEntity
  8
実線
100
AcDbLine
 10
6062.504417693425
 20
-3821.358987706504
 30
0.0
 11
6061.810976791861
 21
-3822.052428608069
 31
0.0
  0
LINE
  5
B5A98
330
18
100
AcDbEntity
  8
実線
100
AcDbLine
 10
6061.103870010675
 20
-3822.052428608067
 30
0.0
 11
6060.41042910911
 21
-3821.358987706504
 31
0.0
  0
CIRCLE
  5
B5A99
330
18
100
AcDbEntity
  8
実線
100
AcDbCircle
 10
6061.457423401267
 20
-3822.052428608069
 30
0.0
 40
2.0
  0
LINE
  5
B5A9B
330
18
100
AcDbEntity
  8
実線
100
AcDbLine
 10
6060.41042911108
 20
-3898.85789092546
 30
0.0
 11
6061.103870012644
 21
-3899.551331827025
 31
0.0
  0
LINE
  5
B5A9C
330
18
100
AcDbEntity
  8
実線
100
AcDbLine
 10
6061.103870012644
 20
-3899.551331827025
 30
0.0
 11
6060.410429111078
 21
-3900.244772728587
 31
0.0
  0
LINE
  5
B5A9D
330
18
100
AcDbEntity
  8
実線
100
AcDbLine
 10
6060.763982501672
 20
-3900.598326119182
 30
0.0
 11
6060.41042911108
 21
-3900.244772728587
 31
0.0
  0
LINE
  5
B5A9E
330
18
100
AcDbEntity
  8
実線
100
AcDbLine
 10
6060.41042911108
 20
-3898.85789092546
 30
0.0
 11
6060.763982501673
 21
-3898.504337534868
 31
0.0
  0
LINE
  5
B5A9F
330
18
100
AcDbEntity
  8
実線
100
AcDbLine
 10
6062.1508643048
 20
-3898.504337534868
 30
0.0
 11
6061.457423403238
 21
-3899.19777843643
 31
0.0
  0
LINE
  5
B5AA0
330
18
100
AcDbEntity
  8
実線
100
AcDbLine
 10
6062.504417695393
 20
-3898.85789092546
 30
0.0
 11
6061.810976793831
 21
-3899.551331827023
 31
0.0
  0
LINE
  5
B5AA1
330
18
100
AcDbEntity
  8
実線
100
AcDbLine
 10
6061.810976793831
 20
-3899.551331827023
 30
0.0
 11
6062.504417695393
 21
-3900.244772728587
 31
0.0
  0
LINE
  5
B5AA2
330
18
100
AcDbEntity
  8
実線
100
AcDbLine
 10
6061.457423403235
 20
-3899.904885217618
 30
0.0
 11
6062.1508643048
 21
-3900.598326119182
 31
0.0
  0
LINE
  5
B5AA3
330
18
100
AcDbEntity
  8
実線
100
AcDbLine
 10
6062.504417695396
 20
-3898.85789092546
 30
0.0
 11
6062.1508643048
 21
-3898.504337534868
 31
0.0
  0
LINE
  5
B5AA4
330
18
100
AcDbEntity
  8
実線
100
AcDbLine
 10
6062.1508643048
 20
-3900.598326119182
 30
0.0
 11
6062.504417695393
 21
-3900.244772728587
 31
0.0
  0
LINE
  5
B5AA5
330
18
100
AcDbEntity
  8
実線
100
AcDbLine
 10
6060.763982501673
 20
-3898.504337534868
 30
0.0
 11
6061.457423403238
 21
-3899.19777843643
 31
0.0
  0
LINE
  5
B5AA6
330
18
100
AcDbEntity
  8
実線
100
AcDbLine
 10
6061.457423403235
 20
-3899.904885217618
 30
0.0
 11
6060.763982501672
 21
-3900.598326119182
 31
0.0
  0
CIRCLE
  5
B5AA7
330
18
100
AcDbEntity
  8
実線
100
AcDbCircle
 10
6061.457423403237
 20
-3899.551331827024
 30
0.0
 40
2.0
  0
LINE
  5
B5AA8
330
18
100
AcDbEntity
  8
実線
100
AcDbLine
 10
6138.262885720629
 20
-3900.598326117212
 30
0.0
 11
6138.956326622194
 21
-3899.904885215649
 31
0.0
  0
LINE
  5
B5AA9
330
18
100
AcDbEntity
  8
実線
100
AcDbLine
 10
6138.956326622194
 20
-3899.904885215649
 30
0.0
 11
6139.649767523756
 21
-3900.598326117214
 31
0.0
  0
LINE
  5
B5AAA
330
18
100
AcDbEntity
  8
実線
100
AcDbLine
 10
6140.003320914352
 20
-3900.244772726619
 30
0.0
 11
6139.649767523756
 21
-3900.598326117212
 31
0.0
  0
LINE
  5
B5AAB
330
18
100
AcDbEntity
  8
実線
100
AcDbLine
 10
6138.262885720629
 20
-3900.598326117212
 30
0.0
 11
6137.909332330036
 21
-3900.244772726619
 31
0.0
  0
LINE
  5
B5AAC
330
18
100
AcDbEntity
  8
実線
100
AcDbLine
 10
6137.909332330036
 20
-3898.857890923492
 30
0.0
 11
6138.6027732316
 21
-3899.551331825055
 31
0.0
  0
LINE
  5
B5AAD
330
18
100
AcDbEntity
  8
実線
100
AcDbLine
 10
6138.262885720629
 20
-3898.504337532899
 30
0.0
 11
6138.956326622193
 21
-3899.197778434462
 31
0.0
  0
LINE
  5
B5AAE
330
18
100
AcDbEntity
  8
実線
100
AcDbLine
 10
6138.956326622192
 20
-3899.197778434462
 30
0.0
 11
6139.649767523756
 21
-3898.504337532899
 31
0.0
  0
LINE
  5
B5AAF
330
18
100
AcDbEntity
  8
実線
100
AcDbLine
 10
6139.309880012786
 20
-3899.551331825057
 30
0.0
 11
6140.003320914352
 21
-3898.857890923492
 31
0.0
  0
LINE
  5
B5AB0
330
18
100
AcDbEntity
  8
実線
100
AcDbLine
 10
6138.262885720629
 20
-3898.504337532898
 30
0.0
 11
6137.909332330036
 21
-3898.857890923492
 31
0.0
  0
LINE
  5
B5AB1
330
18
100
AcDbEntity
  8
実線
100
AcDbLine
 10
6140.003320914352
 20
-3898.857890923492
 30
0.0
 11
6139.649767523756
 21
-3898.504337532899
 31
0.0
  0
LINE
  5
B5AB2
330
18
100
AcDbEntity
  8
実線
100
AcDbLine
 10
6137.909332330036
 20
-3900.244772726619
 30
0.0
 11
6138.6027732316
 21
-3899.551331825055
 31
0.0
  0
LINE
  5
B5AB3
330
18
100
AcDbEntity
  8
実線
100
AcDbLine
 10
6139.309880012786
 20
-3899.551331825057
 30
0.0
 11
6140.003320914352
 21
-3900.244772726619
 31
0.0
  0
CIRCLE
  5
B5AB4
330
18
100
AcDbEntity
  8
実線
100
AcDbCircle
 10
6138.956326622194
 20
-3899.551331825055
 30
0.0
 40
2.0
  0
LINE
  5
B5AB5
330
18
100
AcDbEntity
  8
実線
100
AcDbLine
 10
6140.003320912381
 20
-3822.745869507663
 30
0.0
 11
6139.309880010817
 21
-3822.052428606099
 31
0.0
  0
LINE
  5
B5AB6
330
18
100
AcDbEntity
  8
実線
100
AcDbLine
 10
6139.309880010817
 20
-3822.052428606099
 30
0.0
 11
6140.003320912382
 21
-3821.358987704536
 31
0.0
  0
LINE
  5
B5AB7
330
18
100
AcDbEntity
  8
実線
100
AcDbLine
 10
6139.649767521788
 20
-3821.005434313941
 30
0.0
 11
6140.003320912381
 21
-3821.358987704536
 31
0.0
  0
LINE
  5
B5AB8
330
18
100
AcDbEntity
  8
実線
100
AcDbLine
 10
6140.003320912381
 20
-3822.745869507663
 30
0.0
 11
6139.649767521788
 21
-3823.099422898256
 31
0.0
  0
LINE
  5
B5AB9
330
18
100
AcDbEntity
  8
実線
100
AcDbLine
 10
6138.26288571866
 20
-3823.099422898256
 30
0.0
 11
6138.956326620223
 21
-3822.405981996693
 31
0.0
  0
LINE
  5
B5ABA
330
18
100
AcDbEntity
  8
実線
100
AcDbLine
 10
6137.909332328067
 20
-3822.745869507663
 30
0.0
 11
6138.602773229631
 21
-3822.052428606099
 31
0.0
  0
LINE
  5
B5ABB
330
18
100
AcDbEntity
  8
実線
100
AcDbLine
 10
6138.602773229631
 20
-3822.052428606101
 30
0.0
 11
6137.909332328067
 21
-3821.358987704536
 31
0.0
  0
LINE
  5
B5ABC
330
18
100
AcDbEntity
  8
実線
100
AcDbLine
 10
6138.956326620225
 20
-3821.698875215506
 30
0.0
 11
6138.26288571866
 21
-3821.005434313941
 31
0.0
  0
LINE
  5
B5ABD
330
18
100
AcDbEntity
  8
実線
100
AcDbLine
 10
6137.909332328066
 20
-3822.745869507663
 30
0.0
 11
6138.26288571866
 21
-3823.099422898256
 31
0.0
  0
LINE
  5
B5ABE
330
18
100
AcDbEntity
  8
実線
100
AcDbLine
 10
6138.26288571866
 20
-3821.005434313941
 30
0.0
 11
6137.909332328067
 21
-3821.358987704536
 31
0.0
  0
LINE
  5
B5ABF
330
18
100
AcDbEntity
  8
実線
100
AcDbLine
 10
6139.649767521788
 20
-3823.099422898256
 30
0.0
 11
6138.956326620223
 21
-3822.405981996693
 31
0.0
  0
LINE
  5
B5AC0
330
18
100
AcDbEntity
  8
実線
100
AcDbLine
 10
6138.956326620225
 20
-3821.698875215506
 30
0.0
 11
6139.649767521788
 21
-3821.005434313941
 31
0.0
  0
CIRCLE
  5
B5AC1
330
18
100
AcDbEntity
  8
実線
100
AcDbCircle
 10
6138.956326620222
 20
-3822.052428606099
 30
0.0
 40
2.0
  0
HATCH
  5
B5AC2
330
18
100
AcDbEntity
  8
ハッチング
100
AcDbHatch
 10
0.0
 20
0.0
 30
0.0
210
0.0
220
0.0
230
1.0
  2
ANSI31
 70
     0
 71
     0
 91
        3
 92
       16
 93
        1
 72
     2
 10
6140.356485613909
 20
-3918.136814186106
 40
3.0
 50
0.0
 51
360.0
 73
     1
 97
        0
 92
       16
 93
        1
 72
     2
 10
6158.542444517134
 20
-3919.13248053363
 40
3.5
 50
0.0
 51
360.0
 73
     1
 97
        0
 92
       33
 93
        8
 72
     1
 10
6132.706135069247
 20
-3933.296169452623
 11
6157.651761775121
 21
-3933.296168999661
 72
     2
 10
6100.206135069353
 20
-3860.796171085775
 40
57.5
 50
304.417388710313
 51
325.5816095972779
 73
     1
 72
     2
 10
6174.706135069247
 20
-3895.060858375817
 40
2.000000000000043
 50
118.2577469651582
 51
180.0
 73
     1
 72
     1
 10
6172.706134425248
 20
-3895.060858535617
 11
6172.706135069191
 21
-3918.241797551259
 72
     2
 10
6100.206135069248
 20
-3860.800823349517
 40
80.00000000000044
 50
336.0305176822056
 51
336.0318160550668
 73
     1
 72
     2
 10
6100.206135069235
 20
-3860.796171085823
 40
92.50000000000001
 50
308.3916673618237
 51
321.6083326381044
 73
     1
 72
     1
 10
6147.639731772708
 20
-3893.297000364172
 11
6173.759257532972
 21
-3893.299204910661
 72
     1
 10
6132.706135069248
 20
-3908.230335988373
 11
6132.706135069247
 21
-3933.296169452621
 97
        0
 75
     0
 76
     1
 52
0.0
 41
30.0
 77
     0
 78
     1
 53
45.0
 43
-1573.38339605542
 44
19.55873106021631
 45
-2.651650429449552
 46
2.651650429449553
 79
     0
 98
        1
 10
-1425.436550187728
 20
0.001291496012982
  0
HATCH
  5
B5AC3
330
18
100
AcDbEntity
  8
ハッチング
100
AcDbHatch
 10
0.0
 20
0.0
 30
0.0
210
0.0
220
0.0
230
1.0
  2
ANSI31
 70
     0
 71
     0
 91
        2
 92
       16
 93
        1
 72
     2
 10
6041.869825621359
 20
-3919.13248053363
 40
3.5
 50
0.0
 51
360.0
 73
     1
 97
        0
 92
       33
 93
        6
 72
     1
 10
6027.706136702443
 20
-3893.296171085822
 11
6027.706137155398
 21
-3918.241797791708
 72
     2
 10
6100.206135069353
 20
-3860.796171085775
 40
57.5
 50
214.4173887104997
 51
235.5826112894276
 73
     1
 72
     1
 10
6042.760508603895
 20
-3933.296171085855
 11
6067.706135069244
 21
-3933.296170632892
 72
     2
 10
6100.206135069235
 20
-3860.796171085823
 40
92.5
 50
218.3916673618956
 51
231.6083326381759
 73
     1
 72
     1
 10
6027.706136702444
 20
-3893.296171085822
 11
6052.771970166862
 21
-3893.296171085822
 72
     1
 10
6067.706135069244
 20
-3908.230335988225
 11
6067.706135069245
 21
-3933.296170632889
 97
        0
 75
     0
 76
     1
 52
0.0
 41
30.0
 77
     0
 78
     1
 53
45.0
 43
-1573.38339605542
 44
19.55873106021631
 45
-2.651650429449552
 46
2.651650429449553
 79
     0
 98
        1
 10
-1425.436550187728
 20
0.001291496012982
  0
HATCH
  5
B5AC4
330
18
100
AcDbEntity
  8
ハッチング
100
AcDbHatch
 10
0.0
 20
0.0
 30
0.0
210
0.0
220
0.0
230
1.0
  2
ANSI31
 70
     0
 71
     0
 91
        2
 92
       16
 93
        1
 72
     2
 10
6158.542444517134
 20
-3802.459861637855
 40
3.5
 50
0.0
 51
360.0
 73
     1
 97
        0
 92
       33
 93
        8
 72
     2
 10
6100.206135069353
 20
-3860.796171085775
 40
57.5
 50
34.41638682571771
 51
55.58261128968903
 73
     1
 72
     2
 10
6174.706135069247
 20
-3826.540788323317
 40
2.0
 50
180.0
 51
204.6961045756101
 73
     1
 72
     2
 10
6100.206135069248
 20
-3860.800823349517
 40
80.00000000000047
 50
23.96948231779437
 51
24.69610457561011
 73
     1
 72
     1
 10
6172.706135069191
 20
-3803.350544620388
 11
6172.706134425248
 21
-3826.540789413317
 72
     1
 10
6157.651761534575
 20
-3788.296171085793
 11
6132.706135069247
 21
-3788.296171538755
 72
     2
 10
6100.206135069235
 20
-3860.796171085823
 40
92.50000000000003
 50
38.39166736189559
 51
51.60833263817636
 73
     1
 72
     1
 10
6132.706135069246
 20
-3788.296171538754
 11
6132.706135069246
 21
-3813.362006183174
 72
     1
 10
6147.64086826571
 20
-3828.297000533427
 11
6173.306665482719
 21
-3828.299862544195
 97
        0
 75
     0
 76
     1
 52
0.0
 41
30.0
 77
     0
 78
     1
 53
45.0
 43
-1573.38339605542
 44
19.55873106021631
 45
-2.651650429449552
 46
2.651650429449553
 79
     0
 98
        1
 10
-1425.436550187728
 20
0.001291496012982
  0
HATCH
  5
B5AC5
330
18
100
AcDbEntity
  8
ハッチング
100
AcDbHatch
 10
0.0
 20
0.0
 30
0.0
210
0.0
220
0.0
230
1.0
  2
ANSI31
 70
     0
 71
     0
 91
        5
 92
       16
 93
        1
 72
     2
 10
6041.869825621359
 20
-3802.459861637853
 40
3.5
 50
0.0
 51
360.0
 73
     1
 97
        0
 92
       16
 93
        4
 72
     2
 10
6059.482208088295
 20
-3802.63637594118
 40
3.0
 50
34.99999999999536
 51
214.9999999999954
 73
     1
 72
     1
 10
6057.024751955428
 20
-3804.357105250232
 11
6058.171904828258
 21
-3805.995409338992
 72
     2
 10
6060.629360961122
 20
-3804.274680029939
 40
3.0
 50
214.9999999999954
 51
394.9999999999954
 73
     1
 72
     1
 10
6063.086817093989
 20
-3802.553950720887
 11
6061.93966422116
 21
-3800.915646632127
 97
        0
 92
        0
 93
        4
 72
     2
 10
6059.482208088295
 20
-3802.63637594118
 40
3.0
 50
34.99999999999536
 51
214.9999999999954
 73
     1
 72
     1
 10
6057.024751955428
 20
-3804.357105250232
 11
6058.171904828258
 21
-3805.995409338992
 72
     2
 10
6060.629360961122
 20
-3804.274680029939
 40
3.0
 50
214.9999999999954
 51
394.9999999999954
 73
     1
 72
     1
 10
6063.086817093989
 20
-3802.553950720887
 11
6061.93966422116
 21
-3800.915646632127
 97
        0
 92
        0
 93
        4
 72
     2
 10
6059.482208088295
 20
-3802.63637594118
 40
3.0
 50
34.99999999999536
 51
214.9999999999954
 73
     1
 72
     1
 10
6057.024751955428
 20
-3804.357105250232
 11
6058.171904828258
 21
-3805.995409338992
 72
     2
 10
6060.629360961122
 20
-3804.274680029939
 40
3.0
 50
214.9999999999954
 51
394.9999999999954
 73
     1
 72
     1
 10
6063.086817093989
 20
-3802.553950720887
 11
6061.93966422116
 21
-3800.915646632127
 97
        0
 92
       33
 93
        6
 72
     1
 10
6067.706135069247
 20
-3788.296172719024
 11
6042.760508363351
 21
-3788.296173171986
 72
     2
 10
6100.206135069353
 20
-3860.796171085775
 40
57.5
 50
124.4173887105734
 51
145.5826112896143
 73
     1
 72
     1
 10
6027.706135069236
 20
-3803.350544620442
 11
6027.706135522193
 21
-3828.296171085823
 72
     2
 10
6100.206135069235
 20
-3860.796171085823
 40
92.49999999999998
 50
128.3916673618236
 51
141.6083326381044
 73
     1
 72
     1
 10
6067.706135069247
 20
-3788.296172719022
 11
6067.706135069247
 21
-3813.362006183322
 72
     1
 10
6027.706135522191
 20
-3828.296171085822
 11
6052.771970166797
 21
-3828.29617108582
 97
        0
 75
     0
 76
     1
 52
0.0
 41
30.0
 77
     0
 78
     1
 53
45.0
 43
-1573.38339605542
 44
19.55873106021631
 45
-2.651650429449552
 46
2.651650429449553
 79
     0
 98
        1
 10
-1425.436550187728
 20
0.001291496012982
  0
ARC
  5
B5AC7
330
18
100
AcDbEntity
  8
実線
100
AcDbCircle
 10
6100.206135069353
 20
-3860.796171085775
 30
0.0
 40
57.5
100
AcDbArc
 50
16.49213805142279
 51
66.84804770666227
  0
LINE
  5
B5AC8
330
18
100
AcDbEntity
  8
実線
100
AcDbLine
 10
6154.706875010466
 20
-3877.497688074154
 30
0.0
 11
6154.706875010466
 21
-3844.106072360027
 31
0.0
  0
LINE
  5
B5AC9
330
18
100
AcDbEntity
  8
実線
100
AcDbLine
 10
6185.206135069247
 20
-3852.147023349516
 30
0.0
 11
6185.206135069247
 21
-3869.454623349517
 31
0.0
  0
LINE
  5
B5ACA
330
18
100
AcDbEntity
  8
実線
100
AcDbLine
 10
6202.206135069247
 20
-3855.503421874226
 30
0.0
 11
6202.206135069247
 21
-3866.098224824808
 31
0.0
  0
ARC
  5
B5ACB
330
18
100
AcDbEntity
  8
実線
100
AcDbCircle
 10
6190.206135069248
 20
-3860.800823349517
 30
0.0
 40
8.0
100
AcDbArc
 50
333.5214655209427
 51
26.47853447905732
  0
LINE
  5
B5ACC
330
18
100
AcDbEntity
  8
実線
100
AcDbLine
 10
6198.206135069248
 20
-3852.147023349516
 30
0.0
 11
6198.206135069248
 21
-3869.454623349517
 31
0.0
  0
LINE
  5
B5ACD
330
18
100
AcDbEntity
  8
実線
100
AcDbLine
 10
6185.206135069247
 20
-3854.800822087882
 30
0.0
 11
6190.206135069248
 21
-3854.800820826247
 31
0.0
  0
LINE
  5
B5ACE
330
18
100
AcDbEntity
  8
実線
100
AcDbLine
 10
6198.206135069248
 20
-3852.147023349516
 30
0.0
 11
6202.206135069247
 21
-3855.503421874226
 31
0.0
  0
LINE
  5
B5ACF
330
18
100
AcDbEntity
  8
実線
100
AcDbLine
 10
6197.366946782315
 20
-3857.233923349517
 30
0.0
 11
6197.366946782315
 21
-3855.713923349517
 31
0.0
  0
LINE
  5
B5AD0
330
18
100
AcDbEntity
  8
実線
100
AcDbLine
 10
6190.206135069248
 20
-3855.713923349517
 30
0.0
 11
6197.366946782315
 21
-3855.713923349517
 31
0.0
  0
LINE
  5
B5AD1
330
18
100
AcDbEntity
  8
実線
100
AcDbLine
 10
6190.206135069248
 20
-3857.233923349517
 30
0.0
 11
6197.366946782315
 21
-3857.233923349517
 31
0.0
  0
LINE
  5
B5AD2
330
18
100
AcDbEntity
  8
実線
100
AcDbLine
 10
6190.206135069248
 20
-3852.147023349516
 30
0.0
 11
6198.206135069248
 21
-3852.147023349516
 31
0.0
  0
ARC
  5
B5AD3
330
18
100
AcDbEntity
  8
実線
100
AcDbCircle
 10
6190.206135069248
 20
-3852.147023349516
 30
0.0
 40
8.0
100
AcDbArc
 50
333.5214655209427
 51
0.0
  0
LINE
  5
B5AD4
330
18
100
AcDbEntity
  8
実線
100
AcDbLine
 10
6180.206135069248
 20
-3855.713923349517
 30
0.0
 11
6185.206135069247
 21
-3855.713923349517
 31
0.0
  0
LINE
  5
B5AD5
330
18
100
AcDbEntity
  8
実線
100
AcDbLine
 10
6180.206135069248
 20
-3857.233923349517
 30
0.0
 11
6185.206135069247
 21
-3857.233923349517
 31
0.0
  0
LINE
  5
B5AD6
330
18
100
AcDbEntity
  8
実線
100
AcDbLine
 10
6180.206135069248
 20
-3852.147023349516
 30
0.0
 11
6185.206135069247
 21
-3852.147023349516
 31
0.0
  0
LINE
  5
B5AD7
330
18
100
AcDbEntity
  8
実線
100
AcDbLine
 10
6185.206135069247
 20
-3866.800822087884
 30
0.0
 11
6190.206135069248
 21
-3866.800820826251
 31
0.0
  0
ARC
  5
B5AD8
330
18
100
AcDbEntity
  8
実線
100
AcDbCircle
 10
6190.206135069248
 20
-3869.454623349517
 30
0.0
 40
8.0
100
AcDbArc
 50
0.0
 51
26.47853447905732
  0
LINE
  5
B5AD9
330
18
100
AcDbEntity
  8
実線
100
AcDbLine
 10
6198.206135069248
 20
-3869.454623349517
 30
0.0
 11
6202.206135069247
 21
-3866.098224824808
 31
0.0
  0
LINE
  5
B5ADA
330
18
100
AcDbEntity
  8
実線
100
AcDbLine
 10
6197.366946782315
 20
-3865.887723349517
 30
0.0
 11
6197.366946782315
 21
-3864.367723349516
 31
0.0
  0
LINE
  5
B5ADB
330
18
100
AcDbEntity
  8
実線
100
AcDbLine
 10
6190.206135069248
 20
-3864.367723349516
 30
0.0
 11
6197.366946782315
 21
-3864.367723349516
 31
0.0
  0
LINE
  5
B5ADC
330
18
100
AcDbEntity
  8
実線
100
AcDbLine
 10
6190.206135069248
 20
-3865.887723349517
 30
0.0
 11
6197.366946782315
 21
-3865.887723349517
 31
0.0
  0
LINE
  5
B5ADD
330
18
100
AcDbEntity
  8
実線
100
AcDbLine
 10
6190.206135069248
 20
-3869.454623349517
 30
0.0
 11
6198.206135069248
 21
-3869.454623349517
 31
0.0
  0
LINE
  5
B5ADE
330
18
100
AcDbEntity
  8
実線
100
AcDbLine
 10
6180.206135069248
 20
-3865.887723349517
 30
0.0
 11
6185.206135069247
 21
-3865.887723349517
 31
0.0
  0
LINE
  5
B5ADF
330
18
100
AcDbEntity
  8
実線
100
AcDbLine
 10
6180.206135069248
 20
-3864.367723349516
 30
0.0
 11
6185.206135069247
 21
-3864.367723349516
 31
0.0
  0
LINE
  5
B5AE0
330
18
100
AcDbEntity
  8
実線
100
AcDbLine
 10
6180.206135069248
 20
-3869.454623349517
 30
0.0
 11
6185.206135069247
 21
-3869.454623349517
 31
0.0
  0
LINE
  5
B5AE1
330
18
100
AcDbEntity
  8
実線
100
AcDbLine
 10
6180.206135069248
 20
-3869.454623349517
 30
0.0
 11
6180.206135069248
 21
-3852.147023349516
 31
0.0
  0
LINE
  5
B5AE2
330
18
100
AcDbEntity
  8
実線
100
AcDbLine
 10
6190.206135069248
 20
-3852.147023349516
 30
0.0
 11
6190.206135069248
 21
-3869.454623349517
 31
0.0
  0
LINE
  5
B5AE3
330
18
100
AcDbEntity
  8
実線
100
AcDbLine
 10
6207.725664524352
 20
-3857.500823349517
 30
0.0
 11
6202.206135069247
 21
-3857.500823349517
 31
0.0
  0
LINE
  5
B5AE4
330
18
100
AcDbEntity
  8
実線
100
AcDbLine
 10
6202.206135069247
 20
-3864.100823349517
 30
0.0
 11
6207.725664524352
 21
-3864.100823349517
 31
0.0
  0
SPLINE
  5
B5AE5
330
18
100
AcDbEntity
  8
実線
 48
0.5
100
AcDbSpline
210
0.0
220
0.0
230
1.0
 70
  1064
 71
     3
 72
    11
 73
     7
 74
     5
 42
0.000000001
 43
0.0000000001
 44
0.0000000001
 40
0.0
 40
0.0
 40
0.0
 40
0.0
 40
1.992484014116254
 40
3.46511248210089
 40
4.934764524498999
 40
6.931889979397007
 40
6.931889979397007
 40
6.931889979397007
 40
6.931889979397007
 10
6207.725664524354
 20
-3857.500823349511
 30
0.0
 10
6208.017496991766
 20
-3858.147247526117
 30
0.0
 10
6208.525020423998
 20
-3859.271438469294
 30
0.0
 10
6207.729902258662
 20
-3860.800597782561
 30
0.0
 10
6206.923165588047
 20
-3862.326526070953
 30
0.0
 10
6207.432341039796
 20
-3863.45229531185
 30
0.0
 10
6207.725664524354
 20
-3864.100823349513
 30
0.0
 11
6207.725664524354
 21
-3857.500823349511
 31
0.0
 11
6208.248752016215
 21
-3859.423418476512
 31
0.0
 11
6207.727800559212
 21
-3860.800823349512
 31
0.0
 11
6207.20257703249
 21
-3862.173418472883
 31
0.0
 11
6207.725664524354
 21
-3864.100823349513
 31
0.0
  0
SPLINE
  5
B5AE6
330
18
100
AcDbEntity
  8
実線
 48
0.5
100
AcDbSpline
210
0.0
220
0.0
230
1.0
 70
  1064
 71
     3
 72
     9
 73
     5
 74
     3
 42
0.000000001
 43
0.0000000001
 44
0.0000000001
 40
0.0
 40
0.0
 40
0.0
 40
0.0
 40
1.465084025132477
 40
3.462209480029533
 40
3.462209480029533
 40
3.462209480029533
 40
3.462209480029533
 10
6207.725664524354
 20
-3860.804897126115
 30
0.0
 10
6207.963982870968
 20
-3861.257867841554
 30
0.0
 10
6208.527164248113
 20
-3862.328304402369
 30
0.0
 10
6208.018867912585
 20
-3863.452403212111
 30
0.0
 10
6207.725664524354
 20
-3864.100823349513
 30
0.0
 11
6207.725664524354
 21
-3860.804897126115
 31
0.0
 11
6208.248752016213
 21
-3862.173418472883
 31
0.0
 11
6207.725664524354
 21
-3864.100823349513
 31
0.0
  0
LINE
  5
B5AE7
330
18
100
AcDbEntity
  8
実線
100
AcDbLine
 10
6202.206135069247
 20
-3864.100823349517
 30
0.0
 11
6202.206135069247
 21
-3857.500823349517
 31
0.0
  0
LINE
  5
B5B8B
330
18
100
AcDbEntity
  8
実線
100
AcDbLine
 10
5688.935919578749
 20
-4083.197986762487
 30
0.0
 11
5688.935919578749
 21
-4065.890386762488
 31
0.0
  0
ARC
  5
B5B8E
330
18
100
AcDbEntity
  8
実線
100
AcDbCircle
 10
5633.927496407536
 20
-4105.844186762488
 30
0.0
 40
34.6
100
AcDbArc
 50
90.0
 51
180.0
  0
LINE
  5
B5B8F
330
18
100
AcDbEntity
  8
実線
 48
0.5
100
AcDbLine
 10
5591.277496407538
 20
-4153.144645046051
 30
0.0
 11
5613.977496407537
 21
-4153.144645046051
 31
0.0
  0
LWPOLYLINE
  5
B5B90
330
18
100
AcDbEntity
  8
実線
 48
0.5
100
AcDbPolyline
 90
        4
 70
     1
 43
0.0
 10
5613.977496407537
 20
-4141.144645046051
 10
5613.977496407537
 20
-4164.344645046051
 10
5591.277496407536
 20
-4164.344645046051
 10
5591.277496407536
 20
-4141.144645046051
  0
LINE
  5
B5B91
330
18
100
AcDbEntity
  8
実線
 48
0.5
100
AcDbLine
 10
5600.177496407537
 20
-4124.34464504605
 30
0.0
 11
5597.301301409547
 21
-4141.144645046051
 31
0.0
  0
LINE
  5
B5B92
330
18
100
AcDbEntity
  8
実線
 48
0.5
100
AcDbLine
 10
5587.577496407537
 20
-4156.092013467103
 30
0.0
 11
5591.277496407538
 21
-4164.344645046051
 31
0.0
  0
LINE
  5
B5B93
330
18
100
AcDbEntity
  8
実線
 48
0.5
100
AcDbLine
 10
5587.577496407537
 20
-4156.092013467103
 30
0.0
 11
5591.277496407538
 21
-4153.144645046051
 31
0.0
  0
LINE
  5
B5B94
330
18
100
AcDbEntity
  8
実線
100
AcDbLine
 10
5599.327496407536
 20
-4105.844186762488
 30
0.0
 11
5599.327496407537
 21
-4124.34464504605
 31
0.0
  0
LINE
  5
B5B95
330
18
100
AcDbEntity
  8
実線
100
AcDbLine
 10
5605.927496407535
 20
-4124.34464504605
 30
0.0
 11
5605.927496407535
 21
-4105.844186762488
 31
0.0
  0
LINE
  5
B5B96
330
18
100
AcDbEntity
  8
実線
100
AcDbLine
 10
5599.327496407537
 20
-4124.34464504605
 30
0.0
 11
5605.927496407535
 21
-4124.34464504605
 31
0.0
  0
LINE
  5
B5B97
330
18
100
AcDbEntity
  8
実線
 48
0.5
100
AcDbLine
 10
5599.429301409547
 20
-4141.144645046051
 30
0.0
 11
5601.177496407538
 21
-4124.34464504605
 31
0.0
  0
LINE
  5
B5B98
330
18
100
AcDbEntity
  8
実線
 48
0.5
100
AcDbLine
 10
5617.677496407535
 20
-4156.092013467103
 30
0.0
 11
5613.977496407537
 21
-4164.344645046051
 31
0.0
  0
LINE
  5
B5B99
330
18
100
AcDbEntity
  8
実線
 48
0.5
100
AcDbLine
 10
5617.677496407535
 20
-4156.092013467103
 30
0.0
 11
5613.977496407537
 21
-4153.144645046051
 31
0.0
  0
LINE
  5
B5B9A
330
18
100
AcDbEntity
  8
実線
 48
0.5
100
AcDbLine
 10
5604.177496407538
 20
-4124.34464504605
 30
0.0
 11
5605.813301409547
 21
-4141.144645046051
 31
0.0
  0
LINE
  5
B5B9B
330
18
100
AcDbEntity
  8
実線
 48
0.5
100
AcDbLine
 10
5607.941301409546
 20
-4141.144645046051
 30
0.0
 11
5605.177496407538
 21
-4124.34464504605
 31
0.0
  0
LINE
  5
B5B9C
330
18
100
AcDbEntity
  8
実線
 48
0.5
100
AcDbLine
 10
5603.685301409547
 20
-4141.144645046051
 30
0.0
 11
5603.177496407537
 21
-4124.34464504605
 31
0.0
  0
LINE
  5
B5B9D
330
18
100
AcDbEntity
  8
実線
 48
0.5
100
AcDbLine
 10
5602.177496407538
 20
-4124.34464504605
 30
0.0
 11
5601.557301409546
 21
-4141.144645046051
 31
0.0
  0
LINE
  5
B5B9E
330
18
100
AcDbEntity
  8
実線
100
AcDbLine
 10
5640.602131037795
 20
-4077.844186762487
 30
0.0
 11
5651.254921628225
 21
-4077.844186762487
 31
0.0
  0
LINE
  5
B5B9F
330
18
100
AcDbEntity
  8
実線
100
AcDbLine
 10
5651.258599869402
 20
-4071.244186762487
 30
0.0
 11
5640.602131037795
 21
-4071.244186762487
 31
0.0
  0
LINE
  5
B5BA0
330
18
100
AcDbEntity
  8
実線
100
AcDbLine
 10
5640.602131037795
 20
-4071.244186762487
 30
0.0
 11
5633.927496407536
 21
-4071.244186762487
 31
0.0
  0
SPLINE
  5
B5BA1
330
18
100
AcDbEntity
  8
実線
 48
0.5
100
AcDbSpline
210
0.0
220
0.0
230
1.0
 70
  1064
 71
     3
 72
    11
 73
     7
 74
     5
 42
0.000000001
 43
0.0000000001
 44
0.0000000001
 40
0.0
 40
0.0
 40
0.0
 40
0.0
 40
1.992484014116254
 40
3.465112482100464
 40
4.934764524498998
 40
6.931889979397006
 40
6.931889979397006
 40
6.931889979397006
 40
6.931889979397006
 10
5651.254921628226
 20
-4071.236039209279
 30
0.0
 10
5651.546754095638
 20
-4071.882463385885
 30
0.0
 10
5652.05427752787
 20
-4073.006654329062
 30
0.0
 10
5651.259159362534
 20
-4074.535813642329
 30
0.0
 10
5650.452422691921
 20
-4076.061741930721
 30
0.0
 10
5650.961598143668
 20
-4077.187511171618
 30
0.0
 10
5651.254921628226
 20
-4077.836039209282
 30
0.0
 11
5651.254921628226
 21
-4071.236039209279
 31
0.0
 11
5651.778009120087
 21
-4073.158634336279
 31
0.0
 11
5651.257057663085
 21
-4074.53603920928
 31
0.0
 11
5650.731834136363
 21
-4075.908634332651
 31
0.0
 11
5651.254921628226
 21
-4077.836039209282
 31
0.0
  0
SPLINE
  5
B5BA2
330
18
100
AcDbEntity
  8
実線
 48
0.5
100
AcDbSpline
210
0.0
220
0.0
230
1.0
 70
  1064
 71
     3
 72
     9
 73
     5
 74
     3
 42
0.000000001
 43
0.0000000001
 44
0.0000000001
 40
0.0
 40
0.0
 40
0.0
 40
0.0
 40
1.465084025132052
 40
3.462209480029107
 40
3.462209480029107
 40
3.462209480029107
 40
3.462209480029107
 10
5651.254921628226
 20
-4074.540112985885
 30
0.0
 10
5651.493239974839
 20
-4074.993083701322
 30
0.0
 10
5652.056421351985
 20
-4076.063520262137
 30
0.0
 10
5651.548125016458
 20
-4077.187619071881
 30
0.0
 10
5651.254921628226
 20
-4077.836039209282
 30
0.0
 11
5651.254921628226
 21
-4074.540112985885
 31
0.0
 11
5651.778009120087
 21
-4075.908634332651
 31
0.0
 11
5651.254921628226
 21
-4077.836039209282
 31
0.0
  0
SPLINE
  5
B5BA3
330
18
100
AcDbEntity
  8
実線
 48
0.5
100
AcDbSpline
210
0.0
220
0.0
230
1.0
 70
  1064
 71
     3
 72
    11
 73
     7
 74
     5
 42
0.000000001
 43
0.0000000001
 44
0.0000000001
 40
0.0
 40
0.0
 40
0.0
 40
0.0
 40
1.992484014116254
 40
3.465112482101315
 40
4.934764524499
 40
6.931889979397007
 40
6.931889979397007
 40
6.931889979397007
 40
6.931889979397007
 10
5656.062658842637
 20
-4077.844186762489
 30
0.0
 10
5655.770826375227
 20
-4077.197762585882
 30
0.0
 10
5655.263302942996
 20
-4076.073571642706
 30
0.0
 10
5656.05842110833
 20
-4074.544412329439
 30
0.0
 10
5656.865157778945
 20
-4073.018484041046
 30
0.0
 10
5656.355982327197
 20
-4071.89271480015
 30
0.0
 10
5656.062658842637
 20
-4071.244186762487
 30
0.0
 11
5656.062658842637
 21
-4077.844186762489
 31
0.0
 11
5655.539571350777
 21
-4075.921591635489
 31
0.0
 11
5656.06052280778
 21
-4074.544186762487
 31
0.0
 11
5656.585746334501
 21
-4073.171591639116
 31
0.0
 11
5656.062658842637
 21
-4071.244186762487
 31
0.0
  0
SPLINE
  5
B5BA4
330
18
100
AcDbEntity
  8
実線
 48
0.5
100
AcDbSpline
210
0.0
220
0.0
230
1.0
 70
  1064
 71
     3
 72
     9
 73
     5
 74
     3
 42
0.000000001
 43
0.0000000001
 44
0.0000000001
 40
0.0
 40
0.0
 40
0.0
 40
0.0
 40
1.465084025132902
 40
3.462209480029957
 40
3.462209480029957
 40
3.462209480029957
 40
3.462209480029957
 10
5656.062658842637
 20
-4074.540112985885
 30
0.0
 10
5655.824340496026
 20
-4074.087142270446
 30
0.0
 10
5655.261159118881
 20
-4073.016705709631
 30
0.0
 10
5655.769455454406
 20
-4071.892606899888
 30
0.0
 10
5656.062658842637
 20
-4071.244186762487
 30
0.0
 11
5656.062658842637
 21
-4074.540112985885
 31
0.0
 11
5655.539571350778
 21
-4073.171591639116
 31
0.0
 11
5656.062658842637
 21
-4071.244186762487
 31
0.0
  0
ARC
  5
B5BA5
330
18
100
AcDbEntity
  8
実線
100
AcDbCircle
 10
5633.927496407536
 20
-4105.844186762488
 30
0.0
 40
28.0
100
AcDbArc
 50
90.0
 51
180.0
  0
LINE
  5
B5BA6
330
18
100
AcDbEntity
  8
実線
100
AcDbLine
 10
5633.927496407536
 20
-4077.844186762487
 30
0.0
 11
5640.602131037795
 21
-4077.844186762487
 31
0.0
  0
LINE
  5
B5BA7
330
18
100
AcDbEntity
  8
実線
100
AcDbLine
 10
5666.935919578749
 20
-4077.844186762487
 30
0.0
 11
5666.935919578749
 21
-4071.244186762487
 31
0.0
  0
LINE
  5
B5BA8
330
18
100
AcDbEntity
  8
実線
100
AcDbLine
 10
5688.935919578749
 20
-4065.886989678561
 30
0.0
 11
5688.935919578749
 21
-4083.194589678561
 31
0.0
  0
LINE
  5
B5BA9
330
18
100
AcDbEntity
  8
実線
100
AcDbLine
 10
5670.935919578749
 20
-4083.194589678561
 30
0.0
 11
5670.935919578749
 21
-4065.886989678561
 31
0.0
  0
ARC
  5
B5BAA
330
18
100
AcDbEntity
  8
実線
100
AcDbCircle
 10
5678.935919578749
 20
-4065.886989678561
 30
0.0
 40
8.0
100
AcDbArc
 50
180.0
 51
206.4785344789409
  0
LINE
  5
B5BAB
330
18
100
AcDbEntity
  8
実線
100
AcDbLine
 10
5670.935919578749
 20
-4065.886989678561
 30
0.0
 11
5666.935919578749
 21
-4069.24338820327
 31
0.0
  0
LINE
  5
B5BAC
330
18
100
AcDbEntity
  8
実線
100
AcDbLine
 10
5678.935919578749
 20
-4083.194589678561
 30
0.0
 11
5678.935919578749
 21
-4065.886989678561
 31
0.0
  0
LINE
  5
B5BAD
330
18
100
AcDbEntity
  8
実線
100
AcDbLine
 10
5683.935919578749
 20
-4083.194589678561
 30
0.0
 11
5683.935919578749
 21
-4065.886989678561
 31
0.0
  0
LINE
  5
B5BAE
330
18
100
AcDbEntity
  8
実線
100
AcDbLine
 10
5670.935919578749
 20
-4083.194589678561
 30
0.0
 11
5666.935919578749
 21
-4079.838191153852
 31
0.0
  0
LINE
  5
B5BAF
330
18
100
AcDbEntity
  8
実線
100
AcDbLine
 10
5666.935919578749
 20
-4079.838191153852
 30
0.0
 11
5666.935919578749
 21
-4069.24338820327
 31
0.0
  0
LINE
  5
B5BB0
330
18
100
AcDbEntity
  8
実線
100
AcDbLine
 10
5678.935919578749
 20
-4083.194589678561
 30
0.0
 11
5670.935919578749
 21
-4083.194589678561
 31
0.0
  0
LINE
  5
B5BB1
330
18
100
AcDbEntity
  8
実線
100
AcDbLine
 10
5678.935919578749
 20
-4078.10768967856
 30
0.0
 11
5671.775107865681
 21
-4078.10768967856
 31
0.0
  0
LINE
  5
B5BB2
330
18
100
AcDbEntity
  8
実線
100
AcDbLine
 10
5678.935919578749
 20
-4079.627689678561
 30
0.0
 11
5671.775107865681
 21
-4079.627689678561
 31
0.0
  0
LINE
  5
B5BB3
330
18
100
AcDbEntity
  8
実線
100
AcDbLine
 10
5678.935919578749
 20
-4069.453889678561
 30
0.0
 11
5671.775107865681
 21
-4069.453889678561
 31
0.0
  0
LINE
  5
B5BB4
330
18
100
AcDbEntity
  8
実線
100
AcDbLine
 10
5678.935919578749
 20
-4070.973889678561
 30
0.0
 11
5671.775107865681
 21
-4070.973889678561
 31
0.0
  0
ARC
  5
B5BB5
330
18
100
AcDbEntity
  8
実線
100
AcDbCircle
 10
5678.935919578749
 20
-4074.54078967856
 30
0.0
 40
8.0
100
AcDbArc
 50
153.5214655210592
 51
206.4785344789409
  0
LINE
  5
B5BB6
330
18
100
AcDbEntity
  8
実線
100
AcDbLine
 10
5671.775107865681
 20
-4078.10768967856
 30
0.0
 11
5671.775107865681
 21
-4079.627689678561
 31
0.0
  0
LINE
  5
B5BB7
330
18
100
AcDbEntity
  8
実線
100
AcDbLine
 10
5671.775107865681
 20
-4069.453889678561
 30
0.0
 11
5671.775107865681
 21
-4070.973889678561
 31
0.0
  0
ARC
  5
B5BB8
330
18
100
AcDbEntity
  8
実線
100
AcDbCircle
 10
5678.935919578749
 20
-4083.194589678561
 30
0.0
 40
8.0
100
AcDbArc
 50
153.5214655210592
 51
180.0
  0
LINE
  5
B5BB9
330
18
100
AcDbEntity
  8
実線
100
AcDbLine
 10
5683.935919578749
 20
-4080.540790940196
 30
0.0
 11
5678.935919578749
 21
-4080.540792201833
 31
0.0
  0
LINE
  5
B5BBA
330
18
100
AcDbEntity
  8
実線
100
AcDbLine
 10
5683.935919578749
 20
-4068.540790940193
 30
0.0
 11
5678.935919578749
 21
-4068.540792201829
 31
0.0
  0
LINE
  5
B5BBB
330
18
100
AcDbEntity
  8
実線
100
AcDbLine
 10
5678.935919578749
 20
-4065.886989678561
 30
0.0
 11
5670.935919578749
 21
-4065.886989678561
 31
0.0
  0
LINE
  5
B5BBC
330
18
100
AcDbEntity
  8
実線
100
AcDbLine
 10
5688.935919578749
 20
-4083.194589678561
 30
0.0
 11
5683.935919578749
 21
-4083.194589678561
 31
0.0
  0
LINE
  5
B5BBD
330
18
100
AcDbEntity
  8
実線
100
AcDbLine
 10
5688.935919578749
 20
-4078.10768967856
 30
0.0
 11
5683.935919578749
 21
-4078.10768967856
 31
0.0
  0
LINE
  5
B5BBE
330
18
100
AcDbEntity
  8
実線
100
AcDbLine
 10
5688.935919578749
 20
-4079.627689678561
 30
0.0
 11
5683.935919578749
 21
-4079.627689678561
 31
0.0
  0
LINE
  5
B5BBF
330
18
100
AcDbEntity
  8
実線
100
AcDbLine
 10
5688.935919578749
 20
-4070.973889678561
 30
0.0
 11
5683.935919578749
 21
-4070.973889678561
 31
0.0
  0
LINE
  5
B5BC0
330
18
100
AcDbEntity
  8
実線
100
AcDbLine
 10
5688.935919578749
 20
-4069.453889678561
 30
0.0
 11
5683.935919578749
 21
-4069.453889678561
 31
0.0
  0
LINE
  5
B5BC1
330
18
100
AcDbEntity
  8
実線
100
AcDbLine
 10
5688.935919578749
 20
-4065.886989678561
 30
0.0
 11
5683.935919578749
 21
-4065.886989678561
 31
0.0
  0
LINE
  5
B5BC2
330
18
100
AcDbEntity
  8
中心線
 48
0.5
100
AcDbLine
 10
5691.418612205833
 20
-4074.544186762487
 30
0.0
 11
5662.994122159194
 21
-4074.544186762487
 31
0.0
  0
LINE
  5
B5BC3
330
18
100
AcDbEntity
  8
実線
100
AcDbLine
 10
5656.062658842639
 20
-4071.244186762483
 30
0.0
 11
5666.93591957875
 21
-4071.244186762483
 31
0.0
  0
LINE
  5
B5BC4
330
18
100
AcDbEntity
  8
実線
100
AcDbLine
 10
5656.062658842639
 20
-4077.844186762489
 30
0.0
 11
5666.93591957875
 21
-4077.844186762489
 31
0.0
  0
TEXT
  5
B5EF8
330
18
100
AcDbEntity
  8
0
100
AcDbText
 10
5967.524554101226
 20
-3906.33280761993
 30
0.0
 40
1.44
  1
DENSO
 50
90.0
  7
TIMESNR
100
AcDbText
  0
TEXT
  5
B5EF9
330
18
100
AcDbEntity
  8
0
100
AcDbText
 10
5965.827791692241
 20
-3906.211394509789
 30
0.0
 40
1.44
  1
NIKKI
 50
90.0
  7
TIMESNR
100
AcDbText
  0
TEXT
  5
B5EFA
330
18
100
AcDbEntity
  8
0
100
AcDbText
 10
5961.911655334694
 20
-3911.997261766727
 30
0.0
 40
2.0
  1
Certificate
 50
90.0
  7
TIMESNR
 11
5962.551011622199
 21
-3911.997261766727
 31
0.0
100
AcDbText
 73
     1
  0
LINE
  5
B5EFB
330
18
100
AcDbEntity
  8
0
100
AcDbLine
 10
5962.870782320416
 20
-3913.211980245935
 30
0.0
 11
5962.870782320416
 21
-3898.211980245934
 31
0.0
  0
LWPOLYLINE
  5
B5EFC
330
18
100
AcDbEntity
  8
0
100
AcDbPolyline
 90
        8
 70
     1
 43
0.0
 10
5968.870782320416
 20
-3912.711980245935
 10
5968.870782320419
 20
-3898.711980245935
 42
0.4142135623730951
 10
5968.37078232042
 20
-3898.211980245934
 10
5959.370782320419
 20
-3898.211980245934
 42
0.4142135623730951
 10
5958.87078232042
 20
-3898.711980245935
 10
5958.87078232042
 20
-3912.711980245935
 42
0.4142135623730996
 10
5959.370782320419
 20
-3913.211980245935
 10
5968.370782320416
 20
-3913.211980245935
 42
0.4142135623730904
  0
TEXT
  5
B5EFD
330
18
100
AcDbEntity
  8
0
100
AcDbText
 10
5963.3120419915
 20
-3895.415136787882
 30
0.0
 40
2.0
  1
SER No.******
 50
90.0
 41
1.199999999999999
  7
MS\U+FF7A\U+FF9E\U+FF7C\U+FF6F\U+FF78N
 11
5963.6773857415
 21
-3895.415136787882
 31
0.0
100
AcDbText
 73
     1
  0
LINE
  5
B5EFE
330
18
100
AcDbEntity
  8
0
100
AcDbLine
 10
5956.870782307241
 20
-3862.711980245935
 30
0.0
 11
5956.870782307241
 21
-3896.711980245935
 31
0.0
  0
LINE
  5
B5EFF
330
18
100
AcDbEntity
  8
0
100
AcDbLine
 10
5968.870782307241
 20
-3896.711980245935
 30
0.0
 11
5968.870782307241
 21
-3862.711980245935
 31
0.0
  0
LINE
  5
B5F00
330
18
100
AcDbEntity
  8
0
100
AcDbLine
 10
5963.870782307241
 20
-3897.211980245934
 30
0.0
 11
5963.870782307241
 21
-3862.211980245934
 31
0.0
  0
ARC
  5
B5F01
330
18
100
AcDbEntity
  8
0
100
AcDbCircle
 10
5966.815758889243
 20
-3892.262933744857
 30
0.0
 40
0.8009999999999999
100
AcDbArc
 50
0.0
 51
180.0
  0
CIRCLE
  5
B5F02
330
18
100
AcDbEntity
  8
0
100
AcDbCircle
 10
5966.615508889242
 20
-3892.262933744857
 30
0.0
 40
0.6007500000000002
  0
LINE
  5
B5F03
330
18
100
AcDbEntity
  8
0
100
AcDbLine
 10
5968.017258889239
 20
-3894.665933744858
 30
0.0
 11
5968.017258889239
 21
-3890.260433744857
 31
0.0
  0
LINE
  5
B5F04
330
18
100
AcDbEntity
  8
0
100
AcDbLine
 10
5966.01475888924
 20
-3892.262933744856
 30
0.0
 11
5966.01475888924
 21
-3890.020133744857
 31
0.0
  0
TEXT
  5
B5F05
330
18
100
AcDbEntity
  8
0
100
AcDbText
 10
5960.488050188119
 20
-3895.38801021507
 30
0.0
 40
2.6
  1
MODEL:
 50
90.0
 41
1.199999999999999
  7
MS\U+FF7A\U+FF9E\U+FF7C\U+FF6F\U+FF78N
 11
5960.962997063119
 21
-3895.38801021507
 31
0.0
100
AcDbText
 73
     1
  0
LINE
  5
B5F06
330
18
100
AcDbEntity
  8
0
100
AcDbLine
 10
5964.813258889238
 20
-3894.265433744859
 30
0.0
 11
5964.813258889238
 21
-3889.859933744858
 31
0.0
  0
LINE
  5
B5F07
330
18
100
AcDbEntity
  8
0
100
AcDbLine
 10
5964.813258889238
 20
-3889.859933744858
 30
0.0
 11
5965.694358889237
 21
-3892.663433744856
 31
0.0
  0
ARC
  5
B5F08
330
18
100
AcDbEntity
  8
0
100
AcDbCircle
 10
5966.613646098545
 20
-3892.262002349509
 30
0.0
 40
1.00311322310025
100
AcDbArc
 50
203.5897772726021
 51
359.9468005913668
  0
LINE
  5
B5F09
330
18
100
AcDbEntity
  8
0
100
AcDbLine
 10
5957.370782307241
 20
-3897.211980245934
 30
0.0
 11
5968.370782307241
 21
-3897.211980245934
 31
0.0
  0
LINE
  5
B5F0A
330
18
100
AcDbEntity
  8
0
100
AcDbLine
 10
5968.017258889239
 20
-3894.665933744858
 30
0.0
 11
5964.813258889238
 21
-3894.265433744859
 31
0.0
  0
ARC
  5
B5F0B
330
18
100
AcDbEntity
  8
0
100
AcDbCircle
 10
5957.370782307244
 20
-3896.711980245936
 30
0.0
 40
0.5
100
AcDbArc
 50
180.0
 51
270.0
  0
ARC
  5
B5F0C
330
18
100
AcDbEntity
  8
0
100
AcDbCircle
 10
5968.370782307244
 20
-3896.711980245936
 30
0.0
 40
0.5
100
AcDbArc
 50
270.0
 51
0.0
  0
LINE
  5
B5F0D
330
18
100
AcDbEntity
  8
0
100
AcDbLine
 10
5968.017258889239
 20
-3890.260433744857
 30
0.0
 11
5966.01475888924
 21
-3890.020133744857
 31
0.0
  0
TEXT
  5
B5F0E
330
18
100
AcDbEntity
  8
0
100
AcDbText
 10
5967.969524750658
 20
-3889.043834520472
 30
0.0
 40
1.44
  1
DENSO
 50
90.0
 41
1.3
  7
TIMESNR
100
AcDbText
  0
TEXT
  5
B5F0F
330
18
100
AcDbEntity
  8
0
100
AcDbText
 10
5966.272762341674
 20
-3888.922421410331
 30
0.0
 40
1.44
  1
NIKKI
 50
90.0
 41
1.25
  7
TIMESNR
100
AcDbText
  0
TEXT
  5
B5F10
330
18
100
AcDbEntity
  8
0
100
AcDbText
 10
5967.969524750661
 20
-3853.043834520472
 30
0.0
 40
1.44
  1
DENSO
 50
90.0
 41
1.3
  7
TIMESNR
100
AcDbText
  0
TEXT
  5
B5F11
330
18
100
AcDbEntity
  8
0
100
AcDbText
 10
5966.272762341677
 20
-3852.922421410331
 30
0.0
 40
1.44
  1
NIKKI
 50
90.0
 41
1.25
  7
TIMESNR
100
AcDbText
  0
TEXT
  5
B5F12
330
18
100
AcDbEntity
  8
0
100
AcDbText
 10
5960.488050188122
 20
-3859.388010215069
 30
0.0
 40
2.6
  1
ENCODER
 50
90.0
 41
1.199999999999999
  7
MS\U+FF7A\U+FF9E\U+FF7C\U+FF6F\U+FF78N
 11
5960.962997063123
 21
-3859.388010215069
 31
0.0
100
AcDbText
 73
     1
  0
TEXT
  5
B5F13
330
18
100
AcDbEntity
  8
0
100
AcDbText
 10
5963.312041991503
 20
-3859.415136787881
 30
0.0
 40
2.0
  1
******PPR
 50
90.0
 41
1.199999999999999
  7
MS\U+FF7A\U+FF9E\U+FF7C\U+FF6F\U+FF78N
 11
5963.677385741504
 21
-3859.415136787881
 31
0.0
100
AcDbText
 73
     1
  0
LINE
  5
B5F14
330
18
100
AcDbEntity
  8
0
100
AcDbLine
 10
5963.870782307244
 20
-3861.211980245934
 30
0.0
 11
5963.870782307244
 21
-3826.211980245935
 31
0.0
  0
LINE
  5
B5F15
330
18
100
AcDbEntity
  8
0
100
AcDbLine
 10
5968.870782307245
 20
-3860.711980245934
 30
0.0
 11
5968.870782307245
 21
-3826.711980245934
 31
0.0
  0
LINE
  5
B5F16
330
18
100
AcDbEntity
  8
0
100
AcDbLine
 10
5956.870782307245
 20
-3826.711980245934
 30
0.0
 11
5956.870782307245
 21
-3860.711980245934
 31
0.0
  0
ARC
  5
B5F17
330
18
100
AcDbEntity
  8
0
100
AcDbCircle
 10
5968.370782307248
 20
-3860.711980245935
 30
0.0
 40
0.5
100
AcDbArc
 50
270.0
 51
0.0
  0
ARC
  5
B5F18
330
18
100
AcDbEntity
  8
0
100
AcDbCircle
 10
5957.370782307248
 20
-3860.711980245935
 30
0.0
 40
0.5
100
AcDbArc
 50
180.0
 51
270.0
  0
LINE
  5
B5F19
330
18
100
AcDbEntity
  8
0
100
AcDbLine
 10
5968.370782307241
 20
-3862.211980245934
 30
0.0
 11
5957.370782307241
 21
-3862.211980245934
 31
0.0
  0
LINE
  5
B5F1A
330
18
100
AcDbEntity
  8
0
100
AcDbLine
 10
5957.370782307244
 20
-3861.211980245934
 30
0.0
 11
5968.370782307244
 21
-3861.211980245934
 31
0.0
  0
ARC
  5
B5F1B
330
18
100
AcDbEntity
  8
0
100
AcDbCircle
 10
5957.370782307244
 20
-3862.711980245935
 30
0.0
 40
0.5
100
AcDbArc
 50
90.0
 51
180.0
  0
ARC
  5
B5F1C
330
18
100
AcDbEntity
  8
0
100
AcDbCircle
 10
5968.370782307244
 20
-3862.711980245935
 30
0.0
 40
0.5
100
AcDbArc
 50
0.0
 51
90.0
  0
ARC
  5
B5F1D
330
18
100
AcDbEntity
  8
0
100
AcDbCircle
 10
5966.815758889247
 20
-3856.262933744857
 30
0.0
 40
0.8009999999999999
100
AcDbArc
 50
0.0
 51
180.0
  0
LINE
  5
B5F1E
330
18
100
AcDbEntity
  8
0
100
AcDbLine
 10
5968.017258889243
 20
-3854.260433744857
 30
0.0
 11
5966.014758889244
 21
-3854.020133744856
 31
0.0
  0
LINE
  5
B5F1F
330
18
100
AcDbEntity
  8
0
100
AcDbLine
 10
5968.017258889243
 20
-3858.665933744858
 30
0.0
 11
5964.813258889241
 21
-3858.265433744858
 31
0.0
  0
ARC
  5
B5F20
330
18
100
AcDbEntity
  8
0
100
AcDbCircle
 10
5966.613646098548
 20
-3856.262002349508
 30
0.0
 40
1.00311322310025
100
AcDbArc
 50
203.5897772726021
 51
359.9468005913668
  0
LINE
  5
B5F21
330
18
100
AcDbEntity
  8
0
100
AcDbLine
 10
5966.014758889244
 20
-3856.262933744856
 30
0.0
 11
5966.014758889244
 21
-3854.020133744856
 31
0.0
  0
LINE
  5
B5F22
330
18
100
AcDbEntity
  8
0
100
AcDbLine
 10
5964.813258889241
 20
-3858.265433744858
 30
0.0
 11
5964.813258889241
 21
-3853.859933744857
 31
0.0
  0
LINE
  5
B5F23
330
18
100
AcDbEntity
  8
0
100
AcDbLine
 10
5964.813258889241
 20
-3853.859933744857
 30
0.0
 11
5965.694358889241
 21
-3856.663433744856
 31
0.0
  0
CIRCLE
  5
B5F24
330
18
100
AcDbEntity
  8
0
100
AcDbCircle
 10
5966.615508889246
 20
-3856.262933744857
 30
0.0
 40
0.6007500000000002
  0
LINE
  5
B5F25
330
18
100
AcDbEntity
  8
0
100
AcDbLine
 10
5968.017258889243
 20
-3858.665933744858
 30
0.0
 11
5968.017258889243
 21
-3854.260433744857
 31
0.0
  0
LINE
  5
B5F26
330
18
100
AcDbEntity
  8
0
100
AcDbLine
 10
5968.370782307244
 20
-3826.211980245935
 30
0.0
 11
5957.370782307244
 21
-3826.211980245935
 31
0.0
  0
LINE
  5
B5F27
330
18
100
AcDbEntity
  8
0
100
AcDbLine
 10
5967.572288239804
 20
-3907.549406844315
 30
0.0
 11
5965.569788239804
 21
-3907.309106844318
 31
0.0
  0
LINE
  5
B5F28
330
18
100
AcDbEntity
  8
0
100
AcDbLine
 10
5967.572288239804
 20
-3911.954906844316
 30
0.0
 11
5964.368288239805
 21
-3911.554406844317
 31
0.0
  0
LINE
  5
B5F29
330
18
100
AcDbEntity
  8
0
100
AcDbLine
 10
5964.368288239805
 20
-3911.554406844317
 30
0.0
 11
5964.368288239805
 21
-3907.148906844315
 31
0.0
  0
ARC
  5
B5F2A
330
18
100
AcDbEntity
  8
0
100
AcDbCircle
 10
5957.370782307248
 20
-3826.711980245935
 30
0.0
 40
0.5
100
AcDbArc
 50
90.0
 51
180.0
  0
ARC
  5
B5F2B
330
18
100
AcDbEntity
  8
0
100
AcDbCircle
 10
5966.370788239811
 20
-3909.551906844318
 30
0.0
 40
0.8009999999999999
100
AcDbArc
 50
0.0
 51
180.0
  0
CIRCLE
  5
B5F2C
330
18
100
AcDbEntity
  8
0
100
AcDbCircle
 10
5966.17053823981
 20
-3909.551906844318
 30
0.0
 40
0.6007500000000002
  0
ARC
  5
B5F2D
330
18
100
AcDbEntity
  8
0
100
AcDbCircle
 10
5966.168675449112
 20
-3909.55097544897
 30
0.0
 40
1.00311322310025
100
AcDbArc
 50
203.5897772726021
 51
359.9468005913668
  0
LINE
  5
B5F2E
330
18
100
AcDbEntity
  8
0
100
AcDbLine
 10
5964.368288239805
 20
-3907.148906844315
 30
0.0
 11
5965.249388239804
 21
-3909.952406844317
 31
0.0
  0
LINE
  5
B5F2F
330
18
100
AcDbEntity
  8
0
100
AcDbLine
 10
5965.569788239804
 20
-3909.551906844317
 30
0.0
 11
5965.569788239804
 21
-3907.309106844318
 31
0.0
  0
LINE
  5
B5F30
330
18
100
AcDbEntity
  8
0
100
AcDbLine
 10
5967.572288239804
 20
-3911.954906844316
 30
0.0
 11
5967.572288239804
 21
-3907.549406844315
 31
0.0
  0
ARC
  5
B5F31
330
18
100
AcDbEntity
  8
0
100
AcDbCircle
 10
5968.370782307248
 20
-3826.711980245935
 30
0.0
 40
0.5
100
AcDbArc
 50
0.0
 51
90.0
  0
TEXT
  5
B5F32
330
18
100
AcDbEntity
  8
0
100
AcDbText
 10
5966.366290893435
 20
-3877.590319851385
 30
137.5
 40
1.5
  1
SN-16140
 50
90.0
  7
MS\U+FF7A\U+FF9E\U+FF7C\U+FF6F\U+FF78N
 11
5966.640298705935
 21
-3877.590319851385
 31
137.5
100
AcDbText
 73
     1
  0
TEXT
  5
B5F33
330
18
100
AcDbEntity
  8
0
100
AcDbText
 10
5968.236076943821
 20
-3877.590319851385
 30
137.5
 40
1.5
  1
MADE IN JAPAN
 50
90.0
  7
MS\U+FF7A\U+FF9E\U+FF7C\U+FF6F\U+FF78N
 11
5968.51008475632
 21
-3877.590319851385
 31
137.5
100
AcDbText
 73
     1
  0
TEXT
  5
B5F34
330
18
100
AcDbEntity
  8
0
100
AcDbText
 10
5968.236076943824
 20
-3841.590319851384
 30
137.5
 40
1.5
  1
MADE IN JAPAN
 50
90.0
  7
MS\U+FF7A\U+FF9E\U+FF7C\U+FF6F\U+FF78N
 11
5968.510084756323
 21
-3841.590319851384
 31
137.5
100
AcDbText
 73
     1
  0
TEXT
  5
B5F35
330
18
100
AcDbEntity
  8
0
100
AcDbText
 10
5966.366290893438
 20
-3841.590319851384
 30
137.5
 40
1.5
  1
SN-16140
 50
90.0
  7
MS\U+FF7A\U+FF9E\U+FF7C\U+FF6F\U+FF78N
 11
5966.640298705939
 21
-3841.590319851384
 31
137.5
100
AcDbText
 73
     1
  0
LINE
  5
B615C
330
18
100
AcDbEntity
  8
中心線
 48
0.5
100
AcDbLine
 10
5710.599610130849
 20
-4088.540790396155
 30
0.0
 11
5710.599610130849
 21
-4066.540790396158
 31
0.0
  0
LINE
  5
B615D
330
18
100
AcDbEntity
  8
隠れ線
 48
10.0
100
AcDbLine
 10
5714.099610130853
 20
-4069.540790396154
 30
0.0
 11
5714.099610130852
 21
-4087.540790396154
 31
0.0
  0
LINE
  5
B615E
330
18
100
AcDbEntity
  8
隠れ線
 48
10.0
100
AcDbLine
 10
5704.599610130855
 20
-4069.540790396154
 30
0.0
 11
5716.599610130855
 21
-4069.540790396154
 31
0.0
  0
LINE
  5
B615F
330
18
100
AcDbEntity
  8
隠れ線
 48
10.0
100
AcDbLine
 10
5716.599610130855
 20
-4067.540790396158
 30
0.0
 11
5716.599610130855
 21
-4069.540790396154
 31
0.0
  0
LINE
  5
B6160
330
18
100
AcDbEntity
  8
隠れ線
 48
10.0
100
AcDbLine
 10
5707.099610130852
 20
-4087.540790396154
 30
0.0
 11
5707.099610130853
 21
-4069.540790396154
 31
0.0
  0
LINE
  5
B6161
330
18
100
AcDbEntity
  8
隠れ線
 48
10.0
100
AcDbLine
 10
5704.599610130855
 20
-4069.540790396154
 30
0.0
 11
5704.599610130855
 21
-4067.540790396157
 31
0.0
  0
LINE
  5
B617E
330
18
100
AcDbEntity
  8
実線
100
AcDbLine
 10
5841.435919578758
 20
-3729.153244349215
 30
0.0
 11
5841.435919578758
 21
-3749.153244349214
 31
0.0
  0
LINE
  5
B617F
330
18
100
AcDbEntity
  8
実線
100
AcDbLine
 10
5841.435919578758
 20
-3749.153244349214
 30
0.0
 11
5841.435919578758
 21
-3762.003244349215
 31
0.0
  0
LINE
  5
B6180
330
18
100
AcDbEntity
  8
実線
100
AcDbLine
 10
5688.935919578756
 20
-3729.153244349215
 30
0.0
 11
5736.435919839507
 21
-3729.153242322636
 31
0.0
  0
LINE
  5
B6181
330
18
100
AcDbEntity
  8
中心線
 48
0.5
100
AcDbLine
 10
5768.935919578757
 20
-3727.153244349214
 30
0.0
 11
5768.935919578757
 21
-3756.742645556561
 31
0.0
  0
LINE
  5
B6183
330
18
100
AcDbEntity
  8
実線
100
AcDbLine
 10
5688.935919578758
 20
-3729.153244349215
 30
0.0
 11
5688.935919578758
 21
-3762.003244349215
 31
0.0
  0
LINE
  5
B61AC
330
18
100
AcDbEntity
  8
実線
100
AcDbLine
 10
5824.435919578758
 20
-3749.153244349211
 30
0.0
 11
5841.435919578758
 21
-3749.153244349214
 31
0.0
  0
LINE
  5
B61AD
330
18
100
AcDbEntity
  8
実線
100
AcDbLine
 10
5841.435919578758
 20
-3749.153244349214
 30
0.0
 11
5696.435919578759
 21
-3749.153244349214
 31
0.0
  0
LINE
  5
B61AE
330
18
100
AcDbEntity
  8
実線
100
AcDbLine
 10
5696.435919578762
 20
-3729.153244349215
 30
0.0
 11
5696.435919578762
 21
-3759.829196344502
 31
0.0
  0
LINE
  5
B61AF
330
18
100
AcDbEntity
  8
実線
100
AcDbLine
 10
5711.490293113406
 20
-3729.153244349215
 30
0.0
 11
5711.490293113406
 21
-3749.153244349214
 31
0.0
  0
LINE
  5
B61B0
330
18
100
AcDbEntity
  8
実線
100
AcDbLine
 10
5826.381546284633
 20
-3729.153244349215
 30
0.0
 11
5826.381546284633
 21
-3749.153244349214
 31
0.0
  0
LINE
  5
B61BE
330
18
100
AcDbEntity
  8
実線
100
AcDbLine
 10
5736.435919839507
 20
-3729.453243675636
 30
0.0
 11
5801.435921180608
 21
-3729.453243675636
 31
0.0
  0
LINE
  5
B61BF
330
18
100
AcDbEntity
  8
実線
100
AcDbLine
 10
5736.435919839507
 20
-3729.153242322636
 30
0.0
 11
5736.435919839507
 21
-3729.453243675636
 31
0.0
  0
LINE
  5
B61C0
330
18
100
AcDbEntity
  8
実線
100
AcDbLine
 10
5801.435921180608
 20
-3729.453243675636
 30
0.0
 11
5801.435921180608
 21
-3729.153242322636
 31
0.0
  0
LINE
  5
B61C1
330
18
100
AcDbEntity
  8
実線
100
AcDbLine
 10
5801.435921180608
 20
-3729.153242322636
 30
0.0
 11
5841.435919578758
 21
-3729.153244349215
 31
0.0
  0
LINE
  5
B61C4
330
18
100
AcDbEntity
  8
実線
100
AcDbLine
 10
5688.935919578758
 20
-3733.496047265287
 30
0.0
 11
5688.935919578758
 21
-3750.803647265288
 31
0.0
  0
SPLINE
  5
B61C5
330
18
100
AcDbEntity
  8
実線
 48
0.5
100
AcDbSpline
210
0.0
220
0.0
230
1.0
 70
  1064
 71
     3
 72
    11
 73
     7
 74
     5
 42
0.000000001
 43
0.0000000001
 44
0.0000000001
 40
0.0
 40
0.0
 40
0.0
 40
0.0
 40
1.992484014116254
 40
3.465112482101315
 40
4.934764524499
 40
6.931889979397007
 40
6.931889979397007
 40
6.931889979397007
 40
6.931889979397007
 10
5656.062658842646
 20
-3738.849847265286
 30
0.0
 10
5655.770826375236
 20
-3739.496271441892
 30
0.0
 10
5655.263302943005
 20
-3740.620462385069
 30
0.0
 10
5656.058421108339
 20
-3742.149621698337
 30
0.0
 10
5656.865157778953
 20
-3743.67554998673
 30
0.0
 10
5656.355982327205
 20
-3744.801319227626
 30
0.0
 10
5656.062658842646
 20
-3745.449847265289
 30
0.0
 11
5656.062658842646
 21
-3738.849847265286
 31
0.0
 11
5655.539571350786
 21
-3740.772442392287
 31
0.0
 11
5656.060522807788
 21
-3742.149847265288
 31
0.0
 11
5656.58574633451
 21
-3743.522442388659
 31
0.0
 11
5656.062658842646
 21
-3745.449847265289
 31
0.0
  0
SPLINE
  5
B61C6
330
18
100
AcDbEntity
  8
実線
 48
0.5
100
AcDbSpline
210
0.0
220
0.0
230
1.0
 70
  1064
 71
     3
 72
     9
 73
     5
 74
     3
 42
0.000000001
 43
0.0000000001
 44
0.0000000001
 40
0.0
 40
0.0
 40
0.0
 40
0.0
 40
1.465084025132902
 40
3.462209480029957
 40
3.462209480029957
 40
3.462209480029957
 40
3.462209480029957
 10
5656.062658842646
 20
-3742.153921041891
 30
0.0
 10
5655.824340496034
 20
-3742.60689175733
 30
0.0
 10
5655.261159118889
 20
-3743.677328318144
 30
0.0
 10
5655.769455454416
 20
-3744.801427127887
 30
0.0
 10
5656.062658842646
 20
-3745.449847265289
 30
0.0
 11
5656.062658842646
 21
-3742.153921041891
 31
0.0
 11
5655.539571350787
 21
-3743.522442388659
 31
0.0
 11
5656.062658842646
 21
-3745.449847265289
 31
0.0
  0
LINE
  5
B61C7
330
18
100
AcDbEntity
  8
実線
100
AcDbLine
 10
5666.935919578758
 20
-3738.849847265289
 30
0.0
 11
5666.935919578758
 21
-3745.449847265288
 31
0.0
  0
LINE
  5
B61C8
330
18
100
AcDbEntity
  8
実線
100
AcDbLine
 10
5688.935919578758
 20
-3750.807044349214
 30
0.0
 11
5688.935919578758
 21
-3733.499444349214
 31
0.0
  0
LINE
  5
B61C9
330
18
100
AcDbEntity
  8
実線
100
AcDbLine
 10
5670.935919578758
 20
-3733.499444349214
 30
0.0
 11
5670.935919578758
 21
-3750.807044349214
 31
0.0
  0
ARC
  5
B61CA
330
18
100
AcDbEntity
  8
実線
100
AcDbCircle
 10
5678.935919578758
 20
-3750.807044349214
 30
0.0
 40
8.0
100
AcDbArc
 50
153.5214655210592
 51
180.0
  0
LINE
  5
B61CB
330
18
100
AcDbEntity
  8
実線
100
AcDbLine
 10
5670.935919578758
 20
-3750.807044349214
 30
0.0
 11
5666.935919578758
 21
-3747.450645824506
 31
0.0
  0
LINE
  5
B61CC
330
18
100
AcDbEntity
  8
実線
100
AcDbLine
 10
5678.935919578758
 20
-3733.499444349214
 30
0.0
 11
5678.935919578758
 21
-3750.807044349214
 31
0.0
  0
LINE
  5
B61CD
330
18
100
AcDbEntity
  8
実線
100
AcDbLine
 10
5683.935919578758
 20
-3733.499444349214
 30
0.0
 11
5683.935919578758
 21
-3750.807044349214
 31
0.0
  0
LINE
  5
B61CE
330
18
100
AcDbEntity
  8
実線
100
AcDbLine
 10
5670.935919578758
 20
-3733.499444349214
 30
0.0
 11
5666.935919578758
 21
-3736.855842873924
 31
0.0
  0
LINE
  5
B61CF
330
18
100
AcDbEntity
  8
実線
100
AcDbLine
 10
5666.935919578758
 20
-3736.855842873924
 30
0.0
 11
5666.935919578758
 21
-3747.450645824506
 31
0.0
  0
LINE
  5
B61D0
330
18
100
AcDbEntity
  8
実線
100
AcDbLine
 10
5678.935919578758
 20
-3733.499444349214
 30
0.0
 11
5670.935919578758
 21
-3733.499444349214
 31
0.0
  0
LINE
  5
B61D1
330
18
100
AcDbEntity
  8
実線
100
AcDbLine
 10
5678.935919578758
 20
-3738.586344349215
 30
0.0
 11
5671.775107865691
 21
-3738.586344349215
 31
0.0
  0
LINE
  5
B61D2
330
18
100
AcDbEntity
  8
実線
100
AcDbLine
 10
5678.935919578758
 20
-3737.066344349214
 30
0.0
 11
5671.775107865691
 21
-3737.066344349214
 31
0.0
  0
LINE
  5
B61D3
330
18
100
AcDbEntity
  8
実線
100
AcDbLine
 10
5678.935919578758
 20
-3747.240144349215
 30
0.0
 11
5671.775107865691
 21
-3747.240144349215
 31
0.0
  0
LINE
  5
B61D4
330
18
100
AcDbEntity
  8
実線
100
AcDbLine
 10
5678.935919578758
 20
-3745.720144349214
 30
0.0
 11
5671.775107865691
 21
-3745.720144349214
 31
0.0
  0
ARC
  5
B61D5
330
18
100
AcDbEntity
  8
実線
100
AcDbCircle
 10
5678.935919578758
 20
-3742.153244349214
 30
0.0
 40
8.0
100
AcDbArc
 50
153.5214655210592
 51
206.4785344789408
  0
LINE
  5
B61D6
330
18
100
AcDbEntity
  8
実線
100
AcDbLine
 10
5671.775107865691
 20
-3738.586344349215
 30
0.0
 11
5671.775107865691
 21
-3737.066344349214
 31
0.0
  0
LINE
  5
B61D7
330
18
100
AcDbEntity
  8
実線
100
AcDbLine
 10
5671.775107865691
 20
-3747.240144349215
 30
0.0
 11
5671.775107865691
 21
-3745.720144349214
 31
0.0
  0
ARC
  5
B61D8
330
18
100
AcDbEntity
  8
実線
100
AcDbCircle
 10
5678.935919578758
 20
-3733.499444349214
 30
0.0
 40
8.0
100
AcDbArc
 50
180.0
 51
206.4785344789408
  0
LINE
  5
B61D9
330
18
100
AcDbEntity
  8
実線
100
AcDbLine
 10
5683.935919578758
 20
-3736.15324308758
 30
0.0
 11
5678.935919578758
 21
-3736.153241825943
 31
0.0
  0
LINE
  5
B61DA
330
18
100
AcDbEntity
  8
実線
100
AcDbLine
 10
5683.935919578758
 20
-3748.153243087582
 30
0.0
 11
5678.935919578758
 21
-3748.153241825947
 31
0.0
  0
LINE
  5
B61DB
330
18
100
AcDbEntity
  8
実線
100
AcDbLine
 10
5678.935919578758
 20
-3750.807044349214
 30
0.0
 11
5670.935919578758
 21
-3750.807044349214
 31
0.0
  0
LINE
  5
B61DC
330
18
100
AcDbEntity
  8
実線
100
AcDbLine
 10
5688.935919578758
 20
-3733.499444349214
 30
0.0
 11
5683.935919578758
 21
-3733.499444349214
 31
0.0
  0
LINE
  5
B61DD
330
18
100
AcDbEntity
  8
実線
100
AcDbLine
 10
5688.935919578758
 20
-3738.586344349215
 30
0.0
 11
5683.935919578758
 21
-3738.586344349215
 31
0.0
  0
LINE
  5
B61DE
330
18
100
AcDbEntity
  8
実線
100
AcDbLine
 10
5688.935919578758
 20
-3737.066344349214
 30
0.0
 11
5683.935919578758
 21
-3737.066344349214
 31
0.0
  0
LINE
  5
B61DF
330
18
100
AcDbEntity
  8
実線
100
AcDbLine
 10
5688.935919578758
 20
-3745.720144349214
 30
0.0
 11
5683.935919578758
 21
-3745.720144349214
 31
0.0
  0
LINE
  5
B61E0
330
18
100
AcDbEntity
  8
実線
100
AcDbLine
 10
5688.935919578758
 20
-3747.240144349215
 30
0.0
 11
5683.935919578758
 21
-3747.240144349215
 31
0.0
  0
LINE
  5
B61E1
330
18
100
AcDbEntity
  8
実線
100
AcDbLine
 10
5688.935919578758
 20
-3750.807044349214
 30
0.0
 11
5683.935919578758
 21
-3750.807044349214
 31
0.0
  0
LINE
  5
B61E2
330
18
100
AcDbEntity
  8
中心線
 48
0.5
100
AcDbLine
 10
5691.418612205842
 20
-3742.149847265288
 30
0.0
 11
5662.994122159203
 21
-3742.149847265288
 31
0.0
  0
LINE
  5
B61E3
330
18
100
AcDbEntity
  8
実線
100
AcDbLine
 10
5656.062658842648
 20
-3745.449847265292
 30
0.0
 11
5666.935919578759
 21
-3745.449847265292
 31
0.0
  0
LINE
  5
B61E4
330
18
100
AcDbEntity
  8
実線
100
AcDbLine
 10
5656.062658842648
 20
-3738.849847265286
 30
0.0
 11
5666.935919578759
 21
-3738.849847265286
 31
0.0
  0
SPLINE
  5
B61E5
330
18
100
AcDbEntity
  8
実線
100
AcDbSpline
210
0.0
220
0.0
230
1.0
 70
  1064
 71
     3
 72
    10
 73
     6
 74
     4
 42
0.000000001
 43
0.0000000001
 44
0.0000000001
 40
0.0
 40
0.0
 40
0.0
 40
0.0
 40
59.32601325532186
 40
104.9306796309868
 40
154.3456704368171
 40
154.3456704368171
 40
154.3456704368171
 40
154.3456704368171
 10
5688.935919578758
 20
-3762.003244349215
 30
0.0
 10
5708.54521314548
 20
-3756.278332008245
 30
0.0
 10
5743.228421878628
 20
-3746.152606212711
 30
0.0
 10
5792.95340143671
 20
-3766.200085445654
 30
0.0
 10
5824.848741767772
 20
-3763.439096944724
 30
0.0
 10
5841.435919578758
 20
-3762.003244349215
 30
0.0
 11
5688.935919578758
 21
-3762.003244349215
 31
0.0
 11
5747.483116452652
 21
-3752.421929878844
 31
0.0
 11
5792.021431832202
 21
-3762.226217634078
 31
0.0
 11
5841.435919578758
 21
-3762.003244349215
 31
0.0
  0
TEXT
  5
B6208
330
18
100
AcDbEntity
  8
0
100
AcDbText
 10
5819.639076921629
 20
-3738.711983651666
 30
0.0
 40
2.0
  1
SER No.******
 50
180.0
 41
1.199999999999999
  7
MS\U+FF7A\U+FF9E\U+FF7C\U+FF6F\U+FF78N
 11
5819.639076921629
 21
-3738.346639901666
 31
0.0
100
AcDbText
 73
     1
  0
LINE
  5
B6209
330
18
100
AcDbEntity
  8
0
100
AcDbLine
 10
5786.935920379683
 20
-3745.153243335925
 30
0.0
 11
5820.935920379683
 21
-3745.153243335925
 31
0.0
  0
LINE
  5
B620A
330
18
100
AcDbEntity
  8
0
100
AcDbLine
 10
5820.935920379683
 20
-3733.153243335925
 30
0.0
 11
5786.935920379683
 21
-3733.153243335925
 31
0.0
  0
LINE
  5
B620B
330
18
100
AcDbEntity
  8
0
100
AcDbLine
 10
5821.435920379683
 20
-3738.153243335925
 30
0.0
 11
5786.435920379683
 21
-3738.153243335925
 31
0.0
  0
ARC
  5
B620C
330
18
100
AcDbEntity
  8
0
100
AcDbCircle
 10
5816.486873878606
 20
-3735.208266753923
 30
0.0
 40
0.8009999999999999
100
AcDbArc
 50
90.0
 51
270.0
  0
CIRCLE
  5
B620D
330
18
100
AcDbEntity
  8
0
100
AcDbCircle
 10
5816.486873878606
 20
-3735.408516753925
 30
0.0
 40
0.6007500000000002
  0
LINE
  5
B620E
330
18
100
AcDbEntity
  8
0
100
AcDbLine
 10
5818.889873878607
 20
-3734.006766753927
 30
0.0
 11
5814.484373878606
 21
-3734.006766753927
 31
0.0
  0
LINE
  5
B620F
330
18
100
AcDbEntity
  8
0
100
AcDbLine
 10
5816.486873878605
 20
-3736.009266753926
 30
0.0
 11
5814.244073878604
 21
-3736.009266753926
 31
0.0
  0
TEXT
  5
B6210
330
18
100
AcDbEntity
  8
0
100
AcDbText
 10
5819.611950348818
 20
-3741.535975455048
 30
0.0
 40
2.6
  1
MODEL:
 50
180.0
 41
1.199999999999999
  7
MS\U+FF7A\U+FF9E\U+FF7C\U+FF6F\U+FF78N
 11
5819.611950348818
 21
-3741.061028580048
 31
0.0
100
AcDbText
 73
     1
  0
LINE
  5
B6211
330
18
100
AcDbEntity
  8
0
100
AcDbLine
 10
5818.489373878606
 20
-3737.210766753928
 30
0.0
 11
5814.083873878606
 21
-3737.210766753928
 31
0.0
  0
LINE
  5
B6212
330
18
100
AcDbEntity
  8
0
100
AcDbLine
 10
5814.083873878606
 20
-3737.210766753928
 30
0.0
 11
5816.887373878603
 21
-3736.32966675393
 31
0.0
  0
ARC
  5
B6213
330
18
100
AcDbEntity
  8
0
100
AcDbCircle
 10
5816.485942483257
 20
-3735.410379544622
 30
0.0
 40
1.00311322310025
100
AcDbArc
 50
293.5897772726022
 51
89.9468005913668
  0
LINE
  5
B6214
330
18
100
AcDbEntity
  8
0
100
AcDbLine
 10
5821.435920379683
 20
-3744.653243335925
 30
0.0
 11
5821.435920379683
 21
-3733.653243335925
 31
0.0
  0
LINE
  5
B6215
330
18
100
AcDbEntity
  8
0
100
AcDbLine
 10
5818.889873878607
 20
-3734.006766753927
 30
0.0
 11
5818.489373878606
 21
-3737.210766753928
 31
0.0
  0
ARC
  5
B6216
330
18
100
AcDbEntity
  8
0
100
AcDbCircle
 10
5820.935920379684
 20
-3744.653243335922
 30
0.0
 40
0.5
100
AcDbArc
 50
270.0
 51
0.0
  0
ARC
  5
B6217
330
18
100
AcDbEntity
  8
0
100
AcDbCircle
 10
5820.935920379684
 20
-3733.653243335922
 30
0.0
 40
0.5
100
AcDbArc
 50
0.0
 51
90.0
  0
LINE
  5
B6218
330
18
100
AcDbEntity
  8
0
100
AcDbLine
 10
5814.484373878606
 20
-3734.006766753927
 30
0.0
 11
5814.244073878604
 21
-3736.009266753926
 31
0.0
  0
TEXT
  5
B6219
330
18
100
AcDbEntity
  8
0
100
AcDbText
 10
5813.267774654221
 20
-3734.054500892508
 30
0.0
 40
1.44
  1
DENSO
 50
180.0
 41
1.3
  7
TIMESNR
100
AcDbText
  0
TEXT
  5
B621A
330
18
100
AcDbEntity
  8
0
100
AcDbText
 10
5813.14636154408
 20
-3735.751263301493
 30
0.0
 40
1.44
  1
NIKKI
 50
180.0
 41
1.25
  7
TIMESNR
100
AcDbText
  0
LINE
  5
B621B
330
18
100
AcDbEntity
  8
0
100
AcDbLine
 10
5786.435920379683
 20
-3733.653243335925
 30
0.0
 11
5786.435920379683
 21
-3744.653243335925
 31
0.0
  0
ARC
  5
B621C
330
18
100
AcDbEntity
  8
0
100
AcDbCircle
 10
5786.935920379684
 20
-3744.653243335922
 30
0.0
 40
0.5
100
AcDbArc
 50
180.0
 51
270.0
  0
ARC
  5
B621D
330
18
100
AcDbEntity
  8
0
100
AcDbCircle
 10
5786.935920379684
 20
-3733.653243335922
 30
0.0
 40
0.5
100
AcDbArc
 50
90.0
 51
180.0
  0
TEXT
  5
B621E
330
18
100
AcDbEntity
  8
0
100
AcDbText
 10
5801.814259985134
 20
-3735.657734749731
 30
137.5
 40
1.5
  1
SN-16140
 50
180.0
  7
MS\U+FF7A\U+FF9E\U+FF7C\U+FF6F\U+FF78N
 11
5801.814259985134
 21
-3735.383726937231
 31
137.5
100
AcDbText
 73
     1
  0
TEXT
  5
B621F
330
18
100
AcDbEntity
  8
0
100
AcDbText
 10
5801.814259985134
 20
-3733.787948699347
 30
137.5
 40
1.5
  1
MADE IN JAPAN
 50
180.0
  7
MS\U+FF7A\U+FF9E\U+FF7C\U+FF6F\U+FF78N
 11
5801.814259985134
 21
-3733.513940886846
 31
137.5
100
AcDbText
 73
     1
  0
CIRCLE
  5
B843D
102
{ACAD_REACTORS
330
B843E
102
}
330
18
100
AcDbEntity
  8
実線
100
AcDbCircle
 10
5747.28528448437
 20
-3873.302114845359
 30
0.0
 40
3.0
  0
HATCH
  5
B843E
330
18
100
AcDbEntity
  8
実線
100
AcDbHatch
 10
0.0
 20
0.0
 30
0.0
210
0.0
220
0.0
230
1.0
  2
SOLID
 70
     1
 71
     0
 91
        2
 92
        7
 72
     1
 73
     1
 93
        3
 10
5749.883360695724
 20
-3871.802114845362
 42
0.3967367478737467
 10
5745.943871491451
 20
-3870.618719387654
 42
0.0300270487094537
 10
5747.28528448437
 20
-3873.302114845359
 42
0.0
 97
        0
 92
        7
 72
     1
 73
     1
 93
        3
 10
5748.938466622651
 20
-3875.805510303066
 42
-0.0300270487096057
 10
5747.28528448437
 20
-3873.302114845359
 42
0.0
 10
5744.687208273014
 20
-3874.802114845356
 42
0.4319090573369502
 97
        0
 75
     0
 76
     1
 47
0.0
 98
        2
 10
5747.634134360488
 20
-3871.618681919951
 10
5747.136133828264
 20
-3874.955285485851
1001
ACAD
1010
0.0
1020
0.0
1030
0.0
  0
LINE
  5
B843F
102
{ACAD_REACTORS
330
B843E
102
}
330
18
100
AcDbEntity
  8
中心線
100
AcDbLine
 10
5768.935919578748
 20
-3860.802114845526
 30
0.0
 11
5744.687208273014
 21
-3874.802114845356
 31
0.0
  0
TEXT
  5
B8795
330
18
100
AcDbEntity
  8
文字
100
AcDbText
 10
6019.514086851518
 20
-3974.978942367188
 30
0.0
 40
7.875
  1
τDISCモータ ND140-65-FS（B）（ABS） NMR-SCEJA2A-301A（B）
 41
0.4200000000000001
  7
まこ
100
AcDbText
  0
TEXT
  5
B8796
330
18
100
AcDbEntity
  8
文字
100
AcDbText
 10
6023.249546247743
 20
-4000.235572334988
 30
0.0
 40
13.5
  1
外形図（ABS）_PIN
 41
0.6
  7
まこ
100
AcDbText
  0
TEXT
  5
B8797
330
18
100
AcDbEntity
  8
文字
100
AcDbText
 10
6019.090535588266
 20
-4025.790862562645
 30
0.0
 40
15.75
  1
ＳＥ－８１３１０Ａ
 41
0.9529999999999999
  7
まこ
100
AcDbText
  0
CIRCLE
  5
B87E6
330
18
100
AcDbEntity
  8
実線
100
AcDbCircle
 10
6100.203949304941
 20
-3860.797701401098
 30
0.0
 40
57.50253027714596
  0
VIEWPORT
  5
B87C0
102
{ACAD_XDICTIONARY
360
B889F
102
}
330
B87BC
100
AcDbEntity
 67
     1
  8
0
100
AcDbViewport
 10
5.25
 20
3.5
 30
0.0
 40
11.55
 41
8.925
 68
     1
 69
     1
 12
5.25
 22
3.5
 13
0.0
 23
0.0
 14
0.5
 24
0.5
 15
0.0
 25
0.0
 16
0.0
 26
0.0
 36
1.0
 17
0.0
 27
0.0
 37
0.0
 42
50.0
 43
0.0
 44
0.0
 45
8.925
 50
0.0
 51
0.0
 72
   100
 90
   557152
  1

281
     0
 71
     1
 74
     0
110
0.0
120
0.0
130
0.0
111
1.0
121
0.0
131
0.0
112
0.0
122
1.0
132
0.0
 79
     0
146
0.0
  0
VIEWPORT
  5
B87C1
102
{ACAD_XDICTIONARY
360
B87C2
102
}
330
B87BC
100
AcDbEntity
 67
     1
  8
0
100
AcDbViewport
 10
5.25
 20
3.5
 30
0.0
 40
8.4
 41
5.6
 68
     2
 69
     2
 12
5981.299284957175
 22
-3963.233524782872
 13
0.0
 23
0.0
 14
0.5
 24
0.5
 15
0.0
 25
0.0
 16
0.0
 26
0.0
 36
1.0
 17
0.0
 27
0.0
 37
0.0
 42
50.0
 43
0.0
 44
0.0
 45
565.8511562370344
 50
0.0
 51
0.0
 72
   100
341
E
 90
   557152
  1

281
     0
 71
     1
 74
     0
110
0.0
120
0.0
130
0.0
111
1.0
121
0.0
131
0.0
112
0.0
122
1.0
132
0.0
 79
     0
146
0.0
  0
ENDSEC
  0
SECTION
  2
OBJECTS
  0
DICTIONARY
  5
C
330
0
100
AcDbDictionary
281
     1
  3
ACAD_2007HEADERVARS_RT
350
B8860
  3
ACAD_CIP_PREVIOUS_PRODUCT_INFO
350
8F58E
  3
ACAD_COLOR
350
B7DB5
  3
ACAD_DETAILVIEWSTYLE
350
8F583
  3
ACAD_GROUP
350
D
  3
ACAD_IMAGE_VARS
350
B7331
  3
ACAD_LAYOUT
350
73F
  3
ACAD_MATERIAL
350
B7B2B
  3
ACAD_MLEADERSTYLE
350
B7B31
  3
ACAD_MLINESTYLE
350
1B
  3
ACAD_PLOTSETTINGS
350
740
  3
ACAD_PLOTSTYLENAME
350
73D
  3
ACAD_SCALELIST
350
8F56D
  3
ACAD_SECTIONVIEWSTYLE
350
8F581
  3
ACAD_TABLESTYLE
350
B7B2F
  3
ACAD_VISUALSTYLE
350
B7B12
  3
AcadDim
350
66482
  3
ACDB_RECOMPOSE_DATA
350
B885E
  3
AcDbVariableDictionary
350
11AC
  3
APPDATA
350
B732F
  3
CLOUDSETTINGS
350
B86D3
  3
DWGPROPS
350
B885F
  3
FX_DICT_DIMENSION_PALETTE
350
B7B55
  3
FX_DICT_DIMENSION_PALETTE_RECENTLIST
350
B7B56
  3
TOOLBOX
350
B7D94
  0
DICTIONARY
  5
B8809
330
8
100
AcDbDictionary
280
     1
281
     1
  0
DICTIONARY
  5
1E591
330
2
100
AcDbDictionary
280
     1
281
     1
  3
ACAD_LAYERSTATES
360
1E615
  0
DICTIONARY
  5
A181E
330
E
100
AcDbDictionary
280
     1
281
     1
  3
ADSK_XREC_LAYER_RECONCILED
360
A181F
  0
DICTIONARY
  5
A1826
330
8C6
100
AcDbDictionary
280
     1
281
     1
  3
ADSK_XREC_LAYER_RECONCILED
360
A1827
  0
DICTIONARY
  5
A182C
330
96A
100
AcDbDictionary
280
     1
281
     1
  3
ADSK_XREC_LAYER_RECONCILED
360
A182D
  0
DICTIONARY
  5
A182E
330
1521
100
AcDbDictionary
280
     1
281
     1
  3
ADSK_XREC_LAYER_RECONCILED
360
A182F
  0
DICTIONARY
  5
A1830
330
1522
100
AcDbDictionary
280
     1
281
     1
  3
ADSK_XREC_LAYER_RECONCILED
360
A1831
  0
DICTIONARY
  5
A183E
330
808B8
100
AcDbDictionary
280
     1
281
     1
  3
ADSK_XREC_LAYER_RECONCILED
360
A183F
  0
DICTIONARY
  5
A1864
330
89319
100
AcDbDictionary
280
     1
281
     1
  3
ADSK_XREC_LAYER_RECONCILED
360
A1865
  0
DICTIONARY
  5
9F677
330
18
100
AcDbDictionary
280
     1
281
     1
  3
ACAD_SORTENTS
360
9F678
  0
DICTIONARY
  5
B889F
330
B87C0
100
AcDbDictionary
280
     1
281
     1
  3
ACAD_XREC_ROUNDTRIP
360
B88A0
  0
DICTIONARY
  5
B87C2
330
B87C1
100
AcDbDictionary
280
     1
281
     1
  3
ACAD_XREC_ROUNDTRIP
360
B88A1
  3
ASDK_XREC_ANNOTATION_SCALE_INFO
360
B87C3
  0
DICTIONARY
  5
B8860
102
{ACAD_REACTORS
330
C
102
}
330
C
100
AcDbDictionary
281
     1
  3
INTERFERECOLOR
350
B8861
  0
XRECORD
  5
8F58E
102
{ACAD_REACTORS
330
C
102
}
330
C
100
AcDbXrecord
280
     1
300
ACDLT
300
2019
300
87085ACDLT_2019_0F
  0
DICTIONARY
  5
B7DB5
102
{ACAD_REACTORS
330
C
102
}
330
C
100
AcDbDictionary
281
     1
  0
DICTIONARY
  5
8F583
102
{ACAD_REACTORS
330
C
102
}
330
C
100
AcDbDictionary
281
     1
  3
Imperial24
350
8F584
  0
DICTIONARY
  5
D
102
{ACAD_REACTORS
330
C
102
}
330
C
100
AcDbDictionary
281
     1
  0
RASTERVARIABLES
  5
B7331
102
{ACAD_REACTORS
330
C
102
}
330
C
100
AcDbRasterVariables
 90
        0
 70
     1
 71
     1
 72
     0
  0
DICTIONARY
  5
73F
102
{ACAD_REACTORS
330
C
102
}
330
C
100
AcDbDictionary
281
     1
  3
Model
350
741
  3
Sheet1
350
B87BD
  0
DICTIONARY
  5
B7B2B
102
{ACAD_REACTORS
330
C
102
}
330
C
100
AcDbDictionary
281
     1
  3
ByBlock
350
B87E9
  3
ByLayer
350
B7B2C
  3
Global
350
B7B2E
  0
DICTIONARY
  5
B7B31
102
{ACAD_REACTORS
330
C
102
}
330
C
100
AcDbDictionary
281
     1
  3
Standard
350
B7B32
  0
DICTIONARY
  5
1B
102
{ACAD_REACTORS
330
C
102
}
330
C
100
AcDbDictionary
281
     1
  3
STANDARD
350
1C
  0
DICTIONARY
  5
740
102
{ACAD_REACTORS
330
C
102
}
330
C
100
AcDbDictionary
281
     1
  0
ACDBDICTIONARYWDFLT
  5
73D
102
{ACAD_REACTORS
330
C
102
}
330
C
100
AcDbDictionary
281
     1
  3
Normal
350
73E
100
AcDbDictionaryWithDefault
340
73E
  0
DICTIONARY
  5
8F56D
102
{ACAD_REACTORS
330
C
102
}
330
C
100
AcDbDictionary
281
     1
  3
A0
350
8F56E
  3
A1
350
8F56F
  3
A2
350
8F570
  3
A3
350
8F571
  3
A4
350
8F572
  3
A5
350
8F573
  3
A6
350
8F574
  3
A7
350
8F575
  3
A8
350
8F576
  3
A9
350
8F577
  3
B0
350
8F578
  3
B1
350
8F579
  3
B2
350
8F57A
  3
B3
350
8F57B
  3
B4
350
8F57C
  3
B5
350
8F57D
  3
B6
350
8F57E
  0
DICTIONARY
  5
8F581
102
{ACAD_REACTORS
330
C
102
}
330
C
100
AcDbDictionary
281
     1
  3
Imperial24
350
8F582
  0
DICTIONARY
  5
B7B2F
102
{ACAD_REACTORS
330
C
102
}
330
C
100
AcDbDictionary
281
     1
  3
Standard
350
B7B30
  0
DICTIONARY
  5
B7B12
102
{ACAD_REACTORS
330
C
102
}
330
C
100
AcDbDictionary
281
     1
  3
2dWireframe
350
B7B17
  3
Basic
350
B7B1A
  3
Brighten
350
B7B1E
  3
ColorChange
350
B7B22
  3
Conceptual
350
B7B1C
  3
Dim
350
B7B1D
  3
EdgeColorOff
350
B7B25
  3
Facepattern
350
B7B21
  3
Flat
350
B7B13
  3
FlatWithEdges
350
B7B14
  3
Gouraud
350
B7B15
  3
GouraudWithEdges
350
B7B16
  3
Hidden
350
B7B19
  3
JitterOff
350
B7B23
  3
Linepattern
350
B7B20
  3
OverhangOff
350
B7B24
  3
Realistic
350
B7B1B
  3
Shaded
350
B7B2A
  3
Shaded with edges
350
B7B29
  3
Shades of Gray
350
B7B26
  3
Sketchy
350
B7B27
  3
Thicken
350
B7B1F
  3
Wireframe
350
B7B18
  3
X-Ray
350
B7B28
  0
XRECORD
  5
66482
102
{ACAD_REACTORS
330
C
102
}
330
C
100
AcDbXrecord
280
     1
 90
   990106
  3

 60
     0
 61
     0
 62
     4
 63
     4
 64
     1
 65
     0
 66
     0
 67
     3
 68
     1
 69
     0
 70
     0
 71
     0
 72
     0
 40
0.0
170
     2
  0
XRECORD
  5
B885E
102
{ACAD_REACTORS
330
C
102
}
330
C
100
AcDbXrecord
280
     1
 90
        1
330
B7B30
  0
DICTIONARY
  5
11AC
102
{ACAD_REACTORS
330
C
102
}
330
C
100
AcDbDictionary
281
     1
  3
CANNOSCALE
350
B7BE7
  3
CMLEADERSTYLE
350
B7B52
  3
CTABLESTYLE
350
B7B51
  3
CVIEWDETAILSTYLE
350
B884C
  3
CVIEWSECTIONSTYLE
350
B884D
  3
DGNFRAME
350
B8852
  3
DIMASSOC
350
11AD
  3
HIDETEXT
350
B8851
  3
INDEXCTL
350
A20AE
  3
LAYEREVAL
350
B884F
  3
LAYERNOTIFY
350
B8850
  3
LIGHTINGUNITS
350
B884E
  3
MSLTSCALE
350
B7B53
  3
SORTENTS
350
AD08
  3
XCLIPFRAME
350
B885C
  0
DICTIONARY
  5
B732F
102
{ACAD_REACTORS
330
C
102
}
330
C
100
AcDbDictionary
281
     1
  0
XRECORD
  5
B86D3
102
{ACAD_REACTORS
330
C
102
}
330
C
100
AcDbXrecord
280
     1
 40
0.5
  0
XRECORD
  5
B885F
102
{ACAD_REACTORS
330
C
102
}
330
C
100
AcDbXrecord
280
     1
  1
DWGPROPS COOKIE
  2

  3

  4

  6

  7

  8
NI0949
  9

300
=
301
=
302
=
303
=
304
=
305
=
306
=
307
=
308
=
309
=
 40
16.70600802083333
 41
2452479.723113426
 42
2458954.662106481
  1

 90
        0
  0
DICTIONARY
  5
B7B55
102
{ACAD_REACTORS
330
C
102
}
330
C
100
AcDbDictionary
281
     1
  0
DICTIONARY
  5
B7B56
102
{ACAD_REACTORS
330
C
102
}
330
C
100
AcDbDictionary
281
     1
  3
0
350
B7B57
  3
1
350
B7B6B
  3
2
350
B7B6C
  3
3
350
B7B6D
  3
4
350
B7BE5
  3
5
350
B7BE6
  3
6
350
B7BEB
  3
7
350
B7BEC
  3
8
350
B7BED
  3
9
350
B7C0D
  0
DICTIONARY
  5
B7D94
102
{ACAD_REACTORS
330
C
102
}
330
C
100
AcDbDictionary
281
     1
  3
BALLOONSETTINGS
350
B7D95
  3
BOMCHART
350
B7D9B
  3
HOLECALLOUTSETTINGS
350
B7D96
  3
HOLETABLE
350
B7D9A
  3
REVISIONTABLE
350
B7D99
  3
SFINSETTINGS
350
B7D97
  3
WELDSETTINGS
350
B7D98
  0
DICTIONARY
  5
1E615
102
{ACAD_REACTORS
330
1E591
102
}
330
1E591
100
AcDbDictionary
281
     1
  0
XRECORD
  5
A181F
102
{ACAD_REACTORS
330
A181E
102
}
330
A181E
100
AcDbXrecord
280
     1
290
     1
  0
XRECORD
  5
A1827
102
{ACAD_REACTORS
330
A1826
102
}
330
A1826
100
AcDbXrecord
280
     1
290
     1
  0
XRECORD
  5
A182D
102
{ACAD_REACTORS
330
A182C
102
}
330
A182C
100
AcDbXrecord
280
     1
290
     1
  0
XRECORD
  5
A182F
102
{ACAD_REACTORS
330
A182E
102
}
330
A182E
100
AcDbXrecord
280
     1
290
     1
  0
XRECORD
  5
A1831
102
{ACAD_REACTORS
330
A1830
102
}
330
A1830
100
AcDbXrecord
280
     1
290
     1
  0
XRECORD
  5
A183F
102
{ACAD_REACTORS
330
A183E
102
}
330
A183E
100
AcDbXrecord
280
     1
290
     1
  0
XRECORD
  5
A1865
102
{ACAD_REACTORS
330
A1864
102
}
330
A1864
100
AcDbXrecord
280
     1
290
     1
  0
SORTENTSTABLE
  5
9F678
102
{ACAD_REACTORS
330
9F677
102
}
330
9F677
100
AcDbSortentsTable
330
18
331
A3656
  5
A3674
331
A3672
  5
A367C
331
A3679
  5
A367F
331
A367B
  5
A367E
  0
XRECORD
  5
B88A0
102
{ACAD_REACTORS
330
B889F
102
}
330
B889F
100
AcDbXrecord
280
     1
102
SHADEPLOT
 70
     0
  0
XRECORD
  5
B88A1
102
{ACAD_REACTORS
330
B87C2
102
}
330
B87C2
100
AcDbXrecord
280
     1
102
SHADEPLOT
 70
     0
  0
XRECORD
  5
B87C3
102
{ACAD_REACTORS
330
B87C2
102
}
330
B87C2
100
AcDbXrecord
280
     1
 90
        1
340
8F56E
  0
XRECORD
  5
B8861
102
{ACAD_REACTORS
330
B8860
102
}
330
B8860
100
AcDbXrecord
280
     1
1004
1800000001000000000000C0000000000000000000000000
  0
ACDBDETAILVIEWSTYLE
  5
8F584
102
{ACAD_XDICTIONARY
360
B8866
102
}
102
{ACAD_REACTORS
330
8F583
102
}
330
8F583
100
AcDbModelDocViewStyle
 70
     0
  3
Imperial24
290
     0
100
AcDbDetailViewStyle
 70
     0
 71
     0
 90
        3
 71
     1
340
F
 40
0.24
340
0
 40
0.24
300

 40
0.36
280
     3
 71
     2
340
14
 90
       25
 71
     3
340
F
 40
0.24
 90
        1
 40
0.75
 90
        1
300
%<\AcVar ViewType \f "%tc1">% %<\AcVar ViewDetailId>%\PSCALE %<\AcVar ViewScale \f "%sn">%
 71
     4
340
14
 90
       25
340
14
 90
       25
280
     0
1001
ACAD
1000
AcRTDxfName
1000
ACDBDETAILVIEWSTYLE
1000
AcRTDxfName
1000
ACDBDETAILVIEWSTYLE
1000
AcRTDxfName
1000
ACDBDETAILVIEWSTYLE
1000
AcRTDxfName
1000
ACDBDETAILVIEWSTYLE
1000
AcRTDxfName
1000
ACDBDETAILVIEWSTYLE
1000
AcRTDxfName
1000
ACDBDETAILVIEWSTYLE
1000
AcRTDxfName
1000
ACDBDETAILVIEWSTYLE
1000
AcRTDxfName
1000
ACDBDETAILVIEWSTYLE
1000
AcRTDxfName
1000
ACDBDETAILVIEWSTYLE
1000
AcRTDxfName
1000
ACDBDETAILVIEWSTYLE
1000
AcRTDxfName
1000
ACDBDETAILVIEWSTYLE
  0
LAYOUT
  5
741
102
{ACAD_XDICTIONARY
360
B8862
102
}
102
{ACAD_REACTORS
330
73F
102
}
330
73F
100
AcDbPlotSettings
  1

  2
HP DesignJet 750C (D/A1) Color
  4
ANSI_A_(11.00_x_8.50_Inches)
  6

 40
6.349999999999999
 41
19.05
 42
6.349999999999999
 43
19.05
 44
279.4
 45
215.9
 46
0.0
 47
0.0
 48
0.0
 49
0.0
140
0.0
141
0.0
142
1.0
143
82.216631104208
 70
 11952
 72
     0
 73
     0
 74
     0
  7

 75
     0
147
0.0121629892464521
148
-139700.6087387166
149
108317.7934522977
100
AcDbLayout
  1
Model
 70
     1
 71
     0
 10
0.0
 20
0.0
 11
12.0
 21
9.0
 12
0.0
 22
0.0
 32
0.0
 14
5587.577496407537
 24
-4164.344645046051
 34
0.0
 15
6212.337687066398
 25
-3727.153244349214
 35
137.5
146
0.0
 13
0.0
 23
0.0
 33
0.0
 16
1.0
 26
0.0
 36
0.0
 17
0.0
 27
1.0
 37
0.0
 76
     0
330
18
331
B7316
  0
LAYOUT
  5
B87BD
102
{ACAD_XDICTIONARY
360
B889D
102
}
102
{ACAD_REACTORS
330
73F
102
}
330
73F
100
AcDbPlotSettings
  1

  2
none_device
  4
ANSI_A_(11.00_x_8.50_Inches)
  6

 40
6.349999999999999
 41
19.05
 42
6.349999999999999
 43
19.05
 44
279.4
 45
215.9
 46
0.0
 47
0.0
 48
0.0
 49
0.0
140
0.0
141
0.0
142
1.0
143
1.0
 70
   688
 72
     0
 73
     0
 74
     5
  7

 75
    16
147
1.0
148
0.0
149
0.0
100
AcDbLayout
  1
Sheet1
 70
     1
 71
     1
 10
0.0
 20
0.0
 11
0.0
 21
0.0
 12
0.0
 22
0.0
 32
0.0
 14
1.049999999999999
 24
0.6999999999999998
 34
0.0
 15
9.449999999999999
 25
6.3
 35
0.0
146
0.0
 13
0.0
 23
0.0
 33
0.0
 16
1.0
 26
0.0
 36
0.0
 17
0.0
 27
1.0
 37
0.0
 76
     0
330
B87BC
331
B87C0
  0
MATERIAL
  5
B87E9
102
{ACAD_XDICTIONARY
360
B87EA
102
}
102
{ACAD_REACTORS
330
B7B2B
102
}
330
B7B2B
100
AcDbMaterial
  1
ByBlock
 72
     0
 43
0.0208333333333333
 43
0.0
 43
0.0
 43
0.0
 43
0.0
 43
0.0208333333333333
 43
0.0
 43
0.0
 43
0.0
 43
0.0
 43
1.0
 43
0.0
 43
0.0
 43
0.0
 43
0.0
 43
1.0
 77
     0
 47
0.0208333333333333
 47
0.0
 47
0.0
 47
0.0
 47
0.0
 47
0.0208333333333333
 47
0.0
 47
0.0
 47
0.0
 47
0.0
 47
1.0
 47
0.0
 47
0.0
 47
0.0
 47
0.0
 47
1.0
171
     0
 49
0.0208333333333333
 49
0.0
 49
0.0
 49
0.0
 49
0.0
 49
0.0208333333333333
 49
0.0
 49
0.0
 49
0.0
 49
0.0
 49
1.0
 49
0.0
 49
0.0
 49
0.0
 49
0.0
 49
1.0
175
     0
142
0.0208333333333333
142
0.0
142
0.0
142
0.0
142
0.0
142
0.0208333333333333
142
0.0
142
0.0
142
0.0
142
0.0
142
1.0
142
0.0
142
0.0
142
0.0
142
0.0
142
1.0
179
     0
144
0.0208333333333333
144
0.0
144
0.0
144
0.0
144
0.0
144
0.0208333333333333
144
0.0
144
0.0
144
0.0
144
0.0
144
1.0
144
0.0
144
0.0
144
0.0
144
0.0
144
1.0
147
0.0208333333333333
147
0.0
147
0.0
147
0.0
147
0.0
147
0.0208333333333333
147
0.0
147
0.0
147
0.0
147
0.0
147
1.0
147
0.0
147
0.0
147
0.0
147
0.0
147
1.0
  0
MATERIAL
  5
B7B2C
102
{ACAD_XDICTIONARY
360
B8898
102
}
102
{ACAD_REACTORS
330
B7B2B
102
}
330
B7B2B
100
AcDbMaterial
  1
ByLayer
 73
     1
 78
     1
172
     1
176
     1
270
     1
274
     1
  0
MATERIAL
  5
B7B2E
102
{ACAD_XDICTIONARY
360
B889A
102
}
102
{ACAD_REACTORS
330
B7B2B
102
}
330
B7B2B
100
AcDbMaterial
  1
Global
 73
     1
 78
     1
172
     1
176
     1
270
     1
274
     1
  0
MLEADERSTYLE
  5
B7B32
102
{ACAD_REACTORS
330
B7B31
102
}
330
B7B31
100
AcDbMLeaderStyle
170
     2
171
     1
172
     0
 90
        2
 40
0.0
 41
0.0
173
     1
 91
-1056964608
340
12
 92
       -2
290
     1
 42
0.09
291
     1
 43
0.36
  3
Standard
 44
0.18
300

342
F
174
     1
178
     6
175
     1
176
     0
 93
-1056964608
 45
0.18
292
     0
297
     0
 46
0.18
 94
-1056964608
 47
1.0
 49
1.0
140
1.0
293
     1
141
0.0
294
     1
177
     0
142
1.0
295
     0
296
     0
143
0.125
1001
ACAD_MLEADERVER
1070
     2
  0
MLINESTYLE
  5
1C
102
{ACAD_REACTORS
330
1B
102
}
330
1B
100
AcDbMlineStyle
  2
STANDARD
 70
     0
  3

 62
   256
 51
90.0
 52
90.0
 71
     2
 49
0.5
 62
   256
  6
BYLAYER
 49
-0.5
 62
   256
  6
BYLAYER
  0
ACDBPLACEHOLDER
  5
73E
102
{ACAD_REACTORS
330
73D
102
}
330
73D
  0
SCALE
  5
8F56E
102
{ACAD_REACTORS
330
8F56D
102
}
330
8F56D
100
AcDbScale
 70
     0
300
1:1
140
1.0
141
1.0
290
     1
  0
SCALE
  5
8F56F
102
{ACAD_REACTORS
330
8F56D
102
}
330
8F56D
100
AcDbScale
 70
     0
300
1/128" = 1'-0"
140
0.0078125
141
12.0
290
     0
  0
SCALE
  5
8F570
102
{ACAD_REACTORS
330
8F56D
102
}
330
8F56D
100
AcDbScale
 70
     0
300
1/64" = 1'-0"
140
0.015625
141
12.0
290
     0
  0
SCALE
  5
8F571
102
{ACAD_REACTORS
330
8F56D
102
}
330
8F56D
100
AcDbScale
 70
     0
300
1/32" = 1'-0"
140
0.03125
141
12.0
290
     0
  0
SCALE
  5
8F572
102
{ACAD_REACTORS
330
8F56D
102
}
330
8F56D
100
AcDbScale
 70
     0
300
1/16" = 1'-0"
140
0.0625
141
12.0
290
     0
  0
SCALE
  5
8F573
102
{ACAD_REACTORS
330
8F56D
102
}
330
8F56D
100
AcDbScale
 70
     0
300
3/32" = 1'-0"
140
0.09375
141
12.0
290
     0
  0
SCALE
  5
8F574
102
{ACAD_REACTORS
330
8F56D
102
}
330
8F56D
100
AcDbScale
 70
     0
300
1/8" = 1'-0"
140
0.125
141
12.0
290
     0
  0
SCALE
  5
8F575
102
{ACAD_REACTORS
330
8F56D
102
}
330
8F56D
100
AcDbScale
 70
     0
300
3/16" = 1'-0"
140
0.1875
141
12.0
290
     0
  0
SCALE
  5
8F576
102
{ACAD_REACTORS
330
8F56D
102
}
330
8F56D
100
AcDbScale
 70
     0
300
1/4" = 1'-0"
140
0.25
141
12.0
290
     0
  0
SCALE
  5
8F577
102
{ACAD_REACTORS
330
8F56D
102
}
330
8F56D
100
AcDbScale
 70
     0
300
3/8" = 1'-0"
140
0.375
141
12.0
290
     0
  0
SCALE
  5
8F578
102
{ACAD_REACTORS
330
8F56D
102
}
330
8F56D
100
AcDbScale
 70
     0
300
1/2" = 1'-0"
140
0.5
141
12.0
290
     0
  0
SCALE
  5
8F579
102
{ACAD_REACTORS
330
8F56D
102
}
330
8F56D
100
AcDbScale
 70
     0
300
3/4" = 1'-0"
140
0.75
141
12.0
290
     0
  0
SCALE
  5
8F57A
102
{ACAD_REACTORS
330
8F56D
102
}
330
8F56D
100
AcDbScale
 70
     0
300
1" = 1'-0"
140
1.0
141
12.0
290
     0
  0
SCALE
  5
8F57B
102
{ACAD_REACTORS
330
8F56D
102
}
330
8F56D
100
AcDbScale
 70
     0
300
1-1/2" = 1'-0"
140
1.5
141
12.0
290
     0
  0
SCALE
  5
8F57C
102
{ACAD_REACTORS
330
8F56D
102
}
330
8F56D
100
AcDbScale
 70
     0
300
3" = 1'-0"
140
3.0
141
12.0
290
     0
  0
SCALE
  5
8F57D
102
{ACAD_REACTORS
330
8F56D
102
}
330
8F56D
100
AcDbScale
 70
     0
300
6" = 1'-0"
140
6.0
141
12.0
290
     0
  0
SCALE
  5
8F57E
102
{ACAD_REACTORS
330
8F56D
102
}
330
8F56D
100
AcDbScale
 70
     0
300
1'-0" = 1'-0"
140
12.0
141
12.0
290
     0
  0
ACDBSECTIONVIEWSTYLE
  5
8F582
102
{ACAD_XDICTIONARY
360
B8864
102
}
102
{ACAD_REACTORS
330
8F581
102
}
330
8F581
100
AcDbModelDocViewStyle
 70
     0
  3
Imperial24
290
     0
100
AcDbSectionViewStyle
 70
     0
 71
     0
 90
       78
 71
     1
340
F
 40
0.24
340
0
340
0
 40
0.24
300
I, O, Q, S, X, Z
 40
0.48
 90
        3
 40
0.18
 90
        1
 71
     2
340
808B3
 90
       25
340
14
 90
       50
 40
0.24
 40
0.0
 40
0.24
 71
     3
340
F
 40
0.24
 90
        1
 40
0.75
 90
        1
300
%<\AcVar ViewType \f "%tc1">% %<\AcVar ViewSectionStartId>%-%<\AcVar ViewSectionEndId>%\PSCALE %<\AcVar ViewScale \f "%sn">%
 71
     4
300
ANSI31
 40
1.0
 90
        0
290
     0
290
     0
 90
        6
 40
0.0
 40
1.570796326794896
 40
0.2617993877991494
 40
1.308996938995747
 40
-0.2617993877991494
 40
1.832595714594046
1001
ACAD
1000
AcRTDxfName
1000
ACDBSECTIONVIEWSTYLE
1000
AcRTDxfName
1000
ACDBSECTIONVIEWSTYLE
1000
AcRTDxfName
1000
ACDBSECTIONVIEWSTYLE
1000
AcRTDxfName
1000
ACDBSECTIONVIEWSTYLE
1000
AcRTDxfName
1000
ACDBSECTIONVIEWSTYLE
1000
AcRTDxfName
1000
ACDBSECTIONVIEWSTYLE
1000
AcRTDxfName
1000
ACDBSECTIONVIEWSTYLE
1000
AcRTDxfName
1000
ACDBSECTIONVIEWSTYLE
1000
AcRTDxfName
1000
ACDBSECTIONVIEWSTYLE
1000
AcRTDxfName
1000
ACDBSECTIONVIEWSTYLE
1000
AcRTDxfName
1000
ACDBSECTIONVIEWSTYLE
  0
TABLESTYLE
  5
B7B30
102
{ACAD_XDICTIONARY
360
B87FA
102
}
102
{ACAD_REACTORS
330
B7B2F
102
}
330
B7B2F
100
AcDbTableStyle
  3
Standard
 70
     0
 71
     0
 40
0.06
 41
0.06
280
     0
281
     0
  7
STANDARD
140
0.18
170
     2
 62
     0
 63
     7
283
     0
274
    -2
284
     1
 64
     0
275
    -2
285
     1
 65
     0
276
    -2
286
     1
 66
     0
277
    -2
287
     1
 67
     0
278
    -2
288
     1
 68
     0
279
    -2
289
     1
 69
     0
  7
STANDARD
140
0.25
170
     5
 62
     0
 63
     7
283
     0
274
    -2
284
     1
 64
     0
275
    -2
285
     1
 65
     0
276
    -2
286
     1
 66
     0
277
    -2
287
     1
 67
     0
278
    -2
288
     1
 68
     0
279
    -2
289
     1
 69
     0
  7
STANDARD
140
0.18
170
     5
 62
     0
 63
     7
283
     0
274
    -2
284
     1
 64
     0
275
    -2
285
     1
 65
     0
276
    -2
286
     1
 66
     0
277
    -2
287
     1
 67
     0
278
    -2
288
     1
 68
     0
279
    -2
289
     1
 69
     0
  0
VISUALSTYLE
  5
B7B17
102
{ACAD_XDICTIONARY
360
B8870
102
}
102
{ACAD_REACTORS
330
B7B12
102
}
330
B7B12
100
AcDbVisualStyle
  2
2dWireframe
 70
     4
 71
     0
 72
     2
 73
     0
 90
        0
 40
-0.6
 41
-30.0
 62
     5
 63
     7
 74
     1
 91
        4
 64
     7
 65
   257
 75
     1
175
     1
 42
1.0
 92
        0
 66
   257
 43
1.0
 76
     1
 77
     6
 78
     2
 67
     7
 79
     5
170
     0
171
     0
290
     0
174
     0
 93
        1
 44
0.0
173
     0
291
     0
 45
0.0
1001
ACAD
1000
AcDbSavedByObjectVersion
1070
     0
  0
VISUALSTYLE
  5
B7B1A
102
{ACAD_XDICTIONARY
360
B8876
102
}
102
{ACAD_REACTORS
330
B7B12
102
}
330
B7B12
100
AcDbVisualStyle
  2
Basic
 70
     7
 71
     1
 72
     0
 73
     1
 90
        0
 40
-0.6
 41
-30.0
 62
     5
 63
     7
 74
     0
 91
        4
 64
     7
 65
   257
 75
     1
175
     1
 42
1.0
 92
        8
 66
     7
 43
1.0
 76
     1
 77
     6
 78
     2
 67
     7
 79
     5
170
     0
171
     0
290
     0
174
     0
 93
        1
 44
0.0
173
     0
291
     1
 45
0.0
1001
ACAD
1000
AcDbSavedByObjectVersion
1070
     0
  0
VISUALSTYLE
  5
B7B1E
102
{ACAD_XDICTIONARY
360
B887E
102
}
102
{ACAD_REACTORS
330
B7B12
102
}
330
B7B12
100
AcDbVisualStyle
  2
Brighten
 70
    12
 71
     2
 72
     2
 73
     0
 90
        0
 40
-0.6
 41
-30.0
 62
     5
 63
     7
 74
     1
 91
        4
 64
     7
 65
   257
 75
     1
175
     1
 42
1.0
 92
        8
 66
     7
 43
1.0
 76
     1
 77
     6
 78
     2
 67
     7
 79
     5
170
     0
171
     0
290
     0
174
     0
 93
        1
 44
50.0
173
     0
291
     1
 45
0.0
1001
ACAD
1000
AcDbSavedByObjectVersion
1070
     0
  0
VISUALSTYLE
  5
B7B22
102
{ACAD_XDICTIONARY
360
B8886
102
}
102
{ACAD_REACTORS
330
B7B12
102
}
330
B7B12
100
AcDbVisualStyle
  2
ColorChange
 70
    16
 71
     2
 72
     2
 73
     3
 90
        0
 40
-0.6
 41
-30.0
 62
     5
 63
     8
 74
     1
 91
        4
 64
     7
 65
   257
 75
     1
175
     1
 42
1.0
 92
        8
 66
     8
 43
1.0
 76
     1
 77
     6
 78
     2
 67
     7
 79
     5
170
     0
171
     0
290
     0
174
     0
 93
        1
 44
0.0
173
     0
291
     1
 45
0.0
1001
ACAD
1000
AcDbSavedByObjectVersion
1070
     0
  0
VISUALSTYLE
  5
B7B1C
102
{ACAD_XDICTIONARY
360
B887A
102
}
102
{ACAD_REACTORS
330
B7B12
102
}
330
B7B12
100
AcDbVisualStyle
  2
Conceptual
 70
     9
 71
     3
 72
     2
 73
     0
 90
        0
 40
-0.6
 41
-30.0
 62
     5
 63
     7
 74
     2
 91
        2
 64
     7
 65
   257
 75
     1
175
     1
 42
179.0
 92
        8
 66
     7
 43
1.0
 76
     1
 77
     6
 78
     2
 67
     7
 79
     3
170
     0
171
     0
290
     0
174
     0
 93
        1
 44
0.0
173
     0
291
     0
 45
0.0
1001
ACAD
1000
AcDbSavedByObjectVersion
1070
     0
  0
VISUALSTYLE
  5
B7B1D
102
{ACAD_XDICTIONARY
360
B887C
102
}
102
{ACAD_REACTORS
330
B7B12
102
}
330
B7B12
100
AcDbVisualStyle
  2
Dim
 70
    11
 71
     2
 72
     2
 73
     0
 90
        0
 40
-0.6
 41
-30.0
 62
     5
 63
     7
 74
     1
 91
        4
 64
     7
 65
   257
 75
     1
175
     1
 42
1.0
 92
        8
 66
     7
 43
1.0
 76
     1
 77
     6
 78
     2
 67
     7
 79
     5
170
     0
171
     0
290
     0
174
     0
 93
        1
 44
-50.0
173
     0
291
     1
 45
0.0
1001
ACAD
1000
AcDbSavedByObjectVersion
1070
     0
  0
VISUALSTYLE
  5
B7B25
102
{ACAD_XDICTIONARY
360
B888C
102
}
102
{ACAD_REACTORS
330
B7B12
102
}
330
B7B12
100
AcDbVisualStyle
  2
EdgeColorOff
 70
    22
 71
     2
 72
     2
 73
     0
 90
        0
 40
-0.6
 41
-30.0
 62
     5
 63
     7
 74
     1
 91
        4
 64
     7
 65
   257
 75
     1
175
     1
 42
1.0
 92
        8
 66
     7
 43
1.0
 76
     1
 77
     6
 78
     2
 67
     7
 79
     5
170
     0
171
     0
290
     0
174
     0
 93
        1
 44
0.0
173
     0
291
     1
 45
0.0
1001
ACAD
1000
AcDbSavedByObjectVersion
1070
     0
  0
VISUALSTYLE
  5
B7B21
102
{ACAD_XDICTIONARY
360
B8884
102
}
102
{ACAD_REACTORS
330
B7B12
102
}
330
B7B12
100
AcDbVisualStyle
  2
Facepattern
 70
    15
 71
     2
 72
     2
 73
     0
 90
        0
 40
-0.6
 41
-30.0
 62
     5
 63
     7
 74
     1
 91
        4
 64
     7
 65
   257
 75
     1
175
     1
 42
1.0
 92
        8
 66
     7
 43
1.0
 76
     1
 77
     6
 78
     2
 67
     7
 79
     5
170
     0
171
     0
290
     0
174
     0
 93
        1
 44
0.0
173
     0
291
     1
 45
0.0
1001
ACAD
1000
AcDbSavedByObjectVersion
1070
     0
  0
VISUALSTYLE
  5
B7B13
102
{ACAD_XDICTIONARY
360
B8868
102
}
102
{ACAD_REACTORS
330
B7B12
102
}
330
B7B12
100
AcDbVisualStyle
  2
Flat
 70
     0
 71
     2
 72
     1
 73
     1
 90
        2
 40
-0.6
 41
30.0
 62
     5
 63
     7
 74
     0
 91
        0
 64
     7
 65
   257
 75
     1
175
     1
 42
1.0
 92
        8
 66
     7
 43
1.0
 76
     1
 77
     6
 78
     2
 67
     7
 79
     5
170
     0
171
     0
290
     0
174
     0
 93
       13
 44
0.0
173
     0
291
     1
 45
0.0
1001
ACAD
1000
AcDbSavedByObjectVersion
1070
     0
  0
VISUALSTYLE
  5
B7B14
102
{ACAD_XDICTIONARY
360
B886A
102
}
102
{ACAD_REACTORS
330
B7B12
102
}
330
B7B12
100
AcDbVisualStyle
  2
FlatWithEdges
 70
     1
 71
     2
 72
     1
 73
     1
 90
        2
 40
-0.6
 41
30.0
 62
     5
 63
     7
 74
     1
 91
        0
 64
     7
 65
   257
 75
     1
175
     1
 42
1.0
 92
        0
 66
   257
 43
1.0
 76
     1
 77
     6
 78
     2
 67
     7
 79
     5
170
     0
171
     0
290
     0
174
     0
 93
       13
 44
0.0
173
     0
291
     1
 45
0.0
1001
ACAD
1000
AcDbSavedByObjectVersion
1070
     0
  0
VISUALSTYLE
  5
B7B15
102
{ACAD_XDICTIONARY
360
B886C
102
}
102
{ACAD_REACTORS
330
B7B12
102
}
330
B7B12
100
AcDbVisualStyle
  2
Gouraud
 70
     2
 71
     2
 72
     2
 73
     1
 90
        2
 40
-0.6
 41
30.0
 62
     5
 63
     7
 74
     0
 91
        0
 64
     7
 65
   257
 75
     1
175
     1
 42
1.0
 92
        0
 66
     7
 43
1.0
 76
     1
 77
     6
 78
     2
 67
     7
 79
     5
170
     0
171
     0
290
     0
174
     0
 93
       13
 44
0.0
173
     0
291
     1
 45
0.0
1001
ACAD
1000
AcDbSavedByObjectVersion
1070
     0
  0
VISUALSTYLE
  5
B7B16
102
{ACAD_XDICTIONARY
360
B886E
102
}
102
{ACAD_REACTORS
330
B7B12
102
}
330
B7B12
100
AcDbVisualStyle
  2
GouraudWithEdges
 70
     3
 71
     2
 72
     2
 73
     1
 90
        2
 40
-0.6
 41
30.0
 62
     5
 63
     7
 74
     1
 91
        0
 64
     7
 65
   257
 75
     1
175
     1
 42
1.0
 92
        0
 66
   257
 43
1.0
 76
     1
 77
     6
 78
     2
 67
     7
 79
     5
170
     0
171
     0
290
     0
174
     0
 93
       13
 44
0.0
173
     0
291
     1
 45
0.0
1001
ACAD
1000
AcDbSavedByObjectVersion
1070
     0
  0
VISUALSTYLE
  5
B7B19
102
{ACAD_XDICTIONARY
360
B8874
102
}
102
{ACAD_REACTORS
330
B7B12
102
}
330
B7B12
100
AcDbVisualStyle
  2
Hidden
 70
     6
 71
     1
 72
     2
 73
     2
 90
        0
 40
-0.6
 41
-30.0
 62
     5
 63
     7
 74
     2
 91
        2
 64
     7
 65
   257
 75
     2
175
     1
 42
40.0
 92
        0
 66
   257
 43
1.0
 76
     1
 77
     6
 78
     2
 67
     7
 79
     3
170
     0
171
     0
290
     0
174
     0
 93
        1
 44
0.0
173
     0
291
     0
 45
0.0
1001
ACAD
1000
AcDbSavedByObjectVersion
1070
     0
  0
VISUALSTYLE
  5
B7B23
102
{ACAD_XDICTIONARY
360
B8888
102
}
102
{ACAD_REACTORS
330
B7B12
102
}
330
B7B12
100
AcDbVisualStyle
  2
JitterOff
 70
    20
 71
     2
 72
     2
 73
     0
 90
        0
 40
-0.6
 41
-30.0
 62
     5
 63
     7
 74
     1
 91
        4
 64
     7
 65
   257
 75
     1
175
     1
 42
1.0
 92
       10
 66
     7
 43
1.0
 76
     1
 77
     6
 78
     2
 67
     7
 79
     5
170
     0
171
     0
290
     0
174
     0
 93
        1
 44
0.0
173
     0
291
     1
 45
0.0
1001
ACAD
1000
AcDbSavedByObjectVersion
1070
     0
  0
VISUALSTYLE
  5
B7B20
102
{ACAD_XDICTIONARY
360
B8882
102
}
102
{ACAD_REACTORS
330
B7B12
102
}
330
B7B12
100
AcDbVisualStyle
  2
Linepattern
 70
    14
 71
     2
 72
     2
 73
     0
 90
        0
 40
-0.6
 41
-30.0
 62
     5
 63
     7
 74
     1
 91
        4
 64
     7
 65
   257
 75
     7
175
     7
 42
1.0
 92
        8
 66
     7
 43
1.0
 76
     1
 77
     6
 78
     2
 67
     7
 79
     5
170
     0
171
     0
290
     0
174
     0
 93
        1
 44
0.0
173
     0
291
     1
 45
0.0
1001
ACAD
1000
AcDbSavedByObjectVersion
1070
     0
  0
VISUALSTYLE
  5
B7B24
102
{ACAD_XDICTIONARY
360
B888A
102
}
102
{ACAD_REACTORS
330
B7B12
102
}
330
B7B12
100
AcDbVisualStyle
  2
OverhangOff
 70
    21
 71
     2
 72
     2
 73
     0
 90
        0
 40
-0.6
 41
-30.0
 62
     5
 63
     7
 74
     1
 91
        4
 64
     7
 65
   257
 75
     1
175
     1
 42
1.0
 92
        9
 66
     7
 43
1.0
 76
     1
 77
     6
 78
     2
 67
     7
 79
     5
170
     0
171
     0
290
     0
174
     0
 93
        1
 44
0.0
173
     0
291
     1
 45
0.0
1001
ACAD
1000
AcDbSavedByObjectVersion
1070
     0
  0
VISUALSTYLE
  5
B7B1B
102
{ACAD_XDICTIONARY
360
B8878
102
}
102
{ACAD_REACTORS
330
B7B12
102
}
330
B7B12
100
AcDbVisualStyle
  2
Realistic
 70
     8
 71
     2
 72
     2
 73
     0
 90
        2
 40
-0.6
 41
30.0
 62
     5
 63
     7
 74
     0
 91
        0
 64
     7
 65
   257
 75
     1
175
     1
 42
1.0
 92
        8
 66
   257
 43
1.0
 76
     1
 77
     6
 78
     2
 67
     7
 79
     3
170
     0
171
     0
290
     0
174
     0
 93
       13
 44
0.0
173
     0
291
     0
 45
0.0
1001
ACAD
1000
AcDbSavedByObjectVersion
1070
     0
  0
VISUALSTYLE
  5
B7B2A
102
{ACAD_XDICTIONARY
360
B8896
102
}
102
{ACAD_REACTORS
330
B7B12
102
}
330
B7B12
100
AcDbVisualStyle
  2
Shaded
 70
    27
 71
     2
 72
     2
 73
     1
 90
        2
 40
-0.6
 41
30.0
 62
     5
 63
     7
 74
     0
 91
        4
 64
     7
 65
   257
 75
     1
175
     1
 42
1.0
 92
        8
 66
   257
 43
1.0
 76
     1
 77
     6
 78
     2
 67
     8
 79
     3
170
     0
171
     0
290
     0
174
     0
 93
        5
 44
0.0
173
     0
291
     0
 45
0.0
1001
ACAD
1000
AcDbSavedByObjectVersion
1070
     0
  0
VISUALSTYLE
  5
B7B29
102
{ACAD_XDICTIONARY
360
B8894
102
}
102
{ACAD_REACTORS
330
B7B12
102
}
330
B7B12
100
AcDbVisualStyle
  2
Shaded with edges
 70
    26
 71
     2
 72
     2
 73
     1
 90
        2
 40
-0.6
 41
30.0
 62
     5
 63
     7
 74
     1
 91
        2
 64
     7
 65
   257
 75
     2
175
     1
 42
1.0
 92
        8
 66
   257
 43
1.0
 76
     1
 77
     6
 78
     2
 67
     7
 79
     3
170
     0
171
     0
290
     0
174
     0
 93
        5
 44
0.0
173
     0
291
     0
 45
0.0
1001
ACAD
1000
AcDbSavedByObjectVersion
1070
     0
  0
VISUALSTYLE
  5
B7B26
102
{ACAD_XDICTIONARY
360
B888E
102
}
102
{ACAD_REACTORS
330
B7B12
102
}
330
B7B12
100
AcDbVisualStyle
  2
Shades of Gray
 70
    23
 71
     2
 72
     2
 73
     3
 90
        0
 40
-0.6
 41
-30.0
 62
     5
 63
     7
 74
     2
 91
        2
 64
     7
 65
     7
 75
     1
175
     1
 42
40.0
 92
        8
 66
     7
 43
1.0
 76
     1
 77
     6
 78
     2
 67
     7
 79
     3
170
     0
171
     0
290
     0
174
     0
 93
        1
 44
0.0
173
     0
291
     0
 45
0.0
1001
ACAD
1000
AcDbSavedByObjectVersion
1070
     0
  0
VISUALSTYLE
  5
B7B27
102
{ACAD_XDICTIONARY
360
B8890
102
}
102
{ACAD_REACTORS
330
B7B12
102
}
330
B7B12
100
AcDbVisualStyle
  2
Sketchy
 70
    24
 71
     1
 72
     2
 73
     2
 90
        0
 40
-0.6
 41
-30.0
 62
     5
 63
     7
 74
     2
 91
        2
 64
     7
 65
     7
 75
     1
175
     1
 42
40.0
 92
       11
 66
     7
 43
1.0
 76
     1
 77
     6
 78
     2
 67
     7
 79
     6
170
     0
171
     0
290
     0
174
     0
 93
        1
 44
0.0
173
     0
291
     0
 45
0.0
1001
ACAD
1000
AcDbSavedByObjectVersion
1070
     0
  0
VISUALSTYLE
  5
B7B1F
102
{ACAD_XDICTIONARY
360
B8880
102
}
102
{ACAD_REACTORS
330
B7B12
102
}
330
B7B12
100
AcDbVisualStyle
  2
Thicken
 70
    13
 71
     2
 72
     2
 73
     0
 90
        0
 40
-0.6
 41
-30.0
 62
     5
 63
     7
 74
     1
 91
        4
 64
     7
 65
   257
 75
     1
175
     1
 42
1.0
 92
       12
 66
     7
 43
1.0
 76
     1
 77
     6
 78
     2
 67
     7
 79
     5
170
     0
171
     0
290
     0
174
     0
 93
        1
 44
0.0
173
     0
291
     1
 45
0.0
1001
ACAD
1000
AcDbSavedByObjectVersion
1070
     0
  0
VISUALSTYLE
  5
B7B18
102
{ACAD_XDICTIONARY
360
B8872
102
}
102
{ACAD_REACTORS
330
B7B12
102
}
330
B7B12
100
AcDbVisualStyle
  2
Wireframe
 70
     5
 71
     0
 72
     2
 73
     0
 90
        0
 40
-0.6
 41
-30.0
 62
     5
 63
     7
 74
     1
 91
        4
 64
     7
 65
   257
 75
     1
175
     1
 42
1.0
 92
        0
 66
   257
 43
1.0
 76
     1
 77
     6
 78
     2
 67
     7
 79
     3
170
     0
171
     0
290
     0
174
     0
 93
        1
 44
0.0
173
     0
291
     0
 45
0.0
1001
ACAD
1000
AcDbSavedByObjectVersion
1070
     0
  0
VISUALSTYLE
  5
B7B28
102
{ACAD_XDICTIONARY
360
B8892
102
}
102
{ACAD_REACTORS
330
B7B12
102
}
330
B7B12
100
AcDbVisualStyle
  2
X-Ray
 70
    25
 71
     2
 72
     2
 73
     1
 90
        1
 40
0.5
 41
-30.0
 62
     5
 63
     7
 74
     1
 91
        0
 64
     7
 65
   257
 75
     1
175
     1
 42
1.0
 92
        8
 66
     7
 43
1.0
 76
     1
 77
     6
 78
     2
 67
     7
 79
     3
170
     0
171
     0
290
     0
174
     0
 93
       13
 44
0.0
173
     0
291
     0
 45
0.0
1001
ACAD
1000
AcDbSavedByObjectVersion
1070
     0
  0
DICTIONARYVAR
  5
B7BE7
102
{ACAD_REACTORS
330
11AC
102
}
330
11AC
100
DictionaryVariables
280
     0
  1
1:1
  0
DICTIONARYVAR
  5
B7B52
102
{ACAD_REACTORS
330
11AC
102
}
330
11AC
100
DictionaryVariables
280
     0
  1
STANDARD
  0
DICTIONARYVAR
  5
B7B51
102
{ACAD_REACTORS
330
11AC
102
}
330
11AC
100
DictionaryVariables
280
     0
  1
STANDARD
  0
DICTIONARYVAR
  5
B884C
102
{ACAD_REACTORS
330
11AC
102
}
330
11AC
100
DictionaryVariables
280
     0
  1
Imperial24
  0
DICTIONARYVAR
  5
B884D
102
{ACAD_REACTORS
330
11AC
102
}
330
11AC
100
DictionaryVariables
280
     0
  1
Imperial24
  0
DICTIONARYVAR
  5
B8852
102
{ACAD_REACTORS
330
11AC
102
}
330
11AC
100
DictionaryVariables
280
     0
  1
2
  0
DICTIONARYVAR
  5
11AD
102
{ACAD_REACTORS
330
11AC
102
}
330
11AC
100
DictionaryVariables
280
     0
  1
1
  0
DICTIONARYVAR
  5
B8851
102
{ACAD_REACTORS
330
11AC
102
}
330
11AC
100
DictionaryVariables
280
     0
  1
1
  0
DICTIONARYVAR
  5
A20AE
102
{ACAD_REACTORS
330
11AC
102
}
330
11AC
100
DictionaryVariables
280
     0
  1
0
  0
DICTIONARYVAR
  5
B884F
102
{ACAD_REACTORS
330
11AC
102
}
330
11AC
100
DictionaryVariables
280
     0
  1
0
  0
DICTIONARYVAR
  5
B8850
102
{ACAD_REACTORS
330
11AC
102
}
330
11AC
100
DictionaryVariables
280
     0
  1
0
  0
DICTIONARYVAR
  5
B884E
102
{ACAD_REACTORS
330
11AC
102
}
330
11AC
100
DictionaryVariables
280
     0
  1
2
  0
DICTIONARYVAR
  5
B7B53
102
{ACAD_REACTORS
330
11AC
102
}
330
11AC
100
DictionaryVariables
280
     0
  1
0
  0
DICTIONARYVAR
  5
AD08
102
{ACAD_REACTORS
330
11AC
102
}
330
11AC
100
DictionaryVariables
280
     0
  1
96
  0
DICTIONARYVAR
  5
B885C
102
{ACAD_REACTORS
330
11AC
102
}
330
11AC
100
DictionaryVariables
280
     0
  1
2
  0
XRECORD
  5
B7B57
102
{ACAD_REACTORS
330
B7B56
102
}
330
B7B56
100
AcDbXrecord
280
     1
290
     1
290
     0
  0
XRECORD
  5
B7B6B
102
{ACAD_REACTORS
330
B7B56
102
}
330
B7B56
100
AcDbXrecord
280
     1
290
     0
290
     0
  0
XRECORD
  5
B7B6C
102
{ACAD_REACTORS
330
B7B56
102
}
330
B7B56
100
AcDbXrecord
280
     1
290
     0
290
     0
  0
XRECORD
  5
B7B6D
102
{ACAD_REACTORS
330
B7B56
102
}
330
B7B56
100
AcDbXrecord
280
     1
290
     1
290
     0
  0
XRECORD
  5
B7BE5
102
{ACAD_REACTORS
330
B7B56
102
}
330
B7B56
100
AcDbXrecord
280
     1
290
     1
290
     0
  0
XRECORD
  5
B7BE6
102
{ACAD_REACTORS
330
B7B56
102
}
330
B7B56
100
AcDbXrecord
280
     1
290
     0
290
     0
  0
XRECORD
  5
B7BEB
102
{ACAD_REACTORS
330
B7B56
102
}
330
B7B56
100
AcDbXrecord
280
     1
290
     0
290
     0
  0
XRECORD
  5
B7BEC
102
{ACAD_REACTORS
330
B7B56
102
}
330
B7B56
100
AcDbXrecord
280
     1
290
     0
290
     0
  0
XRECORD
  5
B7BED
102
{ACAD_REACTORS
330
B7B56
102
}
330
B7B56
100
AcDbXrecord
280
     1
290
     1
290
     0
  0
XRECORD
  5
B7C0D
102
{ACAD_REACTORS
330
B7B56
102
}
330
B7B56
100
AcDbXrecord
280
     1
290
     0
290
     0
  0
DICTIONARY
  5
B7D95
102
{ACAD_REACTORS
330
B7D94
102
}
330
B7D94
100
AcDbDictionary
281
     1
1001
TB_S_MPD
1070
   301
1040
2.5
1070
   302
1040
2.5
1070
   201
1070
    16
1070
   101
1000
MS\U+FF7A\U+FF9E\U+FF7C\U+FF6F\U+FF78-0
  0
DICTIONARY
  5
B7D9B
102
{ACAD_REACTORS
330
B7D94
102
}
330
B7D94
100
AcDbDictionary
281
     1
1001
TB_S_MPD
1070
   101
1000
MS\U+FF7A\U+FF9E\U+FF7C\U+FF6F\U+FF78-0
1070
   301
1040
2.5
1070
   201
1070
     0
1070
   202
1070
     1
1070
   203
1070
     0
1070
   204
1070
     0
  0
DICTIONARY
  5
B7D96
102
{ACAD_REACTORS
330
B7D94
102
}
330
B7D94
100
AcDbDictionary
281
     1
1001
TB_S_MPD
1070
   101
1000
MS\U+FF7A\U+FF9E\U+FF7C\U+FF6F\U+FF78-0
1070
   302
1040
2.5
  0
DICTIONARY
  5
B7D9A
102
{ACAD_REACTORS
330
B7D94
102
}
330
B7D94
100
AcDbDictionary
281
     1
1001
TB_S_MPD
1070
   101
1000
MS\U+FF7A\U+FF9E\U+FF7C\U+FF6F\U+FF78-0
1070
   301
1040
2.5
1070
   201
1070
     0
1070
   202
1070
     1
1070
   203
1070
     0
1070
   204
1070
     0
1070
   205
1070
     2
1070
   206
1070
     0
1070
   207
1070
     0
  0
DICTIONARY
  5
B7D99
102
{ACAD_REACTORS
330
B7D94
102
}
330
B7D94
100
AcDbDictionary
281
     1
1001
TB_S_MPD
1070
   101
1000
MS\U+FF7A\U+FF9E\U+FF7C\U+FF6F\U+FF78-0
1070
   301
1040
2.5
1070
   201
1070
     0
1070
   202
1070
     0
1070
   203
1070
     0
1070
   204
1070
     1
1070
   205
1070
     0
1070
   206
1070
     0
1070
   207
1070
     1
1070
   208
1070
     0
1070
   209
1070
     0
  0
DICTIONARY
  5
B7D97
102
{ACAD_REACTORS
330
B7D94
102
}
330
B7D94
100
AcDbDictionary
281
     1
1001
TB_S_MPD
1070
   101
1000
MS\U+FF7A\U+FF9E\U+FF7C\U+FF6F\U+FF78-0
1070
   302
1040
2.5
  0
DICTIONARY
  5
B7D98
102
{ACAD_REACTORS
330
B7D94
102
}
330
B7D94
100
AcDbDictionary
281
     1
1001
TB_S_MPD
1070
   101
1000
MS\U+FF7A\U+FF9E\U+FF7C\U+FF6F\U+FF78-0
1070
   302
1040
2.5
  0
DICTIONARY
  5
B8866
330
8F584
100
AcDbDictionary
280
     1
281
     1
  3
ACAD_XREC_ROUNDTRIP
360
B8867
  0
DICTIONARY
  5
B8862
330
741
100
AcDbDictionary
280
     1
281
     1
  3
ACAD_XREC_ROUNDTRIP
360
B8863
  0
DICTIONARY
  5
B889D
330
B87BD
100
AcDbDictionary
280
     1
281
     1
  3
ACAD_XREC_ROUNDTRIP
360
B889E
  0
DICTIONARY
  5
B87EA
330
B87E9
100
AcDbDictionary
280
     1
281
     1
  3
ACAD_XREC_ROUNDTRIP
360
B88A2
  3
BUMPTILE
360
B87EC
  3
DIFFUSETILE
360
B87EB
  3
OPACITYTILE
360
B87EF
  3
REFLECTIONTILE
360
B87EE
  3
REFRACTIONTILE
360
B87F0
  3
SPECULARTILE
360
B87ED
  0
DICTIONARY
  5
B8898
330
B7B2C
100
AcDbDictionary
280
     1
281
     1
  3
ACAD_XREC_ROUNDTRIP
360
B8899
  0
DICTIONARY
  5
B889A
330
B7B2E
100
AcDbDictionary
280
     1
281
     1
  3
ACAD_XREC_ROUNDTRIP
360
B889B
  0
DICTIONARY
  5
B8864
330
8F582
100
AcDbDictionary
280
     1
281
     1
  3
ACAD_XREC_ROUNDTRIP
360
B8865
  0
DICTIONARY
  5
B87FA
330
B7B30
100
AcDbDictionary
280
     1
281
     1
  3
ACAD_ROUNDTRIP_2008_TABLESTYLE_CELLSTYLEMAP
360
B885D
  3
ACAD_XREC_ROUNDTRIP
360
B889C
  0
DICTIONARY
  5
B8870
330
B7B17
100
AcDbDictionary
280
     1
281
     1
  3
ACAD_XREC_ROUNDTRIP
360
B8871
  0
DICTIONARY
  5
B8876
330
B7B1A
100
AcDbDictionary
280
     1
281
     1
  3
ACAD_XREC_ROUNDTRIP
360
B8877
  0
DICTIONARY
  5
B887E
330
B7B1E
100
AcDbDictionary
280
     1
281
     1
  3
ACAD_XREC_ROUNDTRIP
360
B887F
  0
DICTIONARY
  5
B8886
330
B7B22
100
AcDbDictionary
280
     1
281
     1
  3
ACAD_XREC_ROUNDTRIP
360
B8887
  0
DICTIONARY
  5
B887A
330
B7B1C
100
AcDbDictionary
280
     1
281
     1
  3
ACAD_XREC_ROUNDTRIP
360
B887B
  0
DICTIONARY
  5
B887C
330
B7B1D
100
AcDbDictionary
280
     1
281
     1
  3
ACAD_XREC_ROUNDTRIP
360
B887D
  0
DICTIONARY
  5
B888C
330
B7B25
100
AcDbDictionary
280
     1
281
     1
  3
ACAD_XREC_ROUNDTRIP
360
B888D
  0
DICTIONARY
  5
B8884
330
B7B21
100
AcDbDictionary
280
     1
281
     1
  3
ACAD_XREC_ROUNDTRIP
360
B8885
  0
DICTIONARY
  5
B8868
330
B7B13
100
AcDbDictionary
280
     1
281
     1
  3
ACAD_XREC_ROUNDTRIP
360
B8869
  0
DICTIONARY
  5
B886A
330
B7B14
100
AcDbDictionary
280
     1
281
     1
  3
ACAD_XREC_ROUNDTRIP
360
B886B
  0
DICTIONARY
  5
B886C
330
B7B15
100
AcDbDictionary
280
     1
281
     1
  3
ACAD_XREC_ROUNDTRIP
360
B886D
  0
DICTIONARY
  5
B886E
330
B7B16
100
AcDbDictionary
280
     1
281
     1
  3
ACAD_XREC_ROUNDTRIP
360
B886F
  0
DICTIONARY
  5
B8874
330
B7B19
100
AcDbDictionary
280
     1
281
     1
  3
ACAD_XREC_ROUNDTRIP
360
B8875
  0
DICTIONARY
  5
B8888
330
B7B23
100
AcDbDictionary
280
     1
281
     1
  3
ACAD_XREC_ROUNDTRIP
360
B8889
  0
DICTIONARY
  5
B8882
330
B7B20
100
AcDbDictionary
280
     1
281
     1
  3
ACAD_XREC_ROUNDTRIP
360
B8883
  0
DICTIONARY
  5
B888A
330
B7B24
100
AcDbDictionary
280
     1
281
     1
  3
ACAD_XREC_ROUNDTRIP
360
B888B
  0
DICTIONARY
  5
B8878
330
B7B1B
100
AcDbDictionary
280
     1
281
     1
  3
ACAD_XREC_ROUNDTRIP
360
B8879
  0
DICTIONARY
  5
B8896
330
B7B2A
100
AcDbDictionary
280
     1
281
     1
  3
ACAD_XREC_ROUNDTRIP
360
B8897
  0
DICTIONARY
  5
B8894
330
B7B29
100
AcDbDictionary
280
     1
281
     1
  3
ACAD_XREC_ROUNDTRIP
360
B8895
  0
DICTIONARY
  5
B888E
330
B7B26
100
AcDbDictionary
280
     1
281
     1
  3
ACAD_XREC_ROUNDTRIP
360
B888F
  0
DICTIONARY
  5
B8890
330
B7B27
100
AcDbDictionary
280
     1
281
     1
  3
ACAD_XREC_ROUNDTRIP
360
B8891
  0
DICTIONARY
  5
B8880
330
B7B1F
100
AcDbDictionary
280
     1
281
     1
  3
ACAD_XREC_ROUNDTRIP
360
B8881
  0
DICTIONARY
  5
B8872
330
B7B18
100
AcDbDictionary
280
     1
281
     1
  3
ACAD_XREC_ROUNDTRIP
360
B8873
  0
DICTIONARY
  5
B8892
330
B7B28
100
AcDbDictionary
280
     1
281
     1
  3
ACAD_XREC_ROUNDTRIP
360
B8893
  0
XRECORD
  5
B8867
102
{ACAD_REACTORS
330
B8866
102
}
330
B8866
100
AcDbXrecord
280
     1
102
DISPLAYNAME
  1
Imperial24
102
FLAGS
 90
        0
  0
XRECORD
  5
B8863
102
{ACAD_REACTORS
330
B8862
102
}
330
B8862
100
AcDbXrecord
280
     1
102
SHADEPLOT
 70
     0
102
SHADEPLOTRESLEVEL
 70
     2
102
SHADEPLOTCUSTOMDPI
 70
   300
  0
XRECORD
  5
B889E
102
{ACAD_REACTORS
330
B889D
102
}
330
B889D
100
AcDbXrecord
280
     1
102
SHADEPLOT
 70
     0
102
SHADEPLOTRESLEVEL
 70
     2
102
SHADEPLOTCUSTOMDPI
 70
   300
  0
XRECORD
  5
B88A2
102
{ACAD_REACTORS
330
B87EA
102
}
330
B87EA
100
AcDbXrecord
280
     1
102
MATERIAL
148
0.0
149
0.0
149
0.0
 93
        0
 94
      127
282
     0
 72
     0
 77
     0
171
     0
175
     0
179
     0
273
     0
  0
XRECORD
  5
B87EC
102
{ACAD_REACTORS
330
B87EA
102
}
330
B87EA
100
AcDbXrecord
280
     1
270
     1
271
     1
  0
XRECORD
  5
B87EB
102
{ACAD_REACTORS
330
B87EA
102
}
330
B87EA
100
AcDbXrecord
280
     1
270
     1
271
     1
  0
XRECORD
  5
B87EF
102
{ACAD_REACTORS
330
B87EA
102
}
330
B87EA
100
AcDbXrecord
280
     1
270
     1
271
     1
  0
XRECORD
  5
B87EE
102
{ACAD_REACTORS
330
B87EA
102
}
330
B87EA
100
AcDbXrecord
280
     1
270
     1
271
     1
  0
XRECORD
  5
B87F0
102
{ACAD_REACTORS
330
B87EA
102
}
330
B87EA
100
AcDbXrecord
280
     1
270
     1
271
     1
  0
XRECORD
  5
B87ED
102
{ACAD_REACTORS
330
B87EA
102
}
330
B87EA
100
AcDbXrecord
280
     1
270
     1
271
     1
  0
XRECORD
  5
B8899
102
{ACAD_REACTORS
330
B8898
102
}
330
B8898
100
AcDbXrecord
280
     1
102
MATERIAL
148
0.0
149
0.0
149
0.0
 93
        0
 94
      127
282
     0
 72
     1
 77
     1
171
     1
175
     1
179
     1
273
     0
  0
XRECORD
  5
B889B
102
{ACAD_REACTORS
330
B889A
102
}
330
B889A
100
AcDbXrecord
280
     1
102
MATERIAL
148
0.0
149
0.0
149
0.0
 93
        0
 94
      127
282
     0
 72
     1
 77
     1
171
     1
175
     1
179
     1
273
     0
  0
XRECORD
  5
B8865
102
{ACAD_REACTORS
330
B8864
102
}
330
B8864
100
AcDbXrecord
280
     1
102
DISPLAYNAME
  1
Imperial24
102
FLAGS
 90
        0
  0
CELLSTYLEMAP
  5
B885D
102
{ACAD_REACTORS
330
B87FA
102
}
330
B87FA
100
AcDbCellStyleMap
 90
        3
300
CELLSTYLE
  1
TABLEFORMAT_BEGIN
 90
        5
170
     1
 91
        0
 92
    32768
 62
   257
 93
        1
300
CONTENTFORMAT
  1
CONTENTFORMAT_BEGIN
 90
        0
 91
        0
 92
        4
 93
        0
300

 40
0.0
140
1.0
 94
        5
 62
     0
340
F
144
0.25
309
CONTENTFORMAT_END
171
     1
301
MARGIN
  1
CELLMARGIN_BEGIN
 40
0.06
 40
0.06
 40
0.06
 40
0.06
 40
0.06
 40
0.06
309
CELLMARGIN_END
 94
        6
 95
        1
302
GRIDFORMAT
  1
GRIDFORMAT_BEGIN
 90
        0
 91
        1
 62
     0
 92
       -2
340
12
 93
        0
 40
0.045
309
GRIDFORMAT_END
 95
        2
302
GRIDFORMAT
  1
GRIDFORMAT_BEGIN
 90
        0
 91
        1
 62
     0
 92
       -2
340
12
 93
        0
 40
0.045
309
GRIDFORMAT_END
 95
        4
302
GRIDFORMAT
  1
GRIDFORMAT_BEGIN
 90
        0
 91
        1
 62
     0
 92
       -2
340
12
 93
        0
 40
0.045
309
GRIDFORMAT_END
 95
        8
302
GRIDFORMAT
  1
GRIDFORMAT_BEGIN
 90
        0
 91
        1
 62
     0
 92
       -2
340
12
 93
        0
 40
0.045
309
GRIDFORMAT_END
 95
       16
302
GRIDFORMAT
  1
GRIDFORMAT_BEGIN
 90
        0
 91
        1
 62
     0
 92
       -2
340
12
 93
        0
 40
0.045
309
GRIDFORMAT_END
 95
       32
302
GRIDFORMAT
  1
GRIDFORMAT_BEGIN
 90
        0
 91
        1
 62
     0
 92
       -2
340
12
 93
        0
 40
0.045
309
GRIDFORMAT_END
309
TABLEFORMAT_END
  1
CELLSTYLE_BEGIN
 90
        1
 91
        1
300
_TITLE
309
CELLSTYLE_END
300
CELLSTYLE
  1
TABLEFORMAT_BEGIN
 90
        5
170
     1
 91
        0
 92
        0
 62
   257
 93
        1
300
CONTENTFORMAT
  1
CONTENTFORMAT_BEGIN
 90
        0
 91
        0
 92
        4
 93
        0
300

 40
0.0
140
1.0
 94
        5
 62
     0
340
F
144
0.18
309
CONTENTFORMAT_END
171
     1
301
MARGIN
  1
CELLMARGIN_BEGIN
 40
0.06
 40
0.06
 40
0.06
 40
0.06
 40
0.06
 40
0.06
309
CELLMARGIN_END
 94
        6
 95
        1
302
GRIDFORMAT
  1
GRIDFORMAT_BEGIN
 90
        0
 91
        1
 62
     0
 92
       -2
340
12
 93
        0
 40
0.045
309
GRIDFORMAT_END
 95
        2
302
GRIDFORMAT
  1
GRIDFORMAT_BEGIN
 90
        0
 91
        1
 62
     0
 92
       -2
340
12
 93
        0
 40
0.045
309
GRIDFORMAT_END
 95
        4
302
GRIDFORMAT
  1
GRIDFORMAT_BEGIN
 90
        0
 91
        1
 62
     0
 92
       -2
340
12
 93
        0
 40
0.045
309
GRIDFORMAT_END
 95
        8
302
GRIDFORMAT
  1
GRIDFORMAT_BEGIN
 90
        0
 91
        1
 62
     0
 92
       -2
340
12
 93
        0
 40
0.045
309
GRIDFORMAT_END
 95
       16
302
GRIDFORMAT
  1
GRIDFORMAT_BEGIN
 90
        0
 91
        1
 62
     0
 92
       -2
340
12
 93
        0
 40
0.045
309
GRIDFORMAT_END
 95
       32
302
GRIDFORMAT
  1
GRIDFORMAT_BEGIN
 90
        0
 91
        1
 62
     0
 92
       -2
340
12
 93
        0
 40
0.045
309
GRIDFORMAT_END
309
TABLEFORMAT_END
  1
CELLSTYLE_BEGIN
 90
        2
 91
        1
300
_HEADER
309
CELLSTYLE_END
300
CELLSTYLE
  1
TABLEFORMAT_BEGIN
 90
        5
170
     1
 91
        0
 92
        0
 62
   257
 93
        1
300
CONTENTFORMAT
  1
CONTENTFORMAT_BEGIN
 90
        0
 91
        0
 92
        4
 93
        0
300

 40
0.0
140
1.0
 94
        2
 62
     0
340
F
144
0.18
309
CONTENTFORMAT_END
171
     1
301
MARGIN
  1
CELLMARGIN_BEGIN
 40
0.06
 40
0.06
 40
0.06
 40
0.06
 40
0.06
 40
0.06
309
CELLMARGIN_END
 94
        6
 95
        1
302
GRIDFORMAT
  1
GRIDFORMAT_BEGIN
 90
        0
 91
        1
 62
     0
 92
       -2
340
12
 93
        0
 40
0.045
309
GRIDFORMAT_END
 95
        2
302
GRIDFORMAT
  1
GRIDFORMAT_BEGIN
 90
        0
 91
        1
 62
     0
 92
       -2
340
12
 93
        0
 40
0.045
309
GRIDFORMAT_END
 95
        4
302
GRIDFORMAT
  1
GRIDFORMAT_BEGIN
 90
        0
 91
        1
 62
     0
 92
       -2
340
12
 93
        0
 40
0.045
309
GRIDFORMAT_END
 95
        8
302
GRIDFORMAT
  1
GRIDFORMAT_BEGIN
 90
        0
 91
        1
 62
     0
 92
       -2
340
12
 93
        0
 40
0.045
309
GRIDFORMAT_END
 95
       16
302
GRIDFORMAT
  1
GRIDFORMAT_BEGIN
 90
        0
 91
        1
 62
     0
 92
       -2
340
12
 93
        0
 40
0.045
309
GRIDFORMAT_END
 95
       32
302
GRIDFORMAT
  1
GRIDFORMAT_BEGIN
 90
        0
 91
        1
 62
     0
 92
       -2
340
12
 93
        0
 40
0.045
309
GRIDFORMAT_END
309
TABLEFORMAT_END
  1
CELLSTYLE_BEGIN
 90
        3
 91
        2
300
_DATA
309
CELLSTYLE_END
  0
XRECORD
  5
B889C
102
{ACAD_REACTORS
330
B87FA
102
}
330
B87FA
100
AcDbXrecord
280
     1
102
ACAD_ROUNDTRIP_PRE2007_TABLESTYLE
 90
        4
 91
        0
  1

 92
        4
 93
        0
  2

 94
        4
 95
        0
  3

  0
XRECORD
  5
B8871
102
{ACAD_REACTORS
330
B8870
102
}
330
B8870
100
AcDbXrecord
280
     1
102
RTVSPost2010Prop28
280
     1
102
RTVSPost2010PropOp28
 70
     1
102
RTVSPost2010Prop29
280
     1
102
RTVSPost2010PropOp29
 70
     1
102
RTVSPost2010Prop30
280
     0
102
RTVSPost2010PropOp30
 70
     1
102
RTVSPost2010Prop31
280
     0
102
RTVSPost2010PropOp31
 70
     1
102
RTVSPost2010Prop32
280
     0
102
RTVSPost2010PropOp32
 70
     1
102
RTVSPost2010Prop33
280
     0
102
RTVSPost2010PropOp33
 70
     1
102
RTVSPost2010Prop34
280
     0
102
RTVSPost2010PropOp34
 70
     1
102
RTVSPost2010Prop35
280
     0
102
RTVSPost2010PropOp35
 70
     1
102
RTVSPost2010Prop36
280
     0
102
RTVSPost2010PropOp36
 70
     1
102
RTVSPost2010Prop37
 90
       50
102
RTVSPost2010PropOp37
 70
     1
102
RTVSPost2010Prop38
140
0.0
102
RTVSPost2010PropOp38
 70
     1
102
RTVSPost2010Prop39
140
1.0
102
RTVSPost2010PropOp39
 70
     1
102
RTVSPost2010Prop40
 90
        0
102
RTVSPost2010PropOp40
 70
     1
102
RTVSPost2010Prop41ColorIndex
 90
       18
102
RTVSPost2010Prop41ColorRGB
 90
        0
102
RTVSPost2010PropOp41
 70
     1
102
RTVSPost2010Prop42
 90
       50
102
RTVSPost2010PropOp42
 70
     1
102
RTVSPost2010Prop43
 90
        3
102
RTVSPost2010PropOp43
 70
     1
102
RTVSPost2010Prop44ColorIndex
 90
        5
102
RTVSPost2010Prop44ColorRGB
 90
      255
102
RTVSPost2010PropOp44
 70
     1
102
RTVSPost2010Prop45
280
     0
102
RTVSPost2010PropOp45
 70
     1
102
RTVSPost2010Prop46
 90
       50
102
RTVSPost2010PropOp46
 70
     1
102
RTVSPost2010Prop47
 90
       50
102
RTVSPost2010PropOp47
 70
     1
102
RTVSPost2010Prop48
 90
       50
102
RTVSPost2010PropOp48
 70
     1
102
RTVSPost2010Prop49
280
     0
102
RTVSPost2010PropOp49
 70
     1
102
RTVSPost2010Prop50
 90
       50
102
RTVSPost2010PropOp50
 70
     1
102
RTVSPost2010Prop51ColorIndex
 90
      256
102
RTVSPost2010Prop51ColorRGB
 90
-16777216
102
RTVSPost2010PropOp51
 70
     0
102
RTVSPost2010Prop52
140
1.0
102
RTVSPost2010PropOp52
 70
     0
102
RTVSPost2010Prop53
 90
        2
102
RTVSPost2010PropOp53
 70
     1
102
RTVSPost2010Prop54
  1
strokes_ogs.tif
102
RTVSPost2010PropOp54
 70
     1
102
RTVSPost2010Prop55
280
     0
102
RTVSPost2010PropOp55
 70
     1
102
RTVSPost2010Prop56
140
1.0
102
RTVSPost2010PropOp56
 70
     1
102
RTVSPost2010Prop57
140
1.0
102
RTVSPost2010PropOp57
 70
     1
102
RTVSPropertyOp0
 70
     1
102
RTVSPropertyOp1
 70
     1
102
RTVSPropertyOp2
 70
     1
102
RTVSPropertyOp3
 70
     1
102
RTVSPropertyOp4
 70
     1
102
RTVSPropertyOp5
 70
     1
102
RTVSPropertyOp6
 70
     1
102
RTVSPropertyOp7
 70
     1
102
RTVSPropertyOp8
 70
     1
102
RTVSPropertyOp9
 70
     1
102
RTVSPropertyOp10
 70
     1
102
RTVSPropertyOp11
 70
     1
102
RTVSPropertyOp12
 70
     1
102
RTVSPropertyOp13
 70
     1
102
RTVSPropertyOp14
 70
     1
102
RTVSPropertyOp15
 70
     1
102
RTVSPropertyOp16
 70
     1
102
RTVSPropertyOp17
 70
     1
102
RTVSPropertyOp18
 70
     1
102
RTVSPropertyOp19
 70
     1
102
RTVSPropertyOp20
 70
     1
102
RTVSPropertyOp21
 70
     1
102
RTVSPropertyOp22
 70
     1
102
RTVSPropertyOp23
 70
     1
102
RTVSPropertyOp24
 70
     1
102
RTVSPropertyOp25
 70
     1
102
RTVSPropertyOp26
 70
     1
102
RTVSPropertyOp27
 70
     1
102
RTVSPropertyOp28
 70
     1
102
RTVSPropertyOp29
 70
     1
102
RTVSPropertyOp30
 70
     1
102
RTVSPropertyOp31
 70
     1
102
RTVSPropertyOp32
 70
     1
102
RTVSPropertyOp33
 70
     1
102
RTVSPropertyOp34
 70
     1
102
RTVSPropertyOp35
 70
     1
102
RTVSPropertyOp36
 70
     1
102
RTVSPropertyOp37
 70
     1
102
RTVSPropertyOp38
 70
     1
102
RTVSPropertyOp39
 70
     1
102
RTVSPropertyOp40
 70
     1
102
RTVSPropertyOp41
 70
     1
102
RTVSPropertyOp42
 70
     1
102
RTVSPropertyOp43
 70
     1
102
RTVSPropertyOp44
 70
     1
102
RTVSPropertyOp45
 70
     1
102
RTVSPropertyOp46
 70
     1
102
RTVSPropertyOp47
 70
     1
102
RTVSPropertyOp48
 70
     1
102
RTVSPropertyOp49
 70
     1
102
RTVSPropertyOp50
 70
     1
102
RTVSPropertyOp51
 70
     0
102
RTVSPropertyOp52
 70
     0
102
RTVSPropertyOp53
 70
     1
102
RTVSPropertyOp54
 70
     1
102
RTVSPropertyOp55
 70
     1
102
RTVSPropertyOp56
 70
     1
102
RTVSPropertyOp57
 70
     1
102
RTVSPropertyOp58
 70
     1
102
RTVSPropertyOp59
 70
     1
102
RTVSPropertyOp60
 70
     1
102
RTVSPropertyOp61
 70
     1
102
RTVSPropertyOp62
 70
     1
  0
XRECORD
  5
B8877
102
{ACAD_REACTORS
330
B8876
102
}
330
B8876
100
AcDbXrecord
280
     1
102
RTVSPost2010Prop28
280
     0
102
RTVSPost2010PropOp28
 70
     1
102
RTVSPost2010Prop29
280
     1
102
RTVSPost2010PropOp29
 70
     1
102
RTVSPost2010Prop30
280
     1
102
RTVSPost2010PropOp30
 70
     1
102
RTVSPost2010Prop31
280
     0
102
RTVSPost2010PropOp31
 70
     1
102
RTVSPost2010Prop32
280
     0
102
RTVSPost2010PropOp32
 70
     1
102
RTVSPost2010Prop33
280
     0
102
RTVSPost2010PropOp33
 70
     1
102
RTVSPost2010Prop34
280
     0
102
RTVSPost2010PropOp34
 70
     1
102
RTVSPost2010Prop35
280
     0
102
RTVSPost2010PropOp35
 70
     1
102
RTVSPost2010Prop36
280
     0
102
RTVSPost2010PropOp36
 70
     1
102
RTVSPost2010Prop37
 90
       50
102
RTVSPost2010PropOp37
 70
     1
102
RTVSPost2010Prop38
140
0.0
102
RTVSPost2010PropOp38
 70
     1
102
RTVSPost2010Prop39
140
1.0
102
RTVSPost2010PropOp39
 70
     1
102
RTVSPost2010Prop40
 90
        0
102
RTVSPost2010PropOp40
 70
     1
102
RTVSPost2010Prop41ColorIndex
 90
       18
102
RTVSPost2010Prop41ColorRGB
 90
        0
102
RTVSPost2010PropOp41
 70
     1
102
RTVSPost2010Prop42
 90
       50
102
RTVSPost2010PropOp42
 70
     1
102
RTVSPost2010Prop43
 90
        3
102
RTVSPost2010PropOp43
 70
     1
102
RTVSPost2010Prop44ColorIndex
 90
        5
102
RTVSPost2010Prop44ColorRGB
 90
      255
102
RTVSPost2010PropOp44
 70
     1
102
RTVSPost2010Prop45
280
     0
102
RTVSPost2010PropOp45
 70
     1
102
RTVSPost2010Prop46
 90
       50
102
RTVSPost2010PropOp46
 70
     1
102
RTVSPost2010Prop47
 90
       50
102
RTVSPost2010PropOp47
 70
     1
102
RTVSPost2010Prop48
 90
       50
102
RTVSPost2010PropOp48
 70
     1
102
RTVSPost2010Prop49
280
     0
102
RTVSPost2010PropOp49
 70
     1
102
RTVSPost2010Prop50
 90
       50
102
RTVSPost2010PropOp50
 70
     1
102
RTVSPost2010Prop51ColorIndex
 90
      256
102
RTVSPost2010Prop51ColorRGB
 90
-16777216
102
RTVSPost2010PropOp51
 70
     0
102
RTVSPost2010Prop52
140
1.0
102
RTVSPost2010PropOp52
 70
     0
102
RTVSPost2010Prop53
 90
        2
102
RTVSPost2010PropOp53
 70
     1
102
RTVSPost2010Prop54
  1
strokes_ogs.tif
102
RTVSPost2010PropOp54
 70
     1
102
RTVSPost2010Prop55
280
     0
102
RTVSPost2010PropOp55
 70
     1
102
RTVSPost2010Prop56
140
1.0
102
RTVSPost2010PropOp56
 70
     1
102
RTVSPost2010Prop57
140
1.0
102
RTVSPost2010PropOp57
 70
     1
102
RTVSPropertyOp0
 70
     1
102
RTVSPropertyOp1
 70
     1
102
RTVSPropertyOp2
 70
     1
102
RTVSPropertyOp3
 70
     1
102
RTVSPropertyOp4
 70
     1
102
RTVSPropertyOp5
 70
     1
102
RTVSPropertyOp6
 70
     1
102
RTVSPropertyOp7
 70
     1
102
RTVSPropertyOp8
 70
     1
102
RTVSPropertyOp9
 70
     1
102
RTVSPropertyOp10
 70
     1
102
RTVSPropertyOp11
 70
     1
102
RTVSPropertyOp12
 70
     1
102
RTVSPropertyOp13
 70
     1
102
RTVSPropertyOp14
 70
     1
102
RTVSPropertyOp15
 70
     1
102
RTVSPropertyOp16
 70
     1
102
RTVSPropertyOp17
 70
     1
102
RTVSPropertyOp18
 70
     1
102
RTVSPropertyOp19
 70
     1
102
RTVSPropertyOp20
 70
     1
102
RTVSPropertyOp21
 70
     1
102
RTVSPropertyOp22
 70
     1
102
RTVSPropertyOp23
 70
     1
102
RTVSPropertyOp24
 70
     1
102
RTVSPropertyOp25
 70
     1
102
RTVSPropertyOp26
 70
     1
102
RTVSPropertyOp27
 70
     1
102
RTVSPropertyOp28
 70
     1
102
RTVSPropertyOp29
 70
     1
102
RTVSPropertyOp30
 70
     1
102
RTVSPropertyOp31
 70
     1
102
RTVSPropertyOp32
 70
     1
102
RTVSPropertyOp33
 70
     1
102
RTVSPropertyOp34
 70
     1
102
RTVSPropertyOp35
 70
     1
102
RTVSPropertyOp36
 70
     1
102
RTVSPropertyOp37
 70
     1
102
RTVSPropertyOp38
 70
     1
102
RTVSPropertyOp39
 70
     1
102
RTVSPropertyOp40
 70
     1
102
RTVSPropertyOp41
 70
     1
102
RTVSPropertyOp42
 70
     1
102
RTVSPropertyOp43
 70
     1
102
RTVSPropertyOp44
 70
     1
102
RTVSPropertyOp45
 70
     1
102
RTVSPropertyOp46
 70
     1
102
RTVSPropertyOp47
 70
     1
102
RTVSPropertyOp48
 70
     1
102
RTVSPropertyOp49
 70
     1
102
RTVSPropertyOp50
 70
     1
102
RTVSPropertyOp51
 70
     0
102
RTVSPropertyOp52
 70
     0
102
RTVSPropertyOp53
 70
     1
102
RTVSPropertyOp54
 70
     1
102
RTVSPropertyOp55
 70
     1
102
RTVSPropertyOp56
 70
     1
102
RTVSPropertyOp57
 70
     1
102
RTVSPropertyOp58
 70
     1
102
RTVSPropertyOp59
 70
     1
102
RTVSPropertyOp60
 70
     1
102
RTVSPropertyOp61
 70
     1
102
RTVSPropertyOp62
 70
     1
  0
XRECORD
  5
B887F
102
{ACAD_REACTORS
330
B887E
102
}
330
B887E
100
AcDbXrecord
280
     1
102
RTVSPost2010Prop28
280
     0
102
RTVSPost2010PropOp28
 70
     1
102
RTVSPost2010Prop29
280
     1
102
RTVSPost2010PropOp29
 70
     1
102
RTVSPost2010Prop30
280
     1
102
RTVSPost2010PropOp30
 70
     1
102
RTVSPost2010Prop31
280
     0
102
RTVSPost2010PropOp31
 70
     1
102
RTVSPost2010Prop32
280
     0
102
RTVSPost2010PropOp32
 70
     1
102
RTVSPost2010Prop33
280
     0
102
RTVSPost2010PropOp33
 70
     1
102
RTVSPost2010Prop34
280
     0
102
RTVSPost2010PropOp34
 70
     1
102
RTVSPost2010Prop35
280
     0
102
RTVSPost2010PropOp35
 70
     1
102
RTVSPost2010Prop36
280
     0
102
RTVSPost2010PropOp36
 70
     1
102
RTVSPost2010Prop37
 90
       50
102
RTVSPost2010PropOp37
 70
     1
102
RTVSPost2010Prop38
140
0.0
102
RTVSPost2010PropOp38
 70
     1
102
RTVSPost2010Prop39
140
1.0
102
RTVSPost2010PropOp39
 70
     1
102
RTVSPost2010Prop40
 90
        0
102
RTVSPost2010PropOp40
 70
     1
102
RTVSPost2010Prop41ColorIndex
 90
       18
102
RTVSPost2010Prop41ColorRGB
 90
        0
102
RTVSPost2010PropOp41
 70
     1
102
RTVSPost2010Prop42
 90
       50
102
RTVSPost2010PropOp42
 70
     1
102
RTVSPost2010Prop43
 90
        3
102
RTVSPost2010PropOp43
 70
     1
102
RTVSPost2010Prop44ColorIndex
 90
        5
102
RTVSPost2010Prop44ColorRGB
 90
      255
102
RTVSPost2010PropOp44
 70
     1
102
RTVSPost2010Prop45
280
     0
102
RTVSPost2010PropOp45
 70
     1
102
RTVSPost2010Prop46
 90
       50
102
RTVSPost2010PropOp46
 70
     1
102
RTVSPost2010Prop47
 90
       50
102
RTVSPost2010PropOp47
 70
     1
102
RTVSPost2010Prop48
 90
       50
102
RTVSPost2010PropOp48
 70
     1
102
RTVSPost2010Prop49
280
     0
102
RTVSPost2010PropOp49
 70
     1
102
RTVSPost2010Prop50
 90
       50
102
RTVSPost2010PropOp50
 70
     1
102
RTVSPost2010Prop51ColorIndex
 90
      256
102
RTVSPost2010Prop51ColorRGB
 90
-16777216
102
RTVSPost2010PropOp51
 70
     0
102
RTVSPost2010Prop52
140
1.0
102
RTVSPost2010PropOp52
 70
     0
102
RTVSPost2010Prop53
 90
        2
102
RTVSPost2010PropOp53
 70
     1
102
RTVSPost2010Prop54
  1
strokes_ogs.tif
102
RTVSPost2010PropOp54
 70
     1
102
RTVSPost2010Prop55
280
     0
102
RTVSPost2010PropOp55
 70
     1
102
RTVSPost2010Prop56
140
1.0
102
RTVSPost2010PropOp56
 70
     1
102
RTVSPost2010Prop57
140
1.0
102
RTVSPost2010PropOp57
 70
     1
102
RTVSPropertyOp0
 70
     1
102
RTVSPropertyOp1
 70
     1
102
RTVSPropertyOp2
 70
     1
102
RTVSPropertyOp3
 70
     1
102
RTVSPropertyOp4
 70
     1
102
RTVSPropertyOp5
 70
     1
102
RTVSPropertyOp6
 70
     1
102
RTVSPropertyOp7
 70
     1
102
RTVSPropertyOp8
 70
     1
102
RTVSPropertyOp9
 70
     1
102
RTVSPropertyOp10
 70
     1
102
RTVSPropertyOp11
 70
     1
102
RTVSPropertyOp12
 70
     1
102
RTVSPropertyOp13
 70
     1
102
RTVSPropertyOp14
 70
     1
102
RTVSPropertyOp15
 70
     1
102
RTVSPropertyOp16
 70
     1
102
RTVSPropertyOp17
 70
     1
102
RTVSPropertyOp18
 70
     1
102
RTVSPropertyOp19
 70
     1
102
RTVSPropertyOp20
 70
     1
102
RTVSPropertyOp21
 70
     1
102
RTVSPropertyOp22
 70
     1
102
RTVSPropertyOp23
 70
     1
102
RTVSPropertyOp24
 70
     1
102
RTVSPropertyOp25
 70
     1
102
RTVSPropertyOp26
 70
     1
102
RTVSPropertyOp27
 70
     1
102
RTVSPropertyOp28
 70
     1
102
RTVSPropertyOp29
 70
     1
102
RTVSPropertyOp30
 70
     1
102
RTVSPropertyOp31
 70
     1
102
RTVSPropertyOp32
 70
     1
102
RTVSPropertyOp33
 70
     1
102
RTVSPropertyOp34
 70
     1
102
RTVSPropertyOp35
 70
     1
102
RTVSPropertyOp36
 70
     1
102
RTVSPropertyOp37
 70
     1
102
RTVSPropertyOp38
 70
     1
102
RTVSPropertyOp39
 70
     1
102
RTVSPropertyOp40
 70
     1
102
RTVSPropertyOp41
 70
     1
102
RTVSPropertyOp42
 70
     1
102
RTVSPropertyOp43
 70
     1
102
RTVSPropertyOp44
 70
     1
102
RTVSPropertyOp45
 70
     1
102
RTVSPropertyOp46
 70
     1
102
RTVSPropertyOp47
 70
     1
102
RTVSPropertyOp48
 70
     1
102
RTVSPropertyOp49
 70
     1
102
RTVSPropertyOp50
 70
     1
102
RTVSPropertyOp51
 70
     0
102
RTVSPropertyOp52
 70
     0
102
RTVSPropertyOp53
 70
     1
102
RTVSPropertyOp54
 70
     1
102
RTVSPropertyOp55
 70
     1
102
RTVSPropertyOp56
 70
     1
102
RTVSPropertyOp57
 70
     1
102
RTVSPropertyOp58
 70
     1
102
RTVSPropertyOp59
 70
     1
102
RTVSPropertyOp60
 70
     1
102
RTVSPropertyOp61
 70
     1
102
RTVSPropertyOp62
 70
     1
  0
XRECORD
  5
B8887
102
{ACAD_REACTORS
330
B8886
102
}
330
B8886
100
AcDbXrecord
280
     1
102
RTVSPost2010Prop28
280
     0
102
RTVSPost2010PropOp28
 70
     1
102
RTVSPost2010Prop29
280
     1
102
RTVSPost2010PropOp29
 70
     1
102
RTVSPost2010Prop30
280
     1
102
RTVSPost2010PropOp30
 70
     1
102
RTVSPost2010Prop31
280
     0
102
RTVSPost2010PropOp31
 70
     1
102
RTVSPost2010Prop32
280
     0
102
RTVSPost2010PropOp32
 70
     1
102
RTVSPost2010Prop33
280
     0
102
RTVSPost2010PropOp33
 70
     1
102
RTVSPost2010Prop34
280
     0
102
RTVSPost2010PropOp34
 70
     1
102
RTVSPost2010Prop35
280
     0
102
RTVSPost2010PropOp35
 70
     1
102
RTVSPost2010Prop36
280
     0
102
RTVSPost2010PropOp36
 70
     1
102
RTVSPost2010Prop37
 90
       50
102
RTVSPost2010PropOp37
 70
     1
102
RTVSPost2010Prop38
140
0.0
102
RTVSPost2010PropOp38
 70
     1
102
RTVSPost2010Prop39
140
1.0
102
RTVSPost2010PropOp39
 70
     1
102
RTVSPost2010Prop40
 90
        0
102
RTVSPost2010PropOp40
 70
     1
102
RTVSPost2010Prop41ColorIndex
 90
       18
102
RTVSPost2010Prop41ColorRGB
 90
        0
102
RTVSPost2010PropOp41
 70
     1
102
RTVSPost2010Prop42
 90
       50
102
RTVSPost2010PropOp42
 70
     1
102
RTVSPost2010Prop43
 90
        3
102
RTVSPost2010PropOp43
 70
     1
102
RTVSPost2010Prop44ColorIndex
 90
        5
102
RTVSPost2010Prop44ColorRGB
 90
      255
102
RTVSPost2010PropOp44
 70
     1
102
RTVSPost2010Prop45
280
     0
102
RTVSPost2010PropOp45
 70
     1
102
RTVSPost2010Prop46
 90
       50
102
RTVSPost2010PropOp46
 70
     1
102
RTVSPost2010Prop47
 90
       50
102
RTVSPost2010PropOp47
 70
     1
102
RTVSPost2010Prop48
 90
       50
102
RTVSPost2010PropOp48
 70
     1
102
RTVSPost2010Prop49
280
     0
102
RTVSPost2010PropOp49
 70
     1
102
RTVSPost2010Prop50
 90
       50
102
RTVSPost2010PropOp50
 70
     1
102
RTVSPost2010Prop51ColorIndex
 90
      256
102
RTVSPost2010Prop51ColorRGB
 90
-16777216
102
RTVSPost2010PropOp51
 70
     0
102
RTVSPost2010Prop52
140
1.0
102
RTVSPost2010PropOp52
 70
     0
102
RTVSPost2010Prop53
 90
        2
102
RTVSPost2010PropOp53
 70
     1
102
RTVSPost2010Prop54
  1
strokes_ogs.tif
102
RTVSPost2010PropOp54
 70
     1
102
RTVSPost2010Prop55
280
     0
102
RTVSPost2010PropOp55
 70
     1
102
RTVSPost2010Prop56
140
1.0
102
RTVSPost2010PropOp56
 70
     1
102
RTVSPost2010Prop57
140
1.0
102
RTVSPost2010PropOp57
 70
     1
102
RTVSPropertyOp0
 70
     1
102
RTVSPropertyOp1
 70
     1
102
RTVSPropertyOp2
 70
     1
102
RTVSPropertyOp3
 70
     1
102
RTVSPropertyOp4
 70
     1
102
RTVSPropertyOp5
 70
     1
102
RTVSPropertyOp6
 70
     1
102
RTVSPropertyOp7
 70
     1
102
RTVSPropertyOp8
 70
     1
102
RTVSPropertyOp9
 70
     1
102
RTVSPropertyOp10
 70
     1
102
RTVSPropertyOp11
 70
     1
102
RTVSPropertyOp12
 70
     1
102
RTVSPropertyOp13
 70
     1
102
RTVSPropertyOp14
 70
     1
102
RTVSPropertyOp15
 70
     1
102
RTVSPropertyOp16
 70
     1
102
RTVSPropertyOp17
 70
     1
102
RTVSPropertyOp18
 70
     1
102
RTVSPropertyOp19
 70
     1
102
RTVSPropertyOp20
 70
     1
102
RTVSPropertyOp21
 70
     1
102
RTVSPropertyOp22
 70
     1
102
RTVSPropertyOp23
 70
     1
102
RTVSPropertyOp24
 70
     1
102
RTVSPropertyOp25
 70
     1
102
RTVSPropertyOp26
 70
     1
102
RTVSPropertyOp27
 70
     1
102
RTVSPropertyOp28
 70
     1
102
RTVSPropertyOp29
 70
     1
102
RTVSPropertyOp30
 70
     1
102
RTVSPropertyOp31
 70
     1
102
RTVSPropertyOp32
 70
     1
102
RTVSPropertyOp33
 70
     1
102
RTVSPropertyOp34
 70
     1
102
RTVSPropertyOp35
 70
     1
102
RTVSPropertyOp36
 70
     1
102
RTVSPropertyOp37
 70
     1
102
RTVSPropertyOp38
 70
     1
102
RTVSPropertyOp39
 70
     1
102
RTVSPropertyOp40
 70
     1
102
RTVSPropertyOp41
 70
     1
102
RTVSPropertyOp42
 70
     1
102
RTVSPropertyOp43
 70
     1
102
RTVSPropertyOp44
 70
     1
102
RTVSPropertyOp45
 70
     1
102
RTVSPropertyOp46
 70
     1
102
RTVSPropertyOp47
 70
     1
102
RTVSPropertyOp48
 70
     1
102
RTVSPropertyOp49
 70
     1
102
RTVSPropertyOp50
 70
     1
102
RTVSPropertyOp51
 70
     0
102
RTVSPropertyOp52
 70
     0
102
RTVSPropertyOp53
 70
     1
102
RTVSPropertyOp54
 70
     1
102
RTVSPropertyOp55
 70
     1
102
RTVSPropertyOp56
 70
     1
102
RTVSPropertyOp57
 70
     1
102
RTVSPropertyOp58
 70
     1
102
RTVSPropertyOp59
 70
     1
102
RTVSPropertyOp60
 70
     1
102
RTVSPropertyOp61
 70
     1
102
RTVSPropertyOp62
 70
     1
  0
XRECORD
  5
B887B
102
{ACAD_REACTORS
330
B887A
102
}
330
B887A
100
AcDbXrecord
280
     1
102
RTVSPost2010Prop28
280
     0
102
RTVSPost2010PropOp28
 70
     1
102
RTVSPost2010Prop29
280
     1
102
RTVSPost2010PropOp29
 70
     1
102
RTVSPost2010Prop30
280
     1
102
RTVSPost2010PropOp30
 70
     1
102
RTVSPost2010Prop31
280
     0
102
RTVSPost2010PropOp31
 70
     1
102
RTVSPost2010Prop32
280
     0
102
RTVSPost2010PropOp32
 70
     1
102
RTVSPost2010Prop33
280
     0
102
RTVSPost2010PropOp33
 70
     1
102
RTVSPost2010Prop34
280
     0
102
RTVSPost2010PropOp34
 70
     1
102
RTVSPost2010Prop35
280
     0
102
RTVSPost2010PropOp35
 70
     1
102
RTVSPost2010Prop36
280
     0
102
RTVSPost2010PropOp36
 70
     1
102
RTVSPost2010Prop37
 90
       50
102
RTVSPost2010PropOp37
 70
     1
102
RTVSPost2010Prop38
140
0.0
102
RTVSPost2010PropOp38
 70
     1
102
RTVSPost2010Prop39
140
1.0
102
RTVSPost2010PropOp39
 70
     1
102
RTVSPost2010Prop40
 90
        0
102
RTVSPost2010PropOp40
 70
     1
102
RTVSPost2010Prop41ColorIndex
 90
       18
102
RTVSPost2010Prop41ColorRGB
 90
        0
102
RTVSPost2010PropOp41
 70
     1
102
RTVSPost2010Prop42
 90
       50
102
RTVSPost2010PropOp42
 70
     1
102
RTVSPost2010Prop43
 90
        3
102
RTVSPost2010PropOp43
 70
     1
102
RTVSPost2010Prop44ColorIndex
 90
        5
102
RTVSPost2010Prop44ColorRGB
 90
      255
102
RTVSPost2010PropOp44
 70
     1
102
RTVSPost2010Prop45
280
     0
102
RTVSPost2010PropOp45
 70
     1
102
RTVSPost2010Prop46
 90
       50
102
RTVSPost2010PropOp46
 70
     1
102
RTVSPost2010Prop47
 90
       50
102
RTVSPost2010PropOp47
 70
     1
102
RTVSPost2010Prop48
 90
       50
102
RTVSPost2010PropOp48
 70
     1
102
RTVSPost2010Prop49
280
     0
102
RTVSPost2010PropOp49
 70
     1
102
RTVSPost2010Prop50
 90
       50
102
RTVSPost2010PropOp50
 70
     1
102
RTVSPost2010Prop51ColorIndex
 90
      256
102
RTVSPost2010Prop51ColorRGB
 90
-16777216
102
RTVSPost2010PropOp51
 70
     0
102
RTVSPost2010Prop52
140
1.0
102
RTVSPost2010PropOp52
 70
     0
102
RTVSPost2010Prop53
 90
        2
102
RTVSPost2010PropOp53
 70
     1
102
RTVSPost2010Prop54
  1
strokes_ogs.tif
102
RTVSPost2010PropOp54
 70
     1
102
RTVSPost2010Prop55
280
     0
102
RTVSPost2010PropOp55
 70
     1
102
RTVSPost2010Prop56
140
1.0
102
RTVSPost2010PropOp56
 70
     1
102
RTVSPost2010Prop57
140
1.0
102
RTVSPost2010PropOp57
 70
     1
102
RTVSPropertyOp0
 70
     1
102
RTVSPropertyOp1
 70
     1
102
RTVSPropertyOp2
 70
     1
102
RTVSPropertyOp3
 70
     1
102
RTVSPropertyOp4
 70
     1
102
RTVSPropertyOp5
 70
     1
102
RTVSPropertyOp6
 70
     1
102
RTVSPropertyOp7
 70
     1
102
RTVSPropertyOp8
 70
     1
102
RTVSPropertyOp9
 70
     1
102
RTVSPropertyOp10
 70
     1
102
RTVSPropertyOp11
 70
     1
102
RTVSPropertyOp12
 70
     1
102
RTVSPropertyOp13
 70
     1
102
RTVSPropertyOp14
 70
     1
102
RTVSPropertyOp15
 70
     1
102
RTVSPropertyOp16
 70
     1
102
RTVSPropertyOp17
 70
     1
102
RTVSPropertyOp18
 70
     1
102
RTVSPropertyOp19
 70
     1
102
RTVSPropertyOp20
 70
     1
102
RTVSPropertyOp21
 70
     1
102
RTVSPropertyOp22
 70
     1
102
RTVSPropertyOp23
 70
     1
102
RTVSPropertyOp24
 70
     1
102
RTVSPropertyOp25
 70
     1
102
RTVSPropertyOp26
 70
     1
102
RTVSPropertyOp27
 70
     1
102
RTVSPropertyOp28
 70
     1
102
RTVSPropertyOp29
 70
     1
102
RTVSPropertyOp30
 70
     1
102
RTVSPropertyOp31
 70
     1
102
RTVSPropertyOp32
 70
     1
102
RTVSPropertyOp33
 70
     1
102
RTVSPropertyOp34
 70
     1
102
RTVSPropertyOp35
 70
     1
102
RTVSPropertyOp36
 70
     1
102
RTVSPropertyOp37
 70
     1
102
RTVSPropertyOp38
 70
     1
102
RTVSPropertyOp39
 70
     1
102
RTVSPropertyOp40
 70
     1
102
RTVSPropertyOp41
 70
     1
102
RTVSPropertyOp42
 70
     1
102
RTVSPropertyOp43
 70
     1
102
RTVSPropertyOp44
 70
     1
102
RTVSPropertyOp45
 70
     1
102
RTVSPropertyOp46
 70
     1
102
RTVSPropertyOp47
 70
     1
102
RTVSPropertyOp48
 70
     1
102
RTVSPropertyOp49
 70
     1
102
RTVSPropertyOp50
 70
     1
102
RTVSPropertyOp51
 70
     0
102
RTVSPropertyOp52
 70
     0
102
RTVSPropertyOp53
 70
     1
102
RTVSPropertyOp54
 70
     1
102
RTVSPropertyOp55
 70
     1
102
RTVSPropertyOp56
 70
     1
102
RTVSPropertyOp57
 70
     1
102
RTVSPropertyOp58
 70
     1
102
RTVSPropertyOp59
 70
     1
102
RTVSPropertyOp60
 70
     1
102
RTVSPropertyOp61
 70
     1
102
RTVSPropertyOp62
 70
     1
  0
XRECORD
  5
B887D
102
{ACAD_REACTORS
330
B887C
102
}
330
B887C
100
AcDbXrecord
280
     1
102
RTVSPost2010Prop28
280
     0
102
RTVSPost2010PropOp28
 70
     1
102
RTVSPost2010Prop29
280
     1
102
RTVSPost2010PropOp29
 70
     1
102
RTVSPost2010Prop30
280
     1
102
RTVSPost2010PropOp30
 70
     1
102
RTVSPost2010Prop31
280
     0
102
RTVSPost2010PropOp31
 70
     1
102
RTVSPost2010Prop32
280
     0
102
RTVSPost2010PropOp32
 70
     1
102
RTVSPost2010Prop33
280
     0
102
RTVSPost2010PropOp33
 70
     1
102
RTVSPost2010Prop34
280
     0
102
RTVSPost2010PropOp34
 70
     1
102
RTVSPost2010Prop35
280
     0
102
RTVSPost2010PropOp35
 70
     1
102
RTVSPost2010Prop36
280
     0
102
RTVSPost2010PropOp36
 70
     1
102
RTVSPost2010Prop37
 90
       50
102
RTVSPost2010PropOp37
 70
     1
102
RTVSPost2010Prop38
140
0.0
102
RTVSPost2010PropOp38
 70
     1
102
RTVSPost2010Prop39
140
1.0
102
RTVSPost2010PropOp39
 70
     1
102
RTVSPost2010Prop40
 90
        0
102
RTVSPost2010PropOp40
 70
     1
102
RTVSPost2010Prop41ColorIndex
 90
       18
102
RTVSPost2010Prop41ColorRGB
 90
        0
102
RTVSPost2010PropOp41
 70
     1
102
RTVSPost2010Prop42
 90
       50
102
RTVSPost2010PropOp42
 70
     1
102
RTVSPost2010Prop43
 90
        3
102
RTVSPost2010PropOp43
 70
     1
102
RTVSPost2010Prop44ColorIndex
 90
        5
102
RTVSPost2010Prop44ColorRGB
 90
      255
102
RTVSPost2010PropOp44
 70
     1
102
RTVSPost2010Prop45
280
     0
102
RTVSPost2010PropOp45
 70
     1
102
RTVSPost2010Prop46
 90
       50
102
RTVSPost2010PropOp46
 70
     1
102
RTVSPost2010Prop47
 90
       50
102
RTVSPost2010PropOp47
 70
     1
102
RTVSPost2010Prop48
 90
       50
102
RTVSPost2010PropOp48
 70
     1
102
RTVSPost2010Prop49
280
     0
102
RTVSPost2010PropOp49
 70
     1
102
RTVSPost2010Prop50
 90
       50
102
RTVSPost2010PropOp50
 70
     1
102
RTVSPost2010Prop51ColorIndex
 90
      256
102
RTVSPost2010Prop51ColorRGB
 90
-16777216
102
RTVSPost2010PropOp51
 70
     0
102
RTVSPost2010Prop52
140
1.0
102
RTVSPost2010PropOp52
 70
     0
102
RTVSPost2010Prop53
 90
        2
102
RTVSPost2010PropOp53
 70
     1
102
RTVSPost2010Prop54
  1
strokes_ogs.tif
102
RTVSPost2010PropOp54
 70
     1
102
RTVSPost2010Prop55
280
     0
102
RTVSPost2010PropOp55
 70
     1
102
RTVSPost2010Prop56
140
1.0
102
RTVSPost2010PropOp56
 70
     1
102
RTVSPost2010Prop57
140
1.0
102
RTVSPost2010PropOp57
 70
     1
102
RTVSPropertyOp0
 70
     1
102
RTVSPropertyOp1
 70
     1
102
RTVSPropertyOp2
 70
     1
102
RTVSPropertyOp3
 70
     1
102
RTVSPropertyOp4
 70
     1
102
RTVSPropertyOp5
 70
     1
102
RTVSPropertyOp6
 70
     1
102
RTVSPropertyOp7
 70
     1
102
RTVSPropertyOp8
 70
     1
102
RTVSPropertyOp9
 70
     1
102
RTVSPropertyOp10
 70
     1
102
RTVSPropertyOp11
 70
     1
102
RTVSPropertyOp12
 70
     1
102
RTVSPropertyOp13
 70
     1
102
RTVSPropertyOp14
 70
     1
102
RTVSPropertyOp15
 70
     1
102
RTVSPropertyOp16
 70
     1
102
RTVSPropertyOp17
 70
     1
102
RTVSPropertyOp18
 70
     1
102
RTVSPropertyOp19
 70
     1
102
RTVSPropertyOp20
 70
     1
102
RTVSPropertyOp21
 70
     1
102
RTVSPropertyOp22
 70
     1
102
RTVSPropertyOp23
 70
     1
102
RTVSPropertyOp24
 70
     1
102
RTVSPropertyOp25
 70
     1
102
RTVSPropertyOp26
 70
     1
102
RTVSPropertyOp27
 70
     1
102
RTVSPropertyOp28
 70
     1
102
RTVSPropertyOp29
 70
     1
102
RTVSPropertyOp30
 70
     1
102
RTVSPropertyOp31
 70
     1
102
RTVSPropertyOp32
 70
     1
102
RTVSPropertyOp33
 70
     1
102
RTVSPropertyOp34
 70
     1
102
RTVSPropertyOp35
 70
     1
102
RTVSPropertyOp36
 70
     1
102
RTVSPropertyOp37
 70
     1
102
RTVSPropertyOp38
 70
     1
102
RTVSPropertyOp39
 70
     1
102
RTVSPropertyOp40
 70
     1
102
RTVSPropertyOp41
 70
     1
102
RTVSPropertyOp42
 70
     1
102
RTVSPropertyOp43
 70
     1
102
RTVSPropertyOp44
 70
     1
102
RTVSPropertyOp45
 70
     1
102
RTVSPropertyOp46
 70
     1
102
RTVSPropertyOp47
 70
     1
102
RTVSPropertyOp48
 70
     1
102
RTVSPropertyOp49
 70
     1
102
RTVSPropertyOp50
 70
     1
102
RTVSPropertyOp51
 70
     0
102
RTVSPropertyOp52
 70
     0
102
RTVSPropertyOp53
 70
     1
102
RTVSPropertyOp54
 70
     1
102
RTVSPropertyOp55
 70
     1
102
RTVSPropertyOp56
 70
     1
102
RTVSPropertyOp57
 70
     1
102
RTVSPropertyOp58
 70
     1
102
RTVSPropertyOp59
 70
     1
102
RTVSPropertyOp60
 70
     1
102
RTVSPropertyOp61
 70
     1
102
RTVSPropertyOp62
 70
     1
  0
XRECORD
  5
B888D
102
{ACAD_REACTORS
330
B888C
102
}
330
B888C
100
AcDbXrecord
280
     1
102
RTVSPost2010Prop28
280
     0
102
RTVSPost2010PropOp28
 70
     0
102
RTVSPost2010Prop29
280
     1
102
RTVSPost2010PropOp29
 70
     0
102
RTVSPost2010Prop30
280
     1
102
RTVSPost2010PropOp30
 70
     0
102
RTVSPost2010Prop31
280
     0
102
RTVSPost2010PropOp31
 70
     0
102
RTVSPost2010Prop32
280
     0
102
RTVSPost2010PropOp32
 70
     0
102
RTVSPost2010Prop33
280
     0
102
RTVSPost2010PropOp33
 70
     0
102
RTVSPost2010Prop34
280
     0
102
RTVSPost2010PropOp34
 70
     0
102
RTVSPost2010Prop35
280
     0
102
RTVSPost2010PropOp35
 70
     0
102
RTVSPost2010Prop36
280
     0
102
RTVSPost2010PropOp36
 70
     0
102
RTVSPost2010Prop37
 90
       50
102
RTVSPost2010PropOp37
 70
     0
102
RTVSPost2010Prop38
140
0.0
102
RTVSPost2010PropOp38
 70
     0
102
RTVSPost2010Prop39
140
1.0
102
RTVSPost2010PropOp39
 70
     0
102
RTVSPost2010Prop40
 90
        0
102
RTVSPost2010PropOp40
 70
     0
102
RTVSPost2010Prop41ColorIndex
 90
       18
102
RTVSPost2010Prop41ColorRGB
 90
        0
102
RTVSPost2010PropOp41
 70
     0
102
RTVSPost2010Prop42
 90
       50
102
RTVSPost2010PropOp42
 70
     0
102
RTVSPost2010Prop43
 90
        3
102
RTVSPost2010PropOp43
 70
     0
102
RTVSPost2010Prop44ColorIndex
 90
        5
102
RTVSPost2010Prop44ColorRGB
 90
      255
102
RTVSPost2010PropOp44
 70
     0
102
RTVSPost2010Prop45
280
     0
102
RTVSPost2010PropOp45
 70
     0
102
RTVSPost2010Prop46
 90
       50
102
RTVSPost2010PropOp46
 70
     0
102
RTVSPost2010Prop47
 90
       50
102
RTVSPost2010PropOp47
 70
     0
102
RTVSPost2010Prop48
 90
       50
102
RTVSPost2010PropOp48
 70
     0
102
RTVSPost2010Prop49
280
     0
102
RTVSPost2010PropOp49
 70
     0
102
RTVSPost2010Prop50
 90
       50
102
RTVSPost2010PropOp50
 70
     0
102
RTVSPost2010Prop51ColorIndex
 90
      256
102
RTVSPost2010Prop51ColorRGB
 90
-16777216
102
RTVSPost2010PropOp51
 70
     0
102
RTVSPost2010Prop52
140
1.0
102
RTVSPost2010PropOp52
 70
     0
102
RTVSPost2010Prop53
 90
        2
102
RTVSPost2010PropOp53
 70
     0
102
RTVSPost2010Prop54
  1
strokes_ogs.tif
102
RTVSPost2010PropOp54
 70
     0
102
RTVSPost2010Prop55
280
     0
102
RTVSPost2010PropOp55
 70
     0
102
RTVSPost2010Prop56
140
1.0
102
RTVSPost2010PropOp56
 70
     0
102
RTVSPost2010Prop57
140
1.0
102
RTVSPost2010PropOp57
 70
     0
102
RTVSPropertyOp0
 70
     0
102
RTVSPropertyOp1
 70
     0
102
RTVSPropertyOp2
 70
     0
102
RTVSPropertyOp3
 70
     0
102
RTVSPropertyOp4
 70
     0
102
RTVSPropertyOp5
 70
     0
102
RTVSPropertyOp6
 70
     0
102
RTVSPropertyOp7
 70
     0
102
RTVSPropertyOp8
 70
     0
102
RTVSPropertyOp9
 70
     0
102
RTVSPropertyOp10
 70
     0
102
RTVSPropertyOp11
 70
     0
102
RTVSPropertyOp12
 70
     0
102
RTVSPropertyOp13
 70
     0
102
RTVSPropertyOp14
 70
     2
102
RTVSPropertyOp15
 70
     0
102
RTVSPropertyOp16
 70
     0
102
RTVSPropertyOp17
 70
     0
102
RTVSPropertyOp18
 70
     0
102
RTVSPropertyOp19
 70
     0
102
RTVSPropertyOp20
 70
     0
102
RTVSPropertyOp21
 70
     0
102
RTVSPropertyOp22
 70
     0
102
RTVSPropertyOp23
 70
     0
102
RTVSPropertyOp24
 70
     0
102
RTVSPropertyOp25
 70
     0
102
RTVSPropertyOp26
 70
     0
102
RTVSPropertyOp27
 70
     0
102
RTVSPropertyOp28
 70
     0
102
RTVSPropertyOp29
 70
     0
102
RTVSPropertyOp30
 70
     0
102
RTVSPropertyOp31
 70
     0
102
RTVSPropertyOp32
 70
     0
102
RTVSPropertyOp33
 70
     0
102
RTVSPropertyOp34
 70
     0
102
RTVSPropertyOp35
 70
     0
102
RTVSPropertyOp36
 70
     0
102
RTVSPropertyOp37
 70
     0
102
RTVSPropertyOp38
 70
     0
102
RTVSPropertyOp39
 70
     0
102
RTVSPropertyOp40
 70
     0
102
RTVSPropertyOp41
 70
     0
102
RTVSPropertyOp42
 70
     0
102
RTVSPropertyOp43
 70
     0
102
RTVSPropertyOp44
 70
     0
102
RTVSPropertyOp45
 70
     0
102
RTVSPropertyOp46
 70
     0
102
RTVSPropertyOp47
 70
     0
102
RTVSPropertyOp48
 70
     0
102
RTVSPropertyOp49
 70
     0
102
RTVSPropertyOp50
 70
     0
102
RTVSPropertyOp51
 70
     0
102
RTVSPropertyOp52
 70
     0
102
RTVSPropertyOp53
 70
     0
102
RTVSPropertyOp54
 70
     0
102
RTVSPropertyOp55
 70
     0
102
RTVSPropertyOp56
 70
     0
102
RTVSPropertyOp57
 70
     0
102
RTVSPropertyOp58
 70
     1
102
RTVSPropertyOp59
 70
     1
102
RTVSPropertyOp60
 70
     1
102
RTVSPropertyOp61
 70
     1
102
RTVSPropertyOp62
 70
     1
  0
XRECORD
  5
B8885
102
{ACAD_REACTORS
330
B8884
102
}
330
B8884
100
AcDbXrecord
280
     1
102
RTVSPost2010Prop28
280
     0
102
RTVSPost2010PropOp28
 70
     1
102
RTVSPost2010Prop29
280
     1
102
RTVSPost2010PropOp29
 70
     1
102
RTVSPost2010Prop30
280
     1
102
RTVSPost2010PropOp30
 70
     1
102
RTVSPost2010Prop31
280
     0
102
RTVSPost2010PropOp31
 70
     1
102
RTVSPost2010Prop32
280
     0
102
RTVSPost2010PropOp32
 70
     1
102
RTVSPost2010Prop33
280
     0
102
RTVSPost2010PropOp33
 70
     1
102
RTVSPost2010Prop34
280
     0
102
RTVSPost2010PropOp34
 70
     1
102
RTVSPost2010Prop35
280
     0
102
RTVSPost2010PropOp35
 70
     1
102
RTVSPost2010Prop36
280
     0
102
RTVSPost2010PropOp36
 70
     1
102
RTVSPost2010Prop37
 90
       50
102
RTVSPost2010PropOp37
 70
     1
102
RTVSPost2010Prop38
140
0.0
102
RTVSPost2010PropOp38
 70
     1
102
RTVSPost2010Prop39
140
1.0
102
RTVSPost2010PropOp39
 70
     1
102
RTVSPost2010Prop40
 90
        0
102
RTVSPost2010PropOp40
 70
     1
102
RTVSPost2010Prop41ColorIndex
 90
       18
102
RTVSPost2010Prop41ColorRGB
 90
        0
102
RTVSPost2010PropOp41
 70
     1
102
RTVSPost2010Prop42
 90
       50
102
RTVSPost2010PropOp42
 70
     1
102
RTVSPost2010Prop43
 90
        3
102
RTVSPost2010PropOp43
 70
     1
102
RTVSPost2010Prop44ColorIndex
 90
        5
102
RTVSPost2010Prop44ColorRGB
 90
      255
102
RTVSPost2010PropOp44
 70
     1
102
RTVSPost2010Prop45
280
     0
102
RTVSPost2010PropOp45
 70
     1
102
RTVSPost2010Prop46
 90
       50
102
RTVSPost2010PropOp46
 70
     1
102
RTVSPost2010Prop47
 90
       50
102
RTVSPost2010PropOp47
 70
     1
102
RTVSPost2010Prop48
 90
       50
102
RTVSPost2010PropOp48
 70
     1
102
RTVSPost2010Prop49
280
     0
102
RTVSPost2010PropOp49
 70
     1
102
RTVSPost2010Prop50
 90
       50
102
RTVSPost2010PropOp50
 70
     1
102
RTVSPost2010Prop51ColorIndex
 90
      256
102
RTVSPost2010Prop51ColorRGB
 90
-16777216
102
RTVSPost2010PropOp51
 70
     0
102
RTVSPost2010Prop52
140
1.0
102
RTVSPost2010PropOp52
 70
     0
102
RTVSPost2010Prop53
 90
        2
102
RTVSPost2010PropOp53
 70
     1
102
RTVSPost2010Prop54
  1
strokes_ogs.tif
102
RTVSPost2010PropOp54
 70
     1
102
RTVSPost2010Prop55
280
     0
102
RTVSPost2010PropOp55
 70
     1
102
RTVSPost2010Prop56
140
1.0
102
RTVSPost2010PropOp56
 70
     1
102
RTVSPost2010Prop57
140
1.0
102
RTVSPost2010PropOp57
 70
     1
102
RTVSPropertyOp0
 70
     1
102
RTVSPropertyOp1
 70
     1
102
RTVSPropertyOp2
 70
     1
102
RTVSPropertyOp3
 70
     1
102
RTVSPropertyOp4
 70
     1
102
RTVSPropertyOp5
 70
     1
102
RTVSPropertyOp6
 70
     1
102
RTVSPropertyOp7
 70
     1
102
RTVSPropertyOp8
 70
     1
102
RTVSPropertyOp9
 70
     1
102
RTVSPropertyOp10
 70
     1
102
RTVSPropertyOp11
 70
     1
102
RTVSPropertyOp12
 70
     1
102
RTVSPropertyOp13
 70
     1
102
RTVSPropertyOp14
 70
     1
102
RTVSPropertyOp15
 70
     1
102
RTVSPropertyOp16
 70
     1
102
RTVSPropertyOp17
 70
     1
102
RTVSPropertyOp18
 70
     1
102
RTVSPropertyOp19
 70
     1
102
RTVSPropertyOp20
 70
     1
102
RTVSPropertyOp21
 70
     1
102
RTVSPropertyOp22
 70
     1
102
RTVSPropertyOp23
 70
     1
102
RTVSPropertyOp24
 70
     1
102
RTVSPropertyOp25
 70
     1
102
RTVSPropertyOp26
 70
     1
102
RTVSPropertyOp27
 70
     1
102
RTVSPropertyOp28
 70
     1
102
RTVSPropertyOp29
 70
     1
102
RTVSPropertyOp30
 70
     1
102
RTVSPropertyOp31
 70
     1
102
RTVSPropertyOp32
 70
     1
102
RTVSPropertyOp33
 70
     1
102
RTVSPropertyOp34
 70
     1
102
RTVSPropertyOp35
 70
     1
102
RTVSPropertyOp36
 70
     1
102
RTVSPropertyOp37
 70
     1
102
RTVSPropertyOp38
 70
     1
102
RTVSPropertyOp39
 70
     1
102
RTVSPropertyOp40
 70
     1
102
RTVSPropertyOp41
 70
     1
102
RTVSPropertyOp42
 70
     1
102
RTVSPropertyOp43
 70
     1
102
RTVSPropertyOp44
 70
     1
102
RTVSPropertyOp45
 70
     1
102
RTVSPropertyOp46
 70
     1
102
RTVSPropertyOp47
 70
     1
102
RTVSPropertyOp48
 70
     1
102
RTVSPropertyOp49
 70
     1
102
RTVSPropertyOp50
 70
     1
102
RTVSPropertyOp51
 70
     0
102
RTVSPropertyOp52
 70
     0
102
RTVSPropertyOp53
 70
     1
102
RTVSPropertyOp54
 70
     1
102
RTVSPropertyOp55
 70
     1
102
RTVSPropertyOp56
 70
     1
102
RTVSPropertyOp57
 70
     1
102
RTVSPropertyOp58
 70
     1
102
RTVSPropertyOp59
 70
     1
102
RTVSPropertyOp60
 70
     1
102
RTVSPropertyOp61
 70
     1
102
RTVSPropertyOp62
 70
     1
  0
XRECORD
  5
B8869
102
{ACAD_REACTORS
330
B8868
102
}
330
B8868
100
AcDbXrecord
280
     1
102
RTVSPost2010Prop28
280
     0
102
RTVSPost2010PropOp28
 70
     1
102
RTVSPost2010Prop29
280
     1
102
RTVSPost2010PropOp29
 70
     1
102
RTVSPost2010Prop30
280
     1
102
RTVSPost2010PropOp30
 70
     1
102
RTVSPost2010Prop31
280
     0
102
RTVSPost2010PropOp31
 70
     1
102
RTVSPost2010Prop32
280
     0
102
RTVSPost2010PropOp32
 70
     1
102
RTVSPost2010Prop33
280
     0
102
RTVSPost2010PropOp33
 70
     1
102
RTVSPost2010Prop34
280
     0
102
RTVSPost2010PropOp34
 70
     1
102
RTVSPost2010Prop35
280
     0
102
RTVSPost2010PropOp35
 70
     1
102
RTVSPost2010Prop36
280
     0
102
RTVSPost2010PropOp36
 70
     1
102
RTVSPost2010Prop37
 90
       50
102
RTVSPost2010PropOp37
 70
     1
102
RTVSPost2010Prop38
140
0.0
102
RTVSPost2010PropOp38
 70
     1
102
RTVSPost2010Prop39
140
1.0
102
RTVSPost2010PropOp39
 70
     1
102
RTVSPost2010Prop40
 90
        0
102
RTVSPost2010PropOp40
 70
     1
102
RTVSPost2010Prop41ColorIndex
 90
       18
102
RTVSPost2010Prop41ColorRGB
 90
        0
102
RTVSPost2010PropOp41
 70
     1
102
RTVSPost2010Prop42
 90
       50
102
RTVSPost2010PropOp42
 70
     1
102
RTVSPost2010Prop43
 90
        3
102
RTVSPost2010PropOp43
 70
     1
102
RTVSPost2010Prop44ColorIndex
 90
        5
102
RTVSPost2010Prop44ColorRGB
 90
      255
102
RTVSPost2010PropOp44
 70
     1
102
RTVSPost2010Prop45
280
     0
102
RTVSPost2010PropOp45
 70
     1
102
RTVSPost2010Prop46
 90
       50
102
RTVSPost2010PropOp46
 70
     1
102
RTVSPost2010Prop47
 90
       50
102
RTVSPost2010PropOp47
 70
     1
102
RTVSPost2010Prop48
 90
       50
102
RTVSPost2010PropOp48
 70
     1
102
RTVSPost2010Prop49
280
     0
102
RTVSPost2010PropOp49
 70
     1
102
RTVSPost2010Prop50
 90
       50
102
RTVSPost2010PropOp50
 70
     1
102
RTVSPost2010Prop51ColorIndex
 90
      256
102
RTVSPost2010Prop51ColorRGB
 90
-16777216
102
RTVSPost2010PropOp51
 70
     0
102
RTVSPost2010Prop52
140
1.0
102
RTVSPost2010PropOp52
 70
     0
102
RTVSPost2010Prop53
 90
        2
102
RTVSPost2010PropOp53
 70
     1
102
RTVSPost2010Prop54
  1
strokes_ogs.tif
102
RTVSPost2010PropOp54
 70
     1
102
RTVSPost2010Prop55
280
     0
102
RTVSPost2010PropOp55
 70
     1
102
RTVSPost2010Prop56
140
1.0
102
RTVSPost2010PropOp56
 70
     1
102
RTVSPost2010Prop57
140
1.0
102
RTVSPost2010PropOp57
 70
     1
102
RTVSPropertyOp0
 70
     1
102
RTVSPropertyOp1
 70
     1
102
RTVSPropertyOp2
 70
     1
102
RTVSPropertyOp3
 70
     1
102
RTVSPropertyOp4
 70
     1
102
RTVSPropertyOp5
 70
     1
102
RTVSPropertyOp6
 70
     1
102
RTVSPropertyOp7
 70
     1
102
RTVSPropertyOp8
 70
     1
102
RTVSPropertyOp9
 70
     1
102
RTVSPropertyOp10
 70
     1
102
RTVSPropertyOp11
 70
     1
102
RTVSPropertyOp12
 70
     1
102
RTVSPropertyOp13
 70
     1
102
RTVSPropertyOp14
 70
     1
102
RTVSPropertyOp15
 70
     1
102
RTVSPropertyOp16
 70
     1
102
RTVSPropertyOp17
 70
     1
102
RTVSPropertyOp18
 70
     1
102
RTVSPropertyOp19
 70
     1
102
RTVSPropertyOp20
 70
     1
102
RTVSPropertyOp21
 70
     1
102
RTVSPropertyOp22
 70
     1
102
RTVSPropertyOp23
 70
     1
102
RTVSPropertyOp24
 70
     1
102
RTVSPropertyOp25
 70
     1
102
RTVSPropertyOp26
 70
     1
102
RTVSPropertyOp27
 70
     1
102
RTVSPropertyOp28
 70
     1
102
RTVSPropertyOp29
 70
     1
102
RTVSPropertyOp30
 70
     1
102
RTVSPropertyOp31
 70
     1
102
RTVSPropertyOp32
 70
     1
102
RTVSPropertyOp33
 70
     1
102
RTVSPropertyOp34
 70
     1
102
RTVSPropertyOp35
 70
     1
102
RTVSPropertyOp36
 70
     1
102
RTVSPropertyOp37
 70
     1
102
RTVSPropertyOp38
 70
     1
102
RTVSPropertyOp39
 70
     1
102
RTVSPropertyOp40
 70
     1
102
RTVSPropertyOp41
 70
     1
102
RTVSPropertyOp42
 70
     1
102
RTVSPropertyOp43
 70
     1
102
RTVSPropertyOp44
 70
     1
102
RTVSPropertyOp45
 70
     1
102
RTVSPropertyOp46
 70
     1
102
RTVSPropertyOp47
 70
     1
102
RTVSPropertyOp48
 70
     1
102
RTVSPropertyOp49
 70
     1
102
RTVSPropertyOp50
 70
     1
102
RTVSPropertyOp51
 70
     0
102
RTVSPropertyOp52
 70
     0
102
RTVSPropertyOp53
 70
     1
102
RTVSPropertyOp54
 70
     1
102
RTVSPropertyOp55
 70
     1
102
RTVSPropertyOp56
 70
     1
102
RTVSPropertyOp57
 70
     1
102
RTVSPropertyOp58
 70
     1
102
RTVSPropertyOp59
 70
     1
102
RTVSPropertyOp60
 70
     1
102
RTVSPropertyOp61
 70
     1
102
RTVSPropertyOp62
 70
     1
  0
XRECORD
  5
B886B
102
{ACAD_REACTORS
330
B886A
102
}
330
B886A
100
AcDbXrecord
280
     1
102
RTVSPost2010Prop28
280
     0
102
RTVSPost2010PropOp28
 70
     1
102
RTVSPost2010Prop29
280
     1
102
RTVSPost2010PropOp29
 70
     1
102
RTVSPost2010Prop30
280
     1
102
RTVSPost2010PropOp30
 70
     1
102
RTVSPost2010Prop31
280
     0
102
RTVSPost2010PropOp31
 70
     1
102
RTVSPost2010Prop32
280
     0
102
RTVSPost2010PropOp32
 70
     1
102
RTVSPost2010Prop33
280
     0
102
RTVSPost2010PropOp33
 70
     1
102
RTVSPost2010Prop34
280
     0
102
RTVSPost2010PropOp34
 70
     1
102
RTVSPost2010Prop35
280
     0
102
RTVSPost2010PropOp35
 70
     1
102
RTVSPost2010Prop36
280
     0
102
RTVSPost2010PropOp36
 70
     1
102
RTVSPost2010Prop37
 90
       50
102
RTVSPost2010PropOp37
 70
     1
102
RTVSPost2010Prop38
140
0.0
102
RTVSPost2010PropOp38
 70
     1
102
RTVSPost2010Prop39
140
1.0
102
RTVSPost2010PropOp39
 70
     1
102
RTVSPost2010Prop40
 90
        0
102
RTVSPost2010PropOp40
 70
     1
102
RTVSPost2010Prop41ColorIndex
 90
       18
102
RTVSPost2010Prop41ColorRGB
 90
        0
102
RTVSPost2010PropOp41
 70
     1
102
RTVSPost2010Prop42
 90
       50
102
RTVSPost2010PropOp42
 70
     1
102
RTVSPost2010Prop43
 90
        3
102
RTVSPost2010PropOp43
 70
     1
102
RTVSPost2010Prop44ColorIndex
 90
        5
102
RTVSPost2010Prop44ColorRGB
 90
      255
102
RTVSPost2010PropOp44
 70
     1
102
RTVSPost2010Prop45
280
     0
102
RTVSPost2010PropOp45
 70
     1
102
RTVSPost2010Prop46
 90
       50
102
RTVSPost2010PropOp46
 70
     1
102
RTVSPost2010Prop47
 90
       50
102
RTVSPost2010PropOp47
 70
     1
102
RTVSPost2010Prop48
 90
       50
102
RTVSPost2010PropOp48
 70
     1
102
RTVSPost2010Prop49
280
     0
102
RTVSPost2010PropOp49
 70
     1
102
RTVSPost2010Prop50
 90
       50
102
RTVSPost2010PropOp50
 70
     1
102
RTVSPost2010Prop51ColorIndex
 90
      256
102
RTVSPost2010Prop51ColorRGB
 90
-16777216
102
RTVSPost2010PropOp51
 70
     0
102
RTVSPost2010Prop52
140
1.0
102
RTVSPost2010PropOp52
 70
     0
102
RTVSPost2010Prop53
 90
        2
102
RTVSPost2010PropOp53
 70
     1
102
RTVSPost2010Prop54
  1
strokes_ogs.tif
102
RTVSPost2010PropOp54
 70
     1
102
RTVSPost2010Prop55
280
     0
102
RTVSPost2010PropOp55
 70
     1
102
RTVSPost2010Prop56
140
1.0
102
RTVSPost2010PropOp56
 70
     1
102
RTVSPost2010Prop57
140
1.0
102
RTVSPost2010PropOp57
 70
     1
102
RTVSPropertyOp0
 70
     1
102
RTVSPropertyOp1
 70
     1
102
RTVSPropertyOp2
 70
     1
102
RTVSPropertyOp3
 70
     1
102
RTVSPropertyOp4
 70
     1
102
RTVSPropertyOp5
 70
     1
102
RTVSPropertyOp6
 70
     1
102
RTVSPropertyOp7
 70
     1
102
RTVSPropertyOp8
 70
     1
102
RTVSPropertyOp9
 70
     1
102
RTVSPropertyOp10
 70
     1
102
RTVSPropertyOp11
 70
     1
102
RTVSPropertyOp12
 70
     1
102
RTVSPropertyOp13
 70
     1
102
RTVSPropertyOp14
 70
     1
102
RTVSPropertyOp15
 70
     1
102
RTVSPropertyOp16
 70
     1
102
RTVSPropertyOp17
 70
     1
102
RTVSPropertyOp18
 70
     1
102
RTVSPropertyOp19
 70
     1
102
RTVSPropertyOp20
 70
     1
102
RTVSPropertyOp21
 70
     1
102
RTVSPropertyOp22
 70
     1
102
RTVSPropertyOp23
 70
     1
102
RTVSPropertyOp24
 70
     1
102
RTVSPropertyOp25
 70
     1
102
RTVSPropertyOp26
 70
     1
102
RTVSPropertyOp27
 70
     1
102
RTVSPropertyOp28
 70
     1
102
RTVSPropertyOp29
 70
     1
102
RTVSPropertyOp30
 70
     1
102
RTVSPropertyOp31
 70
     1
102
RTVSPropertyOp32
 70
     1
102
RTVSPropertyOp33
 70
     1
102
RTVSPropertyOp34
 70
     1
102
RTVSPropertyOp35
 70
     1
102
RTVSPropertyOp36
 70
     1
102
RTVSPropertyOp37
 70
     1
102
RTVSPropertyOp38
 70
     1
102
RTVSPropertyOp39
 70
     1
102
RTVSPropertyOp40
 70
     1
102
RTVSPropertyOp41
 70
     1
102
RTVSPropertyOp42
 70
     1
102
RTVSPropertyOp43
 70
     1
102
RTVSPropertyOp44
 70
     1
102
RTVSPropertyOp45
 70
     1
102
RTVSPropertyOp46
 70
     1
102
RTVSPropertyOp47
 70
     1
102
RTVSPropertyOp48
 70
     1
102
RTVSPropertyOp49
 70
     1
102
RTVSPropertyOp50
 70
     1
102
RTVSPropertyOp51
 70
     0
102
RTVSPropertyOp52
 70
     0
102
RTVSPropertyOp53
 70
     1
102
RTVSPropertyOp54
 70
     1
102
RTVSPropertyOp55
 70
     1
102
RTVSPropertyOp56
 70
     1
102
RTVSPropertyOp57
 70
     1
102
RTVSPropertyOp58
 70
     1
102
RTVSPropertyOp59
 70
     1
102
RTVSPropertyOp60
 70
     1
102
RTVSPropertyOp61
 70
     1
102
RTVSPropertyOp62
 70
     1
  0
XRECORD
  5
B886D
102
{ACAD_REACTORS
330
B886C
102
}
330
B886C
100
AcDbXrecord
280
     1
102
RTVSPost2010Prop28
280
     0
102
RTVSPost2010PropOp28
 70
     1
102
RTVSPost2010Prop29
280
     1
102
RTVSPost2010PropOp29
 70
     1
102
RTVSPost2010Prop30
280
     1
102
RTVSPost2010PropOp30
 70
     1
102
RTVSPost2010Prop31
280
     0
102
RTVSPost2010PropOp31
 70
     1
102
RTVSPost2010Prop32
280
     0
102
RTVSPost2010PropOp32
 70
     1
102
RTVSPost2010Prop33
280
     0
102
RTVSPost2010PropOp33
 70
     1
102
RTVSPost2010Prop34
280
     0
102
RTVSPost2010PropOp34
 70
     1
102
RTVSPost2010Prop35
280
     0
102
RTVSPost2010PropOp35
 70
     1
102
RTVSPost2010Prop36
280
     0
102
RTVSPost2010PropOp36
 70
     1
102
RTVSPost2010Prop37
 90
       50
102
RTVSPost2010PropOp37
 70
     1
102
RTVSPost2010Prop38
140
0.0
102
RTVSPost2010PropOp38
 70
     1
102
RTVSPost2010Prop39
140
1.0
102
RTVSPost2010PropOp39
 70
     1
102
RTVSPost2010Prop40
 90
        0
102
RTVSPost2010PropOp40
 70
     1
102
RTVSPost2010Prop41ColorIndex
 90
       18
102
RTVSPost2010Prop41ColorRGB
 90
        0
102
RTVSPost2010PropOp41
 70
     1
102
RTVSPost2010Prop42
 90
       50
102
RTVSPost2010PropOp42
 70
     1
102
RTVSPost2010Prop43
 90
        3
102
RTVSPost2010PropOp43
 70
     1
102
RTVSPost2010Prop44ColorIndex
 90
        5
102
RTVSPost2010Prop44ColorRGB
 90
      255
102
RTVSPost2010PropOp44
 70
     1
102
RTVSPost2010Prop45
280
     0
102
RTVSPost2010PropOp45
 70
     1
102
RTVSPost2010Prop46
 90
       50
102
RTVSPost2010PropOp46
 70
     1
102
RTVSPost2010Prop47
 90
       50
102
RTVSPost2010PropOp47
 70
     1
102
RTVSPost2010Prop48
 90
       50
102
RTVSPost2010PropOp48
 70
     1
102
RTVSPost2010Prop49
280
     0
102
RTVSPost2010PropOp49
 70
     1
102
RTVSPost2010Prop50
 90
       50
102
RTVSPost2010PropOp50
 70
     1
102
RTVSPost2010Prop51ColorIndex
 90
      256
102
RTVSPost2010Prop51ColorRGB
 90
-16777216
102
RTVSPost2010PropOp51
 70
     0
102
RTVSPost2010Prop52
140
1.0
102
RTVSPost2010PropOp52
 70
     0
102
RTVSPost2010Prop53
 90
        2
102
RTVSPost2010PropOp53
 70
     1
102
RTVSPost2010Prop54
  1
strokes_ogs.tif
102
RTVSPost2010PropOp54
 70
     1
102
RTVSPost2010Prop55
280
     0
102
RTVSPost2010PropOp55
 70
     1
102
RTVSPost2010Prop56
140
1.0
102
RTVSPost2010PropOp56
 70
     1
102
RTVSPost2010Prop57
140
1.0
102
RTVSPost2010PropOp57
 70
     1
102
RTVSPropertyOp0
 70
     1
102
RTVSPropertyOp1
 70
     1
102
RTVSPropertyOp2
 70
     1
102
RTVSPropertyOp3
 70
     1
102
RTVSPropertyOp4
 70
     1
102
RTVSPropertyOp5
 70
     1
102
RTVSPropertyOp6
 70
     1
102
RTVSPropertyOp7
 70
     1
102
RTVSPropertyOp8
 70
     1
102
RTVSPropertyOp9
 70
     1
102
RTVSPropertyOp10
 70
     1
102
RTVSPropertyOp11
 70
     1
102
RTVSPropertyOp12
 70
     1
102
RTVSPropertyOp13
 70
     1
102
RTVSPropertyOp14
 70
     1
102
RTVSPropertyOp15
 70
     1
102
RTVSPropertyOp16
 70
     1
102
RTVSPropertyOp17
 70
     1
102
RTVSPropertyOp18
 70
     1
102
RTVSPropertyOp19
 70
     1
102
RTVSPropertyOp20
 70
     1
102
RTVSPropertyOp21
 70
     1
102
RTVSPropertyOp22
 70
     1
102
RTVSPropertyOp23
 70
     1
102
RTVSPropertyOp24
 70
     1
102
RTVSPropertyOp25
 70
     1
102
RTVSPropertyOp26
 70
     1
102
RTVSPropertyOp27
 70
     1
102
RTVSPropertyOp28
 70
     1
102
RTVSPropertyOp29
 70
     1
102
RTVSPropertyOp30
 70
     1
102
RTVSPropertyOp31
 70
     1
102
RTVSPropertyOp32
 70
     1
102
RTVSPropertyOp33
 70
     1
102
RTVSPropertyOp34
 70
     1
102
RTVSPropertyOp35
 70
     1
102
RTVSPropertyOp36
 70
     1
102
RTVSPropertyOp37
 70
     1
102
RTVSPropertyOp38
 70
     1
102
RTVSPropertyOp39
 70
     1
102
RTVSPropertyOp40
 70
     1
102
RTVSPropertyOp41
 70
     1
102
RTVSPropertyOp42
 70
     1
102
RTVSPropertyOp43
 70
     1
102
RTVSPropertyOp44
 70
     1
102
RTVSPropertyOp45
 70
     1
102
RTVSPropertyOp46
 70
     1
102
RTVSPropertyOp47
 70
     1
102
RTVSPropertyOp48
 70
     1
102
RTVSPropertyOp49
 70
     1
102
RTVSPropertyOp50
 70
     1
102
RTVSPropertyOp51
 70
     0
102
RTVSPropertyOp52
 70
     0
102
RTVSPropertyOp53
 70
     1
102
RTVSPropertyOp54
 70
     1
102
RTVSPropertyOp55
 70
     1
102
RTVSPropertyOp56
 70
     1
102
RTVSPropertyOp57
 70
     1
102
RTVSPropertyOp58
 70
     1
102
RTVSPropertyOp59
 70
     1
102
RTVSPropertyOp60
 70
     1
102
RTVSPropertyOp61
 70
     1
102
RTVSPropertyOp62
 70
     1
  0
XRECORD
  5
B886F
102
{ACAD_REACTORS
330
B886E
102
}
330
B886E
100
AcDbXrecord
280
     1
102
RTVSPost2010Prop28
280
     0
102
RTVSPost2010PropOp28
 70
     1
102
RTVSPost2010Prop29
280
     1
102
RTVSPost2010PropOp29
 70
     1
102
RTVSPost2010Prop30
280
     1
102
RTVSPost2010PropOp30
 70
     1
102
RTVSPost2010Prop31
280
     0
102
RTVSPost2010PropOp31
 70
     1
102
RTVSPost2010Prop32
280
     0
102
RTVSPost2010PropOp32
 70
     1
102
RTVSPost2010Prop33
280
     0
102
RTVSPost2010PropOp33
 70
     1
102
RTVSPost2010Prop34
280
     0
102
RTVSPost2010PropOp34
 70
     1
102
RTVSPost2010Prop35
280
     0
102
RTVSPost2010PropOp35
 70
     1
102
RTVSPost2010Prop36
280
     0
102
RTVSPost2010PropOp36
 70
     1
102
RTVSPost2010Prop37
 90
       50
102
RTVSPost2010PropOp37
 70
     1
102
RTVSPost2010Prop38
140
0.0
102
RTVSPost2010PropOp38
 70
     1
102
RTVSPost2010Prop39
140
1.0
102
RTVSPost2010PropOp39
 70
     1
102
RTVSPost2010Prop40
 90
        0
102
RTVSPost2010PropOp40
 70
     1
102
RTVSPost2010Prop41ColorIndex
 90
       18
102
RTVSPost2010Prop41ColorRGB
 90
        0
102
RTVSPost2010PropOp41
 70
     1
102
RTVSPost2010Prop42
 90
       50
102
RTVSPost2010PropOp42
 70
     1
102
RTVSPost2010Prop43
 90
        3
102
RTVSPost2010PropOp43
 70
     1
102
RTVSPost2010Prop44ColorIndex
 90
        5
102
RTVSPost2010Prop44ColorRGB
 90
      255
102
RTVSPost2010PropOp44
 70
     1
102
RTVSPost2010Prop45
280
     0
102
RTVSPost2010PropOp45
 70
     1
102
RTVSPost2010Prop46
 90
       50
102
RTVSPost2010PropOp46
 70
     1
102
RTVSPost2010Prop47
 90
       50
102
RTVSPost2010PropOp47
 70
     1
102
RTVSPost2010Prop48
 90
       50
102
RTVSPost2010PropOp48
 70
     1
102
RTVSPost2010Prop49
280
     0
102
RTVSPost2010PropOp49
 70
     1
102
RTVSPost2010Prop50
 90
       50
102
RTVSPost2010PropOp50
 70
     1
102
RTVSPost2010Prop51ColorIndex
 90
      256
102
RTVSPost2010Prop51ColorRGB
 90
-16777216
102
RTVSPost2010PropOp51
 70
     0
102
RTVSPost2010Prop52
140
1.0
102
RTVSPost2010PropOp52
 70
     0
102
RTVSPost2010Prop53
 90
        2
102
RTVSPost2010PropOp53
 70
     1
102
RTVSPost2010Prop54
  1
strokes_ogs.tif
102
RTVSPost2010PropOp54
 70
     1
102
RTVSPost2010Prop55
280
     0
102
RTVSPost2010PropOp55
 70
     1
102
RTVSPost2010Prop56
140
1.0
102
RTVSPost2010PropOp56
 70
     1
102
RTVSPost2010Prop57
140
1.0
102
RTVSPost2010PropOp57
 70
     1
102
RTVSPropertyOp0
 70
     1
102
RTVSPropertyOp1
 70
     1
102
RTVSPropertyOp2
 70
     1
102
RTVSPropertyOp3
 70
     1
102
RTVSPropertyOp4
 70
     1
102
RTVSPropertyOp5
 70
     1
102
RTVSPropertyOp6
 70
     1
102
RTVSPropertyOp7
 70
     1
102
RTVSPropertyOp8
 70
     1
102
RTVSPropertyOp9
 70
     1
102
RTVSPropertyOp10
 70
     1
102
RTVSPropertyOp11
 70
     1
102
RTVSPropertyOp12
 70
     1
102
RTVSPropertyOp13
 70
     1
102
RTVSPropertyOp14
 70
     1
102
RTVSPropertyOp15
 70
     1
102
RTVSPropertyOp16
 70
     1
102
RTVSPropertyOp17
 70
     1
102
RTVSPropertyOp18
 70
     1
102
RTVSPropertyOp19
 70
     1
102
RTVSPropertyOp20
 70
     1
102
RTVSPropertyOp21
 70
     1
102
RTVSPropertyOp22
 70
     1
102
RTVSPropertyOp23
 70
     1
102
RTVSPropertyOp24
 70
     1
102
RTVSPropertyOp25
 70
     1
102
RTVSPropertyOp26
 70
     1
102
RTVSPropertyOp27
 70
     1
102
RTVSPropertyOp28
 70
     1
102
RTVSPropertyOp29
 70
     1
102
RTVSPropertyOp30
 70
     1
102
RTVSPropertyOp31
 70
     1
102
RTVSPropertyOp32
 70
     1
102
RTVSPropertyOp33
 70
     1
102
RTVSPropertyOp34
 70
     1
102
RTVSPropertyOp35
 70
     1
102
RTVSPropertyOp36
 70
     1
102
RTVSPropertyOp37
 70
     1
102
RTVSPropertyOp38
 70
     1
102
RTVSPropertyOp39
 70
     1
102
RTVSPropertyOp40
 70
     1
102
RTVSPropertyOp41
 70
     1
102
RTVSPropertyOp42
 70
     1
102
RTVSPropertyOp43
 70
     1
102
RTVSPropertyOp44
 70
     1
102
RTVSPropertyOp45
 70
     1
102
RTVSPropertyOp46
 70
     1
102
RTVSPropertyOp47
 70
     1
102
RTVSPropertyOp48
 70
     1
102
RTVSPropertyOp49
 70
     1
102
RTVSPropertyOp50
 70
     1
102
RTVSPropertyOp51
 70
     0
102
RTVSPropertyOp52
 70
     0
102
RTVSPropertyOp53
 70
     1
102
RTVSPropertyOp54
 70
     1
102
RTVSPropertyOp55
 70
     1
102
RTVSPropertyOp56
 70
     1
102
RTVSPropertyOp57
 70
     1
102
RTVSPropertyOp58
 70
     1
102
RTVSPropertyOp59
 70
     1
102
RTVSPropertyOp60
 70
     1
102
RTVSPropertyOp61
 70
     1
102
RTVSPropertyOp62
 70
     1
  0
XRECORD
  5
B8875
102
{ACAD_REACTORS
330
B8874
102
}
330
B8874
100
AcDbXrecord
280
     1
102
RTVSPost2010Prop28
280
     0
102
RTVSPost2010PropOp28
 70
     1
102
RTVSPost2010Prop29
280
     1
102
RTVSPost2010PropOp29
 70
     1
102
RTVSPost2010Prop30
280
     1
102
RTVSPost2010PropOp30
 70
     1
102
RTVSPost2010Prop31
280
     0
102
RTVSPost2010PropOp31
 70
     1
102
RTVSPost2010Prop32
280
     0
102
RTVSPost2010PropOp32
 70
     1
102
RTVSPost2010Prop33
280
     0
102
RTVSPost2010PropOp33
 70
     1
102
RTVSPost2010Prop34
280
     0
102
RTVSPost2010PropOp34
 70
     1
102
RTVSPost2010Prop35
280
     0
102
RTVSPost2010PropOp35
 70
     1
102
RTVSPost2010Prop36
280
     0
102
RTVSPost2010PropOp36
 70
     1
102
RTVSPost2010Prop37
 90
       50
102
RTVSPost2010PropOp37
 70
     1
102
RTVSPost2010Prop38
140
0.0
102
RTVSPost2010PropOp38
 70
     1
102
RTVSPost2010Prop39
140
1.0
102
RTVSPost2010PropOp39
 70
     1
102
RTVSPost2010Prop40
 90
        0
102
RTVSPost2010PropOp40
 70
     1
102
RTVSPost2010Prop41ColorIndex
 90
       18
102
RTVSPost2010Prop41ColorRGB
 90
        0
102
RTVSPost2010PropOp41
 70
     1
102
RTVSPost2010Prop42
 90
       50
102
RTVSPost2010PropOp42
 70
     1
102
RTVSPost2010Prop43
 90
        3
102
RTVSPost2010PropOp43
 70
     1
102
RTVSPost2010Prop44ColorIndex
 90
        5
102
RTVSPost2010Prop44ColorRGB
 90
      255
102
RTVSPost2010PropOp44
 70
     1
102
RTVSPost2010Prop45
280
     0
102
RTVSPost2010PropOp45
 70
     1
102
RTVSPost2010Prop46
 90
       50
102
RTVSPost2010PropOp46
 70
     1
102
RTVSPost2010Prop47
 90
       50
102
RTVSPost2010PropOp47
 70
     1
102
RTVSPost2010Prop48
 90
       50
102
RTVSPost2010PropOp48
 70
     1
102
RTVSPost2010Prop49
280
     0
102
RTVSPost2010PropOp49
 70
     1
102
RTVSPost2010Prop50
 90
       50
102
RTVSPost2010PropOp50
 70
     1
102
RTVSPost2010Prop51ColorIndex
 90
      256
102
RTVSPost2010Prop51ColorRGB
 90
-16777216
102
RTVSPost2010PropOp51
 70
     0
102
RTVSPost2010Prop52
140
1.0
102
RTVSPost2010PropOp52
 70
     0
102
RTVSPost2010Prop53
 90
        2
102
RTVSPost2010PropOp53
 70
     1
102
RTVSPost2010Prop54
  1
strokes_ogs.tif
102
RTVSPost2010PropOp54
 70
     1
102
RTVSPost2010Prop55
280
     0
102
RTVSPost2010PropOp55
 70
     1
102
RTVSPost2010Prop56
140
1.0
102
RTVSPost2010PropOp56
 70
     1
102
RTVSPost2010Prop57
140
1.0
102
RTVSPost2010PropOp57
 70
     1
102
RTVSPropertyOp0
 70
     1
102
RTVSPropertyOp1
 70
     1
102
RTVSPropertyOp2
 70
     1
102
RTVSPropertyOp3
 70
     1
102
RTVSPropertyOp4
 70
     1
102
RTVSPropertyOp5
 70
     1
102
RTVSPropertyOp6
 70
     1
102
RTVSPropertyOp7
 70
     1
102
RTVSPropertyOp8
 70
     1
102
RTVSPropertyOp9
 70
     1
102
RTVSPropertyOp10
 70
     1
102
RTVSPropertyOp11
 70
     1
102
RTVSPropertyOp12
 70
     1
102
RTVSPropertyOp13
 70
     1
102
RTVSPropertyOp14
 70
     1
102
RTVSPropertyOp15
 70
     1
102
RTVSPropertyOp16
 70
     1
102
RTVSPropertyOp17
 70
     1
102
RTVSPropertyOp18
 70
     1
102
RTVSPropertyOp19
 70
     1
102
RTVSPropertyOp20
 70
     1
102
RTVSPropertyOp21
 70
     1
102
RTVSPropertyOp22
 70
     1
102
RTVSPropertyOp23
 70
     1
102
RTVSPropertyOp24
 70
     1
102
RTVSPropertyOp25
 70
     1
102
RTVSPropertyOp26
 70
     1
102
RTVSPropertyOp27
 70
     1
102
RTVSPropertyOp28
 70
     1
102
RTVSPropertyOp29
 70
     1
102
RTVSPropertyOp30
 70
     1
102
RTVSPropertyOp31
 70
     1
102
RTVSPropertyOp32
 70
     1
102
RTVSPropertyOp33
 70
     1
102
RTVSPropertyOp34
 70
     1
102
RTVSPropertyOp35
 70
     1
102
RTVSPropertyOp36
 70
     1
102
RTVSPropertyOp37
 70
     1
102
RTVSPropertyOp38
 70
     1
102
RTVSPropertyOp39
 70
     1
102
RTVSPropertyOp40
 70
     1
102
RTVSPropertyOp41
 70
     1
102
RTVSPropertyOp42
 70
     1
102
RTVSPropertyOp43
 70
     1
102
RTVSPropertyOp44
 70
     1
102
RTVSPropertyOp45
 70
     1
102
RTVSPropertyOp46
 70
     1
102
RTVSPropertyOp47
 70
     1
102
RTVSPropertyOp48
 70
     1
102
RTVSPropertyOp49
 70
     1
102
RTVSPropertyOp50
 70
     1
102
RTVSPropertyOp51
 70
     0
102
RTVSPropertyOp52
 70
     0
102
RTVSPropertyOp53
 70
     1
102
RTVSPropertyOp54
 70
     1
102
RTVSPropertyOp55
 70
     1
102
RTVSPropertyOp56
 70
     1
102
RTVSPropertyOp57
 70
     1
102
RTVSPropertyOp58
 70
     1
102
RTVSPropertyOp59
 70
     1
102
RTVSPropertyOp60
 70
     1
102
RTVSPropertyOp61
 70
     1
102
RTVSPropertyOp62
 70
     1
  0
XRECORD
  5
B8889
102
{ACAD_REACTORS
330
B8888
102
}
330
B8888
100
AcDbXrecord
280
     1
102
RTVSPost2010Prop28
280
     0
102
RTVSPost2010PropOp28
 70
     0
102
RTVSPost2010Prop29
280
     1
102
RTVSPost2010PropOp29
 70
     0
102
RTVSPost2010Prop30
280
     1
102
RTVSPost2010PropOp30
 70
     0
102
RTVSPost2010Prop31
280
     0
102
RTVSPost2010PropOp31
 70
     0
102
RTVSPost2010Prop32
280
     0
102
RTVSPost2010PropOp32
 70
     0
102
RTVSPost2010Prop33
280
     0
102
RTVSPost2010PropOp33
 70
     0
102
RTVSPost2010Prop34
280
     0
102
RTVSPost2010PropOp34
 70
     0
102
RTVSPost2010Prop35
280
     0
102
RTVSPost2010PropOp35
 70
     0
102
RTVSPost2010Prop36
280
     0
102
RTVSPost2010PropOp36
 70
     0
102
RTVSPost2010Prop37
 90
       50
102
RTVSPost2010PropOp37
 70
     0
102
RTVSPost2010Prop38
140
0.0
102
RTVSPost2010PropOp38
 70
     0
102
RTVSPost2010Prop39
140
1.0
102
RTVSPost2010PropOp39
 70
     0
102
RTVSPost2010Prop40
 90
        0
102
RTVSPost2010PropOp40
 70
     0
102
RTVSPost2010Prop41ColorIndex
 90
       18
102
RTVSPost2010Prop41ColorRGB
 90
        0
102
RTVSPost2010PropOp41
 70
     0
102
RTVSPost2010Prop42
 90
       50
102
RTVSPost2010PropOp42
 70
     0
102
RTVSPost2010Prop43
 90
        3
102
RTVSPost2010PropOp43
 70
     0
102
RTVSPost2010Prop44ColorIndex
 90
        5
102
RTVSPost2010Prop44ColorRGB
 90
      255
102
RTVSPost2010PropOp44
 70
     0
102
RTVSPost2010Prop45
280
     0
102
RTVSPost2010PropOp45
 70
     0
102
RTVSPost2010Prop46
 90
       50
102
RTVSPost2010PropOp46
 70
     0
102
RTVSPost2010Prop47
 90
       50
102
RTVSPost2010PropOp47
 70
     0
102
RTVSPost2010Prop48
 90
       50
102
RTVSPost2010PropOp48
 70
     0
102
RTVSPost2010Prop49
280
     0
102
RTVSPost2010PropOp49
 70
     0
102
RTVSPost2010Prop50
 90
       50
102
RTVSPost2010PropOp50
 70
     0
102
RTVSPost2010Prop51ColorIndex
 90
      256
102
RTVSPost2010Prop51ColorRGB
 90
-16777216
102
RTVSPost2010PropOp51
 70
     0
102
RTVSPost2010Prop52
140
1.0
102
RTVSPost2010PropOp52
 70
     0
102
RTVSPost2010Prop53
 90
        2
102
RTVSPost2010PropOp53
 70
     0
102
RTVSPost2010Prop54
  1
strokes_ogs.tif
102
RTVSPost2010PropOp54
 70
     0
102
RTVSPost2010Prop55
280
     0
102
RTVSPost2010PropOp55
 70
     0
102
RTVSPost2010Prop56
140
1.0
102
RTVSPost2010PropOp56
 70
     0
102
RTVSPost2010Prop57
140
1.0
102
RTVSPost2010PropOp57
 70
     0
102
RTVSPropertyOp0
 70
     0
102
RTVSPropertyOp1
 70
     0
102
RTVSPropertyOp2
 70
     0
102
RTVSPropertyOp3
 70
     0
102
RTVSPropertyOp4
 70
     0
102
RTVSPropertyOp5
 70
     0
102
RTVSPropertyOp6
 70
     0
102
RTVSPropertyOp7
 70
     0
102
RTVSPropertyOp8
 70
     0
102
RTVSPropertyOp9
 70
     0
102
RTVSPropertyOp10
 70
     0
102
RTVSPropertyOp11
 70
     0
102
RTVSPropertyOp12
 70
     0
102
RTVSPropertyOp13
 70
     0
102
RTVSPropertyOp14
 70
     2
102
RTVSPropertyOp15
 70
     0
102
RTVSPropertyOp16
 70
     0
102
RTVSPropertyOp17
 70
     0
102
RTVSPropertyOp18
 70
     0
102
RTVSPropertyOp19
 70
     0
102
RTVSPropertyOp20
 70
     0
102
RTVSPropertyOp21
 70
     0
102
RTVSPropertyOp22
 70
     0
102
RTVSPropertyOp23
 70
     0
102
RTVSPropertyOp24
 70
     0
102
RTVSPropertyOp25
 70
     0
102
RTVSPropertyOp26
 70
     0
102
RTVSPropertyOp27
 70
     0
102
RTVSPropertyOp28
 70
     0
102
RTVSPropertyOp29
 70
     0
102
RTVSPropertyOp30
 70
     0
102
RTVSPropertyOp31
 70
     0
102
RTVSPropertyOp32
 70
     0
102
RTVSPropertyOp33
 70
     0
102
RTVSPropertyOp34
 70
     0
102
RTVSPropertyOp35
 70
     0
102
RTVSPropertyOp36
 70
     0
102
RTVSPropertyOp37
 70
     0
102
RTVSPropertyOp38
 70
     0
102
RTVSPropertyOp39
 70
     0
102
RTVSPropertyOp40
 70
     0
102
RTVSPropertyOp41
 70
     0
102
RTVSPropertyOp42
 70
     0
102
RTVSPropertyOp43
 70
     0
102
RTVSPropertyOp44
 70
     0
102
RTVSPropertyOp45
 70
     0
102
RTVSPropertyOp46
 70
     0
102
RTVSPropertyOp47
 70
     0
102
RTVSPropertyOp48
 70
     0
102
RTVSPropertyOp49
 70
     0
102
RTVSPropertyOp50
 70
     0
102
RTVSPropertyOp51
 70
     0
102
RTVSPropertyOp52
 70
     0
102
RTVSPropertyOp53
 70
     0
102
RTVSPropertyOp54
 70
     0
102
RTVSPropertyOp55
 70
     0
102
RTVSPropertyOp56
 70
     0
102
RTVSPropertyOp57
 70
     0
102
RTVSPropertyOp58
 70
     1
102
RTVSPropertyOp59
 70
     1
102
RTVSPropertyOp60
 70
     1
102
RTVSPropertyOp61
 70
     1
102
RTVSPropertyOp62
 70
     1
  0
XRECORD
  5
B8883
102
{ACAD_REACTORS
330
B8882
102
}
330
B8882
100
AcDbXrecord
280
     1
102
RTVSPost2010Prop28
280
     0
102
RTVSPost2010PropOp28
 70
     1
102
RTVSPost2010Prop29
280
     1
102
RTVSPost2010PropOp29
 70
     1
102
RTVSPost2010Prop30
280
     1
102
RTVSPost2010PropOp30
 70
     1
102
RTVSPost2010Prop31
280
     0
102
RTVSPost2010PropOp31
 70
     1
102
RTVSPost2010Prop32
280
     0
102
RTVSPost2010PropOp32
 70
     1
102
RTVSPost2010Prop33
280
     0
102
RTVSPost2010PropOp33
 70
     1
102
RTVSPost2010Prop34
280
     0
102
RTVSPost2010PropOp34
 70
     1
102
RTVSPost2010Prop35
280
     0
102
RTVSPost2010PropOp35
 70
     1
102
RTVSPost2010Prop36
280
     0
102
RTVSPost2010PropOp36
 70
     1
102
RTVSPost2010Prop37
 90
       50
102
RTVSPost2010PropOp37
 70
     1
102
RTVSPost2010Prop38
140
0.0
102
RTVSPost2010PropOp38
 70
     1
102
RTVSPost2010Prop39
140
1.0
102
RTVSPost2010PropOp39
 70
     1
102
RTVSPost2010Prop40
 90
        0
102
RTVSPost2010PropOp40
 70
     1
102
RTVSPost2010Prop41ColorIndex
 90
       18
102
RTVSPost2010Prop41ColorRGB
 90
        0
102
RTVSPost2010PropOp41
 70
     1
102
RTVSPost2010Prop42
 90
       50
102
RTVSPost2010PropOp42
 70
     1
102
RTVSPost2010Prop43
 90
        3
102
RTVSPost2010PropOp43
 70
     1
102
RTVSPost2010Prop44ColorIndex
 90
        5
102
RTVSPost2010Prop44ColorRGB
 90
      255
102
RTVSPost2010PropOp44
 70
     1
102
RTVSPost2010Prop45
280
     0
102
RTVSPost2010PropOp45
 70
     1
102
RTVSPost2010Prop46
 90
       50
102
RTVSPost2010PropOp46
 70
     1
102
RTVSPost2010Prop47
 90
       50
102
RTVSPost2010PropOp47
 70
     1
102
RTVSPost2010Prop48
 90
       50
102
RTVSPost2010PropOp48
 70
     1
102
RTVSPost2010Prop49
280
     0
102
RTVSPost2010PropOp49
 70
     1
102
RTVSPost2010Prop50
 90
       50
102
RTVSPost2010PropOp50
 70
     1
102
RTVSPost2010Prop51ColorIndex
 90
      256
102
RTVSPost2010Prop51ColorRGB
 90
-16777216
102
RTVSPost2010PropOp51
 70
     0
102
RTVSPost2010Prop52
140
1.0
102
RTVSPost2010PropOp52
 70
     0
102
RTVSPost2010Prop53
 90
        2
102
RTVSPost2010PropOp53
 70
     1
102
RTVSPost2010Prop54
  1
strokes_ogs.tif
102
RTVSPost2010PropOp54
 70
     1
102
RTVSPost2010Prop55
280
     0
102
RTVSPost2010PropOp55
 70
     1
102
RTVSPost2010Prop56
140
1.0
102
RTVSPost2010PropOp56
 70
     1
102
RTVSPost2010Prop57
140
1.0
102
RTVSPost2010PropOp57
 70
     1
102
RTVSPropertyOp0
 70
     1
102
RTVSPropertyOp1
 70
     1
102
RTVSPropertyOp2
 70
     1
102
RTVSPropertyOp3
 70
     1
102
RTVSPropertyOp4
 70
     1
102
RTVSPropertyOp5
 70
     1
102
RTVSPropertyOp6
 70
     1
102
RTVSPropertyOp7
 70
     1
102
RTVSPropertyOp8
 70
     1
102
RTVSPropertyOp9
 70
     1
102
RTVSPropertyOp10
 70
     1
102
RTVSPropertyOp11
 70
     1
102
RTVSPropertyOp12
 70
     1
102
RTVSPropertyOp13
 70
     1
102
RTVSPropertyOp14
 70
     1
102
RTVSPropertyOp15
 70
     1
102
RTVSPropertyOp16
 70
     1
102
RTVSPropertyOp17
 70
     1
102
RTVSPropertyOp18
 70
     1
102
RTVSPropertyOp19
 70
     1
102
RTVSPropertyOp20
 70
     1
102
RTVSPropertyOp21
 70
     1
102
RTVSPropertyOp22
 70
     1
102
RTVSPropertyOp23
 70
     1
102
RTVSPropertyOp24
 70
     1
102
RTVSPropertyOp25
 70
     1
102
RTVSPropertyOp26
 70
     1
102
RTVSPropertyOp27
 70
     1
102
RTVSPropertyOp28
 70
     1
102
RTVSPropertyOp29
 70
     1
102
RTVSPropertyOp30
 70
     1
102
RTVSPropertyOp31
 70
     1
102
RTVSPropertyOp32
 70
     1
102
RTVSPropertyOp33
 70
     1
102
RTVSPropertyOp34
 70
     1
102
RTVSPropertyOp35
 70
     1
102
RTVSPropertyOp36
 70
     1
102
RTVSPropertyOp37
 70
     1
102
RTVSPropertyOp38
 70
     1
102
RTVSPropertyOp39
 70
     1
102
RTVSPropertyOp40
 70
     1
102
RTVSPropertyOp41
 70
     1
102
RTVSPropertyOp42
 70
     1
102
RTVSPropertyOp43
 70
     1
102
RTVSPropertyOp44
 70
     1
102
RTVSPropertyOp45
 70
     1
102
RTVSPropertyOp46
 70
     1
102
RTVSPropertyOp47
 70
     1
102
RTVSPropertyOp48
 70
     1
102
RTVSPropertyOp49
 70
     1
102
RTVSPropertyOp50
 70
     1
102
RTVSPropertyOp51
 70
     0
102
RTVSPropertyOp52
 70
     0
102
RTVSPropertyOp53
 70
     1
102
RTVSPropertyOp54
 70
     1
102
RTVSPropertyOp55
 70
     1
102
RTVSPropertyOp56
 70
     1
102
RTVSPropertyOp57
 70
     1
102
RTVSPropertyOp58
 70
     1
102
RTVSPropertyOp59
 70
     1
102
RTVSPropertyOp60
 70
     1
102
RTVSPropertyOp61
 70
     1
102
RTVSPropertyOp62
 70
     1
  0
XRECORD
  5
B888B
102
{ACAD_REACTORS
330
B888A
102
}
330
B888A
100
AcDbXrecord
280
     1
102
RTVSPost2010Prop28
280
     0
102
RTVSPost2010PropOp28
 70
     0
102
RTVSPost2010Prop29
280
     1
102
RTVSPost2010PropOp29
 70
     0
102
RTVSPost2010Prop30
280
     1
102
RTVSPost2010PropOp30
 70
     0
102
RTVSPost2010Prop31
280
     0
102
RTVSPost2010PropOp31
 70
     0
102
RTVSPost2010Prop32
280
     0
102
RTVSPost2010PropOp32
 70
     0
102
RTVSPost2010Prop33
280
     0
102
RTVSPost2010PropOp33
 70
     0
102
RTVSPost2010Prop34
280
     0
102
RTVSPost2010PropOp34
 70
     0
102
RTVSPost2010Prop35
280
     0
102
RTVSPost2010PropOp35
 70
     0
102
RTVSPost2010Prop36
280
     0
102
RTVSPost2010PropOp36
 70
     0
102
RTVSPost2010Prop37
 90
       50
102
RTVSPost2010PropOp37
 70
     0
102
RTVSPost2010Prop38
140
0.0
102
RTVSPost2010PropOp38
 70
     0
102
RTVSPost2010Prop39
140
1.0
102
RTVSPost2010PropOp39
 70
     0
102
RTVSPost2010Prop40
 90
        0
102
RTVSPost2010PropOp40
 70
     0
102
RTVSPost2010Prop41ColorIndex
 90
       18
102
RTVSPost2010Prop41ColorRGB
 90
        0
102
RTVSPost2010PropOp41
 70
     0
102
RTVSPost2010Prop42
 90
       50
102
RTVSPost2010PropOp42
 70
     0
102
RTVSPost2010Prop43
 90
        3
102
RTVSPost2010PropOp43
 70
     0
102
RTVSPost2010Prop44ColorIndex
 90
        5
102
RTVSPost2010Prop44ColorRGB
 90
      255
102
RTVSPost2010PropOp44
 70
     0
102
RTVSPost2010Prop45
280
     0
102
RTVSPost2010PropOp45
 70
     0
102
RTVSPost2010Prop46
 90
       50
102
RTVSPost2010PropOp46
 70
     0
102
RTVSPost2010Prop47
 90
       50
102
RTVSPost2010PropOp47
 70
     0
102
RTVSPost2010Prop48
 90
       50
102
RTVSPost2010PropOp48
 70
     0
102
RTVSPost2010Prop49
280
     0
102
RTVSPost2010PropOp49
 70
     0
102
RTVSPost2010Prop50
 90
       50
102
RTVSPost2010PropOp50
 70
     0
102
RTVSPost2010Prop51ColorIndex
 90
      256
102
RTVSPost2010Prop51ColorRGB
 90
-16777216
102
RTVSPost2010PropOp51
 70
     0
102
RTVSPost2010Prop52
140
1.0
102
RTVSPost2010PropOp52
 70
     0
102
RTVSPost2010Prop53
 90
        2
102
RTVSPost2010PropOp53
 70
     0
102
RTVSPost2010Prop54
  1
strokes_ogs.tif
102
RTVSPost2010PropOp54
 70
     0
102
RTVSPost2010Prop55
280
     0
102
RTVSPost2010PropOp55
 70
     0
102
RTVSPost2010Prop56
140
1.0
102
RTVSPost2010PropOp56
 70
     0
102
RTVSPost2010Prop57
140
1.0
102
RTVSPost2010PropOp57
 70
     0
102
RTVSPropertyOp0
 70
     0
102
RTVSPropertyOp1
 70
     0
102
RTVSPropertyOp2
 70
     0
102
RTVSPropertyOp3
 70
     0
102
RTVSPropertyOp4
 70
     0
102
RTVSPropertyOp5
 70
     0
102
RTVSPropertyOp6
 70
     0
102
RTVSPropertyOp7
 70
     0
102
RTVSPropertyOp8
 70
     0
102
RTVSPropertyOp9
 70
     0
102
RTVSPropertyOp10
 70
     0
102
RTVSPropertyOp11
 70
     0
102
RTVSPropertyOp12
 70
     0
102
RTVSPropertyOp13
 70
     0
102
RTVSPropertyOp14
 70
     2
102
RTVSPropertyOp15
 70
     0
102
RTVSPropertyOp16
 70
     0
102
RTVSPropertyOp17
 70
     0
102
RTVSPropertyOp18
 70
     0
102
RTVSPropertyOp19
 70
     0
102
RTVSPropertyOp20
 70
     0
102
RTVSPropertyOp21
 70
     0
102
RTVSPropertyOp22
 70
     0
102
RTVSPropertyOp23
 70
     0
102
RTVSPropertyOp24
 70
     0
102
RTVSPropertyOp25
 70
     0
102
RTVSPropertyOp26
 70
     0
102
RTVSPropertyOp27
 70
     0
102
RTVSPropertyOp28
 70
     0
102
RTVSPropertyOp29
 70
     0
102
RTVSPropertyOp30
 70
     0
102
RTVSPropertyOp31
 70
     0
102
RTVSPropertyOp32
 70
     0
102
RTVSPropertyOp33
 70
     0
102
RTVSPropertyOp34
 70
     0
102
RTVSPropertyOp35
 70
     0
102
RTVSPropertyOp36
 70
     0
102
RTVSPropertyOp37
 70
     0
102
RTVSPropertyOp38
 70
     0
102
RTVSPropertyOp39
 70
     0
102
RTVSPropertyOp40
 70
     0
102
RTVSPropertyOp41
 70
     0
102
RTVSPropertyOp42
 70
     0
102
RTVSPropertyOp43
 70
     0
102
RTVSPropertyOp44
 70
     0
102
RTVSPropertyOp45
 70
     0
102
RTVSPropertyOp46
 70
     0
102
RTVSPropertyOp47
 70
     0
102
RTVSPropertyOp48
 70
     0
102
RTVSPropertyOp49
 70
     0
102
RTVSPropertyOp50
 70
     0
102
RTVSPropertyOp51
 70
     0
102
RTVSPropertyOp52
 70
     0
102
RTVSPropertyOp53
 70
     0
102
RTVSPropertyOp54
 70
     0
102
RTVSPropertyOp55
 70
     0
102
RTVSPropertyOp56
 70
     0
102
RTVSPropertyOp57
 70
     0
102
RTVSPropertyOp58
 70
     1
102
RTVSPropertyOp59
 70
     1
102
RTVSPropertyOp60
 70
     1
102
RTVSPropertyOp61
 70
     1
102
RTVSPropertyOp62
 70
     1
  0
XRECORD
  5
B8879
102
{ACAD_REACTORS
330
B8878
102
}
330
B8878
100
AcDbXrecord
280
     1
102
RTVSPost2010Prop28
280
     0
102
RTVSPost2010PropOp28
 70
     1
102
RTVSPost2010Prop29
280
     1
102
RTVSPost2010PropOp29
 70
     1
102
RTVSPost2010Prop30
280
     1
102
RTVSPost2010PropOp30
 70
     1
102
RTVSPost2010Prop31
280
     0
102
RTVSPost2010PropOp31
 70
     1
102
RTVSPost2010Prop32
280
     0
102
RTVSPost2010PropOp32
 70
     1
102
RTVSPost2010Prop33
280
     0
102
RTVSPost2010PropOp33
 70
     1
102
RTVSPost2010Prop34
280
     0
102
RTVSPost2010PropOp34
 70
     1
102
RTVSPost2010Prop35
280
     0
102
RTVSPost2010PropOp35
 70
     1
102
RTVSPost2010Prop36
280
     0
102
RTVSPost2010PropOp36
 70
     1
102
RTVSPost2010Prop37
 90
       50
102
RTVSPost2010PropOp37
 70
     1
102
RTVSPost2010Prop38
140
0.0
102
RTVSPost2010PropOp38
 70
     1
102
RTVSPost2010Prop39
140
1.0
102
RTVSPost2010PropOp39
 70
     1
102
RTVSPost2010Prop40
 90
        0
102
RTVSPost2010PropOp40
 70
     1
102
RTVSPost2010Prop41ColorIndex
 90
       18
102
RTVSPost2010Prop41ColorRGB
 90
        0
102
RTVSPost2010PropOp41
 70
     1
102
RTVSPost2010Prop42
 90
       50
102
RTVSPost2010PropOp42
 70
     1
102
RTVSPost2010Prop43
 90
        3
102
RTVSPost2010PropOp43
 70
     1
102
RTVSPost2010Prop44ColorIndex
 90
        5
102
RTVSPost2010Prop44ColorRGB
 90
      255
102
RTVSPost2010PropOp44
 70
     1
102
RTVSPost2010Prop45
280
     0
102
RTVSPost2010PropOp45
 70
     1
102
RTVSPost2010Prop46
 90
       50
102
RTVSPost2010PropOp46
 70
     1
102
RTVSPost2010Prop47
 90
       50
102
RTVSPost2010PropOp47
 70
     1
102
RTVSPost2010Prop48
 90
       50
102
RTVSPost2010PropOp48
 70
     1
102
RTVSPost2010Prop49
280
     0
102
RTVSPost2010PropOp49
 70
     1
102
RTVSPost2010Prop50
 90
       50
102
RTVSPost2010PropOp50
 70
     1
102
RTVSPost2010Prop51ColorIndex
 90
      256
102
RTVSPost2010Prop51ColorRGB
 90
-16777216
102
RTVSPost2010PropOp51
 70
     0
102
RTVSPost2010Prop52
140
1.0
102
RTVSPost2010PropOp52
 70
     0
102
RTVSPost2010Prop53
 90
        2
102
RTVSPost2010PropOp53
 70
     1
102
RTVSPost2010Prop54
  1
strokes_ogs.tif
102
RTVSPost2010PropOp54
 70
     1
102
RTVSPost2010Prop55
280
     0
102
RTVSPost2010PropOp55
 70
     1
102
RTVSPost2010Prop56
140
1.0
102
RTVSPost2010PropOp56
 70
     1
102
RTVSPost2010Prop57
140
1.0
102
RTVSPost2010PropOp57
 70
     1
102
RTVSPropertyOp0
 70
     1
102
RTVSPropertyOp1
 70
     1
102
RTVSPropertyOp2
 70
     1
102
RTVSPropertyOp3
 70
     1
102
RTVSPropertyOp4
 70
     1
102
RTVSPropertyOp5
 70
     1
102
RTVSPropertyOp6
 70
     1
102
RTVSPropertyOp7
 70
     1
102
RTVSPropertyOp8
 70
     1
102
RTVSPropertyOp9
 70
     1
102
RTVSPropertyOp10
 70
     1
102
RTVSPropertyOp11
 70
     1
102
RTVSPropertyOp12
 70
     1
102
RTVSPropertyOp13
 70
     1
102
RTVSPropertyOp14
 70
     1
102
RTVSPropertyOp15
 70
     1
102
RTVSPropertyOp16
 70
     1
102
RTVSPropertyOp17
 70
     1
102
RTVSPropertyOp18
 70
     1
102
RTVSPropertyOp19
 70
     1
102
RTVSPropertyOp20
 70
     1
102
RTVSPropertyOp21
 70
     1
102
RTVSPropertyOp22
 70
     1
102
RTVSPropertyOp23
 70
     1
102
RTVSPropertyOp24
 70
     1
102
RTVSPropertyOp25
 70
     1
102
RTVSPropertyOp26
 70
     1
102
RTVSPropertyOp27
 70
     1
102
RTVSPropertyOp28
 70
     1
102
RTVSPropertyOp29
 70
     1
102
RTVSPropertyOp30
 70
     1
102
RTVSPropertyOp31
 70
     1
102
RTVSPropertyOp32
 70
     1
102
RTVSPropertyOp33
 70
     1
102
RTVSPropertyOp34
 70
     1
102
RTVSPropertyOp35
 70
     1
102
RTVSPropertyOp36
 70
     1
102
RTVSPropertyOp37
 70
     1
102
RTVSPropertyOp38
 70
     1
102
RTVSPropertyOp39
 70
     1
102
RTVSPropertyOp40
 70
     1
102
RTVSPropertyOp41
 70
     1
102
RTVSPropertyOp42
 70
     1
102
RTVSPropertyOp43
 70
     1
102
RTVSPropertyOp44
 70
     1
102
RTVSPropertyOp45
 70
     1
102
RTVSPropertyOp46
 70
     1
102
RTVSPropertyOp47
 70
     1
102
RTVSPropertyOp48
 70
     1
102
RTVSPropertyOp49
 70
     1
102
RTVSPropertyOp50
 70
     1
102
RTVSPropertyOp51
 70
     0
102
RTVSPropertyOp52
 70
     0
102
RTVSPropertyOp53
 70
     1
102
RTVSPropertyOp54
 70
     1
102
RTVSPropertyOp55
 70
     1
102
RTVSPropertyOp56
 70
     1
102
RTVSPropertyOp57
 70
     1
102
RTVSPropertyOp58
 70
     1
102
RTVSPropertyOp59
 70
     1
102
RTVSPropertyOp60
 70
     1
102
RTVSPropertyOp61
 70
     1
102
RTVSPropertyOp62
 70
     1
  0
XRECORD
  5
B8897
102
{ACAD_REACTORS
330
B8896
102
}
330
B8896
100
AcDbXrecord
280
     1
102
RTVSPost2010Prop28
280
     0
102
RTVSPost2010PropOp28
 70
     1
102
RTVSPost2010Prop29
280
     1
102
RTVSPost2010PropOp29
 70
     1
102
RTVSPost2010Prop30
280
     1
102
RTVSPost2010PropOp30
 70
     1
102
RTVSPost2010Prop31
280
     0
102
RTVSPost2010PropOp31
 70
     1
102
RTVSPost2010Prop32
280
     0
102
RTVSPost2010PropOp32
 70
     1
102
RTVSPost2010Prop33
280
     0
102
RTVSPost2010PropOp33
 70
     1
102
RTVSPost2010Prop34
280
     0
102
RTVSPost2010PropOp34
 70
     1
102
RTVSPost2010Prop35
280
     0
102
RTVSPost2010PropOp35
 70
     1
102
RTVSPost2010Prop36
280
     0
102
RTVSPost2010PropOp36
 70
     1
102
RTVSPost2010Prop37
 90
       50
102
RTVSPost2010PropOp37
 70
     1
102
RTVSPost2010Prop38
140
0.0
102
RTVSPost2010PropOp38
 70
     1
102
RTVSPost2010Prop39
140
1.0
102
RTVSPost2010PropOp39
 70
     1
102
RTVSPost2010Prop40
 90
        0
102
RTVSPost2010PropOp40
 70
     1
102
RTVSPost2010Prop41ColorIndex
 90
       18
102
RTVSPost2010Prop41ColorRGB
 90
        0
102
RTVSPost2010PropOp41
 70
     1
102
RTVSPost2010Prop42
 90
       50
102
RTVSPost2010PropOp42
 70
     1
102
RTVSPost2010Prop43
 90
        3
102
RTVSPost2010PropOp43
 70
     1
102
RTVSPost2010Prop44ColorIndex
 90
        5
102
RTVSPost2010Prop44ColorRGB
 90
      255
102
RTVSPost2010PropOp44
 70
     1
102
RTVSPost2010Prop45
280
     0
102
RTVSPost2010PropOp45
 70
     1
102
RTVSPost2010Prop46
 90
       50
102
RTVSPost2010PropOp46
 70
     1
102
RTVSPost2010Prop47
 90
       50
102
RTVSPost2010PropOp47
 70
     1
102
RTVSPost2010Prop48
 90
       50
102
RTVSPost2010PropOp48
 70
     1
102
RTVSPost2010Prop49
280
     0
102
RTVSPost2010PropOp49
 70
     1
102
RTVSPost2010Prop50
 90
       50
102
RTVSPost2010PropOp50
 70
     1
102
RTVSPost2010Prop51ColorIndex
 90
      256
102
RTVSPost2010Prop51ColorRGB
 90
-16777216
102
RTVSPost2010PropOp51
 70
     0
102
RTVSPost2010Prop52
140
1.0
102
RTVSPost2010PropOp52
 70
     0
102
RTVSPost2010Prop53
 90
        2
102
RTVSPost2010PropOp53
 70
     1
102
RTVSPost2010Prop54
  1
strokes_ogs.tif
102
RTVSPost2010PropOp54
 70
     1
102
RTVSPost2010Prop55
280
     0
102
RTVSPost2010PropOp55
 70
     1
102
RTVSPost2010Prop56
140
1.0
102
RTVSPost2010PropOp56
 70
     1
102
RTVSPost2010Prop57
140
1.0
102
RTVSPost2010PropOp57
 70
     1
102
RTVSPropertyOp0
 70
     1
102
RTVSPropertyOp1
 70
     1
102
RTVSPropertyOp2
 70
     1
102
RTVSPropertyOp3
 70
     1
102
RTVSPropertyOp4
 70
     1
102
RTVSPropertyOp5
 70
     1
102
RTVSPropertyOp6
 70
     1
102
RTVSPropertyOp7
 70
     1
102
RTVSPropertyOp8
 70
     1
102
RTVSPropertyOp9
 70
     1
102
RTVSPropertyOp10
 70
     1
102
RTVSPropertyOp11
 70
     1
102
RTVSPropertyOp12
 70
     1
102
RTVSPropertyOp13
 70
     1
102
RTVSPropertyOp14
 70
     1
102
RTVSPropertyOp15
 70
     1
102
RTVSPropertyOp16
 70
     1
102
RTVSPropertyOp17
 70
     1
102
RTVSPropertyOp18
 70
     1
102
RTVSPropertyOp19
 70
     1
102
RTVSPropertyOp20
 70
     1
102
RTVSPropertyOp21
 70
     1
102
RTVSPropertyOp22
 70
     1
102
RTVSPropertyOp23
 70
     1
102
RTVSPropertyOp24
 70
     1
102
RTVSPropertyOp25
 70
     1
102
RTVSPropertyOp26
 70
     1
102
RTVSPropertyOp27
 70
     1
102
RTVSPropertyOp28
 70
     1
102
RTVSPropertyOp29
 70
     1
102
RTVSPropertyOp30
 70
     1
102
RTVSPropertyOp31
 70
     1
102
RTVSPropertyOp32
 70
     1
102
RTVSPropertyOp33
 70
     1
102
RTVSPropertyOp34
 70
     1
102
RTVSPropertyOp35
 70
     1
102
RTVSPropertyOp36
 70
     1
102
RTVSPropertyOp37
 70
     1
102
RTVSPropertyOp38
 70
     1
102
RTVSPropertyOp39
 70
     1
102
RTVSPropertyOp40
 70
     1
102
RTVSPropertyOp41
 70
     1
102
RTVSPropertyOp42
 70
     1
102
RTVSPropertyOp43
 70
     1
102
RTVSPropertyOp44
 70
     1
102
RTVSPropertyOp45
 70
     1
102
RTVSPropertyOp46
 70
     1
102
RTVSPropertyOp47
 70
     1
102
RTVSPropertyOp48
 70
     1
102
RTVSPropertyOp49
 70
     1
102
RTVSPropertyOp50
 70
     1
102
RTVSPropertyOp51
 70
     0
102
RTVSPropertyOp52
 70
     0
102
RTVSPropertyOp53
 70
     1
102
RTVSPropertyOp54
 70
     1
102
RTVSPropertyOp55
 70
     1
102
RTVSPropertyOp56
 70
     1
102
RTVSPropertyOp57
 70
     1
102
RTVSPropertyOp58
 70
     1
102
RTVSPropertyOp59
 70
     1
102
RTVSPropertyOp60
 70
     1
102
RTVSPropertyOp61
 70
     1
102
RTVSPropertyOp62
 70
     1
  0
XRECORD
  5
B8895
102
{ACAD_REACTORS
330
B8894
102
}
330
B8894
100
AcDbXrecord
280
     1
102
RTVSPost2010Prop28
280
     0
102
RTVSPost2010PropOp28
 70
     1
102
RTVSPost2010Prop29
280
     1
102
RTVSPost2010PropOp29
 70
     1
102
RTVSPost2010Prop30
280
     1
102
RTVSPost2010PropOp30
 70
     1
102
RTVSPost2010Prop31
280
     0
102
RTVSPost2010PropOp31
 70
     1
102
RTVSPost2010Prop32
280
     0
102
RTVSPost2010PropOp32
 70
     1
102
RTVSPost2010Prop33
280
     0
102
RTVSPost2010PropOp33
 70
     1
102
RTVSPost2010Prop34
280
     0
102
RTVSPost2010PropOp34
 70
     1
102
RTVSPost2010Prop35
280
     0
102
RTVSPost2010PropOp35
 70
     1
102
RTVSPost2010Prop36
280
     0
102
RTVSPost2010PropOp36
 70
     1
102
RTVSPost2010Prop37
 90
       50
102
RTVSPost2010PropOp37
 70
     1
102
RTVSPost2010Prop38
140
0.0
102
RTVSPost2010PropOp38
 70
     1
102
RTVSPost2010Prop39
140
1.0
102
RTVSPost2010PropOp39
 70
     1
102
RTVSPost2010Prop40
 90
        0
102
RTVSPost2010PropOp40
 70
     1
102
RTVSPost2010Prop41ColorIndex
 90
       18
102
RTVSPost2010Prop41ColorRGB
 90
        0
102
RTVSPost2010PropOp41
 70
     1
102
RTVSPost2010Prop42
 90
       50
102
RTVSPost2010PropOp42
 70
     1
102
RTVSPost2010Prop43
 90
        3
102
RTVSPost2010PropOp43
 70
     1
102
RTVSPost2010Prop44ColorIndex
 90
        5
102
RTVSPost2010Prop44ColorRGB
 90
      255
102
RTVSPost2010PropOp44
 70
     1
102
RTVSPost2010Prop45
280
     0
102
RTVSPost2010PropOp45
 70
     1
102
RTVSPost2010Prop46
 90
       50
102
RTVSPost2010PropOp46
 70
     1
102
RTVSPost2010Prop47
 90
       50
102
RTVSPost2010PropOp47
 70
     1
102
RTVSPost2010Prop48
 90
       50
102
RTVSPost2010PropOp48
 70
     1
102
RTVSPost2010Prop49
280
     0
102
RTVSPost2010PropOp49
 70
     1
102
RTVSPost2010Prop50
 90
       50
102
RTVSPost2010PropOp50
 70
     1
102
RTVSPost2010Prop51ColorIndex
 90
      256
102
RTVSPost2010Prop51ColorRGB
 90
-16777216
102
RTVSPost2010PropOp51
 70
     0
102
RTVSPost2010Prop52
140
1.0
102
RTVSPost2010PropOp52
 70
     0
102
RTVSPost2010Prop53
 90
        2
102
RTVSPost2010PropOp53
 70
     1
102
RTVSPost2010Prop54
  1
strokes_ogs.tif
102
RTVSPost2010PropOp54
 70
     1
102
RTVSPost2010Prop55
280
     0
102
RTVSPost2010PropOp55
 70
     1
102
RTVSPost2010Prop56
140
1.0
102
RTVSPost2010PropOp56
 70
     1
102
RTVSPost2010Prop57
140
1.0
102
RTVSPost2010PropOp57
 70
     1
102
RTVSPropertyOp0
 70
     1
102
RTVSPropertyOp1
 70
     1
102
RTVSPropertyOp2
 70
     1
102
RTVSPropertyOp3
 70
     1
102
RTVSPropertyOp4
 70
     1
102
RTVSPropertyOp5
 70
     1
102
RTVSPropertyOp6
 70
     1
102
RTVSPropertyOp7
 70
     1
102
RTVSPropertyOp8
 70
     1
102
RTVSPropertyOp9
 70
     1
102
RTVSPropertyOp10
 70
     1
102
RTVSPropertyOp11
 70
     1
102
RTVSPropertyOp12
 70
     1
102
RTVSPropertyOp13
 70
     1
102
RTVSPropertyOp14
 70
     1
102
RTVSPropertyOp15
 70
     1
102
RTVSPropertyOp16
 70
     1
102
RTVSPropertyOp17
 70
     1
102
RTVSPropertyOp18
 70
     1
102
RTVSPropertyOp19
 70
     1
102
RTVSPropertyOp20
 70
     1
102
RTVSPropertyOp21
 70
     1
102
RTVSPropertyOp22
 70
     1
102
RTVSPropertyOp23
 70
     1
102
RTVSPropertyOp24
 70
     1
102
RTVSPropertyOp25
 70
     1
102
RTVSPropertyOp26
 70
     1
102
RTVSPropertyOp27
 70
     1
102
RTVSPropertyOp28
 70
     1
102
RTVSPropertyOp29
 70
     1
102
RTVSPropertyOp30
 70
     1
102
RTVSPropertyOp31
 70
     1
102
RTVSPropertyOp32
 70
     1
102
RTVSPropertyOp33
 70
     1
102
RTVSPropertyOp34
 70
     1
102
RTVSPropertyOp35
 70
     1
102
RTVSPropertyOp36
 70
     1
102
RTVSPropertyOp37
 70
     1
102
RTVSPropertyOp38
 70
     1
102
RTVSPropertyOp39
 70
     1
102
RTVSPropertyOp40
 70
     1
102
RTVSPropertyOp41
 70
     1
102
RTVSPropertyOp42
 70
     1
102
RTVSPropertyOp43
 70
     1
102
RTVSPropertyOp44
 70
     1
102
RTVSPropertyOp45
 70
     1
102
RTVSPropertyOp46
 70
     1
102
RTVSPropertyOp47
 70
     1
102
RTVSPropertyOp48
 70
     1
102
RTVSPropertyOp49
 70
     1
102
RTVSPropertyOp50
 70
     1
102
RTVSPropertyOp51
 70
     0
102
RTVSPropertyOp52
 70
     0
102
RTVSPropertyOp53
 70
     1
102
RTVSPropertyOp54
 70
     1
102
RTVSPropertyOp55
 70
     1
102
RTVSPropertyOp56
 70
     1
102
RTVSPropertyOp57
 70
     1
102
RTVSPropertyOp58
 70
     1
102
RTVSPropertyOp59
 70
     1
102
RTVSPropertyOp60
 70
     1
102
RTVSPropertyOp61
 70
     1
102
RTVSPropertyOp62
 70
     1
  0
XRECORD
  5
B888F
102
{ACAD_REACTORS
330
B888E
102
}
330
B888E
100
AcDbXrecord
280
     1
102
RTVSPost2010Prop28
280
     0
102
RTVSPost2010PropOp28
 70
     1
102
RTVSPost2010Prop29
280
     1
102
RTVSPost2010PropOp29
 70
     1
102
RTVSPost2010Prop30
280
     1
102
RTVSPost2010PropOp30
 70
     1
102
RTVSPost2010Prop31
280
     0
102
RTVSPost2010PropOp31
 70
     1
102
RTVSPost2010Prop32
280
     0
102
RTVSPost2010PropOp32
 70
     1
102
RTVSPost2010Prop33
280
     0
102
RTVSPost2010PropOp33
 70
     1
102
RTVSPost2010Prop34
280
     0
102
RTVSPost2010PropOp34
 70
     1
102
RTVSPost2010Prop35
280
     0
102
RTVSPost2010PropOp35
 70
     1
102
RTVSPost2010Prop36
280
     0
102
RTVSPost2010PropOp36
 70
     1
102
RTVSPost2010Prop37
 90
       50
102
RTVSPost2010PropOp37
 70
     1
102
RTVSPost2010Prop38
140
0.0
102
RTVSPost2010PropOp38
 70
     1
102
RTVSPost2010Prop39
140
1.0
102
RTVSPost2010PropOp39
 70
     1
102
RTVSPost2010Prop40
 90
        0
102
RTVSPost2010PropOp40
 70
     1
102
RTVSPost2010Prop41ColorIndex
 90
       18
102
RTVSPost2010Prop41ColorRGB
 90
        0
102
RTVSPost2010PropOp41
 70
     1
102
RTVSPost2010Prop42
 90
       50
102
RTVSPost2010PropOp42
 70
     1
102
RTVSPost2010Prop43
 90
        3
102
RTVSPost2010PropOp43
 70
     1
102
RTVSPost2010Prop44ColorIndex
 90
        5
102
RTVSPost2010Prop44ColorRGB
 90
      255
102
RTVSPost2010PropOp44
 70
     1
102
RTVSPost2010Prop45
280
     0
102
RTVSPost2010PropOp45
 70
     1
102
RTVSPost2010Prop46
 90
       50
102
RTVSPost2010PropOp46
 70
     1
102
RTVSPost2010Prop47
 90
       50
102
RTVSPost2010PropOp47
 70
     1
102
RTVSPost2010Prop48
 90
       50
102
RTVSPost2010PropOp48
 70
     1
102
RTVSPost2010Prop49
280
     0
102
RTVSPost2010PropOp49
 70
     1
102
RTVSPost2010Prop50
 90
       50
102
RTVSPost2010PropOp50
 70
     1
102
RTVSPost2010Prop51ColorIndex
 90
      256
102
RTVSPost2010Prop51ColorRGB
 90
-16777216
102
RTVSPost2010PropOp51
 70
     0
102
RTVSPost2010Prop52
140
1.0
102
RTVSPost2010PropOp52
 70
     0
102
RTVSPost2010Prop53
 90
        2
102
RTVSPost2010PropOp53
 70
     1
102
RTVSPost2010Prop54
  1
strokes_ogs.tif
102
RTVSPost2010PropOp54
 70
     1
102
RTVSPost2010Prop55
280
     0
102
RTVSPost2010PropOp55
 70
     1
102
RTVSPost2010Prop56
140
1.0
102
RTVSPost2010PropOp56
 70
     1
102
RTVSPost2010Prop57
140
1.0
102
RTVSPost2010PropOp57
 70
     1
102
RTVSPropertyOp0
 70
     1
102
RTVSPropertyOp1
 70
     1
102
RTVSPropertyOp2
 70
     1
102
RTVSPropertyOp3
 70
     1
102
RTVSPropertyOp4
 70
     1
102
RTVSPropertyOp5
 70
     1
102
RTVSPropertyOp6
 70
     1
102
RTVSPropertyOp7
 70
     1
102
RTVSPropertyOp8
 70
     1
102
RTVSPropertyOp9
 70
     1
102
RTVSPropertyOp10
 70
     1
102
RTVSPropertyOp11
 70
     1
102
RTVSPropertyOp12
 70
     1
102
RTVSPropertyOp13
 70
     1
102
RTVSPropertyOp14
 70
     1
102
RTVSPropertyOp15
 70
     1
102
RTVSPropertyOp16
 70
     1
102
RTVSPropertyOp17
 70
     1
102
RTVSPropertyOp18
 70
     1
102
RTVSPropertyOp19
 70
     1
102
RTVSPropertyOp20
 70
     1
102
RTVSPropertyOp21
 70
     1
102
RTVSPropertyOp22
 70
     1
102
RTVSPropertyOp23
 70
     1
102
RTVSPropertyOp24
 70
     1
102
RTVSPropertyOp25
 70
     1
102
RTVSPropertyOp26
 70
     1
102
RTVSPropertyOp27
 70
     1
102
RTVSPropertyOp28
 70
     1
102
RTVSPropertyOp29
 70
     1
102
RTVSPropertyOp30
 70
     1
102
RTVSPropertyOp31
 70
     1
102
RTVSPropertyOp32
 70
     1
102
RTVSPropertyOp33
 70
     1
102
RTVSPropertyOp34
 70
     1
102
RTVSPropertyOp35
 70
     1
102
RTVSPropertyOp36
 70
     1
102
RTVSPropertyOp37
 70
     1
102
RTVSPropertyOp38
 70
     1
102
RTVSPropertyOp39
 70
     1
102
RTVSPropertyOp40
 70
     1
102
RTVSPropertyOp41
 70
     1
102
RTVSPropertyOp42
 70
     1
102
RTVSPropertyOp43
 70
     1
102
RTVSPropertyOp44
 70
     1
102
RTVSPropertyOp45
 70
     1
102
RTVSPropertyOp46
 70
     1
102
RTVSPropertyOp47
 70
     1
102
RTVSPropertyOp48
 70
     1
102
RTVSPropertyOp49
 70
     1
102
RTVSPropertyOp50
 70
     1
102
RTVSPropertyOp51
 70
     0
102
RTVSPropertyOp52
 70
     0
102
RTVSPropertyOp53
 70
     1
102
RTVSPropertyOp54
 70
     1
102
RTVSPropertyOp55
 70
     1
102
RTVSPropertyOp56
 70
     1
102
RTVSPropertyOp57
 70
     1
102
RTVSPropertyOp58
 70
     1
102
RTVSPropertyOp59
 70
     1
102
RTVSPropertyOp60
 70
     1
102
RTVSPropertyOp61
 70
     1
102
RTVSPropertyOp62
 70
     1
  0
XRECORD
  5
B8891
102
{ACAD_REACTORS
330
B8890
102
}
330
B8890
100
AcDbXrecord
280
     1
102
RTVSPost2010Prop28
280
     0
102
RTVSPost2010PropOp28
 70
     1
102
RTVSPost2010Prop29
280
     1
102
RTVSPost2010PropOp29
 70
     1
102
RTVSPost2010Prop30
280
     1
102
RTVSPost2010PropOp30
 70
     1
102
RTVSPost2010Prop31
280
     0
102
RTVSPost2010PropOp31
 70
     1
102
RTVSPost2010Prop32
280
     0
102
RTVSPost2010PropOp32
 70
     1
102
RTVSPost2010Prop33
280
     0
102
RTVSPost2010PropOp33
 70
     1
102
RTVSPost2010Prop34
280
     0
102
RTVSPost2010PropOp34
 70
     1
102
RTVSPost2010Prop35
280
     0
102
RTVSPost2010PropOp35
 70
     1
102
RTVSPost2010Prop36
280
     0
102
RTVSPost2010PropOp36
 70
     1
102
RTVSPost2010Prop37
 90
       50
102
RTVSPost2010PropOp37
 70
     1
102
RTVSPost2010Prop38
140
0.0
102
RTVSPost2010PropOp38
 70
     1
102
RTVSPost2010Prop39
140
1.0
102
RTVSPost2010PropOp39
 70
     1
102
RTVSPost2010Prop40
 90
        0
102
RTVSPost2010PropOp40
 70
     1
102
RTVSPost2010Prop41ColorIndex
 90
       18
102
RTVSPost2010Prop41ColorRGB
 90
        0
102
RTVSPost2010PropOp41
 70
     1
102
RTVSPost2010Prop42
 90
       50
102
RTVSPost2010PropOp42
 70
     1
102
RTVSPost2010Prop43
 90
        3
102
RTVSPost2010PropOp43
 70
     1
102
RTVSPost2010Prop44ColorIndex
 90
        5
102
RTVSPost2010Prop44ColorRGB
 90
      255
102
RTVSPost2010PropOp44
 70
     1
102
RTVSPost2010Prop45
280
     0
102
RTVSPost2010PropOp45
 70
     1
102
RTVSPost2010Prop46
 90
       50
102
RTVSPost2010PropOp46
 70
     1
102
RTVSPost2010Prop47
 90
       50
102
RTVSPost2010PropOp47
 70
     1
102
RTVSPost2010Prop48
 90
       50
102
RTVSPost2010PropOp48
 70
     1
102
RTVSPost2010Prop49
280
     0
102
RTVSPost2010PropOp49
 70
     1
102
RTVSPost2010Prop50
 90
       50
102
RTVSPost2010PropOp50
 70
     1
102
RTVSPost2010Prop51ColorIndex
 90
      256
102
RTVSPost2010Prop51ColorRGB
 90
-16777216
102
RTVSPost2010PropOp51
 70
     0
102
RTVSPost2010Prop52
140
1.0
102
RTVSPost2010PropOp52
 70
     0
102
RTVSPost2010Prop53
 90
        2
102
RTVSPost2010PropOp53
 70
     1
102
RTVSPost2010Prop54
  1
strokes_ogs.tif
102
RTVSPost2010PropOp54
 70
     1
102
RTVSPost2010Prop55
280
     0
102
RTVSPost2010PropOp55
 70
     1
102
RTVSPost2010Prop56
140
1.0
102
RTVSPost2010PropOp56
 70
     1
102
RTVSPost2010Prop57
140
1.0
102
RTVSPost2010PropOp57
 70
     1
102
RTVSPropertyOp0
 70
     1
102
RTVSPropertyOp1
 70
     1
102
RTVSPropertyOp2
 70
     1
102
RTVSPropertyOp3
 70
     1
102
RTVSPropertyOp4
 70
     1
102
RTVSPropertyOp5
 70
     1
102
RTVSPropertyOp6
 70
     1
102
RTVSPropertyOp7
 70
     1
102
RTVSPropertyOp8
 70
     1
102
RTVSPropertyOp9
 70
     1
102
RTVSPropertyOp10
 70
     1
102
RTVSPropertyOp11
 70
     1
102
RTVSPropertyOp12
 70
     1
102
RTVSPropertyOp13
 70
     1
102
RTVSPropertyOp14
 70
     1
102
RTVSPropertyOp15
 70
     1
102
RTVSPropertyOp16
 70
     1
102
RTVSPropertyOp17
 70
     1
102
RTVSPropertyOp18
 70
     1
102
RTVSPropertyOp19
 70
     1
102
RTVSPropertyOp20
 70
     1
102
RTVSPropertyOp21
 70
     1
102
RTVSPropertyOp22
 70
     1
102
RTVSPropertyOp23
 70
     1
102
RTVSPropertyOp24
 70
     1
102
RTVSPropertyOp25
 70
     1
102
RTVSPropertyOp26
 70
     1
102
RTVSPropertyOp27
 70
     1
102
RTVSPropertyOp28
 70
     1
102
RTVSPropertyOp29
 70
     1
102
RTVSPropertyOp30
 70
     1
102
RTVSPropertyOp31
 70
     1
102
RTVSPropertyOp32
 70
     1
102
RTVSPropertyOp33
 70
     1
102
RTVSPropertyOp34
 70
     1
102
RTVSPropertyOp35
 70
     1
102
RTVSPropertyOp36
 70
     1
102
RTVSPropertyOp37
 70
     1
102
RTVSPropertyOp38
 70
     1
102
RTVSPropertyOp39
 70
     1
102
RTVSPropertyOp40
 70
     1
102
RTVSPropertyOp41
 70
     1
102
RTVSPropertyOp42
 70
     1
102
RTVSPropertyOp43
 70
     1
102
RTVSPropertyOp44
 70
     1
102
RTVSPropertyOp45
 70
     1
102
RTVSPropertyOp46
 70
     1
102
RTVSPropertyOp47
 70
     1
102
RTVSPropertyOp48
 70
     1
102
RTVSPropertyOp49
 70
     1
102
RTVSPropertyOp50
 70
     1
102
RTVSPropertyOp51
 70
     0
102
RTVSPropertyOp52
 70
     0
102
RTVSPropertyOp53
 70
     1
102
RTVSPropertyOp54
 70
     1
102
RTVSPropertyOp55
 70
     1
102
RTVSPropertyOp56
 70
     1
102
RTVSPropertyOp57
 70
     1
102
RTVSPropertyOp58
 70
     1
102
RTVSPropertyOp59
 70
     1
102
RTVSPropertyOp60
 70
     1
102
RTVSPropertyOp61
 70
     1
102
RTVSPropertyOp62
 70
     1
  0
XRECORD
  5
B8881
102
{ACAD_REACTORS
330
B8880
102
}
330
B8880
100
AcDbXrecord
280
     1
102
RTVSPost2010Prop28
280
     0
102
RTVSPost2010PropOp28
 70
     1
102
RTVSPost2010Prop29
280
     1
102
RTVSPost2010PropOp29
 70
     1
102
RTVSPost2010Prop30
280
     1
102
RTVSPost2010PropOp30
 70
     1
102
RTVSPost2010Prop31
280
     0
102
RTVSPost2010PropOp31
 70
     1
102
RTVSPost2010Prop32
280
     0
102
RTVSPost2010PropOp32
 70
     1
102
RTVSPost2010Prop33
280
     0
102
RTVSPost2010PropOp33
 70
     1
102
RTVSPost2010Prop34
280
     0
102
RTVSPost2010PropOp34
 70
     1
102
RTVSPost2010Prop35
280
     0
102
RTVSPost2010PropOp35
 70
     1
102
RTVSPost2010Prop36
280
     0
102
RTVSPost2010PropOp36
 70
     1
102
RTVSPost2010Prop37
 90
       50
102
RTVSPost2010PropOp37
 70
     1
102
RTVSPost2010Prop38
140
0.0
102
RTVSPost2010PropOp38
 70
     1
102
RTVSPost2010Prop39
140
1.0
102
RTVSPost2010PropOp39
 70
     1
102
RTVSPost2010Prop40
 90
        0
102
RTVSPost2010PropOp40
 70
     1
102
RTVSPost2010Prop41ColorIndex
 90
       18
102
RTVSPost2010Prop41ColorRGB
 90
        0
102
RTVSPost2010PropOp41
 70
     1
102
RTVSPost2010Prop42
 90
       50
102
RTVSPost2010PropOp42
 70
     1
102
RTVSPost2010Prop43
 90
        3
102
RTVSPost2010PropOp43
 70
     1
102
RTVSPost2010Prop44ColorIndex
 90
        5
102
RTVSPost2010Prop44ColorRGB
 90
      255
102
RTVSPost2010PropOp44
 70
     1
102
RTVSPost2010Prop45
280
     0
102
RTVSPost2010PropOp45
 70
     1
102
RTVSPost2010Prop46
 90
       50
102
RTVSPost2010PropOp46
 70
     1
102
RTVSPost2010Prop47
 90
       50
102
RTVSPost2010PropOp47
 70
     1
102
RTVSPost2010Prop48
 90
       50
102
RTVSPost2010PropOp48
 70
     1
102
RTVSPost2010Prop49
280
     0
102
RTVSPost2010PropOp49
 70
     1
102
RTVSPost2010Prop50
 90
       50
102
RTVSPost2010PropOp50
 70
     1
102
RTVSPost2010Prop51ColorIndex
 90
      256
102
RTVSPost2010Prop51ColorRGB
 90
-16777216
102
RTVSPost2010PropOp51
 70
     0
102
RTVSPost2010Prop52
140
1.0
102
RTVSPost2010PropOp52
 70
     0
102
RTVSPost2010Prop53
 90
        2
102
RTVSPost2010PropOp53
 70
     1
102
RTVSPost2010Prop54
  1
strokes_ogs.tif
102
RTVSPost2010PropOp54
 70
     1
102
RTVSPost2010Prop55
280
     0
102
RTVSPost2010PropOp55
 70
     1
102
RTVSPost2010Prop56
140
1.0
102
RTVSPost2010PropOp56
 70
     1
102
RTVSPost2010Prop57
140
1.0
102
RTVSPost2010PropOp57
 70
     1
102
RTVSPropertyOp0
 70
     1
102
RTVSPropertyOp1
 70
     1
102
RTVSPropertyOp2
 70
     1
102
RTVSPropertyOp3
 70
     1
102
RTVSPropertyOp4
 70
     1
102
RTVSPropertyOp5
 70
     1
102
RTVSPropertyOp6
 70
     1
102
RTVSPropertyOp7
 70
     1
102
RTVSPropertyOp8
 70
     1
102
RTVSPropertyOp9
 70
     1
102
RTVSPropertyOp10
 70
     1
102
RTVSPropertyOp11
 70
     1
102
RTVSPropertyOp12
 70
     1
102
RTVSPropertyOp13
 70
     1
102
RTVSPropertyOp14
 70
     1
102
RTVSPropertyOp15
 70
     1
102
RTVSPropertyOp16
 70
     1
102
RTVSPropertyOp17
 70
     1
102
RTVSPropertyOp18
 70
     1
102
RTVSPropertyOp19
 70
     1
102
RTVSPropertyOp20
 70
     1
102
RTVSPropertyOp21
 70
     1
102
RTVSPropertyOp22
 70
     1
102
RTVSPropertyOp23
 70
     1
102
RTVSPropertyOp24
 70
     1
102
RTVSPropertyOp25
 70
     1
102
RTVSPropertyOp26
 70
     1
102
RTVSPropertyOp27
 70
     1
102
RTVSPropertyOp28
 70
     1
102
RTVSPropertyOp29
 70
     1
102
RTVSPropertyOp30
 70
     1
102
RTVSPropertyOp31
 70
     1
102
RTVSPropertyOp32
 70
     1
102
RTVSPropertyOp33
 70
     1
102
RTVSPropertyOp34
 70
     1
102
RTVSPropertyOp35
 70
     1
102
RTVSPropertyOp36
 70
     1
102
RTVSPropertyOp37
 70
     1
102
RTVSPropertyOp38
 70
     1
102
RTVSPropertyOp39
 70
     1
102
RTVSPropertyOp40
 70
     1
102
RTVSPropertyOp41
 70
     1
102
RTVSPropertyOp42
 70
     1
102
RTVSPropertyOp43
 70
     1
102
RTVSPropertyOp44
 70
     1
102
RTVSPropertyOp45
 70
     1
102
RTVSPropertyOp46
 70
     1
102
RTVSPropertyOp47
 70
     1
102
RTVSPropertyOp48
 70
     1
102
RTVSPropertyOp49
 70
     1
102
RTVSPropertyOp50
 70
     1
102
RTVSPropertyOp51
 70
     0
102
RTVSPropertyOp52
 70
     0
102
RTVSPropertyOp53
 70
     1
102
RTVSPropertyOp54
 70
     1
102
RTVSPropertyOp55
 70
     1
102
RTVSPropertyOp56
 70
     1
102
RTVSPropertyOp57
 70
     1
102
RTVSPropertyOp58
 70
     1
102
RTVSPropertyOp59
 70
     1
102
RTVSPropertyOp60
 70
     1
102
RTVSPropertyOp61
 70
     1
102
RTVSPropertyOp62
 70
     1
  0
XRECORD
  5
B8873
102
{ACAD_REACTORS
330
B8872
102
}
330
B8872
100
AcDbXrecord
280
     1
102
RTVSPost2010Prop28
280
     0
102
RTVSPost2010PropOp28
 70
     1
102
RTVSPost2010Prop29
280
     1
102
RTVSPost2010PropOp29
 70
     1
102
RTVSPost2010Prop30
280
     1
102
RTVSPost2010PropOp30
 70
     1
102
RTVSPost2010Prop31
280
     0
102
RTVSPost2010PropOp31
 70
     1
102
RTVSPost2010Prop32
280
     0
102
RTVSPost2010PropOp32
 70
     1
102
RTVSPost2010Prop33
280
     0
102
RTVSPost2010PropOp33
 70
     1
102
RTVSPost2010Prop34
280
     0
102
RTVSPost2010PropOp34
 70
     1
102
RTVSPost2010Prop35
280
     0
102
RTVSPost2010PropOp35
 70
     1
102
RTVSPost2010Prop36
280
     0
102
RTVSPost2010PropOp36
 70
     1
102
RTVSPost2010Prop37
 90
       50
102
RTVSPost2010PropOp37
 70
     1
102
RTVSPost2010Prop38
140
0.0
102
RTVSPost2010PropOp38
 70
     1
102
RTVSPost2010Prop39
140
1.0
102
RTVSPost2010PropOp39
 70
     1
102
RTVSPost2010Prop40
 90
        0
102
RTVSPost2010PropOp40
 70
     1
102
RTVSPost2010Prop41ColorIndex
 90
       18
102
RTVSPost2010Prop41ColorRGB
 90
        0
102
RTVSPost2010PropOp41
 70
     1
102
RTVSPost2010Prop42
 90
       50
102
RTVSPost2010PropOp42
 70
     1
102
RTVSPost2010Prop43
 90
        3
102
RTVSPost2010PropOp43
 70
     1
102
RTVSPost2010Prop44ColorIndex
 90
        5
102
RTVSPost2010Prop44ColorRGB
 90
      255
102
RTVSPost2010PropOp44
 70
     1
102
RTVSPost2010Prop45
280
     0
102
RTVSPost2010PropOp45
 70
     1
102
RTVSPost2010Prop46
 90
       50
102
RTVSPost2010PropOp46
 70
     1
102
RTVSPost2010Prop47
 90
       50
102
RTVSPost2010PropOp47
 70
     1
102
RTVSPost2010Prop48
 90
       50
102
RTVSPost2010PropOp48
 70
     1
102
RTVSPost2010Prop49
280
     0
102
RTVSPost2010PropOp49
 70
     1
102
RTVSPost2010Prop50
 90
       50
102
RTVSPost2010PropOp50
 70
     1
102
RTVSPost2010Prop51ColorIndex
 90
      256
102
RTVSPost2010Prop51ColorRGB
 90
-16777216
102
RTVSPost2010PropOp51
 70
     0
102
RTVSPost2010Prop52
140
1.0
102
RTVSPost2010PropOp52
 70
     0
102
RTVSPost2010Prop53
 90
        2
102
RTVSPost2010PropOp53
 70
     1
102
RTVSPost2010Prop54
  1
strokes_ogs.tif
102
RTVSPost2010PropOp54
 70
     1
102
RTVSPost2010Prop55
280
     0
102
RTVSPost2010PropOp55
 70
     1
102
RTVSPost2010Prop56
140
1.0
102
RTVSPost2010PropOp56
 70
     1
102
RTVSPost2010Prop57
140
1.0
102
RTVSPost2010PropOp57
 70
     1
102
RTVSPropertyOp0
 70
     1
102
RTVSPropertyOp1
 70
     1
102
RTVSPropertyOp2
 70
     1
102
RTVSPropertyOp3
 70
     1
102
RTVSPropertyOp4
 70
     1
102
RTVSPropertyOp5
 70
     1
102
RTVSPropertyOp6
 70
     1
102
RTVSPropertyOp7
 70
     1
102
RTVSPropertyOp8
 70
     1
102
RTVSPropertyOp9
 70
     1
102
RTVSPropertyOp10
 70
     1
102
RTVSPropertyOp11
 70
     1
102
RTVSPropertyOp12
 70
     1
102
RTVSPropertyOp13
 70
     1
102
RTVSPropertyOp14
 70
     1
102
RTVSPropertyOp15
 70
     1
102
RTVSPropertyOp16
 70
     1
102
RTVSPropertyOp17
 70
     1
102
RTVSPropertyOp18
 70
     1
102
RTVSPropertyOp19
 70
     1
102
RTVSPropertyOp20
 70
     1
102
RTVSPropertyOp21
 70
     1
102
RTVSPropertyOp22
 70
     1
102
RTVSPropertyOp23
 70
     1
102
RTVSPropertyOp24
 70
     1
102
RTVSPropertyOp25
 70
     1
102
RTVSPropertyOp26
 70
     1
102
RTVSPropertyOp27
 70
     1
102
RTVSPropertyOp28
 70
     1
102
RTVSPropertyOp29
 70
     1
102
RTVSPropertyOp30
 70
     1
102
RTVSPropertyOp31
 70
     1
102
RTVSPropertyOp32
 70
     1
102
RTVSPropertyOp33
 70
     1
102
RTVSPropertyOp34
 70
     1
102
RTVSPropertyOp35
 70
     1
102
RTVSPropertyOp36
 70
     1
102
RTVSPropertyOp37
 70
     1
102
RTVSPropertyOp38
 70
     1
102
RTVSPropertyOp39
 70
     1
102
RTVSPropertyOp40
 70
     1
102
RTVSPropertyOp41
 70
     1
102
RTVSPropertyOp42
 70
     1
102
RTVSPropertyOp43
 70
     1
102
RTVSPropertyOp44
 70
     1
102
RTVSPropertyOp45
 70
     1
102
RTVSPropertyOp46
 70
     1
102
RTVSPropertyOp47
 70
     1
102
RTVSPropertyOp48
 70
     1
102
RTVSPropertyOp49
 70
     1
102
RTVSPropertyOp50
 70
     1
102
RTVSPropertyOp51
 70
     0
102
RTVSPropertyOp52
 70
     0
102
RTVSPropertyOp53
 70
     1
102
RTVSPropertyOp54
 70
     1
102
RTVSPropertyOp55
 70
     1
102
RTVSPropertyOp56
 70
     1
102
RTVSPropertyOp57
 70
     1
102
RTVSPropertyOp58
 70
     1
102
RTVSPropertyOp59
 70
     1
102
RTVSPropertyOp60
 70
     1
102
RTVSPropertyOp61
 70
     1
102
RTVSPropertyOp62
 70
     1
  0
XRECORD
  5
B8893
102
{ACAD_REACTORS
330
B8892
102
}
330
B8892
100
AcDbXrecord
280
     1
102
RTVSPost2010Prop28
280
     0
102
RTVSPost2010PropOp28
 70
     1
102
RTVSPost2010Prop29
280
     1
102
RTVSPost2010PropOp29
 70
     1
102
RTVSPost2010Prop30
280
     1
102
RTVSPost2010PropOp30
 70
     1
102
RTVSPost2010Prop31
280
     0
102
RTVSPost2010PropOp31
 70
     1
102
RTVSPost2010Prop32
280
     0
102
RTVSPost2010PropOp32
 70
     1
102
RTVSPost2010Prop33
280
     0
102
RTVSPost2010PropOp33
 70
     1
102
RTVSPost2010Prop34
280
     0
102
RTVSPost2010PropOp34
 70
     1
102
RTVSPost2010Prop35
280
     0
102
RTVSPost2010PropOp35
 70
     1
102
RTVSPost2010Prop36
280
     0
102
RTVSPost2010PropOp36
 70
     1
102
RTVSPost2010Prop37
 90
       50
102
RTVSPost2010PropOp37
 70
     1
102
RTVSPost2010Prop38
140
0.0
102
RTVSPost2010PropOp38
 70
     1
102
RTVSPost2010Prop39
140
1.0
102
RTVSPost2010PropOp39
 70
     1
102
RTVSPost2010Prop40
 90
        0
102
RTVSPost2010PropOp40
 70
     1
102
RTVSPost2010Prop41ColorIndex
 90
       18
102
RTVSPost2010Prop41ColorRGB
 90
        0
102
RTVSPost2010PropOp41
 70
     1
102
RTVSPost2010Prop42
 90
       50
102
RTVSPost2010PropOp42
 70
     1
102
RTVSPost2010Prop43
 90
        3
102
RTVSPost2010PropOp43
 70
     1
102
RTVSPost2010Prop44ColorIndex
 90
        5
102
RTVSPost2010Prop44ColorRGB
 90
      255
102
RTVSPost2010PropOp44
 70
     1
102
RTVSPost2010Prop45
280
     0
102
RTVSPost2010PropOp45
 70
     1
102
RTVSPost2010Prop46
 90
       50
102
RTVSPost2010PropOp46
 70
     1
102
RTVSPost2010Prop47
 90
       50
102
RTVSPost2010PropOp47
 70
     1
102
RTVSPost2010Prop48
 90
       50
102
RTVSPost2010PropOp48
 70
     1
102
RTVSPost2010Prop49
280
     0
102
RTVSPost2010PropOp49
 70
     1
102
RTVSPost2010Prop50
 90
       50
102
RTVSPost2010PropOp50
 70
     1
102
RTVSPost2010Prop51ColorIndex
 90
      256
102
RTVSPost2010Prop51ColorRGB
 90
-16777216
102
RTVSPost2010PropOp51
 70
     0
102
RTVSPost2010Prop52
140
1.0
102
RTVSPost2010PropOp52
 70
     0
102
RTVSPost2010Prop53
 90
        2
102
RTVSPost2010PropOp53
 70
     1
102
RTVSPost2010Prop54
  1
strokes_ogs.tif
102
RTVSPost2010PropOp54
 70
     1
102
RTVSPost2010Prop55
280
     0
102
RTVSPost2010PropOp55
 70
     1
102
RTVSPost2010Prop56
140
1.0
102
RTVSPost2010PropOp56
 70
     1
102
RTVSPost2010Prop57
140
1.0
102
RTVSPost2010PropOp57
 70
     1
102
RTVSPropertyOp0
 70
     1
102
RTVSPropertyOp1
 70
     1
102
RTVSPropertyOp2
 70
     1
102
RTVSPropertyOp3
 70
     1
102
RTVSPropertyOp4
 70
     1
102
RTVSPropertyOp5
 70
     1
102
RTVSPropertyOp6
 70
     1
102
RTVSPropertyOp7
 70
     1
102
RTVSPropertyOp8
 70
     1
102
RTVSPropertyOp9
 70
     1
102
RTVSPropertyOp10
 70
     1
102
RTVSPropertyOp11
 70
     1
102
RTVSPropertyOp12
 70
     1
102
RTVSPropertyOp13
 70
     1
102
RTVSPropertyOp14
 70
     1
102
RTVSPropertyOp15
 70
     1
102
RTVSPropertyOp16
 70
     1
102
RTVSPropertyOp17
 70
     1
102
RTVSPropertyOp18
 70
     1
102
RTVSPropertyOp19
 70
     1
102
RTVSPropertyOp20
 70
     1
102
RTVSPropertyOp21
 70
     1
102
RTVSPropertyOp22
 70
     1
102
RTVSPropertyOp23
 70
     1
102
RTVSPropertyOp24
 70
     1
102
RTVSPropertyOp25
 70
     1
102
RTVSPropertyOp26
 70
     1
102
RTVSPropertyOp27
 70
     1
102
RTVSPropertyOp28
 70
     1
102
RTVSPropertyOp29
 70
     1
102
RTVSPropertyOp30
 70
     1
102
RTVSPropertyOp31
 70
     1
102
RTVSPropertyOp32
 70
     1
102
RTVSPropertyOp33
 70
     1
102
RTVSPropertyOp34
 70
     1
102
RTVSPropertyOp35
 70
     1
102
RTVSPropertyOp36
 70
     1
102
RTVSPropertyOp37
 70
     1
102
RTVSPropertyOp38
 70
     1
102
RTVSPropertyOp39
 70
     1
102
RTVSPropertyOp40
 70
     1
102
RTVSPropertyOp41
 70
     1
102
RTVSPropertyOp42
 70
     1
102
RTVSPropertyOp43
 70
     1
102
RTVSPropertyOp44
 70
     1
102
RTVSPropertyOp45
 70
     1
102
RTVSPropertyOp46
 70
     1
102
RTVSPropertyOp47
 70
     1
102
RTVSPropertyOp48
 70
     1
102
RTVSPropertyOp49
 70
     1
102
RTVSPropertyOp50
 70
     1
102
RTVSPropertyOp51
 70
     0
102
RTVSPropertyOp52
 70
     0
102
RTVSPropertyOp53
 70
     1
102
RTVSPropertyOp54
 70
     1
102
RTVSPropertyOp55
 70
     1
102
RTVSPropertyOp56
 70
     1
102
RTVSPropertyOp57
 70
     1
102
RTVSPropertyOp58
 70
     1
102
RTVSPropertyOp59
 70
     1
102
RTVSPropertyOp60
 70
     1
102
RTVSPropertyOp61
 70
     1
102
RTVSPropertyOp62
 70
     1
  0
ENDSEC
  0
EOF
