  0
SECTION
  2
HEADER
  9
$ACADVER
  1
AC1015
  9
$ACADMAINTVER
 70
    20
  9
$DWGCODEPAGE
  3
ANSI_932
  9
$INSBASE
 10
0.0
 20
0.0
 30
0.0
  9
$EXTMIN
 10
5554.690550739919
 20
-3362.600718406266
 30
0.0
  9
$EXTMAX
 10
6253.845768385509
 20
-2974.268670696718
 30
137.5
  9
$LIMMIN
 10
0.0
 20
0.0
  9
$LIMMAX
 10
420.0
 20
297.0
  9
$ORTHOMODE
 70
     0
  9
$REGENMODE
 70
     1
  9
$FILLMODE
 70
     1
  9
$QTEXTMODE
 70
     0
  9
$MIRRTEXT
 70
     0
  9
$LTSCALE
 40
1.0
  9
$ATTMODE
 70
     1
  9
$TEXTSIZE
 40
3.2
  9
$TRACEWID
 40
1.0
  9
$TEXTSTYLE
  7
\U+FF7D\U+FF80\U+FF72\U+FF991
  9
$CLAYER
  8
寸法
  9
$CELTYPE
  6
BYLAYER
  9
$CECOLOR
 62
   256
  9
$CELTSCALE
 40
1.0
  9
$DISPSILH
 70
     0
  9
$DIMSCALE
 40
2.0
  9
$DIMASZ
 40
1.5
  9
$DIMEXO
 40
1.0
  9
$DIMDLI
 40
0.38
  9
$DIMRND
 40
0.0
  9
$DIMDLE
 40
0.0
  9
$DIMEXE
 40
0.8
  9
$DIMTP
 40
0.0
  9
$DIMTM
 40
0.0
  9
$DIMTXT
 40
2.5
  9
$DIMCEN
 40
0.0
  9
$DIMTSZ
 40
0.0
  9
$DIMTOL
 70
     0
  9
$DIMLIM
 70
     0
  9
$DIMTIH
 70
     0
  9
$DIMTOH
 70
     0
  9
$DIMSE1
 70
     0
  9
$DIMSE2
 70
     0
  9
$DIMTAD
 70
     3
  9
$DIMZIN
 70
     8
  9
$DIMBLK
  1
Open30
  9
$DIMASO
 70
     1
  9
$DIMSHO
 70
     1
  9
$DIMPOST
  1

  9
$DIMAPOST
  1

  9
$DIMALT
 70
     0
  9
$DIMALTD
 70
     2
  9
$DIMALTF
 40
25.4
  9
$DIMLFAC
 40
1.0
  9
$DIMTOFL
 70
     0
  9
$DIMTVP
 40
0.0
  9
$DIMTIX
 70
     0
  9
$DIMSOXD
 70
     0
  9
$DIMSAH
 70
     0
  9
$DIMBLK1
  1

  9
$DIMBLK2
  1

  9
$DIMSTYLE
  2
まこ-10
  9
$DIMCLRD
 70
     4
  9
$DIMCLRE
 70
     4
  9
$DIMCLRT
 70
   256
  9
$DIMTFAC
 40
1.0
  9
$DIMGAP
 40
0.5
  9
$DIMJUST
 70
     0
  9
$DIMSD1
 70
     0
  9
$DIMSD2
 70
     0
  9
$DIMTOLJ
 70
     1
  9
$DIMTZIN
 70
     0
  9
$DIMALTZ
 70
     0
  9
$DIMALTTZ
 70
     0
  9
$DIMUPT
 70
     0
  9
$DIMDEC
 70
     5
  9
$DIMTDEC
 70
     5
  9
$DIMALTU
 70
     2
  9
$DIMALTTD
 70
     2
  9
$DIMTXSTY
  7
MS\U+FF7A\U+FF9E\U+FF7C\U+FF6F\U+FF78-0
  9
$DIMAUNIT
 70
     0
  9
$DIMADEC
 70
     5
  9
$DIMALTRND
 40
0.0
  9
$DIMAZIN
 70
     2
  9
$DIMDSEP
 70
    46
  9
$DIMATFIT
 70
     1
  9
$DIMFRAC
 70
     0
  9
$DIMLDRBLK
  1
Open30
  9
$DIMLUNIT
 70
     2
  9
$DIMLWD
 70
    13
  9
$DIMLWE
 70
    13
  9
$DIMTMOVE
 70
     0
  9
$LUNITS
 70
     2
  9
$LUPREC
 70
     4
  9
$SKETCHINC
 40
1.0
  9
$FILLETRAD
 40
1.199999999999999
  9
$AUNITS
 70
     0
  9
$AUPREC
 70
     0
  9
$MENU
  1
.
  9
$ELEVATION
 40
0.0
  9
$PELEVATION
 40
0.0
  9
$THICKNESS
 40
0.0
  9
$LIMCHECK
 70
     0
  9
$CHAMFERA
 40
1.5
  9
$CHAMFERB
 40
1.5
  9
$CHAMFERC
 40
20.0
  9
$CHAMFERD
 40
0.0
  9
$SKPOLY
 70
     0
  9
$TDCREATE
 40
2452479.723113426
  9
$TDUCREATE
 40
2452479.348123183
  9
$TDUPDATE
 40
2458547.542430556
  9
$TDUUPDATE
 40
2458547.167430555
  9
$TDINDWG
 40
16.6575968750
  9
$TDUSRTIMER
 40
2458333.323439688
  9
$USRTIMER
 70
     1
  9
$ANGBASE
 50
0.0
  9
$ANGDIR
 70
     0
  9
$PDMODE
 70
     0
  9
$PDSIZE
 40
0.0
  9
$PLINEWID
 40
0.0
  9
$SPLFRAME
 70
     0
  9
$SPLINETYPE
 70
     6
  9
$SPLINESEGS
 70
     8
  9
$HANDSEED
  5
C4AE8
  9
$SURFTAB1
 70
     6
  9
$SURFTAB2
 70
     6
  9
$SURFTYPE
 70
     6
  9
$SURFU
 70
     6
  9
$SURFV
 70
     6
  9
$UCSBASE
  2

  9
$UCSNAME
  2

  9
$UCSORG
 10
0.0
 20
0.0
 30
0.0
  9
$UCSXDIR
 10
1.0
 20
0.0
 30
0.0
  9
$UCSYDIR
 10
0.0
 20
1.0
 30
0.0
  9
$UCSORTHOREF
  2

  9
$UCSORTHOVIEW
 70
     0
  9
$UCSORGTOP
 10
0.0
 20
0.0
 30
0.0
  9
$UCSORGBOTTOM
 10
0.0
 20
0.0
 30
0.0
  9
$UCSORGLEFT
 10
0.0
 20
0.0
 30
0.0
  9
$UCSORGRIGHT
 10
0.0
 20
0.0
 30
0.0
  9
$UCSORGFRONT
 10
0.0
 20
0.0
 30
0.0
  9
$UCSORGBACK
 10
0.0
 20
0.0
 30
0.0
  9
$PUCSBASE
  2

  9
$PUCSNAME
  2

  9
$PUCSORG
 10
0.0
 20
0.0
 30
0.0
  9
$PUCSXDIR
 10
1.0
 20
0.0
 30
0.0
  9
$PUCSYDIR
 10
0.0
 20
1.0
 30
0.0
  9
$PUCSORTHOREF
  2

  9
$PUCSORTHOVIEW
 70
     0
  9
$PUCSORGTOP
 10
0.0
 20
0.0
 30
0.0
  9
$PUCSORGBOTTOM
 10
0.0
 20
0.0
 30
0.0
  9
$PUCSORGLEFT
 10
0.0
 20
0.0
 30
0.0
  9
$PUCSORGRIGHT
 10
0.0
 20
0.0
 30
0.0
  9
$PUCSORGFRONT
 10
0.0
 20
0.0
 30
0.0
  9
$PUCSORGBACK
 10
0.0
 20
0.0
 30
0.0
  9
$USERI1
 70
     0
  9
$USERI2
 70
     0
  9
$USERI3
 70
     0
  9
$USERI4
 70
     0
  9
$USERI5
 70
     0
  9
$USERR1
 40
10.0
  9
$USERR2
 40
0.0
  9
$USERR3
 40
0.0
  9
$USERR4
 40
0.0
  9
$USERR5
 40
0.0
  9
$WORLDVIEW
 70
     1
  9
$SHADEDGE
 70
     3
  9
$SHADEDIF
 70
    70
  9
$TILEMODE
 70
     0
  9
$MAXACTVP
 70
    48
  9
$PINSBASE
 10
0.0
 20
0.0
 30
0.0
  9
$PLIMCHECK
 70
     0
  9
$PEXTMIN
 10
1.049999999999999
 20
0.6999999999999993
 30
0.0
  9
$PEXTMAX
 10
9.449999999999999
 20
6.3
 30
0.0
  9
$PLIMMIN
 10
0.0
 20
0.0
  9
$PLIMMAX
 10
11.0
 20
8.5
  9
$UNITMODE
 70
     0
  9
$VISRETAIN
 70
     1
  9
$PLINEGEN
 70
     0
  9
$PSLTSCALE
 70
     1
  9
$TREEDEPTH
 70
  3020
  9
$CMLSTYLE
  2
STANDARD
  9
$CMLJUST
 70
     0
  9
$CMLSCALE
 40
20.0
  9
$PROXYGRAPHICS
 70
     1
  9
$MEASUREMENT
 70
     0
  9
$CELWEIGHT
370
    -1
  9
$ENDCAPS
280
     0
  9
$JOINSTYLE
280
     0
  9
$LWDISPLAY
290
     0
  9
$INSUNITS
 70
     0
  9
$HYPERLINKBASE
  1

  9
$STYLESHEET
  1
monochrome.ctb
  9
$XEDIT
290
     1
  9
$CEPSNTYPE
380
     0
  9
$PSTYLEMODE
290
     1
  9
$FINGERPRINTGUID
  2
{6B368F64-F7EB-11D4-BFBA-00004C030E53}
  9
$VERSIONGUID
  2
{C1ABA3FC-5590-3842-9841-A6AA1A8841D4}
  9
$EXTNAMES
290
     1
  9
$PSVPSCALE
 40
0.0
  9
$OLESTARTUP
290
     0
  0
ENDSEC
  0
SECTION
  2
CLASSES
  0
CLASS
  1
ACDBDICTIONARYWDFLT
  2
AcDbDictionaryWithDefault
  3
ObjectDBX Classes
 90
        0
280
     0
281
     0
  0
CLASS
  1
ACDBPLACEHOLDER
  2
AcDbPlaceHolder
  3
ObjectDBX Classes
 90
        0
280
     0
281
     0
  0
CLASS
  1
LAYOUT
  2
AcDbLayout
  3
ObjectDBX Classes
 90
        0
280
     0
281
     0
  0
CLASS
  1
DICTIONARYVAR
  2
AcDbDictionaryVar
  3
ObjectDBX Classes
 90
        0
280
     0
281
     0
  0
CLASS
  1
MATERIAL
  2
AcDbMaterial
  3
ObjectDBX Classes
 90
     1153
280
     0
281
     0
  0
CLASS
  1
VISUALSTYLE
  2
AcDbVisualStyle
  3
ObjectDBX Classes
 90
     4095
280
     0
281
     0
  0
CLASS
  1
TABLESTYLE
  2
AcDbTableStyle
  3
ObjectDBX Classes
 90
     4095
280
     0
281
     0
  0
CLASS
  1
SCALE
  2
AcDbScale
  3
ObjectDBX Classes
 90
     1153
280
     0
281
     0
  0
CLASS
  1
MLEADERSTYLE
  2
AcDbMLeaderStyle
  3
ACDB_MLEADERSTYLE_CLASS
 90
     4095
280
     0
281
     0
  0
CLASS
  1
ACDBSECTIONVIEWSTYLE
  2
AcDbSectionViewStyle
  3
ObjectDBX Classes
 90
     1025
280
     0
281
     0
  0
CLASS
  1
ACDBDETAILVIEWSTYLE
  2
AcDbDetailViewStyle
  3
ObjectDBX Classes
 90
     1025
280
     0
281
     0
  0
CLASS
  1
SORTENTSTABLE
  2
AcDbSortentsTable
  3
ObjectDBX Classes
 90
        0
280
     0
281
     0
  0
CLASS
  1
CELLSTYLEMAP
  2
AcDbCellStyleMap
  3
ObjectDBX Classes
 90
     1152
280
     0
281
     0
  0
CLASS
  1
SUN
  2
AcDbSun
  3
SCENEOE
 90
     1153
280
     0
281
     0
  0
CLASS
  1
RASTERVARIABLES
  2
AcDbRasterVariables
  3
ISM
 90
        0
280
     0
281
     0
  0
ENDSEC
  0
SECTION
  2
TABLES
  0
TABLE
  2
VPORT
  5
8
102
{ACAD_XDICTIONARY
360
C4A4C
102
}
330
0
100
AcDbSymbolTable
 70
     1
  0
VPORT
  5
C3AF9
330
8
100
AcDbSymbolTableRecord
100
AcDbViewportTableRecord
  2
*Active
 70
     0
 10
0.0
 20
0.0
 11
1.0
 21
1.0
 12
6310.853560174756
 22
-3267.777993072623
 13
-147.9468458676922
 23
19.55743956420332
 14
10.0
 24
10.0
 15
10.0
 25
10.0
 16
0.0
 26
0.0
 36
1.0
 17
0.0
 27
0.0
 37
0.0
 40
1333.685056490296
 41
1.650065530799475
 42
50.0
 43
0.0
 44
0.0
 50
0.0
 51
0.0
 71
    16
 72
   100
 73
     1
 74
     0
 75
     0
 76
     0
 77
     0
 78
     0
281
     0
 65
     1
110
0.0
120
0.0
130
0.0
111
1.0
121
0.0
131
0.0
112
0.0
122
1.0
132
0.0
 79
     0
146
0.0
1001
ACAD_NAV_VCDISPLAY
1070
     3
  0
ENDTAB
  0
TABLE
  2
LTYPE
  5
5
330
0
100
AcDbSymbolTable
 70
     3
  0
LTYPE
  5
12
330
5
100
AcDbSymbolTableRecord
100
AcDbLinetypeTableRecord
  2
BYBLOCK
 70
     0
  3

 72
    65
 73
     0
 40
0.0
  0
LTYPE
  5
13
330
5
100
AcDbSymbolTableRecord
100
AcDbLinetypeTableRecord
  2
BYLAYER
 70
     0
  3

 72
    65
 73
     0
 40
0.0
  0
LTYPE
  5
14
330
5
100
AcDbSymbolTableRecord
100
AcDbLinetypeTableRecord
  2
CONTINUOUS
 70
     0
  3
Solid line
 72
    65
 73
     0
 40
0.0
  0
LTYPE
  5
969
330
5
100
AcDbSymbolTableRecord
100
AcDbLinetypeTableRecord
  2
CENTER2
 70
     0
  3
Center (.5x) ___ _ ___ _ ___ _ ___ _ ___ _ ___
 72
    65
 73
     4
 40
28.575
 49
19.05
 74
     0
 49
-3.174999999999999
 74
     0
 49
3.174999999999999
 74
     0
 49
-3.174999999999999
 74
     0
  0
LTYPE
  5
808B3
330
5
100
AcDbSymbolTableRecord
100
AcDbLinetypeTableRecord
  2
PHANTOM2
 70
     0
  3
Phantom (.5x) ___ _ _ ___ _ _ ___ _ _ ___ _ _
 72
    65
 73
     6
 40
1.25
 49
0.625
 74
     0
 49
-0.125
 74
     0
 49
0.125
 74
     0
 49
-0.125
 74
     0
 49
0.125
 74
     0
 49
-0.125
 74
     0
  0
ENDTAB
  0
TABLE
  2
LAYER
  5
2
102
{ACAD_XDICTIONARY
360
1E591
102
}
330
0
100
AcDbSymbolTable
 70
     9
  0
LAYER
  5
E
102
{ACAD_XDICTIONARY
360
A181E
102
}
330
2
100
AcDbSymbolTableRecord
100
AcDbLayerTableRecord
  2
0
 70
     2
 62
     7
  6
CONTINUOUS
370
    -3
390
73E
  0
LAYER
  5
8C6
102
{ACAD_XDICTIONARY
360
A1826
102
}
330
2
100
AcDbSymbolTableRecord
100
AcDbLayerTableRecord
  2
文字
 70
     0
 62
     7
  6
CONTINUOUS
370
    20
390
73E
  0
LAYER
  5
96A
102
{ACAD_XDICTIONARY
360
A182C
102
}
330
2
100
AcDbSymbolTableRecord
100
AcDbLayerTableRecord
  2
中心線
 70
     0
 62
     7
  6
CENTER2
370
    13
390
73E
  0
LAYER
  5
1521
102
{ACAD_XDICTIONARY
360
A182E
102
}
330
2
100
AcDbSymbolTableRecord
100
AcDbLayerTableRecord
  2
実線
 70
     0
 62
     7
  6
CONTINUOUS
370
    30
390
73E
  0
LAYER
  5
1523
102
{ACAD_XDICTIONARY
360
A1832
102
}
330
2
100
AcDbSymbolTableRecord
100
AcDbLayerTableRecord
  2
細線
 70
     0
 62
     7
  6
CONTINUOUS
370
    13
390
73E
  0
LAYER
  5
1526
102
{ACAD_XDICTIONARY
360
A1834
102
}
330
2
100
AcDbSymbolTableRecord
100
AcDbLayerTableRecord
  2
\U+FF77\U+FF6C\U+FF6F\U+FF8C\U+FF9F\U+FF8E\U+FF9E\U+FF99\U+FF84
 70
     0
 62
     7
  6
CONTINUOUS
370
    30
390
73E
  0
LAYER
  5
44F0
102
{ACAD_XDICTIONARY
360
A1836
102
}
330
2
100
AcDbSymbolTableRecord
100
AcDbLayerTableRecord
  2
\U+FF7A\U+FF88\U+FF78\U+FF80
 70
     0
 62
     7
  6
CONTINUOUS
370
    30
390
73E
  0
LAYER
  5
89316
102
{ACAD_XDICTIONARY
360
A185E
102
}
330
2
100
AcDbSymbolTableRecord
100
AcDbLayerTableRecord
  2
本体
 70
     0
 62
     7
  6
CONTINUOUS
370
    30
390
73E
  0
LAYER
  5
C4855
102
{ACAD_XDICTIONARY
360
C4856
102
}
330
2
100
AcDbSymbolTableRecord
100
AcDbLayerTableRecord
  2
寸法
 70
     0
 62
     7
  6
CONTINUOUS
370
    15
390
73E
  0
ENDTAB
  0
TABLE
  2
STYLE
  5
3
330
0
100
AcDbSymbolTable
 70
     6
  0
STYLE
  5
F
330
3
100
AcDbSymbolTableRecord
100
AcDbTextStyleTableRecord
  2
STANDARD
 70
     0
 40
0.0
 41
1.0
 50
0.0
 71
     0
 42
2.5
  3
simplex.shx
  4
bigfont.shx
  0
STYLE
  5
34
330
3
100
AcDbSymbolTableRecord
100
AcDbTextStyleTableRecord
  2
TIMESNR
 70
     0
 40
0.0
 41
1.0
 50
0.0
 71
     0
 42
2.0
  3
times.ttf
  4

1001
ACAD
1000
Times New Roman
1071
       18
  0
STYLE
  5
8D7
330
3
100
AcDbSymbolTableRecord
100
AcDbTextStyleTableRecord
  2
MS\U+FF7A\U+FF9E\U+FF7C\U+FF6F\U+FF78-0
 70
     0
 40
0.0
 41
1.0
 50
0.0
 71
     0
 42
4.0
  3
simplex.shx
  4
bigfont.shx
  0
STYLE
  5
1529
330
3
100
AcDbSymbolTableRecord
100
AcDbTextStyleTableRecord
  2
まこ
 70
     0
 40
0.0
 41
1.0
 50
0.0
 71
     0
 42
3.2
  3
simplex.shx
  4
bigfont.shx
  0
STYLE
  5
1A5A7
330
3
100
AcDbSymbolTableRecord
100
AcDbTextStyleTableRecord
  2
MS\U+FF7A\U+FF9E\U+FF7C\U+FF6F\U+FF78N
 70
     0
 40
0.0
 41
1.0
 50
0.0
 71
     0
 42
5.0
  3

  4

1001
ACAD
1000
MS Gothic
1071
    32817
  0
STYLE
  5
80335
330
3
100
AcDbSymbolTableRecord
100
AcDbTextStyleTableRecord
  2
\U+FF7D\U+FF80\U+FF72\U+FF991
 70
     0
 40
0.0
 41
1.0
 50
0.0
 71
     0
 42
3.2
  3
simplex.shx
  4
extfont.shx
  0
ENDTAB
  0
TABLE
  2
VIEW
  5
6
330
0
100
AcDbSymbolTable
 70
     0
  0
ENDTAB
  0
TABLE
  2
UCS
  5
7
330
0
100
AcDbSymbolTable
 70
     0
  0
ENDTAB
  0
TABLE
  2
APPID
  5
9
330
0
100
AcDbSymbolTable
 70
    12
  0
APPID
  5
10
330
9
100
AcDbSymbolTableRecord
100
AcDbRegAppTableRecord
  2
ACAD
 70
     0
  0
APPID
  5
8F5A1
330
9
100
AcDbSymbolTableRecord
100
AcDbRegAppTableRecord
  2
ACAD_NAV_VCDISPLAY
 70
     0
  0
APPID
  5
9D2AC
330
9
100
AcDbSymbolTableRecord
100
AcDbRegAppTableRecord
  2
ACAD_EXEMPT_FROM_CAD_STANDARDS
 70
     0
  0
APPID
  5
9F5CA
330
9
100
AcDbSymbolTableRecord
100
AcDbRegAppTableRecord
  2
ACAD_DSTYLE_DIMRADIAL_EXTENSION
 70
     0
  0
APPID
  5
9F624
330
9
100
AcDbSymbolTableRecord
100
AcDbRegAppTableRecord
  2
AcadAnnoMonitorAlertIconDisabled
 70
     0
  0
APPID
  5
A2043
330
9
100
AcDbSymbolTableRecord
100
AcDbRegAppTableRecord
  2
ACAD_MLEADERVER
 70
     0
  0
APPID
  5
A2088
330
9
100
AcDbSymbolTableRecord
100
AcDbRegAppTableRecord
  2
ACAD_DSTYLE_DIMFLIPARROW_WHICH_SYMBOL
 70
     0
  0
APPID
  5
B4EF0
330
9
100
AcDbSymbolTableRecord
100
AcDbRegAppTableRecord
  2
AcadAnnotative
 70
     0
  0
APPID
  5
BCFD9
330
9
100
AcDbSymbolTableRecord
100
AcDbRegAppTableRecord
  2
ACAD_PSEXT
 70
     0
  0
APPID
  5
C3D61
330
9
100
AcDbSymbolTableRecord
100
AcDbRegAppTableRecord
  2
PE_CLOUD
 70
     0
  0
APPID
  5
C4387
330
9
100
AcDbSymbolTableRecord
100
AcDbRegAppTableRecord
  2
TB_S_MPD
 70
     0
  0
APPID
  5
C472C
330
9
100
AcDbSymbolTableRecord
100
AcDbRegAppTableRecord
  2
PLOTTRANSPARENCY
 70
     0
  0
ENDTAB
  0
TABLE
  2
DIMSTYLE
  5
A
330
0
100
AcDbSymbolTable
 70
     2
100
AcDbDimStyleTable
 71
     0
  0
DIMSTYLE
105
1D
330
A
100
AcDbSymbolTableRecord
100
AcDbDimStyleTableRecord
  2
STANDARD
 70
     0
 41
3.0
 42
0.8
 44
0.8
 73
     0
 74
     0
 77
     3
 78
     8
 79
     2
140
3.0
141
0.0
147
0.5
176
     4
177
     4
178
   256
340
8D7
341
89E
342
89E
371
    13
372
    13
  0
DIMSTYLE
105
8264
330
A
100
AcDbSymbolTableRecord
100
AcDbDimStyleTableRecord
  2
まこ-10
 70
     0
 40
2.0
 41
1.5
 42
1.0
 44
0.8
 73
     0
 74
     0
 77
     3
 78
     8
 79
     2
140
2.5
141
0.0
147
0.5
176
     4
177
     4
178
   256
179
     5
271
     5
272
     5
289
     1
340
8D7
341
89E
342
89E
371
    13
372
    13
  0
ENDTAB
  0
TABLE
  2
BLOCK_RECORD
  5
1
330
0
100
AcDbSymbolTable
 70
     2
  0
BLOCK_RECORD
  5
18
102
{ACAD_XDICTIONARY
360
9F677
102
}
330
1
100
AcDbSymbolTableRecord
100
AcDbBlockTableRecord
  2
*MODEL_SPACE
340
741
  0
BLOCK_RECORD
  5
C47C6
330
1
100
AcDbSymbolTableRecord
100
AcDbBlockTableRecord
  2
*Paper_Space
340
C47C7
  0
BLOCK_RECORD
  5
89E
330
1
100
AcDbSymbolTableRecord
100
AcDbBlockTableRecord
  2
_Open30
340
0
  0
BLOCK_RECORD
  5
C495C
102
{ACAD_XDICTIONARY
360
C4960
102
}
330
1
100
AcDbSymbolTableRecord
100
AcDbBlockTableRecord
  2
A$Ca7c4725f
340
0
  0
ENDTAB
  0
ENDSEC
  0
SECTION
  2
BLOCKS
  0
BLOCK
  5
19
330
18
100
AcDbEntity
  8
0
100
AcDbBlockBegin
  2
*MODEL_SPACE
 70
     0
 10
0.0
 20
0.0
 30
0.0
  3
*MODEL_SPACE
  1
*MODEL_SPACE
  0
ENDBLK
  5
1A
330
18
100
AcDbEntity
  8
0
100
AcDbBlockEnd
  0
BLOCK
  5
C47C8
330
C47C6
100
AcDbEntity
 67
     1
  8
0
100
AcDbBlockBegin
  2
*Paper_Space
 70
     0
 10
0.0
 20
0.0
 30
0.0
  3
*Paper_Space
  1
*Paper_Space
  0
ENDBLK
  5
C47C9
330
C47C6
100
AcDbEntity
 67
     1
  8
0
100
AcDbBlockEnd
  0
BLOCK
  5
8A2
330
89E
100
AcDbEntity
  8
0
100
AcDbBlockBegin
  2
_Open30
 70
     0
 10
0.0
 20
0.0
 30
0.0
  3
_Open30
  1
_Open30
  0
LINE
  5
89F
330
89E
100
AcDbEntity
  8
0
  6
ByBlock
 62
     0
370
    -2
100
AcDbLine
 10
-1.0
 20
0.26794919
 30
0.0
 11
0.0
 21
0.0
 31
0.0
  0
LINE
  5
8A0
330
89E
100
AcDbEntity
  8
0
  6
ByBlock
 62
     0
370
    -2
100
AcDbLine
 10
0.0
 20
0.0
 30
0.0
 11
-1.0
 21
-0.26794919
 31
0.0
  0
LINE
  5
8A1
330
89E
100
AcDbEntity
  8
0
  6
ByBlock
 62
     0
370
    -2
100
AcDbLine
 10
0.0
 20
0.0
 30
0.0
 11
-1.0
 21
0.0
 31
0.0
  0
ENDBLK
  5
8A3
330
89E
100
AcDbEntity
  8
0
100
AcDbBlockEnd
  0
BLOCK
  5
C4962
330
C495C
100
AcDbEntity
  8
0
100
AcDbBlockBegin
  2
A$Ca7c4725f
 70
     0
 10
0.0
 20
0.0
 30
0.0
  3
A$Ca7c4725f
  1

  0
TEXT
  5
C495D
330
C495C
100
AcDbEntity
  8
文字
100
AcDbText
 10
-0.2659998823603473
 20
22.11640870900679
 30
0.0
 40
3.5
  1
τDISCモータ ND110-85-FSP-HS（INC） NMR-SAUIA2A-551AP
 41
0.38
  7
まこ
100
AcDbText
  0
TEXT
  5
C495E
330
C495C
100
AcDbEntity
  8
文字
100
AcDbText
 10
1.394204293739448
 20
10.89123983442948
 30
0.0
 40
6.0
  1
外形図（INC_15rps）_高精度_PIN
 41
0.5
  7
まこ
100
AcDbText
  0
TEXT
  5
C495F
330
C495C
100
AcDbEntity
  8
文字
100
AcDbText
 10
-0.4542448882496047
 20
-0.4666669334176277
 30
0.0
 40
7.0
  1
ＳＥ－８１８１１
 41
0.9529999999999999
  7
まこ
100
AcDbText
  0
ENDBLK
  5
C4963
330
C495C
100
AcDbEntity
  8
0
100
AcDbBlockEnd
  0
ENDSEC
  0
SECTION
  2
ENTITIES
  0
TEXT
  5
16EAD
330
18
100
AcDbEntity
  8
文字
100
AcDbText
 10
-213.0399041533702
 20
458.6683596617151
 30
0.0
 40
2.699999892000001
  1

  7
まこ
 72
     1
 11
-213.0399041533702
 21
460.0183596077151
 31
0.0
100
AcDbText
 73
     2
  0
LINE
  5
B640D
330
18
100
AcDbEntity
  8
実線
 48
0.2
100
AcDbLine
 10
5769.91668923845
 20
-2996.405054186566
 30
0.0
 11
5769.916690966985
 21
-3087.052722798985
 31
0.0
  0
ARC
  5
B640E
330
18
100
AcDbEntity
  8
実線
 48
0.2
100
AcDbCircle
 10
5713.916689238356
 20
-3041.728888975839
 30
0.0
 40
55.25000000001637
100
AcDbArc
 50
0.0000000000521102
 51
151.0239196669747
  0
LINE
  5
B640F
330
18
100
AcDbEntity
  8
実線
 48
0.2
100
AcDbLine
 10
5657.916687509915
 20
-3013.420136051577
 30
0.0
 11
5657.916687509915
 21
-2996.405055152577
 31
0.0
  0
LINE
  5
B6410
330
18
100
AcDbEntity
  8
中心線
 48
0.5
100
AcDbLine
 10
5713.916689238452
 20
-3109.189107253475
 30
0.0
 11
5713.916689238452
 21
-2974.268670698086
 31
0.0
  0
ARC
  5
B6411
330
18
100
AcDbEntity
  8
実線
 48
0.2
100
AcDbCircle
 10
5713.91668923845
 20
-3041.728888975781
 30
0.0
 40
55.99999999999997
100
AcDbArc
 50
212.1939475442784
 51
147.8060524557216
  0
ARC
  5
B6417
330
18
100
AcDbEntity
  8
実線
 48
0.2
100
AcDbCircle
 10
5713.916689238356
 20
-3041.728888975839
 30
0.0
 40
55.25000000001637
100
AcDbArc
 50
208.97608033279
 51
0.0000000000521102
  0
LINE
  5
B6418
330
18
100
AcDbEntity
  8
中心線
 48
0.5
100
AcDbLine
 10
5646.456470960756
 20
-3041.728888975781
 30
0.0
 11
5781.376907516143
 21
-3041.728888975781
 31
0.0
  0
LINE
  5
B6419
330
18
100
AcDbEntity
  8
実線
 48
0.2
100
AcDbLine
 10
5759.240523061654
 20
-3097.728890704315
 30
0.0
 11
5668.592854391768
 21
-3097.728888975781
 31
0.0
  0
CIRCLE
  5
B641C
330
18
100
AcDbEntity
  8
\U+FF77\U+FF6C\U+FF6F\U+FF8C\U+FF9F\U+FF8E\U+FF9E\U+FF99\U+FF84
100
AcDbCircle
 10
5676.72287254814
 20
-3078.922705830119
 30
0.0
 40
2.0
  0
LINE
  5
B641D
330
18
100
AcDbEntity
  8
実線
 48
0.2
100
AcDbLine
 10
5657.916687509915
 20
-3087.052722798985
 30
0.0
 11
5657.916687509915
 21
-3070.037641899984
 31
0.0
  0
ARC
  5
B642D
330
18
100
AcDbEntity
  8
実線
 48
0.2
100
AcDbCircle
 10
5713.91668923845
 20
-3041.728888975781
 30
0.0
 40
72.49999999999996
100
AcDbArc
 50
220.007753913509
 51
229.9922460865276
  0
ARC
  5
B642E
330
18
100
AcDbEntity
  8
実線
 48
0.2
100
AcDbCircle
 10
5668.592854449236
 20
-3095.728888975781
 30
0.0
 40
2.0
100
AcDbArc
 50
229.9922460865276
 51
270.0
  0
ARC
  5
B642F
330
18
100
AcDbEntity
  8
実線
 48
0.2
100
AcDbCircle
 10
5659.91668923845
 20
-3087.052723764994
 30
0.0
 40
2.0
100
AcDbArc
 50
180.0
 51
220.007753913509
  0
LINE
  5
B6430
330
18
100
AcDbEntity
  8
\U+FF77\U+FF6C\U+FF6F\U+FF8C\U+FF9F\U+FF8E\U+FF9E\U+FF99\U+FF84
100
AcDbLine
 10
5677.416313449703
 20
-3077.875711537962
 30
0.0
 11
5676.72287254814
 21
-3078.569152439525
 31
0.0
  0
LINE
  5
B6431
330
18
100
AcDbEntity
  8
\U+FF77\U+FF6C\U+FF6F\U+FF8C\U+FF9F\U+FF8E\U+FF9E\U+FF99\U+FF84
100
AcDbLine
 10
5677.769866840296
 20
-3078.229264928555
 30
0.0
 11
5677.076425938732
 21
-3078.922705830119
 31
0.0
  0
LINE
  5
B6432
330
18
100
AcDbEntity
  8
\U+FF77\U+FF6C\U+FF6F\U+FF8C\U+FF9F\U+FF8E\U+FF9E\U+FF99\U+FF84
100
AcDbLine
 10
5675.675878255983
 20
-3078.229264928555
 30
0.0
 11
5676.369319157545
 21
-3078.922705830119
 31
0.0
  0
LINE
  5
B6433
330
18
100
AcDbEntity
  8
\U+FF77\U+FF6C\U+FF6F\U+FF8C\U+FF9F\U+FF8E\U+FF9E\U+FF99\U+FF84
100
AcDbLine
 10
5676.029431646576
 20
-3077.875711537962
 30
0.0
 11
5676.72287254814
 21
-3078.569152439525
 31
0.0
  0
LINE
  5
B6434
330
18
100
AcDbEntity
  8
\U+FF77\U+FF6C\U+FF6F\U+FF8C\U+FF9F\U+FF8E\U+FF9E\U+FF99\U+FF84
100
AcDbLine
 10
5676.369319157545
 20
-3078.922705830119
 30
0.0
 11
5675.675878255981
 21
-3079.616146731682
 31
0.0
  0
LINE
  5
B6435
330
18
100
AcDbEntity
  8
\U+FF77\U+FF6C\U+FF6F\U+FF8C\U+FF9F\U+FF8E\U+FF9E\U+FF99\U+FF84
100
AcDbLine
 10
5676.722872548138
 20
-3079.276259220712
 30
0.0
 11
5676.029431646576
 21
-3079.969700122277
 31
0.0
  0
LINE
  5
B6436
330
18
100
AcDbEntity
  8
\U+FF77\U+FF6C\U+FF6F\U+FF8C\U+FF9F\U+FF8E\U+FF9E\U+FF99\U+FF84
100
AcDbLine
 10
5677.076425938732
 20
-3078.922705830118
 30
0.0
 11
5677.769866840296
 21
-3079.616146731682
 31
0.0
  0
LINE
  5
B6437
330
18
100
AcDbEntity
  8
\U+FF77\U+FF6C\U+FF6F\U+FF8C\U+FF9F\U+FF8E\U+FF9E\U+FF99\U+FF84
100
AcDbLine
 10
5676.722872548138
 20
-3079.276259220712
 30
0.0
 11
5677.416313449703
 21
-3079.969700122277
 31
0.0
  0
LINE
  5
B6438
330
18
100
AcDbEntity
  8
\U+FF77\U+FF6C\U+FF6F\U+FF8C\U+FF9F\U+FF8E\U+FF9E\U+FF99\U+FF84
100
AcDbLine
 10
5676.029431646576
 20
-3079.969700122277
 30
0.0
 11
5675.675878255983
 21
-3079.616146731682
 31
0.0
  0
LINE
  5
B6439
330
18
100
AcDbEntity
  8
\U+FF77\U+FF6C\U+FF6F\U+FF8C\U+FF9F\U+FF8E\U+FF9E\U+FF99\U+FF84
100
AcDbLine
 10
5675.675878255983
 20
-3078.229264928555
 30
0.0
 11
5676.029431646576
 21
-3077.875711537962
 31
0.0
  0
LINE
  5
B643A
330
18
100
AcDbEntity
  8
\U+FF77\U+FF6C\U+FF6F\U+FF8C\U+FF9F\U+FF8E\U+FF9E\U+FF99\U+FF84
100
AcDbLine
 10
5677.769866840297
 20
-3078.229264928555
 30
0.0
 11
5677.416313449703
 21
-3077.875711537962
 31
0.0
  0
LINE
  5
B643B
330
18
100
AcDbEntity
  8
\U+FF77\U+FF6C\U+FF6F\U+FF8C\U+FF9F\U+FF8E\U+FF9E\U+FF99\U+FF84
100
AcDbLine
 10
5677.416313449703
 20
-3079.969700122277
 30
0.0
 11
5677.769866840296
 21
-3079.616146731682
 31
0.0
  0
CIRCLE
  5
B643C
330
18
100
AcDbEntity
  8
実線
 48
0.2
100
AcDbCircle
 10
5669.72251541429
 20
-3085.923062799944
 30
0.0
 40
3.5
  0
ARC
  5
B643D
330
18
100
AcDbEntity
  8
中心線
 48
0.5
100
AcDbCircle
 10
5713.91668923845
 20
-3041.728888975781
 30
0.0
 40
62.50000000000287
100
AcDbArc
 50
218.3059146666068
 51
231.6940853333932
  0
LINE
  5
B643E
330
18
100
AcDbEntity
  8
中心線
 48
0.5
100
AcDbLine
 10
5674.882953783574
 20
-3080.762624430657
 30
0.0
 11
5664.562077045006
 21
-3091.083501169225
 31
0.0
  0
LINE
  5
B643F
330
18
100
AcDbEntity
  8
中心線
100
AcDbLine
 10
5622.232597589022
 20
-3041.72888897578
 30
0.0
 11
5653.416689238451
 21
-3041.728888975781
 31
0.0
  0
ARC
  5
B644B
330
18
100
AcDbEntity
  8
実線
 48
0.2
100
AcDbCircle
 10
5713.91668923845
 20
-3041.728888975781
 30
0.0
 40
62.49999999999994
100
AcDbArc
 50
155.0714582197782
 51
204.9285417802218
  0
ARC
  5
B644C
330
18
100
AcDbEntity
  8
実線
 48
0.2
100
AcDbCircle
 10
5713.916689238412
 20
-3041.72888897573
 30
0.0
 40
61.0
100
AcDbArc
 50
155.1127895121913
 51
204.8872104878087
  0
LINE
  5
B6457
330
18
100
AcDbEntity
  8
実線
 48
0.2
100
AcDbLine
 10
5659.488410742758
 20
-3067.978888975722
 30
0.0
 11
5664.707950177021
 21
-3067.978888975725
 31
0.0
  0
ARC
  5
B6458
330
18
100
AcDbEntity
  8
実線
 48
0.2
100
AcDbCircle
 10
5662.295472670065
 20
-3074.228888975779
 30
0.0
 40
5.00000000000002
100
AcDbArc
 50
32.19394754427842
 51
90.0
  0
LINE
  5
B6459
330
18
100
AcDbEntity
  8
実線
 48
0.2
100
AcDbLine
 10
5659.053221425912
 20
-3069.228888826769
 30
0.0
 11
5662.295471957824
 21
-3069.228888826769
 31
0.0
  0
ARC
  5
B645A
330
18
100
AcDbEntity
  8
実線
 48
0.2
100
AcDbCircle
 10
5654.916689238451
 20
-3070.037642060501
 30
0.0
 40
3.0
100
AcDbArc
 50
0.0
 51
34.05827246151328
  0
ARC
  5
B645B
330
18
100
AcDbEntity
  8
実線
 48
0.2
100
AcDbCircle
 10
5659.053222341069
 20
-3067.228888975781
 30
0.0
 40
2.000000000000014
100
AcDbArc
 50
204.9285417802218
 51
270.0
  0
ARC
  5
B645C
330
18
100
AcDbEntity
  8
実線
 48
0.2
100
AcDbCircle
 10
5659.488410742758
 20
-3066.978888975722
 30
0.0
 40
1.0
100
AcDbArc
 50
204.8872104878087
 51
269.9999999998957
  0
ARC
  5
B645D
330
18
100
AcDbEntity
  8
実線
 48
0.2
100
AcDbCircle
 10
5664.707950177021
 20
-3068.978888975725
 30
0.0
 40
1.0
100
AcDbArc
 50
28.97608033278996
 51
90.0
  0
LINE
  5
B646C
330
18
100
AcDbEntity
  8
実線
 48
0.2
100
AcDbLine
 10
5659.488410742765
 20
-3015.478888975722
 30
0.0
 11
5664.707950177151
 21
-3015.478888975722
 31
0.0
  0
ARC
  5
B646D
330
18
100
AcDbEntity
  8
実線
 48
0.2
100
AcDbCircle
 10
5662.295472670065
 20
-3009.228888975781
 30
0.0
 40
5.000000000000007
100
AcDbArc
 50
270.0
 51
327.8060524557216
  0
LINE
  5
B646E
330
18
100
AcDbEntity
  8
実線
 48
0.2
100
AcDbLine
 10
5662.295471957824
 20
-3014.228889124793
 30
0.0
 11
5659.053221425912
 21
-3014.228889124793
 31
0.0
  0
ARC
  5
B646F
330
18
100
AcDbEntity
  8
実線
 48
0.2
100
AcDbCircle
 10
5654.916689238451
 20
-3013.420135891058
 30
0.0
 40
3.000000000000015
100
AcDbArc
 50
325.9398073321623
 51
0.0
  0
ARC
  5
B6470
330
18
100
AcDbEntity
  8
実線
 48
0.2
100
AcDbCircle
 10
5659.053222341069
 20
-3016.228888975781
 30
0.0
 40
2.0
100
AcDbArc
 50
90.0
 51
155.0714582197782
  0
ARC
  5
B6471
330
18
100
AcDbEntity
  8
実線
 48
0.2
100
AcDbCircle
 10
5659.488410742765
 20
-3016.478888975722
 30
0.0
 40
1.0
100
AcDbArc
 50
90.0
 51
155.1127895121913
  0
ARC
  5
B6472
330
18
100
AcDbEntity
  8
実線
 48
0.2
100
AcDbCircle
 10
5664.707950177151
 20
-3014.478888975722
 30
0.0
 40
1.0
100
AcDbArc
 50
270.0
 51
331.0239196669747
  0
CIRCLE
  5
B6473
330
18
100
AcDbEntity
  8
\U+FF77\U+FF6C\U+FF6F\U+FF8C\U+FF9F\U+FF8E\U+FF9E\U+FF99\U+FF84
100
AcDbCircle
 10
5751.110506092791
 20
-3078.922705666094
 30
0.0
 40
2.0
  0
ARC
  5
B6476
330
18
100
AcDbEntity
  8
実線
 48
0.2
100
AcDbCircle
 10
5713.91668923845
 20
-3041.728888975781
 30
0.0
 40
72.50000000000003
100
AcDbArc
 50
310.0077539134724
 51
319.992246086491
  0
ARC
  5
B6477
330
18
100
AcDbEntity
  8
実線
 48
0.2
100
AcDbCircle
 10
5759.240524027664
 20
-3095.728888975781
 30
0.0
 40
2.000000000000008
100
AcDbArc
 50
270.0
 51
310.0077539134724
  0
CIRCLE
  5
B6478
330
18
100
AcDbEntity
  8
実線
 48
0.2
100
AcDbCircle
 10
5758.110863062612
 20
-3085.923062799941
 30
0.0
 40
3.5
  0
ARC
  5
B6479
330
18
100
AcDbEntity
  8
中心線
 48
0.5
100
AcDbCircle
 10
5713.91668923845
 20
-3041.728888975781
 30
0.0
 40
62.50000000000287
100
AcDbArc
 50
308.3059146666068
 51
321.6940853333932
  0
LINE
  5
B647A
330
18
100
AcDbEntity
  8
中心線
 48
0.5
100
AcDbLine
 10
5752.950424693326
 20
-3080.762624430658
 30
0.0
 11
5763.271301431895
 21
-3091.083501169225
 31
0.0
  0
LINE
  5
B647B
330
18
100
AcDbEntity
  8
\U+FF77\U+FF6C\U+FF6F\U+FF8C\U+FF9F\U+FF8E\U+FF9E\U+FF99\U+FF84
100
AcDbLine
 10
5750.063511800634
 20
-3078.229264764531
 30
0.0
 11
5750.756952702197
 21
-3078.922705666094
 31
0.0
  0
LINE
  5
B647C
330
18
100
AcDbEntity
  8
\U+FF77\U+FF6C\U+FF6F\U+FF8C\U+FF9F\U+FF8E\U+FF9E\U+FF99\U+FF84
100
AcDbLine
 10
5750.417065191226
 20
-3077.875711373939
 30
0.0
 11
5751.110506092791
 21
-3078.569152275502
 31
0.0
  0
LINE
  5
B647D
330
18
100
AcDbEntity
  8
\U+FF77\U+FF6C\U+FF6F\U+FF8C\U+FF9F\U+FF8E\U+FF9E\U+FF99\U+FF84
100
AcDbLine
 10
5750.417065191226
 20
-3079.969699958252
 30
0.0
 11
5751.110506092791
 21
-3079.276259056689
 31
0.0
  0
LINE
  5
B647E
330
18
100
AcDbEntity
  8
\U+FF77\U+FF6C\U+FF6F\U+FF8C\U+FF9F\U+FF8E\U+FF9E\U+FF99\U+FF84
100
AcDbLine
 10
5750.063511800634
 20
-3079.616146567659
 30
0.0
 11
5750.756952702197
 21
-3078.922705666094
 31
0.0
  0
LINE
  5
B647F
330
18
100
AcDbEntity
  8
\U+FF77\U+FF6C\U+FF6F\U+FF8C\U+FF9F\U+FF8E\U+FF9E\U+FF99\U+FF84
100
AcDbLine
 10
5751.110506092791
 20
-3079.276259056689
 30
0.0
 11
5751.803946994354
 21
-3079.969699958253
 31
0.0
  0
LINE
  5
B6480
330
18
100
AcDbEntity
  8
\U+FF77\U+FF6C\U+FF6F\U+FF8C\U+FF9F\U+FF8E\U+FF9E\U+FF99\U+FF84
100
AcDbLine
 10
5751.464059483383
 20
-3078.922705666097
 30
0.0
 11
5752.157500384948
 21
-3079.616146567659
 31
0.0
  0
LINE
  5
B6481
330
18
100
AcDbEntity
  8
\U+FF77\U+FF6C\U+FF6F\U+FF8C\U+FF9F\U+FF8E\U+FF9E\U+FF99\U+FF84
100
AcDbLine
 10
5751.110506092789
 20
-3078.569152275502
 30
0.0
 11
5751.803946994354
 21
-3077.875711373939
 31
0.0
  0
LINE
  5
B6482
330
18
100
AcDbEntity
  8
\U+FF77\U+FF6C\U+FF6F\U+FF8C\U+FF9F\U+FF8E\U+FF9E\U+FF99\U+FF84
100
AcDbLine
 10
5751.464059483383
 20
-3078.922705666097
 30
0.0
 11
5752.157500384948
 21
-3078.229264764531
 31
0.0
  0
LINE
  5
B6483
330
18
100
AcDbEntity
  8
\U+FF77\U+FF6C\U+FF6F\U+FF8C\U+FF9F\U+FF8E\U+FF9E\U+FF99\U+FF84
100
AcDbLine
 10
5752.157500384948
 20
-3079.616146567659
 30
0.0
 11
5751.803946994354
 21
-3079.969699958252
 31
0.0
  0
LINE
  5
B6484
330
18
100
AcDbEntity
  8
\U+FF77\U+FF6C\U+FF6F\U+FF8C\U+FF9F\U+FF8E\U+FF9E\U+FF99\U+FF84
100
AcDbLine
 10
5750.417065191226
 20
-3079.969699958252
 30
0.0
 11
5750.063511800634
 21
-3079.616146567659
 31
0.0
  0
LINE
  5
B6485
330
18
100
AcDbEntity
  8
\U+FF77\U+FF6C\U+FF6F\U+FF8C\U+FF9F\U+FF8E\U+FF9E\U+FF99\U+FF84
100
AcDbLine
 10
5750.417065191226
 20
-3077.875711373937
 30
0.0
 11
5750.063511800634
 21
-3078.229264764531
 31
0.0
  0
LINE
  5
B6486
330
18
100
AcDbEntity
  8
\U+FF77\U+FF6C\U+FF6F\U+FF8C\U+FF9F\U+FF8E\U+FF9E\U+FF99\U+FF84
100
AcDbLine
 10
5752.157500384948
 20
-3078.229264764531
 30
0.0
 11
5751.803946994354
 21
-3077.875711373939
 31
0.0
  0
ARC
  5
B6487
330
18
100
AcDbEntity
  8
実線
 48
0.2
100
AcDbCircle
 10
5767.91668923845
 20
-3087.052723764994
 30
0.0
 40
2.0
100
AcDbArc
 50
319.992246086491
 51
0.0
  0
CIRCLE
  5
B648E
330
18
100
AcDbEntity
  8
実線
 48
0.2
100
AcDbCircle
 10
5731.41668923845
 20
-3041.728888975781
 30
0.0
 40
2.099999999999993
  0
CIRCLE
  5
B648F
330
18
100
AcDbEntity
  8
細線
100
AcDbCircle
 10
5731.41668923845
 20
-3041.728888975781
 30
0.0
 40
2.5
  0
CIRCLE
  5
B6491
330
18
100
AcDbEntity
  8
細線
100
AcDbCircle
 10
5696.416689238397
 20
-3041.728888975779
 30
0.0
 40
2.5
  0
CIRCLE
  5
B6492
330
18
100
AcDbEntity
  8
実線
 48
0.2
100
AcDbCircle
 10
5696.416689238397
 20
-3041.728888975779
 30
0.0
 40
2.099999999999993
  0
CIRCLE
  5
B6493
330
18
100
AcDbEntity
  8
中心線
 48
0.5
100
AcDbCircle
 10
5713.91668923845
 20
-3041.728888975781
 30
0.0
 40
17.50000000003921
  0
CIRCLE
  5
B6494
330
18
100
AcDbEntity
  8
実線
 48
0.2
100
AcDbCircle
 10
5713.91668923845
 20
-3041.728888975781
 30
0.0
 40
9.500000000000028
  0
CIRCLE
  5
B6495
330
18
100
AcDbEntity
  8
実線
 48
0.2
100
AcDbCircle
 10
5713.91668923845
 20
-3041.728888975781
 30
0.0
 40
24.90000094892503
  0
CIRCLE
  5
B6496
330
18
100
AcDbEntity
  8
実線
 48
0.2
100
AcDbCircle
 10
5713.91668923845
 20
-3041.728888975781
 30
0.0
 40
29.65
  0
CIRCLE
  5
B6497
330
18
100
AcDbEntity
  8
実線
 48
0.2
100
AcDbCircle
 10
5713.91668923845
 20
-3041.728888975781
 30
0.0
 40
29.15000000000001
  0
CIRCLE
  5
B6498
330
18
100
AcDbEntity
  8
細線
100
AcDbCircle
 10
5705.16668923841
 20
-3056.884333542034
 30
0.0
 40
2.5
  0
CIRCLE
  5
B6499
330
18
100
AcDbEntity
  8
実線
 48
0.2
100
AcDbCircle
 10
5705.16668923841
 20
-3056.884333542034
 30
0.0
 40
2.099999999999993
  0
LINE
  5
B649A
330
18
100
AcDbEntity
  8
中心線
 48
0.2
100
AcDbLine
 10
5703.519973485353
 20
-3059.736528891954
 30
0.0
 11
5706.813404991472
 21
-3054.032138192112
 31
0.0
  0
CIRCLE
  5
B649C
330
18
100
AcDbEntity
  8
実線
 48
0.2
100
AcDbCircle
 10
5722.666689238437
 20
-3056.88433354203
 30
0.0
 40
2.099999999999993
  0
LINE
  5
B649D
330
18
100
AcDbEntity
  8
中心線
 48
0.2
100
AcDbLine
 10
5724.313404991496
 20
-3059.73652889195
 30
0.0
 11
5721.019973485383
 21
-3054.032138192108
 31
0.0
  0
CIRCLE
  5
B649E
330
18
100
AcDbEntity
  8
細線
100
AcDbCircle
 10
5722.666689238437
 20
-3056.88433354203
 30
0.0
 40
2.5
  0
CIRCLE
  5
B649F
330
18
100
AcDbEntity
  8
細線
100
AcDbCircle
 10
5705.166689238406
 20
-3026.573444409533
 30
0.0
 40
2.5
  0
CIRCLE
  5
B64A0
330
18
100
AcDbEntity
  8
実線
 48
0.2
100
AcDbCircle
 10
5705.166689238406
 20
-3026.573444409533
 30
0.0
 40
2.099999999999993
  0
LINE
  5
B64A1
330
18
100
AcDbEntity
  8
中心線
 48
0.2
100
AcDbLine
 10
5703.519973485351
 20
-3023.721249059609
 30
0.0
 11
5706.813404991467
 21
-3029.425639759455
 31
0.0
  0
LINE
  5
B64A2
330
18
100
AcDbEntity
  8
中心線
 48
0.2
100
AcDbLine
 10
5693.12325773228
 20
-3041.728888975782
 30
0.0
 11
5699.710120744515
 21
-3041.728888975784
 31
0.0
  0
CIRCLE
  5
B64A3
330
18
100
AcDbEntity
  8
実線
 48
0.2
100
AcDbCircle
 10
5722.666689238437
 20
-3026.57344440953
 30
0.0
 40
2.099999999999993
  0
LINE
  5
B64A4
330
18
100
AcDbEntity
  8
中心線
 48
0.2
100
AcDbLine
 10
5724.313404991494
 20
-3023.721249059605
 30
0.0
 11
5721.019973485375
 21
-3029.425639759448
 31
0.0
  0
CIRCLE
  5
B64A5
330
18
100
AcDbEntity
  8
細線
100
AcDbCircle
 10
5722.666689238437
 20
-3026.57344440953
 30
0.0
 40
2.5
  0
LINE
  5
B64A6
330
18
100
AcDbEntity
  8
中心線
 48
0.2
100
AcDbLine
 10
5734.710120744567
 20
-3041.728888975781
 30
0.0
 11
5728.123257732333
 21
-3041.728888975777
 31
0.0
  0
LINE
  5
B64A7
330
18
100
AcDbEntity
  8
実線
 48
0.2
100
AcDbLine
 10
5668.592855415246
 20
-2985.728887247246
 30
0.0
 11
5759.240524027664
 21
-2985.728888975781
 31
0.0
  0
ARC
  5
B64AB
330
18
100
AcDbEntity
  8
実線
 48
0.2
100
AcDbCircle
 10
5713.91668923845
 20
-3041.728888975781
 30
0.0
 40
72.49999999999997
100
AcDbArc
 50
130.0077539134723
 51
139.992246086491
  0
ARC
  5
B64AC
330
18
100
AcDbEntity
  8
実線
 48
0.2
100
AcDbCircle
 10
5659.91668923845
 20
-2996.405054186566
 30
0.0
 40
2.0
100
AcDbArc
 50
139.992246086491
 51
180.0
  0
LINE
  5
B64AD
330
18
100
AcDbEntity
  8
\U+FF77\U+FF6C\U+FF6F\U+FF8C\U+FF9F\U+FF8E\U+FF9E\U+FF99\U+FF84
100
AcDbLine
 10
5677.769866676271
 20
-3005.22851318703
 30
0.0
 11
5677.076425774709
 21
-3004.535072285467
 31
0.0
  0
LINE
  5
B64AE
330
18
100
AcDbEntity
  8
\U+FF77\U+FF6C\U+FF6F\U+FF8C\U+FF9F\U+FF8E\U+FF9E\U+FF99\U+FF84
100
AcDbLine
 10
5677.416313285679
 20
-3005.582066577623
 30
0.0
 11
5676.722872384115
 21
-3004.88862567606
 31
0.0
  0
LINE
  5
B64AF
330
18
100
AcDbEntity
  8
\U+FF77\U+FF6C\U+FF6F\U+FF8C\U+FF9F\U+FF8E\U+FF9E\U+FF99\U+FF84
100
AcDbLine
 10
5677.416313285679
 20
-3003.48807799331
 30
0.0
 11
5676.722872384114
 21
-3004.181518894873
 31
0.0
  0
LINE
  5
B64B0
330
18
100
AcDbEntity
  8
\U+FF77\U+FF6C\U+FF6F\U+FF8C\U+FF9F\U+FF8E\U+FF9E\U+FF99\U+FF84
100
AcDbLine
 10
5677.769866676271
 20
-3003.841631383902
 30
0.0
 11
5677.076425774709
 21
-3004.535072285467
 31
0.0
  0
LINE
  5
B64B1
330
18
100
AcDbEntity
  8
\U+FF77\U+FF6C\U+FF6F\U+FF8C\U+FF9F\U+FF8E\U+FF9E\U+FF99\U+FF84
100
AcDbLine
 10
5676.722872384114
 20
-3004.181518894873
 30
0.0
 11
5676.029431482551
 21
-3003.488077993308
 31
0.0
  0
LINE
  5
B64B2
330
18
100
AcDbEntity
  8
\U+FF77\U+FF6C\U+FF6F\U+FF8C\U+FF9F\U+FF8E\U+FF9E\U+FF99\U+FF84
100
AcDbLine
 10
5676.369318993522
 20
-3004.535072285466
 30
0.0
 11
5675.675878091958
 21
-3003.841631383902
 31
0.0
  0
LINE
  5
B64B3
330
18
100
AcDbEntity
  8
\U+FF77\U+FF6C\U+FF6F\U+FF8C\U+FF9F\U+FF8E\U+FF9E\U+FF99\U+FF84
100
AcDbLine
 10
5676.722872384116
 20
-3004.88862567606
 30
0.0
 11
5676.029431482551
 21
-3005.582066577623
 31
0.0
  0
LINE
  5
B64B4
330
18
100
AcDbEntity
  8
\U+FF77\U+FF6C\U+FF6F\U+FF8C\U+FF9F\U+FF8E\U+FF9E\U+FF99\U+FF84
100
AcDbLine
 10
5676.369318993522
 20
-3004.535072285466
 30
0.0
 11
5675.675878091958
 21
-3005.22851318703
 31
0.0
  0
LINE
  5
B64B5
330
18
100
AcDbEntity
  8
\U+FF77\U+FF6C\U+FF6F\U+FF8C\U+FF9F\U+FF8E\U+FF9E\U+FF99\U+FF84
100
AcDbLine
 10
5675.675878091958
 20
-3003.841631383902
 30
0.0
 11
5676.029431482551
 21
-3003.48807799331
 31
0.0
  0
LINE
  5
B64B6
330
18
100
AcDbEntity
  8
\U+FF77\U+FF6C\U+FF6F\U+FF8C\U+FF9F\U+FF8E\U+FF9E\U+FF99\U+FF84
100
AcDbLine
 10
5677.416313285679
 20
-3003.48807799331
 30
0.0
 11
5677.769866676271
 21
-3003.841631383902
 31
0.0
  0
LINE
  5
B64B7
330
18
100
AcDbEntity
  8
\U+FF77\U+FF6C\U+FF6F\U+FF8C\U+FF9F\U+FF8E\U+FF9E\U+FF99\U+FF84
100
AcDbLine
 10
5677.416313285679
 20
-3005.582066577626
 30
0.0
 11
5677.769866676271
 21
-3005.22851318703
 31
0.0
  0
LINE
  5
B64B8
330
18
100
AcDbEntity
  8
\U+FF77\U+FF6C\U+FF6F\U+FF8C\U+FF9F\U+FF8E\U+FF9E\U+FF99\U+FF84
100
AcDbLine
 10
5675.675878091958
 20
-3005.22851318703
 30
0.0
 11
5676.029431482551
 21
-3005.582066577623
 31
0.0
  0
CIRCLE
  5
B64B9
330
18
100
AcDbEntity
  8
\U+FF77\U+FF6C\U+FF6F\U+FF8C\U+FF9F\U+FF8E\U+FF9E\U+FF99\U+FF84
100
AcDbCircle
 10
5676.722872384114
 20
-3004.535072285467
 30
0.0
 40
2.0
  0
CIRCLE
  5
B64BA
330
18
100
AcDbEntity
  8
実線
 48
0.2
100
AcDbCircle
 10
5669.72251541429
 20
-2997.53471515162
 30
0.0
 40
3.5
  0
LINE
  5
B64BB
330
18
100
AcDbEntity
  8
中心線
 48
0.5
100
AcDbLine
 10
5674.882953783574
 20
-3002.695153520904
 30
0.0
 11
5664.562077045006
 21
-2992.374276782336
 31
0.0
  0
ARC
  5
B64BC
330
18
100
AcDbEntity
  8
中心線
 48
0.5
100
AcDbCircle
 10
5713.91668923845
 20
-3041.728888975781
 30
0.0
 40
62.50000000000287
100
AcDbArc
 50
128.3059146666068
 51
141.6940853333932
  0
ARC
  5
B64BD
330
18
100
AcDbEntity
  8
実線
 48
0.2
100
AcDbCircle
 10
5668.592854449236
 20
-2987.728888975781
 30
0.0
 40
2.0
100
AcDbArc
 50
90.0
 51
130.0077539134723
  0
ARC
  5
B64C5
330
18
100
AcDbEntity
  8
実線
 48
0.2
100
AcDbCircle
 10
5713.91668923845
 20
-3041.728888975781
 30
0.0
 40
72.50000000000004
100
AcDbArc
 50
40.00775391350902
 51
49.99224608652767
  0
CIRCLE
  5
B64C6
330
18
100
AcDbEntity
  8
実線
 48
0.2
100
AcDbCircle
 10
5758.11086306261
 20
-2997.534715151618
 30
0.0
 40
3.5
  0
LINE
  5
B64C7
330
18
100
AcDbEntity
  8
中心線
 48
0.5
100
AcDbLine
 10
5752.950424693326
 20
-3002.695153520905
 30
0.0
 11
5763.271301431895
 21
-2992.374276782337
 31
0.0
  0
ARC
  5
B64C8
330
18
100
AcDbEntity
  8
中心線
 48
0.5
100
AcDbCircle
 10
5713.916689238449
 20
-3041.728888975781
 30
0.0
 40
62.50000000000287
100
AcDbArc
 50
38.3059146666068
 51
51.6940853333932
  0
LINE
  5
B64C9
330
18
100
AcDbEntity
  8
\U+FF77\U+FF6C\U+FF6F\U+FF8C\U+FF9F\U+FF8E\U+FF9E\U+FF99\U+FF84
100
AcDbLine
 10
5750.417065027204
 20
-3005.582066413599
 30
0.0
 11
5751.110505928767
 21
-3004.888625512036
 31
0.0
  0
LINE
  5
B64CA
330
18
100
AcDbEntity
  8
\U+FF77\U+FF6C\U+FF6F\U+FF8C\U+FF9F\U+FF8E\U+FF9E\U+FF99\U+FF84
100
AcDbLine
 10
5750.063511636611
 20
-3005.228513023007
 30
0.0
 11
5750.756952538174
 21
-3004.535072121444
 31
0.0
  0
LINE
  5
B64CB
330
18
100
AcDbEntity
  8
\U+FF77\U+FF6C\U+FF6F\U+FF8C\U+FF9F\U+FF8E\U+FF9E\U+FF99\U+FF84
100
AcDbLine
 10
5752.157500220924
 20
-3005.228513023007
 30
0.0
 11
5751.464059319361
 21
-3004.535072121442
 31
0.0
  0
LINE
  5
B64CC
330
18
100
AcDbEntity
  8
\U+FF77\U+FF6C\U+FF6F\U+FF8C\U+FF9F\U+FF8E\U+FF9E\U+FF99\U+FF84
100
AcDbLine
 10
5751.803946830332
 20
-3005.582066413599
 30
0.0
 11
5751.110505928767
 21
-3004.888625512036
 31
0.0
  0
LINE
  5
B64CD
330
18
100
AcDbEntity
  8
\U+FF77\U+FF6C\U+FF6F\U+FF8C\U+FF9F\U+FF8E\U+FF9E\U+FF99\U+FF84
100
AcDbLine
 10
5751.464059319361
 20
-3004.535072121442
 30
0.0
 11
5752.157500220926
 21
-3003.841631219879
 31
0.0
  0
LINE
  5
B64CE
330
18
100
AcDbEntity
  8
\U+FF77\U+FF6C\U+FF6F\U+FF8C\U+FF9F\U+FF8E\U+FF9E\U+FF99\U+FF84
100
AcDbLine
 10
5751.110505928768
 20
-3004.18151873085
 30
0.0
 11
5751.803946830332
 21
-3003.488077829285
 31
0.0
  0
LINE
  5
B64CF
330
18
100
AcDbEntity
  8
\U+FF77\U+FF6C\U+FF6F\U+FF8C\U+FF9F\U+FF8E\U+FF9E\U+FF99\U+FF84
100
AcDbLine
 10
5750.756952538174
 20
-3004.535072121444
 30
0.0
 11
5750.063511636611
 21
-3003.841631219879
 31
0.0
  0
LINE
  5
B64D0
330
18
100
AcDbEntity
  8
\U+FF77\U+FF6C\U+FF6F\U+FF8C\U+FF9F\U+FF8E\U+FF9E\U+FF99\U+FF84
100
AcDbLine
 10
5751.110505928768
 20
-3004.18151873085
 30
0.0
 11
5750.417065027204
 21
-3003.488077829285
 31
0.0
  0
LINE
  5
B64D1
330
18
100
AcDbEntity
  8
\U+FF77\U+FF6C\U+FF6F\U+FF8C\U+FF9F\U+FF8E\U+FF9E\U+FF99\U+FF84
100
AcDbLine
 10
5751.803946830332
 20
-3003.488077829285
 30
0.0
 11
5752.157500220924
 21
-3003.841631219879
 31
0.0
  0
LINE
  5
B64D2
330
18
100
AcDbEntity
  8
\U+FF77\U+FF6C\U+FF6F\U+FF8C\U+FF9F\U+FF8E\U+FF9E\U+FF99\U+FF84
100
AcDbLine
 10
5752.157500220924
 20
-3005.228513023007
 30
0.0
 11
5751.803946830332
 21
-3005.582066413599
 31
0.0
  0
LINE
  5
B64D3
330
18
100
AcDbEntity
  8
\U+FF77\U+FF6C\U+FF6F\U+FF8C\U+FF9F\U+FF8E\U+FF9E\U+FF99\U+FF84
100
AcDbLine
 10
5750.063511636609
 20
-3005.228513023007
 30
0.0
 11
5750.417065027204
 21
-3005.582066413599
 31
0.0
  0
LINE
  5
B64D4
330
18
100
AcDbEntity
  8
\U+FF77\U+FF6C\U+FF6F\U+FF8C\U+FF9F\U+FF8E\U+FF9E\U+FF99\U+FF84
100
AcDbLine
 10
5750.417065027204
 20
-3003.488077829285
 30
0.0
 11
5750.063511636611
 21
-3003.841631219879
 31
0.0
  0
CIRCLE
  5
B64D5
330
18
100
AcDbEntity
  8
\U+FF77\U+FF6C\U+FF6F\U+FF8C\U+FF9F\U+FF8E\U+FF9E\U+FF99\U+FF84
100
AcDbCircle
 10
5751.110505928767
 20
-3004.535072121442
 30
0.0
 40
2.0
  0
ARC
  5
B64D6
330
18
100
AcDbEntity
  8
実線
 48
0.2
100
AcDbCircle
 10
5767.91668923845
 20
-2996.405054186566
 30
0.0
 40
2.000000000000024
100
AcDbArc
 50
0.0
 51
40.00775391350902
  0
ARC
  5
B64D7
330
18
100
AcDbEntity
  8
実線
 48
0.2
100
AcDbCircle
 10
5759.240524027664
 20
-2987.728888975781
 30
0.0
 40
2.000000000000019
100
AcDbArc
 50
49.99224608652767
 51
90.0
  0
LINE
  5
B65FB
102
{ACAD_REACTORS
330
B661D
102
}
330
18
100
AcDbEntity
  8
\U+FF7A\U+FF88\U+FF78\U+FF80
100
AcDbLine
 10
5646.41668923845
 20
-3050.382688975781
 30
0.0
 11
5646.41668923845
 21
-3033.075088975781
 31
0.0
  0
LINE
  5
B65FC
102
{ACAD_REACTORS
330
B661D
102
}
330
18
100
AcDbEntity
  8
\U+FF7A\U+FF88\U+FF78\U+FF80
100
AcDbLine
 10
5629.41668923845
 20
-3047.026290451071
 30
0.0
 11
5629.41668923845
 21
-3036.43148750049
 31
0.0
  0
ARC
  5
B65FD
102
{ACAD_REACTORS
330
B661D
102
}
330
18
100
AcDbEntity
  8
\U+FF7A\U+FF88\U+FF78\U+FF80
100
AcDbCircle
 10
5641.41668923845
 20
-3041.728888975781
 30
0.0
 40
8.0
100
AcDbArc
 50
153.5214655209427
 51
206.4785344790573
  0
LINE
  5
B65FE
102
{ACAD_REACTORS
330
B661D
102
}
330
18
100
AcDbEntity
  8
\U+FF7A\U+FF88\U+FF78\U+FF80
100
AcDbLine
 10
5633.41668923845
 20
-3050.382688975781
 30
0.0
 11
5633.41668923845
 21
-3033.075088975781
 31
0.0
  0
LINE
  5
B65FF
102
{ACAD_REACTORS
330
B661D
102
}
330
18
100
AcDbEntity
  8
\U+FF7A\U+FF88\U+FF78\U+FF80
100
AcDbLine
 10
5646.41668923845
 20
-3047.728890237415
 30
0.0
 11
5641.41668923845
 21
-3047.72889149905
 31
0.0
  0
LINE
  5
B6600
102
{ACAD_REACTORS
330
B661D
102
}
330
18
100
AcDbEntity
  8
\U+FF7A\U+FF88\U+FF78\U+FF80
100
AcDbLine
 10
5633.41668923845
 20
-3050.382688975781
 30
0.0
 11
5629.41668923845
 21
-3047.026290451071
 31
0.0
  0
LINE
  5
B6601
102
{ACAD_REACTORS
330
B661D
102
}
330
18
100
AcDbEntity
  8
\U+FF7A\U+FF88\U+FF78\U+FF80
100
AcDbLine
 10
5634.255877525383
 20
-3045.29578897578
 30
0.0
 11
5634.255877525383
 21
-3046.815788975781
 31
0.0
  0
LINE
  5
B6602
102
{ACAD_REACTORS
330
B661D
102
}
330
18
100
AcDbEntity
  8
\U+FF7A\U+FF88\U+FF78\U+FF80
100
AcDbLine
 10
5641.41668923845
 20
-3046.815788975781
 30
0.0
 11
5634.255877525383
 21
-3046.815788975781
 31
0.0
  0
LINE
  5
B6603
102
{ACAD_REACTORS
330
B661D
102
}
330
18
100
AcDbEntity
  8
\U+FF7A\U+FF88\U+FF78\U+FF80
100
AcDbLine
 10
5641.41668923845
 20
-3045.29578897578
 30
0.0
 11
5634.255877525383
 21
-3045.29578897578
 31
0.0
  0
LINE
  5
B6604
102
{ACAD_REACTORS
330
B661D
102
}
330
18
100
AcDbEntity
  8
\U+FF7A\U+FF88\U+FF78\U+FF80
100
AcDbLine
 10
5641.41668923845
 20
-3050.382688975781
 30
0.0
 11
5633.41668923845
 21
-3050.382688975781
 31
0.0
  0
ARC
  5
B6605
102
{ACAD_REACTORS
330
B661D
102
}
330
18
100
AcDbEntity
  8
\U+FF7A\U+FF88\U+FF78\U+FF80
100
AcDbCircle
 10
5641.41668923845
 20
-3050.382688975781
 30
0.0
 40
8.0
100
AcDbArc
 50
153.5214655209427
 51
180.0
  0
LINE
  5
B6606
102
{ACAD_REACTORS
330
B661D
102
}
330
18
100
AcDbEntity
  8
\U+FF7A\U+FF88\U+FF78\U+FF80
100
AcDbLine
 10
5651.41668923845
 20
-3047.728888975781
 30
0.0
 11
5651.705355865823
 21
-3047.728888975781
 31
0.0
  0
LINE
  5
B6607
102
{ACAD_REACTORS
330
B661D
102
}
330
18
100
AcDbEntity
  8
\U+FF7A\U+FF88\U+FF78\U+FF80
100
AcDbLine
 10
5651.41668923845
 20
-3047.11888897578
 30
0.0
 11
5651.649539793498
 21
-3047.11888897578
 31
0.0
  0
LINE
  5
B6608
102
{ACAD_REACTORS
330
B661D
102
}
330
18
100
AcDbEntity
  8
\U+FF7A\U+FF88\U+FF78\U+FF80
100
AcDbLine
 10
5651.41668923845
 20
-3046.815788975781
 30
0.0
 11
5646.41668923845
 21
-3046.815788975781
 31
0.0
  0
LINE
  5
B6609
102
{ACAD_REACTORS
330
B661D
102
}
330
18
100
AcDbEntity
  8
\U+FF7A\U+FF88\U+FF78\U+FF80
100
AcDbLine
 10
5651.41668923845
 20
-3045.29578897578
 30
0.0
 11
5646.41668923845
 21
-3045.29578897578
 31
0.0
  0
LINE
  5
B660A
102
{ACAD_REACTORS
330
B661D
102
}
330
18
100
AcDbEntity
  8
\U+FF7A\U+FF88\U+FF78\U+FF80
100
AcDbLine
 10
5651.41668923845
 20
-3050.382688975781
 30
0.0
 11
5646.41668923845
 21
-3050.382688975781
 31
0.0
  0
LINE
  5
B660B
102
{ACAD_REACTORS
330
B661D
102
}
330
18
100
AcDbEntity
  8
\U+FF7A\U+FF88\U+FF78\U+FF80
100
AcDbLine
 10
5646.41668923845
 20
-3035.728890237413
 30
0.0
 11
5641.41668923845
 21
-3035.728891499046
 31
0.0
  0
ARC
  5
B660C
102
{ACAD_REACTORS
330
B661D
102
}
330
18
100
AcDbEntity
  8
\U+FF7A\U+FF88\U+FF78\U+FF80
100
AcDbCircle
 10
5641.41668923845
 20
-3033.075088975781
 30
0.0
 40
8.0
100
AcDbArc
 50
180.0
 51
206.4785344790573
  0
LINE
  5
B660D
102
{ACAD_REACTORS
330
B661D
102
}
330
18
100
AcDbEntity
  8
\U+FF7A\U+FF88\U+FF78\U+FF80
100
AcDbLine
 10
5633.41668923845
 20
-3033.075088975781
 30
0.0
 11
5629.41668923845
 21
-3036.43148750049
 31
0.0
  0
LINE
  5
B660E
102
{ACAD_REACTORS
330
B661D
102
}
330
18
100
AcDbEntity
  8
\U+FF7A\U+FF88\U+FF78\U+FF80
100
AcDbLine
 10
5634.255877525383
 20
-3036.64198897578
 30
0.0
 11
5634.255877525383
 21
-3038.161988975781
 31
0.0
  0
LINE
  5
B660F
102
{ACAD_REACTORS
330
B661D
102
}
330
18
100
AcDbEntity
  8
\U+FF7A\U+FF88\U+FF78\U+FF80
100
AcDbLine
 10
5641.41668923845
 20
-3038.161988975781
 30
0.0
 11
5634.255877525383
 21
-3038.161988975781
 31
0.0
  0
LINE
  5
B6610
102
{ACAD_REACTORS
330
B661D
102
}
330
18
100
AcDbEntity
  8
\U+FF7A\U+FF88\U+FF78\U+FF80
100
AcDbLine
 10
5641.41668923845
 20
-3036.64198897578
 30
0.0
 11
5634.255877525383
 21
-3036.64198897578
 31
0.0
  0
LINE
  5
B6611
102
{ACAD_REACTORS
330
B661D
102
}
330
18
100
AcDbEntity
  8
\U+FF7A\U+FF88\U+FF78\U+FF80
100
AcDbLine
 10
5641.41668923845
 20
-3033.075088975781
 30
0.0
 11
5633.41668923845
 21
-3033.075088975781
 31
0.0
  0
LINE
  5
B6612
102
{ACAD_REACTORS
330
B661D
102
}
330
18
100
AcDbEntity
  8
\U+FF7A\U+FF88\U+FF78\U+FF80
100
AcDbLine
 10
5651.41668923845
 20
-3035.728888975781
 30
0.0
 11
5651.705355865823
 21
-3035.728888975781
 31
0.0
  0
LINE
  5
B6613
102
{ACAD_REACTORS
330
B661D
102
}
330
18
100
AcDbEntity
  8
\U+FF7A\U+FF88\U+FF78\U+FF80
100
AcDbLine
 10
5651.41668923845
 20
-3036.338888975781
 30
0.0
 11
5651.649539793498
 21
-3036.338888975781
 31
0.0
  0
LINE
  5
B6614
102
{ACAD_REACTORS
330
B661D
102
}
330
18
100
AcDbEntity
  8
\U+FF7A\U+FF88\U+FF78\U+FF80
100
AcDbLine
 10
5651.41668923845
 20
-3036.64198897578
 30
0.0
 11
5646.41668923845
 21
-3036.64198897578
 31
0.0
  0
LINE
  5
B6615
102
{ACAD_REACTORS
330
B661D
102
}
330
18
100
AcDbEntity
  8
\U+FF7A\U+FF88\U+FF78\U+FF80
100
AcDbLine
 10
5651.41668923845
 20
-3038.161988975781
 30
0.0
 11
5646.41668923845
 21
-3038.161988975781
 31
0.0
  0
LINE
  5
B6616
102
{ACAD_REACTORS
330
B661D
102
}
330
18
100
AcDbEntity
  8
\U+FF7A\U+FF88\U+FF78\U+FF80
100
AcDbLine
 10
5651.41668923845
 20
-3033.075088975781
 30
0.0
 11
5646.41668923845
 21
-3033.075088975781
 31
0.0
  0
LINE
  5
B6617
102
{ACAD_REACTORS
330
B661D
102
}
330
18
100
AcDbEntity
  8
\U+FF7A\U+FF88\U+FF78\U+FF80
100
AcDbLine
 10
5651.41668923845
 20
-3033.075088975781
 30
0.0
 11
5651.41668923845
 21
-3050.382688975781
 31
0.0
  0
LINE
  5
B6618
102
{ACAD_REACTORS
330
B661D
102
}
330
18
100
AcDbEntity
  8
\U+FF7A\U+FF88\U+FF78\U+FF80
100
AcDbLine
 10
5641.41668923845
 20
-3050.382688975781
 30
0.0
 11
5641.41668923845
 21
-3033.075088975781
 31
0.0
  0
SPLINE
  5
B6619
102
{ACAD_REACTORS
330
B661D
102
}
330
18
100
AcDbEntity
  8
細線
100
AcDbSpline
210
0.0
220
0.0
230
1.0
 70
  1064
 71
     3
 72
    11
 73
     7
 74
     5
 42
0.000000001
 43
0.0000000001
 44
0.0000000001
 40
0.0
 40
0.0
 40
0.0
 40
0.0
 40
1.962294862387111
 40
3.412610777824841
 40
4.859995365034574
 40
6.826861343342177
 40
6.826861343342177
 40
6.826861343342177
 40
6.826861343342177
 10
5623.980058870392
 20
-3038.478888472065
 30
0.0
 10
5623.692648107033
 20
-3039.115518342966
 30
0.0
 10
5623.192814423775
 20
-3040.222676090033
 30
0.0
 10
5623.975885344179
 20
-3041.728666322796
 30
0.0
 10
5624.770398731905
 20
-3043.231474485607
 30
0.0
 10
5624.268938059728
 20
-3044.340186616791
 30
0.0
 10
5623.980058870392
 20
-3044.978888472065
 30
0.0
 11
5623.980058870392
 21
-3038.478888472065
 31
0.0
 11
5623.46489694659
 21
-3040.372353369869
 31
0.0
 11
5623.977955199698
 21
-3041.728888472065
 31
0.0
 11
5624.495220794196
 21
-3043.080686699628
 31
0.0
 11
5623.980058870392
 21
-3044.978888472065
 31
0.0
  0
SPLINE
  5
B661A
102
{ACAD_REACTORS
330
B661D
102
}
330
18
100
AcDbEntity
  8
細線
100
AcDbSpline
210
0.0
220
0.0
230
1.0
 70
  1064
 71
     3
 72
     9
 73
     5
 74
     3
 42
0.000000001
 43
0.0000000001
 44
0.0000000001
 40
0.0
 40
0.0
 40
0.0
 40
0.0
 40
1.4428857823263
 40
3.409751760633427
 40
3.409751760633427
 40
3.409751760633427
 40
3.409751760633427
 10
5623.980058870392
 20
-3041.732900524782
 30
0.0
 10
5623.745351407818
 20
-3042.179008047562
 30
0.0
 10
5623.190703081841
 20
-3043.233225872606
 30
0.0
 10
5623.691297957741
 20
-3044.3402928822
 30
0.0
 10
5623.980058870392
 20
-3044.978888472065
 30
0.0
 11
5623.980058870392
 21
-3041.732900524782
 31
0.0
 11
5623.46489694659
 21
-3043.080686699628
 31
0.0
 11
5623.980058870392
 21
-3044.978888472065
 31
0.0
  0
LINE
  5
B661B
102
{ACAD_REACTORS
330
B661D
102
}
330
18
100
AcDbEntity
  8
\U+FF7A\U+FF88\U+FF78\U+FF80
100
AcDbLine
 10
5623.980058870393
 20
-3044.978888472062
 30
0.0
 11
5629.41668923845
 21
-3044.978888472062
 31
0.0
  0
LINE
  5
B661C
102
{ACAD_REACTORS
330
B661D
102
}
330
18
100
AcDbEntity
  8
\U+FF7A\U+FF88\U+FF78\U+FF80
100
AcDbLine
 10
5623.980058870393
 20
-3038.478888472064
 30
0.0
 11
5629.41668923845
 21
-3038.478888472062
 31
0.0
  0
LINE
  5
B6E39
330
18
100
AcDbEntity
  8
実線
 48
0.2
100
AcDbLine
 10
6003.943067962992
 20
-3095.728890293306
 30
0.0
 11
6003.943067962992
 21
-2987.728887658245
 31
0.0
  0
LINE
  5
B6E3A
330
18
100
AcDbEntity
  8
実線
 48
0.2
100
AcDbLine
 10
5941.443067962992
 20
-3097.728890293306
 30
0.0
 11
5941.443067962992
 21
-2985.728887658245
 31
0.0
  0
LINE
  5
B6E3B
330
18
100
AcDbEntity
  8
実線
 48
0.2
100
AcDbLine
 10
5940.943067939243
 20
-3097.228889691035
 30
0.0
 11
5940.943067939243
 21
-2986.228888260523
 31
0.0
  0
LINE
  5
B6E3C
330
18
100
AcDbEntity
  8
実線
 48
0.2
100
AcDbLine
 10
6023.943067962991
 20
-3097.728890293306
 30
0.0
 11
6023.943067962992
 21
-3057.728889734906
 31
0.0
  0
ARC
  5
B6E4B
330
18
100
AcDbEntity
  8
\U+FF77\U+FF6C\U+FF6F\U+FF8C\U+FF9F\U+FF8E\U+FF9E\U+FF99\U+FF84
100
AcDbCircle
 10
5940.543067939243
 20
-3077.373512688975
 30
0.0
 40
0.4
100
AcDbArc
 50
104.4775120000356
 51
180.0
  0
LINE
  5
B6E4C
330
18
100
AcDbEntity
  8
\U+FF77\U+FF6C\U+FF6F\U+FF8C\U+FF9F\U+FF8E\U+FF9E\U+FF99\U+FF84
100
AcDbLine
 10
5940.943067939243
 20
-3080.922705688974
 30
0.0
 11
5940.943067939243
 21
-3076.922705688974
 31
0.0
  0
LINE
  5
B6E52
330
18
100
AcDbEntity
  8
実線
 48
0.2
100
AcDbLine
 10
5941.443067962992
 20
-3097.728890293306
 30
0.0
 11
6023.943067962991
 21
-3097.728890293306
 31
0.0
  0
LINE
  5
B6E54
330
18
100
AcDbEntity
  8
実線
 48
0.2
100
AcDbLine
 10
5940.943067939243
 20
-3097.228889691035
 30
0.0
 11
5941.443067962992
 21
-3097.228889691035
 31
0.0
  0
ARC
  5
B6E55
330
18
100
AcDbEntity
  8
\U+FF77\U+FF6C\U+FF6F\U+FF8C\U+FF9F\U+FF8E\U+FF9E\U+FF99\U+FF84
100
AcDbCircle
 10
5940.943067939243
 20
-3078.922705688975
 30
0.0
 40
2.0
100
AcDbArc
 50
255.5224879999644
 51
270.0
  0
ARC
  5
B6E56
330
18
100
AcDbEntity
  8
\U+FF77\U+FF6C\U+FF6F\U+FF8C\U+FF9F\U+FF8E\U+FF9E\U+FF99\U+FF84
100
AcDbCircle
 10
5940.543067939243
 20
-3080.471899688975
 30
0.0
 40
0.4
100
AcDbArc
 50
180.0
 51
255.5224879999644
  0
LINE
  5
B6E57
330
18
100
AcDbEntity
  8
中心線
 48
0.5
100
AcDbLine
 10
5941.423906528936
 20
-3078.922705688974
 30
0.0
 11
5939.720566002045
 21
-3078.922706188974
 31
0.0
  0
LINE
  5
B6E58
330
18
100
AcDbEntity
  8
\U+FF77\U+FF6C\U+FF6F\U+FF8C\U+FF9F\U+FF8E\U+FF9E\U+FF99\U+FF84
100
AcDbLine
 10
5940.143067939243
 20
-3080.471899688973
 30
0.0
 11
5940.143067939243
 21
-3077.373512688973
 31
0.0
  0
ARC
  5
B6E59
330
18
100
AcDbEntity
  8
実線
 48
0.2
100
AcDbCircle
 10
6005.943067962991
 20
-3095.728890293306
 30
0.0
 40
2.0
100
AcDbArc
 50
180.0
 51
270.0
  0
LINE
  5
B6E5A
330
18
100
AcDbEntity
  8
実線
100
AcDbLine
 10
6003.943067962992
 20
-3087.052722798976
 30
0.0
 11
6023.943067962991
 21
-3087.052722798976
 31
0.0
  0
LINE
  5
B6E67
330
18
100
AcDbEntity
  8
中心線
 48
0.2
100
AcDbLine
 10
5951.204874121711
 20
-3024.228889552176
 30
0.0
 11
5937.143067134485
 21
-3024.228889552176
 31
0.0
  0
LINE
  5
B6E69
330
18
100
AcDbEntity
  8
中心線
 48
0.2
100
AcDbLine
 10
5951.204874121711
 20
-3059.228888399385
 30
0.0
 11
5937.143067134485
 21
-3059.228888399385
 31
0.0
  0
LINE
  5
B6E6B
330
18
100
AcDbEntity
  8
中心線
 48
0.5
100
AcDbLine
 10
5927.250420832924
 20
-3041.728888975781
 30
0.0
 11
6025.808516429151
 21
-3041.728888975781
 31
0.0
  0
LINE
  5
B6E6C
330
18
100
AcDbEntity
  8
実線
 48
0.2
100
AcDbLine
 10
5939.443067147524
 20
-3070.878888241432
 30
0.0
 11
5939.443067147524
 21
-3012.578888557337
 31
0.0
  0
LINE
  5
B6E6D
330
18
100
AcDbEntity
  8
実線
 48
0.2
100
AcDbLine
 10
5938.143067134485
 20
-3016.828888026856
 30
0.0
 11
5938.143067134485
 21
-3066.628888771914
 31
0.0
  0
ARC
  5
B6E71
330
18
100
AcDbEntity
  8
\U+FF77\U+FF6C\U+FF6F\U+FF8C\U+FF9F\U+FF8E\U+FF9E\U+FF99\U+FF84
100
AcDbCircle
 10
5940.943067939243
 20
-3078.922705688975
 30
0.0
 40
2.0
100
AcDbArc
 50
90.0
 51
104.4775120000356
  0
LINE
  5
B6E72
330
18
100
AcDbEntity
  8
実線
 48
0.2
100
AcDbLine
 10
5940.943067939243
 20
-3070.878888241432
 30
0.0
 11
5939.443067147524
 21
-3070.878888241432
 31
0.0
  0
LINE
  5
B6E73
330
18
100
AcDbEntity
  8
実線
 48
0.2
100
AcDbLine
 10
5939.443067147524
 20
-3066.628888771914
 30
0.0
 11
5938.143067134485
 21
-3066.628888771914
 31
0.0
  0
LINE
  5
B6E79
330
18
100
AcDbEntity
  8
実線
 48
0.2
100
AcDbLine
 10
5938.143067134485
 20
-3016.828888026856
 30
0.0
 11
5939.443067147524
 21
-3016.828888026856
 31
0.0
  0
LINE
  5
B6E7A
330
18
100
AcDbEntity
  8
実線
 48
0.2
100
AcDbLine
 10
5939.443067147524
 20
-3012.578888557337
 30
0.0
 11
5940.943067939243
 21
-3012.578888557337
 31
0.0
  0
LINE
  5
B6EA0
330
18
100
AcDbEntity
  8
実線
 48
0.2
100
AcDbLine
 10
5941.443067962992
 20
-2985.728887658245
 30
0.0
 11
6023.943067962991
 21
-2985.728887658245
 31
0.0
  0
ARC
  5
B6EA3
330
18
100
AcDbEntity
  8
\U+FF77\U+FF6C\U+FF6F\U+FF8C\U+FF9F\U+FF8E\U+FF9E\U+FF99\U+FF84
100
AcDbCircle
 10
5940.943067939243
 20
-3004.535072262586
 30
0.0
 40
2.0
100
AcDbArc
 50
90.0
 51
104.4775120000356
  0
ARC
  5
B6EA4
330
18
100
AcDbEntity
  8
\U+FF77\U+FF6C\U+FF6F\U+FF8C\U+FF9F\U+FF8E\U+FF9E\U+FF99\U+FF84
100
AcDbCircle
 10
5940.543067939243
 20
-3002.985878262587
 30
0.0
 40
0.4
100
AcDbArc
 50
104.4775120000356
 51
180.0
  0
LINE
  5
B6EA5
330
18
100
AcDbEntity
  8
中心線
 48
0.5
100
AcDbLine
 10
5941.423906528936
 20
-3004.535072262588
 30
0.0
 11
5939.720566002045
 21
-3004.535071762588
 31
0.0
  0
ARC
  5
B6EA6
330
18
100
AcDbEntity
  8
\U+FF77\U+FF6C\U+FF6F\U+FF8C\U+FF9F\U+FF8E\U+FF9E\U+FF99\U+FF84
100
AcDbCircle
 10
5940.543067939243
 20
-3006.084265262587
 30
0.0
 40
0.4
100
AcDbArc
 50
180.0
 51
255.5224879999644
  0
ARC
  5
B6EA7
330
18
100
AcDbEntity
  8
\U+FF77\U+FF6C\U+FF6F\U+FF8C\U+FF9F\U+FF8E\U+FF9E\U+FF99\U+FF84
100
AcDbCircle
 10
5940.943067939243
 20
-3004.535072262586
 30
0.0
 40
2.0
100
AcDbArc
 50
255.5224879999644
 51
270.0
  0
LINE
  5
B6EA8
330
18
100
AcDbEntity
  8
\U+FF77\U+FF6C\U+FF6F\U+FF8C\U+FF9F\U+FF8E\U+FF9E\U+FF99\U+FF84
100
AcDbLine
 10
5940.143067939243
 20
-3002.985878262589
 30
0.0
 11
5940.143067939243
 21
-3006.084265262589
 31
0.0
  0
LINE
  5
B6EA9
330
18
100
AcDbEntity
  8
\U+FF77\U+FF6C\U+FF6F\U+FF8C\U+FF9F\U+FF8E\U+FF9E\U+FF99\U+FF84
100
AcDbLine
 10
5940.943067939243
 20
-3002.535072262588
 30
0.0
 11
5940.943067939243
 21
-3006.535072262588
 31
0.0
  0
LINE
  5
B6EAC
330
18
100
AcDbEntity
  8
実線
 48
0.2
100
AcDbLine
 10
5941.443067962992
 20
-2986.228888260523
 30
0.0
 11
5940.943067939243
 21
-2986.228888260523
 31
0.0
  0
LINE
  5
B6EB2
330
18
100
AcDbEntity
  8
実線
100
AcDbLine
 10
6003.943067962992
 20
-2996.405056245941
 30
0.0
 11
6023.943067962991
 21
-2996.405056245941
 31
0.0
  0
ARC
  5
B6EB7
330
18
100
AcDbEntity
  8
実線
 48
0.2
100
AcDbCircle
 10
6005.943067962991
 20
-2987.728887658245
 30
0.0
 40
2.0
100
AcDbArc
 50
90.0
 51
180.0
  0
TEXT
  5
B6F85
102
{ACAD_REACTORS
330
B6F9F
102
}
330
18
100
AcDbEntity
  8
文字
370
     9
100
AcDbText
 10
6013.384327647248
 20
-3067.932046835252
 30
0.0
 40
2.0
  1
SER No.******
 50
90.0
 41
1.199999999999999
  7
MS\U+FF7A\U+FF9E\U+FF7C\U+FF6F\U+FF78N
 11
6013.749671397248
 21
-3067.932046835252
 31
0.0
100
AcDbText
 73
     1
  0
LINE
  5
B6F86
102
{ACAD_REACTORS
330
B6F9F
102
}
330
18
100
AcDbEntity
  8
文字
100
AcDbLine
 10
6006.943067962989
 20
-3035.228890293305
 30
0.0
 11
6006.943067962989
 21
-3069.228890293305
 31
0.0
  0
LINE
  5
B6F87
102
{ACAD_REACTORS
330
B6F9F
102
}
330
18
100
AcDbEntity
  8
文字
100
AcDbLine
 10
6018.943067962989
 20
-3069.228890293305
 30
0.0
 11
6018.943067962989
 21
-3035.228890293305
 31
0.0
  0
LINE
  5
B6F88
102
{ACAD_REACTORS
330
B6F9F
102
}
330
18
100
AcDbEntity
  8
文字
100
AcDbLine
 10
6013.943067962989
 20
-3069.728890293305
 30
0.0
 11
6013.943067962989
 21
-3034.728890293305
 31
0.0
  0
ARC
  5
B6F89
102
{ACAD_REACTORS
330
B6F9F
102
}
330
18
100
AcDbEntity
  8
文字
370
     9
100
AcDbCircle
 10
6016.888044544991
 20
-3064.779843792227
 30
0.0
 40
0.8009999999999999
100
AcDbArc
 50
0.0
 51
180.0
  0
CIRCLE
  5
B6F8A
102
{ACAD_REACTORS
330
B6F9F
102
}
330
18
100
AcDbEntity
  8
文字
370
     9
100
AcDbCircle
 10
6016.687794544989
 20
-3064.779843792227
 30
0.0
 40
0.6007500000000002
  0
LINE
  5
B6F8B
102
{ACAD_REACTORS
330
B6F9F
102
}
330
18
100
AcDbEntity
  8
文字
370
     9
100
AcDbLine
 10
6018.089544544987
 20
-3067.182843792229
 30
0.0
 11
6018.089544544987
 21
-3062.777343792228
 31
0.0
  0
LINE
  5
B6F8C
102
{ACAD_REACTORS
330
B6F9F
102
}
330
18
100
AcDbEntity
  8
文字
370
     9
100
AcDbLine
 10
6016.087044544988
 20
-3064.779843792227
 30
0.0
 11
6016.087044544988
 21
-3062.537043792227
 31
0.0
  0
TEXT
  5
B6F8D
102
{ACAD_REACTORS
330
B6F9F
102
}
330
18
100
AcDbEntity
  8
文字
370
     9
100
AcDbText
 10
6010.560335843866
 20
-3067.90492026244
 30
0.0
 40
2.6
  1
MODEL:
 50
90.0
 41
1.199999999999999
  7
MS\U+FF7A\U+FF9E\U+FF7C\U+FF6F\U+FF78N
 11
6011.035282718866
 21
-3067.90492026244
 31
0.0
100
AcDbText
 73
     1
  0
LINE
  5
B6F8E
102
{ACAD_REACTORS
330
B6F9F
102
}
330
18
100
AcDbEntity
  8
文字
370
     9
100
AcDbLine
 10
6014.885544544985
 20
-3066.782343792229
 30
0.0
 11
6014.885544544985
 21
-3062.376843792228
 31
0.0
  0
LINE
  5
B6F8F
102
{ACAD_REACTORS
330
B6F9F
102
}
330
18
100
AcDbEntity
  8
文字
370
     9
100
AcDbLine
 10
6014.885544544985
 20
-3062.376843792228
 30
0.0
 11
6015.766644544984
 21
-3065.180343792226
 31
0.0
  0
ARC
  5
B6F90
102
{ACAD_REACTORS
330
B6F9F
102
}
330
18
100
AcDbEntity
  8
文字
370
     9
100
AcDbCircle
 10
6016.685931754292
 20
-3064.778912396879
 30
0.0
 40
1.003113223100251
100
AcDbArc
 50
203.589777272608
 51
359.9468005913759
  0
LINE
  5
B6F91
102
{ACAD_REACTORS
330
B6F9F
102
}
330
18
100
AcDbEntity
  8
文字
100
AcDbLine
 10
6007.443067962988
 20
-3069.728890293305
 30
0.0
 11
6018.443067962988
 21
-3069.728890293305
 31
0.0
  0
LINE
  5
B6F92
102
{ACAD_REACTORS
330
B6F9F
102
}
330
18
100
AcDbEntity
  8
文字
370
     9
100
AcDbLine
 10
6018.089544544987
 20
-3067.182843792229
 30
0.0
 11
6014.885544544985
 21
-3066.782343792229
 31
0.0
  0
ARC
  5
B6F93
102
{ACAD_REACTORS
330
B6F9F
102
}
330
18
100
AcDbEntity
  8
文字
100
AcDbCircle
 10
6007.443067962992
 20
-3069.228890293306
 30
0.0
 40
0.5
100
AcDbArc
 50
180.0
 51
270.0
  0
ARC
  5
B6F94
102
{ACAD_REACTORS
330
B6F9F
102
}
330
18
100
AcDbEntity
  8
文字
100
AcDbCircle
 10
6018.443067962992
 20
-3069.228890293306
 30
0.0
 40
0.5
100
AcDbArc
 50
270.0
 51
0.0
  0
LINE
  5
B6F95
102
{ACAD_REACTORS
330
B6F9F
102
}
330
18
100
AcDbEntity
  8
文字
370
     9
100
AcDbLine
 10
6018.089544544987
 20
-3062.777343792228
 30
0.0
 11
6016.087044544988
 21
-3062.537043792227
 31
0.0
  0
TEXT
  5
B6F96
102
{ACAD_REACTORS
330
B6F9F
102
}
330
18
100
AcDbEntity
  8
文字
370
     9
100
AcDbText
 10
6018.041810406406
 20
-3061.560744567842
 30
0.0
 40
1.439999999999999
  1
DENSO
 50
90.0
 41
1.3
  7
TIMESNR
100
AcDbText
  0
TEXT
  5
B6F97
102
{ACAD_REACTORS
330
B6F9F
102
}
330
18
100
AcDbEntity
  8
文字
370
     9
100
AcDbText
 10
6016.345047997421
 20
-3061.439331457702
 30
0.0
 40
1.439999999999999
  1
NIKKI
 50
90.0
 41
1.25
  7
TIMESNR
100
AcDbText
  0
LINE
  5
B6F98
102
{ACAD_REACTORS
330
B6F9F
102
}
330
18
100
AcDbEntity
  8
文字
100
AcDbLine
 10
6018.443067962988
 20
-3034.728890293305
 30
0.0
 11
6007.443067962988
 21
-3034.728890293305
 31
0.0
  0
ARC
  5
B6F99
102
{ACAD_REACTORS
330
B6F9F
102
}
330
18
100
AcDbEntity
  8
文字
100
AcDbCircle
 10
6007.443067962992
 20
-3035.228890293306
 30
0.0
 40
0.5
100
AcDbArc
 50
90.0
 51
180.0
  0
ARC
  5
B6F9A
102
{ACAD_REACTORS
330
B6F9F
102
}
330
18
100
AcDbEntity
  8
文字
100
AcDbCircle
 10
6018.443067962992
 20
-3035.228890293306
 30
0.0
 40
0.5
100
AcDbArc
 50
0.0
 51
90.0
  0
TEXT
  5
B6F9B
102
{ACAD_REACTORS
330
B6F9F
102
}
330
18
100
AcDbEntity
  8
文字
370
     9
100
AcDbText
 10
6016.438576549183
 20
-3050.107229898757
 30
137.5
 40
1.5
  1
SN-16140
 50
90.0
  7
MS\U+FF7A\U+FF9E\U+FF7C\U+FF6F\U+FF78N
 11
6016.712584361682
 21
-3050.107229898757
 31
137.5
100
AcDbText
 73
     1
  0
TEXT
  5
B6F9C
102
{ACAD_REACTORS
330
B6F9F
102
}
330
18
100
AcDbEntity
  8
文字
370
     9
100
AcDbText
 10
6018.308362599568
 20
-3050.107229898757
 30
137.5
 40
1.5
  1
MADE IN JAPAN
 50
90.0
  7
MS\U+FF7A\U+FF9E\U+FF7C\U+FF6F\U+FF78N
 11
6018.582370412068
 21
-3050.107229898757
 31
137.5
100
AcDbText
 73
     1
  0
TEXT
  5
B6FBB
102
{ACAD_REACTORS
330
B6FCB
102
}
330
18
100
AcDbEntity
  8
文字
370
     9
100
AcDbText
 10
6017.596839743799
 20
-3078.849717667301
 30
0.0
 40
1.439999999999999
  1
DENSO
 50
90.0
  7
TIMESNR
100
AcDbText
  0
TEXT
  5
B6FBC
102
{ACAD_REACTORS
330
B6FCB
102
}
330
18
100
AcDbEntity
  8
文字
370
     9
100
AcDbText
 10
6015.900077334815
 20
-3078.72830455716
 30
0.0
 40
1.439999999999999
  1
NIKKI
 50
90.0
  7
TIMESNR
100
AcDbText
  0
TEXT
  5
B6FBD
102
{ACAD_REACTORS
330
B6FCB
102
}
330
18
100
AcDbEntity
  8
文字
370
     9
100
AcDbText
 10
6011.983940977268
 20
-3084.514171814099
 30
0.0
 40
2.0
  1
Certificate
 50
90.0
  7
TIMESNR
 11
6012.623297264772
 21
-3084.514171814099
 31
0.0
100
AcDbText
 73
     1
  0
LINE
  5
B6FBE
102
{ACAD_REACTORS
330
B6FCB
102
}
330
18
100
AcDbEntity
  8
文字
100
AcDbLine
 10
6012.94306796299
 20
-3085.728890293306
 30
0.0
 11
6012.94306796299
 21
-3070.728890293306
 31
0.0
  0
LWPOLYLINE
  5
B6FBF
102
{ACAD_REACTORS
330
B6FCB
102
}
330
18
100
AcDbEntity
  8
文字
100
AcDbPolyline
 90
        8
 70
     1
 43
0.0
 10
6018.94306796299
 20
-3085.228890293306
 10
6018.943067962993
 20
-3071.228890293306
 42
0.4142135623730951
 10
6018.443067962993
 20
-3070.728890293306
 10
6009.443067962993
 20
-3070.728890293306
 42
0.4142135623730951
 10
6008.943067962993
 20
-3071.228890293306
 10
6008.943067962993
 20
-3085.228890293306
 42
0.4142135623730996
 10
6009.443067962993
 20
-3085.728890293306
 10
6018.443067962991
 20
-3085.728890293306
 42
0.4142135623730904
  0
LINE
  5
B6FC0
102
{ACAD_REACTORS
330
B6FCB
102
}
330
18
100
AcDbEntity
  8
文字
370
     9
100
AcDbLine
 10
6017.644573882376
 20
-3080.066316891686
 30
0.0
 11
6015.642073882379
 21
-3079.826016891689
 31
0.0
  0
LINE
  5
B6FC1
102
{ACAD_REACTORS
330
B6FCB
102
}
330
18
100
AcDbEntity
  8
文字
370
     9
100
AcDbLine
 10
6017.644573882376
 20
-3084.471816891687
 30
0.0
 11
6014.440573882379
 21
-3084.071316891687
 31
0.0
  0
LINE
  5
B6FC2
102
{ACAD_REACTORS
330
B6FCB
102
}
330
18
100
AcDbEntity
  8
文字
370
     9
100
AcDbLine
 10
6014.440573882379
 20
-3084.071316891687
 30
0.0
 11
6014.440573882379
 21
-3079.665816891687
 31
0.0
  0
ARC
  5
B6FC3
102
{ACAD_REACTORS
330
B6FCB
102
}
330
18
100
AcDbEntity
  8
文字
370
     9
100
AcDbCircle
 10
6016.443073882385
 20
-3082.068816891689
 30
0.0
 40
0.8009999999999999
100
AcDbArc
 50
0.0
 51
180.0
  0
CIRCLE
  5
B6FC4
102
{ACAD_REACTORS
330
B6FCB
102
}
330
18
100
AcDbEntity
  8
文字
370
     9
100
AcDbCircle
 10
6016.242823882383
 20
-3082.068816891689
 30
0.0
 40
0.6007500000000002
  0
ARC
  5
B6FC5
102
{ACAD_REACTORS
330
B6FCB
102
}
330
18
100
AcDbEntity
  8
文字
370
     9
100
AcDbCircle
 10
6016.240961091686
 20
-3082.067885496341
 30
0.0
 40
1.003113223100251
100
AcDbArc
 50
203.589777272608
 51
359.9468005913759
  0
LINE
  5
B6FC6
102
{ACAD_REACTORS
330
B6FCB
102
}
330
18
100
AcDbEntity
  8
文字
370
     9
100
AcDbLine
 10
6014.440573882379
 20
-3079.665816891687
 30
0.0
 11
6015.321673882378
 21
-3082.469316891688
 31
0.0
  0
LINE
  5
B6FC7
102
{ACAD_REACTORS
330
B6FCB
102
}
330
18
100
AcDbEntity
  8
文字
370
     9
100
AcDbLine
 10
6015.642073882379
 20
-3082.068816891689
 30
0.0
 11
6015.642073882379
 21
-3079.826016891689
 31
0.0
  0
LINE
  5
B6FC8
102
{ACAD_REACTORS
330
B6FCB
102
}
330
18
100
AcDbEntity
  8
文字
370
     9
100
AcDbLine
 10
6017.644573882376
 20
-3084.471816891687
 30
0.0
 11
6017.644573882376
 21
-3080.066316891686
 31
0.0
  0
TEXT
  5
B742A
102
{ACAD_REACTORS
330
B7444
102
}
330
18
100
AcDbEntity
  8
文字
370
     9
100
AcDbText
 10
6018.041810406406
 20
-3025.560744567842
 30
0.0
 40
1.439999999999999
  1
DENSO
 50
90.0
 41
1.3
  7
TIMESNR
100
AcDbText
  0
TEXT
  5
B742B
102
{ACAD_REACTORS
330
B7444
102
}
330
18
100
AcDbEntity
  8
文字
370
     9
100
AcDbText
 10
6016.345047997421
 20
-3025.439331457702
 30
0.0
 40
1.439999999999999
  1
NIKKI
 50
90.0
 41
1.25
  7
TIMESNR
100
AcDbText
  0
TEXT
  5
B742C
102
{ACAD_REACTORS
330
B7444
102
}
330
18
100
AcDbEntity
  8
文字
370
     9
100
AcDbText
 10
6010.560335843866
 20
-3031.90492026244
 30
0.0
 40
2.6
  1
ENCODER
 50
90.0
 41
1.199999999999999
  7
MS\U+FF7A\U+FF9E\U+FF7C\U+FF6F\U+FF78N
 11
6011.035282718866
 21
-3031.90492026244
 31
0.0
100
AcDbText
 73
     1
  0
TEXT
  5
B742D
102
{ACAD_REACTORS
330
B7444
102
}
330
18
100
AcDbEntity
  8
文字
370
     9
100
AcDbText
 10
6013.384327647248
 20
-3031.932046835252
 30
0.0
 40
2.0
  1
******PPR
 50
90.0
 41
1.199999999999999
  7
MS\U+FF7A\U+FF9E\U+FF7C\U+FF6F\U+FF78N
 11
6013.749671397248
 21
-3031.932046835252
 31
0.0
100
AcDbText
 73
     1
  0
LINE
  5
B742E
102
{ACAD_REACTORS
330
B7444
102
}
330
18
100
AcDbEntity
  8
文字
100
AcDbLine
 10
6013.943067962989
 20
-3033.728890293305
 30
0.0
 11
6013.943067962989
 21
-2998.728890293305
 31
0.0
  0
LINE
  5
B742F
102
{ACAD_REACTORS
330
B7444
102
}
330
18
100
AcDbEntity
  8
文字
100
AcDbLine
 10
6018.943067962989
 20
-3033.228890293305
 30
0.0
 11
6018.943067962989
 21
-2999.228890293305
 31
0.0
  0
LINE
  5
B7430
102
{ACAD_REACTORS
330
B7444
102
}
330
18
100
AcDbEntity
  8
文字
100
AcDbLine
 10
6006.943067962989
 20
-2999.228890293305
 30
0.0
 11
6006.943067962989
 21
-3033.228890293305
 31
0.0
  0
ARC
  5
B7431
102
{ACAD_REACTORS
330
B7444
102
}
330
18
100
AcDbEntity
  8
文字
100
AcDbCircle
 10
6018.443067962992
 20
-3033.228890293306
 30
0.0
 40
0.5
100
AcDbArc
 50
270.0
 51
0.0
  0
ARC
  5
B7432
102
{ACAD_REACTORS
330
B7444
102
}
330
18
100
AcDbEntity
  8
文字
100
AcDbCircle
 10
6007.443067962992
 20
-3033.228890293306
 30
0.0
 40
0.5
100
AcDbArc
 50
180.0
 51
270.0
  0
LINE
  5
B7433
102
{ACAD_REACTORS
330
B7444
102
}
330
18
100
AcDbEntity
  8
文字
100
AcDbLine
 10
6007.443067962988
 20
-3033.728890293305
 30
0.0
 11
6018.443067962988
 21
-3033.728890293305
 31
0.0
  0
ARC
  5
B7434
102
{ACAD_REACTORS
330
B7444
102
}
330
18
100
AcDbEntity
  8
文字
370
     9
100
AcDbCircle
 10
6016.888044544991
 20
-3028.779843792227
 30
0.0
 40
0.8009999999999999
100
AcDbArc
 50
0.0
 51
180.0
  0
LINE
  5
B7435
102
{ACAD_REACTORS
330
B7444
102
}
330
18
100
AcDbEntity
  8
文字
370
     9
100
AcDbLine
 10
6018.089544544987
 20
-3026.777343792228
 30
0.0
 11
6016.087044544988
 21
-3026.537043792227
 31
0.0
  0
LINE
  5
B7436
102
{ACAD_REACTORS
330
B7444
102
}
330
18
100
AcDbEntity
  8
文字
370
     9
100
AcDbLine
 10
6018.089544544987
 20
-3031.182843792229
 30
0.0
 11
6014.885544544985
 21
-3030.782343792229
 31
0.0
  0
ARC
  5
B7437
102
{ACAD_REACTORS
330
B7444
102
}
330
18
100
AcDbEntity
  8
文字
370
     9
100
AcDbCircle
 10
6016.685931754292
 20
-3028.778912396879
 30
0.0
 40
1.003113223100251
100
AcDbArc
 50
203.589777272608
 51
359.9468005913759
  0
LINE
  5
B7438
102
{ACAD_REACTORS
330
B7444
102
}
330
18
100
AcDbEntity
  8
文字
370
     9
100
AcDbLine
 10
6016.087044544988
 20
-3028.779843792227
 30
0.0
 11
6016.087044544988
 21
-3026.537043792227
 31
0.0
  0
LINE
  5
B7439
102
{ACAD_REACTORS
330
B7444
102
}
330
18
100
AcDbEntity
  8
文字
370
     9
100
AcDbLine
 10
6014.885544544985
 20
-3030.782343792229
 30
0.0
 11
6014.885544544985
 21
-3026.376843792228
 31
0.0
  0
LINE
  5
B743A
102
{ACAD_REACTORS
330
B7444
102
}
330
18
100
AcDbEntity
  8
文字
370
     9
100
AcDbLine
 10
6014.885544544985
 20
-3026.376843792228
 30
0.0
 11
6015.766644544984
 21
-3029.180343792226
 31
0.0
  0
CIRCLE
  5
B743B
102
{ACAD_REACTORS
330
B7444
102
}
330
18
100
AcDbEntity
  8
文字
370
     9
100
AcDbCircle
 10
6016.687794544989
 20
-3028.779843792227
 30
0.0
 40
0.6007500000000002
  0
LINE
  5
B743C
102
{ACAD_REACTORS
330
B7444
102
}
330
18
100
AcDbEntity
  8
文字
370
     9
100
AcDbLine
 10
6018.089544544987
 20
-3031.182843792229
 30
0.0
 11
6018.089544544987
 21
-3026.777343792228
 31
0.0
  0
LINE
  5
B743D
102
{ACAD_REACTORS
330
B7444
102
}
330
18
100
AcDbEntity
  8
文字
100
AcDbLine
 10
6018.443067962988
 20
-2998.728890293305
 30
0.0
 11
6007.443067962988
 21
-2998.728890293305
 31
0.0
  0
ARC
  5
B743E
102
{ACAD_REACTORS
330
B7444
102
}
330
18
100
AcDbEntity
  8
文字
100
AcDbCircle
 10
6007.443067962992
 20
-2999.228890293306
 30
0.0
 40
0.5
100
AcDbArc
 50
90.0
 51
180.0
  0
ARC
  5
B743F
102
{ACAD_REACTORS
330
B7444
102
}
330
18
100
AcDbEntity
  8
文字
100
AcDbCircle
 10
6018.443067962992
 20
-2999.228890293306
 30
0.0
 40
0.5
100
AcDbArc
 50
0.0
 51
90.0
  0
TEXT
  5
B7440
102
{ACAD_REACTORS
330
B7444
102
}
330
18
100
AcDbEntity
  8
文字
370
     9
100
AcDbText
 10
6018.308362599568
 20
-3014.107229898756
 30
137.5
 40
1.5
  1
MADE IN JAPAN
 50
90.0
  7
MS\U+FF7A\U+FF9E\U+FF7C\U+FF6F\U+FF78N
 11
6018.582370412068
 21
-3014.107229898756
 31
137.5
100
AcDbText
 73
     1
  0
TEXT
  5
B7441
102
{ACAD_REACTORS
330
B7444
102
}
330
18
100
AcDbEntity
  8
文字
370
     9
100
AcDbText
 10
6016.438576549183
 20
-3014.107229898756
 30
137.5
 40
1.5
  1
SN-16140
 50
90.0
  7
MS\U+FF7A\U+FF9E\U+FF7C\U+FF6F\U+FF78N
 11
6016.712584361682
 21
-3014.107229898756
 31
137.5
100
AcDbText
 73
     1
  0
LINE
  5
BACF3
330
18
100
AcDbEntity
  8
実線
 48
0.2
100
AcDbLine
 10
6022.643067122564
 20
-3057.728889734906
 30
0.0
 11
6022.643067122564
 21
-3025.728888214988
 31
0.0
  0
LINE
  5
BAD21
330
18
100
AcDbEntity
  8
実線
 48
0.2
100
AcDbLine
 10
6022.143067962992
 20
-3057.728889734906
 30
0.0
 11
6022.143067962992
 21
-3025.728888214987
 31
0.0
  0
LINE
  5
BAD22
330
18
100
AcDbEntity
  8
実線
 48
0.2
100
AcDbLine
 10
6023.943067962991
 20
-3025.728888214988
 30
0.0
 11
6022.143067962992
 21
-3025.728888214987
 31
0.0
  0
LINE
  5
BAD23
330
18
100
AcDbEntity
  8
実線
 48
0.2
100
AcDbLine
 10
6023.943067962993
 20
-3057.728889734906
 30
0.0
 11
6022.143067962992
 21
-3057.728889734906
 31
0.0
  0
LINE
  5
BAD24
330
18
100
AcDbEntity
  8
実線
 48
0.2
100
AcDbLine
 10
6023.943067962992
 20
-3025.728888214987
 30
0.0
 11
6023.943067962991
 21
-2985.728887658245
 31
0.0
  0
LINE
  5
BECB2
330
18
100
AcDbEntity
  8
実線
 48
0.2
100
AcDbLine
 10
5659.916687509911
 20
-3254.407643768134
 30
0.0
 11
5767.916690966982
 21
-3254.407643768136
 31
0.0
  0
LINE
  5
BECB3
330
18
100
AcDbEntity
  8
実線
 48
0.2
100
AcDbLine
 10
5651.416689238446
 20
-3274.407643768138
 30
0.0
 11
5697.91668889032
 21
-3274.407643768138
 31
0.0
  0
LINE
  5
BECB4
330
18
100
AcDbEntity
  8
実線
 48
0.2
100
AcDbLine
 10
5769.91669096698
 20
-3191.907643768138
 30
0.0
 11
5651.416689238446
 21
-3191.907643768138
 31
0.0
  0
LINE
  5
BECB5
330
18
100
AcDbEntity
  8
実線
 48
0.2
100
AcDbLine
 10
5652.916689238447
 20
-3191.407643744389
 30
0.0
 11
5769.416690364702
 21
-3191.407643744389
 31
0.0
  0
LINE
  5
BECB6
330
18
100
AcDbEntity
  8
実線
 48
0.2
100
AcDbLine
 10
5651.416689238446
 20
-3191.907643768138
 30
0.0
 11
5651.416689238446
 21
-3274.407643768138
 31
0.0
  0
LINE
  5
BECB7
330
18
100
AcDbEntity
  8
実線
 48
0.2
100
AcDbLine
 10
5657.916687509911
 20
-3256.407643768135
 30
0.0
 11
5657.916687509911
 21
-3191.907643768138
 31
0.0
  0
LINE
  5
BECB8
330
18
100
AcDbEntity
  8
実線
 48
0.2
100
AcDbLine
 10
5664.712115782816
 20
-3191.907643768136
 30
0.0
 11
5664.712115782816
 21
-3254.407643768134
 31
0.0
  0
LINE
  5
BECB9
330
18
100
AcDbEntity
  8
\U+FF7A\U+FF88\U+FF78\U+FF80
100
AcDbLine
 10
5651.416689238446
 20
-3271.061443768139
 30
0.0
 11
5651.416689238446
 21
-3253.753843768139
 31
0.0
  0
LINE
  5
BECBA
330
18
100
AcDbEntity
  8
実線
 48
0.2
100
AcDbLine
 10
5668.59285444923
 20
-3254.407643768136
 30
0.0
 11
5668.59285444923
 21
-3274.407643768138
 31
0.0
  0
LINE
  5
BECBB
330
18
100
AcDbEntity
  8
実線
 48
0.2
100
AcDbLine
 10
5657.916687509911
 20
-3256.407643768135
 30
0.0
 11
5657.916687509911
 21
-3274.407643768138
 31
0.0
  0
ARC
  5
BECBC
330
18
100
AcDbEntity
  8
実線
 48
0.2
100
AcDbCircle
 10
5659.916687509911
 20
-3256.407643768135
 30
0.0
 40
2.0
100
AcDbArc
 50
90.0
 51
180.0
  0
LINE
  5
BECBD
330
18
100
AcDbEntity
  8
中心線
 48
0.5
100
AcDbLine
 10
5661.316689649444
 20
-3190.414964499196
 30
0.0
 11
5661.316689649444
 21
-3192.907643768138
 31
0.0
  0
LINE
  5
BECBE
330
18
100
AcDbEntity
  8
実線
 48
0.2
100
AcDbLine
 10
5652.916689238447
 20
-3191.907643768138
 30
0.0
 11
5652.916689238447
 21
-3191.407643744389
 31
0.0
  0
LINE
  5
BECBF
330
18
100
AcDbEntity
  8
中心線
 48
0.5
100
AcDbLine
 10
5676.722872973238
 20
-3191.888482334083
 30
0.0
 11
5676.722873473238
 21
-3190.185141807191
 31
0.0
  0
ARC
  5
BECC0
330
18
100
AcDbEntity
  8
\U+FF77\U+FF6C\U+FF6F\U+FF8C\U+FF9F\U+FF8E\U+FF9E\U+FF99\U+FF84
100
AcDbCircle
 10
5678.272066973239
 20
-3191.007643744389
 30
0.0
 40
0.4
100
AcDbArc
 50
14.47751200004213
 51
90.0
  0
LINE
  5
BECC1
330
18
100
AcDbEntity
  8
\U+FF77\U+FF6C\U+FF6F\U+FF8C\U+FF9F\U+FF8E\U+FF9E\U+FF99\U+FF84
100
AcDbLine
 10
5678.722872973238
 20
-3191.407643744389
 30
0.0
 11
5674.722872973237
 21
-3191.407643744389
 31
0.0
  0
ARC
  5
BECC2
330
18
100
AcDbEntity
  8
\U+FF77\U+FF6C\U+FF6F\U+FF8C\U+FF9F\U+FF8E\U+FF9E\U+FF99\U+FF84
100
AcDbCircle
 10
5676.72287297324
 20
-3191.407643744389
 30
0.0
 40
2.0
100
AcDbArc
 50
0.0
 51
14.47751200004213
  0
ARC
  5
BECC3
330
18
100
AcDbEntity
  8
\U+FF77\U+FF6C\U+FF6F\U+FF8C\U+FF9F\U+FF8E\U+FF9E\U+FF99\U+FF84
100
AcDbCircle
 10
5676.72287297324
 20
-3191.407643744389
 30
0.0
 40
2.0
100
AcDbArc
 50
165.5224879999579
 51
180.0
  0
ARC
  5
BECC4
330
18
100
AcDbEntity
  8
\U+FF77\U+FF6C\U+FF6F\U+FF8C\U+FF9F\U+FF8E\U+FF9E\U+FF99\U+FF84
100
AcDbCircle
 10
5675.173679973239
 20
-3191.007643744389
 30
0.0
 40
0.4
100
AcDbArc
 50
90.0
 51
165.5224879999579
  0
LINE
  5
BECC5
330
18
100
AcDbEntity
  8
\U+FF77\U+FF6C\U+FF6F\U+FF8C\U+FF9F\U+FF8E\U+FF9E\U+FF99\U+FF84
100
AcDbLine
 10
5678.272066973237
 20
-3190.60764374439
 30
0.0
 11
5675.173679973237
 21
-3190.60764374439
 31
0.0
  0
LINE
  5
BECC6
330
18
100
AcDbEntity
  8
中心線
 48
0.2
100
AcDbLine
 10
5731.41668980469
 20
-3201.669449926858
 30
0.0
 11
5731.41668980469
 21
-3187.607642939632
 31
0.0
  0
LINE
  5
BECC7
330
18
100
AcDbEntity
  8
中心線
 48
0.2
100
AcDbLine
 10
5696.41668980469
 20
-3201.669449926858
 30
0.0
 11
5696.41668980469
 21
-3187.607642939632
 31
0.0
  0
LINE
  5
BECC8
330
18
100
AcDbEntity
  8
中心線
 48
0.5
100
AcDbLine
 10
5713.916689238446
 20
-3276.407643768138
 30
0.0
 11
5713.916689238446
 21
-3187.367622989314
 31
0.0
  0
LINE
  5
BECC9
330
18
100
AcDbEntity
  8
実線
 48
0.2
100
AcDbLine
 10
5738.81669017722
 20
-3188.607642939632
 30
0.0
 11
5689.016689432163
 21
-3188.607642939632
 31
0.0
  0
LINE
  5
BECCA
330
18
100
AcDbEntity
  8
実線
 48
0.2
100
AcDbLine
 10
5684.766689962644
 20
-3189.90764295267
 30
0.0
 11
5743.066689646739
 21
-3189.90764295267
 31
0.0
  0
LINE
  5
BECCB
330
18
100
AcDbEntity
  8
実線
 48
0.2
100
AcDbLine
 10
5684.766689962644
 20
-3191.407643744387
 30
0.0
 11
5684.766689962644
 21
-3189.90764295267
 31
0.0
  0
LINE
  5
BECCC
330
18
100
AcDbEntity
  8
実線
 48
0.2
100
AcDbLine
 10
5689.016689432163
 20
-3189.90764295267
 30
0.0
 11
5689.016689432163
 21
-3188.607642939632
 31
0.0
  0
LINE
  5
BECCD
330
18
100
AcDbEntity
  8
実線
 48
0.2
100
AcDbLine
 10
5743.066689646739
 20
-3189.90764295267
 30
0.0
 11
5743.066689646739
 21
-3191.407643744387
 31
0.0
  0
LINE
  5
BECCE
330
18
100
AcDbEntity
  8
実線
 48
0.2
100
AcDbLine
 10
5738.81669017722
 20
-3188.607642939632
 30
0.0
 11
5738.81669017722
 21
-3189.90764295267
 31
0.0
  0
LINE
  5
BECCF
330
18
100
AcDbEntity
  8
実線
 48
0.2
100
AcDbLine
 10
5769.91669096698
 20
-3191.907643768138
 30
0.0
 11
5769.91669096698
 21
-3274.407643768138
 31
0.0
  0
LINE
  5
BECD0
330
18
100
AcDbEntity
  8
実線
 48
0.2
100
AcDbLine
 10
5759.24052306165
 20
-3254.407643768138
 30
0.0
 11
5759.240523061648
 21
-3274.407643768136
 31
0.0
  0
ARC
  5
BECD1
330
18
100
AcDbEntity
  8
実線
 48
0.2
100
AcDbCircle
 10
5767.916690966982
 20
-3256.407643768136
 30
0.0
 40
2.0
100
AcDbArc
 50
0.0
 51
90.0
  0
ARC
  5
BECD2
330
18
100
AcDbEntity
  8
\U+FF77\U+FF6C\U+FF6F\U+FF8C\U+FF9F\U+FF8E\U+FF9E\U+FF99\U+FF84
100
AcDbCircle
 10
5751.110505503652
 20
-3191.407643744389
 30
0.0
 40
2.0
100
AcDbArc
 50
165.5224879999579
 51
180.0
  0
ARC
  5
BECD3
330
18
100
AcDbEntity
  8
\U+FF77\U+FF6C\U+FF6F\U+FF8C\U+FF9F\U+FF8E\U+FF9E\U+FF99\U+FF84
100
AcDbCircle
 10
5749.561311503653
 20
-3191.007643744389
 30
0.0
 40
0.4
100
AcDbArc
 50
90.0
 51
165.5224879999579
  0
LINE
  5
BECD4
330
18
100
AcDbEntity
  8
中心線
 48
0.5
100
AcDbLine
 10
5751.110505503654
 20
-3191.888482334083
 30
0.0
 11
5751.110505003654
 21
-3190.185141807191
 31
0.0
  0
ARC
  5
BECD5
330
18
100
AcDbEntity
  8
\U+FF77\U+FF6C\U+FF6F\U+FF8C\U+FF9F\U+FF8E\U+FF9E\U+FF99\U+FF84
100
AcDbCircle
 10
5752.659698503653
 20
-3191.007643744389
 30
0.0
 40
0.4
100
AcDbArc
 50
14.47751200004213
 51
90.0
  0
ARC
  5
BECD6
330
18
100
AcDbEntity
  8
\U+FF77\U+FF6C\U+FF6F\U+FF8C\U+FF9F\U+FF8E\U+FF9E\U+FF99\U+FF84
100
AcDbCircle
 10
5751.110505503652
 20
-3191.407643744389
 30
0.0
 40
2.0
100
AcDbArc
 50
0.0
 51
14.47751200004213
  0
LINE
  5
BECD7
330
18
100
AcDbEntity
  8
\U+FF77\U+FF6C\U+FF6F\U+FF8C\U+FF9F\U+FF8E\U+FF9E\U+FF99\U+FF84
100
AcDbLine
 10
5749.561311503654
 20
-3190.60764374439
 30
0.0
 11
5752.659698503655
 21
-3190.60764374439
 31
0.0
  0
LINE
  5
BECD8
330
18
100
AcDbEntity
  8
\U+FF77\U+FF6C\U+FF6F\U+FF8C\U+FF9F\U+FF8E\U+FF9E\U+FF99\U+FF84
100
AcDbLine
 10
5749.110505503654
 20
-3191.407643744389
 30
0.0
 11
5753.110505503654
 21
-3191.407643744389
 31
0.0
  0
LINE
  5
BECD9
330
18
100
AcDbEntity
  8
実線
 48
0.2
100
AcDbLine
 10
5769.416690364702
 20
-3191.907643768138
 30
0.0
 11
5769.416690364702
 21
-3191.407643744389
 31
0.0
  0
LINE
  5
BECDA
330
18
100
AcDbEntity
  8
中心線
 48
0.5
100
AcDbLine
 10
5625.474891818891
 20
-3205.407643768137
 30
0.0
 11
5653.907324653879
 21
-3205.407643768137
 31
0.0
  0
LINE
  5
BECDB
330
18
100
AcDbEntity
  8
\U+FF7A\U+FF88\U+FF78\U+FF80
100
AcDbLine
 10
5633.416689238447
 20
-3214.061443768136
 30
0.0
 11
5629.416689238446
 21
-3210.705045243428
 31
0.0
  0
LINE
  5
BECDC
330
18
100
AcDbEntity
  8
\U+FF7A\U+FF88\U+FF78\U+FF80
100
AcDbLine
 10
5646.416689238447
 20
-3214.061443768136
 30
0.0
 11
5646.416689238447
 21
-3196.753843768136
 31
0.0
  0
LINE
  5
BECDD
330
18
100
AcDbEntity
  8
\U+FF7A\U+FF88\U+FF78\U+FF80
100
AcDbLine
 10
5641.416689238447
 20
-3214.061443768136
 30
0.0
 11
5641.416689238447
 21
-3196.753843768136
 31
0.0
  0
LINE
  5
BECDE
330
18
100
AcDbEntity
  8
\U+FF7A\U+FF88\U+FF78\U+FF80
100
AcDbLine
 10
5629.416689238446
 20
-3210.705045243428
 30
0.0
 11
5629.416689238446
 21
-3200.110242292846
 31
0.0
  0
ARC
  5
BECDF
330
18
100
AcDbEntity
  8
\U+FF7A\U+FF88\U+FF78\U+FF80
100
AcDbCircle
 10
5641.416689238447
 20
-3205.407643768136
 30
0.0
 40
8.0
100
AcDbArc
 50
153.5214655209415
 51
206.4785344790584
  0
LINE
  5
BECE0
330
18
100
AcDbEntity
  8
\U+FF7A\U+FF88\U+FF78\U+FF80
100
AcDbLine
 10
5633.416689238447
 20
-3214.061443768136
 30
0.0
 11
5633.416689238447
 21
-3196.753843768136
 31
0.0
  0
LINE
  5
BECE1
330
18
100
AcDbEntity
  8
\U+FF7A\U+FF88\U+FF78\U+FF80
100
AcDbLine
 10
5646.416689238447
 20
-3211.407645029771
 30
0.0
 11
5641.416689238447
 21
-3211.407646291405
 31
0.0
  0
LINE
  5
BECE2
330
18
100
AcDbEntity
  8
\U+FF7A\U+FF88\U+FF78\U+FF80
100
AcDbLine
 10
5634.255877525379
 20
-3208.974543768136
 30
0.0
 11
5634.255877525379
 21
-3210.494543768136
 31
0.0
  0
LINE
  5
BECE3
330
18
100
AcDbEntity
  8
\U+FF7A\U+FF88\U+FF78\U+FF80
100
AcDbLine
 10
5641.416689238447
 20
-3210.494543768136
 30
0.0
 11
5634.255877525379
 21
-3210.494543768136
 31
0.0
  0
LINE
  5
BECE4
330
18
100
AcDbEntity
  8
\U+FF7A\U+FF88\U+FF78\U+FF80
100
AcDbLine
 10
5641.416689238447
 20
-3208.974543768136
 30
0.0
 11
5634.255877525379
 21
-3208.974543768136
 31
0.0
  0
LINE
  5
BECE5
330
18
100
AcDbEntity
  8
\U+FF7A\U+FF88\U+FF78\U+FF80
100
AcDbLine
 10
5641.416689238447
 20
-3214.061443768136
 30
0.0
 11
5633.416689238447
 21
-3214.061443768136
 31
0.0
  0
ARC
  5
BECE6
330
18
100
AcDbEntity
  8
\U+FF7A\U+FF88\U+FF78\U+FF80
100
AcDbCircle
 10
5641.416689238447
 20
-3214.061443768136
 30
0.0
 40
8.0
100
AcDbArc
 50
153.5214655209415
 51
180.0
  0
LINE
  5
BECE7
330
18
100
AcDbEntity
  8
\U+FF7A\U+FF88\U+FF78\U+FF80
100
AcDbLine
 10
5651.416689238446
 20
-3210.494543768136
 30
0.0
 11
5646.416689238447
 21
-3210.494543768136
 31
0.0
  0
LINE
  5
BECE8
330
18
100
AcDbEntity
  8
\U+FF7A\U+FF88\U+FF78\U+FF80
100
AcDbLine
 10
5651.416689238446
 20
-3208.974543768136
 30
0.0
 11
5646.416689238447
 21
-3208.974543768136
 31
0.0
  0
LINE
  5
BECE9
330
18
100
AcDbEntity
  8
\U+FF7A\U+FF88\U+FF78\U+FF80
100
AcDbLine
 10
5651.416689238446
 20
-3214.061443768136
 30
0.0
 11
5646.416689238447
 21
-3214.061443768136
 31
0.0
  0
ARC
  5
BECEA
330
18
100
AcDbEntity
  8
\U+FF7A\U+FF88\U+FF78\U+FF80
100
AcDbCircle
 10
5641.416689238447
 20
-3196.753843768136
 30
0.0
 40
8.0
100
AcDbArc
 50
180.0
 51
206.4785344790584
  0
LINE
  5
BECEB
330
18
100
AcDbEntity
  8
\U+FF7A\U+FF88\U+FF78\U+FF80
100
AcDbLine
 10
5633.416689238447
 20
-3196.753843768136
 30
0.0
 11
5629.416689238446
 21
-3200.110242292846
 31
0.0
  0
LINE
  5
BECEC
330
18
100
AcDbEntity
  8
\U+FF7A\U+FF88\U+FF78\U+FF80
100
AcDbLine
 10
5634.255877525379
 20
-3200.320743768136
 30
0.0
 11
5634.255877525379
 21
-3201.840743768136
 31
0.0
  0
LINE
  5
BECED
330
18
100
AcDbEntity
  8
\U+FF7A\U+FF88\U+FF78\U+FF80
100
AcDbLine
 10
5641.416689238447
 20
-3201.840743768136
 30
0.0
 11
5634.255877525379
 21
-3201.840743768136
 31
0.0
  0
LINE
  5
BECEE
330
18
100
AcDbEntity
  8
\U+FF7A\U+FF88\U+FF78\U+FF80
100
AcDbLine
 10
5641.416689238447
 20
-3200.320743768136
 30
0.0
 11
5634.255877525379
 21
-3200.320743768136
 31
0.0
  0
LINE
  5
BECEF
330
18
100
AcDbEntity
  8
\U+FF7A\U+FF88\U+FF78\U+FF80
100
AcDbLine
 10
5641.416689238447
 20
-3196.753843768136
 30
0.0
 11
5633.416689238447
 21
-3196.753843768136
 31
0.0
  0
LINE
  5
BECF0
330
18
100
AcDbEntity
  8
\U+FF7A\U+FF88\U+FF78\U+FF80
100
AcDbLine
 10
5651.416689238446
 20
-3200.320743768136
 30
0.0
 11
5646.416689238447
 21
-3200.320743768136
 31
0.0
  0
LINE
  5
BECF1
330
18
100
AcDbEntity
  8
\U+FF7A\U+FF88\U+FF78\U+FF80
100
AcDbLine
 10
5651.416689238446
 20
-3201.840743768136
 30
0.0
 11
5646.416689238447
 21
-3201.840743768136
 31
0.0
  0
LINE
  5
BECF2
330
18
100
AcDbEntity
  8
\U+FF7A\U+FF88\U+FF78\U+FF80
100
AcDbLine
 10
5651.416689238446
 20
-3196.753843768136
 30
0.0
 11
5646.416689238447
 21
-3196.753843768136
 31
0.0
  0
LINE
  5
BECF3
330
18
100
AcDbEntity
  8
\U+FF7A\U+FF88\U+FF78\U+FF80
100
AcDbLine
 10
5646.416689238447
 20
-3199.407645029769
 30
0.0
 11
5641.416689238447
 21
-3199.407646291402
 31
0.0
  0
ARC
  5
BECF5
102
{ACAD_REACTORS
330
BEE65
102
}
330
18
100
AcDbEntity
  8
\U+FF7A\U+FF88\U+FF78\U+FF80
100
AcDbCircle
 10
5603.308266067233
 20
-3167.157643264422
 30
0.0
 40
41.5
100
AcDbArc
 50
180.0
 51
270.0
  0
ARC
  5
BECF6
102
{ACAD_REACTORS
330
BEE65
102
}
330
18
100
AcDbEntity
  8
\U+FF7A\U+FF88\U+FF78\U+FF80
100
AcDbCircle
 10
5603.308266067234
 20
-3167.157643264422
 30
0.0
 40
35.0
100
AcDbArc
 50
180.0
 51
270.0
  0
LINE
  5
BECF7
102
{ACAD_REACTORS
330
BEE65
102
}
330
18
100
AcDbEntity
  8
\U+FF7A\U+FF88\U+FF78\U+FF80
100
AcDbLine
 10
5568.308266067233
 20
-3167.157643264422
 30
0.0
 11
5568.308266067233
 21
-3144.549971202558
 31
0.0
  0
LINE
  5
BECF8
102
{ACAD_REACTORS
330
BEE65
102
}
330
18
100
AcDbEntity
  8
\U+FF7A\U+FF88\U+FF78\U+FF80
100
AcDbLine
 10
5561.808266067233
 20
-3167.157643264422
 30
0.0
 11
5561.808266067233
 21
-3144.549971202558
 31
0.0
  0
LINE
  5
BECF9
102
{ACAD_REACTORS
330
BEE65
102
}
330
18
100
AcDbEntity
  8
\U+FF7A\U+FF88\U+FF78\U+FF80
 48
0.5
100
AcDbLine
 10
5568.833266067234
 20
-3110.849926101083
 30
0.0
 11
5565.383266067233
 21
-3110.849926101083
 31
0.0
  0
LINE
  5
BECFA
102
{ACAD_REACTORS
330
BEE65
102
}
330
18
100
AcDbEntity
  8
\U+FF7A\U+FF88\U+FF78\U+FF80
 48
0.5
100
AcDbLine
 10
5564.733266067234
 20
-3110.849926101083
 30
0.0
 11
5561.283266067234
 21
-3110.849926101083
 31
0.0
  0
LINE
  5
BECFB
102
{ACAD_REACTORS
330
BEE65
102
}
330
18
100
AcDbEntity
  8
\U+FF7A\U+FF88\U+FF78\U+FF80
 48
0.5
100
AcDbLine
 10
5570.308266067232
 20
-3133.449971202559
 30
0.0
 11
5570.308266067232
 21
-3120.349926101082
 31
0.0
  0
LINE
  5
BECFC
102
{ACAD_REACTORS
330
BEE65
102
}
330
18
100
AcDbEntity
  8
\U+FF7A\U+FF88\U+FF78\U+FF80
 48
0.5
100
AcDbLine
 10
5560.308266067233
 20
-3133.449971202559
 30
0.0
 11
5560.308266067233
 21
-3120.349926101082
 31
0.0
  0
LINE
  5
BECFD
102
{ACAD_REACTORS
330
BEE65
102
}
330
18
100
AcDbEntity
  8
\U+FF7A\U+FF88\U+FF78\U+FF80
 48
0.5
100
AcDbLine
 10
5558.843508086865
 20
-3122.363868414786
 30
0.0
 11
5557.879694638661
 21
-3127.829926101083
 31
0.0
  0
LINE
  5
BECFE
102
{ACAD_REACTORS
330
BEE65
102
}
330
18
100
AcDbEntity
  8
\U+FF7A\U+FF88\U+FF78\U+FF80
 48
0.5
100
AcDbLine
 10
5556.49055178152
 20
-3117.46478324394
 30
0.0
 11
5556.49055178152
 21
-3127.829926101082
 31
0.0
  0
LINE
  5
BECFF
102
{ACAD_REACTORS
330
BEE65
102
}
330
18
100
AcDbEntity
  8
\U+FF7A\U+FF88\U+FF78\U+FF80
 48
0.5
100
AcDbLine
 10
5556.908266067233
 20
-3115.589926101084
 30
0.0
 11
5556.908266067233
 21
-3126.858497529654
 31
0.0
  0
LINE
  5
BED00
102
{ACAD_REACTORS
330
BEE65
102
}
330
18
100
AcDbEntity
  8
\U+FF7A\U+FF88\U+FF78\U+FF80
 48
0.5
100
AcDbLine
 10
5571.208260014191
 20
-3133.449971202557
 30
0.0
 11
5570.308266067232
 21
-3133.449971202557
 31
0.0
  0
LINE
  5
BED01
102
{ACAD_REACTORS
330
BEE65
102
}
330
18
100
AcDbEntity
  8
\U+FF7A\U+FF88\U+FF78\U+FF80
 48
0.5
100
AcDbLine
 10
5571.208260014191
 20
-3134.549971202558
 30
0.0
 11
5571.208260014191
 21
-3133.449971202558
 31
0.0
  0
LINE
  5
BED02
102
{ACAD_REACTORS
330
BEE65
102
}
330
18
100
AcDbEntity
  8
\U+FF7A\U+FF88\U+FF78\U+FF80
 48
0.5
100
AcDbLine
 10
5560.308266067233
 20
-3133.449971202559
 30
0.0
 11
5559.40826001419
 21
-3133.44997120256
 31
0.0
  0
LINE
  5
BED03
102
{ACAD_REACTORS
330
BEE65
102
}
330
18
100
AcDbEntity
  8
\U+FF7A\U+FF88\U+FF78\U+FF80
 48
0.5
100
AcDbLine
 10
5559.40826001419
 20
-3134.549971202558
 30
0.0
 11
5559.40826001419
 21
-3133.449971202559
 31
0.0
  0
LINE
  5
BED04
102
{ACAD_REACTORS
330
BEE65
102
}
330
18
100
AcDbEntity
  8
\U+FF7A\U+FF88\U+FF78\U+FF80
 48
0.5
100
AcDbLine
 10
5556.908266067233
 20
-3126.858497529654
 30
0.0
 11
5556.49055178152
 21
-3126.858497529654
 31
0.0
  0
LINE
  5
BED05
102
{ACAD_REACTORS
330
BEE65
102
}
330
18
100
AcDbEntity
  8
\U+FF7A\U+FF88\U+FF78\U+FF80
 48
0.5
100
AcDbLine
 10
5557.879694638661
 20
-3127.829926101083
 30
0.0
 11
5556.49055178152
 21
-3127.829926101082
 31
0.0
  0
LINE
  5
BED06
102
{ACAD_REACTORS
330
BEE65
102
}
330
18
100
AcDbEntity
  8
\U+FF7A\U+FF88\U+FF78\U+FF80
 48
0.5
100
AcDbLine
 10
5571.208260014191
 20
-3134.549971202558
 30
0.0
 11
5559.40826001419
 21
-3134.549971202558
 31
0.0
  0
LINE
  5
BED07
102
{ACAD_REACTORS
330
BEE65
102
}
330
18
100
AcDbEntity
  8
\U+FF7A\U+FF88\U+FF78\U+FF80
 48
0.5
100
AcDbLine
 10
5559.142551781519
 20
-3114.618497529654
 30
0.0
 11
5557.879694638661
 21
-3114.618497529654
 31
0.0
  0
LINE
  5
BED08
102
{ACAD_REACTORS
330
BEE65
102
}
330
18
100
AcDbEntity
  8
\U+FF7A\U+FF88\U+FF78\U+FF80
 48
0.5
100
AcDbLine
 10
5560.113980352948
 20
-3117.047068958227
 30
0.0
 11
5559.045408924377
 21
-3116.949926101083
 31
0.0
  0
LINE
  5
BED09
102
{ACAD_REACTORS
330
BEE65
102
}
330
18
100
AcDbEntity
  8
\U+FF7A\U+FF88\U+FF78\U+FF80
 48
0.5
100
AcDbLine
 10
5559.142551781519
 20
-3114.618497529654
 30
0.0
 11
5560.113980352948
 21
-3115.589926101084
 31
0.0
  0
LINE
  5
BED0A
102
{ACAD_REACTORS
330
BEE65
102
}
330
18
100
AcDbEntity
  8
\U+FF7A\U+FF88\U+FF78\U+FF80
 48
0.5
100
AcDbLine
 10
5560.113980352948
 20
-3115.589926101084
 30
0.0
 11
5560.113980352948
 21
-3117.047068958227
 31
0.0
  0
ARC
  5
BED0B
102
{ACAD_REACTORS
330
BEE65
102
}
330
18
100
AcDbEntity
  8
\U+FF7A\U+FF88\U+FF78\U+FF80
 48
0.5
100
AcDbCircle
 10
5559.82255178152
 20
-3122.448211815368
 30
0.0
 40
0.4857142857142857
100
AcDbArc
 50
0.0
 51
90.0
  0
LINE
  5
BED0C
102
{ACAD_REACTORS
330
BEE65
102
}
330
18
100
AcDbEntity
  8
\U+FF7A\U+FF88\U+FF78\U+FF80
 48
0.5
100
AcDbLine
 10
5559.82255178152
 20
-3121.962497529654
 30
0.0
 11
5559.321843281185
 21
-3121.962497529654
 31
0.0
  0
ARC
  5
BED0D
102
{ACAD_REACTORS
330
BEE65
102
}
330
18
100
AcDbEntity
  8
\U+FF7A\U+FF88\U+FF78\U+FF80
 48
0.5
100
AcDbCircle
 10
5559.321843281185
 20
-3122.448211815368
 30
0.0
 40
0.4857142857142857
100
AcDbArc
 50
90.0
 51
169.9999999999961
  0
LINE
  5
BED0E
102
{ACAD_REACTORS
330
BEE65
102
}
330
18
100
AcDbEntity
  8
\U+FF7A\U+FF88\U+FF78\U+FF80
 48
0.5
100
AcDbLine
 10
5559.045408924377
 20
-3116.949926101083
 30
0.0
 11
5559.045408924377
 21
-3120.349926101082
 31
0.0
  0
LINE
  5
BED0F
102
{ACAD_REACTORS
330
BEE65
102
}
330
18
100
AcDbEntity
  8
\U+FF7A\U+FF88\U+FF78\U+FF80
 48
0.5
100
AcDbLine
 10
5557.879694638661
 20
-3117.047068958227
 30
0.0
 11
5557.879694638661
 21
-3120.349926101082
 31
0.0
  0
LINE
  5
BED10
102
{ACAD_REACTORS
330
BEE65
102
}
330
18
100
AcDbEntity
  8
\U+FF7A\U+FF88\U+FF78\U+FF80
 48
0.5
100
AcDbLine
 10
5556.908266067233
 20
-3117.047068958227
 30
0.0
 11
5556.49055178152
 21
-3117.46478324394
 31
0.0
  0
LINE
  5
BED11
102
{ACAD_REACTORS
330
BEE65
102
}
330
18
100
AcDbEntity
  8
\U+FF7A\U+FF88\U+FF78\U+FF80
 48
0.5
100
AcDbLine
 10
5557.879694638661
 20
-3117.047068958227
 30
0.0
 11
5556.908266067233
 21
-3117.047068958227
 31
0.0
  0
LINE
  5
BED12
102
{ACAD_REACTORS
330
BEE65
102
}
330
18
100
AcDbEntity
  8
\U+FF7A\U+FF88\U+FF78\U+FF80
 48
0.5
100
AcDbLine
 10
5556.908266067233
 20
-3115.589926101084
 30
0.0
 11
5557.879694638661
 21
-3114.618497529654
 31
0.0
  0
LINE
  5
BED13
102
{ACAD_REACTORS
330
BEE65
102
}
330
18
100
AcDbEntity
  8
\U+FF7A\U+FF88\U+FF78\U+FF80
 48
0.5
100
AcDbLine
 10
5560.308266067233
 20
-3120.349926101082
 30
0.0
 11
5556.49055178152
 21
-3120.349926101082
 31
0.0
  0
LINE
  5
BED14
102
{ACAD_REACTORS
330
BEE65
102
}
330
18
100
AcDbEntity
  8
\U+FF7A\U+FF88\U+FF78\U+FF80
 48
0.5
100
AcDbLine
 10
5570.308266067232
 20
-3120.349926101082
 30
0.0
 11
5560.308266067233
 21
-3120.349926101082
 31
0.0
  0
LINE
  5
BED15
102
{ACAD_REACTORS
330
BEE65
102
}
330
18
100
AcDbEntity
  8
\U+FF7A\U+FF88\U+FF78\U+FF80
 48
0.5
100
AcDbLine
 10
5567.058266067232
 20
-3144.549971202558
 30
0.0
 11
5563.058266067232
 21
-3144.549971202558
 31
0.0
  0
LINE
  5
BED16
102
{ACAD_REACTORS
330
BEE65
102
}
330
18
100
AcDbEntity
  8
\U+FF7A\U+FF88\U+FF78\U+FF80
100
AcDbLine
 10
5561.808266067233
 20
-3144.549971202558
 30
0.0
 11
5568.308266067233
 21
-3144.549971202558
 31
0.0
  0
LINE
  5
BED17
102
{ACAD_REACTORS
330
BEE65
102
}
330
18
100
AcDbEntity
  8
\U+FF7A\U+FF88\U+FF78\U+FF80
 48
0.5
100
AcDbLine
 10
5564.008266067234
 20
-3134.549971202558
 30
0.0
 11
5565.058266067232
 21
-3144.549971202558
 31
0.0
  0
LINE
  5
BED18
102
{ACAD_REACTORS
330
BEE65
102
}
330
18
100
AcDbEntity
  8
\U+FF7A\U+FF88\U+FF78\U+FF80
 48
0.5
100
AcDbLine
 10
5562.008266067234
 20
-3134.549971202558
 30
0.0
 11
5563.058266067232
 21
-3144.549971202558
 31
0.0
  0
LINE
  5
BED19
102
{ACAD_REACTORS
330
BEE65
102
}
330
18
100
AcDbEntity
  8
\U+FF7A\U+FF88\U+FF78\U+FF80
 48
0.5
100
AcDbLine
 10
5566.108266067232
 20
-3134.549971202558
 30
0.0
 11
5565.058266067232
 21
-3144.549971202558
 31
0.0
  0
LINE
  5
BED1A
102
{ACAD_REACTORS
330
BEE65
102
}
330
18
100
AcDbEntity
  8
\U+FF7A\U+FF88\U+FF78\U+FF80
 48
0.5
100
AcDbLine
 10
5568.108266067233
 20
-3134.549971202558
 30
0.0
 11
5567.058266067232
 21
-3144.549971202558
 31
0.0
  0
LINE
  5
BED1B
102
{ACAD_REACTORS
330
BEE65
102
}
330
18
100
AcDbEntity
  8
\U+FF7A\U+FF88\U+FF78\U+FF80
 48
0.5
100
AcDbLine
 10
5564.733266067234
 20
-3110.849926101083
 30
0.0
 11
5564.733266067234
 21
-3120.349926101082
 31
0.0
  0
LINE
  5
BED1C
102
{ACAD_REACTORS
330
BEE65
102
}
330
18
100
AcDbEntity
  8
\U+FF7A\U+FF88\U+FF78\U+FF80
 48
0.5
100
AcDbLine
 10
5565.383266067233
 20
-3110.849926101083
 30
0.0
 11
5565.383266067233
 21
-3120.349926101082
 31
0.0
  0
LINE
  5
BED1D
102
{ACAD_REACTORS
330
BEE65
102
}
330
18
100
AcDbEntity
  8
\U+FF7A\U+FF88\U+FF78\U+FF80
 48
0.5
100
AcDbLine
 10
5568.833266067234
 20
-3110.849926101083
 30
0.0
 11
5568.833266067233
 21
-3120.349926101082
 31
0.0
  0
LINE
  5
BED1E
102
{ACAD_REACTORS
330
BEE65
102
}
330
18
100
AcDbEntity
  8
\U+FF7A\U+FF88\U+FF78\U+FF80
 48
0.5
100
AcDbLine
 10
5561.283266067234
 20
-3110.849926101083
 30
0.0
 11
5561.283266067234
 21
-3120.349926101082
 31
0.0
  0
SPLINE
  5
BED1F
102
{ACAD_REACTORS
330
BEE65
102
}
330
18
100
AcDbEntity
  8
細線
100
AcDbSpline
210
0.0
220
0.0
230
1.0
 70
  1064
 71
     3
 72
    11
 73
     7
 74
     5
 42
0.000000001
 43
0.0000000001
 44
0.0000000001
 40
0.0
 40
0.0
 40
0.0
 40
0.0
 40
1.962294862388189
 40
3.412610777824321
 40
4.859995365034054
 40
6.826861343341657
 40
6.826861343341657
 40
6.826861343341657
 40
6.826861343341657
 10
5614.048048346336
 20
-3208.657644271855
 30
0.0
 10
5614.335459109695
 20
-3208.021014400954
 30
0.0
 10
5614.835292792951
 20
-3206.913856653887
 30
0.0
 10
5614.052221872547
 20
-3205.407866421125
 30
0.0
 10
5613.257708484823
 20
-3203.905058258315
 30
0.0
 10
5613.759169156997
 20
-3202.796346127129
 30
0.0
 10
5614.048048346336
 20
-3202.157644271856
 30
0.0
 11
5614.048048346336
 21
-3208.657644271855
 31
0.0
 11
5614.563210270137
 21
-3206.76417937405
 31
0.0
 11
5614.05015201703
 21
-3205.407644271855
 31
0.0
 11
5613.532886422532
 21
-3204.055846044293
 31
0.0
 11
5614.048048346336
 21
-3202.157644271856
 31
0.0
  0
SPLINE
  5
BED20
102
{ACAD_REACTORS
330
BEE65
102
}
330
18
100
AcDbEntity
  8
細線
100
AcDbSpline
210
0.0
220
0.0
230
1.0
 70
  1064
 71
     3
 72
     9
 73
     5
 74
     3
 42
0.000000001
 43
0.0000000001
 44
0.0000000001
 40
0.0
 40
0.0
 40
0.0
 40
0.0
 40
1.442885782325975
 40
3.409751760632864
 40
3.409751760632864
 40
3.409751760632864
 40
3.409751760632864
 10
5614.048048346336
 20
-3205.403632219138
 30
0.0
 10
5614.282755808908
 20
-3204.957524696359
 30
0.0
 10
5614.837404134884
 20
-3203.903306871315
 30
0.0
 10
5614.336809258986
 20
-3202.796239861721
 30
0.0
 10
5614.048048346336
 20
-3202.157644271856
 30
0.0
 11
5614.048048346336
 21
-3205.403632219138
 31
0.0
 11
5614.563210270137
 21
-3204.055846044293
 31
0.0
 11
5614.048048346336
 21
-3202.157644271856
 31
0.0
  0
SPLINE
  5
BED21
102
{ACAD_REACTORS
330
BEE65
102
}
330
18
100
AcDbEntity
  8
細線
100
AcDbSpline
210
0.0
220
0.0
230
1.0
 70
  1064
 71
     3
 72
    11
 73
     7
 74
     5
 42
0.000000001
 43
0.0000000001
 44
0.0000000001
 40
0.0
 40
0.0
 40
0.0
 40
0.0
 40
1.962294862388428
 40
3.412610777824882
 40
4.859995365035464
 40
6.82686134334219
 40
6.82686134334219
 40
6.82686134334219
 40
6.82686134334219
 10
5618.543428502332
 20
-3202.157643264422
 30
0.0
 10
5618.256017738971
 20
-3202.794273135322
 30
0.0
 10
5617.756184055714
 20
-3203.901430882389
 30
0.0
 10
5618.53925497612
 20
-3205.407421115154
 30
0.0
 10
5619.333768363844
 20
-3206.910229277962
 30
0.0
 10
5618.832307691669
 20
-3208.018941409149
 30
0.0
 10
5618.543428502332
 20
-3208.657643264422
 30
0.0
 11
5618.543428502332
 21
-3202.157643264422
 31
0.0
 11
5618.02826657853
 21
-3204.051108162227
 31
0.0
 11
5618.541324831637
 21
-3205.407643264422
 31
0.0
 11
5619.058590426136
 21
-3206.759441491985
 31
0.0
 11
5618.543428502332
 21
-3208.657643264422
 31
0.0
  0
SPLINE
  5
BED22
102
{ACAD_REACTORS
330
BEE65
102
}
330
18
100
AcDbEntity
  8
細線
100
AcDbSpline
210
0.0
220
0.0
230
1.0
 70
  1064
 71
     3
 72
     9
 73
     5
 74
     3
 42
0.000000001
 43
0.0000000001
 44
0.0000000001
 40
0.0
 40
0.0
 40
0.0
 40
0.0
 40
1.4428857823263
 40
3.409751760632549
 40
3.409751760632549
 40
3.409751760632549
 40
3.409751760632549
 10
5618.543428502332
 20
-3205.41165531714
 30
0.0
 10
5618.308721039759
 20
-3205.85776283992
 30
0.0
 10
5617.754072713783
 20
-3206.911980664963
 30
0.0
 10
5618.25466758968
 20
-3208.019047674556
 30
0.0
 10
5618.543428502332
 20
-3208.657643264422
 30
0.0
 11
5618.543428502332
 21
-3205.41165531714
 31
0.0
 11
5618.02826657853
 21
-3206.759441491985
 31
0.0
 11
5618.543428502332
 21
-3208.657643264422
 31
0.0
  0
LINE
  5
BED23
102
{ACAD_REACTORS
330
BEE65
102
}
330
18
100
AcDbEntity
  8
\U+FF7A\U+FF88\U+FF78\U+FF80
100
AcDbLine
 10
5603.308266067233
 20
-3208.657643264422
 30
0.0
 11
5614.048048346334
 21
-3208.657643264423
 31
0.0
  0
LINE
  5
BED24
102
{ACAD_REACTORS
330
BEE65
102
}
330
18
100
AcDbEntity
  8
\U+FF7A\U+FF88\U+FF78\U+FF80
100
AcDbLine
 10
5603.308266067234
 20
-3202.157643264422
 30
0.0
 11
5614.048048346336
 21
-3202.157643264423
 31
0.0
  0
LINE
  5
BED25
102
{ACAD_REACTORS
330
BEE65
102
}
330
18
100
AcDbEntity
  8
\U+FF7A\U+FF88\U+FF78\U+FF80
100
AcDbLine
 10
5618.543428502333
 20
-3208.657643264417
 30
0.0
 11
5629.416689238446
 21
-3208.657643264418
 31
0.0
  0
LINE
  5
BED26
102
{ACAD_REACTORS
330
BEE65
102
}
330
18
100
AcDbEntity
  8
\U+FF7A\U+FF88\U+FF78\U+FF80
100
AcDbLine
 10
5618.543428502333
 20
-3202.157643264422
 30
0.0
 11
5629.416689238446
 21
-3202.157643264418
 31
0.0
  0
LINE
  5
BED50
330
18
100
AcDbEntity
  8
\U+FF7A\U+FF88\U+FF78\U+FF80
100
AcDbLine
 10
5651.416689238446
 20
-3253.750446684212
 30
0.0
 11
5651.416689238446
 21
-3271.058046684212
 31
0.0
  0
LINE
  5
BED6A
330
18
100
AcDbEntity
  8
中心線
 48
0.5
100
AcDbLine
 10
5653.899381865529
 20
-3262.40764376814
 30
0.0
 11
5625.474891818891
 21
-3262.40764376814
 31
0.0
  0
LINE
  5
BED80
330
18
100
AcDbEntity
  8
実線
 48
0.2
100
AcDbLine
 10
5697.91668889032
 20
-3273.107642927711
 30
0.0
 11
5729.916690410237
 21
-3273.107642927711
 31
0.0
  0
LINE
  5
BED81
330
18
100
AcDbEntity
  8
実線
 48
0.2
100
AcDbLine
 10
5697.916688890319
 20
-3272.607643768139
 30
0.0
 11
5729.916690410237
 21
-3272.607643768139
 31
0.0
  0
LINE
  5
BED82
330
18
100
AcDbEntity
  8
実線
 48
0.2
100
AcDbLine
 10
5729.916690410237
 20
-3274.407643768138
 30
0.0
 11
5729.916690410237
 21
-3272.607643768139
 31
0.0
  0
LINE
  5
BED83
330
18
100
AcDbEntity
  8
実線
 48
0.2
100
AcDbLine
 10
5697.916688890319
 20
-3274.40764376814
 30
0.0
 11
5697.916688890319
 21
-3272.607643768139
 31
0.0
  0
LINE
  5
BED84
330
18
100
AcDbEntity
  8
実線
 48
0.2
100
AcDbLine
 10
5729.916690410237
 20
-3274.407643768138
 30
0.0
 11
5769.91669096698
 21
-3274.407643768138
 31
0.0
  0
LINE
  5
C1207
330
18
100
AcDbEntity
  8
実線
 48
0.2
100
AcDbLine
 10
6106.161675007381
 20
-3087.052722797617
 30
0.0
 11
6106.161675007381
 21
-2996.405055151209
 31
0.0
  0
LINE
  5
C1208
330
18
100
AcDbEntity
  8
実線
 48
0.2
100
AcDbLine
 10
6218.161678464451
 20
-2996.405055151209
 30
0.0
 11
6218.161678464451
 21
-3013.420136050209
 31
0.0
  0
LINE
  5
C1209
330
18
100
AcDbEntity
  8
中心線
 48
0.5
100
AcDbLine
 10
6162.161676735916
 20
-2974.268670696718
 30
0.0
 11
6162.161676735916
 21
-3109.189107252107
 31
0.0
  0
LINE
  5
C120A
330
18
100
AcDbEntity
  8
中心線
 48
0.5
100
AcDbLine
 10
6094.701458458387
 20
-3041.728888974462
 30
0.0
 11
6253.845768385509
 21
-3041.728888974461
 31
0.0
  0
LINE
  5
C120B
330
18
100
AcDbEntity
  8
実線
 48
0.2
100
AcDbLine
 10
6207.48551055912
 20
-3097.728890702947
 30
0.0
 11
6116.837842912711
 21
-3097.728890702947
 31
0.0
  0
ARC
  5
C120C
330
18
100
AcDbEntity
  8
実線
 48
0.2
100
AcDbCircle
 10
6162.161676735916
 20
-3041.728888974413
 30
0.0
 40
72.50000000000006
100
AcDbArc
 50
220.007753913509
 51
229.9922460864878
  0
ARC
  5
C120D
330
18
100
AcDbEntity
  8
実線
 48
0.2
100
AcDbCircle
 10
6116.837841946701
 20
-3095.728888974413
 30
0.0
 40
2.000000000000051
100
AcDbArc
 50
229.9922460864878
 51
270.0
  0
CIRCLE
  5
C120E
330
18
100
AcDbEntity
  8
実線
 48
0.2
100
AcDbCircle
 10
6117.967502911755
 20
-3085.923062798571
 30
0.0
 40
3.5
  0
LINE
  5
C120F
330
18
100
AcDbEntity
  8
中心線
 48
0.5
100
AcDbLine
 10
6123.153318484992
 20
-3080.737247225336
 30
0.0
 11
6112.781687338518
 21
-3091.108878371811
 31
0.0
  0
ARC
  5
C1210
330
18
100
AcDbEntity
  8
実線
 48
0.2
100
AcDbCircle
 10
6108.161676735917
 20
-3087.052723763626
 30
0.0
 40
2.000000000000051
100
AcDbArc
 50
180.0
 51
220.007753913509
  0
CIRCLE
  5
C1211
330
18
100
AcDbEntity
  8
実線
 48
0.2
100
AcDbCircle
 10
6162.161676736081
 20
-3041.728888974462
 30
0.0
 40
10.8
  0
CIRCLE
  5
C1212
330
18
100
AcDbEntity
  8
実線
 48
0.2
100
AcDbCircle
 10
6162.161676736081
 20
-3041.728888974462
 30
0.0
 40
9.5
  0
CIRCLE
  5
C1213
330
18
100
AcDbEntity
  8
実線
100
AcDbCircle
 10
6162.161676735905
 20
-3041.728888974353
 30
0.0
 40
0.0000000000618456
  0
LINE
  5
C1214
330
18
100
AcDbEntity
  8
実線
 48
0.2
100
AcDbLine
 10
6218.161678464451
 20
-3070.037641898617
 30
0.0
 11
6218.161678464451
 21
-3087.052722797617
 31
0.0
  0
ARC
  5
C1215
330
18
100
AcDbEntity
  8
実線
 48
0.2
100
AcDbCircle
 10
6162.161676735916
 20
-3041.728888974413
 30
0.0
 40
72.5
100
AcDbArc
 50
310.0077539135123
 51
319.992246086491
  0
ARC
  5
C1216
330
18
100
AcDbEntity
  8
実線
 48
0.2
100
AcDbCircle
 10
6207.48551152513
 20
-3095.728888974413
 30
0.0
 40
2.000000000000015
100
AcDbArc
 50
270.0
 51
310.0077539135123
  0
CIRCLE
  5
C1217
330
18
100
AcDbEntity
  8
実線
 48
0.2
100
AcDbCircle
 10
6206.355850560074
 20
-3085.923062798571
 30
0.0
 40
3.500000000000027
  0
LINE
  5
C1218
330
18
100
AcDbEntity
  8
中心線
 48
0.5
100
AcDbLine
 10
6201.170034986841
 20
-3080.737247225338
 30
0.0
 11
6211.541666133315
 21
-3091.108878371812
 31
0.0
  0
ARC
  5
C1219
330
18
100
AcDbEntity
  8
実線
 48
0.2
100
AcDbCircle
 10
6216.161676735916
 20
-3087.052723763626
 30
0.0
 40
2.000000000000008
100
AcDbArc
 50
319.992246086491
 51
0.0
  0
ARC
  5
C121A
330
18
100
AcDbEntity
  8
実線
 48
0.2
100
AcDbCircle
 10
6162.161676735916
 20
-3041.728888974413
 30
0.0
 40
62.49999999999996
100
AcDbArc
 50
335.0714582198018
 51
24.92854178019817
  0
ARC
  5
C121B
330
18
100
AcDbEntity
  8
実線
 48
0.2
100
AcDbCircle
 10
6217.025143633295
 20
-3067.228888974413
 30
0.0
 40
1.999999999999986
100
AcDbArc
 50
325.8230487704779
 51
335.0714582198018
  0
ARC
  5
C121C
330
18
100
AcDbEntity
  8
実線
 48
0.2
100
AcDbCircle
 10
6221.161676735917
 20
-3070.037642059133
 30
0.0
 40
3.000000000000031
100
AcDbArc
 50
145.8230487704779
 51
180.0
  0
ARC
  5
C121D
330
18
100
AcDbEntity
  8
実線
 48
0.2
100
AcDbCircle
 10
6217.025143633295
 20
-3016.228888974413
 30
0.0
 40
2.000000000000011
100
AcDbArc
 50
24.92854178019817
 51
34.1769512295221
  0
ARC
  5
C121E
330
18
100
AcDbEntity
  8
実線
 48
0.2
100
AcDbCircle
 10
6221.161676735917
 20
-3013.42013588969
 30
0.0
 40
3.0
100
AcDbArc
 50
180.0
 51
214.1769512295221
  0
LINE
  5
C121F
330
18
100
AcDbEntity
  8
実線
 48
0.2
100
AcDbLine
 10
6116.837842912711
 20
-2985.728887245878
 30
0.0
 11
6207.48551055912
 21
-2985.728887245878
 31
0.0
  0
ARC
  5
C1220
330
18
100
AcDbEntity
  8
実線
 48
0.2
100
AcDbCircle
 10
6162.161676735916
 20
-3041.728888974413
 30
0.0
 40
72.50000000000006
100
AcDbArc
 50
130.0077539135122
 51
139.992246086491
  0
CIRCLE
  5
C1221
330
18
100
AcDbEntity
  8
実線
 48
0.2
100
AcDbCircle
 10
6117.967502911756
 20
-2997.534715150252
 30
0.0
 40
3.5
  0
LINE
  5
C1222
330
18
100
AcDbEntity
  8
中心線
 48
0.5
100
AcDbLine
 10
6123.153318484995
 20
-3002.720530723485
 30
0.0
 11
6112.78168733852
 21
-2992.348899577011
 31
0.0
  0
ARC
  5
C1223
330
18
100
AcDbEntity
  8
実線
 48
0.2
100
AcDbCircle
 10
6108.161676735917
 20
-2996.405054185198
 30
0.0
 40
2.000000000000015
100
AcDbArc
 50
139.992246086491
 51
180.0
  0
ARC
  5
C1224
330
18
100
AcDbEntity
  8
実線
 48
0.2
100
AcDbCircle
 10
6116.837841946701
 20
-2987.728888974413
 30
0.0
 40
2.000000000000095
100
AcDbArc
 50
90.0
 51
130.0077539135122
  0
ARC
  5
C1225
330
18
100
AcDbEntity
  8
実線
 48
0.2
100
AcDbCircle
 10
6162.161676735916
 20
-3041.728888974413
 30
0.0
 40
72.49999999999999
100
AcDbArc
 50
40.00775391350902
 51
49.99224608648775
  0
CIRCLE
  5
C1226
330
18
100
AcDbEntity
  8
実線
 48
0.2
100
AcDbCircle
 10
6206.355850560075
 20
-2997.534715150252
 30
0.0
 40
3.5
  0
LINE
  5
C1227
330
18
100
AcDbEntity
  8
中心線
 48
0.5
100
AcDbLine
 10
6201.170034986843
 20
-3002.720530723488
 30
0.0
 11
6211.541666133317
 21
-2992.348899577014
 31
0.0
  0
ARC
  5
C1228
330
18
100
AcDbEntity
  8
実線
 48
0.2
100
AcDbCircle
 10
6216.161676735916
 20
-2996.405054185198
 30
0.0
 40
2.0
100
AcDbArc
 50
0.0
 51
40.00775391350902
  0
ARC
  5
C1229
330
18
100
AcDbEntity
  8
実線
 48
0.2
100
AcDbCircle
 10
6207.48551152513
 20
-2987.728888974413
 30
0.0
 40
2.000000000000059
100
AcDbArc
 50
49.99224608648775
 51
90.0
  0
LINE
  5
C122A
330
18
100
AcDbEntity
  8
\U+FF7A\U+FF88\U+FF78\U+FF80
100
AcDbLine
 10
6229.661676735917
 20
-3033.075088974462
 30
0.0
 11
6229.661676735917
 21
-3050.382688974462
 31
0.0
  0
LINE
  5
C122B
330
18
100
AcDbEntity
  8
\U+FF7A\U+FF88\U+FF78\U+FF80
100
AcDbLine
 10
6246.661676735916
 20
-3036.431487499171
 30
0.0
 11
6246.661676735916
 21
-3047.026290449753
 31
0.0
  0
ARC
  5
C122C
330
18
100
AcDbEntity
  8
\U+FF7A\U+FF88\U+FF78\U+FF80
100
AcDbCircle
 10
6234.661676735917
 20
-3041.728888974462
 30
0.0
 40
8.0
100
AcDbArc
 50
333.5214655209426
 51
26.47853447905733
  0
LINE
  5
C122D
330
18
100
AcDbEntity
  8
\U+FF7A\U+FF88\U+FF78\U+FF80
100
AcDbLine
 10
6242.661676735917
 20
-3033.075088974462
 30
0.0
 11
6242.661676735917
 21
-3050.382688974462
 31
0.0
  0
LINE
  5
C122E
330
18
100
AcDbEntity
  8
\U+FF7A\U+FF88\U+FF78\U+FF80
100
AcDbLine
 10
6229.661676735917
 20
-3035.728887712828
 30
0.0
 11
6234.661676735917
 21
-3035.728886451193
 31
0.0
  0
LINE
  5
C122F
330
18
100
AcDbEntity
  8
\U+FF7A\U+FF88\U+FF78\U+FF80
100
AcDbLine
 10
6242.661676735917
 20
-3033.075088974462
 30
0.0
 11
6246.661676735916
 21
-3036.431487499171
 31
0.0
  0
LINE
  5
C1230
330
18
100
AcDbEntity
  8
\U+FF7A\U+FF88\U+FF78\U+FF80
100
AcDbLine
 10
6241.822488448983
 20
-3038.161988974462
 30
0.0
 11
6241.822488448983
 21
-3036.641988974462
 31
0.0
  0
LINE
  5
C1231
330
18
100
AcDbEntity
  8
\U+FF7A\U+FF88\U+FF78\U+FF80
100
AcDbLine
 10
6234.661676735917
 20
-3036.641988974462
 30
0.0
 11
6241.822488448983
 21
-3036.641988974462
 31
0.0
  0
LINE
  5
C1232
330
18
100
AcDbEntity
  8
\U+FF7A\U+FF88\U+FF78\U+FF80
100
AcDbLine
 10
6234.661676735917
 20
-3038.161988974462
 30
0.0
 11
6241.822488448983
 21
-3038.161988974462
 31
0.0
  0
LINE
  5
C1233
330
18
100
AcDbEntity
  8
\U+FF7A\U+FF88\U+FF78\U+FF80
100
AcDbLine
 10
6234.661676735917
 20
-3033.075088974462
 30
0.0
 11
6242.661676735917
 21
-3033.075088974462
 31
0.0
  0
ARC
  5
C1234
330
18
100
AcDbEntity
  8
\U+FF7A\U+FF88\U+FF78\U+FF80
100
AcDbCircle
 10
6234.661676735917
 20
-3033.075088974462
 30
0.0
 40
8.0
100
AcDbArc
 50
333.5214655209426
 51
0.0
  0
LINE
  5
C1235
330
18
100
AcDbEntity
  8
\U+FF7A\U+FF88\U+FF78\U+FF80
100
AcDbLine
 10
6224.661676735916
 20
-3035.728888974462
 30
0.0
 11
6224.373010108546
 21
-3035.728888974464
 31
0.0
  0
LINE
  5
C1236
330
18
100
AcDbEntity
  8
\U+FF7A\U+FF88\U+FF78\U+FF80
100
AcDbLine
 10
6224.661676735916
 20
-3036.338888974463
 30
0.0
 11
6224.428826180872
 21
-3036.338888974463
 31
0.0
  0
LINE
  5
C1237
330
18
100
AcDbEntity
  8
\U+FF7A\U+FF88\U+FF78\U+FF80
100
AcDbLine
 10
6224.661676735916
 20
-3036.641988974462
 30
0.0
 11
6229.661676735917
 21
-3036.641988974462
 31
0.0
  0
LINE
  5
C1238
330
18
100
AcDbEntity
  8
\U+FF7A\U+FF88\U+FF78\U+FF80
100
AcDbLine
 10
6224.661676735916
 20
-3038.161988974462
 30
0.0
 11
6229.661676735917
 21
-3038.161988974462
 31
0.0
  0
LINE
  5
C1239
330
18
100
AcDbEntity
  8
\U+FF7A\U+FF88\U+FF78\U+FF80
100
AcDbLine
 10
6224.661676735916
 20
-3033.075088974462
 30
0.0
 11
6229.661676735917
 21
-3033.075088974462
 31
0.0
  0
LINE
  5
C123A
330
18
100
AcDbEntity
  8
\U+FF7A\U+FF88\U+FF78\U+FF80
100
AcDbLine
 10
6229.661676735917
 20
-3047.728887712829
 30
0.0
 11
6234.661676735917
 21
-3047.728886451197
 31
0.0
  0
ARC
  5
C123B
330
18
100
AcDbEntity
  8
\U+FF7A\U+FF88\U+FF78\U+FF80
100
AcDbCircle
 10
6234.661676735917
 20
-3050.382688974462
 30
0.0
 40
8.0
100
AcDbArc
 50
0.0
 51
26.47853447905733
  0
LINE
  5
C123C
330
18
100
AcDbEntity
  8
\U+FF7A\U+FF88\U+FF78\U+FF80
100
AcDbLine
 10
6242.661676735917
 20
-3050.382688974462
 30
0.0
 11
6246.661676735916
 21
-3047.026290449753
 31
0.0
  0
LINE
  5
C123D
330
18
100
AcDbEntity
  8
\U+FF7A\U+FF88\U+FF78\U+FF80
100
AcDbLine
 10
6241.822488448983
 20
-3046.815788974463
 30
0.0
 11
6241.822488448983
 21
-3045.295788974462
 31
0.0
  0
LINE
  5
C123E
330
18
100
AcDbEntity
  8
\U+FF7A\U+FF88\U+FF78\U+FF80
100
AcDbLine
 10
6234.661676735917
 20
-3045.295788974462
 30
0.0
 11
6241.822488448983
 21
-3045.295788974462
 31
0.0
  0
LINE
  5
C123F
330
18
100
AcDbEntity
  8
\U+FF7A\U+FF88\U+FF78\U+FF80
100
AcDbLine
 10
6234.661676735917
 20
-3046.815788974463
 30
0.0
 11
6241.822488448983
 21
-3046.815788974463
 31
0.0
  0
LINE
  5
C1240
330
18
100
AcDbEntity
  8
\U+FF7A\U+FF88\U+FF78\U+FF80
100
AcDbLine
 10
6234.661676735917
 20
-3050.382688974462
 30
0.0
 11
6242.661676735917
 21
-3050.382688974462
 31
0.0
  0
LINE
  5
C1241
330
18
100
AcDbEntity
  8
\U+FF7A\U+FF88\U+FF78\U+FF80
100
AcDbLine
 10
6224.661676735916
 20
-3047.728888974462
 30
0.0
 11
6224.373010108537
 21
-3047.728888974463
 31
0.0
  0
LINE
  5
C1242
330
18
100
AcDbEntity
  8
\U+FF7A\U+FF88\U+FF78\U+FF80
100
AcDbLine
 10
6224.661676735916
 20
-3047.118888974462
 30
0.0
 11
6224.428826180863
 21
-3047.118888974462
 31
0.0
  0
LINE
  5
C1243
330
18
100
AcDbEntity
  8
\U+FF7A\U+FF88\U+FF78\U+FF80
100
AcDbLine
 10
6224.661676735916
 20
-3046.815788974463
 30
0.0
 11
6229.661676735917
 21
-3046.815788974463
 31
0.0
  0
LINE
  5
C1244
330
18
100
AcDbEntity
  8
\U+FF7A\U+FF88\U+FF78\U+FF80
100
AcDbLine
 10
6224.661676735916
 20
-3045.295788974462
 30
0.0
 11
6229.661676735917
 21
-3045.295788974462
 31
0.0
  0
LINE
  5
C1245
330
18
100
AcDbEntity
  8
\U+FF7A\U+FF88\U+FF78\U+FF80
100
AcDbLine
 10
6224.661676735916
 20
-3050.382688974462
 30
0.0
 11
6229.661676735917
 21
-3050.382688974462
 31
0.0
  0
LINE
  5
C1246
330
18
100
AcDbEntity
  8
\U+FF7A\U+FF88\U+FF78\U+FF80
100
AcDbLine
 10
6224.661676735916
 20
-3050.382688974462
 30
0.0
 11
6224.661676735916
 21
-3033.075088974462
 31
0.0
  0
LINE
  5
C1247
330
18
100
AcDbEntity
  8
\U+FF7A\U+FF88\U+FF78\U+FF80
100
AcDbLine
 10
6234.661676735917
 20
-3033.075088974462
 30
0.0
 11
6234.661676735917
 21
-3050.382688974462
 31
0.0
  0
CIRCLE
  5
C1248
330
18
100
AcDbEntity
  8
実線
 48
0.2
100
AcDbCircle
 10
6198.010204007833
 20
-3092.925891742354
 30
0.0
 40
2.0
  0
LINE
  5
C1249
330
18
100
AcDbEntity
  8
中心線
 48
0.5
100
AcDbLine
 10
6123.964430194359
 20
-2987.177567462959
 30
0.0
 11
6199.928628800027
 21
-3095.665686285434
 31
0.0
  0
ARC
  5
C124A
330
18
100
AcDbEntity
  8
実線
 48
0.2
100
AcDbCircle
 10
6125.739573027603
 20
-2989.71273416194
 30
0.0
 40
2.000248108191843
100
AcDbArc
 50
34.0975550131526
 51
215.9024449868802
  0
ARC
  5
C124B
330
18
100
AcDbEntity
  8
実線
 48
0.2
100
AcDbCircle
 10
6126.886725900305
 20
-2991.351038250519
 30
0.0
 40
2.000264515295802
100
AcDbArc
 50
215.9318029819219
 51
34.06819701809064
  0
POINT
  5
C124C
330
18
100
AcDbEntity
  8
0
  6
Continuous
370
     0
100
AcDbPoint
 10
6128.034030492748
 20
-2992.989559017342
 30
0.0
  0
LINE
  5
C124D
330
18
100
AcDbEntity
  8
実線
 48
0.2
100
AcDbLine
 10
6128.543688507096
 20
-2990.230531767708
 30
0.0
 11
6127.395945192591
 21
-2988.591389135224
 31
0.0
  0
POINT
  5
C124E
330
18
100
AcDbEntity
  8
0
  6
Continuous
370
     0
100
AcDbPoint
 10
6124.592277845887
 20
-2988.07422683503
 30
0.0
  0
LINE
  5
C124F
330
18
100
AcDbEntity
  8
実線
 48
0.2
100
AcDbLine
 10
6124.119340033547
 20
-2990.885694847208
 30
0.0
 11
6125.267079622761
 21
-2992.524837479693
 31
0.0
  0
LINE
  5
C1250
102
{ACAD_REACTORS
330
C1320
102
}
330
18
100
AcDbEntity
  8
\U+FF7A\U+FF88\U+FF78\U+FF80
100
AcDbLine
 10
6252.18120619102
 20
-3038.428888974463
 30
0.0
 11
6246.661676735916
 21
-3038.428888974463
 31
0.0
  0
LINE
  5
C1251
102
{ACAD_REACTORS
330
C1320
102
}
330
18
100
AcDbEntity
  8
\U+FF7A\U+FF88\U+FF78\U+FF80
100
AcDbLine
 10
6246.661676735916
 20
-3045.028888974462
 30
0.0
 11
6252.18120619102
 21
-3045.028888974462
 31
0.0
  0
SPLINE
  5
C1252
102
{ACAD_REACTORS
330
C1320
102
}
330
18
100
AcDbEntity
  8
細線
 48
0.5
100
AcDbSpline
210
0.0
220
0.0
230
1.0
 70
  1064
 71
     3
 72
    11
 73
     7
 74
     5
 42
0.000000001
 43
0.0000000001
 44
0.0000000001
 40
0.0
 40
0.0
 40
0.0
 40
0.0
 40
1.992484014116254
 40
3.465112482100039
 40
4.934764524498998
 40
6.931889979396567
 40
6.931889979396567
 40
6.931889979396567
 40
6.931889979396567
 10
6252.181206191022
 20
-3038.428888974456
 30
0.0
 10
6252.473038658433
 20
-3039.075313151063
 30
0.0
 10
6252.980562090665
 20
-3040.19950409424
 30
0.0
 10
6252.18544392533
 20
-3041.728663407507
 30
0.0
 10
6251.378707254716
 20
-3043.254591695899
 30
0.0
 10
6251.887882706465
 20
-3044.380360936796
 30
0.0
 10
6252.181206191022
 20
-3045.028888974459
 30
0.0
 11
6252.181206191022
 21
-3038.428888974456
 31
0.0
 11
6252.704293682882
 21
-3040.351484101457
 31
0.0
 11
6252.183342225881
 21
-3041.728888974457
 31
0.0
 11
6251.658118699158
 21
-3043.101484097829
 31
0.0
 11
6252.181206191022
 21
-3045.028888974459
 31
0.0
  0
SPLINE
  5
C1253
102
{ACAD_REACTORS
330
C1320
102
}
330
18
100
AcDbEntity
  8
細線
 48
0.5
100
AcDbSpline
210
0.0
220
0.0
230
1.0
 70
  1064
 71
     3
 72
     9
 73
     5
 74
     3
 42
0.000000001
 43
0.0000000001
 44
0.0000000001
 40
0.0
 40
0.0
 40
0.0
 40
0.0
 40
1.465084025132902
 40
3.462209480029518
 40
3.462209480029518
 40
3.462209480029518
 40
3.462209480029518
 10
6252.181206191022
 20
-3041.732962751061
 30
0.0
 10
6252.419524537636
 20
-3042.1859334665
 30
0.0
 10
6252.982705914779
 20
-3043.256370027314
 30
0.0
 10
6252.474409579253
 20
-3044.380468837057
 30
0.0
 10
6252.181206191022
 20
-3045.028888974459
 30
0.0
 11
6252.181206191022
 21
-3041.732962751061
 31
0.0
 11
6252.704293682882
 21
-3043.101484097829
 31
0.0
 11
6252.181206191022
 21
-3045.028888974459
 31
0.0
  0
LINE
  5
C1254
102
{ACAD_REACTORS
330
C1320
102
}
330
18
100
AcDbEntity
  8
\U+FF7A\U+FF88\U+FF78\U+FF80
100
AcDbLine
 10
6246.661676735916
 20
-3045.028888974462
 30
0.0
 11
6246.661676735916
 21
-3038.428888974463
 31
0.0
  0
LINE
  5
C1255
330
18
100
AcDbEntity
  8
実線
 48
0.2
100
AcDbLine
 10
6178.161677495853
 20
-3097.728890702826
 30
0.0
 11
6178.161677495853
 21
-3092.256109120511
 31
0.0
  0
LINE
  5
C1256
330
18
100
AcDbEntity
  8
実線
 48
0.2
100
AcDbLine
 10
6146.161675975934
 20
-3092.256109120392
 30
0.0
 11
6146.161675975934
 21
-3097.728890702826
 31
0.0
  0
LINE
  5
C1257
330
18
100
AcDbEntity
  8
実線
 48
0.2
100
AcDbLine
 10
6106.161675007359
 20
-3057.728889734251
 30
0.0
 11
6111.634456590037
 21
-3057.728889734251
 31
0.0
  0
LINE
  5
C1258
330
18
100
AcDbEntity
  8
実線
 48
0.2
100
AcDbLine
 10
6178.161677495853
 20
-2991.201668828413
 30
0.0
 11
6178.161677495853
 21
-2985.728887245757
 31
0.0
  0
LINE
  5
C1259
330
18
100
AcDbEntity
  8
実線
 48
0.2
100
AcDbLine
 10
6146.161675975934
 20
-2985.728887245757
 30
0.0
 11
6146.161675975934
 21
-2991.201668828532
 31
0.0
  0
LINE
  5
C125A
330
18
100
AcDbEntity
  8
実線
 48
0.2
100
AcDbLine
 10
6111.634456590145
 20
-3025.728888214332
 30
0.0
 11
6106.161675007359
 21
-3025.728888214332
 31
0.0
  0
CIRCLE
  5
C125B
330
18
100
AcDbEntity
  8
実線
100
AcDbCircle
 10
6162.16167673585
 20
-3041.728888974324
 30
0.0
 40
11.3
  0
CIRCLE
  5
C125C
330
18
100
AcDbEntity
  8
中心線
 48
0.5
100
AcDbCircle
 10
6162.161676736081
 20
-3041.728888974462
 30
0.0
 40
62.49999999975243
  0
CIRCLE
  5
C125D
102
{ACAD_REACTORS
330
C1321
102
}
330
18
100
AcDbEntity
  8
\U+FF77\U+FF6C\U+FF6F\U+FF8C\U+FF9F\U+FF8E\U+FF9E\U+FF99\U+FF84
100
AcDbCircle
 10
6126.379058403526
 20
-3005.854155780573
 30
0.0
 40
2.0
  0
LINE
  5
C125E
102
{ACAD_REACTORS
330
C1321
102
}
330
18
100
AcDbEntity
  8
\U+FF77\U+FF6C\U+FF6F\U+FF8C\U+FF9F\U+FF8E\U+FF9E\U+FF99\U+FF84
100
AcDbLine
 10
6127.426052695683
 20
-3006.547596682136
 30
0.0
 11
6126.73261179412
 21
-3005.854155780573
 31
0.0
  0
LINE
  5
C125F
102
{ACAD_REACTORS
330
C1321
102
}
330
18
100
AcDbEntity
  8
\U+FF77\U+FF6C\U+FF6F\U+FF8C\U+FF9F\U+FF8E\U+FF9E\U+FF99\U+FF84
100
AcDbLine
 10
6127.072499305091
 20
-3006.901150072728
 30
0.0
 11
6126.379058403528
 21
-3006.207709171165
 31
0.0
  0
LINE
  5
C1260
102
{ACAD_REACTORS
330
C1321
102
}
330
18
100
AcDbEntity
  8
\U+FF77\U+FF6C\U+FF6F\U+FF8C\U+FF9F\U+FF8E\U+FF9E\U+FF99\U+FF84
100
AcDbLine
 10
6127.072499305091
 20
-3004.807161488416
 30
0.0
 11
6126.379058403526
 21
-3005.500602389979
 31
0.0
  0
LINE
  5
C1261
102
{ACAD_REACTORS
330
C1321
102
}
330
18
100
AcDbEntity
  8
\U+FF77\U+FF6C\U+FF6F\U+FF8C\U+FF9F\U+FF8E\U+FF9E\U+FF99\U+FF84
100
AcDbLine
 10
6127.426052695683
 20
-3005.160714879008
 30
0.0
 11
6126.73261179412
 21
-3005.854155780573
 31
0.0
  0
LINE
  5
C1262
102
{ACAD_REACTORS
330
C1321
102
}
330
18
100
AcDbEntity
  8
\U+FF77\U+FF6C\U+FF6F\U+FF8C\U+FF9F\U+FF8E\U+FF9E\U+FF99\U+FF84
100
AcDbLine
 10
6126.379058403526
 20
-3005.500602389979
 30
0.0
 11
6125.685617501963
 21
-3004.807161488414
 31
0.0
  0
LINE
  5
C1263
102
{ACAD_REACTORS
330
C1321
102
}
330
18
100
AcDbEntity
  8
\U+FF77\U+FF6C\U+FF6F\U+FF8C\U+FF9F\U+FF8E\U+FF9E\U+FF99\U+FF84
100
AcDbLine
 10
6126.025505012934
 20
-3005.854155780571
 30
0.0
 11
6125.332064111368
 21
-3005.160714879008
 31
0.0
  0
LINE
  5
C1264
102
{ACAD_REACTORS
330
C1321
102
}
330
18
100
AcDbEntity
  8
\U+FF77\U+FF6C\U+FF6F\U+FF8C\U+FF9F\U+FF8E\U+FF9E\U+FF99\U+FF84
100
AcDbLine
 10
6126.379058403528
 20
-3006.207709171165
 30
0.0
 11
6125.685617501963
 21
-3006.901150072728
 31
0.0
  0
LINE
  5
C1265
102
{ACAD_REACTORS
330
C1321
102
}
330
18
100
AcDbEntity
  8
\U+FF77\U+FF6C\U+FF6F\U+FF8C\U+FF9F\U+FF8E\U+FF9E\U+FF99\U+FF84
100
AcDbLine
 10
6126.025505012934
 20
-3005.854155780571
 30
0.0
 11
6125.332064111368
 21
-3006.547596682136
 31
0.0
  0
LINE
  5
C1266
330
18
100
AcDbEntity
  8
\U+FF77\U+FF6C\U+FF6F\U+FF8C\U+FF9F\U+FF8E\U+FF9E\U+FF99\U+FF84
100
AcDbLine
 10
6125.332064111368
 20
-3005.160714879008
 30
0.0
 11
6125.685617501963
 21
-3004.807161488416
 31
0.0
  0
LINE
  5
C1267
102
{ACAD_REACTORS
330
C1321
102
}
330
18
100
AcDbEntity
  8
\U+FF77\U+FF6C\U+FF6F\U+FF8C\U+FF9F\U+FF8E\U+FF9E\U+FF99\U+FF84
100
AcDbLine
 10
6127.072499305091
 20
-3004.807161488416
 30
0.0
 11
6127.426052695683
 21
-3005.160714879008
 31
0.0
  0
LINE
  5
C1268
330
18
100
AcDbEntity
  8
\U+FF77\U+FF6C\U+FF6F\U+FF8C\U+FF9F\U+FF8E\U+FF9E\U+FF99\U+FF84
100
AcDbLine
 10
6127.072499305091
 20
-3006.90115007273
 30
0.0
 11
6127.426052695683
 21
-3006.547596682136
 31
0.0
  0
LINE
  5
C1269
330
18
100
AcDbEntity
  8
\U+FF77\U+FF6C\U+FF6F\U+FF8C\U+FF9F\U+FF8E\U+FF9E\U+FF99\U+FF84
100
AcDbLine
 10
6125.332064111368
 20
-3006.547596682136
 30
0.0
 11
6125.685617501963
 21
-3006.901150072728
 31
0.0
  0
ARC
  5
C126A
330
18
100
AcDbEntity
  8
実線
 48
0.2
100
AcDbCircle
 10
6162.161676736081
 20
-3041.728888974462
 30
0.0
 40
53.0
100
AcDbArc
 50
107.5709644152743
 51
162.4290355847444
  0
CIRCLE
  5
C126B
330
18
100
AcDbEntity
  8
実線
 48
0.2
100
AcDbCircle
 10
6162.161676736005
 20
-3041.728888974462
 30
0.0
 40
52.5
  0
CIRCLE
  5
C126C
102
{ACAD_REACTORS
330
C1322
102
}
330
18
100
AcDbEntity
  8
\U+FF77\U+FF6C\U+FF6F\U+FF8C\U+FF9F\U+FF8E\U+FF9E\U+FF99\U+FF84
100
AcDbCircle
 10
6126.286943542115
 20
-3077.511507306939
 30
0.0
 40
2.0
  0
LINE
  5
C126D
102
{ACAD_REACTORS
330
C1322
102
}
330
18
100
AcDbEntity
  8
\U+FF77\U+FF6C\U+FF6F\U+FF8C\U+FF9F\U+FF8E\U+FF9E\U+FF99\U+FF84
100
AcDbLine
 10
6126.980384443679
 20
-3076.464513014783
 30
0.0
 11
6126.286943542115
 21
-3077.157953916346
 31
0.0
  0
LINE
  5
C126E
102
{ACAD_REACTORS
330
C1322
102
}
330
18
100
AcDbEntity
  8
\U+FF77\U+FF6C\U+FF6F\U+FF8C\U+FF9F\U+FF8E\U+FF9E\U+FF99\U+FF84
100
AcDbLine
 10
6127.333937834271
 20
-3076.818066405375
 30
0.0
 11
6126.640496932708
 21
-3077.511507306938
 31
0.0
  0
LINE
  5
C126F
102
{ACAD_REACTORS
330
C1322
102
}
330
18
100
AcDbEntity
  8
\U+FF77\U+FF6C\U+FF6F\U+FF8C\U+FF9F\U+FF8E\U+FF9E\U+FF99\U+FF84
100
AcDbLine
 10
6125.239949249959
 20
-3076.818066405375
 30
0.0
 11
6125.933390151521
 21
-3077.51150730694
 31
0.0
  0
LINE
  5
C1270
102
{ACAD_REACTORS
330
C1322
102
}
330
18
100
AcDbEntity
  8
\U+FF77\U+FF6C\U+FF6F\U+FF8C\U+FF9F\U+FF8E\U+FF9E\U+FF99\U+FF84
100
AcDbLine
 10
6125.593502640549
 20
-3076.464513014783
 30
0.0
 11
6126.286943542115
 21
-3077.157953916346
 31
0.0
  0
LINE
  5
C1271
102
{ACAD_REACTORS
330
C1322
102
}
330
18
100
AcDbEntity
  8
\U+FF77\U+FF6C\U+FF6F\U+FF8C\U+FF9F\U+FF8E\U+FF9E\U+FF99\U+FF84
100
AcDbLine
 10
6125.933390151521
 20
-3077.51150730694
 30
0.0
 11
6125.239949249956
 21
-3078.204948208503
 31
0.0
  0
LINE
  5
C1272
102
{ACAD_REACTORS
330
C1322
102
}
330
18
100
AcDbEntity
  8
\U+FF77\U+FF6C\U+FF6F\U+FF8C\U+FF9F\U+FF8E\U+FF9E\U+FF99\U+FF84
100
AcDbLine
 10
6126.286943542112
 20
-3077.865060697532
 30
0.0
 11
6125.593502640549
 21
-3078.558501599097
 31
0.0
  0
LINE
  5
C1273
102
{ACAD_REACTORS
330
C1322
102
}
330
18
100
AcDbEntity
  8
\U+FF77\U+FF6C\U+FF6F\U+FF8C\U+FF9F\U+FF8E\U+FF9E\U+FF99\U+FF84
100
AcDbLine
 10
6126.640496932708
 20
-3077.511507306938
 30
0.0
 11
6127.333937834271
 21
-3078.204948208503
 31
0.0
  0
LINE
  5
C1274
102
{ACAD_REACTORS
330
C1322
102
}
330
18
100
AcDbEntity
  8
\U+FF77\U+FF6C\U+FF6F\U+FF8C\U+FF9F\U+FF8E\U+FF9E\U+FF99\U+FF84
100
AcDbLine
 10
6126.286943542112
 20
-3077.865060697532
 30
0.0
 11
6126.980384443679
 21
-3078.558501599097
 31
0.0
  0
LINE
  5
C1275
102
{ACAD_REACTORS
330
C1322
102
}
330
18
100
AcDbEntity
  8
\U+FF77\U+FF6C\U+FF6F\U+FF8C\U+FF9F\U+FF8E\U+FF9E\U+FF99\U+FF84
100
AcDbLine
 10
6125.239949249959
 20
-3076.818066405375
 30
0.0
 11
6125.593502640549
 21
-3076.464513014783
 31
0.0
  0
CIRCLE
  5
C1276
102
{ACAD_REACTORS
330
C1323
102
}
330
18
100
AcDbEntity
  8
\U+FF77\U+FF6C\U+FF6F\U+FF8C\U+FF9F\U+FF8E\U+FF9E\U+FF99\U+FF84
100
AcDbCircle
 10
6197.944295068482
 20
-3077.603622168351
 30
0.0
 40
2.0
  0
LINE
  5
C1277
102
{ACAD_REACTORS
330
C1323
102
}
330
18
100
AcDbEntity
  8
\U+FF77\U+FF6C\U+FF6F\U+FF8C\U+FF9F\U+FF8E\U+FF9E\U+FF99\U+FF84
100
AcDbLine
 10
6196.897300776325
 20
-3076.910181266788
 30
0.0
 11
6197.590741677888
 21
-3077.603622168351
 31
0.0
  0
LINE
  5
C1278
102
{ACAD_REACTORS
330
C1323
102
}
330
18
100
AcDbEntity
  8
\U+FF77\U+FF6C\U+FF6F\U+FF8C\U+FF9F\U+FF8E\U+FF9E\U+FF99\U+FF84
100
AcDbLine
 10
6197.250854166918
 20
-3076.556627876195
 30
0.0
 11
6197.944295068481
 21
-3077.250068777758
 31
0.0
  0
LINE
  5
C1279
102
{ACAD_REACTORS
330
C1323
102
}
330
18
100
AcDbEntity
  8
\U+FF77\U+FF6C\U+FF6F\U+FF8C\U+FF9F\U+FF8E\U+FF9E\U+FF99\U+FF84
100
AcDbLine
 10
6197.250854166918
 20
-3078.650616460508
 30
0.0
 11
6197.944295068482
 21
-3077.957175558945
 31
0.0
  0
LINE
  5
C127A
102
{ACAD_REACTORS
330
C1323
102
}
330
18
100
AcDbEntity
  8
\U+FF77\U+FF6C\U+FF6F\U+FF8C\U+FF9F\U+FF8E\U+FF9E\U+FF99\U+FF84
100
AcDbLine
 10
6196.897300776325
 20
-3078.297063069916
 30
0.0
 11
6197.590741677888
 21
-3077.603622168351
 31
0.0
  0
LINE
  5
C127B
102
{ACAD_REACTORS
330
C1323
102
}
330
18
100
AcDbEntity
  8
\U+FF77\U+FF6C\U+FF6F\U+FF8C\U+FF9F\U+FF8E\U+FF9E\U+FF99\U+FF84
100
AcDbLine
 10
6197.944295068482
 20
-3077.957175558945
 30
0.0
 11
6198.637735970045
 21
-3078.65061646051
 31
0.0
  0
LINE
  5
C127C
102
{ACAD_REACTORS
330
C1323
102
}
330
18
100
AcDbEntity
  8
\U+FF77\U+FF6C\U+FF6F\U+FF8C\U+FF9F\U+FF8E\U+FF9E\U+FF99\U+FF84
100
AcDbLine
 10
6198.297848459075
 20
-3077.603622168353
 30
0.0
 11
6198.99128936064
 21
-3078.297063069916
 31
0.0
  0
LINE
  5
C127D
102
{ACAD_REACTORS
330
C1323
102
}
330
18
100
AcDbEntity
  8
\U+FF77\U+FF6C\U+FF6F\U+FF8C\U+FF9F\U+FF8E\U+FF9E\U+FF99\U+FF84
100
AcDbLine
 10
6197.944295068481
 20
-3077.250068777758
 30
0.0
 11
6198.637735970045
 21
-3076.556627876195
 31
0.0
  0
LINE
  5
C127E
102
{ACAD_REACTORS
330
C1323
102
}
330
18
100
AcDbEntity
  8
\U+FF77\U+FF6C\U+FF6F\U+FF8C\U+FF9F\U+FF8E\U+FF9E\U+FF99\U+FF84
100
AcDbLine
 10
6198.297848459075
 20
-3077.603622168353
 30
0.0
 11
6198.99128936064
 21
-3076.910181266788
 31
0.0
  0
LINE
  5
C127F
102
{ACAD_REACTORS
330
C1323
102
}
330
18
100
AcDbEntity
  8
\U+FF77\U+FF6C\U+FF6F\U+FF8C\U+FF9F\U+FF8E\U+FF9E\U+FF99\U+FF84
100
AcDbLine
 10
6197.250854166918
 20
-3078.650616460508
 30
0.0
 11
6196.897300776325
 21
-3078.297063069916
 31
0.0
  0
CIRCLE
  5
C1280
102
{ACAD_REACTORS
330
C1324
102
}
330
18
100
AcDbEntity
  8
\U+FF77\U+FF6C\U+FF6F\U+FF8C\U+FF9F\U+FF8E\U+FF9E\U+FF99\U+FF84
100
AcDbCircle
 10
6198.036409929895
 20
-3005.946270641984
 30
0.0
 40
2.0
  0
LINE
  5
C1281
102
{ACAD_REACTORS
330
C1324
102
}
330
18
100
AcDbEntity
  8
\U+FF77\U+FF6C\U+FF6F\U+FF8C\U+FF9F\U+FF8E\U+FF9E\U+FF99\U+FF84
100
AcDbLine
 10
6197.342969028332
 20
-3006.99326493414
 30
0.0
 11
6198.036409929895
 21
-3006.299824032577
 31
0.0
  0
LINE
  5
C1282
102
{ACAD_REACTORS
330
C1324
102
}
330
18
100
AcDbEntity
  8
\U+FF77\U+FF6C\U+FF6F\U+FF8C\U+FF9F\U+FF8E\U+FF9E\U+FF99\U+FF84
100
AcDbLine
 10
6196.989415637741
 20
-3006.639711543548
 30
0.0
 11
6197.682856539303
 21
-3005.946270641985
 31
0.0
  0
LINE
  5
C1283
102
{ACAD_REACTORS
330
C1324
102
}
330
18
100
AcDbEntity
  8
\U+FF77\U+FF6C\U+FF6F\U+FF8C\U+FF9F\U+FF8E\U+FF9E\U+FF99\U+FF84
100
AcDbLine
 10
6199.083404222052
 20
-3006.639711543548
 30
0.0
 11
6198.389963320489
 21
-3005.946270641983
 31
0.0
  0
LINE
  5
C1284
102
{ACAD_REACTORS
330
C1324
102
}
330
18
100
AcDbEntity
  8
\U+FF77\U+FF6C\U+FF6F\U+FF8C\U+FF9F\U+FF8E\U+FF9E\U+FF99\U+FF84
100
AcDbLine
 10
6198.72985083146
 20
-3006.99326493414
 30
0.0
 11
6198.036409929895
 21
-3006.299824032577
 31
0.0
  0
LINE
  5
C1285
102
{ACAD_REACTORS
330
C1324
102
}
330
18
100
AcDbEntity
  8
\U+FF77\U+FF6C\U+FF6F\U+FF8C\U+FF9F\U+FF8E\U+FF9E\U+FF99\U+FF84
100
AcDbLine
 10
6198.389963320489
 20
-3005.946270641983
 30
0.0
 11
6199.083404222054
 21
-3005.25282974042
 31
0.0
  0
LINE
  5
C1286
102
{ACAD_REACTORS
330
C1324
102
}
330
18
100
AcDbEntity
  8
\U+FF77\U+FF6C\U+FF6F\U+FF8C\U+FF9F\U+FF8E\U+FF9E\U+FF99\U+FF84
100
AcDbLine
 10
6198.036409929897
 20
-3005.592717251391
 30
0.0
 11
6198.72985083146
 21
-3004.899276349826
 31
0.0
  0
LINE
  5
C1287
102
{ACAD_REACTORS
330
C1324
102
}
330
18
100
AcDbEntity
  8
\U+FF77\U+FF6C\U+FF6F\U+FF8C\U+FF9F\U+FF8E\U+FF9E\U+FF99\U+FF84
100
AcDbLine
 10
6197.682856539303
 20
-3005.946270641985
 30
0.0
 11
6196.989415637741
 21
-3005.25282974042
 31
0.0
  0
LINE
  5
C1288
102
{ACAD_REACTORS
330
C1324
102
}
330
18
100
AcDbEntity
  8
\U+FF77\U+FF6C\U+FF6F\U+FF8C\U+FF9F\U+FF8E\U+FF9E\U+FF99\U+FF84
100
AcDbLine
 10
6198.036409929897
 20
-3005.592717251391
 30
0.0
 11
6197.342969028332
 21
-3004.899276349826
 31
0.0
  0
LINE
  5
C1289
102
{ACAD_REACTORS
330
C1324
102
}
330
18
100
AcDbEntity
  8
\U+FF77\U+FF6C\U+FF6F\U+FF8C\U+FF9F\U+FF8E\U+FF9E\U+FF99\U+FF84
100
AcDbLine
 10
6199.083404222052
 20
-3006.639711543548
 30
0.0
 11
6198.72985083146
 21
-3006.99326493414
 31
0.0
  0
ARC
  5
C128A
330
18
100
AcDbEntity
  8
実線
 48
0.2
100
AcDbCircle
 10
6162.161676736081
 20
-3041.728888974462
 30
0.0
 40
53.0
100
AcDbArc
 50
197.5709644148678
 51
252.4290355847258
  0
ARC
  5
C128B
330
18
100
AcDbEntity
  8
実線
 48
0.2
100
AcDbCircle
 10
6162.161676736081
 20
-3041.728888974462
 30
0.0
 40
53.0
100
AcDbArc
 50
287.5709644148494
 51
72.42903558515064
  0
LINE
  5
C147D
102
{ACAD_REACTORS
330
C1560
102
}
330
18
100
AcDbEntity
  8
中心線
 48
0.5
100
AcDbLine
 10
5625.47489181889
 20
-3262.40764376814
 30
0.0
 11
5653.907324653878
 21
-3262.40764376814
 31
0.0
  0
LINE
  5
C147E
102
{ACAD_REACTORS
330
C1560
102
}
330
18
100
AcDbEntity
  8
\U+FF7A\U+FF88\U+FF78\U+FF80
100
AcDbLine
 10
5633.416689238447
 20
-3271.061443768139
 30
0.0
 11
5633.416689238447
 21
-3253.753843768139
 31
0.0
  0
ARC
  5
C147F
102
{ACAD_REACTORS
330
C1560
102
}
330
18
100
AcDbEntity
  8
\U+FF7A\U+FF88\U+FF78\U+FF80
100
AcDbCircle
 10
5641.416689238447
 20
-3253.753843768139
 30
0.0
 40
8.0
100
AcDbArc
 50
180.0
 51
206.4785344789408
  0
LINE
  5
C1480
102
{ACAD_REACTORS
330
C1560
102
}
330
18
100
AcDbEntity
  8
\U+FF7A\U+FF88\U+FF78\U+FF80
100
AcDbLine
 10
5633.416689238447
 20
-3253.753843768139
 30
0.0
 11
5629.416689238446
 21
-3257.110242292848
 31
0.0
  0
LINE
  5
C1481
102
{ACAD_REACTORS
330
C1560
102
}
330
18
100
AcDbEntity
  8
\U+FF7A\U+FF88\U+FF78\U+FF80
100
AcDbLine
 10
5641.416689238447
 20
-3271.061443768139
 30
0.0
 11
5641.416689238447
 21
-3253.753843768139
 31
0.0
  0
LINE
  5
C1482
102
{ACAD_REACTORS
330
C1560
102
}
330
18
100
AcDbEntity
  8
\U+FF7A\U+FF88\U+FF78\U+FF80
100
AcDbLine
 10
5646.416689238447
 20
-3271.061443768139
 30
0.0
 11
5646.416689238447
 21
-3253.753843768139
 31
0.0
  0
LINE
  5
C1483
102
{ACAD_REACTORS
330
C1560
102
}
330
18
100
AcDbEntity
  8
\U+FF7A\U+FF88\U+FF78\U+FF80
100
AcDbLine
 10
5633.416689238447
 20
-3271.061443768139
 30
0.0
 11
5629.416689238446
 21
-3267.70504524343
 31
0.0
  0
LINE
  5
C1484
102
{ACAD_REACTORS
330
C1560
102
}
330
18
100
AcDbEntity
  8
\U+FF7A\U+FF88\U+FF78\U+FF80
100
AcDbLine
 10
5629.416689238446
 20
-3267.70504524343
 30
0.0
 11
5629.416689238446
 21
-3257.110242292848
 31
0.0
  0
LINE
  5
C1485
102
{ACAD_REACTORS
330
C1560
102
}
330
18
100
AcDbEntity
  8
\U+FF7A\U+FF88\U+FF78\U+FF80
100
AcDbLine
 10
5641.416689238447
 20
-3271.061443768139
 30
0.0
 11
5633.416689238447
 21
-3271.061443768139
 31
0.0
  0
LINE
  5
C1486
102
{ACAD_REACTORS
330
C1560
102
}
330
18
100
AcDbEntity
  8
\U+FF7A\U+FF88\U+FF78\U+FF80
100
AcDbLine
 10
5641.416689238447
 20
-3265.97454376814
 30
0.0
 11
5634.255877525379
 21
-3265.97454376814
 31
0.0
  0
LINE
  5
C1487
102
{ACAD_REACTORS
330
C1560
102
}
330
18
100
AcDbEntity
  8
\U+FF7A\U+FF88\U+FF78\U+FF80
100
AcDbLine
 10
5641.416689238447
 20
-3267.494543768139
 30
0.0
 11
5634.255877525379
 21
-3267.494543768139
 31
0.0
  0
LINE
  5
C1488
102
{ACAD_REACTORS
330
C1560
102
}
330
18
100
AcDbEntity
  8
\U+FF7A\U+FF88\U+FF78\U+FF80
100
AcDbLine
 10
5641.416689238447
 20
-3257.320743768139
 30
0.0
 11
5634.255877525379
 21
-3257.320743768139
 31
0.0
  0
LINE
  5
C1489
102
{ACAD_REACTORS
330
C1560
102
}
330
18
100
AcDbEntity
  8
\U+FF7A\U+FF88\U+FF78\U+FF80
100
AcDbLine
 10
5641.416689238447
 20
-3258.840743768139
 30
0.0
 11
5634.255877525379
 21
-3258.840743768139
 31
0.0
  0
ARC
  5
C148A
102
{ACAD_REACTORS
330
C1560
102
}
330
18
100
AcDbEntity
  8
\U+FF7A\U+FF88\U+FF78\U+FF80
100
AcDbCircle
 10
5641.416689238447
 20
-3262.40764376814
 30
0.0
 40
8.0
100
AcDbArc
 50
153.5214655210592
 51
206.4785344789408
  0
LINE
  5
C148B
102
{ACAD_REACTORS
330
C1560
102
}
330
18
100
AcDbEntity
  8
\U+FF7A\U+FF88\U+FF78\U+FF80
100
AcDbLine
 10
5634.255877525379
 20
-3265.97454376814
 30
0.0
 11
5634.255877525379
 21
-3267.494543768139
 31
0.0
  0
LINE
  5
C148C
102
{ACAD_REACTORS
330
C1560
102
}
330
18
100
AcDbEntity
  8
\U+FF7A\U+FF88\U+FF78\U+FF80
100
AcDbLine
 10
5634.255877525379
 20
-3257.320743768139
 30
0.0
 11
5634.255877525379
 21
-3258.840743768139
 31
0.0
  0
ARC
  5
C148D
102
{ACAD_REACTORS
330
C1560
102
}
330
18
100
AcDbEntity
  8
\U+FF7A\U+FF88\U+FF78\U+FF80
100
AcDbCircle
 10
5641.416689238447
 20
-3271.061443768139
 30
0.0
 40
8.0
100
AcDbArc
 50
153.5214655210592
 51
180.0
  0
LINE
  5
C148E
102
{ACAD_REACTORS
330
C1560
102
}
330
18
100
AcDbEntity
  8
\U+FF7A\U+FF88\U+FF78\U+FF80
100
AcDbLine
 10
5646.416689238447
 20
-3268.407645029773
 30
0.0
 11
5641.416689238447
 21
-3268.40764629141
 31
0.0
  0
LINE
  5
C148F
102
{ACAD_REACTORS
330
C1560
102
}
330
18
100
AcDbEntity
  8
\U+FF7A\U+FF88\U+FF78\U+FF80
100
AcDbLine
 10
5646.416689238447
 20
-3256.407645029772
 30
0.0
 11
5641.416689238447
 21
-3256.407646291406
 31
0.0
  0
LINE
  5
C1490
102
{ACAD_REACTORS
330
C1560
102
}
330
18
100
AcDbEntity
  8
\U+FF7A\U+FF88\U+FF78\U+FF80
100
AcDbLine
 10
5641.416689238447
 20
-3253.753843768139
 30
0.0
 11
5633.416689238447
 21
-3253.753843768139
 31
0.0
  0
LINE
  5
C1491
102
{ACAD_REACTORS
330
C1560
102
}
330
18
100
AcDbEntity
  8
\U+FF7A\U+FF88\U+FF78\U+FF80
100
AcDbLine
 10
5651.416689238446
 20
-3271.061443768139
 30
0.0
 11
5646.416689238447
 21
-3271.061443768139
 31
0.0
  0
LINE
  5
C1492
102
{ACAD_REACTORS
330
C1560
102
}
330
18
100
AcDbEntity
  8
\U+FF7A\U+FF88\U+FF78\U+FF80
100
AcDbLine
 10
5651.416689238446
 20
-3265.97454376814
 30
0.0
 11
5646.416689238447
 21
-3265.97454376814
 31
0.0
  0
LINE
  5
C1493
102
{ACAD_REACTORS
330
C1560
102
}
330
18
100
AcDbEntity
  8
\U+FF7A\U+FF88\U+FF78\U+FF80
100
AcDbLine
 10
5651.416689238446
 20
-3267.494543768139
 30
0.0
 11
5646.416689238447
 21
-3267.494543768139
 31
0.0
  0
LINE
  5
C1494
102
{ACAD_REACTORS
330
C1560
102
}
330
18
100
AcDbEntity
  8
\U+FF7A\U+FF88\U+FF78\U+FF80
100
AcDbLine
 10
5651.416689238446
 20
-3258.840743768139
 30
0.0
 11
5646.416689238447
 21
-3258.840743768139
 31
0.0
  0
LINE
  5
C1495
102
{ACAD_REACTORS
330
C1560
102
}
330
18
100
AcDbEntity
  8
\U+FF7A\U+FF88\U+FF78\U+FF80
100
AcDbLine
 10
5651.416689238446
 20
-3257.320743768139
 30
0.0
 11
5646.416689238447
 21
-3257.320743768139
 31
0.0
  0
LINE
  5
C1496
102
{ACAD_REACTORS
330
C1560
102
}
330
18
100
AcDbEntity
  8
\U+FF7A\U+FF88\U+FF78\U+FF80
100
AcDbLine
 10
5651.416689238446
 20
-3253.753843768139
 30
0.0
 11
5646.416689238447
 21
-3253.753843768139
 31
0.0
  0
ARC
  5
C1497
102
{ACAD_REACTORS
330
C1560
102
}
330
18
100
AcDbEntity
  8
\U+FF7A\U+FF88\U+FF78\U+FF80
100
AcDbCircle
 10
5603.05825897259
 20
-3300.150675390854
 30
0.0
 40
35.0
100
AcDbArc
 50
90.0
 51
180.0
  0
ARC
  5
C1498
102
{ACAD_REACTORS
330
C1560
102
}
330
18
100
AcDbEntity
  8
\U+FF7A\U+FF88\U+FF78\U+FF80
100
AcDbCircle
 10
5603.05825897259
 20
-3300.150675390854
 30
0.0
 40
40.49999999999999
100
AcDbArc
 50
90.0
 51
180.0
  0
LINE
  5
C1499
102
{ACAD_REACTORS
330
C1560
102
}
330
18
100
AcDbEntity
  8
\U+FF7A\U+FF88\U+FF78\U+FF80
 48
0.5
100
AcDbLine
 10
5572.108265025633
 20
-3340.00067330479
 30
0.0
 11
5572.108265025633
 21
-3353.100718406265
 31
0.0
  0
LINE
  5
C149A
102
{ACAD_REACTORS
330
C1560
102
}
330
18
100
AcDbEntity
  8
\U+FF7A\U+FF88\U+FF78\U+FF80
 48
0.5
100
AcDbLine
 10
5558.508265025632
 20
-3340.000673304789
 30
0.0
 11
5558.508265025632
 21
-3353.100718406265
 31
0.0
  0
LINE
  5
C149B
102
{ACAD_REACTORS
330
C1560
102
}
330
18
100
AcDbEntity
  8
\U+FF7A\U+FF88\U+FF78\U+FF80
 48
0.5
100
AcDbLine
 10
5554.690550739919
 20
-3355.985861263408
 30
0.0
 11
5554.690550739919
 21
-3345.620718406264
 31
0.0
  0
LINE
  5
C149C
102
{ACAD_REACTORS
330
C1560
102
}
330
18
100
AcDbEntity
  8
\U+FF7A\U+FF88\U+FF78\U+FF80
 48
0.5
100
AcDbLine
 10
5555.108265025632
 20
-3357.860718406264
 30
0.0
 11
5555.108265025632
 21
-3346.592146977693
 31
0.0
  0
LINE
  5
C149D
102
{ACAD_REACTORS
330
C1560
102
}
330
18
100
AcDbEntity
  8
\U+FF7A\U+FF88\U+FF78\U+FF80
 48
0.5
100
AcDbLine
 10
5571.133265025631
 20
-3362.600718406265
 30
0.0
 11
5567.683265025631
 21
-3362.600718406266
 31
0.0
  0
LINE
  5
C149E
102
{ACAD_REACTORS
330
C1560
102
}
330
18
100
AcDbEntity
  8
\U+FF7A\U+FF88\U+FF78\U+FF80
 48
0.5
100
AcDbLine
 10
5567.033265025633
 20
-3362.600718406266
 30
0.0
 11
5563.583265025632
 21
-3362.600718406266
 31
0.0
  0
LINE
  5
C149F
102
{ACAD_REACTORS
330
C1560
102
}
330
18
100
AcDbEntity
  8
\U+FF7A\U+FF88\U+FF78\U+FF80
 48
0.5
100
AcDbLine
 10
5562.933265025633
 20
-3362.600718406266
 30
0.0
 11
5559.483265025632
 21
-3362.600718406266
 31
0.0
  0
LINE
  5
C14A0
102
{ACAD_REACTORS
330
C1560
102
}
330
18
100
AcDbEntity
  8
\U+FF7A\U+FF88\U+FF78\U+FF80
 48
0.5
100
AcDbLine
 10
5559.483265025632
 20
-3362.600718406266
 30
0.0
 11
5559.483265025632
 21
-3353.100718406265
 31
0.0
  0
LINE
  5
C14A1
102
{ACAD_REACTORS
330
C1560
102
}
330
18
100
AcDbEntity
  8
\U+FF7A\U+FF88\U+FF78\U+FF80
 48
0.5
100
AcDbLine
 10
5563.583265025632
 20
-3362.600718406266
 30
0.0
 11
5563.583265025632
 21
-3353.100718406265
 31
0.0
  0
LINE
  5
C14A2
102
{ACAD_REACTORS
330
C1560
102
}
330
18
100
AcDbEntity
  8
\U+FF7A\U+FF88\U+FF78\U+FF80
 48
0.5
100
AcDbLine
 10
5562.933265025633
 20
-3362.600718406266
 30
0.0
 11
5562.933265025633
 21
-3353.100718406265
 31
0.0
  0
LINE
  5
C14A3
102
{ACAD_REACTORS
330
C1560
102
}
330
18
100
AcDbEntity
  8
\U+FF7A\U+FF88\U+FF78\U+FF80
 48
0.5
100
AcDbLine
 10
5567.683265025633
 20
-3362.600718406266
 30
0.0
 11
5567.683265025633
 21
-3353.100718406265
 31
0.0
  0
LINE
  5
C14A4
102
{ACAD_REACTORS
330
C1560
102
}
330
18
100
AcDbEntity
  8
\U+FF7A\U+FF88\U+FF78\U+FF80
 48
0.5
100
AcDbLine
 10
5567.033265025633
 20
-3362.600718406266
 30
0.0
 11
5567.033265025632
 21
-3353.100718406265
 31
0.0
  0
LINE
  5
C14A5
102
{ACAD_REACTORS
330
C1560
102
}
330
18
100
AcDbEntity
  8
\U+FF7A\U+FF88\U+FF78\U+FF80
 48
0.5
100
AcDbLine
 10
5571.133265025631
 20
-3362.600718406266
 30
0.0
 11
5571.133265025631
 21
-3353.100718406265
 31
0.0
  0
LINE
  5
C14A6
102
{ACAD_REACTORS
330
C1560
102
}
330
18
100
AcDbEntity
  8
\U+FF7A\U+FF88\U+FF78\U+FF80
 48
0.5
100
AcDbLine
 10
5558.313979311346
 20
-3357.860718406264
 30
0.0
 11
5558.313979311346
 21
-3356.403575549122
 31
0.0
  0
LINE
  5
C14A7
102
{ACAD_REACTORS
330
C1560
102
}
330
18
100
AcDbEntity
  8
\U+FF7A\U+FF88\U+FF78\U+FF80
 48
0.5
100
AcDbLine
 10
5556.079693597061
 20
-3356.403575549122
 30
0.0
 11
5555.108265025632
 21
-3356.403575549122
 31
0.0
  0
LINE
  5
C14A8
102
{ACAD_REACTORS
330
C1560
102
}
330
18
100
AcDbEntity
  8
\U+FF7A\U+FF88\U+FF78\U+FF80
 48
0.5
100
AcDbLine
 10
5555.108265025632
 20
-3357.860718406264
 30
0.0
 11
5556.079693597061
 21
-3358.832146977693
 31
0.0
  0
LINE
  5
C14A9
102
{ACAD_REACTORS
330
C1560
102
}
330
18
100
AcDbEntity
  8
\U+FF7A\U+FF88\U+FF78\U+FF80
 48
0.5
100
AcDbLine
 10
5557.342550739918
 20
-3358.832146977693
 30
0.0
 11
5556.079693597061
 21
-3358.832146977693
 31
0.0
  0
LINE
  5
C14AA
102
{ACAD_REACTORS
330
C1560
102
}
330
18
100
AcDbEntity
  8
\U+FF7A\U+FF88\U+FF78\U+FF80
 48
0.5
100
AcDbLine
 10
5557.245407882776
 20
-3356.500718406265
 30
0.0
 11
5557.245407882776
 21
-3353.100718406265
 31
0.0
  0
LINE
  5
C14AB
102
{ACAD_REACTORS
330
C1560
102
}
330
18
100
AcDbEntity
  8
\U+FF7A\U+FF88\U+FF78\U+FF80
 48
0.5
100
AcDbLine
 10
5555.108265025632
 20
-3356.403575549122
 30
0.0
 11
5554.690550739919
 21
-3355.985861263408
 31
0.0
  0
LINE
  5
C14AC
102
{ACAD_REACTORS
330
C1560
102
}
330
18
100
AcDbEntity
  8
\U+FF7A\U+FF88\U+FF78\U+FF80
 48
0.5
100
AcDbLine
 10
5556.079693597061
 20
-3356.403575549122
 30
0.0
 11
5556.079693597061
 21
-3353.100718406265
 31
0.0
  0
LINE
  5
C14AD
102
{ACAD_REACTORS
330
C1560
102
}
330
18
100
AcDbEntity
  8
\U+FF7A\U+FF88\U+FF78\U+FF80
 48
0.5
100
AcDbLine
 10
5558.508265025632
 20
-3353.100718406265
 30
0.0
 11
5554.690550739919
 21
-3353.100718406265
 31
0.0
  0
LINE
  5
C14AE
102
{ACAD_REACTORS
330
C1560
102
}
330
18
100
AcDbEntity
  8
\U+FF7A\U+FF88\U+FF78\U+FF80
 48
0.5
100
AcDbLine
 10
5558.313979311346
 20
-3356.403575549122
 30
0.0
 11
5557.245407882776
 21
-3356.500718406265
 31
0.0
  0
LINE
  5
C14AF
102
{ACAD_REACTORS
330
C1560
102
}
330
18
100
AcDbEntity
  8
\U+FF7A\U+FF88\U+FF78\U+FF80
 48
0.5
100
AcDbLine
 10
5557.342550739918
 20
-3358.832146977693
 30
0.0
 11
5558.313979311346
 21
-3357.860718406264
 31
0.0
  0
LINE
  5
C14B0
102
{ACAD_REACTORS
330
C1560
102
}
330
18
100
AcDbEntity
  8
\U+FF7A\U+FF88\U+FF78\U+FF80
 48
0.5
100
AcDbLine
 10
5572.108265025633
 20
-3353.100718406265
 30
0.0
 11
5558.508265025632
 21
-3353.100718406265
 31
0.0
  0
LINE
  5
C14B1
102
{ACAD_REACTORS
330
C1560
102
}
330
18
100
AcDbEntity
  8
\U+FF7A\U+FF88\U+FF78\U+FF80
100
AcDbLine
 10
5568.058258972589
 20
-3300.150675390856
 30
0.0
 11
5568.058258972591
 21
-3328.900673304789
 31
0.0
  0
LINE
  5
C14B2
102
{ACAD_REACTORS
330
C1560
102
}
330
18
100
AcDbEntity
  8
\U+FF7A\U+FF88\U+FF78\U+FF80
100
AcDbLine
 10
5562.558258972591
 20
-3300.150675390854
 30
0.0
 11
5562.558258972591
 21
-3328.900673304789
 31
0.0
  0
LINE
  5
C14B3
102
{ACAD_REACTORS
330
C1560
102
}
330
18
100
AcDbEntity
  8
\U+FF7A\U+FF88\U+FF78\U+FF80
 48
0.5
100
AcDbLine
 10
5569.908252919545
 20
-3338.900673304788
 30
0.0
 11
5566.808252919547
 21
-3328.900673304789
 31
0.0
  0
LINE
  5
C14B4
102
{ACAD_REACTORS
330
C1560
102
}
330
18
100
AcDbEntity
  8
\U+FF7A\U+FF88\U+FF78\U+FF80
 48
0.5
100
AcDbLine
 10
5568.908252919545
 20
-3338.900673304788
 30
0.0
 11
5565.808252919548
 21
-3328.900673304789
 31
0.0
  0
LINE
  5
C14B5
102
{ACAD_REACTORS
330
C1560
102
}
330
18
100
AcDbEntity
  8
\U+FF7A\U+FF88\U+FF78\U+FF80
 48
0.5
100
AcDbLine
 10
5565.808265025633
 20
-3338.90067330479
 30
0.0
 11
5565.808265025633
 21
-3328.900673304789
 31
0.0
  0
LINE
  5
C14B6
102
{ACAD_REACTORS
330
C1560
102
}
330
18
100
AcDbEntity
  8
\U+FF7A\U+FF88\U+FF78\U+FF80
 48
0.5
100
AcDbLine
 10
5561.708265025631
 20
-3338.900673304788
 30
0.0
 11
5564.808265025632
 21
-3328.900673304789
 31
0.0
  0
LINE
  5
C14B7
102
{ACAD_REACTORS
330
C1560
102
}
330
18
100
AcDbEntity
  8
\U+FF7A\U+FF88\U+FF78\U+FF80
 48
0.5
100
AcDbLine
 10
5560.708265025631
 20
-3338.900673304788
 30
0.0
 11
5563.808265025633
 21
-3328.900673304789
 31
0.0
  0
LINE
  5
C14B8
102
{ACAD_REACTORS
330
C1560
102
}
330
18
100
AcDbEntity
  8
\U+FF7A\U+FF88\U+FF78\U+FF80
 48
0.5
100
AcDbLine
 10
5563.808265025633
 20
-3328.900673304789
 30
0.0
 11
5566.808252919547
 21
-3328.900673304789
 31
0.0
  0
LINE
  5
C14B9
102
{ACAD_REACTORS
330
C1560
102
}
330
18
100
AcDbEntity
  8
\U+FF7A\U+FF88\U+FF78\U+FF80
100
AcDbLine
 10
5562.558258972591
 20
-3328.900673304789
 30
0.0
 11
5568.058258972591
 21
-3328.900673304789
 31
0.0
  0
LINE
  5
C14BA
102
{ACAD_REACTORS
330
C1560
102
}
330
18
100
AcDbEntity
  8
\U+FF7A\U+FF88\U+FF78\U+FF80
 48
0.5
100
AcDbLine
 10
5573.30825897259
 20
-3340.000673304789
 30
0.0
 11
5572.108265025633
 21
-3340.00067330479
 31
0.0
  0
LINE
  5
C14BB
102
{ACAD_REACTORS
330
C1560
102
}
330
18
100
AcDbEntity
  8
\U+FF7A\U+FF88\U+FF78\U+FF80
 48
0.5
100
AcDbLine
 10
5573.30825897259
 20
-3338.900673304788
 30
0.0
 11
5573.30825897259
 21
-3340.000673304789
 31
0.0
  0
LINE
  5
C14BC
102
{ACAD_REACTORS
330
C1560
102
}
330
18
100
AcDbEntity
  8
\U+FF7A\U+FF88\U+FF78\U+FF80
 48
0.5
100
AcDbLine
 10
5564.808265025632
 20
-3338.90067330479
 30
0.0
 11
5564.808265025632
 21
-3328.900673304789
 31
0.0
  0
LINE
  5
C14BD
102
{ACAD_REACTORS
330
C1560
102
}
330
18
100
AcDbEntity
  8
\U+FF7A\U+FF88\U+FF78\U+FF80
 48
0.5
100
AcDbLine
 10
5555.108265025632
 20
-3346.592146977693
 30
0.0
 11
5554.690550739919
 21
-3346.592146977693
 31
0.0
  0
LINE
  5
C14BE
102
{ACAD_REACTORS
330
C1560
102
}
330
18
100
AcDbEntity
  8
\U+FF7A\U+FF88\U+FF78\U+FF80
 48
0.5
100
AcDbLine
 10
5556.079693597061
 20
-3345.620718406264
 30
0.0
 11
5554.690550739919
 21
-3345.620718406264
 31
0.0
  0
LINE
  5
C14BF
102
{ACAD_REACTORS
330
C1560
102
}
330
18
100
AcDbEntity
  8
\U+FF7A\U+FF88\U+FF78\U+FF80
 48
0.5
100
AcDbLine
 10
5557.308258972589
 20
-3338.900673304788
 30
0.0
 11
5557.308258972589
 21
-3340.000673304789
 31
0.0
  0
LINE
  5
C14C0
102
{ACAD_REACTORS
330
C1560
102
}
330
18
100
AcDbEntity
  8
\U+FF7A\U+FF88\U+FF78\U+FF80
 48
0.5
100
AcDbLine
 10
5558.508265025632
 20
-3340.000673304789
 30
0.0
 11
5557.308258972589
 21
-3340.000673304789
 31
0.0
  0
ARC
  5
C14C1
102
{ACAD_REACTORS
330
C1560
102
}
330
18
100
AcDbEntity
  8
\U+FF7A\U+FF88\U+FF78\U+FF80
 48
0.5
100
AcDbCircle
 10
5558.022550739917
 20
-3351.002432691977
 30
0.0
 40
0.4857142857142857
100
AcDbArc
 50
270.0
 51
0.0
  0
ARC
  5
C14C2
102
{ACAD_REACTORS
330
C1560
102
}
330
18
100
AcDbEntity
  8
\U+FF7A\U+FF88\U+FF78\U+FF80
 48
0.5
100
AcDbCircle
 10
5557.521842239583
 20
-3351.002432691979
 30
0.0
 40
0.4857142857142857
100
AcDbArc
 50
190.0000000000039
 51
270.0
  0
LINE
  5
C14C3
102
{ACAD_REACTORS
330
C1560
102
}
330
18
100
AcDbEntity
  8
\U+FF7A\U+FF88\U+FF78\U+FF80
 48
0.5
100
AcDbLine
 10
5558.022550739919
 20
-3351.488146977692
 30
0.0
 11
5557.521842239585
 21
-3351.488146977695
 31
0.0
  0
LINE
  5
C14C4
102
{ACAD_REACTORS
330
C1560
102
}
330
18
100
AcDbEntity
  8
\U+FF7A\U+FF88\U+FF78\U+FF80
 48
0.5
100
AcDbLine
 10
5557.043507045264
 20
-3351.08677609256
 30
0.0
 11
5556.079693597061
 21
-3345.620718406264
 31
0.0
  0
LINE
  5
C14C5
102
{ACAD_REACTORS
330
C1560
102
}
330
18
100
AcDbEntity
  8
\U+FF7A\U+FF88\U+FF78\U+FF80
 48
0.5
100
AcDbLine
 10
5573.30825897259
 20
-3338.90067330479
 30
0.0
 11
5557.308258972589
 21
-3338.900673304788
 31
0.0
  0
SPLINE
  5
C14C8
102
{ACAD_REACTORS
330
C1560
102
}
330
18
100
AcDbEntity
  8
細線
 48
0.5
100
AcDbSpline
210
0.0
220
0.0
230
1.0
 70
  1064
 71
     3
 72
     9
 73
     5
 74
     3
 42
0.000000001
 43
0.0000000001
 44
0.0000000001
 40
0.0
 40
0.0
 40
0.0
 40
0.0
 40
1.69603996638218
 40
2.946770208443544
 40
2.946770208443544
 40
2.946770208443544
 40
2.946770208443544
 10
5618.763898648011
 20
-3262.407643768141
 30
0.0
 10
5618.476731040243
 20
-3261.862115673697
 30
0.0
 10
5617.977794123559
 20
-3260.914292527754
 30
0.0
 10
5618.529662889432
 20
-3260.02719570006
 30
0.0
 10
5618.763898648011
 20
-3259.650675390857
 30
0.0
 11
5618.763898648011
 21
-3262.407643768141
 31
0.0
 11
5618.250494231534
 21
-3260.791176177156
 31
0.0
 11
5618.763898648011
 21
-3259.650675390857
 31
0.0
  0
SPLINE
  5
C14C9
102
{ACAD_REACTORS
330
C1560
102
}
330
18
100
AcDbEntity
  8
細線
 48
0.5
100
AcDbSpline
210
0.0
220
0.0
230
1.0
 70
  1064
 71
     3
 72
    11
 73
     7
 74
     5
 42
0.000000001
 43
0.0000000001
 44
0.0000000001
 40
0.0
 40
0.0
 40
0.0
 40
0.0
 40
1.183040972399221
 40
2.94157076350721
 40
4.943334930535927
 40
5.927430102350005
 40
5.927430102350005
 40
5.927430102350005
 40
5.927430102350005
 10
5618.773581723393
 20
-3265.150675390855
 30
0.0
 10
5618.541566573265
 20
-3264.801004696425
 30
0.0
 10
5617.964672790013
 20
-3263.931566430473
 30
0.0
 10
5618.79216571897
 20
-3262.344721386881
 30
0.0
 10
5619.658176417263
 20
-3260.734294991858
 30
0.0
 10
5618.985577368162
 20
-3259.919289253954
 30
0.0
 10
5618.763898648011
 20
-3259.650675390857
 30
0.0
 11
5618.773581723393
 21
-3265.150675390855
 31
0.0
 11
5618.250494231532
 21
-3264.08956021415
 31
0.0
 11
5618.763898648011
 21
-3262.407643768141
 31
0.0
 11
5619.296669215256
 21
-3260.478080267482
 31
0.0
 11
5618.763898648011
 21
-3259.650675390857
 31
0.0
  0
SPLINE
  5
C14CA
102
{ACAD_REACTORS
330
C1560
102
}
330
18
100
AcDbEntity
  8
細線
 48
0.5
100
AcDbSpline
210
0.0
220
0.0
230
1.0
 70
  1064
 71
     3
 72
     9
 73
     5
 74
     3
 42
0.000000001
 43
0.0000000001
 44
0.0000000001
 40
0.0
 40
0.0
 40
0.0
 40
0.0
 40
1.696039966382614
 40
2.946770208442733
 40
2.946770208442733
 40
2.946770208442733
 40
2.946770208442733
 10
5613.965844508981
 20
-3262.39370701357
 30
0.0
 10
5614.253012116749
 20
-3262.939235108015
 30
0.0
 10
5614.751949033433
 20
-3263.887058253956
 30
0.0
 10
5614.200080267558
 20
-3264.774155081652
 30
0.0
 10
5613.965844508981
 20
-3265.150675390855
 30
0.0
 11
5613.965844508981
 21
-3262.39370701357
 31
0.0
 11
5614.479248925458
 21
-3264.010174604556
 31
0.0
 11
5613.965844508981
 21
-3265.150675390855
 31
0.0
  0
SPLINE
  5
C14CB
102
{ACAD_REACTORS
330
C1560
102
}
330
18
100
AcDbEntity
  8
細線
 48
0.5
100
AcDbSpline
210
0.0
220
0.0
230
1.0
 70
  1064
 71
     3
 72
    11
 73
     7
 74
     5
 42
0.000000001
 43
0.0000000001
 44
0.0000000001
 40
0.0
 40
0.0
 40
0.0
 40
0.0
 40
1.183040972398813
 40
2.941570763507672
 40
4.943334930535513
 40
5.927430102349591
 40
5.927430102349591
 40
5.927430102349591
 40
5.927430102349591
 10
5613.956161433598
 20
-3259.650675390855
 30
0.0
 10
5614.188176583728
 20
-3260.000346085286
 30
0.0
 10
5614.76507036698
 20
-3260.869784351238
 30
0.0
 10
5613.937577438023
 20
-3262.456629394831
 30
0.0
 10
5613.071566739729
 20
-3264.067055789853
 30
0.0
 10
5613.74416578883
 20
-3264.882061527757
 30
0.0
 10
5613.965844508981
 20
-3265.150675390855
 30
0.0
 11
5613.956161433598
 21
-3259.650675390855
 31
0.0
 11
5614.479248925459
 21
-3260.71179056756
 31
0.0
 11
5613.965844508981
 21
-3262.39370701357
 31
0.0
 11
5613.433073941735
 21
-3264.323270514228
 31
0.0
 11
5613.965844508981
 21
-3265.150675390855
 31
0.0
  0
LINE
  5
C14CC
102
{ACAD_REACTORS
330
C1560
102
}
330
18
100
AcDbEntity
  8
\U+FF7A\U+FF88\U+FF78\U+FF80
100
AcDbLine
 10
5603.058258972591
 20
-3259.650675390854
 30
0.0
 11
5613.956161433598
 21
-3259.650675390857
 31
0.0
  0
LINE
  5
C14CD
102
{ACAD_REACTORS
330
C1560
102
}
330
18
100
AcDbEntity
  8
\U+FF7A\U+FF88\U+FF78\U+FF80
100
AcDbLine
 10
5603.05825897259
 20
-3265.150675390855
 30
0.0
 11
5613.965844508981
 21
-3265.150675390855
 31
0.0
  0
LINE
  5
C14CE
102
{ACAD_REACTORS
330
C1560
102
}
330
18
100
AcDbEntity
  8
\U+FF7A\U+FF88\U+FF78\U+FF80
100
AcDbLine
 10
5618.763898648035
 20
-3259.650675390852
 30
0.0
 11
5629.416689238443
 21
-3259.650675390852
 31
0.0
  0
LINE
  5
C14CF
102
{ACAD_REACTORS
330
C1560
102
}
330
18
100
AcDbEntity
  8
\U+FF7A\U+FF88\U+FF78\U+FF80
100
AcDbLine
 10
5618.773581723393
 20
-3265.150675390855
 30
0.0
 11
5629.416689238443
 21
-3265.150675390853
 31
0.0
  0
LINE
  5
C14E1
102
{ACAD_REACTORS
330
C1560
102
}
330
18
100
AcDbEntity
  8
\U+FF7A\U+FF88\U+FF78\U+FF80
100
AcDbLine
 10
5651.416689238446
 20
-3253.753843768139
 30
0.0
 11
5651.416689238446
 21
-3271.061443768139
 31
0.0
  0
LINE
  5
C22CE
102
{ACAD_REACTORS
330
C22D4
102
}
330
18
100
AcDbEntity
  8
中心線
 48
0.5
100
AcDbLine
 10
6002.943067962991
 20
-2997.534715151616
 30
0.0
 11
6024.94306796299
 21
-2997.534715151616
 31
0.0
  0
LINE
  5
C22D5
102
{ACAD_REACTORS
330
C22DB
102
}
330
18
100
AcDbEntity
  8
中心線
 48
0.5
100
AcDbLine
 10
6002.943067962991
 20
-3085.923062799945
 30
0.0
 11
6024.94306796299
 21
-3085.923062799945
 31
0.0
  0
LINE
  5
C22DE
102
{ACAD_REACTORS
330
C22EA
102
}
330
18
100
AcDbEntity
  8
中心線
 48
0.5
100
AcDbLine
 10
5758.110863062598
 20
-3253.407643768135
 30
0.0
 11
5758.110863062598
 21
-3275.407643768134
 31
0.0
  0
LINE
  5
C22E4
102
{ACAD_REACTORS
330
C22EB
102
}
330
18
100
AcDbEntity
  8
中心線
 48
0.5
100
AcDbLine
 10
5669.72251541428
 20
-3253.407643768135
 30
0.0
 11
5669.72251541428
 21
-3275.407643768134
 31
0.0
  0
HATCH
  5
C3410
330
18
100
AcDbEntity
  8
本体
100
AcDbHatch
 10
0.0
 20
0.0
 30
0.0
210
0.0
220
0.0
230
1.0
  2
SOLID
 70
     1
 71
     0
 91
        2
 92
        7
 72
     1
 73
     1
 93
        3
 10
6199.645017174991
 20
-3091.78118300159
 42
0.4142135623731056
 10
6196.859560213709
 20
-3091.290031785716
 42
0.0
 10
6198.00671308641
 20
-3092.928335874293
 42
0.0
 97
        0
 92
        7
 72
     1
 73
     1
 93
        3
 10
6199.153865959114
 20
-3094.566639962872
 42
0.0
 10
6198.00671308641
 20
-3092.928335874293
 42
0.0
 10
6196.36840899783
 20
-3094.075488746996
 42
0.4142135623731056
 97
        0
 75
     0
 76
     1
 47
0.0110124163047153
 98
        2
 10
6198.212921411872
 20
-3092.009548197432
 10
6197.938453759629
 20
-3094.325713946977
  0
CIRCLE
  5
C4889
102
{ACAD_REACTORS
330
C488A
102
}
330
18
100
AcDbEntity
  8
寸法
100
AcDbCircle
 10
5698.764703689503
 20
-3050.48499546071
 30
0.0
 40
2.0
  0
HATCH
  5
C488A
330
18
100
AcDbEntity
  8
寸法
100
AcDbHatch
 10
0.0
 20
0.0
 30
0.0
210
0.0
220
0.0
230
1.0
  2
SOLID
 70
     1
 71
     0
 91
        2
 92
        7
 72
     1
 73
     1
 93
        3
 10
5700.496754497073
 20
-3049.48499546071
 42
0.3975651194990313
 10
5697.865312009383
 20
-3048.698631946268
 42
0.0285947903436714
 10
5698.764703689503
 20
-3050.48499546071
 42
0.0
 97
        0
 92
        7
 72
     1
 73
     1
 93
        3
 10
5699.862044033345
 20
-3052.157073260867
 42
-0.0285947903438203
 10
5698.764703689503
 20
-3050.48499546071
 42
0.0
 10
5697.032652881934
 20
-3051.484995460711
 42
0.4310603292074009
 97
        0
 75
     0
 76
     1
 47
0.0
 98
        2
 10
5699.356034247327
 20
-3048.997786274493
 10
5698.505174902613
 20
-3051.69217419942
1001
ACAD
1010
0.0
1020
0.0
1030
0.0
  0
LINE
  5
C488B
102
{ACAD_REACTORS
330
C488A
102
}
330
18
100
AcDbEntity
  8
中心線
100
AcDbLine
 10
5713.920148255763
 20
-3041.73499546069
 30
0.0
 11
5692.269513161154
 21
-3054.234995460691
 31
0.0
  0
TEXT
  5
C497B
330
18
100
AcDbEntity
  8
文字
100
AcDbText
 10
6136.804671177376
 20
-3251.771397322657
 30
0.0
 40
3.5
  1
τDISCモータ ND110-85-FSP-HS（INC） NMR-SAUIA2A-551AP
 41
0.38
  7
まこ
100
AcDbText
  0
TEXT
  5
C497C
330
18
100
AcDbEntity
  8
文字
100
AcDbText
 10
6138.464875353475
 20
-3262.996566197234
 30
0.0
 40
6.0
  1
外形図（INC_15rps）_高精度_PIN
 41
0.5
  7
まこ
100
AcDbText
  0
TEXT
  5
C497D
330
18
100
AcDbEntity
  8
文字
100
AcDbText
 10
6136.616426171486
 20
-3274.354472965081
 30
0.0
 40
7.0
  1
ＳＥ－８１８１１
 41
0.9529999999999999
  7
まこ
100
AcDbText
  0
VIEWPORT
  5
C47CA
102
{ACAD_XDICTIONARY
360
C4AAE
102
}
330
C47C6
100
AcDbEntity
 67
     1
  8
0
100
AcDbViewport
 10
6.458836375965699
 20
3.326195526183554
 30
0.0
 40
11.58906394673656
 41
6.428237673052146
 68
     1
 69
     1
 12
6.458836375965699
 22
3.326195526183554
 13
0.0
 23
0.0
 14
0.5
 24
0.5
 15
0.0
 25
0.0
 16
0.0
 26
0.0
 36
1.0
 17
0.0
 27
0.0
 37
0.0
 42
50.0
 43
0.0
 44
0.0
 45
6.428237673052146
 50
0.0
 51
0.0
 72
   100
 90
   557152
  1

281
     0
 71
     1
 74
     0
110
0.0
120
0.0
130
0.0
111
1.0
121
0.0
131
0.0
112
0.0
122
1.0
132
0.0
 79
     0
146
0.0
  0
VIEWPORT
  5
C47CB
102
{ACAD_XDICTIONARY
360
C47CC
102
}
330
C47C6
100
AcDbEntity
 67
     1
  8
0
100
AcDbViewport
 10
5.25
 20
3.5
 30
0.0
 40
8.4
 41
5.600000000000001
 68
     2
 69
     2
 12
5904.268159562715
 22
-3168.434694551492
 13
0.0
 23
0.0
 14
0.5
 24
0.5
 15
0.0
 25
0.0
 16
0.0
 26
0.0
 36
1.0
 17
0.0
 27
0.0
 37
0.0
 42
50.0
 43
0.0
 44
0.0
 45
475.4255479990017
 50
0.0
 51
0.0
 72
   100
341
E
 90
   557152
  1

281
     0
 71
     1
 74
     0
110
0.0
120
0.0
130
0.0
111
1.0
121
0.0
131
0.0
112
0.0
122
1.0
132
0.0
 79
     0
146
0.0
  0
ENDSEC
  0
SECTION
  2
OBJECTS
  0
DICTIONARY
  5
C
330
0
100
AcDbDictionary
281
     1
  3
ACAD_2007HEADERVARS_RT
350
C4AA4
  3
ACAD_CIP_PREVIOUS_PRODUCT_INFO
350
8F58E
  3
ACAD_COLOR
350
C493F
  3
ACAD_DETAILVIEWSTYLE
350
8F583
  3
ACAD_GROUP
350
D
  3
ACAD_IMAGE_VARS
350
C3AFC
  3
ACAD_LAYOUT
350
73F
  3
ACAD_MATERIAL
350
C4930
  3
ACAD_MLEADERSTYLE
350
C4936
  3
ACAD_MLINESTYLE
350
1B
  3
ACAD_PLOTSETTINGS
350
740
  3
ACAD_PLOTSTYLENAME
350
73D
  3
ACAD_SCALELIST
350
8F56D
  3
ACAD_SECTIONVIEWSTYLE
350
8F581
  3
ACAD_TABLESTYLE
350
C4934
  3
ACAD_VISUALSTYLE
350
C4917
  3
AcadDim
350
66482
  3
ACDB_RECOMPOSE_DATA
350
C4AA2
  3
AcDbVariableDictionary
350
11AC
  3
APPDATA
350
C3AFA
  3
CLOUDSETTINGS
350
C46C5
  3
DWGPROPS
350
C4AA3
  0
DICTIONARY
  5
C4A4C
330
8
100
AcDbDictionary
280
     1
281
     1
  0
DICTIONARY
  5
1E591
330
2
100
AcDbDictionary
280
     1
281
     1
  3
ACAD_LAYERSTATES
360
1E615
  3
ACLYDICTIONARY
360
C48B9
  0
DICTIONARY
  5
A181E
330
E
100
AcDbDictionary
280
     1
281
     1
  3
ADSK_XREC_LAYER_RECONCILED
360
A181F
  0
DICTIONARY
  5
A1826
330
8C6
100
AcDbDictionary
280
     1
281
     1
  3
ADSK_XREC_LAYER_RECONCILED
360
A1827
  0
DICTIONARY
  5
A182C
330
96A
100
AcDbDictionary
280
     1
281
     1
  3
ADSK_XREC_LAYER_RECONCILED
360
A182D
  0
DICTIONARY
  5
A182E
330
1521
100
AcDbDictionary
280
     1
281
     1
  3
ADSK_XREC_LAYER_RECONCILED
360
A182F
  0
DICTIONARY
  5
A1832
330
1523
100
AcDbDictionary
280
     1
281
     1
  3
ADSK_XREC_LAYER_RECONCILED
360
A1833
  0
DICTIONARY
  5
A1834
330
1526
100
AcDbDictionary
280
     1
281
     1
  3
ADSK_XREC_LAYER_RECONCILED
360
A1835
  0
DICTIONARY
  5
A1836
330
44F0
100
AcDbDictionary
280
     1
281
     1
  3
ADSK_XREC_LAYER_RECONCILED
360
A1837
  0
DICTIONARY
  5
A185E
330
89316
100
AcDbDictionary
280
     1
281
     1
  3
ADSK_XREC_LAYER_RECONCILED
360
A185F
  0
DICTIONARY
  5
C4856
330
C4855
100
AcDbDictionary
280
     1
281
     1
  3
ADSK_XREC_LAYER_RECONCILED
360
C4857
  0
DICTIONARY
  5
9F677
330
18
100
AcDbDictionary
280
     1
281
     1
  3
ACAD_SORTENTS
360
9F678
  0
DICTIONARY
  5
C4960
330
C495C
100
AcDbDictionary
280
     1
281
     1
  3
ACAD_SORTENTS
360
C4961
  0
DICTIONARY
  5
C4AAE
330
C47CA
100
AcDbDictionary
280
     1
281
     1
  3
ACAD_XREC_ROUNDTRIP
360
C4AAF
  0
DICTIONARY
  5
C47CC
330
C47CB
100
AcDbDictionary
280
     1
281
     1
  3
ACAD_XREC_ROUNDTRIP
360
C4AB0
  3
ASDK_XREC_ANNOTATION_SCALE_INFO
360
C47CD
  0
DICTIONARY
  5
C4AA4
102
{ACAD_REACTORS
330
C
102
}
330
C
100
AcDbDictionary
281
     1
  3
INTERFERECOLOR
350
C4AA5
  0
XRECORD
  5
8F58E
102
{ACAD_REACTORS
330
C
102
}
330
C
100
AcDbXrecord
280
     1
300
ACDLT
300
2019
300
87085ACDLT_2019_0F
  0
DICTIONARY
  5
C493F
102
{ACAD_REACTORS
330
C
102
}
330
C
100
AcDbDictionary
281
     1
  0
DICTIONARY
  5
8F583
102
{ACAD_REACTORS
330
C
102
}
330
C
100
AcDbDictionary
281
     1
  3
Imperial24
350
8F584
  0
DICTIONARY
  5
D
102
{ACAD_REACTORS
330
C
102
}
330
C
100
AcDbDictionary
281
     1
  3
*A1
350
B6FCB
  3
*A10
350
B6F9F
  3
*A11
350
C1322
  3
*A12
350
C22D4
  3
*A13
350
C1323
  3
*A14
350
C22DB
  3
*A15
350
C1321
  3
*A2
350
C22EA
  3
*A3
350
C22EB
  3
*A4
350
C1320
  3
*A5
350
C1560
  3
*A6
350
B661D
  3
*A7
350
BEE65
  3
*A8
350
C1324
  3
*A9
350
B7444
  0
RASTERVARIABLES
  5
C3AFC
102
{ACAD_REACTORS
330
C
102
}
330
C
100
AcDbRasterVariables
 90
        0
 70
     1
 71
     1
 72
     0
  0
DICTIONARY
  5
73F
102
{ACAD_REACTORS
330
C
102
}
330
C
100
AcDbDictionary
281
     1
  3
Model
350
741
  3
Sheet1
350
C47C7
  0
DICTIONARY
  5
C4930
102
{ACAD_REACTORS
330
C
102
}
330
C
100
AcDbDictionary
281
     1
  3
ByBlock
350
C4932
  3
ByLayer
350
C4931
  3
Global
350
C4933
  0
DICTIONARY
  5
C4936
102
{ACAD_REACTORS
330
C
102
}
330
C
100
AcDbDictionary
281
     1
  3
Standard
350
C4937
  0
DICTIONARY
  5
1B
102
{ACAD_REACTORS
330
C
102
}
330
C
100
AcDbDictionary
281
     1
  3
STANDARD
350
1C
  0
DICTIONARY
  5
740
102
{ACAD_REACTORS
330
C
102
}
330
C
100
AcDbDictionary
281
     1
  0
ACDBDICTIONARYWDFLT
  5
73D
102
{ACAD_REACTORS
330
C
102
}
330
C
100
AcDbDictionary
281
     1
  3
Normal
350
73E
100
AcDbDictionaryWithDefault
340
73E
  0
DICTIONARY
  5
8F56D
102
{ACAD_REACTORS
330
C
102
}
330
C
100
AcDbDictionary
281
     1
  3
A0
350
8F56E
  3
A1
350
8F56F
  3
A2
350
8F570
  3
A3
350
8F571
  3
A4
350
8F572
  3
A5
350
8F573
  3
A6
350
8F574
  3
A7
350
8F575
  3
A8
350
8F576
  3
A9
350
8F577
  3
B0
350
8F578
  3
B1
350
8F579
  3
B2
350
8F57A
  3
B3
350
8F57B
  3
B4
350
8F57C
  3
B5
350
8F57D
  3
B6
350
8F57E
  0
DICTIONARY
  5
8F581
102
{ACAD_REACTORS
330
C
102
}
330
C
100
AcDbDictionary
281
     1
  3
Imperial24
350
8F582
  0
DICTIONARY
  5
C4934
102
{ACAD_REACTORS
330
C
102
}
330
C
100
AcDbDictionary
281
     1
  3
Standard
350
C4935
  0
DICTIONARY
  5
C4917
102
{ACAD_REACTORS
330
C
102
}
330
C
100
AcDbDictionary
281
     1
  3
2dWireframe
350
C491C
  3
Basic
350
C491F
  3
Brighten
350
C4923
  3
ColorChange
350
C4927
  3
Conceptual
350
C4921
  3
Dim
350
C4922
  3
EdgeColorOff
350
C492A
  3
Facepattern
350
C4926
  3
Flat
350
C4918
  3
FlatWithEdges
350
C4919
  3
Gouraud
350
C491A
  3
GouraudWithEdges
350
C491B
  3
Hidden
350
C491E
  3
JitterOff
350
C4928
  3
Linepattern
350
C4925
  3
OverhangOff
350
C4929
  3
Realistic
350
C4920
  3
Shaded
350
C492F
  3
Shaded with edges
350
C492E
  3
Shades of Gray
350
C492B
  3
Sketchy
350
C492C
  3
Thicken
350
C4924
  3
Wireframe
350
C491D
  3
X-Ray
350
C492D
  0
XRECORD
  5
66482
102
{ACAD_REACTORS
330
C
102
}
330
C
100
AcDbXrecord
280
     1
 90
   990106
  3

 60
     0
 61
     0
 62
     4
 63
     4
 64
     1
 65
     0
 66
     0
 67
     3
 68
     1
 69
     0
 70
     0
 71
     0
 72
     0
 40
0.0
170
     2
  0
XRECORD
  5
C4AA2
102
{ACAD_REACTORS
330
C
102
}
330
C
100
AcDbXrecord
280
     1
 90
        1
330
C4935
  0
DICTIONARY
  5
11AC
102
{ACAD_REACTORS
330
C
102
}
330
C
100
AcDbDictionary
281
     1
  3
CANNOSCALE
350
C4939
  3
CMLEADERSTYLE
350
C493B
  3
CTABLESTYLE
350
C493A
  3
CVIEWDETAILSTYLE
350
C4A90
  3
CVIEWSECTIONSTYLE
350
C4A91
  3
DGNFRAME
350
C4A96
  3
DIMASSOC
350
11AD
  3
HIDETEXT
350
C4A95
  3
INDEXCTL
350
A20AE
  3
LAYEREVAL
350
C4A93
  3
LAYERNOTIFY
350
C4A94
  3
LIGHTINGUNITS
350
C4A92
  3
MSLTSCALE
350
C493C
  3
SORTENTS
350
AD08
  3
XCLIPFRAME
350
C4AA0
  0
DICTIONARY
  5
C3AFA
102
{ACAD_REACTORS
330
C
102
}
330
C
100
AcDbDictionary
281
     1
  0
XRECORD
  5
C46C5
102
{ACAD_REACTORS
330
C
102
}
330
C
100
AcDbXrecord
280
     1
 40
1.0
  0
XRECORD
  5
C4AA3
102
{ACAD_REACTORS
330
C
102
}
330
C
100
AcDbXrecord
280
     1
  1
DWGPROPS COOKIE
  2

  3

  4

  6

  7

  8
NI0949
  9

300
=
301
=
302
=
303
=
304
=
305
=
306
=
307
=
308
=
309
=
 40
16.657596875
 41
2452479.723113426
 42
2458547.542430556
  1

 90
        0
  0
DICTIONARY
  5
1E615
102
{ACAD_REACTORS
330
1E591
102
}
330
1E591
100
AcDbDictionary
281
     1
  0
DICTIONARY
  5
C48B9
102
{ACAD_REACTORS
330
1E591
102
}
330
1E591
100
AcDbDictionary
281
     1
  3
*A1
350
C48BA
  3
*A10
350
C48BD
  3
*A11
350
C48BE
  3
*A2
350
C48BF
  3
*A3
350
C48C0
  3
*A4
350
C48C1
  3
*A5
350
C48C2
  3
*A6
350
C48C3
  3
*A7
350
C48C4
  3
*A8
350
C48BB
  3
*A9
350
C48BC
1001
ACAD
1000
<All
  0
XRECORD
  5
A181F
102
{ACAD_REACTORS
330
A181E
102
}
330
A181E
100
AcDbXrecord
280
     1
290
     1
  0
XRECORD
  5
A1827
102
{ACAD_REACTORS
330
A1826
102
}
330
A1826
100
AcDbXrecord
280
     1
290
     1
  0
XRECORD
  5
A182D
102
{ACAD_REACTORS
330
A182C
102
}
330
A182C
100
AcDbXrecord
280
     1
290
     1
  0
XRECORD
  5
A182F
102
{ACAD_REACTORS
330
A182E
102
}
330
A182E
100
AcDbXrecord
280
     1
290
     1
  0
XRECORD
  5
A1833
102
{ACAD_REACTORS
330
A1832
102
}
330
A1832
100
AcDbXrecord
280
     1
290
     1
  0
XRECORD
  5
A1835
102
{ACAD_REACTORS
330
A1834
102
}
330
A1834
100
AcDbXrecord
280
     1
290
     1
  0
XRECORD
  5
A1837
102
{ACAD_REACTORS
330
A1836
102
}
330
A1836
100
AcDbXrecord
280
     1
290
     1
  0
XRECORD
  5
A185F
102
{ACAD_REACTORS
330
A185E
102
}
330
A185E
100
AcDbXrecord
280
     1
290
     1
  0
XRECORD
  5
C4857
102
{ACAD_REACTORS
330
C4856
102
}
330
C4856
100
AcDbXrecord
280
     1
290
     1
  0
SORTENTSTABLE
  5
9F678
102
{ACAD_REACTORS
330
9F677
102
}
330
9F677
100
AcDbSortentsTable
330
18
  0
SORTENTSTABLE
  5
C4961
102
{ACAD_REACTORS
330
C4960
102
}
330
C4960
100
AcDbSortentsTable
330
C495C
  0
XRECORD
  5
C4AAF
102
{ACAD_REACTORS
330
C4AAE
102
}
330
C4AAE
100
AcDbXrecord
280
     1
102
SHADEPLOT
 70
     0
  0
XRECORD
  5
C4AB0
102
{ACAD_REACTORS
330
C47CC
102
}
330
C47CC
100
AcDbXrecord
280
     1
102
SHADEPLOT
 70
     0
  0
XRECORD
  5
C47CD
102
{ACAD_REACTORS
330
C47CC
102
}
330
C47CC
100
AcDbXrecord
280
     1
 90
        1
340
8F56E
  0
XRECORD
  5
C4AA5
102
{ACAD_REACTORS
330
C4AA4
102
}
330
C4AA4
100
AcDbXrecord
280
     1
1004
1800000001000000000000C0000000000000000000000000
  0
ACDBDETAILVIEWSTYLE
  5
8F584
102
{ACAD_XDICTIONARY
360
C4AAA
102
}
102
{ACAD_REACTORS
330
8F583
102
}
330
8F583
100
AcDbModelDocViewStyle
 70
     0
  3
Imperial24
290
     0
100
AcDbDetailViewStyle
 70
     0
 71
     0
 90
        3
 71
     1
340
F
 40
0.24
340
0
 40
0.24
300

 40
0.36
280
     3
 71
     2
340
14
 90
       25
 71
     3
340
F
 40
0.24
 90
        1
 40
0.75
 90
        1
300
%<\AcVar ViewType \f "%tc1">% %<\AcVar ViewDetailId>%\PSCALE %<\AcVar ViewScale \f "%sn">%
 71
     4
340
14
 90
       25
340
14
 90
       25
280
     0
1001
ACAD
1000
AcRTDxfName
1000
ACDBDETAILVIEWSTYLE
1000
AcRTDxfName
1000
ACDBDETAILVIEWSTYLE
1000
AcRTDxfName
1000
ACDBDETAILVIEWSTYLE
1000
AcRTDxfName
1000
ACDBDETAILVIEWSTYLE
1000
AcRTDxfName
1000
ACDBDETAILVIEWSTYLE
1000
AcRTDxfName
1000
ACDBDETAILVIEWSTYLE
1000
AcRTDxfName
1000
ACDBDETAILVIEWSTYLE
1000
AcRTDxfName
1000
ACDBDETAILVIEWSTYLE
1000
AcRTDxfName
1000
ACDBDETAILVIEWSTYLE
  0
GROUP
  5
B6FCB
102
{ACAD_REACTORS
330
D
102
}
330
D
100
AcDbGroup
300

 70
     1
 71
     1
340
B6FC8
340
B6FC7
340
B6FC6
340
B6FC5
340
B6FC4
340
B6FC3
340
B6FC2
340
B6FC1
340
B6FC0
340
B6FBF
340
B6FBE
340
B6FBD
340
B6FBC
340
B6FBB
  0
GROUP
  5
B6F9F
102
{ACAD_REACTORS
330
D
102
}
330
D
100
AcDbGroup
300

 70
     1
 71
     1
340
B6F97
340
B6F96
340
B6F88
340
B6F87
340
B6F86
340
B6F85
340
B6F95
340
B6F94
340
B6F93
340
B6F92
340
B6F91
340
B6F90
340
B6F8F
340
B6F8E
340
B6F8D
340
B6F8C
340
B6F8B
340
B6F8A
340
B6F89
340
B6F9A
340
B6F99
340
B6F98
340
B6F9C
340
B6F9B
  0
GROUP
  5
C1322
102
{ACAD_REACTORS
330
D
102
}
330
D
100
AcDbGroup
300

 70
     1
 71
     1
340
C1275
340
C1274
340
C1273
340
C1272
340
C1271
340
C1270
340
C126F
340
C126E
340
C126D
340
C126C
  0
GROUP
  5
C22D4
102
{ACAD_REACTORS
330
D
102
}
330
D
100
AcDbGroup
300

 70
     1
 71
     1
340
C22CE
  0
GROUP
  5
C1323
102
{ACAD_REACTORS
330
D
102
}
330
D
100
AcDbGroup
300

 70
     1
 71
     1
340
C127F
340
C127E
340
C127D
340
C127C
340
C127B
340
C127A
340
C1279
340
C1278
340
C1277
340
C1276
  0
GROUP
  5
C22DB
102
{ACAD_REACTORS
330
D
102
}
330
D
100
AcDbGroup
300

 70
     1
 71
     1
340
C22D5
  0
GROUP
  5
C1321
102
{ACAD_REACTORS
330
D
102
}
330
D
100
AcDbGroup
300

 70
     1
 71
     1
340
C1267
340
C1265
340
C1264
340
C1263
340
C1262
340
C1261
340
C1260
340
C125F
340
C125E
340
C125D
  0
GROUP
  5
C22EA
102
{ACAD_REACTORS
330
D
102
}
330
D
100
AcDbGroup
300

 70
     1
 71
     1
340
C22DE
  0
GROUP
  5
C22EB
102
{ACAD_REACTORS
330
D
102
}
330
D
100
AcDbGroup
300

 70
     1
 71
     1
340
C22E4
  0
GROUP
  5
C1320
102
{ACAD_REACTORS
330
D
102
}
330
D
100
AcDbGroup
300

 70
     1
 71
     1
340
C1253
340
C1252
340
C1251
340
C1250
340
C1254
  0
GROUP
  5
C1560
102
{ACAD_REACTORS
330
D
102
}
330
D
100
AcDbGroup
300

 70
     1
 71
     1
340
C14B2
340
C14B1
340
C14C5
340
C14C4
340
C14C3
340
C14C2
340
C14C1
340
C14C0
340
C14BF
340
C14BE
340
C14BD
340
C14BC
340
C14BB
340
C14BA
340
C14B9
340
C14B8
340
C14B7
340
C14B6
340
C14B5
340
C14B4
340
C14B3
340
C14B0
340
C14AF
340
C14AE
340
C14AD
340
C14AC
340
C14AB
340
C14AA
340
C14A9
340
C14A8
340
C14A7
340
C14A6
340
C14A5
340
C14A4
340
C14A3
340
C14A2
340
C14A1
340
C14A0
340
C149F
340
C149E
340
C149D
340
C149C
340
C149B
340
C149A
340
C1499
340
C14CD
340
C14CC
340
C1498
340
C1497
340
C14E1
340
C14CF
340
C14CE
340
C14CB
340
C14CA
340
C14C9
340
C14C8
340
C1496
340
C1495
340
C1494
340
C1493
340
C1492
340
C1491
340
C1490
340
C148F
340
C148E
340
C148D
340
C148C
340
C148B
340
C148A
340
C1489
340
C1488
340
C1487
340
C1486
340
C1485
340
C1484
340
C1483
340
C1482
340
C1481
340
C1480
340
C147F
340
C147E
340
C147D
  0
GROUP
  5
B661D
102
{ACAD_REACTORS
330
D
102
}
330
D
100
AcDbGroup
300

 70
     1
 71
     1
340
B660B
340
B65FF
340
B661C
340
B661B
340
B661A
340
B6619
340
B6618
340
B6611
340
B6610
340
B660F
340
B660E
340
B660D
340
B660C
340
B6605
340
B6604
340
B6603
340
B6602
340
B6601
340
B6600
340
B65FE
340
B65FD
340
B65FC
340
B6617
340
B6616
340
B6615
340
B6614
340
B6613
340
B6612
340
B660A
340
B6609
340
B6608
340
B6607
340
B6606
340
B65FB
  0
GROUP
  5
BEE65
102
{ACAD_REACTORS
330
D
102
}
330
D
100
AcDbGroup
300

 70
     1
 71
     1
340
BECF6
340
BECF5
340
BED24
340
BED23
340
BED26
340
BED25
340
BED22
340
BED21
340
BED20
340
BED1F
340
BED1E
340
BED1D
340
BED1C
340
BED1B
340
BED1A
340
BED19
340
BED18
340
BED17
340
BED16
340
BED15
340
BED14
340
BED13
340
BED12
340
BED11
340
BED10
340
BED0F
340
BED0E
340
BED0D
340
BED0C
340
BED0B
340
BED0A
340
BED09
340
BED08
340
BED07
340
BED06
340
BED05
340
BED04
340
BED03
340
BED02
340
BED01
340
BED00
340
BECFF
340
BECFE
340
BECFD
340
BECFC
340
BECFB
340
BECF8
340
BECF7
340
BECFA
340
BECF9
  0
GROUP
  5
C1324
102
{ACAD_REACTORS
330
D
102
}
330
D
100
AcDbGroup
300

 70
     1
 71
     1
340
C1289
340
C1288
340
C1287
340
C1286
340
C1285
340
C1284
340
C1283
340
C1282
340
C1281
340
C1280
  0
GROUP
  5
B7444
102
{ACAD_REACTORS
330
D
102
}
330
D
100
AcDbGroup
300

 70
     1
 71
     1
340
B743F
340
B743E
340
B743D
340
B743C
340
B743B
340
B743A
340
B7439
340
B7438
340
B7437
340
B7436
340
B7435
340
B7434
340
B7433
340
B7432
340
B7431
340
B7430
340
B742F
340
B742E
340
B742D
340
B742C
340
B742B
340
B742A
340
B7441
340
B7440
  0
LAYOUT
  5
741
102
{ACAD_XDICTIONARY
360
C4AA6
102
}
102
{ACAD_REACTORS
330
73F
102
}
330
73F
100
AcDbPlotSettings
  1

  2
HP DesignJet 750C (D/A1) Color
  4
ANSI_A_(11.00_x_8.50_Inches)
  6

 40
6.349999999999999
 41
19.05
 42
6.349999999999999
 43
19.05
 44
279.4
 45
215.9
 46
0.0
 47
0.0
 48
0.0
 49
0.0
140
0.0
141
0.0
142
1.0
143
125.5096501586405
 70
 11952
 72
     0
 73
     0
 74
     0
  7

 75
     0
147
0.0079675148383892
148
-136942.4488128827
149
91667.31734318224
100
AcDbLayout
  1
Model
 70
     1
 71
     0
 10
0.0
 20
0.0
 11
12.0
 21
9.0
 12
0.0
 22
0.0
 32
0.0
 14
5554.690550739919
 24
-3362.600718406266
 34
0.0
 15
6253.845768385509
 25
-2974.268670696718
 35
137.5
146
0.0
 13
0.0
 23
0.0
 33
0.0
 16
1.0
 26
0.0
 36
0.0
 17
0.0
 27
1.0
 37
0.0
 76
     0
330
18
  0
LAYOUT
  5
C47C7
102
{ACAD_XDICTIONARY
360
C4AAC
102
}
102
{ACAD_REACTORS
330
73F
102
}
330
73F
100
AcDbPlotSettings
  1

  2
Adobe PDF
  4
Letter
  6

 40
0.0
 41
0.0
 42
0.0
 43
0.0
 44
215.9
 45
279.4
 46
0.0
 47
0.0
 48
0.0
 49
0.0
140
0.0
141
0.0
142
1.0
143
1.0
 70
   672
 72
     0
 73
     1
 74
     5
  7

 75
    16
147
1.0
148
0.0
149
0.0
100
AcDbLayout
  1
Sheet1
 70
     1
 71
     1
 10
0.0
 20
0.0
 11
11.0
 21
8.5
 12
0.0
 22
0.0
 32
0.0
 14
1.049999999999999
 24
0.6999999999999993
 34
0.0
 15
9.449999999999999
 25
6.3
 35
0.0
146
0.0
 13
0.0
 23
0.0
 33
0.0
 16
1.0
 26
0.0
 36
0.0
 17
0.0
 27
1.0
 37
0.0
 76
     0
330
C47C6
331
C47CA
1001
PLOTTRANSPARENCY
1071
        0
  0
MATERIAL
  5
C4932
102
{ACAD_XDICTIONARY
360
C4AE3
102
}
102
{ACAD_REACTORS
330
C4930
102
}
330
C4930
100
AcDbMaterial
  1
ByBlock
 73
     1
 78
     1
172
     1
176
     1
270
     1
274
     1
  0
MATERIAL
  5
C4931
102
{ACAD_XDICTIONARY
360
C4AE1
102
}
102
{ACAD_REACTORS
330
C4930
102
}
330
C4930
100
AcDbMaterial
  1
ByLayer
 73
     1
 78
     1
172
     1
176
     1
270
     1
274
     1
  0
MATERIAL
  5
C4933
102
{ACAD_XDICTIONARY
360
C4AE5
102
}
102
{ACAD_REACTORS
330
C4930
102
}
330
C4930
100
AcDbMaterial
  1
Global
 73
     1
 78
     1
172
     1
176
     1
270
     1
274
     1
  0
MLEADERSTYLE
  5
C4937
102
{ACAD_REACTORS
330
C4936
102
}
330
C4936
100
AcDbMLeaderStyle
170
     2
171
     1
172
     0
 90
        2
 40
0.0
 41
0.0
173
     1
 91
-1056964608
340
12
 92
       -2
290
     1
 42
0.09
291
     1
 43
0.36
  3
Standard
 44
0.18
300

342
F
174
     1
178
     6
175
     1
176
     0
 93
-1056964608
 45
0.18
292
     0
297
     0
 46
0.18
 94
-1056964608
 47
1.0
 49
1.0
140
1.0
293
     1
141
0.0
294
     1
177
     0
142
1.0
295
     0
296
     0
143
0.125
1001
ACAD_MLEADERVER
1070
     2
  0
MLINESTYLE
  5
1C
102
{ACAD_REACTORS
330
1B
102
}
330
1B
100
AcDbMlineStyle
  2
STANDARD
 70
     0
  3

 62
   256
 51
90.0
 52
90.0
 71
     2
 49
0.5
 62
   256
  6
BYLAYER
 49
-0.5
 62
   256
  6
BYLAYER
  0
ACDBPLACEHOLDER
  5
73E
102
{ACAD_REACTORS
330
73D
102
}
330
73D
  0
SCALE
  5
8F56E
102
{ACAD_REACTORS
330
8F56D
102
}
330
8F56D
100
AcDbScale
 70
     0
300
1:1
140
1.0
141
1.0
290
     1
  0
SCALE
  5
8F56F
102
{ACAD_REACTORS
330
8F56D
102
}
330
8F56D
100
AcDbScale
 70
     0
300
1/128" = 1'-0"
140
0.0078125
141
12.0
290
     0
  0
SCALE
  5
8F570
102
{ACAD_REACTORS
330
8F56D
102
}
330
8F56D
100
AcDbScale
 70
     0
300
1/64" = 1'-0"
140
0.015625
141
12.0
290
     0
  0
SCALE
  5
8F571
102
{ACAD_REACTORS
330
8F56D
102
}
330
8F56D
100
AcDbScale
 70
     0
300
1/32" = 1'-0"
140
0.03125
141
12.0
290
     0
  0
SCALE
  5
8F572
102
{ACAD_REACTORS
330
8F56D
102
}
330
8F56D
100
AcDbScale
 70
     0
300
1/16" = 1'-0"
140
0.0625
141
12.0
290
     0
  0
SCALE
  5
8F573
102
{ACAD_REACTORS
330
8F56D
102
}
330
8F56D
100
AcDbScale
 70
     0
300
3/32" = 1'-0"
140
0.09375
141
12.0
290
     0
  0
SCALE
  5
8F574
102
{ACAD_REACTORS
330
8F56D
102
}
330
8F56D
100
AcDbScale
 70
     0
300
1/8" = 1'-0"
140
0.125
141
12.0
290
     0
  0
SCALE
  5
8F575
102
{ACAD_REACTORS
330
8F56D
102
}
330
8F56D
100
AcDbScale
 70
     0
300
3/16" = 1'-0"
140
0.1875
141
12.0
290
     0
  0
SCALE
  5
8F576
102
{ACAD_REACTORS
330
8F56D
102
}
330
8F56D
100
AcDbScale
 70
     0
300
1/4" = 1'-0"
140
0.25
141
12.0
290
     0
  0
SCALE
  5
8F577
102
{ACAD_REACTORS
330
8F56D
102
}
330
8F56D
100
AcDbScale
 70
     0
300
3/8" = 1'-0"
140
0.375
141
12.0
290
     0
  0
SCALE
  5
8F578
102
{ACAD_REACTORS
330
8F56D
102
}
330
8F56D
100
AcDbScale
 70
     0
300
1/2" = 1'-0"
140
0.5
141
12.0
290
     0
  0
SCALE
  5
8F579
102
{ACAD_REACTORS
330
8F56D
102
}
330
8F56D
100
AcDbScale
 70
     0
300
3/4" = 1'-0"
140
0.75
141
12.0
290
     0
  0
SCALE
  5
8F57A
102
{ACAD_REACTORS
330
8F56D
102
}
330
8F56D
100
AcDbScale
 70
     0
300
1" = 1'-0"
140
1.0
141
12.0
290
     0
  0
SCALE
  5
8F57B
102
{ACAD_REACTORS
330
8F56D
102
}
330
8F56D
100
AcDbScale
 70
     0
300
1-1/2" = 1'-0"
140
1.5
141
12.0
290
     0
  0
SCALE
  5
8F57C
102
{ACAD_REACTORS
330
8F56D
102
}
330
8F56D
100
AcDbScale
 70
     0
300
3" = 1'-0"
140
3.0
141
12.0
290
     0
  0
SCALE
  5
8F57D
102
{ACAD_REACTORS
330
8F56D
102
}
330
8F56D
100
AcDbScale
 70
     0
300
6" = 1'-0"
140
6.0
141
12.0
290
     0
  0
SCALE
  5
8F57E
102
{ACAD_REACTORS
330
8F56D
102
}
330
8F56D
100
AcDbScale
 70
     0
300
1'-0" = 1'-0"
140
12.0
141
12.0
290
     0
  0
ACDBSECTIONVIEWSTYLE
  5
8F582
102
{ACAD_XDICTIONARY
360
C4AA8
102
}
102
{ACAD_REACTORS
330
8F581
102
}
330
8F581
100
AcDbModelDocViewStyle
 70
     0
  3
Imperial24
290
     0
100
AcDbSectionViewStyle
 70
     0
 71
     0
 90
       78
 71
     1
340
F
 40
0.24
340
0
340
0
 40
0.24
300
I, O, Q, S, X, Z
 40
0.48
 90
        3
 40
0.18
 90
        1
 71
     2
340
808B3
 90
       25
340
14
 90
       50
 40
0.24
 40
0.0
 40
0.24
 71
     3
340
F
 40
0.24
 90
        1
 40
0.75
 90
        1
300
%<\AcVar ViewType \f "%tc1">% %<\AcVar ViewSectionStartId>%-%<\AcVar ViewSectionEndId>%\PSCALE %<\AcVar ViewScale \f "%sn">%
 71
     4
300
ANSI31
 40
1.0
 90
        0
290
     0
290
     0
 90
        6
 40
0.0
 40
1.570796326794897
 40
0.2617993877991494
 40
1.308996938995746
 40
-0.2617993877991494
 40
1.832595714594045
1001
ACAD
1000
AcRTDxfName
1000
ACDBSECTIONVIEWSTYLE
1000
AcRTDxfName
1000
ACDBSECTIONVIEWSTYLE
1000
AcRTDxfName
1000
ACDBSECTIONVIEWSTYLE
1000
AcRTDxfName
1000
ACDBSECTIONVIEWSTYLE
1000
AcRTDxfName
1000
ACDBSECTIONVIEWSTYLE
1000
AcRTDxfName
1000
ACDBSECTIONVIEWSTYLE
1000
AcRTDxfName
1000
ACDBSECTIONVIEWSTYLE
1000
AcRTDxfName
1000
ACDBSECTIONVIEWSTYLE
1000
AcRTDxfName
1000
ACDBSECTIONVIEWSTYLE
  0
TABLESTYLE
  5
C4935
102
{ACAD_XDICTIONARY
360
C4A3D
102
}
102
{ACAD_REACTORS
330
C4934
102
}
330
C4934
100
AcDbTableStyle
  3
Standard
 70
     0
 71
     0
 40
0.06
 41
0.06
280
     0
281
     0
  7
STANDARD
140
0.18
170
     2
 62
     0
 63
     7
283
     0
274
    -2
284
     1
 64
     0
275
    -2
285
     1
 65
     0
276
    -2
286
     1
 66
     0
277
    -2
287
     1
 67
     0
278
    -2
288
     1
 68
     0
279
    -2
289
     1
 69
     0
  7
STANDARD
140
0.25
170
     5
 62
     0
 63
     7
283
     0
274
    -2
284
     1
 64
     0
275
    -2
285
     1
 65
     0
276
    -2
286
     1
 66
     0
277
    -2
287
     1
 67
     0
278
    -2
288
     1
 68
     0
279
    -2
289
     1
 69
     0
  7
STANDARD
140
0.18
170
     5
 62
     0
 63
     7
283
     0
274
    -2
284
     1
 64
     0
275
    -2
285
     1
 65
     0
276
    -2
286
     1
 66
     0
277
    -2
287
     1
 67
     0
278
    -2
288
     1
 68
     0
279
    -2
289
     1
 69
     0
  0
VISUALSTYLE
  5
C491C
102
{ACAD_XDICTIONARY
360
C4AB9
102
}
102
{ACAD_REACTORS
330
C4917
102
}
330
C4917
100
AcDbVisualStyle
  2
2dWireframe
 70
     4
 71
     0
 72
     2
 73
     0
 90
        0
 40
-0.6
 41
-30.0
 62
     5
 63
     7
 74
     1
 91
        4
 64
     7
 65
   257
 75
     1
175
     1
 42
1.0
 92
        0
 66
   257
 43
1.0
 76
     1
 77
     6
 78
     2
 67
     7
 79
     5
170
     0
171
     0
290
     0
174
     0
 93
        1
 44
0.0
173
     0
291
     0
 45
0.0
1001
ACAD
1000
AcDbSavedByObjectVersion
1070
     0
  0
VISUALSTYLE
  5
C491F
102
{ACAD_XDICTIONARY
360
C4ABF
102
}
102
{ACAD_REACTORS
330
C4917
102
}
330
C4917
100
AcDbVisualStyle
  2
Basic
 70
     7
 71
     1
 72
     0
 73
     1
 90
        0
 40
-0.6
 41
-30.0
 62
     5
 63
     7
 74
     0
 91
        4
 64
     7
 65
   257
 75
     1
175
     1
 42
1.0
 92
        8
 66
     7
 43
1.0
 76
     1
 77
     6
 78
     2
 67
     7
 79
     5
170
     0
171
     0
290
     0
174
     0
 93
        1
 44
0.0
173
     0
291
     1
 45
0.0
1001
ACAD
1000
AcDbSavedByObjectVersion
1070
     0
  0
VISUALSTYLE
  5
C4923
102
{ACAD_XDICTIONARY
360
C4AC7
102
}
102
{ACAD_REACTORS
330
C4917
102
}
330
C4917
100
AcDbVisualStyle
  2
Brighten
 70
    12
 71
     2
 72
     2
 73
     0
 90
        0
 40
-0.6
 41
-30.0
 62
     5
 63
     7
 74
     1
 91
        4
 64
     7
 65
   257
 75
     1
175
     1
 42
1.0
 92
        8
 66
     7
 43
1.0
 76
     1
 77
     6
 78
     2
 67
     7
 79
     5
170
     0
171
     0
290
     0
174
     0
 93
        1
 44
50.0
173
     0
291
     1
 45
0.0
1001
ACAD
1000
AcDbSavedByObjectVersion
1070
     0
  0
VISUALSTYLE
  5
C4927
102
{ACAD_XDICTIONARY
360
C4ACF
102
}
102
{ACAD_REACTORS
330
C4917
102
}
330
C4917
100
AcDbVisualStyle
  2
ColorChange
 70
    16
 71
     2
 72
     2
 73
     3
 90
        0
 40
-0.6
 41
-30.0
 62
     5
 63
     8
 74
     1
 91
        4
 64
     7
 65
   257
 75
     1
175
     1
 42
1.0
 92
        8
 66
     8
 43
1.0
 76
     1
 77
     6
 78
     2
 67
     7
 79
     5
170
     0
171
     0
290
     0
174
     0
 93
        1
 44
0.0
173
     0
291
     1
 45
0.0
1001
ACAD
1000
AcDbSavedByObjectVersion
1070
     0
  0
VISUALSTYLE
  5
C4921
102
{ACAD_XDICTIONARY
360
C4AC3
102
}
102
{ACAD_REACTORS
330
C4917
102
}
330
C4917
100
AcDbVisualStyle
  2
Conceptual
 70
     9
 71
     3
 72
     2
 73
     0
 90
        0
 40
-0.6
 41
-30.0
 62
     5
 63
     7
 74
     2
 91
        2
 64
     7
 65
   257
 75
     1
175
     1
 42
179.0
 92
        8
 66
     7
 43
1.0
 76
     1
 77
     6
 78
     2
 67
     7
 79
     3
170
     0
171
     0
290
     0
174
     0
 93
        1
 44
0.0
173
     0
291
     0
 45
0.0
1001
ACAD
1000
AcDbSavedByObjectVersion
1070
     0
  0
VISUALSTYLE
  5
C4922
102
{ACAD_XDICTIONARY
360
C4AC5
102
}
102
{ACAD_REACTORS
330
C4917
102
}
330
C4917
100
AcDbVisualStyle
  2
Dim
 70
    11
 71
     2
 72
     2
 73
     0
 90
        0
 40
-0.6
 41
-30.0
 62
     5
 63
     7
 74
     1
 91
        4
 64
     7
 65
   257
 75
     1
175
     1
 42
1.0
 92
        8
 66
     7
 43
1.0
 76
     1
 77
     6
 78
     2
 67
     7
 79
     5
170
     0
171
     0
290
     0
174
     0
 93
        1
 44
-50.0
173
     0
291
     1
 45
0.0
1001
ACAD
1000
AcDbSavedByObjectVersion
1070
     0
  0
VISUALSTYLE
  5
C492A
102
{ACAD_XDICTIONARY
360
C4AD5
102
}
102
{ACAD_REACTORS
330
C4917
102
}
330
C4917
100
AcDbVisualStyle
  2
EdgeColorOff
 70
    22
 71
     2
 72
     2
 73
     0
 90
        0
 40
-0.6
 41
-30.0
 62
     5
 63
     7
 74
     1
 91
        4
 64
     7
 65
   257
 75
     1
175
     1
 42
1.0
 92
        8
 66
     7
 43
1.0
 76
     1
 77
     6
 78
     2
 67
     7
 79
     5
170
     0
171
     0
290
     0
174
     0
 93
        1
 44
0.0
173
     0
291
     1
 45
0.0
1001
ACAD
1000
AcDbSavedByObjectVersion
1070
     0
  0
VISUALSTYLE
  5
C4926
102
{ACAD_XDICTIONARY
360
C4ACD
102
}
102
{ACAD_REACTORS
330
C4917
102
}
330
C4917
100
AcDbVisualStyle
  2
Facepattern
 70
    15
 71
     2
 72
     2
 73
     0
 90
        0
 40
-0.6
 41
-30.0
 62
     5
 63
     7
 74
     1
 91
        4
 64
     7
 65
   257
 75
     1
175
     1
 42
1.0
 92
        8
 66
     7
 43
1.0
 76
     1
 77
     6
 78
     2
 67
     7
 79
     5
170
     0
171
     0
290
     0
174
     0
 93
        1
 44
0.0
173
     0
291
     1
 45
0.0
1001
ACAD
1000
AcDbSavedByObjectVersion
1070
     0
  0
VISUALSTYLE
  5
C4918
102
{ACAD_XDICTIONARY
360
C4AB1
102
}
102
{ACAD_REACTORS
330
C4917
102
}
330
C4917
100
AcDbVisualStyle
  2
Flat
 70
     0
 71
     2
 72
     1
 73
     1
 90
        2
 40
-0.6
 41
30.0
 62
     5
 63
     7
 74
     0
 91
        0
 64
     7
 65
   257
 75
     1
175
     1
 42
1.0
 92
        8
 66
     7
 43
1.0
 76
     1
 77
     6
 78
     2
 67
     7
 79
     5
170
     0
171
     0
290
     0
174
     0
 93
       13
 44
0.0
173
     0
291
     1
 45
0.0
1001
ACAD
1000
AcDbSavedByObjectVersion
1070
     0
  0
VISUALSTYLE
  5
C4919
102
{ACAD_XDICTIONARY
360
C4AB3
102
}
102
{ACAD_REACTORS
330
C4917
102
}
330
C4917
100
AcDbVisualStyle
  2
FlatWithEdges
 70
     1
 71
     2
 72
     1
 73
     1
 90
        2
 40
-0.6
 41
30.0
 62
     5
 63
     7
 74
     1
 91
        0
 64
     7
 65
   257
 75
     1
175
     1
 42
1.0
 92
        0
 66
   257
 43
1.0
 76
     1
 77
     6
 78
     2
 67
     7
 79
     5
170
     0
171
     0
290
     0
174
     0
 93
       13
 44
0.0
173
     0
291
     1
 45
0.0
1001
ACAD
1000
AcDbSavedByObjectVersion
1070
     0
  0
VISUALSTYLE
  5
C491A
102
{ACAD_XDICTIONARY
360
C4AB5
102
}
102
{ACAD_REACTORS
330
C4917
102
}
330
C4917
100
AcDbVisualStyle
  2
Gouraud
 70
     2
 71
     2
 72
     2
 73
     1
 90
        2
 40
-0.6
 41
30.0
 62
     5
 63
     7
 74
     0
 91
        0
 64
     7
 65
   257
 75
     1
175
     1
 42
1.0
 92
        0
 66
     7
 43
1.0
 76
     1
 77
     6
 78
     2
 67
     7
 79
     5
170
     0
171
     0
290
     0
174
     0
 93
       13
 44
0.0
173
     0
291
     1
 45
0.0
1001
ACAD
1000
AcDbSavedByObjectVersion
1070
     0
  0
VISUALSTYLE
  5
C491B
102
{ACAD_XDICTIONARY
360
C4AB7
102
}
102
{ACAD_REACTORS
330
C4917
102
}
330
C4917
100
AcDbVisualStyle
  2
GouraudWithEdges
 70
     3
 71
     2
 72
     2
 73
     1
 90
        2
 40
-0.6
 41
30.0
 62
     5
 63
     7
 74
     1
 91
        0
 64
     7
 65
   257
 75
     1
175
     1
 42
1.0
 92
        0
 66
   257
 43
1.0
 76
     1
 77
     6
 78
     2
 67
     7
 79
     5
170
     0
171
     0
290
     0
174
     0
 93
       13
 44
0.0
173
     0
291
     1
 45
0.0
1001
ACAD
1000
AcDbSavedByObjectVersion
1070
     0
  0
VISUALSTYLE
  5
C491E
102
{ACAD_XDICTIONARY
360
C4ABD
102
}
102
{ACAD_REACTORS
330
C4917
102
}
330
C4917
100
AcDbVisualStyle
  2
Hidden
 70
     6
 71
     1
 72
     2
 73
     2
 90
        0
 40
-0.6
 41
-30.0
 62
     5
 63
     7
 74
     2
 91
        2
 64
     7
 65
   257
 75
     2
175
     1
 42
40.0
 92
        0
 66
   257
 43
1.0
 76
     1
 77
     6
 78
     2
 67
     7
 79
     3
170
     0
171
     0
290
     0
174
     0
 93
        1
 44
0.0
173
     0
291
     0
 45
0.0
1001
ACAD
1000
AcDbSavedByObjectVersion
1070
     0
  0
VISUALSTYLE
  5
C4928
102
{ACAD_XDICTIONARY
360
C4AD1
102
}
102
{ACAD_REACTORS
330
C4917
102
}
330
C4917
100
AcDbVisualStyle
  2
JitterOff
 70
    20
 71
     2
 72
     2
 73
     0
 90
        0
 40
-0.6
 41
-30.0
 62
     5
 63
     7
 74
     1
 91
        4
 64
     7
 65
   257
 75
     1
175
     1
 42
1.0
 92
       10
 66
     7
 43
1.0
 76
     1
 77
     6
 78
     2
 67
     7
 79
     5
170
     0
171
     0
290
     0
174
     0
 93
        1
 44
0.0
173
     0
291
     1
 45
0.0
1001
ACAD
1000
AcDbSavedByObjectVersion
1070
     0
  0
VISUALSTYLE
  5
C4925
102
{ACAD_XDICTIONARY
360
C4ACB
102
}
102
{ACAD_REACTORS
330
C4917
102
}
330
C4917
100
AcDbVisualStyle
  2
Linepattern
 70
    14
 71
     2
 72
     2
 73
     0
 90
        0
 40
-0.6
 41
-30.0
 62
     5
 63
     7
 74
     1
 91
        4
 64
     7
 65
   257
 75
     7
175
     7
 42
1.0
 92
        8
 66
     7
 43
1.0
 76
     1
 77
     6
 78
     2
 67
     7
 79
     5
170
     0
171
     0
290
     0
174
     0
 93
        1
 44
0.0
173
     0
291
     1
 45
0.0
1001
ACAD
1000
AcDbSavedByObjectVersion
1070
     0
  0
VISUALSTYLE
  5
C4929
102
{ACAD_XDICTIONARY
360
C4AD3
102
}
102
{ACAD_REACTORS
330
C4917
102
}
330
C4917
100
AcDbVisualStyle
  2
OverhangOff
 70
    21
 71
     2
 72
     2
 73
     0
 90
        0
 40
-0.6
 41
-30.0
 62
     5
 63
     7
 74
     1
 91
        4
 64
     7
 65
   257
 75
     1
175
     1
 42
1.0
 92
        9
 66
     7
 43
1.0
 76
     1
 77
     6
 78
     2
 67
     7
 79
     5
170
     0
171
     0
290
     0
174
     0
 93
        1
 44
0.0
173
     0
291
     1
 45
0.0
1001
ACAD
1000
AcDbSavedByObjectVersion
1070
     0
  0
VISUALSTYLE
  5
C4920
102
{ACAD_XDICTIONARY
360
C4AC1
102
}
102
{ACAD_REACTORS
330
C4917
102
}
330
C4917
100
AcDbVisualStyle
  2
Realistic
 70
     8
 71
     2
 72
     2
 73
     0
 90
        2
 40
-0.6
 41
30.0
 62
     5
 63
     7
 74
     0
 91
        0
 64
     7
 65
   257
 75
     1
175
     1
 42
1.0
 92
        8
 66
   257
 43
1.0
 76
     1
 77
     6
 78
     2
 67
     7
 79
     3
170
     0
171
     0
290
     0
174
     0
 93
       13
 44
0.0
173
     0
291
     0
 45
0.0
1001
ACAD
1000
AcDbSavedByObjectVersion
1070
     0
  0
VISUALSTYLE
  5
C492F
102
{ACAD_XDICTIONARY
360
C4ADF
102
}
102
{ACAD_REACTORS
330
C4917
102
}
330
C4917
100
AcDbVisualStyle
  2
Shaded
 70
    27
 71
     2
 72
     2
 73
     1
 90
        2
 40
-0.6
 41
30.0
 62
     5
 63
     7
 74
     0
 91
        4
 64
     7
 65
   257
 75
     1
175
     1
 42
1.0
 92
        8
 66
   257
 43
1.0
 76
     1
 77
     6
 78
     2
 67
     8
 79
     3
170
     0
171
     0
290
     0
174
     0
 93
        5
 44
0.0
173
     0
291
     0
 45
0.0
1001
ACAD
1000
AcDbSavedByObjectVersion
1070
     0
  0
VISUALSTYLE
  5
C492E
102
{ACAD_XDICTIONARY
360
C4ADD
102
}
102
{ACAD_REACTORS
330
C4917
102
}
330
C4917
100
AcDbVisualStyle
  2
Shaded with edges
 70
    26
 71
     2
 72
     2
 73
     1
 90
        2
 40
-0.6
 41
30.0
 62
     5
 63
     7
 74
     1
 91
        2
 64
     7
 65
   257
 75
     2
175
     1
 42
1.0
 92
        8
 66
   257
 43
1.0
 76
     1
 77
     6
 78
     2
 67
     7
 79
     3
170
     0
171
     0
290
     0
174
     0
 93
        5
 44
0.0
173
     0
291
     0
 45
0.0
1001
ACAD
1000
AcDbSavedByObjectVersion
1070
     0
  0
VISUALSTYLE
  5
C492B
102
{ACAD_XDICTIONARY
360
C4AD7
102
}
102
{ACAD_REACTORS
330
C4917
102
}
330
C4917
100
AcDbVisualStyle
  2
Shades of Gray
 70
    23
 71
     2
 72
     2
 73
     3
 90
        0
 40
-0.6
 41
-30.0
 62
     5
 63
     7
 74
     2
 91
        2
 64
     7
 65
     7
 75
     1
175
     1
 42
40.0
 92
        8
 66
     7
 43
1.0
 76
     1
 77
     6
 78
     2
 67
     7
 79
     3
170
     0
171
     0
290
     0
174
     0
 93
        1
 44
0.0
173
     0
291
     0
 45
0.0
1001
ACAD
1000
AcDbSavedByObjectVersion
1070
     0
  0
VISUALSTYLE
  5
C492C
102
{ACAD_XDICTIONARY
360
C4AD9
102
}
102
{ACAD_REACTORS
330
C4917
102
}
330
C4917
100
AcDbVisualStyle
  2
Sketchy
 70
    24
 71
     1
 72
     2
 73
     2
 90
        0
 40
-0.6
 41
-30.0
 62
     5
 63
     7
 74
     2
 91
        2
 64
     7
 65
     7
 75
     1
175
     1
 42
40.0
 92
       11
 66
     7
 43
1.0
 76
     1
 77
     6
 78
     2
 67
     7
 79
     6
170
     0
171
     0
290
     0
174
     0
 93
        1
 44
0.0
173
     0
291
     0
 45
0.0
1001
ACAD
1000
AcDbSavedByObjectVersion
1070
     0
  0
VISUALSTYLE
  5
C4924
102
{ACAD_XDICTIONARY
360
C4AC9
102
}
102
{ACAD_REACTORS
330
C4917
102
}
330
C4917
100
AcDbVisualStyle
  2
Thicken
 70
    13
 71
     2
 72
     2
 73
     0
 90
        0
 40
-0.6
 41
-30.0
 62
     5
 63
     7
 74
     1
 91
        4
 64
     7
 65
   257
 75
     1
175
     1
 42
1.0
 92
       12
 66
     7
 43
1.0
 76
     1
 77
     6
 78
     2
 67
     7
 79
     5
170
     0
171
     0
290
     0
174
     0
 93
        1
 44
0.0
173
     0
291
     1
 45
0.0
1001
ACAD
1000
AcDbSavedByObjectVersion
1070
     0
  0
VISUALSTYLE
  5
C491D
102
{ACAD_XDICTIONARY
360
C4ABB
102
}
102
{ACAD_REACTORS
330
C4917
102
}
330
C4917
100
AcDbVisualStyle
  2
Wireframe
 70
     5
 71
     0
 72
     2
 73
     0
 90
        0
 40
-0.6
 41
-30.0
 62
     5
 63
     7
 74
     1
 91
        4
 64
     7
 65
   257
 75
     1
175
     1
 42
1.0
 92
        0
 66
   257
 43
1.0
 76
     1
 77
     6
 78
     2
 67
     7
 79
     3
170
     0
171
     0
290
     0
174
     0
 93
        1
 44
0.0
173
     0
291
     0
 45
0.0
1001
ACAD
1000
AcDbSavedByObjectVersion
1070
     0
  0
VISUALSTYLE
  5
C492D
102
{ACAD_XDICTIONARY
360
C4ADB
102
}
102
{ACAD_REACTORS
330
C4917
102
}
330
C4917
100
AcDbVisualStyle
  2
X-Ray
 70
    25
 71
     2
 72
     2
 73
     1
 90
        1
 40
0.5
 41
-30.0
 62
     5
 63
     7
 74
     1
 91
        0
 64
     7
 65
   257
 75
     1
175
     1
 42
1.0
 92
        8
 66
     7
 43
1.0
 76
     1
 77
     6
 78
     2
 67
     7
 79
     3
170
     0
171
     0
290
     0
174
     0
 93
       13
 44
0.0
173
     0
291
     0
 45
0.0
1001
ACAD
1000
AcDbSavedByObjectVersion
1070
     0
  0
DICTIONARYVAR
  5
C4939
102
{ACAD_REACTORS
330
11AC
102
}
330
11AC
100
DictionaryVariables
280
     0
  1
1:1
  0
DICTIONARYVAR
  5
C493B
102
{ACAD_REACTORS
330
11AC
102
}
330
11AC
100
DictionaryVariables
280
     0
  1
STANDARD
  0
DICTIONARYVAR
  5
C493A
102
{ACAD_REACTORS
330
11AC
102
}
330
11AC
100
DictionaryVariables
280
     0
  1
STANDARD
  0
DICTIONARYVAR
  5
C4A90
102
{ACAD_REACTORS
330
11AC
102
}
330
11AC
100
DictionaryVariables
280
     0
  1
Imperial24
  0
DICTIONARYVAR
  5
C4A91
102
{ACAD_REACTORS
330
11AC
102
}
330
11AC
100
DictionaryVariables
280
     0
  1
Imperial24
  0
DICTIONARYVAR
  5
C4A96
102
{ACAD_REACTORS
330
11AC
102
}
330
11AC
100
DictionaryVariables
280
     0
  1
2
  0
DICTIONARYVAR
  5
11AD
102
{ACAD_REACTORS
330
11AC
102
}
330
11AC
100
DictionaryVariables
280
     0
  1
1
  0
DICTIONARYVAR
  5
C4A95
102
{ACAD_REACTORS
330
11AC
102
}
330
11AC
100
DictionaryVariables
280
     0
  1
1
  0
DICTIONARYVAR
  5
A20AE
102
{ACAD_REACTORS
330
11AC
102
}
330
11AC
100
DictionaryVariables
280
     0
  1
0
  0
DICTIONARYVAR
  5
C4A93
102
{ACAD_REACTORS
330
11AC
102
}
330
11AC
100
DictionaryVariables
280
     0
  1
0
  0
DICTIONARYVAR
  5
C4A94
102
{ACAD_REACTORS
330
11AC
102
}
330
11AC
100
DictionaryVariables
280
     0
  1
0
  0
DICTIONARYVAR
  5
C4A92
102
{ACAD_REACTORS
330
11AC
102
}
330
11AC
100
DictionaryVariables
280
     0
  1
2
  0
DICTIONARYVAR
  5
C493C
102
{ACAD_REACTORS
330
11AC
102
}
330
11AC
100
DictionaryVariables
280
     0
  1
0
  0
DICTIONARYVAR
  5
AD08
102
{ACAD_REACTORS
330
11AC
102
}
330
11AC
100
DictionaryVariables
280
     0
  1
96
  0
DICTIONARYVAR
  5
C4AA0
102
{ACAD_REACTORS
330
11AC
102
}
330
11AC
100
DictionaryVariables
280
     0
  1
2
  0
XRECORD
  5
C48BA
102
{ACAD_REACTORS
330
C48B9
102
}
330
C48B9
100
AcDbXrecord
280
     1
  1
AcLyLayerFilter
 90
        1
300
0
301
NAME=="*0"
  0
XRECORD
  5
C48BD
102
{ACAD_REACTORS
330
C48B9
102
}
330
C48B9
100
AcDbXrecord
280
     1
  1
AcLyLayerFilter
 90
        1
300
7
301
NAME=="*7"
  0
XRECORD
  5
C48BE
102
{ACAD_REACTORS
330
C48B9
102
}
330
C48B9
100
AcDbXrecord
280
     1
  1
AcLyLayerFilter
 90
        1
300
kiseki
301
NAME=="kiseki*"
  0
XRECORD
  5
C48BF
102
{ACAD_REACTORS
330
C48B9
102
}
330
C48B9
100
AcDbXrecord
280
     1
  1
AcLyLayerFilter
 90
        1
300
11
301
NAME=="*11"
  0
XRECORD
  5
C48C0
102
{ACAD_REACTORS
330
C48B9
102
}
330
C48B9
100
AcDbXrecord
280
     1
  1
AcLyLayerFilter
 90
        1
300
150_
301
NAME=="150_*"
  0
XRECORD
  5
C48C1
102
{ACAD_REACTORS
330
C48B9
102
}
330
C48B9
100
AcDbXrecord
280
     1
  1
AcLyLayerFilter
 90
        1
300
160_
301
NAME=="160_*"
  0
XRECORD
  5
C48C2
102
{ACAD_REACTORS
330
C48B9
102
}
330
C48B9
100
AcDbXrecord
280
     1
  1
AcLyLayerFilter
 90
        1
300
170_
301
NAME=="170_*"
  0
XRECORD
  5
C48C3
102
{ACAD_REACTORS
330
C48B9
102
}
330
C48B9
100
AcDbXrecord
280
     1
  1
AcLyLayerFilter
 90
        1
300
171_
301
NAME=="171_*"
  0
XRECORD
  5
C48C4
102
{ACAD_REACTORS
330
C48B9
102
}
330
C48B9
100
AcDbXrecord
280
     1
  1
AcLyLayerFilter
 90
        1
300
350_
301
NAME=="350_*"
  0
XRECORD
  5
C48BB
102
{ACAD_REACTORS
330
C48B9
102
}
330
C48B9
100
AcDbXrecord
280
     1
  1
AcLyLayerFilter
 90
        1
300
4
301
NAME=="*4"
  0
XRECORD
  5
C48BC
102
{ACAD_REACTORS
330
C48B9
102
}
330
C48B9
100
AcDbXrecord
280
     1
  1
AcLyLayerFilter
 90
        1
300
5
301
NAME=="*5"
  0
DICTIONARY
  5
C4AAA
330
8F584
100
AcDbDictionary
280
     1
281
     1
  3
ACAD_XREC_ROUNDTRIP
360
C4AAB
  0
DICTIONARY
  5
C4AA6
330
741
100
AcDbDictionary
280
     1
281
     1
  3
ACAD_XREC_ROUNDTRIP
360
C4AA7
  0
DICTIONARY
  5
C4AAC
330
C47C7
100
AcDbDictionary
280
     1
281
     1
  3
ACAD_XREC_ROUNDTRIP
360
C4AAD
  0
DICTIONARY
  5
C4AE3
330
C4932
100
AcDbDictionary
280
     1
281
     1
  3
ACAD_XREC_ROUNDTRIP
360
C4AE4
  0
DICTIONARY
  5
C4AE1
330
C4931
100
AcDbDictionary
280
     1
281
     1
  3
ACAD_XREC_ROUNDTRIP
360
C4AE2
  0
DICTIONARY
  5
C4AE5
330
C4933
100
AcDbDictionary
280
     1
281
     1
  3
ACAD_XREC_ROUNDTRIP
360
C4AE6
  0
DICTIONARY
  5
C4AA8
330
8F582
100
AcDbDictionary
280
     1
281
     1
  3
ACAD_XREC_ROUNDTRIP
360
C4AA9
  0
DICTIONARY
  5
C4A3D
330
C4935
100
AcDbDictionary
280
     1
281
     1
  3
ACAD_ROUNDTRIP_2008_TABLESTYLE_CELLSTYLEMAP
360
C4AA1
  3
ACAD_XREC_ROUNDTRIP
360
C4AE7
  0
DICTIONARY
  5
C4AB9
330
C491C
100
AcDbDictionary
280
     1
281
     1
  3
ACAD_XREC_ROUNDTRIP
360
C4ABA
  0
DICTIONARY
  5
C4ABF
330
C491F
100
AcDbDictionary
280
     1
281
     1
  3
ACAD_XREC_ROUNDTRIP
360
C4AC0
  0
DICTIONARY
  5
C4AC7
330
C4923
100
AcDbDictionary
280
     1
281
     1
  3
ACAD_XREC_ROUNDTRIP
360
C4AC8
  0
DICTIONARY
  5
C4ACF
330
C4927
100
AcDbDictionary
280
     1
281
     1
  3
ACAD_XREC_ROUNDTRIP
360
C4AD0
  0
DICTIONARY
  5
C4AC3
330
C4921
100
AcDbDictionary
280
     1
281
     1
  3
ACAD_XREC_ROUNDTRIP
360
C4AC4
  0
DICTIONARY
  5
C4AC5
330
C4922
100
AcDbDictionary
280
     1
281
     1
  3
ACAD_XREC_ROUNDTRIP
360
C4AC6
  0
DICTIONARY
  5
C4AD5
330
C492A
100
AcDbDictionary
280
     1
281
     1
  3
ACAD_XREC_ROUNDTRIP
360
C4AD6
  0
DICTIONARY
  5
C4ACD
330
C4926
100
AcDbDictionary
280
     1
281
     1
  3
ACAD_XREC_ROUNDTRIP
360
C4ACE
  0
DICTIONARY
  5
C4AB1
330
C4918
100
AcDbDictionary
280
     1
281
     1
  3
ACAD_XREC_ROUNDTRIP
360
C4AB2
  0
DICTIONARY
  5
C4AB3
330
C4919
100
AcDbDictionary
280
     1
281
     1
  3
ACAD_XREC_ROUNDTRIP
360
C4AB4
  0
DICTIONARY
  5
C4AB5
330
C491A
100
AcDbDictionary
280
     1
281
     1
  3
ACAD_XREC_ROUNDTRIP
360
C4AB6
  0
DICTIONARY
  5
C4AB7
330
C491B
100
AcDbDictionary
280
     1
281
     1
  3
ACAD_XREC_ROUNDTRIP
360
C4AB8
  0
DICTIONARY
  5
C4ABD
330
C491E
100
AcDbDictionary
280
     1
281
     1
  3
ACAD_XREC_ROUNDTRIP
360
C4ABE
  0
DICTIONARY
  5
C4AD1
330
C4928
100
AcDbDictionary
280
     1
281
     1
  3
ACAD_XREC_ROUNDTRIP
360
C4AD2
  0
DICTIONARY
  5
C4ACB
330
C4925
100
AcDbDictionary
280
     1
281
     1
  3
ACAD_XREC_ROUNDTRIP
360
C4ACC
  0
DICTIONARY
  5
C4AD3
330
C4929
100
AcDbDictionary
280
     1
281
     1
  3
ACAD_XREC_ROUNDTRIP
360
C4AD4
  0
DICTIONARY
  5
C4AC1
330
C4920
100
AcDbDictionary
280
     1
281
     1
  3
ACAD_XREC_ROUNDTRIP
360
C4AC2
  0
DICTIONARY
  5
C4ADF
330
C492F
100
AcDbDictionary
280
     1
281
     1
  3
ACAD_XREC_ROUNDTRIP
360
C4AE0
  0
DICTIONARY
  5
C4ADD
330
C492E
100
AcDbDictionary
280
     1
281
     1
  3
ACAD_XREC_ROUNDTRIP
360
C4ADE
  0
DICTIONARY
  5
C4AD7
330
C492B
100
AcDbDictionary
280
     1
281
     1
  3
ACAD_XREC_ROUNDTRIP
360
C4AD8
  0
DICTIONARY
  5
C4AD9
330
C492C
100
AcDbDictionary
280
     1
281
     1
  3
ACAD_XREC_ROUNDTRIP
360
C4ADA
  0
DICTIONARY
  5
C4AC9
330
C4924
100
AcDbDictionary
280
     1
281
     1
  3
ACAD_XREC_ROUNDTRIP
360
C4ACA
  0
DICTIONARY
  5
C4ABB
330
C491D
100
AcDbDictionary
280
     1
281
     1
  3
ACAD_XREC_ROUNDTRIP
360
C4ABC
  0
DICTIONARY
  5
C4ADB
330
C492D
100
AcDbDictionary
280
     1
281
     1
  3
ACAD_XREC_ROUNDTRIP
360
C4ADC
  0
XRECORD
  5
C4AAB
102
{ACAD_REACTORS
330
C4AAA
102
}
330
C4AAA
100
AcDbXrecord
280
     1
102
DISPLAYNAME
  1
Imperial24
102
FLAGS
 90
        0
  0
XRECORD
  5
C4AA7
102
{ACAD_REACTORS
330
C4AA6
102
}
330
C4AA6
100
AcDbXrecord
280
     1
102
SHADEPLOT
 70
     0
102
SHADEPLOTRESLEVEL
 70
     2
102
SHADEPLOTCUSTOMDPI
 70
   300
  0
XRECORD
  5
C4AAD
102
{ACAD_REACTORS
330
C4AAC
102
}
330
C4AAC
100
AcDbXrecord
280
     1
102
SHADEPLOT
 70
     0
102
SHADEPLOTRESLEVEL
 70
     2
102
SHADEPLOTCUSTOMDPI
 70
   300
  0
XRECORD
  5
C4AE4
102
{ACAD_REACTORS
330
C4AE3
102
}
330
C4AE3
100
AcDbXrecord
280
     1
102
MATERIAL
148
0.0
149
0.0
149
0.0
 93
        0
 94
      127
282
     0
 72
     1
 77
     1
171
     1
175
     1
179
     1
273
     0
  0
XRECORD
  5
C4AE2
102
{ACAD_REACTORS
330
C4AE1
102
}
330
C4AE1
100
AcDbXrecord
280
     1
102
MATERIAL
148
0.0
149
0.0
149
0.0
 93
        0
 94
      127
282
     0
 72
     1
 77
     1
171
     1
175
     1
179
     1
273
     0
  0
XRECORD
  5
C4AE6
102
{ACAD_REACTORS
330
C4AE5
102
}
330
C4AE5
100
AcDbXrecord
280
     1
102
MATERIAL
148
0.0
149
0.0
149
0.0
 93
        0
 94
      127
282
     0
 72
     1
 77
     1
171
     1
175
     1
179
     1
273
     0
  0
XRECORD
  5
C4AA9
102
{ACAD_REACTORS
330
C4AA8
102
}
330
C4AA8
100
AcDbXrecord
280
     1
102
DISPLAYNAME
  1
Imperial24
102
FLAGS
 90
        0
  0
CELLSTYLEMAP
  5
C4AA1
102
{ACAD_REACTORS
330
C4A3D
102
}
330
C4A3D
100
AcDbCellStyleMap
 90
        3
300
CELLSTYLE
  1
TABLEFORMAT_BEGIN
 90
        5
170
     1
 91
        0
 92
    32768
 62
   257
 93
        1
300
CONTENTFORMAT
  1
CONTENTFORMAT_BEGIN
 90
        0
 91
        0
 92
        4
 93
        0
300

 40
0.0
140
1.0
 94
        5
 62
     0
340
F
144
0.25
309
CONTENTFORMAT_END
171
     1
301
MARGIN
  1
CELLMARGIN_BEGIN
 40
0.06
 40
0.06
 40
0.06
 40
0.06
 40
0.06
 40
0.06
309
CELLMARGIN_END
 94
        6
 95
        1
302
GRIDFORMAT
  1
GRIDFORMAT_BEGIN
 90
        0
 91
        1
 62
     0
 92
       -2
340
12
 93
        0
 40
0.045
309
GRIDFORMAT_END
 95
        2
302
GRIDFORMAT
  1
GRIDFORMAT_BEGIN
 90
        0
 91
        1
 62
     0
 92
       -2
340
12
 93
        0
 40
0.045
309
GRIDFORMAT_END
 95
        4
302
GRIDFORMAT
  1
GRIDFORMAT_BEGIN
 90
        0
 91
        1
 62
     0
 92
       -2
340
12
 93
        0
 40
0.045
309
GRIDFORMAT_END
 95
        8
302
GRIDFORMAT
  1
GRIDFORMAT_BEGIN
 90
        0
 91
        1
 62
     0
 92
       -2
340
12
 93
        0
 40
0.045
309
GRIDFORMAT_END
 95
       16
302
GRIDFORMAT
  1
GRIDFORMAT_BEGIN
 90
        0
 91
        1
 62
     0
 92
       -2
340
12
 93
        0
 40
0.045
309
GRIDFORMAT_END
 95
       32
302
GRIDFORMAT
  1
GRIDFORMAT_BEGIN
 90
        0
 91
        1
 62
     0
 92
       -2
340
12
 93
        0
 40
0.045
309
GRIDFORMAT_END
309
TABLEFORMAT_END
  1
CELLSTYLE_BEGIN
 90
        1
 91
        1
300
_TITLE
309
CELLSTYLE_END
300
CELLSTYLE
  1
TABLEFORMAT_BEGIN
 90
        5
170
     1
 91
        0
 92
        0
 62
   257
 93
        1
300
CONTENTFORMAT
  1
CONTENTFORMAT_BEGIN
 90
        0
 91
        0
 92
        4
 93
        0
300

 40
0.0
140
1.0
 94
        5
 62
     0
340
F
144
0.18
309
CONTENTFORMAT_END
171
     1
301
MARGIN
  1
CELLMARGIN_BEGIN
 40
0.06
 40
0.06
 40
0.06
 40
0.06
 40
0.06
 40
0.06
309
CELLMARGIN_END
 94
        6
 95
        1
302
GRIDFORMAT
  1
GRIDFORMAT_BEGIN
 90
        0
 91
        1
 62
     0
 92
       -2
340
12
 93
        0
 40
0.045
309
GRIDFORMAT_END
 95
        2
302
GRIDFORMAT
  1
GRIDFORMAT_BEGIN
 90
        0
 91
        1
 62
     0
 92
       -2
340
12
 93
        0
 40
0.045
309
GRIDFORMAT_END
 95
        4
302
GRIDFORMAT
  1
GRIDFORMAT_BEGIN
 90
        0
 91
        1
 62
     0
 92
       -2
340
12
 93
        0
 40
0.045
309
GRIDFORMAT_END
 95
        8
302
GRIDFORMAT
  1
GRIDFORMAT_BEGIN
 90
        0
 91
        1
 62
     0
 92
       -2
340
12
 93
        0
 40
0.045
309
GRIDFORMAT_END
 95
       16
302
GRIDFORMAT
  1
GRIDFORMAT_BEGIN
 90
        0
 91
        1
 62
     0
 92
       -2
340
12
 93
        0
 40
0.045
309
GRIDFORMAT_END
 95
       32
302
GRIDFORMAT
  1
GRIDFORMAT_BEGIN
 90
        0
 91
        1
 62
     0
 92
       -2
340
12
 93
        0
 40
0.045
309
GRIDFORMAT_END
309
TABLEFORMAT_END
  1
CELLSTYLE_BEGIN
 90
        2
 91
        1
300
_HEADER
309
CELLSTYLE_END
300
CELLSTYLE
  1
TABLEFORMAT_BEGIN
 90
        5
170
     1
 91
        0
 92
        0
 62
   257
 93
        1
300
CONTENTFORMAT
  1
CONTENTFORMAT_BEGIN
 90
        0
 91
        0
 92
        4
 93
        0
300

 40
0.0
140
1.0
 94
        2
 62
     0
340
F
144
0.18
309
CONTENTFORMAT_END
171
     1
301
MARGIN
  1
CELLMARGIN_BEGIN
 40
0.06
 40
0.06
 40
0.06
 40
0.06
 40
0.06
 40
0.06
309
CELLMARGIN_END
 94
        6
 95
        1
302
GRIDFORMAT
  1
GRIDFORMAT_BEGIN
 90
        0
 91
        1
 62
     0
 92
       -2
340
12
 93
        0
 40
0.045
309
GRIDFORMAT_END
 95
        2
302
GRIDFORMAT
  1
GRIDFORMAT_BEGIN
 90
        0
 91
        1
 62
     0
 92
       -2
340
12
 93
        0
 40
0.045
309
GRIDFORMAT_END
 95
        4
302
GRIDFORMAT
  1
GRIDFORMAT_BEGIN
 90
        0
 91
        1
 62
     0
 92
       -2
340
12
 93
        0
 40
0.045
309
GRIDFORMAT_END
 95
        8
302
GRIDFORMAT
  1
GRIDFORMAT_BEGIN
 90
        0
 91
        1
 62
     0
 92
       -2
340
12
 93
        0
 40
0.045
309
GRIDFORMAT_END
 95
       16
302
GRIDFORMAT
  1
GRIDFORMAT_BEGIN
 90
        0
 91
        1
 62
     0
 92
       -2
340
12
 93
        0
 40
0.045
309
GRIDFORMAT_END
 95
       32
302
GRIDFORMAT
  1
GRIDFORMAT_BEGIN
 90
        0
 91
        1
 62
     0
 92
       -2
340
12
 93
        0
 40
0.045
309
GRIDFORMAT_END
309
TABLEFORMAT_END
  1
CELLSTYLE_BEGIN
 90
        3
 91
        2
300
_DATA
309
CELLSTYLE_END
  0
XRECORD
  5
C4AE7
102
{ACAD_REACTORS
330
C4A3D
102
}
330
C4A3D
100
AcDbXrecord
280
     1
102
ACAD_ROUNDTRIP_PRE2007_TABLESTYLE
 90
        4
 91
        0
  1

 92
        4
 93
        0
  2

 94
        4
 95
        0
  3

  0
XRECORD
  5
C4ABA
102
{ACAD_REACTORS
330
C4AB9
102
}
330
C4AB9
100
AcDbXrecord
280
     1
102
RTVSPost2010Prop28
280
     1
102
RTVSPost2010PropOp28
 70
     1
102
RTVSPost2010Prop29
280
     1
102
RTVSPost2010PropOp29
 70
     1
102
RTVSPost2010Prop30
280
     0
102
RTVSPost2010PropOp30
 70
     1
102
RTVSPost2010Prop31
280
     0
102
RTVSPost2010PropOp31
 70
     1
102
RTVSPost2010Prop32
280
     0
102
RTVSPost2010PropOp32
 70
     1
102
RTVSPost2010Prop33
280
     0
102
RTVSPost2010PropOp33
 70
     1
102
RTVSPost2010Prop34
280
     0
102
RTVSPost2010PropOp34
 70
     1
102
RTVSPost2010Prop35
280
     0
102
RTVSPost2010PropOp35
 70
     1
102
RTVSPost2010Prop36
280
     0
102
RTVSPost2010PropOp36
 70
     1
102
RTVSPost2010Prop37
 90
       50
102
RTVSPost2010PropOp37
 70
     1
102
RTVSPost2010Prop38
140
0.0
102
RTVSPost2010PropOp38
 70
     1
102
RTVSPost2010Prop39
140
1.0
102
RTVSPost2010PropOp39
 70
     1
102
RTVSPost2010Prop40
 90
        0
102
RTVSPost2010PropOp40
 70
     1
102
RTVSPost2010Prop41ColorIndex
 90
       18
102
RTVSPost2010Prop41ColorRGB
 90
        0
102
RTVSPost2010PropOp41
 70
     1
102
RTVSPost2010Prop42
 90
       50
102
RTVSPost2010PropOp42
 70
     1
102
RTVSPost2010Prop43
 90
        3
102
RTVSPost2010PropOp43
 70
     1
102
RTVSPost2010Prop44ColorIndex
 90
        5
102
RTVSPost2010Prop44ColorRGB
 90
      255
102
RTVSPost2010PropOp44
 70
     1
102
RTVSPost2010Prop45
280
     0
102
RTVSPost2010PropOp45
 70
     1
102
RTVSPost2010Prop46
 90
       50
102
RTVSPost2010PropOp46
 70
     1
102
RTVSPost2010Prop47
 90
       50
102
RTVSPost2010PropOp47
 70
     1
102
RTVSPost2010Prop48
 90
       50
102
RTVSPost2010PropOp48
 70
     1
102
RTVSPost2010Prop49
280
     0
102
RTVSPost2010PropOp49
 70
     1
102
RTVSPost2010Prop50
 90
       50
102
RTVSPost2010PropOp50
 70
     1
102
RTVSPost2010Prop51ColorIndex
 90
      256
102
RTVSPost2010Prop51ColorRGB
 90
-16777216
102
RTVSPost2010PropOp51
 70
     0
102
RTVSPost2010Prop52
140
1.0
102
RTVSPost2010PropOp52
 70
     0
102
RTVSPost2010Prop53
 90
        2
102
RTVSPost2010PropOp53
 70
     1
102
RTVSPost2010Prop54
  1
strokes_ogs.tif
102
RTVSPost2010PropOp54
 70
     1
102
RTVSPost2010Prop55
280
     0
102
RTVSPost2010PropOp55
 70
     1
102
RTVSPost2010Prop56
140
1.0
102
RTVSPost2010PropOp56
 70
     1
102
RTVSPost2010Prop57
140
1.0
102
RTVSPost2010PropOp57
 70
     1
102
RTVSPropertyOp0
 70
     1
102
RTVSPropertyOp1
 70
     1
102
RTVSPropertyOp2
 70
     1
102
RTVSPropertyOp3
 70
     1
102
RTVSPropertyOp4
 70
     1
102
RTVSPropertyOp5
 70
     1
102
RTVSPropertyOp6
 70
     1
102
RTVSPropertyOp7
 70
     1
102
RTVSPropertyOp8
 70
     1
102
RTVSPropertyOp9
 70
     1
102
RTVSPropertyOp10
 70
     1
102
RTVSPropertyOp11
 70
     1
102
RTVSPropertyOp12
 70
     1
102
RTVSPropertyOp13
 70
     1
102
RTVSPropertyOp14
 70
     1
102
RTVSPropertyOp15
 70
     1
102
RTVSPropertyOp16
 70
     1
102
RTVSPropertyOp17
 70
     1
102
RTVSPropertyOp18
 70
     1
102
RTVSPropertyOp19
 70
     1
102
RTVSPropertyOp20
 70
     1
102
RTVSPropertyOp21
 70
     1
102
RTVSPropertyOp22
 70
     1
102
RTVSPropertyOp23
 70
     1
102
RTVSPropertyOp24
 70
     1
102
RTVSPropertyOp25
 70
     1
102
RTVSPropertyOp26
 70
     1
102
RTVSPropertyOp27
 70
     1
102
RTVSPropertyOp28
 70
     1
102
RTVSPropertyOp29
 70
     1
102
RTVSPropertyOp30
 70
     1
102
RTVSPropertyOp31
 70
     1
102
RTVSPropertyOp32
 70
     1
102
RTVSPropertyOp33
 70
     1
102
RTVSPropertyOp34
 70
     1
102
RTVSPropertyOp35
 70
     1
102
RTVSPropertyOp36
 70
     1
102
RTVSPropertyOp37
 70
     1
102
RTVSPropertyOp38
 70
     1
102
RTVSPropertyOp39
 70
     1
102
RTVSPropertyOp40
 70
     1
102
RTVSPropertyOp41
 70
     1
102
RTVSPropertyOp42
 70
     1
102
RTVSPropertyOp43
 70
     1
102
RTVSPropertyOp44
 70
     1
102
RTVSPropertyOp45
 70
     1
102
RTVSPropertyOp46
 70
     1
102
RTVSPropertyOp47
 70
     1
102
RTVSPropertyOp48
 70
     1
102
RTVSPropertyOp49
 70
     1
102
RTVSPropertyOp50
 70
     1
102
RTVSPropertyOp51
 70
     0
102
RTVSPropertyOp52
 70
     0
102
RTVSPropertyOp53
 70
     1
102
RTVSPropertyOp54
 70
     1
102
RTVSPropertyOp55
 70
     1
102
RTVSPropertyOp56
 70
     1
102
RTVSPropertyOp57
 70
     1
102
RTVSPropertyOp58
 70
     1
102
RTVSPropertyOp59
 70
     1
102
RTVSPropertyOp60
 70
     1
102
RTVSPropertyOp61
 70
     1
102
RTVSPropertyOp62
 70
     1
  0
XRECORD
  5
C4AC0
102
{ACAD_REACTORS
330
C4ABF
102
}
330
C4ABF
100
AcDbXrecord
280
     1
102
RTVSPost2010Prop28
280
     0
102
RTVSPost2010PropOp28
 70
     1
102
RTVSPost2010Prop29
280
     1
102
RTVSPost2010PropOp29
 70
     1
102
RTVSPost2010Prop30
280
     1
102
RTVSPost2010PropOp30
 70
     1
102
RTVSPost2010Prop31
280
     0
102
RTVSPost2010PropOp31
 70
     1
102
RTVSPost2010Prop32
280
     0
102
RTVSPost2010PropOp32
 70
     1
102
RTVSPost2010Prop33
280
     0
102
RTVSPost2010PropOp33
 70
     1
102
RTVSPost2010Prop34
280
     0
102
RTVSPost2010PropOp34
 70
     1
102
RTVSPost2010Prop35
280
     0
102
RTVSPost2010PropOp35
 70
     1
102
RTVSPost2010Prop36
280
     0
102
RTVSPost2010PropOp36
 70
     1
102
RTVSPost2010Prop37
 90
       50
102
RTVSPost2010PropOp37
 70
     1
102
RTVSPost2010Prop38
140
0.0
102
RTVSPost2010PropOp38
 70
     1
102
RTVSPost2010Prop39
140
1.0
102
RTVSPost2010PropOp39
 70
     1
102
RTVSPost2010Prop40
 90
        0
102
RTVSPost2010PropOp40
 70
     1
102
RTVSPost2010Prop41ColorIndex
 90
       18
102
RTVSPost2010Prop41ColorRGB
 90
        0
102
RTVSPost2010PropOp41
 70
     1
102
RTVSPost2010Prop42
 90
       50
102
RTVSPost2010PropOp42
 70
     1
102
RTVSPost2010Prop43
 90
        3
102
RTVSPost2010PropOp43
 70
     1
102
RTVSPost2010Prop44ColorIndex
 90
        5
102
RTVSPost2010Prop44ColorRGB
 90
      255
102
RTVSPost2010PropOp44
 70
     1
102
RTVSPost2010Prop45
280
     0
102
RTVSPost2010PropOp45
 70
     1
102
RTVSPost2010Prop46
 90
       50
102
RTVSPost2010PropOp46
 70
     1
102
RTVSPost2010Prop47
 90
       50
102
RTVSPost2010PropOp47
 70
     1
102
RTVSPost2010Prop48
 90
       50
102
RTVSPost2010PropOp48
 70
     1
102
RTVSPost2010Prop49
280
     0
102
RTVSPost2010PropOp49
 70
     1
102
RTVSPost2010Prop50
 90
       50
102
RTVSPost2010PropOp50
 70
     1
102
RTVSPost2010Prop51ColorIndex
 90
      256
102
RTVSPost2010Prop51ColorRGB
 90
-16777216
102
RTVSPost2010PropOp51
 70
     0
102
RTVSPost2010Prop52
140
1.0
102
RTVSPost2010PropOp52
 70
     0
102
RTVSPost2010Prop53
 90
        2
102
RTVSPost2010PropOp53
 70
     1
102
RTVSPost2010Prop54
  1
strokes_ogs.tif
102
RTVSPost2010PropOp54
 70
     1
102
RTVSPost2010Prop55
280
     0
102
RTVSPost2010PropOp55
 70
     1
102
RTVSPost2010Prop56
140
1.0
102
RTVSPost2010PropOp56
 70
     1
102
RTVSPost2010Prop57
140
1.0
102
RTVSPost2010PropOp57
 70
     1
102
RTVSPropertyOp0
 70
     1
102
RTVSPropertyOp1
 70
     1
102
RTVSPropertyOp2
 70
     1
102
RTVSPropertyOp3
 70
     1
102
RTVSPropertyOp4
 70
     1
102
RTVSPropertyOp5
 70
     1
102
RTVSPropertyOp6
 70
     1
102
RTVSPropertyOp7
 70
     1
102
RTVSPropertyOp8
 70
     1
102
RTVSPropertyOp9
 70
     1
102
RTVSPropertyOp10
 70
     1
102
RTVSPropertyOp11
 70
     1
102
RTVSPropertyOp12
 70
     1
102
RTVSPropertyOp13
 70
     1
102
RTVSPropertyOp14
 70
     1
102
RTVSPropertyOp15
 70
     1
102
RTVSPropertyOp16
 70
     1
102
RTVSPropertyOp17
 70
     1
102
RTVSPropertyOp18
 70
     1
102
RTVSPropertyOp19
 70
     1
102
RTVSPropertyOp20
 70
     1
102
RTVSPropertyOp21
 70
     1
102
RTVSPropertyOp22
 70
     1
102
RTVSPropertyOp23
 70
     1
102
RTVSPropertyOp24
 70
     1
102
RTVSPropertyOp25
 70
     1
102
RTVSPropertyOp26
 70
     1
102
RTVSPropertyOp27
 70
     1
102
RTVSPropertyOp28
 70
     1
102
RTVSPropertyOp29
 70
     1
102
RTVSPropertyOp30
 70
     1
102
RTVSPropertyOp31
 70
     1
102
RTVSPropertyOp32
 70
     1
102
RTVSPropertyOp33
 70
     1
102
RTVSPropertyOp34
 70
     1
102
RTVSPropertyOp35
 70
     1
102
RTVSPropertyOp36
 70
     1
102
RTVSPropertyOp37
 70
     1
102
RTVSPropertyOp38
 70
     1
102
RTVSPropertyOp39
 70
     1
102
RTVSPropertyOp40
 70
     1
102
RTVSPropertyOp41
 70
     1
102
RTVSPropertyOp42
 70
     1
102
RTVSPropertyOp43
 70
     1
102
RTVSPropertyOp44
 70
     1
102
RTVSPropertyOp45
 70
     1
102
RTVSPropertyOp46
 70
     1
102
RTVSPropertyOp47
 70
     1
102
RTVSPropertyOp48
 70
     1
102
RTVSPropertyOp49
 70
     1
102
RTVSPropertyOp50
 70
     1
102
RTVSPropertyOp51
 70
     0
102
RTVSPropertyOp52
 70
     0
102
RTVSPropertyOp53
 70
     1
102
RTVSPropertyOp54
 70
     1
102
RTVSPropertyOp55
 70
     1
102
RTVSPropertyOp56
 70
     1
102
RTVSPropertyOp57
 70
     1
102
RTVSPropertyOp58
 70
     1
102
RTVSPropertyOp59
 70
     1
102
RTVSPropertyOp60
 70
     1
102
RTVSPropertyOp61
 70
     1
102
RTVSPropertyOp62
 70
     1
  0
XRECORD
  5
C4AC8
102
{ACAD_REACTORS
330
C4AC7
102
}
330
C4AC7
100
AcDbXrecord
280
     1
102
RTVSPost2010Prop28
280
     0
102
RTVSPost2010PropOp28
 70
     1
102
RTVSPost2010Prop29
280
     1
102
RTVSPost2010PropOp29
 70
     1
102
RTVSPost2010Prop30
280
     1
102
RTVSPost2010PropOp30
 70
     1
102
RTVSPost2010Prop31
280
     0
102
RTVSPost2010PropOp31
 70
     1
102
RTVSPost2010Prop32
280
     0
102
RTVSPost2010PropOp32
 70
     1
102
RTVSPost2010Prop33
280
     0
102
RTVSPost2010PropOp33
 70
     1
102
RTVSPost2010Prop34
280
     0
102
RTVSPost2010PropOp34
 70
     1
102
RTVSPost2010Prop35
280
     0
102
RTVSPost2010PropOp35
 70
     1
102
RTVSPost2010Prop36
280
     0
102
RTVSPost2010PropOp36
 70
     1
102
RTVSPost2010Prop37
 90
       50
102
RTVSPost2010PropOp37
 70
     1
102
RTVSPost2010Prop38
140
0.0
102
RTVSPost2010PropOp38
 70
     1
102
RTVSPost2010Prop39
140
1.0
102
RTVSPost2010PropOp39
 70
     1
102
RTVSPost2010Prop40
 90
        0
102
RTVSPost2010PropOp40
 70
     1
102
RTVSPost2010Prop41ColorIndex
 90
       18
102
RTVSPost2010Prop41ColorRGB
 90
        0
102
RTVSPost2010PropOp41
 70
     1
102
RTVSPost2010Prop42
 90
       50
102
RTVSPost2010PropOp42
 70
     1
102
RTVSPost2010Prop43
 90
        3
102
RTVSPost2010PropOp43
 70
     1
102
RTVSPost2010Prop44ColorIndex
 90
        5
102
RTVSPost2010Prop44ColorRGB
 90
      255
102
RTVSPost2010PropOp44
 70
     1
102
RTVSPost2010Prop45
280
     0
102
RTVSPost2010PropOp45
 70
     1
102
RTVSPost2010Prop46
 90
       50
102
RTVSPost2010PropOp46
 70
     1
102
RTVSPost2010Prop47
 90
       50
102
RTVSPost2010PropOp47
 70
     1
102
RTVSPost2010Prop48
 90
       50
102
RTVSPost2010PropOp48
 70
     1
102
RTVSPost2010Prop49
280
     0
102
RTVSPost2010PropOp49
 70
     1
102
RTVSPost2010Prop50
 90
       50
102
RTVSPost2010PropOp50
 70
     1
102
RTVSPost2010Prop51ColorIndex
 90
      256
102
RTVSPost2010Prop51ColorRGB
 90
-16777216
102
RTVSPost2010PropOp51
 70
     0
102
RTVSPost2010Prop52
140
1.0
102
RTVSPost2010PropOp52
 70
     0
102
RTVSPost2010Prop53
 90
        2
102
RTVSPost2010PropOp53
 70
     1
102
RTVSPost2010Prop54
  1
strokes_ogs.tif
102
RTVSPost2010PropOp54
 70
     1
102
RTVSPost2010Prop55
280
     0
102
RTVSPost2010PropOp55
 70
     1
102
RTVSPost2010Prop56
140
1.0
102
RTVSPost2010PropOp56
 70
     1
102
RTVSPost2010Prop57
140
1.0
102
RTVSPost2010PropOp57
 70
     1
102
RTVSPropertyOp0
 70
     1
102
RTVSPropertyOp1
 70
     1
102
RTVSPropertyOp2
 70
     1
102
RTVSPropertyOp3
 70
     1
102
RTVSPropertyOp4
 70
     1
102
RTVSPropertyOp5
 70
     1
102
RTVSPropertyOp6
 70
     1
102
RTVSPropertyOp7
 70
     1
102
RTVSPropertyOp8
 70
     1
102
RTVSPropertyOp9
 70
     1
102
RTVSPropertyOp10
 70
     1
102
RTVSPropertyOp11
 70
     1
102
RTVSPropertyOp12
 70
     1
102
RTVSPropertyOp13
 70
     1
102
RTVSPropertyOp14
 70
     1
102
RTVSPropertyOp15
 70
     1
102
RTVSPropertyOp16
 70
     1
102
RTVSPropertyOp17
 70
     1
102
RTVSPropertyOp18
 70
     1
102
RTVSPropertyOp19
 70
     1
102
RTVSPropertyOp20
 70
     1
102
RTVSPropertyOp21
 70
     1
102
RTVSPropertyOp22
 70
     1
102
RTVSPropertyOp23
 70
     1
102
RTVSPropertyOp24
 70
     1
102
RTVSPropertyOp25
 70
     1
102
RTVSPropertyOp26
 70
     1
102
RTVSPropertyOp27
 70
     1
102
RTVSPropertyOp28
 70
     1
102
RTVSPropertyOp29
 70
     1
102
RTVSPropertyOp30
 70
     1
102
RTVSPropertyOp31
 70
     1
102
RTVSPropertyOp32
 70
     1
102
RTVSPropertyOp33
 70
     1
102
RTVSPropertyOp34
 70
     1
102
RTVSPropertyOp35
 70
     1
102
RTVSPropertyOp36
 70
     1
102
RTVSPropertyOp37
 70
     1
102
RTVSPropertyOp38
 70
     1
102
RTVSPropertyOp39
 70
     1
102
RTVSPropertyOp40
 70
     1
102
RTVSPropertyOp41
 70
     1
102
RTVSPropertyOp42
 70
     1
102
RTVSPropertyOp43
 70
     1
102
RTVSPropertyOp44
 70
     1
102
RTVSPropertyOp45
 70
     1
102
RTVSPropertyOp46
 70
     1
102
RTVSPropertyOp47
 70
     1
102
RTVSPropertyOp48
 70
     1
102
RTVSPropertyOp49
 70
     1
102
RTVSPropertyOp50
 70
     1
102
RTVSPropertyOp51
 70
     0
102
RTVSPropertyOp52
 70
     0
102
RTVSPropertyOp53
 70
     1
102
RTVSPropertyOp54
 70
     1
102
RTVSPropertyOp55
 70
     1
102
RTVSPropertyOp56
 70
     1
102
RTVSPropertyOp57
 70
     1
102
RTVSPropertyOp58
 70
     1
102
RTVSPropertyOp59
 70
     1
102
RTVSPropertyOp60
 70
     1
102
RTVSPropertyOp61
 70
     1
102
RTVSPropertyOp62
 70
     1
  0
XRECORD
  5
C4AD0
102
{ACAD_REACTORS
330
C4ACF
102
}
330
C4ACF
100
AcDbXrecord
280
     1
102
RTVSPost2010Prop28
280
     0
102
RTVSPost2010PropOp28
 70
     1
102
RTVSPost2010Prop29
280
     1
102
RTVSPost2010PropOp29
 70
     1
102
RTVSPost2010Prop30
280
     1
102
RTVSPost2010PropOp30
 70
     1
102
RTVSPost2010Prop31
280
     0
102
RTVSPost2010PropOp31
 70
     1
102
RTVSPost2010Prop32
280
     0
102
RTVSPost2010PropOp32
 70
     1
102
RTVSPost2010Prop33
280
     0
102
RTVSPost2010PropOp33
 70
     1
102
RTVSPost2010Prop34
280
     0
102
RTVSPost2010PropOp34
 70
     1
102
RTVSPost2010Prop35
280
     0
102
RTVSPost2010PropOp35
 70
     1
102
RTVSPost2010Prop36
280
     0
102
RTVSPost2010PropOp36
 70
     1
102
RTVSPost2010Prop37
 90
       50
102
RTVSPost2010PropOp37
 70
     1
102
RTVSPost2010Prop38
140
0.0
102
RTVSPost2010PropOp38
 70
     1
102
RTVSPost2010Prop39
140
1.0
102
RTVSPost2010PropOp39
 70
     1
102
RTVSPost2010Prop40
 90
        0
102
RTVSPost2010PropOp40
 70
     1
102
RTVSPost2010Prop41ColorIndex
 90
       18
102
RTVSPost2010Prop41ColorRGB
 90
        0
102
RTVSPost2010PropOp41
 70
     1
102
RTVSPost2010Prop42
 90
       50
102
RTVSPost2010PropOp42
 70
     1
102
RTVSPost2010Prop43
 90
        3
102
RTVSPost2010PropOp43
 70
     1
102
RTVSPost2010Prop44ColorIndex
 90
        5
102
RTVSPost2010Prop44ColorRGB
 90
      255
102
RTVSPost2010PropOp44
 70
     1
102
RTVSPost2010Prop45
280
     0
102
RTVSPost2010PropOp45
 70
     1
102
RTVSPost2010Prop46
 90
       50
102
RTVSPost2010PropOp46
 70
     1
102
RTVSPost2010Prop47
 90
       50
102
RTVSPost2010PropOp47
 70
     1
102
RTVSPost2010Prop48
 90
       50
102
RTVSPost2010PropOp48
 70
     1
102
RTVSPost2010Prop49
280
     0
102
RTVSPost2010PropOp49
 70
     1
102
RTVSPost2010Prop50
 90
       50
102
RTVSPost2010PropOp50
 70
     1
102
RTVSPost2010Prop51ColorIndex
 90
      256
102
RTVSPost2010Prop51ColorRGB
 90
-16777216
102
RTVSPost2010PropOp51
 70
     0
102
RTVSPost2010Prop52
140
1.0
102
RTVSPost2010PropOp52
 70
     0
102
RTVSPost2010Prop53
 90
        2
102
RTVSPost2010PropOp53
 70
     1
102
RTVSPost2010Prop54
  1
strokes_ogs.tif
102
RTVSPost2010PropOp54
 70
     1
102
RTVSPost2010Prop55
280
     0
102
RTVSPost2010PropOp55
 70
     1
102
RTVSPost2010Prop56
140
1.0
102
RTVSPost2010PropOp56
 70
     1
102
RTVSPost2010Prop57
140
1.0
102
RTVSPost2010PropOp57
 70
     1
102
RTVSPropertyOp0
 70
     1
102
RTVSPropertyOp1
 70
     1
102
RTVSPropertyOp2
 70
     1
102
RTVSPropertyOp3
 70
     1
102
RTVSPropertyOp4
 70
     1
102
RTVSPropertyOp5
 70
     1
102
RTVSPropertyOp6
 70
     1
102
RTVSPropertyOp7
 70
     1
102
RTVSPropertyOp8
 70
     1
102
RTVSPropertyOp9
 70
     1
102
RTVSPropertyOp10
 70
     1
102
RTVSPropertyOp11
 70
     1
102
RTVSPropertyOp12
 70
     1
102
RTVSPropertyOp13
 70
     1
102
RTVSPropertyOp14
 70
     1
102
RTVSPropertyOp15
 70
     1
102
RTVSPropertyOp16
 70
     1
102
RTVSPropertyOp17
 70
     1
102
RTVSPropertyOp18
 70
     1
102
RTVSPropertyOp19
 70
     1
102
RTVSPropertyOp20
 70
     1
102
RTVSPropertyOp21
 70
     1
102
RTVSPropertyOp22
 70
     1
102
RTVSPropertyOp23
 70
     1
102
RTVSPropertyOp24
 70
     1
102
RTVSPropertyOp25
 70
     1
102
RTVSPropertyOp26
 70
     1
102
RTVSPropertyOp27
 70
     1
102
RTVSPropertyOp28
 70
     1
102
RTVSPropertyOp29
 70
     1
102
RTVSPropertyOp30
 70
     1
102
RTVSPropertyOp31
 70
     1
102
RTVSPropertyOp32
 70
     1
102
RTVSPropertyOp33
 70
     1
102
RTVSPropertyOp34
 70
     1
102
RTVSPropertyOp35
 70
     1
102
RTVSPropertyOp36
 70
     1
102
RTVSPropertyOp37
 70
     1
102
RTVSPropertyOp38
 70
     1
102
RTVSPropertyOp39
 70
     1
102
RTVSPropertyOp40
 70
     1
102
RTVSPropertyOp41
 70
     1
102
RTVSPropertyOp42
 70
     1
102
RTVSPropertyOp43
 70
     1
102
RTVSPropertyOp44
 70
     1
102
RTVSPropertyOp45
 70
     1
102
RTVSPropertyOp46
 70
     1
102
RTVSPropertyOp47
 70
     1
102
RTVSPropertyOp48
 70
     1
102
RTVSPropertyOp49
 70
     1
102
RTVSPropertyOp50
 70
     1
102
RTVSPropertyOp51
 70
     0
102
RTVSPropertyOp52
 70
     0
102
RTVSPropertyOp53
 70
     1
102
RTVSPropertyOp54
 70
     1
102
RTVSPropertyOp55
 70
     1
102
RTVSPropertyOp56
 70
     1
102
RTVSPropertyOp57
 70
     1
102
RTVSPropertyOp58
 70
     1
102
RTVSPropertyOp59
 70
     1
102
RTVSPropertyOp60
 70
     1
102
RTVSPropertyOp61
 70
     1
102
RTVSPropertyOp62
 70
     1
  0
XRECORD
  5
C4AC4
102
{ACAD_REACTORS
330
C4AC3
102
}
330
C4AC3
100
AcDbXrecord
280
     1
102
RTVSPost2010Prop28
280
     0
102
RTVSPost2010PropOp28
 70
     1
102
RTVSPost2010Prop29
280
     1
102
RTVSPost2010PropOp29
 70
     1
102
RTVSPost2010Prop30
280
     1
102
RTVSPost2010PropOp30
 70
     1
102
RTVSPost2010Prop31
280
     0
102
RTVSPost2010PropOp31
 70
     1
102
RTVSPost2010Prop32
280
     0
102
RTVSPost2010PropOp32
 70
     1
102
RTVSPost2010Prop33
280
     0
102
RTVSPost2010PropOp33
 70
     1
102
RTVSPost2010Prop34
280
     0
102
RTVSPost2010PropOp34
 70
     1
102
RTVSPost2010Prop35
280
     0
102
RTVSPost2010PropOp35
 70
     1
102
RTVSPost2010Prop36
280
     0
102
RTVSPost2010PropOp36
 70
     1
102
RTVSPost2010Prop37
 90
       50
102
RTVSPost2010PropOp37
 70
     1
102
RTVSPost2010Prop38
140
0.0
102
RTVSPost2010PropOp38
 70
     1
102
RTVSPost2010Prop39
140
1.0
102
RTVSPost2010PropOp39
 70
     1
102
RTVSPost2010Prop40
 90
        0
102
RTVSPost2010PropOp40
 70
     1
102
RTVSPost2010Prop41ColorIndex
 90
       18
102
RTVSPost2010Prop41ColorRGB
 90
        0
102
RTVSPost2010PropOp41
 70
     1
102
RTVSPost2010Prop42
 90
       50
102
RTVSPost2010PropOp42
 70
     1
102
RTVSPost2010Prop43
 90
        3
102
RTVSPost2010PropOp43
 70
     1
102
RTVSPost2010Prop44ColorIndex
 90
        5
102
RTVSPost2010Prop44ColorRGB
 90
      255
102
RTVSPost2010PropOp44
 70
     1
102
RTVSPost2010Prop45
280
     0
102
RTVSPost2010PropOp45
 70
     1
102
RTVSPost2010Prop46
 90
       50
102
RTVSPost2010PropOp46
 70
     1
102
RTVSPost2010Prop47
 90
       50
102
RTVSPost2010PropOp47
 70
     1
102
RTVSPost2010Prop48
 90
       50
102
RTVSPost2010PropOp48
 70
     1
102
RTVSPost2010Prop49
280
     0
102
RTVSPost2010PropOp49
 70
     1
102
RTVSPost2010Prop50
 90
       50
102
RTVSPost2010PropOp50
 70
     1
102
RTVSPost2010Prop51ColorIndex
 90
      256
102
RTVSPost2010Prop51ColorRGB
 90
-16777216
102
RTVSPost2010PropOp51
 70
     0
102
RTVSPost2010Prop52
140
1.0
102
RTVSPost2010PropOp52
 70
     0
102
RTVSPost2010Prop53
 90
        2
102
RTVSPost2010PropOp53
 70
     1
102
RTVSPost2010Prop54
  1
strokes_ogs.tif
102
RTVSPost2010PropOp54
 70
     1
102
RTVSPost2010Prop55
280
     0
102
RTVSPost2010PropOp55
 70
     1
102
RTVSPost2010Prop56
140
1.0
102
RTVSPost2010PropOp56
 70
     1
102
RTVSPost2010Prop57
140
1.0
102
RTVSPost2010PropOp57
 70
     1
102
RTVSPropertyOp0
 70
     1
102
RTVSPropertyOp1
 70
     1
102
RTVSPropertyOp2
 70
     1
102
RTVSPropertyOp3
 70
     1
102
RTVSPropertyOp4
 70
     1
102
RTVSPropertyOp5
 70
     1
102
RTVSPropertyOp6
 70
     1
102
RTVSPropertyOp7
 70
     1
102
RTVSPropertyOp8
 70
     1
102
RTVSPropertyOp9
 70
     1
102
RTVSPropertyOp10
 70
     1
102
RTVSPropertyOp11
 70
     1
102
RTVSPropertyOp12
 70
     1
102
RTVSPropertyOp13
 70
     1
102
RTVSPropertyOp14
 70
     1
102
RTVSPropertyOp15
 70
     1
102
RTVSPropertyOp16
 70
     1
102
RTVSPropertyOp17
 70
     1
102
RTVSPropertyOp18
 70
     1
102
RTVSPropertyOp19
 70
     1
102
RTVSPropertyOp20
 70
     1
102
RTVSPropertyOp21
 70
     1
102
RTVSPropertyOp22
 70
     1
102
RTVSPropertyOp23
 70
     1
102
RTVSPropertyOp24
 70
     1
102
RTVSPropertyOp25
 70
     1
102
RTVSPropertyOp26
 70
     1
102
RTVSPropertyOp27
 70
     1
102
RTVSPropertyOp28
 70
     1
102
RTVSPropertyOp29
 70
     1
102
RTVSPropertyOp30
 70
     1
102
RTVSPropertyOp31
 70
     1
102
RTVSPropertyOp32
 70
     1
102
RTVSPropertyOp33
 70
     1
102
RTVSPropertyOp34
 70
     1
102
RTVSPropertyOp35
 70
     1
102
RTVSPropertyOp36
 70
     1
102
RTVSPropertyOp37
 70
     1
102
RTVSPropertyOp38
 70
     1
102
RTVSPropertyOp39
 70
     1
102
RTVSPropertyOp40
 70
     1
102
RTVSPropertyOp41
 70
     1
102
RTVSPropertyOp42
 70
     1
102
RTVSPropertyOp43
 70
     1
102
RTVSPropertyOp44
 70
     1
102
RTVSPropertyOp45
 70
     1
102
RTVSPropertyOp46
 70
     1
102
RTVSPropertyOp47
 70
     1
102
RTVSPropertyOp48
 70
     1
102
RTVSPropertyOp49
 70
     1
102
RTVSPropertyOp50
 70
     1
102
RTVSPropertyOp51
 70
     0
102
RTVSPropertyOp52
 70
     0
102
RTVSPropertyOp53
 70
     1
102
RTVSPropertyOp54
 70
     1
102
RTVSPropertyOp55
 70
     1
102
RTVSPropertyOp56
 70
     1
102
RTVSPropertyOp57
 70
     1
102
RTVSPropertyOp58
 70
     1
102
RTVSPropertyOp59
 70
     1
102
RTVSPropertyOp60
 70
     1
102
RTVSPropertyOp61
 70
     1
102
RTVSPropertyOp62
 70
     1
  0
XRECORD
  5
C4AC6
102
{ACAD_REACTORS
330
C4AC5
102
}
330
C4AC5
100
AcDbXrecord
280
     1
102
RTVSPost2010Prop28
280
     0
102
RTVSPost2010PropOp28
 70
     1
102
RTVSPost2010Prop29
280
     1
102
RTVSPost2010PropOp29
 70
     1
102
RTVSPost2010Prop30
280
     1
102
RTVSPost2010PropOp30
 70
     1
102
RTVSPost2010Prop31
280
     0
102
RTVSPost2010PropOp31
 70
     1
102
RTVSPost2010Prop32
280
     0
102
RTVSPost2010PropOp32
 70
     1
102
RTVSPost2010Prop33
280
     0
102
RTVSPost2010PropOp33
 70
     1
102
RTVSPost2010Prop34
280
     0
102
RTVSPost2010PropOp34
 70
     1
102
RTVSPost2010Prop35
280
     0
102
RTVSPost2010PropOp35
 70
     1
102
RTVSPost2010Prop36
280
     0
102
RTVSPost2010PropOp36
 70
     1
102
RTVSPost2010Prop37
 90
       50
102
RTVSPost2010PropOp37
 70
     1
102
RTVSPost2010Prop38
140
0.0
102
RTVSPost2010PropOp38
 70
     1
102
RTVSPost2010Prop39
140
1.0
102
RTVSPost2010PropOp39
 70
     1
102
RTVSPost2010Prop40
 90
        0
102
RTVSPost2010PropOp40
 70
     1
102
RTVSPost2010Prop41ColorIndex
 90
       18
102
RTVSPost2010Prop41ColorRGB
 90
        0
102
RTVSPost2010PropOp41
 70
     1
102
RTVSPost2010Prop42
 90
       50
102
RTVSPost2010PropOp42
 70
     1
102
RTVSPost2010Prop43
 90
        3
102
RTVSPost2010PropOp43
 70
     1
102
RTVSPost2010Prop44ColorIndex
 90
        5
102
RTVSPost2010Prop44ColorRGB
 90
      255
102
RTVSPost2010PropOp44
 70
     1
102
RTVSPost2010Prop45
280
     0
102
RTVSPost2010PropOp45
 70
     1
102
RTVSPost2010Prop46
 90
       50
102
RTVSPost2010PropOp46
 70
     1
102
RTVSPost2010Prop47
 90
       50
102
RTVSPost2010PropOp47
 70
     1
102
RTVSPost2010Prop48
 90
       50
102
RTVSPost2010PropOp48
 70
     1
102
RTVSPost2010Prop49
280
     0
102
RTVSPost2010PropOp49
 70
     1
102
RTVSPost2010Prop50
 90
       50
102
RTVSPost2010PropOp50
 70
     1
102
RTVSPost2010Prop51ColorIndex
 90
      256
102
RTVSPost2010Prop51ColorRGB
 90
-16777216
102
RTVSPost2010PropOp51
 70
     0
102
RTVSPost2010Prop52
140
1.0
102
RTVSPost2010PropOp52
 70
     0
102
RTVSPost2010Prop53
 90
        2
102
RTVSPost2010PropOp53
 70
     1
102
RTVSPost2010Prop54
  1
strokes_ogs.tif
102
RTVSPost2010PropOp54
 70
     1
102
RTVSPost2010Prop55
280
     0
102
RTVSPost2010PropOp55
 70
     1
102
RTVSPost2010Prop56
140
1.0
102
RTVSPost2010PropOp56
 70
     1
102
RTVSPost2010Prop57
140
1.0
102
RTVSPost2010PropOp57
 70
     1
102
RTVSPropertyOp0
 70
     1
102
RTVSPropertyOp1
 70
     1
102
RTVSPropertyOp2
 70
     1
102
RTVSPropertyOp3
 70
     1
102
RTVSPropertyOp4
 70
     1
102
RTVSPropertyOp5
 70
     1
102
RTVSPropertyOp6
 70
     1
102
RTVSPropertyOp7
 70
     1
102
RTVSPropertyOp8
 70
     1
102
RTVSPropertyOp9
 70
     1
102
RTVSPropertyOp10
 70
     1
102
RTVSPropertyOp11
 70
     1
102
RTVSPropertyOp12
 70
     1
102
RTVSPropertyOp13
 70
     1
102
RTVSPropertyOp14
 70
     1
102
RTVSPropertyOp15
 70
     1
102
RTVSPropertyOp16
 70
     1
102
RTVSPropertyOp17
 70
     1
102
RTVSPropertyOp18
 70
     1
102
RTVSPropertyOp19
 70
     1
102
RTVSPropertyOp20
 70
     1
102
RTVSPropertyOp21
 70
     1
102
RTVSPropertyOp22
 70
     1
102
RTVSPropertyOp23
 70
     1
102
RTVSPropertyOp24
 70
     1
102
RTVSPropertyOp25
 70
     1
102
RTVSPropertyOp26
 70
     1
102
RTVSPropertyOp27
 70
     1
102
RTVSPropertyOp28
 70
     1
102
RTVSPropertyOp29
 70
     1
102
RTVSPropertyOp30
 70
     1
102
RTVSPropertyOp31
 70
     1
102
RTVSPropertyOp32
 70
     1
102
RTVSPropertyOp33
 70
     1
102
RTVSPropertyOp34
 70
     1
102
RTVSPropertyOp35
 70
     1
102
RTVSPropertyOp36
 70
     1
102
RTVSPropertyOp37
 70
     1
102
RTVSPropertyOp38
 70
     1
102
RTVSPropertyOp39
 70
     1
102
RTVSPropertyOp40
 70
     1
102
RTVSPropertyOp41
 70
     1
102
RTVSPropertyOp42
 70
     1
102
RTVSPropertyOp43
 70
     1
102
RTVSPropertyOp44
 70
     1
102
RTVSPropertyOp45
 70
     1
102
RTVSPropertyOp46
 70
     1
102
RTVSPropertyOp47
 70
     1
102
RTVSPropertyOp48
 70
     1
102
RTVSPropertyOp49
 70
     1
102
RTVSPropertyOp50
 70
     1
102
RTVSPropertyOp51
 70
     0
102
RTVSPropertyOp52
 70
     0
102
RTVSPropertyOp53
 70
     1
102
RTVSPropertyOp54
 70
     1
102
RTVSPropertyOp55
 70
     1
102
RTVSPropertyOp56
 70
     1
102
RTVSPropertyOp57
 70
     1
102
RTVSPropertyOp58
 70
     1
102
RTVSPropertyOp59
 70
     1
102
RTVSPropertyOp60
 70
     1
102
RTVSPropertyOp61
 70
     1
102
RTVSPropertyOp62
 70
     1
  0
XRECORD
  5
C4AD6
102
{ACAD_REACTORS
330
C4AD5
102
}
330
C4AD5
100
AcDbXrecord
280
     1
102
RTVSPost2010Prop28
280
     0
102
RTVSPost2010PropOp28
 70
     0
102
RTVSPost2010Prop29
280
     1
102
RTVSPost2010PropOp29
 70
     0
102
RTVSPost2010Prop30
280
     1
102
RTVSPost2010PropOp30
 70
     0
102
RTVSPost2010Prop31
280
     0
102
RTVSPost2010PropOp31
 70
     0
102
RTVSPost2010Prop32
280
     0
102
RTVSPost2010PropOp32
 70
     0
102
RTVSPost2010Prop33
280
     0
102
RTVSPost2010PropOp33
 70
     0
102
RTVSPost2010Prop34
280
     0
102
RTVSPost2010PropOp34
 70
     0
102
RTVSPost2010Prop35
280
     0
102
RTVSPost2010PropOp35
 70
     0
102
RTVSPost2010Prop36
280
     0
102
RTVSPost2010PropOp36
 70
     0
102
RTVSPost2010Prop37
 90
       50
102
RTVSPost2010PropOp37
 70
     0
102
RTVSPost2010Prop38
140
0.0
102
RTVSPost2010PropOp38
 70
     0
102
RTVSPost2010Prop39
140
1.0
102
RTVSPost2010PropOp39
 70
     0
102
RTVSPost2010Prop40
 90
        0
102
RTVSPost2010PropOp40
 70
     0
102
RTVSPost2010Prop41ColorIndex
 90
       18
102
RTVSPost2010Prop41ColorRGB
 90
        0
102
RTVSPost2010PropOp41
 70
     0
102
RTVSPost2010Prop42
 90
       50
102
RTVSPost2010PropOp42
 70
     0
102
RTVSPost2010Prop43
 90
        3
102
RTVSPost2010PropOp43
 70
     0
102
RTVSPost2010Prop44ColorIndex
 90
        5
102
RTVSPost2010Prop44ColorRGB
 90
      255
102
RTVSPost2010PropOp44
 70
     0
102
RTVSPost2010Prop45
280
     0
102
RTVSPost2010PropOp45
 70
     0
102
RTVSPost2010Prop46
 90
       50
102
RTVSPost2010PropOp46
 70
     0
102
RTVSPost2010Prop47
 90
       50
102
RTVSPost2010PropOp47
 70
     0
102
RTVSPost2010Prop48
 90
       50
102
RTVSPost2010PropOp48
 70
     0
102
RTVSPost2010Prop49
280
     0
102
RTVSPost2010PropOp49
 70
     0
102
RTVSPost2010Prop50
 90
       50
102
RTVSPost2010PropOp50
 70
     0
102
RTVSPost2010Prop51ColorIndex
 90
      256
102
RTVSPost2010Prop51ColorRGB
 90
-16777216
102
RTVSPost2010PropOp51
 70
     0
102
RTVSPost2010Prop52
140
1.0
102
RTVSPost2010PropOp52
 70
     0
102
RTVSPost2010Prop53
 90
        2
102
RTVSPost2010PropOp53
 70
     0
102
RTVSPost2010Prop54
  1
strokes_ogs.tif
102
RTVSPost2010PropOp54
 70
     0
102
RTVSPost2010Prop55
280
     0
102
RTVSPost2010PropOp55
 70
     0
102
RTVSPost2010Prop56
140
1.0
102
RTVSPost2010PropOp56
 70
     0
102
RTVSPost2010Prop57
140
1.0
102
RTVSPost2010PropOp57
 70
     0
102
RTVSPropertyOp0
 70
     0
102
RTVSPropertyOp1
 70
     0
102
RTVSPropertyOp2
 70
     0
102
RTVSPropertyOp3
 70
     0
102
RTVSPropertyOp4
 70
     0
102
RTVSPropertyOp5
 70
     0
102
RTVSPropertyOp6
 70
     0
102
RTVSPropertyOp7
 70
     0
102
RTVSPropertyOp8
 70
     0
102
RTVSPropertyOp9
 70
     0
102
RTVSPropertyOp10
 70
     0
102
RTVSPropertyOp11
 70
     0
102
RTVSPropertyOp12
 70
     0
102
RTVSPropertyOp13
 70
     0
102
RTVSPropertyOp14
 70
     2
102
RTVSPropertyOp15
 70
     0
102
RTVSPropertyOp16
 70
     0
102
RTVSPropertyOp17
 70
     0
102
RTVSPropertyOp18
 70
     0
102
RTVSPropertyOp19
 70
     0
102
RTVSPropertyOp20
 70
     0
102
RTVSPropertyOp21
 70
     0
102
RTVSPropertyOp22
 70
     0
102
RTVSPropertyOp23
 70
     0
102
RTVSPropertyOp24
 70
     0
102
RTVSPropertyOp25
 70
     0
102
RTVSPropertyOp26
 70
     0
102
RTVSPropertyOp27
 70
     0
102
RTVSPropertyOp28
 70
     0
102
RTVSPropertyOp29
 70
     0
102
RTVSPropertyOp30
 70
     0
102
RTVSPropertyOp31
 70
     0
102
RTVSPropertyOp32
 70
     0
102
RTVSPropertyOp33
 70
     0
102
RTVSPropertyOp34
 70
     0
102
RTVSPropertyOp35
 70
     0
102
RTVSPropertyOp36
 70
     0
102
RTVSPropertyOp37
 70
     0
102
RTVSPropertyOp38
 70
     0
102
RTVSPropertyOp39
 70
     0
102
RTVSPropertyOp40
 70
     0
102
RTVSPropertyOp41
 70
     0
102
RTVSPropertyOp42
 70
     0
102
RTVSPropertyOp43
 70
     0
102
RTVSPropertyOp44
 70
     0
102
RTVSPropertyOp45
 70
     0
102
RTVSPropertyOp46
 70
     0
102
RTVSPropertyOp47
 70
     0
102
RTVSPropertyOp48
 70
     0
102
RTVSPropertyOp49
 70
     0
102
RTVSPropertyOp50
 70
     0
102
RTVSPropertyOp51
 70
     0
102
RTVSPropertyOp52
 70
     0
102
RTVSPropertyOp53
 70
     0
102
RTVSPropertyOp54
 70
     0
102
RTVSPropertyOp55
 70
     0
102
RTVSPropertyOp56
 70
     0
102
RTVSPropertyOp57
 70
     0
102
RTVSPropertyOp58
 70
     1
102
RTVSPropertyOp59
 70
     1
102
RTVSPropertyOp60
 70
     1
102
RTVSPropertyOp61
 70
     1
102
RTVSPropertyOp62
 70
     1
  0
XRECORD
  5
C4ACE
102
{ACAD_REACTORS
330
C4ACD
102
}
330
C4ACD
100
AcDbXrecord
280
     1
102
RTVSPost2010Prop28
280
     0
102
RTVSPost2010PropOp28
 70
     1
102
RTVSPost2010Prop29
280
     1
102
RTVSPost2010PropOp29
 70
     1
102
RTVSPost2010Prop30
280
     1
102
RTVSPost2010PropOp30
 70
     1
102
RTVSPost2010Prop31
280
     0
102
RTVSPost2010PropOp31
 70
     1
102
RTVSPost2010Prop32
280
     0
102
RTVSPost2010PropOp32
 70
     1
102
RTVSPost2010Prop33
280
     0
102
RTVSPost2010PropOp33
 70
     1
102
RTVSPost2010Prop34
280
     0
102
RTVSPost2010PropOp34
 70
     1
102
RTVSPost2010Prop35
280
     0
102
RTVSPost2010PropOp35
 70
     1
102
RTVSPost2010Prop36
280
     0
102
RTVSPost2010PropOp36
 70
     1
102
RTVSPost2010Prop37
 90
       50
102
RTVSPost2010PropOp37
 70
     1
102
RTVSPost2010Prop38
140
0.0
102
RTVSPost2010PropOp38
 70
     1
102
RTVSPost2010Prop39
140
1.0
102
RTVSPost2010PropOp39
 70
     1
102
RTVSPost2010Prop40
 90
        0
102
RTVSPost2010PropOp40
 70
     1
102
RTVSPost2010Prop41ColorIndex
 90
       18
102
RTVSPost2010Prop41ColorRGB
 90
        0
102
RTVSPost2010PropOp41
 70
     1
102
RTVSPost2010Prop42
 90
       50
102
RTVSPost2010PropOp42
 70
     1
102
RTVSPost2010Prop43
 90
        3
102
RTVSPost2010PropOp43
 70
     1
102
RTVSPost2010Prop44ColorIndex
 90
        5
102
RTVSPost2010Prop44ColorRGB
 90
      255
102
RTVSPost2010PropOp44
 70
     1
102
RTVSPost2010Prop45
280
     0
102
RTVSPost2010PropOp45
 70
     1
102
RTVSPost2010Prop46
 90
       50
102
RTVSPost2010PropOp46
 70
     1
102
RTVSPost2010Prop47
 90
       50
102
RTVSPost2010PropOp47
 70
     1
102
RTVSPost2010Prop48
 90
       50
102
RTVSPost2010PropOp48
 70
     1
102
RTVSPost2010Prop49
280
     0
102
RTVSPost2010PropOp49
 70
     1
102
RTVSPost2010Prop50
 90
       50
102
RTVSPost2010PropOp50
 70
     1
102
RTVSPost2010Prop51ColorIndex
 90
      256
102
RTVSPost2010Prop51ColorRGB
 90
-16777216
102
RTVSPost2010PropOp51
 70
     0
102
RTVSPost2010Prop52
140
1.0
102
RTVSPost2010PropOp52
 70
     0
102
RTVSPost2010Prop53
 90
        2
102
RTVSPost2010PropOp53
 70
     1
102
RTVSPost2010Prop54
  1
strokes_ogs.tif
102
RTVSPost2010PropOp54
 70
     1
102
RTVSPost2010Prop55
280
     0
102
RTVSPost2010PropOp55
 70
     1
102
RTVSPost2010Prop56
140
1.0
102
RTVSPost2010PropOp56
 70
     1
102
RTVSPost2010Prop57
140
1.0
102
RTVSPost2010PropOp57
 70
     1
102
RTVSPropertyOp0
 70
     1
102
RTVSPropertyOp1
 70
     1
102
RTVSPropertyOp2
 70
     1
102
RTVSPropertyOp3
 70
     1
102
RTVSPropertyOp4
 70
     1
102
RTVSPropertyOp5
 70
     1
102
RTVSPropertyOp6
 70
     1
102
RTVSPropertyOp7
 70
     1
102
RTVSPropertyOp8
 70
     1
102
RTVSPropertyOp9
 70
     1
102
RTVSPropertyOp10
 70
     1
102
RTVSPropertyOp11
 70
     1
102
RTVSPropertyOp12
 70
     1
102
RTVSPropertyOp13
 70
     1
102
RTVSPropertyOp14
 70
     1
102
RTVSPropertyOp15
 70
     1
102
RTVSPropertyOp16
 70
     1
102
RTVSPropertyOp17
 70
     1
102
RTVSPropertyOp18
 70
     1
102
RTVSPropertyOp19
 70
     1
102
RTVSPropertyOp20
 70
     1
102
RTVSPropertyOp21
 70
     1
102
RTVSPropertyOp22
 70
     1
102
RTVSPropertyOp23
 70
     1
102
RTVSPropertyOp24
 70
     1
102
RTVSPropertyOp25
 70
     1
102
RTVSPropertyOp26
 70
     1
102
RTVSPropertyOp27
 70
     1
102
RTVSPropertyOp28
 70
     1
102
RTVSPropertyOp29
 70
     1
102
RTVSPropertyOp30
 70
     1
102
RTVSPropertyOp31
 70
     1
102
RTVSPropertyOp32
 70
     1
102
RTVSPropertyOp33
 70
     1
102
RTVSPropertyOp34
 70
     1
102
RTVSPropertyOp35
 70
     1
102
RTVSPropertyOp36
 70
     1
102
RTVSPropertyOp37
 70
     1
102
RTVSPropertyOp38
 70
     1
102
RTVSPropertyOp39
 70
     1
102
RTVSPropertyOp40
 70
     1
102
RTVSPropertyOp41
 70
     1
102
RTVSPropertyOp42
 70
     1
102
RTVSPropertyOp43
 70
     1
102
RTVSPropertyOp44
 70
     1
102
RTVSPropertyOp45
 70
     1
102
RTVSPropertyOp46
 70
     1
102
RTVSPropertyOp47
 70
     1
102
RTVSPropertyOp48
 70
     1
102
RTVSPropertyOp49
 70
     1
102
RTVSPropertyOp50
 70
     1
102
RTVSPropertyOp51
 70
     0
102
RTVSPropertyOp52
 70
     0
102
RTVSPropertyOp53
 70
     1
102
RTVSPropertyOp54
 70
     1
102
RTVSPropertyOp55
 70
     1
102
RTVSPropertyOp56
 70
     1
102
RTVSPropertyOp57
 70
     1
102
RTVSPropertyOp58
 70
     1
102
RTVSPropertyOp59
 70
     1
102
RTVSPropertyOp60
 70
     1
102
RTVSPropertyOp61
 70
     1
102
RTVSPropertyOp62
 70
     1
  0
XRECORD
  5
C4AB2
102
{ACAD_REACTORS
330
C4AB1
102
}
330
C4AB1
100
AcDbXrecord
280
     1
102
RTVSPost2010Prop28
280
     0
102
RTVSPost2010PropOp28
 70
     1
102
RTVSPost2010Prop29
280
     1
102
RTVSPost2010PropOp29
 70
     1
102
RTVSPost2010Prop30
280
     1
102
RTVSPost2010PropOp30
 70
     1
102
RTVSPost2010Prop31
280
     0
102
RTVSPost2010PropOp31
 70
     1
102
RTVSPost2010Prop32
280
     0
102
RTVSPost2010PropOp32
 70
     1
102
RTVSPost2010Prop33
280
     0
102
RTVSPost2010PropOp33
 70
     1
102
RTVSPost2010Prop34
280
     0
102
RTVSPost2010PropOp34
 70
     1
102
RTVSPost2010Prop35
280
     0
102
RTVSPost2010PropOp35
 70
     1
102
RTVSPost2010Prop36
280
     0
102
RTVSPost2010PropOp36
 70
     1
102
RTVSPost2010Prop37
 90
       50
102
RTVSPost2010PropOp37
 70
     1
102
RTVSPost2010Prop38
140
0.0
102
RTVSPost2010PropOp38
 70
     1
102
RTVSPost2010Prop39
140
1.0
102
RTVSPost2010PropOp39
 70
     1
102
RTVSPost2010Prop40
 90
        0
102
RTVSPost2010PropOp40
 70
     1
102
RTVSPost2010Prop41ColorIndex
 90
       18
102
RTVSPost2010Prop41ColorRGB
 90
        0
102
RTVSPost2010PropOp41
 70
     1
102
RTVSPost2010Prop42
 90
       50
102
RTVSPost2010PropOp42
 70
     1
102
RTVSPost2010Prop43
 90
        3
102
RTVSPost2010PropOp43
 70
     1
102
RTVSPost2010Prop44ColorIndex
 90
        5
102
RTVSPost2010Prop44ColorRGB
 90
      255
102
RTVSPost2010PropOp44
 70
     1
102
RTVSPost2010Prop45
280
     0
102
RTVSPost2010PropOp45
 70
     1
102
RTVSPost2010Prop46
 90
       50
102
RTVSPost2010PropOp46
 70
     1
102
RTVSPost2010Prop47
 90
       50
102
RTVSPost2010PropOp47
 70
     1
102
RTVSPost2010Prop48
 90
       50
102
RTVSPost2010PropOp48
 70
     1
102
RTVSPost2010Prop49
280
     0
102
RTVSPost2010PropOp49
 70
     1
102
RTVSPost2010Prop50
 90
       50
102
RTVSPost2010PropOp50
 70
     1
102
RTVSPost2010Prop51ColorIndex
 90
      256
102
RTVSPost2010Prop51ColorRGB
 90
-16777216
102
RTVSPost2010PropOp51
 70
     0
102
RTVSPost2010Prop52
140
1.0
102
RTVSPost2010PropOp52
 70
     0
102
RTVSPost2010Prop53
 90
        2
102
RTVSPost2010PropOp53
 70
     1
102
RTVSPost2010Prop54
  1
strokes_ogs.tif
102
RTVSPost2010PropOp54
 70
     1
102
RTVSPost2010Prop55
280
     0
102
RTVSPost2010PropOp55
 70
     1
102
RTVSPost2010Prop56
140
1.0
102
RTVSPost2010PropOp56
 70
     1
102
RTVSPost2010Prop57
140
1.0
102
RTVSPost2010PropOp57
 70
     1
102
RTVSPropertyOp0
 70
     1
102
RTVSPropertyOp1
 70
     1
102
RTVSPropertyOp2
 70
     1
102
RTVSPropertyOp3
 70
     1
102
RTVSPropertyOp4
 70
     1
102
RTVSPropertyOp5
 70
     1
102
RTVSPropertyOp6
 70
     1
102
RTVSPropertyOp7
 70
     1
102
RTVSPropertyOp8
 70
     1
102
RTVSPropertyOp9
 70
     1
102
RTVSPropertyOp10
 70
     1
102
RTVSPropertyOp11
 70
     1
102
RTVSPropertyOp12
 70
     1
102
RTVSPropertyOp13
 70
     1
102
RTVSPropertyOp14
 70
     1
102
RTVSPropertyOp15
 70
     1
102
RTVSPropertyOp16
 70
     1
102
RTVSPropertyOp17
 70
     1
102
RTVSPropertyOp18
 70
     1
102
RTVSPropertyOp19
 70
     1
102
RTVSPropertyOp20
 70
     1
102
RTVSPropertyOp21
 70
     1
102
RTVSPropertyOp22
 70
     1
102
RTVSPropertyOp23
 70
     1
102
RTVSPropertyOp24
 70
     1
102
RTVSPropertyOp25
 70
     1
102
RTVSPropertyOp26
 70
     1
102
RTVSPropertyOp27
 70
     1
102
RTVSPropertyOp28
 70
     1
102
RTVSPropertyOp29
 70
     1
102
RTVSPropertyOp30
 70
     1
102
RTVSPropertyOp31
 70
     1
102
RTVSPropertyOp32
 70
     1
102
RTVSPropertyOp33
 70
     1
102
RTVSPropertyOp34
 70
     1
102
RTVSPropertyOp35
 70
     1
102
RTVSPropertyOp36
 70
     1
102
RTVSPropertyOp37
 70
     1
102
RTVSPropertyOp38
 70
     1
102
RTVSPropertyOp39
 70
     1
102
RTVSPropertyOp40
 70
     1
102
RTVSPropertyOp41
 70
     1
102
RTVSPropertyOp42
 70
     1
102
RTVSPropertyOp43
 70
     1
102
RTVSPropertyOp44
 70
     1
102
RTVSPropertyOp45
 70
     1
102
RTVSPropertyOp46
 70
     1
102
RTVSPropertyOp47
 70
     1
102
RTVSPropertyOp48
 70
     1
102
RTVSPropertyOp49
 70
     1
102
RTVSPropertyOp50
 70
     1
102
RTVSPropertyOp51
 70
     0
102
RTVSPropertyOp52
 70
     0
102
RTVSPropertyOp53
 70
     1
102
RTVSPropertyOp54
 70
     1
102
RTVSPropertyOp55
 70
     1
102
RTVSPropertyOp56
 70
     1
102
RTVSPropertyOp57
 70
     1
102
RTVSPropertyOp58
 70
     1
102
RTVSPropertyOp59
 70
     1
102
RTVSPropertyOp60
 70
     1
102
RTVSPropertyOp61
 70
     1
102
RTVSPropertyOp62
 70
     1
  0
XRECORD
  5
C4AB4
102
{ACAD_REACTORS
330
C4AB3
102
}
330
C4AB3
100
AcDbXrecord
280
     1
102
RTVSPost2010Prop28
280
     0
102
RTVSPost2010PropOp28
 70
     1
102
RTVSPost2010Prop29
280
     1
102
RTVSPost2010PropOp29
 70
     1
102
RTVSPost2010Prop30
280
     1
102
RTVSPost2010PropOp30
 70
     1
102
RTVSPost2010Prop31
280
     0
102
RTVSPost2010PropOp31
 70
     1
102
RTVSPost2010Prop32
280
     0
102
RTVSPost2010PropOp32
 70
     1
102
RTVSPost2010Prop33
280
     0
102
RTVSPost2010PropOp33
 70
     1
102
RTVSPost2010Prop34
280
     0
102
RTVSPost2010PropOp34
 70
     1
102
RTVSPost2010Prop35
280
     0
102
RTVSPost2010PropOp35
 70
     1
102
RTVSPost2010Prop36
280
     0
102
RTVSPost2010PropOp36
 70
     1
102
RTVSPost2010Prop37
 90
       50
102
RTVSPost2010PropOp37
 70
     1
102
RTVSPost2010Prop38
140
0.0
102
RTVSPost2010PropOp38
 70
     1
102
RTVSPost2010Prop39
140
1.0
102
RTVSPost2010PropOp39
 70
     1
102
RTVSPost2010Prop40
 90
        0
102
RTVSPost2010PropOp40
 70
     1
102
RTVSPost2010Prop41ColorIndex
 90
       18
102
RTVSPost2010Prop41ColorRGB
 90
        0
102
RTVSPost2010PropOp41
 70
     1
102
RTVSPost2010Prop42
 90
       50
102
RTVSPost2010PropOp42
 70
     1
102
RTVSPost2010Prop43
 90
        3
102
RTVSPost2010PropOp43
 70
     1
102
RTVSPost2010Prop44ColorIndex
 90
        5
102
RTVSPost2010Prop44ColorRGB
 90
      255
102
RTVSPost2010PropOp44
 70
     1
102
RTVSPost2010Prop45
280
     0
102
RTVSPost2010PropOp45
 70
     1
102
RTVSPost2010Prop46
 90
       50
102
RTVSPost2010PropOp46
 70
     1
102
RTVSPost2010Prop47
 90
       50
102
RTVSPost2010PropOp47
 70
     1
102
RTVSPost2010Prop48
 90
       50
102
RTVSPost2010PropOp48
 70
     1
102
RTVSPost2010Prop49
280
     0
102
RTVSPost2010PropOp49
 70
     1
102
RTVSPost2010Prop50
 90
       50
102
RTVSPost2010PropOp50
 70
     1
102
RTVSPost2010Prop51ColorIndex
 90
      256
102
RTVSPost2010Prop51ColorRGB
 90
-16777216
102
RTVSPost2010PropOp51
 70
     0
102
RTVSPost2010Prop52
140
1.0
102
RTVSPost2010PropOp52
 70
     0
102
RTVSPost2010Prop53
 90
        2
102
RTVSPost2010PropOp53
 70
     1
102
RTVSPost2010Prop54
  1
strokes_ogs.tif
102
RTVSPost2010PropOp54
 70
     1
102
RTVSPost2010Prop55
280
     0
102
RTVSPost2010PropOp55
 70
     1
102
RTVSPost2010Prop56
140
1.0
102
RTVSPost2010PropOp56
 70
     1
102
RTVSPost2010Prop57
140
1.0
102
RTVSPost2010PropOp57
 70
     1
102
RTVSPropertyOp0
 70
     1
102
RTVSPropertyOp1
 70
     1
102
RTVSPropertyOp2
 70
     1
102
RTVSPropertyOp3
 70
     1
102
RTVSPropertyOp4
 70
     1
102
RTVSPropertyOp5
 70
     1
102
RTVSPropertyOp6
 70
     1
102
RTVSPropertyOp7
 70
     1
102
RTVSPropertyOp8
 70
     1
102
RTVSPropertyOp9
 70
     1
102
RTVSPropertyOp10
 70
     1
102
RTVSPropertyOp11
 70
     1
102
RTVSPropertyOp12
 70
     1
102
RTVSPropertyOp13
 70
     1
102
RTVSPropertyOp14
 70
     1
102
RTVSPropertyOp15
 70
     1
102
RTVSPropertyOp16
 70
     1
102
RTVSPropertyOp17
 70
     1
102
RTVSPropertyOp18
 70
     1
102
RTVSPropertyOp19
 70
     1
102
RTVSPropertyOp20
 70
     1
102
RTVSPropertyOp21
 70
     1
102
RTVSPropertyOp22
 70
     1
102
RTVSPropertyOp23
 70
     1
102
RTVSPropertyOp24
 70
     1
102
RTVSPropertyOp25
 70
     1
102
RTVSPropertyOp26
 70
     1
102
RTVSPropertyOp27
 70
     1
102
RTVSPropertyOp28
 70
     1
102
RTVSPropertyOp29
 70
     1
102
RTVSPropertyOp30
 70
     1
102
RTVSPropertyOp31
 70
     1
102
RTVSPropertyOp32
 70
     1
102
RTVSPropertyOp33
 70
     1
102
RTVSPropertyOp34
 70
     1
102
RTVSPropertyOp35
 70
     1
102
RTVSPropertyOp36
 70
     1
102
RTVSPropertyOp37
 70
     1
102
RTVSPropertyOp38
 70
     1
102
RTVSPropertyOp39
 70
     1
102
RTVSPropertyOp40
 70
     1
102
RTVSPropertyOp41
 70
     1
102
RTVSPropertyOp42
 70
     1
102
RTVSPropertyOp43
 70
     1
102
RTVSPropertyOp44
 70
     1
102
RTVSPropertyOp45
 70
     1
102
RTVSPropertyOp46
 70
     1
102
RTVSPropertyOp47
 70
     1
102
RTVSPropertyOp48
 70
     1
102
RTVSPropertyOp49
 70
     1
102
RTVSPropertyOp50
 70
     1
102
RTVSPropertyOp51
 70
     0
102
RTVSPropertyOp52
 70
     0
102
RTVSPropertyOp53
 70
     1
102
RTVSPropertyOp54
 70
     1
102
RTVSPropertyOp55
 70
     1
102
RTVSPropertyOp56
 70
     1
102
RTVSPropertyOp57
 70
     1
102
RTVSPropertyOp58
 70
     1
102
RTVSPropertyOp59
 70
     1
102
RTVSPropertyOp60
 70
     1
102
RTVSPropertyOp61
 70
     1
102
RTVSPropertyOp62
 70
     1
  0
XRECORD
  5
C4AB6
102
{ACAD_REACTORS
330
C4AB5
102
}
330
C4AB5
100
AcDbXrecord
280
     1
102
RTVSPost2010Prop28
280
     0
102
RTVSPost2010PropOp28
 70
     1
102
RTVSPost2010Prop29
280
     1
102
RTVSPost2010PropOp29
 70
     1
102
RTVSPost2010Prop30
280
     1
102
RTVSPost2010PropOp30
 70
     1
102
RTVSPost2010Prop31
280
     0
102
RTVSPost2010PropOp31
 70
     1
102
RTVSPost2010Prop32
280
     0
102
RTVSPost2010PropOp32
 70
     1
102
RTVSPost2010Prop33
280
     0
102
RTVSPost2010PropOp33
 70
     1
102
RTVSPost2010Prop34
280
     0
102
RTVSPost2010PropOp34
 70
     1
102
RTVSPost2010Prop35
280
     0
102
RTVSPost2010PropOp35
 70
     1
102
RTVSPost2010Prop36
280
     0
102
RTVSPost2010PropOp36
 70
     1
102
RTVSPost2010Prop37
 90
       50
102
RTVSPost2010PropOp37
 70
     1
102
RTVSPost2010Prop38
140
0.0
102
RTVSPost2010PropOp38
 70
     1
102
RTVSPost2010Prop39
140
1.0
102
RTVSPost2010PropOp39
 70
     1
102
RTVSPost2010Prop40
 90
        0
102
RTVSPost2010PropOp40
 70
     1
102
RTVSPost2010Prop41ColorIndex
 90
       18
102
RTVSPost2010Prop41ColorRGB
 90
        0
102
RTVSPost2010PropOp41
 70
     1
102
RTVSPost2010Prop42
 90
       50
102
RTVSPost2010PropOp42
 70
     1
102
RTVSPost2010Prop43
 90
        3
102
RTVSPost2010PropOp43
 70
     1
102
RTVSPost2010Prop44ColorIndex
 90
        5
102
RTVSPost2010Prop44ColorRGB
 90
      255
102
RTVSPost2010PropOp44
 70
     1
102
RTVSPost2010Prop45
280
     0
102
RTVSPost2010PropOp45
 70
     1
102
RTVSPost2010Prop46
 90
       50
102
RTVSPost2010PropOp46
 70
     1
102
RTVSPost2010Prop47
 90
       50
102
RTVSPost2010PropOp47
 70
     1
102
RTVSPost2010Prop48
 90
       50
102
RTVSPost2010PropOp48
 70
     1
102
RTVSPost2010Prop49
280
     0
102
RTVSPost2010PropOp49
 70
     1
102
RTVSPost2010Prop50
 90
       50
102
RTVSPost2010PropOp50
 70
     1
102
RTVSPost2010Prop51ColorIndex
 90
      256
102
RTVSPost2010Prop51ColorRGB
 90
-16777216
102
RTVSPost2010PropOp51
 70
     0
102
RTVSPost2010Prop52
140
1.0
102
RTVSPost2010PropOp52
 70
     0
102
RTVSPost2010Prop53
 90
        2
102
RTVSPost2010PropOp53
 70
     1
102
RTVSPost2010Prop54
  1
strokes_ogs.tif
102
RTVSPost2010PropOp54
 70
     1
102
RTVSPost2010Prop55
280
     0
102
RTVSPost2010PropOp55
 70
     1
102
RTVSPost2010Prop56
140
1.0
102
RTVSPost2010PropOp56
 70
     1
102
RTVSPost2010Prop57
140
1.0
102
RTVSPost2010PropOp57
 70
     1
102
RTVSPropertyOp0
 70
     1
102
RTVSPropertyOp1
 70
     1
102
RTVSPropertyOp2
 70
     1
102
RTVSPropertyOp3
 70
     1
102
RTVSPropertyOp4
 70
     1
102
RTVSPropertyOp5
 70
     1
102
RTVSPropertyOp6
 70
     1
102
RTVSPropertyOp7
 70
     1
102
RTVSPropertyOp8
 70
     1
102
RTVSPropertyOp9
 70
     1
102
RTVSPropertyOp10
 70
     1
102
RTVSPropertyOp11
 70
     1
102
RTVSPropertyOp12
 70
     1
102
RTVSPropertyOp13
 70
     1
102
RTVSPropertyOp14
 70
     1
102
RTVSPropertyOp15
 70
     1
102
RTVSPropertyOp16
 70
     1
102
RTVSPropertyOp17
 70
     1
102
RTVSPropertyOp18
 70
     1
102
RTVSPropertyOp19
 70
     1
102
RTVSPropertyOp20
 70
     1
102
RTVSPropertyOp21
 70
     1
102
RTVSPropertyOp22
 70
     1
102
RTVSPropertyOp23
 70
     1
102
RTVSPropertyOp24
 70
     1
102
RTVSPropertyOp25
 70
     1
102
RTVSPropertyOp26
 70
     1
102
RTVSPropertyOp27
 70
     1
102
RTVSPropertyOp28
 70
     1
102
RTVSPropertyOp29
 70
     1
102
RTVSPropertyOp30
 70
     1
102
RTVSPropertyOp31
 70
     1
102
RTVSPropertyOp32
 70
     1
102
RTVSPropertyOp33
 70
     1
102
RTVSPropertyOp34
 70
     1
102
RTVSPropertyOp35
 70
     1
102
RTVSPropertyOp36
 70
     1
102
RTVSPropertyOp37
 70
     1
102
RTVSPropertyOp38
 70
     1
102
RTVSPropertyOp39
 70
     1
102
RTVSPropertyOp40
 70
     1
102
RTVSPropertyOp41
 70
     1
102
RTVSPropertyOp42
 70
     1
102
RTVSPropertyOp43
 70
     1
102
RTVSPropertyOp44
 70
     1
102
RTVSPropertyOp45
 70
     1
102
RTVSPropertyOp46
 70
     1
102
RTVSPropertyOp47
 70
     1
102
RTVSPropertyOp48
 70
     1
102
RTVSPropertyOp49
 70
     1
102
RTVSPropertyOp50
 70
     1
102
RTVSPropertyOp51
 70
     0
102
RTVSPropertyOp52
 70
     0
102
RTVSPropertyOp53
 70
     1
102
RTVSPropertyOp54
 70
     1
102
RTVSPropertyOp55
 70
     1
102
RTVSPropertyOp56
 70
     1
102
RTVSPropertyOp57
 70
     1
102
RTVSPropertyOp58
 70
     1
102
RTVSPropertyOp59
 70
     1
102
RTVSPropertyOp60
 70
     1
102
RTVSPropertyOp61
 70
     1
102
RTVSPropertyOp62
 70
     1
  0
XRECORD
  5
C4AB8
102
{ACAD_REACTORS
330
C4AB7
102
}
330
C4AB7
100
AcDbXrecord
280
     1
102
RTVSPost2010Prop28
280
     0
102
RTVSPost2010PropOp28
 70
     1
102
RTVSPost2010Prop29
280
     1
102
RTVSPost2010PropOp29
 70
     1
102
RTVSPost2010Prop30
280
     1
102
RTVSPost2010PropOp30
 70
     1
102
RTVSPost2010Prop31
280
     0
102
RTVSPost2010PropOp31
 70
     1
102
RTVSPost2010Prop32
280
     0
102
RTVSPost2010PropOp32
 70
     1
102
RTVSPost2010Prop33
280
     0
102
RTVSPost2010PropOp33
 70
     1
102
RTVSPost2010Prop34
280
     0
102
RTVSPost2010PropOp34
 70
     1
102
RTVSPost2010Prop35
280
     0
102
RTVSPost2010PropOp35
 70
     1
102
RTVSPost2010Prop36
280
     0
102
RTVSPost2010PropOp36
 70
     1
102
RTVSPost2010Prop37
 90
       50
102
RTVSPost2010PropOp37
 70
     1
102
RTVSPost2010Prop38
140
0.0
102
RTVSPost2010PropOp38
 70
     1
102
RTVSPost2010Prop39
140
1.0
102
RTVSPost2010PropOp39
 70
     1
102
RTVSPost2010Prop40
 90
        0
102
RTVSPost2010PropOp40
 70
     1
102
RTVSPost2010Prop41ColorIndex
 90
       18
102
RTVSPost2010Prop41ColorRGB
 90
        0
102
RTVSPost2010PropOp41
 70
     1
102
RTVSPost2010Prop42
 90
       50
102
RTVSPost2010PropOp42
 70
     1
102
RTVSPost2010Prop43
 90
        3
102
RTVSPost2010PropOp43
 70
     1
102
RTVSPost2010Prop44ColorIndex
 90
        5
102
RTVSPost2010Prop44ColorRGB
 90
      255
102
RTVSPost2010PropOp44
 70
     1
102
RTVSPost2010Prop45
280
     0
102
RTVSPost2010PropOp45
 70
     1
102
RTVSPost2010Prop46
 90
       50
102
RTVSPost2010PropOp46
 70
     1
102
RTVSPost2010Prop47
 90
       50
102
RTVSPost2010PropOp47
 70
     1
102
RTVSPost2010Prop48
 90
       50
102
RTVSPost2010PropOp48
 70
     1
102
RTVSPost2010Prop49
280
     0
102
RTVSPost2010PropOp49
 70
     1
102
RTVSPost2010Prop50
 90
       50
102
RTVSPost2010PropOp50
 70
     1
102
RTVSPost2010Prop51ColorIndex
 90
      256
102
RTVSPost2010Prop51ColorRGB
 90
-16777216
102
RTVSPost2010PropOp51
 70
     0
102
RTVSPost2010Prop52
140
1.0
102
RTVSPost2010PropOp52
 70
     0
102
RTVSPost2010Prop53
 90
        2
102
RTVSPost2010PropOp53
 70
     1
102
RTVSPost2010Prop54
  1
strokes_ogs.tif
102
RTVSPost2010PropOp54
 70
     1
102
RTVSPost2010Prop55
280
     0
102
RTVSPost2010PropOp55
 70
     1
102
RTVSPost2010Prop56
140
1.0
102
RTVSPost2010PropOp56
 70
     1
102
RTVSPost2010Prop57
140
1.0
102
RTVSPost2010PropOp57
 70
     1
102
RTVSPropertyOp0
 70
     1
102
RTVSPropertyOp1
 70
     1
102
RTVSPropertyOp2
 70
     1
102
RTVSPropertyOp3
 70
     1
102
RTVSPropertyOp4
 70
     1
102
RTVSPropertyOp5
 70
     1
102
RTVSPropertyOp6
 70
     1
102
RTVSPropertyOp7
 70
     1
102
RTVSPropertyOp8
 70
     1
102
RTVSPropertyOp9
 70
     1
102
RTVSPropertyOp10
 70
     1
102
RTVSPropertyOp11
 70
     1
102
RTVSPropertyOp12
 70
     1
102
RTVSPropertyOp13
 70
     1
102
RTVSPropertyOp14
 70
     1
102
RTVSPropertyOp15
 70
     1
102
RTVSPropertyOp16
 70
     1
102
RTVSPropertyOp17
 70
     1
102
RTVSPropertyOp18
 70
     1
102
RTVSPropertyOp19
 70
     1
102
RTVSPropertyOp20
 70
     1
102
RTVSPropertyOp21
 70
     1
102
RTVSPropertyOp22
 70
     1
102
RTVSPropertyOp23
 70
     1
102
RTVSPropertyOp24
 70
     1
102
RTVSPropertyOp25
 70
     1
102
RTVSPropertyOp26
 70
     1
102
RTVSPropertyOp27
 70
     1
102
RTVSPropertyOp28
 70
     1
102
RTVSPropertyOp29
 70
     1
102
RTVSPropertyOp30
 70
     1
102
RTVSPropertyOp31
 70
     1
102
RTVSPropertyOp32
 70
     1
102
RTVSPropertyOp33
 70
     1
102
RTVSPropertyOp34
 70
     1
102
RTVSPropertyOp35
 70
     1
102
RTVSPropertyOp36
 70
     1
102
RTVSPropertyOp37
 70
     1
102
RTVSPropertyOp38
 70
     1
102
RTVSPropertyOp39
 70
     1
102
RTVSPropertyOp40
 70
     1
102
RTVSPropertyOp41
 70
     1
102
RTVSPropertyOp42
 70
     1
102
RTVSPropertyOp43
 70
     1
102
RTVSPropertyOp44
 70
     1
102
RTVSPropertyOp45
 70
     1
102
RTVSPropertyOp46
 70
     1
102
RTVSPropertyOp47
 70
     1
102
RTVSPropertyOp48
 70
     1
102
RTVSPropertyOp49
 70
     1
102
RTVSPropertyOp50
 70
     1
102
RTVSPropertyOp51
 70
     0
102
RTVSPropertyOp52
 70
     0
102
RTVSPropertyOp53
 70
     1
102
RTVSPropertyOp54
 70
     1
102
RTVSPropertyOp55
 70
     1
102
RTVSPropertyOp56
 70
     1
102
RTVSPropertyOp57
 70
     1
102
RTVSPropertyOp58
 70
     1
102
RTVSPropertyOp59
 70
     1
102
RTVSPropertyOp60
 70
     1
102
RTVSPropertyOp61
 70
     1
102
RTVSPropertyOp62
 70
     1
  0
XRECORD
  5
C4ABE
102
{ACAD_REACTORS
330
C4ABD
102
}
330
C4ABD
100
AcDbXrecord
280
     1
102
RTVSPost2010Prop28
280
     0
102
RTVSPost2010PropOp28
 70
     1
102
RTVSPost2010Prop29
280
     1
102
RTVSPost2010PropOp29
 70
     1
102
RTVSPost2010Prop30
280
     1
102
RTVSPost2010PropOp30
 70
     1
102
RTVSPost2010Prop31
280
     0
102
RTVSPost2010PropOp31
 70
     1
102
RTVSPost2010Prop32
280
     0
102
RTVSPost2010PropOp32
 70
     1
102
RTVSPost2010Prop33
280
     0
102
RTVSPost2010PropOp33
 70
     1
102
RTVSPost2010Prop34
280
     0
102
RTVSPost2010PropOp34
 70
     1
102
RTVSPost2010Prop35
280
     0
102
RTVSPost2010PropOp35
 70
     1
102
RTVSPost2010Prop36
280
     0
102
RTVSPost2010PropOp36
 70
     1
102
RTVSPost2010Prop37
 90
       50
102
RTVSPost2010PropOp37
 70
     1
102
RTVSPost2010Prop38
140
0.0
102
RTVSPost2010PropOp38
 70
     1
102
RTVSPost2010Prop39
140
1.0
102
RTVSPost2010PropOp39
 70
     1
102
RTVSPost2010Prop40
 90
        0
102
RTVSPost2010PropOp40
 70
     1
102
RTVSPost2010Prop41ColorIndex
 90
       18
102
RTVSPost2010Prop41ColorRGB
 90
        0
102
RTVSPost2010PropOp41
 70
     1
102
RTVSPost2010Prop42
 90
       50
102
RTVSPost2010PropOp42
 70
     1
102
RTVSPost2010Prop43
 90
        3
102
RTVSPost2010PropOp43
 70
     1
102
RTVSPost2010Prop44ColorIndex
 90
        5
102
RTVSPost2010Prop44ColorRGB
 90
      255
102
RTVSPost2010PropOp44
 70
     1
102
RTVSPost2010Prop45
280
     0
102
RTVSPost2010PropOp45
 70
     1
102
RTVSPost2010Prop46
 90
       50
102
RTVSPost2010PropOp46
 70
     1
102
RTVSPost2010Prop47
 90
       50
102
RTVSPost2010PropOp47
 70
     1
102
RTVSPost2010Prop48
 90
       50
102
RTVSPost2010PropOp48
 70
     1
102
RTVSPost2010Prop49
280
     0
102
RTVSPost2010PropOp49
 70
     1
102
RTVSPost2010Prop50
 90
       50
102
RTVSPost2010PropOp50
 70
     1
102
RTVSPost2010Prop51ColorIndex
 90
      256
102
RTVSPost2010Prop51ColorRGB
 90
-16777216
102
RTVSPost2010PropOp51
 70
     0
102
RTVSPost2010Prop52
140
1.0
102
RTVSPost2010PropOp52
 70
     0
102
RTVSPost2010Prop53
 90
        2
102
RTVSPost2010PropOp53
 70
     1
102
RTVSPost2010Prop54
  1
strokes_ogs.tif
102
RTVSPost2010PropOp54
 70
     1
102
RTVSPost2010Prop55
280
     0
102
RTVSPost2010PropOp55
 70
     1
102
RTVSPost2010Prop56
140
1.0
102
RTVSPost2010PropOp56
 70
     1
102
RTVSPost2010Prop57
140
1.0
102
RTVSPost2010PropOp57
 70
     1
102
RTVSPropertyOp0
 70
     1
102
RTVSPropertyOp1
 70
     1
102
RTVSPropertyOp2
 70
     1
102
RTVSPropertyOp3
 70
     1
102
RTVSPropertyOp4
 70
     1
102
RTVSPropertyOp5
 70
     1
102
RTVSPropertyOp6
 70
     1
102
RTVSPropertyOp7
 70
     1
102
RTVSPropertyOp8
 70
     1
102
RTVSPropertyOp9
 70
     1
102
RTVSPropertyOp10
 70
     1
102
RTVSPropertyOp11
 70
     1
102
RTVSPropertyOp12
 70
     1
102
RTVSPropertyOp13
 70
     1
102
RTVSPropertyOp14
 70
     1
102
RTVSPropertyOp15
 70
     1
102
RTVSPropertyOp16
 70
     1
102
RTVSPropertyOp17
 70
     1
102
RTVSPropertyOp18
 70
     1
102
RTVSPropertyOp19
 70
     1
102
RTVSPropertyOp20
 70
     1
102
RTVSPropertyOp21
 70
     1
102
RTVSPropertyOp22
 70
     1
102
RTVSPropertyOp23
 70
     1
102
RTVSPropertyOp24
 70
     1
102
RTVSPropertyOp25
 70
     1
102
RTVSPropertyOp26
 70
     1
102
RTVSPropertyOp27
 70
     1
102
RTVSPropertyOp28
 70
     1
102
RTVSPropertyOp29
 70
     1
102
RTVSPropertyOp30
 70
     1
102
RTVSPropertyOp31
 70
     1
102
RTVSPropertyOp32
 70
     1
102
RTVSPropertyOp33
 70
     1
102
RTVSPropertyOp34
 70
     1
102
RTVSPropertyOp35
 70
     1
102
RTVSPropertyOp36
 70
     1
102
RTVSPropertyOp37
 70
     1
102
RTVSPropertyOp38
 70
     1
102
RTVSPropertyOp39
 70
     1
102
RTVSPropertyOp40
 70
     1
102
RTVSPropertyOp41
 70
     1
102
RTVSPropertyOp42
 70
     1
102
RTVSPropertyOp43
 70
     1
102
RTVSPropertyOp44
 70
     1
102
RTVSPropertyOp45
 70
     1
102
RTVSPropertyOp46
 70
     1
102
RTVSPropertyOp47
 70
     1
102
RTVSPropertyOp48
 70
     1
102
RTVSPropertyOp49
 70
     1
102
RTVSPropertyOp50
 70
     1
102
RTVSPropertyOp51
 70
     0
102
RTVSPropertyOp52
 70
     0
102
RTVSPropertyOp53
 70
     1
102
RTVSPropertyOp54
 70
     1
102
RTVSPropertyOp55
 70
     1
102
RTVSPropertyOp56
 70
     1
102
RTVSPropertyOp57
 70
     1
102
RTVSPropertyOp58
 70
     1
102
RTVSPropertyOp59
 70
     1
102
RTVSPropertyOp60
 70
     1
102
RTVSPropertyOp61
 70
     1
102
RTVSPropertyOp62
 70
     1
  0
XRECORD
  5
C4AD2
102
{ACAD_REACTORS
330
C4AD1
102
}
330
C4AD1
100
AcDbXrecord
280
     1
102
RTVSPost2010Prop28
280
     0
102
RTVSPost2010PropOp28
 70
     0
102
RTVSPost2010Prop29
280
     1
102
RTVSPost2010PropOp29
 70
     0
102
RTVSPost2010Prop30
280
     1
102
RTVSPost2010PropOp30
 70
     0
102
RTVSPost2010Prop31
280
     0
102
RTVSPost2010PropOp31
 70
     0
102
RTVSPost2010Prop32
280
     0
102
RTVSPost2010PropOp32
 70
     0
102
RTVSPost2010Prop33
280
     0
102
RTVSPost2010PropOp33
 70
     0
102
RTVSPost2010Prop34
280
     0
102
RTVSPost2010PropOp34
 70
     0
102
RTVSPost2010Prop35
280
     0
102
RTVSPost2010PropOp35
 70
     0
102
RTVSPost2010Prop36
280
     0
102
RTVSPost2010PropOp36
 70
     0
102
RTVSPost2010Prop37
 90
       50
102
RTVSPost2010PropOp37
 70
     0
102
RTVSPost2010Prop38
140
0.0
102
RTVSPost2010PropOp38
 70
     0
102
RTVSPost2010Prop39
140
1.0
102
RTVSPost2010PropOp39
 70
     0
102
RTVSPost2010Prop40
 90
        0
102
RTVSPost2010PropOp40
 70
     0
102
RTVSPost2010Prop41ColorIndex
 90
       18
102
RTVSPost2010Prop41ColorRGB
 90
        0
102
RTVSPost2010PropOp41
 70
     0
102
RTVSPost2010Prop42
 90
       50
102
RTVSPost2010PropOp42
 70
     0
102
RTVSPost2010Prop43
 90
        3
102
RTVSPost2010PropOp43
 70
     0
102
RTVSPost2010Prop44ColorIndex
 90
        5
102
RTVSPost2010Prop44ColorRGB
 90
      255
102
RTVSPost2010PropOp44
 70
     0
102
RTVSPost2010Prop45
280
     0
102
RTVSPost2010PropOp45
 70
     0
102
RTVSPost2010Prop46
 90
       50
102
RTVSPost2010PropOp46
 70
     0
102
RTVSPost2010Prop47
 90
       50
102
RTVSPost2010PropOp47
 70
     0
102
RTVSPost2010Prop48
 90
       50
102
RTVSPost2010PropOp48
 70
     0
102
RTVSPost2010Prop49
280
     0
102
RTVSPost2010PropOp49
 70
     0
102
RTVSPost2010Prop50
 90
       50
102
RTVSPost2010PropOp50
 70
     0
102
RTVSPost2010Prop51ColorIndex
 90
      256
102
RTVSPost2010Prop51ColorRGB
 90
-16777216
102
RTVSPost2010PropOp51
 70
     0
102
RTVSPost2010Prop52
140
1.0
102
RTVSPost2010PropOp52
 70
     0
102
RTVSPost2010Prop53
 90
        2
102
RTVSPost2010PropOp53
 70
     0
102
RTVSPost2010Prop54
  1
strokes_ogs.tif
102
RTVSPost2010PropOp54
 70
     0
102
RTVSPost2010Prop55
280
     0
102
RTVSPost2010PropOp55
 70
     0
102
RTVSPost2010Prop56
140
1.0
102
RTVSPost2010PropOp56
 70
     0
102
RTVSPost2010Prop57
140
1.0
102
RTVSPost2010PropOp57
 70
     0
102
RTVSPropertyOp0
 70
     0
102
RTVSPropertyOp1
 70
     0
102
RTVSPropertyOp2
 70
     0
102
RTVSPropertyOp3
 70
     0
102
RTVSPropertyOp4
 70
     0
102
RTVSPropertyOp5
 70
     0
102
RTVSPropertyOp6
 70
     0
102
RTVSPropertyOp7
 70
     0
102
RTVSPropertyOp8
 70
     0
102
RTVSPropertyOp9
 70
     0
102
RTVSPropertyOp10
 70
     0
102
RTVSPropertyOp11
 70
     0
102
RTVSPropertyOp12
 70
     0
102
RTVSPropertyOp13
 70
     0
102
RTVSPropertyOp14
 70
     2
102
RTVSPropertyOp15
 70
     0
102
RTVSPropertyOp16
 70
     0
102
RTVSPropertyOp17
 70
     0
102
RTVSPropertyOp18
 70
     0
102
RTVSPropertyOp19
 70
     0
102
RTVSPropertyOp20
 70
     0
102
RTVSPropertyOp21
 70
     0
102
RTVSPropertyOp22
 70
     0
102
RTVSPropertyOp23
 70
     0
102
RTVSPropertyOp24
 70
     0
102
RTVSPropertyOp25
 70
     0
102
RTVSPropertyOp26
 70
     0
102
RTVSPropertyOp27
 70
     0
102
RTVSPropertyOp28
 70
     0
102
RTVSPropertyOp29
 70
     0
102
RTVSPropertyOp30
 70
     0
102
RTVSPropertyOp31
 70
     0
102
RTVSPropertyOp32
 70
     0
102
RTVSPropertyOp33
 70
     0
102
RTVSPropertyOp34
 70
     0
102
RTVSPropertyOp35
 70
     0
102
RTVSPropertyOp36
 70
     0
102
RTVSPropertyOp37
 70
     0
102
RTVSPropertyOp38
 70
     0
102
RTVSPropertyOp39
 70
     0
102
RTVSPropertyOp40
 70
     0
102
RTVSPropertyOp41
 70
     0
102
RTVSPropertyOp42
 70
     0
102
RTVSPropertyOp43
 70
     0
102
RTVSPropertyOp44
 70
     0
102
RTVSPropertyOp45
 70
     0
102
RTVSPropertyOp46
 70
     0
102
RTVSPropertyOp47
 70
     0
102
RTVSPropertyOp48
 70
     0
102
RTVSPropertyOp49
 70
     0
102
RTVSPropertyOp50
 70
     0
102
RTVSPropertyOp51
 70
     0
102
RTVSPropertyOp52
 70
     0
102
RTVSPropertyOp53
 70
     0
102
RTVSPropertyOp54
 70
     0
102
RTVSPropertyOp55
 70
     0
102
RTVSPropertyOp56
 70
     0
102
RTVSPropertyOp57
 70
     0
102
RTVSPropertyOp58
 70
     1
102
RTVSPropertyOp59
 70
     1
102
RTVSPropertyOp60
 70
     1
102
RTVSPropertyOp61
 70
     1
102
RTVSPropertyOp62
 70
     1
  0
XRECORD
  5
C4ACC
102
{ACAD_REACTORS
330
C4ACB
102
}
330
C4ACB
100
AcDbXrecord
280
     1
102
RTVSPost2010Prop28
280
     0
102
RTVSPost2010PropOp28
 70
     1
102
RTVSPost2010Prop29
280
     1
102
RTVSPost2010PropOp29
 70
     1
102
RTVSPost2010Prop30
280
     1
102
RTVSPost2010PropOp30
 70
     1
102
RTVSPost2010Prop31
280
     0
102
RTVSPost2010PropOp31
 70
     1
102
RTVSPost2010Prop32
280
     0
102
RTVSPost2010PropOp32
 70
     1
102
RTVSPost2010Prop33
280
     0
102
RTVSPost2010PropOp33
 70
     1
102
RTVSPost2010Prop34
280
     0
102
RTVSPost2010PropOp34
 70
     1
102
RTVSPost2010Prop35
280
     0
102
RTVSPost2010PropOp35
 70
     1
102
RTVSPost2010Prop36
280
     0
102
RTVSPost2010PropOp36
 70
     1
102
RTVSPost2010Prop37
 90
       50
102
RTVSPost2010PropOp37
 70
     1
102
RTVSPost2010Prop38
140
0.0
102
RTVSPost2010PropOp38
 70
     1
102
RTVSPost2010Prop39
140
1.0
102
RTVSPost2010PropOp39
 70
     1
102
RTVSPost2010Prop40
 90
        0
102
RTVSPost2010PropOp40
 70
     1
102
RTVSPost2010Prop41ColorIndex
 90
       18
102
RTVSPost2010Prop41ColorRGB
 90
        0
102
RTVSPost2010PropOp41
 70
     1
102
RTVSPost2010Prop42
 90
       50
102
RTVSPost2010PropOp42
 70
     1
102
RTVSPost2010Prop43
 90
        3
102
RTVSPost2010PropOp43
 70
     1
102
RTVSPost2010Prop44ColorIndex
 90
        5
102
RTVSPost2010Prop44ColorRGB
 90
      255
102
RTVSPost2010PropOp44
 70
     1
102
RTVSPost2010Prop45
280
     0
102
RTVSPost2010PropOp45
 70
     1
102
RTVSPost2010Prop46
 90
       50
102
RTVSPost2010PropOp46
 70
     1
102
RTVSPost2010Prop47
 90
       50
102
RTVSPost2010PropOp47
 70
     1
102
RTVSPost2010Prop48
 90
       50
102
RTVSPost2010PropOp48
 70
     1
102
RTVSPost2010Prop49
280
     0
102
RTVSPost2010PropOp49
 70
     1
102
RTVSPost2010Prop50
 90
       50
102
RTVSPost2010PropOp50
 70
     1
102
RTVSPost2010Prop51ColorIndex
 90
      256
102
RTVSPost2010Prop51ColorRGB
 90
-16777216
102
RTVSPost2010PropOp51
 70
     0
102
RTVSPost2010Prop52
140
1.0
102
RTVSPost2010PropOp52
 70
     0
102
RTVSPost2010Prop53
 90
        2
102
RTVSPost2010PropOp53
 70
     1
102
RTVSPost2010Prop54
  1
strokes_ogs.tif
102
RTVSPost2010PropOp54
 70
     1
102
RTVSPost2010Prop55
280
     0
102
RTVSPost2010PropOp55
 70
     1
102
RTVSPost2010Prop56
140
1.0
102
RTVSPost2010PropOp56
 70
     1
102
RTVSPost2010Prop57
140
1.0
102
RTVSPost2010PropOp57
 70
     1
102
RTVSPropertyOp0
 70
     1
102
RTVSPropertyOp1
 70
     1
102
RTVSPropertyOp2
 70
     1
102
RTVSPropertyOp3
 70
     1
102
RTVSPropertyOp4
 70
     1
102
RTVSPropertyOp5
 70
     1
102
RTVSPropertyOp6
 70
     1
102
RTVSPropertyOp7
 70
     1
102
RTVSPropertyOp8
 70
     1
102
RTVSPropertyOp9
 70
     1
102
RTVSPropertyOp10
 70
     1
102
RTVSPropertyOp11
 70
     1
102
RTVSPropertyOp12
 70
     1
102
RTVSPropertyOp13
 70
     1
102
RTVSPropertyOp14
 70
     1
102
RTVSPropertyOp15
 70
     1
102
RTVSPropertyOp16
 70
     1
102
RTVSPropertyOp17
 70
     1
102
RTVSPropertyOp18
 70
     1
102
RTVSPropertyOp19
 70
     1
102
RTVSPropertyOp20
 70
     1
102
RTVSPropertyOp21
 70
     1
102
RTVSPropertyOp22
 70
     1
102
RTVSPropertyOp23
 70
     1
102
RTVSPropertyOp24
 70
     1
102
RTVSPropertyOp25
 70
     1
102
RTVSPropertyOp26
 70
     1
102
RTVSPropertyOp27
 70
     1
102
RTVSPropertyOp28
 70
     1
102
RTVSPropertyOp29
 70
     1
102
RTVSPropertyOp30
 70
     1
102
RTVSPropertyOp31
 70
     1
102
RTVSPropertyOp32
 70
     1
102
RTVSPropertyOp33
 70
     1
102
RTVSPropertyOp34
 70
     1
102
RTVSPropertyOp35
 70
     1
102
RTVSPropertyOp36
 70
     1
102
RTVSPropertyOp37
 70
     1
102
RTVSPropertyOp38
 70
     1
102
RTVSPropertyOp39
 70
     1
102
RTVSPropertyOp40
 70
     1
102
RTVSPropertyOp41
 70
     1
102
RTVSPropertyOp42
 70
     1
102
RTVSPropertyOp43
 70
     1
102
RTVSPropertyOp44
 70
     1
102
RTVSPropertyOp45
 70
     1
102
RTVSPropertyOp46
 70
     1
102
RTVSPropertyOp47
 70
     1
102
RTVSPropertyOp48
 70
     1
102
RTVSPropertyOp49
 70
     1
102
RTVSPropertyOp50
 70
     1
102
RTVSPropertyOp51
 70
     0
102
RTVSPropertyOp52
 70
     0
102
RTVSPropertyOp53
 70
     1
102
RTVSPropertyOp54
 70
     1
102
RTVSPropertyOp55
 70
     1
102
RTVSPropertyOp56
 70
     1
102
RTVSPropertyOp57
 70
     1
102
RTVSPropertyOp58
 70
     1
102
RTVSPropertyOp59
 70
     1
102
RTVSPropertyOp60
 70
     1
102
RTVSPropertyOp61
 70
     1
102
RTVSPropertyOp62
 70
     1
  0
XRECORD
  5
C4AD4
102
{ACAD_REACTORS
330
C4AD3
102
}
330
C4AD3
100
AcDbXrecord
280
     1
102
RTVSPost2010Prop28
280
     0
102
RTVSPost2010PropOp28
 70
     0
102
RTVSPost2010Prop29
280
     1
102
RTVSPost2010PropOp29
 70
     0
102
RTVSPost2010Prop30
280
     1
102
RTVSPost2010PropOp30
 70
     0
102
RTVSPost2010Prop31
280
     0
102
RTVSPost2010PropOp31
 70
     0
102
RTVSPost2010Prop32
280
     0
102
RTVSPost2010PropOp32
 70
     0
102
RTVSPost2010Prop33
280
     0
102
RTVSPost2010PropOp33
 70
     0
102
RTVSPost2010Prop34
280
     0
102
RTVSPost2010PropOp34
 70
     0
102
RTVSPost2010Prop35
280
     0
102
RTVSPost2010PropOp35
 70
     0
102
RTVSPost2010Prop36
280
     0
102
RTVSPost2010PropOp36
 70
     0
102
RTVSPost2010Prop37
 90
       50
102
RTVSPost2010PropOp37
 70
     0
102
RTVSPost2010Prop38
140
0.0
102
RTVSPost2010PropOp38
 70
     0
102
RTVSPost2010Prop39
140
1.0
102
RTVSPost2010PropOp39
 70
     0
102
RTVSPost2010Prop40
 90
        0
102
RTVSPost2010PropOp40
 70
     0
102
RTVSPost2010Prop41ColorIndex
 90
       18
102
RTVSPost2010Prop41ColorRGB
 90
        0
102
RTVSPost2010PropOp41
 70
     0
102
RTVSPost2010Prop42
 90
       50
102
RTVSPost2010PropOp42
 70
     0
102
RTVSPost2010Prop43
 90
        3
102
RTVSPost2010PropOp43
 70
     0
102
RTVSPost2010Prop44ColorIndex
 90
        5
102
RTVSPost2010Prop44ColorRGB
 90
      255
102
RTVSPost2010PropOp44
 70
     0
102
RTVSPost2010Prop45
280
     0
102
RTVSPost2010PropOp45
 70
     0
102
RTVSPost2010Prop46
 90
       50
102
RTVSPost2010PropOp46
 70
     0
102
RTVSPost2010Prop47
 90
       50
102
RTVSPost2010PropOp47
 70
     0
102
RTVSPost2010Prop48
 90
       50
102
RTVSPost2010PropOp48
 70
     0
102
RTVSPost2010Prop49
280
     0
102
RTVSPost2010PropOp49
 70
     0
102
RTVSPost2010Prop50
 90
       50
102
RTVSPost2010PropOp50
 70
     0
102
RTVSPost2010Prop51ColorIndex
 90
      256
102
RTVSPost2010Prop51ColorRGB
 90
-16777216
102
RTVSPost2010PropOp51
 70
     0
102
RTVSPost2010Prop52
140
1.0
102
RTVSPost2010PropOp52
 70
     0
102
RTVSPost2010Prop53
 90
        2
102
RTVSPost2010PropOp53
 70
     0
102
RTVSPost2010Prop54
  1
strokes_ogs.tif
102
RTVSPost2010PropOp54
 70
     0
102
RTVSPost2010Prop55
280
     0
102
RTVSPost2010PropOp55
 70
     0
102
RTVSPost2010Prop56
140
1.0
102
RTVSPost2010PropOp56
 70
     0
102
RTVSPost2010Prop57
140
1.0
102
RTVSPost2010PropOp57
 70
     0
102
RTVSPropertyOp0
 70
     0
102
RTVSPropertyOp1
 70
     0
102
RTVSPropertyOp2
 70
     0
102
RTVSPropertyOp3
 70
     0
102
RTVSPropertyOp4
 70
     0
102
RTVSPropertyOp5
 70
     0
102
RTVSPropertyOp6
 70
     0
102
RTVSPropertyOp7
 70
     0
102
RTVSPropertyOp8
 70
     0
102
RTVSPropertyOp9
 70
     0
102
RTVSPropertyOp10
 70
     0
102
RTVSPropertyOp11
 70
     0
102
RTVSPropertyOp12
 70
     0
102
RTVSPropertyOp13
 70
     0
102
RTVSPropertyOp14
 70
     2
102
RTVSPropertyOp15
 70
     0
102
RTVSPropertyOp16
 70
     0
102
RTVSPropertyOp17
 70
     0
102
RTVSPropertyOp18
 70
     0
102
RTVSPropertyOp19
 70
     0
102
RTVSPropertyOp20
 70
     0
102
RTVSPropertyOp21
 70
     0
102
RTVSPropertyOp22
 70
     0
102
RTVSPropertyOp23
 70
     0
102
RTVSPropertyOp24
 70
     0
102
RTVSPropertyOp25
 70
     0
102
RTVSPropertyOp26
 70
     0
102
RTVSPropertyOp27
 70
     0
102
RTVSPropertyOp28
 70
     0
102
RTVSPropertyOp29
 70
     0
102
RTVSPropertyOp30
 70
     0
102
RTVSPropertyOp31
 70
     0
102
RTVSPropertyOp32
 70
     0
102
RTVSPropertyOp33
 70
     0
102
RTVSPropertyOp34
 70
     0
102
RTVSPropertyOp35
 70
     0
102
RTVSPropertyOp36
 70
     0
102
RTVSPropertyOp37
 70
     0
102
RTVSPropertyOp38
 70
     0
102
RTVSPropertyOp39
 70
     0
102
RTVSPropertyOp40
 70
     0
102
RTVSPropertyOp41
 70
     0
102
RTVSPropertyOp42
 70
     0
102
RTVSPropertyOp43
 70
     0
102
RTVSPropertyOp44
 70
     0
102
RTVSPropertyOp45
 70
     0
102
RTVSPropertyOp46
 70
     0
102
RTVSPropertyOp47
 70
     0
102
RTVSPropertyOp48
 70
     0
102
RTVSPropertyOp49
 70
     0
102
RTVSPropertyOp50
 70
     0
102
RTVSPropertyOp51
 70
     0
102
RTVSPropertyOp52
 70
     0
102
RTVSPropertyOp53
 70
     0
102
RTVSPropertyOp54
 70
     0
102
RTVSPropertyOp55
 70
     0
102
RTVSPropertyOp56
 70
     0
102
RTVSPropertyOp57
 70
     0
102
RTVSPropertyOp58
 70
     1
102
RTVSPropertyOp59
 70
     1
102
RTVSPropertyOp60
 70
     1
102
RTVSPropertyOp61
 70
     1
102
RTVSPropertyOp62
 70
     1
  0
XRECORD
  5
C4AC2
102
{ACAD_REACTORS
330
C4AC1
102
}
330
C4AC1
100
AcDbXrecord
280
     1
102
RTVSPost2010Prop28
280
     0
102
RTVSPost2010PropOp28
 70
     1
102
RTVSPost2010Prop29
280
     1
102
RTVSPost2010PropOp29
 70
     1
102
RTVSPost2010Prop30
280
     1
102
RTVSPost2010PropOp30
 70
     1
102
RTVSPost2010Prop31
280
     0
102
RTVSPost2010PropOp31
 70
     1
102
RTVSPost2010Prop32
280
     0
102
RTVSPost2010PropOp32
 70
     1
102
RTVSPost2010Prop33
280
     0
102
RTVSPost2010PropOp33
 70
     1
102
RTVSPost2010Prop34
280
     0
102
RTVSPost2010PropOp34
 70
     1
102
RTVSPost2010Prop35
280
     0
102
RTVSPost2010PropOp35
 70
     1
102
RTVSPost2010Prop36
280
     0
102
RTVSPost2010PropOp36
 70
     1
102
RTVSPost2010Prop37
 90
       50
102
RTVSPost2010PropOp37
 70
     1
102
RTVSPost2010Prop38
140
0.0
102
RTVSPost2010PropOp38
 70
     1
102
RTVSPost2010Prop39
140
1.0
102
RTVSPost2010PropOp39
 70
     1
102
RTVSPost2010Prop40
 90
        0
102
RTVSPost2010PropOp40
 70
     1
102
RTVSPost2010Prop41ColorIndex
 90
       18
102
RTVSPost2010Prop41ColorRGB
 90
        0
102
RTVSPost2010PropOp41
 70
     1
102
RTVSPost2010Prop42
 90
       50
102
RTVSPost2010PropOp42
 70
     1
102
RTVSPost2010Prop43
 90
        3
102
RTVSPost2010PropOp43
 70
     1
102
RTVSPost2010Prop44ColorIndex
 90
        5
102
RTVSPost2010Prop44ColorRGB
 90
      255
102
RTVSPost2010PropOp44
 70
     1
102
RTVSPost2010Prop45
280
     0
102
RTVSPost2010PropOp45
 70
     1
102
RTVSPost2010Prop46
 90
       50
102
RTVSPost2010PropOp46
 70
     1
102
RTVSPost2010Prop47
 90
       50
102
RTVSPost2010PropOp47
 70
     1
102
RTVSPost2010Prop48
 90
       50
102
RTVSPost2010PropOp48
 70
     1
102
RTVSPost2010Prop49
280
     0
102
RTVSPost2010PropOp49
 70
     1
102
RTVSPost2010Prop50
 90
       50
102
RTVSPost2010PropOp50
 70
     1
102
RTVSPost2010Prop51ColorIndex
 90
      256
102
RTVSPost2010Prop51ColorRGB
 90
-16777216
102
RTVSPost2010PropOp51
 70
     0
102
RTVSPost2010Prop52
140
1.0
102
RTVSPost2010PropOp52
 70
     0
102
RTVSPost2010Prop53
 90
        2
102
RTVSPost2010PropOp53
 70
     1
102
RTVSPost2010Prop54
  1
strokes_ogs.tif
102
RTVSPost2010PropOp54
 70
     1
102
RTVSPost2010Prop55
280
     0
102
RTVSPost2010PropOp55
 70
     1
102
RTVSPost2010Prop56
140
1.0
102
RTVSPost2010PropOp56
 70
     1
102
RTVSPost2010Prop57
140
1.0
102
RTVSPost2010PropOp57
 70
     1
102
RTVSPropertyOp0
 70
     1
102
RTVSPropertyOp1
 70
     1
102
RTVSPropertyOp2
 70
     1
102
RTVSPropertyOp3
 70
     1
102
RTVSPropertyOp4
 70
     1
102
RTVSPropertyOp5
 70
     1
102
RTVSPropertyOp6
 70
     1
102
RTVSPropertyOp7
 70
     1
102
RTVSPropertyOp8
 70
     1
102
RTVSPropertyOp9
 70
     1
102
RTVSPropertyOp10
 70
     1
102
RTVSPropertyOp11
 70
     1
102
RTVSPropertyOp12
 70
     1
102
RTVSPropertyOp13
 70
     1
102
RTVSPropertyOp14
 70
     1
102
RTVSPropertyOp15
 70
     1
102
RTVSPropertyOp16
 70
     1
102
RTVSPropertyOp17
 70
     1
102
RTVSPropertyOp18
 70
     1
102
RTVSPropertyOp19
 70
     1
102
RTVSPropertyOp20
 70
     1
102
RTVSPropertyOp21
 70
     1
102
RTVSPropertyOp22
 70
     1
102
RTVSPropertyOp23
 70
     1
102
RTVSPropertyOp24
 70
     1
102
RTVSPropertyOp25
 70
     1
102
RTVSPropertyOp26
 70
     1
102
RTVSPropertyOp27
 70
     1
102
RTVSPropertyOp28
 70
     1
102
RTVSPropertyOp29
 70
     1
102
RTVSPropertyOp30
 70
     1
102
RTVSPropertyOp31
 70
     1
102
RTVSPropertyOp32
 70
     1
102
RTVSPropertyOp33
 70
     1
102
RTVSPropertyOp34
 70
     1
102
RTVSPropertyOp35
 70
     1
102
RTVSPropertyOp36
 70
     1
102
RTVSPropertyOp37
 70
     1
102
RTVSPropertyOp38
 70
     1
102
RTVSPropertyOp39
 70
     1
102
RTVSPropertyOp40
 70
     1
102
RTVSPropertyOp41
 70
     1
102
RTVSPropertyOp42
 70
     1
102
RTVSPropertyOp43
 70
     1
102
RTVSPropertyOp44
 70
     1
102
RTVSPropertyOp45
 70
     1
102
RTVSPropertyOp46
 70
     1
102
RTVSPropertyOp47
 70
     1
102
RTVSPropertyOp48
 70
     1
102
RTVSPropertyOp49
 70
     1
102
RTVSPropertyOp50
 70
     1
102
RTVSPropertyOp51
 70
     0
102
RTVSPropertyOp52
 70
     0
102
RTVSPropertyOp53
 70
     1
102
RTVSPropertyOp54
 70
     1
102
RTVSPropertyOp55
 70
     1
102
RTVSPropertyOp56
 70
     1
102
RTVSPropertyOp57
 70
     1
102
RTVSPropertyOp58
 70
     1
102
RTVSPropertyOp59
 70
     1
102
RTVSPropertyOp60
 70
     1
102
RTVSPropertyOp61
 70
     1
102
RTVSPropertyOp62
 70
     1
  0
XRECORD
  5
C4AE0
102
{ACAD_REACTORS
330
C4ADF
102
}
330
C4ADF
100
AcDbXrecord
280
     1
102
RTVSPost2010Prop28
280
     0
102
RTVSPost2010PropOp28
 70
     1
102
RTVSPost2010Prop29
280
     1
102
RTVSPost2010PropOp29
 70
     1
102
RTVSPost2010Prop30
280
     1
102
RTVSPost2010PropOp30
 70
     1
102
RTVSPost2010Prop31
280
     0
102
RTVSPost2010PropOp31
 70
     1
102
RTVSPost2010Prop32
280
     0
102
RTVSPost2010PropOp32
 70
     1
102
RTVSPost2010Prop33
280
     0
102
RTVSPost2010PropOp33
 70
     1
102
RTVSPost2010Prop34
280
     0
102
RTVSPost2010PropOp34
 70
     1
102
RTVSPost2010Prop35
280
     0
102
RTVSPost2010PropOp35
 70
     1
102
RTVSPost2010Prop36
280
     0
102
RTVSPost2010PropOp36
 70
     1
102
RTVSPost2010Prop37
 90
       50
102
RTVSPost2010PropOp37
 70
     1
102
RTVSPost2010Prop38
140
0.0
102
RTVSPost2010PropOp38
 70
     1
102
RTVSPost2010Prop39
140
1.0
102
RTVSPost2010PropOp39
 70
     1
102
RTVSPost2010Prop40
 90
        0
102
RTVSPost2010PropOp40
 70
     1
102
RTVSPost2010Prop41ColorIndex
 90
       18
102
RTVSPost2010Prop41ColorRGB
 90
        0
102
RTVSPost2010PropOp41
 70
     1
102
RTVSPost2010Prop42
 90
       50
102
RTVSPost2010PropOp42
 70
     1
102
RTVSPost2010Prop43
 90
        3
102
RTVSPost2010PropOp43
 70
     1
102
RTVSPost2010Prop44ColorIndex
 90
        5
102
RTVSPost2010Prop44ColorRGB
 90
      255
102
RTVSPost2010PropOp44
 70
     1
102
RTVSPost2010Prop45
280
     0
102
RTVSPost2010PropOp45
 70
     1
102
RTVSPost2010Prop46
 90
       50
102
RTVSPost2010PropOp46
 70
     1
102
RTVSPost2010Prop47
 90
       50
102
RTVSPost2010PropOp47
 70
     1
102
RTVSPost2010Prop48
 90
       50
102
RTVSPost2010PropOp48
 70
     1
102
RTVSPost2010Prop49
280
     0
102
RTVSPost2010PropOp49
 70
     1
102
RTVSPost2010Prop50
 90
       50
102
RTVSPost2010PropOp50
 70
     1
102
RTVSPost2010Prop51ColorIndex
 90
      256
102
RTVSPost2010Prop51ColorRGB
 90
-16777216
102
RTVSPost2010PropOp51
 70
     0
102
RTVSPost2010Prop52
140
1.0
102
RTVSPost2010PropOp52
 70
     0
102
RTVSPost2010Prop53
 90
        2
102
RTVSPost2010PropOp53
 70
     1
102
RTVSPost2010Prop54
  1
strokes_ogs.tif
102
RTVSPost2010PropOp54
 70
     1
102
RTVSPost2010Prop55
280
     0
102
RTVSPost2010PropOp55
 70
     1
102
RTVSPost2010Prop56
140
1.0
102
RTVSPost2010PropOp56
 70
     1
102
RTVSPost2010Prop57
140
1.0
102
RTVSPost2010PropOp57
 70
     1
102
RTVSPropertyOp0
 70
     1
102
RTVSPropertyOp1
 70
     1
102
RTVSPropertyOp2
 70
     1
102
RTVSPropertyOp3
 70
     1
102
RTVSPropertyOp4
 70
     1
102
RTVSPropertyOp5
 70
     1
102
RTVSPropertyOp6
 70
     1
102
RTVSPropertyOp7
 70
     1
102
RTVSPropertyOp8
 70
     1
102
RTVSPropertyOp9
 70
     1
102
RTVSPropertyOp10
 70
     1
102
RTVSPropertyOp11
 70
     1
102
RTVSPropertyOp12
 70
     1
102
RTVSPropertyOp13
 70
     1
102
RTVSPropertyOp14
 70
     1
102
RTVSPropertyOp15
 70
     1
102
RTVSPropertyOp16
 70
     1
102
RTVSPropertyOp17
 70
     1
102
RTVSPropertyOp18
 70
     1
102
RTVSPropertyOp19
 70
     1
102
RTVSPropertyOp20
 70
     1
102
RTVSPropertyOp21
 70
     1
102
RTVSPropertyOp22
 70
     1
102
RTVSPropertyOp23
 70
     1
102
RTVSPropertyOp24
 70
     1
102
RTVSPropertyOp25
 70
     1
102
RTVSPropertyOp26
 70
     1
102
RTVSPropertyOp27
 70
     1
102
RTVSPropertyOp28
 70
     1
102
RTVSPropertyOp29
 70
     1
102
RTVSPropertyOp30
 70
     1
102
RTVSPropertyOp31
 70
     1
102
RTVSPropertyOp32
 70
     1
102
RTVSPropertyOp33
 70
     1
102
RTVSPropertyOp34
 70
     1
102
RTVSPropertyOp35
 70
     1
102
RTVSPropertyOp36
 70
     1
102
RTVSPropertyOp37
 70
     1
102
RTVSPropertyOp38
 70
     1
102
RTVSPropertyOp39
 70
     1
102
RTVSPropertyOp40
 70
     1
102
RTVSPropertyOp41
 70
     1
102
RTVSPropertyOp42
 70
     1
102
RTVSPropertyOp43
 70
     1
102
RTVSPropertyOp44
 70
     1
102
RTVSPropertyOp45
 70
     1
102
RTVSPropertyOp46
 70
     1
102
RTVSPropertyOp47
 70
     1
102
RTVSPropertyOp48
 70
     1
102
RTVSPropertyOp49
 70
     1
102
RTVSPropertyOp50
 70
     1
102
RTVSPropertyOp51
 70
     0
102
RTVSPropertyOp52
 70
     0
102
RTVSPropertyOp53
 70
     1
102
RTVSPropertyOp54
 70
     1
102
RTVSPropertyOp55
 70
     1
102
RTVSPropertyOp56
 70
     1
102
RTVSPropertyOp57
 70
     1
102
RTVSPropertyOp58
 70
     1
102
RTVSPropertyOp59
 70
     1
102
RTVSPropertyOp60
 70
     1
102
RTVSPropertyOp61
 70
     1
102
RTVSPropertyOp62
 70
     1
  0
XRECORD
  5
C4ADE
102
{ACAD_REACTORS
330
C4ADD
102
}
330
C4ADD
100
AcDbXrecord
280
     1
102
RTVSPost2010Prop28
280
     0
102
RTVSPost2010PropOp28
 70
     1
102
RTVSPost2010Prop29
280
     1
102
RTVSPost2010PropOp29
 70
     1
102
RTVSPost2010Prop30
280
     1
102
RTVSPost2010PropOp30
 70
     1
102
RTVSPost2010Prop31
280
     0
102
RTVSPost2010PropOp31
 70
     1
102
RTVSPost2010Prop32
280
     0
102
RTVSPost2010PropOp32
 70
     1
102
RTVSPost2010Prop33
280
     0
102
RTVSPost2010PropOp33
 70
     1
102
RTVSPost2010Prop34
280
     0
102
RTVSPost2010PropOp34
 70
     1
102
RTVSPost2010Prop35
280
     0
102
RTVSPost2010PropOp35
 70
     1
102
RTVSPost2010Prop36
280
     0
102
RTVSPost2010PropOp36
 70
     1
102
RTVSPost2010Prop37
 90
       50
102
RTVSPost2010PropOp37
 70
     1
102
RTVSPost2010Prop38
140
0.0
102
RTVSPost2010PropOp38
 70
     1
102
RTVSPost2010Prop39
140
1.0
102
RTVSPost2010PropOp39
 70
     1
102
RTVSPost2010Prop40
 90
        0
102
RTVSPost2010PropOp40
 70
     1
102
RTVSPost2010Prop41ColorIndex
 90
       18
102
RTVSPost2010Prop41ColorRGB
 90
        0
102
RTVSPost2010PropOp41
 70
     1
102
RTVSPost2010Prop42
 90
       50
102
RTVSPost2010PropOp42
 70
     1
102
RTVSPost2010Prop43
 90
        3
102
RTVSPost2010PropOp43
 70
     1
102
RTVSPost2010Prop44ColorIndex
 90
        5
102
RTVSPost2010Prop44ColorRGB
 90
      255
102
RTVSPost2010PropOp44
 70
     1
102
RTVSPost2010Prop45
280
     0
102
RTVSPost2010PropOp45
 70
     1
102
RTVSPost2010Prop46
 90
       50
102
RTVSPost2010PropOp46
 70
     1
102
RTVSPost2010Prop47
 90
       50
102
RTVSPost2010PropOp47
 70
     1
102
RTVSPost2010Prop48
 90
       50
102
RTVSPost2010PropOp48
 70
     1
102
RTVSPost2010Prop49
280
     0
102
RTVSPost2010PropOp49
 70
     1
102
RTVSPost2010Prop50
 90
       50
102
RTVSPost2010PropOp50
 70
     1
102
RTVSPost2010Prop51ColorIndex
 90
      256
102
RTVSPost2010Prop51ColorRGB
 90
-16777216
102
RTVSPost2010PropOp51
 70
     0
102
RTVSPost2010Prop52
140
1.0
102
RTVSPost2010PropOp52
 70
     0
102
RTVSPost2010Prop53
 90
        2
102
RTVSPost2010PropOp53
 70
     1
102
RTVSPost2010Prop54
  1
strokes_ogs.tif
102
RTVSPost2010PropOp54
 70
     1
102
RTVSPost2010Prop55
280
     0
102
RTVSPost2010PropOp55
 70
     1
102
RTVSPost2010Prop56
140
1.0
102
RTVSPost2010PropOp56
 70
     1
102
RTVSPost2010Prop57
140
1.0
102
RTVSPost2010PropOp57
 70
     1
102
RTVSPropertyOp0
 70
     1
102
RTVSPropertyOp1
 70
     1
102
RTVSPropertyOp2
 70
     1
102
RTVSPropertyOp3
 70
     1
102
RTVSPropertyOp4
 70
     1
102
RTVSPropertyOp5
 70
     1
102
RTVSPropertyOp6
 70
     1
102
RTVSPropertyOp7
 70
     1
102
RTVSPropertyOp8
 70
     1
102
RTVSPropertyOp9
 70
     1
102
RTVSPropertyOp10
 70
     1
102
RTVSPropertyOp11
 70
     1
102
RTVSPropertyOp12
 70
     1
102
RTVSPropertyOp13
 70
     1
102
RTVSPropertyOp14
 70
     1
102
RTVSPropertyOp15
 70
     1
102
RTVSPropertyOp16
 70
     1
102
RTVSPropertyOp17
 70
     1
102
RTVSPropertyOp18
 70
     1
102
RTVSPropertyOp19
 70
     1
102
RTVSPropertyOp20
 70
     1
102
RTVSPropertyOp21
 70
     1
102
RTVSPropertyOp22
 70
     1
102
RTVSPropertyOp23
 70
     1
102
RTVSPropertyOp24
 70
     1
102
RTVSPropertyOp25
 70
     1
102
RTVSPropertyOp26
 70
     1
102
RTVSPropertyOp27
 70
     1
102
RTVSPropertyOp28
 70
     1
102
RTVSPropertyOp29
 70
     1
102
RTVSPropertyOp30
 70
     1
102
RTVSPropertyOp31
 70
     1
102
RTVSPropertyOp32
 70
     1
102
RTVSPropertyOp33
 70
     1
102
RTVSPropertyOp34
 70
     1
102
RTVSPropertyOp35
 70
     1
102
RTVSPropertyOp36
 70
     1
102
RTVSPropertyOp37
 70
     1
102
RTVSPropertyOp38
 70
     1
102
RTVSPropertyOp39
 70
     1
102
RTVSPropertyOp40
 70
     1
102
RTVSPropertyOp41
 70
     1
102
RTVSPropertyOp42
 70
     1
102
RTVSPropertyOp43
 70
     1
102
RTVSPropertyOp44
 70
     1
102
RTVSPropertyOp45
 70
     1
102
RTVSPropertyOp46
 70
     1
102
RTVSPropertyOp47
 70
     1
102
RTVSPropertyOp48
 70
     1
102
RTVSPropertyOp49
 70
     1
102
RTVSPropertyOp50
 70
     1
102
RTVSPropertyOp51
 70
     0
102
RTVSPropertyOp52
 70
     0
102
RTVSPropertyOp53
 70
     1
102
RTVSPropertyOp54
 70
     1
102
RTVSPropertyOp55
 70
     1
102
RTVSPropertyOp56
 70
     1
102
RTVSPropertyOp57
 70
     1
102
RTVSPropertyOp58
 70
     1
102
RTVSPropertyOp59
 70
     1
102
RTVSPropertyOp60
 70
     1
102
RTVSPropertyOp61
 70
     1
102
RTVSPropertyOp62
 70
     1
  0
XRECORD
  5
C4AD8
102
{ACAD_REACTORS
330
C4AD7
102
}
330
C4AD7
100
AcDbXrecord
280
     1
102
RTVSPost2010Prop28
280
     0
102
RTVSPost2010PropOp28
 70
     1
102
RTVSPost2010Prop29
280
     1
102
RTVSPost2010PropOp29
 70
     1
102
RTVSPost2010Prop30
280
     1
102
RTVSPost2010PropOp30
 70
     1
102
RTVSPost2010Prop31
280
     0
102
RTVSPost2010PropOp31
 70
     1
102
RTVSPost2010Prop32
280
     0
102
RTVSPost2010PropOp32
 70
     1
102
RTVSPost2010Prop33
280
     0
102
RTVSPost2010PropOp33
 70
     1
102
RTVSPost2010Prop34
280
     0
102
RTVSPost2010PropOp34
 70
     1
102
RTVSPost2010Prop35
280
     0
102
RTVSPost2010PropOp35
 70
     1
102
RTVSPost2010Prop36
280
     0
102
RTVSPost2010PropOp36
 70
     1
102
RTVSPost2010Prop37
 90
       50
102
RTVSPost2010PropOp37
 70
     1
102
RTVSPost2010Prop38
140
0.0
102
RTVSPost2010PropOp38
 70
     1
102
RTVSPost2010Prop39
140
1.0
102
RTVSPost2010PropOp39
 70
     1
102
RTVSPost2010Prop40
 90
        0
102
RTVSPost2010PropOp40
 70
     1
102
RTVSPost2010Prop41ColorIndex
 90
       18
102
RTVSPost2010Prop41ColorRGB
 90
        0
102
RTVSPost2010PropOp41
 70
     1
102
RTVSPost2010Prop42
 90
       50
102
RTVSPost2010PropOp42
 70
     1
102
RTVSPost2010Prop43
 90
        3
102
RTVSPost2010PropOp43
 70
     1
102
RTVSPost2010Prop44ColorIndex
 90
        5
102
RTVSPost2010Prop44ColorRGB
 90
      255
102
RTVSPost2010PropOp44
 70
     1
102
RTVSPost2010Prop45
280
     0
102
RTVSPost2010PropOp45
 70
     1
102
RTVSPost2010Prop46
 90
       50
102
RTVSPost2010PropOp46
 70
     1
102
RTVSPost2010Prop47
 90
       50
102
RTVSPost2010PropOp47
 70
     1
102
RTVSPost2010Prop48
 90
       50
102
RTVSPost2010PropOp48
 70
     1
102
RTVSPost2010Prop49
280
     0
102
RTVSPost2010PropOp49
 70
     1
102
RTVSPost2010Prop50
 90
       50
102
RTVSPost2010PropOp50
 70
     1
102
RTVSPost2010Prop51ColorIndex
 90
      256
102
RTVSPost2010Prop51ColorRGB
 90
-16777216
102
RTVSPost2010PropOp51
 70
     0
102
RTVSPost2010Prop52
140
1.0
102
RTVSPost2010PropOp52
 70
     0
102
RTVSPost2010Prop53
 90
        2
102
RTVSPost2010PropOp53
 70
     1
102
RTVSPost2010Prop54
  1
strokes_ogs.tif
102
RTVSPost2010PropOp54
 70
     1
102
RTVSPost2010Prop55
280
     0
102
RTVSPost2010PropOp55
 70
     1
102
RTVSPost2010Prop56
140
1.0
102
RTVSPost2010PropOp56
 70
     1
102
RTVSPost2010Prop57
140
1.0
102
RTVSPost2010PropOp57
 70
     1
102
RTVSPropertyOp0
 70
     1
102
RTVSPropertyOp1
 70
     1
102
RTVSPropertyOp2
 70
     1
102
RTVSPropertyOp3
 70
     1
102
RTVSPropertyOp4
 70
     1
102
RTVSPropertyOp5
 70
     1
102
RTVSPropertyOp6
 70
     1
102
RTVSPropertyOp7
 70
     1
102
RTVSPropertyOp8
 70
     1
102
RTVSPropertyOp9
 70
     1
102
RTVSPropertyOp10
 70
     1
102
RTVSPropertyOp11
 70
     1
102
RTVSPropertyOp12
 70
     1
102
RTVSPropertyOp13
 70
     1
102
RTVSPropertyOp14
 70
     1
102
RTVSPropertyOp15
 70
     1
102
RTVSPropertyOp16
 70
     1
102
RTVSPropertyOp17
 70
     1
102
RTVSPropertyOp18
 70
     1
102
RTVSPropertyOp19
 70
     1
102
RTVSPropertyOp20
 70
     1
102
RTVSPropertyOp21
 70
     1
102
RTVSPropertyOp22
 70
     1
102
RTVSPropertyOp23
 70
     1
102
RTVSPropertyOp24
 70
     1
102
RTVSPropertyOp25
 70
     1
102
RTVSPropertyOp26
 70
     1
102
RTVSPropertyOp27
 70
     1
102
RTVSPropertyOp28
 70
     1
102
RTVSPropertyOp29
 70
     1
102
RTVSPropertyOp30
 70
     1
102
RTVSPropertyOp31
 70
     1
102
RTVSPropertyOp32
 70
     1
102
RTVSPropertyOp33
 70
     1
102
RTVSPropertyOp34
 70
     1
102
RTVSPropertyOp35
 70
     1
102
RTVSPropertyOp36
 70
     1
102
RTVSPropertyOp37
 70
     1
102
RTVSPropertyOp38
 70
     1
102
RTVSPropertyOp39
 70
     1
102
RTVSPropertyOp40
 70
     1
102
RTVSPropertyOp41
 70
     1
102
RTVSPropertyOp42
 70
     1
102
RTVSPropertyOp43
 70
     1
102
RTVSPropertyOp44
 70
     1
102
RTVSPropertyOp45
 70
     1
102
RTVSPropertyOp46
 70
     1
102
RTVSPropertyOp47
 70
     1
102
RTVSPropertyOp48
 70
     1
102
RTVSPropertyOp49
 70
     1
102
RTVSPropertyOp50
 70
     1
102
RTVSPropertyOp51
 70
     0
102
RTVSPropertyOp52
 70
     0
102
RTVSPropertyOp53
 70
     1
102
RTVSPropertyOp54
 70
     1
102
RTVSPropertyOp55
 70
     1
102
RTVSPropertyOp56
 70
     1
102
RTVSPropertyOp57
 70
     1
102
RTVSPropertyOp58
 70
     1
102
RTVSPropertyOp59
 70
     1
102
RTVSPropertyOp60
 70
     1
102
RTVSPropertyOp61
 70
     1
102
RTVSPropertyOp62
 70
     1
  0
XRECORD
  5
C4ADA
102
{ACAD_REACTORS
330
C4AD9
102
}
330
C4AD9
100
AcDbXrecord
280
     1
102
RTVSPost2010Prop28
280
     0
102
RTVSPost2010PropOp28
 70
     1
102
RTVSPost2010Prop29
280
     1
102
RTVSPost2010PropOp29
 70
     1
102
RTVSPost2010Prop30
280
     1
102
RTVSPost2010PropOp30
 70
     1
102
RTVSPost2010Prop31
280
     0
102
RTVSPost2010PropOp31
 70
     1
102
RTVSPost2010Prop32
280
     0
102
RTVSPost2010PropOp32
 70
     1
102
RTVSPost2010Prop33
280
     0
102
RTVSPost2010PropOp33
 70
     1
102
RTVSPost2010Prop34
280
     0
102
RTVSPost2010PropOp34
 70
     1
102
RTVSPost2010Prop35
280
     0
102
RTVSPost2010PropOp35
 70
     1
102
RTVSPost2010Prop36
280
     0
102
RTVSPost2010PropOp36
 70
     1
102
RTVSPost2010Prop37
 90
       50
102
RTVSPost2010PropOp37
 70
     1
102
RTVSPost2010Prop38
140
0.0
102
RTVSPost2010PropOp38
 70
     1
102
RTVSPost2010Prop39
140
1.0
102
RTVSPost2010PropOp39
 70
     1
102
RTVSPost2010Prop40
 90
        0
102
RTVSPost2010PropOp40
 70
     1
102
RTVSPost2010Prop41ColorIndex
 90
       18
102
RTVSPost2010Prop41ColorRGB
 90
        0
102
RTVSPost2010PropOp41
 70
     1
102
RTVSPost2010Prop42
 90
       50
102
RTVSPost2010PropOp42
 70
     1
102
RTVSPost2010Prop43
 90
        3
102
RTVSPost2010PropOp43
 70
     1
102
RTVSPost2010Prop44ColorIndex
 90
        5
102
RTVSPost2010Prop44ColorRGB
 90
      255
102
RTVSPost2010PropOp44
 70
     1
102
RTVSPost2010Prop45
280
     0
102
RTVSPost2010PropOp45
 70
     1
102
RTVSPost2010Prop46
 90
       50
102
RTVSPost2010PropOp46
 70
     1
102
RTVSPost2010Prop47
 90
       50
102
RTVSPost2010PropOp47
 70
     1
102
RTVSPost2010Prop48
 90
       50
102
RTVSPost2010PropOp48
 70
     1
102
RTVSPost2010Prop49
280
     0
102
RTVSPost2010PropOp49
 70
     1
102
RTVSPost2010Prop50
 90
       50
102
RTVSPost2010PropOp50
 70
     1
102
RTVSPost2010Prop51ColorIndex
 90
      256
102
RTVSPost2010Prop51ColorRGB
 90
-16777216
102
RTVSPost2010PropOp51
 70
     0
102
RTVSPost2010Prop52
140
1.0
102
RTVSPost2010PropOp52
 70
     0
102
RTVSPost2010Prop53
 90
        2
102
RTVSPost2010PropOp53
 70
     1
102
RTVSPost2010Prop54
  1
strokes_ogs.tif
102
RTVSPost2010PropOp54
 70
     1
102
RTVSPost2010Prop55
280
     0
102
RTVSPost2010PropOp55
 70
     1
102
RTVSPost2010Prop56
140
1.0
102
RTVSPost2010PropOp56
 70
     1
102
RTVSPost2010Prop57
140
1.0
102
RTVSPost2010PropOp57
 70
     1
102
RTVSPropertyOp0
 70
     1
102
RTVSPropertyOp1
 70
     1
102
RTVSPropertyOp2
 70
     1
102
RTVSPropertyOp3
 70
     1
102
RTVSPropertyOp4
 70
     1
102
RTVSPropertyOp5
 70
     1
102
RTVSPropertyOp6
 70
     1
102
RTVSPropertyOp7
 70
     1
102
RTVSPropertyOp8
 70
     1
102
RTVSPropertyOp9
 70
     1
102
RTVSPropertyOp10
 70
     1
102
RTVSPropertyOp11
 70
     1
102
RTVSPropertyOp12
 70
     1
102
RTVSPropertyOp13
 70
     1
102
RTVSPropertyOp14
 70
     1
102
RTVSPropertyOp15
 70
     1
102
RTVSPropertyOp16
 70
     1
102
RTVSPropertyOp17
 70
     1
102
RTVSPropertyOp18
 70
     1
102
RTVSPropertyOp19
 70
     1
102
RTVSPropertyOp20
 70
     1
102
RTVSPropertyOp21
 70
     1
102
RTVSPropertyOp22
 70
     1
102
RTVSPropertyOp23
 70
     1
102
RTVSPropertyOp24
 70
     1
102
RTVSPropertyOp25
 70
     1
102
RTVSPropertyOp26
 70
     1
102
RTVSPropertyOp27
 70
     1
102
RTVSPropertyOp28
 70
     1
102
RTVSPropertyOp29
 70
     1
102
RTVSPropertyOp30
 70
     1
102
RTVSPropertyOp31
 70
     1
102
RTVSPropertyOp32
 70
     1
102
RTVSPropertyOp33
 70
     1
102
RTVSPropertyOp34
 70
     1
102
RTVSPropertyOp35
 70
     1
102
RTVSPropertyOp36
 70
     1
102
RTVSPropertyOp37
 70
     1
102
RTVSPropertyOp38
 70
     1
102
RTVSPropertyOp39
 70
     1
102
RTVSPropertyOp40
 70
     1
102
RTVSPropertyOp41
 70
     1
102
RTVSPropertyOp42
 70
     1
102
RTVSPropertyOp43
 70
     1
102
RTVSPropertyOp44
 70
     1
102
RTVSPropertyOp45
 70
     1
102
RTVSPropertyOp46
 70
     1
102
RTVSPropertyOp47
 70
     1
102
RTVSPropertyOp48
 70
     1
102
RTVSPropertyOp49
 70
     1
102
RTVSPropertyOp50
 70
     1
102
RTVSPropertyOp51
 70
     0
102
RTVSPropertyOp52
 70
     0
102
RTVSPropertyOp53
 70
     1
102
RTVSPropertyOp54
 70
     1
102
RTVSPropertyOp55
 70
     1
102
RTVSPropertyOp56
 70
     1
102
RTVSPropertyOp57
 70
     1
102
RTVSPropertyOp58
 70
     1
102
RTVSPropertyOp59
 70
     1
102
RTVSPropertyOp60
 70
     1
102
RTVSPropertyOp61
 70
     1
102
RTVSPropertyOp62
 70
     1
  0
XRECORD
  5
C4ACA
102
{ACAD_REACTORS
330
C4AC9
102
}
330
C4AC9
100
AcDbXrecord
280
     1
102
RTVSPost2010Prop28
280
     0
102
RTVSPost2010PropOp28
 70
     1
102
RTVSPost2010Prop29
280
     1
102
RTVSPost2010PropOp29
 70
     1
102
RTVSPost2010Prop30
280
     1
102
RTVSPost2010PropOp30
 70
     1
102
RTVSPost2010Prop31
280
     0
102
RTVSPost2010PropOp31
 70
     1
102
RTVSPost2010Prop32
280
     0
102
RTVSPost2010PropOp32
 70
     1
102
RTVSPost2010Prop33
280
     0
102
RTVSPost2010PropOp33
 70
     1
102
RTVSPost2010Prop34
280
     0
102
RTVSPost2010PropOp34
 70
     1
102
RTVSPost2010Prop35
280
     0
102
RTVSPost2010PropOp35
 70
     1
102
RTVSPost2010Prop36
280
     0
102
RTVSPost2010PropOp36
 70
     1
102
RTVSPost2010Prop37
 90
       50
102
RTVSPost2010PropOp37
 70
     1
102
RTVSPost2010Prop38
140
0.0
102
RTVSPost2010PropOp38
 70
     1
102
RTVSPost2010Prop39
140
1.0
102
RTVSPost2010PropOp39
 70
     1
102
RTVSPost2010Prop40
 90
        0
102
RTVSPost2010PropOp40
 70
     1
102
RTVSPost2010Prop41ColorIndex
 90
       18
102
RTVSPost2010Prop41ColorRGB
 90
        0
102
RTVSPost2010PropOp41
 70
     1
102
RTVSPost2010Prop42
 90
       50
102
RTVSPost2010PropOp42
 70
     1
102
RTVSPost2010Prop43
 90
        3
102
RTVSPost2010PropOp43
 70
     1
102
RTVSPost2010Prop44ColorIndex
 90
        5
102
RTVSPost2010Prop44ColorRGB
 90
      255
102
RTVSPost2010PropOp44
 70
     1
102
RTVSPost2010Prop45
280
     0
102
RTVSPost2010PropOp45
 70
     1
102
RTVSPost2010Prop46
 90
       50
102
RTVSPost2010PropOp46
 70
     1
102
RTVSPost2010Prop47
 90
       50
102
RTVSPost2010PropOp47
 70
     1
102
RTVSPost2010Prop48
 90
       50
102
RTVSPost2010PropOp48
 70
     1
102
RTVSPost2010Prop49
280
     0
102
RTVSPost2010PropOp49
 70
     1
102
RTVSPost2010Prop50
 90
       50
102
RTVSPost2010PropOp50
 70
     1
102
RTVSPost2010Prop51ColorIndex
 90
      256
102
RTVSPost2010Prop51ColorRGB
 90
-16777216
102
RTVSPost2010PropOp51
 70
     0
102
RTVSPost2010Prop52
140
1.0
102
RTVSPost2010PropOp52
 70
     0
102
RTVSPost2010Prop53
 90
        2
102
RTVSPost2010PropOp53
 70
     1
102
RTVSPost2010Prop54
  1
strokes_ogs.tif
102
RTVSPost2010PropOp54
 70
     1
102
RTVSPost2010Prop55
280
     0
102
RTVSPost2010PropOp55
 70
     1
102
RTVSPost2010Prop56
140
1.0
102
RTVSPost2010PropOp56
 70
     1
102
RTVSPost2010Prop57
140
1.0
102
RTVSPost2010PropOp57
 70
     1
102
RTVSPropertyOp0
 70
     1
102
RTVSPropertyOp1
 70
     1
102
RTVSPropertyOp2
 70
     1
102
RTVSPropertyOp3
 70
     1
102
RTVSPropertyOp4
 70
     1
102
RTVSPropertyOp5
 70
     1
102
RTVSPropertyOp6
 70
     1
102
RTVSPropertyOp7
 70
     1
102
RTVSPropertyOp8
 70
     1
102
RTVSPropertyOp9
 70
     1
102
RTVSPropertyOp10
 70
     1
102
RTVSPropertyOp11
 70
     1
102
RTVSPropertyOp12
 70
     1
102
RTVSPropertyOp13
 70
     1
102
RTVSPropertyOp14
 70
     1
102
RTVSPropertyOp15
 70
     1
102
RTVSPropertyOp16
 70
     1
102
RTVSPropertyOp17
 70
     1
102
RTVSPropertyOp18
 70
     1
102
RTVSPropertyOp19
 70
     1
102
RTVSPropertyOp20
 70
     1
102
RTVSPropertyOp21
 70
     1
102
RTVSPropertyOp22
 70
     1
102
RTVSPropertyOp23
 70
     1
102
RTVSPropertyOp24
 70
     1
102
RTVSPropertyOp25
 70
     1
102
RTVSPropertyOp26
 70
     1
102
RTVSPropertyOp27
 70
     1
102
RTVSPropertyOp28
 70
     1
102
RTVSPropertyOp29
 70
     1
102
RTVSPropertyOp30
 70
     1
102
RTVSPropertyOp31
 70
     1
102
RTVSPropertyOp32
 70
     1
102
RTVSPropertyOp33
 70
     1
102
RTVSPropertyOp34
 70
     1
102
RTVSPropertyOp35
 70
     1
102
RTVSPropertyOp36
 70
     1
102
RTVSPropertyOp37
 70
     1
102
RTVSPropertyOp38
 70
     1
102
RTVSPropertyOp39
 70
     1
102
RTVSPropertyOp40
 70
     1
102
RTVSPropertyOp41
 70
     1
102
RTVSPropertyOp42
 70
     1
102
RTVSPropertyOp43
 70
     1
102
RTVSPropertyOp44
 70
     1
102
RTVSPropertyOp45
 70
     1
102
RTVSPropertyOp46
 70
     1
102
RTVSPropertyOp47
 70
     1
102
RTVSPropertyOp48
 70
     1
102
RTVSPropertyOp49
 70
     1
102
RTVSPropertyOp50
 70
     1
102
RTVSPropertyOp51
 70
     0
102
RTVSPropertyOp52
 70
     0
102
RTVSPropertyOp53
 70
     1
102
RTVSPropertyOp54
 70
     1
102
RTVSPropertyOp55
 70
     1
102
RTVSPropertyOp56
 70
     1
102
RTVSPropertyOp57
 70
     1
102
RTVSPropertyOp58
 70
     1
102
RTVSPropertyOp59
 70
     1
102
RTVSPropertyOp60
 70
     1
102
RTVSPropertyOp61
 70
     1
102
RTVSPropertyOp62
 70
     1
  0
XRECORD
  5
C4ABC
102
{ACAD_REACTORS
330
C4ABB
102
}
330
C4ABB
100
AcDbXrecord
280
     1
102
RTVSPost2010Prop28
280
     0
102
RTVSPost2010PropOp28
 70
     1
102
RTVSPost2010Prop29
280
     1
102
RTVSPost2010PropOp29
 70
     1
102
RTVSPost2010Prop30
280
     1
102
RTVSPost2010PropOp30
 70
     1
102
RTVSPost2010Prop31
280
     0
102
RTVSPost2010PropOp31
 70
     1
102
RTVSPost2010Prop32
280
     0
102
RTVSPost2010PropOp32
 70
     1
102
RTVSPost2010Prop33
280
     0
102
RTVSPost2010PropOp33
 70
     1
102
RTVSPost2010Prop34
280
     0
102
RTVSPost2010PropOp34
 70
     1
102
RTVSPost2010Prop35
280
     0
102
RTVSPost2010PropOp35
 70
     1
102
RTVSPost2010Prop36
280
     0
102
RTVSPost2010PropOp36
 70
     1
102
RTVSPost2010Prop37
 90
       50
102
RTVSPost2010PropOp37
 70
     1
102
RTVSPost2010Prop38
140
0.0
102
RTVSPost2010PropOp38
 70
     1
102
RTVSPost2010Prop39
140
1.0
102
RTVSPost2010PropOp39
 70
     1
102
RTVSPost2010Prop40
 90
        0
102
RTVSPost2010PropOp40
 70
     1
102
RTVSPost2010Prop41ColorIndex
 90
       18
102
RTVSPost2010Prop41ColorRGB
 90
        0
102
RTVSPost2010PropOp41
 70
     1
102
RTVSPost2010Prop42
 90
       50
102
RTVSPost2010PropOp42
 70
     1
102
RTVSPost2010Prop43
 90
        3
102
RTVSPost2010PropOp43
 70
     1
102
RTVSPost2010Prop44ColorIndex
 90
        5
102
RTVSPost2010Prop44ColorRGB
 90
      255
102
RTVSPost2010PropOp44
 70
     1
102
RTVSPost2010Prop45
280
     0
102
RTVSPost2010PropOp45
 70
     1
102
RTVSPost2010Prop46
 90
       50
102
RTVSPost2010PropOp46
 70
     1
102
RTVSPost2010Prop47
 90
       50
102
RTVSPost2010PropOp47
 70
     1
102
RTVSPost2010Prop48
 90
       50
102
RTVSPost2010PropOp48
 70
     1
102
RTVSPost2010Prop49
280
     0
102
RTVSPost2010PropOp49
 70
     1
102
RTVSPost2010Prop50
 90
       50
102
RTVSPost2010PropOp50
 70
     1
102
RTVSPost2010Prop51ColorIndex
 90
      256
102
RTVSPost2010Prop51ColorRGB
 90
-16777216
102
RTVSPost2010PropOp51
 70
     0
102
RTVSPost2010Prop52
140
1.0
102
RTVSPost2010PropOp52
 70
     0
102
RTVSPost2010Prop53
 90
        2
102
RTVSPost2010PropOp53
 70
     1
102
RTVSPost2010Prop54
  1
strokes_ogs.tif
102
RTVSPost2010PropOp54
 70
     1
102
RTVSPost2010Prop55
280
     0
102
RTVSPost2010PropOp55
 70
     1
102
RTVSPost2010Prop56
140
1.0
102
RTVSPost2010PropOp56
 70
     1
102
RTVSPost2010Prop57
140
1.0
102
RTVSPost2010PropOp57
 70
     1
102
RTVSPropertyOp0
 70
     1
102
RTVSPropertyOp1
 70
     1
102
RTVSPropertyOp2
 70
     1
102
RTVSPropertyOp3
 70
     1
102
RTVSPropertyOp4
 70
     1
102
RTVSPropertyOp5
 70
     1
102
RTVSPropertyOp6
 70
     1
102
RTVSPropertyOp7
 70
     1
102
RTVSPropertyOp8
 70
     1
102
RTVSPropertyOp9
 70
     1
102
RTVSPropertyOp10
 70
     1
102
RTVSPropertyOp11
 70
     1
102
RTVSPropertyOp12
 70
     1
102
RTVSPropertyOp13
 70
     1
102
RTVSPropertyOp14
 70
     1
102
RTVSPropertyOp15
 70
     1
102
RTVSPropertyOp16
 70
     1
102
RTVSPropertyOp17
 70
     1
102
RTVSPropertyOp18
 70
     1
102
RTVSPropertyOp19
 70
     1
102
RTVSPropertyOp20
 70
     1
102
RTVSPropertyOp21
 70
     1
102
RTVSPropertyOp22
 70
     1
102
RTVSPropertyOp23
 70
     1
102
RTVSPropertyOp24
 70
     1
102
RTVSPropertyOp25
 70
     1
102
RTVSPropertyOp26
 70
     1
102
RTVSPropertyOp27
 70
     1
102
RTVSPropertyOp28
 70
     1
102
RTVSPropertyOp29
 70
     1
102
RTVSPropertyOp30
 70
     1
102
RTVSPropertyOp31
 70
     1
102
RTVSPropertyOp32
 70
     1
102
RTVSPropertyOp33
 70
     1
102
RTVSPropertyOp34
 70
     1
102
RTVSPropertyOp35
 70
     1
102
RTVSPropertyOp36
 70
     1
102
RTVSPropertyOp37
 70
     1
102
RTVSPropertyOp38
 70
     1
102
RTVSPropertyOp39
 70
     1
102
RTVSPropertyOp40
 70
     1
102
RTVSPropertyOp41
 70
     1
102
RTVSPropertyOp42
 70
     1
102
RTVSPropertyOp43
 70
     1
102
RTVSPropertyOp44
 70
     1
102
RTVSPropertyOp45
 70
     1
102
RTVSPropertyOp46
 70
     1
102
RTVSPropertyOp47
 70
     1
102
RTVSPropertyOp48
 70
     1
102
RTVSPropertyOp49
 70
     1
102
RTVSPropertyOp50
 70
     1
102
RTVSPropertyOp51
 70
     0
102
RTVSPropertyOp52
 70
     0
102
RTVSPropertyOp53
 70
     1
102
RTVSPropertyOp54
 70
     1
102
RTVSPropertyOp55
 70
     1
102
RTVSPropertyOp56
 70
     1
102
RTVSPropertyOp57
 70
     1
102
RTVSPropertyOp58
 70
     1
102
RTVSPropertyOp59
 70
     1
102
RTVSPropertyOp60
 70
     1
102
RTVSPropertyOp61
 70
     1
102
RTVSPropertyOp62
 70
     1
  0
XRECORD
  5
C4ADC
102
{ACAD_REACTORS
330
C4ADB
102
}
330
C4ADB
100
AcDbXrecord
280
     1
102
RTVSPost2010Prop28
280
     0
102
RTVSPost2010PropOp28
 70
     1
102
RTVSPost2010Prop29
280
     1
102
RTVSPost2010PropOp29
 70
     1
102
RTVSPost2010Prop30
280
     1
102
RTVSPost2010PropOp30
 70
     1
102
RTVSPost2010Prop31
280
     0
102
RTVSPost2010PropOp31
 70
     1
102
RTVSPost2010Prop32
280
     0
102
RTVSPost2010PropOp32
 70
     1
102
RTVSPost2010Prop33
280
     0
102
RTVSPost2010PropOp33
 70
     1
102
RTVSPost2010Prop34
280
     0
102
RTVSPost2010PropOp34
 70
     1
102
RTVSPost2010Prop35
280
     0
102
RTVSPost2010PropOp35
 70
     1
102
RTVSPost2010Prop36
280
     0
102
RTVSPost2010PropOp36
 70
     1
102
RTVSPost2010Prop37
 90
       50
102
RTVSPost2010PropOp37
 70
     1
102
RTVSPost2010Prop38
140
0.0
102
RTVSPost2010PropOp38
 70
     1
102
RTVSPost2010Prop39
140
1.0
102
RTVSPost2010PropOp39
 70
     1
102
RTVSPost2010Prop40
 90
        0
102
RTVSPost2010PropOp40
 70
     1
102
RTVSPost2010Prop41ColorIndex
 90
       18
102
RTVSPost2010Prop41ColorRGB
 90
        0
102
RTVSPost2010PropOp41
 70
     1
102
RTVSPost2010Prop42
 90
       50
102
RTVSPost2010PropOp42
 70
     1
102
RTVSPost2010Prop43
 90
        3
102
RTVSPost2010PropOp43
 70
     1
102
RTVSPost2010Prop44ColorIndex
 90
        5
102
RTVSPost2010Prop44ColorRGB
 90
      255
102
RTVSPost2010PropOp44
 70
     1
102
RTVSPost2010Prop45
280
     0
102
RTVSPost2010PropOp45
 70
     1
102
RTVSPost2010Prop46
 90
       50
102
RTVSPost2010PropOp46
 70
     1
102
RTVSPost2010Prop47
 90
       50
102
RTVSPost2010PropOp47
 70
     1
102
RTVSPost2010Prop48
 90
       50
102
RTVSPost2010PropOp48
 70
     1
102
RTVSPost2010Prop49
280
     0
102
RTVSPost2010PropOp49
 70
     1
102
RTVSPost2010Prop50
 90
       50
102
RTVSPost2010PropOp50
 70
     1
102
RTVSPost2010Prop51ColorIndex
 90
      256
102
RTVSPost2010Prop51ColorRGB
 90
-16777216
102
RTVSPost2010PropOp51
 70
     0
102
RTVSPost2010Prop52
140
1.0
102
RTVSPost2010PropOp52
 70
     0
102
RTVSPost2010Prop53
 90
        2
102
RTVSPost2010PropOp53
 70
     1
102
RTVSPost2010Prop54
  1
strokes_ogs.tif
102
RTVSPost2010PropOp54
 70
     1
102
RTVSPost2010Prop55
280
     0
102
RTVSPost2010PropOp55
 70
     1
102
RTVSPost2010Prop56
140
1.0
102
RTVSPost2010PropOp56
 70
     1
102
RTVSPost2010Prop57
140
1.0
102
RTVSPost2010PropOp57
 70
     1
102
RTVSPropertyOp0
 70
     1
102
RTVSPropertyOp1
 70
     1
102
RTVSPropertyOp2
 70
     1
102
RTVSPropertyOp3
 70
     1
102
RTVSPropertyOp4
 70
     1
102
RTVSPropertyOp5
 70
     1
102
RTVSPropertyOp6
 70
     1
102
RTVSPropertyOp7
 70
     1
102
RTVSPropertyOp8
 70
     1
102
RTVSPropertyOp9
 70
     1
102
RTVSPropertyOp10
 70
     1
102
RTVSPropertyOp11
 70
     1
102
RTVSPropertyOp12
 70
     1
102
RTVSPropertyOp13
 70
     1
102
RTVSPropertyOp14
 70
     1
102
RTVSPropertyOp15
 70
     1
102
RTVSPropertyOp16
 70
     1
102
RTVSPropertyOp17
 70
     1
102
RTVSPropertyOp18
 70
     1
102
RTVSPropertyOp19
 70
     1
102
RTVSPropertyOp20
 70
     1
102
RTVSPropertyOp21
 70
     1
102
RTVSPropertyOp22
 70
     1
102
RTVSPropertyOp23
 70
     1
102
RTVSPropertyOp24
 70
     1
102
RTVSPropertyOp25
 70
     1
102
RTVSPropertyOp26
 70
     1
102
RTVSPropertyOp27
 70
     1
102
RTVSPropertyOp28
 70
     1
102
RTVSPropertyOp29
 70
     1
102
RTVSPropertyOp30
 70
     1
102
RTVSPropertyOp31
 70
     1
102
RTVSPropertyOp32
 70
     1
102
RTVSPropertyOp33
 70
     1
102
RTVSPropertyOp34
 70
     1
102
RTVSPropertyOp35
 70
     1
102
RTVSPropertyOp36
 70
     1
102
RTVSPropertyOp37
 70
     1
102
RTVSPropertyOp38
 70
     1
102
RTVSPropertyOp39
 70
     1
102
RTVSPropertyOp40
 70
     1
102
RTVSPropertyOp41
 70
     1
102
RTVSPropertyOp42
 70
     1
102
RTVSPropertyOp43
 70
     1
102
RTVSPropertyOp44
 70
     1
102
RTVSPropertyOp45
 70
     1
102
RTVSPropertyOp46
 70
     1
102
RTVSPropertyOp47
 70
     1
102
RTVSPropertyOp48
 70
     1
102
RTVSPropertyOp49
 70
     1
102
RTVSPropertyOp50
 70
     1
102
RTVSPropertyOp51
 70
     0
102
RTVSPropertyOp52
 70
     0
102
RTVSPropertyOp53
 70
     1
102
RTVSPropertyOp54
 70
     1
102
RTVSPropertyOp55
 70
     1
102
RTVSPropertyOp56
 70
     1
102
RTVSPropertyOp57
 70
     1
102
RTVSPropertyOp58
 70
     1
102
RTVSPropertyOp59
 70
     1
102
RTVSPropertyOp60
 70
     1
102
RTVSPropertyOp61
 70
     1
102
RTVSPropertyOp62
 70
     1
  0
ENDSEC
  0
EOF
