  0
SECTION
  2
HEADER
  9
$ACADVER
  1
AC1015
  9
$ACADMAINTVER
 70
    20
  9
$DWGCODEPAGE
  3
ANSI_932
  9
$INSBASE
 10
0.0
 20
0.0
 30
0.0
  9
$EXTMIN
 10
5554.690550739919
 20
-3362.597321322339
 30
0.0
  9
$EXTMAX
 10
6253.845768384053
 20
-2974.268670697365
 30
137.5
  9
$LIMMIN
 10
0.0
 20
0.0
  9
$LIMMAX
 10
420.0
 20
297.0
  9
$ORTHOMODE
 70
     0
  9
$REGENMODE
 70
     1
  9
$FILLMODE
 70
     1
  9
$QTEXTMODE
 70
     0
  9
$MIRRTEXT
 70
     0
  9
$LTSCALE
 40
1.0
  9
$ATTMODE
 70
     1
  9
$TEXTSIZE
 40
3.2
  9
$TRACEWID
 40
1.0
  9
$TEXTSTYLE
  7
\U+FF7D\U+FF80\U+FF72\U+FF991
  9
$CLAYER
  8
\U+FF7A\U+FF88\U+FF78\U+FF80
  9
$CELTYPE
  6
BYLAYER
  9
$CECOLOR
 62
   256
  9
$CELTSCALE
 40
1.0
  9
$DISPSILH
 70
     0
  9
$DIMSCALE
 40
2.0
  9
$DIMASZ
 40
1.5
  9
$DIMEXO
 40
1.0
  9
$DIMDLI
 40
0.38
  9
$DIMRND
 40
0.0
  9
$DIMDLE
 40
0.0
  9
$DIMEXE
 40
0.8
  9
$DIMTP
 40
0.0
  9
$DIMTM
 40
0.0
  9
$DIMTXT
 40
2.5
  9
$DIMCEN
 40
0.0
  9
$DIMTSZ
 40
0.0
  9
$DIMTOL
 70
     0
  9
$DIMLIM
 70
     0
  9
$DIMTIH
 70
     0
  9
$DIMTOH
 70
     0
  9
$DIMSE1
 70
     0
  9
$DIMSE2
 70
     0
  9
$DIMTAD
 70
     3
  9
$DIMZIN
 70
     8
  9
$DIMBLK
  1
Open30
  9
$DIMASO
 70
     1
  9
$DIMSHO
 70
     1
  9
$DIMPOST
  1

  9
$DIMAPOST
  1

  9
$DIMALT
 70
     0
  9
$DIMALTD
 70
     2
  9
$DIMALTF
 40
25.4
  9
$DIMLFAC
 40
1.0
  9
$DIMTOFL
 70
     0
  9
$DIMTVP
 40
0.0
  9
$DIMTIX
 70
     0
  9
$DIMSOXD
 70
     0
  9
$DIMSAH
 70
     0
  9
$DIMBLK1
  1

  9
$DIMBLK2
  1

  9
$DIMSTYLE
  2
まこ-10
  9
$DIMCLRD
 70
     4
  9
$DIMCLRE
 70
     4
  9
$DIMCLRT
 70
   256
  9
$DIMTFAC
 40
1.0
  9
$DIMGAP
 40
0.5
  9
$DIMJUST
 70
     0
  9
$DIMSD1
 70
     0
  9
$DIMSD2
 70
     0
  9
$DIMTOLJ
 70
     1
  9
$DIMTZIN
 70
     0
  9
$DIMALTZ
 70
     0
  9
$DIMALTTZ
 70
     0
  9
$DIMUPT
 70
     0
  9
$DIMDEC
 70
     5
  9
$DIMTDEC
 70
     5
  9
$DIMALTU
 70
     2
  9
$DIMALTTD
 70
     2
  9
$DIMTXSTY
  7
MS\U+FF7A\U+FF9E\U+FF7C\U+FF6F\U+FF78-0
  9
$DIMAUNIT
 70
     0
  9
$DIMADEC
 70
     5
  9
$DIMALTRND
 40
0.0
  9
$DIMAZIN
 70
     2
  9
$DIMDSEP
 70
    46
  9
$DIMATFIT
 70
     1
  9
$DIMFRAC
 70
     0
  9
$DIMLDRBLK
  1
Open30
  9
$DIMLUNIT
 70
     2
  9
$DIMLWD
 70
    13
  9
$DIMLWE
 70
    13
  9
$DIMTMOVE
 70
     0
  9
$LUNITS
 70
     2
  9
$LUPREC
 70
     4
  9
$SKETCHINC
 40
1.0
  9
$FILLETRAD
 40
0.6
  9
$AUNITS
 70
     0
  9
$AUPREC
 70
     0
  9
$MENU
  1
.
  9
$ELEVATION
 40
0.0
  9
$PELEVATION
 40
0.0
  9
$THICKNESS
 40
0.0
  9
$LIMCHECK
 70
     0
  9
$CHAMFERA
 40
1.5
  9
$CHAMFERB
 40
1.5
  9
$CHAMFERC
 40
20.0
  9
$CHAMFERD
 40
0.0
  9
$SKPOLY
 70
     0
  9
$TDCREATE
 40
2452479.723113426
  9
$TDUCREATE
 40
2452479.348123183
  9
$TDUPDATE
 40
2458547.499791667
  9
$TDUUPDATE
 40
2458547.124791667
  9
$TDINDWG
 40
0.0209169444
  9
$TDUSRTIMER
 40
2458333.324880972
  9
$USRTIMER
 70
     1
  9
$ANGBASE
 50
0.0
  9
$ANGDIR
 70
     0
  9
$PDMODE
 70
     0
  9
$PDSIZE
 40
0.0
  9
$PLINEWID
 40
0.0
  9
$SPLFRAME
 70
     0
  9
$SPLINETYPE
 70
     6
  9
$SPLINESEGS
 70
     8
  9
$HANDSEED
  5
BFEA9
  9
$SURFTAB1
 70
     6
  9
$SURFTAB2
 70
     6
  9
$SURFTYPE
 70
     6
  9
$SURFU
 70
     6
  9
$SURFV
 70
     6
  9
$UCSBASE
  2

  9
$UCSNAME
  2

  9
$UCSORG
 10
0.0
 20
0.0
 30
0.0
  9
$UCSXDIR
 10
1.0
 20
0.0
 30
0.0
  9
$UCSYDIR
 10
0.0
 20
1.0
 30
0.0
  9
$UCSORTHOREF
  2

  9
$UCSORTHOVIEW
 70
     0
  9
$UCSORGTOP
 10
0.0
 20
0.0
 30
0.0
  9
$UCSORGBOTTOM
 10
0.0
 20
0.0
 30
0.0
  9
$UCSORGLEFT
 10
0.0
 20
0.0
 30
0.0
  9
$UCSORGRIGHT
 10
0.0
 20
0.0
 30
0.0
  9
$UCSORGFRONT
 10
0.0
 20
0.0
 30
0.0
  9
$UCSORGBACK
 10
0.0
 20
0.0
 30
0.0
  9
$PUCSBASE
  2

  9
$PUCSNAME
  2

  9
$PUCSORG
 10
0.0
 20
0.0
 30
0.0
  9
$PUCSXDIR
 10
1.0
 20
0.0
 30
0.0
  9
$PUCSYDIR
 10
0.0
 20
1.0
 30
0.0
  9
$PUCSORTHOREF
  2

  9
$PUCSORTHOVIEW
 70
     0
  9
$PUCSORGTOP
 10
0.0
 20
0.0
 30
0.0
  9
$PUCSORGBOTTOM
 10
0.0
 20
0.0
 30
0.0
  9
$PUCSORGLEFT
 10
0.0
 20
0.0
 30
0.0
  9
$PUCSORGRIGHT
 10
0.0
 20
0.0
 30
0.0
  9
$PUCSORGFRONT
 10
0.0
 20
0.0
 30
0.0
  9
$PUCSORGBACK
 10
0.0
 20
0.0
 30
0.0
  9
$USERI1
 70
     0
  9
$USERI2
 70
     0
  9
$USERI3
 70
     0
  9
$USERI4
 70
     0
  9
$USERI5
 70
     0
  9
$USERR1
 40
10.0
  9
$USERR2
 40
0.0
  9
$USERR3
 40
0.0
  9
$USERR4
 40
0.0
  9
$USERR5
 40
0.0
  9
$WORLDVIEW
 70
     1
  9
$SHADEDGE
 70
     3
  9
$SHADEDIF
 70
    70
  9
$TILEMODE
 70
     0
  9
$MAXACTVP
 70
    48
  9
$PINSBASE
 10
0.0
 20
0.0
 30
0.0
  9
$PLIMCHECK
 70
     0
  9
$PEXTMIN
 10
1.049999999999999
 20
0.6999999999999993
 30
0.0
  9
$PEXTMAX
 10
9.449999999999999
 20
6.3
 30
0.0
  9
$PLIMMIN
 10
0.0
 20
0.0
  9
$PLIMMAX
 10
11.0
 20
8.5
  9
$UNITMODE
 70
     0
  9
$VISRETAIN
 70
     1
  9
$PLINEGEN
 70
     0
  9
$PSLTSCALE
 70
     1
  9
$TREEDEPTH
 70
  3020
  9
$CMLSTYLE
  2
STANDARD
  9
$CMLJUST
 70
     0
  9
$CMLSCALE
 40
20.0
  9
$PROXYGRAPHICS
 70
     1
  9
$MEASUREMENT
 70
     0
  9
$CELWEIGHT
370
    -1
  9
$ENDCAPS
280
     0
  9
$JOINSTYLE
280
     0
  9
$LWDISPLAY
290
     0
  9
$INSUNITS
 70
     0
  9
$HYPERLINKBASE
  1

  9
$STYLESHEET
  1
monochrome.ctb
  9
$XEDIT
290
     1
  9
$CEPSNTYPE
380
     0
  9
$PSTYLEMODE
290
     1
  9
$FINGERPRINTGUID
  2
{6B368F64-F7EB-11D4-BFBA-00004C030E53}
  9
$VERSIONGUID
  2
{9E77B0B5-E1E9-7147-AFD9-2A9C4ADF626D}
  9
$EXTNAMES
290
     1
  9
$PSVPSCALE
 40
0.0
  9
$OLESTARTUP
290
     0
  0
ENDSEC
  0
SECTION
  2
CLASSES
  0
CLASS
  1
ACDBDICTIONARYWDFLT
  2
AcDbDictionaryWithDefault
  3
ObjectDBX Classes
 90
        0
280
     0
281
     0
  0
CLASS
  1
ACDBPLACEHOLDER
  2
AcDbPlaceHolder
  3
ObjectDBX Classes
 90
        0
280
     0
281
     0
  0
CLASS
  1
LAYOUT
  2
AcDbLayout
  3
ObjectDBX Classes
 90
        0
280
     0
281
     0
  0
CLASS
  1
DICTIONARYVAR
  2
AcDbDictionaryVar
  3
ObjectDBX Classes
 90
        0
280
     0
281
     0
  0
CLASS
  1
MATERIAL
  2
AcDbMaterial
  3
ObjectDBX Classes
 90
     1153
280
     0
281
     0
  0
CLASS
  1
VISUALSTYLE
  2
AcDbVisualStyle
  3
ObjectDBX Classes
 90
     4095
280
     0
281
     0
  0
CLASS
  1
TABLESTYLE
  2
AcDbTableStyle
  3
ObjectDBX Classes
 90
     4095
280
     0
281
     0
  0
CLASS
  1
SCALE
  2
AcDbScale
  3
ObjectDBX Classes
 90
     1153
280
     0
281
     0
  0
CLASS
  1
MLEADERSTYLE
  2
AcDbMLeaderStyle
  3
ACDB_MLEADERSTYLE_CLASS
 90
     4095
280
     0
281
     0
  0
CLASS
  1
ACDBSECTIONVIEWSTYLE
  2
AcDbSectionViewStyle
  3
ObjectDBX Classes
 90
     1025
280
     0
281
     0
  0
CLASS
  1
ACDBDETAILVIEWSTYLE
  2
AcDbDetailViewStyle
  3
ObjectDBX Classes
 90
     1025
280
     0
281
     0
  0
CLASS
  1
SORTENTSTABLE
  2
AcDbSortentsTable
  3
ObjectDBX Classes
 90
        0
280
     0
281
     0
  0
CLASS
  1
CELLSTYLEMAP
  2
AcDbCellStyleMap
  3
ObjectDBX Classes
 90
     1152
280
     0
281
     0
  0
CLASS
  1
SUN
  2
AcDbSun
  3
SCENEOE
 90
     1153
280
     0
281
     0
  0
CLASS
  1
RASTERVARIABLES
  2
AcDbRasterVariables
  3
ISM
 90
        0
280
     0
281
     0
  0
ENDSEC
  0
SECTION
  2
TABLES
  0
TABLE
  2
VPORT
  5
8
102
{ACAD_XDICTIONARY
360
BFE0D
102
}
330
0
100
AcDbSymbolTable
 70
     1
  0
VPORT
  5
BEAEB
330
8
100
AcDbSymbolTableRecord
100
AcDbViewportTableRecord
  2
*Active
 70
     0
 10
0.0
 20
0.0
 11
1.0
 21
1.0
 12
6206.945172292254
 22
-3243.536794923236
 13
-147.9468458676922
 23
19.55743956420332
 14
10.0
 24
10.0
 15
10.0
 25
10.0
 16
0.0
 26
0.0
 36
1.0
 17
0.0
 27
0.0
 37
0.0
 40
159.902697350275
 41
1.627400768245838
 42
50.0
 43
0.0
 44
0.0
 50
0.0
 51
0.0
 71
    16
 72
   100
 73
     1
 74
     0
 75
     0
 76
     0
 77
     0
 78
     0
281
     0
 65
     1
110
0.0
120
0.0
130
0.0
111
1.0
121
0.0
131
0.0
112
0.0
122
1.0
132
0.0
 79
     0
146
0.0
1001
ACAD_NAV_VCDISPLAY
1070
     3
  0
ENDTAB
  0
TABLE
  2
LTYPE
  5
5
330
0
100
AcDbSymbolTable
 70
     3
  0
LTYPE
  5
12
330
5
100
AcDbSymbolTableRecord
100
AcDbLinetypeTableRecord
  2
BYBLOCK
 70
     0
  3

 72
    65
 73
     0
 40
0.0
  0
LTYPE
  5
13
330
5
100
AcDbSymbolTableRecord
100
AcDbLinetypeTableRecord
  2
BYLAYER
 70
     0
  3

 72
    65
 73
     0
 40
0.0
  0
LTYPE
  5
14
330
5
100
AcDbSymbolTableRecord
100
AcDbLinetypeTableRecord
  2
CONTINUOUS
 70
     0
  3
Solid line
 72
    65
 73
     0
 40
0.0
  0
LTYPE
  5
969
330
5
100
AcDbSymbolTableRecord
100
AcDbLinetypeTableRecord
  2
CENTER2
 70
     0
  3
Center (.5x) ___ _ ___ _ ___ _ ___ _ ___ _ ___
 72
    65
 73
     4
 40
28.575
 49
19.05
 74
     0
 49
-3.174999999999999
 74
     0
 49
3.174999999999999
 74
     0
 49
-3.174999999999999
 74
     0
  0
LTYPE
  5
808B3
330
5
100
AcDbSymbolTableRecord
100
AcDbLinetypeTableRecord
  2
PHANTOM2
 70
     0
  3
Phantom (.5x) ___ _ _ ___ _ _ ___ _ _ ___ _ _
 72
    65
 73
     6
 40
1.25
 49
0.625
 74
     0
 49
-0.125
 74
     0
 49
0.125
 74
     0
 49
-0.125
 74
     0
 49
0.125
 74
     0
 49
-0.125
 74
     0
  0
ENDTAB
  0
TABLE
  2
LAYER
  5
2
102
{ACAD_XDICTIONARY
360
1E591
102
}
330
0
100
AcDbSymbolTable
 70
     9
  0
LAYER
  5
E
102
{ACAD_XDICTIONARY
360
A181E
102
}
330
2
100
AcDbSymbolTableRecord
100
AcDbLayerTableRecord
  2
0
 70
     2
 62
     7
  6
CONTINUOUS
370
    -3
390
73E
  0
LAYER
  5
8C6
102
{ACAD_XDICTIONARY
360
A1826
102
}
330
2
100
AcDbSymbolTableRecord
100
AcDbLayerTableRecord
  2
文字
 70
     0
 62
     7
  6
CONTINUOUS
370
    20
390
73E
  0
LAYER
  5
96A
102
{ACAD_XDICTIONARY
360
A182C
102
}
330
2
100
AcDbSymbolTableRecord
100
AcDbLayerTableRecord
  2
中心線
 70
     0
 62
     7
  6
CENTER2
370
    13
390
73E
  0
LAYER
  5
1521
102
{ACAD_XDICTIONARY
360
A182E
102
}
330
2
100
AcDbSymbolTableRecord
100
AcDbLayerTableRecord
  2
実線
 70
     0
 62
     7
  6
CONTINUOUS
370
    30
390
73E
  0
LAYER
  5
1523
102
{ACAD_XDICTIONARY
360
A1832
102
}
330
2
100
AcDbSymbolTableRecord
100
AcDbLayerTableRecord
  2
細線
 70
     0
 62
     7
  6
CONTINUOUS
370
    13
390
73E
  0
LAYER
  5
1526
102
{ACAD_XDICTIONARY
360
A1834
102
}
330
2
100
AcDbSymbolTableRecord
100
AcDbLayerTableRecord
  2
\U+FF77\U+FF6C\U+FF6F\U+FF8C\U+FF9F\U+FF8E\U+FF9E\U+FF99\U+FF84
 70
     0
 62
     7
  6
CONTINUOUS
370
    30
390
73E
  0
LAYER
  5
44F0
102
{ACAD_XDICTIONARY
360
A1836
102
}
330
2
100
AcDbSymbolTableRecord
100
AcDbLayerTableRecord
  2
\U+FF7A\U+FF88\U+FF78\U+FF80
 70
     0
 62
     7
  6
CONTINUOUS
370
    30
390
73E
  0
LAYER
  5
89316
102
{ACAD_XDICTIONARY
360
A185E
102
}
330
2
100
AcDbSymbolTableRecord
100
AcDbLayerTableRecord
  2
本体
 70
     0
 62
     7
  6
CONTINUOUS
370
    30
390
73E
  0
LAYER
  5
BFC12
102
{ACAD_XDICTIONARY
360
BFC13
102
}
330
2
100
AcDbSymbolTableRecord
100
AcDbLayerTableRecord
  2
寸法
 70
     0
 62
     7
  6
CONTINUOUS
370
    15
390
73E
  0
ENDTAB
  0
TABLE
  2
STYLE
  5
3
330
0
100
AcDbSymbolTable
 70
     6
  0
STYLE
  5
F
330
3
100
AcDbSymbolTableRecord
100
AcDbTextStyleTableRecord
  2
STANDARD
 70
     0
 40
0.0
 41
1.0
 50
0.0
 71
     0
 42
2.5
  3
simplex.shx
  4
bigfont.shx
  0
STYLE
  5
34
330
3
100
AcDbSymbolTableRecord
100
AcDbTextStyleTableRecord
  2
TIMESNR
 70
     0
 40
0.0
 41
1.0
 50
0.0
 71
     0
 42
2.0
  3
times.ttf
  4

1001
ACAD
1000
Times New Roman
1071
       18
  0
STYLE
  5
8D7
330
3
100
AcDbSymbolTableRecord
100
AcDbTextStyleTableRecord
  2
MS\U+FF7A\U+FF9E\U+FF7C\U+FF6F\U+FF78-0
 70
     0
 40
0.0
 41
1.0
 50
0.0
 71
     0
 42
4.0
  3
simplex.shx
  4
bigfont.shx
  0
STYLE
  5
1529
330
3
100
AcDbSymbolTableRecord
100
AcDbTextStyleTableRecord
  2
まこ
 70
     0
 40
0.0
 41
1.0
 50
0.0
 71
     0
 42
3.2
  3
simplex.shx
  4
bigfont.shx
  0
STYLE
  5
1A5A7
330
3
100
AcDbSymbolTableRecord
100
AcDbTextStyleTableRecord
  2
MS\U+FF7A\U+FF9E\U+FF7C\U+FF6F\U+FF78N
 70
     0
 40
0.0
 41
1.0
 50
0.0
 71
     0
 42
5.0
  3

  4

1001
ACAD
1000
MS Gothic
1071
    32817
  0
STYLE
  5
80335
330
3
100
AcDbSymbolTableRecord
100
AcDbTextStyleTableRecord
  2
\U+FF7D\U+FF80\U+FF72\U+FF991
 70
     0
 40
0.0
 41
1.0
 50
0.0
 71
     0
 42
3.2
  3
simplex.shx
  4
extfont.shx
  0
ENDTAB
  0
TABLE
  2
VIEW
  5
6
330
0
100
AcDbSymbolTable
 70
     0
  0
ENDTAB
  0
TABLE
  2
UCS
  5
7
330
0
100
AcDbSymbolTable
 70
     0
  0
ENDTAB
  0
TABLE
  2
APPID
  5
9
330
0
100
AcDbSymbolTable
 70
    12
  0
APPID
  5
10
330
9
100
AcDbSymbolTableRecord
100
AcDbRegAppTableRecord
  2
ACAD
 70
     0
  0
APPID
  5
8F5A1
330
9
100
AcDbSymbolTableRecord
100
AcDbRegAppTableRecord
  2
ACAD_NAV_VCDISPLAY
 70
     0
  0
APPID
  5
9D2AC
330
9
100
AcDbSymbolTableRecord
100
AcDbRegAppTableRecord
  2
ACAD_EXEMPT_FROM_CAD_STANDARDS
 70
     0
  0
APPID
  5
9F5CA
330
9
100
AcDbSymbolTableRecord
100
AcDbRegAppTableRecord
  2
ACAD_DSTYLE_DIMRADIAL_EXTENSION
 70
     0
  0
APPID
  5
9F624
330
9
100
AcDbSymbolTableRecord
100
AcDbRegAppTableRecord
  2
AcadAnnoMonitorAlertIconDisabled
 70
     0
  0
APPID
  5
A2043
330
9
100
AcDbSymbolTableRecord
100
AcDbRegAppTableRecord
  2
ACAD_MLEADERVER
 70
     0
  0
APPID
  5
A2088
330
9
100
AcDbSymbolTableRecord
100
AcDbRegAppTableRecord
  2
ACAD_DSTYLE_DIMFLIPARROW_WHICH_SYMBOL
 70
     0
  0
APPID
  5
B4EF0
330
9
100
AcDbSymbolTableRecord
100
AcDbRegAppTableRecord
  2
AcadAnnotative
 70
     0
  0
APPID
  5
BE78B
330
9
100
AcDbSymbolTableRecord
100
AcDbRegAppTableRecord
  2
ACAD_PSEXT
 70
     0
  0
APPID
  5
BECE1
330
9
100
AcDbSymbolTableRecord
100
AcDbRegAppTableRecord
  2
PE_CLOUD
 70
     0
  0
APPID
  5
BF6E0
330
9
100
AcDbSymbolTableRecord
100
AcDbRegAppTableRecord
  2
TB_S_MPD
 70
     0
  0
APPID
  5
BFAE4
330
9
100
AcDbSymbolTableRecord
100
AcDbRegAppTableRecord
  2
PLOTTRANSPARENCY
 70
     0
  0
ENDTAB
  0
TABLE
  2
DIMSTYLE
  5
A
330
0
100
AcDbSymbolTable
 70
     2
100
AcDbDimStyleTable
 71
     0
  0
DIMSTYLE
105
1D
330
A
100
AcDbSymbolTableRecord
100
AcDbDimStyleTableRecord
  2
STANDARD
 70
     0
 41
3.0
 42
0.8
 44
0.8
 73
     0
 74
     0
 77
     3
 78
     8
 79
     2
140
3.0
141
0.0
147
0.5
176
     4
177
     4
178
   256
340
8D7
341
89E
342
89E
371
    13
372
    13
  0
DIMSTYLE
105
8264
330
A
100
AcDbSymbolTableRecord
100
AcDbDimStyleTableRecord
  2
まこ-10
 70
     0
 40
2.0
 41
1.5
 42
1.0
 44
0.8
 73
     0
 74
     0
 77
     3
 78
     8
 79
     2
140
2.5
141
0.0
147
0.5
176
     4
177
     4
178
   256
179
     5
271
     5
272
     5
289
     1
340
8D7
341
89E
342
89E
371
    13
372
    13
  0
ENDTAB
  0
TABLE
  2
BLOCK_RECORD
  5
1
330
0
100
AcDbSymbolTable
 70
     1
  0
BLOCK_RECORD
  5
18
102
{ACAD_XDICTIONARY
360
9F677
102
}
330
1
100
AcDbSymbolTableRecord
100
AcDbBlockTableRecord
  2
*MODEL_SPACE
340
741
  0
BLOCK_RECORD
  5
BFB7F
330
1
100
AcDbSymbolTableRecord
100
AcDbBlockTableRecord
  2
*Paper_Space
340
BFB80
  0
BLOCK_RECORD
  5
89E
330
1
100
AcDbSymbolTableRecord
100
AcDbBlockTableRecord
  2
_Open30
340
0
  0
ENDTAB
  0
ENDSEC
  0
SECTION
  2
BLOCKS
  0
BLOCK
  5
19
330
18
100
AcDbEntity
  8
0
100
AcDbBlockBegin
  2
*MODEL_SPACE
 70
     0
 10
0.0
 20
0.0
 30
0.0
  3
*MODEL_SPACE
  1
*MODEL_SPACE
  0
ENDBLK
  5
1A
330
18
100
AcDbEntity
  8
0
100
AcDbBlockEnd
  0
BLOCK
  5
BFB81
330
BFB7F
100
AcDbEntity
 67
     1
  8
0
100
AcDbBlockBegin
  2
*Paper_Space
 70
     0
 10
0.0
 20
0.0
 30
0.0
  3
*Paper_Space
  1
*Paper_Space
  0
ENDBLK
  5
BFB82
330
BFB7F
100
AcDbEntity
 67
     1
  8
0
100
AcDbBlockEnd
  0
BLOCK
  5
8A2
330
89E
100
AcDbEntity
  8
0
100
AcDbBlockBegin
  2
_Open30
 70
     0
 10
0.0
 20
0.0
 30
0.0
  3
_Open30
  1
_Open30
  0
LINE
  5
89F
330
89E
100
AcDbEntity
  8
0
  6
ByBlock
 62
     0
370
    -2
100
AcDbLine
 10
-1.0
 20
0.26794919
 30
0.0
 11
0.0
 21
0.0
 31
0.0
  0
LINE
  5
8A0
330
89E
100
AcDbEntity
  8
0
  6
ByBlock
 62
     0
370
    -2
100
AcDbLine
 10
0.0
 20
0.0
 30
0.0
 11
-1.0
 21
-0.26794919
 31
0.0
  0
LINE
  5
8A1
330
89E
100
AcDbEntity
  8
0
  6
ByBlock
 62
     0
370
    -2
100
AcDbLine
 10
0.0
 20
0.0
 30
0.0
 11
-1.0
 21
0.0
 31
0.0
  0
ENDBLK
  5
8A3
330
89E
100
AcDbEntity
  8
0
100
AcDbBlockEnd
  0
ENDSEC
  0
SECTION
  2
ENTITIES
  0
TEXT
  5
16EAD
330
18
100
AcDbEntity
  8
文字
100
AcDbText
 10
-213.0399041533702
 20
458.6683596617151
 30
0.0
 40
2.699999892000001
  1

  7
まこ
 72
     1
 11
-213.0399041533702
 21
460.0183596077151
 31
0.0
100
AcDbText
 73
     2
  0
LINE
  5
B640D
330
18
100
AcDbEntity
  8
実線
 48
0.2
100
AcDbLine
 10
5769.91668923845
 20
-2996.405054186566
 30
0.0
 11
5769.916690966985
 21
-3087.052722798985
 31
0.0
  0
ARC
  5
B640E
330
18
100
AcDbEntity
  8
実線
 48
0.2
100
AcDbCircle
 10
5713.916689238356
 20
-3041.728888975839
 30
0.0
 40
55.25000000001637
100
AcDbArc
 50
0.0000000000521102
 51
151.0239196669747
  0
LINE
  5
B640F
330
18
100
AcDbEntity
  8
実線
 48
0.2
100
AcDbLine
 10
5657.916687509915
 20
-3013.420136051577
 30
0.0
 11
5657.916687509915
 21
-2996.405055152577
 31
0.0
  0
LINE
  5
B6410
330
18
100
AcDbEntity
  8
中心線
 48
0.5
100
AcDbLine
 10
5713.916689238452
 20
-3109.189107253475
 30
0.0
 11
5713.916689238452
 21
-2974.268670698086
 31
0.0
  0
ARC
  5
B6411
330
18
100
AcDbEntity
  8
実線
 48
0.2
100
AcDbCircle
 10
5713.91668923845
 20
-3041.728888975781
 30
0.0
 40
55.99999999999997
100
AcDbArc
 50
212.1939475442784
 51
147.8060524557216
  0
ARC
  5
B6417
330
18
100
AcDbEntity
  8
実線
 48
0.2
100
AcDbCircle
 10
5713.916689238356
 20
-3041.728888975839
 30
0.0
 40
55.25000000001637
100
AcDbArc
 50
208.97608033279
 51
0.0000000000521102
  0
LINE
  5
B6418
330
18
100
AcDbEntity
  8
中心線
 48
0.5
100
AcDbLine
 10
5646.456470960756
 20
-3041.728888975781
 30
0.0
 11
5781.376907516143
 21
-3041.728888975781
 31
0.0
  0
LINE
  5
B6419
330
18
100
AcDbEntity
  8
実線
 48
0.2
100
AcDbLine
 10
5759.240523061654
 20
-3097.728890704315
 30
0.0
 11
5668.592854391768
 21
-3097.728888975781
 31
0.0
  0
CIRCLE
  5
B641C
330
18
100
AcDbEntity
  8
\U+FF77\U+FF6C\U+FF6F\U+FF8C\U+FF9F\U+FF8E\U+FF9E\U+FF99\U+FF84
100
AcDbCircle
 10
5676.72287254814
 20
-3078.922705830119
 30
0.0
 40
2.0
  0
LINE
  5
B641D
330
18
100
AcDbEntity
  8
実線
 48
0.2
100
AcDbLine
 10
5657.916687509915
 20
-3087.052722798985
 30
0.0
 11
5657.916687509915
 21
-3070.037641899984
 31
0.0
  0
ARC
  5
B642D
330
18
100
AcDbEntity
  8
実線
 48
0.2
100
AcDbCircle
 10
5713.91668923845
 20
-3041.728888975781
 30
0.0
 40
72.49999999999996
100
AcDbArc
 50
220.007753913509
 51
229.9922460865276
  0
ARC
  5
B642E
330
18
100
AcDbEntity
  8
実線
 48
0.2
100
AcDbCircle
 10
5668.592854449236
 20
-3095.728888975781
 30
0.0
 40
2.0
100
AcDbArc
 50
229.9922460865276
 51
270.0
  0
ARC
  5
B642F
330
18
100
AcDbEntity
  8
実線
 48
0.2
100
AcDbCircle
 10
5659.91668923845
 20
-3087.052723764994
 30
0.0
 40
2.0
100
AcDbArc
 50
180.0
 51
220.007753913509
  0
LINE
  5
B6430
330
18
100
AcDbEntity
  8
\U+FF77\U+FF6C\U+FF6F\U+FF8C\U+FF9F\U+FF8E\U+FF9E\U+FF99\U+FF84
100
AcDbLine
 10
5677.416313449703
 20
-3077.875711537962
 30
0.0
 11
5676.72287254814
 21
-3078.569152439525
 31
0.0
  0
LINE
  5
B6431
330
18
100
AcDbEntity
  8
\U+FF77\U+FF6C\U+FF6F\U+FF8C\U+FF9F\U+FF8E\U+FF9E\U+FF99\U+FF84
100
AcDbLine
 10
5677.769866840296
 20
-3078.229264928555
 30
0.0
 11
5677.076425938732
 21
-3078.922705830119
 31
0.0
  0
LINE
  5
B6432
330
18
100
AcDbEntity
  8
\U+FF77\U+FF6C\U+FF6F\U+FF8C\U+FF9F\U+FF8E\U+FF9E\U+FF99\U+FF84
100
AcDbLine
 10
5675.675878255983
 20
-3078.229264928555
 30
0.0
 11
5676.369319157545
 21
-3078.922705830119
 31
0.0
  0
LINE
  5
B6433
330
18
100
AcDbEntity
  8
\U+FF77\U+FF6C\U+FF6F\U+FF8C\U+FF9F\U+FF8E\U+FF9E\U+FF99\U+FF84
100
AcDbLine
 10
5676.029431646576
 20
-3077.875711537962
 30
0.0
 11
5676.72287254814
 21
-3078.569152439525
 31
0.0
  0
LINE
  5
B6434
330
18
100
AcDbEntity
  8
\U+FF77\U+FF6C\U+FF6F\U+FF8C\U+FF9F\U+FF8E\U+FF9E\U+FF99\U+FF84
100
AcDbLine
 10
5676.369319157545
 20
-3078.922705830119
 30
0.0
 11
5675.675878255981
 21
-3079.616146731682
 31
0.0
  0
LINE
  5
B6435
330
18
100
AcDbEntity
  8
\U+FF77\U+FF6C\U+FF6F\U+FF8C\U+FF9F\U+FF8E\U+FF9E\U+FF99\U+FF84
100
AcDbLine
 10
5676.722872548138
 20
-3079.276259220712
 30
0.0
 11
5676.029431646576
 21
-3079.969700122277
 31
0.0
  0
LINE
  5
B6436
330
18
100
AcDbEntity
  8
\U+FF77\U+FF6C\U+FF6F\U+FF8C\U+FF9F\U+FF8E\U+FF9E\U+FF99\U+FF84
100
AcDbLine
 10
5677.076425938732
 20
-3078.922705830118
 30
0.0
 11
5677.769866840296
 21
-3079.616146731682
 31
0.0
  0
LINE
  5
B6437
330
18
100
AcDbEntity
  8
\U+FF77\U+FF6C\U+FF6F\U+FF8C\U+FF9F\U+FF8E\U+FF9E\U+FF99\U+FF84
100
AcDbLine
 10
5676.722872548138
 20
-3079.276259220712
 30
0.0
 11
5677.416313449703
 21
-3079.969700122277
 31
0.0
  0
LINE
  5
B6438
330
18
100
AcDbEntity
  8
\U+FF77\U+FF6C\U+FF6F\U+FF8C\U+FF9F\U+FF8E\U+FF9E\U+FF99\U+FF84
100
AcDbLine
 10
5676.029431646576
 20
-3079.969700122277
 30
0.0
 11
5675.675878255983
 21
-3079.616146731682
 31
0.0
  0
LINE
  5
B6439
330
18
100
AcDbEntity
  8
\U+FF77\U+FF6C\U+FF6F\U+FF8C\U+FF9F\U+FF8E\U+FF9E\U+FF99\U+FF84
100
AcDbLine
 10
5675.675878255983
 20
-3078.229264928555
 30
0.0
 11
5676.029431646576
 21
-3077.875711537962
 31
0.0
  0
LINE
  5
B643A
330
18
100
AcDbEntity
  8
\U+FF77\U+FF6C\U+FF6F\U+FF8C\U+FF9F\U+FF8E\U+FF9E\U+FF99\U+FF84
100
AcDbLine
 10
5677.769866840297
 20
-3078.229264928555
 30
0.0
 11
5677.416313449703
 21
-3077.875711537962
 31
0.0
  0
LINE
  5
B643B
330
18
100
AcDbEntity
  8
\U+FF77\U+FF6C\U+FF6F\U+FF8C\U+FF9F\U+FF8E\U+FF9E\U+FF99\U+FF84
100
AcDbLine
 10
5677.416313449703
 20
-3079.969700122277
 30
0.0
 11
5677.769866840296
 21
-3079.616146731682
 31
0.0
  0
CIRCLE
  5
B643C
330
18
100
AcDbEntity
  8
実線
 48
0.2
100
AcDbCircle
 10
5669.72251541429
 20
-3085.923062799944
 30
0.0
 40
3.5
  0
ARC
  5
B643D
330
18
100
AcDbEntity
  8
中心線
 48
0.5
100
AcDbCircle
 10
5713.91668923845
 20
-3041.728888975781
 30
0.0
 40
62.50000000000287
100
AcDbArc
 50
218.3059146666068
 51
231.6940853333932
  0
LINE
  5
B643E
330
18
100
AcDbEntity
  8
中心線
 48
0.5
100
AcDbLine
 10
5674.882953783574
 20
-3080.762624430657
 30
0.0
 11
5664.562077045006
 21
-3091.083501169225
 31
0.0
  0
LINE
  5
B643F
330
18
100
AcDbEntity
  8
中心線
100
AcDbLine
 10
5622.232597589022
 20
-3041.72888897578
 30
0.0
 11
5653.416689238451
 21
-3041.728888975781
 31
0.0
  0
ARC
  5
B644B
330
18
100
AcDbEntity
  8
実線
 48
0.2
100
AcDbCircle
 10
5713.91668923845
 20
-3041.728888975781
 30
0.0
 40
62.49999999999994
100
AcDbArc
 50
155.0714582197782
 51
204.9285417802218
  0
ARC
  5
B644C
330
18
100
AcDbEntity
  8
実線
 48
0.2
100
AcDbCircle
 10
5713.916689238412
 20
-3041.72888897573
 30
0.0
 40
61.0
100
AcDbArc
 50
155.1127895121913
 51
204.8872104878087
  0
LINE
  5
B6457
330
18
100
AcDbEntity
  8
実線
 48
0.2
100
AcDbLine
 10
5659.488410742758
 20
-3067.978888975722
 30
0.0
 11
5664.707950177021
 21
-3067.978888975725
 31
0.0
  0
ARC
  5
B6458
330
18
100
AcDbEntity
  8
実線
 48
0.2
100
AcDbCircle
 10
5662.295472670065
 20
-3074.228888975779
 30
0.0
 40
5.00000000000002
100
AcDbArc
 50
32.19394754427842
 51
90.0
  0
LINE
  5
B6459
330
18
100
AcDbEntity
  8
実線
 48
0.2
100
AcDbLine
 10
5659.053221425912
 20
-3069.228888826769
 30
0.0
 11
5662.295471957824
 21
-3069.228888826769
 31
0.0
  0
ARC
  5
B645A
330
18
100
AcDbEntity
  8
実線
 48
0.2
100
AcDbCircle
 10
5654.916689238451
 20
-3070.037642060501
 30
0.0
 40
3.0
100
AcDbArc
 50
0.0
 51
34.05827246151328
  0
ARC
  5
B645B
330
18
100
AcDbEntity
  8
実線
 48
0.2
100
AcDbCircle
 10
5659.053222341069
 20
-3067.228888975781
 30
0.0
 40
2.000000000000014
100
AcDbArc
 50
204.9285417802218
 51
270.0
  0
ARC
  5
B645C
330
18
100
AcDbEntity
  8
実線
 48
0.2
100
AcDbCircle
 10
5659.488410742758
 20
-3066.978888975722
 30
0.0
 40
1.0
100
AcDbArc
 50
204.8872104878087
 51
269.9999999998957
  0
ARC
  5
B645D
330
18
100
AcDbEntity
  8
実線
 48
0.2
100
AcDbCircle
 10
5664.707950177021
 20
-3068.978888975725
 30
0.0
 40
1.0
100
AcDbArc
 50
28.97608033278996
 51
90.0
  0
LINE
  5
B646C
330
18
100
AcDbEntity
  8
実線
 48
0.2
100
AcDbLine
 10
5659.488410742765
 20
-3015.478888975722
 30
0.0
 11
5664.707950177151
 21
-3015.478888975722
 31
0.0
  0
ARC
  5
B646D
330
18
100
AcDbEntity
  8
実線
 48
0.2
100
AcDbCircle
 10
5662.295472670065
 20
-3009.228888975781
 30
0.0
 40
5.000000000000007
100
AcDbArc
 50
270.0
 51
327.8060524557216
  0
LINE
  5
B646E
330
18
100
AcDbEntity
  8
実線
 48
0.2
100
AcDbLine
 10
5662.295471957824
 20
-3014.228889124793
 30
0.0
 11
5659.053221425912
 21
-3014.228889124793
 31
0.0
  0
ARC
  5
B646F
330
18
100
AcDbEntity
  8
実線
 48
0.2
100
AcDbCircle
 10
5654.916689238451
 20
-3013.420135891058
 30
0.0
 40
3.000000000000015
100
AcDbArc
 50
325.9398073321623
 51
0.0
  0
ARC
  5
B6470
330
18
100
AcDbEntity
  8
実線
 48
0.2
100
AcDbCircle
 10
5659.053222341069
 20
-3016.228888975781
 30
0.0
 40
2.0
100
AcDbArc
 50
90.0
 51
155.0714582197782
  0
ARC
  5
B6471
330
18
100
AcDbEntity
  8
実線
 48
0.2
100
AcDbCircle
 10
5659.488410742765
 20
-3016.478888975722
 30
0.0
 40
1.0
100
AcDbArc
 50
90.0
 51
155.1127895121913
  0
ARC
  5
B6472
330
18
100
AcDbEntity
  8
実線
 48
0.2
100
AcDbCircle
 10
5664.707950177151
 20
-3014.478888975722
 30
0.0
 40
1.0
100
AcDbArc
 50
270.0
 51
331.0239196669747
  0
CIRCLE
  5
B6473
330
18
100
AcDbEntity
  8
\U+FF77\U+FF6C\U+FF6F\U+FF8C\U+FF9F\U+FF8E\U+FF9E\U+FF99\U+FF84
100
AcDbCircle
 10
5751.110506092791
 20
-3078.922705666094
 30
0.0
 40
2.0
  0
ARC
  5
B6476
330
18
100
AcDbEntity
  8
実線
 48
0.2
100
AcDbCircle
 10
5713.91668923845
 20
-3041.728888975781
 30
0.0
 40
72.50000000000003
100
AcDbArc
 50
310.0077539134724
 51
319.992246086491
  0
ARC
  5
B6477
330
18
100
AcDbEntity
  8
実線
 48
0.2
100
AcDbCircle
 10
5759.240524027664
 20
-3095.728888975781
 30
0.0
 40
2.000000000000008
100
AcDbArc
 50
270.0
 51
310.0077539134724
  0
CIRCLE
  5
B6478
330
18
100
AcDbEntity
  8
実線
 48
0.2
100
AcDbCircle
 10
5758.110863062612
 20
-3085.923062799941
 30
0.0
 40
3.5
  0
ARC
  5
B6479
330
18
100
AcDbEntity
  8
中心線
 48
0.5
100
AcDbCircle
 10
5713.91668923845
 20
-3041.728888975781
 30
0.0
 40
62.50000000000287
100
AcDbArc
 50
308.3059146666068
 51
321.6940853333932
  0
LINE
  5
B647A
330
18
100
AcDbEntity
  8
中心線
 48
0.5
100
AcDbLine
 10
5752.950424693326
 20
-3080.762624430658
 30
0.0
 11
5763.271301431895
 21
-3091.083501169225
 31
0.0
  0
LINE
  5
B647B
330
18
100
AcDbEntity
  8
\U+FF77\U+FF6C\U+FF6F\U+FF8C\U+FF9F\U+FF8E\U+FF9E\U+FF99\U+FF84
100
AcDbLine
 10
5750.063511800634
 20
-3078.229264764531
 30
0.0
 11
5750.756952702197
 21
-3078.922705666094
 31
0.0
  0
LINE
  5
B647C
330
18
100
AcDbEntity
  8
\U+FF77\U+FF6C\U+FF6F\U+FF8C\U+FF9F\U+FF8E\U+FF9E\U+FF99\U+FF84
100
AcDbLine
 10
5750.417065191226
 20
-3077.875711373939
 30
0.0
 11
5751.110506092791
 21
-3078.569152275502
 31
0.0
  0
LINE
  5
B647D
330
18
100
AcDbEntity
  8
\U+FF77\U+FF6C\U+FF6F\U+FF8C\U+FF9F\U+FF8E\U+FF9E\U+FF99\U+FF84
100
AcDbLine
 10
5750.417065191226
 20
-3079.969699958252
 30
0.0
 11
5751.110506092791
 21
-3079.276259056689
 31
0.0
  0
LINE
  5
B647E
330
18
100
AcDbEntity
  8
\U+FF77\U+FF6C\U+FF6F\U+FF8C\U+FF9F\U+FF8E\U+FF9E\U+FF99\U+FF84
100
AcDbLine
 10
5750.063511800634
 20
-3079.616146567659
 30
0.0
 11
5750.756952702197
 21
-3078.922705666094
 31
0.0
  0
LINE
  5
B647F
330
18
100
AcDbEntity
  8
\U+FF77\U+FF6C\U+FF6F\U+FF8C\U+FF9F\U+FF8E\U+FF9E\U+FF99\U+FF84
100
AcDbLine
 10
5751.110506092791
 20
-3079.276259056689
 30
0.0
 11
5751.803946994354
 21
-3079.969699958253
 31
0.0
  0
LINE
  5
B6480
330
18
100
AcDbEntity
  8
\U+FF77\U+FF6C\U+FF6F\U+FF8C\U+FF9F\U+FF8E\U+FF9E\U+FF99\U+FF84
100
AcDbLine
 10
5751.464059483383
 20
-3078.922705666097
 30
0.0
 11
5752.157500384948
 21
-3079.616146567659
 31
0.0
  0
LINE
  5
B6481
330
18
100
AcDbEntity
  8
\U+FF77\U+FF6C\U+FF6F\U+FF8C\U+FF9F\U+FF8E\U+FF9E\U+FF99\U+FF84
100
AcDbLine
 10
5751.110506092789
 20
-3078.569152275502
 30
0.0
 11
5751.803946994354
 21
-3077.875711373939
 31
0.0
  0
LINE
  5
B6482
330
18
100
AcDbEntity
  8
\U+FF77\U+FF6C\U+FF6F\U+FF8C\U+FF9F\U+FF8E\U+FF9E\U+FF99\U+FF84
100
AcDbLine
 10
5751.464059483383
 20
-3078.922705666097
 30
0.0
 11
5752.157500384948
 21
-3078.229264764531
 31
0.0
  0
LINE
  5
B6483
330
18
100
AcDbEntity
  8
\U+FF77\U+FF6C\U+FF6F\U+FF8C\U+FF9F\U+FF8E\U+FF9E\U+FF99\U+FF84
100
AcDbLine
 10
5752.157500384948
 20
-3079.616146567659
 30
0.0
 11
5751.803946994354
 21
-3079.969699958252
 31
0.0
  0
LINE
  5
B6484
330
18
100
AcDbEntity
  8
\U+FF77\U+FF6C\U+FF6F\U+FF8C\U+FF9F\U+FF8E\U+FF9E\U+FF99\U+FF84
100
AcDbLine
 10
5750.417065191226
 20
-3079.969699958252
 30
0.0
 11
5750.063511800634
 21
-3079.616146567659
 31
0.0
  0
LINE
  5
B6485
330
18
100
AcDbEntity
  8
\U+FF77\U+FF6C\U+FF6F\U+FF8C\U+FF9F\U+FF8E\U+FF9E\U+FF99\U+FF84
100
AcDbLine
 10
5750.417065191226
 20
-3077.875711373937
 30
0.0
 11
5750.063511800634
 21
-3078.229264764531
 31
0.0
  0
LINE
  5
B6486
330
18
100
AcDbEntity
  8
\U+FF77\U+FF6C\U+FF6F\U+FF8C\U+FF9F\U+FF8E\U+FF9E\U+FF99\U+FF84
100
AcDbLine
 10
5752.157500384948
 20
-3078.229264764531
 30
0.0
 11
5751.803946994354
 21
-3077.875711373939
 31
0.0
  0
ARC
  5
B6487
330
18
100
AcDbEntity
  8
実線
 48
0.2
100
AcDbCircle
 10
5767.91668923845
 20
-3087.052723764994
 30
0.0
 40
2.0
100
AcDbArc
 50
319.992246086491
 51
0.0
  0
CIRCLE
  5
B648E
330
18
100
AcDbEntity
  8
実線
 48
0.2
100
AcDbCircle
 10
5731.41668923845
 20
-3041.728888975781
 30
0.0
 40
2.099999999999993
  0
CIRCLE
  5
B648F
330
18
100
AcDbEntity
  8
細線
100
AcDbCircle
 10
5731.41668923845
 20
-3041.728888975781
 30
0.0
 40
2.5
  0
CIRCLE
  5
B6491
330
18
100
AcDbEntity
  8
細線
100
AcDbCircle
 10
5696.416689238397
 20
-3041.728888975779
 30
0.0
 40
2.5
  0
CIRCLE
  5
B6492
330
18
100
AcDbEntity
  8
実線
 48
0.2
100
AcDbCircle
 10
5696.416689238397
 20
-3041.728888975779
 30
0.0
 40
2.099999999999993
  0
CIRCLE
  5
B6493
330
18
100
AcDbEntity
  8
中心線
 48
0.5
100
AcDbCircle
 10
5713.91668923845
 20
-3041.728888975781
 30
0.0
 40
17.50000000003921
  0
CIRCLE
  5
B6494
330
18
100
AcDbEntity
  8
実線
 48
0.2
100
AcDbCircle
 10
5713.91668923845
 20
-3041.728888975781
 30
0.0
 40
9.500000000000028
  0
CIRCLE
  5
B6495
330
18
100
AcDbEntity
  8
実線
 48
0.2
100
AcDbCircle
 10
5713.91668923845
 20
-3041.728888975781
 30
0.0
 40
24.90000094892503
  0
CIRCLE
  5
B6496
330
18
100
AcDbEntity
  8
実線
 48
0.2
100
AcDbCircle
 10
5713.91668923845
 20
-3041.728888975781
 30
0.0
 40
29.65
  0
CIRCLE
  5
B6497
330
18
100
AcDbEntity
  8
実線
 48
0.2
100
AcDbCircle
 10
5713.91668923845
 20
-3041.728888975781
 30
0.0
 40
29.15000000000001
  0
CIRCLE
  5
B6498
330
18
100
AcDbEntity
  8
細線
100
AcDbCircle
 10
5705.16668923841
 20
-3056.884333542034
 30
0.0
 40
2.5
  0
CIRCLE
  5
B6499
330
18
100
AcDbEntity
  8
実線
 48
0.2
100
AcDbCircle
 10
5705.16668923841
 20
-3056.884333542034
 30
0.0
 40
2.099999999999993
  0
LINE
  5
B649A
330
18
100
AcDbEntity
  8
中心線
 48
0.2
100
AcDbLine
 10
5703.519973485353
 20
-3059.736528891954
 30
0.0
 11
5706.813404991472
 21
-3054.032138192112
 31
0.0
  0
CIRCLE
  5
B649C
330
18
100
AcDbEntity
  8
実線
 48
0.2
100
AcDbCircle
 10
5722.666689238437
 20
-3056.88433354203
 30
0.0
 40
2.099999999999993
  0
LINE
  5
B649D
330
18
100
AcDbEntity
  8
中心線
 48
0.2
100
AcDbLine
 10
5724.313404991496
 20
-3059.73652889195
 30
0.0
 11
5721.019973485383
 21
-3054.032138192108
 31
0.0
  0
CIRCLE
  5
B649E
330
18
100
AcDbEntity
  8
細線
100
AcDbCircle
 10
5722.666689238437
 20
-3056.88433354203
 30
0.0
 40
2.5
  0
CIRCLE
  5
B649F
330
18
100
AcDbEntity
  8
細線
100
AcDbCircle
 10
5705.166689238406
 20
-3026.573444409533
 30
0.0
 40
2.5
  0
CIRCLE
  5
B64A0
330
18
100
AcDbEntity
  8
実線
 48
0.2
100
AcDbCircle
 10
5705.166689238406
 20
-3026.573444409533
 30
0.0
 40
2.099999999999993
  0
LINE
  5
B64A1
330
18
100
AcDbEntity
  8
中心線
 48
0.2
100
AcDbLine
 10
5703.519973485351
 20
-3023.721249059609
 30
0.0
 11
5706.813404991467
 21
-3029.425639759455
 31
0.0
  0
LINE
  5
B64A2
330
18
100
AcDbEntity
  8
中心線
 48
0.2
100
AcDbLine
 10
5693.12325773228
 20
-3041.728888975782
 30
0.0
 11
5699.710120744515
 21
-3041.728888975784
 31
0.0
  0
CIRCLE
  5
B64A3
330
18
100
AcDbEntity
  8
実線
 48
0.2
100
AcDbCircle
 10
5722.666689238437
 20
-3026.57344440953
 30
0.0
 40
2.099999999999993
  0
LINE
  5
B64A4
330
18
100
AcDbEntity
  8
中心線
 48
0.2
100
AcDbLine
 10
5724.313404991494
 20
-3023.721249059605
 30
0.0
 11
5721.019973485375
 21
-3029.425639759448
 31
0.0
  0
CIRCLE
  5
B64A5
330
18
100
AcDbEntity
  8
細線
100
AcDbCircle
 10
5722.666689238437
 20
-3026.57344440953
 30
0.0
 40
2.5
  0
LINE
  5
B64A6
330
18
100
AcDbEntity
  8
中心線
 48
0.2
100
AcDbLine
 10
5734.710120744567
 20
-3041.728888975781
 30
0.0
 11
5728.123257732333
 21
-3041.728888975777
 31
0.0
  0
LINE
  5
B64A7
330
18
100
AcDbEntity
  8
実線
 48
0.2
100
AcDbLine
 10
5668.592855415246
 20
-2985.728887247246
 30
0.0
 11
5759.240524027664
 21
-2985.728888975781
 31
0.0
  0
ARC
  5
B64AB
330
18
100
AcDbEntity
  8
実線
 48
0.2
100
AcDbCircle
 10
5713.91668923845
 20
-3041.728888975781
 30
0.0
 40
72.49999999999997
100
AcDbArc
 50
130.0077539134723
 51
139.992246086491
  0
ARC
  5
B64AC
330
18
100
AcDbEntity
  8
実線
 48
0.2
100
AcDbCircle
 10
5659.91668923845
 20
-2996.405054186566
 30
0.0
 40
2.0
100
AcDbArc
 50
139.992246086491
 51
180.0
  0
LINE
  5
B64AD
330
18
100
AcDbEntity
  8
\U+FF77\U+FF6C\U+FF6F\U+FF8C\U+FF9F\U+FF8E\U+FF9E\U+FF99\U+FF84
100
AcDbLine
 10
5677.769866676271
 20
-3005.22851318703
 30
0.0
 11
5677.076425774709
 21
-3004.535072285467
 31
0.0
  0
LINE
  5
B64AE
330
18
100
AcDbEntity
  8
\U+FF77\U+FF6C\U+FF6F\U+FF8C\U+FF9F\U+FF8E\U+FF9E\U+FF99\U+FF84
100
AcDbLine
 10
5677.416313285679
 20
-3005.582066577623
 30
0.0
 11
5676.722872384115
 21
-3004.88862567606
 31
0.0
  0
LINE
  5
B64AF
330
18
100
AcDbEntity
  8
\U+FF77\U+FF6C\U+FF6F\U+FF8C\U+FF9F\U+FF8E\U+FF9E\U+FF99\U+FF84
100
AcDbLine
 10
5677.416313285679
 20
-3003.48807799331
 30
0.0
 11
5676.722872384114
 21
-3004.181518894873
 31
0.0
  0
LINE
  5
B64B0
330
18
100
AcDbEntity
  8
\U+FF77\U+FF6C\U+FF6F\U+FF8C\U+FF9F\U+FF8E\U+FF9E\U+FF99\U+FF84
100
AcDbLine
 10
5677.769866676271
 20
-3003.841631383902
 30
0.0
 11
5677.076425774709
 21
-3004.535072285467
 31
0.0
  0
LINE
  5
B64B1
330
18
100
AcDbEntity
  8
\U+FF77\U+FF6C\U+FF6F\U+FF8C\U+FF9F\U+FF8E\U+FF9E\U+FF99\U+FF84
100
AcDbLine
 10
5676.722872384114
 20
-3004.181518894873
 30
0.0
 11
5676.029431482551
 21
-3003.488077993308
 31
0.0
  0
LINE
  5
B64B2
330
18
100
AcDbEntity
  8
\U+FF77\U+FF6C\U+FF6F\U+FF8C\U+FF9F\U+FF8E\U+FF9E\U+FF99\U+FF84
100
AcDbLine
 10
5676.369318993522
 20
-3004.535072285466
 30
0.0
 11
5675.675878091958
 21
-3003.841631383902
 31
0.0
  0
LINE
  5
B64B3
330
18
100
AcDbEntity
  8
\U+FF77\U+FF6C\U+FF6F\U+FF8C\U+FF9F\U+FF8E\U+FF9E\U+FF99\U+FF84
100
AcDbLine
 10
5676.722872384116
 20
-3004.88862567606
 30
0.0
 11
5676.029431482551
 21
-3005.582066577623
 31
0.0
  0
LINE
  5
B64B4
330
18
100
AcDbEntity
  8
\U+FF77\U+FF6C\U+FF6F\U+FF8C\U+FF9F\U+FF8E\U+FF9E\U+FF99\U+FF84
100
AcDbLine
 10
5676.369318993522
 20
-3004.535072285466
 30
0.0
 11
5675.675878091958
 21
-3005.22851318703
 31
0.0
  0
LINE
  5
B64B5
330
18
100
AcDbEntity
  8
\U+FF77\U+FF6C\U+FF6F\U+FF8C\U+FF9F\U+FF8E\U+FF9E\U+FF99\U+FF84
100
AcDbLine
 10
5675.675878091958
 20
-3003.841631383902
 30
0.0
 11
5676.029431482551
 21
-3003.48807799331
 31
0.0
  0
LINE
  5
B64B6
330
18
100
AcDbEntity
  8
\U+FF77\U+FF6C\U+FF6F\U+FF8C\U+FF9F\U+FF8E\U+FF9E\U+FF99\U+FF84
100
AcDbLine
 10
5677.416313285679
 20
-3003.48807799331
 30
0.0
 11
5677.769866676271
 21
-3003.841631383902
 31
0.0
  0
LINE
  5
B64B7
330
18
100
AcDbEntity
  8
\U+FF77\U+FF6C\U+FF6F\U+FF8C\U+FF9F\U+FF8E\U+FF9E\U+FF99\U+FF84
100
AcDbLine
 10
5677.416313285679
 20
-3005.582066577626
 30
0.0
 11
5677.769866676271
 21
-3005.22851318703
 31
0.0
  0
LINE
  5
B64B8
330
18
100
AcDbEntity
  8
\U+FF77\U+FF6C\U+FF6F\U+FF8C\U+FF9F\U+FF8E\U+FF9E\U+FF99\U+FF84
100
AcDbLine
 10
5675.675878091958
 20
-3005.22851318703
 30
0.0
 11
5676.029431482551
 21
-3005.582066577623
 31
0.0
  0
CIRCLE
  5
B64B9
330
18
100
AcDbEntity
  8
\U+FF77\U+FF6C\U+FF6F\U+FF8C\U+FF9F\U+FF8E\U+FF9E\U+FF99\U+FF84
100
AcDbCircle
 10
5676.722872384114
 20
-3004.535072285467
 30
0.0
 40
2.0
  0
CIRCLE
  5
B64BA
330
18
100
AcDbEntity
  8
実線
 48
0.2
100
AcDbCircle
 10
5669.72251541429
 20
-2997.53471515162
 30
0.0
 40
3.5
  0
LINE
  5
B64BB
330
18
100
AcDbEntity
  8
中心線
 48
0.5
100
AcDbLine
 10
5674.882953783574
 20
-3002.695153520904
 30
0.0
 11
5664.562077045006
 21
-2992.374276782336
 31
0.0
  0
ARC
  5
B64BC
330
18
100
AcDbEntity
  8
中心線
 48
0.5
100
AcDbCircle
 10
5713.91668923845
 20
-3041.728888975781
 30
0.0
 40
62.50000000000287
100
AcDbArc
 50
128.3059146666068
 51
141.6940853333932
  0
ARC
  5
B64BD
330
18
100
AcDbEntity
  8
実線
 48
0.2
100
AcDbCircle
 10
5668.592854449236
 20
-2987.728888975781
 30
0.0
 40
2.0
100
AcDbArc
 50
90.0
 51
130.0077539134723
  0
ARC
  5
B64C5
330
18
100
AcDbEntity
  8
実線
 48
0.2
100
AcDbCircle
 10
5713.91668923845
 20
-3041.728888975781
 30
0.0
 40
72.50000000000004
100
AcDbArc
 50
40.00775391350902
 51
49.99224608652767
  0
CIRCLE
  5
B64C6
330
18
100
AcDbEntity
  8
実線
 48
0.2
100
AcDbCircle
 10
5758.11086306261
 20
-2997.534715151618
 30
0.0
 40
3.5
  0
LINE
  5
B64C7
330
18
100
AcDbEntity
  8
中心線
 48
0.5
100
AcDbLine
 10
5752.950424693326
 20
-3002.695153520905
 30
0.0
 11
5763.271301431895
 21
-2992.374276782337
 31
0.0
  0
ARC
  5
B64C8
330
18
100
AcDbEntity
  8
中心線
 48
0.5
100
AcDbCircle
 10
5713.916689238449
 20
-3041.728888975781
 30
0.0
 40
62.50000000000287
100
AcDbArc
 50
38.3059146666068
 51
51.6940853333932
  0
LINE
  5
B64C9
330
18
100
AcDbEntity
  8
\U+FF77\U+FF6C\U+FF6F\U+FF8C\U+FF9F\U+FF8E\U+FF9E\U+FF99\U+FF84
100
AcDbLine
 10
5750.417065027204
 20
-3005.582066413599
 30
0.0
 11
5751.110505928767
 21
-3004.888625512036
 31
0.0
  0
LINE
  5
B64CA
330
18
100
AcDbEntity
  8
\U+FF77\U+FF6C\U+FF6F\U+FF8C\U+FF9F\U+FF8E\U+FF9E\U+FF99\U+FF84
100
AcDbLine
 10
5750.063511636611
 20
-3005.228513023007
 30
0.0
 11
5750.756952538174
 21
-3004.535072121444
 31
0.0
  0
LINE
  5
B64CB
330
18
100
AcDbEntity
  8
\U+FF77\U+FF6C\U+FF6F\U+FF8C\U+FF9F\U+FF8E\U+FF9E\U+FF99\U+FF84
100
AcDbLine
 10
5752.157500220924
 20
-3005.228513023007
 30
0.0
 11
5751.464059319361
 21
-3004.535072121442
 31
0.0
  0
LINE
  5
B64CC
330
18
100
AcDbEntity
  8
\U+FF77\U+FF6C\U+FF6F\U+FF8C\U+FF9F\U+FF8E\U+FF9E\U+FF99\U+FF84
100
AcDbLine
 10
5751.803946830332
 20
-3005.582066413599
 30
0.0
 11
5751.110505928767
 21
-3004.888625512036
 31
0.0
  0
LINE
  5
B64CD
330
18
100
AcDbEntity
  8
\U+FF77\U+FF6C\U+FF6F\U+FF8C\U+FF9F\U+FF8E\U+FF9E\U+FF99\U+FF84
100
AcDbLine
 10
5751.464059319361
 20
-3004.535072121442
 30
0.0
 11
5752.157500220926
 21
-3003.841631219879
 31
0.0
  0
LINE
  5
B64CE
330
18
100
AcDbEntity
  8
\U+FF77\U+FF6C\U+FF6F\U+FF8C\U+FF9F\U+FF8E\U+FF9E\U+FF99\U+FF84
100
AcDbLine
 10
5751.110505928768
 20
-3004.18151873085
 30
0.0
 11
5751.803946830332
 21
-3003.488077829285
 31
0.0
  0
LINE
  5
B64CF
330
18
100
AcDbEntity
  8
\U+FF77\U+FF6C\U+FF6F\U+FF8C\U+FF9F\U+FF8E\U+FF9E\U+FF99\U+FF84
100
AcDbLine
 10
5750.756952538174
 20
-3004.535072121444
 30
0.0
 11
5750.063511636611
 21
-3003.841631219879
 31
0.0
  0
LINE
  5
B64D0
330
18
100
AcDbEntity
  8
\U+FF77\U+FF6C\U+FF6F\U+FF8C\U+FF9F\U+FF8E\U+FF9E\U+FF99\U+FF84
100
AcDbLine
 10
5751.110505928768
 20
-3004.18151873085
 30
0.0
 11
5750.417065027204
 21
-3003.488077829285
 31
0.0
  0
LINE
  5
B64D1
330
18
100
AcDbEntity
  8
\U+FF77\U+FF6C\U+FF6F\U+FF8C\U+FF9F\U+FF8E\U+FF9E\U+FF99\U+FF84
100
AcDbLine
 10
5751.803946830332
 20
-3003.488077829285
 30
0.0
 11
5752.157500220924
 21
-3003.841631219879
 31
0.0
  0
LINE
  5
B64D2
330
18
100
AcDbEntity
  8
\U+FF77\U+FF6C\U+FF6F\U+FF8C\U+FF9F\U+FF8E\U+FF9E\U+FF99\U+FF84
100
AcDbLine
 10
5752.157500220924
 20
-3005.228513023007
 30
0.0
 11
5751.803946830332
 21
-3005.582066413599
 31
0.0
  0
LINE
  5
B64D3
330
18
100
AcDbEntity
  8
\U+FF77\U+FF6C\U+FF6F\U+FF8C\U+FF9F\U+FF8E\U+FF9E\U+FF99\U+FF84
100
AcDbLine
 10
5750.063511636609
 20
-3005.228513023007
 30
0.0
 11
5750.417065027204
 21
-3005.582066413599
 31
0.0
  0
LINE
  5
B64D4
330
18
100
AcDbEntity
  8
\U+FF77\U+FF6C\U+FF6F\U+FF8C\U+FF9F\U+FF8E\U+FF9E\U+FF99\U+FF84
100
AcDbLine
 10
5750.417065027204
 20
-3003.488077829285
 30
0.0
 11
5750.063511636611
 21
-3003.841631219879
 31
0.0
  0
CIRCLE
  5
B64D5
330
18
100
AcDbEntity
  8
\U+FF77\U+FF6C\U+FF6F\U+FF8C\U+FF9F\U+FF8E\U+FF9E\U+FF99\U+FF84
100
AcDbCircle
 10
5751.110505928767
 20
-3004.535072121442
 30
0.0
 40
2.0
  0
ARC
  5
B64D6
330
18
100
AcDbEntity
  8
実線
 48
0.2
100
AcDbCircle
 10
5767.91668923845
 20
-2996.405054186566
 30
0.0
 40
2.000000000000024
100
AcDbArc
 50
0.0
 51
40.00775391350902
  0
ARC
  5
B64D7
330
18
100
AcDbEntity
  8
実線
 48
0.2
100
AcDbCircle
 10
5759.240524027664
 20
-2987.728888975781
 30
0.0
 40
2.000000000000019
100
AcDbArc
 50
49.99224608652767
 51
90.0
  0
LINE
  5
B65FB
102
{ACAD_REACTORS
330
B661D
102
}
330
18
100
AcDbEntity
  8
\U+FF7A\U+FF88\U+FF78\U+FF80
100
AcDbLine
 10
5646.41668923845
 20
-3050.382688975781
 30
0.0
 11
5646.41668923845
 21
-3033.075088975781
 31
0.0
  0
LINE
  5
B65FC
102
{ACAD_REACTORS
330
B661D
102
}
330
18
100
AcDbEntity
  8
\U+FF7A\U+FF88\U+FF78\U+FF80
100
AcDbLine
 10
5629.41668923845
 20
-3047.026290451071
 30
0.0
 11
5629.41668923845
 21
-3036.43148750049
 31
0.0
  0
ARC
  5
B65FD
102
{ACAD_REACTORS
330
B661D
102
}
330
18
100
AcDbEntity
  8
\U+FF7A\U+FF88\U+FF78\U+FF80
100
AcDbCircle
 10
5641.41668923845
 20
-3041.728888975781
 30
0.0
 40
8.0
100
AcDbArc
 50
153.5214655209427
 51
206.4785344790573
  0
LINE
  5
B65FE
102
{ACAD_REACTORS
330
B661D
102
}
330
18
100
AcDbEntity
  8
\U+FF7A\U+FF88\U+FF78\U+FF80
100
AcDbLine
 10
5633.41668923845
 20
-3050.382688975781
 30
0.0
 11
5633.41668923845
 21
-3033.075088975781
 31
0.0
  0
LINE
  5
B65FF
102
{ACAD_REACTORS
330
B661D
102
}
330
18
100
AcDbEntity
  8
\U+FF7A\U+FF88\U+FF78\U+FF80
100
AcDbLine
 10
5646.41668923845
 20
-3047.728890237415
 30
0.0
 11
5641.41668923845
 21
-3047.72889149905
 31
0.0
  0
LINE
  5
B6600
102
{ACAD_REACTORS
330
B661D
102
}
330
18
100
AcDbEntity
  8
\U+FF7A\U+FF88\U+FF78\U+FF80
100
AcDbLine
 10
5633.41668923845
 20
-3050.382688975781
 30
0.0
 11
5629.41668923845
 21
-3047.026290451071
 31
0.0
  0
LINE
  5
B6601
102
{ACAD_REACTORS
330
B661D
102
}
330
18
100
AcDbEntity
  8
\U+FF7A\U+FF88\U+FF78\U+FF80
100
AcDbLine
 10
5634.255877525383
 20
-3045.29578897578
 30
0.0
 11
5634.255877525383
 21
-3046.815788975781
 31
0.0
  0
LINE
  5
B6602
102
{ACAD_REACTORS
330
B661D
102
}
330
18
100
AcDbEntity
  8
\U+FF7A\U+FF88\U+FF78\U+FF80
100
AcDbLine
 10
5641.41668923845
 20
-3046.815788975781
 30
0.0
 11
5634.255877525383
 21
-3046.815788975781
 31
0.0
  0
LINE
  5
B6603
102
{ACAD_REACTORS
330
B661D
102
}
330
18
100
AcDbEntity
  8
\U+FF7A\U+FF88\U+FF78\U+FF80
100
AcDbLine
 10
5641.41668923845
 20
-3045.29578897578
 30
0.0
 11
5634.255877525383
 21
-3045.29578897578
 31
0.0
  0
LINE
  5
B6604
102
{ACAD_REACTORS
330
B661D
102
}
330
18
100
AcDbEntity
  8
\U+FF7A\U+FF88\U+FF78\U+FF80
100
AcDbLine
 10
5641.41668923845
 20
-3050.382688975781
 30
0.0
 11
5633.41668923845
 21
-3050.382688975781
 31
0.0
  0
ARC
  5
B6605
102
{ACAD_REACTORS
330
B661D
102
}
330
18
100
AcDbEntity
  8
\U+FF7A\U+FF88\U+FF78\U+FF80
100
AcDbCircle
 10
5641.41668923845
 20
-3050.382688975781
 30
0.0
 40
8.0
100
AcDbArc
 50
153.5214655209427
 51
180.0
  0
LINE
  5
B6606
102
{ACAD_REACTORS
330
B661D
102
}
330
18
100
AcDbEntity
  8
\U+FF7A\U+FF88\U+FF78\U+FF80
100
AcDbLine
 10
5651.41668923845
 20
-3047.728888975781
 30
0.0
 11
5651.705355865823
 21
-3047.728888975781
 31
0.0
  0
LINE
  5
B6607
102
{ACAD_REACTORS
330
B661D
102
}
330
18
100
AcDbEntity
  8
\U+FF7A\U+FF88\U+FF78\U+FF80
100
AcDbLine
 10
5651.41668923845
 20
-3047.11888897578
 30
0.0
 11
5651.649539793498
 21
-3047.11888897578
 31
0.0
  0
LINE
  5
B6608
102
{ACAD_REACTORS
330
B661D
102
}
330
18
100
AcDbEntity
  8
\U+FF7A\U+FF88\U+FF78\U+FF80
100
AcDbLine
 10
5651.41668923845
 20
-3046.815788975781
 30
0.0
 11
5646.41668923845
 21
-3046.815788975781
 31
0.0
  0
LINE
  5
B6609
102
{ACAD_REACTORS
330
B661D
102
}
330
18
100
AcDbEntity
  8
\U+FF7A\U+FF88\U+FF78\U+FF80
100
AcDbLine
 10
5651.41668923845
 20
-3045.29578897578
 30
0.0
 11
5646.41668923845
 21
-3045.29578897578
 31
0.0
  0
LINE
  5
B660A
102
{ACAD_REACTORS
330
B661D
102
}
330
18
100
AcDbEntity
  8
\U+FF7A\U+FF88\U+FF78\U+FF80
100
AcDbLine
 10
5651.41668923845
 20
-3050.382688975781
 30
0.0
 11
5646.41668923845
 21
-3050.382688975781
 31
0.0
  0
LINE
  5
B660B
102
{ACAD_REACTORS
330
B661D
102
}
330
18
100
AcDbEntity
  8
\U+FF7A\U+FF88\U+FF78\U+FF80
100
AcDbLine
 10
5646.41668923845
 20
-3035.728890237413
 30
0.0
 11
5641.41668923845
 21
-3035.728891499046
 31
0.0
  0
ARC
  5
B660C
102
{ACAD_REACTORS
330
B661D
102
}
330
18
100
AcDbEntity
  8
\U+FF7A\U+FF88\U+FF78\U+FF80
100
AcDbCircle
 10
5641.41668923845
 20
-3033.075088975781
 30
0.0
 40
8.0
100
AcDbArc
 50
180.0
 51
206.4785344790573
  0
LINE
  5
B660D
102
{ACAD_REACTORS
330
B661D
102
}
330
18
100
AcDbEntity
  8
\U+FF7A\U+FF88\U+FF78\U+FF80
100
AcDbLine
 10
5633.41668923845
 20
-3033.075088975781
 30
0.0
 11
5629.41668923845
 21
-3036.43148750049
 31
0.0
  0
LINE
  5
B660E
102
{ACAD_REACTORS
330
B661D
102
}
330
18
100
AcDbEntity
  8
\U+FF7A\U+FF88\U+FF78\U+FF80
100
AcDbLine
 10
5634.255877525383
 20
-3036.64198897578
 30
0.0
 11
5634.255877525383
 21
-3038.161988975781
 31
0.0
  0
LINE
  5
B660F
102
{ACAD_REACTORS
330
B661D
102
}
330
18
100
AcDbEntity
  8
\U+FF7A\U+FF88\U+FF78\U+FF80
100
AcDbLine
 10
5641.41668923845
 20
-3038.161988975781
 30
0.0
 11
5634.255877525383
 21
-3038.161988975781
 31
0.0
  0
LINE
  5
B6610
102
{ACAD_REACTORS
330
B661D
102
}
330
18
100
AcDbEntity
  8
\U+FF7A\U+FF88\U+FF78\U+FF80
100
AcDbLine
 10
5641.41668923845
 20
-3036.64198897578
 30
0.0
 11
5634.255877525383
 21
-3036.64198897578
 31
0.0
  0
LINE
  5
B6611
102
{ACAD_REACTORS
330
B661D
102
}
330
18
100
AcDbEntity
  8
\U+FF7A\U+FF88\U+FF78\U+FF80
100
AcDbLine
 10
5641.41668923845
 20
-3033.075088975781
 30
0.0
 11
5633.41668923845
 21
-3033.075088975781
 31
0.0
  0
LINE
  5
B6612
102
{ACAD_REACTORS
330
B661D
102
}
330
18
100
AcDbEntity
  8
\U+FF7A\U+FF88\U+FF78\U+FF80
100
AcDbLine
 10
5651.41668923845
 20
-3035.728888975781
 30
0.0
 11
5651.705355865823
 21
-3035.728888975781
 31
0.0
  0
LINE
  5
B6613
102
{ACAD_REACTORS
330
B661D
102
}
330
18
100
AcDbEntity
  8
\U+FF7A\U+FF88\U+FF78\U+FF80
100
AcDbLine
 10
5651.41668923845
 20
-3036.338888975781
 30
0.0
 11
5651.649539793498
 21
-3036.338888975781
 31
0.0
  0
LINE
  5
B6614
102
{ACAD_REACTORS
330
B661D
102
}
330
18
100
AcDbEntity
  8
\U+FF7A\U+FF88\U+FF78\U+FF80
100
AcDbLine
 10
5651.41668923845
 20
-3036.64198897578
 30
0.0
 11
5646.41668923845
 21
-3036.64198897578
 31
0.0
  0
LINE
  5
B6615
102
{ACAD_REACTORS
330
B661D
102
}
330
18
100
AcDbEntity
  8
\U+FF7A\U+FF88\U+FF78\U+FF80
100
AcDbLine
 10
5651.41668923845
 20
-3038.161988975781
 30
0.0
 11
5646.41668923845
 21
-3038.161988975781
 31
0.0
  0
LINE
  5
B6616
102
{ACAD_REACTORS
330
B661D
102
}
330
18
100
AcDbEntity
  8
\U+FF7A\U+FF88\U+FF78\U+FF80
100
AcDbLine
 10
5651.41668923845
 20
-3033.075088975781
 30
0.0
 11
5646.41668923845
 21
-3033.075088975781
 31
0.0
  0
LINE
  5
B6617
102
{ACAD_REACTORS
330
B661D
102
}
330
18
100
AcDbEntity
  8
\U+FF7A\U+FF88\U+FF78\U+FF80
100
AcDbLine
 10
5651.41668923845
 20
-3033.075088975781
 30
0.0
 11
5651.41668923845
 21
-3050.382688975781
 31
0.0
  0
LINE
  5
B6618
102
{ACAD_REACTORS
330
B661D
102
}
330
18
100
AcDbEntity
  8
\U+FF7A\U+FF88\U+FF78\U+FF80
100
AcDbLine
 10
5641.41668923845
 20
-3050.382688975781
 30
0.0
 11
5641.41668923845
 21
-3033.075088975781
 31
0.0
  0
SPLINE
  5
B6619
102
{ACAD_REACTORS
330
B661D
102
}
330
18
100
AcDbEntity
  8
細線
100
AcDbSpline
210
0.0
220
0.0
230
1.0
 70
  1064
 71
     3
 72
    11
 73
     7
 74
     5
 42
0.000000001
 43
0.0000000001
 44
0.0000000001
 40
0.0
 40
0.0
 40
0.0
 40
0.0
 40
1.962294862387111
 40
3.412610777824841
 40
4.859995365034574
 40
6.826861343342177
 40
6.826861343342177
 40
6.826861343342177
 40
6.826861343342177
 10
5623.980058870392
 20
-3038.478888472065
 30
0.0
 10
5623.692648107033
 20
-3039.115518342966
 30
0.0
 10
5623.192814423775
 20
-3040.222676090033
 30
0.0
 10
5623.975885344179
 20
-3041.728666322796
 30
0.0
 10
5624.770398731905
 20
-3043.231474485607
 30
0.0
 10
5624.268938059728
 20
-3044.340186616791
 30
0.0
 10
5623.980058870392
 20
-3044.978888472065
 30
0.0
 11
5623.980058870392
 21
-3038.478888472065
 31
0.0
 11
5623.46489694659
 21
-3040.372353369869
 31
0.0
 11
5623.977955199698
 21
-3041.728888472065
 31
0.0
 11
5624.495220794196
 21
-3043.080686699628
 31
0.0
 11
5623.980058870392
 21
-3044.978888472065
 31
0.0
  0
SPLINE
  5
B661A
102
{ACAD_REACTORS
330
B661D
102
}
330
18
100
AcDbEntity
  8
細線
100
AcDbSpline
210
0.0
220
0.0
230
1.0
 70
  1064
 71
     3
 72
     9
 73
     5
 74
     3
 42
0.000000001
 43
0.0000000001
 44
0.0000000001
 40
0.0
 40
0.0
 40
0.0
 40
0.0
 40
1.4428857823263
 40
3.409751760633427
 40
3.409751760633427
 40
3.409751760633427
 40
3.409751760633427
 10
5623.980058870392
 20
-3041.732900524782
 30
0.0
 10
5623.745351407818
 20
-3042.179008047562
 30
0.0
 10
5623.190703081841
 20
-3043.233225872606
 30
0.0
 10
5623.691297957741
 20
-3044.3402928822
 30
0.0
 10
5623.980058870392
 20
-3044.978888472065
 30
0.0
 11
5623.980058870392
 21
-3041.732900524782
 31
0.0
 11
5623.46489694659
 21
-3043.080686699628
 31
0.0
 11
5623.980058870392
 21
-3044.978888472065
 31
0.0
  0
LINE
  5
B661B
102
{ACAD_REACTORS
330
B661D
102
}
330
18
100
AcDbEntity
  8
\U+FF7A\U+FF88\U+FF78\U+FF80
100
AcDbLine
 10
5623.980058870393
 20
-3044.978888472062
 30
0.0
 11
5629.41668923845
 21
-3044.978888472062
 31
0.0
  0
LINE
  5
B661C
102
{ACAD_REACTORS
330
B661D
102
}
330
18
100
AcDbEntity
  8
\U+FF7A\U+FF88\U+FF78\U+FF80
100
AcDbLine
 10
5623.980058870393
 20
-3038.478888472064
 30
0.0
 11
5629.41668923845
 21
-3038.478888472062
 31
0.0
  0
LINE
  5
B6E39
330
18
100
AcDbEntity
  8
実線
 48
0.2
100
AcDbLine
 10
5983.943067962991
 20
-3095.728890293306
 30
0.0
 11
5983.943067962991
 21
-2987.728887658245
 31
0.0
  0
LINE
  5
B6E3A
330
18
100
AcDbEntity
  8
実線
 48
0.2
100
AcDbLine
 10
5941.443067962992
 20
-3097.728890293306
 30
0.0
 11
5941.443067962992
 21
-2985.728887658245
 31
0.0
  0
LINE
  5
B6E3B
330
18
100
AcDbEntity
  8
実線
 48
0.2
100
AcDbLine
 10
5940.943067939243
 20
-3097.228889691035
 30
0.0
 11
5940.943067939243
 21
-2986.228888260523
 31
0.0
  0
LINE
  5
B6E3C
330
18
100
AcDbEntity
  8
実線
 48
0.2
100
AcDbLine
 10
6003.943067962992
 20
-3097.728890293306
 30
0.0
 11
6003.943067962993
 21
-3057.728889734906
 31
0.0
  0
ARC
  5
B6E4B
330
18
100
AcDbEntity
  8
\U+FF77\U+FF6C\U+FF6F\U+FF8C\U+FF9F\U+FF8E\U+FF9E\U+FF99\U+FF84
100
AcDbCircle
 10
5940.543067939243
 20
-3077.373512688975
 30
0.0
 40
0.4
100
AcDbArc
 50
104.4775120000356
 51
180.0
  0
LINE
  5
B6E4C
330
18
100
AcDbEntity
  8
\U+FF77\U+FF6C\U+FF6F\U+FF8C\U+FF9F\U+FF8E\U+FF9E\U+FF99\U+FF84
100
AcDbLine
 10
5940.943067939243
 20
-3080.922705688974
 30
0.0
 11
5940.943067939243
 21
-3076.922705688974
 31
0.0
  0
LINE
  5
B6E52
330
18
100
AcDbEntity
  8
実線
 48
0.2
100
AcDbLine
 10
5941.443067962992
 20
-3097.728890293306
 30
0.0
 11
6003.943067962992
 21
-3097.728890293306
 31
0.0
  0
LINE
  5
B6E54
330
18
100
AcDbEntity
  8
実線
 48
0.2
100
AcDbLine
 10
5940.943067939243
 20
-3097.228889691035
 30
0.0
 11
5941.443067962992
 21
-3097.228889691035
 31
0.0
  0
ARC
  5
B6E55
330
18
100
AcDbEntity
  8
\U+FF77\U+FF6C\U+FF6F\U+FF8C\U+FF9F\U+FF8E\U+FF9E\U+FF99\U+FF84
100
AcDbCircle
 10
5940.943067939243
 20
-3078.922705688975
 30
0.0
 40
2.0
100
AcDbArc
 50
255.5224879999644
 51
270.0
  0
ARC
  5
B6E56
330
18
100
AcDbEntity
  8
\U+FF77\U+FF6C\U+FF6F\U+FF8C\U+FF9F\U+FF8E\U+FF9E\U+FF99\U+FF84
100
AcDbCircle
 10
5940.543067939243
 20
-3080.471899688975
 30
0.0
 40
0.4
100
AcDbArc
 50
180.0
 51
255.5224879999644
  0
LINE
  5
B6E57
330
18
100
AcDbEntity
  8
中心線
 48
0.5
100
AcDbLine
 10
5941.423906528936
 20
-3078.922705688974
 30
0.0
 11
5939.720566002045
 21
-3078.922706188974
 31
0.0
  0
LINE
  5
B6E58
330
18
100
AcDbEntity
  8
\U+FF77\U+FF6C\U+FF6F\U+FF8C\U+FF9F\U+FF8E\U+FF9E\U+FF99\U+FF84
100
AcDbLine
 10
5940.143067939243
 20
-3080.471899688973
 30
0.0
 11
5940.143067939243
 21
-3077.373512688973
 31
0.0
  0
ARC
  5
B6E59
330
18
100
AcDbEntity
  8
実線
 48
0.2
100
AcDbCircle
 10
5985.943067962992
 20
-3095.728890293306
 30
0.0
 40
2.0
100
AcDbArc
 50
180.0
 51
270.0
  0
LINE
  5
B6E5A
330
18
100
AcDbEntity
  8
実線
100
AcDbLine
 10
5983.943067962991
 20
-3087.052722798976
 30
0.0
 11
6003.943067962992
 21
-3087.052722798976
 31
0.0
  0
LINE
  5
B6E67
330
18
100
AcDbEntity
  8
中心線
 48
0.2
100
AcDbLine
 10
5951.204874121711
 20
-3024.228889552176
 30
0.0
 11
5937.143067134485
 21
-3024.228889552176
 31
0.0
  0
LINE
  5
B6E69
330
18
100
AcDbEntity
  8
中心線
 48
0.2
100
AcDbLine
 10
5951.204874121711
 20
-3059.228888399385
 30
0.0
 11
5937.143067134485
 21
-3059.228888399385
 31
0.0
  0
LINE
  5
B6E6B
330
18
100
AcDbEntity
  8
中心線
 48
0.5
100
AcDbLine
 10
5927.886383080539
 20
-3041.728888975781
 30
0.0
 11
6005.808516429151
 21
-3041.728888975781
 31
0.0
  0
LINE
  5
B6E6C
330
18
100
AcDbEntity
  8
実線
 48
0.2
100
AcDbLine
 10
5939.443067147524
 20
-3070.878888241432
 30
0.0
 11
5939.443067147524
 21
-3012.578888557337
 31
0.0
  0
LINE
  5
B6E6D
330
18
100
AcDbEntity
  8
実線
 48
0.2
100
AcDbLine
 10
5938.143067134485
 20
-3016.828888026856
 30
0.0
 11
5938.143067134485
 21
-3066.628888771914
 31
0.0
  0
ARC
  5
B6E71
330
18
100
AcDbEntity
  8
\U+FF77\U+FF6C\U+FF6F\U+FF8C\U+FF9F\U+FF8E\U+FF9E\U+FF99\U+FF84
100
AcDbCircle
 10
5940.943067939243
 20
-3078.922705688975
 30
0.0
 40
2.0
100
AcDbArc
 50
90.0
 51
104.4775120000356
  0
LINE
  5
B6E72
330
18
100
AcDbEntity
  8
実線
 48
0.2
100
AcDbLine
 10
5940.943067939243
 20
-3070.878888241432
 30
0.0
 11
5939.443067147524
 21
-3070.878888241432
 31
0.0
  0
LINE
  5
B6E73
330
18
100
AcDbEntity
  8
実線
 48
0.2
100
AcDbLine
 10
5939.443067147524
 20
-3066.628888771914
 30
0.0
 11
5938.143067134485
 21
-3066.628888771914
 31
0.0
  0
LINE
  5
B6E79
330
18
100
AcDbEntity
  8
実線
 48
0.2
100
AcDbLine
 10
5938.143067134485
 20
-3016.828888026856
 30
0.0
 11
5939.443067147524
 21
-3016.828888026856
 31
0.0
  0
LINE
  5
B6E7A
330
18
100
AcDbEntity
  8
実線
 48
0.2
100
AcDbLine
 10
5939.443067147524
 20
-3012.578888557337
 30
0.0
 11
5940.943067939243
 21
-3012.578888557337
 31
0.0
  0
LINE
  5
B6EA0
330
18
100
AcDbEntity
  8
実線
 48
0.2
100
AcDbLine
 10
5941.443067962992
 20
-2985.728887658245
 30
0.0
 11
6003.943067962992
 21
-2985.728887658245
 31
0.0
  0
ARC
  5
B6EA3
330
18
100
AcDbEntity
  8
\U+FF77\U+FF6C\U+FF6F\U+FF8C\U+FF9F\U+FF8E\U+FF9E\U+FF99\U+FF84
100
AcDbCircle
 10
5940.943067939243
 20
-3004.535072262586
 30
0.0
 40
2.0
100
AcDbArc
 50
90.0
 51
104.4775120000356
  0
ARC
  5
B6EA4
330
18
100
AcDbEntity
  8
\U+FF77\U+FF6C\U+FF6F\U+FF8C\U+FF9F\U+FF8E\U+FF9E\U+FF99\U+FF84
100
AcDbCircle
 10
5940.543067939243
 20
-3002.985878262587
 30
0.0
 40
0.4
100
AcDbArc
 50
104.4775120000356
 51
180.0
  0
LINE
  5
B6EA5
330
18
100
AcDbEntity
  8
中心線
 48
0.5
100
AcDbLine
 10
5941.423906528936
 20
-3004.535072262588
 30
0.0
 11
5939.720566002045
 21
-3004.535071762588
 31
0.0
  0
ARC
  5
B6EA6
330
18
100
AcDbEntity
  8
\U+FF77\U+FF6C\U+FF6F\U+FF8C\U+FF9F\U+FF8E\U+FF9E\U+FF99\U+FF84
100
AcDbCircle
 10
5940.543067939243
 20
-3006.084265262587
 30
0.0
 40
0.4
100
AcDbArc
 50
180.0
 51
255.5224879999644
  0
ARC
  5
B6EA7
330
18
100
AcDbEntity
  8
\U+FF77\U+FF6C\U+FF6F\U+FF8C\U+FF9F\U+FF8E\U+FF9E\U+FF99\U+FF84
100
AcDbCircle
 10
5940.943067939243
 20
-3004.535072262586
 30
0.0
 40
2.0
100
AcDbArc
 50
255.5224879999644
 51
270.0
  0
LINE
  5
B6EA8
330
18
100
AcDbEntity
  8
\U+FF77\U+FF6C\U+FF6F\U+FF8C\U+FF9F\U+FF8E\U+FF9E\U+FF99\U+FF84
100
AcDbLine
 10
5940.143067939243
 20
-3002.985878262589
 30
0.0
 11
5940.143067939243
 21
-3006.084265262589
 31
0.0
  0
LINE
  5
B6EA9
330
18
100
AcDbEntity
  8
\U+FF77\U+FF6C\U+FF6F\U+FF8C\U+FF9F\U+FF8E\U+FF9E\U+FF99\U+FF84
100
AcDbLine
 10
5940.943067939243
 20
-3002.535072262588
 30
0.0
 11
5940.943067939243
 21
-3006.535072262588
 31
0.0
  0
LINE
  5
B6EAC
330
18
100
AcDbEntity
  8
実線
 48
0.2
100
AcDbLine
 10
5941.443067962992
 20
-2986.228888260523
 30
0.0
 11
5940.943067939243
 21
-2986.228888260523
 31
0.0
  0
LINE
  5
B6EB2
330
18
100
AcDbEntity
  8
実線
100
AcDbLine
 10
5983.943067962991
 20
-2996.405056245941
 30
0.0
 11
6003.943067962992
 21
-2996.405056245941
 31
0.0
  0
ARC
  5
B6EB7
330
18
100
AcDbEntity
  8
実線
 48
0.2
100
AcDbCircle
 10
5985.943067962992
 20
-2987.728887658245
 30
0.0
 40
2.0
100
AcDbArc
 50
90.0
 51
180.0
  0
TEXT
  5
B6F85
102
{ACAD_REACTORS
330
B6F9F
102
}
330
18
100
AcDbEntity
  8
文字
370
     9
100
AcDbText
 10
5993.384327647248
 20
-3067.932046835252
 30
0.0
 40
2.0
  1
SER No.******
 50
90.0
 41
1.199999999999999
  7
MS\U+FF7A\U+FF9E\U+FF7C\U+FF6F\U+FF78N
 11
5993.749671397248
 21
-3067.932046835252
 31
0.0
100
AcDbText
 73
     1
  0
LINE
  5
B6F86
102
{ACAD_REACTORS
330
B6F9F
102
}
330
18
100
AcDbEntity
  8
文字
100
AcDbLine
 10
5986.943067962989
 20
-3035.228890293305
 30
0.0
 11
5986.943067962989
 21
-3069.228890293305
 31
0.0
  0
LINE
  5
B6F87
102
{ACAD_REACTORS
330
B6F9F
102
}
330
18
100
AcDbEntity
  8
文字
100
AcDbLine
 10
5998.943067962989
 20
-3069.228890293305
 30
0.0
 11
5998.943067962989
 21
-3035.228890293305
 31
0.0
  0
LINE
  5
B6F88
102
{ACAD_REACTORS
330
B6F9F
102
}
330
18
100
AcDbEntity
  8
文字
100
AcDbLine
 10
5993.943067962988
 20
-3069.728890293305
 30
0.0
 11
5993.943067962988
 21
-3034.728890293305
 31
0.0
  0
ARC
  5
B6F89
102
{ACAD_REACTORS
330
B6F9F
102
}
330
18
100
AcDbEntity
  8
文字
370
     9
100
AcDbCircle
 10
5996.888044544991
 20
-3064.779843792227
 30
0.0
 40
0.8009999999999999
100
AcDbArc
 50
0.0
 51
180.0
  0
CIRCLE
  5
B6F8A
102
{ACAD_REACTORS
330
B6F9F
102
}
330
18
100
AcDbEntity
  8
文字
370
     9
100
AcDbCircle
 10
5996.687794544989
 20
-3064.779843792227
 30
0.0
 40
0.6007500000000002
  0
LINE
  5
B6F8B
102
{ACAD_REACTORS
330
B6F9F
102
}
330
18
100
AcDbEntity
  8
文字
370
     9
100
AcDbLine
 10
5998.089544544987
 20
-3067.182843792229
 30
0.0
 11
5998.089544544987
 21
-3062.777343792228
 31
0.0
  0
LINE
  5
B6F8C
102
{ACAD_REACTORS
330
B6F9F
102
}
330
18
100
AcDbEntity
  8
文字
370
     9
100
AcDbLine
 10
5996.087044544989
 20
-3064.779843792227
 30
0.0
 11
5996.087044544989
 21
-3062.537043792227
 31
0.0
  0
TEXT
  5
B6F8D
102
{ACAD_REACTORS
330
B6F9F
102
}
330
18
100
AcDbEntity
  8
文字
370
     9
100
AcDbText
 10
5990.560335843866
 20
-3067.90492026244
 30
0.0
 40
2.6
  1
MODEL:
 50
90.0
 41
1.199999999999999
  7
MS\U+FF7A\U+FF9E\U+FF7C\U+FF6F\U+FF78N
 11
5991.035282718866
 21
-3067.90492026244
 31
0.0
100
AcDbText
 73
     1
  0
LINE
  5
B6F8E
102
{ACAD_REACTORS
330
B6F9F
102
}
330
18
100
AcDbEntity
  8
文字
370
     9
100
AcDbLine
 10
5994.885544544985
 20
-3066.782343792229
 30
0.0
 11
5994.885544544985
 21
-3062.376843792228
 31
0.0
  0
LINE
  5
B6F8F
102
{ACAD_REACTORS
330
B6F9F
102
}
330
18
100
AcDbEntity
  8
文字
370
     9
100
AcDbLine
 10
5994.885544544985
 20
-3062.376843792228
 30
0.0
 11
5995.766644544984
 21
-3065.180343792226
 31
0.0
  0
ARC
  5
B6F90
102
{ACAD_REACTORS
330
B6F9F
102
}
330
18
100
AcDbEntity
  8
文字
370
     9
100
AcDbCircle
 10
5996.685931754292
 20
-3064.778912396879
 30
0.0
 40
1.003113223100251
100
AcDbArc
 50
203.589777272608
 51
359.9468005913759
  0
LINE
  5
B6F91
102
{ACAD_REACTORS
330
B6F9F
102
}
330
18
100
AcDbEntity
  8
文字
100
AcDbLine
 10
5987.443067962988
 20
-3069.728890293305
 30
0.0
 11
5998.443067962988
 21
-3069.728890293305
 31
0.0
  0
LINE
  5
B6F92
102
{ACAD_REACTORS
330
B6F9F
102
}
330
18
100
AcDbEntity
  8
文字
370
     9
100
AcDbLine
 10
5998.089544544987
 20
-3067.182843792229
 30
0.0
 11
5994.885544544985
 21
-3066.782343792229
 31
0.0
  0
ARC
  5
B6F93
102
{ACAD_REACTORS
330
B6F9F
102
}
330
18
100
AcDbEntity
  8
文字
100
AcDbCircle
 10
5987.443067962992
 20
-3069.228890293306
 30
0.0
 40
0.5
100
AcDbArc
 50
180.0
 51
270.0
  0
ARC
  5
B6F94
102
{ACAD_REACTORS
330
B6F9F
102
}
330
18
100
AcDbEntity
  8
文字
100
AcDbCircle
 10
5998.443067962992
 20
-3069.228890293306
 30
0.0
 40
0.5
100
AcDbArc
 50
270.0
 51
0.0
  0
LINE
  5
B6F95
102
{ACAD_REACTORS
330
B6F9F
102
}
330
18
100
AcDbEntity
  8
文字
370
     9
100
AcDbLine
 10
5998.089544544987
 20
-3062.777343792228
 30
0.0
 11
5996.087044544989
 21
-3062.537043792227
 31
0.0
  0
TEXT
  5
B6F96
102
{ACAD_REACTORS
330
B6F9F
102
}
330
18
100
AcDbEntity
  8
文字
370
     9
100
AcDbText
 10
5998.041810406405
 20
-3061.560744567842
 30
0.0
 40
1.439999999999999
  1
DENSO
 50
90.0
 41
1.3
  7
TIMESNR
100
AcDbText
  0
TEXT
  5
B6F97
102
{ACAD_REACTORS
330
B6F9F
102
}
330
18
100
AcDbEntity
  8
文字
370
     9
100
AcDbText
 10
5996.34504799742
 20
-3061.439331457702
 30
0.0
 40
1.439999999999999
  1
NIKKI
 50
90.0
 41
1.25
  7
TIMESNR
100
AcDbText
  0
LINE
  5
B6F98
102
{ACAD_REACTORS
330
B6F9F
102
}
330
18
100
AcDbEntity
  8
文字
100
AcDbLine
 10
5998.443067962988
 20
-3034.728890293305
 30
0.0
 11
5987.443067962988
 21
-3034.728890293305
 31
0.0
  0
ARC
  5
B6F99
102
{ACAD_REACTORS
330
B6F9F
102
}
330
18
100
AcDbEntity
  8
文字
100
AcDbCircle
 10
5987.443067962992
 20
-3035.228890293306
 30
0.0
 40
0.5
100
AcDbArc
 50
90.0
 51
180.0
  0
ARC
  5
B6F9A
102
{ACAD_REACTORS
330
B6F9F
102
}
330
18
100
AcDbEntity
  8
文字
100
AcDbCircle
 10
5998.443067962992
 20
-3035.228890293306
 30
0.0
 40
0.5
100
AcDbArc
 50
0.0
 51
90.0
  0
TEXT
  5
B6F9B
102
{ACAD_REACTORS
330
B6F9F
102
}
330
18
100
AcDbEntity
  8
文字
370
     9
100
AcDbText
 10
5996.438576549182
 20
-3050.107229898757
 30
137.5
 40
1.5
  1
SN-16140
 50
90.0
  7
MS\U+FF7A\U+FF9E\U+FF7C\U+FF6F\U+FF78N
 11
5996.712584361683
 21
-3050.107229898757
 31
137.5
100
AcDbText
 73
     1
  0
TEXT
  5
B6F9C
102
{ACAD_REACTORS
330
B6F9F
102
}
330
18
100
AcDbEntity
  8
文字
370
     9
100
AcDbText
 10
5998.308362599567
 20
-3050.107229898757
 30
137.5
 40
1.5
  1
MADE IN JAPAN
 50
90.0
  7
MS\U+FF7A\U+FF9E\U+FF7C\U+FF6F\U+FF78N
 11
5998.582370412067
 21
-3050.107229898757
 31
137.5
100
AcDbText
 73
     1
  0
TEXT
  5
B6FBB
102
{ACAD_REACTORS
330
B6FCB
102
}
330
18
100
AcDbEntity
  8
文字
370
     9
100
AcDbText
 10
5997.596839743799
 20
-3078.849717667301
 30
0.0
 40
1.439999999999999
  1
DENSO
 50
90.0
  7
TIMESNR
100
AcDbText
  0
TEXT
  5
B6FBC
102
{ACAD_REACTORS
330
B6FCB
102
}
330
18
100
AcDbEntity
  8
文字
370
     9
100
AcDbText
 10
5995.900077334814
 20
-3078.72830455716
 30
0.0
 40
1.439999999999999
  1
NIKKI
 50
90.0
  7
TIMESNR
100
AcDbText
  0
TEXT
  5
B6FBD
102
{ACAD_REACTORS
330
B6FCB
102
}
330
18
100
AcDbEntity
  8
文字
370
     9
100
AcDbText
 10
5991.983940977267
 20
-3084.514171814099
 30
0.0
 40
2.0
  1
Certificate
 50
90.0
  7
TIMESNR
 11
5992.623297264772
 21
-3084.514171814099
 31
0.0
100
AcDbText
 73
     1
  0
LINE
  5
B6FBE
102
{ACAD_REACTORS
330
B6FCB
102
}
330
18
100
AcDbEntity
  8
文字
100
AcDbLine
 10
5992.94306796299
 20
-3085.728890293306
 30
0.0
 11
5992.94306796299
 21
-3070.728890293306
 31
0.0
  0
LWPOLYLINE
  5
B6FBF
102
{ACAD_REACTORS
330
B6FCB
102
}
330
18
100
AcDbEntity
  8
文字
100
AcDbPolyline
 90
        8
 70
     1
 43
0.0
 10
5998.94306796299
 20
-3085.228890293306
 10
5998.943067962994
 20
-3071.228890293306
 42
0.4142135623730951
 10
5998.443067962993
 20
-3070.728890293306
 10
5989.443067962993
 20
-3070.728890293306
 42
0.4142135623730951
 10
5988.943067962993
 20
-3071.228890293306
 10
5988.943067962993
 20
-3085.228890293306
 42
0.4142135623730996
 10
5989.443067962993
 20
-3085.728890293306
 10
5998.44306796299
 20
-3085.728890293306
 42
0.4142135623730904
  0
LINE
  5
B6FC0
102
{ACAD_REACTORS
330
B6FCB
102
}
330
18
100
AcDbEntity
  8
文字
370
     9
100
AcDbLine
 10
5997.644573882377
 20
-3080.066316891686
 30
0.0
 11
5995.642073882378
 21
-3079.826016891689
 31
0.0
  0
LINE
  5
B6FC1
102
{ACAD_REACTORS
330
B6FCB
102
}
330
18
100
AcDbEntity
  8
文字
370
     9
100
AcDbLine
 10
5997.644573882377
 20
-3084.471816891687
 30
0.0
 11
5994.440573882378
 21
-3084.071316891687
 31
0.0
  0
LINE
  5
B6FC2
102
{ACAD_REACTORS
330
B6FCB
102
}
330
18
100
AcDbEntity
  8
文字
370
     9
100
AcDbLine
 10
5994.440573882378
 20
-3084.071316891687
 30
0.0
 11
5994.440573882378
 21
-3079.665816891687
 31
0.0
  0
ARC
  5
B6FC3
102
{ACAD_REACTORS
330
B6FCB
102
}
330
18
100
AcDbEntity
  8
文字
370
     9
100
AcDbCircle
 10
5996.443073882385
 20
-3082.068816891689
 30
0.0
 40
0.8009999999999999
100
AcDbArc
 50
0.0
 51
180.0
  0
CIRCLE
  5
B6FC4
102
{ACAD_REACTORS
330
B6FCB
102
}
330
18
100
AcDbEntity
  8
文字
370
     9
100
AcDbCircle
 10
5996.242823882383
 20
-3082.068816891689
 30
0.0
 40
0.6007500000000002
  0
ARC
  5
B6FC5
102
{ACAD_REACTORS
330
B6FCB
102
}
330
18
100
AcDbEntity
  8
文字
370
     9
100
AcDbCircle
 10
5996.240961091686
 20
-3082.067885496341
 30
0.0
 40
1.003113223100251
100
AcDbArc
 50
203.589777272608
 51
359.9468005913759
  0
LINE
  5
B6FC6
102
{ACAD_REACTORS
330
B6FCB
102
}
330
18
100
AcDbEntity
  8
文字
370
     9
100
AcDbLine
 10
5994.440573882378
 20
-3079.665816891687
 30
0.0
 11
5995.321673882378
 21
-3082.469316891688
 31
0.0
  0
LINE
  5
B6FC7
102
{ACAD_REACTORS
330
B6FCB
102
}
330
18
100
AcDbEntity
  8
文字
370
     9
100
AcDbLine
 10
5995.642073882378
 20
-3082.068816891689
 30
0.0
 11
5995.642073882378
 21
-3079.826016891689
 31
0.0
  0
LINE
  5
B6FC8
102
{ACAD_REACTORS
330
B6FCB
102
}
330
18
100
AcDbEntity
  8
文字
370
     9
100
AcDbLine
 10
5997.644573882377
 20
-3084.471816891687
 30
0.0
 11
5997.644573882377
 21
-3080.066316891686
 31
0.0
  0
TEXT
  5
B742A
102
{ACAD_REACTORS
330
B7444
102
}
330
18
100
AcDbEntity
  8
文字
370
     9
100
AcDbText
 10
5998.041810406405
 20
-3025.560744567842
 30
0.0
 40
1.439999999999999
  1
DENSO
 50
90.0
 41
1.3
  7
TIMESNR
100
AcDbText
  0
TEXT
  5
B742B
102
{ACAD_REACTORS
330
B7444
102
}
330
18
100
AcDbEntity
  8
文字
370
     9
100
AcDbText
 10
5996.34504799742
 20
-3025.439331457702
 30
0.0
 40
1.439999999999999
  1
NIKKI
 50
90.0
 41
1.25
  7
TIMESNR
100
AcDbText
  0
TEXT
  5
B742C
102
{ACAD_REACTORS
330
B7444
102
}
330
18
100
AcDbEntity
  8
文字
370
     9
100
AcDbText
 10
5990.560335843866
 20
-3031.90492026244
 30
0.0
 40
2.6
  1
ENCODER
 50
90.0
 41
1.199999999999999
  7
MS\U+FF7A\U+FF9E\U+FF7C\U+FF6F\U+FF78N
 11
5991.035282718866
 21
-3031.90492026244
 31
0.0
100
AcDbText
 73
     1
  0
TEXT
  5
B742D
102
{ACAD_REACTORS
330
B7444
102
}
330
18
100
AcDbEntity
  8
文字
370
     9
100
AcDbText
 10
5993.384327647248
 20
-3031.932046835252
 30
0.0
 40
2.0
  1
******PPR
 50
90.0
 41
1.199999999999999
  7
MS\U+FF7A\U+FF9E\U+FF7C\U+FF6F\U+FF78N
 11
5993.749671397248
 21
-3031.932046835252
 31
0.0
100
AcDbText
 73
     1
  0
LINE
  5
B742E
102
{ACAD_REACTORS
330
B7444
102
}
330
18
100
AcDbEntity
  8
文字
100
AcDbLine
 10
5993.943067962988
 20
-3033.728890293305
 30
0.0
 11
5993.943067962988
 21
-2998.728890293305
 31
0.0
  0
LINE
  5
B742F
102
{ACAD_REACTORS
330
B7444
102
}
330
18
100
AcDbEntity
  8
文字
100
AcDbLine
 10
5998.943067962989
 20
-3033.228890293305
 30
0.0
 11
5998.943067962989
 21
-2999.228890293305
 31
0.0
  0
LINE
  5
B7430
102
{ACAD_REACTORS
330
B7444
102
}
330
18
100
AcDbEntity
  8
文字
100
AcDbLine
 10
5986.943067962989
 20
-2999.228890293305
 30
0.0
 11
5986.943067962989
 21
-3033.228890293305
 31
0.0
  0
ARC
  5
B7431
102
{ACAD_REACTORS
330
B7444
102
}
330
18
100
AcDbEntity
  8
文字
100
AcDbCircle
 10
5998.443067962992
 20
-3033.228890293306
 30
0.0
 40
0.5
100
AcDbArc
 50
270.0
 51
0.0
  0
ARC
  5
B7432
102
{ACAD_REACTORS
330
B7444
102
}
330
18
100
AcDbEntity
  8
文字
100
AcDbCircle
 10
5987.443067962992
 20
-3033.228890293306
 30
0.0
 40
0.5
100
AcDbArc
 50
180.0
 51
270.0
  0
LINE
  5
B7433
102
{ACAD_REACTORS
330
B7444
102
}
330
18
100
AcDbEntity
  8
文字
100
AcDbLine
 10
5987.443067962988
 20
-3033.728890293305
 30
0.0
 11
5998.443067962988
 21
-3033.728890293305
 31
0.0
  0
ARC
  5
B7434
102
{ACAD_REACTORS
330
B7444
102
}
330
18
100
AcDbEntity
  8
文字
370
     9
100
AcDbCircle
 10
5996.888044544991
 20
-3028.779843792227
 30
0.0
 40
0.8009999999999999
100
AcDbArc
 50
0.0
 51
180.0
  0
LINE
  5
B7435
102
{ACAD_REACTORS
330
B7444
102
}
330
18
100
AcDbEntity
  8
文字
370
     9
100
AcDbLine
 10
5998.089544544987
 20
-3026.777343792228
 30
0.0
 11
5996.087044544989
 21
-3026.537043792227
 31
0.0
  0
LINE
  5
B7436
102
{ACAD_REACTORS
330
B7444
102
}
330
18
100
AcDbEntity
  8
文字
370
     9
100
AcDbLine
 10
5998.089544544987
 20
-3031.182843792229
 30
0.0
 11
5994.885544544985
 21
-3030.782343792229
 31
0.0
  0
ARC
  5
B7437
102
{ACAD_REACTORS
330
B7444
102
}
330
18
100
AcDbEntity
  8
文字
370
     9
100
AcDbCircle
 10
5996.685931754292
 20
-3028.778912396879
 30
0.0
 40
1.003113223100251
100
AcDbArc
 50
203.589777272608
 51
359.9468005913759
  0
LINE
  5
B7438
102
{ACAD_REACTORS
330
B7444
102
}
330
18
100
AcDbEntity
  8
文字
370
     9
100
AcDbLine
 10
5996.087044544989
 20
-3028.779843792227
 30
0.0
 11
5996.087044544989
 21
-3026.537043792227
 31
0.0
  0
LINE
  5
B7439
102
{ACAD_REACTORS
330
B7444
102
}
330
18
100
AcDbEntity
  8
文字
370
     9
100
AcDbLine
 10
5994.885544544985
 20
-3030.782343792229
 30
0.0
 11
5994.885544544985
 21
-3026.376843792228
 31
0.0
  0
LINE
  5
B743A
102
{ACAD_REACTORS
330
B7444
102
}
330
18
100
AcDbEntity
  8
文字
370
     9
100
AcDbLine
 10
5994.885544544985
 20
-3026.376843792228
 30
0.0
 11
5995.766644544984
 21
-3029.180343792226
 31
0.0
  0
CIRCLE
  5
B743B
102
{ACAD_REACTORS
330
B7444
102
}
330
18
100
AcDbEntity
  8
文字
370
     9
100
AcDbCircle
 10
5996.687794544989
 20
-3028.779843792227
 30
0.0
 40
0.6007500000000002
  0
LINE
  5
B743C
102
{ACAD_REACTORS
330
B7444
102
}
330
18
100
AcDbEntity
  8
文字
370
     9
100
AcDbLine
 10
5998.089544544987
 20
-3031.182843792229
 30
0.0
 11
5998.089544544987
 21
-3026.777343792228
 31
0.0
  0
LINE
  5
B743D
102
{ACAD_REACTORS
330
B7444
102
}
330
18
100
AcDbEntity
  8
文字
100
AcDbLine
 10
5998.443067962988
 20
-2998.728890293305
 30
0.0
 11
5987.443067962988
 21
-2998.728890293305
 31
0.0
  0
ARC
  5
B743E
102
{ACAD_REACTORS
330
B7444
102
}
330
18
100
AcDbEntity
  8
文字
100
AcDbCircle
 10
5987.443067962992
 20
-2999.228890293306
 30
0.0
 40
0.5
100
AcDbArc
 50
90.0
 51
180.0
  0
ARC
  5
B743F
102
{ACAD_REACTORS
330
B7444
102
}
330
18
100
AcDbEntity
  8
文字
100
AcDbCircle
 10
5998.443067962992
 20
-2999.228890293306
 30
0.0
 40
0.5
100
AcDbArc
 50
0.0
 51
90.0
  0
TEXT
  5
B7440
102
{ACAD_REACTORS
330
B7444
102
}
330
18
100
AcDbEntity
  8
文字
370
     9
100
AcDbText
 10
5998.308362599567
 20
-3014.107229898756
 30
137.5
 40
1.5
  1
MADE IN JAPAN
 50
90.0
  7
MS\U+FF7A\U+FF9E\U+FF7C\U+FF6F\U+FF78N
 11
5998.582370412067
 21
-3014.107229898756
 31
137.5
100
AcDbText
 73
     1
  0
TEXT
  5
B7441
102
{ACAD_REACTORS
330
B7444
102
}
330
18
100
AcDbEntity
  8
文字
370
     9
100
AcDbText
 10
5996.438576549182
 20
-3014.107229898756
 30
137.5
 40
1.5
  1
SN-16140
 50
90.0
  7
MS\U+FF7A\U+FF9E\U+FF7C\U+FF6F\U+FF78N
 11
5996.712584361683
 21
-3014.107229898756
 31
137.5
100
AcDbText
 73
     1
  0
LINE
  5
BA5CE
330
18
100
AcDbEntity
  8
実線
 48
0.2
100
AcDbLine
 10
5659.916687509911
 20
-3254.407643768134
 30
0.0
 11
5767.916690966982
 21
-3254.407643768136
 31
0.0
  0
LINE
  5
BA5CF
330
18
100
AcDbEntity
  8
実線
 48
0.2
100
AcDbLine
 10
5651.416689238446
 20
-3274.407643768138
 30
0.0
 11
5697.91668889032
 21
-3274.407643768138
 31
0.0
  0
LINE
  5
BA5D0
330
18
100
AcDbEntity
  8
実線
 48
0.2
100
AcDbLine
 10
5769.91669096698
 20
-3211.907643768138
 30
0.0
 11
5651.416689238446
 21
-3211.907643768138
 31
0.0
  0
LINE
  5
BA5D1
330
18
100
AcDbEntity
  8
実線
 48
0.2
100
AcDbLine
 10
5652.916689238447
 20
-3211.407643744389
 30
0.0
 11
5769.416690364702
 21
-3211.407643744389
 31
0.0
  0
LINE
  5
BA62B
330
18
100
AcDbEntity
  8
実線
 48
0.2
100
AcDbLine
 10
5651.416689238446
 20
-3211.907643768138
 30
0.0
 11
5651.416689238446
 21
-3274.407643768138
 31
0.0
  0
LINE
  5
BA62C
330
18
100
AcDbEntity
  8
実線
 48
0.2
100
AcDbLine
 10
5657.916687509911
 20
-3256.407643768135
 30
0.0
 11
5657.916687509911
 21
-3211.907643768138
 31
0.0
  0
LINE
  5
BA62D
330
18
100
AcDbEntity
  8
実線
 48
0.2
100
AcDbLine
 10
5664.712115782816
 20
-3211.907643768136
 30
0.0
 11
5664.712115782816
 21
-3254.407643768134
 31
0.0
  0
LINE
  5
BA64E
330
18
100
AcDbEntity
  8
\U+FF7A\U+FF88\U+FF78\U+FF80
100
AcDbLine
 10
5651.416689238446
 20
-3271.061443768139
 30
0.0
 11
5651.416689238446
 21
-3253.753843768139
 31
0.0
  0
LINE
  5
BA64F
330
18
100
AcDbEntity
  8
実線
 48
0.2
100
AcDbLine
 10
5668.59285444923
 20
-3254.407643768136
 30
0.0
 11
5668.59285444923
 21
-3274.407643768138
 31
0.0
  0
LINE
  5
BA650
330
18
100
AcDbEntity
  8
実線
 48
0.2
100
AcDbLine
 10
5657.916687509911
 20
-3256.407643768135
 30
0.0
 11
5657.916687509911
 21
-3274.407643768138
 31
0.0
  0
ARC
  5
BA651
330
18
100
AcDbEntity
  8
実線
 48
0.2
100
AcDbCircle
 10
5659.916687509911
 20
-3256.407643768135
 30
0.0
 40
2.0
100
AcDbArc
 50
90.0
 51
180.0
  0
LINE
  5
BA673
330
18
100
AcDbEntity
  8
中心線
 48
0.5
100
AcDbLine
 10
5661.316689649444
 20
-3210.414964499196
 30
0.0
 11
5661.316689649444
 21
-3212.907643768138
 31
0.0
  0
LINE
  5
BA674
330
18
100
AcDbEntity
  8
実線
 48
0.2
100
AcDbLine
 10
5652.916689238447
 20
-3211.907643768138
 30
0.0
 11
5652.916689238447
 21
-3211.407643744389
 31
0.0
  0
LINE
  5
BA675
330
18
100
AcDbEntity
  8
中心線
 48
0.5
100
AcDbLine
 10
5676.722872973238
 20
-3211.888482334084
 30
0.0
 11
5676.722873473238
 21
-3210.185141807191
 31
0.0
  0
ARC
  5
BA676
330
18
100
AcDbEntity
  8
\U+FF77\U+FF6C\U+FF6F\U+FF8C\U+FF9F\U+FF8E\U+FF9E\U+FF99\U+FF84
100
AcDbCircle
 10
5678.272066973239
 20
-3211.00764374439
 30
0.0
 40
0.4
100
AcDbArc
 50
14.47751200004213
 51
90.0
  0
LINE
  5
BA677
330
18
100
AcDbEntity
  8
\U+FF77\U+FF6C\U+FF6F\U+FF8C\U+FF9F\U+FF8E\U+FF9E\U+FF99\U+FF84
100
AcDbLine
 10
5678.722872973238
 20
-3211.407643744389
 30
0.0
 11
5674.722872973237
 21
-3211.407643744389
 31
0.0
  0
ARC
  5
BA678
330
18
100
AcDbEntity
  8
\U+FF77\U+FF6C\U+FF6F\U+FF8C\U+FF9F\U+FF8E\U+FF9E\U+FF99\U+FF84
100
AcDbCircle
 10
5676.72287297324
 20
-3211.407643744389
 30
0.0
 40
2.0
100
AcDbArc
 50
0.0
 51
14.47751200004213
  0
ARC
  5
BA679
330
18
100
AcDbEntity
  8
\U+FF77\U+FF6C\U+FF6F\U+FF8C\U+FF9F\U+FF8E\U+FF9E\U+FF99\U+FF84
100
AcDbCircle
 10
5676.72287297324
 20
-3211.407643744389
 30
0.0
 40
2.0
100
AcDbArc
 50
165.5224879999579
 51
180.0
  0
ARC
  5
BA67A
330
18
100
AcDbEntity
  8
\U+FF77\U+FF6C\U+FF6F\U+FF8C\U+FF9F\U+FF8E\U+FF9E\U+FF99\U+FF84
100
AcDbCircle
 10
5675.173679973239
 20
-3211.00764374439
 30
0.0
 40
0.4
100
AcDbArc
 50
90.0
 51
165.5224879999579
  0
LINE
  5
BA67B
330
18
100
AcDbEntity
  8
\U+FF77\U+FF6C\U+FF6F\U+FF8C\U+FF9F\U+FF8E\U+FF9E\U+FF99\U+FF84
100
AcDbLine
 10
5678.272066973237
 20
-3210.60764374439
 30
0.0
 11
5675.173679973237
 21
-3210.60764374439
 31
0.0
  0
LINE
  5
BA6D0
330
18
100
AcDbEntity
  8
中心線
 48
0.2
100
AcDbLine
 10
5731.41668980469
 20
-3221.669449926858
 30
0.0
 11
5731.41668980469
 21
-3207.607642939632
 31
0.0
  0
LINE
  5
BA6D1
330
18
100
AcDbEntity
  8
中心線
 48
0.2
100
AcDbLine
 10
5696.41668980469
 20
-3221.669449926858
 30
0.0
 11
5696.41668980469
 21
-3207.607642939632
 31
0.0
  0
LINE
  5
BA6D2
330
18
100
AcDbEntity
  8
中心線
 48
0.5
100
AcDbLine
 10
5713.916689238446
 20
-3276.407643768138
 30
0.0
 11
5713.916689238446
 21
-3207.367622989314
 31
0.0
  0
LINE
  5
BA6DA
330
18
100
AcDbEntity
  8
実線
 48
0.2
100
AcDbLine
 10
5738.81669017722
 20
-3208.607642939632
 30
0.0
 11
5689.016689432163
 21
-3208.607642939632
 31
0.0
  0
LINE
  5
BA6DB
330
18
100
AcDbEntity
  8
実線
 48
0.2
100
AcDbLine
 10
5684.766689962644
 20
-3209.90764295267
 30
0.0
 11
5743.066689646739
 21
-3209.90764295267
 31
0.0
  0
LINE
  5
BA6DC
330
18
100
AcDbEntity
  8
実線
 48
0.2
100
AcDbLine
 10
5684.766689962644
 20
-3211.407643744387
 30
0.0
 11
5684.766689962644
 21
-3209.90764295267
 31
0.0
  0
LINE
  5
BA6DD
330
18
100
AcDbEntity
  8
実線
 48
0.2
100
AcDbLine
 10
5689.016689432163
 20
-3209.90764295267
 30
0.0
 11
5689.016689432163
 21
-3208.607642939632
 31
0.0
  0
LINE
  5
BA6DE
330
18
100
AcDbEntity
  8
実線
 48
0.2
100
AcDbLine
 10
5743.066689646739
 20
-3209.90764295267
 30
0.0
 11
5743.066689646739
 21
-3211.407643744387
 31
0.0
  0
LINE
  5
BA6DF
330
18
100
AcDbEntity
  8
実線
 48
0.2
100
AcDbLine
 10
5738.81669017722
 20
-3208.607642939632
 30
0.0
 11
5738.81669017722
 21
-3209.90764295267
 31
0.0
  0
LINE
  5
BA6E0
330
18
100
AcDbEntity
  8
実線
 48
0.2
100
AcDbLine
 10
5769.91669096698
 20
-3211.907643768138
 30
0.0
 11
5769.91669096698
 21
-3274.407643768138
 31
0.0
  0
LINE
  5
BA6E1
330
18
100
AcDbEntity
  8
実線
 48
0.2
100
AcDbLine
 10
5759.24052306165
 20
-3254.407643768138
 30
0.0
 11
5759.240523061648
 21
-3274.407643768136
 31
0.0
  0
ARC
  5
BA6E2
330
18
100
AcDbEntity
  8
実線
 48
0.2
100
AcDbCircle
 10
5767.916690966982
 20
-3256.407643768136
 30
0.0
 40
2.0
100
AcDbArc
 50
0.0
 51
90.0
  0
ARC
  5
BA6E3
330
18
100
AcDbEntity
  8
\U+FF77\U+FF6C\U+FF6F\U+FF8C\U+FF9F\U+FF8E\U+FF9E\U+FF99\U+FF84
100
AcDbCircle
 10
5751.110505503652
 20
-3211.407643744389
 30
0.0
 40
2.0
100
AcDbArc
 50
165.5224879999579
 51
180.0
  0
ARC
  5
BA6E4
330
18
100
AcDbEntity
  8
\U+FF77\U+FF6C\U+FF6F\U+FF8C\U+FF9F\U+FF8E\U+FF9E\U+FF99\U+FF84
100
AcDbCircle
 10
5749.561311503653
 20
-3211.00764374439
 30
0.0
 40
0.4
100
AcDbArc
 50
90.0
 51
165.5224879999579
  0
LINE
  5
BA6E5
330
18
100
AcDbEntity
  8
中心線
 48
0.5
100
AcDbLine
 10
5751.110505503654
 20
-3211.888482334084
 30
0.0
 11
5751.110505003654
 21
-3210.185141807191
 31
0.0
  0
ARC
  5
BA6E6
330
18
100
AcDbEntity
  8
\U+FF77\U+FF6C\U+FF6F\U+FF8C\U+FF9F\U+FF8E\U+FF9E\U+FF99\U+FF84
100
AcDbCircle
 10
5752.659698503653
 20
-3211.00764374439
 30
0.0
 40
0.4
100
AcDbArc
 50
14.47751200004213
 51
90.0
  0
ARC
  5
BA6E7
330
18
100
AcDbEntity
  8
\U+FF77\U+FF6C\U+FF6F\U+FF8C\U+FF9F\U+FF8E\U+FF9E\U+FF99\U+FF84
100
AcDbCircle
 10
5751.110505503652
 20
-3211.407643744389
 30
0.0
 40
2.0
100
AcDbArc
 50
0.0
 51
14.47751200004213
  0
LINE
  5
BA6E8
330
18
100
AcDbEntity
  8
\U+FF77\U+FF6C\U+FF6F\U+FF8C\U+FF9F\U+FF8E\U+FF9E\U+FF99\U+FF84
100
AcDbLine
 10
5749.561311503654
 20
-3210.60764374439
 30
0.0
 11
5752.659698503655
 21
-3210.60764374439
 31
0.0
  0
LINE
  5
BA6E9
330
18
100
AcDbEntity
  8
\U+FF77\U+FF6C\U+FF6F\U+FF8C\U+FF9F\U+FF8E\U+FF9E\U+FF99\U+FF84
100
AcDbLine
 10
5749.110505503654
 20
-3211.407643744389
 30
0.0
 11
5753.110505503654
 21
-3211.407643744389
 31
0.0
  0
LINE
  5
BA6EA
330
18
100
AcDbEntity
  8
実線
 48
0.2
100
AcDbLine
 10
5769.416690364702
 20
-3211.907643768138
 30
0.0
 11
5769.416690364702
 21
-3211.407643744389
 31
0.0
  0
LINE
  5
BACF3
330
18
100
AcDbEntity
  8
実線
 48
0.2
100
AcDbLine
 10
6002.643067122565
 20
-3057.728889734906
 30
0.0
 11
6002.643067122565
 21
-3025.728888214988
 31
0.0
  0
LINE
  5
BAD21
330
18
100
AcDbEntity
  8
実線
 48
0.2
100
AcDbLine
 10
6002.143067962992
 20
-3057.728889734906
 30
0.0
 11
6002.143067962992
 21
-3025.728888214987
 31
0.0
  0
LINE
  5
BAD22
330
18
100
AcDbEntity
  8
実線
 48
0.2
100
AcDbLine
 10
6003.943067962992
 20
-3025.728888214988
 30
0.0
 11
6002.143067962992
 21
-3025.728888214987
 31
0.0
  0
LINE
  5
BAD23
330
18
100
AcDbEntity
  8
実線
 48
0.2
100
AcDbLine
 10
6003.943067962993
 20
-3057.728889734906
 30
0.0
 11
6002.143067962992
 21
-3057.728889734906
 31
0.0
  0
LINE
  5
BAD24
330
18
100
AcDbEntity
  8
実線
 48
0.2
100
AcDbLine
 10
6003.943067962993
 20
-3025.728888214987
 30
0.0
 11
6003.943067962992
 21
-2985.728887658245
 31
0.0
  0
LINE
  5
BAD4B
330
18
100
AcDbEntity
  8
中心線
 48
0.5
100
AcDbLine
 10
5625.474891818891
 20
-3225.407643768137
 30
0.0
 11
5653.907324653879
 21
-3225.407643768137
 31
0.0
  0
LINE
  5
BAD4C
330
18
100
AcDbEntity
  8
\U+FF7A\U+FF88\U+FF78\U+FF80
100
AcDbLine
 10
5633.416689238447
 20
-3234.061443768136
 30
0.0
 11
5629.416689238446
 21
-3230.705045243427
 31
0.0
  0
LINE
  5
BAD4D
330
18
100
AcDbEntity
  8
\U+FF7A\U+FF88\U+FF78\U+FF80
100
AcDbLine
 10
5646.416689238447
 20
-3234.061443768136
 30
0.0
 11
5646.416689238447
 21
-3216.753843768136
 31
0.0
  0
LINE
  5
BAD4E
330
18
100
AcDbEntity
  8
\U+FF7A\U+FF88\U+FF78\U+FF80
100
AcDbLine
 10
5641.416689238447
 20
-3234.061443768136
 30
0.0
 11
5641.416689238447
 21
-3216.753843768136
 31
0.0
  0
LINE
  5
BAD4F
330
18
100
AcDbEntity
  8
\U+FF7A\U+FF88\U+FF78\U+FF80
100
AcDbLine
 10
5629.416689238446
 20
-3230.705045243427
 30
0.0
 11
5629.416689238446
 21
-3220.110242292845
 31
0.0
  0
ARC
  5
BAD50
330
18
100
AcDbEntity
  8
\U+FF7A\U+FF88\U+FF78\U+FF80
100
AcDbCircle
 10
5641.416689238447
 20
-3225.407643768136
 30
0.0
 40
8.0
100
AcDbArc
 50
153.5214655209415
 51
206.4785344790584
  0
LINE
  5
BAD51
330
18
100
AcDbEntity
  8
\U+FF7A\U+FF88\U+FF78\U+FF80
100
AcDbLine
 10
5633.416689238447
 20
-3234.061443768136
 30
0.0
 11
5633.416689238447
 21
-3216.753843768136
 31
0.0
  0
LINE
  5
BAD52
330
18
100
AcDbEntity
  8
\U+FF7A\U+FF88\U+FF78\U+FF80
100
AcDbLine
 10
5646.416689238447
 20
-3231.407645029771
 30
0.0
 11
5641.416689238447
 21
-3231.407646291405
 31
0.0
  0
LINE
  5
BAD53
330
18
100
AcDbEntity
  8
\U+FF7A\U+FF88\U+FF78\U+FF80
100
AcDbLine
 10
5634.255877525379
 20
-3228.974543768136
 30
0.0
 11
5634.255877525379
 21
-3230.494543768136
 31
0.0
  0
LINE
  5
BAD54
330
18
100
AcDbEntity
  8
\U+FF7A\U+FF88\U+FF78\U+FF80
100
AcDbLine
 10
5641.416689238447
 20
-3230.494543768136
 30
0.0
 11
5634.255877525379
 21
-3230.494543768136
 31
0.0
  0
LINE
  5
BAD55
330
18
100
AcDbEntity
  8
\U+FF7A\U+FF88\U+FF78\U+FF80
100
AcDbLine
 10
5641.416689238447
 20
-3228.974543768136
 30
0.0
 11
5634.255877525379
 21
-3228.974543768136
 31
0.0
  0
LINE
  5
BAD56
330
18
100
AcDbEntity
  8
\U+FF7A\U+FF88\U+FF78\U+FF80
100
AcDbLine
 10
5641.416689238447
 20
-3234.061443768136
 30
0.0
 11
5633.416689238447
 21
-3234.061443768136
 31
0.0
  0
ARC
  5
BAD57
330
18
100
AcDbEntity
  8
\U+FF7A\U+FF88\U+FF78\U+FF80
100
AcDbCircle
 10
5641.416689238447
 20
-3234.061443768136
 30
0.0
 40
8.0
100
AcDbArc
 50
153.5214655209415
 51
180.0
  0
LINE
  5
BAD58
330
18
100
AcDbEntity
  8
\U+FF7A\U+FF88\U+FF78\U+FF80
100
AcDbLine
 10
5651.416689238446
 20
-3230.494543768136
 30
0.0
 11
5646.416689238447
 21
-3230.494543768136
 31
0.0
  0
LINE
  5
BAD59
330
18
100
AcDbEntity
  8
\U+FF7A\U+FF88\U+FF78\U+FF80
100
AcDbLine
 10
5651.416689238446
 20
-3228.974543768136
 30
0.0
 11
5646.416689238447
 21
-3228.974543768136
 31
0.0
  0
LINE
  5
BAD5A
330
18
100
AcDbEntity
  8
\U+FF7A\U+FF88\U+FF78\U+FF80
100
AcDbLine
 10
5651.416689238446
 20
-3234.061443768136
 30
0.0
 11
5646.416689238447
 21
-3234.061443768136
 31
0.0
  0
ARC
  5
BAD5B
330
18
100
AcDbEntity
  8
\U+FF7A\U+FF88\U+FF78\U+FF80
100
AcDbCircle
 10
5641.416689238447
 20
-3216.753843768136
 30
0.0
 40
8.0
100
AcDbArc
 50
180.0
 51
206.4785344790584
  0
LINE
  5
BAD5C
330
18
100
AcDbEntity
  8
\U+FF7A\U+FF88\U+FF78\U+FF80
100
AcDbLine
 10
5633.416689238447
 20
-3216.753843768136
 30
0.0
 11
5629.416689238446
 21
-3220.110242292845
 31
0.0
  0
LINE
  5
BAD5D
330
18
100
AcDbEntity
  8
\U+FF7A\U+FF88\U+FF78\U+FF80
100
AcDbLine
 10
5634.255877525379
 20
-3220.320743768136
 30
0.0
 11
5634.255877525379
 21
-3221.840743768136
 31
0.0
  0
LINE
  5
BAD5E
330
18
100
AcDbEntity
  8
\U+FF7A\U+FF88\U+FF78\U+FF80
100
AcDbLine
 10
5641.416689238447
 20
-3221.840743768136
 30
0.0
 11
5634.255877525379
 21
-3221.840743768136
 31
0.0
  0
LINE
  5
BAD5F
330
18
100
AcDbEntity
  8
\U+FF7A\U+FF88\U+FF78\U+FF80
100
AcDbLine
 10
5641.416689238447
 20
-3220.320743768136
 30
0.0
 11
5634.255877525379
 21
-3220.320743768136
 31
0.0
  0
LINE
  5
BAD60
330
18
100
AcDbEntity
  8
\U+FF7A\U+FF88\U+FF78\U+FF80
100
AcDbLine
 10
5641.416689238447
 20
-3216.753843768136
 30
0.0
 11
5633.416689238447
 21
-3216.753843768136
 31
0.0
  0
LINE
  5
BAD61
330
18
100
AcDbEntity
  8
\U+FF7A\U+FF88\U+FF78\U+FF80
100
AcDbLine
 10
5651.416689238446
 20
-3220.320743768136
 30
0.0
 11
5646.416689238447
 21
-3220.320743768136
 31
0.0
  0
LINE
  5
BAD62
330
18
100
AcDbEntity
  8
\U+FF7A\U+FF88\U+FF78\U+FF80
100
AcDbLine
 10
5651.416689238446
 20
-3221.840743768136
 30
0.0
 11
5646.416689238447
 21
-3221.840743768136
 31
0.0
  0
LINE
  5
BAD63
330
18
100
AcDbEntity
  8
\U+FF7A\U+FF88\U+FF78\U+FF80
100
AcDbLine
 10
5651.416689238446
 20
-3216.753843768136
 30
0.0
 11
5646.416689238447
 21
-3216.753843768136
 31
0.0
  0
LINE
  5
BAD64
330
18
100
AcDbEntity
  8
\U+FF7A\U+FF88\U+FF78\U+FF80
100
AcDbLine
 10
5646.416689238447
 20
-3219.407645029769
 30
0.0
 11
5641.416689238447
 21
-3219.407646291403
 31
0.0
  0
ARC
  5
BAD66
102
{ACAD_REACTORS
330
BADF6
102
}
330
18
100
AcDbEntity
  8
\U+FF7A\U+FF88\U+FF78\U+FF80
100
AcDbCircle
 10
5603.308266067233
 20
-3187.157643264422
 30
0.0
 40
41.5
100
AcDbArc
 50
180.0
 51
270.0
  0
ARC
  5
BAD67
102
{ACAD_REACTORS
330
BADF6
102
}
330
18
100
AcDbEntity
  8
\U+FF7A\U+FF88\U+FF78\U+FF80
100
AcDbCircle
 10
5603.308266067234
 20
-3187.157643264422
 30
0.0
 40
35.0
100
AcDbArc
 50
180.0
 51
270.0
  0
LINE
  5
BAD68
102
{ACAD_REACTORS
330
BADF6
102
}
330
18
100
AcDbEntity
  8
\U+FF7A\U+FF88\U+FF78\U+FF80
100
AcDbLine
 10
5568.308266067233
 20
-3187.157643264422
 30
0.0
 11
5568.308266067233
 21
-3164.549971202558
 31
0.0
  0
LINE
  5
BAD69
102
{ACAD_REACTORS
330
BADF6
102
}
330
18
100
AcDbEntity
  8
\U+FF7A\U+FF88\U+FF78\U+FF80
100
AcDbLine
 10
5561.808266067233
 20
-3187.157643264422
 30
0.0
 11
5561.808266067233
 21
-3164.549971202558
 31
0.0
  0
LINE
  5
BAD6A
102
{ACAD_REACTORS
330
BADF6
102
}
330
18
100
AcDbEntity
  8
\U+FF7A\U+FF88\U+FF78\U+FF80
 48
0.5
100
AcDbLine
 10
5568.833266067234
 20
-3130.849926101083
 30
0.0
 11
5565.383266067233
 21
-3130.849926101083
 31
0.0
  0
LINE
  5
BAD6B
102
{ACAD_REACTORS
330
BADF6
102
}
330
18
100
AcDbEntity
  8
\U+FF7A\U+FF88\U+FF78\U+FF80
 48
0.5
100
AcDbLine
 10
5564.733266067234
 20
-3130.849926101083
 30
0.0
 11
5561.283266067234
 21
-3130.849926101083
 31
0.0
  0
LINE
  5
BAD6C
102
{ACAD_REACTORS
330
BADF6
102
}
330
18
100
AcDbEntity
  8
\U+FF7A\U+FF88\U+FF78\U+FF80
 48
0.5
100
AcDbLine
 10
5570.308266067232
 20
-3153.449971202559
 30
0.0
 11
5570.308266067232
 21
-3140.349926101082
 31
0.0
  0
LINE
  5
BAD6D
102
{ACAD_REACTORS
330
BADF6
102
}
330
18
100
AcDbEntity
  8
\U+FF7A\U+FF88\U+FF78\U+FF80
 48
0.5
100
AcDbLine
 10
5560.308266067233
 20
-3153.449971202559
 30
0.0
 11
5560.308266067233
 21
-3140.349926101082
 31
0.0
  0
LINE
  5
BAD6E
102
{ACAD_REACTORS
330
BADF6
102
}
330
18
100
AcDbEntity
  8
\U+FF7A\U+FF88\U+FF78\U+FF80
 48
0.5
100
AcDbLine
 10
5558.843508086865
 20
-3142.363868414786
 30
0.0
 11
5557.879694638661
 21
-3147.829926101083
 31
0.0
  0
LINE
  5
BAD6F
102
{ACAD_REACTORS
330
BADF6
102
}
330
18
100
AcDbEntity
  8
\U+FF7A\U+FF88\U+FF78\U+FF80
 48
0.5
100
AcDbLine
 10
5556.49055178152
 20
-3137.46478324394
 30
0.0
 11
5556.49055178152
 21
-3147.829926101082
 31
0.0
  0
LINE
  5
BAD70
102
{ACAD_REACTORS
330
BADF6
102
}
330
18
100
AcDbEntity
  8
\U+FF7A\U+FF88\U+FF78\U+FF80
 48
0.5
100
AcDbLine
 10
5556.908266067233
 20
-3135.589926101083
 30
0.0
 11
5556.908266067233
 21
-3146.858497529654
 31
0.0
  0
LINE
  5
BAD71
102
{ACAD_REACTORS
330
BADF6
102
}
330
18
100
AcDbEntity
  8
\U+FF7A\U+FF88\U+FF78\U+FF80
 48
0.5
100
AcDbLine
 10
5571.208260014191
 20
-3153.449971202557
 30
0.0
 11
5570.308266067232
 21
-3153.449971202557
 31
0.0
  0
LINE
  5
BAD72
102
{ACAD_REACTORS
330
BADF6
102
}
330
18
100
AcDbEntity
  8
\U+FF7A\U+FF88\U+FF78\U+FF80
 48
0.5
100
AcDbLine
 10
5571.208260014191
 20
-3154.549971202558
 30
0.0
 11
5571.208260014191
 21
-3153.449971202558
 31
0.0
  0
LINE
  5
BAD73
102
{ACAD_REACTORS
330
BADF6
102
}
330
18
100
AcDbEntity
  8
\U+FF7A\U+FF88\U+FF78\U+FF80
 48
0.5
100
AcDbLine
 10
5560.308266067233
 20
-3153.449971202559
 30
0.0
 11
5559.40826001419
 21
-3153.44997120256
 31
0.0
  0
LINE
  5
BAD74
102
{ACAD_REACTORS
330
BADF6
102
}
330
18
100
AcDbEntity
  8
\U+FF7A\U+FF88\U+FF78\U+FF80
 48
0.5
100
AcDbLine
 10
5559.40826001419
 20
-3154.549971202558
 30
0.0
 11
5559.40826001419
 21
-3153.449971202559
 31
0.0
  0
LINE
  5
BAD75
102
{ACAD_REACTORS
330
BADF6
102
}
330
18
100
AcDbEntity
  8
\U+FF7A\U+FF88\U+FF78\U+FF80
 48
0.5
100
AcDbLine
 10
5556.908266067233
 20
-3146.858497529654
 30
0.0
 11
5556.49055178152
 21
-3146.858497529654
 31
0.0
  0
LINE
  5
BAD76
102
{ACAD_REACTORS
330
BADF6
102
}
330
18
100
AcDbEntity
  8
\U+FF7A\U+FF88\U+FF78\U+FF80
 48
0.5
100
AcDbLine
 10
5557.879694638661
 20
-3147.829926101083
 30
0.0
 11
5556.49055178152
 21
-3147.829926101082
 31
0.0
  0
LINE
  5
BAD77
102
{ACAD_REACTORS
330
BADF6
102
}
330
18
100
AcDbEntity
  8
\U+FF7A\U+FF88\U+FF78\U+FF80
 48
0.5
100
AcDbLine
 10
5571.208260014191
 20
-3154.549971202558
 30
0.0
 11
5559.40826001419
 21
-3154.549971202558
 31
0.0
  0
LINE
  5
BAD78
102
{ACAD_REACTORS
330
BADF6
102
}
330
18
100
AcDbEntity
  8
\U+FF7A\U+FF88\U+FF78\U+FF80
 48
0.5
100
AcDbLine
 10
5559.142551781519
 20
-3134.618497529654
 30
0.0
 11
5557.879694638661
 21
-3134.618497529654
 31
0.0
  0
LINE
  5
BAD79
102
{ACAD_REACTORS
330
BADF6
102
}
330
18
100
AcDbEntity
  8
\U+FF7A\U+FF88\U+FF78\U+FF80
 48
0.5
100
AcDbLine
 10
5560.113980352948
 20
-3137.047068958227
 30
0.0
 11
5559.045408924377
 21
-3136.949926101083
 31
0.0
  0
LINE
  5
BAD7A
102
{ACAD_REACTORS
330
BADF6
102
}
330
18
100
AcDbEntity
  8
\U+FF7A\U+FF88\U+FF78\U+FF80
 48
0.5
100
AcDbLine
 10
5559.142551781519
 20
-3134.618497529654
 30
0.0
 11
5560.113980352948
 21
-3135.589926101083
 31
0.0
  0
LINE
  5
BAD7B
102
{ACAD_REACTORS
330
BADF6
102
}
330
18
100
AcDbEntity
  8
\U+FF7A\U+FF88\U+FF78\U+FF80
 48
0.5
100
AcDbLine
 10
5560.113980352948
 20
-3135.589926101083
 30
0.0
 11
5560.113980352948
 21
-3137.047068958227
 31
0.0
  0
ARC
  5
BAD7C
102
{ACAD_REACTORS
330
BADF6
102
}
330
18
100
AcDbEntity
  8
\U+FF7A\U+FF88\U+FF78\U+FF80
 48
0.5
100
AcDbCircle
 10
5559.82255178152
 20
-3142.448211815368
 30
0.0
 40
0.4857142857142857
100
AcDbArc
 50
0.0
 51
90.0
  0
LINE
  5
BAD7D
102
{ACAD_REACTORS
330
BADF6
102
}
330
18
100
AcDbEntity
  8
\U+FF7A\U+FF88\U+FF78\U+FF80
 48
0.5
100
AcDbLine
 10
5559.82255178152
 20
-3141.962497529654
 30
0.0
 11
5559.321843281185
 21
-3141.962497529654
 31
0.0
  0
ARC
  5
BAD7E
102
{ACAD_REACTORS
330
BADF6
102
}
330
18
100
AcDbEntity
  8
\U+FF7A\U+FF88\U+FF78\U+FF80
 48
0.5
100
AcDbCircle
 10
5559.321843281185
 20
-3142.448211815368
 30
0.0
 40
0.4857142857142857
100
AcDbArc
 50
90.0
 51
169.9999999999961
  0
LINE
  5
BAD7F
102
{ACAD_REACTORS
330
BADF6
102
}
330
18
100
AcDbEntity
  8
\U+FF7A\U+FF88\U+FF78\U+FF80
 48
0.5
100
AcDbLine
 10
5559.045408924377
 20
-3136.949926101083
 30
0.0
 11
5559.045408924377
 21
-3140.349926101082
 31
0.0
  0
LINE
  5
BAD80
102
{ACAD_REACTORS
330
BADF6
102
}
330
18
100
AcDbEntity
  8
\U+FF7A\U+FF88\U+FF78\U+FF80
 48
0.5
100
AcDbLine
 10
5557.879694638661
 20
-3137.047068958227
 30
0.0
 11
5557.879694638661
 21
-3140.349926101082
 31
0.0
  0
LINE
  5
BAD81
102
{ACAD_REACTORS
330
BADF6
102
}
330
18
100
AcDbEntity
  8
\U+FF7A\U+FF88\U+FF78\U+FF80
 48
0.5
100
AcDbLine
 10
5556.908266067233
 20
-3137.047068958227
 30
0.0
 11
5556.49055178152
 21
-3137.46478324394
 31
0.0
  0
LINE
  5
BAD82
102
{ACAD_REACTORS
330
BADF6
102
}
330
18
100
AcDbEntity
  8
\U+FF7A\U+FF88\U+FF78\U+FF80
 48
0.5
100
AcDbLine
 10
5557.879694638661
 20
-3137.047068958227
 30
0.0
 11
5556.908266067233
 21
-3137.047068958227
 31
0.0
  0
LINE
  5
BAD83
102
{ACAD_REACTORS
330
BADF6
102
}
330
18
100
AcDbEntity
  8
\U+FF7A\U+FF88\U+FF78\U+FF80
 48
0.5
100
AcDbLine
 10
5556.908266067233
 20
-3135.589926101083
 30
0.0
 11
5557.879694638661
 21
-3134.618497529654
 31
0.0
  0
LINE
  5
BAD84
102
{ACAD_REACTORS
330
BADF6
102
}
330
18
100
AcDbEntity
  8
\U+FF7A\U+FF88\U+FF78\U+FF80
 48
0.5
100
AcDbLine
 10
5560.308266067233
 20
-3140.349926101082
 30
0.0
 11
5556.49055178152
 21
-3140.349926101082
 31
0.0
  0
LINE
  5
BAD85
102
{ACAD_REACTORS
330
BADF6
102
}
330
18
100
AcDbEntity
  8
\U+FF7A\U+FF88\U+FF78\U+FF80
 48
0.5
100
AcDbLine
 10
5570.308266067232
 20
-3140.349926101082
 30
0.0
 11
5560.308266067233
 21
-3140.349926101082
 31
0.0
  0
LINE
  5
BAD86
102
{ACAD_REACTORS
330
BADF6
102
}
330
18
100
AcDbEntity
  8
\U+FF7A\U+FF88\U+FF78\U+FF80
 48
0.5
100
AcDbLine
 10
5567.058266067232
 20
-3164.549971202558
 30
0.0
 11
5563.058266067232
 21
-3164.549971202558
 31
0.0
  0
LINE
  5
BAD87
102
{ACAD_REACTORS
330
BADF6
102
}
330
18
100
AcDbEntity
  8
\U+FF7A\U+FF88\U+FF78\U+FF80
100
AcDbLine
 10
5561.808266067233
 20
-3164.549971202558
 30
0.0
 11
5568.308266067233
 21
-3164.549971202558
 31
0.0
  0
LINE
  5
BAD88
102
{ACAD_REACTORS
330
BADF6
102
}
330
18
100
AcDbEntity
  8
\U+FF7A\U+FF88\U+FF78\U+FF80
 48
0.5
100
AcDbLine
 10
5564.008266067234
 20
-3154.549971202558
 30
0.0
 11
5565.058266067232
 21
-3164.549971202558
 31
0.0
  0
LINE
  5
BAD89
102
{ACAD_REACTORS
330
BADF6
102
}
330
18
100
AcDbEntity
  8
\U+FF7A\U+FF88\U+FF78\U+FF80
 48
0.5
100
AcDbLine
 10
5562.008266067234
 20
-3154.549971202558
 30
0.0
 11
5563.058266067232
 21
-3164.549971202558
 31
0.0
  0
LINE
  5
BAD8A
102
{ACAD_REACTORS
330
BADF6
102
}
330
18
100
AcDbEntity
  8
\U+FF7A\U+FF88\U+FF78\U+FF80
 48
0.5
100
AcDbLine
 10
5566.108266067232
 20
-3154.549971202558
 30
0.0
 11
5565.058266067232
 21
-3164.549971202558
 31
0.0
  0
LINE
  5
BAD8B
102
{ACAD_REACTORS
330
BADF6
102
}
330
18
100
AcDbEntity
  8
\U+FF7A\U+FF88\U+FF78\U+FF80
 48
0.5
100
AcDbLine
 10
5568.108266067233
 20
-3154.549971202558
 30
0.0
 11
5567.058266067232
 21
-3164.549971202558
 31
0.0
  0
LINE
  5
BAD8C
102
{ACAD_REACTORS
330
BADF6
102
}
330
18
100
AcDbEntity
  8
\U+FF7A\U+FF88\U+FF78\U+FF80
 48
0.5
100
AcDbLine
 10
5564.733266067234
 20
-3130.849926101083
 30
0.0
 11
5564.733266067234
 21
-3140.349926101082
 31
0.0
  0
LINE
  5
BAD8D
102
{ACAD_REACTORS
330
BADF6
102
}
330
18
100
AcDbEntity
  8
\U+FF7A\U+FF88\U+FF78\U+FF80
 48
0.5
100
AcDbLine
 10
5565.383266067233
 20
-3130.849926101083
 30
0.0
 11
5565.383266067233
 21
-3140.349926101082
 31
0.0
  0
LINE
  5
BAD8E
102
{ACAD_REACTORS
330
BADF6
102
}
330
18
100
AcDbEntity
  8
\U+FF7A\U+FF88\U+FF78\U+FF80
 48
0.5
100
AcDbLine
 10
5568.833266067234
 20
-3130.849926101083
 30
0.0
 11
5568.833266067233
 21
-3140.349926101082
 31
0.0
  0
LINE
  5
BAD8F
102
{ACAD_REACTORS
330
BADF6
102
}
330
18
100
AcDbEntity
  8
\U+FF7A\U+FF88\U+FF78\U+FF80
 48
0.5
100
AcDbLine
 10
5561.283266067234
 20
-3130.849926101083
 30
0.0
 11
5561.283266067234
 21
-3140.349926101082
 31
0.0
  0
SPLINE
  5
BAD90
102
{ACAD_REACTORS
330
BADF6
102
}
330
18
100
AcDbEntity
  8
細線
100
AcDbSpline
210
0.0
220
0.0
230
1.0
 70
  1064
 71
     3
 72
    11
 73
     7
 74
     5
 42
0.000000001
 43
0.0000000001
 44
0.0000000001
 40
0.0
 40
0.0
 40
0.0
 40
0.0
 40
1.962294862388189
 40
3.412610777824321
 40
4.859995365034054
 40
6.826861343341657
 40
6.826861343341657
 40
6.826861343341657
 40
6.826861343341657
 10
5614.048048346336
 20
-3228.657644271855
 30
0.0
 10
5614.335459109695
 20
-3228.021014400954
 30
0.0
 10
5614.835292792951
 20
-3226.913856653886
 30
0.0
 10
5614.052221872547
 20
-3225.407866421124
 30
0.0
 10
5613.257708484823
 20
-3223.905058258315
 30
0.0
 10
5613.759169156997
 20
-3222.796346127129
 30
0.0
 10
5614.048048346336
 20
-3222.157644271855
 30
0.0
 11
5614.048048346336
 21
-3228.657644271855
 31
0.0
 11
5614.563210270137
 21
-3226.76417937405
 31
0.0
 11
5614.05015201703
 21
-3225.407644271855
 31
0.0
 11
5613.532886422532
 21
-3224.055846044294
 31
0.0
 11
5614.048048346336
 21
-3222.157644271855
 31
0.0
  0
SPLINE
  5
BAD91
102
{ACAD_REACTORS
330
BADF6
102
}
330
18
100
AcDbEntity
  8
細線
100
AcDbSpline
210
0.0
220
0.0
230
1.0
 70
  1064
 71
     3
 72
     9
 73
     5
 74
     3
 42
0.000000001
 43
0.0000000001
 44
0.0000000001
 40
0.0
 40
0.0
 40
0.0
 40
0.0
 40
1.442885782325975
 40
3.409751760632864
 40
3.409751760632864
 40
3.409751760632864
 40
3.409751760632864
 10
5614.048048346336
 20
-3225.403632219138
 30
0.0
 10
5614.282755808908
 20
-3224.957524696358
 30
0.0
 10
5614.837404134884
 20
-3223.903306871316
 30
0.0
 10
5614.336809258986
 20
-3222.796239861721
 30
0.0
 10
5614.048048346336
 20
-3222.157644271855
 30
0.0
 11
5614.048048346336
 21
-3225.403632219138
 31
0.0
 11
5614.563210270137
 21
-3224.055846044294
 31
0.0
 11
5614.048048346336
 21
-3222.157644271855
 31
0.0
  0
SPLINE
  5
BAD92
102
{ACAD_REACTORS
330
BADF6
102
}
330
18
100
AcDbEntity
  8
細線
100
AcDbSpline
210
0.0
220
0.0
230
1.0
 70
  1064
 71
     3
 72
    11
 73
     7
 74
     5
 42
0.000000001
 43
0.0000000001
 44
0.0000000001
 40
0.0
 40
0.0
 40
0.0
 40
0.0
 40
1.962294862388428
 40
3.412610777824882
 40
4.859995365035464
 40
6.82686134334219
 40
6.82686134334219
 40
6.82686134334219
 40
6.82686134334219
 10
5618.543428502332
 20
-3222.157643264422
 30
0.0
 10
5618.256017738971
 20
-3222.794273135323
 30
0.0
 10
5617.756184055714
 20
-3223.90143088239
 30
0.0
 10
5618.53925497612
 20
-3225.407421115154
 30
0.0
 10
5619.333768363844
 20
-3226.910229277963
 30
0.0
 10
5618.832307691669
 20
-3228.018941409148
 30
0.0
 10
5618.543428502332
 20
-3228.657643264422
 30
0.0
 11
5618.543428502332
 21
-3222.157643264422
 31
0.0
 11
5618.02826657853
 21
-3224.051108162227
 31
0.0
 11
5618.541324831637
 21
-3225.407643264422
 31
0.0
 11
5619.058590426136
 21
-3226.759441491985
 31
0.0
 11
5618.543428502332
 21
-3228.657643264422
 31
0.0
  0
SPLINE
  5
BAD93
102
{ACAD_REACTORS
330
BADF6
102
}
330
18
100
AcDbEntity
  8
細線
100
AcDbSpline
210
0.0
220
0.0
230
1.0
 70
  1064
 71
     3
 72
     9
 73
     5
 74
     3
 42
0.000000001
 43
0.0000000001
 44
0.0000000001
 40
0.0
 40
0.0
 40
0.0
 40
0.0
 40
1.4428857823263
 40
3.409751760632549
 40
3.409751760632549
 40
3.409751760632549
 40
3.409751760632549
 10
5618.543428502332
 20
-3225.41165531714
 30
0.0
 10
5618.308721039759
 20
-3225.85776283992
 30
0.0
 10
5617.754072713783
 20
-3226.911980664964
 30
0.0
 10
5618.25466758968
 20
-3228.019047674557
 30
0.0
 10
5618.543428502332
 20
-3228.657643264422
 30
0.0
 11
5618.543428502332
 21
-3225.41165531714
 31
0.0
 11
5618.02826657853
 21
-3226.759441491985
 31
0.0
 11
5618.543428502332
 21
-3228.657643264422
 31
0.0
  0
LINE
  5
BAD94
102
{ACAD_REACTORS
330
BADF6
102
}
330
18
100
AcDbEntity
  8
\U+FF7A\U+FF88\U+FF78\U+FF80
100
AcDbLine
 10
5603.308266067233
 20
-3228.657643264422
 30
0.0
 11
5614.048048346334
 21
-3228.657643264423
 31
0.0
  0
LINE
  5
BAD95
102
{ACAD_REACTORS
330
BADF6
102
}
330
18
100
AcDbEntity
  8
\U+FF7A\U+FF88\U+FF78\U+FF80
100
AcDbLine
 10
5603.308266067234
 20
-3222.157643264422
 30
0.0
 11
5614.048048346336
 21
-3222.157643264423
 31
0.0
  0
LINE
  5
BAD96
102
{ACAD_REACTORS
330
BADF6
102
}
330
18
100
AcDbEntity
  8
\U+FF7A\U+FF88\U+FF78\U+FF80
100
AcDbLine
 10
5618.543428502333
 20
-3228.657643264417
 30
0.0
 11
5629.416689238446
 21
-3228.657643264418
 31
0.0
  0
LINE
  5
BAD97
102
{ACAD_REACTORS
330
BADF6
102
}
330
18
100
AcDbEntity
  8
\U+FF7A\U+FF88\U+FF78\U+FF80
100
AcDbLine
 10
5618.543428502333
 20
-3222.157643264422
 30
0.0
 11
5629.416689238446
 21
-3222.157643264418
 31
0.0
  0
LINE
  5
BAE38
330
18
100
AcDbEntity
  8
\U+FF7A\U+FF88\U+FF78\U+FF80
100
AcDbLine
 10
5651.416689238446
 20
-3253.750446684212
 30
0.0
 11
5651.416689238446
 21
-3271.058046684212
 31
0.0
  0
LINE
  5
BBA6C
330
18
100
AcDbEntity
  8
実線
 48
0.2
100
AcDbLine
 10
5697.91668889032
 20
-3273.107642927711
 30
0.0
 11
5729.916690410237
 21
-3273.107642927711
 31
0.0
  0
LINE
  5
BBA6D
330
18
100
AcDbEntity
  8
実線
 48
0.2
100
AcDbLine
 10
5697.916688890319
 20
-3272.607643768139
 30
0.0
 11
5729.916690410237
 21
-3272.607643768139
 31
0.0
  0
LINE
  5
BBA6E
330
18
100
AcDbEntity
  8
実線
 48
0.2
100
AcDbLine
 10
5729.916690410237
 20
-3274.407643768138
 30
0.0
 11
5729.916690410237
 21
-3272.607643768139
 31
0.0
  0
LINE
  5
BBA6F
330
18
100
AcDbEntity
  8
実線
 48
0.2
100
AcDbLine
 10
5697.916688890319
 20
-3274.40764376814
 30
0.0
 11
5697.916688890319
 21
-3272.607643768139
 31
0.0
  0
LINE
  5
BBA72
330
18
100
AcDbEntity
  8
実線
 48
0.2
100
AcDbLine
 10
5729.916690410237
 20
-3274.407643768138
 30
0.0
 11
5769.91669096698
 21
-3274.407643768138
 31
0.0
  0
LINE
  5
BCFD9
102
{ACAD_REACTORS
330
BD0BC
102
}
330
18
100
AcDbEntity
  8
中心線
 48
0.5
100
AcDbLine
 10
5625.47489181889
 20
-3262.404246684212
 30
0.0
 11
5653.907324653878
 21
-3262.404246684212
 31
0.0
  0
LINE
  5
BCFDA
102
{ACAD_REACTORS
330
BD0BC
102
}
330
18
100
AcDbEntity
  8
\U+FF7A\U+FF88\U+FF78\U+FF80
100
AcDbLine
 10
5633.416689238447
 20
-3271.058046684212
 30
0.0
 11
5633.416689238447
 21
-3253.750446684212
 31
0.0
  0
ARC
  5
BCFDB
102
{ACAD_REACTORS
330
BD0BC
102
}
330
18
100
AcDbEntity
  8
\U+FF7A\U+FF88\U+FF78\U+FF80
100
AcDbCircle
 10
5641.416689238447
 20
-3253.750446684212
 30
0.0
 40
8.0
100
AcDbArc
 50
180.0
 51
206.4785344789408
  0
LINE
  5
BCFDC
102
{ACAD_REACTORS
330
BD0BC
102
}
330
18
100
AcDbEntity
  8
\U+FF7A\U+FF88\U+FF78\U+FF80
100
AcDbLine
 10
5633.416689238447
 20
-3253.750446684212
 30
0.0
 11
5629.416689238446
 21
-3257.106845208922
 31
0.0
  0
LINE
  5
BCFDD
102
{ACAD_REACTORS
330
BD0BC
102
}
330
18
100
AcDbEntity
  8
\U+FF7A\U+FF88\U+FF78\U+FF80
100
AcDbLine
 10
5641.416689238447
 20
-3271.058046684212
 30
0.0
 11
5641.416689238447
 21
-3253.750446684212
 31
0.0
  0
LINE
  5
BCFDE
102
{ACAD_REACTORS
330
BD0BC
102
}
330
18
100
AcDbEntity
  8
\U+FF7A\U+FF88\U+FF78\U+FF80
100
AcDbLine
 10
5646.416689238447
 20
-3271.058046684212
 30
0.0
 11
5646.416689238447
 21
-3253.750446684212
 31
0.0
  0
LINE
  5
BCFDF
102
{ACAD_REACTORS
330
BD0BC
102
}
330
18
100
AcDbEntity
  8
\U+FF7A\U+FF88\U+FF78\U+FF80
100
AcDbLine
 10
5633.416689238447
 20
-3271.058046684212
 30
0.0
 11
5629.416689238446
 21
-3267.701648159504
 31
0.0
  0
LINE
  5
BCFE0
102
{ACAD_REACTORS
330
BD0BC
102
}
330
18
100
AcDbEntity
  8
\U+FF7A\U+FF88\U+FF78\U+FF80
100
AcDbLine
 10
5629.416689238446
 20
-3267.701648159504
 30
0.0
 11
5629.416689238446
 21
-3257.106845208922
 31
0.0
  0
LINE
  5
BCFE1
102
{ACAD_REACTORS
330
BD0BC
102
}
330
18
100
AcDbEntity
  8
\U+FF7A\U+FF88\U+FF78\U+FF80
100
AcDbLine
 10
5641.416689238447
 20
-3271.058046684212
 30
0.0
 11
5633.416689238447
 21
-3271.058046684212
 31
0.0
  0
LINE
  5
BCFE2
102
{ACAD_REACTORS
330
BD0BC
102
}
330
18
100
AcDbEntity
  8
\U+FF7A\U+FF88\U+FF78\U+FF80
100
AcDbLine
 10
5641.416689238447
 20
-3265.971146684212
 30
0.0
 11
5634.255877525379
 21
-3265.971146684212
 31
0.0
  0
LINE
  5
BCFE3
102
{ACAD_REACTORS
330
BD0BC
102
}
330
18
100
AcDbEntity
  8
\U+FF7A\U+FF88\U+FF78\U+FF80
100
AcDbLine
 10
5641.416689238447
 20
-3267.491146684212
 30
0.0
 11
5634.255877525379
 21
-3267.491146684212
 31
0.0
  0
LINE
  5
BCFE4
102
{ACAD_REACTORS
330
BD0BC
102
}
330
18
100
AcDbEntity
  8
\U+FF7A\U+FF88\U+FF78\U+FF80
100
AcDbLine
 10
5641.416689238447
 20
-3257.317346684212
 30
0.0
 11
5634.255877525379
 21
-3257.317346684212
 31
0.0
  0
LINE
  5
BCFE5
102
{ACAD_REACTORS
330
BD0BC
102
}
330
18
100
AcDbEntity
  8
\U+FF7A\U+FF88\U+FF78\U+FF80
100
AcDbLine
 10
5641.416689238447
 20
-3258.837346684212
 30
0.0
 11
5634.255877525379
 21
-3258.837346684212
 31
0.0
  0
ARC
  5
BCFE6
102
{ACAD_REACTORS
330
BD0BC
102
}
330
18
100
AcDbEntity
  8
\U+FF7A\U+FF88\U+FF78\U+FF80
100
AcDbCircle
 10
5641.416689238447
 20
-3262.404246684212
 30
0.0
 40
8.0
100
AcDbArc
 50
153.5214655210592
 51
206.4785344789408
  0
LINE
  5
BCFE7
102
{ACAD_REACTORS
330
BD0BC
102
}
330
18
100
AcDbEntity
  8
\U+FF7A\U+FF88\U+FF78\U+FF80
100
AcDbLine
 10
5634.255877525379
 20
-3265.971146684212
 30
0.0
 11
5634.255877525379
 21
-3267.491146684212
 31
0.0
  0
LINE
  5
BCFE8
102
{ACAD_REACTORS
330
BD0BC
102
}
330
18
100
AcDbEntity
  8
\U+FF7A\U+FF88\U+FF78\U+FF80
100
AcDbLine
 10
5634.255877525379
 20
-3257.317346684212
 30
0.0
 11
5634.255877525379
 21
-3258.837346684212
 31
0.0
  0
ARC
  5
BCFE9
102
{ACAD_REACTORS
330
BD0BC
102
}
330
18
100
AcDbEntity
  8
\U+FF7A\U+FF88\U+FF78\U+FF80
100
AcDbCircle
 10
5641.416689238447
 20
-3271.058046684212
 30
0.0
 40
8.0
100
AcDbArc
 50
153.5214655210592
 51
180.0
  0
LINE
  5
BCFEA
102
{ACAD_REACTORS
330
BD0BC
102
}
330
18
100
AcDbEntity
  8
\U+FF7A\U+FF88\U+FF78\U+FF80
100
AcDbLine
 10
5646.416689238447
 20
-3268.404247945847
 30
0.0
 11
5641.416689238447
 21
-3268.404249207483
 31
0.0
  0
LINE
  5
BCFEB
102
{ACAD_REACTORS
330
BD0BC
102
}
330
18
100
AcDbEntity
  8
\U+FF7A\U+FF88\U+FF78\U+FF80
100
AcDbLine
 10
5646.416689238447
 20
-3256.404247945845
 30
0.0
 11
5641.416689238447
 21
-3256.40424920748
 31
0.0
  0
LINE
  5
BCFEC
102
{ACAD_REACTORS
330
BD0BC
102
}
330
18
100
AcDbEntity
  8
\U+FF7A\U+FF88\U+FF78\U+FF80
100
AcDbLine
 10
5641.416689238447
 20
-3253.750446684212
 30
0.0
 11
5633.416689238447
 21
-3253.750446684212
 31
0.0
  0
LINE
  5
BCFED
102
{ACAD_REACTORS
330
BD0BC
102
}
330
18
100
AcDbEntity
  8
\U+FF7A\U+FF88\U+FF78\U+FF80
100
AcDbLine
 10
5651.416689238446
 20
-3271.058046684212
 30
0.0
 11
5646.416689238447
 21
-3271.058046684212
 31
0.0
  0
LINE
  5
BCFEE
102
{ACAD_REACTORS
330
BD0BC
102
}
330
18
100
AcDbEntity
  8
\U+FF7A\U+FF88\U+FF78\U+FF80
100
AcDbLine
 10
5651.416689238446
 20
-3265.971146684212
 30
0.0
 11
5646.416689238447
 21
-3265.971146684212
 31
0.0
  0
LINE
  5
BCFEF
102
{ACAD_REACTORS
330
BD0BC
102
}
330
18
100
AcDbEntity
  8
\U+FF7A\U+FF88\U+FF78\U+FF80
100
AcDbLine
 10
5651.416689238446
 20
-3267.491146684212
 30
0.0
 11
5646.416689238447
 21
-3267.491146684212
 31
0.0
  0
LINE
  5
BCFF0
102
{ACAD_REACTORS
330
BD0BC
102
}
330
18
100
AcDbEntity
  8
\U+FF7A\U+FF88\U+FF78\U+FF80
100
AcDbLine
 10
5651.416689238446
 20
-3258.837346684212
 30
0.0
 11
5646.416689238447
 21
-3258.837346684212
 31
0.0
  0
LINE
  5
BCFF1
102
{ACAD_REACTORS
330
BD0BC
102
}
330
18
100
AcDbEntity
  8
\U+FF7A\U+FF88\U+FF78\U+FF80
100
AcDbLine
 10
5651.416689238446
 20
-3257.317346684212
 30
0.0
 11
5646.416689238447
 21
-3257.317346684212
 31
0.0
  0
LINE
  5
BCFF2
102
{ACAD_REACTORS
330
BD0BC
102
}
330
18
100
AcDbEntity
  8
\U+FF7A\U+FF88\U+FF78\U+FF80
100
AcDbLine
 10
5651.416689238446
 20
-3253.750446684212
 30
0.0
 11
5646.416689238447
 21
-3253.750446684212
 31
0.0
  0
ARC
  5
BCFF3
102
{ACAD_REACTORS
330
BD0BC
102
}
330
18
100
AcDbEntity
  8
\U+FF7A\U+FF88\U+FF78\U+FF80
100
AcDbCircle
 10
5603.05825897259
 20
-3300.147278306928
 30
0.0
 40
35.0
100
AcDbArc
 50
90.0
 51
180.0
  0
ARC
  5
BCFF4
102
{ACAD_REACTORS
330
BD0BC
102
}
330
18
100
AcDbEntity
  8
\U+FF7A\U+FF88\U+FF78\U+FF80
100
AcDbCircle
 10
5603.05825897259
 20
-3300.147278306928
 30
0.0
 40
40.49999999999999
100
AcDbArc
 50
90.0
 51
180.0
  0
LINE
  5
BCFF5
102
{ACAD_REACTORS
330
BD0BC
102
}
330
18
100
AcDbEntity
  8
\U+FF7A\U+FF88\U+FF78\U+FF80
 48
0.5
100
AcDbLine
 10
5572.108265025633
 20
-3339.997276220864
 30
0.0
 11
5572.108265025633
 21
-3353.097321322337
 31
0.0
  0
LINE
  5
BCFF6
102
{ACAD_REACTORS
330
BD0BC
102
}
330
18
100
AcDbEntity
  8
\U+FF7A\U+FF88\U+FF78\U+FF80
 48
0.5
100
AcDbLine
 10
5558.508265025632
 20
-3339.997276220862
 30
0.0
 11
5558.508265025632
 21
-3353.097321322337
 31
0.0
  0
LINE
  5
BCFF7
102
{ACAD_REACTORS
330
BD0BC
102
}
330
18
100
AcDbEntity
  8
\U+FF7A\U+FF88\U+FF78\U+FF80
 48
0.5
100
AcDbLine
 10
5554.690550739919
 20
-3355.98246417948
 30
0.0
 11
5554.690550739919
 21
-3345.617321322337
 31
0.0
  0
LINE
  5
BCFF8
102
{ACAD_REACTORS
330
BD0BC
102
}
330
18
100
AcDbEntity
  8
\U+FF7A\U+FF88\U+FF78\U+FF80
 48
0.5
100
AcDbLine
 10
5555.108265025632
 20
-3357.857321322337
 30
0.0
 11
5555.108265025632
 21
-3346.588749893766
 31
0.0
  0
LINE
  5
BCFF9
102
{ACAD_REACTORS
330
BD0BC
102
}
330
18
100
AcDbEntity
  8
\U+FF7A\U+FF88\U+FF78\U+FF80
 48
0.5
100
AcDbLine
 10
5571.133265025631
 20
-3362.597321322337
 30
0.0
 11
5567.683265025631
 21
-3362.597321322339
 31
0.0
  0
LINE
  5
BCFFA
102
{ACAD_REACTORS
330
BD0BC
102
}
330
18
100
AcDbEntity
  8
\U+FF7A\U+FF88\U+FF78\U+FF80
 48
0.5
100
AcDbLine
 10
5567.033265025633
 20
-3362.597321322339
 30
0.0
 11
5563.583265025632
 21
-3362.597321322339
 31
0.0
  0
LINE
  5
BCFFB
102
{ACAD_REACTORS
330
BD0BC
102
}
330
18
100
AcDbEntity
  8
\U+FF7A\U+FF88\U+FF78\U+FF80
 48
0.5
100
AcDbLine
 10
5562.933265025633
 20
-3362.597321322339
 30
0.0
 11
5559.483265025632
 21
-3362.597321322339
 31
0.0
  0
LINE
  5
BCFFC
102
{ACAD_REACTORS
330
BD0BC
102
}
330
18
100
AcDbEntity
  8
\U+FF7A\U+FF88\U+FF78\U+FF80
 48
0.5
100
AcDbLine
 10
5559.483265025632
 20
-3362.597321322339
 30
0.0
 11
5559.483265025632
 21
-3353.097321322337
 31
0.0
  0
LINE
  5
BCFFD
102
{ACAD_REACTORS
330
BD0BC
102
}
330
18
100
AcDbEntity
  8
\U+FF7A\U+FF88\U+FF78\U+FF80
 48
0.5
100
AcDbLine
 10
5563.583265025632
 20
-3362.597321322339
 30
0.0
 11
5563.583265025632
 21
-3353.097321322337
 31
0.0
  0
LINE
  5
BCFFE
102
{ACAD_REACTORS
330
BD0BC
102
}
330
18
100
AcDbEntity
  8
\U+FF7A\U+FF88\U+FF78\U+FF80
 48
0.5
100
AcDbLine
 10
5562.933265025633
 20
-3362.597321322339
 30
0.0
 11
5562.933265025633
 21
-3353.097321322337
 31
0.0
  0
LINE
  5
BCFFF
102
{ACAD_REACTORS
330
BD0BC
102
}
330
18
100
AcDbEntity
  8
\U+FF7A\U+FF88\U+FF78\U+FF80
 48
0.5
100
AcDbLine
 10
5567.683265025633
 20
-3362.597321322339
 30
0.0
 11
5567.683265025633
 21
-3353.097321322337
 31
0.0
  0
LINE
  5
BD000
102
{ACAD_REACTORS
330
BD0BC
102
}
330
18
100
AcDbEntity
  8
\U+FF7A\U+FF88\U+FF78\U+FF80
 48
0.5
100
AcDbLine
 10
5567.033265025633
 20
-3362.597321322339
 30
0.0
 11
5567.033265025632
 21
-3353.097321322337
 31
0.0
  0
LINE
  5
BD001
102
{ACAD_REACTORS
330
BD0BC
102
}
330
18
100
AcDbEntity
  8
\U+FF7A\U+FF88\U+FF78\U+FF80
 48
0.5
100
AcDbLine
 10
5571.133265025631
 20
-3362.597321322339
 30
0.0
 11
5571.133265025631
 21
-3353.097321322337
 31
0.0
  0
LINE
  5
BD002
102
{ACAD_REACTORS
330
BD0BC
102
}
330
18
100
AcDbEntity
  8
\U+FF7A\U+FF88\U+FF78\U+FF80
 48
0.5
100
AcDbLine
 10
5558.313979311346
 20
-3357.857321322337
 30
0.0
 11
5558.313979311346
 21
-3356.400178465195
 31
0.0
  0
LINE
  5
BD003
102
{ACAD_REACTORS
330
BD0BC
102
}
330
18
100
AcDbEntity
  8
\U+FF7A\U+FF88\U+FF78\U+FF80
 48
0.5
100
AcDbLine
 10
5556.079693597061
 20
-3356.400178465195
 30
0.0
 11
5555.108265025632
 21
-3356.400178465195
 31
0.0
  0
LINE
  5
BD004
102
{ACAD_REACTORS
330
BD0BC
102
}
330
18
100
AcDbEntity
  8
\U+FF7A\U+FF88\U+FF78\U+FF80
 48
0.5
100
AcDbLine
 10
5555.108265025632
 20
-3357.857321322337
 30
0.0
 11
5556.079693597061
 21
-3358.828749893766
 31
0.0
  0
LINE
  5
BD005
102
{ACAD_REACTORS
330
BD0BC
102
}
330
18
100
AcDbEntity
  8
\U+FF7A\U+FF88\U+FF78\U+FF80
 48
0.5
100
AcDbLine
 10
5557.342550739918
 20
-3358.828749893766
 30
0.0
 11
5556.079693597061
 21
-3358.828749893766
 31
0.0
  0
LINE
  5
BD006
102
{ACAD_REACTORS
330
BD0BC
102
}
330
18
100
AcDbEntity
  8
\U+FF7A\U+FF88\U+FF78\U+FF80
 48
0.5
100
AcDbLine
 10
5557.245407882776
 20
-3356.497321322339
 30
0.0
 11
5557.245407882776
 21
-3353.097321322337
 31
0.0
  0
LINE
  5
BD007
102
{ACAD_REACTORS
330
BD0BC
102
}
330
18
100
AcDbEntity
  8
\U+FF7A\U+FF88\U+FF78\U+FF80
 48
0.5
100
AcDbLine
 10
5555.108265025632
 20
-3356.400178465195
 30
0.0
 11
5554.690550739919
 21
-3355.98246417948
 31
0.0
  0
LINE
  5
BD008
102
{ACAD_REACTORS
330
BD0BC
102
}
330
18
100
AcDbEntity
  8
\U+FF7A\U+FF88\U+FF78\U+FF80
 48
0.5
100
AcDbLine
 10
5556.079693597061
 20
-3356.400178465195
 30
0.0
 11
5556.079693597061
 21
-3353.097321322337
 31
0.0
  0
LINE
  5
BD009
102
{ACAD_REACTORS
330
BD0BC
102
}
330
18
100
AcDbEntity
  8
\U+FF7A\U+FF88\U+FF78\U+FF80
 48
0.5
100
AcDbLine
 10
5558.508265025632
 20
-3353.097321322337
 30
0.0
 11
5554.690550739919
 21
-3353.097321322337
 31
0.0
  0
LINE
  5
BD00A
102
{ACAD_REACTORS
330
BD0BC
102
}
330
18
100
AcDbEntity
  8
\U+FF7A\U+FF88\U+FF78\U+FF80
 48
0.5
100
AcDbLine
 10
5558.313979311346
 20
-3356.400178465195
 30
0.0
 11
5557.245407882776
 21
-3356.497321322339
 31
0.0
  0
LINE
  5
BD00B
102
{ACAD_REACTORS
330
BD0BC
102
}
330
18
100
AcDbEntity
  8
\U+FF7A\U+FF88\U+FF78\U+FF80
 48
0.5
100
AcDbLine
 10
5557.342550739918
 20
-3358.828749893766
 30
0.0
 11
5558.313979311346
 21
-3357.857321322337
 31
0.0
  0
LINE
  5
BD00C
102
{ACAD_REACTORS
330
BD0BC
102
}
330
18
100
AcDbEntity
  8
\U+FF7A\U+FF88\U+FF78\U+FF80
 48
0.5
100
AcDbLine
 10
5572.108265025633
 20
-3353.097321322337
 30
0.0
 11
5558.508265025632
 21
-3353.097321322337
 31
0.0
  0
LINE
  5
BD00D
102
{ACAD_REACTORS
330
BD0BC
102
}
330
18
100
AcDbEntity
  8
\U+FF7A\U+FF88\U+FF78\U+FF80
100
AcDbLine
 10
5568.058258972589
 20
-3300.147278306929
 30
0.0
 11
5568.058258972591
 21
-3328.897276220861
 31
0.0
  0
LINE
  5
BD00E
102
{ACAD_REACTORS
330
BD0BC
102
}
330
18
100
AcDbEntity
  8
\U+FF7A\U+FF88\U+FF78\U+FF80
100
AcDbLine
 10
5562.558258972591
 20
-3300.147278306928
 30
0.0
 11
5562.558258972591
 21
-3328.897276220861
 31
0.0
  0
LINE
  5
BD00F
102
{ACAD_REACTORS
330
BD0BC
102
}
330
18
100
AcDbEntity
  8
\U+FF7A\U+FF88\U+FF78\U+FF80
 48
0.5
100
AcDbLine
 10
5569.908252919545
 20
-3338.897276220861
 30
0.0
 11
5566.808252919547
 21
-3328.897276220861
 31
0.0
  0
LINE
  5
BD010
102
{ACAD_REACTORS
330
BD0BC
102
}
330
18
100
AcDbEntity
  8
\U+FF7A\U+FF88\U+FF78\U+FF80
 48
0.5
100
AcDbLine
 10
5568.908252919545
 20
-3338.897276220861
 30
0.0
 11
5565.808252919548
 21
-3328.897276220861
 31
0.0
  0
LINE
  5
BD011
102
{ACAD_REACTORS
330
BD0BC
102
}
330
18
100
AcDbEntity
  8
\U+FF7A\U+FF88\U+FF78\U+FF80
 48
0.5
100
AcDbLine
 10
5565.808265025633
 20
-3338.897276220863
 30
0.0
 11
5565.808265025633
 21
-3328.897276220861
 31
0.0
  0
LINE
  5
BD012
102
{ACAD_REACTORS
330
BD0BC
102
}
330
18
100
AcDbEntity
  8
\U+FF7A\U+FF88\U+FF78\U+FF80
 48
0.5
100
AcDbLine
 10
5561.708265025631
 20
-3338.897276220861
 30
0.0
 11
5564.808265025632
 21
-3328.897276220861
 31
0.0
  0
LINE
  5
BD013
102
{ACAD_REACTORS
330
BD0BC
102
}
330
18
100
AcDbEntity
  8
\U+FF7A\U+FF88\U+FF78\U+FF80
 48
0.5
100
AcDbLine
 10
5560.708265025631
 20
-3338.897276220861
 30
0.0
 11
5563.808265025633
 21
-3328.897276220861
 31
0.0
  0
LINE
  5
BD014
102
{ACAD_REACTORS
330
BD0BC
102
}
330
18
100
AcDbEntity
  8
\U+FF7A\U+FF88\U+FF78\U+FF80
 48
0.5
100
AcDbLine
 10
5563.808265025633
 20
-3328.897276220861
 30
0.0
 11
5566.808252919547
 21
-3328.897276220861
 31
0.0
  0
LINE
  5
BD015
102
{ACAD_REACTORS
330
BD0BC
102
}
330
18
100
AcDbEntity
  8
\U+FF7A\U+FF88\U+FF78\U+FF80
100
AcDbLine
 10
5562.558258972591
 20
-3328.897276220861
 30
0.0
 11
5568.058258972591
 21
-3328.897276220861
 31
0.0
  0
LINE
  5
BD016
102
{ACAD_REACTORS
330
BD0BC
102
}
330
18
100
AcDbEntity
  8
\U+FF7A\U+FF88\U+FF78\U+FF80
 48
0.5
100
AcDbLine
 10
5573.30825897259
 20
-3339.997276220862
 30
0.0
 11
5572.108265025633
 21
-3339.997276220864
 31
0.0
  0
LINE
  5
BD017
102
{ACAD_REACTORS
330
BD0BC
102
}
330
18
100
AcDbEntity
  8
\U+FF7A\U+FF88\U+FF78\U+FF80
 48
0.5
100
AcDbLine
 10
5573.30825897259
 20
-3338.897276220861
 30
0.0
 11
5573.30825897259
 21
-3339.997276220862
 31
0.0
  0
LINE
  5
BD018
102
{ACAD_REACTORS
330
BD0BC
102
}
330
18
100
AcDbEntity
  8
\U+FF7A\U+FF88\U+FF78\U+FF80
 48
0.5
100
AcDbLine
 10
5564.808265025632
 20
-3338.897276220863
 30
0.0
 11
5564.808265025632
 21
-3328.897276220861
 31
0.0
  0
LINE
  5
BD019
102
{ACAD_REACTORS
330
BD0BC
102
}
330
18
100
AcDbEntity
  8
\U+FF7A\U+FF88\U+FF78\U+FF80
 48
0.5
100
AcDbLine
 10
5555.108265025632
 20
-3346.588749893766
 30
0.0
 11
5554.690550739919
 21
-3346.588749893766
 31
0.0
  0
LINE
  5
BD01A
102
{ACAD_REACTORS
330
BD0BC
102
}
330
18
100
AcDbEntity
  8
\U+FF7A\U+FF88\U+FF78\U+FF80
 48
0.5
100
AcDbLine
 10
5556.079693597061
 20
-3345.617321322337
 30
0.0
 11
5554.690550739919
 21
-3345.617321322337
 31
0.0
  0
LINE
  5
BD01B
102
{ACAD_REACTORS
330
BD0BC
102
}
330
18
100
AcDbEntity
  8
\U+FF7A\U+FF88\U+FF78\U+FF80
 48
0.5
100
AcDbLine
 10
5557.308258972589
 20
-3338.897276220861
 30
0.0
 11
5557.308258972589
 21
-3339.997276220862
 31
0.0
  0
LINE
  5
BD01C
102
{ACAD_REACTORS
330
BD0BC
102
}
330
18
100
AcDbEntity
  8
\U+FF7A\U+FF88\U+FF78\U+FF80
 48
0.5
100
AcDbLine
 10
5558.508265025632
 20
-3339.997276220862
 30
0.0
 11
5557.308258972589
 21
-3339.997276220862
 31
0.0
  0
ARC
  5
BD01D
102
{ACAD_REACTORS
330
BD0BC
102
}
330
18
100
AcDbEntity
  8
\U+FF7A\U+FF88\U+FF78\U+FF80
 48
0.5
100
AcDbCircle
 10
5558.022550739917
 20
-3350.999035608051
 30
0.0
 40
0.4857142857142857
100
AcDbArc
 50
270.0
 51
0.0
  0
ARC
  5
BD01E
102
{ACAD_REACTORS
330
BD0BC
102
}
330
18
100
AcDbEntity
  8
\U+FF7A\U+FF88\U+FF78\U+FF80
 48
0.5
100
AcDbCircle
 10
5557.521842239583
 20
-3350.999035608053
 30
0.0
 40
0.4857142857142857
100
AcDbArc
 50
190.0000000000039
 51
270.0
  0
LINE
  5
BD01F
102
{ACAD_REACTORS
330
BD0BC
102
}
330
18
100
AcDbEntity
  8
\U+FF7A\U+FF88\U+FF78\U+FF80
 48
0.5
100
AcDbLine
 10
5558.022550739919
 20
-3351.484749893766
 30
0.0
 11
5557.521842239585
 21
-3351.484749893767
 31
0.0
  0
LINE
  5
BD020
102
{ACAD_REACTORS
330
BD0BC
102
}
330
18
100
AcDbEntity
  8
\U+FF7A\U+FF88\U+FF78\U+FF80
 48
0.5
100
AcDbLine
 10
5557.043507045264
 20
-3351.083379008633
 30
0.0
 11
5556.079693597061
 21
-3345.617321322337
 31
0.0
  0
LINE
  5
BD021
102
{ACAD_REACTORS
330
BD0BC
102
}
330
18
100
AcDbEntity
  8
\U+FF7A\U+FF88\U+FF78\U+FF80
 48
0.5
100
AcDbLine
 10
5573.30825897259
 20
-3338.897276220863
 30
0.0
 11
5557.308258972589
 21
-3338.897276220861
 31
0.0
  0
SPLINE
  5
BD024
102
{ACAD_REACTORS
330
BD0BC
102
}
330
18
100
AcDbEntity
  8
細線
 48
0.5
100
AcDbSpline
210
0.0
220
0.0
230
1.0
 70
  1064
 71
     3
 72
     9
 73
     5
 74
     3
 42
0.000000001
 43
0.0000000001
 44
0.0000000001
 40
0.0
 40
0.0
 40
0.0
 40
0.0
 40
1.69603996638218
 40
2.946770208443544
 40
2.946770208443544
 40
2.946770208443544
 40
2.946770208443544
 10
5618.763898648011
 20
-3262.404246684214
 30
0.0
 10
5618.476731040243
 20
-3261.85871858977
 30
0.0
 10
5617.977794123559
 20
-3260.910895443827
 30
0.0
 10
5618.529662889432
 20
-3260.023798616132
 30
0.0
 10
5618.763898648011
 20
-3259.647278306929
 30
0.0
 11
5618.763898648011
 21
-3262.404246684214
 31
0.0
 11
5618.250494231534
 21
-3260.787779093228
 31
0.0
 11
5618.763898648011
 21
-3259.647278306929
 31
0.0
  0
SPLINE
  5
BD025
102
{ACAD_REACTORS
330
BD0BC
102
}
330
18
100
AcDbEntity
  8
細線
 48
0.5
100
AcDbSpline
210
0.0
220
0.0
230
1.0
 70
  1064
 71
     3
 72
    11
 73
     7
 74
     5
 42
0.000000001
 43
0.0000000001
 44
0.0000000001
 40
0.0
 40
0.0
 40
0.0
 40
0.0
 40
1.183040972398813
 40
2.941570763507238
 40
4.943334930535517
 40
5.927430102349977
 40
5.927430102349977
 40
5.927430102349977
 40
5.927430102349977
 10
5618.773581723393
 20
-3265.147278306928
 30
0.0
 10
5618.541566573263
 20
-3264.797607612497
 30
0.0
 10
5617.96467279001
 20
-3263.928169346545
 30
0.0
 10
5618.792165718969
 20
-3262.341324302953
 30
0.0
 10
5619.658176417263
 20
-3260.730897907932
 30
0.0
 10
5618.985577368162
 20
-3259.915892170027
 30
0.0
 10
5618.763898648011
 20
-3259.647278306929
 30
0.0
 11
5618.773581723393
 21
-3265.147278306928
 31
0.0
 11
5618.250494231532
 21
-3264.086163130223
 31
0.0
 11
5618.763898648011
 21
-3262.404246684214
 31
0.0
 11
5619.296669215256
 21
-3260.474683183555
 31
0.0
 11
5618.763898648011
 21
-3259.647278306929
 31
0.0
  0
SPLINE
  5
BD026
102
{ACAD_REACTORS
330
BD0BC
102
}
330
18
100
AcDbEntity
  8
細線
 48
0.5
100
AcDbSpline
210
0.0
220
0.0
230
1.0
 70
  1064
 71
     3
 72
     9
 73
     5
 74
     3
 42
0.000000001
 43
0.0000000001
 44
0.0000000001
 40
0.0
 40
0.0
 40
0.0
 40
0.0
 40
1.69603996638218
 40
2.946770208443544
 40
2.946770208443544
 40
2.946770208443544
 40
2.946770208443544
 10
5613.965844508981
 20
-3262.390309929644
 30
0.0
 10
5614.253012116749
 20
-3262.935838024088
 30
0.0
 10
5614.751949033433
 20
-3263.883661170029
 30
0.0
 10
5614.200080267558
 20
-3264.770757997724
 30
0.0
 10
5613.965844508981
 20
-3265.147278306928
 30
0.0
 11
5613.965844508981
 21
-3262.390309929644
 31
0.0
 11
5614.479248925458
 21
-3264.006777520629
 31
0.0
 11
5613.965844508981
 21
-3265.147278306928
 31
0.0
  0
SPLINE
  5
BD027
102
{ACAD_REACTORS
330
BD0BC
102
}
330
18
100
AcDbEntity
  8
細線
 48
0.5
100
AcDbSpline
210
0.0
220
0.0
230
1.0
 70
  1064
 71
     3
 72
    11
 73
     7
 74
     5
 42
0.000000001
 43
0.0000000001
 44
0.0000000001
 40
0.0
 40
0.0
 40
0.0
 40
0.0
 40
1.183040972400037
 40
2.941570763508027
 40
4.943334930535429
 40
5.927430102350654
 40
5.927430102350654
 40
5.927430102350654
 40
5.927430102350654
 10
5613.956161433598
 20
-3259.647278306928
 30
0.0
 10
5614.188176583727
 20
-3259.996949001359
 30
0.0
 10
5614.765070366978
 20
-3260.866387267312
 30
0.0
 10
5613.937577438023
 20
-3262.453232310903
 30
0.0
 10
5613.07156673973
 20
-3264.063658705925
 30
0.0
 10
5613.744165788829
 20
-3264.87866444383
 30
0.0
 10
5613.965844508981
 20
-3265.147278306928
 30
0.0
 11
5613.956161433598
 21
-3259.647278306928
 31
0.0
 11
5614.479248925459
 21
-3260.708393483634
 31
0.0
 11
5613.965844508981
 21
-3262.390309929644
 31
0.0
 11
5613.433073941735
 21
-3264.319873430301
 31
0.0
 11
5613.965844508981
 21
-3265.147278306928
 31
0.0
  0
LINE
  5
BD028
102
{ACAD_REACTORS
330
BD0BC
102
}
330
18
100
AcDbEntity
  8
\U+FF7A\U+FF88\U+FF78\U+FF80
100
AcDbLine
 10
5603.058258972591
 20
-3259.647278306928
 30
0.0
 11
5613.956161433598
 21
-3259.647278306929
 31
0.0
  0
LINE
  5
BD029
102
{ACAD_REACTORS
330
BD0BC
102
}
330
18
100
AcDbEntity
  8
\U+FF7A\U+FF88\U+FF78\U+FF80
100
AcDbLine
 10
5603.05825897259
 20
-3265.147278306928
 30
0.0
 11
5613.965844508981
 21
-3265.147278306928
 31
0.0
  0
LINE
  5
BD02A
102
{ACAD_REACTORS
330
BD0BC
102
}
330
18
100
AcDbEntity
  8
\U+FF7A\U+FF88\U+FF78\U+FF80
100
AcDbLine
 10
5618.763898648035
 20
-3259.647278306926
 30
0.0
 11
5629.416689238443
 21
-3259.647278306925
 31
0.0
  0
LINE
  5
BD02B
102
{ACAD_REACTORS
330
BD0BC
102
}
330
18
100
AcDbEntity
  8
\U+FF7A\U+FF88\U+FF78\U+FF80
100
AcDbLine
 10
5618.773581723393
 20
-3265.147278306928
 30
0.0
 11
5629.416689238443
 21
-3265.147278306927
 31
0.0
  0
LINE
  5
BD03D
102
{ACAD_REACTORS
330
BD0BC
102
}
330
18
100
AcDbEntity
  8
\U+FF7A\U+FF88\U+FF78\U+FF80
100
AcDbLine
 10
5651.416689238446
 20
-3253.750446684212
 30
0.0
 11
5651.416689238446
 21
-3271.058046684212
 31
0.0
  0
LINE
  5
BD0BF
330
18
100
AcDbEntity
  8
実線
 48
0.2
100
AcDbLine
 10
6106.161675005925
 20
-3087.052722798262
 30
0.0
 11
6106.161675005925
 21
-2996.405055151854
 31
0.0
  0
LINE
  5
BD0C0
330
18
100
AcDbEntity
  8
実線
 48
0.2
100
AcDbLine
 10
6218.161678462994
 20
-2996.405055151854
 30
0.0
 11
6218.161678462994
 21
-3013.420136050854
 31
0.0
  0
LINE
  5
BD0C1
330
18
100
AcDbEntity
  8
中心線
 48
0.5
100
AcDbLine
 10
6162.161676734459
 20
-2974.268670697365
 30
0.0
 11
6162.161676734459
 21
-3109.189107252752
 31
0.0
  0
LINE
  5
BD0C2
330
18
100
AcDbEntity
  8
中心線
 48
0.5
100
AcDbLine
 10
6094.701458456931
 20
-3041.728888975108
 30
0.0
 11
6253.845768384053
 21
-3041.728888975107
 31
0.0
  0
LINE
  5
BD0C3
330
18
100
AcDbEntity
  8
実線
 48
0.2
100
AcDbLine
 10
6207.485510557662
 20
-3097.728890703593
 30
0.0
 11
6116.837842911255
 21
-3097.728890703593
 31
0.0
  0
ARC
  5
BD0C4
330
18
100
AcDbEntity
  8
実線
 48
0.2
100
AcDbCircle
 10
6162.161676734459
 20
-3041.728888975058
 30
0.0
 40
72.50000000000006
100
AcDbArc
 50
220.007753913509
 51
229.992246086471
  0
ARC
  5
BD0C5
330
18
100
AcDbEntity
  8
実線
 48
0.2
100
AcDbCircle
 10
6116.837841945244
 20
-3095.728888975058
 30
0.0
 40
2.000000000000051
100
AcDbArc
 50
229.992246086471
 51
270.0
  0
CIRCLE
  5
BD0C6
330
18
100
AcDbEntity
  8
実線
 48
0.2
100
AcDbCircle
 10
6117.9675029103
 20
-3085.923062799216
 30
0.0
 40
3.5
  0
LINE
  5
BD0C7
330
18
100
AcDbEntity
  8
中心線
 48
0.5
100
AcDbLine
 10
6123.153318483536
 20
-3080.737247225981
 30
0.0
 11
6112.781687337061
 21
-3091.108878372455
 31
0.0
  0
ARC
  5
BD0C8
330
18
100
AcDbEntity
  8
実線
 48
0.2
100
AcDbCircle
 10
6108.16167673446
 20
-3087.052723764271
 30
0.0
 40
2.000000000000051
100
AcDbArc
 50
180.0
 51
220.007753913509
  0
CIRCLE
  5
BD0C9
330
18
100
AcDbEntity
  8
実線
 48
0.2
100
AcDbCircle
 10
6162.161676734625
 20
-3041.728888975108
 30
0.0
 40
10.8
  0
CIRCLE
  5
BD0CA
330
18
100
AcDbEntity
  8
実線
 48
0.2
100
AcDbCircle
 10
6162.161676734625
 20
-3041.728888975108
 30
0.0
 40
9.5
  0
CIRCLE
  5
BD0CB
330
18
100
AcDbEntity
  8
実線
100
AcDbCircle
 10
6162.16167673445
 20
-3041.728888974998
 30
0.0
 40
0.0000000000618456
  0
LINE
  5
BD0CC
330
18
100
AcDbEntity
  8
実線
 48
0.2
100
AcDbLine
 10
6218.161678462994
 20
-3070.037641899262
 30
0.0
 11
6218.161678462994
 21
-3087.052722798262
 31
0.0
  0
ARC
  5
BD0CD
330
18
100
AcDbEntity
  8
実線
 48
0.2
100
AcDbCircle
 10
6162.161676734459
 20
-3041.728888975058
 30
0.0
 40
72.5
100
AcDbArc
 50
310.007753913529
 51
319.992246086491
  0
ARC
  5
BD0CE
330
18
100
AcDbEntity
  8
実線
 48
0.2
100
AcDbCircle
 10
6207.485511523675
 20
-3095.728888975058
 30
0.0
 40
2.000000000000015
100
AcDbArc
 50
270.0
 51
310.007753913529
  0
CIRCLE
  5
BD0CF
330
18
100
AcDbEntity
  8
実線
 48
0.2
100
AcDbCircle
 10
6206.355850558618
 20
-3085.923062799216
 30
0.0
 40
3.500000000000027
  0
LINE
  5
BD0D0
330
18
100
AcDbEntity
  8
中心線
 48
0.5
100
AcDbLine
 10
6201.170034985385
 20
-3080.737247225983
 30
0.0
 11
6211.541666131859
 21
-3091.108878372458
 31
0.0
  0
ARC
  5
BD0D1
330
18
100
AcDbEntity
  8
実線
 48
0.2
100
AcDbCircle
 10
6216.16167673446
 20
-3087.052723764271
 30
0.0
 40
2.000000000000008
100
AcDbArc
 50
319.992246086491
 51
0.0
  0
ARC
  5
BD0D2
330
18
100
AcDbEntity
  8
実線
 48
0.2
100
AcDbCircle
 10
6162.161676734459
 20
-3041.728888975058
 30
0.0
 40
62.49999999999996
100
AcDbArc
 50
335.0714582198018
 51
24.92854178019817
  0
ARC
  5
BD0D3
330
18
100
AcDbEntity
  8
実線
 48
0.2
100
AcDbCircle
 10
6217.02514363184
 20
-3067.228888975058
 30
0.0
 40
1.999999999999986
100
AcDbArc
 50
325.8230487704779
 51
335.0714582198018
  0
ARC
  5
BD0D4
330
18
100
AcDbEntity
  8
実線
 48
0.2
100
AcDbCircle
 10
6221.161676734459
 20
-3070.037642059779
 30
0.0
 40
3.000000000000031
100
AcDbArc
 50
145.8230487704779
 51
180.0
  0
ARC
  5
BD0D5
330
18
100
AcDbEntity
  8
実線
 48
0.2
100
AcDbCircle
 10
6217.02514363184
 20
-3016.228888975058
 30
0.0
 40
2.000000000000011
100
AcDbArc
 50
24.92854178019817
 51
34.1769512295221
  0
ARC
  5
BD0D6
330
18
100
AcDbEntity
  8
実線
 48
0.2
100
AcDbCircle
 10
6221.161676734459
 20
-3013.420135890336
 30
0.0
 40
3.0
100
AcDbArc
 50
180.0
 51
214.1769512295221
  0
LINE
  5
BD0D7
330
18
100
AcDbEntity
  8
実線
 48
0.2
100
AcDbLine
 10
6116.837842911255
 20
-2985.728887246523
 30
0.0
 11
6207.485510557662
 21
-2985.728887246523
 31
0.0
  0
ARC
  5
BD0D8
330
18
100
AcDbEntity
  8
実線
 48
0.2
100
AcDbCircle
 10
6162.161676734459
 20
-3041.728888975058
 30
0.0
 40
72.50000000000006
100
AcDbArc
 50
130.007753913529
 51
139.992246086491
  0
CIRCLE
  5
BD0D9
330
18
100
AcDbEntity
  8
実線
 48
0.2
100
AcDbCircle
 10
6117.967502910301
 20
-2997.534715150898
 30
0.0
 40
3.5
  0
LINE
  5
BD0DA
330
18
100
AcDbEntity
  8
中心線
 48
0.5
100
AcDbLine
 10
6123.153318483538
 20
-3002.720530724131
 30
0.0
 11
6112.781687337064
 21
-2992.348899577657
 31
0.0
  0
ARC
  5
BD0DB
330
18
100
AcDbEntity
  8
実線
 48
0.2
100
AcDbCircle
 10
6108.16167673446
 20
-2996.405054185843
 30
0.0
 40
2.000000000000015
100
AcDbArc
 50
139.992246086491
 51
180.0
  0
ARC
  5
BD0DC
330
18
100
AcDbEntity
  8
実線
 48
0.2
100
AcDbCircle
 10
6116.837841945244
 20
-2987.728888975058
 30
0.0
 40
2.000000000000095
100
AcDbArc
 50
90.0
 51
130.007753913529
  0
ARC
  5
BD0DD
330
18
100
AcDbEntity
  8
実線
 48
0.2
100
AcDbCircle
 10
6162.161676734459
 20
-3041.728888975058
 30
0.0
 40
72.49999999999999
100
AcDbArc
 50
40.00775391350902
 51
49.99224608647101
  0
CIRCLE
  5
BD0DE
330
18
100
AcDbEntity
  8
実線
 48
0.2
100
AcDbCircle
 10
6206.35585055862
 20
-2997.534715150898
 30
0.0
 40
3.5
  0
LINE
  5
BD0DF
330
18
100
AcDbEntity
  8
中心線
 48
0.5
100
AcDbLine
 10
6201.170034985387
 20
-3002.720530724133
 30
0.0
 11
6211.541666131861
 21
-2992.348899577659
 31
0.0
  0
ARC
  5
BD0E0
330
18
100
AcDbEntity
  8
実線
 48
0.2
100
AcDbCircle
 10
6216.16167673446
 20
-2996.405054185843
 30
0.0
 40
2.0
100
AcDbArc
 50
0.0
 51
40.00775391350902
  0
ARC
  5
BD0E1
330
18
100
AcDbEntity
  8
実線
 48
0.2
100
AcDbCircle
 10
6207.485511523675
 20
-2987.728888975058
 30
0.0
 40
2.000000000000059
100
AcDbArc
 50
49.99224608647101
 51
90.0
  0
LINE
  5
BD0E2
330
18
100
AcDbEntity
  8
\U+FF7A\U+FF88\U+FF78\U+FF80
100
AcDbLine
 10
6229.661676734459
 20
-3033.075088975108
 30
0.0
 11
6229.661676734459
 21
-3050.382688975108
 31
0.0
  0
LINE
  5
BD0E3
330
18
100
AcDbEntity
  8
\U+FF7A\U+FF88\U+FF78\U+FF80
100
AcDbLine
 10
6246.66167673446
 20
-3036.431487499817
 30
0.0
 11
6246.66167673446
 21
-3047.026290450398
 31
0.0
  0
ARC
  5
BD0E4
330
18
100
AcDbEntity
  8
\U+FF7A\U+FF88\U+FF78\U+FF80
100
AcDbCircle
 10
6234.661676734459
 20
-3041.728888975108
 30
0.0
 40
8.0
100
AcDbArc
 50
333.5214655209426
 51
26.47853447905734
  0
LINE
  5
BD0E5
330
18
100
AcDbEntity
  8
\U+FF7A\U+FF88\U+FF78\U+FF80
100
AcDbLine
 10
6242.66167673446
 20
-3033.075088975108
 30
0.0
 11
6242.66167673446
 21
-3050.382688975108
 31
0.0
  0
LINE
  5
BD0E6
330
18
100
AcDbEntity
  8
\U+FF7A\U+FF88\U+FF78\U+FF80
100
AcDbLine
 10
6229.661676734459
 20
-3035.728887713473
 30
0.0
 11
6234.661676734459
 21
-3035.728886451838
 31
0.0
  0
LINE
  5
BD0E7
330
18
100
AcDbEntity
  8
\U+FF7A\U+FF88\U+FF78\U+FF80
100
AcDbLine
 10
6242.66167673446
 20
-3033.075088975108
 30
0.0
 11
6246.66167673446
 21
-3036.431487499817
 31
0.0
  0
LINE
  5
BD0E8
330
18
100
AcDbEntity
  8
\U+FF7A\U+FF88\U+FF78\U+FF80
100
AcDbLine
 10
6241.822488447526
 20
-3038.161988975109
 30
0.0
 11
6241.822488447526
 21
-3036.641988975107
 31
0.0
  0
LINE
  5
BD0E9
330
18
100
AcDbEntity
  8
\U+FF7A\U+FF88\U+FF78\U+FF80
100
AcDbLine
 10
6234.661676734459
 20
-3036.641988975107
 30
0.0
 11
6241.822488447526
 21
-3036.641988975107
 31
0.0
  0
LINE
  5
BD0EA
330
18
100
AcDbEntity
  8
\U+FF7A\U+FF88\U+FF78\U+FF80
100
AcDbLine
 10
6234.661676734459
 20
-3038.161988975109
 30
0.0
 11
6241.822488447526
 21
-3038.161988975109
 31
0.0
  0
LINE
  5
BD0EB
330
18
100
AcDbEntity
  8
\U+FF7A\U+FF88\U+FF78\U+FF80
100
AcDbLine
 10
6234.661676734459
 20
-3033.075088975108
 30
0.0
 11
6242.66167673446
 21
-3033.075088975108
 31
0.0
  0
ARC
  5
BD0EC
330
18
100
AcDbEntity
  8
\U+FF7A\U+FF88\U+FF78\U+FF80
100
AcDbCircle
 10
6234.661676734459
 20
-3033.075088975108
 30
0.0
 40
8.0
100
AcDbArc
 50
333.5214655209426
 51
0.0
  0
LINE
  5
BD0ED
330
18
100
AcDbEntity
  8
\U+FF7A\U+FF88\U+FF78\U+FF80
100
AcDbLine
 10
6224.661676734459
 20
-3035.728888975108
 30
0.0
 11
6224.373010107091
 21
-3035.728888975108
 31
0.0
  0
LINE
  5
BD0EE
330
18
100
AcDbEntity
  8
\U+FF7A\U+FF88\U+FF78\U+FF80
100
AcDbLine
 10
6224.661676734459
 20
-3036.338888975108
 30
0.0
 11
6224.428826179416
 21
-3036.338888975108
 31
0.0
  0
LINE
  5
BD0EF
330
18
100
AcDbEntity
  8
\U+FF7A\U+FF88\U+FF78\U+FF80
100
AcDbLine
 10
6224.661676734459
 20
-3036.641988975107
 30
0.0
 11
6229.661676734459
 21
-3036.641988975107
 31
0.0
  0
LINE
  5
BD0F0
330
18
100
AcDbEntity
  8
\U+FF7A\U+FF88\U+FF78\U+FF80
100
AcDbLine
 10
6224.661676734459
 20
-3038.161988975109
 30
0.0
 11
6229.661676734459
 21
-3038.161988975109
 31
0.0
  0
LINE
  5
BD0F1
330
18
100
AcDbEntity
  8
\U+FF7A\U+FF88\U+FF78\U+FF80
100
AcDbLine
 10
6224.661676734459
 20
-3033.075088975108
 30
0.0
 11
6229.661676734459
 21
-3033.075088975108
 31
0.0
  0
LINE
  5
BD0F2
330
18
100
AcDbEntity
  8
\U+FF7A\U+FF88\U+FF78\U+FF80
100
AcDbLine
 10
6229.661676734459
 20
-3047.728887713475
 30
0.0
 11
6234.661676734459
 21
-3047.728886451842
 31
0.0
  0
ARC
  5
BD0F3
330
18
100
AcDbEntity
  8
\U+FF7A\U+FF88\U+FF78\U+FF80
100
AcDbCircle
 10
6234.661676734459
 20
-3050.382688975108
 30
0.0
 40
8.0
100
AcDbArc
 50
0.0
 51
26.47853447905734
  0
LINE
  5
BD0F4
330
18
100
AcDbEntity
  8
\U+FF7A\U+FF88\U+FF78\U+FF80
100
AcDbLine
 10
6242.66167673446
 20
-3050.382688975108
 30
0.0
 11
6246.66167673446
 21
-3047.026290450398
 31
0.0
  0
LINE
  5
BD0F5
330
18
100
AcDbEntity
  8
\U+FF7A\U+FF88\U+FF78\U+FF80
100
AcDbLine
 10
6241.822488447526
 20
-3046.815788975108
 30
0.0
 11
6241.822488447526
 21
-3045.295788975107
 31
0.0
  0
LINE
  5
BD0F6
330
18
100
AcDbEntity
  8
\U+FF7A\U+FF88\U+FF78\U+FF80
100
AcDbLine
 10
6234.661676734459
 20
-3045.295788975107
 30
0.0
 11
6241.822488447526
 21
-3045.295788975107
 31
0.0
  0
LINE
  5
BD0F7
330
18
100
AcDbEntity
  8
\U+FF7A\U+FF88\U+FF78\U+FF80
100
AcDbLine
 10
6234.661676734459
 20
-3046.815788975108
 30
0.0
 11
6241.822488447526
 21
-3046.815788975108
 31
0.0
  0
LINE
  5
BD0F8
330
18
100
AcDbEntity
  8
\U+FF7A\U+FF88\U+FF78\U+FF80
100
AcDbLine
 10
6234.661676734459
 20
-3050.382688975108
 30
0.0
 11
6242.66167673446
 21
-3050.382688975108
 31
0.0
  0
LINE
  5
BD0F9
330
18
100
AcDbEntity
  8
\U+FF7A\U+FF88\U+FF78\U+FF80
100
AcDbLine
 10
6224.661676734459
 20
-3047.728888975108
 30
0.0
 11
6224.373010107082
 21
-3047.728888975108
 31
0.0
  0
LINE
  5
BD0FA
330
18
100
AcDbEntity
  8
\U+FF7A\U+FF88\U+FF78\U+FF80
100
AcDbLine
 10
6224.661676734459
 20
-3047.118888975107
 30
0.0
 11
6224.428826179408
 21
-3047.118888975107
 31
0.0
  0
LINE
  5
BD0FB
330
18
100
AcDbEntity
  8
\U+FF7A\U+FF88\U+FF78\U+FF80
100
AcDbLine
 10
6224.661676734459
 20
-3046.815788975108
 30
0.0
 11
6229.661676734459
 21
-3046.815788975108
 31
0.0
  0
LINE
  5
BD0FC
330
18
100
AcDbEntity
  8
\U+FF7A\U+FF88\U+FF78\U+FF80
100
AcDbLine
 10
6224.661676734459
 20
-3045.295788975107
 30
0.0
 11
6229.661676734459
 21
-3045.295788975107
 31
0.0
  0
LINE
  5
BD0FD
330
18
100
AcDbEntity
  8
\U+FF7A\U+FF88\U+FF78\U+FF80
100
AcDbLine
 10
6224.661676734459
 20
-3050.382688975108
 30
0.0
 11
6229.661676734459
 21
-3050.382688975108
 31
0.0
  0
LINE
  5
BD0FE
330
18
100
AcDbEntity
  8
\U+FF7A\U+FF88\U+FF78\U+FF80
100
AcDbLine
 10
6224.661676734459
 20
-3050.382688975108
 30
0.0
 11
6224.661676734459
 21
-3033.075088975108
 31
0.0
  0
LINE
  5
BD0FF
330
18
100
AcDbEntity
  8
\U+FF7A\U+FF88\U+FF78\U+FF80
100
AcDbLine
 10
6234.661676734459
 20
-3033.075088975108
 30
0.0
 11
6234.661676734459
 21
-3050.382688975108
 31
0.0
  0
CIRCLE
  5
BD100
330
18
100
AcDbEntity
  8
実線
 48
0.2
100
AcDbCircle
 10
6198.010204006378
 20
-3092.925891742999
 30
0.0
 40
2.0
  0
LINE
  5
BD101
330
18
100
AcDbEntity
  8
中心線
 48
0.5
100
AcDbLine
 10
6123.964430192902
 20
-2987.177567463604
 30
0.0
 11
6199.92862879857
 21
-3095.665686286079
 31
0.0
  0
ARC
  5
BD102
330
18
100
AcDbEntity
  8
実線
 48
0.2
100
AcDbCircle
 10
6125.739573026147
 20
-2989.712734162586
 30
0.0
 40
2.000248108191843
100
AcDbArc
 50
34.09755501315261
 51
215.9024449868802
  0
ARC
  5
BD103
330
18
100
AcDbEntity
  8
実線
 48
0.2
100
AcDbCircle
 10
6126.886725898849
 20
-2991.351038251164
 30
0.0
 40
2.000264515295802
100
AcDbArc
 50
215.9318029819372
 51
34.06819701809064
  0
POINT
  5
BD104
330
18
100
AcDbEntity
  8
0
  6
Continuous
370
     0
100
AcDbPoint
 10
6128.034030491292
 20
-2992.989559017987
 30
0.0
  0
LINE
  5
BD105
330
18
100
AcDbEntity
  8
実線
 48
0.2
100
AcDbLine
 10
6128.54368850564
 20
-2990.230531768354
 30
0.0
 11
6127.395945191135
 21
-2988.591389135869
 31
0.0
  0
POINT
  5
BD106
330
18
100
AcDbEntity
  8
0
  6
Continuous
370
     0
100
AcDbPoint
 10
6124.592277844431
 20
-2988.074226835676
 30
0.0
  0
LINE
  5
BD107
330
18
100
AcDbEntity
  8
実線
 48
0.2
100
AcDbLine
 10
6124.119340032091
 20
-2990.885694847854
 30
0.0
 11
6125.267079621306
 21
-2992.524837480338
 31
0.0
  0
LINE
  5
BD108
330
18
100
AcDbEntity
  8
\U+FF7A\U+FF88\U+FF78\U+FF80
100
AcDbLine
 10
6252.181206189565
 20
-3038.428888975108
 30
0.0
 11
6246.66167673446
 21
-3038.428888975108
 31
0.0
  0
LINE
  5
BD109
330
18
100
AcDbEntity
  8
\U+FF7A\U+FF88\U+FF78\U+FF80
100
AcDbLine
 10
6246.66167673446
 20
-3045.028888975108
 30
0.0
 11
6252.181206189565
 21
-3045.028888975108
 31
0.0
  0
SPLINE
  5
BD10A
330
18
100
AcDbEntity
  8
細線
 48
0.5
100
AcDbSpline
210
0.0
220
0.0
230
1.0
 70
  1064
 71
     3
 72
    11
 73
     7
 74
     5
 42
0.000000001
 43
0.0000000001
 44
0.0000000001
 40
0.0
 40
0.0
 40
0.0
 40
0.0
 40
1.992484014116254
 40
3.465112482101315
 40
4.934764524499
 40
6.931889979397007
 40
6.931889979397007
 40
6.931889979397007
 40
6.931889979397007
 10
6252.181206189566
 20
-3038.428888975101
 30
0.0
 10
6252.473038656977
 20
-3039.075313151708
 30
0.0
 10
6252.98056208921
 20
-3040.199504094885
 30
0.0
 10
6252.185443923874
 20
-3041.728663408151
 30
0.0
 10
6251.378707253262
 20
-3043.254591696546
 30
0.0
 10
6251.887882705009
 20
-3044.380360937442
 30
0.0
 10
6252.181206189566
 20
-3045.028888975104
 30
0.0
 11
6252.181206189566
 21
-3038.428888975101
 31
0.0
 11
6252.704293681427
 21
-3040.351484102102
 31
0.0
 11
6252.183342224425
 21
-3041.728888975103
 31
0.0
 11
6251.658118697703
 21
-3043.101484098474
 31
0.0
 11
6252.181206189566
 21
-3045.028888975104
 31
0.0
  0
SPLINE
  5
BD10B
330
18
100
AcDbEntity
  8
細線
 48
0.5
100
AcDbSpline
210
0.0
220
0.0
230
1.0
 70
  1064
 71
     3
 72
     9
 73
     5
 74
     3
 42
0.000000001
 43
0.0000000001
 44
0.0000000001
 40
0.0
 40
0.0
 40
0.0
 40
0.0
 40
1.465084025132052
 40
3.462209480029107
 40
3.462209480029107
 40
3.462209480029107
 40
3.462209480029107
 10
6252.181206189566
 20
-3041.732962751707
 30
0.0
 10
6252.419524536179
 20
-3042.185933467145
 30
0.0
 10
6252.982705913324
 20
-3043.25637002796
 30
0.0
 10
6252.474409577798
 20
-3044.380468837702
 30
0.0
 10
6252.181206189566
 20
-3045.028888975104
 30
0.0
 11
6252.181206189566
 21
-3041.732962751707
 31
0.0
 11
6252.704293681426
 21
-3043.101484098474
 31
0.0
 11
6252.181206189566
 21
-3045.028888975104
 31
0.0
  0
LINE
  5
BD10C
330
18
100
AcDbEntity
  8
\U+FF7A\U+FF88\U+FF78\U+FF80
100
AcDbLine
 10
6246.66167673446
 20
-3045.028888975108
 30
0.0
 11
6246.66167673446
 21
-3038.428888975108
 31
0.0
  0
LINE
  5
BD10D
330
18
100
AcDbEntity
  8
実線
 48
0.2
100
AcDbLine
 10
6178.161677494397
 20
-3097.728890703471
 30
0.0
 11
6178.161677494397
 21
-3092.256109121156
 31
0.0
  0
LINE
  5
BD10E
330
18
100
AcDbEntity
  8
実線
 48
0.2
100
AcDbLine
 10
6146.161675974479
 20
-3092.256109121038
 30
0.0
 11
6146.161675974479
 21
-3097.728890703471
 31
0.0
  0
LINE
  5
BD10F
330
18
100
AcDbEntity
  8
実線
 48
0.2
100
AcDbLine
 10
6106.161675005903
 20
-3057.728889734896
 30
0.0
 11
6111.634456588581
 21
-3057.728889734896
 31
0.0
  0
LINE
  5
BD110
330
18
100
AcDbEntity
  8
実線
 48
0.2
100
AcDbLine
 10
6178.161677494397
 20
-2991.201668829059
 30
0.0
 11
6178.161677494397
 21
-2985.728887246402
 31
0.0
  0
LINE
  5
BD111
330
18
100
AcDbEntity
  8
実線
 48
0.2
100
AcDbLine
 10
6146.161675974479
 20
-2985.728887246402
 30
0.0
 11
6146.161675974479
 21
-2991.201668829177
 31
0.0
  0
LINE
  5
BD112
330
18
100
AcDbEntity
  8
実線
 48
0.2
100
AcDbLine
 10
6111.634456588689
 20
-3025.728888214977
 30
0.0
 11
6106.161675005903
 21
-3025.728888214977
 31
0.0
  0
CIRCLE
  5
BD113
330
18
100
AcDbEntity
  8
実線
100
AcDbCircle
 10
6162.161676734394
 20
-3041.728888974969
 30
0.0
 40
11.3
  0
CIRCLE
  5
BD114
330
18
100
AcDbEntity
  8
中心線
 48
0.5
100
AcDbCircle
 10
6162.161676734625
 20
-3041.728888975108
 30
0.0
 40
62.49999999975243
  0
CIRCLE
  5
BD115
330
18
100
AcDbEntity
  8
\U+FF77\U+FF6C\U+FF6F\U+FF8C\U+FF9F\U+FF8E\U+FF9E\U+FF99\U+FF84
100
AcDbCircle
 10
6126.379058402069
 20
-3005.854155781218
 30
0.0
 40
2.0
  0
LINE
  5
BD116
330
18
100
AcDbEntity
  8
\U+FF77\U+FF6C\U+FF6F\U+FF8C\U+FF9F\U+FF8E\U+FF9E\U+FF99\U+FF84
100
AcDbLine
 10
6127.426052694227
 20
-3006.547596682781
 30
0.0
 11
6126.732611792665
 21
-3005.854155781218
 31
0.0
  0
LINE
  5
BD117
330
18
100
AcDbEntity
  8
\U+FF77\U+FF6C\U+FF6F\U+FF8C\U+FF9F\U+FF8E\U+FF9E\U+FF99\U+FF84
100
AcDbLine
 10
6127.072499303634
 20
-3006.901150073374
 30
0.0
 11
6126.379058402072
 21
-3006.207709171811
 31
0.0
  0
LINE
  5
BD118
330
18
100
AcDbEntity
  8
\U+FF77\U+FF6C\U+FF6F\U+FF8C\U+FF9F\U+FF8E\U+FF9E\U+FF99\U+FF84
100
AcDbLine
 10
6127.072499303634
 20
-3004.807161489061
 30
0.0
 11
6126.379058402069
 21
-3005.500602390624
 31
0.0
  0
LINE
  5
BD119
330
18
100
AcDbEntity
  8
\U+FF77\U+FF6C\U+FF6F\U+FF8C\U+FF9F\U+FF8E\U+FF9E\U+FF99\U+FF84
100
AcDbLine
 10
6127.426052694227
 20
-3005.160714879653
 30
0.0
 11
6126.732611792665
 21
-3005.854155781218
 31
0.0
  0
LINE
  5
BD11A
330
18
100
AcDbEntity
  8
\U+FF77\U+FF6C\U+FF6F\U+FF8C\U+FF9F\U+FF8E\U+FF9E\U+FF99\U+FF84
100
AcDbLine
 10
6126.379058402069
 20
-3005.500602390624
 30
0.0
 11
6125.685617500507
 21
-3004.807161489059
 31
0.0
  0
LINE
  5
BD11B
330
18
100
AcDbEntity
  8
\U+FF77\U+FF6C\U+FF6F\U+FF8C\U+FF9F\U+FF8E\U+FF9E\U+FF99\U+FF84
100
AcDbLine
 10
6126.025505011478
 20
-3005.854155781216
 30
0.0
 11
6125.332064109913
 21
-3005.160714879653
 31
0.0
  0
LINE
  5
BD11C
330
18
100
AcDbEntity
  8
\U+FF77\U+FF6C\U+FF6F\U+FF8C\U+FF9F\U+FF8E\U+FF9E\U+FF99\U+FF84
100
AcDbLine
 10
6126.379058402072
 20
-3006.207709171811
 30
0.0
 11
6125.685617500507
 21
-3006.901150073374
 31
0.0
  0
LINE
  5
BD11D
330
18
100
AcDbEntity
  8
\U+FF77\U+FF6C\U+FF6F\U+FF8C\U+FF9F\U+FF8E\U+FF9E\U+FF99\U+FF84
100
AcDbLine
 10
6126.025505011478
 20
-3005.854155781216
 30
0.0
 11
6125.332064109913
 21
-3006.547596682781
 31
0.0
  0
LINE
  5
BD11E
330
18
100
AcDbEntity
  8
\U+FF77\U+FF6C\U+FF6F\U+FF8C\U+FF9F\U+FF8E\U+FF9E\U+FF99\U+FF84
100
AcDbLine
 10
6125.332064109913
 20
-3005.160714879653
 30
0.0
 11
6125.685617500507
 21
-3004.807161489061
 31
0.0
  0
LINE
  5
BD11F
330
18
100
AcDbEntity
  8
\U+FF77\U+FF6C\U+FF6F\U+FF8C\U+FF9F\U+FF8E\U+FF9E\U+FF99\U+FF84
100
AcDbLine
 10
6127.072499303634
 20
-3004.807161489061
 30
0.0
 11
6127.426052694227
 21
-3005.160714879653
 31
0.0
  0
LINE
  5
BD120
330
18
100
AcDbEntity
  8
\U+FF77\U+FF6C\U+FF6F\U+FF8C\U+FF9F\U+FF8E\U+FF9E\U+FF99\U+FF84
100
AcDbLine
 10
6127.072499303634
 20
-3006.901150073375
 30
0.0
 11
6127.426052694227
 21
-3006.547596682781
 31
0.0
  0
LINE
  5
BD121
330
18
100
AcDbEntity
  8
\U+FF77\U+FF6C\U+FF6F\U+FF8C\U+FF9F\U+FF8E\U+FF9E\U+FF99\U+FF84
100
AcDbLine
 10
6125.332064109913
 20
-3006.547596682781
 30
0.0
 11
6125.685617500507
 21
-3006.901150073374
 31
0.0
  0
ARC
  5
BD122
330
18
100
AcDbEntity
  8
実線
 48
0.2
100
AcDbCircle
 10
6162.161676734625
 20
-3041.728888975108
 30
0.0
 40
53.0
100
AcDbArc
 50
107.5709644153041
 51
162.4290355847533
  0
CIRCLE
  5
BD123
330
18
100
AcDbEntity
  8
実線
 48
0.2
100
AcDbCircle
 10
6162.161676734548
 20
-3041.728888975107
 30
0.0
 40
52.5
  0
CIRCLE
  5
BD124
330
18
100
AcDbEntity
  8
\U+FF77\U+FF6C\U+FF6F\U+FF8C\U+FF9F\U+FF8E\U+FF9E\U+FF99\U+FF84
100
AcDbCircle
 10
6126.286943540659
 20
-3077.511507307584
 30
0.0
 40
2.0
  0
LINE
  5
BD125
330
18
100
AcDbEntity
  8
\U+FF77\U+FF6C\U+FF6F\U+FF8C\U+FF9F\U+FF8E\U+FF9E\U+FF99\U+FF84
100
AcDbLine
 10
6126.980384442222
 20
-3076.464513015428
 30
0.0
 11
6126.286943540659
 21
-3077.157953916991
 31
0.0
  0
LINE
  5
BD126
330
18
100
AcDbEntity
  8
\U+FF77\U+FF6C\U+FF6F\U+FF8C\U+FF9F\U+FF8E\U+FF9E\U+FF99\U+FF84
100
AcDbLine
 10
6127.333937832815
 20
-3076.818066406021
 30
0.0
 11
6126.640496931251
 21
-3077.511507307584
 31
0.0
  0
LINE
  5
BD127
330
18
100
AcDbEntity
  8
\U+FF77\U+FF6C\U+FF6F\U+FF8C\U+FF9F\U+FF8E\U+FF9E\U+FF99\U+FF84
100
AcDbLine
 10
6125.239949248502
 20
-3076.818066406021
 30
0.0
 11
6125.933390150065
 21
-3077.511507307585
 31
0.0
  0
LINE
  5
BD128
330
18
100
AcDbEntity
  8
\U+FF77\U+FF6C\U+FF6F\U+FF8C\U+FF9F\U+FF8E\U+FF9E\U+FF99\U+FF84
100
AcDbLine
 10
6125.593502639095
 20
-3076.464513015428
 30
0.0
 11
6126.286943540659
 21
-3077.157953916991
 31
0.0
  0
LINE
  5
BD129
330
18
100
AcDbEntity
  8
\U+FF77\U+FF6C\U+FF6F\U+FF8C\U+FF9F\U+FF8E\U+FF9E\U+FF99\U+FF84
100
AcDbLine
 10
6125.933390150065
 20
-3077.511507307585
 30
0.0
 11
6125.2399492485
 21
-3078.204948209148
 31
0.0
  0
LINE
  5
BD12A
330
18
100
AcDbEntity
  8
\U+FF77\U+FF6C\U+FF6F\U+FF8C\U+FF9F\U+FF8E\U+FF9E\U+FF99\U+FF84
100
AcDbLine
 10
6126.286943540657
 20
-3077.865060698178
 30
0.0
 11
6125.593502639095
 21
-3078.558501599743
 31
0.0
  0
LINE
  5
BD12B
330
18
100
AcDbEntity
  8
\U+FF77\U+FF6C\U+FF6F\U+FF8C\U+FF9F\U+FF8E\U+FF9E\U+FF99\U+FF84
100
AcDbLine
 10
6126.640496931251
 20
-3077.511507307584
 30
0.0
 11
6127.333937832815
 21
-3078.204948209148
 31
0.0
  0
LINE
  5
BD12C
330
18
100
AcDbEntity
  8
\U+FF77\U+FF6C\U+FF6F\U+FF8C\U+FF9F\U+FF8E\U+FF9E\U+FF99\U+FF84
100
AcDbLine
 10
6126.286943540657
 20
-3077.865060698178
 30
0.0
 11
6126.980384442222
 21
-3078.558501599743
 31
0.0
  0
LINE
  5
BD12D
330
18
100
AcDbEntity
  8
\U+FF77\U+FF6C\U+FF6F\U+FF8C\U+FF9F\U+FF8E\U+FF9E\U+FF99\U+FF84
100
AcDbLine
 10
6125.239949248502
 20
-3076.818066406021
 30
0.0
 11
6125.593502639095
 21
-3076.464513015428
 31
0.0
  0
CIRCLE
  5
BD12E
330
18
100
AcDbEntity
  8
\U+FF77\U+FF6C\U+FF6F\U+FF8C\U+FF9F\U+FF8E\U+FF9E\U+FF99\U+FF84
100
AcDbCircle
 10
6197.944295067027
 20
-3077.603622168996
 30
0.0
 40
2.0
  0
LINE
  5
BD12F
330
18
100
AcDbEntity
  8
\U+FF77\U+FF6C\U+FF6F\U+FF8C\U+FF9F\U+FF8E\U+FF9E\U+FF99\U+FF84
100
AcDbLine
 10
6196.897300774869
 20
-3076.910181267433
 30
0.0
 11
6197.590741676432
 21
-3077.603622168996
 31
0.0
  0
LINE
  5
BD130
330
18
100
AcDbEntity
  8
\U+FF77\U+FF6C\U+FF6F\U+FF8C\U+FF9F\U+FF8E\U+FF9E\U+FF99\U+FF84
100
AcDbLine
 10
6197.250854165463
 20
-3076.556627876841
 30
0.0
 11
6197.944295067025
 21
-3077.250068778405
 31
0.0
  0
LINE
  5
BD131
330
18
100
AcDbEntity
  8
\U+FF77\U+FF6C\U+FF6F\U+FF8C\U+FF9F\U+FF8E\U+FF9E\U+FF99\U+FF84
100
AcDbLine
 10
6197.250854165463
 20
-3078.650616461153
 30
0.0
 11
6197.944295067027
 21
-3077.95717555959
 31
0.0
  0
LINE
  5
BD132
330
18
100
AcDbEntity
  8
\U+FF77\U+FF6C\U+FF6F\U+FF8C\U+FF9F\U+FF8E\U+FF9E\U+FF99\U+FF84
100
AcDbLine
 10
6196.897300774869
 20
-3078.297063070561
 30
0.0
 11
6197.590741676432
 21
-3077.603622168996
 31
0.0
  0
LINE
  5
BD133
330
18
100
AcDbEntity
  8
\U+FF77\U+FF6C\U+FF6F\U+FF8C\U+FF9F\U+FF8E\U+FF9E\U+FF99\U+FF84
100
AcDbLine
 10
6197.944295067027
 20
-3077.95717555959
 30
0.0
 11
6198.637735968589
 21
-3078.650616461156
 31
0.0
  0
LINE
  5
BD134
330
18
100
AcDbEntity
  8
\U+FF77\U+FF6C\U+FF6F\U+FF8C\U+FF9F\U+FF8E\U+FF9E\U+FF99\U+FF84
100
AcDbLine
 10
6198.297848457618
 20
-3077.603622168998
 30
0.0
 11
6198.991289359184
 21
-3078.297063070561
 31
0.0
  0
LINE
  5
BD135
330
18
100
AcDbEntity
  8
\U+FF77\U+FF6C\U+FF6F\U+FF8C\U+FF9F\U+FF8E\U+FF9E\U+FF99\U+FF84
100
AcDbLine
 10
6197.944295067025
 20
-3077.250068778405
 30
0.0
 11
6198.637735968589
 21
-3076.556627876841
 31
0.0
  0
LINE
  5
BD136
330
18
100
AcDbEntity
  8
\U+FF77\U+FF6C\U+FF6F\U+FF8C\U+FF9F\U+FF8E\U+FF9E\U+FF99\U+FF84
100
AcDbLine
 10
6198.297848457618
 20
-3077.603622168998
 30
0.0
 11
6198.991289359184
 21
-3076.910181267433
 31
0.0
  0
LINE
  5
BD137
330
18
100
AcDbEntity
  8
\U+FF77\U+FF6C\U+FF6F\U+FF8C\U+FF9F\U+FF8E\U+FF9E\U+FF99\U+FF84
100
AcDbLine
 10
6197.250854165463
 20
-3078.650616461153
 30
0.0
 11
6196.897300774869
 21
-3078.297063070561
 31
0.0
  0
CIRCLE
  5
BD138
330
18
100
AcDbEntity
  8
\U+FF77\U+FF6C\U+FF6F\U+FF8C\U+FF9F\U+FF8E\U+FF9E\U+FF99\U+FF84
100
AcDbCircle
 10
6198.036409928438
 20
-3005.946270642629
 30
0.0
 40
2.0
  0
LINE
  5
BD139
330
18
100
AcDbEntity
  8
\U+FF77\U+FF6C\U+FF6F\U+FF8C\U+FF9F\U+FF8E\U+FF9E\U+FF99\U+FF84
100
AcDbLine
 10
6197.342969026876
 20
-3006.993264934787
 30
0.0
 11
6198.036409928438
 21
-3006.299824033223
 31
0.0
  0
LINE
  5
BD13A
330
18
100
AcDbEntity
  8
\U+FF77\U+FF6C\U+FF6F\U+FF8C\U+FF9F\U+FF8E\U+FF9E\U+FF99\U+FF84
100
AcDbLine
 10
6196.989415636283
 20
-3006.639711544193
 30
0.0
 11
6197.682856537847
 21
-3005.94627064263
 31
0.0
  0
LINE
  5
BD13B
330
18
100
AcDbEntity
  8
\U+FF77\U+FF6C\U+FF6F\U+FF8C\U+FF9F\U+FF8E\U+FF9E\U+FF99\U+FF84
100
AcDbLine
 10
6199.083404220596
 20
-3006.639711544193
 30
0.0
 11
6198.389963319034
 21
-3005.946270642628
 31
0.0
  0
LINE
  5
BD13C
330
18
100
AcDbEntity
  8
\U+FF77\U+FF6C\U+FF6F\U+FF8C\U+FF9F\U+FF8E\U+FF9E\U+FF99\U+FF84
100
AcDbLine
 10
6198.729850830003
 20
-3006.993264934787
 30
0.0
 11
6198.036409928438
 21
-3006.299824033223
 31
0.0
  0
LINE
  5
BD13D
330
18
100
AcDbEntity
  8
\U+FF77\U+FF6C\U+FF6F\U+FF8C\U+FF9F\U+FF8E\U+FF9E\U+FF99\U+FF84
100
AcDbLine
 10
6198.389963319034
 20
-3005.946270642628
 30
0.0
 11
6199.083404220598
 21
-3005.252829741065
 31
0.0
  0
LINE
  5
BD13E
330
18
100
AcDbEntity
  8
\U+FF77\U+FF6C\U+FF6F\U+FF8C\U+FF9F\U+FF8E\U+FF9E\U+FF99\U+FF84
100
AcDbLine
 10
6198.036409928441
 20
-3005.592717252036
 30
0.0
 11
6198.729850830003
 21
-3004.899276350471
 31
0.0
  0
LINE
  5
BD13F
330
18
100
AcDbEntity
  8
\U+FF77\U+FF6C\U+FF6F\U+FF8C\U+FF9F\U+FF8E\U+FF9E\U+FF99\U+FF84
100
AcDbLine
 10
6197.682856537847
 20
-3005.94627064263
 30
0.0
 11
6196.989415636283
 21
-3005.252829741065
 31
0.0
  0
LINE
  5
BD140
330
18
100
AcDbEntity
  8
\U+FF77\U+FF6C\U+FF6F\U+FF8C\U+FF9F\U+FF8E\U+FF9E\U+FF99\U+FF84
100
AcDbLine
 10
6198.036409928441
 20
-3005.592717252036
 30
0.0
 11
6197.342969026876
 21
-3004.899276350471
 31
0.0
  0
LINE
  5
BD141
330
18
100
AcDbEntity
  8
\U+FF77\U+FF6C\U+FF6F\U+FF8C\U+FF9F\U+FF8E\U+FF9E\U+FF99\U+FF84
100
AcDbLine
 10
6199.083404220596
 20
-3006.639711544193
 30
0.0
 11
6198.729850830003
 21
-3006.993264934787
 31
0.0
  0
ARC
  5
BD142
330
18
100
AcDbEntity
  8
実線
 48
0.2
100
AcDbCircle
 10
6162.161676734625
 20
-3041.728888975108
 30
0.0
 40
53.0
100
AcDbArc
 50
197.5709644148674
 51
252.4290355846959
  0
ARC
  5
BD143
330
18
100
AcDbEntity
  8
実線
 48
0.2
100
AcDbCircle
 10
6162.161676734625
 20
-3041.728888975108
 30
0.0
 40
53.0
100
AcDbArc
 50
287.5709644148595
 51
72.4290355851405
  0
LINE
  5
BDF24
102
{ACAD_REACTORS
330
BDF2A
102
}
330
18
100
AcDbEntity
  8
中心線
 48
0.5
100
AcDbLine
 10
5982.943067962992
 20
-2997.534715151616
 30
0.0
 11
6004.94306796299
 21
-2997.534715151616
 31
0.0
  0
LINE
  5
BDF27
102
{ACAD_REACTORS
330
BDF2A
102
}
330
18
100
AcDbEntity
  8
中心線
 48
0.5
100
AcDbLine
 10
5982.943067962992
 20
-3085.923062799935
 30
0.0
 11
6004.94306796299
 21
-3085.923062799935
 31
0.0
  0
LINE
  5
BE22A
102
{ACAD_REACTORS
330
BE230
102
}
330
18
100
AcDbEntity
  8
中心線
 48
0.5
100
AcDbLine
 10
5758.110862486216
 20
-3253.407643768138
 30
0.0
 11
5758.110862486216
 21
-3275.407643768137
 31
0.0
  0
LINE
  5
BE22D
102
{ACAD_REACTORS
330
BE230
102
}
330
18
100
AcDbEntity
  8
中心線
 48
0.5
100
AcDbLine
 10
5669.722514837896
 20
-3253.407643768138
 30
0.0
 11
5669.722514837896
 21
-3275.407643768137
 31
0.0
  0
HATCH
  5
BE491
330
18
100
AcDbEntity
  8
本体
100
AcDbHatch
 10
0.0
 20
0.0
 30
0.0
210
0.0
220
0.0
230
1.0
  2
SOLID
 70
     1
 71
     0
 91
        2
 92
        7
 72
     1
 73
     1
 93
        3
 10
6199.645017173477
 20
-3091.781183002151
 42
0.4142135623731056
 10
6196.859560212195
 20
-3091.290031786277
 42
0.0
 10
6198.006713084897
 20
-3092.928335874855
 42
0.0
 97
        0
 92
        7
 72
     1
 73
     1
 93
        3
 10
6199.153865957599
 20
-3094.566639963433
 42
0.0
 10
6198.006713084897
 20
-3092.928335874855
 42
0.0
 10
6196.368408996317
 20
-3094.075488747557
 42
0.4142135623731056
 97
        0
 75
     0
 76
     1
 47
0.0110124163047153
 98
        2
 10
6198.212921410358
 20
-3092.009548197994
 10
6197.938453758116
 20
-3094.325713947539
  0
CIRCLE
  5
BFC46
102
{ACAD_REACTORS
330
BFC47
102
}
330
18
100
AcDbEntity
  8
寸法
100
AcDbCircle
 10
5698.769715963291
 20
-3050.491538012301
 30
0.0
 40
2.0
  0
HATCH
  5
BFC47
330
18
100
AcDbEntity
  8
寸法
100
AcDbHatch
 10
0.0
 20
0.0
 30
0.0
210
0.0
220
0.0
230
1.0
  2
SOLID
 70
     1
 71
     0
 91
        2
 92
        7
 72
     1
 73
     1
 93
        3
 10
5700.501766770861
 20
-3049.491538012301
 42
0.3975651194988914
 10
5697.870324283173
 20
-3048.705174497858
 42
0.0285947903435749
 10
5698.769715963291
 20
-3050.4915380123
 42
0.0
 97
        0
 92
        7
 72
     1
 73
     1
 93
        3
 10
5699.867056307134
 20
-3052.163615812458
 42
-0.0285947903439396
 10
5698.769715963291
 20
-3050.4915380123
 42
0.0
 10
5697.037665155722
 20
-3051.491538012301
 42
0.4310603292076821
 97
        0
 75
     0
 76
     1
 47
0.0
 98
        2
 10
5699.240762871529
 20
-3049.260322720027
 10
5698.749155250138
 20
-3051.642728885224
1001
ACAD
1010
0.0
1020
0.0
1030
0.0
  0
LINE
  5
BFC48
102
{ACAD_REACTORS
330
BFC47
102
}
330
18
100
AcDbEntity
  8
中心線
100
AcDbLine
 10
5713.925160529552
 20
-3041.741538012281
 30
0.0
 11
5688.247507307345
 21
-3056.566538012281
 31
0.0
  0
TEXT
  5
BFD3C
330
18
100
AcDbEntity
  8
文字
100
AcDbText
 10
6151.315379843623
 20
-3253.20077225772
 30
0.0
 40
6.0
  1
外形図（INC_100V）_高精度_PIN
 41
0.5
  7
まこ
100
AcDbText
  0
TEXT
  5
BFD3D
330
18
100
AcDbEntity
  8
文字
100
AcDbText
 10
6149.466930661634
 20
-3264.558679025566
 30
0.0
 40
7.0
  1
ＳＥ－８１３９１
 41
0.9529999999999999
  7
まこ
100
AcDbText
  0
TEXT
  5
BFD3E
330
18
100
AcDbEntity
  8
文字
100
AcDbText
 10
6149.655175667522
 20
-3241.975603383143
 30
0.0
 40
3.5
  1
τDISCモータ ND110-65-FSP（INC_100V仕様） NMR-SAEIA1A-101AP
 41
0.36
  7
まこ
100
AcDbText
  0
VIEWPORT
  5
BFB83
102
{ACAD_XDICTIONARY
360
BFE6F
102
}
330
BFB7F
100
AcDbEntity
 67
     1
  8
0
100
AcDbViewport
 10
7.899861044722377
 20
4.912123022634911
 30
0.0
 40
14.92915379244482
 41
8.280923228696771
 68
     1
 69
     1
 12
7.899861044722377
 22
4.912123022634911
 13
0.0
 23
0.0
 14
0.5
 24
0.5
 15
0.0
 25
0.0
 16
0.0
 26
0.0
 36
1.0
 17
0.0
 27
0.0
 37
0.0
 42
50.0
 43
0.0
 44
0.0
 45
8.280923228696771
 50
0.0
 51
0.0
 72
   100
 90
   557152
  1

281
     0
 71
     1
 74
     0
110
0.0
120
0.0
130
0.0
111
1.0
121
0.0
131
0.0
112
0.0
122
1.0
132
0.0
 79
     0
146
0.0
  0
VIEWPORT
  5
BFB84
102
{ACAD_XDICTIONARY
360
BFB85
102
}
330
BFB7F
100
AcDbEntity
 67
     1
  8
0
100
AcDbViewport
 10
5.25
 20
3.5
 30
0.0
 40
8.4
 41
5.600000000000001
 68
     2
 69
     2
 12
5904.268159561986
 22
-3168.432996009852
 13
0.0
 23
0.0
 14
0.5
 24
0.5
 15
0.0
 25
0.0
 16
0.0
 26
0.0
 36
1.0
 17
0.0
 27
0.0
 37
0.0
 42
50.0
 43
0.0
 44
0.0
 45
475.4255479980115
 50
0.0
 51
0.0
 72
   100
341
E
 90
   557152
  1

281
     0
 71
     1
 74
     0
110
0.0
120
0.0
130
0.0
111
1.0
121
0.0
131
0.0
112
0.0
122
1.0
132
0.0
 79
     0
146
0.0
  0
ENDSEC
  0
SECTION
  2
OBJECTS
  0
DICTIONARY
  5
C
330
0
100
AcDbDictionary
281
     1
  3
ACAD_2007HEADERVARS_RT
350
BFE65
  3
ACAD_CIP_PREVIOUS_PRODUCT_INFO
350
8F58E
  3
ACAD_COLOR
350
BFD14
  3
ACAD_DETAILVIEWSTYLE
350
8F583
  3
ACAD_GROUP
350
D
  3
ACAD_IMAGE_VARS
350
BEAEE
  3
ACAD_LAYOUT
350
73F
  3
ACAD_MATERIAL
350
BFD05
  3
ACAD_MLEADERSTYLE
350
BFD0B
  3
ACAD_MLINESTYLE
350
1B
  3
ACAD_PLOTSETTINGS
350
740
  3
ACAD_PLOTSTYLENAME
350
73D
  3
ACAD_SCALELIST
350
8F56D
  3
ACAD_SECTIONVIEWSTYLE
350
8F581
  3
ACAD_TABLESTYLE
350
BFD09
  3
ACAD_VISUALSTYLE
350
BFCEC
  3
AcadDim
350
BF49A
  3
ACDB_RECOMPOSE_DATA
350
BFE63
  3
AcDbVariableDictionary
350
11AC
  3
APPDATA
350
BEAEC
  3
CLOUDSETTINGS
350
BFA5F
  3
DWGPROPS
350
BFE64
  0
DICTIONARY
  5
BFE0D
330
8
100
AcDbDictionary
280
     1
281
     1
  0
DICTIONARY
  5
1E591
330
2
100
AcDbDictionary
280
     1
281
     1
  3
ACAD_LAYERSTATES
360
1E615
  3
ACLYDICTIONARY
360
BFC5C
  0
DICTIONARY
  5
A181E
330
E
100
AcDbDictionary
280
     1
281
     1
  3
ADSK_XREC_LAYER_RECONCILED
360
A181F
  0
DICTIONARY
  5
A1826
330
8C6
100
AcDbDictionary
280
     1
281
     1
  3
ADSK_XREC_LAYER_RECONCILED
360
A1827
  0
DICTIONARY
  5
A182C
330
96A
100
AcDbDictionary
280
     1
281
     1
  3
ADSK_XREC_LAYER_RECONCILED
360
A182D
  0
DICTIONARY
  5
A182E
330
1521
100
AcDbDictionary
280
     1
281
     1
  3
ADSK_XREC_LAYER_RECONCILED
360
A182F
  0
DICTIONARY
  5
A1832
330
1523
100
AcDbDictionary
280
     1
281
     1
  3
ADSK_XREC_LAYER_RECONCILED
360
A1833
  0
DICTIONARY
  5
A1834
330
1526
100
AcDbDictionary
280
     1
281
     1
  3
ADSK_XREC_LAYER_RECONCILED
360
A1835
  0
DICTIONARY
  5
A1836
330
44F0
100
AcDbDictionary
280
     1
281
     1
  3
ADSK_XREC_LAYER_RECONCILED
360
A1837
  0
DICTIONARY
  5
A185E
330
89316
100
AcDbDictionary
280
     1
281
     1
  3
ADSK_XREC_LAYER_RECONCILED
360
A185F
  0
DICTIONARY
  5
BFC13
330
BFC12
100
AcDbDictionary
280
     1
281
     1
  3
ADSK_XREC_LAYER_RECONCILED
360
BFC14
  0
DICTIONARY
  5
9F677
330
18
100
AcDbDictionary
280
     1
281
     1
  3
ACAD_SORTENTS
360
9F678
  0
DICTIONARY
  5
BFE6F
330
BFB83
100
AcDbDictionary
280
     1
281
     1
  3
ACAD_XREC_ROUNDTRIP
360
BFE70
  0
DICTIONARY
  5
BFB85
330
BFB84
100
AcDbDictionary
280
     1
281
     1
  3
ACAD_XREC_ROUNDTRIP
360
BFE71
  3
ASDK_XREC_ANNOTATION_SCALE_INFO
360
BFB86
  0
DICTIONARY
  5
BFE65
102
{ACAD_REACTORS
330
C
102
}
330
C
100
AcDbDictionary
281
     1
  3
INTERFERECOLOR
350
BFE66
  0
XRECORD
  5
8F58E
102
{ACAD_REACTORS
330
C
102
}
330
C
100
AcDbXrecord
280
     1
300
ACDLT
300
2019
300
87085ACDLT_2019_0F
  0
DICTIONARY
  5
BFD14
102
{ACAD_REACTORS
330
C
102
}
330
C
100
AcDbDictionary
281
     1
  0
DICTIONARY
  5
8F583
102
{ACAD_REACTORS
330
C
102
}
330
C
100
AcDbDictionary
281
     1
  3
Imperial24
350
8F584
  0
DICTIONARY
  5
D
102
{ACAD_REACTORS
330
C
102
}
330
C
100
AcDbDictionary
281
     1
  3
*A1
350
B6F9F
  3
*A2
350
B6FCB
  3
*A3
350
B661D
  3
*A4
350
BADF6
  3
*A5
350
B7444
  3
*A6
350
BDF2A
  3
*A7
350
BE230
  3
*A8
350
BD0BC
  0
RASTERVARIABLES
  5
BEAEE
102
{ACAD_REACTORS
330
C
102
}
330
C
100
AcDbRasterVariables
 90
        0
 70
     1
 71
     1
 72
     0
  0
DICTIONARY
  5
73F
102
{ACAD_REACTORS
330
C
102
}
330
C
100
AcDbDictionary
281
     1
  3
Model
350
741
  3
Sheet1
350
BFB80
  0
DICTIONARY
  5
BFD05
102
{ACAD_REACTORS
330
C
102
}
330
C
100
AcDbDictionary
281
     1
  3
ByBlock
350
BFD07
  3
ByLayer
350
BFD06
  3
Global
350
BFD08
  0
DICTIONARY
  5
BFD0B
102
{ACAD_REACTORS
330
C
102
}
330
C
100
AcDbDictionary
281
     1
  3
Standard
350
BFD0C
  0
DICTIONARY
  5
1B
102
{ACAD_REACTORS
330
C
102
}
330
C
100
AcDbDictionary
281
     1
  3
STANDARD
350
1C
  0
DICTIONARY
  5
740
102
{ACAD_REACTORS
330
C
102
}
330
C
100
AcDbDictionary
281
     1
  0
ACDBDICTIONARYWDFLT
  5
73D
102
{ACAD_REACTORS
330
C
102
}
330
C
100
AcDbDictionary
281
     1
  3
Normal
350
73E
100
AcDbDictionaryWithDefault
340
73E
  0
DICTIONARY
  5
8F56D
102
{ACAD_REACTORS
330
C
102
}
330
C
100
AcDbDictionary
281
     1
  3
A0
350
8F56E
  3
A1
350
8F56F
  3
A2
350
8F570
  3
A3
350
8F571
  3
A4
350
8F572
  3
A5
350
8F573
  3
A6
350
8F574
  3
A7
350
8F575
  3
A8
350
8F576
  3
A9
350
8F577
  3
B0
350
8F578
  3
B1
350
8F579
  3
B2
350
8F57A
  3
B3
350
8F57B
  3
B4
350
8F57C
  3
B5
350
8F57D
  3
B6
350
8F57E
  0
DICTIONARY
  5
8F581
102
{ACAD_REACTORS
330
C
102
}
330
C
100
AcDbDictionary
281
     1
  3
Imperial24
350
8F582
  0
DICTIONARY
  5
BFD09
102
{ACAD_REACTORS
330
C
102
}
330
C
100
AcDbDictionary
281
     1
  3
Standard
350
BFD0A
  0
DICTIONARY
  5
BFCEC
102
{ACAD_REACTORS
330
C
102
}
330
C
100
AcDbDictionary
281
     1
  3
2dWireframe
350
BFCF1
  3
Basic
350
BFCF4
  3
Brighten
350
BFCF8
  3
ColorChange
350
BFCFC
  3
Conceptual
350
BFCF6
  3
Dim
350
BFCF7
  3
EdgeColorOff
350
BFCFF
  3
Facepattern
350
BFCFB
  3
Flat
350
BFCED
  3
FlatWithEdges
350
BFCEE
  3
Gouraud
350
BFCEF
  3
GouraudWithEdges
350
BFCF0
  3
Hidden
350
BFCF3
  3
JitterOff
350
BFCFD
  3
Linepattern
350
BFCFA
  3
OverhangOff
350
BFCFE
  3
Realistic
350
BFCF5
  3
Shaded
350
BFD04
  3
Shaded with edges
350
BFD03
  3
Shades of Gray
350
BFD00
  3
Sketchy
350
BFD01
  3
Thicken
350
BFCF9
  3
Wireframe
350
BFCF2
  3
X-Ray
350
BFD02
  0
XRECORD
  5
BF49A
102
{ACAD_REACTORS
330
C
102
}
330
C
100
AcDbXrecord
280
     1
340
0
 72
     0
 71
     0
 70
     0
 69
     0
 68
     1
 67
     3
 66
     0
 65
     0
 64
     1
 63
     4
 62
     4
 61
     0
 60
     0
 40
0.0
  0
XRECORD
  5
BFE63
102
{ACAD_REACTORS
330
C
102
}
330
C
100
AcDbXrecord
280
     1
 90
        1
330
BFD0A
  0
DICTIONARY
  5
11AC
102
{ACAD_REACTORS
330
C
102
}
330
C
100
AcDbDictionary
281
     1
  3
CANNOSCALE
350
BFD0E
  3
CMLEADERSTYLE
350
BFD10
  3
CTABLESTYLE
350
BFD0F
  3
CVIEWDETAILSTYLE
350
BFE51
  3
CVIEWSECTIONSTYLE
350
BFE52
  3
DGNFRAME
350
BFE57
  3
DIMASSOC
350
11AD
  3
HIDETEXT
350
BFE56
  3
INDEXCTL
350
A20AE
  3
LAYEREVAL
350
BFE54
  3
LAYERNOTIFY
350
BFE55
  3
LIGHTINGUNITS
350
BFE53
  3
MSLTSCALE
350
BFD11
  3
SORTENTS
350
AD08
  3
XCLIPFRAME
350
BFE61
  0
DICTIONARY
  5
BEAEC
102
{ACAD_REACTORS
330
C
102
}
330
C
100
AcDbDictionary
281
     1
  0
XRECORD
  5
BFA5F
102
{ACAD_REACTORS
330
C
102
}
330
C
100
AcDbXrecord
280
     1
 40
1.0
  0
XRECORD
  5
BFE64
102
{ACAD_REACTORS
330
C
102
}
330
C
100
AcDbXrecord
280
     1
  1
DWGPROPS COOKIE
  2

  3

  4

  6

  7

  8
NI0949
  9

300
=
301
=
302
=
303
=
304
=
305
=
306
=
307
=
308
=
309
=
 40
0.0209169444444445
 41
2452479.723113426
 42
2458547.499791667
  1

 90
        0
  0
DICTIONARY
  5
1E615
102
{ACAD_REACTORS
330
1E591
102
}
330
1E591
100
AcDbDictionary
281
     1
  0
DICTIONARY
  5
BFC5C
102
{ACAD_REACTORS
330
1E591
102
}
330
1E591
100
AcDbDictionary
281
     1
  3
*A1
350
BFC5D
  3
*A10
350
BFC5E
  3
*A11
350
BFC5F
  3
*A2
350
BFC60
  3
*A3
350
BFC61
  3
*A4
350
BFC62
  3
*A5
350
BFC63
  3
*A6
350
BFC64
  3
*A7
350
BFC65
  3
*A8
350
BFC66
  3
*A9
350
BFC67
1001
ACAD
1000
<All
  0
XRECORD
  5
A181F
102
{ACAD_REACTORS
330
A181E
102
}
330
A181E
100
AcDbXrecord
280
     1
290
     1
  0
XRECORD
  5
A1827
102
{ACAD_REACTORS
330
A1826
102
}
330
A1826
100
AcDbXrecord
280
     1
290
     1
  0
XRECORD
  5
A182D
102
{ACAD_REACTORS
330
A182C
102
}
330
A182C
100
AcDbXrecord
280
     1
290
     1
  0
XRECORD
  5
A182F
102
{ACAD_REACTORS
330
A182E
102
}
330
A182E
100
AcDbXrecord
280
     1
290
     1
  0
XRECORD
  5
A1833
102
{ACAD_REACTORS
330
A1832
102
}
330
A1832
100
AcDbXrecord
280
     1
290
     1
  0
XRECORD
  5
A1835
102
{ACAD_REACTORS
330
A1834
102
}
330
A1834
100
AcDbXrecord
280
     1
290
     1
  0
XRECORD
  5
A1837
102
{ACAD_REACTORS
330
A1836
102
}
330
A1836
100
AcDbXrecord
280
     1
290
     1
  0
XRECORD
  5
A185F
102
{ACAD_REACTORS
330
A185E
102
}
330
A185E
100
AcDbXrecord
280
     1
290
     1
  0
XRECORD
  5
BFC14
102
{ACAD_REACTORS
330
BFC13
102
}
330
BFC13
100
AcDbXrecord
280
     1
290
     1
  0
SORTENTSTABLE
  5
9F678
102
{ACAD_REACTORS
330
9F677
102
}
330
9F677
100
AcDbSortentsTable
330
18
  0
XRECORD
  5
BFE70
102
{ACAD_REACTORS
330
BFE6F
102
}
330
BFE6F
100
AcDbXrecord
280
     1
102
SHADEPLOT
 70
     0
  0
XRECORD
  5
BFE71
102
{ACAD_REACTORS
330
BFB85
102
}
330
BFB85
100
AcDbXrecord
280
     1
102
SHADEPLOT
 70
     0
  0
XRECORD
  5
BFB86
102
{ACAD_REACTORS
330
BFB85
102
}
330
BFB85
100
AcDbXrecord
280
     1
 90
        1
340
8F56E
  0
XRECORD
  5
BFE66
102
{ACAD_REACTORS
330
BFE65
102
}
330
BFE65
100
AcDbXrecord
280
     1
1004
1800000001000000000000C0000000000000000000000000
  0
ACDBDETAILVIEWSTYLE
  5
8F584
102
{ACAD_XDICTIONARY
360
BFE6B
102
}
102
{ACAD_REACTORS
330
8F583
102
}
330
8F583
100
AcDbModelDocViewStyle
 70
     0
  3
Imperial24
290
     0
100
AcDbDetailViewStyle
 70
     0
 71
     0
 90
        3
 71
     1
340
F
 40
0.24
340
0
 40
0.24
300

 40
0.36
280
     3
 71
     2
340
14
 90
       25
 71
     3
340
F
 40
0.24
 90
        1
 40
0.75
 90
        1
300
%<\AcVar ViewType \f "%tc1">% %<\AcVar ViewDetailId>%\PSCALE %<\AcVar ViewScale \f "%sn">%
 71
     4
340
14
 90
       25
340
14
 90
       25
280
     0
1001
ACAD
1000
AcRTDxfName
1000
ACDBDETAILVIEWSTYLE
1000
AcRTDxfName
1000
ACDBDETAILVIEWSTYLE
1000
AcRTDxfName
1000
ACDBDETAILVIEWSTYLE
1000
AcRTDxfName
1000
ACDBDETAILVIEWSTYLE
1000
AcRTDxfName
1000
ACDBDETAILVIEWSTYLE
1000
AcRTDxfName
1000
ACDBDETAILVIEWSTYLE
1000
AcRTDxfName
1000
ACDBDETAILVIEWSTYLE
  0
GROUP
  5
B6F9F
102
{ACAD_REACTORS
330
D
102
}
330
D
100
AcDbGroup
300

 70
     1
 71
     1
340
B6F97
340
B6F96
340
B6F88
340
B6F87
340
B6F86
340
B6F85
340
B6F95
340
B6F94
340
B6F93
340
B6F92
340
B6F91
340
B6F90
340
B6F8F
340
B6F8E
340
B6F8D
340
B6F8C
340
B6F8B
340
B6F8A
340
B6F89
340
B6F9A
340
B6F99
340
B6F98
340
B6F9C
340
B6F9B
  0
GROUP
  5
B6FCB
102
{ACAD_REACTORS
330
D
102
}
330
D
100
AcDbGroup
300

 70
     1
 71
     1
340
B6FC8
340
B6FC7
340
B6FC6
340
B6FC5
340
B6FC4
340
B6FC3
340
B6FC2
340
B6FC1
340
B6FC0
340
B6FBF
340
B6FBE
340
B6FBD
340
B6FBC
340
B6FBB
  0
GROUP
  5
B661D
102
{ACAD_REACTORS
330
D
102
}
330
D
100
AcDbGroup
300

 70
     1
 71
     1
340
B660B
340
B65FF
340
B661C
340
B661B
340
B661A
340
B6619
340
B6618
340
B6611
340
B6610
340
B660F
340
B660E
340
B660D
340
B660C
340
B6605
340
B6604
340
B6603
340
B6602
340
B6601
340
B6600
340
B65FE
340
B65FD
340
B65FC
340
B6617
340
B6616
340
B6615
340
B6614
340
B6613
340
B6612
340
B660A
340
B6609
340
B6608
340
B6607
340
B6606
340
B65FB
  0
GROUP
  5
BADF6
102
{ACAD_REACTORS
330
D
102
}
330
D
100
AcDbGroup
300

 70
     1
 71
     1
340
BAD67
340
BAD66
340
BAD95
340
BAD94
340
BAD97
340
BAD96
340
BAD93
340
BAD92
340
BAD91
340
BAD90
340
BAD8F
340
BAD8E
340
BAD8D
340
BAD8C
340
BAD8B
340
BAD8A
340
BAD89
340
BAD88
340
BAD87
340
BAD86
340
BAD85
340
BAD84
340
BAD83
340
BAD82
340
BAD81
340
BAD80
340
BAD7F
340
BAD7E
340
BAD7D
340
BAD7C
340
BAD7B
340
BAD7A
340
BAD79
340
BAD78
340
BAD77
340
BAD76
340
BAD75
340
BAD74
340
BAD73
340
BAD72
340
BAD71
340
BAD70
340
BAD6F
340
BAD6E
340
BAD6D
340
BAD6C
340
BAD69
340
BAD68
340
BAD6B
340
BAD6A
  0
GROUP
  5
B7444
102
{ACAD_REACTORS
330
D
102
}
330
D
100
AcDbGroup
300

 70
     1
 71
     1
340
B743F
340
B743E
340
B743D
340
B743C
340
B743B
340
B743A
340
B7439
340
B7438
340
B7437
340
B7436
340
B7435
340
B7434
340
B7433
340
B7432
340
B7431
340
B7430
340
B742F
340
B742E
340
B742D
340
B742C
340
B742B
340
B742A
340
B7441
340
B7440
  0
GROUP
  5
BDF2A
102
{ACAD_REACTORS
330
D
102
}
330
D
100
AcDbGroup
300

 70
     1
 71
     1
340
BDF24
340
BDF27
  0
GROUP
  5
BE230
102
{ACAD_REACTORS
330
D
102
}
330
D
100
AcDbGroup
300

 70
     1
 71
     1
340
BE22A
340
BE22D
  0
GROUP
  5
BD0BC
102
{ACAD_REACTORS
330
D
102
}
330
D
100
AcDbGroup
300

 70
     1
 71
     1
340
BCFF3
340
BCFF4
340
BD018
340
BD013
340
BD012
340
BD011
340
BD010
340
BD00F
340
BD021
340
BD020
340
BD01F
340
BD01E
340
BD01D
340
BD01C
340
BD01B
340
BD01A
340
BD019
340
BD017
340
BD016
340
BD00C
340
BD00B
340
BD00A
340
BD009
340
BD008
340
BD007
340
BD006
340
BD005
340
BD004
340
BD003
340
BD002
340
BD001
340
BD000
340
BCFFF
340
BCFFE
340
BCFFD
340
BCFFC
340
BCFFB
340
BCFFA
340
BCFF9
340
BCFF8
340
BCFF7
340
BCFF6
340
BCFF5
340
BD015
340
BD014
340
BD00E
340
BD00D
340
BD03D
340
BCFDE
340
BCFDD
340
BCFDC
340
BCFDB
340
BCFDA
340
BD02B
340
BD02A
340
BD025
340
BD024
340
BCFF1
340
BCFF0
340
BCFEF
340
BCFEE
340
BCFED
340
BCFEB
340
BCFEA
340
BCFE9
340
BCFE8
340
BCFE7
340
BCFE6
340
BCFE5
340
BCFE4
340
BCFE3
340
BCFE2
340
BCFE1
340
BCFE0
340
BCFDF
340
BCFD9
340
BD029
340
BD028
340
BD027
340
BD026
340
BCFF2
340
BCFEC
  0
LAYOUT
  5
741
102
{ACAD_XDICTIONARY
360
BFE67
102
}
102
{ACAD_REACTORS
330
73F
102
}
330
73F
100
AcDbPlotSettings
  1

  2
HP DesignJet 750C (D/A1) Color
  4
ANSI_A_(11.00_x_8.50_Inches)
  6

 40
6.349999999999999
 41
19.05
 42
6.349999999999999
 43
19.05
 44
279.4
 45
215.9
 46
0.0
 47
0.0
 48
0.0
 49
0.0
140
0.0
141
0.0
142
1.0
143
138.3629152898017
 70
 11952
 72
     0
 73
     0
 74
     0
  7

 75
     0
147
0.0072273701223012
148
-137449.4814814121
149
93144.67889878558
100
AcDbLayout
  1
Model
 70
     1
 71
     0
 10
0.0
 20
0.0
 11
12.0
 21
9.0
 12
0.0
 22
0.0
 32
0.0
 14
5554.690550739919
 24
-3362.597321322339
 34
0.0
 15
6253.845768384053
 25
-2974.268670697365
 35
137.5
146
0.0
 13
0.0
 23
0.0
 33
0.0
 16
1.0
 26
0.0
 36
0.0
 17
0.0
 27
1.0
 37
0.0
 76
     0
330
18
  0
LAYOUT
  5
BFB80
102
{ACAD_XDICTIONARY
360
BFE6D
102
}
102
{ACAD_REACTORS
330
73F
102
}
330
73F
100
AcDbPlotSettings
  1

  2
Adobe PDF
  4
Letter
  6

 40
0.0
 41
0.0
 42
0.0
 43
0.0
 44
215.9
 45
279.4
 46
0.0
 47
0.0
 48
0.0
 49
0.0
140
0.0
141
0.0
142
1.0
143
1.0
 70
   672
 72
     0
 73
     1
 74
     5
  7

 75
    16
147
1.0
148
0.0
149
0.0
100
AcDbLayout
  1
Sheet1
 70
     1
 71
     1
 10
0.0
 20
0.0
 11
11.0
 21
8.5
 12
0.0
 22
0.0
 32
0.0
 14
1.049999999999999
 24
0.6999999999999993
 34
0.0
 15
9.449999999999999
 25
6.3
 35
0.0
146
0.0
 13
0.0
 23
0.0
 33
0.0
 16
1.0
 26
0.0
 36
0.0
 17
0.0
 27
1.0
 37
0.0
 76
     0
330
BFB7F
331
BFB83
1001
PLOTTRANSPARENCY
1071
        0
  0
MATERIAL
  5
BFD07
102
{ACAD_XDICTIONARY
360
BFEA4
102
}
102
{ACAD_REACTORS
330
BFD05
102
}
330
BFD05
100
AcDbMaterial
  1
ByBlock
 73
     1
 78
     1
172
     1
176
     1
270
     1
274
     1
  0
MATERIAL
  5
BFD06
102
{ACAD_XDICTIONARY
360
BFEA2
102
}
102
{ACAD_REACTORS
330
BFD05
102
}
330
BFD05
100
AcDbMaterial
  1
ByLayer
 73
     1
 78
     1
172
     1
176
     1
270
     1
274
     1
  0
MATERIAL
  5
BFD08
102
{ACAD_XDICTIONARY
360
BFEA6
102
}
102
{ACAD_REACTORS
330
BFD05
102
}
330
BFD05
100
AcDbMaterial
  1
Global
 73
     1
 78
     1
172
     1
176
     1
270
     1
274
     1
  0
MLEADERSTYLE
  5
BFD0C
102
{ACAD_REACTORS
330
BFD0B
102
}
330
BFD0B
100
AcDbMLeaderStyle
170
     2
171
     1
172
     0
 90
        2
 40
0.0
 41
0.0
173
     1
 91
-1056964608
340
12
 92
       -2
290
     1
 42
0.09
291
     1
 43
0.36
  3
Standard
 44
0.18
300

342
F
174
     1
178
     6
175
     1
176
     0
 93
-1056964608
 45
0.18
292
     0
297
     0
 46
0.18
 94
-1056964608
 47
1.0
 49
1.0
140
1.0
293
     1
141
0.0
294
     1
177
     0
142
1.0
295
     0
296
     0
143
0.125
1001
ACAD_MLEADERVER
1070
     2
  0
MLINESTYLE
  5
1C
102
{ACAD_REACTORS
330
1B
102
}
330
1B
100
AcDbMlineStyle
  2
STANDARD
 70
     0
  3

 62
   256
 51
90.0
 52
90.0
 71
     2
 49
0.5
 62
   256
  6
BYLAYER
 49
-0.5
 62
   256
  6
BYLAYER
  0
ACDBPLACEHOLDER
  5
73E
102
{ACAD_REACTORS
330
73D
102
}
330
73D
  0
SCALE
  5
8F56E
102
{ACAD_REACTORS
330
8F56D
102
}
330
8F56D
100
AcDbScale
 70
     0
300
1:1
140
1.0
141
1.0
290
     1
  0
SCALE
  5
8F56F
102
{ACAD_REACTORS
330
8F56D
102
}
330
8F56D
100
AcDbScale
 70
     0
300
1/128" = 1'-0"
140
0.0078125
141
12.0
290
     0
  0
SCALE
  5
8F570
102
{ACAD_REACTORS
330
8F56D
102
}
330
8F56D
100
AcDbScale
 70
     0
300
1/64" = 1'-0"
140
0.015625
141
12.0
290
     0
  0
SCALE
  5
8F571
102
{ACAD_REACTORS
330
8F56D
102
}
330
8F56D
100
AcDbScale
 70
     0
300
1/32" = 1'-0"
140
0.03125
141
12.0
290
     0
  0
SCALE
  5
8F572
102
{ACAD_REACTORS
330
8F56D
102
}
330
8F56D
100
AcDbScale
 70
     0
300
1/16" = 1'-0"
140
0.0625
141
12.0
290
     0
  0
SCALE
  5
8F573
102
{ACAD_REACTORS
330
8F56D
102
}
330
8F56D
100
AcDbScale
 70
     0
300
3/32" = 1'-0"
140
0.09375
141
12.0
290
     0
  0
SCALE
  5
8F574
102
{ACAD_REACTORS
330
8F56D
102
}
330
8F56D
100
AcDbScale
 70
     0
300
1/8" = 1'-0"
140
0.125
141
12.0
290
     0
  0
SCALE
  5
8F575
102
{ACAD_REACTORS
330
8F56D
102
}
330
8F56D
100
AcDbScale
 70
     0
300
3/16" = 1'-0"
140
0.1875
141
12.0
290
     0
  0
SCALE
  5
8F576
102
{ACAD_REACTORS
330
8F56D
102
}
330
8F56D
100
AcDbScale
 70
     0
300
1/4" = 1'-0"
140
0.25
141
12.0
290
     0
  0
SCALE
  5
8F577
102
{ACAD_REACTORS
330
8F56D
102
}
330
8F56D
100
AcDbScale
 70
     0
300
3/8" = 1'-0"
140
0.375
141
12.0
290
     0
  0
SCALE
  5
8F578
102
{ACAD_REACTORS
330
8F56D
102
}
330
8F56D
100
AcDbScale
 70
     0
300
1/2" = 1'-0"
140
0.5
141
12.0
290
     0
  0
SCALE
  5
8F579
102
{ACAD_REACTORS
330
8F56D
102
}
330
8F56D
100
AcDbScale
 70
     0
300
3/4" = 1'-0"
140
0.75
141
12.0
290
     0
  0
SCALE
  5
8F57A
102
{ACAD_REACTORS
330
8F56D
102
}
330
8F56D
100
AcDbScale
 70
     0
300
1" = 1'-0"
140
1.0
141
12.0
290
     0
  0
SCALE
  5
8F57B
102
{ACAD_REACTORS
330
8F56D
102
}
330
8F56D
100
AcDbScale
 70
     0
300
1-1/2" = 1'-0"
140
1.5
141
12.0
290
     0
  0
SCALE
  5
8F57C
102
{ACAD_REACTORS
330
8F56D
102
}
330
8F56D
100
AcDbScale
 70
     0
300
3" = 1'-0"
140
3.0
141
12.0
290
     0
  0
SCALE
  5
8F57D
102
{ACAD_REACTORS
330
8F56D
102
}
330
8F56D
100
AcDbScale
 70
     0
300
6" = 1'-0"
140
6.0
141
12.0
290
     0
  0
SCALE
  5
8F57E
102
{ACAD_REACTORS
330
8F56D
102
}
330
8F56D
100
AcDbScale
 70
     0
300
1'-0" = 1'-0"
140
12.0
141
12.0
290
     0
  0
ACDBSECTIONVIEWSTYLE
  5
8F582
102
{ACAD_XDICTIONARY
360
BFE69
102
}
102
{ACAD_REACTORS
330
8F581
102
}
330
8F581
100
AcDbModelDocViewStyle
 70
     0
  3
Imperial24
290
     0
100
AcDbSectionViewStyle
 70
     0
 71
     0
 90
       78
 71
     1
340
F
 40
0.24
340
0
340
0
 40
0.24
300
I, O, Q, S, X, Z
 40
0.48
 90
        3
 40
0.18
 90
        1
 71
     2
340
808B3
 90
       25
340
14
 90
       50
 40
0.24
 40
0.0
 40
0.24
 71
     3
340
F
 40
0.24
 90
        1
 40
0.75
 90
        1
300
%<\AcVar ViewType \f "%tc1">% %<\AcVar ViewSectionStartId>%-%<\AcVar ViewSectionEndId>%\PSCALE %<\AcVar ViewScale \f "%sn">%
 71
     4
300
ANSI31
 40
1.0
 90
        0
290
     0
290
     0
 90
        6
 40
0.0
 40
1.570796326794897
 40
0.2617993877991494
 40
1.308996938995746
 40
-0.2617993877991494
 40
1.832595714594045
1001
ACAD
1000
AcRTDxfName
1000
ACDBSECTIONVIEWSTYLE
1000
AcRTDxfName
1000
ACDBSECTIONVIEWSTYLE
1000
AcRTDxfName
1000
ACDBSECTIONVIEWSTYLE
1000
AcRTDxfName
1000
ACDBSECTIONVIEWSTYLE
1000
AcRTDxfName
1000
ACDBSECTIONVIEWSTYLE
1000
AcRTDxfName
1000
ACDBSECTIONVIEWSTYLE
1000
AcRTDxfName
1000
ACDBSECTIONVIEWSTYLE
  0
TABLESTYLE
  5
BFD0A
102
{ACAD_XDICTIONARY
360
BFDFE
102
}
102
{ACAD_REACTORS
330
BFD09
102
}
330
BFD09
100
AcDbTableStyle
  3
Standard
 70
     0
 71
     0
 40
0.06
 41
0.06
280
     0
281
     0
  7
STANDARD
140
0.18
170
     2
 62
     0
 63
     7
283
     0
274
    -2
284
     1
 64
     0
275
    -2
285
     1
 65
     0
276
    -2
286
     1
 66
     0
277
    -2
287
     1
 67
     0
278
    -2
288
     1
 68
     0
279
    -2
289
     1
 69
     0
  7
STANDARD
140
0.25
170
     5
 62
     0
 63
     7
283
     0
274
    -2
284
     1
 64
     0
275
    -2
285
     1
 65
     0
276
    -2
286
     1
 66
     0
277
    -2
287
     1
 67
     0
278
    -2
288
     1
 68
     0
279
    -2
289
     1
 69
     0
  7
STANDARD
140
0.18
170
     5
 62
     0
 63
     7
283
     0
274
    -2
284
     1
 64
     0
275
    -2
285
     1
 65
     0
276
    -2
286
     1
 66
     0
277
    -2
287
     1
 67
     0
278
    -2
288
     1
 68
     0
279
    -2
289
     1
 69
     0
  0
VISUALSTYLE
  5
BFCF1
102
{ACAD_XDICTIONARY
360
BFE7A
102
}
102
{ACAD_REACTORS
330
BFCEC
102
}
330
BFCEC
100
AcDbVisualStyle
  2
2dWireframe
 70
     4
 71
     0
 72
     2
 73
     0
 90
        0
 40
-0.6
 41
-30.0
 62
     5
 63
     7
 74
     1
 91
        4
 64
     7
 65
   257
 75
     1
175
     1
 42
1.0
 92
        0
 66
   257
 43
1.0
 76
     1
 77
     6
 78
     2
 67
     7
 79
     5
170
     0
171
     0
290
     0
174
     0
 93
        1
 44
0.0
173
     0
291
     0
 45
0.0
1001
ACAD
1000
AcDbSavedByObjectVersion
1070
     0
  0
VISUALSTYLE
  5
BFCF4
102
{ACAD_XDICTIONARY
360
BFE80
102
}
102
{ACAD_REACTORS
330
BFCEC
102
}
330
BFCEC
100
AcDbVisualStyle
  2
Basic
 70
     7
 71
     1
 72
     0
 73
     1
 90
        0
 40
-0.6
 41
-30.0
 62
     5
 63
     7
 74
     0
 91
        4
 64
     7
 65
   257
 75
     1
175
     1
 42
1.0
 92
        8
 66
     7
 43
1.0
 76
     1
 77
     6
 78
     2
 67
     7
 79
     5
170
     0
171
     0
290
     0
174
     0
 93
        1
 44
0.0
173
     0
291
     1
 45
0.0
1001
ACAD
1000
AcDbSavedByObjectVersion
1070
     0
  0
VISUALSTYLE
  5
BFCF8
102
{ACAD_XDICTIONARY
360
BFE88
102
}
102
{ACAD_REACTORS
330
BFCEC
102
}
330
BFCEC
100
AcDbVisualStyle
  2
Brighten
 70
    12
 71
     2
 72
     2
 73
     0
 90
        0
 40
-0.6
 41
-30.0
 62
     5
 63
     7
 74
     1
 91
        4
 64
     7
 65
   257
 75
     1
175
     1
 42
1.0
 92
        8
 66
     7
 43
1.0
 76
     1
 77
     6
 78
     2
 67
     7
 79
     5
170
     0
171
     0
290
     0
174
     0
 93
        1
 44
50.0
173
     0
291
     1
 45
0.0
1001
ACAD
1000
AcDbSavedByObjectVersion
1070
     0
  0
VISUALSTYLE
  5
BFCFC
102
{ACAD_XDICTIONARY
360
BFE90
102
}
102
{ACAD_REACTORS
330
BFCEC
102
}
330
BFCEC
100
AcDbVisualStyle
  2
ColorChange
 70
    16
 71
     2
 72
     2
 73
     3
 90
        0
 40
-0.6
 41
-30.0
 62
     5
 63
     8
 74
     1
 91
        4
 64
     7
 65
   257
 75
     1
175
     1
 42
1.0
 92
        8
 66
     8
 43
1.0
 76
     1
 77
     6
 78
     2
 67
     7
 79
     5
170
     0
171
     0
290
     0
174
     0
 93
        1
 44
0.0
173
     0
291
     1
 45
0.0
1001
ACAD
1000
AcDbSavedByObjectVersion
1070
     0
  0
VISUALSTYLE
  5
BFCF6
102
{ACAD_XDICTIONARY
360
BFE84
102
}
102
{ACAD_REACTORS
330
BFCEC
102
}
330
BFCEC
100
AcDbVisualStyle
  2
Conceptual
 70
     9
 71
     3
 72
     2
 73
     0
 90
        0
 40
-0.6
 41
-30.0
 62
     5
 63
     7
 74
     2
 91
        2
 64
     7
 65
   257
 75
     1
175
     1
 42
179.0
 92
        8
 66
     7
 43
1.0
 76
     1
 77
     6
 78
     2
 67
     7
 79
     3
170
     0
171
     0
290
     0
174
     0
 93
        1
 44
0.0
173
     0
291
     0
 45
0.0
1001
ACAD
1000
AcDbSavedByObjectVersion
1070
     0
  0
VISUALSTYLE
  5
BFCF7
102
{ACAD_XDICTIONARY
360
BFE86
102
}
102
{ACAD_REACTORS
330
BFCEC
102
}
330
BFCEC
100
AcDbVisualStyle
  2
Dim
 70
    11
 71
     2
 72
     2
 73
     0
 90
        0
 40
-0.6
 41
-30.0
 62
     5
 63
     7
 74
     1
 91
        4
 64
     7
 65
   257
 75
     1
175
     1
 42
1.0
 92
        8
 66
     7
 43
1.0
 76
     1
 77
     6
 78
     2
 67
     7
 79
     5
170
     0
171
     0
290
     0
174
     0
 93
        1
 44
-50.0
173
     0
291
     1
 45
0.0
1001
ACAD
1000
AcDbSavedByObjectVersion
1070
     0
  0
VISUALSTYLE
  5
BFCFF
102
{ACAD_XDICTIONARY
360
BFE96
102
}
102
{ACAD_REACTORS
330
BFCEC
102
}
330
BFCEC
100
AcDbVisualStyle
  2
EdgeColorOff
 70
    22
 71
     2
 72
     2
 73
     0
 90
        0
 40
-0.6
 41
-30.0
 62
     5
 63
     7
 74
     1
 91
        4
 64
     7
 65
   257
 75
     1
175
     1
 42
1.0
 92
        8
 66
     7
 43
1.0
 76
     1
 77
     6
 78
     2
 67
     7
 79
     5
170
     0
171
     0
290
     0
174
     0
 93
        1
 44
0.0
173
     0
291
     1
 45
0.0
1001
ACAD
1000
AcDbSavedByObjectVersion
1070
     0
  0
VISUALSTYLE
  5
BFCFB
102
{ACAD_XDICTIONARY
360
BFE8E
102
}
102
{ACAD_REACTORS
330
BFCEC
102
}
330
BFCEC
100
AcDbVisualStyle
  2
Facepattern
 70
    15
 71
     2
 72
     2
 73
     0
 90
        0
 40
-0.6
 41
-30.0
 62
     5
 63
     7
 74
     1
 91
        4
 64
     7
 65
   257
 75
     1
175
     1
 42
1.0
 92
        8
 66
     7
 43
1.0
 76
     1
 77
     6
 78
     2
 67
     7
 79
     5
170
     0
171
     0
290
     0
174
     0
 93
        1
 44
0.0
173
     0
291
     1
 45
0.0
1001
ACAD
1000
AcDbSavedByObjectVersion
1070
     0
  0
VISUALSTYLE
  5
BFCED
102
{ACAD_XDICTIONARY
360
BFE72
102
}
102
{ACAD_REACTORS
330
BFCEC
102
}
330
BFCEC
100
AcDbVisualStyle
  2
Flat
 70
     0
 71
     2
 72
     1
 73
     1
 90
        2
 40
-0.6
 41
30.0
 62
     5
 63
     7
 74
     0
 91
        0
 64
     7
 65
   257
 75
     1
175
     1
 42
1.0
 92
        8
 66
     7
 43
1.0
 76
     1
 77
     6
 78
     2
 67
     7
 79
     5
170
     0
171
     0
290
     0
174
     0
 93
       13
 44
0.0
173
     0
291
     1
 45
0.0
1001
ACAD
1000
AcDbSavedByObjectVersion
1070
     0
  0
VISUALSTYLE
  5
BFCEE
102
{ACAD_XDICTIONARY
360
BFE74
102
}
102
{ACAD_REACTORS
330
BFCEC
102
}
330
BFCEC
100
AcDbVisualStyle
  2
FlatWithEdges
 70
     1
 71
     2
 72
     1
 73
     1
 90
        2
 40
-0.6
 41
30.0
 62
     5
 63
     7
 74
     1
 91
        0
 64
     7
 65
   257
 75
     1
175
     1
 42
1.0
 92
        0
 66
   257
 43
1.0
 76
     1
 77
     6
 78
     2
 67
     7
 79
     5
170
     0
171
     0
290
     0
174
     0
 93
       13
 44
0.0
173
     0
291
     1
 45
0.0
1001
ACAD
1000
AcDbSavedByObjectVersion
1070
     0
  0
VISUALSTYLE
  5
BFCEF
102
{ACAD_XDICTIONARY
360
BFE76
102
}
102
{ACAD_REACTORS
330
BFCEC
102
}
330
BFCEC
100
AcDbVisualStyle
  2
Gouraud
 70
     2
 71
     2
 72
     2
 73
     1
 90
        2
 40
-0.6
 41
30.0
 62
     5
 63
     7
 74
     0
 91
        0
 64
     7
 65
   257
 75
     1
175
     1
 42
1.0
 92
        0
 66
     7
 43
1.0
 76
     1
 77
     6
 78
     2
 67
     7
 79
     5
170
     0
171
     0
290
     0
174
     0
 93
       13
 44
0.0
173
     0
291
     1
 45
0.0
1001
ACAD
1000
AcDbSavedByObjectVersion
1070
     0
  0
VISUALSTYLE
  5
BFCF0
102
{ACAD_XDICTIONARY
360
BFE78
102
}
102
{ACAD_REACTORS
330
BFCEC
102
}
330
BFCEC
100
AcDbVisualStyle
  2
GouraudWithEdges
 70
     3
 71
     2
 72
     2
 73
     1
 90
        2
 40
-0.6
 41
30.0
 62
     5
 63
     7
 74
     1
 91
        0
 64
     7
 65
   257
 75
     1
175
     1
 42
1.0
 92
        0
 66
   257
 43
1.0
 76
     1
 77
     6
 78
     2
 67
     7
 79
     5
170
     0
171
     0
290
     0
174
     0
 93
       13
 44
0.0
173
     0
291
     1
 45
0.0
1001
ACAD
1000
AcDbSavedByObjectVersion
1070
     0
  0
VISUALSTYLE
  5
BFCF3
102
{ACAD_XDICTIONARY
360
BFE7E
102
}
102
{ACAD_REACTORS
330
BFCEC
102
}
330
BFCEC
100
AcDbVisualStyle
  2
Hidden
 70
     6
 71
     1
 72
     2
 73
     2
 90
        0
 40
-0.6
 41
-30.0
 62
     5
 63
     7
 74
     2
 91
        2
 64
     7
 65
   257
 75
     2
175
     1
 42
40.0
 92
        0
 66
   257
 43
1.0
 76
     1
 77
     6
 78
     2
 67
     7
 79
     3
170
     0
171
     0
290
     0
174
     0
 93
        1
 44
0.0
173
     0
291
     0
 45
0.0
1001
ACAD
1000
AcDbSavedByObjectVersion
1070
     0
  0
VISUALSTYLE
  5
BFCFD
102
{ACAD_XDICTIONARY
360
BFE92
102
}
102
{ACAD_REACTORS
330
BFCEC
102
}
330
BFCEC
100
AcDbVisualStyle
  2
JitterOff
 70
    20
 71
     2
 72
     2
 73
     0
 90
        0
 40
-0.6
 41
-30.0
 62
     5
 63
     7
 74
     1
 91
        4
 64
     7
 65
   257
 75
     1
175
     1
 42
1.0
 92
       10
 66
     7
 43
1.0
 76
     1
 77
     6
 78
     2
 67
     7
 79
     5
170
     0
171
     0
290
     0
174
     0
 93
        1
 44
0.0
173
     0
291
     1
 45
0.0
1001
ACAD
1000
AcDbSavedByObjectVersion
1070
     0
  0
VISUALSTYLE
  5
BFCFA
102
{ACAD_XDICTIONARY
360
BFE8C
102
}
102
{ACAD_REACTORS
330
BFCEC
102
}
330
BFCEC
100
AcDbVisualStyle
  2
Linepattern
 70
    14
 71
     2
 72
     2
 73
     0
 90
        0
 40
-0.6
 41
-30.0
 62
     5
 63
     7
 74
     1
 91
        4
 64
     7
 65
   257
 75
     7
175
     7
 42
1.0
 92
        8
 66
     7
 43
1.0
 76
     1
 77
     6
 78
     2
 67
     7
 79
     5
170
     0
171
     0
290
     0
174
     0
 93
        1
 44
0.0
173
     0
291
     1
 45
0.0
1001
ACAD
1000
AcDbSavedByObjectVersion
1070
     0
  0
VISUALSTYLE
  5
BFCFE
102
{ACAD_XDICTIONARY
360
BFE94
102
}
102
{ACAD_REACTORS
330
BFCEC
102
}
330
BFCEC
100
AcDbVisualStyle
  2
OverhangOff
 70
    21
 71
     2
 72
     2
 73
     0
 90
        0
 40
-0.6
 41
-30.0
 62
     5
 63
     7
 74
     1
 91
        4
 64
     7
 65
   257
 75
     1
175
     1
 42
1.0
 92
        9
 66
     7
 43
1.0
 76
     1
 77
     6
 78
     2
 67
     7
 79
     5
170
     0
171
     0
290
     0
174
     0
 93
        1
 44
0.0
173
     0
291
     1
 45
0.0
1001
ACAD
1000
AcDbSavedByObjectVersion
1070
     0
  0
VISUALSTYLE
  5
BFCF5
102
{ACAD_XDICTIONARY
360
BFE82
102
}
102
{ACAD_REACTORS
330
BFCEC
102
}
330
BFCEC
100
AcDbVisualStyle
  2
Realistic
 70
     8
 71
     2
 72
     2
 73
     0
 90
        2
 40
-0.6
 41
30.0
 62
     5
 63
     7
 74
     0
 91
        0
 64
     7
 65
   257
 75
     1
175
     1
 42
1.0
 92
        8
 66
   257
 43
1.0
 76
     1
 77
     6
 78
     2
 67
     7
 79
     3
170
     0
171
     0
290
     0
174
     0
 93
       13
 44
0.0
173
     0
291
     0
 45
0.0
1001
ACAD
1000
AcDbSavedByObjectVersion
1070
     0
  0
VISUALSTYLE
  5
BFD04
102
{ACAD_XDICTIONARY
360
BFEA0
102
}
102
{ACAD_REACTORS
330
BFCEC
102
}
330
BFCEC
100
AcDbVisualStyle
  2
Shaded
 70
    27
 71
     2
 72
     2
 73
     1
 90
        2
 40
-0.6
 41
30.0
 62
     5
 63
     7
 74
     0
 91
        4
 64
     7
 65
   257
 75
     1
175
     1
 42
1.0
 92
        8
 66
   257
 43
1.0
 76
     1
 77
     6
 78
     2
 67
     8
 79
     3
170
     0
171
     0
290
     0
174
     0
 93
        5
 44
0.0
173
     0
291
     0
 45
0.0
1001
ACAD
1000
AcDbSavedByObjectVersion
1070
     0
  0
VISUALSTYLE
  5
BFD03
102
{ACAD_XDICTIONARY
360
BFE9E
102
}
102
{ACAD_REACTORS
330
BFCEC
102
}
330
BFCEC
100
AcDbVisualStyle
  2
Shaded with edges
 70
    26
 71
     2
 72
     2
 73
     1
 90
        2
 40
-0.6
 41
30.0
 62
     5
 63
     7
 74
     1
 91
        2
 64
     7
 65
   257
 75
     2
175
     1
 42
1.0
 92
        8
 66
   257
 43
1.0
 76
     1
 77
     6
 78
     2
 67
     7
 79
     3
170
     0
171
     0
290
     0
174
     0
 93
        5
 44
0.0
173
     0
291
     0
 45
0.0
1001
ACAD
1000
AcDbSavedByObjectVersion
1070
     0
  0
VISUALSTYLE
  5
BFD00
102
{ACAD_XDICTIONARY
360
BFE98
102
}
102
{ACAD_REACTORS
330
BFCEC
102
}
330
BFCEC
100
AcDbVisualStyle
  2
Shades of Gray
 70
    23
 71
     2
 72
     2
 73
     3
 90
        0
 40
-0.6
 41
-30.0
 62
     5
 63
     7
 74
     2
 91
        2
 64
     7
 65
     7
 75
     1
175
     1
 42
40.0
 92
        8
 66
     7
 43
1.0
 76
     1
 77
     6
 78
     2
 67
     7
 79
     3
170
     0
171
     0
290
     0
174
     0
 93
        1
 44
0.0
173
     0
291
     0
 45
0.0
1001
ACAD
1000
AcDbSavedByObjectVersion
1070
     0
  0
VISUALSTYLE
  5
BFD01
102
{ACAD_XDICTIONARY
360
BFE9A
102
}
102
{ACAD_REACTORS
330
BFCEC
102
}
330
BFCEC
100
AcDbVisualStyle
  2
Sketchy
 70
    24
 71
     1
 72
     2
 73
     2
 90
        0
 40
-0.6
 41
-30.0
 62
     5
 63
     7
 74
     2
 91
        2
 64
     7
 65
     7
 75
     1
175
     1
 42
40.0
 92
       11
 66
     7
 43
1.0
 76
     1
 77
     6
 78
     2
 67
     7
 79
     6
170
     0
171
     0
290
     0
174
     0
 93
        1
 44
0.0
173
     0
291
     0
 45
0.0
1001
ACAD
1000
AcDbSavedByObjectVersion
1070
     0
  0
VISUALSTYLE
  5
BFCF9
102
{ACAD_XDICTIONARY
360
BFE8A
102
}
102
{ACAD_REACTORS
330
BFCEC
102
}
330
BFCEC
100
AcDbVisualStyle
  2
Thicken
 70
    13
 71
     2
 72
     2
 73
     0
 90
        0
 40
-0.6
 41
-30.0
 62
     5
 63
     7
 74
     1
 91
        4
 64
     7
 65
   257
 75
     1
175
     1
 42
1.0
 92
       12
 66
     7
 43
1.0
 76
     1
 77
     6
 78
     2
 67
     7
 79
     5
170
     0
171
     0
290
     0
174
     0
 93
        1
 44
0.0
173
     0
291
     1
 45
0.0
1001
ACAD
1000
AcDbSavedByObjectVersion
1070
     0
  0
VISUALSTYLE
  5
BFCF2
102
{ACAD_XDICTIONARY
360
BFE7C
102
}
102
{ACAD_REACTORS
330
BFCEC
102
}
330
BFCEC
100
AcDbVisualStyle
  2
Wireframe
 70
     5
 71
     0
 72
     2
 73
     0
 90
        0
 40
-0.6
 41
-30.0
 62
     5
 63
     7
 74
     1
 91
        4
 64
     7
 65
   257
 75
     1
175
     1
 42
1.0
 92
        0
 66
   257
 43
1.0
 76
     1
 77
     6
 78
     2
 67
     7
 79
     3
170
     0
171
     0
290
     0
174
     0
 93
        1
 44
0.0
173
     0
291
     0
 45
0.0
1001
ACAD
1000
AcDbSavedByObjectVersion
1070
     0
  0
VISUALSTYLE
  5
BFD02
102
{ACAD_XDICTIONARY
360
BFE9C
102
}
102
{ACAD_REACTORS
330
BFCEC
102
}
330
BFCEC
100
AcDbVisualStyle
  2
X-Ray
 70
    25
 71
     2
 72
     2
 73
     1
 90
        1
 40
0.5
 41
-30.0
 62
     5
 63
     7
 74
     1
 91
        0
 64
     7
 65
   257
 75
     1
175
     1
 42
1.0
 92
        8
 66
     7
 43
1.0
 76
     1
 77
     6
 78
     2
 67
     7
 79
     3
170
     0
171
     0
290
     0
174
     0
 93
       13
 44
0.0
173
     0
291
     0
 45
0.0
1001
ACAD
1000
AcDbSavedByObjectVersion
1070
     0
  0
DICTIONARYVAR
  5
BFD0E
102
{ACAD_REACTORS
330
11AC
102
}
330
11AC
100
DictionaryVariables
280
     0
  1
1:1
  0
DICTIONARYVAR
  5
BFD10
102
{ACAD_REACTORS
330
11AC
102
}
330
11AC
100
DictionaryVariables
280
     0
  1
STANDARD
  0
DICTIONARYVAR
  5
BFD0F
102
{ACAD_REACTORS
330
11AC
102
}
330
11AC
100
DictionaryVariables
280
     0
  1
STANDARD
  0
DICTIONARYVAR
  5
BFE51
102
{ACAD_REACTORS
330
11AC
102
}
330
11AC
100
DictionaryVariables
280
     0
  1
Imperial24
  0
DICTIONARYVAR
  5
BFE52
102
{ACAD_REACTORS
330
11AC
102
}
330
11AC
100
DictionaryVariables
280
     0
  1
Imperial24
  0
DICTIONARYVAR
  5
BFE57
102
{ACAD_REACTORS
330
11AC
102
}
330
11AC
100
DictionaryVariables
280
     0
  1
2
  0
DICTIONARYVAR
  5
11AD
102
{ACAD_REACTORS
330
11AC
102
}
330
11AC
100
DictionaryVariables
280
     0
  1
1
  0
DICTIONARYVAR
  5
BFE56
102
{ACAD_REACTORS
330
11AC
102
}
330
11AC
100
DictionaryVariables
280
     0
  1
1
  0
DICTIONARYVAR
  5
A20AE
102
{ACAD_REACTORS
330
11AC
102
}
330
11AC
100
DictionaryVariables
280
     0
  1
0
  0
DICTIONARYVAR
  5
BFE54
102
{ACAD_REACTORS
330
11AC
102
}
330
11AC
100
DictionaryVariables
280
     0
  1
0
  0
DICTIONARYVAR
  5
BFE55
102
{ACAD_REACTORS
330
11AC
102
}
330
11AC
100
DictionaryVariables
280
     0
  1
0
  0
DICTIONARYVAR
  5
BFE53
102
{ACAD_REACTORS
330
11AC
102
}
330
11AC
100
DictionaryVariables
280
     0
  1
2
  0
DICTIONARYVAR
  5
BFD11
102
{ACAD_REACTORS
330
11AC
102
}
330
11AC
100
DictionaryVariables
280
     0
  1
0
  0
DICTIONARYVAR
  5
AD08
102
{ACAD_REACTORS
330
11AC
102
}
330
11AC
100
DictionaryVariables
280
     0
  1
96
  0
DICTIONARYVAR
  5
BFE61
102
{ACAD_REACTORS
330
11AC
102
}
330
11AC
100
DictionaryVariables
280
     0
  1
2
  0
XRECORD
  5
BFC5D
102
{ACAD_REACTORS
330
BFC5C
102
}
330
BFC5C
100
AcDbXrecord
280
     1
  1
AcLyLayerFilter
 90
        1
300
0
301
NAME=="*0"
  0
XRECORD
  5
BFC5E
102
{ACAD_REACTORS
330
BFC5C
102
}
330
BFC5C
100
AcDbXrecord
280
     1
  1
AcLyLayerFilter
 90
        1
300
4
301
NAME=="*4"
  0
XRECORD
  5
BFC5F
102
{ACAD_REACTORS
330
BFC5C
102
}
330
BFC5C
100
AcDbXrecord
280
     1
  1
AcLyLayerFilter
 90
        1
300
5
301
NAME=="*5"
  0
XRECORD
  5
BFC60
102
{ACAD_REACTORS
330
BFC5C
102
}
330
BFC5C
100
AcDbXrecord
280
     1
  1
AcLyLayerFilter
 90
        1
300
7
301
NAME=="*7"
  0
XRECORD
  5
BFC61
102
{ACAD_REACTORS
330
BFC5C
102
}
330
BFC5C
100
AcDbXrecord
280
     1
  1
AcLyLayerFilter
 90
        1
300
kiseki
301
NAME=="kiseki*"
  0
XRECORD
  5
BFC62
102
{ACAD_REACTORS
330
BFC5C
102
}
330
BFC5C
100
AcDbXrecord
280
     1
  1
AcLyLayerFilter
 90
        1
300
11
301
NAME=="*11"
  0
XRECORD
  5
BFC63
102
{ACAD_REACTORS
330
BFC5C
102
}
330
BFC5C
100
AcDbXrecord
280
     1
  1
AcLyLayerFilter
 90
        1
300
150_
301
NAME=="150_*"
  0
XRECORD
  5
BFC64
102
{ACAD_REACTORS
330
BFC5C
102
}
330
BFC5C
100
AcDbXrecord
280
     1
  1
AcLyLayerFilter
 90
        1
300
160_
301
NAME=="160_*"
  0
XRECORD
  5
BFC65
102
{ACAD_REACTORS
330
BFC5C
102
}
330
BFC5C
100
AcDbXrecord
280
     1
  1
AcLyLayerFilter
 90
        1
300
170_
301
NAME=="170_*"
  0
XRECORD
  5
BFC66
102
{ACAD_REACTORS
330
BFC5C
102
}
330
BFC5C
100
AcDbXrecord
280
     1
  1
AcLyLayerFilter
 90
        1
300
171_
301
NAME=="171_*"
  0
XRECORD
  5
BFC67
102
{ACAD_REACTORS
330
BFC5C
102
}
330
BFC5C
100
AcDbXrecord
280
     1
  1
AcLyLayerFilter
 90
        1
300
350_
301
NAME=="350_*"
  0
DICTIONARY
  5
BFE6B
330
8F584
100
AcDbDictionary
280
     1
281
     1
  3
ACAD_XREC_ROUNDTRIP
360
BFE6C
  0
DICTIONARY
  5
BFE67
330
741
100
AcDbDictionary
280
     1
281
     1
  3
ACAD_XREC_ROUNDTRIP
360
BFE68
  0
DICTIONARY
  5
BFE6D
330
BFB80
100
AcDbDictionary
280
     1
281
     1
  3
ACAD_XREC_ROUNDTRIP
360
BFE6E
  0
DICTIONARY
  5
BFEA4
330
BFD07
100
AcDbDictionary
280
     1
281
     1
  3
ACAD_XREC_ROUNDTRIP
360
BFEA5
  0
DICTIONARY
  5
BFEA2
330
BFD06
100
AcDbDictionary
280
     1
281
     1
  3
ACAD_XREC_ROUNDTRIP
360
BFEA3
  0
DICTIONARY
  5
BFEA6
330
BFD08
100
AcDbDictionary
280
     1
281
     1
  3
ACAD_XREC_ROUNDTRIP
360
BFEA7
  0
DICTIONARY
  5
BFE69
330
8F582
100
AcDbDictionary
280
     1
281
     1
  3
ACAD_XREC_ROUNDTRIP
360
BFE6A
  0
DICTIONARY
  5
BFDFE
330
BFD0A
100
AcDbDictionary
280
     1
281
     1
  3
ACAD_ROUNDTRIP_2008_TABLESTYLE_CELLSTYLEMAP
360
BFE62
  3
ACAD_XREC_ROUNDTRIP
360
BFEA8
  0
DICTIONARY
  5
BFE7A
330
BFCF1
100
AcDbDictionary
280
     1
281
     1
  3
ACAD_XREC_ROUNDTRIP
360
BFE7B
  0
DICTIONARY
  5
BFE80
330
BFCF4
100
AcDbDictionary
280
     1
281
     1
  3
ACAD_XREC_ROUNDTRIP
360
BFE81
  0
DICTIONARY
  5
BFE88
330
BFCF8
100
AcDbDictionary
280
     1
281
     1
  3
ACAD_XREC_ROUNDTRIP
360
BFE89
  0
DICTIONARY
  5
BFE90
330
BFCFC
100
AcDbDictionary
280
     1
281
     1
  3
ACAD_XREC_ROUNDTRIP
360
BFE91
  0
DICTIONARY
  5
BFE84
330
BFCF6
100
AcDbDictionary
280
     1
281
     1
  3
ACAD_XREC_ROUNDTRIP
360
BFE85
  0
DICTIONARY
  5
BFE86
330
BFCF7
100
AcDbDictionary
280
     1
281
     1
  3
ACAD_XREC_ROUNDTRIP
360
BFE87
  0
DICTIONARY
  5
BFE96
330
BFCFF
100
AcDbDictionary
280
     1
281
     1
  3
ACAD_XREC_ROUNDTRIP
360
BFE97
  0
DICTIONARY
  5
BFE8E
330
BFCFB
100
AcDbDictionary
280
     1
281
     1
  3
ACAD_XREC_ROUNDTRIP
360
BFE8F
  0
DICTIONARY
  5
BFE72
330
BFCED
100
AcDbDictionary
280
     1
281
     1
  3
ACAD_XREC_ROUNDTRIP
360
BFE73
  0
DICTIONARY
  5
BFE74
330
BFCEE
100
AcDbDictionary
280
     1
281
     1
  3
ACAD_XREC_ROUNDTRIP
360
BFE75
  0
DICTIONARY
  5
BFE76
330
BFCEF
100
AcDbDictionary
280
     1
281
     1
  3
ACAD_XREC_ROUNDTRIP
360
BFE77
  0
DICTIONARY
  5
BFE78
330
BFCF0
100
AcDbDictionary
280
     1
281
     1
  3
ACAD_XREC_ROUNDTRIP
360
BFE79
  0
DICTIONARY
  5
BFE7E
330
BFCF3
100
AcDbDictionary
280
     1
281
     1
  3
ACAD_XREC_ROUNDTRIP
360
BFE7F
  0
DICTIONARY
  5
BFE92
330
BFCFD
100
AcDbDictionary
280
     1
281
     1
  3
ACAD_XREC_ROUNDTRIP
360
BFE93
  0
DICTIONARY
  5
BFE8C
330
BFCFA
100
AcDbDictionary
280
     1
281
     1
  3
ACAD_XREC_ROUNDTRIP
360
BFE8D
  0
DICTIONARY
  5
BFE94
330
BFCFE
100
AcDbDictionary
280
     1
281
     1
  3
ACAD_XREC_ROUNDTRIP
360
BFE95
  0
DICTIONARY
  5
BFE82
330
BFCF5
100
AcDbDictionary
280
     1
281
     1
  3
ACAD_XREC_ROUNDTRIP
360
BFE83
  0
DICTIONARY
  5
BFEA0
330
BFD04
100
AcDbDictionary
280
     1
281
     1
  3
ACAD_XREC_ROUNDTRIP
360
BFEA1
  0
DICTIONARY
  5
BFE9E
330
BFD03
100
AcDbDictionary
280
     1
281
     1
  3
ACAD_XREC_ROUNDTRIP
360
BFE9F
  0
DICTIONARY
  5
BFE98
330
BFD00
100
AcDbDictionary
280
     1
281
     1
  3
ACAD_XREC_ROUNDTRIP
360
BFE99
  0
DICTIONARY
  5
BFE9A
330
BFD01
100
AcDbDictionary
280
     1
281
     1
  3
ACAD_XREC_ROUNDTRIP
360
BFE9B
  0
DICTIONARY
  5
BFE8A
330
BFCF9
100
AcDbDictionary
280
     1
281
     1
  3
ACAD_XREC_ROUNDTRIP
360
BFE8B
  0
DICTIONARY
  5
BFE7C
330
BFCF2
100
AcDbDictionary
280
     1
281
     1
  3
ACAD_XREC_ROUNDTRIP
360
BFE7D
  0
DICTIONARY
  5
BFE9C
330
BFD02
100
AcDbDictionary
280
     1
281
     1
  3
ACAD_XREC_ROUNDTRIP
360
BFE9D
  0
XRECORD
  5
BFE6C
102
{ACAD_REACTORS
330
BFE6B
102
}
330
BFE6B
100
AcDbXrecord
280
     1
102
DISPLAYNAME
  1
Imperial24
102
FLAGS
 90
        0
  0
XRECORD
  5
BFE68
102
{ACAD_REACTORS
330
BFE67
102
}
330
BFE67
100
AcDbXrecord
280
     1
102
SHADEPLOT
 70
     0
102
SHADEPLOTRESLEVEL
 70
     2
102
SHADEPLOTCUSTOMDPI
 70
   300
  0
XRECORD
  5
BFE6E
102
{ACAD_REACTORS
330
BFE6D
102
}
330
BFE6D
100
AcDbXrecord
280
     1
102
SHADEPLOT
 70
     0
102
SHADEPLOTRESLEVEL
 70
     2
102
SHADEPLOTCUSTOMDPI
 70
   300
  0
XRECORD
  5
BFEA5
102
{ACAD_REACTORS
330
BFEA4
102
}
330
BFEA4
100
AcDbXrecord
280
     1
102
MATERIAL
148
0.0
149
0.0
149
0.0
 93
        0
 94
      127
282
     0
 72
     1
 77
     1
171
     1
175
     1
179
     1
273
     0
  0
XRECORD
  5
BFEA3
102
{ACAD_REACTORS
330
BFEA2
102
}
330
BFEA2
100
AcDbXrecord
280
     1
102
MATERIAL
148
0.0
149
0.0
149
0.0
 93
        0
 94
      127
282
     0
 72
     1
 77
     1
171
     1
175
     1
179
     1
273
     0
  0
XRECORD
  5
BFEA7
102
{ACAD_REACTORS
330
BFEA6
102
}
330
BFEA6
100
AcDbXrecord
280
     1
102
MATERIAL
148
0.0
149
0.0
149
0.0
 93
        0
 94
      127
282
     0
 72
     1
 77
     1
171
     1
175
     1
179
     1
273
     0
  0
XRECORD
  5
BFE6A
102
{ACAD_REACTORS
330
BFE69
102
}
330
BFE69
100
AcDbXrecord
280
     1
102
DISPLAYNAME
  1
Imperial24
102
FLAGS
 90
        0
  0
CELLSTYLEMAP
  5
BFE62
102
{ACAD_REACTORS
330
BFDFE
102
}
330
BFDFE
100
AcDbCellStyleMap
 90
        3
300
CELLSTYLE
  1
TABLEFORMAT_BEGIN
 90
        5
170
     1
 91
        0
 92
    32768
 62
   257
 93
        1
300
CONTENTFORMAT
  1
CONTENTFORMAT_BEGIN
 90
        0
 91
        0
 92
        4
 93
        0
300

 40
0.0
140
1.0
 94
        5
 62
     0
340
F
144
0.25
309
CONTENTFORMAT_END
171
     1
301
MARGIN
  1
CELLMARGIN_BEGIN
 40
0.06
 40
0.06
 40
0.06
 40
0.06
 40
0.06
 40
0.06
309
CELLMARGIN_END
 94
        6
 95
        1
302
GRIDFORMAT
  1
GRIDFORMAT_BEGIN
 90
        0
 91
        1
 62
     0
 92
       -2
340
12
 93
        0
 40
0.045
309
GRIDFORMAT_END
 95
        2
302
GRIDFORMAT
  1
GRIDFORMAT_BEGIN
 90
        0
 91
        1
 62
     0
 92
       -2
340
12
 93
        0
 40
0.045
309
GRIDFORMAT_END
 95
        4
302
GRIDFORMAT
  1
GRIDFORMAT_BEGIN
 90
        0
 91
        1
 62
     0
 92
       -2
340
12
 93
        0
 40
0.045
309
GRIDFORMAT_END
 95
        8
302
GRIDFORMAT
  1
GRIDFORMAT_BEGIN
 90
        0
 91
        1
 62
     0
 92
       -2
340
12
 93
        0
 40
0.045
309
GRIDFORMAT_END
 95
       16
302
GRIDFORMAT
  1
GRIDFORMAT_BEGIN
 90
        0
 91
        1
 62
     0
 92
       -2
340
12
 93
        0
 40
0.045
309
GRIDFORMAT_END
 95
       32
302
GRIDFORMAT
  1
GRIDFORMAT_BEGIN
 90
        0
 91
        1
 62
     0
 92
       -2
340
12
 93
        0
 40
0.045
309
GRIDFORMAT_END
309
TABLEFORMAT_END
  1
CELLSTYLE_BEGIN
 90
        1
 91
        1
300
_TITLE
309
CELLSTYLE_END
300
CELLSTYLE
  1
TABLEFORMAT_BEGIN
 90
        5
170
     1
 91
        0
 92
        0
 62
   257
 93
        1
300
CONTENTFORMAT
  1
CONTENTFORMAT_BEGIN
 90
        0
 91
        0
 92
        4
 93
        0
300

 40
0.0
140
1.0
 94
        5
 62
     0
340
F
144
0.18
309
CONTENTFORMAT_END
171
     1
301
MARGIN
  1
CELLMARGIN_BEGIN
 40
0.06
 40
0.06
 40
0.06
 40
0.06
 40
0.06
 40
0.06
309
CELLMARGIN_END
 94
        6
 95
        1
302
GRIDFORMAT
  1
GRIDFORMAT_BEGIN
 90
        0
 91
        1
 62
     0
 92
       -2
340
12
 93
        0
 40
0.045
309
GRIDFORMAT_END
 95
        2
302
GRIDFORMAT
  1
GRIDFORMAT_BEGIN
 90
        0
 91
        1
 62
     0
 92
       -2
340
12
 93
        0
 40
0.045
309
GRIDFORMAT_END
 95
        4
302
GRIDFORMAT
  1
GRIDFORMAT_BEGIN
 90
        0
 91
        1
 62
     0
 92
       -2
340
12
 93
        0
 40
0.045
309
GRIDFORMAT_END
 95
        8
302
GRIDFORMAT
  1
GRIDFORMAT_BEGIN
 90
        0
 91
        1
 62
     0
 92
       -2
340
12
 93
        0
 40
0.045
309
GRIDFORMAT_END
 95
       16
302
GRIDFORMAT
  1
GRIDFORMAT_BEGIN
 90
        0
 91
        1
 62
     0
 92
       -2
340
12
 93
        0
 40
0.045
309
GRIDFORMAT_END
 95
       32
302
GRIDFORMAT
  1
GRIDFORMAT_BEGIN
 90
        0
 91
        1
 62
     0
 92
       -2
340
12
 93
        0
 40
0.045
309
GRIDFORMAT_END
309
TABLEFORMAT_END
  1
CELLSTYLE_BEGIN
 90
        2
 91
        1
300
_HEADER
309
CELLSTYLE_END
300
CELLSTYLE
  1
TABLEFORMAT_BEGIN
 90
        5
170
     1
 91
        0
 92
        0
 62
   257
 93
        1
300
CONTENTFORMAT
  1
CONTENTFORMAT_BEGIN
 90
        0
 91
        0
 92
        4
 93
        0
300

 40
0.0
140
1.0
 94
        2
 62
     0
340
F
144
0.18
309
CONTENTFORMAT_END
171
     1
301
MARGIN
  1
CELLMARGIN_BEGIN
 40
0.06
 40
0.06
 40
0.06
 40
0.06
 40
0.06
 40
0.06
309
CELLMARGIN_END
 94
        6
 95
        1
302
GRIDFORMAT
  1
GRIDFORMAT_BEGIN
 90
        0
 91
        1
 62
     0
 92
       -2
340
12
 93
        0
 40
0.045
309
GRIDFORMAT_END
 95
        2
302
GRIDFORMAT
  1
GRIDFORMAT_BEGIN
 90
        0
 91
        1
 62
     0
 92
       -2
340
12
 93
        0
 40
0.045
309
GRIDFORMAT_END
 95
        4
302
GRIDFORMAT
  1
GRIDFORMAT_BEGIN
 90
        0
 91
        1
 62
     0
 92
       -2
340
12
 93
        0
 40
0.045
309
GRIDFORMAT_END
 95
        8
302
GRIDFORMAT
  1
GRIDFORMAT_BEGIN
 90
        0
 91
        1
 62
     0
 92
       -2
340
12
 93
        0
 40
0.045
309
GRIDFORMAT_END
 95
       16
302
GRIDFORMAT
  1
GRIDFORMAT_BEGIN
 90
        0
 91
        1
 62
     0
 92
       -2
340
12
 93
        0
 40
0.045
309
GRIDFORMAT_END
 95
       32
302
GRIDFORMAT
  1
GRIDFORMAT_BEGIN
 90
        0
 91
        1
 62
     0
 92
       -2
340
12
 93
        0
 40
0.045
309
GRIDFORMAT_END
309
TABLEFORMAT_END
  1
CELLSTYLE_BEGIN
 90
        3
 91
        2
300
_DATA
309
CELLSTYLE_END
  0
XRECORD
  5
BFEA8
102
{ACAD_REACTORS
330
BFDFE
102
}
330
BFDFE
100
AcDbXrecord
280
     1
102
ACAD_ROUNDTRIP_PRE2007_TABLESTYLE
 90
        4
 91
        0
  1

 92
        4
 93
        0
  2

 94
        4
 95
        0
  3

  0
XRECORD
  5
BFE7B
102
{ACAD_REACTORS
330
BFE7A
102
}
330
BFE7A
100
AcDbXrecord
280
     1
102
RTVSPost2010Prop28
280
     1
102
RTVSPost2010PropOp28
 70
     1
102
RTVSPost2010Prop29
280
     1
102
RTVSPost2010PropOp29
 70
     1
102
RTVSPost2010Prop30
280
     0
102
RTVSPost2010PropOp30
 70
     1
102
RTVSPost2010Prop31
280
     0
102
RTVSPost2010PropOp31
 70
     1
102
RTVSPost2010Prop32
280
     0
102
RTVSPost2010PropOp32
 70
     1
102
RTVSPost2010Prop33
280
     0
102
RTVSPost2010PropOp33
 70
     1
102
RTVSPost2010Prop34
280
     0
102
RTVSPost2010PropOp34
 70
     1
102
RTVSPost2010Prop35
280
     0
102
RTVSPost2010PropOp35
 70
     1
102
RTVSPost2010Prop36
280
     0
102
RTVSPost2010PropOp36
 70
     1
102
RTVSPost2010Prop37
 90
       50
102
RTVSPost2010PropOp37
 70
     1
102
RTVSPost2010Prop38
140
0.0
102
RTVSPost2010PropOp38
 70
     1
102
RTVSPost2010Prop39
140
1.0
102
RTVSPost2010PropOp39
 70
     1
102
RTVSPost2010Prop40
 90
        0
102
RTVSPost2010PropOp40
 70
     1
102
RTVSPost2010Prop41ColorIndex
 90
       18
102
RTVSPost2010Prop41ColorRGB
 90
        0
102
RTVSPost2010PropOp41
 70
     1
102
RTVSPost2010Prop42
 90
       50
102
RTVSPost2010PropOp42
 70
     1
102
RTVSPost2010Prop43
 90
        3
102
RTVSPost2010PropOp43
 70
     1
102
RTVSPost2010Prop44ColorIndex
 90
        5
102
RTVSPost2010Prop44ColorRGB
 90
      255
102
RTVSPost2010PropOp44
 70
     1
102
RTVSPost2010Prop45
280
     0
102
RTVSPost2010PropOp45
 70
     1
102
RTVSPost2010Prop46
 90
       50
102
RTVSPost2010PropOp46
 70
     1
102
RTVSPost2010Prop47
 90
       50
102
RTVSPost2010PropOp47
 70
     1
102
RTVSPost2010Prop48
 90
       50
102
RTVSPost2010PropOp48
 70
     1
102
RTVSPost2010Prop49
280
     0
102
RTVSPost2010PropOp49
 70
     1
102
RTVSPost2010Prop50
 90
       50
102
RTVSPost2010PropOp50
 70
     1
102
RTVSPost2010Prop51ColorIndex
 90
      256
102
RTVSPost2010Prop51ColorRGB
 90
-16777216
102
RTVSPost2010PropOp51
 70
     0
102
RTVSPost2010Prop52
140
1.0
102
RTVSPost2010PropOp52
 70
     0
102
RTVSPost2010Prop53
 90
        2
102
RTVSPost2010PropOp53
 70
     1
102
RTVSPost2010Prop54
  1
strokes_ogs.tif
102
RTVSPost2010PropOp54
 70
     1
102
RTVSPost2010Prop55
280
     0
102
RTVSPost2010PropOp55
 70
     1
102
RTVSPost2010Prop56
140
1.0
102
RTVSPost2010PropOp56
 70
     1
102
RTVSPost2010Prop57
140
1.0
102
RTVSPost2010PropOp57
 70
     1
102
RTVSPropertyOp0
 70
     1
102
RTVSPropertyOp1
 70
     1
102
RTVSPropertyOp2
 70
     1
102
RTVSPropertyOp3
 70
     1
102
RTVSPropertyOp4
 70
     1
102
RTVSPropertyOp5
 70
     1
102
RTVSPropertyOp6
 70
     1
102
RTVSPropertyOp7
 70
     1
102
RTVSPropertyOp8
 70
     1
102
RTVSPropertyOp9
 70
     1
102
RTVSPropertyOp10
 70
     1
102
RTVSPropertyOp11
 70
     1
102
RTVSPropertyOp12
 70
     1
102
RTVSPropertyOp13
 70
     1
102
RTVSPropertyOp14
 70
     1
102
RTVSPropertyOp15
 70
     1
102
RTVSPropertyOp16
 70
     1
102
RTVSPropertyOp17
 70
     1
102
RTVSPropertyOp18
 70
     1
102
RTVSPropertyOp19
 70
     1
102
RTVSPropertyOp20
 70
     1
102
RTVSPropertyOp21
 70
     1
102
RTVSPropertyOp22
 70
     1
102
RTVSPropertyOp23
 70
     1
102
RTVSPropertyOp24
 70
     1
102
RTVSPropertyOp25
 70
     1
102
RTVSPropertyOp26
 70
     1
102
RTVSPropertyOp27
 70
     1
102
RTVSPropertyOp28
 70
     1
102
RTVSPropertyOp29
 70
     1
102
RTVSPropertyOp30
 70
     1
102
RTVSPropertyOp31
 70
     1
102
RTVSPropertyOp32
 70
     1
102
RTVSPropertyOp33
 70
     1
102
RTVSPropertyOp34
 70
     1
102
RTVSPropertyOp35
 70
     1
102
RTVSPropertyOp36
 70
     1
102
RTVSPropertyOp37
 70
     1
102
RTVSPropertyOp38
 70
     1
102
RTVSPropertyOp39
 70
     1
102
RTVSPropertyOp40
 70
     1
102
RTVSPropertyOp41
 70
     1
102
RTVSPropertyOp42
 70
     1
102
RTVSPropertyOp43
 70
     1
102
RTVSPropertyOp44
 70
     1
102
RTVSPropertyOp45
 70
     1
102
RTVSPropertyOp46
 70
     1
102
RTVSPropertyOp47
 70
     1
102
RTVSPropertyOp48
 70
     1
102
RTVSPropertyOp49
 70
     1
102
RTVSPropertyOp50
 70
     1
102
RTVSPropertyOp51
 70
     0
102
RTVSPropertyOp52
 70
     0
102
RTVSPropertyOp53
 70
     1
102
RTVSPropertyOp54
 70
     1
102
RTVSPropertyOp55
 70
     1
102
RTVSPropertyOp56
 70
     1
102
RTVSPropertyOp57
 70
     1
102
RTVSPropertyOp58
 70
     1
102
RTVSPropertyOp59
 70
     1
102
RTVSPropertyOp60
 70
     1
102
RTVSPropertyOp61
 70
     1
102
RTVSPropertyOp62
 70
     1
  0
XRECORD
  5
BFE81
102
{ACAD_REACTORS
330
BFE80
102
}
330
BFE80
100
AcDbXrecord
280
     1
102
RTVSPost2010Prop28
280
     0
102
RTVSPost2010PropOp28
 70
     1
102
RTVSPost2010Prop29
280
     1
102
RTVSPost2010PropOp29
 70
     1
102
RTVSPost2010Prop30
280
     1
102
RTVSPost2010PropOp30
 70
     1
102
RTVSPost2010Prop31
280
     0
102
RTVSPost2010PropOp31
 70
     1
102
RTVSPost2010Prop32
280
     0
102
RTVSPost2010PropOp32
 70
     1
102
RTVSPost2010Prop33
280
     0
102
RTVSPost2010PropOp33
 70
     1
102
RTVSPost2010Prop34
280
     0
102
RTVSPost2010PropOp34
 70
     1
102
RTVSPost2010Prop35
280
     0
102
RTVSPost2010PropOp35
 70
     1
102
RTVSPost2010Prop36
280
     0
102
RTVSPost2010PropOp36
 70
     1
102
RTVSPost2010Prop37
 90
       50
102
RTVSPost2010PropOp37
 70
     1
102
RTVSPost2010Prop38
140
0.0
102
RTVSPost2010PropOp38
 70
     1
102
RTVSPost2010Prop39
140
1.0
102
RTVSPost2010PropOp39
 70
     1
102
RTVSPost2010Prop40
 90
        0
102
RTVSPost2010PropOp40
 70
     1
102
RTVSPost2010Prop41ColorIndex
 90
       18
102
RTVSPost2010Prop41ColorRGB
 90
        0
102
RTVSPost2010PropOp41
 70
     1
102
RTVSPost2010Prop42
 90
       50
102
RTVSPost2010PropOp42
 70
     1
102
RTVSPost2010Prop43
 90
        3
102
RTVSPost2010PropOp43
 70
     1
102
RTVSPost2010Prop44ColorIndex
 90
        5
102
RTVSPost2010Prop44ColorRGB
 90
      255
102
RTVSPost2010PropOp44
 70
     1
102
RTVSPost2010Prop45
280
     0
102
RTVSPost2010PropOp45
 70
     1
102
RTVSPost2010Prop46
 90
       50
102
RTVSPost2010PropOp46
 70
     1
102
RTVSPost2010Prop47
 90
       50
102
RTVSPost2010PropOp47
 70
     1
102
RTVSPost2010Prop48
 90
       50
102
RTVSPost2010PropOp48
 70
     1
102
RTVSPost2010Prop49
280
     0
102
RTVSPost2010PropOp49
 70
     1
102
RTVSPost2010Prop50
 90
       50
102
RTVSPost2010PropOp50
 70
     1
102
RTVSPost2010Prop51ColorIndex
 90
      256
102
RTVSPost2010Prop51ColorRGB
 90
-16777216
102
RTVSPost2010PropOp51
 70
     0
102
RTVSPost2010Prop52
140
1.0
102
RTVSPost2010PropOp52
 70
     0
102
RTVSPost2010Prop53
 90
        2
102
RTVSPost2010PropOp53
 70
     1
102
RTVSPost2010Prop54
  1
strokes_ogs.tif
102
RTVSPost2010PropOp54
 70
     1
102
RTVSPost2010Prop55
280
     0
102
RTVSPost2010PropOp55
 70
     1
102
RTVSPost2010Prop56
140
1.0
102
RTVSPost2010PropOp56
 70
     1
102
RTVSPost2010Prop57
140
1.0
102
RTVSPost2010PropOp57
 70
     1
102
RTVSPropertyOp0
 70
     1
102
RTVSPropertyOp1
 70
     1
102
RTVSPropertyOp2
 70
     1
102
RTVSPropertyOp3
 70
     1
102
RTVSPropertyOp4
 70
     1
102
RTVSPropertyOp5
 70
     1
102
RTVSPropertyOp6
 70
     1
102
RTVSPropertyOp7
 70
     1
102
RTVSPropertyOp8
 70
     1
102
RTVSPropertyOp9
 70
     1
102
RTVSPropertyOp10
 70
     1
102
RTVSPropertyOp11
 70
     1
102
RTVSPropertyOp12
 70
     1
102
RTVSPropertyOp13
 70
     1
102
RTVSPropertyOp14
 70
     1
102
RTVSPropertyOp15
 70
     1
102
RTVSPropertyOp16
 70
     1
102
RTVSPropertyOp17
 70
     1
102
RTVSPropertyOp18
 70
     1
102
RTVSPropertyOp19
 70
     1
102
RTVSPropertyOp20
 70
     1
102
RTVSPropertyOp21
 70
     1
102
RTVSPropertyOp22
 70
     1
102
RTVSPropertyOp23
 70
     1
102
RTVSPropertyOp24
 70
     1
102
RTVSPropertyOp25
 70
     1
102
RTVSPropertyOp26
 70
     1
102
RTVSPropertyOp27
 70
     1
102
RTVSPropertyOp28
 70
     1
102
RTVSPropertyOp29
 70
     1
102
RTVSPropertyOp30
 70
     1
102
RTVSPropertyOp31
 70
     1
102
RTVSPropertyOp32
 70
     1
102
RTVSPropertyOp33
 70
     1
102
RTVSPropertyOp34
 70
     1
102
RTVSPropertyOp35
 70
     1
102
RTVSPropertyOp36
 70
     1
102
RTVSPropertyOp37
 70
     1
102
RTVSPropertyOp38
 70
     1
102
RTVSPropertyOp39
 70
     1
102
RTVSPropertyOp40
 70
     1
102
RTVSPropertyOp41
 70
     1
102
RTVSPropertyOp42
 70
     1
102
RTVSPropertyOp43
 70
     1
102
RTVSPropertyOp44
 70
     1
102
RTVSPropertyOp45
 70
     1
102
RTVSPropertyOp46
 70
     1
102
RTVSPropertyOp47
 70
     1
102
RTVSPropertyOp48
 70
     1
102
RTVSPropertyOp49
 70
     1
102
RTVSPropertyOp50
 70
     1
102
RTVSPropertyOp51
 70
     0
102
RTVSPropertyOp52
 70
     0
102
RTVSPropertyOp53
 70
     1
102
RTVSPropertyOp54
 70
     1
102
RTVSPropertyOp55
 70
     1
102
RTVSPropertyOp56
 70
     1
102
RTVSPropertyOp57
 70
     1
102
RTVSPropertyOp58
 70
     1
102
RTVSPropertyOp59
 70
     1
102
RTVSPropertyOp60
 70
     1
102
RTVSPropertyOp61
 70
     1
102
RTVSPropertyOp62
 70
     1
  0
XRECORD
  5
BFE89
102
{ACAD_REACTORS
330
BFE88
102
}
330
BFE88
100
AcDbXrecord
280
     1
102
RTVSPost2010Prop28
280
     0
102
RTVSPost2010PropOp28
 70
     1
102
RTVSPost2010Prop29
280
     1
102
RTVSPost2010PropOp29
 70
     1
102
RTVSPost2010Prop30
280
     1
102
RTVSPost2010PropOp30
 70
     1
102
RTVSPost2010Prop31
280
     0
102
RTVSPost2010PropOp31
 70
     1
102
RTVSPost2010Prop32
280
     0
102
RTVSPost2010PropOp32
 70
     1
102
RTVSPost2010Prop33
280
     0
102
RTVSPost2010PropOp33
 70
     1
102
RTVSPost2010Prop34
280
     0
102
RTVSPost2010PropOp34
 70
     1
102
RTVSPost2010Prop35
280
     0
102
RTVSPost2010PropOp35
 70
     1
102
RTVSPost2010Prop36
280
     0
102
RTVSPost2010PropOp36
 70
     1
102
RTVSPost2010Prop37
 90
       50
102
RTVSPost2010PropOp37
 70
     1
102
RTVSPost2010Prop38
140
0.0
102
RTVSPost2010PropOp38
 70
     1
102
RTVSPost2010Prop39
140
1.0
102
RTVSPost2010PropOp39
 70
     1
102
RTVSPost2010Prop40
 90
        0
102
RTVSPost2010PropOp40
 70
     1
102
RTVSPost2010Prop41ColorIndex
 90
       18
102
RTVSPost2010Prop41ColorRGB
 90
        0
102
RTVSPost2010PropOp41
 70
     1
102
RTVSPost2010Prop42
 90
       50
102
RTVSPost2010PropOp42
 70
     1
102
RTVSPost2010Prop43
 90
        3
102
RTVSPost2010PropOp43
 70
     1
102
RTVSPost2010Prop44ColorIndex
 90
        5
102
RTVSPost2010Prop44ColorRGB
 90
      255
102
RTVSPost2010PropOp44
 70
     1
102
RTVSPost2010Prop45
280
     0
102
RTVSPost2010PropOp45
 70
     1
102
RTVSPost2010Prop46
 90
       50
102
RTVSPost2010PropOp46
 70
     1
102
RTVSPost2010Prop47
 90
       50
102
RTVSPost2010PropOp47
 70
     1
102
RTVSPost2010Prop48
 90
       50
102
RTVSPost2010PropOp48
 70
     1
102
RTVSPost2010Prop49
280
     0
102
RTVSPost2010PropOp49
 70
     1
102
RTVSPost2010Prop50
 90
       50
102
RTVSPost2010PropOp50
 70
     1
102
RTVSPost2010Prop51ColorIndex
 90
      256
102
RTVSPost2010Prop51ColorRGB
 90
-16777216
102
RTVSPost2010PropOp51
 70
     0
102
RTVSPost2010Prop52
140
1.0
102
RTVSPost2010PropOp52
 70
     0
102
RTVSPost2010Prop53
 90
        2
102
RTVSPost2010PropOp53
 70
     1
102
RTVSPost2010Prop54
  1
strokes_ogs.tif
102
RTVSPost2010PropOp54
 70
     1
102
RTVSPost2010Prop55
280
     0
102
RTVSPost2010PropOp55
 70
     1
102
RTVSPost2010Prop56
140
1.0
102
RTVSPost2010PropOp56
 70
     1
102
RTVSPost2010Prop57
140
1.0
102
RTVSPost2010PropOp57
 70
     1
102
RTVSPropertyOp0
 70
     1
102
RTVSPropertyOp1
 70
     1
102
RTVSPropertyOp2
 70
     1
102
RTVSPropertyOp3
 70
     1
102
RTVSPropertyOp4
 70
     1
102
RTVSPropertyOp5
 70
     1
102
RTVSPropertyOp6
 70
     1
102
RTVSPropertyOp7
 70
     1
102
RTVSPropertyOp8
 70
     1
102
RTVSPropertyOp9
 70
     1
102
RTVSPropertyOp10
 70
     1
102
RTVSPropertyOp11
 70
     1
102
RTVSPropertyOp12
 70
     1
102
RTVSPropertyOp13
 70
     1
102
RTVSPropertyOp14
 70
     1
102
RTVSPropertyOp15
 70
     1
102
RTVSPropertyOp16
 70
     1
102
RTVSPropertyOp17
 70
     1
102
RTVSPropertyOp18
 70
     1
102
RTVSPropertyOp19
 70
     1
102
RTVSPropertyOp20
 70
     1
102
RTVSPropertyOp21
 70
     1
102
RTVSPropertyOp22
 70
     1
102
RTVSPropertyOp23
 70
     1
102
RTVSPropertyOp24
 70
     1
102
RTVSPropertyOp25
 70
     1
102
RTVSPropertyOp26
 70
     1
102
RTVSPropertyOp27
 70
     1
102
RTVSPropertyOp28
 70
     1
102
RTVSPropertyOp29
 70
     1
102
RTVSPropertyOp30
 70
     1
102
RTVSPropertyOp31
 70
     1
102
RTVSPropertyOp32
 70
     1
102
RTVSPropertyOp33
 70
     1
102
RTVSPropertyOp34
 70
     1
102
RTVSPropertyOp35
 70
     1
102
RTVSPropertyOp36
 70
     1
102
RTVSPropertyOp37
 70
     1
102
RTVSPropertyOp38
 70
     1
102
RTVSPropertyOp39
 70
     1
102
RTVSPropertyOp40
 70
     1
102
RTVSPropertyOp41
 70
     1
102
RTVSPropertyOp42
 70
     1
102
RTVSPropertyOp43
 70
     1
102
RTVSPropertyOp44
 70
     1
102
RTVSPropertyOp45
 70
     1
102
RTVSPropertyOp46
 70
     1
102
RTVSPropertyOp47
 70
     1
102
RTVSPropertyOp48
 70
     1
102
RTVSPropertyOp49
 70
     1
102
RTVSPropertyOp50
 70
     1
102
RTVSPropertyOp51
 70
     0
102
RTVSPropertyOp52
 70
     0
102
RTVSPropertyOp53
 70
     1
102
RTVSPropertyOp54
 70
     1
102
RTVSPropertyOp55
 70
     1
102
RTVSPropertyOp56
 70
     1
102
RTVSPropertyOp57
 70
     1
102
RTVSPropertyOp58
 70
     1
102
RTVSPropertyOp59
 70
     1
102
RTVSPropertyOp60
 70
     1
102
RTVSPropertyOp61
 70
     1
102
RTVSPropertyOp62
 70
     1
  0
XRECORD
  5
BFE91
102
{ACAD_REACTORS
330
BFE90
102
}
330
BFE90
100
AcDbXrecord
280
     1
102
RTVSPost2010Prop28
280
     0
102
RTVSPost2010PropOp28
 70
     1
102
RTVSPost2010Prop29
280
     1
102
RTVSPost2010PropOp29
 70
     1
102
RTVSPost2010Prop30
280
     1
102
RTVSPost2010PropOp30
 70
     1
102
RTVSPost2010Prop31
280
     0
102
RTVSPost2010PropOp31
 70
     1
102
RTVSPost2010Prop32
280
     0
102
RTVSPost2010PropOp32
 70
     1
102
RTVSPost2010Prop33
280
     0
102
RTVSPost2010PropOp33
 70
     1
102
RTVSPost2010Prop34
280
     0
102
RTVSPost2010PropOp34
 70
     1
102
RTVSPost2010Prop35
280
     0
102
RTVSPost2010PropOp35
 70
     1
102
RTVSPost2010Prop36
280
     0
102
RTVSPost2010PropOp36
 70
     1
102
RTVSPost2010Prop37
 90
       50
102
RTVSPost2010PropOp37
 70
     1
102
RTVSPost2010Prop38
140
0.0
102
RTVSPost2010PropOp38
 70
     1
102
RTVSPost2010Prop39
140
1.0
102
RTVSPost2010PropOp39
 70
     1
102
RTVSPost2010Prop40
 90
        0
102
RTVSPost2010PropOp40
 70
     1
102
RTVSPost2010Prop41ColorIndex
 90
       18
102
RTVSPost2010Prop41ColorRGB
 90
        0
102
RTVSPost2010PropOp41
 70
     1
102
RTVSPost2010Prop42
 90
       50
102
RTVSPost2010PropOp42
 70
     1
102
RTVSPost2010Prop43
 90
        3
102
RTVSPost2010PropOp43
 70
     1
102
RTVSPost2010Prop44ColorIndex
 90
        5
102
RTVSPost2010Prop44ColorRGB
 90
      255
102
RTVSPost2010PropOp44
 70
     1
102
RTVSPost2010Prop45
280
     0
102
RTVSPost2010PropOp45
 70
     1
102
RTVSPost2010Prop46
 90
       50
102
RTVSPost2010PropOp46
 70
     1
102
RTVSPost2010Prop47
 90
       50
102
RTVSPost2010PropOp47
 70
     1
102
RTVSPost2010Prop48
 90
       50
102
RTVSPost2010PropOp48
 70
     1
102
RTVSPost2010Prop49
280
     0
102
RTVSPost2010PropOp49
 70
     1
102
RTVSPost2010Prop50
 90
       50
102
RTVSPost2010PropOp50
 70
     1
102
RTVSPost2010Prop51ColorIndex
 90
      256
102
RTVSPost2010Prop51ColorRGB
 90
-16777216
102
RTVSPost2010PropOp51
 70
     0
102
RTVSPost2010Prop52
140
1.0
102
RTVSPost2010PropOp52
 70
     0
102
RTVSPost2010Prop53
 90
        2
102
RTVSPost2010PropOp53
 70
     1
102
RTVSPost2010Prop54
  1
strokes_ogs.tif
102
RTVSPost2010PropOp54
 70
     1
102
RTVSPost2010Prop55
280
     0
102
RTVSPost2010PropOp55
 70
     1
102
RTVSPost2010Prop56
140
1.0
102
RTVSPost2010PropOp56
 70
     1
102
RTVSPost2010Prop57
140
1.0
102
RTVSPost2010PropOp57
 70
     1
102
RTVSPropertyOp0
 70
     1
102
RTVSPropertyOp1
 70
     1
102
RTVSPropertyOp2
 70
     1
102
RTVSPropertyOp3
 70
     1
102
RTVSPropertyOp4
 70
     1
102
RTVSPropertyOp5
 70
     1
102
RTVSPropertyOp6
 70
     1
102
RTVSPropertyOp7
 70
     1
102
RTVSPropertyOp8
 70
     1
102
RTVSPropertyOp9
 70
     1
102
RTVSPropertyOp10
 70
     1
102
RTVSPropertyOp11
 70
     1
102
RTVSPropertyOp12
 70
     1
102
RTVSPropertyOp13
 70
     1
102
RTVSPropertyOp14
 70
     1
102
RTVSPropertyOp15
 70
     1
102
RTVSPropertyOp16
 70
     1
102
RTVSPropertyOp17
 70
     1
102
RTVSPropertyOp18
 70
     1
102
RTVSPropertyOp19
 70
     1
102
RTVSPropertyOp20
 70
     1
102
RTVSPropertyOp21
 70
     1
102
RTVSPropertyOp22
 70
     1
102
RTVSPropertyOp23
 70
     1
102
RTVSPropertyOp24
 70
     1
102
RTVSPropertyOp25
 70
     1
102
RTVSPropertyOp26
 70
     1
102
RTVSPropertyOp27
 70
     1
102
RTVSPropertyOp28
 70
     1
102
RTVSPropertyOp29
 70
     1
102
RTVSPropertyOp30
 70
     1
102
RTVSPropertyOp31
 70
     1
102
RTVSPropertyOp32
 70
     1
102
RTVSPropertyOp33
 70
     1
102
RTVSPropertyOp34
 70
     1
102
RTVSPropertyOp35
 70
     1
102
RTVSPropertyOp36
 70
     1
102
RTVSPropertyOp37
 70
     1
102
RTVSPropertyOp38
 70
     1
102
RTVSPropertyOp39
 70
     1
102
RTVSPropertyOp40
 70
     1
102
RTVSPropertyOp41
 70
     1
102
RTVSPropertyOp42
 70
     1
102
RTVSPropertyOp43
 70
     1
102
RTVSPropertyOp44
 70
     1
102
RTVSPropertyOp45
 70
     1
102
RTVSPropertyOp46
 70
     1
102
RTVSPropertyOp47
 70
     1
102
RTVSPropertyOp48
 70
     1
102
RTVSPropertyOp49
 70
     1
102
RTVSPropertyOp50
 70
     1
102
RTVSPropertyOp51
 70
     0
102
RTVSPropertyOp52
 70
     0
102
RTVSPropertyOp53
 70
     1
102
RTVSPropertyOp54
 70
     1
102
RTVSPropertyOp55
 70
     1
102
RTVSPropertyOp56
 70
     1
102
RTVSPropertyOp57
 70
     1
102
RTVSPropertyOp58
 70
     1
102
RTVSPropertyOp59
 70
     1
102
RTVSPropertyOp60
 70
     1
102
RTVSPropertyOp61
 70
     1
102
RTVSPropertyOp62
 70
     1
  0
XRECORD
  5
BFE85
102
{ACAD_REACTORS
330
BFE84
102
}
330
BFE84
100
AcDbXrecord
280
     1
102
RTVSPost2010Prop28
280
     0
102
RTVSPost2010PropOp28
 70
     1
102
RTVSPost2010Prop29
280
     1
102
RTVSPost2010PropOp29
 70
     1
102
RTVSPost2010Prop30
280
     1
102
RTVSPost2010PropOp30
 70
     1
102
RTVSPost2010Prop31
280
     0
102
RTVSPost2010PropOp31
 70
     1
102
RTVSPost2010Prop32
280
     0
102
RTVSPost2010PropOp32
 70
     1
102
RTVSPost2010Prop33
280
     0
102
RTVSPost2010PropOp33
 70
     1
102
RTVSPost2010Prop34
280
     0
102
RTVSPost2010PropOp34
 70
     1
102
RTVSPost2010Prop35
280
     0
102
RTVSPost2010PropOp35
 70
     1
102
RTVSPost2010Prop36
280
     0
102
RTVSPost2010PropOp36
 70
     1
102
RTVSPost2010Prop37
 90
       50
102
RTVSPost2010PropOp37
 70
     1
102
RTVSPost2010Prop38
140
0.0
102
RTVSPost2010PropOp38
 70
     1
102
RTVSPost2010Prop39
140
1.0
102
RTVSPost2010PropOp39
 70
     1
102
RTVSPost2010Prop40
 90
        0
102
RTVSPost2010PropOp40
 70
     1
102
RTVSPost2010Prop41ColorIndex
 90
       18
102
RTVSPost2010Prop41ColorRGB
 90
        0
102
RTVSPost2010PropOp41
 70
     1
102
RTVSPost2010Prop42
 90
       50
102
RTVSPost2010PropOp42
 70
     1
102
RTVSPost2010Prop43
 90
        3
102
RTVSPost2010PropOp43
 70
     1
102
RTVSPost2010Prop44ColorIndex
 90
        5
102
RTVSPost2010Prop44ColorRGB
 90
      255
102
RTVSPost2010PropOp44
 70
     1
102
RTVSPost2010Prop45
280
     0
102
RTVSPost2010PropOp45
 70
     1
102
RTVSPost2010Prop46
 90
       50
102
RTVSPost2010PropOp46
 70
     1
102
RTVSPost2010Prop47
 90
       50
102
RTVSPost2010PropOp47
 70
     1
102
RTVSPost2010Prop48
 90
       50
102
RTVSPost2010PropOp48
 70
     1
102
RTVSPost2010Prop49
280
     0
102
RTVSPost2010PropOp49
 70
     1
102
RTVSPost2010Prop50
 90
       50
102
RTVSPost2010PropOp50
 70
     1
102
RTVSPost2010Prop51ColorIndex
 90
      256
102
RTVSPost2010Prop51ColorRGB
 90
-16777216
102
RTVSPost2010PropOp51
 70
     0
102
RTVSPost2010Prop52
140
1.0
102
RTVSPost2010PropOp52
 70
     0
102
RTVSPost2010Prop53
 90
        2
102
RTVSPost2010PropOp53
 70
     1
102
RTVSPost2010Prop54
  1
strokes_ogs.tif
102
RTVSPost2010PropOp54
 70
     1
102
RTVSPost2010Prop55
280
     0
102
RTVSPost2010PropOp55
 70
     1
102
RTVSPost2010Prop56
140
1.0
102
RTVSPost2010PropOp56
 70
     1
102
RTVSPost2010Prop57
140
1.0
102
RTVSPost2010PropOp57
 70
     1
102
RTVSPropertyOp0
 70
     1
102
RTVSPropertyOp1
 70
     1
102
RTVSPropertyOp2
 70
     1
102
RTVSPropertyOp3
 70
     1
102
RTVSPropertyOp4
 70
     1
102
RTVSPropertyOp5
 70
     1
102
RTVSPropertyOp6
 70
     1
102
RTVSPropertyOp7
 70
     1
102
RTVSPropertyOp8
 70
     1
102
RTVSPropertyOp9
 70
     1
102
RTVSPropertyOp10
 70
     1
102
RTVSPropertyOp11
 70
     1
102
RTVSPropertyOp12
 70
     1
102
RTVSPropertyOp13
 70
     1
102
RTVSPropertyOp14
 70
     1
102
RTVSPropertyOp15
 70
     1
102
RTVSPropertyOp16
 70
     1
102
RTVSPropertyOp17
 70
     1
102
RTVSPropertyOp18
 70
     1
102
RTVSPropertyOp19
 70
     1
102
RTVSPropertyOp20
 70
     1
102
RTVSPropertyOp21
 70
     1
102
RTVSPropertyOp22
 70
     1
102
RTVSPropertyOp23
 70
     1
102
RTVSPropertyOp24
 70
     1
102
RTVSPropertyOp25
 70
     1
102
RTVSPropertyOp26
 70
     1
102
RTVSPropertyOp27
 70
     1
102
RTVSPropertyOp28
 70
     1
102
RTVSPropertyOp29
 70
     1
102
RTVSPropertyOp30
 70
     1
102
RTVSPropertyOp31
 70
     1
102
RTVSPropertyOp32
 70
     1
102
RTVSPropertyOp33
 70
     1
102
RTVSPropertyOp34
 70
     1
102
RTVSPropertyOp35
 70
     1
102
RTVSPropertyOp36
 70
     1
102
RTVSPropertyOp37
 70
     1
102
RTVSPropertyOp38
 70
     1
102
RTVSPropertyOp39
 70
     1
102
RTVSPropertyOp40
 70
     1
102
RTVSPropertyOp41
 70
     1
102
RTVSPropertyOp42
 70
     1
102
RTVSPropertyOp43
 70
     1
102
RTVSPropertyOp44
 70
     1
102
RTVSPropertyOp45
 70
     1
102
RTVSPropertyOp46
 70
     1
102
RTVSPropertyOp47
 70
     1
102
RTVSPropertyOp48
 70
     1
102
RTVSPropertyOp49
 70
     1
102
RTVSPropertyOp50
 70
     1
102
RTVSPropertyOp51
 70
     0
102
RTVSPropertyOp52
 70
     0
102
RTVSPropertyOp53
 70
     1
102
RTVSPropertyOp54
 70
     1
102
RTVSPropertyOp55
 70
     1
102
RTVSPropertyOp56
 70
     1
102
RTVSPropertyOp57
 70
     1
102
RTVSPropertyOp58
 70
     1
102
RTVSPropertyOp59
 70
     1
102
RTVSPropertyOp60
 70
     1
102
RTVSPropertyOp61
 70
     1
102
RTVSPropertyOp62
 70
     1
  0
XRECORD
  5
BFE87
102
{ACAD_REACTORS
330
BFE86
102
}
330
BFE86
100
AcDbXrecord
280
     1
102
RTVSPost2010Prop28
280
     0
102
RTVSPost2010PropOp28
 70
     1
102
RTVSPost2010Prop29
280
     1
102
RTVSPost2010PropOp29
 70
     1
102
RTVSPost2010Prop30
280
     1
102
RTVSPost2010PropOp30
 70
     1
102
RTVSPost2010Prop31
280
     0
102
RTVSPost2010PropOp31
 70
     1
102
RTVSPost2010Prop32
280
     0
102
RTVSPost2010PropOp32
 70
     1
102
RTVSPost2010Prop33
280
     0
102
RTVSPost2010PropOp33
 70
     1
102
RTVSPost2010Prop34
280
     0
102
RTVSPost2010PropOp34
 70
     1
102
RTVSPost2010Prop35
280
     0
102
RTVSPost2010PropOp35
 70
     1
102
RTVSPost2010Prop36
280
     0
102
RTVSPost2010PropOp36
 70
     1
102
RTVSPost2010Prop37
 90
       50
102
RTVSPost2010PropOp37
 70
     1
102
RTVSPost2010Prop38
140
0.0
102
RTVSPost2010PropOp38
 70
     1
102
RTVSPost2010Prop39
140
1.0
102
RTVSPost2010PropOp39
 70
     1
102
RTVSPost2010Prop40
 90
        0
102
RTVSPost2010PropOp40
 70
     1
102
RTVSPost2010Prop41ColorIndex
 90
       18
102
RTVSPost2010Prop41ColorRGB
 90
        0
102
RTVSPost2010PropOp41
 70
     1
102
RTVSPost2010Prop42
 90
       50
102
RTVSPost2010PropOp42
 70
     1
102
RTVSPost2010Prop43
 90
        3
102
RTVSPost2010PropOp43
 70
     1
102
RTVSPost2010Prop44ColorIndex
 90
        5
102
RTVSPost2010Prop44ColorRGB
 90
      255
102
RTVSPost2010PropOp44
 70
     1
102
RTVSPost2010Prop45
280
     0
102
RTVSPost2010PropOp45
 70
     1
102
RTVSPost2010Prop46
 90
       50
102
RTVSPost2010PropOp46
 70
     1
102
RTVSPost2010Prop47
 90
       50
102
RTVSPost2010PropOp47
 70
     1
102
RTVSPost2010Prop48
 90
       50
102
RTVSPost2010PropOp48
 70
     1
102
RTVSPost2010Prop49
280
     0
102
RTVSPost2010PropOp49
 70
     1
102
RTVSPost2010Prop50
 90
       50
102
RTVSPost2010PropOp50
 70
     1
102
RTVSPost2010Prop51ColorIndex
 90
      256
102
RTVSPost2010Prop51ColorRGB
 90
-16777216
102
RTVSPost2010PropOp51
 70
     0
102
RTVSPost2010Prop52
140
1.0
102
RTVSPost2010PropOp52
 70
     0
102
RTVSPost2010Prop53
 90
        2
102
RTVSPost2010PropOp53
 70
     1
102
RTVSPost2010Prop54
  1
strokes_ogs.tif
102
RTVSPost2010PropOp54
 70
     1
102
RTVSPost2010Prop55
280
     0
102
RTVSPost2010PropOp55
 70
     1
102
RTVSPost2010Prop56
140
1.0
102
RTVSPost2010PropOp56
 70
     1
102
RTVSPost2010Prop57
140
1.0
102
RTVSPost2010PropOp57
 70
     1
102
RTVSPropertyOp0
 70
     1
102
RTVSPropertyOp1
 70
     1
102
RTVSPropertyOp2
 70
     1
102
RTVSPropertyOp3
 70
     1
102
RTVSPropertyOp4
 70
     1
102
RTVSPropertyOp5
 70
     1
102
RTVSPropertyOp6
 70
     1
102
RTVSPropertyOp7
 70
     1
102
RTVSPropertyOp8
 70
     1
102
RTVSPropertyOp9
 70
     1
102
RTVSPropertyOp10
 70
     1
102
RTVSPropertyOp11
 70
     1
102
RTVSPropertyOp12
 70
     1
102
RTVSPropertyOp13
 70
     1
102
RTVSPropertyOp14
 70
     1
102
RTVSPropertyOp15
 70
     1
102
RTVSPropertyOp16
 70
     1
102
RTVSPropertyOp17
 70
     1
102
RTVSPropertyOp18
 70
     1
102
RTVSPropertyOp19
 70
     1
102
RTVSPropertyOp20
 70
     1
102
RTVSPropertyOp21
 70
     1
102
RTVSPropertyOp22
 70
     1
102
RTVSPropertyOp23
 70
     1
102
RTVSPropertyOp24
 70
     1
102
RTVSPropertyOp25
 70
     1
102
RTVSPropertyOp26
 70
     1
102
RTVSPropertyOp27
 70
     1
102
RTVSPropertyOp28
 70
     1
102
RTVSPropertyOp29
 70
     1
102
RTVSPropertyOp30
 70
     1
102
RTVSPropertyOp31
 70
     1
102
RTVSPropertyOp32
 70
     1
102
RTVSPropertyOp33
 70
     1
102
RTVSPropertyOp34
 70
     1
102
RTVSPropertyOp35
 70
     1
102
RTVSPropertyOp36
 70
     1
102
RTVSPropertyOp37
 70
     1
102
RTVSPropertyOp38
 70
     1
102
RTVSPropertyOp39
 70
     1
102
RTVSPropertyOp40
 70
     1
102
RTVSPropertyOp41
 70
     1
102
RTVSPropertyOp42
 70
     1
102
RTVSPropertyOp43
 70
     1
102
RTVSPropertyOp44
 70
     1
102
RTVSPropertyOp45
 70
     1
102
RTVSPropertyOp46
 70
     1
102
RTVSPropertyOp47
 70
     1
102
RTVSPropertyOp48
 70
     1
102
RTVSPropertyOp49
 70
     1
102
RTVSPropertyOp50
 70
     1
102
RTVSPropertyOp51
 70
     0
102
RTVSPropertyOp52
 70
     0
102
RTVSPropertyOp53
 70
     1
102
RTVSPropertyOp54
 70
     1
102
RTVSPropertyOp55
 70
     1
102
RTVSPropertyOp56
 70
     1
102
RTVSPropertyOp57
 70
     1
102
RTVSPropertyOp58
 70
     1
102
RTVSPropertyOp59
 70
     1
102
RTVSPropertyOp60
 70
     1
102
RTVSPropertyOp61
 70
     1
102
RTVSPropertyOp62
 70
     1
  0
XRECORD
  5
BFE97
102
{ACAD_REACTORS
330
BFE96
102
}
330
BFE96
100
AcDbXrecord
280
     1
102
RTVSPost2010Prop28
280
     0
102
RTVSPost2010PropOp28
 70
     0
102
RTVSPost2010Prop29
280
     1
102
RTVSPost2010PropOp29
 70
     0
102
RTVSPost2010Prop30
280
     1
102
RTVSPost2010PropOp30
 70
     0
102
RTVSPost2010Prop31
280
     0
102
RTVSPost2010PropOp31
 70
     0
102
RTVSPost2010Prop32
280
     0
102
RTVSPost2010PropOp32
 70
     0
102
RTVSPost2010Prop33
280
     0
102
RTVSPost2010PropOp33
 70
     0
102
RTVSPost2010Prop34
280
     0
102
RTVSPost2010PropOp34
 70
     0
102
RTVSPost2010Prop35
280
     0
102
RTVSPost2010PropOp35
 70
     0
102
RTVSPost2010Prop36
280
     0
102
RTVSPost2010PropOp36
 70
     0
102
RTVSPost2010Prop37
 90
       50
102
RTVSPost2010PropOp37
 70
     0
102
RTVSPost2010Prop38
140
0.0
102
RTVSPost2010PropOp38
 70
     0
102
RTVSPost2010Prop39
140
1.0
102
RTVSPost2010PropOp39
 70
     0
102
RTVSPost2010Prop40
 90
        0
102
RTVSPost2010PropOp40
 70
     0
102
RTVSPost2010Prop41ColorIndex
 90
       18
102
RTVSPost2010Prop41ColorRGB
 90
        0
102
RTVSPost2010PropOp41
 70
     0
102
RTVSPost2010Prop42
 90
       50
102
RTVSPost2010PropOp42
 70
     0
102
RTVSPost2010Prop43
 90
        3
102
RTVSPost2010PropOp43
 70
     0
102
RTVSPost2010Prop44ColorIndex
 90
        5
102
RTVSPost2010Prop44ColorRGB
 90
      255
102
RTVSPost2010PropOp44
 70
     0
102
RTVSPost2010Prop45
280
     0
102
RTVSPost2010PropOp45
 70
     0
102
RTVSPost2010Prop46
 90
       50
102
RTVSPost2010PropOp46
 70
     0
102
RTVSPost2010Prop47
 90
       50
102
RTVSPost2010PropOp47
 70
     0
102
RTVSPost2010Prop48
 90
       50
102
RTVSPost2010PropOp48
 70
     0
102
RTVSPost2010Prop49
280
     0
102
RTVSPost2010PropOp49
 70
     0
102
RTVSPost2010Prop50
 90
       50
102
RTVSPost2010PropOp50
 70
     0
102
RTVSPost2010Prop51ColorIndex
 90
      256
102
RTVSPost2010Prop51ColorRGB
 90
-16777216
102
RTVSPost2010PropOp51
 70
     0
102
RTVSPost2010Prop52
140
1.0
102
RTVSPost2010PropOp52
 70
     0
102
RTVSPost2010Prop53
 90
        2
102
RTVSPost2010PropOp53
 70
     0
102
RTVSPost2010Prop54
  1
strokes_ogs.tif
102
RTVSPost2010PropOp54
 70
     0
102
RTVSPost2010Prop55
280
     0
102
RTVSPost2010PropOp55
 70
     0
102
RTVSPost2010Prop56
140
1.0
102
RTVSPost2010PropOp56
 70
     0
102
RTVSPost2010Prop57
140
1.0
102
RTVSPost2010PropOp57
 70
     0
102
RTVSPropertyOp0
 70
     0
102
RTVSPropertyOp1
 70
     0
102
RTVSPropertyOp2
 70
     0
102
RTVSPropertyOp3
 70
     0
102
RTVSPropertyOp4
 70
     0
102
RTVSPropertyOp5
 70
     0
102
RTVSPropertyOp6
 70
     0
102
RTVSPropertyOp7
 70
     0
102
RTVSPropertyOp8
 70
     0
102
RTVSPropertyOp9
 70
     0
102
RTVSPropertyOp10
 70
     0
102
RTVSPropertyOp11
 70
     0
102
RTVSPropertyOp12
 70
     0
102
RTVSPropertyOp13
 70
     0
102
RTVSPropertyOp14
 70
     2
102
RTVSPropertyOp15
 70
     0
102
RTVSPropertyOp16
 70
     0
102
RTVSPropertyOp17
 70
     0
102
RTVSPropertyOp18
 70
     0
102
RTVSPropertyOp19
 70
     0
102
RTVSPropertyOp20
 70
     0
102
RTVSPropertyOp21
 70
     0
102
RTVSPropertyOp22
 70
     0
102
RTVSPropertyOp23
 70
     0
102
RTVSPropertyOp24
 70
     0
102
RTVSPropertyOp25
 70
     0
102
RTVSPropertyOp26
 70
     0
102
RTVSPropertyOp27
 70
     0
102
RTVSPropertyOp28
 70
     0
102
RTVSPropertyOp29
 70
     0
102
RTVSPropertyOp30
 70
     0
102
RTVSPropertyOp31
 70
     0
102
RTVSPropertyOp32
 70
     0
102
RTVSPropertyOp33
 70
     0
102
RTVSPropertyOp34
 70
     0
102
RTVSPropertyOp35
 70
     0
102
RTVSPropertyOp36
 70
     0
102
RTVSPropertyOp37
 70
     0
102
RTVSPropertyOp38
 70
     0
102
RTVSPropertyOp39
 70
     0
102
RTVSPropertyOp40
 70
     0
102
RTVSPropertyOp41
 70
     0
102
RTVSPropertyOp42
 70
     0
102
RTVSPropertyOp43
 70
     0
102
RTVSPropertyOp44
 70
     0
102
RTVSPropertyOp45
 70
     0
102
RTVSPropertyOp46
 70
     0
102
RTVSPropertyOp47
 70
     0
102
RTVSPropertyOp48
 70
     0
102
RTVSPropertyOp49
 70
     0
102
RTVSPropertyOp50
 70
     0
102
RTVSPropertyOp51
 70
     0
102
RTVSPropertyOp52
 70
     0
102
RTVSPropertyOp53
 70
     0
102
RTVSPropertyOp54
 70
     0
102
RTVSPropertyOp55
 70
     0
102
RTVSPropertyOp56
 70
     0
102
RTVSPropertyOp57
 70
     0
102
RTVSPropertyOp58
 70
     1
102
RTVSPropertyOp59
 70
     1
102
RTVSPropertyOp60
 70
     1
102
RTVSPropertyOp61
 70
     1
102
RTVSPropertyOp62
 70
     1
  0
XRECORD
  5
BFE8F
102
{ACAD_REACTORS
330
BFE8E
102
}
330
BFE8E
100
AcDbXrecord
280
     1
102
RTVSPost2010Prop28
280
     0
102
RTVSPost2010PropOp28
 70
     1
102
RTVSPost2010Prop29
280
     1
102
RTVSPost2010PropOp29
 70
     1
102
RTVSPost2010Prop30
280
     1
102
RTVSPost2010PropOp30
 70
     1
102
RTVSPost2010Prop31
280
     0
102
RTVSPost2010PropOp31
 70
     1
102
RTVSPost2010Prop32
280
     0
102
RTVSPost2010PropOp32
 70
     1
102
RTVSPost2010Prop33
280
     0
102
RTVSPost2010PropOp33
 70
     1
102
RTVSPost2010Prop34
280
     0
102
RTVSPost2010PropOp34
 70
     1
102
RTVSPost2010Prop35
280
     0
102
RTVSPost2010PropOp35
 70
     1
102
RTVSPost2010Prop36
280
     0
102
RTVSPost2010PropOp36
 70
     1
102
RTVSPost2010Prop37
 90
       50
102
RTVSPost2010PropOp37
 70
     1
102
RTVSPost2010Prop38
140
0.0
102
RTVSPost2010PropOp38
 70
     1
102
RTVSPost2010Prop39
140
1.0
102
RTVSPost2010PropOp39
 70
     1
102
RTVSPost2010Prop40
 90
        0
102
RTVSPost2010PropOp40
 70
     1
102
RTVSPost2010Prop41ColorIndex
 90
       18
102
RTVSPost2010Prop41ColorRGB
 90
        0
102
RTVSPost2010PropOp41
 70
     1
102
RTVSPost2010Prop42
 90
       50
102
RTVSPost2010PropOp42
 70
     1
102
RTVSPost2010Prop43
 90
        3
102
RTVSPost2010PropOp43
 70
     1
102
RTVSPost2010Prop44ColorIndex
 90
        5
102
RTVSPost2010Prop44ColorRGB
 90
      255
102
RTVSPost2010PropOp44
 70
     1
102
RTVSPost2010Prop45
280
     0
102
RTVSPost2010PropOp45
 70
     1
102
RTVSPost2010Prop46
 90
       50
102
RTVSPost2010PropOp46
 70
     1
102
RTVSPost2010Prop47
 90
       50
102
RTVSPost2010PropOp47
 70
     1
102
RTVSPost2010Prop48
 90
       50
102
RTVSPost2010PropOp48
 70
     1
102
RTVSPost2010Prop49
280
     0
102
RTVSPost2010PropOp49
 70
     1
102
RTVSPost2010Prop50
 90
       50
102
RTVSPost2010PropOp50
 70
     1
102
RTVSPost2010Prop51ColorIndex
 90
      256
102
RTVSPost2010Prop51ColorRGB
 90
-16777216
102
RTVSPost2010PropOp51
 70
     0
102
RTVSPost2010Prop52
140
1.0
102
RTVSPost2010PropOp52
 70
     0
102
RTVSPost2010Prop53
 90
        2
102
RTVSPost2010PropOp53
 70
     1
102
RTVSPost2010Prop54
  1
strokes_ogs.tif
102
RTVSPost2010PropOp54
 70
     1
102
RTVSPost2010Prop55
280
     0
102
RTVSPost2010PropOp55
 70
     1
102
RTVSPost2010Prop56
140
1.0
102
RTVSPost2010PropOp56
 70
     1
102
RTVSPost2010Prop57
140
1.0
102
RTVSPost2010PropOp57
 70
     1
102
RTVSPropertyOp0
 70
     1
102
RTVSPropertyOp1
 70
     1
102
RTVSPropertyOp2
 70
     1
102
RTVSPropertyOp3
 70
     1
102
RTVSPropertyOp4
 70
     1
102
RTVSPropertyOp5
 70
     1
102
RTVSPropertyOp6
 70
     1
102
RTVSPropertyOp7
 70
     1
102
RTVSPropertyOp8
 70
     1
102
RTVSPropertyOp9
 70
     1
102
RTVSPropertyOp10
 70
     1
102
RTVSPropertyOp11
 70
     1
102
RTVSPropertyOp12
 70
     1
102
RTVSPropertyOp13
 70
     1
102
RTVSPropertyOp14
 70
     1
102
RTVSPropertyOp15
 70
     1
102
RTVSPropertyOp16
 70
     1
102
RTVSPropertyOp17
 70
     1
102
RTVSPropertyOp18
 70
     1
102
RTVSPropertyOp19
 70
     1
102
RTVSPropertyOp20
 70
     1
102
RTVSPropertyOp21
 70
     1
102
RTVSPropertyOp22
 70
     1
102
RTVSPropertyOp23
 70
     1
102
RTVSPropertyOp24
 70
     1
102
RTVSPropertyOp25
 70
     1
102
RTVSPropertyOp26
 70
     1
102
RTVSPropertyOp27
 70
     1
102
RTVSPropertyOp28
 70
     1
102
RTVSPropertyOp29
 70
     1
102
RTVSPropertyOp30
 70
     1
102
RTVSPropertyOp31
 70
     1
102
RTVSPropertyOp32
 70
     1
102
RTVSPropertyOp33
 70
     1
102
RTVSPropertyOp34
 70
     1
102
RTVSPropertyOp35
 70
     1
102
RTVSPropertyOp36
 70
     1
102
RTVSPropertyOp37
 70
     1
102
RTVSPropertyOp38
 70
     1
102
RTVSPropertyOp39
 70
     1
102
RTVSPropertyOp40
 70
     1
102
RTVSPropertyOp41
 70
     1
102
RTVSPropertyOp42
 70
     1
102
RTVSPropertyOp43
 70
     1
102
RTVSPropertyOp44
 70
     1
102
RTVSPropertyOp45
 70
     1
102
RTVSPropertyOp46
 70
     1
102
RTVSPropertyOp47
 70
     1
102
RTVSPropertyOp48
 70
     1
102
RTVSPropertyOp49
 70
     1
102
RTVSPropertyOp50
 70
     1
102
RTVSPropertyOp51
 70
     0
102
RTVSPropertyOp52
 70
     0
102
RTVSPropertyOp53
 70
     1
102
RTVSPropertyOp54
 70
     1
102
RTVSPropertyOp55
 70
     1
102
RTVSPropertyOp56
 70
     1
102
RTVSPropertyOp57
 70
     1
102
RTVSPropertyOp58
 70
     1
102
RTVSPropertyOp59
 70
     1
102
RTVSPropertyOp60
 70
     1
102
RTVSPropertyOp61
 70
     1
102
RTVSPropertyOp62
 70
     1
  0
XRECORD
  5
BFE73
102
{ACAD_REACTORS
330
BFE72
102
}
330
BFE72
100
AcDbXrecord
280
     1
102
RTVSPost2010Prop28
280
     0
102
RTVSPost2010PropOp28
 70
     1
102
RTVSPost2010Prop29
280
     1
102
RTVSPost2010PropOp29
 70
     1
102
RTVSPost2010Prop30
280
     1
102
RTVSPost2010PropOp30
 70
     1
102
RTVSPost2010Prop31
280
     0
102
RTVSPost2010PropOp31
 70
     1
102
RTVSPost2010Prop32
280
     0
102
RTVSPost2010PropOp32
 70
     1
102
RTVSPost2010Prop33
280
     0
102
RTVSPost2010PropOp33
 70
     1
102
RTVSPost2010Prop34
280
     0
102
RTVSPost2010PropOp34
 70
     1
102
RTVSPost2010Prop35
280
     0
102
RTVSPost2010PropOp35
 70
     1
102
RTVSPost2010Prop36
280
     0
102
RTVSPost2010PropOp36
 70
     1
102
RTVSPost2010Prop37
 90
       50
102
RTVSPost2010PropOp37
 70
     1
102
RTVSPost2010Prop38
140
0.0
102
RTVSPost2010PropOp38
 70
     1
102
RTVSPost2010Prop39
140
1.0
102
RTVSPost2010PropOp39
 70
     1
102
RTVSPost2010Prop40
 90
        0
102
RTVSPost2010PropOp40
 70
     1
102
RTVSPost2010Prop41ColorIndex
 90
       18
102
RTVSPost2010Prop41ColorRGB
 90
        0
102
RTVSPost2010PropOp41
 70
     1
102
RTVSPost2010Prop42
 90
       50
102
RTVSPost2010PropOp42
 70
     1
102
RTVSPost2010Prop43
 90
        3
102
RTVSPost2010PropOp43
 70
     1
102
RTVSPost2010Prop44ColorIndex
 90
        5
102
RTVSPost2010Prop44ColorRGB
 90
      255
102
RTVSPost2010PropOp44
 70
     1
102
RTVSPost2010Prop45
280
     0
102
RTVSPost2010PropOp45
 70
     1
102
RTVSPost2010Prop46
 90
       50
102
RTVSPost2010PropOp46
 70
     1
102
RTVSPost2010Prop47
 90
       50
102
RTVSPost2010PropOp47
 70
     1
102
RTVSPost2010Prop48
 90
       50
102
RTVSPost2010PropOp48
 70
     1
102
RTVSPost2010Prop49
280
     0
102
RTVSPost2010PropOp49
 70
     1
102
RTVSPost2010Prop50
 90
       50
102
RTVSPost2010PropOp50
 70
     1
102
RTVSPost2010Prop51ColorIndex
 90
      256
102
RTVSPost2010Prop51ColorRGB
 90
-16777216
102
RTVSPost2010PropOp51
 70
     0
102
RTVSPost2010Prop52
140
1.0
102
RTVSPost2010PropOp52
 70
     0
102
RTVSPost2010Prop53
 90
        2
102
RTVSPost2010PropOp53
 70
     1
102
RTVSPost2010Prop54
  1
strokes_ogs.tif
102
RTVSPost2010PropOp54
 70
     1
102
RTVSPost2010Prop55
280
     0
102
RTVSPost2010PropOp55
 70
     1
102
RTVSPost2010Prop56
140
1.0
102
RTVSPost2010PropOp56
 70
     1
102
RTVSPost2010Prop57
140
1.0
102
RTVSPost2010PropOp57
 70
     1
102
RTVSPropertyOp0
 70
     1
102
RTVSPropertyOp1
 70
     1
102
RTVSPropertyOp2
 70
     1
102
RTVSPropertyOp3
 70
     1
102
RTVSPropertyOp4
 70
     1
102
RTVSPropertyOp5
 70
     1
102
RTVSPropertyOp6
 70
     1
102
RTVSPropertyOp7
 70
     1
102
RTVSPropertyOp8
 70
     1
102
RTVSPropertyOp9
 70
     1
102
RTVSPropertyOp10
 70
     1
102
RTVSPropertyOp11
 70
     1
102
RTVSPropertyOp12
 70
     1
102
RTVSPropertyOp13
 70
     1
102
RTVSPropertyOp14
 70
     1
102
RTVSPropertyOp15
 70
     1
102
RTVSPropertyOp16
 70
     1
102
RTVSPropertyOp17
 70
     1
102
RTVSPropertyOp18
 70
     1
102
RTVSPropertyOp19
 70
     1
102
RTVSPropertyOp20
 70
     1
102
RTVSPropertyOp21
 70
     1
102
RTVSPropertyOp22
 70
     1
102
RTVSPropertyOp23
 70
     1
102
RTVSPropertyOp24
 70
     1
102
RTVSPropertyOp25
 70
     1
102
RTVSPropertyOp26
 70
     1
102
RTVSPropertyOp27
 70
     1
102
RTVSPropertyOp28
 70
     1
102
RTVSPropertyOp29
 70
     1
102
RTVSPropertyOp30
 70
     1
102
RTVSPropertyOp31
 70
     1
102
RTVSPropertyOp32
 70
     1
102
RTVSPropertyOp33
 70
     1
102
RTVSPropertyOp34
 70
     1
102
RTVSPropertyOp35
 70
     1
102
RTVSPropertyOp36
 70
     1
102
RTVSPropertyOp37
 70
     1
102
RTVSPropertyOp38
 70
     1
102
RTVSPropertyOp39
 70
     1
102
RTVSPropertyOp40
 70
     1
102
RTVSPropertyOp41
 70
     1
102
RTVSPropertyOp42
 70
     1
102
RTVSPropertyOp43
 70
     1
102
RTVSPropertyOp44
 70
     1
102
RTVSPropertyOp45
 70
     1
102
RTVSPropertyOp46
 70
     1
102
RTVSPropertyOp47
 70
     1
102
RTVSPropertyOp48
 70
     1
102
RTVSPropertyOp49
 70
     1
102
RTVSPropertyOp50
 70
     1
102
RTVSPropertyOp51
 70
     0
102
RTVSPropertyOp52
 70
     0
102
RTVSPropertyOp53
 70
     1
102
RTVSPropertyOp54
 70
     1
102
RTVSPropertyOp55
 70
     1
102
RTVSPropertyOp56
 70
     1
102
RTVSPropertyOp57
 70
     1
102
RTVSPropertyOp58
 70
     1
102
RTVSPropertyOp59
 70
     1
102
RTVSPropertyOp60
 70
     1
102
RTVSPropertyOp61
 70
     1
102
RTVSPropertyOp62
 70
     1
  0
XRECORD
  5
BFE75
102
{ACAD_REACTORS
330
BFE74
102
}
330
BFE74
100
AcDbXrecord
280
     1
102
RTVSPost2010Prop28
280
     0
102
RTVSPost2010PropOp28
 70
     1
102
RTVSPost2010Prop29
280
     1
102
RTVSPost2010PropOp29
 70
     1
102
RTVSPost2010Prop30
280
     1
102
RTVSPost2010PropOp30
 70
     1
102
RTVSPost2010Prop31
280
     0
102
RTVSPost2010PropOp31
 70
     1
102
RTVSPost2010Prop32
280
     0
102
RTVSPost2010PropOp32
 70
     1
102
RTVSPost2010Prop33
280
     0
102
RTVSPost2010PropOp33
 70
     1
102
RTVSPost2010Prop34
280
     0
102
RTVSPost2010PropOp34
 70
     1
102
RTVSPost2010Prop35
280
     0
102
RTVSPost2010PropOp35
 70
     1
102
RTVSPost2010Prop36
280
     0
102
RTVSPost2010PropOp36
 70
     1
102
RTVSPost2010Prop37
 90
       50
102
RTVSPost2010PropOp37
 70
     1
102
RTVSPost2010Prop38
140
0.0
102
RTVSPost2010PropOp38
 70
     1
102
RTVSPost2010Prop39
140
1.0
102
RTVSPost2010PropOp39
 70
     1
102
RTVSPost2010Prop40
 90
        0
102
RTVSPost2010PropOp40
 70
     1
102
RTVSPost2010Prop41ColorIndex
 90
       18
102
RTVSPost2010Prop41ColorRGB
 90
        0
102
RTVSPost2010PropOp41
 70
     1
102
RTVSPost2010Prop42
 90
       50
102
RTVSPost2010PropOp42
 70
     1
102
RTVSPost2010Prop43
 90
        3
102
RTVSPost2010PropOp43
 70
     1
102
RTVSPost2010Prop44ColorIndex
 90
        5
102
RTVSPost2010Prop44ColorRGB
 90
      255
102
RTVSPost2010PropOp44
 70
     1
102
RTVSPost2010Prop45
280
     0
102
RTVSPost2010PropOp45
 70
     1
102
RTVSPost2010Prop46
 90
       50
102
RTVSPost2010PropOp46
 70
     1
102
RTVSPost2010Prop47
 90
       50
102
RTVSPost2010PropOp47
 70
     1
102
RTVSPost2010Prop48
 90
       50
102
RTVSPost2010PropOp48
 70
     1
102
RTVSPost2010Prop49
280
     0
102
RTVSPost2010PropOp49
 70
     1
102
RTVSPost2010Prop50
 90
       50
102
RTVSPost2010PropOp50
 70
     1
102
RTVSPost2010Prop51ColorIndex
 90
      256
102
RTVSPost2010Prop51ColorRGB
 90
-16777216
102
RTVSPost2010PropOp51
 70
     0
102
RTVSPost2010Prop52
140
1.0
102
RTVSPost2010PropOp52
 70
     0
102
RTVSPost2010Prop53
 90
        2
102
RTVSPost2010PropOp53
 70
     1
102
RTVSPost2010Prop54
  1
strokes_ogs.tif
102
RTVSPost2010PropOp54
 70
     1
102
RTVSPost2010Prop55
280
     0
102
RTVSPost2010PropOp55
 70
     1
102
RTVSPost2010Prop56
140
1.0
102
RTVSPost2010PropOp56
 70
     1
102
RTVSPost2010Prop57
140
1.0
102
RTVSPost2010PropOp57
 70
     1
102
RTVSPropertyOp0
 70
     1
102
RTVSPropertyOp1
 70
     1
102
RTVSPropertyOp2
 70
     1
102
RTVSPropertyOp3
 70
     1
102
RTVSPropertyOp4
 70
     1
102
RTVSPropertyOp5
 70
     1
102
RTVSPropertyOp6
 70
     1
102
RTVSPropertyOp7
 70
     1
102
RTVSPropertyOp8
 70
     1
102
RTVSPropertyOp9
 70
     1
102
RTVSPropertyOp10
 70
     1
102
RTVSPropertyOp11
 70
     1
102
RTVSPropertyOp12
 70
     1
102
RTVSPropertyOp13
 70
     1
102
RTVSPropertyOp14
 70
     1
102
RTVSPropertyOp15
 70
     1
102
RTVSPropertyOp16
 70
     1
102
RTVSPropertyOp17
 70
     1
102
RTVSPropertyOp18
 70
     1
102
RTVSPropertyOp19
 70
     1
102
RTVSPropertyOp20
 70
     1
102
RTVSPropertyOp21
 70
     1
102
RTVSPropertyOp22
 70
     1
102
RTVSPropertyOp23
 70
     1
102
RTVSPropertyOp24
 70
     1
102
RTVSPropertyOp25
 70
     1
102
RTVSPropertyOp26
 70
     1
102
RTVSPropertyOp27
 70
     1
102
RTVSPropertyOp28
 70
     1
102
RTVSPropertyOp29
 70
     1
102
RTVSPropertyOp30
 70
     1
102
RTVSPropertyOp31
 70
     1
102
RTVSPropertyOp32
 70
     1
102
RTVSPropertyOp33
 70
     1
102
RTVSPropertyOp34
 70
     1
102
RTVSPropertyOp35
 70
     1
102
RTVSPropertyOp36
 70
     1
102
RTVSPropertyOp37
 70
     1
102
RTVSPropertyOp38
 70
     1
102
RTVSPropertyOp39
 70
     1
102
RTVSPropertyOp40
 70
     1
102
RTVSPropertyOp41
 70
     1
102
RTVSPropertyOp42
 70
     1
102
RTVSPropertyOp43
 70
     1
102
RTVSPropertyOp44
 70
     1
102
RTVSPropertyOp45
 70
     1
102
RTVSPropertyOp46
 70
     1
102
RTVSPropertyOp47
 70
     1
102
RTVSPropertyOp48
 70
     1
102
RTVSPropertyOp49
 70
     1
102
RTVSPropertyOp50
 70
     1
102
RTVSPropertyOp51
 70
     0
102
RTVSPropertyOp52
 70
     0
102
RTVSPropertyOp53
 70
     1
102
RTVSPropertyOp54
 70
     1
102
RTVSPropertyOp55
 70
     1
102
RTVSPropertyOp56
 70
     1
102
RTVSPropertyOp57
 70
     1
102
RTVSPropertyOp58
 70
     1
102
RTVSPropertyOp59
 70
     1
102
RTVSPropertyOp60
 70
     1
102
RTVSPropertyOp61
 70
     1
102
RTVSPropertyOp62
 70
     1
  0
XRECORD
  5
BFE77
102
{ACAD_REACTORS
330
BFE76
102
}
330
BFE76
100
AcDbXrecord
280
     1
102
RTVSPost2010Prop28
280
     0
102
RTVSPost2010PropOp28
 70
     1
102
RTVSPost2010Prop29
280
     1
102
RTVSPost2010PropOp29
 70
     1
102
RTVSPost2010Prop30
280
     1
102
RTVSPost2010PropOp30
 70
     1
102
RTVSPost2010Prop31
280
     0
102
RTVSPost2010PropOp31
 70
     1
102
RTVSPost2010Prop32
280
     0
102
RTVSPost2010PropOp32
 70
     1
102
RTVSPost2010Prop33
280
     0
102
RTVSPost2010PropOp33
 70
     1
102
RTVSPost2010Prop34
280
     0
102
RTVSPost2010PropOp34
 70
     1
102
RTVSPost2010Prop35
280
     0
102
RTVSPost2010PropOp35
 70
     1
102
RTVSPost2010Prop36
280
     0
102
RTVSPost2010PropOp36
 70
     1
102
RTVSPost2010Prop37
 90
       50
102
RTVSPost2010PropOp37
 70
     1
102
RTVSPost2010Prop38
140
0.0
102
RTVSPost2010PropOp38
 70
     1
102
RTVSPost2010Prop39
140
1.0
102
RTVSPost2010PropOp39
 70
     1
102
RTVSPost2010Prop40
 90
        0
102
RTVSPost2010PropOp40
 70
     1
102
RTVSPost2010Prop41ColorIndex
 90
       18
102
RTVSPost2010Prop41ColorRGB
 90
        0
102
RTVSPost2010PropOp41
 70
     1
102
RTVSPost2010Prop42
 90
       50
102
RTVSPost2010PropOp42
 70
     1
102
RTVSPost2010Prop43
 90
        3
102
RTVSPost2010PropOp43
 70
     1
102
RTVSPost2010Prop44ColorIndex
 90
        5
102
RTVSPost2010Prop44ColorRGB
 90
      255
102
RTVSPost2010PropOp44
 70
     1
102
RTVSPost2010Prop45
280
     0
102
RTVSPost2010PropOp45
 70
     1
102
RTVSPost2010Prop46
 90
       50
102
RTVSPost2010PropOp46
 70
     1
102
RTVSPost2010Prop47
 90
       50
102
RTVSPost2010PropOp47
 70
     1
102
RTVSPost2010Prop48
 90
       50
102
RTVSPost2010PropOp48
 70
     1
102
RTVSPost2010Prop49
280
     0
102
RTVSPost2010PropOp49
 70
     1
102
RTVSPost2010Prop50
 90
       50
102
RTVSPost2010PropOp50
 70
     1
102
RTVSPost2010Prop51ColorIndex
 90
      256
102
RTVSPost2010Prop51ColorRGB
 90
-16777216
102
RTVSPost2010PropOp51
 70
     0
102
RTVSPost2010Prop52
140
1.0
102
RTVSPost2010PropOp52
 70
     0
102
RTVSPost2010Prop53
 90
        2
102
RTVSPost2010PropOp53
 70
     1
102
RTVSPost2010Prop54
  1
strokes_ogs.tif
102
RTVSPost2010PropOp54
 70
     1
102
RTVSPost2010Prop55
280
     0
102
RTVSPost2010PropOp55
 70
     1
102
RTVSPost2010Prop56
140
1.0
102
RTVSPost2010PropOp56
 70
     1
102
RTVSPost2010Prop57
140
1.0
102
RTVSPost2010PropOp57
 70
     1
102
RTVSPropertyOp0
 70
     1
102
RTVSPropertyOp1
 70
     1
102
RTVSPropertyOp2
 70
     1
102
RTVSPropertyOp3
 70
     1
102
RTVSPropertyOp4
 70
     1
102
RTVSPropertyOp5
 70
     1
102
RTVSPropertyOp6
 70
     1
102
RTVSPropertyOp7
 70
     1
102
RTVSPropertyOp8
 70
     1
102
RTVSPropertyOp9
 70
     1
102
RTVSPropertyOp10
 70
     1
102
RTVSPropertyOp11
 70
     1
102
RTVSPropertyOp12
 70
     1
102
RTVSPropertyOp13
 70
     1
102
RTVSPropertyOp14
 70
     1
102
RTVSPropertyOp15
 70
     1
102
RTVSPropertyOp16
 70
     1
102
RTVSPropertyOp17
 70
     1
102
RTVSPropertyOp18
 70
     1
102
RTVSPropertyOp19
 70
     1
102
RTVSPropertyOp20
 70
     1
102
RTVSPropertyOp21
 70
     1
102
RTVSPropertyOp22
 70
     1
102
RTVSPropertyOp23
 70
     1
102
RTVSPropertyOp24
 70
     1
102
RTVSPropertyOp25
 70
     1
102
RTVSPropertyOp26
 70
     1
102
RTVSPropertyOp27
 70
     1
102
RTVSPropertyOp28
 70
     1
102
RTVSPropertyOp29
 70
     1
102
RTVSPropertyOp30
 70
     1
102
RTVSPropertyOp31
 70
     1
102
RTVSPropertyOp32
 70
     1
102
RTVSPropertyOp33
 70
     1
102
RTVSPropertyOp34
 70
     1
102
RTVSPropertyOp35
 70
     1
102
RTVSPropertyOp36
 70
     1
102
RTVSPropertyOp37
 70
     1
102
RTVSPropertyOp38
 70
     1
102
RTVSPropertyOp39
 70
     1
102
RTVSPropertyOp40
 70
     1
102
RTVSPropertyOp41
 70
     1
102
RTVSPropertyOp42
 70
     1
102
RTVSPropertyOp43
 70
     1
102
RTVSPropertyOp44
 70
     1
102
RTVSPropertyOp45
 70
     1
102
RTVSPropertyOp46
 70
     1
102
RTVSPropertyOp47
 70
     1
102
RTVSPropertyOp48
 70
     1
102
RTVSPropertyOp49
 70
     1
102
RTVSPropertyOp50
 70
     1
102
RTVSPropertyOp51
 70
     0
102
RTVSPropertyOp52
 70
     0
102
RTVSPropertyOp53
 70
     1
102
RTVSPropertyOp54
 70
     1
102
RTVSPropertyOp55
 70
     1
102
RTVSPropertyOp56
 70
     1
102
RTVSPropertyOp57
 70
     1
102
RTVSPropertyOp58
 70
     1
102
RTVSPropertyOp59
 70
     1
102
RTVSPropertyOp60
 70
     1
102
RTVSPropertyOp61
 70
     1
102
RTVSPropertyOp62
 70
     1
  0
XRECORD
  5
BFE79
102
{ACAD_REACTORS
330
BFE78
102
}
330
BFE78
100
AcDbXrecord
280
     1
102
RTVSPost2010Prop28
280
     0
102
RTVSPost2010PropOp28
 70
     1
102
RTVSPost2010Prop29
280
     1
102
RTVSPost2010PropOp29
 70
     1
102
RTVSPost2010Prop30
280
     1
102
RTVSPost2010PropOp30
 70
     1
102
RTVSPost2010Prop31
280
     0
102
RTVSPost2010PropOp31
 70
     1
102
RTVSPost2010Prop32
280
     0
102
RTVSPost2010PropOp32
 70
     1
102
RTVSPost2010Prop33
280
     0
102
RTVSPost2010PropOp33
 70
     1
102
RTVSPost2010Prop34
280
     0
102
RTVSPost2010PropOp34
 70
     1
102
RTVSPost2010Prop35
280
     0
102
RTVSPost2010PropOp35
 70
     1
102
RTVSPost2010Prop36
280
     0
102
RTVSPost2010PropOp36
 70
     1
102
RTVSPost2010Prop37
 90
       50
102
RTVSPost2010PropOp37
 70
     1
102
RTVSPost2010Prop38
140
0.0
102
RTVSPost2010PropOp38
 70
     1
102
RTVSPost2010Prop39
140
1.0
102
RTVSPost2010PropOp39
 70
     1
102
RTVSPost2010Prop40
 90
        0
102
RTVSPost2010PropOp40
 70
     1
102
RTVSPost2010Prop41ColorIndex
 90
       18
102
RTVSPost2010Prop41ColorRGB
 90
        0
102
RTVSPost2010PropOp41
 70
     1
102
RTVSPost2010Prop42
 90
       50
102
RTVSPost2010PropOp42
 70
     1
102
RTVSPost2010Prop43
 90
        3
102
RTVSPost2010PropOp43
 70
     1
102
RTVSPost2010Prop44ColorIndex
 90
        5
102
RTVSPost2010Prop44ColorRGB
 90
      255
102
RTVSPost2010PropOp44
 70
     1
102
RTVSPost2010Prop45
280
     0
102
RTVSPost2010PropOp45
 70
     1
102
RTVSPost2010Prop46
 90
       50
102
RTVSPost2010PropOp46
 70
     1
102
RTVSPost2010Prop47
 90
       50
102
RTVSPost2010PropOp47
 70
     1
102
RTVSPost2010Prop48
 90
       50
102
RTVSPost2010PropOp48
 70
     1
102
RTVSPost2010Prop49
280
     0
102
RTVSPost2010PropOp49
 70
     1
102
RTVSPost2010Prop50
 90
       50
102
RTVSPost2010PropOp50
 70
     1
102
RTVSPost2010Prop51ColorIndex
 90
      256
102
RTVSPost2010Prop51ColorRGB
 90
-16777216
102
RTVSPost2010PropOp51
 70
     0
102
RTVSPost2010Prop52
140
1.0
102
RTVSPost2010PropOp52
 70
     0
102
RTVSPost2010Prop53
 90
        2
102
RTVSPost2010PropOp53
 70
     1
102
RTVSPost2010Prop54
  1
strokes_ogs.tif
102
RTVSPost2010PropOp54
 70
     1
102
RTVSPost2010Prop55
280
     0
102
RTVSPost2010PropOp55
 70
     1
102
RTVSPost2010Prop56
140
1.0
102
RTVSPost2010PropOp56
 70
     1
102
RTVSPost2010Prop57
140
1.0
102
RTVSPost2010PropOp57
 70
     1
102
RTVSPropertyOp0
 70
     1
102
RTVSPropertyOp1
 70
     1
102
RTVSPropertyOp2
 70
     1
102
RTVSPropertyOp3
 70
     1
102
RTVSPropertyOp4
 70
     1
102
RTVSPropertyOp5
 70
     1
102
RTVSPropertyOp6
 70
     1
102
RTVSPropertyOp7
 70
     1
102
RTVSPropertyOp8
 70
     1
102
RTVSPropertyOp9
 70
     1
102
RTVSPropertyOp10
 70
     1
102
RTVSPropertyOp11
 70
     1
102
RTVSPropertyOp12
 70
     1
102
RTVSPropertyOp13
 70
     1
102
RTVSPropertyOp14
 70
     1
102
RTVSPropertyOp15
 70
     1
102
RTVSPropertyOp16
 70
     1
102
RTVSPropertyOp17
 70
     1
102
RTVSPropertyOp18
 70
     1
102
RTVSPropertyOp19
 70
     1
102
RTVSPropertyOp20
 70
     1
102
RTVSPropertyOp21
 70
     1
102
RTVSPropertyOp22
 70
     1
102
RTVSPropertyOp23
 70
     1
102
RTVSPropertyOp24
 70
     1
102
RTVSPropertyOp25
 70
     1
102
RTVSPropertyOp26
 70
     1
102
RTVSPropertyOp27
 70
     1
102
RTVSPropertyOp28
 70
     1
102
RTVSPropertyOp29
 70
     1
102
RTVSPropertyOp30
 70
     1
102
RTVSPropertyOp31
 70
     1
102
RTVSPropertyOp32
 70
     1
102
RTVSPropertyOp33
 70
     1
102
RTVSPropertyOp34
 70
     1
102
RTVSPropertyOp35
 70
     1
102
RTVSPropertyOp36
 70
     1
102
RTVSPropertyOp37
 70
     1
102
RTVSPropertyOp38
 70
     1
102
RTVSPropertyOp39
 70
     1
102
RTVSPropertyOp40
 70
     1
102
RTVSPropertyOp41
 70
     1
102
RTVSPropertyOp42
 70
     1
102
RTVSPropertyOp43
 70
     1
102
RTVSPropertyOp44
 70
     1
102
RTVSPropertyOp45
 70
     1
102
RTVSPropertyOp46
 70
     1
102
RTVSPropertyOp47
 70
     1
102
RTVSPropertyOp48
 70
     1
102
RTVSPropertyOp49
 70
     1
102
RTVSPropertyOp50
 70
     1
102
RTVSPropertyOp51
 70
     0
102
RTVSPropertyOp52
 70
     0
102
RTVSPropertyOp53
 70
     1
102
RTVSPropertyOp54
 70
     1
102
RTVSPropertyOp55
 70
     1
102
RTVSPropertyOp56
 70
     1
102
RTVSPropertyOp57
 70
     1
102
RTVSPropertyOp58
 70
     1
102
RTVSPropertyOp59
 70
     1
102
RTVSPropertyOp60
 70
     1
102
RTVSPropertyOp61
 70
     1
102
RTVSPropertyOp62
 70
     1
  0
XRECORD
  5
BFE7F
102
{ACAD_REACTORS
330
BFE7E
102
}
330
BFE7E
100
AcDbXrecord
280
     1
102
RTVSPost2010Prop28
280
     0
102
RTVSPost2010PropOp28
 70
     1
102
RTVSPost2010Prop29
280
     1
102
RTVSPost2010PropOp29
 70
     1
102
RTVSPost2010Prop30
280
     1
102
RTVSPost2010PropOp30
 70
     1
102
RTVSPost2010Prop31
280
     0
102
RTVSPost2010PropOp31
 70
     1
102
RTVSPost2010Prop32
280
     0
102
RTVSPost2010PropOp32
 70
     1
102
RTVSPost2010Prop33
280
     0
102
RTVSPost2010PropOp33
 70
     1
102
RTVSPost2010Prop34
280
     0
102
RTVSPost2010PropOp34
 70
     1
102
RTVSPost2010Prop35
280
     0
102
RTVSPost2010PropOp35
 70
     1
102
RTVSPost2010Prop36
280
     0
102
RTVSPost2010PropOp36
 70
     1
102
RTVSPost2010Prop37
 90
       50
102
RTVSPost2010PropOp37
 70
     1
102
RTVSPost2010Prop38
140
0.0
102
RTVSPost2010PropOp38
 70
     1
102
RTVSPost2010Prop39
140
1.0
102
RTVSPost2010PropOp39
 70
     1
102
RTVSPost2010Prop40
 90
        0
102
RTVSPost2010PropOp40
 70
     1
102
RTVSPost2010Prop41ColorIndex
 90
       18
102
RTVSPost2010Prop41ColorRGB
 90
        0
102
RTVSPost2010PropOp41
 70
     1
102
RTVSPost2010Prop42
 90
       50
102
RTVSPost2010PropOp42
 70
     1
102
RTVSPost2010Prop43
 90
        3
102
RTVSPost2010PropOp43
 70
     1
102
RTVSPost2010Prop44ColorIndex
 90
        5
102
RTVSPost2010Prop44ColorRGB
 90
      255
102
RTVSPost2010PropOp44
 70
     1
102
RTVSPost2010Prop45
280
     0
102
RTVSPost2010PropOp45
 70
     1
102
RTVSPost2010Prop46
 90
       50
102
RTVSPost2010PropOp46
 70
     1
102
RTVSPost2010Prop47
 90
       50
102
RTVSPost2010PropOp47
 70
     1
102
RTVSPost2010Prop48
 90
       50
102
RTVSPost2010PropOp48
 70
     1
102
RTVSPost2010Prop49
280
     0
102
RTVSPost2010PropOp49
 70
     1
102
RTVSPost2010Prop50
 90
       50
102
RTVSPost2010PropOp50
 70
     1
102
RTVSPost2010Prop51ColorIndex
 90
      256
102
RTVSPost2010Prop51ColorRGB
 90
-16777216
102
RTVSPost2010PropOp51
 70
     0
102
RTVSPost2010Prop52
140
1.0
102
RTVSPost2010PropOp52
 70
     0
102
RTVSPost2010Prop53
 90
        2
102
RTVSPost2010PropOp53
 70
     1
102
RTVSPost2010Prop54
  1
strokes_ogs.tif
102
RTVSPost2010PropOp54
 70
     1
102
RTVSPost2010Prop55
280
     0
102
RTVSPost2010PropOp55
 70
     1
102
RTVSPost2010Prop56
140
1.0
102
RTVSPost2010PropOp56
 70
     1
102
RTVSPost2010Prop57
140
1.0
102
RTVSPost2010PropOp57
 70
     1
102
RTVSPropertyOp0
 70
     1
102
RTVSPropertyOp1
 70
     1
102
RTVSPropertyOp2
 70
     1
102
RTVSPropertyOp3
 70
     1
102
RTVSPropertyOp4
 70
     1
102
RTVSPropertyOp5
 70
     1
102
RTVSPropertyOp6
 70
     1
102
RTVSPropertyOp7
 70
     1
102
RTVSPropertyOp8
 70
     1
102
RTVSPropertyOp9
 70
     1
102
RTVSPropertyOp10
 70
     1
102
RTVSPropertyOp11
 70
     1
102
RTVSPropertyOp12
 70
     1
102
RTVSPropertyOp13
 70
     1
102
RTVSPropertyOp14
 70
     1
102
RTVSPropertyOp15
 70
     1
102
RTVSPropertyOp16
 70
     1
102
RTVSPropertyOp17
 70
     1
102
RTVSPropertyOp18
 70
     1
102
RTVSPropertyOp19
 70
     1
102
RTVSPropertyOp20
 70
     1
102
RTVSPropertyOp21
 70
     1
102
RTVSPropertyOp22
 70
     1
102
RTVSPropertyOp23
 70
     1
102
RTVSPropertyOp24
 70
     1
102
RTVSPropertyOp25
 70
     1
102
RTVSPropertyOp26
 70
     1
102
RTVSPropertyOp27
 70
     1
102
RTVSPropertyOp28
 70
     1
102
RTVSPropertyOp29
 70
     1
102
RTVSPropertyOp30
 70
     1
102
RTVSPropertyOp31
 70
     1
102
RTVSPropertyOp32
 70
     1
102
RTVSPropertyOp33
 70
     1
102
RTVSPropertyOp34
 70
     1
102
RTVSPropertyOp35
 70
     1
102
RTVSPropertyOp36
 70
     1
102
RTVSPropertyOp37
 70
     1
102
RTVSPropertyOp38
 70
     1
102
RTVSPropertyOp39
 70
     1
102
RTVSPropertyOp40
 70
     1
102
RTVSPropertyOp41
 70
     1
102
RTVSPropertyOp42
 70
     1
102
RTVSPropertyOp43
 70
     1
102
RTVSPropertyOp44
 70
     1
102
RTVSPropertyOp45
 70
     1
102
RTVSPropertyOp46
 70
     1
102
RTVSPropertyOp47
 70
     1
102
RTVSPropertyOp48
 70
     1
102
RTVSPropertyOp49
 70
     1
102
RTVSPropertyOp50
 70
     1
102
RTVSPropertyOp51
 70
     0
102
RTVSPropertyOp52
 70
     0
102
RTVSPropertyOp53
 70
     1
102
RTVSPropertyOp54
 70
     1
102
RTVSPropertyOp55
 70
     1
102
RTVSPropertyOp56
 70
     1
102
RTVSPropertyOp57
 70
     1
102
RTVSPropertyOp58
 70
     1
102
RTVSPropertyOp59
 70
     1
102
RTVSPropertyOp60
 70
     1
102
RTVSPropertyOp61
 70
     1
102
RTVSPropertyOp62
 70
     1
  0
XRECORD
  5
BFE93
102
{ACAD_REACTORS
330
BFE92
102
}
330
BFE92
100
AcDbXrecord
280
     1
102
RTVSPost2010Prop28
280
     0
102
RTVSPost2010PropOp28
 70
     0
102
RTVSPost2010Prop29
280
     1
102
RTVSPost2010PropOp29
 70
     0
102
RTVSPost2010Prop30
280
     1
102
RTVSPost2010PropOp30
 70
     0
102
RTVSPost2010Prop31
280
     0
102
RTVSPost2010PropOp31
 70
     0
102
RTVSPost2010Prop32
280
     0
102
RTVSPost2010PropOp32
 70
     0
102
RTVSPost2010Prop33
280
     0
102
RTVSPost2010PropOp33
 70
     0
102
RTVSPost2010Prop34
280
     0
102
RTVSPost2010PropOp34
 70
     0
102
RTVSPost2010Prop35
280
     0
102
RTVSPost2010PropOp35
 70
     0
102
RTVSPost2010Prop36
280
     0
102
RTVSPost2010PropOp36
 70
     0
102
RTVSPost2010Prop37
 90
       50
102
RTVSPost2010PropOp37
 70
     0
102
RTVSPost2010Prop38
140
0.0
102
RTVSPost2010PropOp38
 70
     0
102
RTVSPost2010Prop39
140
1.0
102
RTVSPost2010PropOp39
 70
     0
102
RTVSPost2010Prop40
 90
        0
102
RTVSPost2010PropOp40
 70
     0
102
RTVSPost2010Prop41ColorIndex
 90
       18
102
RTVSPost2010Prop41ColorRGB
 90
        0
102
RTVSPost2010PropOp41
 70
     0
102
RTVSPost2010Prop42
 90
       50
102
RTVSPost2010PropOp42
 70
     0
102
RTVSPost2010Prop43
 90
        3
102
RTVSPost2010PropOp43
 70
     0
102
RTVSPost2010Prop44ColorIndex
 90
        5
102
RTVSPost2010Prop44ColorRGB
 90
      255
102
RTVSPost2010PropOp44
 70
     0
102
RTVSPost2010Prop45
280
     0
102
RTVSPost2010PropOp45
 70
     0
102
RTVSPost2010Prop46
 90
       50
102
RTVSPost2010PropOp46
 70
     0
102
RTVSPost2010Prop47
 90
       50
102
RTVSPost2010PropOp47
 70
     0
102
RTVSPost2010Prop48
 90
       50
102
RTVSPost2010PropOp48
 70
     0
102
RTVSPost2010Prop49
280
     0
102
RTVSPost2010PropOp49
 70
     0
102
RTVSPost2010Prop50
 90
       50
102
RTVSPost2010PropOp50
 70
     0
102
RTVSPost2010Prop51ColorIndex
 90
      256
102
RTVSPost2010Prop51ColorRGB
 90
-16777216
102
RTVSPost2010PropOp51
 70
     0
102
RTVSPost2010Prop52
140
1.0
102
RTVSPost2010PropOp52
 70
     0
102
RTVSPost2010Prop53
 90
        2
102
RTVSPost2010PropOp53
 70
     0
102
RTVSPost2010Prop54
  1
strokes_ogs.tif
102
RTVSPost2010PropOp54
 70
     0
102
RTVSPost2010Prop55
280
     0
102
RTVSPost2010PropOp55
 70
     0
102
RTVSPost2010Prop56
140
1.0
102
RTVSPost2010PropOp56
 70
     0
102
RTVSPost2010Prop57
140
1.0
102
RTVSPost2010PropOp57
 70
     0
102
RTVSPropertyOp0
 70
     0
102
RTVSPropertyOp1
 70
     0
102
RTVSPropertyOp2
 70
     0
102
RTVSPropertyOp3
 70
     0
102
RTVSPropertyOp4
 70
     0
102
RTVSPropertyOp5
 70
     0
102
RTVSPropertyOp6
 70
     0
102
RTVSPropertyOp7
 70
     0
102
RTVSPropertyOp8
 70
     0
102
RTVSPropertyOp9
 70
     0
102
RTVSPropertyOp10
 70
     0
102
RTVSPropertyOp11
 70
     0
102
RTVSPropertyOp12
 70
     0
102
RTVSPropertyOp13
 70
     0
102
RTVSPropertyOp14
 70
     2
102
RTVSPropertyOp15
 70
     0
102
RTVSPropertyOp16
 70
     0
102
RTVSPropertyOp17
 70
     0
102
RTVSPropertyOp18
 70
     0
102
RTVSPropertyOp19
 70
     0
102
RTVSPropertyOp20
 70
     0
102
RTVSPropertyOp21
 70
     0
102
RTVSPropertyOp22
 70
     0
102
RTVSPropertyOp23
 70
     0
102
RTVSPropertyOp24
 70
     0
102
RTVSPropertyOp25
 70
     0
102
RTVSPropertyOp26
 70
     0
102
RTVSPropertyOp27
 70
     0
102
RTVSPropertyOp28
 70
     0
102
RTVSPropertyOp29
 70
     0
102
RTVSPropertyOp30
 70
     0
102
RTVSPropertyOp31
 70
     0
102
RTVSPropertyOp32
 70
     0
102
RTVSPropertyOp33
 70
     0
102
RTVSPropertyOp34
 70
     0
102
RTVSPropertyOp35
 70
     0
102
RTVSPropertyOp36
 70
     0
102
RTVSPropertyOp37
 70
     0
102
RTVSPropertyOp38
 70
     0
102
RTVSPropertyOp39
 70
     0
102
RTVSPropertyOp40
 70
     0
102
RTVSPropertyOp41
 70
     0
102
RTVSPropertyOp42
 70
     0
102
RTVSPropertyOp43
 70
     0
102
RTVSPropertyOp44
 70
     0
102
RTVSPropertyOp45
 70
     0
102
RTVSPropertyOp46
 70
     0
102
RTVSPropertyOp47
 70
     0
102
RTVSPropertyOp48
 70
     0
102
RTVSPropertyOp49
 70
     0
102
RTVSPropertyOp50
 70
     0
102
RTVSPropertyOp51
 70
     0
102
RTVSPropertyOp52
 70
     0
102
RTVSPropertyOp53
 70
     0
102
RTVSPropertyOp54
 70
     0
102
RTVSPropertyOp55
 70
     0
102
RTVSPropertyOp56
 70
     0
102
RTVSPropertyOp57
 70
     0
102
RTVSPropertyOp58
 70
     1
102
RTVSPropertyOp59
 70
     1
102
RTVSPropertyOp60
 70
     1
102
RTVSPropertyOp61
 70
     1
102
RTVSPropertyOp62
 70
     1
  0
XRECORD
  5
BFE8D
102
{ACAD_REACTORS
330
BFE8C
102
}
330
BFE8C
100
AcDbXrecord
280
     1
102
RTVSPost2010Prop28
280
     0
102
RTVSPost2010PropOp28
 70
     1
102
RTVSPost2010Prop29
280
     1
102
RTVSPost2010PropOp29
 70
     1
102
RTVSPost2010Prop30
280
     1
102
RTVSPost2010PropOp30
 70
     1
102
RTVSPost2010Prop31
280
     0
102
RTVSPost2010PropOp31
 70
     1
102
RTVSPost2010Prop32
280
     0
102
RTVSPost2010PropOp32
 70
     1
102
RTVSPost2010Prop33
280
     0
102
RTVSPost2010PropOp33
 70
     1
102
RTVSPost2010Prop34
280
     0
102
RTVSPost2010PropOp34
 70
     1
102
RTVSPost2010Prop35
280
     0
102
RTVSPost2010PropOp35
 70
     1
102
RTVSPost2010Prop36
280
     0
102
RTVSPost2010PropOp36
 70
     1
102
RTVSPost2010Prop37
 90
       50
102
RTVSPost2010PropOp37
 70
     1
102
RTVSPost2010Prop38
140
0.0
102
RTVSPost2010PropOp38
 70
     1
102
RTVSPost2010Prop39
140
1.0
102
RTVSPost2010PropOp39
 70
     1
102
RTVSPost2010Prop40
 90
        0
102
RTVSPost2010PropOp40
 70
     1
102
RTVSPost2010Prop41ColorIndex
 90
       18
102
RTVSPost2010Prop41ColorRGB
 90
        0
102
RTVSPost2010PropOp41
 70
     1
102
RTVSPost2010Prop42
 90
       50
102
RTVSPost2010PropOp42
 70
     1
102
RTVSPost2010Prop43
 90
        3
102
RTVSPost2010PropOp43
 70
     1
102
RTVSPost2010Prop44ColorIndex
 90
        5
102
RTVSPost2010Prop44ColorRGB
 90
      255
102
RTVSPost2010PropOp44
 70
     1
102
RTVSPost2010Prop45
280
     0
102
RTVSPost2010PropOp45
 70
     1
102
RTVSPost2010Prop46
 90
       50
102
RTVSPost2010PropOp46
 70
     1
102
RTVSPost2010Prop47
 90
       50
102
RTVSPost2010PropOp47
 70
     1
102
RTVSPost2010Prop48
 90
       50
102
RTVSPost2010PropOp48
 70
     1
102
RTVSPost2010Prop49
280
     0
102
RTVSPost2010PropOp49
 70
     1
102
RTVSPost2010Prop50
 90
       50
102
RTVSPost2010PropOp50
 70
     1
102
RTVSPost2010Prop51ColorIndex
 90
      256
102
RTVSPost2010Prop51ColorRGB
 90
-16777216
102
RTVSPost2010PropOp51
 70
     0
102
RTVSPost2010Prop52
140
1.0
102
RTVSPost2010PropOp52
 70
     0
102
RTVSPost2010Prop53
 90
        2
102
RTVSPost2010PropOp53
 70
     1
102
RTVSPost2010Prop54
  1
strokes_ogs.tif
102
RTVSPost2010PropOp54
 70
     1
102
RTVSPost2010Prop55
280
     0
102
RTVSPost2010PropOp55
 70
     1
102
RTVSPost2010Prop56
140
1.0
102
RTVSPost2010PropOp56
 70
     1
102
RTVSPost2010Prop57
140
1.0
102
RTVSPost2010PropOp57
 70
     1
102
RTVSPropertyOp0
 70
     1
102
RTVSPropertyOp1
 70
     1
102
RTVSPropertyOp2
 70
     1
102
RTVSPropertyOp3
 70
     1
102
RTVSPropertyOp4
 70
     1
102
RTVSPropertyOp5
 70
     1
102
RTVSPropertyOp6
 70
     1
102
RTVSPropertyOp7
 70
     1
102
RTVSPropertyOp8
 70
     1
102
RTVSPropertyOp9
 70
     1
102
RTVSPropertyOp10
 70
     1
102
RTVSPropertyOp11
 70
     1
102
RTVSPropertyOp12
 70
     1
102
RTVSPropertyOp13
 70
     1
102
RTVSPropertyOp14
 70
     1
102
RTVSPropertyOp15
 70
     1
102
RTVSPropertyOp16
 70
     1
102
RTVSPropertyOp17
 70
     1
102
RTVSPropertyOp18
 70
     1
102
RTVSPropertyOp19
 70
     1
102
RTVSPropertyOp20
 70
     1
102
RTVSPropertyOp21
 70
     1
102
RTVSPropertyOp22
 70
     1
102
RTVSPropertyOp23
 70
     1
102
RTVSPropertyOp24
 70
     1
102
RTVSPropertyOp25
 70
     1
102
RTVSPropertyOp26
 70
     1
102
RTVSPropertyOp27
 70
     1
102
RTVSPropertyOp28
 70
     1
102
RTVSPropertyOp29
 70
     1
102
RTVSPropertyOp30
 70
     1
102
RTVSPropertyOp31
 70
     1
102
RTVSPropertyOp32
 70
     1
102
RTVSPropertyOp33
 70
     1
102
RTVSPropertyOp34
 70
     1
102
RTVSPropertyOp35
 70
     1
102
RTVSPropertyOp36
 70
     1
102
RTVSPropertyOp37
 70
     1
102
RTVSPropertyOp38
 70
     1
102
RTVSPropertyOp39
 70
     1
102
RTVSPropertyOp40
 70
     1
102
RTVSPropertyOp41
 70
     1
102
RTVSPropertyOp42
 70
     1
102
RTVSPropertyOp43
 70
     1
102
RTVSPropertyOp44
 70
     1
102
RTVSPropertyOp45
 70
     1
102
RTVSPropertyOp46
 70
     1
102
RTVSPropertyOp47
 70
     1
102
RTVSPropertyOp48
 70
     1
102
RTVSPropertyOp49
 70
     1
102
RTVSPropertyOp50
 70
     1
102
RTVSPropertyOp51
 70
     0
102
RTVSPropertyOp52
 70
     0
102
RTVSPropertyOp53
 70
     1
102
RTVSPropertyOp54
 70
     1
102
RTVSPropertyOp55
 70
     1
102
RTVSPropertyOp56
 70
     1
102
RTVSPropertyOp57
 70
     1
102
RTVSPropertyOp58
 70
     1
102
RTVSPropertyOp59
 70
     1
102
RTVSPropertyOp60
 70
     1
102
RTVSPropertyOp61
 70
     1
102
RTVSPropertyOp62
 70
     1
  0
XRECORD
  5
BFE95
102
{ACAD_REACTORS
330
BFE94
102
}
330
BFE94
100
AcDbXrecord
280
     1
102
RTVSPost2010Prop28
280
     0
102
RTVSPost2010PropOp28
 70
     0
102
RTVSPost2010Prop29
280
     1
102
RTVSPost2010PropOp29
 70
     0
102
RTVSPost2010Prop30
280
     1
102
RTVSPost2010PropOp30
 70
     0
102
RTVSPost2010Prop31
280
     0
102
RTVSPost2010PropOp31
 70
     0
102
RTVSPost2010Prop32
280
     0
102
RTVSPost2010PropOp32
 70
     0
102
RTVSPost2010Prop33
280
     0
102
RTVSPost2010PropOp33
 70
     0
102
RTVSPost2010Prop34
280
     0
102
RTVSPost2010PropOp34
 70
     0
102
RTVSPost2010Prop35
280
     0
102
RTVSPost2010PropOp35
 70
     0
102
RTVSPost2010Prop36
280
     0
102
RTVSPost2010PropOp36
 70
     0
102
RTVSPost2010Prop37
 90
       50
102
RTVSPost2010PropOp37
 70
     0
102
RTVSPost2010Prop38
140
0.0
102
RTVSPost2010PropOp38
 70
     0
102
RTVSPost2010Prop39
140
1.0
102
RTVSPost2010PropOp39
 70
     0
102
RTVSPost2010Prop40
 90
        0
102
RTVSPost2010PropOp40
 70
     0
102
RTVSPost2010Prop41ColorIndex
 90
       18
102
RTVSPost2010Prop41ColorRGB
 90
        0
102
RTVSPost2010PropOp41
 70
     0
102
RTVSPost2010Prop42
 90
       50
102
RTVSPost2010PropOp42
 70
     0
102
RTVSPost2010Prop43
 90
        3
102
RTVSPost2010PropOp43
 70
     0
102
RTVSPost2010Prop44ColorIndex
 90
        5
102
RTVSPost2010Prop44ColorRGB
 90
      255
102
RTVSPost2010PropOp44
 70
     0
102
RTVSPost2010Prop45
280
     0
102
RTVSPost2010PropOp45
 70
     0
102
RTVSPost2010Prop46
 90
       50
102
RTVSPost2010PropOp46
 70
     0
102
RTVSPost2010Prop47
 90
       50
102
RTVSPost2010PropOp47
 70
     0
102
RTVSPost2010Prop48
 90
       50
102
RTVSPost2010PropOp48
 70
     0
102
RTVSPost2010Prop49
280
     0
102
RTVSPost2010PropOp49
 70
     0
102
RTVSPost2010Prop50
 90
       50
102
RTVSPost2010PropOp50
 70
     0
102
RTVSPost2010Prop51ColorIndex
 90
      256
102
RTVSPost2010Prop51ColorRGB
 90
-16777216
102
RTVSPost2010PropOp51
 70
     0
102
RTVSPost2010Prop52
140
1.0
102
RTVSPost2010PropOp52
 70
     0
102
RTVSPost2010Prop53
 90
        2
102
RTVSPost2010PropOp53
 70
     0
102
RTVSPost2010Prop54
  1
strokes_ogs.tif
102
RTVSPost2010PropOp54
 70
     0
102
RTVSPost2010Prop55
280
     0
102
RTVSPost2010PropOp55
 70
     0
102
RTVSPost2010Prop56
140
1.0
102
RTVSPost2010PropOp56
 70
     0
102
RTVSPost2010Prop57
140
1.0
102
RTVSPost2010PropOp57
 70
     0
102
RTVSPropertyOp0
 70
     0
102
RTVSPropertyOp1
 70
     0
102
RTVSPropertyOp2
 70
     0
102
RTVSPropertyOp3
 70
     0
102
RTVSPropertyOp4
 70
     0
102
RTVSPropertyOp5
 70
     0
102
RTVSPropertyOp6
 70
     0
102
RTVSPropertyOp7
 70
     0
102
RTVSPropertyOp8
 70
     0
102
RTVSPropertyOp9
 70
     0
102
RTVSPropertyOp10
 70
     0
102
RTVSPropertyOp11
 70
     0
102
RTVSPropertyOp12
 70
     0
102
RTVSPropertyOp13
 70
     0
102
RTVSPropertyOp14
 70
     2
102
RTVSPropertyOp15
 70
     0
102
RTVSPropertyOp16
 70
     0
102
RTVSPropertyOp17
 70
     0
102
RTVSPropertyOp18
 70
     0
102
RTVSPropertyOp19
 70
     0
102
RTVSPropertyOp20
 70
     0
102
RTVSPropertyOp21
 70
     0
102
RTVSPropertyOp22
 70
     0
102
RTVSPropertyOp23
 70
     0
102
RTVSPropertyOp24
 70
     0
102
RTVSPropertyOp25
 70
     0
102
RTVSPropertyOp26
 70
     0
102
RTVSPropertyOp27
 70
     0
102
RTVSPropertyOp28
 70
     0
102
RTVSPropertyOp29
 70
     0
102
RTVSPropertyOp30
 70
     0
102
RTVSPropertyOp31
 70
     0
102
RTVSPropertyOp32
 70
     0
102
RTVSPropertyOp33
 70
     0
102
RTVSPropertyOp34
 70
     0
102
RTVSPropertyOp35
 70
     0
102
RTVSPropertyOp36
 70
     0
102
RTVSPropertyOp37
 70
     0
102
RTVSPropertyOp38
 70
     0
102
RTVSPropertyOp39
 70
     0
102
RTVSPropertyOp40
 70
     0
102
RTVSPropertyOp41
 70
     0
102
RTVSPropertyOp42
 70
     0
102
RTVSPropertyOp43
 70
     0
102
RTVSPropertyOp44
 70
     0
102
RTVSPropertyOp45
 70
     0
102
RTVSPropertyOp46
 70
     0
102
RTVSPropertyOp47
 70
     0
102
RTVSPropertyOp48
 70
     0
102
RTVSPropertyOp49
 70
     0
102
RTVSPropertyOp50
 70
     0
102
RTVSPropertyOp51
 70
     0
102
RTVSPropertyOp52
 70
     0
102
RTVSPropertyOp53
 70
     0
102
RTVSPropertyOp54
 70
     0
102
RTVSPropertyOp55
 70
     0
102
RTVSPropertyOp56
 70
     0
102
RTVSPropertyOp57
 70
     0
102
RTVSPropertyOp58
 70
     1
102
RTVSPropertyOp59
 70
     1
102
RTVSPropertyOp60
 70
     1
102
RTVSPropertyOp61
 70
     1
102
RTVSPropertyOp62
 70
     1
  0
XRECORD
  5
BFE83
102
{ACAD_REACTORS
330
BFE82
102
}
330
BFE82
100
AcDbXrecord
280
     1
102
RTVSPost2010Prop28
280
     0
102
RTVSPost2010PropOp28
 70
     1
102
RTVSPost2010Prop29
280
     1
102
RTVSPost2010PropOp29
 70
     1
102
RTVSPost2010Prop30
280
     1
102
RTVSPost2010PropOp30
 70
     1
102
RTVSPost2010Prop31
280
     0
102
RTVSPost2010PropOp31
 70
     1
102
RTVSPost2010Prop32
280
     0
102
RTVSPost2010PropOp32
 70
     1
102
RTVSPost2010Prop33
280
     0
102
RTVSPost2010PropOp33
 70
     1
102
RTVSPost2010Prop34
280
     0
102
RTVSPost2010PropOp34
 70
     1
102
RTVSPost2010Prop35
280
     0
102
RTVSPost2010PropOp35
 70
     1
102
RTVSPost2010Prop36
280
     0
102
RTVSPost2010PropOp36
 70
     1
102
RTVSPost2010Prop37
 90
       50
102
RTVSPost2010PropOp37
 70
     1
102
RTVSPost2010Prop38
140
0.0
102
RTVSPost2010PropOp38
 70
     1
102
RTVSPost2010Prop39
140
1.0
102
RTVSPost2010PropOp39
 70
     1
102
RTVSPost2010Prop40
 90
        0
102
RTVSPost2010PropOp40
 70
     1
102
RTVSPost2010Prop41ColorIndex
 90
       18
102
RTVSPost2010Prop41ColorRGB
 90
        0
102
RTVSPost2010PropOp41
 70
     1
102
RTVSPost2010Prop42
 90
       50
102
RTVSPost2010PropOp42
 70
     1
102
RTVSPost2010Prop43
 90
        3
102
RTVSPost2010PropOp43
 70
     1
102
RTVSPost2010Prop44ColorIndex
 90
        5
102
RTVSPost2010Prop44ColorRGB
 90
      255
102
RTVSPost2010PropOp44
 70
     1
102
RTVSPost2010Prop45
280
     0
102
RTVSPost2010PropOp45
 70
     1
102
RTVSPost2010Prop46
 90
       50
102
RTVSPost2010PropOp46
 70
     1
102
RTVSPost2010Prop47
 90
       50
102
RTVSPost2010PropOp47
 70
     1
102
RTVSPost2010Prop48
 90
       50
102
RTVSPost2010PropOp48
 70
     1
102
RTVSPost2010Prop49
280
     0
102
RTVSPost2010PropOp49
 70
     1
102
RTVSPost2010Prop50
 90
       50
102
RTVSPost2010PropOp50
 70
     1
102
RTVSPost2010Prop51ColorIndex
 90
      256
102
RTVSPost2010Prop51ColorRGB
 90
-16777216
102
RTVSPost2010PropOp51
 70
     0
102
RTVSPost2010Prop52
140
1.0
102
RTVSPost2010PropOp52
 70
     0
102
RTVSPost2010Prop53
 90
        2
102
RTVSPost2010PropOp53
 70
     1
102
RTVSPost2010Prop54
  1
strokes_ogs.tif
102
RTVSPost2010PropOp54
 70
     1
102
RTVSPost2010Prop55
280
     0
102
RTVSPost2010PropOp55
 70
     1
102
RTVSPost2010Prop56
140
1.0
102
RTVSPost2010PropOp56
 70
     1
102
RTVSPost2010Prop57
140
1.0
102
RTVSPost2010PropOp57
 70
     1
102
RTVSPropertyOp0
 70
     1
102
RTVSPropertyOp1
 70
     1
102
RTVSPropertyOp2
 70
     1
102
RTVSPropertyOp3
 70
     1
102
RTVSPropertyOp4
 70
     1
102
RTVSPropertyOp5
 70
     1
102
RTVSPropertyOp6
 70
     1
102
RTVSPropertyOp7
 70
     1
102
RTVSPropertyOp8
 70
     1
102
RTVSPropertyOp9
 70
     1
102
RTVSPropertyOp10
 70
     1
102
RTVSPropertyOp11
 70
     1
102
RTVSPropertyOp12
 70
     1
102
RTVSPropertyOp13
 70
     1
102
RTVSPropertyOp14
 70
     1
102
RTVSPropertyOp15
 70
     1
102
RTVSPropertyOp16
 70
     1
102
RTVSPropertyOp17
 70
     1
102
RTVSPropertyOp18
 70
     1
102
RTVSPropertyOp19
 70
     1
102
RTVSPropertyOp20
 70
     1
102
RTVSPropertyOp21
 70
     1
102
RTVSPropertyOp22
 70
     1
102
RTVSPropertyOp23
 70
     1
102
RTVSPropertyOp24
 70
     1
102
RTVSPropertyOp25
 70
     1
102
RTVSPropertyOp26
 70
     1
102
RTVSPropertyOp27
 70
     1
102
RTVSPropertyOp28
 70
     1
102
RTVSPropertyOp29
 70
     1
102
RTVSPropertyOp30
 70
     1
102
RTVSPropertyOp31
 70
     1
102
RTVSPropertyOp32
 70
     1
102
RTVSPropertyOp33
 70
     1
102
RTVSPropertyOp34
 70
     1
102
RTVSPropertyOp35
 70
     1
102
RTVSPropertyOp36
 70
     1
102
RTVSPropertyOp37
 70
     1
102
RTVSPropertyOp38
 70
     1
102
RTVSPropertyOp39
 70
     1
102
RTVSPropertyOp40
 70
     1
102
RTVSPropertyOp41
 70
     1
102
RTVSPropertyOp42
 70
     1
102
RTVSPropertyOp43
 70
     1
102
RTVSPropertyOp44
 70
     1
102
RTVSPropertyOp45
 70
     1
102
RTVSPropertyOp46
 70
     1
102
RTVSPropertyOp47
 70
     1
102
RTVSPropertyOp48
 70
     1
102
RTVSPropertyOp49
 70
     1
102
RTVSPropertyOp50
 70
     1
102
RTVSPropertyOp51
 70
     0
102
RTVSPropertyOp52
 70
     0
102
RTVSPropertyOp53
 70
     1
102
RTVSPropertyOp54
 70
     1
102
RTVSPropertyOp55
 70
     1
102
RTVSPropertyOp56
 70
     1
102
RTVSPropertyOp57
 70
     1
102
RTVSPropertyOp58
 70
     1
102
RTVSPropertyOp59
 70
     1
102
RTVSPropertyOp60
 70
     1
102
RTVSPropertyOp61
 70
     1
102
RTVSPropertyOp62
 70
     1
  0
XRECORD
  5
BFEA1
102
{ACAD_REACTORS
330
BFEA0
102
}
330
BFEA0
100
AcDbXrecord
280
     1
102
RTVSPost2010Prop28
280
     0
102
RTVSPost2010PropOp28
 70
     1
102
RTVSPost2010Prop29
280
     1
102
RTVSPost2010PropOp29
 70
     1
102
RTVSPost2010Prop30
280
     1
102
RTVSPost2010PropOp30
 70
     1
102
RTVSPost2010Prop31
280
     0
102
RTVSPost2010PropOp31
 70
     1
102
RTVSPost2010Prop32
280
     0
102
RTVSPost2010PropOp32
 70
     1
102
RTVSPost2010Prop33
280
     0
102
RTVSPost2010PropOp33
 70
     1
102
RTVSPost2010Prop34
280
     0
102
RTVSPost2010PropOp34
 70
     1
102
RTVSPost2010Prop35
280
     0
102
RTVSPost2010PropOp35
 70
     1
102
RTVSPost2010Prop36
280
     0
102
RTVSPost2010PropOp36
 70
     1
102
RTVSPost2010Prop37
 90
       50
102
RTVSPost2010PropOp37
 70
     1
102
RTVSPost2010Prop38
140
0.0
102
RTVSPost2010PropOp38
 70
     1
102
RTVSPost2010Prop39
140
1.0
102
RTVSPost2010PropOp39
 70
     1
102
RTVSPost2010Prop40
 90
        0
102
RTVSPost2010PropOp40
 70
     1
102
RTVSPost2010Prop41ColorIndex
 90
       18
102
RTVSPost2010Prop41ColorRGB
 90
        0
102
RTVSPost2010PropOp41
 70
     1
102
RTVSPost2010Prop42
 90
       50
102
RTVSPost2010PropOp42
 70
     1
102
RTVSPost2010Prop43
 90
        3
102
RTVSPost2010PropOp43
 70
     1
102
RTVSPost2010Prop44ColorIndex
 90
        5
102
RTVSPost2010Prop44ColorRGB
 90
      255
102
RTVSPost2010PropOp44
 70
     1
102
RTVSPost2010Prop45
280
     0
102
RTVSPost2010PropOp45
 70
     1
102
RTVSPost2010Prop46
 90
       50
102
RTVSPost2010PropOp46
 70
     1
102
RTVSPost2010Prop47
 90
       50
102
RTVSPost2010PropOp47
 70
     1
102
RTVSPost2010Prop48
 90
       50
102
RTVSPost2010PropOp48
 70
     1
102
RTVSPost2010Prop49
280
     0
102
RTVSPost2010PropOp49
 70
     1
102
RTVSPost2010Prop50
 90
       50
102
RTVSPost2010PropOp50
 70
     1
102
RTVSPost2010Prop51ColorIndex
 90
      256
102
RTVSPost2010Prop51ColorRGB
 90
-16777216
102
RTVSPost2010PropOp51
 70
     0
102
RTVSPost2010Prop52
140
1.0
102
RTVSPost2010PropOp52
 70
     0
102
RTVSPost2010Prop53
 90
        2
102
RTVSPost2010PropOp53
 70
     1
102
RTVSPost2010Prop54
  1
strokes_ogs.tif
102
RTVSPost2010PropOp54
 70
     1
102
RTVSPost2010Prop55
280
     0
102
RTVSPost2010PropOp55
 70
     1
102
RTVSPost2010Prop56
140
1.0
102
RTVSPost2010PropOp56
 70
     1
102
RTVSPost2010Prop57
140
1.0
102
RTVSPost2010PropOp57
 70
     1
102
RTVSPropertyOp0
 70
     1
102
RTVSPropertyOp1
 70
     1
102
RTVSPropertyOp2
 70
     1
102
RTVSPropertyOp3
 70
     1
102
RTVSPropertyOp4
 70
     1
102
RTVSPropertyOp5
 70
     1
102
RTVSPropertyOp6
 70
     1
102
RTVSPropertyOp7
 70
     1
102
RTVSPropertyOp8
 70
     1
102
RTVSPropertyOp9
 70
     1
102
RTVSPropertyOp10
 70
     1
102
RTVSPropertyOp11
 70
     1
102
RTVSPropertyOp12
 70
     1
102
RTVSPropertyOp13
 70
     1
102
RTVSPropertyOp14
 70
     1
102
RTVSPropertyOp15
 70
     1
102
RTVSPropertyOp16
 70
     1
102
RTVSPropertyOp17
 70
     1
102
RTVSPropertyOp18
 70
     1
102
RTVSPropertyOp19
 70
     1
102
RTVSPropertyOp20
 70
     1
102
RTVSPropertyOp21
 70
     1
102
RTVSPropertyOp22
 70
     1
102
RTVSPropertyOp23
 70
     1
102
RTVSPropertyOp24
 70
     1
102
RTVSPropertyOp25
 70
     1
102
RTVSPropertyOp26
 70
     1
102
RTVSPropertyOp27
 70
     1
102
RTVSPropertyOp28
 70
     1
102
RTVSPropertyOp29
 70
     1
102
RTVSPropertyOp30
 70
     1
102
RTVSPropertyOp31
 70
     1
102
RTVSPropertyOp32
 70
     1
102
RTVSPropertyOp33
 70
     1
102
RTVSPropertyOp34
 70
     1
102
RTVSPropertyOp35
 70
     1
102
RTVSPropertyOp36
 70
     1
102
RTVSPropertyOp37
 70
     1
102
RTVSPropertyOp38
 70
     1
102
RTVSPropertyOp39
 70
     1
102
RTVSPropertyOp40
 70
     1
102
RTVSPropertyOp41
 70
     1
102
RTVSPropertyOp42
 70
     1
102
RTVSPropertyOp43
 70
     1
102
RTVSPropertyOp44
 70
     1
102
RTVSPropertyOp45
 70
     1
102
RTVSPropertyOp46
 70
     1
102
RTVSPropertyOp47
 70
     1
102
RTVSPropertyOp48
 70
     1
102
RTVSPropertyOp49
 70
     1
102
RTVSPropertyOp50
 70
     1
102
RTVSPropertyOp51
 70
     0
102
RTVSPropertyOp52
 70
     0
102
RTVSPropertyOp53
 70
     1
102
RTVSPropertyOp54
 70
     1
102
RTVSPropertyOp55
 70
     1
102
RTVSPropertyOp56
 70
     1
102
RTVSPropertyOp57
 70
     1
102
RTVSPropertyOp58
 70
     1
102
RTVSPropertyOp59
 70
     1
102
RTVSPropertyOp60
 70
     1
102
RTVSPropertyOp61
 70
     1
102
RTVSPropertyOp62
 70
     1
  0
XRECORD
  5
BFE9F
102
{ACAD_REACTORS
330
BFE9E
102
}
330
BFE9E
100
AcDbXrecord
280
     1
102
RTVSPost2010Prop28
280
     0
102
RTVSPost2010PropOp28
 70
     1
102
RTVSPost2010Prop29
280
     1
102
RTVSPost2010PropOp29
 70
     1
102
RTVSPost2010Prop30
280
     1
102
RTVSPost2010PropOp30
 70
     1
102
RTVSPost2010Prop31
280
     0
102
RTVSPost2010PropOp31
 70
     1
102
RTVSPost2010Prop32
280
     0
102
RTVSPost2010PropOp32
 70
     1
102
RTVSPost2010Prop33
280
     0
102
RTVSPost2010PropOp33
 70
     1
102
RTVSPost2010Prop34
280
     0
102
RTVSPost2010PropOp34
 70
     1
102
RTVSPost2010Prop35
280
     0
102
RTVSPost2010PropOp35
 70
     1
102
RTVSPost2010Prop36
280
     0
102
RTVSPost2010PropOp36
 70
     1
102
RTVSPost2010Prop37
 90
       50
102
RTVSPost2010PropOp37
 70
     1
102
RTVSPost2010Prop38
140
0.0
102
RTVSPost2010PropOp38
 70
     1
102
RTVSPost2010Prop39
140
1.0
102
RTVSPost2010PropOp39
 70
     1
102
RTVSPost2010Prop40
 90
        0
102
RTVSPost2010PropOp40
 70
     1
102
RTVSPost2010Prop41ColorIndex
 90
       18
102
RTVSPost2010Prop41ColorRGB
 90
        0
102
RTVSPost2010PropOp41
 70
     1
102
RTVSPost2010Prop42
 90
       50
102
RTVSPost2010PropOp42
 70
     1
102
RTVSPost2010Prop43
 90
        3
102
RTVSPost2010PropOp43
 70
     1
102
RTVSPost2010Prop44ColorIndex
 90
        5
102
RTVSPost2010Prop44ColorRGB
 90
      255
102
RTVSPost2010PropOp44
 70
     1
102
RTVSPost2010Prop45
280
     0
102
RTVSPost2010PropOp45
 70
     1
102
RTVSPost2010Prop46
 90
       50
102
RTVSPost2010PropOp46
 70
     1
102
RTVSPost2010Prop47
 90
       50
102
RTVSPost2010PropOp47
 70
     1
102
RTVSPost2010Prop48
 90
       50
102
RTVSPost2010PropOp48
 70
     1
102
RTVSPost2010Prop49
280
     0
102
RTVSPost2010PropOp49
 70
     1
102
RTVSPost2010Prop50
 90
       50
102
RTVSPost2010PropOp50
 70
     1
102
RTVSPost2010Prop51ColorIndex
 90
      256
102
RTVSPost2010Prop51ColorRGB
 90
-16777216
102
RTVSPost2010PropOp51
 70
     0
102
RTVSPost2010Prop52
140
1.0
102
RTVSPost2010PropOp52
 70
     0
102
RTVSPost2010Prop53
 90
        2
102
RTVSPost2010PropOp53
 70
     1
102
RTVSPost2010Prop54
  1
strokes_ogs.tif
102
RTVSPost2010PropOp54
 70
     1
102
RTVSPost2010Prop55
280
     0
102
RTVSPost2010PropOp55
 70
     1
102
RTVSPost2010Prop56
140
1.0
102
RTVSPost2010PropOp56
 70
     1
102
RTVSPost2010Prop57
140
1.0
102
RTVSPost2010PropOp57
 70
     1
102
RTVSPropertyOp0
 70
     1
102
RTVSPropertyOp1
 70
     1
102
RTVSPropertyOp2
 70
     1
102
RTVSPropertyOp3
 70
     1
102
RTVSPropertyOp4
 70
     1
102
RTVSPropertyOp5
 70
     1
102
RTVSPropertyOp6
 70
     1
102
RTVSPropertyOp7
 70
     1
102
RTVSPropertyOp8
 70
     1
102
RTVSPropertyOp9
 70
     1
102
RTVSPropertyOp10
 70
     1
102
RTVSPropertyOp11
 70
     1
102
RTVSPropertyOp12
 70
     1
102
RTVSPropertyOp13
 70
     1
102
RTVSPropertyOp14
 70
     1
102
RTVSPropertyOp15
 70
     1
102
RTVSPropertyOp16
 70
     1
102
RTVSPropertyOp17
 70
     1
102
RTVSPropertyOp18
 70
     1
102
RTVSPropertyOp19
 70
     1
102
RTVSPropertyOp20
 70
     1
102
RTVSPropertyOp21
 70
     1
102
RTVSPropertyOp22
 70
     1
102
RTVSPropertyOp23
 70
     1
102
RTVSPropertyOp24
 70
     1
102
RTVSPropertyOp25
 70
     1
102
RTVSPropertyOp26
 70
     1
102
RTVSPropertyOp27
 70
     1
102
RTVSPropertyOp28
 70
     1
102
RTVSPropertyOp29
 70
     1
102
RTVSPropertyOp30
 70
     1
102
RTVSPropertyOp31
 70
     1
102
RTVSPropertyOp32
 70
     1
102
RTVSPropertyOp33
 70
     1
102
RTVSPropertyOp34
 70
     1
102
RTVSPropertyOp35
 70
     1
102
RTVSPropertyOp36
 70
     1
102
RTVSPropertyOp37
 70
     1
102
RTVSPropertyOp38
 70
     1
102
RTVSPropertyOp39
 70
     1
102
RTVSPropertyOp40
 70
     1
102
RTVSPropertyOp41
 70
     1
102
RTVSPropertyOp42
 70
     1
102
RTVSPropertyOp43
 70
     1
102
RTVSPropertyOp44
 70
     1
102
RTVSPropertyOp45
 70
     1
102
RTVSPropertyOp46
 70
     1
102
RTVSPropertyOp47
 70
     1
102
RTVSPropertyOp48
 70
     1
102
RTVSPropertyOp49
 70
     1
102
RTVSPropertyOp50
 70
     1
102
RTVSPropertyOp51
 70
     0
102
RTVSPropertyOp52
 70
     0
102
RTVSPropertyOp53
 70
     1
102
RTVSPropertyOp54
 70
     1
102
RTVSPropertyOp55
 70
     1
102
RTVSPropertyOp56
 70
     1
102
RTVSPropertyOp57
 70
     1
102
RTVSPropertyOp58
 70
     1
102
RTVSPropertyOp59
 70
     1
102
RTVSPropertyOp60
 70
     1
102
RTVSPropertyOp61
 70
     1
102
RTVSPropertyOp62
 70
     1
  0
XRECORD
  5
BFE99
102
{ACAD_REACTORS
330
BFE98
102
}
330
BFE98
100
AcDbXrecord
280
     1
102
RTVSPost2010Prop28
280
     0
102
RTVSPost2010PropOp28
 70
     1
102
RTVSPost2010Prop29
280
     1
102
RTVSPost2010PropOp29
 70
     1
102
RTVSPost2010Prop30
280
     1
102
RTVSPost2010PropOp30
 70
     1
102
RTVSPost2010Prop31
280
     0
102
RTVSPost2010PropOp31
 70
     1
102
RTVSPost2010Prop32
280
     0
102
RTVSPost2010PropOp32
 70
     1
102
RTVSPost2010Prop33
280
     0
102
RTVSPost2010PropOp33
 70
     1
102
RTVSPost2010Prop34
280
     0
102
RTVSPost2010PropOp34
 70
     1
102
RTVSPost2010Prop35
280
     0
102
RTVSPost2010PropOp35
 70
     1
102
RTVSPost2010Prop36
280
     0
102
RTVSPost2010PropOp36
 70
     1
102
RTVSPost2010Prop37
 90
       50
102
RTVSPost2010PropOp37
 70
     1
102
RTVSPost2010Prop38
140
0.0
102
RTVSPost2010PropOp38
 70
     1
102
RTVSPost2010Prop39
140
1.0
102
RTVSPost2010PropOp39
 70
     1
102
RTVSPost2010Prop40
 90
        0
102
RTVSPost2010PropOp40
 70
     1
102
RTVSPost2010Prop41ColorIndex
 90
       18
102
RTVSPost2010Prop41ColorRGB
 90
        0
102
RTVSPost2010PropOp41
 70
     1
102
RTVSPost2010Prop42
 90
       50
102
RTVSPost2010PropOp42
 70
     1
102
RTVSPost2010Prop43
 90
        3
102
RTVSPost2010PropOp43
 70
     1
102
RTVSPost2010Prop44ColorIndex
 90
        5
102
RTVSPost2010Prop44ColorRGB
 90
      255
102
RTVSPost2010PropOp44
 70
     1
102
RTVSPost2010Prop45
280
     0
102
RTVSPost2010PropOp45
 70
     1
102
RTVSPost2010Prop46
 90
       50
102
RTVSPost2010PropOp46
 70
     1
102
RTVSPost2010Prop47
 90
       50
102
RTVSPost2010PropOp47
 70
     1
102
RTVSPost2010Prop48
 90
       50
102
RTVSPost2010PropOp48
 70
     1
102
RTVSPost2010Prop49
280
     0
102
RTVSPost2010PropOp49
 70
     1
102
RTVSPost2010Prop50
 90
       50
102
RTVSPost2010PropOp50
 70
     1
102
RTVSPost2010Prop51ColorIndex
 90
      256
102
RTVSPost2010Prop51ColorRGB
 90
-16777216
102
RTVSPost2010PropOp51
 70
     0
102
RTVSPost2010Prop52
140
1.0
102
RTVSPost2010PropOp52
 70
     0
102
RTVSPost2010Prop53
 90
        2
102
RTVSPost2010PropOp53
 70
     1
102
RTVSPost2010Prop54
  1
strokes_ogs.tif
102
RTVSPost2010PropOp54
 70
     1
102
RTVSPost2010Prop55
280
     0
102
RTVSPost2010PropOp55
 70
     1
102
RTVSPost2010Prop56
140
1.0
102
RTVSPost2010PropOp56
 70
     1
102
RTVSPost2010Prop57
140
1.0
102
RTVSPost2010PropOp57
 70
     1
102
RTVSPropertyOp0
 70
     1
102
RTVSPropertyOp1
 70
     1
102
RTVSPropertyOp2
 70
     1
102
RTVSPropertyOp3
 70
     1
102
RTVSPropertyOp4
 70
     1
102
RTVSPropertyOp5
 70
     1
102
RTVSPropertyOp6
 70
     1
102
RTVSPropertyOp7
 70
     1
102
RTVSPropertyOp8
 70
     1
102
RTVSPropertyOp9
 70
     1
102
RTVSPropertyOp10
 70
     1
102
RTVSPropertyOp11
 70
     1
102
RTVSPropertyOp12
 70
     1
102
RTVSPropertyOp13
 70
     1
102
RTVSPropertyOp14
 70
     1
102
RTVSPropertyOp15
 70
     1
102
RTVSPropertyOp16
 70
     1
102
RTVSPropertyOp17
 70
     1
102
RTVSPropertyOp18
 70
     1
102
RTVSPropertyOp19
 70
     1
102
RTVSPropertyOp20
 70
     1
102
RTVSPropertyOp21
 70
     1
102
RTVSPropertyOp22
 70
     1
102
RTVSPropertyOp23
 70
     1
102
RTVSPropertyOp24
 70
     1
102
RTVSPropertyOp25
 70
     1
102
RTVSPropertyOp26
 70
     1
102
RTVSPropertyOp27
 70
     1
102
RTVSPropertyOp28
 70
     1
102
RTVSPropertyOp29
 70
     1
102
RTVSPropertyOp30
 70
     1
102
RTVSPropertyOp31
 70
     1
102
RTVSPropertyOp32
 70
     1
102
RTVSPropertyOp33
 70
     1
102
RTVSPropertyOp34
 70
     1
102
RTVSPropertyOp35
 70
     1
102
RTVSPropertyOp36
 70
     1
102
RTVSPropertyOp37
 70
     1
102
RTVSPropertyOp38
 70
     1
102
RTVSPropertyOp39
 70
     1
102
RTVSPropertyOp40
 70
     1
102
RTVSPropertyOp41
 70
     1
102
RTVSPropertyOp42
 70
     1
102
RTVSPropertyOp43
 70
     1
102
RTVSPropertyOp44
 70
     1
102
RTVSPropertyOp45
 70
     1
102
RTVSPropertyOp46
 70
     1
102
RTVSPropertyOp47
 70
     1
102
RTVSPropertyOp48
 70
     1
102
RTVSPropertyOp49
 70
     1
102
RTVSPropertyOp50
 70
     1
102
RTVSPropertyOp51
 70
     0
102
RTVSPropertyOp52
 70
     0
102
RTVSPropertyOp53
 70
     1
102
RTVSPropertyOp54
 70
     1
102
RTVSPropertyOp55
 70
     1
102
RTVSPropertyOp56
 70
     1
102
RTVSPropertyOp57
 70
     1
102
RTVSPropertyOp58
 70
     1
102
RTVSPropertyOp59
 70
     1
102
RTVSPropertyOp60
 70
     1
102
RTVSPropertyOp61
 70
     1
102
RTVSPropertyOp62
 70
     1
  0
XRECORD
  5
BFE9B
102
{ACAD_REACTORS
330
BFE9A
102
}
330
BFE9A
100
AcDbXrecord
280
     1
102
RTVSPost2010Prop28
280
     0
102
RTVSPost2010PropOp28
 70
     1
102
RTVSPost2010Prop29
280
     1
102
RTVSPost2010PropOp29
 70
     1
102
RTVSPost2010Prop30
280
     1
102
RTVSPost2010PropOp30
 70
     1
102
RTVSPost2010Prop31
280
     0
102
RTVSPost2010PropOp31
 70
     1
102
RTVSPost2010Prop32
280
     0
102
RTVSPost2010PropOp32
 70
     1
102
RTVSPost2010Prop33
280
     0
102
RTVSPost2010PropOp33
 70
     1
102
RTVSPost2010Prop34
280
     0
102
RTVSPost2010PropOp34
 70
     1
102
RTVSPost2010Prop35
280
     0
102
RTVSPost2010PropOp35
 70
     1
102
RTVSPost2010Prop36
280
     0
102
RTVSPost2010PropOp36
 70
     1
102
RTVSPost2010Prop37
 90
       50
102
RTVSPost2010PropOp37
 70
     1
102
RTVSPost2010Prop38
140
0.0
102
RTVSPost2010PropOp38
 70
     1
102
RTVSPost2010Prop39
140
1.0
102
RTVSPost2010PropOp39
 70
     1
102
RTVSPost2010Prop40
 90
        0
102
RTVSPost2010PropOp40
 70
     1
102
RTVSPost2010Prop41ColorIndex
 90
       18
102
RTVSPost2010Prop41ColorRGB
 90
        0
102
RTVSPost2010PropOp41
 70
     1
102
RTVSPost2010Prop42
 90
       50
102
RTVSPost2010PropOp42
 70
     1
102
RTVSPost2010Prop43
 90
        3
102
RTVSPost2010PropOp43
 70
     1
102
RTVSPost2010Prop44ColorIndex
 90
        5
102
RTVSPost2010Prop44ColorRGB
 90
      255
102
RTVSPost2010PropOp44
 70
     1
102
RTVSPost2010Prop45
280
     0
102
RTVSPost2010PropOp45
 70
     1
102
RTVSPost2010Prop46
 90
       50
102
RTVSPost2010PropOp46
 70
     1
102
RTVSPost2010Prop47
 90
       50
102
RTVSPost2010PropOp47
 70
     1
102
RTVSPost2010Prop48
 90
       50
102
RTVSPost2010PropOp48
 70
     1
102
RTVSPost2010Prop49
280
     0
102
RTVSPost2010PropOp49
 70
     1
102
RTVSPost2010Prop50
 90
       50
102
RTVSPost2010PropOp50
 70
     1
102
RTVSPost2010Prop51ColorIndex
 90
      256
102
RTVSPost2010Prop51ColorRGB
 90
-16777216
102
RTVSPost2010PropOp51
 70
     0
102
RTVSPost2010Prop52
140
1.0
102
RTVSPost2010PropOp52
 70
     0
102
RTVSPost2010Prop53
 90
        2
102
RTVSPost2010PropOp53
 70
     1
102
RTVSPost2010Prop54
  1
strokes_ogs.tif
102
RTVSPost2010PropOp54
 70
     1
102
RTVSPost2010Prop55
280
     0
102
RTVSPost2010PropOp55
 70
     1
102
RTVSPost2010Prop56
140
1.0
102
RTVSPost2010PropOp56
 70
     1
102
RTVSPost2010Prop57
140
1.0
102
RTVSPost2010PropOp57
 70
     1
102
RTVSPropertyOp0
 70
     1
102
RTVSPropertyOp1
 70
     1
102
RTVSPropertyOp2
 70
     1
102
RTVSPropertyOp3
 70
     1
102
RTVSPropertyOp4
 70
     1
102
RTVSPropertyOp5
 70
     1
102
RTVSPropertyOp6
 70
     1
102
RTVSPropertyOp7
 70
     1
102
RTVSPropertyOp8
 70
     1
102
RTVSPropertyOp9
 70
     1
102
RTVSPropertyOp10
 70
     1
102
RTVSPropertyOp11
 70
     1
102
RTVSPropertyOp12
 70
     1
102
RTVSPropertyOp13
 70
     1
102
RTVSPropertyOp14
 70
     1
102
RTVSPropertyOp15
 70
     1
102
RTVSPropertyOp16
 70
     1
102
RTVSPropertyOp17
 70
     1
102
RTVSPropertyOp18
 70
     1
102
RTVSPropertyOp19
 70
     1
102
RTVSPropertyOp20
 70
     1
102
RTVSPropertyOp21
 70
     1
102
RTVSPropertyOp22
 70
     1
102
RTVSPropertyOp23
 70
     1
102
RTVSPropertyOp24
 70
     1
102
RTVSPropertyOp25
 70
     1
102
RTVSPropertyOp26
 70
     1
102
RTVSPropertyOp27
 70
     1
102
RTVSPropertyOp28
 70
     1
102
RTVSPropertyOp29
 70
     1
102
RTVSPropertyOp30
 70
     1
102
RTVSPropertyOp31
 70
     1
102
RTVSPropertyOp32
 70
     1
102
RTVSPropertyOp33
 70
     1
102
RTVSPropertyOp34
 70
     1
102
RTVSPropertyOp35
 70
     1
102
RTVSPropertyOp36
 70
     1
102
RTVSPropertyOp37
 70
     1
102
RTVSPropertyOp38
 70
     1
102
RTVSPropertyOp39
 70
     1
102
RTVSPropertyOp40
 70
     1
102
RTVSPropertyOp41
 70
     1
102
RTVSPropertyOp42
 70
     1
102
RTVSPropertyOp43
 70
     1
102
RTVSPropertyOp44
 70
     1
102
RTVSPropertyOp45
 70
     1
102
RTVSPropertyOp46
 70
     1
102
RTVSPropertyOp47
 70
     1
102
RTVSPropertyOp48
 70
     1
102
RTVSPropertyOp49
 70
     1
102
RTVSPropertyOp50
 70
     1
102
RTVSPropertyOp51
 70
     0
102
RTVSPropertyOp52
 70
     0
102
RTVSPropertyOp53
 70
     1
102
RTVSPropertyOp54
 70
     1
102
RTVSPropertyOp55
 70
     1
102
RTVSPropertyOp56
 70
     1
102
RTVSPropertyOp57
 70
     1
102
RTVSPropertyOp58
 70
     1
102
RTVSPropertyOp59
 70
     1
102
RTVSPropertyOp60
 70
     1
102
RTVSPropertyOp61
 70
     1
102
RTVSPropertyOp62
 70
     1
  0
XRECORD
  5
BFE8B
102
{ACAD_REACTORS
330
BFE8A
102
}
330
BFE8A
100
AcDbXrecord
280
     1
102
RTVSPost2010Prop28
280
     0
102
RTVSPost2010PropOp28
 70
     1
102
RTVSPost2010Prop29
280
     1
102
RTVSPost2010PropOp29
 70
     1
102
RTVSPost2010Prop30
280
     1
102
RTVSPost2010PropOp30
 70
     1
102
RTVSPost2010Prop31
280
     0
102
RTVSPost2010PropOp31
 70
     1
102
RTVSPost2010Prop32
280
     0
102
RTVSPost2010PropOp32
 70
     1
102
RTVSPost2010Prop33
280
     0
102
RTVSPost2010PropOp33
 70
     1
102
RTVSPost2010Prop34
280
     0
102
RTVSPost2010PropOp34
 70
     1
102
RTVSPost2010Prop35
280
     0
102
RTVSPost2010PropOp35
 70
     1
102
RTVSPost2010Prop36
280
     0
102
RTVSPost2010PropOp36
 70
     1
102
RTVSPost2010Prop37
 90
       50
102
RTVSPost2010PropOp37
 70
     1
102
RTVSPost2010Prop38
140
0.0
102
RTVSPost2010PropOp38
 70
     1
102
RTVSPost2010Prop39
140
1.0
102
RTVSPost2010PropOp39
 70
     1
102
RTVSPost2010Prop40
 90
        0
102
RTVSPost2010PropOp40
 70
     1
102
RTVSPost2010Prop41ColorIndex
 90
       18
102
RTVSPost2010Prop41ColorRGB
 90
        0
102
RTVSPost2010PropOp41
 70
     1
102
RTVSPost2010Prop42
 90
       50
102
RTVSPost2010PropOp42
 70
     1
102
RTVSPost2010Prop43
 90
        3
102
RTVSPost2010PropOp43
 70
     1
102
RTVSPost2010Prop44ColorIndex
 90
        5
102
RTVSPost2010Prop44ColorRGB
 90
      255
102
RTVSPost2010PropOp44
 70
     1
102
RTVSPost2010Prop45
280
     0
102
RTVSPost2010PropOp45
 70
     1
102
RTVSPost2010Prop46
 90
       50
102
RTVSPost2010PropOp46
 70
     1
102
RTVSPost2010Prop47
 90
       50
102
RTVSPost2010PropOp47
 70
     1
102
RTVSPost2010Prop48
 90
       50
102
RTVSPost2010PropOp48
 70
     1
102
RTVSPost2010Prop49
280
     0
102
RTVSPost2010PropOp49
 70
     1
102
RTVSPost2010Prop50
 90
       50
102
RTVSPost2010PropOp50
 70
     1
102
RTVSPost2010Prop51ColorIndex
 90
      256
102
RTVSPost2010Prop51ColorRGB
 90
-16777216
102
RTVSPost2010PropOp51
 70
     0
102
RTVSPost2010Prop52
140
1.0
102
RTVSPost2010PropOp52
 70
     0
102
RTVSPost2010Prop53
 90
        2
102
RTVSPost2010PropOp53
 70
     1
102
RTVSPost2010Prop54
  1
strokes_ogs.tif
102
RTVSPost2010PropOp54
 70
     1
102
RTVSPost2010Prop55
280
     0
102
RTVSPost2010PropOp55
 70
     1
102
RTVSPost2010Prop56
140
1.0
102
RTVSPost2010PropOp56
 70
     1
102
RTVSPost2010Prop57
140
1.0
102
RTVSPost2010PropOp57
 70
     1
102
RTVSPropertyOp0
 70
     1
102
RTVSPropertyOp1
 70
     1
102
RTVSPropertyOp2
 70
     1
102
RTVSPropertyOp3
 70
     1
102
RTVSPropertyOp4
 70
     1
102
RTVSPropertyOp5
 70
     1
102
RTVSPropertyOp6
 70
     1
102
RTVSPropertyOp7
 70
     1
102
RTVSPropertyOp8
 70
     1
102
RTVSPropertyOp9
 70
     1
102
RTVSPropertyOp10
 70
     1
102
RTVSPropertyOp11
 70
     1
102
RTVSPropertyOp12
 70
     1
102
RTVSPropertyOp13
 70
     1
102
RTVSPropertyOp14
 70
     1
102
RTVSPropertyOp15
 70
     1
102
RTVSPropertyOp16
 70
     1
102
RTVSPropertyOp17
 70
     1
102
RTVSPropertyOp18
 70
     1
102
RTVSPropertyOp19
 70
     1
102
RTVSPropertyOp20
 70
     1
102
RTVSPropertyOp21
 70
     1
102
RTVSPropertyOp22
 70
     1
102
RTVSPropertyOp23
 70
     1
102
RTVSPropertyOp24
 70
     1
102
RTVSPropertyOp25
 70
     1
102
RTVSPropertyOp26
 70
     1
102
RTVSPropertyOp27
 70
     1
102
RTVSPropertyOp28
 70
     1
102
RTVSPropertyOp29
 70
     1
102
RTVSPropertyOp30
 70
     1
102
RTVSPropertyOp31
 70
     1
102
RTVSPropertyOp32
 70
     1
102
RTVSPropertyOp33
 70
     1
102
RTVSPropertyOp34
 70
     1
102
RTVSPropertyOp35
 70
     1
102
RTVSPropertyOp36
 70
     1
102
RTVSPropertyOp37
 70
     1
102
RTVSPropertyOp38
 70
     1
102
RTVSPropertyOp39
 70
     1
102
RTVSPropertyOp40
 70
     1
102
RTVSPropertyOp41
 70
     1
102
RTVSPropertyOp42
 70
     1
102
RTVSPropertyOp43
 70
     1
102
RTVSPropertyOp44
 70
     1
102
RTVSPropertyOp45
 70
     1
102
RTVSPropertyOp46
 70
     1
102
RTVSPropertyOp47
 70
     1
102
RTVSPropertyOp48
 70
     1
102
RTVSPropertyOp49
 70
     1
102
RTVSPropertyOp50
 70
     1
102
RTVSPropertyOp51
 70
     0
102
RTVSPropertyOp52
 70
     0
102
RTVSPropertyOp53
 70
     1
102
RTVSPropertyOp54
 70
     1
102
RTVSPropertyOp55
 70
     1
102
RTVSPropertyOp56
 70
     1
102
RTVSPropertyOp57
 70
     1
102
RTVSPropertyOp58
 70
     1
102
RTVSPropertyOp59
 70
     1
102
RTVSPropertyOp60
 70
     1
102
RTVSPropertyOp61
 70
     1
102
RTVSPropertyOp62
 70
     1
  0
XRECORD
  5
BFE7D
102
{ACAD_REACTORS
330
BFE7C
102
}
330
BFE7C
100
AcDbXrecord
280
     1
102
RTVSPost2010Prop28
280
     0
102
RTVSPost2010PropOp28
 70
     1
102
RTVSPost2010Prop29
280
     1
102
RTVSPost2010PropOp29
 70
     1
102
RTVSPost2010Prop30
280
     1
102
RTVSPost2010PropOp30
 70
     1
102
RTVSPost2010Prop31
280
     0
102
RTVSPost2010PropOp31
 70
     1
102
RTVSPost2010Prop32
280
     0
102
RTVSPost2010PropOp32
 70
     1
102
RTVSPost2010Prop33
280
     0
102
RTVSPost2010PropOp33
 70
     1
102
RTVSPost2010Prop34
280
     0
102
RTVSPost2010PropOp34
 70
     1
102
RTVSPost2010Prop35
280
     0
102
RTVSPost2010PropOp35
 70
     1
102
RTVSPost2010Prop36
280
     0
102
RTVSPost2010PropOp36
 70
     1
102
RTVSPost2010Prop37
 90
       50
102
RTVSPost2010PropOp37
 70
     1
102
RTVSPost2010Prop38
140
0.0
102
RTVSPost2010PropOp38
 70
     1
102
RTVSPost2010Prop39
140
1.0
102
RTVSPost2010PropOp39
 70
     1
102
RTVSPost2010Prop40
 90
        0
102
RTVSPost2010PropOp40
 70
     1
102
RTVSPost2010Prop41ColorIndex
 90
       18
102
RTVSPost2010Prop41ColorRGB
 90
        0
102
RTVSPost2010PropOp41
 70
     1
102
RTVSPost2010Prop42
 90
       50
102
RTVSPost2010PropOp42
 70
     1
102
RTVSPost2010Prop43
 90
        3
102
RTVSPost2010PropOp43
 70
     1
102
RTVSPost2010Prop44ColorIndex
 90
        5
102
RTVSPost2010Prop44ColorRGB
 90
      255
102
RTVSPost2010PropOp44
 70
     1
102
RTVSPost2010Prop45
280
     0
102
RTVSPost2010PropOp45
 70
     1
102
RTVSPost2010Prop46
 90
       50
102
RTVSPost2010PropOp46
 70
     1
102
RTVSPost2010Prop47
 90
       50
102
RTVSPost2010PropOp47
 70
     1
102
RTVSPost2010Prop48
 90
       50
102
RTVSPost2010PropOp48
 70
     1
102
RTVSPost2010Prop49
280
     0
102
RTVSPost2010PropOp49
 70
     1
102
RTVSPost2010Prop50
 90
       50
102
RTVSPost2010PropOp50
 70
     1
102
RTVSPost2010Prop51ColorIndex
 90
      256
102
RTVSPost2010Prop51ColorRGB
 90
-16777216
102
RTVSPost2010PropOp51
 70
     0
102
RTVSPost2010Prop52
140
1.0
102
RTVSPost2010PropOp52
 70
     0
102
RTVSPost2010Prop53
 90
        2
102
RTVSPost2010PropOp53
 70
     1
102
RTVSPost2010Prop54
  1
strokes_ogs.tif
102
RTVSPost2010PropOp54
 70
     1
102
RTVSPost2010Prop55
280
     0
102
RTVSPost2010PropOp55
 70
     1
102
RTVSPost2010Prop56
140
1.0
102
RTVSPost2010PropOp56
 70
     1
102
RTVSPost2010Prop57
140
1.0
102
RTVSPost2010PropOp57
 70
     1
102
RTVSPropertyOp0
 70
     1
102
RTVSPropertyOp1
 70
     1
102
RTVSPropertyOp2
 70
     1
102
RTVSPropertyOp3
 70
     1
102
RTVSPropertyOp4
 70
     1
102
RTVSPropertyOp5
 70
     1
102
RTVSPropertyOp6
 70
     1
102
RTVSPropertyOp7
 70
     1
102
RTVSPropertyOp8
 70
     1
102
RTVSPropertyOp9
 70
     1
102
RTVSPropertyOp10
 70
     1
102
RTVSPropertyOp11
 70
     1
102
RTVSPropertyOp12
 70
     1
102
RTVSPropertyOp13
 70
     1
102
RTVSPropertyOp14
 70
     1
102
RTVSPropertyOp15
 70
     1
102
RTVSPropertyOp16
 70
     1
102
RTVSPropertyOp17
 70
     1
102
RTVSPropertyOp18
 70
     1
102
RTVSPropertyOp19
 70
     1
102
RTVSPropertyOp20
 70
     1
102
RTVSPropertyOp21
 70
     1
102
RTVSPropertyOp22
 70
     1
102
RTVSPropertyOp23
 70
     1
102
RTVSPropertyOp24
 70
     1
102
RTVSPropertyOp25
 70
     1
102
RTVSPropertyOp26
 70
     1
102
RTVSPropertyOp27
 70
     1
102
RTVSPropertyOp28
 70
     1
102
RTVSPropertyOp29
 70
     1
102
RTVSPropertyOp30
 70
     1
102
RTVSPropertyOp31
 70
     1
102
RTVSPropertyOp32
 70
     1
102
RTVSPropertyOp33
 70
     1
102
RTVSPropertyOp34
 70
     1
102
RTVSPropertyOp35
 70
     1
102
RTVSPropertyOp36
 70
     1
102
RTVSPropertyOp37
 70
     1
102
RTVSPropertyOp38
 70
     1
102
RTVSPropertyOp39
 70
     1
102
RTVSPropertyOp40
 70
     1
102
RTVSPropertyOp41
 70
     1
102
RTVSPropertyOp42
 70
     1
102
RTVSPropertyOp43
 70
     1
102
RTVSPropertyOp44
 70
     1
102
RTVSPropertyOp45
 70
     1
102
RTVSPropertyOp46
 70
     1
102
RTVSPropertyOp47
 70
     1
102
RTVSPropertyOp48
 70
     1
102
RTVSPropertyOp49
 70
     1
102
RTVSPropertyOp50
 70
     1
102
RTVSPropertyOp51
 70
     0
102
RTVSPropertyOp52
 70
     0
102
RTVSPropertyOp53
 70
     1
102
RTVSPropertyOp54
 70
     1
102
RTVSPropertyOp55
 70
     1
102
RTVSPropertyOp56
 70
     1
102
RTVSPropertyOp57
 70
     1
102
RTVSPropertyOp58
 70
     1
102
RTVSPropertyOp59
 70
     1
102
RTVSPropertyOp60
 70
     1
102
RTVSPropertyOp61
 70
     1
102
RTVSPropertyOp62
 70
     1
  0
XRECORD
  5
BFE9D
102
{ACAD_REACTORS
330
BFE9C
102
}
330
BFE9C
100
AcDbXrecord
280
     1
102
RTVSPost2010Prop28
280
     0
102
RTVSPost2010PropOp28
 70
     1
102
RTVSPost2010Prop29
280
     1
102
RTVSPost2010PropOp29
 70
     1
102
RTVSPost2010Prop30
280
     1
102
RTVSPost2010PropOp30
 70
     1
102
RTVSPost2010Prop31
280
     0
102
RTVSPost2010PropOp31
 70
     1
102
RTVSPost2010Prop32
280
     0
102
RTVSPost2010PropOp32
 70
     1
102
RTVSPost2010Prop33
280
     0
102
RTVSPost2010PropOp33
 70
     1
102
RTVSPost2010Prop34
280
     0
102
RTVSPost2010PropOp34
 70
     1
102
RTVSPost2010Prop35
280
     0
102
RTVSPost2010PropOp35
 70
     1
102
RTVSPost2010Prop36
280
     0
102
RTVSPost2010PropOp36
 70
     1
102
RTVSPost2010Prop37
 90
       50
102
RTVSPost2010PropOp37
 70
     1
102
RTVSPost2010Prop38
140
0.0
102
RTVSPost2010PropOp38
 70
     1
102
RTVSPost2010Prop39
140
1.0
102
RTVSPost2010PropOp39
 70
     1
102
RTVSPost2010Prop40
 90
        0
102
RTVSPost2010PropOp40
 70
     1
102
RTVSPost2010Prop41ColorIndex
 90
       18
102
RTVSPost2010Prop41ColorRGB
 90
        0
102
RTVSPost2010PropOp41
 70
     1
102
RTVSPost2010Prop42
 90
       50
102
RTVSPost2010PropOp42
 70
     1
102
RTVSPost2010Prop43
 90
        3
102
RTVSPost2010PropOp43
 70
     1
102
RTVSPost2010Prop44ColorIndex
 90
        5
102
RTVSPost2010Prop44ColorRGB
 90
      255
102
RTVSPost2010PropOp44
 70
     1
102
RTVSPost2010Prop45
280
     0
102
RTVSPost2010PropOp45
 70
     1
102
RTVSPost2010Prop46
 90
       50
102
RTVSPost2010PropOp46
 70
     1
102
RTVSPost2010Prop47
 90
       50
102
RTVSPost2010PropOp47
 70
     1
102
RTVSPost2010Prop48
 90
       50
102
RTVSPost2010PropOp48
 70
     1
102
RTVSPost2010Prop49
280
     0
102
RTVSPost2010PropOp49
 70
     1
102
RTVSPost2010Prop50
 90
       50
102
RTVSPost2010PropOp50
 70
     1
102
RTVSPost2010Prop51ColorIndex
 90
      256
102
RTVSPost2010Prop51ColorRGB
 90
-16777216
102
RTVSPost2010PropOp51
 70
     0
102
RTVSPost2010Prop52
140
1.0
102
RTVSPost2010PropOp52
 70
     0
102
RTVSPost2010Prop53
 90
        2
102
RTVSPost2010PropOp53
 70
     1
102
RTVSPost2010Prop54
  1
strokes_ogs.tif
102
RTVSPost2010PropOp54
 70
     1
102
RTVSPost2010Prop55
280
     0
102
RTVSPost2010PropOp55
 70
     1
102
RTVSPost2010Prop56
140
1.0
102
RTVSPost2010PropOp56
 70
     1
102
RTVSPost2010Prop57
140
1.0
102
RTVSPost2010PropOp57
 70
     1
102
RTVSPropertyOp0
 70
     1
102
RTVSPropertyOp1
 70
     1
102
RTVSPropertyOp2
 70
     1
102
RTVSPropertyOp3
 70
     1
102
RTVSPropertyOp4
 70
     1
102
RTVSPropertyOp5
 70
     1
102
RTVSPropertyOp6
 70
     1
102
RTVSPropertyOp7
 70
     1
102
RTVSPropertyOp8
 70
     1
102
RTVSPropertyOp9
 70
     1
102
RTVSPropertyOp10
 70
     1
102
RTVSPropertyOp11
 70
     1
102
RTVSPropertyOp12
 70
     1
102
RTVSPropertyOp13
 70
     1
102
RTVSPropertyOp14
 70
     1
102
RTVSPropertyOp15
 70
     1
102
RTVSPropertyOp16
 70
     1
102
RTVSPropertyOp17
 70
     1
102
RTVSPropertyOp18
 70
     1
102
RTVSPropertyOp19
 70
     1
102
RTVSPropertyOp20
 70
     1
102
RTVSPropertyOp21
 70
     1
102
RTVSPropertyOp22
 70
     1
102
RTVSPropertyOp23
 70
     1
102
RTVSPropertyOp24
 70
     1
102
RTVSPropertyOp25
 70
     1
102
RTVSPropertyOp26
 70
     1
102
RTVSPropertyOp27
 70
     1
102
RTVSPropertyOp28
 70
     1
102
RTVSPropertyOp29
 70
     1
102
RTVSPropertyOp30
 70
     1
102
RTVSPropertyOp31
 70
     1
102
RTVSPropertyOp32
 70
     1
102
RTVSPropertyOp33
 70
     1
102
RTVSPropertyOp34
 70
     1
102
RTVSPropertyOp35
 70
     1
102
RTVSPropertyOp36
 70
     1
102
RTVSPropertyOp37
 70
     1
102
RTVSPropertyOp38
 70
     1
102
RTVSPropertyOp39
 70
     1
102
RTVSPropertyOp40
 70
     1
102
RTVSPropertyOp41
 70
     1
102
RTVSPropertyOp42
 70
     1
102
RTVSPropertyOp43
 70
     1
102
RTVSPropertyOp44
 70
     1
102
RTVSPropertyOp45
 70
     1
102
RTVSPropertyOp46
 70
     1
102
RTVSPropertyOp47
 70
     1
102
RTVSPropertyOp48
 70
     1
102
RTVSPropertyOp49
 70
     1
102
RTVSPropertyOp50
 70
     1
102
RTVSPropertyOp51
 70
     0
102
RTVSPropertyOp52
 70
     0
102
RTVSPropertyOp53
 70
     1
102
RTVSPropertyOp54
 70
     1
102
RTVSPropertyOp55
 70
     1
102
RTVSPropertyOp56
 70
     1
102
RTVSPropertyOp57
 70
     1
102
RTVSPropertyOp58
 70
     1
102
RTVSPropertyOp59
 70
     1
102
RTVSPropertyOp60
 70
     1
102
RTVSPropertyOp61
 70
     1
102
RTVSPropertyOp62
 70
     1
  0
ENDSEC
  0
EOF
