  0
SECTION
  2
HEADER
  9
$ACADVER
  1
AC1015
  9
$ACADMAINTVER
 70
    20
  9
$DWGCODEPAGE
  3
ANSI_932
  9
$INSBASE
 10
0.0
 20
0.0
 30
0.0
  9
$EXTMIN
 10
5550.058266067233
 20
-3352.208102051702
 30
0.0
  9
$EXTMAX
 10
6253.845768383861
 20
-2974.268670697373
 30
137.5
  9
$LIMMIN
 10
0.0
 20
0.0
  9
$LIMMAX
 10
420.0
 20
297.0
  9
$ORTHOMODE
 70
     0
  9
$REGENMODE
 70
     1
  9
$FILLMODE
 70
     1
  9
$QTEXTMODE
 70
     0
  9
$MIRRTEXT
 70
     0
  9
$LTSCALE
 40
1.0
  9
$ATTMODE
 70
     1
  9
$TEXTSIZE
 40
3.2
  9
$TRACEWID
 40
1.0
  9
$TEXTSTYLE
  7
\U+FF7D\U+FF80\U+FF72\U+FF991
  9
$CLAYER
  8
\U+FF77\U+FF6C\U+FF6F\U+FF8C\U+FF9F\U+FF8E\U+FF9E\U+FF99\U+FF84
  9
$CELTYPE
  6
BYLAYER
  9
$CECOLOR
 62
   256
  9
$CELTSCALE
 40
1.0
  9
$DISPSILH
 70
     0
  9
$DIMSCALE
 40
2.0
  9
$DIMASZ
 40
1.5
  9
$DIMEXO
 40
1.0
  9
$DIMDLI
 40
0.38
  9
$DIMRND
 40
0.0
  9
$DIMDLE
 40
0.0
  9
$DIMEXE
 40
0.8
  9
$DIMTP
 40
0.0
  9
$DIMTM
 40
0.0
  9
$DIMTXT
 40
2.5
  9
$DIMCEN
 40
0.0
  9
$DIMTSZ
 40
0.0
  9
$DIMTOL
 70
     0
  9
$DIMLIM
 70
     0
  9
$DIMTIH
 70
     0
  9
$DIMTOH
 70
     0
  9
$DIMSE1
 70
     0
  9
$DIMSE2
 70
     0
  9
$DIMTAD
 70
     3
  9
$DIMZIN
 70
     8
  9
$DIMBLK
  1
Open30
  9
$DIMASO
 70
     1
  9
$DIMSHO
 70
     1
  9
$DIMPOST
  1

  9
$DIMAPOST
  1

  9
$DIMALT
 70
     0
  9
$DIMALTD
 70
     2
  9
$DIMALTF
 40
25.4
  9
$DIMLFAC
 40
1.0
  9
$DIMTOFL
 70
     0
  9
$DIMTVP
 40
0.0
  9
$DIMTIX
 70
     0
  9
$DIMSOXD
 70
     0
  9
$DIMSAH
 70
     0
  9
$DIMBLK1
  1

  9
$DIMBLK2
  1

  9
$DIMSTYLE
  2
まこ-10
  9
$DIMCLRD
 70
     4
  9
$DIMCLRE
 70
     4
  9
$DIMCLRT
 70
   256
  9
$DIMTFAC
 40
1.0
  9
$DIMGAP
 40
0.5
  9
$DIMJUST
 70
     0
  9
$DIMSD1
 70
     0
  9
$DIMSD2
 70
     0
  9
$DIMTOLJ
 70
     1
  9
$DIMTZIN
 70
     0
  9
$DIMALTZ
 70
     0
  9
$DIMALTTZ
 70
     0
  9
$DIMUPT
 70
     0
  9
$DIMDEC
 70
     5
  9
$DIMTDEC
 70
     5
  9
$DIMALTU
 70
     2
  9
$DIMALTTD
 70
     2
  9
$DIMTXSTY
  7
MS\U+FF7A\U+FF9E\U+FF7C\U+FF6F\U+FF78-0
  9
$DIMAUNIT
 70
     0
  9
$DIMADEC
 70
     5
  9
$DIMALTRND
 40
0.0
  9
$DIMAZIN
 70
     2
  9
$DIMDSEP
 70
    46
  9
$DIMATFIT
 70
     1
  9
$DIMFRAC
 70
     0
  9
$DIMLDRBLK
  1
Open30
  9
$DIMLUNIT
 70
     2
  9
$DIMLWD
 70
    13
  9
$DIMLWE
 70
    13
  9
$DIMTMOVE
 70
     0
  9
$LUNITS
 70
     2
  9
$LUPREC
 70
     4
  9
$SKETCHINC
 40
1.0
  9
$FILLETRAD
 40
0.6
  9
$AUNITS
 70
     0
  9
$AUPREC
 70
     0
  9
$MENU
  1
.
  9
$ELEVATION
 40
0.0
  9
$PELEVATION
 40
0.0
  9
$THICKNESS
 40
0.0
  9
$LIMCHECK
 70
     0
  9
$CHAMFERA
 40
1.5
  9
$CHAMFERB
 40
1.5
  9
$CHAMFERC
 40
20.0
  9
$CHAMFERD
 40
0.0
  9
$SKPOLY
 70
     0
  9
$TDCREATE
 40
2452479.723113426
  9
$TDUCREATE
 40
2452479.348123183
  9
$TDUPDATE
 40
2458547.497789352
  9
$TDUUPDATE
 40
2458547.122789352
  9
$TDINDWG
 40
0.0136752083
  9
$TDUSRTIMER
 40
2458333.319956725
  9
$USRTIMER
 70
     1
  9
$ANGBASE
 50
0.0
  9
$ANGDIR
 70
     0
  9
$PDMODE
 70
     0
  9
$PDSIZE
 40
0.0
  9
$PLINEWID
 40
0.0
  9
$SPLFRAME
 70
     0
  9
$SPLINETYPE
 70
     6
  9
$SPLINESEGS
 70
     8
  9
$HANDSEED
  5
BDA80
  9
$SURFTAB1
 70
     6
  9
$SURFTAB2
 70
     6
  9
$SURFTYPE
 70
     6
  9
$SURFU
 70
     6
  9
$SURFV
 70
     6
  9
$UCSBASE
  2

  9
$UCSNAME
  2

  9
$UCSORG
 10
0.0
 20
0.0
 30
0.0
  9
$UCSXDIR
 10
1.0
 20
0.0
 30
0.0
  9
$UCSYDIR
 10
0.0
 20
1.0
 30
0.0
  9
$UCSORTHOREF
  2

  9
$UCSORTHOVIEW
 70
     0
  9
$UCSORGTOP
 10
0.0
 20
0.0
 30
0.0
  9
$UCSORGBOTTOM
 10
0.0
 20
0.0
 30
0.0
  9
$UCSORGLEFT
 10
0.0
 20
0.0
 30
0.0
  9
$UCSORGRIGHT
 10
0.0
 20
0.0
 30
0.0
  9
$UCSORGFRONT
 10
0.0
 20
0.0
 30
0.0
  9
$UCSORGBACK
 10
0.0
 20
0.0
 30
0.0
  9
$PUCSBASE
  2

  9
$PUCSNAME
  2

  9
$PUCSORG
 10
0.0
 20
0.0
 30
0.0
  9
$PUCSXDIR
 10
1.0
 20
0.0
 30
0.0
  9
$PUCSYDIR
 10
0.0
 20
1.0
 30
0.0
  9
$PUCSORTHOREF
  2

  9
$PUCSORTHOVIEW
 70
     0
  9
$PUCSORGTOP
 10
0.0
 20
0.0
 30
0.0
  9
$PUCSORGBOTTOM
 10
0.0
 20
0.0
 30
0.0
  9
$PUCSORGLEFT
 10
0.0
 20
0.0
 30
0.0
  9
$PUCSORGRIGHT
 10
0.0
 20
0.0
 30
0.0
  9
$PUCSORGFRONT
 10
0.0
 20
0.0
 30
0.0
  9
$PUCSORGBACK
 10
0.0
 20
0.0
 30
0.0
  9
$USERI1
 70
     0
  9
$USERI2
 70
     0
  9
$USERI3
 70
     0
  9
$USERI4
 70
     0
  9
$USERI5
 70
     0
  9
$USERR1
 40
10.0
  9
$USERR2
 40
0.0
  9
$USERR3
 40
0.0
  9
$USERR4
 40
0.0
  9
$USERR5
 40
0.0
  9
$WORLDVIEW
 70
     1
  9
$SHADEDGE
 70
     3
  9
$SHADEDIF
 70
    70
  9
$TILEMODE
 70
     0
  9
$MAXACTVP
 70
    48
  9
$PINSBASE
 10
0.0
 20
0.0
 30
0.0
  9
$PLIMCHECK
 70
     0
  9
$PEXTMIN
 10
1.049999999999999
 20
0.6999999999999993
 30
0.0
  9
$PEXTMAX
 10
9.449999999999999
 20
6.3
 30
0.0
  9
$PLIMMIN
 10
0.0
 20
0.0
  9
$PLIMMAX
 10
11.0
 20
8.5
  9
$UNITMODE
 70
     0
  9
$VISRETAIN
 70
     1
  9
$PLINEGEN
 70
     0
  9
$PSLTSCALE
 70
     1
  9
$TREEDEPTH
 70
  3020
  9
$CMLSTYLE
  2
STANDARD
  9
$CMLJUST
 70
     0
  9
$CMLSCALE
 40
20.0
  9
$PROXYGRAPHICS
 70
     1
  9
$MEASUREMENT
 70
     0
  9
$CELWEIGHT
370
    -1
  9
$ENDCAPS
280
     0
  9
$JOINSTYLE
280
     0
  9
$LWDISPLAY
290
     0
  9
$INSUNITS
 70
     0
  9
$HYPERLINKBASE
  1

  9
$STYLESHEET
  1
monochrome.ctb
  9
$XEDIT
290
     1
  9
$CEPSNTYPE
380
     0
  9
$PSTYLEMODE
290
     1
  9
$FINGERPRINTGUID
  2
{6B368F64-F7EB-11D4-BFBA-00004C030E53}
  9
$VERSIONGUID
  2
{8ABE29D7-C476-324D-BBD4-BD0E25A01DD1}
  9
$EXTNAMES
290
     1
  9
$PSVPSCALE
 40
0.0
  9
$OLESTARTUP
290
     0
  0
ENDSEC
  0
SECTION
  2
CLASSES
  0
CLASS
  1
ACDBDICTIONARYWDFLT
  2
AcDbDictionaryWithDefault
  3
ObjectDBX Classes
 90
        0
280
     0
281
     0
  0
CLASS
  1
ACDBPLACEHOLDER
  2
AcDbPlaceHolder
  3
ObjectDBX Classes
 90
        0
280
     0
281
     0
  0
CLASS
  1
LAYOUT
  2
AcDbLayout
  3
ObjectDBX Classes
 90
        0
280
     0
281
     0
  0
CLASS
  1
DICTIONARYVAR
  2
AcDbDictionaryVar
  3
ObjectDBX Classes
 90
        0
280
     0
281
     0
  0
CLASS
  1
MATERIAL
  2
AcDbMaterial
  3
ObjectDBX Classes
 90
     1153
280
     0
281
     0
  0
CLASS
  1
VISUALSTYLE
  2
AcDbVisualStyle
  3
ObjectDBX Classes
 90
     4095
280
     0
281
     0
  0
CLASS
  1
TABLESTYLE
  2
AcDbTableStyle
  3
ObjectDBX Classes
 90
     4095
280
     0
281
     0
  0
CLASS
  1
SCALE
  2
AcDbScale
  3
ObjectDBX Classes
 90
     1153
280
     0
281
     0
  0
CLASS
  1
MLEADERSTYLE
  2
AcDbMLeaderStyle
  3
ACDB_MLEADERSTYLE_CLASS
 90
     4095
280
     0
281
     0
  0
CLASS
  1
ACDBSECTIONVIEWSTYLE
  2
AcDbSectionViewStyle
  3
ObjectDBX Classes
 90
     1025
280
     0
281
     0
  0
CLASS
  1
ACDBDETAILVIEWSTYLE
  2
AcDbDetailViewStyle
  3
ObjectDBX Classes
 90
     1025
280
     0
281
     0
  0
CLASS
  1
SORTENTSTABLE
  2
AcDbSortentsTable
  3
ObjectDBX Classes
 90
        0
280
     0
281
     0
  0
CLASS
  1
CELLSTYLEMAP
  2
AcDbCellStyleMap
  3
ObjectDBX Classes
 90
     1152
280
     0
281
     0
  0
CLASS
  1
SUN
  2
AcDbSun
  3
SCENEOE
 90
     1153
280
     0
281
     0
  0
CLASS
  1
RASTERVARIABLES
  2
AcDbRasterVariables
  3
ISM
 90
        0
280
     0
281
     0
  0
ENDSEC
  0
SECTION
  2
TABLES
  0
TABLE
  2
VPORT
  5
8
102
{ACAD_XDICTIONARY
360
BD9E4
102
}
330
0
100
AcDbSymbolTable
 70
     1
  0
VPORT
  5
BC740
330
8
100
AcDbSymbolTableRecord
100
AcDbViewportTableRecord
  2
*Active
 70
     0
 10
0.0
 20
0.0
 11
1.0
 21
1.0
 12
6081.780624089144
 22
-3180.86436496583
 13
-147.9468458676922
 23
19.55743956420332
 14
10.0
 24
10.0
 15
10.0
 25
10.0
 16
0.0
 26
0.0
 36
1.0
 17
0.0
 27
0.0
 37
0.0
 40
630.2117380774075
 41
1.650065530799475
 42
50.0
 43
0.0
 44
0.0
 50
0.0
 51
0.0
 71
    16
 72
   100
 73
     1
 74
     0
 75
     0
 76
     0
 77
     0
 78
     0
281
     0
 65
     1
110
0.0
120
0.0
130
0.0
111
1.0
121
0.0
131
0.0
112
0.0
122
1.0
132
0.0
 79
     0
146
0.0
1001
ACAD_NAV_VCDISPLAY
1070
     3
  0
ENDTAB
  0
TABLE
  2
LTYPE
  5
5
330
0
100
AcDbSymbolTable
 70
     4
  0
LTYPE
  5
12
330
5
100
AcDbSymbolTableRecord
100
AcDbLinetypeTableRecord
  2
BYBLOCK
 70
     0
  3

 72
    65
 73
     0
 40
0.0
  0
LTYPE
  5
13
330
5
100
AcDbSymbolTableRecord
100
AcDbLinetypeTableRecord
  2
BYLAYER
 70
     0
  3

 72
    65
 73
     0
 40
0.0
  0
LTYPE
  5
14
330
5
100
AcDbSymbolTableRecord
100
AcDbLinetypeTableRecord
  2
CONTINUOUS
 70
     0
  3
Solid line
 72
    65
 73
     0
 40
0.0
  0
LTYPE
  5
969
330
5
100
AcDbSymbolTableRecord
100
AcDbLinetypeTableRecord
  2
CENTER2
 70
     0
  3
Center (.5x) ___ _ ___ _ ___ _ ___ _ ___ _ ___
 72
    65
 73
     4
 40
28.575
 49
19.05
 74
     0
 49
-3.174999999999999
 74
     0
 49
3.174999999999999
 74
     0
 49
-3.174999999999999
 74
     0
  0
LTYPE
  5
BB7
330
5
100
AcDbSymbolTableRecord
100
AcDbLinetypeTableRecord
  2
HIDDEN
 70
     0
  3
Hidden __ __ __ __ __ __ __ __ __ __ __ __ __ _
 72
    65
 73
     2
 40
9.524999999999998
 49
6.349999999999999
 74
     0
 49
-3.174999999999999
 74
     0
  0
LTYPE
  5
808B3
330
5
100
AcDbSymbolTableRecord
100
AcDbLinetypeTableRecord
  2
PHANTOM2
 70
     0
  3
Phantom (.5x) ___ _ _ ___ _ _ ___ _ _ ___ _ _
 72
    65
 73
     6
 40
1.25
 49
0.625
 74
     0
 49
-0.125
 74
     0
 49
0.125
 74
     0
 49
-0.125
 74
     0
 49
0.125
 74
     0
 49
-0.125
 74
     0
  0
ENDTAB
  0
TABLE
  2
LAYER
  5
2
102
{ACAD_XDICTIONARY
360
1E591
102
}
330
0
100
AcDbSymbolTable
 70
    10
  0
LAYER
  5
E
102
{ACAD_XDICTIONARY
360
A181E
102
}
330
2
100
AcDbSymbolTableRecord
100
AcDbLayerTableRecord
  2
0
 70
     2
 62
     7
  6
CONTINUOUS
370
    -3
390
73E
  0
LAYER
  5
8C6
102
{ACAD_XDICTIONARY
360
A1826
102
}
330
2
100
AcDbSymbolTableRecord
100
AcDbLayerTableRecord
  2
文字
 70
     0
 62
     7
  6
CONTINUOUS
370
    20
390
73E
  0
LAYER
  5
96A
102
{ACAD_XDICTIONARY
360
A182C
102
}
330
2
100
AcDbSymbolTableRecord
100
AcDbLayerTableRecord
  2
中心線
 70
     0
 62
     7
  6
CENTER2
370
    13
390
73E
  0
LAYER
  5
1521
102
{ACAD_XDICTIONARY
360
A182E
102
}
330
2
100
AcDbSymbolTableRecord
100
AcDbLayerTableRecord
  2
実線
 70
     0
 62
     7
  6
CONTINUOUS
370
    30
390
73E
  0
LAYER
  5
1522
102
{ACAD_XDICTIONARY
360
A1830
102
}
330
2
100
AcDbSymbolTableRecord
100
AcDbLayerTableRecord
  2
隠れ線
 70
     0
 62
     7
  6
HIDDEN
370
    13
390
73E
  0
LAYER
  5
1523
102
{ACAD_XDICTIONARY
360
A1832
102
}
330
2
100
AcDbSymbolTableRecord
100
AcDbLayerTableRecord
  2
細線
 70
     0
 62
     7
  6
CONTINUOUS
370
    13
390
73E
  0
LAYER
  5
1526
102
{ACAD_XDICTIONARY
360
A1834
102
}
330
2
100
AcDbSymbolTableRecord
100
AcDbLayerTableRecord
  2
\U+FF77\U+FF6C\U+FF6F\U+FF8C\U+FF9F\U+FF8E\U+FF9E\U+FF99\U+FF84
 70
     0
 62
     7
  6
CONTINUOUS
370
    30
390
73E
  0
LAYER
  5
44F0
102
{ACAD_XDICTIONARY
360
A1836
102
}
330
2
100
AcDbSymbolTableRecord
100
AcDbLayerTableRecord
  2
\U+FF7A\U+FF88\U+FF78\U+FF80
 70
     0
 62
     7
  6
CONTINUOUS
370
    30
390
73E
  0
LAYER
  5
89316
102
{ACAD_XDICTIONARY
360
A185E
102
}
330
2
100
AcDbSymbolTableRecord
100
AcDbLayerTableRecord
  2
本体
 70
     0
 62
     7
  6
CONTINUOUS
370
    30
390
73E
  0
LAYER
  5
BD87C
102
{ACAD_XDICTIONARY
360
BD87D
102
}
330
2
100
AcDbSymbolTableRecord
100
AcDbLayerTableRecord
  2
寸法
 70
     0
 62
     7
  6
CONTINUOUS
370
    15
390
73E
  0
ENDTAB
  0
TABLE
  2
STYLE
  5
3
330
0
100
AcDbSymbolTable
 70
     6
  0
STYLE
  5
F
330
3
100
AcDbSymbolTableRecord
100
AcDbTextStyleTableRecord
  2
STANDARD
 70
     0
 40
0.0
 41
1.0
 50
0.0
 71
     0
 42
2.5
  3
simplex.shx
  4
bigfont.shx
  0
STYLE
  5
34
330
3
100
AcDbSymbolTableRecord
100
AcDbTextStyleTableRecord
  2
TIMESNR
 70
     0
 40
0.0
 41
1.0
 50
0.0
 71
     0
 42
2.0
  3
times.ttf
  4

1001
ACAD
1000
Times New Roman
1071
       18
  0
STYLE
  5
8D7
330
3
100
AcDbSymbolTableRecord
100
AcDbTextStyleTableRecord
  2
MS\U+FF7A\U+FF9E\U+FF7C\U+FF6F\U+FF78-0
 70
     0
 40
0.0
 41
1.0
 50
0.0
 71
     0
 42
4.0
  3
simplex.shx
  4
bigfont.shx
  0
STYLE
  5
1529
330
3
100
AcDbSymbolTableRecord
100
AcDbTextStyleTableRecord
  2
まこ
 70
     0
 40
0.0
 41
1.0
 50
0.0
 71
     0
 42
3.2
  3
simplex.shx
  4
bigfont.shx
  0
STYLE
  5
1A5A7
330
3
100
AcDbSymbolTableRecord
100
AcDbTextStyleTableRecord
  2
MS\U+FF7A\U+FF9E\U+FF7C\U+FF6F\U+FF78N
 70
     0
 40
0.0
 41
1.0
 50
0.0
 71
     0
 42
5.0
  3

  4

1001
ACAD
1000
MS Gothic
1071
    32817
  0
STYLE
  5
80335
330
3
100
AcDbSymbolTableRecord
100
AcDbTextStyleTableRecord
  2
\U+FF7D\U+FF80\U+FF72\U+FF991
 70
     0
 40
0.0
 41
1.0
 50
0.0
 71
     0
 42
3.2
  3
simplex.shx
  4
extfont.shx
  0
ENDTAB
  0
TABLE
  2
VIEW
  5
6
330
0
100
AcDbSymbolTable
 70
     0
  0
ENDTAB
  0
TABLE
  2
UCS
  5
7
330
0
100
AcDbSymbolTable
 70
     0
  0
ENDTAB
  0
TABLE
  2
APPID
  5
9
330
0
100
AcDbSymbolTable
 70
    12
  0
APPID
  5
10
330
9
100
AcDbSymbolTableRecord
100
AcDbRegAppTableRecord
  2
ACAD
 70
     0
  0
APPID
  5
8F5A1
330
9
100
AcDbSymbolTableRecord
100
AcDbRegAppTableRecord
  2
ACAD_NAV_VCDISPLAY
 70
     0
  0
APPID
  5
9D2AC
330
9
100
AcDbSymbolTableRecord
100
AcDbRegAppTableRecord
  2
ACAD_EXEMPT_FROM_CAD_STANDARDS
 70
     0
  0
APPID
  5
9F5CA
330
9
100
AcDbSymbolTableRecord
100
AcDbRegAppTableRecord
  2
ACAD_DSTYLE_DIMRADIAL_EXTENSION
 70
     0
  0
APPID
  5
9F624
330
9
100
AcDbSymbolTableRecord
100
AcDbRegAppTableRecord
  2
AcadAnnoMonitorAlertIconDisabled
 70
     0
  0
APPID
  5
A2043
330
9
100
AcDbSymbolTableRecord
100
AcDbRegAppTableRecord
  2
ACAD_MLEADERVER
 70
     0
  0
APPID
  5
A2088
330
9
100
AcDbSymbolTableRecord
100
AcDbRegAppTableRecord
  2
ACAD_DSTYLE_DIMFLIPARROW_WHICH_SYMBOL
 70
     0
  0
APPID
  5
B4EF0
330
9
100
AcDbSymbolTableRecord
100
AcDbRegAppTableRecord
  2
AcadAnnotative
 70
     0
  0
APPID
  5
BC34C
330
9
100
AcDbSymbolTableRecord
100
AcDbRegAppTableRecord
  2
ACAD_PSEXT
 70
     0
  0
APPID
  5
BCA8F
330
9
100
AcDbSymbolTableRecord
100
AcDbRegAppTableRecord
  2
PE_CLOUD
 70
     0
  0
APPID
  5
BD1C6
330
9
100
AcDbSymbolTableRecord
100
AcDbRegAppTableRecord
  2
TB_S_MPD
 70
     0
  0
APPID
  5
BD6BA
330
9
100
AcDbSymbolTableRecord
100
AcDbRegAppTableRecord
  2
PLOTTRANSPARENCY
 70
     0
  0
ENDTAB
  0
TABLE
  2
DIMSTYLE
  5
A
330
0
100
AcDbSymbolTable
 70
     2
100
AcDbDimStyleTable
 71
     0
  0
DIMSTYLE
105
1D
330
A
100
AcDbSymbolTableRecord
100
AcDbDimStyleTableRecord
  2
STANDARD
 70
     0
 41
3.0
 42
0.8
 44
0.8
 73
     0
 74
     0
 77
     3
 78
     8
 79
     2
140
3.0
141
0.0
147
0.5
176
     4
177
     4
178
   256
340
8D7
341
89E
342
89E
371
    13
372
    13
  0
DIMSTYLE
105
8264
330
A
100
AcDbSymbolTableRecord
100
AcDbDimStyleTableRecord
  2
まこ-10
 70
     0
 40
2.0
 41
1.5
 42
1.0
 44
0.8
 73
     0
 74
     0
 77
     3
 78
     8
 79
     2
140
2.5
141
0.0
147
0.5
176
     4
177
     4
178
   256
179
     5
271
     5
272
     5
289
     1
340
8D7
341
89E
342
89E
371
    13
372
    13
  0
ENDTAB
  0
TABLE
  2
BLOCK_RECORD
  5
1
330
0
100
AcDbSymbolTable
 70
     1
  0
BLOCK_RECORD
  5
18
102
{ACAD_XDICTIONARY
360
9F677
102
}
330
1
100
AcDbSymbolTableRecord
100
AcDbBlockTableRecord
  2
*MODEL_SPACE
340
741
  0
BLOCK_RECORD
  5
BD7A5
330
1
100
AcDbSymbolTableRecord
100
AcDbBlockTableRecord
  2
*Paper_Space
340
BD7A6
  0
BLOCK_RECORD
  5
89E
330
1
100
AcDbSymbolTableRecord
100
AcDbBlockTableRecord
  2
_Open30
340
0
  0
ENDTAB
  0
ENDSEC
  0
SECTION
  2
BLOCKS
  0
BLOCK
  5
19
330
18
100
AcDbEntity
  8
0
100
AcDbBlockBegin
  2
*MODEL_SPACE
 70
     0
 10
0.0
 20
0.0
 30
0.0
  3
*MODEL_SPACE
  1
*MODEL_SPACE
  0
ENDBLK
  5
1A
330
18
100
AcDbEntity
  8
0
100
AcDbBlockEnd
  0
BLOCK
  5
BD7A7
330
BD7A5
100
AcDbEntity
 67
     1
  8
0
100
AcDbBlockBegin
  2
*Paper_Space
 70
     0
 10
0.0
 20
0.0
 30
0.0
  3
*Paper_Space
  1
*Paper_Space
  0
ENDBLK
  5
BD7A8
330
BD7A5
100
AcDbEntity
 67
     1
  8
0
100
AcDbBlockEnd
  0
BLOCK
  5
8A2
330
89E
100
AcDbEntity
  8
0
100
AcDbBlockBegin
  2
_Open30
 70
     0
 10
0.0
 20
0.0
 30
0.0
  3
_Open30
  1
_Open30
  0
LINE
  5
89F
330
89E
100
AcDbEntity
  8
0
  6
ByBlock
 62
     0
370
    -2
100
AcDbLine
 10
-1.0
 20
0.26794919
 30
0.0
 11
0.0
 21
0.0
 31
0.0
  0
LINE
  5
8A0
330
89E
100
AcDbEntity
  8
0
  6
ByBlock
 62
     0
370
    -2
100
AcDbLine
 10
0.0
 20
0.0
 30
0.0
 11
-1.0
 21
-0.26794919
 31
0.0
  0
LINE
  5
8A1
330
89E
100
AcDbEntity
  8
0
  6
ByBlock
 62
     0
370
    -2
100
AcDbLine
 10
0.0
 20
0.0
 30
0.0
 11
-1.0
 21
0.0
 31
0.0
  0
ENDBLK
  5
8A3
330
89E
100
AcDbEntity
  8
0
100
AcDbBlockEnd
  0
ENDSEC
  0
SECTION
  2
ENTITIES
  0
TEXT
  5
16EAD
330
18
100
AcDbEntity
  8
文字
100
AcDbText
 10
-213.0399041533702
 20
458.6683596617151
 30
0.0
 40
2.699999892000001
  1

  7
まこ
 72
     1
 11
-213.0399041533702
 21
460.0183596077151
 31
0.0
100
AcDbText
 73
     2
  0
LINE
  5
B640D
330
18
100
AcDbEntity
  8
実線
 48
0.2
100
AcDbLine
 10
5769.91668923845
 20
-2996.405054186566
 30
0.0
 11
5769.916690966985
 21
-3087.052722798985
 31
0.0
  0
ARC
  5
B640E
330
18
100
AcDbEntity
  8
実線
 48
0.2
100
AcDbCircle
 10
5713.916689238356
 20
-3041.728888975839
 30
0.0
 40
55.25000000001637
100
AcDbArc
 50
0.0000000000521102
 51
151.0239196669747
  0
LINE
  5
B640F
330
18
100
AcDbEntity
  8
実線
 48
0.2
100
AcDbLine
 10
5657.916687509915
 20
-3013.420136051577
 30
0.0
 11
5657.916687509915
 21
-2996.405055152577
 31
0.0
  0
LINE
  5
B6410
330
18
100
AcDbEntity
  8
中心線
 48
0.5
100
AcDbLine
 10
5713.916689238452
 20
-3109.189107253475
 30
0.0
 11
5713.916689238452
 21
-2974.268670698086
 31
0.0
  0
ARC
  5
B6411
330
18
100
AcDbEntity
  8
実線
 48
0.2
100
AcDbCircle
 10
5713.91668923845
 20
-3041.728888975781
 30
0.0
 40
55.99999999999997
100
AcDbArc
 50
212.1939475442784
 51
147.8060524557216
  0
ARC
  5
B6417
330
18
100
AcDbEntity
  8
実線
 48
0.2
100
AcDbCircle
 10
5713.916689238356
 20
-3041.728888975839
 30
0.0
 40
55.25000000001637
100
AcDbArc
 50
208.97608033279
 51
0.0000000000521102
  0
LINE
  5
B6418
330
18
100
AcDbEntity
  8
中心線
 48
0.5
100
AcDbLine
 10
5646.456470960756
 20
-3041.728888975781
 30
0.0
 11
5781.376907516143
 21
-3041.728888975781
 31
0.0
  0
LINE
  5
B6419
330
18
100
AcDbEntity
  8
実線
 48
0.2
100
AcDbLine
 10
5759.240523061654
 20
-3097.728890704315
 30
0.0
 11
5668.592854391768
 21
-3097.728888975781
 31
0.0
  0
CIRCLE
  5
B641C
330
18
100
AcDbEntity
  8
\U+FF77\U+FF6C\U+FF6F\U+FF8C\U+FF9F\U+FF8E\U+FF9E\U+FF99\U+FF84
100
AcDbCircle
 10
5676.72287254814
 20
-3078.922705830119
 30
0.0
 40
2.0
  0
LINE
  5
B641D
330
18
100
AcDbEntity
  8
実線
 48
0.2
100
AcDbLine
 10
5657.916687509915
 20
-3087.052722798985
 30
0.0
 11
5657.916687509915
 21
-3070.037641899984
 31
0.0
  0
ARC
  5
B642D
330
18
100
AcDbEntity
  8
実線
 48
0.2
100
AcDbCircle
 10
5713.91668923845
 20
-3041.728888975781
 30
0.0
 40
72.49999999999996
100
AcDbArc
 50
220.007753913509
 51
229.9922460865276
  0
ARC
  5
B642E
330
18
100
AcDbEntity
  8
実線
 48
0.2
100
AcDbCircle
 10
5668.592854449236
 20
-3095.728888975781
 30
0.0
 40
2.0
100
AcDbArc
 50
229.9922460865276
 51
270.0
  0
ARC
  5
B642F
330
18
100
AcDbEntity
  8
実線
 48
0.2
100
AcDbCircle
 10
5659.91668923845
 20
-3087.052723764994
 30
0.0
 40
2.0
100
AcDbArc
 50
180.0
 51
220.007753913509
  0
LINE
  5
B6430
330
18
100
AcDbEntity
  8
\U+FF77\U+FF6C\U+FF6F\U+FF8C\U+FF9F\U+FF8E\U+FF9E\U+FF99\U+FF84
100
AcDbLine
 10
5677.416313449703
 20
-3077.875711537962
 30
0.0
 11
5676.72287254814
 21
-3078.569152439525
 31
0.0
  0
LINE
  5
B6431
330
18
100
AcDbEntity
  8
\U+FF77\U+FF6C\U+FF6F\U+FF8C\U+FF9F\U+FF8E\U+FF9E\U+FF99\U+FF84
100
AcDbLine
 10
5677.769866840296
 20
-3078.229264928555
 30
0.0
 11
5677.076425938732
 21
-3078.922705830119
 31
0.0
  0
LINE
  5
B6432
330
18
100
AcDbEntity
  8
\U+FF77\U+FF6C\U+FF6F\U+FF8C\U+FF9F\U+FF8E\U+FF9E\U+FF99\U+FF84
100
AcDbLine
 10
5675.675878255983
 20
-3078.229264928555
 30
0.0
 11
5676.369319157545
 21
-3078.922705830119
 31
0.0
  0
LINE
  5
B6433
330
18
100
AcDbEntity
  8
\U+FF77\U+FF6C\U+FF6F\U+FF8C\U+FF9F\U+FF8E\U+FF9E\U+FF99\U+FF84
100
AcDbLine
 10
5676.029431646576
 20
-3077.875711537962
 30
0.0
 11
5676.72287254814
 21
-3078.569152439525
 31
0.0
  0
LINE
  5
B6434
330
18
100
AcDbEntity
  8
\U+FF77\U+FF6C\U+FF6F\U+FF8C\U+FF9F\U+FF8E\U+FF9E\U+FF99\U+FF84
100
AcDbLine
 10
5676.369319157545
 20
-3078.922705830119
 30
0.0
 11
5675.675878255981
 21
-3079.616146731682
 31
0.0
  0
LINE
  5
B6435
330
18
100
AcDbEntity
  8
\U+FF77\U+FF6C\U+FF6F\U+FF8C\U+FF9F\U+FF8E\U+FF9E\U+FF99\U+FF84
100
AcDbLine
 10
5676.722872548138
 20
-3079.276259220712
 30
0.0
 11
5676.029431646576
 21
-3079.969700122277
 31
0.0
  0
LINE
  5
B6436
330
18
100
AcDbEntity
  8
\U+FF77\U+FF6C\U+FF6F\U+FF8C\U+FF9F\U+FF8E\U+FF9E\U+FF99\U+FF84
100
AcDbLine
 10
5677.076425938732
 20
-3078.922705830118
 30
0.0
 11
5677.769866840296
 21
-3079.616146731682
 31
0.0
  0
LINE
  5
B6437
330
18
100
AcDbEntity
  8
\U+FF77\U+FF6C\U+FF6F\U+FF8C\U+FF9F\U+FF8E\U+FF9E\U+FF99\U+FF84
100
AcDbLine
 10
5676.722872548138
 20
-3079.276259220712
 30
0.0
 11
5677.416313449703
 21
-3079.969700122277
 31
0.0
  0
LINE
  5
B6438
330
18
100
AcDbEntity
  8
\U+FF77\U+FF6C\U+FF6F\U+FF8C\U+FF9F\U+FF8E\U+FF9E\U+FF99\U+FF84
100
AcDbLine
 10
5676.029431646576
 20
-3079.969700122277
 30
0.0
 11
5675.675878255983
 21
-3079.616146731682
 31
0.0
  0
LINE
  5
B6439
330
18
100
AcDbEntity
  8
\U+FF77\U+FF6C\U+FF6F\U+FF8C\U+FF9F\U+FF8E\U+FF9E\U+FF99\U+FF84
100
AcDbLine
 10
5675.675878255983
 20
-3078.229264928555
 30
0.0
 11
5676.029431646576
 21
-3077.875711537962
 31
0.0
  0
LINE
  5
B643A
330
18
100
AcDbEntity
  8
\U+FF77\U+FF6C\U+FF6F\U+FF8C\U+FF9F\U+FF8E\U+FF9E\U+FF99\U+FF84
100
AcDbLine
 10
5677.769866840297
 20
-3078.229264928555
 30
0.0
 11
5677.416313449703
 21
-3077.875711537962
 31
0.0
  0
LINE
  5
B643B
330
18
100
AcDbEntity
  8
\U+FF77\U+FF6C\U+FF6F\U+FF8C\U+FF9F\U+FF8E\U+FF9E\U+FF99\U+FF84
100
AcDbLine
 10
5677.416313449703
 20
-3079.969700122277
 30
0.0
 11
5677.769866840296
 21
-3079.616146731682
 31
0.0
  0
CIRCLE
  5
B643C
330
18
100
AcDbEntity
  8
実線
 48
0.2
100
AcDbCircle
 10
5669.72251541429
 20
-3085.923062799944
 30
0.0
 40
3.5
  0
ARC
  5
B643D
330
18
100
AcDbEntity
  8
中心線
 48
0.5
100
AcDbCircle
 10
5713.91668923845
 20
-3041.728888975781
 30
0.0
 40
62.50000000000287
100
AcDbArc
 50
218.3059146666068
 51
231.6940853333932
  0
LINE
  5
B643E
330
18
100
AcDbEntity
  8
中心線
 48
0.5
100
AcDbLine
 10
5674.882953783574
 20
-3080.762624430657
 30
0.0
 11
5664.562077045006
 21
-3091.083501169225
 31
0.0
  0
LINE
  5
B643F
330
18
100
AcDbEntity
  8
中心線
100
AcDbLine
 10
5622.232597589022
 20
-3041.72888897578
 30
0.0
 11
5653.416689238451
 21
-3041.728888975781
 31
0.0
  0
ARC
  5
B644B
330
18
100
AcDbEntity
  8
実線
 48
0.2
100
AcDbCircle
 10
5713.91668923845
 20
-3041.728888975781
 30
0.0
 40
62.49999999999994
100
AcDbArc
 50
155.0714582197782
 51
204.9285417802218
  0
ARC
  5
B644C
330
18
100
AcDbEntity
  8
実線
 48
0.2
100
AcDbCircle
 10
5713.916689238412
 20
-3041.72888897573
 30
0.0
 40
61.0
100
AcDbArc
 50
155.1127895121913
 51
204.8872104878087
  0
LINE
  5
B6457
330
18
100
AcDbEntity
  8
実線
 48
0.2
100
AcDbLine
 10
5659.488410742758
 20
-3067.978888975722
 30
0.0
 11
5664.707950177021
 21
-3067.978888975725
 31
0.0
  0
ARC
  5
B6458
330
18
100
AcDbEntity
  8
実線
 48
0.2
100
AcDbCircle
 10
5662.295472670065
 20
-3074.228888975779
 30
0.0
 40
5.00000000000002
100
AcDbArc
 50
32.19394754427842
 51
90.0
  0
LINE
  5
B6459
330
18
100
AcDbEntity
  8
実線
 48
0.2
100
AcDbLine
 10
5659.053221425912
 20
-3069.228888826769
 30
0.0
 11
5662.295471957824
 21
-3069.228888826769
 31
0.0
  0
ARC
  5
B645A
330
18
100
AcDbEntity
  8
実線
 48
0.2
100
AcDbCircle
 10
5654.916689238451
 20
-3070.037642060501
 30
0.0
 40
3.0
100
AcDbArc
 50
0.0
 51
34.05827246151328
  0
ARC
  5
B645B
330
18
100
AcDbEntity
  8
実線
 48
0.2
100
AcDbCircle
 10
5659.053222341069
 20
-3067.228888975781
 30
0.0
 40
2.000000000000014
100
AcDbArc
 50
204.9285417802218
 51
270.0
  0
ARC
  5
B645C
330
18
100
AcDbEntity
  8
実線
 48
0.2
100
AcDbCircle
 10
5659.488410742758
 20
-3066.978888975722
 30
0.0
 40
1.0
100
AcDbArc
 50
204.8872104878087
 51
269.9999999998957
  0
ARC
  5
B645D
330
18
100
AcDbEntity
  8
実線
 48
0.2
100
AcDbCircle
 10
5664.707950177021
 20
-3068.978888975725
 30
0.0
 40
1.0
100
AcDbArc
 50
28.97608033278996
 51
90.0
  0
LINE
  5
B646C
330
18
100
AcDbEntity
  8
実線
 48
0.2
100
AcDbLine
 10
5659.488410742765
 20
-3015.478888975722
 30
0.0
 11
5664.707950177151
 21
-3015.478888975722
 31
0.0
  0
ARC
  5
B646D
330
18
100
AcDbEntity
  8
実線
 48
0.2
100
AcDbCircle
 10
5662.295472670065
 20
-3009.228888975781
 30
0.0
 40
5.000000000000007
100
AcDbArc
 50
270.0
 51
327.8060524557216
  0
LINE
  5
B646E
330
18
100
AcDbEntity
  8
実線
 48
0.2
100
AcDbLine
 10
5662.295471957824
 20
-3014.228889124793
 30
0.0
 11
5659.053221425912
 21
-3014.228889124793
 31
0.0
  0
ARC
  5
B646F
330
18
100
AcDbEntity
  8
実線
 48
0.2
100
AcDbCircle
 10
5654.916689238451
 20
-3013.420135891058
 30
0.0
 40
3.000000000000015
100
AcDbArc
 50
325.9398073321623
 51
0.0
  0
ARC
  5
B6470
330
18
100
AcDbEntity
  8
実線
 48
0.2
100
AcDbCircle
 10
5659.053222341069
 20
-3016.228888975781
 30
0.0
 40
2.0
100
AcDbArc
 50
90.0
 51
155.0714582197782
  0
ARC
  5
B6471
330
18
100
AcDbEntity
  8
実線
 48
0.2
100
AcDbCircle
 10
5659.488410742765
 20
-3016.478888975722
 30
0.0
 40
1.0
100
AcDbArc
 50
90.0
 51
155.1127895121913
  0
ARC
  5
B6472
330
18
100
AcDbEntity
  8
実線
 48
0.2
100
AcDbCircle
 10
5664.707950177151
 20
-3014.478888975722
 30
0.0
 40
1.0
100
AcDbArc
 50
270.0
 51
331.0239196669747
  0
CIRCLE
  5
B6473
330
18
100
AcDbEntity
  8
\U+FF77\U+FF6C\U+FF6F\U+FF8C\U+FF9F\U+FF8E\U+FF9E\U+FF99\U+FF84
100
AcDbCircle
 10
5751.110506092791
 20
-3078.922705666094
 30
0.0
 40
2.0
  0
ARC
  5
B6476
330
18
100
AcDbEntity
  8
実線
 48
0.2
100
AcDbCircle
 10
5713.91668923845
 20
-3041.728888975781
 30
0.0
 40
72.50000000000003
100
AcDbArc
 50
310.0077539134724
 51
319.992246086491
  0
ARC
  5
B6477
330
18
100
AcDbEntity
  8
実線
 48
0.2
100
AcDbCircle
 10
5759.240524027664
 20
-3095.728888975781
 30
0.0
 40
2.000000000000008
100
AcDbArc
 50
270.0
 51
310.0077539134724
  0
CIRCLE
  5
B6478
330
18
100
AcDbEntity
  8
実線
 48
0.2
100
AcDbCircle
 10
5758.110863062612
 20
-3085.923062799941
 30
0.0
 40
3.5
  0
ARC
  5
B6479
330
18
100
AcDbEntity
  8
中心線
 48
0.5
100
AcDbCircle
 10
5713.91668923845
 20
-3041.728888975781
 30
0.0
 40
62.50000000000287
100
AcDbArc
 50
308.3059146666068
 51
321.6940853333932
  0
LINE
  5
B647A
330
18
100
AcDbEntity
  8
中心線
 48
0.5
100
AcDbLine
 10
5752.950424693326
 20
-3080.762624430658
 30
0.0
 11
5763.271301431895
 21
-3091.083501169225
 31
0.0
  0
LINE
  5
B647B
330
18
100
AcDbEntity
  8
\U+FF77\U+FF6C\U+FF6F\U+FF8C\U+FF9F\U+FF8E\U+FF9E\U+FF99\U+FF84
100
AcDbLine
 10
5750.063511800634
 20
-3078.229264764531
 30
0.0
 11
5750.756952702197
 21
-3078.922705666094
 31
0.0
  0
LINE
  5
B647C
330
18
100
AcDbEntity
  8
\U+FF77\U+FF6C\U+FF6F\U+FF8C\U+FF9F\U+FF8E\U+FF9E\U+FF99\U+FF84
100
AcDbLine
 10
5750.417065191226
 20
-3077.875711373939
 30
0.0
 11
5751.110506092791
 21
-3078.569152275502
 31
0.0
  0
LINE
  5
B647D
330
18
100
AcDbEntity
  8
\U+FF77\U+FF6C\U+FF6F\U+FF8C\U+FF9F\U+FF8E\U+FF9E\U+FF99\U+FF84
100
AcDbLine
 10
5750.417065191226
 20
-3079.969699958252
 30
0.0
 11
5751.110506092791
 21
-3079.276259056689
 31
0.0
  0
LINE
  5
B647E
330
18
100
AcDbEntity
  8
\U+FF77\U+FF6C\U+FF6F\U+FF8C\U+FF9F\U+FF8E\U+FF9E\U+FF99\U+FF84
100
AcDbLine
 10
5750.063511800634
 20
-3079.616146567659
 30
0.0
 11
5750.756952702197
 21
-3078.922705666094
 31
0.0
  0
LINE
  5
B647F
330
18
100
AcDbEntity
  8
\U+FF77\U+FF6C\U+FF6F\U+FF8C\U+FF9F\U+FF8E\U+FF9E\U+FF99\U+FF84
100
AcDbLine
 10
5751.110506092791
 20
-3079.276259056689
 30
0.0
 11
5751.803946994354
 21
-3079.969699958253
 31
0.0
  0
LINE
  5
B6480
330
18
100
AcDbEntity
  8
\U+FF77\U+FF6C\U+FF6F\U+FF8C\U+FF9F\U+FF8E\U+FF9E\U+FF99\U+FF84
100
AcDbLine
 10
5751.464059483383
 20
-3078.922705666097
 30
0.0
 11
5752.157500384948
 21
-3079.616146567659
 31
0.0
  0
LINE
  5
B6481
330
18
100
AcDbEntity
  8
\U+FF77\U+FF6C\U+FF6F\U+FF8C\U+FF9F\U+FF8E\U+FF9E\U+FF99\U+FF84
100
AcDbLine
 10
5751.110506092789
 20
-3078.569152275502
 30
0.0
 11
5751.803946994354
 21
-3077.875711373939
 31
0.0
  0
LINE
  5
B6482
330
18
100
AcDbEntity
  8
\U+FF77\U+FF6C\U+FF6F\U+FF8C\U+FF9F\U+FF8E\U+FF9E\U+FF99\U+FF84
100
AcDbLine
 10
5751.464059483383
 20
-3078.922705666097
 30
0.0
 11
5752.157500384948
 21
-3078.229264764531
 31
0.0
  0
LINE
  5
B6483
330
18
100
AcDbEntity
  8
\U+FF77\U+FF6C\U+FF6F\U+FF8C\U+FF9F\U+FF8E\U+FF9E\U+FF99\U+FF84
100
AcDbLine
 10
5752.157500384948
 20
-3079.616146567659
 30
0.0
 11
5751.803946994354
 21
-3079.969699958252
 31
0.0
  0
LINE
  5
B6484
330
18
100
AcDbEntity
  8
\U+FF77\U+FF6C\U+FF6F\U+FF8C\U+FF9F\U+FF8E\U+FF9E\U+FF99\U+FF84
100
AcDbLine
 10
5750.417065191226
 20
-3079.969699958252
 30
0.0
 11
5750.063511800634
 21
-3079.616146567659
 31
0.0
  0
LINE
  5
B6485
330
18
100
AcDbEntity
  8
\U+FF77\U+FF6C\U+FF6F\U+FF8C\U+FF9F\U+FF8E\U+FF9E\U+FF99\U+FF84
100
AcDbLine
 10
5750.417065191226
 20
-3077.875711373937
 30
0.0
 11
5750.063511800634
 21
-3078.229264764531
 31
0.0
  0
LINE
  5
B6486
330
18
100
AcDbEntity
  8
\U+FF77\U+FF6C\U+FF6F\U+FF8C\U+FF9F\U+FF8E\U+FF9E\U+FF99\U+FF84
100
AcDbLine
 10
5752.157500384948
 20
-3078.229264764531
 30
0.0
 11
5751.803946994354
 21
-3077.875711373939
 31
0.0
  0
ARC
  5
B6487
330
18
100
AcDbEntity
  8
実線
 48
0.2
100
AcDbCircle
 10
5767.91668923845
 20
-3087.052723764994
 30
0.0
 40
2.0
100
AcDbArc
 50
319.992246086491
 51
0.0
  0
CIRCLE
  5
B648E
330
18
100
AcDbEntity
  8
実線
 48
0.2
100
AcDbCircle
 10
5731.41668923845
 20
-3041.728888975781
 30
0.0
 40
2.099999999999993
  0
CIRCLE
  5
B648F
330
18
100
AcDbEntity
  8
細線
100
AcDbCircle
 10
5731.41668923845
 20
-3041.728888975781
 30
0.0
 40
2.5
  0
CIRCLE
  5
B6491
330
18
100
AcDbEntity
  8
細線
100
AcDbCircle
 10
5696.416689238397
 20
-3041.728888975779
 30
0.0
 40
2.5
  0
CIRCLE
  5
B6492
330
18
100
AcDbEntity
  8
実線
 48
0.2
100
AcDbCircle
 10
5696.416689238397
 20
-3041.728888975779
 30
0.0
 40
2.099999999999993
  0
CIRCLE
  5
B6493
330
18
100
AcDbEntity
  8
中心線
 48
0.5
100
AcDbCircle
 10
5713.91668923845
 20
-3041.728888975781
 30
0.0
 40
17.50000000003921
  0
CIRCLE
  5
B6494
330
18
100
AcDbEntity
  8
実線
 48
0.2
100
AcDbCircle
 10
5713.91668923845
 20
-3041.728888975781
 30
0.0
 40
9.500000000000028
  0
CIRCLE
  5
B6495
330
18
100
AcDbEntity
  8
実線
 48
0.2
100
AcDbCircle
 10
5713.91668923845
 20
-3041.728888975781
 30
0.0
 40
24.90000094892503
  0
CIRCLE
  5
B6496
330
18
100
AcDbEntity
  8
実線
 48
0.2
100
AcDbCircle
 10
5713.91668923845
 20
-3041.728888975781
 30
0.0
 40
29.65
  0
CIRCLE
  5
B6497
330
18
100
AcDbEntity
  8
実線
 48
0.2
100
AcDbCircle
 10
5713.91668923845
 20
-3041.728888975781
 30
0.0
 40
29.15000000000001
  0
CIRCLE
  5
B6498
330
18
100
AcDbEntity
  8
細線
100
AcDbCircle
 10
5705.16668923841
 20
-3056.884333542034
 30
0.0
 40
2.5
  0
CIRCLE
  5
B6499
330
18
100
AcDbEntity
  8
実線
 48
0.2
100
AcDbCircle
 10
5705.16668923841
 20
-3056.884333542034
 30
0.0
 40
2.099999999999993
  0
LINE
  5
B649A
330
18
100
AcDbEntity
  8
中心線
 48
0.2
100
AcDbLine
 10
5703.519973485353
 20
-3059.736528891954
 30
0.0
 11
5706.813404991472
 21
-3054.032138192112
 31
0.0
  0
CIRCLE
  5
B649C
330
18
100
AcDbEntity
  8
実線
 48
0.2
100
AcDbCircle
 10
5722.666689238437
 20
-3056.88433354203
 30
0.0
 40
2.099999999999993
  0
LINE
  5
B649D
330
18
100
AcDbEntity
  8
中心線
 48
0.2
100
AcDbLine
 10
5724.313404991496
 20
-3059.73652889195
 30
0.0
 11
5721.019973485383
 21
-3054.032138192108
 31
0.0
  0
CIRCLE
  5
B649E
330
18
100
AcDbEntity
  8
細線
100
AcDbCircle
 10
5722.666689238437
 20
-3056.88433354203
 30
0.0
 40
2.5
  0
CIRCLE
  5
B649F
330
18
100
AcDbEntity
  8
細線
100
AcDbCircle
 10
5705.166689238406
 20
-3026.573444409533
 30
0.0
 40
2.5
  0
CIRCLE
  5
B64A0
330
18
100
AcDbEntity
  8
実線
 48
0.2
100
AcDbCircle
 10
5705.166689238406
 20
-3026.573444409533
 30
0.0
 40
2.099999999999993
  0
LINE
  5
B64A1
330
18
100
AcDbEntity
  8
中心線
 48
0.2
100
AcDbLine
 10
5703.519973485351
 20
-3023.721249059609
 30
0.0
 11
5706.813404991467
 21
-3029.425639759455
 31
0.0
  0
LINE
  5
B64A2
330
18
100
AcDbEntity
  8
中心線
 48
0.2
100
AcDbLine
 10
5693.12325773228
 20
-3041.728888975782
 30
0.0
 11
5699.710120744515
 21
-3041.728888975784
 31
0.0
  0
CIRCLE
  5
B64A3
330
18
100
AcDbEntity
  8
実線
 48
0.2
100
AcDbCircle
 10
5722.666689238437
 20
-3026.57344440953
 30
0.0
 40
2.099999999999993
  0
LINE
  5
B64A4
330
18
100
AcDbEntity
  8
中心線
 48
0.2
100
AcDbLine
 10
5724.313404991494
 20
-3023.721249059605
 30
0.0
 11
5721.019973485375
 21
-3029.425639759448
 31
0.0
  0
CIRCLE
  5
B64A5
330
18
100
AcDbEntity
  8
細線
100
AcDbCircle
 10
5722.666689238437
 20
-3026.57344440953
 30
0.0
 40
2.5
  0
LINE
  5
B64A6
330
18
100
AcDbEntity
  8
中心線
 48
0.2
100
AcDbLine
 10
5734.710120744567
 20
-3041.728888975781
 30
0.0
 11
5728.123257732333
 21
-3041.728888975777
 31
0.0
  0
LINE
  5
B64A7
330
18
100
AcDbEntity
  8
実線
 48
0.2
100
AcDbLine
 10
5668.592855415246
 20
-2985.728887247246
 30
0.0
 11
5759.240524027664
 21
-2985.728888975781
 31
0.0
  0
ARC
  5
B64AB
330
18
100
AcDbEntity
  8
実線
 48
0.2
100
AcDbCircle
 10
5713.91668923845
 20
-3041.728888975781
 30
0.0
 40
72.49999999999997
100
AcDbArc
 50
130.0077539134723
 51
139.992246086491
  0
ARC
  5
B64AC
330
18
100
AcDbEntity
  8
実線
 48
0.2
100
AcDbCircle
 10
5659.91668923845
 20
-2996.405054186566
 30
0.0
 40
2.0
100
AcDbArc
 50
139.992246086491
 51
180.0
  0
LINE
  5
B64AD
330
18
100
AcDbEntity
  8
\U+FF77\U+FF6C\U+FF6F\U+FF8C\U+FF9F\U+FF8E\U+FF9E\U+FF99\U+FF84
100
AcDbLine
 10
5677.769866676271
 20
-3005.22851318703
 30
0.0
 11
5677.076425774709
 21
-3004.535072285467
 31
0.0
  0
LINE
  5
B64AE
330
18
100
AcDbEntity
  8
\U+FF77\U+FF6C\U+FF6F\U+FF8C\U+FF9F\U+FF8E\U+FF9E\U+FF99\U+FF84
100
AcDbLine
 10
5677.416313285679
 20
-3005.582066577623
 30
0.0
 11
5676.722872384115
 21
-3004.88862567606
 31
0.0
  0
LINE
  5
B64AF
330
18
100
AcDbEntity
  8
\U+FF77\U+FF6C\U+FF6F\U+FF8C\U+FF9F\U+FF8E\U+FF9E\U+FF99\U+FF84
100
AcDbLine
 10
5677.416313285679
 20
-3003.48807799331
 30
0.0
 11
5676.722872384114
 21
-3004.181518894873
 31
0.0
  0
LINE
  5
B64B0
330
18
100
AcDbEntity
  8
\U+FF77\U+FF6C\U+FF6F\U+FF8C\U+FF9F\U+FF8E\U+FF9E\U+FF99\U+FF84
100
AcDbLine
 10
5677.769866676271
 20
-3003.841631383902
 30
0.0
 11
5677.076425774709
 21
-3004.535072285467
 31
0.0
  0
LINE
  5
B64B1
330
18
100
AcDbEntity
  8
\U+FF77\U+FF6C\U+FF6F\U+FF8C\U+FF9F\U+FF8E\U+FF9E\U+FF99\U+FF84
100
AcDbLine
 10
5676.722872384114
 20
-3004.181518894873
 30
0.0
 11
5676.029431482551
 21
-3003.488077993308
 31
0.0
  0
LINE
  5
B64B2
330
18
100
AcDbEntity
  8
\U+FF77\U+FF6C\U+FF6F\U+FF8C\U+FF9F\U+FF8E\U+FF9E\U+FF99\U+FF84
100
AcDbLine
 10
5676.369318993522
 20
-3004.535072285466
 30
0.0
 11
5675.675878091958
 21
-3003.841631383902
 31
0.0
  0
LINE
  5
B64B3
330
18
100
AcDbEntity
  8
\U+FF77\U+FF6C\U+FF6F\U+FF8C\U+FF9F\U+FF8E\U+FF9E\U+FF99\U+FF84
100
AcDbLine
 10
5676.722872384116
 20
-3004.88862567606
 30
0.0
 11
5676.029431482551
 21
-3005.582066577623
 31
0.0
  0
LINE
  5
B64B4
330
18
100
AcDbEntity
  8
\U+FF77\U+FF6C\U+FF6F\U+FF8C\U+FF9F\U+FF8E\U+FF9E\U+FF99\U+FF84
100
AcDbLine
 10
5676.369318993522
 20
-3004.535072285466
 30
0.0
 11
5675.675878091958
 21
-3005.22851318703
 31
0.0
  0
LINE
  5
B64B5
330
18
100
AcDbEntity
  8
\U+FF77\U+FF6C\U+FF6F\U+FF8C\U+FF9F\U+FF8E\U+FF9E\U+FF99\U+FF84
100
AcDbLine
 10
5675.675878091958
 20
-3003.841631383902
 30
0.0
 11
5676.029431482551
 21
-3003.48807799331
 31
0.0
  0
LINE
  5
B64B6
330
18
100
AcDbEntity
  8
\U+FF77\U+FF6C\U+FF6F\U+FF8C\U+FF9F\U+FF8E\U+FF9E\U+FF99\U+FF84
100
AcDbLine
 10
5677.416313285679
 20
-3003.48807799331
 30
0.0
 11
5677.769866676271
 21
-3003.841631383902
 31
0.0
  0
LINE
  5
B64B7
330
18
100
AcDbEntity
  8
\U+FF77\U+FF6C\U+FF6F\U+FF8C\U+FF9F\U+FF8E\U+FF9E\U+FF99\U+FF84
100
AcDbLine
 10
5677.416313285679
 20
-3005.582066577626
 30
0.0
 11
5677.769866676271
 21
-3005.22851318703
 31
0.0
  0
LINE
  5
B64B8
330
18
100
AcDbEntity
  8
\U+FF77\U+FF6C\U+FF6F\U+FF8C\U+FF9F\U+FF8E\U+FF9E\U+FF99\U+FF84
100
AcDbLine
 10
5675.675878091958
 20
-3005.22851318703
 30
0.0
 11
5676.029431482551
 21
-3005.582066577623
 31
0.0
  0
CIRCLE
  5
B64B9
330
18
100
AcDbEntity
  8
\U+FF77\U+FF6C\U+FF6F\U+FF8C\U+FF9F\U+FF8E\U+FF9E\U+FF99\U+FF84
100
AcDbCircle
 10
5676.722872384114
 20
-3004.535072285467
 30
0.0
 40
2.0
  0
CIRCLE
  5
B64BA
330
18
100
AcDbEntity
  8
実線
 48
0.2
100
AcDbCircle
 10
5669.72251541429
 20
-2997.53471515162
 30
0.0
 40
3.5
  0
LINE
  5
B64BB
330
18
100
AcDbEntity
  8
中心線
 48
0.5
100
AcDbLine
 10
5674.882953783574
 20
-3002.695153520904
 30
0.0
 11
5664.562077045006
 21
-2992.374276782336
 31
0.0
  0
ARC
  5
B64BC
330
18
100
AcDbEntity
  8
中心線
 48
0.5
100
AcDbCircle
 10
5713.91668923845
 20
-3041.728888975781
 30
0.0
 40
62.50000000000287
100
AcDbArc
 50
128.3059146666068
 51
141.6940853333932
  0
ARC
  5
B64BD
330
18
100
AcDbEntity
  8
実線
 48
0.2
100
AcDbCircle
 10
5668.592854449236
 20
-2987.728888975781
 30
0.0
 40
2.0
100
AcDbArc
 50
90.0
 51
130.0077539134723
  0
ARC
  5
B64C5
330
18
100
AcDbEntity
  8
実線
 48
0.2
100
AcDbCircle
 10
5713.91668923845
 20
-3041.728888975781
 30
0.0
 40
72.50000000000004
100
AcDbArc
 50
40.00775391350902
 51
49.99224608652767
  0
CIRCLE
  5
B64C6
330
18
100
AcDbEntity
  8
実線
 48
0.2
100
AcDbCircle
 10
5758.11086306261
 20
-2997.534715151618
 30
0.0
 40
3.5
  0
LINE
  5
B64C7
330
18
100
AcDbEntity
  8
中心線
 48
0.5
100
AcDbLine
 10
5752.950424693326
 20
-3002.695153520905
 30
0.0
 11
5763.271301431895
 21
-2992.374276782337
 31
0.0
  0
ARC
  5
B64C8
330
18
100
AcDbEntity
  8
中心線
 48
0.5
100
AcDbCircle
 10
5713.916689238449
 20
-3041.728888975781
 30
0.0
 40
62.50000000000287
100
AcDbArc
 50
38.3059146666068
 51
51.6940853333932
  0
LINE
  5
B64C9
330
18
100
AcDbEntity
  8
\U+FF77\U+FF6C\U+FF6F\U+FF8C\U+FF9F\U+FF8E\U+FF9E\U+FF99\U+FF84
100
AcDbLine
 10
5750.417065027204
 20
-3005.582066413599
 30
0.0
 11
5751.110505928767
 21
-3004.888625512036
 31
0.0
  0
LINE
  5
B64CA
330
18
100
AcDbEntity
  8
\U+FF77\U+FF6C\U+FF6F\U+FF8C\U+FF9F\U+FF8E\U+FF9E\U+FF99\U+FF84
100
AcDbLine
 10
5750.063511636611
 20
-3005.228513023007
 30
0.0
 11
5750.756952538174
 21
-3004.535072121444
 31
0.0
  0
LINE
  5
B64CB
330
18
100
AcDbEntity
  8
\U+FF77\U+FF6C\U+FF6F\U+FF8C\U+FF9F\U+FF8E\U+FF9E\U+FF99\U+FF84
100
AcDbLine
 10
5752.157500220924
 20
-3005.228513023007
 30
0.0
 11
5751.464059319361
 21
-3004.535072121442
 31
0.0
  0
LINE
  5
B64CC
330
18
100
AcDbEntity
  8
\U+FF77\U+FF6C\U+FF6F\U+FF8C\U+FF9F\U+FF8E\U+FF9E\U+FF99\U+FF84
100
AcDbLine
 10
5751.803946830332
 20
-3005.582066413599
 30
0.0
 11
5751.110505928767
 21
-3004.888625512036
 31
0.0
  0
LINE
  5
B64CD
330
18
100
AcDbEntity
  8
\U+FF77\U+FF6C\U+FF6F\U+FF8C\U+FF9F\U+FF8E\U+FF9E\U+FF99\U+FF84
100
AcDbLine
 10
5751.464059319361
 20
-3004.535072121442
 30
0.0
 11
5752.157500220926
 21
-3003.841631219879
 31
0.0
  0
LINE
  5
B64CE
330
18
100
AcDbEntity
  8
\U+FF77\U+FF6C\U+FF6F\U+FF8C\U+FF9F\U+FF8E\U+FF9E\U+FF99\U+FF84
100
AcDbLine
 10
5751.110505928768
 20
-3004.18151873085
 30
0.0
 11
5751.803946830332
 21
-3003.488077829285
 31
0.0
  0
LINE
  5
B64CF
330
18
100
AcDbEntity
  8
\U+FF77\U+FF6C\U+FF6F\U+FF8C\U+FF9F\U+FF8E\U+FF9E\U+FF99\U+FF84
100
AcDbLine
 10
5750.756952538174
 20
-3004.535072121444
 30
0.0
 11
5750.063511636611
 21
-3003.841631219879
 31
0.0
  0
LINE
  5
B64D0
330
18
100
AcDbEntity
  8
\U+FF77\U+FF6C\U+FF6F\U+FF8C\U+FF9F\U+FF8E\U+FF9E\U+FF99\U+FF84
100
AcDbLine
 10
5751.110505928768
 20
-3004.18151873085
 30
0.0
 11
5750.417065027204
 21
-3003.488077829285
 31
0.0
  0
LINE
  5
B64D1
330
18
100
AcDbEntity
  8
\U+FF77\U+FF6C\U+FF6F\U+FF8C\U+FF9F\U+FF8E\U+FF9E\U+FF99\U+FF84
100
AcDbLine
 10
5751.803946830332
 20
-3003.488077829285
 30
0.0
 11
5752.157500220924
 21
-3003.841631219879
 31
0.0
  0
LINE
  5
B64D2
330
18
100
AcDbEntity
  8
\U+FF77\U+FF6C\U+FF6F\U+FF8C\U+FF9F\U+FF8E\U+FF9E\U+FF99\U+FF84
100
AcDbLine
 10
5752.157500220924
 20
-3005.228513023007
 30
0.0
 11
5751.803946830332
 21
-3005.582066413599
 31
0.0
  0
LINE
  5
B64D3
330
18
100
AcDbEntity
  8
\U+FF77\U+FF6C\U+FF6F\U+FF8C\U+FF9F\U+FF8E\U+FF9E\U+FF99\U+FF84
100
AcDbLine
 10
5750.063511636609
 20
-3005.228513023007
 30
0.0
 11
5750.417065027204
 21
-3005.582066413599
 31
0.0
  0
LINE
  5
B64D4
330
18
100
AcDbEntity
  8
\U+FF77\U+FF6C\U+FF6F\U+FF8C\U+FF9F\U+FF8E\U+FF9E\U+FF99\U+FF84
100
AcDbLine
 10
5750.417065027204
 20
-3003.488077829285
 30
0.0
 11
5750.063511636611
 21
-3003.841631219879
 31
0.0
  0
CIRCLE
  5
B64D5
330
18
100
AcDbEntity
  8
\U+FF77\U+FF6C\U+FF6F\U+FF8C\U+FF9F\U+FF8E\U+FF9E\U+FF99\U+FF84
100
AcDbCircle
 10
5751.110505928767
 20
-3004.535072121442
 30
0.0
 40
2.0
  0
ARC
  5
B64D6
330
18
100
AcDbEntity
  8
実線
 48
0.2
100
AcDbCircle
 10
5767.91668923845
 20
-2996.405054186566
 30
0.0
 40
2.000000000000024
100
AcDbArc
 50
0.0
 51
40.00775391350902
  0
ARC
  5
B64D7
330
18
100
AcDbEntity
  8
実線
 48
0.2
100
AcDbCircle
 10
5759.240524027664
 20
-2987.728888975781
 30
0.0
 40
2.000000000000019
100
AcDbArc
 50
49.99224608652767
 51
90.0
  0
LINE
  5
B65FB
102
{ACAD_REACTORS
330
B661D
102
}
330
18
100
AcDbEntity
  8
\U+FF7A\U+FF88\U+FF78\U+FF80
100
AcDbLine
 10
5646.41668923845
 20
-3050.382688975781
 30
0.0
 11
5646.41668923845
 21
-3033.075088975781
 31
0.0
  0
LINE
  5
B65FC
102
{ACAD_REACTORS
330
B661D
102
}
330
18
100
AcDbEntity
  8
\U+FF7A\U+FF88\U+FF78\U+FF80
100
AcDbLine
 10
5629.41668923845
 20
-3047.026290451071
 30
0.0
 11
5629.41668923845
 21
-3036.43148750049
 31
0.0
  0
ARC
  5
B65FD
102
{ACAD_REACTORS
330
B661D
102
}
330
18
100
AcDbEntity
  8
\U+FF7A\U+FF88\U+FF78\U+FF80
100
AcDbCircle
 10
5641.41668923845
 20
-3041.728888975781
 30
0.0
 40
8.0
100
AcDbArc
 50
153.5214655209427
 51
206.4785344790573
  0
LINE
  5
B65FE
102
{ACAD_REACTORS
330
B661D
102
}
330
18
100
AcDbEntity
  8
\U+FF7A\U+FF88\U+FF78\U+FF80
100
AcDbLine
 10
5633.41668923845
 20
-3050.382688975781
 30
0.0
 11
5633.41668923845
 21
-3033.075088975781
 31
0.0
  0
LINE
  5
B65FF
102
{ACAD_REACTORS
330
B661D
102
}
330
18
100
AcDbEntity
  8
\U+FF7A\U+FF88\U+FF78\U+FF80
100
AcDbLine
 10
5646.41668923845
 20
-3047.728890237415
 30
0.0
 11
5641.41668923845
 21
-3047.72889149905
 31
0.0
  0
LINE
  5
B6600
102
{ACAD_REACTORS
330
B661D
102
}
330
18
100
AcDbEntity
  8
\U+FF7A\U+FF88\U+FF78\U+FF80
100
AcDbLine
 10
5633.41668923845
 20
-3050.382688975781
 30
0.0
 11
5629.41668923845
 21
-3047.026290451071
 31
0.0
  0
LINE
  5
B6601
102
{ACAD_REACTORS
330
B661D
102
}
330
18
100
AcDbEntity
  8
\U+FF7A\U+FF88\U+FF78\U+FF80
100
AcDbLine
 10
5634.255877525383
 20
-3045.29578897578
 30
0.0
 11
5634.255877525383
 21
-3046.815788975781
 31
0.0
  0
LINE
  5
B6602
102
{ACAD_REACTORS
330
B661D
102
}
330
18
100
AcDbEntity
  8
\U+FF7A\U+FF88\U+FF78\U+FF80
100
AcDbLine
 10
5641.41668923845
 20
-3046.815788975781
 30
0.0
 11
5634.255877525383
 21
-3046.815788975781
 31
0.0
  0
LINE
  5
B6603
102
{ACAD_REACTORS
330
B661D
102
}
330
18
100
AcDbEntity
  8
\U+FF7A\U+FF88\U+FF78\U+FF80
100
AcDbLine
 10
5641.41668923845
 20
-3045.29578897578
 30
0.0
 11
5634.255877525383
 21
-3045.29578897578
 31
0.0
  0
LINE
  5
B6604
102
{ACAD_REACTORS
330
B661D
102
}
330
18
100
AcDbEntity
  8
\U+FF7A\U+FF88\U+FF78\U+FF80
100
AcDbLine
 10
5641.41668923845
 20
-3050.382688975781
 30
0.0
 11
5633.41668923845
 21
-3050.382688975781
 31
0.0
  0
ARC
  5
B6605
102
{ACAD_REACTORS
330
B661D
102
}
330
18
100
AcDbEntity
  8
\U+FF7A\U+FF88\U+FF78\U+FF80
100
AcDbCircle
 10
5641.41668923845
 20
-3050.382688975781
 30
0.0
 40
8.0
100
AcDbArc
 50
153.5214655209427
 51
180.0
  0
LINE
  5
B6606
102
{ACAD_REACTORS
330
B661D
102
}
330
18
100
AcDbEntity
  8
\U+FF7A\U+FF88\U+FF78\U+FF80
100
AcDbLine
 10
5651.41668923845
 20
-3047.728888975781
 30
0.0
 11
5651.705355865823
 21
-3047.728888975781
 31
0.0
  0
LINE
  5
B6607
102
{ACAD_REACTORS
330
B661D
102
}
330
18
100
AcDbEntity
  8
\U+FF7A\U+FF88\U+FF78\U+FF80
100
AcDbLine
 10
5651.41668923845
 20
-3047.11888897578
 30
0.0
 11
5651.649539793498
 21
-3047.11888897578
 31
0.0
  0
LINE
  5
B6608
102
{ACAD_REACTORS
330
B661D
102
}
330
18
100
AcDbEntity
  8
\U+FF7A\U+FF88\U+FF78\U+FF80
100
AcDbLine
 10
5651.41668923845
 20
-3046.815788975781
 30
0.0
 11
5646.41668923845
 21
-3046.815788975781
 31
0.0
  0
LINE
  5
B6609
102
{ACAD_REACTORS
330
B661D
102
}
330
18
100
AcDbEntity
  8
\U+FF7A\U+FF88\U+FF78\U+FF80
100
AcDbLine
 10
5651.41668923845
 20
-3045.29578897578
 30
0.0
 11
5646.41668923845
 21
-3045.29578897578
 31
0.0
  0
LINE
  5
B660A
102
{ACAD_REACTORS
330
B661D
102
}
330
18
100
AcDbEntity
  8
\U+FF7A\U+FF88\U+FF78\U+FF80
100
AcDbLine
 10
5651.41668923845
 20
-3050.382688975781
 30
0.0
 11
5646.41668923845
 21
-3050.382688975781
 31
0.0
  0
LINE
  5
B660B
102
{ACAD_REACTORS
330
B661D
102
}
330
18
100
AcDbEntity
  8
\U+FF7A\U+FF88\U+FF78\U+FF80
100
AcDbLine
 10
5646.41668923845
 20
-3035.728890237413
 30
0.0
 11
5641.41668923845
 21
-3035.728891499046
 31
0.0
  0
ARC
  5
B660C
102
{ACAD_REACTORS
330
B661D
102
}
330
18
100
AcDbEntity
  8
\U+FF7A\U+FF88\U+FF78\U+FF80
100
AcDbCircle
 10
5641.41668923845
 20
-3033.075088975781
 30
0.0
 40
8.0
100
AcDbArc
 50
180.0
 51
206.4785344790573
  0
LINE
  5
B660D
102
{ACAD_REACTORS
330
B661D
102
}
330
18
100
AcDbEntity
  8
\U+FF7A\U+FF88\U+FF78\U+FF80
100
AcDbLine
 10
5633.41668923845
 20
-3033.075088975781
 30
0.0
 11
5629.41668923845
 21
-3036.43148750049
 31
0.0
  0
LINE
  5
B660E
102
{ACAD_REACTORS
330
B661D
102
}
330
18
100
AcDbEntity
  8
\U+FF7A\U+FF88\U+FF78\U+FF80
100
AcDbLine
 10
5634.255877525383
 20
-3036.64198897578
 30
0.0
 11
5634.255877525383
 21
-3038.161988975781
 31
0.0
  0
LINE
  5
B660F
102
{ACAD_REACTORS
330
B661D
102
}
330
18
100
AcDbEntity
  8
\U+FF7A\U+FF88\U+FF78\U+FF80
100
AcDbLine
 10
5641.41668923845
 20
-3038.161988975781
 30
0.0
 11
5634.255877525383
 21
-3038.161988975781
 31
0.0
  0
LINE
  5
B6610
102
{ACAD_REACTORS
330
B661D
102
}
330
18
100
AcDbEntity
  8
\U+FF7A\U+FF88\U+FF78\U+FF80
100
AcDbLine
 10
5641.41668923845
 20
-3036.64198897578
 30
0.0
 11
5634.255877525383
 21
-3036.64198897578
 31
0.0
  0
LINE
  5
B6611
102
{ACAD_REACTORS
330
B661D
102
}
330
18
100
AcDbEntity
  8
\U+FF7A\U+FF88\U+FF78\U+FF80
100
AcDbLine
 10
5641.41668923845
 20
-3033.075088975781
 30
0.0
 11
5633.41668923845
 21
-3033.075088975781
 31
0.0
  0
LINE
  5
B6612
102
{ACAD_REACTORS
330
B661D
102
}
330
18
100
AcDbEntity
  8
\U+FF7A\U+FF88\U+FF78\U+FF80
100
AcDbLine
 10
5651.41668923845
 20
-3035.728888975781
 30
0.0
 11
5651.705355865823
 21
-3035.728888975781
 31
0.0
  0
LINE
  5
B6613
102
{ACAD_REACTORS
330
B661D
102
}
330
18
100
AcDbEntity
  8
\U+FF7A\U+FF88\U+FF78\U+FF80
100
AcDbLine
 10
5651.41668923845
 20
-3036.338888975781
 30
0.0
 11
5651.649539793498
 21
-3036.338888975781
 31
0.0
  0
LINE
  5
B6614
102
{ACAD_REACTORS
330
B661D
102
}
330
18
100
AcDbEntity
  8
\U+FF7A\U+FF88\U+FF78\U+FF80
100
AcDbLine
 10
5651.41668923845
 20
-3036.64198897578
 30
0.0
 11
5646.41668923845
 21
-3036.64198897578
 31
0.0
  0
LINE
  5
B6615
102
{ACAD_REACTORS
330
B661D
102
}
330
18
100
AcDbEntity
  8
\U+FF7A\U+FF88\U+FF78\U+FF80
100
AcDbLine
 10
5651.41668923845
 20
-3038.161988975781
 30
0.0
 11
5646.41668923845
 21
-3038.161988975781
 31
0.0
  0
LINE
  5
B6616
102
{ACAD_REACTORS
330
B661D
102
}
330
18
100
AcDbEntity
  8
\U+FF7A\U+FF88\U+FF78\U+FF80
100
AcDbLine
 10
5651.41668923845
 20
-3033.075088975781
 30
0.0
 11
5646.41668923845
 21
-3033.075088975781
 31
0.0
  0
LINE
  5
B6617
102
{ACAD_REACTORS
330
B661D
102
}
330
18
100
AcDbEntity
  8
\U+FF7A\U+FF88\U+FF78\U+FF80
100
AcDbLine
 10
5651.41668923845
 20
-3033.075088975781
 30
0.0
 11
5651.41668923845
 21
-3050.382688975781
 31
0.0
  0
LINE
  5
B6618
102
{ACAD_REACTORS
330
B661D
102
}
330
18
100
AcDbEntity
  8
\U+FF7A\U+FF88\U+FF78\U+FF80
100
AcDbLine
 10
5641.41668923845
 20
-3050.382688975781
 30
0.0
 11
5641.41668923845
 21
-3033.075088975781
 31
0.0
  0
SPLINE
  5
B6619
102
{ACAD_REACTORS
330
B661D
102
}
330
18
100
AcDbEntity
  8
細線
100
AcDbSpline
210
0.0
220
0.0
230
1.0
 70
  1064
 71
     3
 72
    11
 73
     7
 74
     5
 42
0.000000001
 43
0.0000000001
 44
0.0000000001
 40
0.0
 40
0.0
 40
0.0
 40
0.0
 40
1.962294862387111
 40
3.412610777824841
 40
4.859995365034574
 40
6.826861343342177
 40
6.826861343342177
 40
6.826861343342177
 40
6.826861343342177
 10
5623.980058870392
 20
-3038.478888472065
 30
0.0
 10
5623.692648107033
 20
-3039.115518342966
 30
0.0
 10
5623.192814423775
 20
-3040.222676090033
 30
0.0
 10
5623.975885344179
 20
-3041.728666322796
 30
0.0
 10
5624.770398731905
 20
-3043.231474485607
 30
0.0
 10
5624.268938059728
 20
-3044.340186616791
 30
0.0
 10
5623.980058870392
 20
-3044.978888472065
 30
0.0
 11
5623.980058870392
 21
-3038.478888472065
 31
0.0
 11
5623.46489694659
 21
-3040.372353369869
 31
0.0
 11
5623.977955199698
 21
-3041.728888472065
 31
0.0
 11
5624.495220794196
 21
-3043.080686699628
 31
0.0
 11
5623.980058870392
 21
-3044.978888472065
 31
0.0
  0
SPLINE
  5
B661A
102
{ACAD_REACTORS
330
B661D
102
}
330
18
100
AcDbEntity
  8
細線
100
AcDbSpline
210
0.0
220
0.0
230
1.0
 70
  1064
 71
     3
 72
     9
 73
     5
 74
     3
 42
0.000000001
 43
0.0000000001
 44
0.0000000001
 40
0.0
 40
0.0
 40
0.0
 40
0.0
 40
1.4428857823263
 40
3.409751760633427
 40
3.409751760633427
 40
3.409751760633427
 40
3.409751760633427
 10
5623.980058870392
 20
-3041.732900524782
 30
0.0
 10
5623.745351407818
 20
-3042.179008047562
 30
0.0
 10
5623.190703081841
 20
-3043.233225872606
 30
0.0
 10
5623.691297957741
 20
-3044.3402928822
 30
0.0
 10
5623.980058870392
 20
-3044.978888472065
 30
0.0
 11
5623.980058870392
 21
-3041.732900524782
 31
0.0
 11
5623.46489694659
 21
-3043.080686699628
 31
0.0
 11
5623.980058870392
 21
-3044.978888472065
 31
0.0
  0
LINE
  5
B661B
102
{ACAD_REACTORS
330
B661D
102
}
330
18
100
AcDbEntity
  8
\U+FF7A\U+FF88\U+FF78\U+FF80
100
AcDbLine
 10
5623.980058870393
 20
-3044.978888472062
 30
0.0
 11
5629.41668923845
 21
-3044.978888472062
 31
0.0
  0
LINE
  5
B661C
102
{ACAD_REACTORS
330
B661D
102
}
330
18
100
AcDbEntity
  8
\U+FF7A\U+FF88\U+FF78\U+FF80
100
AcDbLine
 10
5623.980058870393
 20
-3038.478888472064
 30
0.0
 11
5629.41668923845
 21
-3038.478888472062
 31
0.0
  0
LINE
  5
B6E39
330
18
100
AcDbEntity
  8
実線
 48
0.2
100
AcDbLine
 10
5983.943067962991
 20
-3095.728890293306
 30
0.0
 11
5983.943067962991
 21
-2987.728887658245
 31
0.0
  0
LINE
  5
B6E3A
330
18
100
AcDbEntity
  8
実線
 48
0.2
100
AcDbLine
 10
5941.443067962992
 20
-3097.728890293306
 30
0.0
 11
5941.443067962992
 21
-2985.728887658245
 31
0.0
  0
LINE
  5
B6E3B
330
18
100
AcDbEntity
  8
実線
 48
0.2
100
AcDbLine
 10
5940.943067939243
 20
-3097.228889691035
 30
0.0
 11
5940.943067939243
 21
-2986.228888260523
 31
0.0
  0
LINE
  5
B6E3C
330
18
100
AcDbEntity
  8
実線
 48
0.2
100
AcDbLine
 10
6003.943067962992
 20
-3097.728890293306
 30
0.0
 11
6003.943067962993
 21
-3057.728889734906
 31
0.0
  0
ARC
  5
B6E4B
330
18
100
AcDbEntity
  8
\U+FF77\U+FF6C\U+FF6F\U+FF8C\U+FF9F\U+FF8E\U+FF9E\U+FF99\U+FF84
100
AcDbCircle
 10
5940.543067939243
 20
-3077.373512688975
 30
0.0
 40
0.4
100
AcDbArc
 50
104.4775120000356
 51
180.0
  0
LINE
  5
B6E4C
330
18
100
AcDbEntity
  8
\U+FF77\U+FF6C\U+FF6F\U+FF8C\U+FF9F\U+FF8E\U+FF9E\U+FF99\U+FF84
100
AcDbLine
 10
5940.943067939243
 20
-3080.922705688974
 30
0.0
 11
5940.943067939243
 21
-3076.922705688974
 31
0.0
  0
LINE
  5
B6E52
330
18
100
AcDbEntity
  8
実線
 48
0.2
100
AcDbLine
 10
5941.443067962992
 20
-3097.728890293306
 30
0.0
 11
6003.943067962992
 21
-3097.728890293306
 31
0.0
  0
LINE
  5
B6E54
330
18
100
AcDbEntity
  8
実線
 48
0.2
100
AcDbLine
 10
5940.943067939243
 20
-3097.228889691035
 30
0.0
 11
5941.443067962992
 21
-3097.228889691035
 31
0.0
  0
ARC
  5
B6E55
330
18
100
AcDbEntity
  8
\U+FF77\U+FF6C\U+FF6F\U+FF8C\U+FF9F\U+FF8E\U+FF9E\U+FF99\U+FF84
100
AcDbCircle
 10
5940.943067939243
 20
-3078.922705688975
 30
0.0
 40
2.0
100
AcDbArc
 50
255.5224879999644
 51
270.0
  0
ARC
  5
B6E56
330
18
100
AcDbEntity
  8
\U+FF77\U+FF6C\U+FF6F\U+FF8C\U+FF9F\U+FF8E\U+FF9E\U+FF99\U+FF84
100
AcDbCircle
 10
5940.543067939243
 20
-3080.471899688975
 30
0.0
 40
0.4
100
AcDbArc
 50
180.0
 51
255.5224879999644
  0
LINE
  5
B6E57
330
18
100
AcDbEntity
  8
中心線
 48
0.5
100
AcDbLine
 10
5941.423906528936
 20
-3078.922705688974
 30
0.0
 11
5939.720566002045
 21
-3078.922706188974
 31
0.0
  0
LINE
  5
B6E58
330
18
100
AcDbEntity
  8
\U+FF77\U+FF6C\U+FF6F\U+FF8C\U+FF9F\U+FF8E\U+FF9E\U+FF99\U+FF84
100
AcDbLine
 10
5940.143067939243
 20
-3080.471899688973
 30
0.0
 11
5940.143067939243
 21
-3077.373512688973
 31
0.0
  0
ARC
  5
B6E59
330
18
100
AcDbEntity
  8
実線
 48
0.2
100
AcDbCircle
 10
5985.943067962992
 20
-3095.728890293306
 30
0.0
 40
2.0
100
AcDbArc
 50
180.0
 51
270.0
  0
LINE
  5
B6E5A
330
18
100
AcDbEntity
  8
実線
100
AcDbLine
 10
5983.943067962991
 20
-3087.052722798976
 30
0.0
 11
6003.943067962992
 21
-3087.052722798976
 31
0.0
  0
LINE
  5
B6E67
330
18
100
AcDbEntity
  8
中心線
 48
0.2
100
AcDbLine
 10
5951.204874121711
 20
-3024.228889552176
 30
0.0
 11
5937.143067134485
 21
-3024.228889552176
 31
0.0
  0
LINE
  5
B6E69
330
18
100
AcDbEntity
  8
中心線
 48
0.2
100
AcDbLine
 10
5951.204874121711
 20
-3059.228888399385
 30
0.0
 11
5937.143067134485
 21
-3059.228888399385
 31
0.0
  0
LINE
  5
B6E6B
330
18
100
AcDbEntity
  8
中心線
 48
0.5
100
AcDbLine
 10
5927.899980038922
 20
-3041.728888975781
 30
0.0
 11
6005.808516429151
 21
-3041.728888975781
 31
0.0
  0
LINE
  5
B6E6C
330
18
100
AcDbEntity
  8
実線
 48
0.2
100
AcDbLine
 10
5939.443067147524
 20
-3070.878888241432
 30
0.0
 11
5939.443067147524
 21
-3012.578888557337
 31
0.0
  0
LINE
  5
B6E6D
330
18
100
AcDbEntity
  8
実線
 48
0.2
100
AcDbLine
 10
5938.143067134485
 20
-3016.828888026856
 30
0.0
 11
5938.143067134485
 21
-3066.628888771914
 31
0.0
  0
ARC
  5
B6E71
330
18
100
AcDbEntity
  8
\U+FF77\U+FF6C\U+FF6F\U+FF8C\U+FF9F\U+FF8E\U+FF9E\U+FF99\U+FF84
100
AcDbCircle
 10
5940.943067939243
 20
-3078.922705688975
 30
0.0
 40
2.0
100
AcDbArc
 50
90.0
 51
104.4775120000356
  0
LINE
  5
B6E72
330
18
100
AcDbEntity
  8
実線
 48
0.2
100
AcDbLine
 10
5940.943067939243
 20
-3070.878888241432
 30
0.0
 11
5939.443067147524
 21
-3070.878888241432
 31
0.0
  0
LINE
  5
B6E73
330
18
100
AcDbEntity
  8
実線
 48
0.2
100
AcDbLine
 10
5939.443067147524
 20
-3066.628888771914
 30
0.0
 11
5938.143067134485
 21
-3066.628888771914
 31
0.0
  0
LINE
  5
B6E79
330
18
100
AcDbEntity
  8
実線
 48
0.2
100
AcDbLine
 10
5938.143067134485
 20
-3016.828888026856
 30
0.0
 11
5939.443067147524
 21
-3016.828888026856
 31
0.0
  0
LINE
  5
B6E7A
330
18
100
AcDbEntity
  8
実線
 48
0.2
100
AcDbLine
 10
5939.443067147524
 20
-3012.578888557337
 30
0.0
 11
5940.943067939243
 21
-3012.578888557337
 31
0.0
  0
LINE
  5
B6EA0
330
18
100
AcDbEntity
  8
実線
 48
0.2
100
AcDbLine
 10
5941.443067962992
 20
-2985.728887658245
 30
0.0
 11
6003.943067962992
 21
-2985.728887658245
 31
0.0
  0
ARC
  5
B6EA3
330
18
100
AcDbEntity
  8
\U+FF77\U+FF6C\U+FF6F\U+FF8C\U+FF9F\U+FF8E\U+FF9E\U+FF99\U+FF84
100
AcDbCircle
 10
5940.943067939243
 20
-3004.535072262586
 30
0.0
 40
2.0
100
AcDbArc
 50
90.0
 51
104.4775120000356
  0
ARC
  5
B6EA4
330
18
100
AcDbEntity
  8
\U+FF77\U+FF6C\U+FF6F\U+FF8C\U+FF9F\U+FF8E\U+FF9E\U+FF99\U+FF84
100
AcDbCircle
 10
5940.543067939243
 20
-3002.985878262587
 30
0.0
 40
0.4
100
AcDbArc
 50
104.4775120000356
 51
180.0
  0
LINE
  5
B6EA5
330
18
100
AcDbEntity
  8
中心線
 48
0.5
100
AcDbLine
 10
5941.423906528936
 20
-3004.535072262588
 30
0.0
 11
5939.720566002045
 21
-3004.535071762588
 31
0.0
  0
ARC
  5
B6EA6
330
18
100
AcDbEntity
  8
\U+FF77\U+FF6C\U+FF6F\U+FF8C\U+FF9F\U+FF8E\U+FF9E\U+FF99\U+FF84
100
AcDbCircle
 10
5940.543067939243
 20
-3006.084265262587
 30
0.0
 40
0.4
100
AcDbArc
 50
180.0
 51
255.5224879999644
  0
ARC
  5
B6EA7
330
18
100
AcDbEntity
  8
\U+FF77\U+FF6C\U+FF6F\U+FF8C\U+FF9F\U+FF8E\U+FF9E\U+FF99\U+FF84
100
AcDbCircle
 10
5940.943067939243
 20
-3004.535072262586
 30
0.0
 40
2.0
100
AcDbArc
 50
255.5224879999644
 51
270.0
  0
LINE
  5
B6EA8
330
18
100
AcDbEntity
  8
\U+FF77\U+FF6C\U+FF6F\U+FF8C\U+FF9F\U+FF8E\U+FF9E\U+FF99\U+FF84
100
AcDbLine
 10
5940.143067939243
 20
-3002.985878262589
 30
0.0
 11
5940.143067939243
 21
-3006.084265262589
 31
0.0
  0
LINE
  5
B6EA9
330
18
100
AcDbEntity
  8
\U+FF77\U+FF6C\U+FF6F\U+FF8C\U+FF9F\U+FF8E\U+FF9E\U+FF99\U+FF84
100
AcDbLine
 10
5940.943067939243
 20
-3002.535072262588
 30
0.0
 11
5940.943067939243
 21
-3006.535072262588
 31
0.0
  0
LINE
  5
B6EAC
330
18
100
AcDbEntity
  8
実線
 48
0.2
100
AcDbLine
 10
5941.443067962992
 20
-2986.228888260523
 30
0.0
 11
5940.943067939243
 21
-2986.228888260523
 31
0.0
  0
LINE
  5
B6EB2
330
18
100
AcDbEntity
  8
実線
100
AcDbLine
 10
5983.943067962991
 20
-2996.405056245941
 30
0.0
 11
6003.943067962992
 21
-2996.405056245941
 31
0.0
  0
ARC
  5
B6EB7
330
18
100
AcDbEntity
  8
実線
 48
0.2
100
AcDbCircle
 10
5985.943067962992
 20
-2987.728887658245
 30
0.0
 40
2.0
100
AcDbArc
 50
90.0
 51
180.0
  0
TEXT
  5
B6F85
102
{ACAD_REACTORS
330
B6F9F
102
}
330
18
100
AcDbEntity
  8
文字
370
     9
100
AcDbText
 10
5993.384327647248
 20
-3067.932046835252
 30
0.0
 40
2.0
  1
SER No.******
 50
90.0
 41
1.199999999999999
  7
MS\U+FF7A\U+FF9E\U+FF7C\U+FF6F\U+FF78N
 11
5993.749671397248
 21
-3067.932046835252
 31
0.0
100
AcDbText
 73
     1
  0
LINE
  5
B6F86
102
{ACAD_REACTORS
330
B6F9F
102
}
330
18
100
AcDbEntity
  8
文字
100
AcDbLine
 10
5986.943067962989
 20
-3035.228890293305
 30
0.0
 11
5986.943067962989
 21
-3069.228890293305
 31
0.0
  0
LINE
  5
B6F87
102
{ACAD_REACTORS
330
B6F9F
102
}
330
18
100
AcDbEntity
  8
文字
100
AcDbLine
 10
5998.943067962989
 20
-3069.228890293305
 30
0.0
 11
5998.943067962989
 21
-3035.228890293305
 31
0.0
  0
LINE
  5
B6F88
102
{ACAD_REACTORS
330
B6F9F
102
}
330
18
100
AcDbEntity
  8
文字
100
AcDbLine
 10
5993.943067962988
 20
-3069.728890293305
 30
0.0
 11
5993.943067962988
 21
-3034.728890293305
 31
0.0
  0
ARC
  5
B6F89
102
{ACAD_REACTORS
330
B6F9F
102
}
330
18
100
AcDbEntity
  8
文字
370
     9
100
AcDbCircle
 10
5996.888044544991
 20
-3064.779843792227
 30
0.0
 40
0.8009999999999999
100
AcDbArc
 50
0.0
 51
180.0
  0
CIRCLE
  5
B6F8A
102
{ACAD_REACTORS
330
B6F9F
102
}
330
18
100
AcDbEntity
  8
文字
370
     9
100
AcDbCircle
 10
5996.687794544989
 20
-3064.779843792227
 30
0.0
 40
0.6007500000000002
  0
LINE
  5
B6F8B
102
{ACAD_REACTORS
330
B6F9F
102
}
330
18
100
AcDbEntity
  8
文字
370
     9
100
AcDbLine
 10
5998.089544544987
 20
-3067.182843792229
 30
0.0
 11
5998.089544544987
 21
-3062.777343792228
 31
0.0
  0
LINE
  5
B6F8C
102
{ACAD_REACTORS
330
B6F9F
102
}
330
18
100
AcDbEntity
  8
文字
370
     9
100
AcDbLine
 10
5996.087044544989
 20
-3064.779843792227
 30
0.0
 11
5996.087044544989
 21
-3062.537043792227
 31
0.0
  0
TEXT
  5
B6F8D
102
{ACAD_REACTORS
330
B6F9F
102
}
330
18
100
AcDbEntity
  8
文字
370
     9
100
AcDbText
 10
5990.560335843866
 20
-3067.90492026244
 30
0.0
 40
2.6
  1
MODEL:
 50
90.0
 41
1.199999999999999
  7
MS\U+FF7A\U+FF9E\U+FF7C\U+FF6F\U+FF78N
 11
5991.035282718866
 21
-3067.90492026244
 31
0.0
100
AcDbText
 73
     1
  0
LINE
  5
B6F8E
102
{ACAD_REACTORS
330
B6F9F
102
}
330
18
100
AcDbEntity
  8
文字
370
     9
100
AcDbLine
 10
5994.885544544985
 20
-3066.782343792229
 30
0.0
 11
5994.885544544985
 21
-3062.376843792228
 31
0.0
  0
LINE
  5
B6F8F
102
{ACAD_REACTORS
330
B6F9F
102
}
330
18
100
AcDbEntity
  8
文字
370
     9
100
AcDbLine
 10
5994.885544544985
 20
-3062.376843792228
 30
0.0
 11
5995.766644544984
 21
-3065.180343792226
 31
0.0
  0
ARC
  5
B6F90
102
{ACAD_REACTORS
330
B6F9F
102
}
330
18
100
AcDbEntity
  8
文字
370
     9
100
AcDbCircle
 10
5996.685931754292
 20
-3064.778912396879
 30
0.0
 40
1.003113223100251
100
AcDbArc
 50
203.589777272608
 51
359.9468005913759
  0
LINE
  5
B6F91
102
{ACAD_REACTORS
330
B6F9F
102
}
330
18
100
AcDbEntity
  8
文字
100
AcDbLine
 10
5987.443067962988
 20
-3069.728890293305
 30
0.0
 11
5998.443067962988
 21
-3069.728890293305
 31
0.0
  0
LINE
  5
B6F92
102
{ACAD_REACTORS
330
B6F9F
102
}
330
18
100
AcDbEntity
  8
文字
370
     9
100
AcDbLine
 10
5998.089544544987
 20
-3067.182843792229
 30
0.0
 11
5994.885544544985
 21
-3066.782343792229
 31
0.0
  0
ARC
  5
B6F93
102
{ACAD_REACTORS
330
B6F9F
102
}
330
18
100
AcDbEntity
  8
文字
100
AcDbCircle
 10
5987.443067962992
 20
-3069.228890293306
 30
0.0
 40
0.5
100
AcDbArc
 50
180.0
 51
270.0
  0
ARC
  5
B6F94
102
{ACAD_REACTORS
330
B6F9F
102
}
330
18
100
AcDbEntity
  8
文字
100
AcDbCircle
 10
5998.443067962992
 20
-3069.228890293306
 30
0.0
 40
0.5
100
AcDbArc
 50
270.0
 51
0.0
  0
LINE
  5
B6F95
102
{ACAD_REACTORS
330
B6F9F
102
}
330
18
100
AcDbEntity
  8
文字
370
     9
100
AcDbLine
 10
5998.089544544987
 20
-3062.777343792228
 30
0.0
 11
5996.087044544989
 21
-3062.537043792227
 31
0.0
  0
TEXT
  5
B6F96
102
{ACAD_REACTORS
330
B6F9F
102
}
330
18
100
AcDbEntity
  8
文字
370
     9
100
AcDbText
 10
5998.041810406405
 20
-3061.560744567842
 30
0.0
 40
1.439999999999999
  1
DENSO
 50
90.0
 41
1.3
  7
TIMESNR
100
AcDbText
  0
TEXT
  5
B6F97
102
{ACAD_REACTORS
330
B6F9F
102
}
330
18
100
AcDbEntity
  8
文字
370
     9
100
AcDbText
 10
5996.34504799742
 20
-3061.439331457702
 30
0.0
 40
1.439999999999999
  1
NIKKI
 50
90.0
 41
1.25
  7
TIMESNR
100
AcDbText
  0
LINE
  5
B6F98
102
{ACAD_REACTORS
330
B6F9F
102
}
330
18
100
AcDbEntity
  8
文字
100
AcDbLine
 10
5998.443067962988
 20
-3034.728890293305
 30
0.0
 11
5987.443067962988
 21
-3034.728890293305
 31
0.0
  0
ARC
  5
B6F99
102
{ACAD_REACTORS
330
B6F9F
102
}
330
18
100
AcDbEntity
  8
文字
100
AcDbCircle
 10
5987.443067962992
 20
-3035.228890293306
 30
0.0
 40
0.5
100
AcDbArc
 50
90.0
 51
180.0
  0
ARC
  5
B6F9A
102
{ACAD_REACTORS
330
B6F9F
102
}
330
18
100
AcDbEntity
  8
文字
100
AcDbCircle
 10
5998.443067962992
 20
-3035.228890293306
 30
0.0
 40
0.5
100
AcDbArc
 50
0.0
 51
90.0
  0
TEXT
  5
B6F9B
102
{ACAD_REACTORS
330
B6F9F
102
}
330
18
100
AcDbEntity
  8
文字
370
     9
100
AcDbText
 10
5996.438576549182
 20
-3050.107229898757
 30
137.5
 40
1.5
  1
SN-16140
 50
90.0
  7
MS\U+FF7A\U+FF9E\U+FF7C\U+FF6F\U+FF78N
 11
5996.712584361683
 21
-3050.107229898757
 31
137.5
100
AcDbText
 73
     1
  0
TEXT
  5
B6F9C
102
{ACAD_REACTORS
330
B6F9F
102
}
330
18
100
AcDbEntity
  8
文字
370
     9
100
AcDbText
 10
5998.308362599567
 20
-3050.107229898757
 30
137.5
 40
1.5
  1
MADE IN JAPAN
 50
90.0
  7
MS\U+FF7A\U+FF9E\U+FF7C\U+FF6F\U+FF78N
 11
5998.582370412067
 21
-3050.107229898757
 31
137.5
100
AcDbText
 73
     1
  0
TEXT
  5
B6FBB
102
{ACAD_REACTORS
330
B6FCB
102
}
330
18
100
AcDbEntity
  8
文字
370
     9
100
AcDbText
 10
5997.596839743799
 20
-3078.849717667301
 30
0.0
 40
1.439999999999999
  1
DENSO
 50
90.0
  7
TIMESNR
100
AcDbText
  0
TEXT
  5
B6FBC
102
{ACAD_REACTORS
330
B6FCB
102
}
330
18
100
AcDbEntity
  8
文字
370
     9
100
AcDbText
 10
5995.900077334814
 20
-3078.72830455716
 30
0.0
 40
1.439999999999999
  1
NIKKI
 50
90.0
  7
TIMESNR
100
AcDbText
  0
TEXT
  5
B6FBD
102
{ACAD_REACTORS
330
B6FCB
102
}
330
18
100
AcDbEntity
  8
文字
370
     9
100
AcDbText
 10
5991.983940977267
 20
-3084.514171814099
 30
0.0
 40
2.0
  1
Certificate
 50
90.0
  7
TIMESNR
 11
5992.623297264772
 21
-3084.514171814099
 31
0.0
100
AcDbText
 73
     1
  0
LINE
  5
B6FBE
102
{ACAD_REACTORS
330
B6FCB
102
}
330
18
100
AcDbEntity
  8
文字
100
AcDbLine
 10
5992.94306796299
 20
-3085.728890293306
 30
0.0
 11
5992.94306796299
 21
-3070.728890293306
 31
0.0
  0
LWPOLYLINE
  5
B6FBF
102
{ACAD_REACTORS
330
B6FCB
102
}
330
18
100
AcDbEntity
  8
文字
100
AcDbPolyline
 90
        8
 70
     1
 43
0.0
 10
5998.94306796299
 20
-3085.228890293306
 10
5998.943067962994
 20
-3071.228890293306
 42
0.4142135623730951
 10
5998.443067962993
 20
-3070.728890293306
 10
5989.443067962993
 20
-3070.728890293306
 42
0.4142135623730951
 10
5988.943067962993
 20
-3071.228890293306
 10
5988.943067962993
 20
-3085.228890293306
 42
0.4142135623730996
 10
5989.443067962993
 20
-3085.728890293306
 10
5998.44306796299
 20
-3085.728890293306
 42
0.4142135623730904
  0
LINE
  5
B6FC0
102
{ACAD_REACTORS
330
B6FCB
102
}
330
18
100
AcDbEntity
  8
文字
370
     9
100
AcDbLine
 10
5997.644573882377
 20
-3080.066316891686
 30
0.0
 11
5995.642073882378
 21
-3079.826016891689
 31
0.0
  0
LINE
  5
B6FC1
102
{ACAD_REACTORS
330
B6FCB
102
}
330
18
100
AcDbEntity
  8
文字
370
     9
100
AcDbLine
 10
5997.644573882377
 20
-3084.471816891687
 30
0.0
 11
5994.440573882378
 21
-3084.071316891687
 31
0.0
  0
LINE
  5
B6FC2
102
{ACAD_REACTORS
330
B6FCB
102
}
330
18
100
AcDbEntity
  8
文字
370
     9
100
AcDbLine
 10
5994.440573882378
 20
-3084.071316891687
 30
0.0
 11
5994.440573882378
 21
-3079.665816891687
 31
0.0
  0
ARC
  5
B6FC3
102
{ACAD_REACTORS
330
B6FCB
102
}
330
18
100
AcDbEntity
  8
文字
370
     9
100
AcDbCircle
 10
5996.443073882385
 20
-3082.068816891689
 30
0.0
 40
0.8009999999999999
100
AcDbArc
 50
0.0
 51
180.0
  0
CIRCLE
  5
B6FC4
102
{ACAD_REACTORS
330
B6FCB
102
}
330
18
100
AcDbEntity
  8
文字
370
     9
100
AcDbCircle
 10
5996.242823882383
 20
-3082.068816891689
 30
0.0
 40
0.6007500000000002
  0
ARC
  5
B6FC5
102
{ACAD_REACTORS
330
B6FCB
102
}
330
18
100
AcDbEntity
  8
文字
370
     9
100
AcDbCircle
 10
5996.240961091686
 20
-3082.067885496341
 30
0.0
 40
1.003113223100251
100
AcDbArc
 50
203.589777272608
 51
359.9468005913759
  0
LINE
  5
B6FC6
102
{ACAD_REACTORS
330
B6FCB
102
}
330
18
100
AcDbEntity
  8
文字
370
     9
100
AcDbLine
 10
5994.440573882378
 20
-3079.665816891687
 30
0.0
 11
5995.321673882378
 21
-3082.469316891688
 31
0.0
  0
LINE
  5
B6FC7
102
{ACAD_REACTORS
330
B6FCB
102
}
330
18
100
AcDbEntity
  8
文字
370
     9
100
AcDbLine
 10
5995.642073882378
 20
-3082.068816891689
 30
0.0
 11
5995.642073882378
 21
-3079.826016891689
 31
0.0
  0
LINE
  5
B6FC8
102
{ACAD_REACTORS
330
B6FCB
102
}
330
18
100
AcDbEntity
  8
文字
370
     9
100
AcDbLine
 10
5997.644573882377
 20
-3084.471816891687
 30
0.0
 11
5997.644573882377
 21
-3080.066316891686
 31
0.0
  0
LINE
  5
B738F
330
18
100
AcDbEntity
  8
実線
 48
0.2
100
AcDbLine
 10
6106.161675005732
 20
-3087.052722798272
 30
0.0
 11
6106.161675005732
 21
-2996.405055151863
 31
0.0
  0
LINE
  5
B7390
330
18
100
AcDbEntity
  8
実線
 48
0.2
100
AcDbLine
 10
6218.161678462801
 20
-2996.405055151864
 30
0.0
 11
6218.161678462801
 21
-3013.420136050864
 31
0.0
  0
LINE
  5
B7392
330
18
100
AcDbEntity
  8
中心線
 48
0.5
100
AcDbLine
 10
6162.161676734267
 20
-2974.268670697373
 30
0.0
 11
6162.161676734267
 21
-3109.189107252762
 31
0.0
  0
LINE
  5
B7393
330
18
100
AcDbEntity
  8
中心線
 48
0.5
100
AcDbLine
 10
6094.701458456738
 20
-3041.728888975117
 30
0.0
 11
6253.845768383861
 21
-3041.728888975117
 31
0.0
  0
LINE
  5
B7394
330
18
100
AcDbEntity
  8
実線
 48
0.2
100
AcDbLine
 10
6207.485510557471
 20
-3097.728890703602
 30
0.0
 11
6116.837842911063
 21
-3097.728890703602
 31
0.0
  0
ARC
  5
B739B
330
18
100
AcDbEntity
  8
実線
 48
0.2
100
AcDbCircle
 10
6162.161676734267
 20
-3041.728888975068
 30
0.0
 40
72.50000000000006
100
AcDbArc
 50
220.007753913509
 51
229.9922460864878
  0
ARC
  5
B739C
330
18
100
AcDbEntity
  8
実線
 48
0.2
100
AcDbCircle
 10
6116.837841945052
 20
-3095.728888975068
 30
0.0
 40
2.000000000000051
100
AcDbArc
 50
229.9922460864878
 51
270.0
  0
CIRCLE
  5
B739D
330
18
100
AcDbEntity
  8
実線
 48
0.2
100
AcDbCircle
 10
6117.967502910106
 20
-3085.923062799226
 30
0.0
 40
3.5
  0
LINE
  5
B739E
330
18
100
AcDbEntity
  8
中心線
 48
0.5
100
AcDbLine
 10
6123.153318483343
 20
-3080.737247225991
 30
0.0
 11
6112.78168733687
 21
-3091.108878372465
 31
0.0
  0
ARC
  5
B73A0
330
18
100
AcDbEntity
  8
実線
 48
0.2
100
AcDbCircle
 10
6108.161676734266
 20
-3087.05272376428
 30
0.0
 40
2.000000000000051
100
AcDbArc
 50
180.0
 51
220.007753913509
  0
CIRCLE
  5
B73B2
330
18
100
AcDbEntity
  8
実線
 48
0.2
100
AcDbCircle
 10
6162.161676734432
 20
-3041.728888975117
 30
0.0
 40
10.8
  0
CIRCLE
  5
B73B3
330
18
100
AcDbEntity
  8
実線
 48
0.2
100
AcDbCircle
 10
6162.161676734432
 20
-3041.728888975117
 30
0.0
 40
9.5
  0
CIRCLE
  5
B73BA
330
18
100
AcDbEntity
  8
実線
100
AcDbCircle
 10
6162.161676734256
 20
-3041.728888975008
 30
0.0
 40
0.0000000000618456
  0
LINE
  5
B73BB
330
18
100
AcDbEntity
  8
実線
 48
0.2
100
AcDbLine
 10
6218.161678462801
 20
-3070.037641899271
 30
0.0
 11
6218.161678462801
 21
-3087.052722798272
 31
0.0
  0
ARC
  5
B73BC
330
18
100
AcDbEntity
  8
実線
 48
0.2
100
AcDbCircle
 10
6162.161676734267
 20
-3041.728888975068
 30
0.0
 40
72.5
100
AcDbArc
 50
310.0077539135123
 51
319.992246086491
  0
ARC
  5
B73BD
330
18
100
AcDbEntity
  8
実線
 48
0.2
100
AcDbCircle
 10
6207.485511523482
 20
-3095.728888975068
 30
0.0
 40
2.000000000000015
100
AcDbArc
 50
270.0
 51
310.0077539135123
  0
CIRCLE
  5
B73BE
330
18
100
AcDbEntity
  8
実線
 48
0.2
100
AcDbCircle
 10
6206.355850558425
 20
-3085.923062799226
 30
0.0
 40
3.500000000000027
  0
LINE
  5
B73BF
330
18
100
AcDbEntity
  8
中心線
 48
0.5
100
AcDbLine
 10
6201.170034985192
 20
-3080.737247225993
 30
0.0
 11
6211.541666131665
 21
-3091.108878372467
 31
0.0
  0
ARC
  5
B73C1
330
18
100
AcDbEntity
  8
実線
 48
0.2
100
AcDbCircle
 10
6216.161676734266
 20
-3087.05272376428
 30
0.0
 40
2.000000000000008
100
AcDbArc
 50
319.992246086491
 51
0.0
  0
ARC
  5
B73C9
330
18
100
AcDbEntity
  8
実線
 48
0.2
100
AcDbCircle
 10
6162.161676734267
 20
-3041.728888975068
 30
0.0
 40
62.49999999999996
100
AcDbArc
 50
335.0714582198018
 51
24.92854178019817
  0
ARC
  5
B73CB
330
18
100
AcDbEntity
  8
実線
 48
0.2
100
AcDbCircle
 10
6217.025143631648
 20
-3067.228888975068
 30
0.0
 40
1.999999999999986
100
AcDbArc
 50
325.8230487704779
 51
335.0714582198018
  0
ARC
  5
B73CC
330
18
100
AcDbEntity
  8
実線
 48
0.2
100
AcDbCircle
 10
6221.161676734267
 20
-3070.037642059788
 30
0.0
 40
3.000000000000031
100
AcDbArc
 50
145.8230487704779
 51
180.0
  0
ARC
  5
B73DD
330
18
100
AcDbEntity
  8
実線
 48
0.2
100
AcDbCircle
 10
6217.025143631648
 20
-3016.228888975068
 30
0.0
 40
2.000000000000011
100
AcDbArc
 50
24.92854178019817
 51
34.1769512295221
  0
ARC
  5
B73DE
330
18
100
AcDbEntity
  8
実線
 48
0.2
100
AcDbCircle
 10
6221.161676734267
 20
-3013.420135890346
 30
0.0
 40
3.0
100
AcDbArc
 50
180.0
 51
214.1769512295221
  0
LINE
  5
B73E6
330
18
100
AcDbEntity
  8
実線
 48
0.2
100
AcDbLine
 10
6116.837842911063
 20
-2985.728887246532
 30
0.0
 11
6207.485510557471
 21
-2985.728887246533
 31
0.0
  0
ARC
  5
B73EA
330
18
100
AcDbEntity
  8
実線
 48
0.2
100
AcDbCircle
 10
6162.161676734267
 20
-3041.728888975068
 30
0.0
 40
72.50000000000006
100
AcDbArc
 50
130.0077539135122
 51
139.992246086491
  0
CIRCLE
  5
B73EB
330
18
100
AcDbEntity
  8
実線
 48
0.2
100
AcDbCircle
 10
6117.967502910108
 20
-2997.534715150907
 30
0.0
 40
3.5
  0
LINE
  5
B73EC
330
18
100
AcDbEntity
  8
中心線
 48
0.5
100
AcDbLine
 10
6123.153318483345
 20
-3002.72053072414
 30
0.0
 11
6112.781687336871
 21
-2992.348899577666
 31
0.0
  0
ARC
  5
B73EE
330
18
100
AcDbEntity
  8
実線
 48
0.2
100
AcDbCircle
 10
6108.161676734266
 20
-2996.405054185853
 30
0.0
 40
2.000000000000015
100
AcDbArc
 50
139.992246086491
 51
180.0
  0
ARC
  5
B73FB
330
18
100
AcDbEntity
  8
実線
 48
0.2
100
AcDbCircle
 10
6116.837841945052
 20
-2987.728888975068
 30
0.0
 40
2.000000000000095
100
AcDbArc
 50
90.0
 51
130.0077539135122
  0
ARC
  5
B7408
330
18
100
AcDbEntity
  8
実線
 48
0.2
100
AcDbCircle
 10
6162.161676734267
 20
-3041.728888975068
 30
0.0
 40
72.49999999999999
100
AcDbArc
 50
40.00775391350902
 51
49.99224608648775
  0
CIRCLE
  5
B7409
330
18
100
AcDbEntity
  8
実線
 48
0.2
100
AcDbCircle
 10
6206.355850558427
 20
-2997.534715150907
 30
0.0
 40
3.5
  0
LINE
  5
B740A
330
18
100
AcDbEntity
  8
中心線
 48
0.5
100
AcDbLine
 10
6201.170034985194
 20
-3002.720530724142
 30
0.0
 11
6211.541666131668
 21
-2992.348899577668
 31
0.0
  0
ARC
  5
B740C
330
18
100
AcDbEntity
  8
実線
 48
0.2
100
AcDbCircle
 10
6216.161676734266
 20
-2996.405054185853
 30
0.0
 40
2.0
100
AcDbArc
 50
0.0
 51
40.00775391350902
  0
ARC
  5
B740D
330
18
100
AcDbEntity
  8
実線
 48
0.2
100
AcDbCircle
 10
6207.485511523482
 20
-2987.728888975068
 30
0.0
 40
2.000000000000059
100
AcDbArc
 50
49.99224608648775
 51
90.0
  0
TEXT
  5
B742A
102
{ACAD_REACTORS
330
B7444
102
}
330
18
100
AcDbEntity
  8
文字
370
     9
100
AcDbText
 10
5998.041810406405
 20
-3025.560744567842
 30
0.0
 40
1.439999999999999
  1
DENSO
 50
90.0
 41
1.3
  7
TIMESNR
100
AcDbText
  0
TEXT
  5
B742B
102
{ACAD_REACTORS
330
B7444
102
}
330
18
100
AcDbEntity
  8
文字
370
     9
100
AcDbText
 10
5996.34504799742
 20
-3025.439331457702
 30
0.0
 40
1.439999999999999
  1
NIKKI
 50
90.0
 41
1.25
  7
TIMESNR
100
AcDbText
  0
TEXT
  5
B742C
102
{ACAD_REACTORS
330
B7444
102
}
330
18
100
AcDbEntity
  8
文字
370
     9
100
AcDbText
 10
5990.560335843866
 20
-3031.90492026244
 30
0.0
 40
2.6
  1
ENCODER
 50
90.0
 41
1.199999999999999
  7
MS\U+FF7A\U+FF9E\U+FF7C\U+FF6F\U+FF78N
 11
5991.035282718866
 21
-3031.90492026244
 31
0.0
100
AcDbText
 73
     1
  0
TEXT
  5
B742D
102
{ACAD_REACTORS
330
B7444
102
}
330
18
100
AcDbEntity
  8
文字
370
     9
100
AcDbText
 10
5993.384327647248
 20
-3031.932046835252
 30
0.0
 40
2.0
  1
******PPR
 50
90.0
 41
1.199999999999999
  7
MS\U+FF7A\U+FF9E\U+FF7C\U+FF6F\U+FF78N
 11
5993.749671397248
 21
-3031.932046835252
 31
0.0
100
AcDbText
 73
     1
  0
LINE
  5
B742E
102
{ACAD_REACTORS
330
B7444
102
}
330
18
100
AcDbEntity
  8
文字
100
AcDbLine
 10
5993.943067962988
 20
-3033.728890293305
 30
0.0
 11
5993.943067962988
 21
-2998.728890293305
 31
0.0
  0
LINE
  5
B742F
102
{ACAD_REACTORS
330
B7444
102
}
330
18
100
AcDbEntity
  8
文字
100
AcDbLine
 10
5998.943067962989
 20
-3033.228890293305
 30
0.0
 11
5998.943067962989
 21
-2999.228890293305
 31
0.0
  0
LINE
  5
B7430
102
{ACAD_REACTORS
330
B7444
102
}
330
18
100
AcDbEntity
  8
文字
100
AcDbLine
 10
5986.943067962989
 20
-2999.228890293305
 30
0.0
 11
5986.943067962989
 21
-3033.228890293305
 31
0.0
  0
ARC
  5
B7431
102
{ACAD_REACTORS
330
B7444
102
}
330
18
100
AcDbEntity
  8
文字
100
AcDbCircle
 10
5998.443067962992
 20
-3033.228890293306
 30
0.0
 40
0.5
100
AcDbArc
 50
270.0
 51
0.0
  0
ARC
  5
B7432
102
{ACAD_REACTORS
330
B7444
102
}
330
18
100
AcDbEntity
  8
文字
100
AcDbCircle
 10
5987.443067962992
 20
-3033.228890293306
 30
0.0
 40
0.5
100
AcDbArc
 50
180.0
 51
270.0
  0
LINE
  5
B7433
102
{ACAD_REACTORS
330
B7444
102
}
330
18
100
AcDbEntity
  8
文字
100
AcDbLine
 10
5987.443067962988
 20
-3033.728890293305
 30
0.0
 11
5998.443067962988
 21
-3033.728890293305
 31
0.0
  0
ARC
  5
B7434
102
{ACAD_REACTORS
330
B7444
102
}
330
18
100
AcDbEntity
  8
文字
370
     9
100
AcDbCircle
 10
5996.888044544991
 20
-3028.779843792227
 30
0.0
 40
0.8009999999999999
100
AcDbArc
 50
0.0
 51
180.0
  0
LINE
  5
B7435
102
{ACAD_REACTORS
330
B7444
102
}
330
18
100
AcDbEntity
  8
文字
370
     9
100
AcDbLine
 10
5998.089544544987
 20
-3026.777343792228
 30
0.0
 11
5996.087044544989
 21
-3026.537043792227
 31
0.0
  0
LINE
  5
B7436
102
{ACAD_REACTORS
330
B7444
102
}
330
18
100
AcDbEntity
  8
文字
370
     9
100
AcDbLine
 10
5998.089544544987
 20
-3031.182843792229
 30
0.0
 11
5994.885544544985
 21
-3030.782343792229
 31
0.0
  0
ARC
  5
B7437
102
{ACAD_REACTORS
330
B7444
102
}
330
18
100
AcDbEntity
  8
文字
370
     9
100
AcDbCircle
 10
5996.685931754292
 20
-3028.778912396879
 30
0.0
 40
1.003113223100251
100
AcDbArc
 50
203.589777272608
 51
359.9468005913759
  0
LINE
  5
B7438
102
{ACAD_REACTORS
330
B7444
102
}
330
18
100
AcDbEntity
  8
文字
370
     9
100
AcDbLine
 10
5996.087044544989
 20
-3028.779843792227
 30
0.0
 11
5996.087044544989
 21
-3026.537043792227
 31
0.0
  0
LINE
  5
B7439
102
{ACAD_REACTORS
330
B7444
102
}
330
18
100
AcDbEntity
  8
文字
370
     9
100
AcDbLine
 10
5994.885544544985
 20
-3030.782343792229
 30
0.0
 11
5994.885544544985
 21
-3026.376843792228
 31
0.0
  0
LINE
  5
B743A
102
{ACAD_REACTORS
330
B7444
102
}
330
18
100
AcDbEntity
  8
文字
370
     9
100
AcDbLine
 10
5994.885544544985
 20
-3026.376843792228
 30
0.0
 11
5995.766644544984
 21
-3029.180343792226
 31
0.0
  0
CIRCLE
  5
B743B
102
{ACAD_REACTORS
330
B7444
102
}
330
18
100
AcDbEntity
  8
文字
370
     9
100
AcDbCircle
 10
5996.687794544989
 20
-3028.779843792227
 30
0.0
 40
0.6007500000000002
  0
LINE
  5
B743C
102
{ACAD_REACTORS
330
B7444
102
}
330
18
100
AcDbEntity
  8
文字
370
     9
100
AcDbLine
 10
5998.089544544987
 20
-3031.182843792229
 30
0.0
 11
5998.089544544987
 21
-3026.777343792228
 31
0.0
  0
LINE
  5
B743D
102
{ACAD_REACTORS
330
B7444
102
}
330
18
100
AcDbEntity
  8
文字
100
AcDbLine
 10
5998.443067962988
 20
-2998.728890293305
 30
0.0
 11
5987.443067962988
 21
-2998.728890293305
 31
0.0
  0
ARC
  5
B743E
102
{ACAD_REACTORS
330
B7444
102
}
330
18
100
AcDbEntity
  8
文字
100
AcDbCircle
 10
5987.443067962992
 20
-2999.228890293306
 30
0.0
 40
0.5
100
AcDbArc
 50
90.0
 51
180.0
  0
ARC
  5
B743F
102
{ACAD_REACTORS
330
B7444
102
}
330
18
100
AcDbEntity
  8
文字
100
AcDbCircle
 10
5998.443067962992
 20
-2999.228890293306
 30
0.0
 40
0.5
100
AcDbArc
 50
0.0
 51
90.0
  0
TEXT
  5
B7440
102
{ACAD_REACTORS
330
B7444
102
}
330
18
100
AcDbEntity
  8
文字
370
     9
100
AcDbText
 10
5998.308362599567
 20
-3014.107229898756
 30
137.5
 40
1.5
  1
MADE IN JAPAN
 50
90.0
  7
MS\U+FF7A\U+FF9E\U+FF7C\U+FF6F\U+FF78N
 11
5998.582370412067
 21
-3014.107229898756
 31
137.5
100
AcDbText
 73
     1
  0
TEXT
  5
B7441
102
{ACAD_REACTORS
330
B7444
102
}
330
18
100
AcDbEntity
  8
文字
370
     9
100
AcDbText
 10
5996.438576549182
 20
-3014.107229898756
 30
137.5
 40
1.5
  1
SN-16140
 50
90.0
  7
MS\U+FF7A\U+FF9E\U+FF7C\U+FF6F\U+FF78N
 11
5996.712584361683
 21
-3014.107229898756
 31
137.5
100
AcDbText
 73
     1
  0
LINE
  5
B744E
330
18
100
AcDbEntity
  8
\U+FF7A\U+FF88\U+FF78\U+FF80
100
AcDbLine
 10
6229.661676734266
 20
-3033.075088975117
 30
0.0
 11
6229.661676734266
 21
-3050.382688975117
 31
0.0
  0
LINE
  5
B744F
330
18
100
AcDbEntity
  8
\U+FF7A\U+FF88\U+FF78\U+FF80
100
AcDbLine
 10
6246.661676734266
 20
-3036.431487499826
 30
0.0
 11
6246.661676734266
 21
-3047.026290450408
 31
0.0
  0
ARC
  5
B7450
330
18
100
AcDbEntity
  8
\U+FF7A\U+FF88\U+FF78\U+FF80
100
AcDbCircle
 10
6234.661676734266
 20
-3041.728888975117
 30
0.0
 40
8.0
100
AcDbArc
 50
333.5214655209426
 51
26.47853447905733
  0
LINE
  5
B7451
330
18
100
AcDbEntity
  8
\U+FF7A\U+FF88\U+FF78\U+FF80
100
AcDbLine
 10
6242.661676734266
 20
-3033.075088975117
 30
0.0
 11
6242.661676734266
 21
-3050.382688975117
 31
0.0
  0
LINE
  5
B7452
330
18
100
AcDbEntity
  8
\U+FF7A\U+FF88\U+FF78\U+FF80
100
AcDbLine
 10
6229.661676734266
 20
-3035.728887713482
 30
0.0
 11
6234.661676734266
 21
-3035.728886451849
 31
0.0
  0
LINE
  5
B7453
330
18
100
AcDbEntity
  8
\U+FF7A\U+FF88\U+FF78\U+FF80
100
AcDbLine
 10
6242.661676734266
 20
-3033.075088975117
 30
0.0
 11
6246.661676734266
 21
-3036.431487499826
 31
0.0
  0
LINE
  5
B7454
330
18
100
AcDbEntity
  8
\U+FF7A\U+FF88\U+FF78\U+FF80
100
AcDbLine
 10
6241.822488447334
 20
-3038.161988975117
 30
0.0
 11
6241.822488447334
 21
-3036.641988975117
 31
0.0
  0
LINE
  5
B7455
330
18
100
AcDbEntity
  8
\U+FF7A\U+FF88\U+FF78\U+FF80
100
AcDbLine
 10
6234.661676734266
 20
-3036.641988975117
 30
0.0
 11
6241.822488447334
 21
-3036.641988975117
 31
0.0
  0
LINE
  5
B7456
330
18
100
AcDbEntity
  8
\U+FF7A\U+FF88\U+FF78\U+FF80
100
AcDbLine
 10
6234.661676734266
 20
-3038.161988975117
 30
0.0
 11
6241.822488447334
 21
-3038.161988975117
 31
0.0
  0
LINE
  5
B7457
330
18
100
AcDbEntity
  8
\U+FF7A\U+FF88\U+FF78\U+FF80
100
AcDbLine
 10
6234.661676734266
 20
-3033.075088975117
 30
0.0
 11
6242.661676734266
 21
-3033.075088975117
 31
0.0
  0
ARC
  5
B7458
330
18
100
AcDbEntity
  8
\U+FF7A\U+FF88\U+FF78\U+FF80
100
AcDbCircle
 10
6234.661676734266
 20
-3033.075088975117
 30
0.0
 40
8.0
100
AcDbArc
 50
333.5214655209426
 51
0.0
  0
LINE
  5
B7459
330
18
100
AcDbEntity
  8
\U+FF7A\U+FF88\U+FF78\U+FF80
100
AcDbLine
 10
6224.661676734267
 20
-3035.728888975117
 30
0.0
 11
6224.373010106898
 21
-3035.728888975118
 31
0.0
  0
LINE
  5
B745A
330
18
100
AcDbEntity
  8
\U+FF7A\U+FF88\U+FF78\U+FF80
100
AcDbLine
 10
6224.661676734267
 20
-3036.338888975118
 30
0.0
 11
6224.428826179223
 21
-3036.338888975118
 31
0.0
  0
LINE
  5
B745B
330
18
100
AcDbEntity
  8
\U+FF7A\U+FF88\U+FF78\U+FF80
100
AcDbLine
 10
6224.661676734267
 20
-3036.641988975117
 30
0.0
 11
6229.661676734266
 21
-3036.641988975117
 31
0.0
  0
LINE
  5
B745C
330
18
100
AcDbEntity
  8
\U+FF7A\U+FF88\U+FF78\U+FF80
100
AcDbLine
 10
6224.661676734267
 20
-3038.161988975117
 30
0.0
 11
6229.661676734266
 21
-3038.161988975117
 31
0.0
  0
LINE
  5
B745D
330
18
100
AcDbEntity
  8
\U+FF7A\U+FF88\U+FF78\U+FF80
100
AcDbLine
 10
6224.661676734267
 20
-3033.075088975117
 30
0.0
 11
6229.661676734266
 21
-3033.075088975117
 31
0.0
  0
LINE
  5
B745E
330
18
100
AcDbEntity
  8
\U+FF7A\U+FF88\U+FF78\U+FF80
100
AcDbLine
 10
6229.661676734266
 20
-3047.728887713484
 30
0.0
 11
6234.661676734266
 21
-3047.728886451851
 31
0.0
  0
ARC
  5
B745F
330
18
100
AcDbEntity
  8
\U+FF7A\U+FF88\U+FF78\U+FF80
100
AcDbCircle
 10
6234.661676734266
 20
-3050.382688975117
 30
0.0
 40
8.0
100
AcDbArc
 50
0.0
 51
26.47853447905733
  0
LINE
  5
B7460
330
18
100
AcDbEntity
  8
\U+FF7A\U+FF88\U+FF78\U+FF80
100
AcDbLine
 10
6242.661676734266
 20
-3050.382688975117
 30
0.0
 11
6246.661676734266
 21
-3047.026290450408
 31
0.0
  0
LINE
  5
B7461
330
18
100
AcDbEntity
  8
\U+FF7A\U+FF88\U+FF78\U+FF80
100
AcDbLine
 10
6241.822488447334
 20
-3046.815788975117
 30
0.0
 11
6241.822488447334
 21
-3045.295788975117
 31
0.0
  0
LINE
  5
B7462
330
18
100
AcDbEntity
  8
\U+FF7A\U+FF88\U+FF78\U+FF80
100
AcDbLine
 10
6234.661676734266
 20
-3045.295788975117
 30
0.0
 11
6241.822488447334
 21
-3045.295788975117
 31
0.0
  0
LINE
  5
B7463
330
18
100
AcDbEntity
  8
\U+FF7A\U+FF88\U+FF78\U+FF80
100
AcDbLine
 10
6234.661676734266
 20
-3046.815788975117
 30
0.0
 11
6241.822488447334
 21
-3046.815788975117
 31
0.0
  0
LINE
  5
B7464
330
18
100
AcDbEntity
  8
\U+FF7A\U+FF88\U+FF78\U+FF80
100
AcDbLine
 10
6234.661676734266
 20
-3050.382688975117
 30
0.0
 11
6242.661676734266
 21
-3050.382688975117
 31
0.0
  0
LINE
  5
B7465
330
18
100
AcDbEntity
  8
\U+FF7A\U+FF88\U+FF78\U+FF80
100
AcDbLine
 10
6224.661676734267
 20
-3047.728888975117
 30
0.0
 11
6224.373010106887
 21
-3047.728888975118
 31
0.0
  0
LINE
  5
B7466
330
18
100
AcDbEntity
  8
\U+FF7A\U+FF88\U+FF78\U+FF80
100
AcDbLine
 10
6224.661676734267
 20
-3047.118888975117
 30
0.0
 11
6224.428826179214
 21
-3047.118888975117
 31
0.0
  0
LINE
  5
B7467
330
18
100
AcDbEntity
  8
\U+FF7A\U+FF88\U+FF78\U+FF80
100
AcDbLine
 10
6224.661676734267
 20
-3046.815788975117
 30
0.0
 11
6229.661676734266
 21
-3046.815788975117
 31
0.0
  0
LINE
  5
B7468
330
18
100
AcDbEntity
  8
\U+FF7A\U+FF88\U+FF78\U+FF80
100
AcDbLine
 10
6224.661676734267
 20
-3045.295788975117
 30
0.0
 11
6229.661676734266
 21
-3045.295788975117
 31
0.0
  0
LINE
  5
B7469
330
18
100
AcDbEntity
  8
\U+FF7A\U+FF88\U+FF78\U+FF80
100
AcDbLine
 10
6224.661676734267
 20
-3050.382688975117
 30
0.0
 11
6229.661676734266
 21
-3050.382688975117
 31
0.0
  0
LINE
  5
B746A
330
18
100
AcDbEntity
  8
\U+FF7A\U+FF88\U+FF78\U+FF80
100
AcDbLine
 10
6224.661676734267
 20
-3050.382688975117
 30
0.0
 11
6224.661676734267
 21
-3033.075088975117
 31
0.0
  0
LINE
  5
B746B
330
18
100
AcDbEntity
  8
\U+FF7A\U+FF88\U+FF78\U+FF80
100
AcDbLine
 10
6234.661676734266
 20
-3033.075088975117
 30
0.0
 11
6234.661676734266
 21
-3050.382688975117
 31
0.0
  0
CIRCLE
  5
B8DB2
330
18
100
AcDbEntity
  8
実線
 48
0.2
100
AcDbCircle
 10
6198.010204006185
 20
-3092.925891743008
 30
0.0
 40
2.0
  0
LINE
  5
B8DB3
330
18
100
AcDbEntity
  8
中心線
 48
0.5
100
AcDbLine
 10
6123.964430192709
 20
-2987.177567463615
 30
0.0
 11
6199.928628798378
 21
-3095.66568628609
 31
0.0
  0
ARC
  5
B8DB4
330
18
100
AcDbEntity
  8
実線
 48
0.2
100
AcDbCircle
 10
6125.739573025954
 20
-2989.712734162595
 30
0.0
 40
2.000248108191843
100
AcDbArc
 50
34.0975550131526
 51
215.9024449868802
  0
ARC
  5
B8DB5
330
18
100
AcDbEntity
  8
実線
 48
0.2
100
AcDbCircle
 10
6126.886725898656
 20
-2991.351038251174
 30
0.0
 40
2.000264515295802
100
AcDbArc
 50
215.9318029819219
 51
34.06819701809064
  0
POINT
  5
B8DB6
330
18
100
AcDbEntity
  8
0
  6
Continuous
370
     0
100
AcDbPoint
 10
6128.034030491098
 20
-2992.989559017997
 30
0.0
  0
LINE
  5
B8DB7
330
18
100
AcDbEntity
  8
実線
 48
0.2
100
AcDbLine
 10
6128.543688505447
 20
-2990.230531768363
 30
0.0
 11
6127.395945190943
 21
-2988.59138913588
 31
0.0
  0
POINT
  5
B8DB8
330
18
100
AcDbEntity
  8
0
  6
Continuous
370
     0
100
AcDbPoint
 10
6124.592277844238
 20
-2988.074226835685
 30
0.0
  0
LINE
  5
B8DB9
330
18
100
AcDbEntity
  8
実線
 48
0.2
100
AcDbLine
 10
6124.119340031898
 20
-2990.885694847863
 30
0.0
 11
6125.267079621113
 21
-2992.524837480349
 31
0.0
  0
LINE
  5
B8DBA
102
{ACAD_REACTORS
330
B8DBF
102
}
330
18
100
AcDbEntity
  8
\U+FF7A\U+FF88\U+FF78\U+FF80
100
AcDbLine
 10
6252.181206189372
 20
-3038.428888975117
 30
0.0
 11
6246.661676734266
 21
-3038.428888975117
 31
0.0
  0
LINE
  5
B8DBB
102
{ACAD_REACTORS
330
B8DBF
102
}
330
18
100
AcDbEntity
  8
\U+FF7A\U+FF88\U+FF78\U+FF80
100
AcDbLine
 10
6246.661676734266
 20
-3045.028888975117
 30
0.0
 11
6252.181206189372
 21
-3045.028888975117
 31
0.0
  0
SPLINE
  5
B8DBC
102
{ACAD_REACTORS
330
B8DBF
102
}
330
18
100
AcDbEntity
  8
細線
 48
0.5
100
AcDbSpline
210
0.0
220
0.0
230
1.0
 70
  1064
 71
     3
 72
    11
 73
     7
 74
     5
 42
0.000000001
 43
0.0000000001
 44
0.0000000001
 40
0.0
 40
0.0
 40
0.0
 40
0.0
 40
1.992484014115377
 40
3.465112482100438
 40
4.934764524498971
 40
6.931889979396979
 40
6.931889979396979
 40
6.931889979396979
 40
6.931889979396979
 10
6252.181206189373
 20
-3038.428888975111
 30
0.0
 10
6252.473038656784
 20
-3039.075313151717
 30
0.0
 10
6252.980562089016
 20
-3040.199504094892
 30
0.0
 10
6252.185443923682
 20
-3041.728663408162
 30
0.0
 10
6251.378707253067
 20
-3043.254591696555
 30
0.0
 10
6251.887882704814
 20
-3044.380360937451
 30
0.0
 10
6252.181206189373
 20
-3045.028888975114
 30
0.0
 11
6252.181206189373
 21
-3038.428888975111
 31
0.0
 11
6252.704293681234
 21
-3040.351484102111
 31
0.0
 11
6252.183342224231
 21
-3041.728888975112
 31
0.0
 11
6251.65811869751
 21
-3043.101484098484
 31
0.0
 11
6252.181206189373
 21
-3045.028888975114
 31
0.0
  0
SPLINE
  5
B8DBD
102
{ACAD_REACTORS
330
B8DBF
102
}
330
18
100
AcDbEntity
  8
細線
 48
0.5
100
AcDbSpline
210
0.0
220
0.0
230
1.0
 70
  1064
 71
     3
 72
     9
 73
     5
 74
     3
 42
0.000000001
 43
0.0000000001
 44
0.0000000001
 40
0.0
 40
0.0
 40
0.0
 40
0.0
 40
1.465084025132902
 40
3.462209480029957
 40
3.462209480029957
 40
3.462209480029957
 40
3.462209480029957
 10
6252.181206189373
 20
-3041.732962751716
 30
0.0
 10
6252.419524535987
 20
-3042.185933467155
 30
0.0
 10
6252.982705913131
 20
-3043.25637002797
 30
0.0
 10
6252.474409577605
 20
-3044.380468837712
 30
0.0
 10
6252.181206189373
 20
-3045.028888975114
 30
0.0
 11
6252.181206189373
 21
-3041.732962751716
 31
0.0
 11
6252.704293681233
 21
-3043.101484098484
 31
0.0
 11
6252.181206189373
 21
-3045.028888975114
 31
0.0
  0
LINE
  5
B8DBE
102
{ACAD_REACTORS
330
B8DBF
102
}
330
18
100
AcDbEntity
  8
\U+FF7A\U+FF88\U+FF78\U+FF80
100
AcDbLine
 10
6246.661676734266
 20
-3045.028888975117
 30
0.0
 11
6246.661676734266
 21
-3038.428888975117
 31
0.0
  0
ARC
  5
B8DC4
330
18
100
AcDbEntity
  8
実線
 48
0.2
100
AcDbCircle
 10
6162.161676734245
 20
-3041.728888974947
 30
0.0
 40
57.5
100
AcDbArc
 50
286.1564353572434
 51
73.84356464275677
  0
ARC
  5
B8DC5
330
18
100
AcDbEntity
  8
実線
 48
0.2
100
AcDbCircle
 10
6162.161676734245
 20
-3041.728888974947
 30
0.0
 40
57.50000000000003
100
AcDbArc
 50
196.1564353572433
 51
253.8435646427567
  0
LINE
  5
B8DC6
330
18
100
AcDbEntity
  8
実線
 48
0.2
100
AcDbLine
 10
6178.161677494204
 20
-3097.728890703481
 30
0.0
 11
6178.161677494204
 21
-3096.957956777375
 31
0.0
  0
LINE
  5
B8DC7
330
18
100
AcDbEntity
  8
実線
 48
0.2
100
AcDbLine
 10
6146.161675974286
 20
-3096.957956777375
 30
0.0
 11
6146.161675974286
 21
-3097.728890703481
 31
0.0
  0
LINE
  5
B8DC8
330
18
100
AcDbEntity
  8
実線
 48
0.2
100
AcDbLine
 10
6106.161675005711
 20
-3057.728889734905
 30
0.0
 11
6106.932608931816
 21
-3057.728889734905
 31
0.0
  0
ARC
  5
B8DC9
330
18
100
AcDbEntity
  8
実線
 48
0.2
100
AcDbCircle
 10
6162.161676734245
 20
-3041.728888974947
 30
0.0
 40
57.50000000000005
100
AcDbArc
 50
106.1564353572432
 51
163.8435646427567
  0
LINE
  5
B8DCA
330
18
100
AcDbEntity
  8
実線
 48
0.2
100
AcDbLine
 10
6178.161677494204
 20
-2986.499821172517
 30
0.0
 11
6178.161677494204
 21
-2985.728887246411
 31
0.0
  0
LINE
  5
B8DCB
330
18
100
AcDbEntity
  8
実線
 48
0.2
100
AcDbLine
 10
6146.161675974286
 20
-2985.728887246411
 30
0.0
 11
6146.161675974286
 21
-2986.499821172517
 31
0.0
  0
LINE
  5
B8DCC
330
18
100
AcDbEntity
  8
実線
 48
0.2
100
AcDbLine
 10
6106.932608931816
 20
-3025.728888214987
 30
0.0
 11
6106.161675005711
 21
-3025.728888214987
 31
0.0
  0
LINE
  5
B9FCB
330
18
100
AcDbEntity
  8
実線
100
AcDbLine
 10
6216.661676734432
 20
-3058.42469683218
 30
0.0
 11
6216.661676734432
 21
-3025.033081118053
 31
0.0
  0
LINE
  5
B9FCC
330
18
100
AcDbEntity
  8
実線
100
AcDbLine
 10
6107.661676734432
 20
-3058.424696832181
 30
0.0
 11
6107.661676734432
 21
-3025.033081118052
 31
0.0
  0
LINE
  5
B9FCD
330
18
100
AcDbEntity
  8
実線
100
AcDbLine
 10
6145.465868877368
 20
-3096.228888975117
 30
0.0
 11
6178.857484591496
 21
-3096.228888975117
 31
0.0
  0
LINE
  5
B9FCE
330
18
100
AcDbEntity
  8
実線
100
AcDbLine
 10
6145.465868877368
 20
-2987.228888975117
 30
0.0
 11
6178.857484591496
 21
-2987.228888975117
 31
0.0
  0
LINE
  5
B9FD3
102
{ACAD_REACTORS
330
B9FE0
102
}
330
18
100
AcDbEntity
  8
\U+FF77\U+FF6C\U+FF6F\U+FF8C\U+FF9F\U+FF8E\U+FF9E\U+FF99\U+FF84
100
AcDbLine
 10
6124.105666026798
 20
-3001.932443073938
 30
0.0
 11
6123.412225125233
 21
-3002.625883975501
 31
0.0
  0
LINE
  5
B9FD4
102
{ACAD_REACTORS
330
B9FE0
102
}
330
18
100
AcDbEntity
  8
\U+FF77\U+FF6C\U+FF6F\U+FF8C\U+FF9F\U+FF8E\U+FF9E\U+FF99\U+FF84
100
AcDbLine
 10
6123.412225125233
 20
-3002.625883975501
 30
0.0
 11
6122.71878422367
 21
-3001.932443073937
 31
0.0
  0
LINE
  5
B9FD5
102
{ACAD_REACTORS
330
B9FE0
102
}
330
18
100
AcDbEntity
  8
\U+FF77\U+FF6C\U+FF6F\U+FF8C\U+FF9F\U+FF8E\U+FF9E\U+FF99\U+FF84
100
AcDbLine
 10
6122.365230833075
 20
-3002.28599646453
 30
0.0
 11
6122.71878422367
 21
-3001.932443073938
 31
0.0
  0
LINE
  5
B9FD6
102
{ACAD_REACTORS
330
B9FE0
102
}
330
18
100
AcDbEntity
  8
\U+FF77\U+FF6C\U+FF6F\U+FF8C\U+FF9F\U+FF8E\U+FF9E\U+FF99\U+FF84
100
AcDbLine
 10
6124.105666026798
 20
-3001.932443073938
 30
0.0
 11
6124.45921941739
 21
-3002.28599646453
 31
0.0
  0
LINE
  5
B9FD7
102
{ACAD_REACTORS
330
B9FE0
102
}
330
18
100
AcDbEntity
  8
\U+FF77\U+FF6C\U+FF6F\U+FF8C\U+FF9F\U+FF8E\U+FF9E\U+FF99\U+FF84
100
AcDbLine
 10
6124.45921941739
 20
-3003.672878267658
 30
0.0
 11
6123.765778515827
 21
-3002.979437366095
 31
0.0
  0
LINE
  5
B9FD8
102
{ACAD_REACTORS
330
B9FE0
102
}
330
18
100
AcDbEntity
  8
\U+FF77\U+FF6C\U+FF6F\U+FF8C\U+FF9F\U+FF8E\U+FF9E\U+FF99\U+FF84
100
AcDbLine
 10
6124.105666026798
 20
-3004.026431658251
 30
0.0
 11
6123.412225125234
 21
-3003.332990756688
 31
0.0
  0
LINE
  5
B9FD9
102
{ACAD_REACTORS
330
B9FE0
102
}
330
18
100
AcDbEntity
  8
\U+FF77\U+FF6C\U+FF6F\U+FF8C\U+FF9F\U+FF8E\U+FF9E\U+FF99\U+FF84
100
AcDbLine
 10
6123.412225125235
 20
-3003.332990756688
 30
0.0
 11
6122.71878422367
 21
-3004.026431658251
 31
0.0
  0
LINE
  5
B9FDA
102
{ACAD_REACTORS
330
B9FE0
102
}
330
18
100
AcDbEntity
  8
\U+FF77\U+FF6C\U+FF6F\U+FF8C\U+FF9F\U+FF8E\U+FF9E\U+FF99\U+FF84
100
AcDbLine
 10
6123.058671734639
 20
-3002.979437366093
 30
0.0
 11
6122.365230833075
 21
-3003.672878267658
 31
0.0
  0
LINE
  5
B9FDB
102
{ACAD_REACTORS
330
B9FE0
102
}
330
18
100
AcDbEntity
  8
\U+FF77\U+FF6C\U+FF6F\U+FF8C\U+FF9F\U+FF8E\U+FF9E\U+FF99\U+FF84
100
AcDbLine
 10
6124.105666026798
 20
-3004.026431658252
 30
0.0
 11
6124.45921941739
 21
-3003.672878267658
 31
0.0
  0
LINE
  5
B9FDC
102
{ACAD_REACTORS
330
B9FE0
102
}
330
18
100
AcDbEntity
  8
\U+FF77\U+FF6C\U+FF6F\U+FF8C\U+FF9F\U+FF8E\U+FF9E\U+FF99\U+FF84
100
AcDbLine
 10
6122.365230833075
 20
-3003.672878267658
 30
0.0
 11
6122.71878422367
 21
-3004.026431658251
 31
0.0
  0
LINE
  5
B9FDD
102
{ACAD_REACTORS
330
B9FE0
102
}
330
18
100
AcDbEntity
  8
\U+FF77\U+FF6C\U+FF6F\U+FF8C\U+FF9F\U+FF8E\U+FF9E\U+FF99\U+FF84
100
AcDbLine
 10
6124.45921941739
 20
-3002.28599646453
 30
0.0
 11
6123.765778515827
 21
-3002.979437366095
 31
0.0
  0
LINE
  5
B9FDE
102
{ACAD_REACTORS
330
B9FE0
102
}
330
18
100
AcDbEntity
  8
\U+FF77\U+FF6C\U+FF6F\U+FF8C\U+FF9F\U+FF8E\U+FF9E\U+FF99\U+FF84
100
AcDbLine
 10
6123.058671734639
 20
-3002.979437366093
 30
0.0
 11
6122.365230833075
 21
-3002.28599646453
 31
0.0
  0
CIRCLE
  5
B9FDF
102
{ACAD_REACTORS
330
B9FE0
102
}
330
18
100
AcDbEntity
  8
\U+FF77\U+FF6C\U+FF6F\U+FF8C\U+FF9F\U+FF8E\U+FF9E\U+FF99\U+FF84
100
AcDbCircle
 10
6123.412225125233
 20
-3002.979437366095
 30
0.0
 40
2.0
  0
LINE
  5
B9FE1
102
{ACAD_REACTORS
330
B9FEE
102
}
330
18
100
AcDbEntity
  8
\U+FF77\U+FF6C\U+FF6F\U+FF8C\U+FF9F\U+FF8E\U+FF9E\U+FF99\U+FF84
100
AcDbLine
 10
6122.365230833088
 20
-3079.784899682586
 30
0.0
 11
6123.058671734651
 21
-3080.478340584151
 31
0.0
  0
LINE
  5
B9FE2
102
{ACAD_REACTORS
330
B9FEE
102
}
330
18
100
AcDbEntity
  8
\U+FF77\U+FF6C\U+FF6F\U+FF8C\U+FF9F\U+FF8E\U+FF9E\U+FF99\U+FF84
100
AcDbLine
 10
6123.058671734651
 20
-3080.478340584151
 30
0.0
 11
6122.365230833087
 21
-3081.171781485714
 31
0.0
  0
LINE
  5
B9FE3
102
{ACAD_REACTORS
330
B9FEE
102
}
330
18
100
AcDbEntity
  8
\U+FF77\U+FF6C\U+FF6F\U+FF8C\U+FF9F\U+FF8E\U+FF9E\U+FF99\U+FF84
100
AcDbLine
 10
6122.718784223681
 20
-3081.525334876308
 30
0.0
 11
6122.365230833088
 21
-3081.171781485714
 31
0.0
  0
LINE
  5
B9FE4
102
{ACAD_REACTORS
330
B9FEE
102
}
330
18
100
AcDbEntity
  8
\U+FF77\U+FF6C\U+FF6F\U+FF8C\U+FF9F\U+FF8E\U+FF9E\U+FF99\U+FF84
100
AcDbLine
 10
6122.365230833088
 20
-3079.784899682586
 30
0.0
 11
6122.718784223681
 21
-3079.431346291994
 31
0.0
  0
LINE
  5
B9FE5
102
{ACAD_REACTORS
330
B9FEE
102
}
330
18
100
AcDbEntity
  8
\U+FF77\U+FF6C\U+FF6F\U+FF8C\U+FF9F\U+FF8E\U+FF9E\U+FF99\U+FF84
100
AcDbLine
 10
6124.105666026808
 20
-3079.431346291994
 30
0.0
 11
6123.412225125246
 21
-3080.124787193557
 31
0.0
  0
LINE
  5
B9FE6
102
{ACAD_REACTORS
330
B9FEE
102
}
330
18
100
AcDbEntity
  8
\U+FF77\U+FF6C\U+FF6F\U+FF8C\U+FF9F\U+FF8E\U+FF9E\U+FF99\U+FF84
100
AcDbLine
 10
6124.459219417401
 20
-3079.784899682586
 30
0.0
 11
6123.765778515839
 21
-3080.47834058415
 31
0.0
  0
LINE
  5
B9FE7
102
{ACAD_REACTORS
330
B9FEE
102
}
330
18
100
AcDbEntity
  8
\U+FF77\U+FF6C\U+FF6F\U+FF8C\U+FF9F\U+FF8E\U+FF9E\U+FF99\U+FF84
100
AcDbLine
 10
6123.765778515839
 20
-3080.478340584149
 30
0.0
 11
6124.459219417401
 21
-3081.171781485714
 31
0.0
  0
LINE
  5
B9FE8
102
{ACAD_REACTORS
330
B9FEE
102
}
330
18
100
AcDbEntity
  8
\U+FF77\U+FF6C\U+FF6F\U+FF8C\U+FF9F\U+FF8E\U+FF9E\U+FF99\U+FF84
100
AcDbLine
 10
6123.412225125243
 20
-3080.831893974743
 30
0.0
 11
6124.105666026808
 21
-3081.525334876308
 31
0.0
  0
LINE
  5
B9FE9
102
{ACAD_REACTORS
330
B9FEE
102
}
330
18
100
AcDbEntity
  8
\U+FF77\U+FF6C\U+FF6F\U+FF8C\U+FF9F\U+FF8E\U+FF9E\U+FF99\U+FF84
100
AcDbLine
 10
6124.459219417403
 20
-3079.784899682586
 30
0.0
 11
6124.105666026808
 21
-3079.431346291994
 31
0.0
  0
LINE
  5
B9FEA
102
{ACAD_REACTORS
330
B9FEE
102
}
330
18
100
AcDbEntity
  8
\U+FF77\U+FF6C\U+FF6F\U+FF8C\U+FF9F\U+FF8E\U+FF9E\U+FF99\U+FF84
100
AcDbLine
 10
6124.105666026808
 20
-3081.525334876308
 30
0.0
 11
6124.459219417401
 21
-3081.171781485714
 31
0.0
  0
LINE
  5
B9FEB
102
{ACAD_REACTORS
330
B9FEE
102
}
330
18
100
AcDbEntity
  8
\U+FF77\U+FF6C\U+FF6F\U+FF8C\U+FF9F\U+FF8E\U+FF9E\U+FF99\U+FF84
100
AcDbLine
 10
6122.718784223681
 20
-3079.431346291994
 30
0.0
 11
6123.412225125246
 21
-3080.124787193557
 31
0.0
  0
LINE
  5
B9FEC
102
{ACAD_REACTORS
330
B9FEE
102
}
330
18
100
AcDbEntity
  8
\U+FF77\U+FF6C\U+FF6F\U+FF8C\U+FF9F\U+FF8E\U+FF9E\U+FF99\U+FF84
100
AcDbLine
 10
6123.412225125243
 20
-3080.831893974743
 30
0.0
 11
6122.718784223681
 21
-3081.525334876308
 31
0.0
  0
CIRCLE
  5
B9FED
102
{ACAD_REACTORS
330
B9FEE
102
}
330
18
100
AcDbEntity
  8
\U+FF77\U+FF6C\U+FF6F\U+FF8C\U+FF9F\U+FF8E\U+FF9E\U+FF99\U+FF84
100
AcDbCircle
 10
6123.412225125245
 20
-3080.478340584152
 30
0.0
 40
2.0
  0
LINE
  5
B9FEF
102
{ACAD_REACTORS
330
B9FFC
102
}
330
18
100
AcDbEntity
  8
\U+FF77\U+FF6C\U+FF6F\U+FF8C\U+FF9F\U+FF8E\U+FF9E\U+FF99\U+FF84
100
AcDbLine
 10
6200.217687441736
 20
-3081.525334876295
 30
0.0
 11
6200.9111283433
 21
-3080.831893974732
 31
0.0
  0
LINE
  5
B9FF0
102
{ACAD_REACTORS
330
B9FFC
102
}
330
18
100
AcDbEntity
  8
\U+FF77\U+FF6C\U+FF6F\U+FF8C\U+FF9F\U+FF8E\U+FF9E\U+FF99\U+FF84
100
AcDbLine
 10
6200.9111283433
 20
-3080.831893974732
 30
0.0
 11
6201.604569244864
 21
-3081.525334876297
 31
0.0
  0
LINE
  5
B9FF1
102
{ACAD_REACTORS
330
B9FFC
102
}
330
18
100
AcDbEntity
  8
\U+FF77\U+FF6C\U+FF6F\U+FF8C\U+FF9F\U+FF8E\U+FF9E\U+FF99\U+FF84
100
AcDbLine
 10
6201.958122635457
 20
-3081.171781485703
 30
0.0
 11
6201.604569244864
 21
-3081.525334876295
 31
0.0
  0
LINE
  5
B9FF2
102
{ACAD_REACTORS
330
B9FFC
102
}
330
18
100
AcDbEntity
  8
\U+FF77\U+FF6C\U+FF6F\U+FF8C\U+FF9F\U+FF8E\U+FF9E\U+FF99\U+FF84
100
AcDbLine
 10
6200.217687441736
 20
-3081.525334876295
 30
0.0
 11
6199.864134051143
 21
-3081.171781485703
 31
0.0
  0
LINE
  5
B9FF3
102
{ACAD_REACTORS
330
B9FFC
102
}
330
18
100
AcDbEntity
  8
\U+FF77\U+FF6C\U+FF6F\U+FF8C\U+FF9F\U+FF8E\U+FF9E\U+FF99\U+FF84
100
AcDbLine
 10
6199.864134051143
 20
-3079.784899682576
 30
0.0
 11
6200.557574952706
 21
-3080.478340584138
 31
0.0
  0
LINE
  5
B9FF4
102
{ACAD_REACTORS
330
B9FFC
102
}
330
18
100
AcDbEntity
  8
\U+FF77\U+FF6C\U+FF6F\U+FF8C\U+FF9F\U+FF8E\U+FF9E\U+FF99\U+FF84
100
AcDbLine
 10
6200.217687441736
 20
-3079.431346291983
 30
0.0
 11
6200.9111283433
 21
-3080.124787193546
 31
0.0
  0
LINE
  5
B9FF5
102
{ACAD_REACTORS
330
B9FFC
102
}
330
18
100
AcDbEntity
  8
\U+FF77\U+FF6C\U+FF6F\U+FF8C\U+FF9F\U+FF8E\U+FF9E\U+FF99\U+FF84
100
AcDbLine
 10
6200.9111283433
 20
-3080.124787193546
 30
0.0
 11
6201.604569244864
 21
-3079.431346291983
 31
0.0
  0
LINE
  5
B9FF6
102
{ACAD_REACTORS
330
B9FFC
102
}
330
18
100
AcDbEntity
  8
\U+FF77\U+FF6C\U+FF6F\U+FF8C\U+FF9F\U+FF8E\U+FF9E\U+FF99\U+FF84
100
AcDbLine
 10
6201.264681733892
 20
-3080.47834058414
 30
0.0
 11
6201.958122635457
 21
-3079.784899682576
 31
0.0
  0
LINE
  5
B9FF7
102
{ACAD_REACTORS
330
B9FFC
102
}
330
18
100
AcDbEntity
  8
\U+FF77\U+FF6C\U+FF6F\U+FF8C\U+FF9F\U+FF8E\U+FF9E\U+FF99\U+FF84
100
AcDbLine
 10
6200.217687441736
 20
-3079.431346291981
 30
0.0
 11
6199.864134051143
 21
-3079.784899682576
 31
0.0
  0
LINE
  5
B9FF8
102
{ACAD_REACTORS
330
B9FFC
102
}
330
18
100
AcDbEntity
  8
\U+FF77\U+FF6C\U+FF6F\U+FF8C\U+FF9F\U+FF8E\U+FF9E\U+FF99\U+FF84
100
AcDbLine
 10
6201.958122635457
 20
-3079.784899682576
 30
0.0
 11
6201.604569244864
 21
-3079.431346291983
 31
0.0
  0
LINE
  5
B9FF9
102
{ACAD_REACTORS
330
B9FFC
102
}
330
18
100
AcDbEntity
  8
\U+FF77\U+FF6C\U+FF6F\U+FF8C\U+FF9F\U+FF8E\U+FF9E\U+FF99\U+FF84
100
AcDbLine
 10
6199.864134051143
 20
-3081.171781485703
 30
0.0
 11
6200.557574952706
 21
-3080.478340584138
 31
0.0
  0
LINE
  5
B9FFA
102
{ACAD_REACTORS
330
B9FFC
102
}
330
18
100
AcDbEntity
  8
\U+FF77\U+FF6C\U+FF6F\U+FF8C\U+FF9F\U+FF8E\U+FF9E\U+FF99\U+FF84
100
AcDbLine
 10
6201.264681733892
 20
-3080.47834058414
 30
0.0
 11
6201.958122635457
 21
-3081.171781485703
 31
0.0
  0
CIRCLE
  5
B9FFB
102
{ACAD_REACTORS
330
B9FFC
102
}
330
18
100
AcDbEntity
  8
\U+FF77\U+FF6C\U+FF6F\U+FF8C\U+FF9F\U+FF8E\U+FF9E\U+FF99\U+FF84
100
AcDbCircle
 10
6200.9111283433
 20
-3080.478340584138
 30
0.0
 40
2.0
  0
LINE
  5
B9FFD
102
{ACAD_REACTORS
330
BA00A
102
}
330
18
100
AcDbEntity
  8
\U+FF77\U+FF6C\U+FF6F\U+FF8C\U+FF9F\U+FF8E\U+FF9E\U+FF99\U+FF84
100
AcDbLine
 10
6201.958122635446
 20
-3003.672878267648
 30
0.0
 11
6201.264681733882
 21
-3002.979437366083
 31
0.0
  0
LINE
  5
B9FFE
102
{ACAD_REACTORS
330
BA00A
102
}
330
18
100
AcDbEntity
  8
\U+FF77\U+FF6C\U+FF6F\U+FF8C\U+FF9F\U+FF8E\U+FF9E\U+FF99\U+FF84
100
AcDbLine
 10
6201.264681733882
 20
-3002.979437366083
 30
0.0
 11
6201.958122635447
 21
-3002.28599646452
 31
0.0
  0
LINE
  5
B9FFF
102
{ACAD_REACTORS
330
BA00A
102
}
330
18
100
AcDbEntity
  8
\U+FF77\U+FF6C\U+FF6F\U+FF8C\U+FF9F\U+FF8E\U+FF9E\U+FF99\U+FF84
100
AcDbLine
 10
6201.604569244853
 20
-3001.932443073926
 30
0.0
 11
6201.958122635446
 21
-3002.28599646452
 31
0.0
  0
LINE
  5
BA000
102
{ACAD_REACTORS
330
BA00A
102
}
330
18
100
AcDbEntity
  8
\U+FF77\U+FF6C\U+FF6F\U+FF8C\U+FF9F\U+FF8E\U+FF9E\U+FF99\U+FF84
100
AcDbLine
 10
6201.958122635446
 20
-3003.672878267648
 30
0.0
 11
6201.604569244853
 21
-3004.02643165824
 31
0.0
  0
LINE
  5
BA001
102
{ACAD_REACTORS
330
BA00A
102
}
330
18
100
AcDbEntity
  8
\U+FF77\U+FF6C\U+FF6F\U+FF8C\U+FF9F\U+FF8E\U+FF9E\U+FF99\U+FF84
100
AcDbLine
 10
6200.217687441726
 20
-3004.02643165824
 30
0.0
 11
6200.911128343289
 21
-3003.332990756677
 31
0.0
  0
LINE
  5
BA002
102
{ACAD_REACTORS
330
BA00A
102
}
330
18
100
AcDbEntity
  8
\U+FF77\U+FF6C\U+FF6F\U+FF8C\U+FF9F\U+FF8E\U+FF9E\U+FF99\U+FF84
100
AcDbLine
 10
6199.864134051133
 20
-3003.672878267648
 30
0.0
 11
6200.557574952696
 21
-3002.979437366084
 31
0.0
  0
LINE
  5
BA003
102
{ACAD_REACTORS
330
BA00A
102
}
330
18
100
AcDbEntity
  8
\U+FF77\U+FF6C\U+FF6F\U+FF8C\U+FF9F\U+FF8E\U+FF9E\U+FF99\U+FF84
100
AcDbLine
 10
6200.557574952696
 20
-3002.979437366085
 30
0.0
 11
6199.864134051133
 21
-3002.28599646452
 31
0.0
  0
LINE
  5
BA004
102
{ACAD_REACTORS
330
BA00A
102
}
330
18
100
AcDbEntity
  8
\U+FF77\U+FF6C\U+FF6F\U+FF8C\U+FF9F\U+FF8E\U+FF9E\U+FF99\U+FF84
100
AcDbLine
 10
6200.911128343291
 20
-3002.625883975491
 30
0.0
 11
6200.217687441726
 21
-3001.932443073926
 31
0.0
  0
LINE
  5
BA005
102
{ACAD_REACTORS
330
BA00A
102
}
330
18
100
AcDbEntity
  8
\U+FF77\U+FF6C\U+FF6F\U+FF8C\U+FF9F\U+FF8E\U+FF9E\U+FF99\U+FF84
100
AcDbLine
 10
6199.864134051131
 20
-3003.672878267648
 30
0.0
 11
6200.217687441726
 21
-3004.02643165824
 31
0.0
  0
LINE
  5
BA006
102
{ACAD_REACTORS
330
BA00A
102
}
330
18
100
AcDbEntity
  8
\U+FF77\U+FF6C\U+FF6F\U+FF8C\U+FF9F\U+FF8E\U+FF9E\U+FF99\U+FF84
100
AcDbLine
 10
6200.217687441726
 20
-3001.932443073926
 30
0.0
 11
6199.864134051133
 21
-3002.28599646452
 31
0.0
  0
LINE
  5
BA007
102
{ACAD_REACTORS
330
BA00A
102
}
330
18
100
AcDbEntity
  8
\U+FF77\U+FF6C\U+FF6F\U+FF8C\U+FF9F\U+FF8E\U+FF9E\U+FF99\U+FF84
100
AcDbLine
 10
6201.604569244853
 20
-3004.02643165824
 30
0.0
 11
6200.911128343289
 21
-3003.332990756677
 31
0.0
  0
LINE
  5
BA008
102
{ACAD_REACTORS
330
BA00A
102
}
330
18
100
AcDbEntity
  8
\U+FF77\U+FF6C\U+FF6F\U+FF8C\U+FF9F\U+FF8E\U+FF9E\U+FF99\U+FF84
100
AcDbLine
 10
6200.911128343291
 20
-3002.625883975491
 30
0.0
 11
6201.604569244853
 21
-3001.932443073926
 31
0.0
  0
CIRCLE
  5
BA009
102
{ACAD_REACTORS
330
BA00A
102
}
330
18
100
AcDbEntity
  8
\U+FF77\U+FF6C\U+FF6F\U+FF8C\U+FF9F\U+FF8E\U+FF9E\U+FF99\U+FF84
100
AcDbCircle
 10
6200.911128343288
 20
-3002.979437366083
 30
0.0
 40
2.0
  0
CIRCLE
  5
BA018
330
18
100
AcDbEntity
  8
実線
100
AcDbCircle
 10
6162.161676734201
 20
-3041.728888974979
 30
0.0
 40
11.3
  0
CIRCLE
  5
BA23F
330
18
100
AcDbEntity
  8
中心線
 48
0.5
100
AcDbCircle
 10
6162.161676734432
 20
-3041.728888975117
 30
0.0
 40
62.49999999975243
  0
LINE
  5
BA5CE
330
18
100
AcDbEntity
  8
実線
 48
0.2
100
AcDbLine
 10
5659.916687509911
 20
-3254.407643768134
 30
0.0
 11
5767.916690966982
 21
-3254.407643768136
 31
0.0
  0
LINE
  5
BA5CF
330
18
100
AcDbEntity
  8
実線
 48
0.2
100
AcDbLine
 10
5651.416689238446
 20
-3274.407643768138
 30
0.0
 11
5697.91668889032
 21
-3274.407643768138
 31
0.0
  0
LINE
  5
BA5D0
330
18
100
AcDbEntity
  8
実線
 48
0.2
100
AcDbLine
 10
5769.91669096698
 20
-3211.907643768138
 30
0.0
 11
5651.416689238446
 21
-3211.907643768138
 31
0.0
  0
LINE
  5
BA5D1
330
18
100
AcDbEntity
  8
実線
 48
0.2
100
AcDbLine
 10
5652.916689238447
 20
-3211.407643744389
 30
0.0
 11
5769.416690364702
 21
-3211.407643744389
 31
0.0
  0
LINE
  5
BA62B
330
18
100
AcDbEntity
  8
実線
 48
0.2
100
AcDbLine
 10
5651.416689238446
 20
-3211.907643768138
 30
0.0
 11
5651.416689238446
 21
-3274.407643768138
 31
0.0
  0
LINE
  5
BA62C
330
18
100
AcDbEntity
  8
実線
 48
0.2
100
AcDbLine
 10
5657.916687509911
 20
-3256.407643768135
 30
0.0
 11
5657.916687509911
 21
-3211.907643768138
 31
0.0
  0
LINE
  5
BA62D
330
18
100
AcDbEntity
  8
実線
 48
0.2
100
AcDbLine
 10
5664.712115782816
 20
-3211.907643768136
 30
0.0
 11
5664.712115782816
 21
-3254.407643768134
 31
0.0
  0
LINE
  5
BA64E
330
18
100
AcDbEntity
  8
\U+FF7A\U+FF88\U+FF78\U+FF80
100
AcDbLine
 10
5651.416689238446
 20
-3271.061443768139
 30
0.0
 11
5651.416689238446
 21
-3253.753843768139
 31
0.0
  0
LINE
  5
BA64F
330
18
100
AcDbEntity
  8
実線
 48
0.2
100
AcDbLine
 10
5668.59285444923
 20
-3254.407643768136
 30
0.0
 11
5668.59285444923
 21
-3274.407643768138
 31
0.0
  0
LINE
  5
BA650
330
18
100
AcDbEntity
  8
実線
 48
0.2
100
AcDbLine
 10
5657.916687509911
 20
-3256.407643768135
 30
0.0
 11
5657.916687509911
 21
-3274.407643768138
 31
0.0
  0
ARC
  5
BA651
330
18
100
AcDbEntity
  8
実線
 48
0.2
100
AcDbCircle
 10
5659.916687509911
 20
-3256.407643768135
 30
0.0
 40
2.0
100
AcDbArc
 50
90.0
 51
180.0
  0
LINE
  5
BA673
330
18
100
AcDbEntity
  8
中心線
 48
0.5
100
AcDbLine
 10
5661.316689649444
 20
-3210.414964499196
 30
0.0
 11
5661.316689649444
 21
-3212.907643768138
 31
0.0
  0
LINE
  5
BA674
330
18
100
AcDbEntity
  8
実線
 48
0.2
100
AcDbLine
 10
5652.916689238447
 20
-3211.907643768138
 30
0.0
 11
5652.916689238447
 21
-3211.407643744389
 31
0.0
  0
LINE
  5
BA675
330
18
100
AcDbEntity
  8
中心線
 48
0.5
100
AcDbLine
 10
5676.722872973238
 20
-3211.888482334084
 30
0.0
 11
5676.722873473238
 21
-3210.185141807191
 31
0.0
  0
ARC
  5
BA676
330
18
100
AcDbEntity
  8
\U+FF77\U+FF6C\U+FF6F\U+FF8C\U+FF9F\U+FF8E\U+FF9E\U+FF99\U+FF84
100
AcDbCircle
 10
5678.272066973239
 20
-3211.00764374439
 30
0.0
 40
0.4
100
AcDbArc
 50
14.47751200004213
 51
90.0
  0
LINE
  5
BA677
330
18
100
AcDbEntity
  8
\U+FF77\U+FF6C\U+FF6F\U+FF8C\U+FF9F\U+FF8E\U+FF9E\U+FF99\U+FF84
100
AcDbLine
 10
5678.722872973238
 20
-3211.407643744389
 30
0.0
 11
5674.722872973237
 21
-3211.407643744389
 31
0.0
  0
ARC
  5
BA678
330
18
100
AcDbEntity
  8
\U+FF77\U+FF6C\U+FF6F\U+FF8C\U+FF9F\U+FF8E\U+FF9E\U+FF99\U+FF84
100
AcDbCircle
 10
5676.72287297324
 20
-3211.407643744389
 30
0.0
 40
2.0
100
AcDbArc
 50
0.0
 51
14.47751200004213
  0
ARC
  5
BA679
330
18
100
AcDbEntity
  8
\U+FF77\U+FF6C\U+FF6F\U+FF8C\U+FF9F\U+FF8E\U+FF9E\U+FF99\U+FF84
100
AcDbCircle
 10
5676.72287297324
 20
-3211.407643744389
 30
0.0
 40
2.0
100
AcDbArc
 50
165.5224879999579
 51
180.0
  0
ARC
  5
BA67A
330
18
100
AcDbEntity
  8
\U+FF77\U+FF6C\U+FF6F\U+FF8C\U+FF9F\U+FF8E\U+FF9E\U+FF99\U+FF84
100
AcDbCircle
 10
5675.173679973239
 20
-3211.00764374439
 30
0.0
 40
0.4
100
AcDbArc
 50
90.0
 51
165.5224879999579
  0
LINE
  5
BA67B
330
18
100
AcDbEntity
  8
\U+FF77\U+FF6C\U+FF6F\U+FF8C\U+FF9F\U+FF8E\U+FF9E\U+FF99\U+FF84
100
AcDbLine
 10
5678.272066973237
 20
-3210.60764374439
 30
0.0
 11
5675.173679973237
 21
-3210.60764374439
 31
0.0
  0
LINE
  5
BA6D0
330
18
100
AcDbEntity
  8
中心線
 48
0.2
100
AcDbLine
 10
5731.41668980469
 20
-3221.669449926858
 30
0.0
 11
5731.41668980469
 21
-3207.607642939632
 31
0.0
  0
LINE
  5
BA6D1
330
18
100
AcDbEntity
  8
中心線
 48
0.2
100
AcDbLine
 10
5696.41668980469
 20
-3221.669449926858
 30
0.0
 11
5696.41668980469
 21
-3207.607642939632
 31
0.0
  0
LINE
  5
BA6D2
330
18
100
AcDbEntity
  8
中心線
 48
0.5
100
AcDbLine
 10
5713.916689238446
 20
-3276.407643768138
 30
0.0
 11
5713.916689238446
 21
-3207.367622989314
 31
0.0
  0
LINE
  5
BA6DA
330
18
100
AcDbEntity
  8
実線
 48
0.2
100
AcDbLine
 10
5738.81669017722
 20
-3208.607642939632
 30
0.0
 11
5689.016689432163
 21
-3208.607642939632
 31
0.0
  0
LINE
  5
BA6DB
330
18
100
AcDbEntity
  8
実線
 48
0.2
100
AcDbLine
 10
5684.766689962644
 20
-3209.90764295267
 30
0.0
 11
5743.066689646739
 21
-3209.90764295267
 31
0.0
  0
LINE
  5
BA6DC
330
18
100
AcDbEntity
  8
実線
 48
0.2
100
AcDbLine
 10
5684.766689962644
 20
-3211.407643744387
 30
0.0
 11
5684.766689962644
 21
-3209.90764295267
 31
0.0
  0
LINE
  5
BA6DD
330
18
100
AcDbEntity
  8
実線
 48
0.2
100
AcDbLine
 10
5689.016689432163
 20
-3209.90764295267
 30
0.0
 11
5689.016689432163
 21
-3208.607642939632
 31
0.0
  0
LINE
  5
BA6DE
330
18
100
AcDbEntity
  8
実線
 48
0.2
100
AcDbLine
 10
5743.066689646739
 20
-3209.90764295267
 30
0.0
 11
5743.066689646739
 21
-3211.407643744387
 31
0.0
  0
LINE
  5
BA6DF
330
18
100
AcDbEntity
  8
実線
 48
0.2
100
AcDbLine
 10
5738.81669017722
 20
-3208.607642939632
 30
0.0
 11
5738.81669017722
 21
-3209.90764295267
 31
0.0
  0
LINE
  5
BA6E0
330
18
100
AcDbEntity
  8
実線
 48
0.2
100
AcDbLine
 10
5769.91669096698
 20
-3211.907643768138
 30
0.0
 11
5769.91669096698
 21
-3274.407643768138
 31
0.0
  0
LINE
  5
BA6E1
330
18
100
AcDbEntity
  8
実線
 48
0.2
100
AcDbLine
 10
5759.24052306165
 20
-3254.407643768138
 30
0.0
 11
5759.240523061648
 21
-3274.407643768136
 31
0.0
  0
ARC
  5
BA6E2
330
18
100
AcDbEntity
  8
実線
 48
0.2
100
AcDbCircle
 10
5767.916690966982
 20
-3256.407643768136
 30
0.0
 40
2.0
100
AcDbArc
 50
0.0
 51
90.0
  0
ARC
  5
BA6E3
330
18
100
AcDbEntity
  8
\U+FF77\U+FF6C\U+FF6F\U+FF8C\U+FF9F\U+FF8E\U+FF9E\U+FF99\U+FF84
100
AcDbCircle
 10
5751.110505503652
 20
-3211.407643744389
 30
0.0
 40
2.0
100
AcDbArc
 50
165.5224879999579
 51
180.0
  0
ARC
  5
BA6E4
330
18
100
AcDbEntity
  8
\U+FF77\U+FF6C\U+FF6F\U+FF8C\U+FF9F\U+FF8E\U+FF9E\U+FF99\U+FF84
100
AcDbCircle
 10
5749.561311503653
 20
-3211.00764374439
 30
0.0
 40
0.4
100
AcDbArc
 50
90.0
 51
165.5224879999579
  0
LINE
  5
BA6E5
330
18
100
AcDbEntity
  8
中心線
 48
0.5
100
AcDbLine
 10
5751.110505503654
 20
-3211.888482334084
 30
0.0
 11
5751.110505003654
 21
-3210.185141807191
 31
0.0
  0
ARC
  5
BA6E6
330
18
100
AcDbEntity
  8
\U+FF77\U+FF6C\U+FF6F\U+FF8C\U+FF9F\U+FF8E\U+FF9E\U+FF99\U+FF84
100
AcDbCircle
 10
5752.659698503653
 20
-3211.00764374439
 30
0.0
 40
0.4
100
AcDbArc
 50
14.47751200004213
 51
90.0
  0
ARC
  5
BA6E7
330
18
100
AcDbEntity
  8
\U+FF77\U+FF6C\U+FF6F\U+FF8C\U+FF9F\U+FF8E\U+FF9E\U+FF99\U+FF84
100
AcDbCircle
 10
5751.110505503652
 20
-3211.407643744389
 30
0.0
 40
2.0
100
AcDbArc
 50
0.0
 51
14.47751200004213
  0
LINE
  5
BA6E8
330
18
100
AcDbEntity
  8
\U+FF77\U+FF6C\U+FF6F\U+FF8C\U+FF9F\U+FF8E\U+FF9E\U+FF99\U+FF84
100
AcDbLine
 10
5749.561311503654
 20
-3210.60764374439
 30
0.0
 11
5752.659698503655
 21
-3210.60764374439
 31
0.0
  0
LINE
  5
BA6E9
330
18
100
AcDbEntity
  8
\U+FF77\U+FF6C\U+FF6F\U+FF8C\U+FF9F\U+FF8E\U+FF9E\U+FF99\U+FF84
100
AcDbLine
 10
5749.110505503654
 20
-3211.407643744389
 30
0.0
 11
5753.110505503654
 21
-3211.407643744389
 31
0.0
  0
LINE
  5
BA6EA
330
18
100
AcDbEntity
  8
実線
 48
0.2
100
AcDbLine
 10
5769.416690364702
 20
-3211.907643768138
 30
0.0
 11
5769.416690364702
 21
-3211.407643744389
 31
0.0
  0
LINE
  5
BACF3
330
18
100
AcDbEntity
  8
実線
 48
0.2
100
AcDbLine
 10
6002.643067122565
 20
-3057.728889734906
 30
0.0
 11
6002.643067122565
 21
-3025.728888214988
 31
0.0
  0
LINE
  5
BAD21
330
18
100
AcDbEntity
  8
実線
 48
0.2
100
AcDbLine
 10
6002.143067962992
 20
-3057.728889734906
 30
0.0
 11
6002.143067962992
 21
-3025.728888214987
 31
0.0
  0
LINE
  5
BAD22
330
18
100
AcDbEntity
  8
実線
 48
0.2
100
AcDbLine
 10
6003.943067962992
 20
-3025.728888214988
 30
0.0
 11
6002.143067962992
 21
-3025.728888214987
 31
0.0
  0
LINE
  5
BAD23
330
18
100
AcDbEntity
  8
実線
 48
0.2
100
AcDbLine
 10
6003.943067962993
 20
-3057.728889734906
 30
0.0
 11
6002.143067962992
 21
-3057.728889734906
 31
0.0
  0
LINE
  5
BAD24
330
18
100
AcDbEntity
  8
実線
 48
0.2
100
AcDbLine
 10
6003.943067962993
 20
-3025.728888214987
 30
0.0
 11
6003.943067962992
 21
-2985.728887658245
 31
0.0
  0
LINE
  5
BAD4B
330
18
100
AcDbEntity
  8
中心線
 48
0.5
100
AcDbLine
 10
5625.474891818891
 20
-3225.407643768137
 30
0.0
 11
5653.907324653879
 21
-3225.407643768137
 31
0.0
  0
LINE
  5
BAD4C
330
18
100
AcDbEntity
  8
\U+FF7A\U+FF88\U+FF78\U+FF80
100
AcDbLine
 10
5633.416689238447
 20
-3234.061443768136
 30
0.0
 11
5629.416689238446
 21
-3230.705045243427
 31
0.0
  0
LINE
  5
BAD4D
330
18
100
AcDbEntity
  8
\U+FF7A\U+FF88\U+FF78\U+FF80
100
AcDbLine
 10
5646.416689238447
 20
-3234.061443768136
 30
0.0
 11
5646.416689238447
 21
-3216.753843768136
 31
0.0
  0
LINE
  5
BAD4E
330
18
100
AcDbEntity
  8
\U+FF7A\U+FF88\U+FF78\U+FF80
100
AcDbLine
 10
5641.416689238447
 20
-3234.061443768136
 30
0.0
 11
5641.416689238447
 21
-3216.753843768136
 31
0.0
  0
LINE
  5
BAD4F
330
18
100
AcDbEntity
  8
\U+FF7A\U+FF88\U+FF78\U+FF80
100
AcDbLine
 10
5629.416689238446
 20
-3230.705045243427
 30
0.0
 11
5629.416689238446
 21
-3220.110242292845
 31
0.0
  0
ARC
  5
BAD50
330
18
100
AcDbEntity
  8
\U+FF7A\U+FF88\U+FF78\U+FF80
100
AcDbCircle
 10
5641.416689238447
 20
-3225.407643768136
 30
0.0
 40
8.0
100
AcDbArc
 50
153.5214655209415
 51
206.4785344790584
  0
LINE
  5
BAD51
330
18
100
AcDbEntity
  8
\U+FF7A\U+FF88\U+FF78\U+FF80
100
AcDbLine
 10
5633.416689238447
 20
-3234.061443768136
 30
0.0
 11
5633.416689238447
 21
-3216.753843768136
 31
0.0
  0
LINE
  5
BAD52
330
18
100
AcDbEntity
  8
\U+FF7A\U+FF88\U+FF78\U+FF80
100
AcDbLine
 10
5646.416689238447
 20
-3231.407645029771
 30
0.0
 11
5641.416689238447
 21
-3231.407646291405
 31
0.0
  0
LINE
  5
BAD53
330
18
100
AcDbEntity
  8
\U+FF7A\U+FF88\U+FF78\U+FF80
100
AcDbLine
 10
5634.255877525379
 20
-3228.974543768136
 30
0.0
 11
5634.255877525379
 21
-3230.494543768136
 31
0.0
  0
LINE
  5
BAD54
330
18
100
AcDbEntity
  8
\U+FF7A\U+FF88\U+FF78\U+FF80
100
AcDbLine
 10
5641.416689238447
 20
-3230.494543768136
 30
0.0
 11
5634.255877525379
 21
-3230.494543768136
 31
0.0
  0
LINE
  5
BAD55
330
18
100
AcDbEntity
  8
\U+FF7A\U+FF88\U+FF78\U+FF80
100
AcDbLine
 10
5641.416689238447
 20
-3228.974543768136
 30
0.0
 11
5634.255877525379
 21
-3228.974543768136
 31
0.0
  0
LINE
  5
BAD56
330
18
100
AcDbEntity
  8
\U+FF7A\U+FF88\U+FF78\U+FF80
100
AcDbLine
 10
5641.416689238447
 20
-3234.061443768136
 30
0.0
 11
5633.416689238447
 21
-3234.061443768136
 31
0.0
  0
ARC
  5
BAD57
330
18
100
AcDbEntity
  8
\U+FF7A\U+FF88\U+FF78\U+FF80
100
AcDbCircle
 10
5641.416689238447
 20
-3234.061443768136
 30
0.0
 40
8.0
100
AcDbArc
 50
153.5214655209415
 51
180.0
  0
LINE
  5
BAD58
330
18
100
AcDbEntity
  8
\U+FF7A\U+FF88\U+FF78\U+FF80
100
AcDbLine
 10
5651.416689238446
 20
-3230.494543768136
 30
0.0
 11
5646.416689238447
 21
-3230.494543768136
 31
0.0
  0
LINE
  5
BAD59
330
18
100
AcDbEntity
  8
\U+FF7A\U+FF88\U+FF78\U+FF80
100
AcDbLine
 10
5651.416689238446
 20
-3228.974543768136
 30
0.0
 11
5646.416689238447
 21
-3228.974543768136
 31
0.0
  0
LINE
  5
BAD5A
330
18
100
AcDbEntity
  8
\U+FF7A\U+FF88\U+FF78\U+FF80
100
AcDbLine
 10
5651.416689238446
 20
-3234.061443768136
 30
0.0
 11
5646.416689238447
 21
-3234.061443768136
 31
0.0
  0
ARC
  5
BAD5B
330
18
100
AcDbEntity
  8
\U+FF7A\U+FF88\U+FF78\U+FF80
100
AcDbCircle
 10
5641.416689238447
 20
-3216.753843768136
 30
0.0
 40
8.0
100
AcDbArc
 50
180.0
 51
206.4785344790584
  0
LINE
  5
BAD5C
330
18
100
AcDbEntity
  8
\U+FF7A\U+FF88\U+FF78\U+FF80
100
AcDbLine
 10
5633.416689238447
 20
-3216.753843768136
 30
0.0
 11
5629.416689238446
 21
-3220.110242292845
 31
0.0
  0
LINE
  5
BAD5D
330
18
100
AcDbEntity
  8
\U+FF7A\U+FF88\U+FF78\U+FF80
100
AcDbLine
 10
5634.255877525379
 20
-3220.320743768136
 30
0.0
 11
5634.255877525379
 21
-3221.840743768136
 31
0.0
  0
LINE
  5
BAD5E
330
18
100
AcDbEntity
  8
\U+FF7A\U+FF88\U+FF78\U+FF80
100
AcDbLine
 10
5641.416689238447
 20
-3221.840743768136
 30
0.0
 11
5634.255877525379
 21
-3221.840743768136
 31
0.0
  0
LINE
  5
BAD5F
330
18
100
AcDbEntity
  8
\U+FF7A\U+FF88\U+FF78\U+FF80
100
AcDbLine
 10
5641.416689238447
 20
-3220.320743768136
 30
0.0
 11
5634.255877525379
 21
-3220.320743768136
 31
0.0
  0
LINE
  5
BAD60
330
18
100
AcDbEntity
  8
\U+FF7A\U+FF88\U+FF78\U+FF80
100
AcDbLine
 10
5641.416689238447
 20
-3216.753843768136
 30
0.0
 11
5633.416689238447
 21
-3216.753843768136
 31
0.0
  0
LINE
  5
BAD61
330
18
100
AcDbEntity
  8
\U+FF7A\U+FF88\U+FF78\U+FF80
100
AcDbLine
 10
5651.416689238446
 20
-3220.320743768136
 30
0.0
 11
5646.416689238447
 21
-3220.320743768136
 31
0.0
  0
LINE
  5
BAD62
330
18
100
AcDbEntity
  8
\U+FF7A\U+FF88\U+FF78\U+FF80
100
AcDbLine
 10
5651.416689238446
 20
-3221.840743768136
 30
0.0
 11
5646.416689238447
 21
-3221.840743768136
 31
0.0
  0
LINE
  5
BAD63
330
18
100
AcDbEntity
  8
\U+FF7A\U+FF88\U+FF78\U+FF80
100
AcDbLine
 10
5651.416689238446
 20
-3216.753843768136
 30
0.0
 11
5646.416689238447
 21
-3216.753843768136
 31
0.0
  0
LINE
  5
BAD64
330
18
100
AcDbEntity
  8
\U+FF7A\U+FF88\U+FF78\U+FF80
100
AcDbLine
 10
5646.416689238447
 20
-3219.407645029769
 30
0.0
 11
5641.416689238447
 21
-3219.407646291403
 31
0.0
  0
ARC
  5
BAD66
102
{ACAD_REACTORS
330
BADF6
102
}
330
18
100
AcDbEntity
  8
\U+FF7A\U+FF88\U+FF78\U+FF80
100
AcDbCircle
 10
5603.308266067233
 20
-3187.157643264422
 30
0.0
 40
41.5
100
AcDbArc
 50
180.0
 51
270.0
  0
ARC
  5
BAD67
102
{ACAD_REACTORS
330
BADF6
102
}
330
18
100
AcDbEntity
  8
\U+FF7A\U+FF88\U+FF78\U+FF80
100
AcDbCircle
 10
5603.308266067234
 20
-3187.157643264422
 30
0.0
 40
35.0
100
AcDbArc
 50
180.0
 51
270.0
  0
LINE
  5
BAD68
102
{ACAD_REACTORS
330
BADF6
102
}
330
18
100
AcDbEntity
  8
\U+FF7A\U+FF88\U+FF78\U+FF80
100
AcDbLine
 10
5568.308266067233
 20
-3187.157643264422
 30
0.0
 11
5568.308266067233
 21
-3164.549971202558
 31
0.0
  0
LINE
  5
BAD69
102
{ACAD_REACTORS
330
BADF6
102
}
330
18
100
AcDbEntity
  8
\U+FF7A\U+FF88\U+FF78\U+FF80
100
AcDbLine
 10
5561.808266067233
 20
-3187.157643264422
 30
0.0
 11
5561.808266067233
 21
-3164.549971202558
 31
0.0
  0
LINE
  5
BAD6A
102
{ACAD_REACTORS
330
BADF6
102
}
330
18
100
AcDbEntity
  8
\U+FF7A\U+FF88\U+FF78\U+FF80
 48
0.5
100
AcDbLine
 10
5568.833266067234
 20
-3130.849926101083
 30
0.0
 11
5565.383266067233
 21
-3130.849926101083
 31
0.0
  0
LINE
  5
BAD6B
102
{ACAD_REACTORS
330
BADF6
102
}
330
18
100
AcDbEntity
  8
\U+FF7A\U+FF88\U+FF78\U+FF80
 48
0.5
100
AcDbLine
 10
5564.733266067234
 20
-3130.849926101083
 30
0.0
 11
5561.283266067234
 21
-3130.849926101083
 31
0.0
  0
LINE
  5
BAD6C
102
{ACAD_REACTORS
330
BADF6
102
}
330
18
100
AcDbEntity
  8
\U+FF7A\U+FF88\U+FF78\U+FF80
 48
0.5
100
AcDbLine
 10
5570.308266067232
 20
-3153.449971202559
 30
0.0
 11
5570.308266067232
 21
-3140.349926101082
 31
0.0
  0
LINE
  5
BAD6D
102
{ACAD_REACTORS
330
BADF6
102
}
330
18
100
AcDbEntity
  8
\U+FF7A\U+FF88\U+FF78\U+FF80
 48
0.5
100
AcDbLine
 10
5560.308266067233
 20
-3153.449971202559
 30
0.0
 11
5560.308266067233
 21
-3140.349926101082
 31
0.0
  0
LINE
  5
BAD6E
102
{ACAD_REACTORS
330
BADF6
102
}
330
18
100
AcDbEntity
  8
\U+FF7A\U+FF88\U+FF78\U+FF80
 48
0.5
100
AcDbLine
 10
5558.843508086865
 20
-3142.363868414786
 30
0.0
 11
5557.879694638661
 21
-3147.829926101083
 31
0.0
  0
LINE
  5
BAD6F
102
{ACAD_REACTORS
330
BADF6
102
}
330
18
100
AcDbEntity
  8
\U+FF7A\U+FF88\U+FF78\U+FF80
 48
0.5
100
AcDbLine
 10
5556.49055178152
 20
-3137.46478324394
 30
0.0
 11
5556.49055178152
 21
-3147.829926101082
 31
0.0
  0
LINE
  5
BAD70
102
{ACAD_REACTORS
330
BADF6
102
}
330
18
100
AcDbEntity
  8
\U+FF7A\U+FF88\U+FF78\U+FF80
 48
0.5
100
AcDbLine
 10
5556.908266067233
 20
-3135.589926101083
 30
0.0
 11
5556.908266067233
 21
-3146.858497529654
 31
0.0
  0
LINE
  5
BAD71
102
{ACAD_REACTORS
330
BADF6
102
}
330
18
100
AcDbEntity
  8
\U+FF7A\U+FF88\U+FF78\U+FF80
 48
0.5
100
AcDbLine
 10
5571.208260014191
 20
-3153.449971202557
 30
0.0
 11
5570.308266067232
 21
-3153.449971202557
 31
0.0
  0
LINE
  5
BAD72
102
{ACAD_REACTORS
330
BADF6
102
}
330
18
100
AcDbEntity
  8
\U+FF7A\U+FF88\U+FF78\U+FF80
 48
0.5
100
AcDbLine
 10
5571.208260014191
 20
-3154.549971202558
 30
0.0
 11
5571.208260014191
 21
-3153.449971202558
 31
0.0
  0
LINE
  5
BAD73
102
{ACAD_REACTORS
330
BADF6
102
}
330
18
100
AcDbEntity
  8
\U+FF7A\U+FF88\U+FF78\U+FF80
 48
0.5
100
AcDbLine
 10
5560.308266067233
 20
-3153.449971202559
 30
0.0
 11
5559.40826001419
 21
-3153.44997120256
 31
0.0
  0
LINE
  5
BAD74
102
{ACAD_REACTORS
330
BADF6
102
}
330
18
100
AcDbEntity
  8
\U+FF7A\U+FF88\U+FF78\U+FF80
 48
0.5
100
AcDbLine
 10
5559.40826001419
 20
-3154.549971202558
 30
0.0
 11
5559.40826001419
 21
-3153.449971202559
 31
0.0
  0
LINE
  5
BAD75
102
{ACAD_REACTORS
330
BADF6
102
}
330
18
100
AcDbEntity
  8
\U+FF7A\U+FF88\U+FF78\U+FF80
 48
0.5
100
AcDbLine
 10
5556.908266067233
 20
-3146.858497529654
 30
0.0
 11
5556.49055178152
 21
-3146.858497529654
 31
0.0
  0
LINE
  5
BAD76
102
{ACAD_REACTORS
330
BADF6
102
}
330
18
100
AcDbEntity
  8
\U+FF7A\U+FF88\U+FF78\U+FF80
 48
0.5
100
AcDbLine
 10
5557.879694638661
 20
-3147.829926101083
 30
0.0
 11
5556.49055178152
 21
-3147.829926101082
 31
0.0
  0
LINE
  5
BAD77
102
{ACAD_REACTORS
330
BADF6
102
}
330
18
100
AcDbEntity
  8
\U+FF7A\U+FF88\U+FF78\U+FF80
 48
0.5
100
AcDbLine
 10
5571.208260014191
 20
-3154.549971202558
 30
0.0
 11
5559.40826001419
 21
-3154.549971202558
 31
0.0
  0
LINE
  5
BAD78
102
{ACAD_REACTORS
330
BADF6
102
}
330
18
100
AcDbEntity
  8
\U+FF7A\U+FF88\U+FF78\U+FF80
 48
0.5
100
AcDbLine
 10
5559.142551781519
 20
-3134.618497529654
 30
0.0
 11
5557.879694638661
 21
-3134.618497529654
 31
0.0
  0
LINE
  5
BAD79
102
{ACAD_REACTORS
330
BADF6
102
}
330
18
100
AcDbEntity
  8
\U+FF7A\U+FF88\U+FF78\U+FF80
 48
0.5
100
AcDbLine
 10
5560.113980352948
 20
-3137.047068958227
 30
0.0
 11
5559.045408924377
 21
-3136.949926101083
 31
0.0
  0
LINE
  5
BAD7A
102
{ACAD_REACTORS
330
BADF6
102
}
330
18
100
AcDbEntity
  8
\U+FF7A\U+FF88\U+FF78\U+FF80
 48
0.5
100
AcDbLine
 10
5559.142551781519
 20
-3134.618497529654
 30
0.0
 11
5560.113980352948
 21
-3135.589926101083
 31
0.0
  0
LINE
  5
BAD7B
102
{ACAD_REACTORS
330
BADF6
102
}
330
18
100
AcDbEntity
  8
\U+FF7A\U+FF88\U+FF78\U+FF80
 48
0.5
100
AcDbLine
 10
5560.113980352948
 20
-3135.589926101083
 30
0.0
 11
5560.113980352948
 21
-3137.047068958227
 31
0.0
  0
ARC
  5
BAD7C
102
{ACAD_REACTORS
330
BADF6
102
}
330
18
100
AcDbEntity
  8
\U+FF7A\U+FF88\U+FF78\U+FF80
 48
0.5
100
AcDbCircle
 10
5559.82255178152
 20
-3142.448211815368
 30
0.0
 40
0.4857142857142857
100
AcDbArc
 50
0.0
 51
90.0
  0
LINE
  5
BAD7D
102
{ACAD_REACTORS
330
BADF6
102
}
330
18
100
AcDbEntity
  8
\U+FF7A\U+FF88\U+FF78\U+FF80
 48
0.5
100
AcDbLine
 10
5559.82255178152
 20
-3141.962497529654
 30
0.0
 11
5559.321843281185
 21
-3141.962497529654
 31
0.0
  0
ARC
  5
BAD7E
102
{ACAD_REACTORS
330
BADF6
102
}
330
18
100
AcDbEntity
  8
\U+FF7A\U+FF88\U+FF78\U+FF80
 48
0.5
100
AcDbCircle
 10
5559.321843281185
 20
-3142.448211815368
 30
0.0
 40
0.4857142857142857
100
AcDbArc
 50
90.0
 51
169.9999999999961
  0
LINE
  5
BAD7F
102
{ACAD_REACTORS
330
BADF6
102
}
330
18
100
AcDbEntity
  8
\U+FF7A\U+FF88\U+FF78\U+FF80
 48
0.5
100
AcDbLine
 10
5559.045408924377
 20
-3136.949926101083
 30
0.0
 11
5559.045408924377
 21
-3140.349926101082
 31
0.0
  0
LINE
  5
BAD80
102
{ACAD_REACTORS
330
BADF6
102
}
330
18
100
AcDbEntity
  8
\U+FF7A\U+FF88\U+FF78\U+FF80
 48
0.5
100
AcDbLine
 10
5557.879694638661
 20
-3137.047068958227
 30
0.0
 11
5557.879694638661
 21
-3140.349926101082
 31
0.0
  0
LINE
  5
BAD81
102
{ACAD_REACTORS
330
BADF6
102
}
330
18
100
AcDbEntity
  8
\U+FF7A\U+FF88\U+FF78\U+FF80
 48
0.5
100
AcDbLine
 10
5556.908266067233
 20
-3137.047068958227
 30
0.0
 11
5556.49055178152
 21
-3137.46478324394
 31
0.0
  0
LINE
  5
BAD82
102
{ACAD_REACTORS
330
BADF6
102
}
330
18
100
AcDbEntity
  8
\U+FF7A\U+FF88\U+FF78\U+FF80
 48
0.5
100
AcDbLine
 10
5557.879694638661
 20
-3137.047068958227
 30
0.0
 11
5556.908266067233
 21
-3137.047068958227
 31
0.0
  0
LINE
  5
BAD83
102
{ACAD_REACTORS
330
BADF6
102
}
330
18
100
AcDbEntity
  8
\U+FF7A\U+FF88\U+FF78\U+FF80
 48
0.5
100
AcDbLine
 10
5556.908266067233
 20
-3135.589926101083
 30
0.0
 11
5557.879694638661
 21
-3134.618497529654
 31
0.0
  0
LINE
  5
BAD84
102
{ACAD_REACTORS
330
BADF6
102
}
330
18
100
AcDbEntity
  8
\U+FF7A\U+FF88\U+FF78\U+FF80
 48
0.5
100
AcDbLine
 10
5560.308266067233
 20
-3140.349926101082
 30
0.0
 11
5556.49055178152
 21
-3140.349926101082
 31
0.0
  0
LINE
  5
BAD85
102
{ACAD_REACTORS
330
BADF6
102
}
330
18
100
AcDbEntity
  8
\U+FF7A\U+FF88\U+FF78\U+FF80
 48
0.5
100
AcDbLine
 10
5570.308266067232
 20
-3140.349926101082
 30
0.0
 11
5560.308266067233
 21
-3140.349926101082
 31
0.0
  0
LINE
  5
BAD86
102
{ACAD_REACTORS
330
BADF6
102
}
330
18
100
AcDbEntity
  8
\U+FF7A\U+FF88\U+FF78\U+FF80
 48
0.5
100
AcDbLine
 10
5567.058266067232
 20
-3164.549971202558
 30
0.0
 11
5563.058266067232
 21
-3164.549971202558
 31
0.0
  0
LINE
  5
BAD87
102
{ACAD_REACTORS
330
BADF6
102
}
330
18
100
AcDbEntity
  8
\U+FF7A\U+FF88\U+FF78\U+FF80
100
AcDbLine
 10
5561.808266067233
 20
-3164.549971202558
 30
0.0
 11
5568.308266067233
 21
-3164.549971202558
 31
0.0
  0
LINE
  5
BAD88
102
{ACAD_REACTORS
330
BADF6
102
}
330
18
100
AcDbEntity
  8
\U+FF7A\U+FF88\U+FF78\U+FF80
 48
0.5
100
AcDbLine
 10
5564.008266067234
 20
-3154.549971202558
 30
0.0
 11
5565.058266067232
 21
-3164.549971202558
 31
0.0
  0
LINE
  5
BAD89
102
{ACAD_REACTORS
330
BADF6
102
}
330
18
100
AcDbEntity
  8
\U+FF7A\U+FF88\U+FF78\U+FF80
 48
0.5
100
AcDbLine
 10
5562.008266067234
 20
-3154.549971202558
 30
0.0
 11
5563.058266067232
 21
-3164.549971202558
 31
0.0
  0
LINE
  5
BAD8A
102
{ACAD_REACTORS
330
BADF6
102
}
330
18
100
AcDbEntity
  8
\U+FF7A\U+FF88\U+FF78\U+FF80
 48
0.5
100
AcDbLine
 10
5566.108266067232
 20
-3154.549971202558
 30
0.0
 11
5565.058266067232
 21
-3164.549971202558
 31
0.0
  0
LINE
  5
BAD8B
102
{ACAD_REACTORS
330
BADF6
102
}
330
18
100
AcDbEntity
  8
\U+FF7A\U+FF88\U+FF78\U+FF80
 48
0.5
100
AcDbLine
 10
5568.108266067233
 20
-3154.549971202558
 30
0.0
 11
5567.058266067232
 21
-3164.549971202558
 31
0.0
  0
LINE
  5
BAD8C
102
{ACAD_REACTORS
330
BADF6
102
}
330
18
100
AcDbEntity
  8
\U+FF7A\U+FF88\U+FF78\U+FF80
 48
0.5
100
AcDbLine
 10
5564.733266067234
 20
-3130.849926101083
 30
0.0
 11
5564.733266067234
 21
-3140.349926101082
 31
0.0
  0
LINE
  5
BAD8D
102
{ACAD_REACTORS
330
BADF6
102
}
330
18
100
AcDbEntity
  8
\U+FF7A\U+FF88\U+FF78\U+FF80
 48
0.5
100
AcDbLine
 10
5565.383266067233
 20
-3130.849926101083
 30
0.0
 11
5565.383266067233
 21
-3140.349926101082
 31
0.0
  0
LINE
  5
BAD8E
102
{ACAD_REACTORS
330
BADF6
102
}
330
18
100
AcDbEntity
  8
\U+FF7A\U+FF88\U+FF78\U+FF80
 48
0.5
100
AcDbLine
 10
5568.833266067234
 20
-3130.849926101083
 30
0.0
 11
5568.833266067233
 21
-3140.349926101082
 31
0.0
  0
LINE
  5
BAD8F
102
{ACAD_REACTORS
330
BADF6
102
}
330
18
100
AcDbEntity
  8
\U+FF7A\U+FF88\U+FF78\U+FF80
 48
0.5
100
AcDbLine
 10
5561.283266067234
 20
-3130.849926101083
 30
0.0
 11
5561.283266067234
 21
-3140.349926101082
 31
0.0
  0
SPLINE
  5
BAD90
102
{ACAD_REACTORS
330
BADF6
102
}
330
18
100
AcDbEntity
  8
細線
100
AcDbSpline
210
0.0
220
0.0
230
1.0
 70
  1064
 71
     3
 72
    11
 73
     7
 74
     5
 42
0.000000001
 43
0.0000000001
 44
0.0000000001
 40
0.0
 40
0.0
 40
0.0
 40
0.0
 40
1.962294862388189
 40
3.412610777824321
 40
4.859995365034054
 40
6.826861343341657
 40
6.826861343341657
 40
6.826861343341657
 40
6.826861343341657
 10
5614.048048346336
 20
-3228.657644271855
 30
0.0
 10
5614.335459109695
 20
-3228.021014400954
 30
0.0
 10
5614.835292792951
 20
-3226.913856653886
 30
0.0
 10
5614.052221872547
 20
-3225.407866421124
 30
0.0
 10
5613.257708484823
 20
-3223.905058258315
 30
0.0
 10
5613.759169156997
 20
-3222.796346127129
 30
0.0
 10
5614.048048346336
 20
-3222.157644271855
 30
0.0
 11
5614.048048346336
 21
-3228.657644271855
 31
0.0
 11
5614.563210270137
 21
-3226.76417937405
 31
0.0
 11
5614.05015201703
 21
-3225.407644271855
 31
0.0
 11
5613.532886422532
 21
-3224.055846044294
 31
0.0
 11
5614.048048346336
 21
-3222.157644271855
 31
0.0
  0
SPLINE
  5
BAD91
102
{ACAD_REACTORS
330
BADF6
102
}
330
18
100
AcDbEntity
  8
細線
100
AcDbSpline
210
0.0
220
0.0
230
1.0
 70
  1064
 71
     3
 72
     9
 73
     5
 74
     3
 42
0.000000001
 43
0.0000000001
 44
0.0000000001
 40
0.0
 40
0.0
 40
0.0
 40
0.0
 40
1.442885782325975
 40
3.409751760632864
 40
3.409751760632864
 40
3.409751760632864
 40
3.409751760632864
 10
5614.048048346336
 20
-3225.403632219138
 30
0.0
 10
5614.282755808908
 20
-3224.957524696358
 30
0.0
 10
5614.837404134884
 20
-3223.903306871316
 30
0.0
 10
5614.336809258986
 20
-3222.796239861721
 30
0.0
 10
5614.048048346336
 20
-3222.157644271855
 30
0.0
 11
5614.048048346336
 21
-3225.403632219138
 31
0.0
 11
5614.563210270137
 21
-3224.055846044294
 31
0.0
 11
5614.048048346336
 21
-3222.157644271855
 31
0.0
  0
SPLINE
  5
BAD92
102
{ACAD_REACTORS
330
BADF6
102
}
330
18
100
AcDbEntity
  8
細線
100
AcDbSpline
210
0.0
220
0.0
230
1.0
 70
  1064
 71
     3
 72
    11
 73
     7
 74
     5
 42
0.000000001
 43
0.0000000001
 44
0.0000000001
 40
0.0
 40
0.0
 40
0.0
 40
0.0
 40
1.962294862388428
 40
3.412610777824882
 40
4.859995365035464
 40
6.82686134334219
 40
6.82686134334219
 40
6.82686134334219
 40
6.82686134334219
 10
5618.543428502332
 20
-3222.157643264422
 30
0.0
 10
5618.256017738971
 20
-3222.794273135323
 30
0.0
 10
5617.756184055714
 20
-3223.90143088239
 30
0.0
 10
5618.53925497612
 20
-3225.407421115154
 30
0.0
 10
5619.333768363844
 20
-3226.910229277963
 30
0.0
 10
5618.832307691669
 20
-3228.018941409148
 30
0.0
 10
5618.543428502332
 20
-3228.657643264422
 30
0.0
 11
5618.543428502332
 21
-3222.157643264422
 31
0.0
 11
5618.02826657853
 21
-3224.051108162227
 31
0.0
 11
5618.541324831637
 21
-3225.407643264422
 31
0.0
 11
5619.058590426136
 21
-3226.759441491985
 31
0.0
 11
5618.543428502332
 21
-3228.657643264422
 31
0.0
  0
SPLINE
  5
BAD93
102
{ACAD_REACTORS
330
BADF6
102
}
330
18
100
AcDbEntity
  8
細線
100
AcDbSpline
210
0.0
220
0.0
230
1.0
 70
  1064
 71
     3
 72
     9
 73
     5
 74
     3
 42
0.000000001
 43
0.0000000001
 44
0.0000000001
 40
0.0
 40
0.0
 40
0.0
 40
0.0
 40
1.4428857823263
 40
3.409751760632549
 40
3.409751760632549
 40
3.409751760632549
 40
3.409751760632549
 10
5618.543428502332
 20
-3225.41165531714
 30
0.0
 10
5618.308721039759
 20
-3225.85776283992
 30
0.0
 10
5617.754072713783
 20
-3226.911980664964
 30
0.0
 10
5618.25466758968
 20
-3228.019047674557
 30
0.0
 10
5618.543428502332
 20
-3228.657643264422
 30
0.0
 11
5618.543428502332
 21
-3225.41165531714
 31
0.0
 11
5618.02826657853
 21
-3226.759441491985
 31
0.0
 11
5618.543428502332
 21
-3228.657643264422
 31
0.0
  0
LINE
  5
BAD94
102
{ACAD_REACTORS
330
BADF6
102
}
330
18
100
AcDbEntity
  8
\U+FF7A\U+FF88\U+FF78\U+FF80
100
AcDbLine
 10
5603.308266067233
 20
-3228.657643264422
 30
0.0
 11
5614.048048346334
 21
-3228.657643264423
 31
0.0
  0
LINE
  5
BAD95
102
{ACAD_REACTORS
330
BADF6
102
}
330
18
100
AcDbEntity
  8
\U+FF7A\U+FF88\U+FF78\U+FF80
100
AcDbLine
 10
5603.308266067234
 20
-3222.157643264422
 30
0.0
 11
5614.048048346336
 21
-3222.157643264423
 31
0.0
  0
LINE
  5
BAD96
102
{ACAD_REACTORS
330
BADF6
102
}
330
18
100
AcDbEntity
  8
\U+FF7A\U+FF88\U+FF78\U+FF80
100
AcDbLine
 10
5618.543428502333
 20
-3228.657643264417
 30
0.0
 11
5629.416689238446
 21
-3228.657643264418
 31
0.0
  0
LINE
  5
BAD97
102
{ACAD_REACTORS
330
BADF6
102
}
330
18
100
AcDbEntity
  8
\U+FF7A\U+FF88\U+FF78\U+FF80
100
AcDbLine
 10
5618.543428502333
 20
-3222.157643264422
 30
0.0
 11
5629.416689238446
 21
-3222.157643264418
 31
0.0
  0
ARC
  5
BAE0F
330
18
100
AcDbEntity
  8
\U+FF7A\U+FF88\U+FF78\U+FF80
100
AcDbCircle
 10
5596.408266067232
 20
-3293.707643768139
 30
0.0
 40
34.6
100
AcDbArc
 50
90.0
 51
180.0
  0
LINE
  5
BAE11
330
18
100
AcDbEntity
  8
\U+FF7A\U+FF88\U+FF78\U+FF80
 48
0.5
100
AcDbLine
 10
5553.758266067234
 20
-3341.008102051703
 30
0.0
 11
5576.458266067233
 21
-3341.008102051703
 31
0.0
  0
LWPOLYLINE
  5
BAE12
330
18
100
AcDbEntity
  8
\U+FF7A\U+FF88\U+FF78\U+FF80
 48
0.5
100
AcDbPolyline
 90
        4
 70
     1
 43
0.0
 10
5576.458266067233
 20
-3329.008102051704
 10
5576.458266067233
 20
-3352.208102051702
 10
5553.758266067233
 20
-3352.208102051702
 10
5553.758266067233
 20
-3329.008102051704
  0
LINE
  5
BAE13
330
18
100
AcDbEntity
  8
\U+FF7A\U+FF88\U+FF78\U+FF80
 48
0.5
100
AcDbLine
 10
5562.658266067234
 20
-3312.208102051702
 30
0.0
 11
5559.782071069243
 21
-3329.008102051704
 31
0.0
  0
LINE
  5
BAE16
330
18
100
AcDbEntity
  8
\U+FF7A\U+FF88\U+FF78\U+FF80
 48
0.5
100
AcDbLine
 10
5550.058266067233
 20
-3343.955470472754
 30
0.0
 11
5553.758266067234
 21
-3352.208102051702
 31
0.0
  0
LINE
  5
BAE17
330
18
100
AcDbEntity
  8
\U+FF7A\U+FF88\U+FF78\U+FF80
 48
0.5
100
AcDbLine
 10
5550.058266067233
 20
-3343.955470472754
 30
0.0
 11
5553.758266067234
 21
-3341.008102051703
 31
0.0
  0
LINE
  5
BAE18
330
18
100
AcDbEntity
  8
\U+FF7A\U+FF88\U+FF78\U+FF80
100
AcDbLine
 10
5561.808266067231
 20
-3293.707643768139
 30
0.0
 11
5561.808266067233
 21
-3312.208102051702
 31
0.0
  0
LINE
  5
BAE19
330
18
100
AcDbEntity
  8
\U+FF7A\U+FF88\U+FF78\U+FF80
100
AcDbLine
 10
5568.408266067232
 20
-3312.208102051702
 30
0.0
 11
5568.408266067232
 21
-3293.707643768139
 31
0.0
  0
LINE
  5
BAE1B
330
18
100
AcDbEntity
  8
\U+FF7A\U+FF88\U+FF78\U+FF80
100
AcDbLine
 10
5561.808266067233
 20
-3312.208102051702
 30
0.0
 11
5568.408266067232
 21
-3312.208102051702
 31
0.0
  0
LINE
  5
BAE1C
330
18
100
AcDbEntity
  8
\U+FF7A\U+FF88\U+FF78\U+FF80
 48
0.5
100
AcDbLine
 10
5561.910071069243
 20
-3329.008102051704
 30
0.0
 11
5563.658266067234
 21
-3312.208102051702
 31
0.0
  0
LINE
  5
BAE1D
330
18
100
AcDbEntity
  8
\U+FF7A\U+FF88\U+FF78\U+FF80
 48
0.5
100
AcDbLine
 10
5580.158266067233
 20
-3343.955470472754
 30
0.0
 11
5576.458266067233
 21
-3352.208102051702
 31
0.0
  0
LINE
  5
BAE1E
330
18
100
AcDbEntity
  8
\U+FF7A\U+FF88\U+FF78\U+FF80
 48
0.5
100
AcDbLine
 10
5580.158266067233
 20
-3343.955470472754
 30
0.0
 11
5576.458266067233
 21
-3341.008102051703
 31
0.0
  0
LINE
  5
BAE1F
330
18
100
AcDbEntity
  8
\U+FF7A\U+FF88\U+FF78\U+FF80
 48
0.5
100
AcDbLine
 10
5566.658266067234
 20
-3312.208102051702
 30
0.0
 11
5568.294071069243
 21
-3329.008102051704
 31
0.0
  0
LINE
  5
BAE20
330
18
100
AcDbEntity
  8
\U+FF7A\U+FF88\U+FF78\U+FF80
 48
0.5
100
AcDbLine
 10
5570.422071069243
 20
-3329.008102051704
 30
0.0
 11
5567.658266067233
 21
-3312.208102051702
 31
0.0
  0
LINE
  5
BAE21
330
18
100
AcDbEntity
  8
\U+FF7A\U+FF88\U+FF78\U+FF80
 48
0.5
100
AcDbLine
 10
5566.166071069243
 20
-3329.008102051704
 30
0.0
 11
5565.658266067234
 21
-3312.208102051702
 31
0.0
  0
LINE
  5
BAE22
330
18
100
AcDbEntity
  8
\U+FF7A\U+FF88\U+FF78\U+FF80
 48
0.5
100
AcDbLine
 10
5564.658266067233
 20
-3312.208102051702
 30
0.0
 11
5564.038071069243
 21
-3329.008102051704
 31
0.0
  0
LINE
  5
BAE26
330
18
100
AcDbEntity
  8
\U+FF7A\U+FF88\U+FF78\U+FF80
100
AcDbLine
 10
5603.082900697491
 20
-3265.707643768138
 30
0.0
 11
5613.735691287921
 21
-3265.707643768138
 31
0.0
  0
LINE
  5
BAE27
330
18
100
AcDbEntity
  8
\U+FF7A\U+FF88\U+FF78\U+FF80
100
AcDbLine
 10
5613.739369529099
 20
-3259.107643768139
 30
0.0
 11
5603.082900697491
 21
-3259.107643768139
 31
0.0
  0
LINE
  5
BAE29
330
18
100
AcDbEntity
  8
\U+FF7A\U+FF88\U+FF78\U+FF80
100
AcDbLine
 10
5603.082900697491
 20
-3259.107643768139
 30
0.0
 11
5596.408266067232
 21
-3259.107643768139
 31
0.0
  0
SPLINE
  5
BAE2A
330
18
100
AcDbEntity
  8
細線
 48
0.5
100
AcDbSpline
210
0.0
220
0.0
230
1.0
 70
  1064
 71
     3
 72
    11
 73
     7
 74
     5
 42
0.000000001
 43
0.0000000001
 44
0.0000000001
 40
0.0
 40
0.0
 40
0.0
 40
0.0
 40
1.992484014116693
 40
3.465112482101329
 40
4.934764524499438
 40
6.931889979397007
 40
6.931889979397007
 40
6.931889979397007
 40
6.931889979397007
 10
5613.735691287923
 20
-3259.09949621493
 30
0.0
 10
5614.027523755336
 20
-3259.745920391537
 30
0.0
 10
5614.535047187568
 20
-3260.870111334713
 30
0.0
 10
5613.73992902223
 20
-3262.399270647981
 30
0.0
 10
5612.933192351619
 20
-3263.925198936374
 30
0.0
 10
5613.442367803366
 20
-3265.05096817727
 30
0.0
 10
5613.735691287923
 20
-3265.699496214933
 30
0.0
 11
5613.735691287923
 21
-3259.09949621493
 31
0.0
 11
5614.258778779784
 21
-3261.022091341931
 31
0.0
 11
5613.737827322782
 21
-3262.399496214932
 31
0.0
 11
5613.21260379606
 21
-3263.772091338303
 31
0.0
 11
5613.735691287923
 21
-3265.699496214933
 31
0.0
  0
SPLINE
  5
BAE2B
330
18
100
AcDbEntity
  8
細線
 48
0.5
100
AcDbSpline
210
0.0
220
0.0
230
1.0
 70
  1064
 71
     3
 72
     9
 73
     5
 74
     3
 42
0.000000001
 43
0.0000000001
 44
0.0000000001
 40
0.0
 40
0.0
 40
0.0
 40
0.0
 40
1.465084025132052
 40
3.462209480028668
 40
3.462209480028668
 40
3.462209480028668
 40
3.462209480028668
 10
5613.735691287923
 20
-3262.403569991536
 30
0.0
 10
5613.974009634535
 20
-3262.856540706974
 30
0.0
 10
5614.53719101168
 20
-3263.926977267789
 30
0.0
 10
5614.028894676155
 20
-3265.051076077531
 30
0.0
 10
5613.735691287923
 20
-3265.699496214933
 30
0.0
 11
5613.735691287923
 21
-3262.403569991536
 31
0.0
 11
5614.258778779783
 21
-3263.772091338303
 31
0.0
 11
5613.735691287923
 21
-3265.699496214933
 31
0.0
  0
SPLINE
  5
BAE2C
330
18
100
AcDbEntity
  8
細線
 48
0.5
100
AcDbSpline
210
0.0
220
0.0
230
1.0
 70
  1064
 71
     3
 72
    11
 73
     7
 74
     5
 42
0.000000001
 43
0.0000000001
 44
0.0000000001
 40
0.0
 40
0.0
 40
0.0
 40
0.0
 40
1.992484014116693
 40
3.465112482100478
 40
4.934764524499437
 40
6.931889979397006
 40
6.931889979397006
 40
6.931889979397006
 40
6.931889979397006
 10
5618.543428502334
 20
-3265.707643768141
 30
0.0
 10
5618.251596034922
 20
-3265.061219591534
 30
0.0
 10
5617.74407260269
 20
-3263.937028648359
 30
0.0
 10
5618.539190768028
 20
-3262.407869335091
 30
0.0
 10
5619.345927438638
 20
-3260.881941046698
 30
0.0
 10
5618.83675198689
 20
-3259.756171805801
 30
0.0
 10
5618.543428502334
 20
-3259.107643768138
 30
0.0
 11
5618.543428502334
 21
-3265.707643768141
 31
0.0
 11
5618.020341010473
 21
-3263.78504864114
 31
0.0
 11
5618.541292467476
 21
-3262.407643768141
 31
0.0
 11
5619.066515994197
 21
-3261.035048644768
 31
0.0
 11
5618.543428502334
 21
-3259.107643768138
 31
0.0
  0
SPLINE
  5
BAE2D
330
18
100
AcDbEntity
  8
細線
 48
0.5
100
AcDbSpline
210
0.0
220
0.0
230
1.0
 70
  1064
 71
     3
 72
     9
 73
     5
 74
     3
 42
0.000000001
 43
0.0000000001
 44
0.0000000001
 40
0.0
 40
0.0
 40
0.0
 40
0.0
 40
1.465084025133327
 40
3.462209480029943
 40
3.462209480029943
 40
3.462209480029943
 40
3.462209480029943
 10
5618.543428502334
 20
-3262.403569991536
 30
0.0
 10
5618.305110155721
 20
-3261.950599276097
 30
0.0
 10
5617.741928778576
 20
-3260.880162715281
 30
0.0
 10
5618.250225114103
 20
-3259.75606390554
 30
0.0
 10
5618.543428502334
 20
-3259.107643768138
 30
0.0
 11
5618.543428502334
 21
-3262.403569991536
 31
0.0
 11
5618.020341010474
 21
-3261.035048644768
 31
0.0
 11
5618.543428502334
 21
-3259.107643768138
 31
0.0
  0
ARC
  5
BAE2F
330
18
100
AcDbEntity
  8
\U+FF7A\U+FF88\U+FF78\U+FF80
100
AcDbCircle
 10
5596.408266067232
 20
-3293.707643768139
 30
0.0
 40
28.0
100
AcDbArc
 50
90.0
 51
180.0
  0
LINE
  5
BAE31
330
18
100
AcDbEntity
  8
\U+FF7A\U+FF88\U+FF78\U+FF80
100
AcDbLine
 10
5596.408266067232
 20
-3265.707643768138
 30
0.0
 11
5603.082900697491
 21
-3265.707643768138
 31
0.0
  0
LINE
  5
BAE33
330
18
100
AcDbEntity
  8
\U+FF7A\U+FF88\U+FF78\U+FF80
100
AcDbLine
 10
5629.416689238446
 20
-3265.707643768138
 30
0.0
 11
5629.416689238446
 21
-3259.107643768139
 31
0.0
  0
LINE
  5
BAE38
330
18
100
AcDbEntity
  8
\U+FF7A\U+FF88\U+FF78\U+FF80
100
AcDbLine
 10
5651.416689238446
 20
-3253.750446684212
 30
0.0
 11
5651.416689238446
 21
-3271.058046684212
 31
0.0
  0
LINE
  5
BAE39
330
18
100
AcDbEntity
  8
\U+FF7A\U+FF88\U+FF78\U+FF80
100
AcDbLine
 10
5633.416689238447
 20
-3271.058046684212
 30
0.0
 11
5633.416689238447
 21
-3253.750446684212
 31
0.0
  0
ARC
  5
BAE3A
330
18
100
AcDbEntity
  8
\U+FF7A\U+FF88\U+FF78\U+FF80
100
AcDbCircle
 10
5641.416689238447
 20
-3253.750446684212
 30
0.0
 40
8.0
100
AcDbArc
 50
180.0
 51
206.4785344789408
  0
LINE
  5
BAE3B
330
18
100
AcDbEntity
  8
\U+FF7A\U+FF88\U+FF78\U+FF80
100
AcDbLine
 10
5633.416689238447
 20
-3253.750446684212
 30
0.0
 11
5629.416689238446
 21
-3257.106845208922
 31
0.0
  0
LINE
  5
BAE3C
330
18
100
AcDbEntity
  8
\U+FF7A\U+FF88\U+FF78\U+FF80
100
AcDbLine
 10
5641.416689238447
 20
-3271.058046684212
 30
0.0
 11
5641.416689238447
 21
-3253.750446684212
 31
0.0
  0
LINE
  5
BAE3D
330
18
100
AcDbEntity
  8
\U+FF7A\U+FF88\U+FF78\U+FF80
100
AcDbLine
 10
5646.416689238447
 20
-3271.058046684212
 30
0.0
 11
5646.416689238447
 21
-3253.750446684212
 31
0.0
  0
LINE
  5
BAE3E
330
18
100
AcDbEntity
  8
\U+FF7A\U+FF88\U+FF78\U+FF80
100
AcDbLine
 10
5633.416689238447
 20
-3271.058046684212
 30
0.0
 11
5629.416689238446
 21
-3267.701648159504
 31
0.0
  0
LINE
  5
BAE3F
330
18
100
AcDbEntity
  8
\U+FF7A\U+FF88\U+FF78\U+FF80
100
AcDbLine
 10
5629.416689238446
 20
-3267.701648159504
 30
0.0
 11
5629.416689238446
 21
-3257.106845208922
 31
0.0
  0
LINE
  5
BAE40
330
18
100
AcDbEntity
  8
\U+FF7A\U+FF88\U+FF78\U+FF80
100
AcDbLine
 10
5641.416689238447
 20
-3271.058046684212
 30
0.0
 11
5633.416689238447
 21
-3271.058046684212
 31
0.0
  0
LINE
  5
BAE41
330
18
100
AcDbEntity
  8
\U+FF7A\U+FF88\U+FF78\U+FF80
100
AcDbLine
 10
5641.416689238447
 20
-3265.971146684212
 30
0.0
 11
5634.255877525379
 21
-3265.971146684212
 31
0.0
  0
LINE
  5
BAE42
330
18
100
AcDbEntity
  8
\U+FF7A\U+FF88\U+FF78\U+FF80
100
AcDbLine
 10
5641.416689238447
 20
-3267.491146684212
 30
0.0
 11
5634.255877525379
 21
-3267.491146684212
 31
0.0
  0
LINE
  5
BAE43
330
18
100
AcDbEntity
  8
\U+FF7A\U+FF88\U+FF78\U+FF80
100
AcDbLine
 10
5641.416689238447
 20
-3257.317346684212
 30
0.0
 11
5634.255877525379
 21
-3257.317346684212
 31
0.0
  0
LINE
  5
BAE44
330
18
100
AcDbEntity
  8
\U+FF7A\U+FF88\U+FF78\U+FF80
100
AcDbLine
 10
5641.416689238447
 20
-3258.837346684212
 30
0.0
 11
5634.255877525379
 21
-3258.837346684212
 31
0.0
  0
ARC
  5
BAE45
330
18
100
AcDbEntity
  8
\U+FF7A\U+FF88\U+FF78\U+FF80
100
AcDbCircle
 10
5641.416689238447
 20
-3262.404246684212
 30
0.0
 40
8.0
100
AcDbArc
 50
153.5214655210592
 51
206.4785344789408
  0
LINE
  5
BAE46
330
18
100
AcDbEntity
  8
\U+FF7A\U+FF88\U+FF78\U+FF80
100
AcDbLine
 10
5634.255877525379
 20
-3265.971146684212
 30
0.0
 11
5634.255877525379
 21
-3267.491146684212
 31
0.0
  0
LINE
  5
BAE47
330
18
100
AcDbEntity
  8
\U+FF7A\U+FF88\U+FF78\U+FF80
100
AcDbLine
 10
5634.255877525379
 20
-3257.317346684212
 30
0.0
 11
5634.255877525379
 21
-3258.837346684212
 31
0.0
  0
ARC
  5
BAE48
330
18
100
AcDbEntity
  8
\U+FF7A\U+FF88\U+FF78\U+FF80
100
AcDbCircle
 10
5641.416689238447
 20
-3271.058046684212
 30
0.0
 40
8.0
100
AcDbArc
 50
153.5214655210592
 51
180.0
  0
LINE
  5
BAE49
330
18
100
AcDbEntity
  8
\U+FF7A\U+FF88\U+FF78\U+FF80
100
AcDbLine
 10
5646.416689238447
 20
-3268.404247945847
 30
0.0
 11
5641.416689238447
 21
-3268.404249207483
 31
0.0
  0
LINE
  5
BAE4A
330
18
100
AcDbEntity
  8
\U+FF7A\U+FF88\U+FF78\U+FF80
100
AcDbLine
 10
5646.416689238447
 20
-3256.404247945845
 30
0.0
 11
5641.416689238447
 21
-3256.40424920748
 31
0.0
  0
LINE
  5
BAE4B
330
18
100
AcDbEntity
  8
\U+FF7A\U+FF88\U+FF78\U+FF80
100
AcDbLine
 10
5641.416689238447
 20
-3253.750446684212
 30
0.0
 11
5633.416689238447
 21
-3253.750446684212
 31
0.0
  0
LINE
  5
BAE4C
330
18
100
AcDbEntity
  8
\U+FF7A\U+FF88\U+FF78\U+FF80
100
AcDbLine
 10
5651.416689238446
 20
-3271.058046684212
 30
0.0
 11
5646.416689238447
 21
-3271.058046684212
 31
0.0
  0
LINE
  5
BAE4D
330
18
100
AcDbEntity
  8
\U+FF7A\U+FF88\U+FF78\U+FF80
100
AcDbLine
 10
5651.416689238446
 20
-3265.971146684212
 30
0.0
 11
5646.416689238447
 21
-3265.971146684212
 31
0.0
  0
LINE
  5
BAE4E
330
18
100
AcDbEntity
  8
\U+FF7A\U+FF88\U+FF78\U+FF80
100
AcDbLine
 10
5651.416689238446
 20
-3267.491146684212
 30
0.0
 11
5646.416689238447
 21
-3267.491146684212
 31
0.0
  0
LINE
  5
BAE4F
330
18
100
AcDbEntity
  8
\U+FF7A\U+FF88\U+FF78\U+FF80
100
AcDbLine
 10
5651.416689238446
 20
-3258.837346684212
 30
0.0
 11
5646.416689238447
 21
-3258.837346684212
 31
0.0
  0
LINE
  5
BAE50
330
18
100
AcDbEntity
  8
\U+FF7A\U+FF88\U+FF78\U+FF80
100
AcDbLine
 10
5651.416689238446
 20
-3257.317346684212
 30
0.0
 11
5646.416689238447
 21
-3257.317346684212
 31
0.0
  0
LINE
  5
BAE51
330
18
100
AcDbEntity
  8
\U+FF7A\U+FF88\U+FF78\U+FF80
100
AcDbLine
 10
5651.416689238446
 20
-3253.750446684212
 30
0.0
 11
5646.416689238447
 21
-3253.750446684212
 31
0.0
  0
LINE
  5
BAE52
330
18
100
AcDbEntity
  8
中心線
 48
0.5
100
AcDbLine
 10
5653.899381865529
 20
-3262.40764376814
 30
0.0
 11
5625.474891818891
 21
-3262.40764376814
 31
0.0
  0
LINE
  5
BAEF0
330
18
100
AcDbEntity
  8
\U+FF7A\U+FF88\U+FF78\U+FF80
100
AcDbLine
 10
5618.543428502334
 20
-3259.107643768134
 30
0.0
 11
5629.416689238446
 21
-3259.107643768134
 31
0.0
  0
LINE
  5
BAEF1
330
18
100
AcDbEntity
  8
\U+FF7A\U+FF88\U+FF78\U+FF80
100
AcDbLine
 10
5618.543428502334
 20
-3265.707643768141
 30
0.0
 11
5629.416689238446
 21
-3265.707643768141
 31
0.0
  0
LINE
  5
BBA6C
330
18
100
AcDbEntity
  8
実線
 48
0.2
100
AcDbLine
 10
5697.91668889032
 20
-3273.107642927711
 30
0.0
 11
5729.916690410237
 21
-3273.107642927711
 31
0.0
  0
LINE
  5
BBA6D
330
18
100
AcDbEntity
  8
実線
 48
0.2
100
AcDbLine
 10
5697.916688890319
 20
-3272.607643768139
 30
0.0
 11
5729.916690410237
 21
-3272.607643768139
 31
0.0
  0
LINE
  5
BBA6E
330
18
100
AcDbEntity
  8
実線
 48
0.2
100
AcDbLine
 10
5729.916690410237
 20
-3274.407643768138
 30
0.0
 11
5729.916690410237
 21
-3272.607643768139
 31
0.0
  0
LINE
  5
BBA6F
330
18
100
AcDbEntity
  8
実線
 48
0.2
100
AcDbLine
 10
5697.916688890319
 20
-3274.40764376814
 30
0.0
 11
5697.916688890319
 21
-3272.607643768139
 31
0.0
  0
LINE
  5
BBA72
330
18
100
AcDbEntity
  8
実線
 48
0.2
100
AcDbLine
 10
5729.916690410237
 20
-3274.407643768138
 30
0.0
 11
5769.91669096698
 21
-3274.407643768138
 31
0.0
  0
LINE
  5
BBD4E
102
{ACAD_REACTORS
330
BBD53
102
}
330
18
100
AcDbEntity
  8
中心線
 48
0.5
100
AcDbLine
 10
5982.943067962992
 20
-2997.534715151621
 30
0.0
 11
6004.94306796299
 21
-2997.534715151621
 31
0.0
  0
LINE
  5
BBD54
102
{ACAD_REACTORS
330
BBD57
102
}
330
18
100
AcDbEntity
  8
中心線
 48
0.5
100
AcDbLine
 10
5982.943067962992
 20
-3085.92306279994
 30
0.0
 11
6004.94306796299
 21
-3085.92306279994
 31
0.0
  0
LINE
  5
BBF3B
102
{ACAD_REACTORS
330
BBF41
102
}
330
18
100
AcDbEntity
  8
中心線
 48
0.5
100
AcDbLine
 10
5758.110862486208
 20
-3253.407643768138
 30
0.0
 11
5758.110862486208
 21
-3275.407643768137
 31
0.0
  0
LINE
  5
BBF3E
102
{ACAD_REACTORS
330
BBF42
102
}
330
18
100
AcDbEntity
  8
中心線
 48
0.5
100
AcDbLine
 10
5669.722514837889
 20
-3253.407643768138
 30
0.0
 11
5669.722514837889
 21
-3275.407643768137
 31
0.0
  0
HATCH
  5
BC1B5
330
18
100
AcDbEntity
  8
本体
100
AcDbHatch
 10
0.0
 20
0.0
 30
0.0
210
0.0
220
0.0
230
1.0
  2
SOLID
 70
     1
 71
     0
 91
        2
 92
        7
 72
     1
 73
     1
 93
        3
 10
6199.645017172775
 20
-3091.781183002066
 42
0.4142135623731056
 10
6196.859560211493
 20
-3091.290031786191
 42
0.0
 10
6198.006713084194
 20
-3092.928335874769
 42
0.0
 97
        0
 92
        7
 72
     1
 73
     1
 93
        3
 10
6199.153865956897
 20
-3094.566639963347
 42
0.0
 10
6198.006713084194
 20
-3092.928335874769
 42
0.0
 10
6196.368408995615
 20
-3094.075488747471
 42
0.4142135623731056
 97
        0
 75
     0
 76
     1
 47
0.0110124163047153
 98
        2
 10
6198.212921409655
 20
-3092.009548197908
 10
6197.938453757413
 20
-3094.325713947454
  0
CIRCLE
  5
BD8B0
102
{ACAD_REACTORS
330
BD8B1
102
}
330
18
100
AcDbEntity
  8
寸法
100
AcDbCircle
 10
5698.758938844074
 20
-3050.473454197077
 30
0.0
 40
2.0
  0
HATCH
  5
BD8B1
330
18
100
AcDbEntity
  8
寸法
100
AcDbHatch
 10
0.0
 20
0.0
 30
0.0
210
0.0
220
0.0
230
1.0
  2
SOLID
 70
     1
 71
     0
 91
        2
 92
        7
 72
     1
 73
     1
 93
        3
 10
5700.490989651643
 20
-3049.473454197077
 42
0.3975651194990313
 10
5697.859547163955
 20
-3048.687090682634
 42
0.0285947903436714
 10
5698.758938844074
 20
-3050.473454197077
 42
0.0
 97
        0
 92
        7
 72
     1
 73
     1
 93
        3
 10
5699.856279187915
 20
-3052.145531997235
 42
-0.0285947903438203
 10
5698.758938844074
 20
-3050.473454197077
 42
0.0
 10
5697.026888036504
 20
-3051.473454197077
 42
0.4310603292076821
 97
        0
 75
     0
 76
     1
 47
0.0
 98
        2
 10
5699.165861547339
 20
-3049.232595463142
 10
5698.836501666654
 20
-3051.394019680135
1001
ACAD
1010
0.0
1020
0.0
1030
0.0
  0
LINE
  5
BD8B2
102
{ACAD_REACTORS
330
BD8B1
102
}
330
18
100
AcDbEntity
  8
中心線
100
AcDbLine
 10
5713.914383410334
 20
-3041.723454197057
 30
0.0
 11
5688.66974289002
 21
-3056.298454197059
 31
0.0
  0
TEXT
  5
BD96E
330
18
100
AcDbEntity
  8
文字
100
AcDbText
 10
6157.468185187861
 20
-3266.89705272954
 30
0.0
 40
6.0
  1
外形図（ABS_200V）_高精度_PIN
 41
0.5
  7
まこ
100
AcDbText
  0
TEXT
  5
BD96F
330
18
100
AcDbEntity
  8
文字
100
AcDbText
 10
6155.619736005871
 20
-3278.254959497387
 30
0.0
 40
7.0
  1
ＳＥ－８１４５１
 41
0.9529999999999999
  7
まこ
100
AcDbText
  0
TEXT
  5
BD970
330
18
100
AcDbEntity
  8
文字
100
AcDbText
 10
6155.400872984535
 20
-3255.671883854962
 30
0.0
 40
3.5
  1
τDISCモータ ND110-65-FSP（ABS_200V仕様） NMR-SAEJA2A-131AP
 41
0.35
  7
まこ
100
AcDbText
  0
VIEWPORT
  5
BD7A9
102
{ACAD_XDICTIONARY
360
BDA46
102
}
330
BD7A5
100
AcDbEntity
 67
     1
  8
0
100
AcDbViewport
 10
10.30906833400472
 20
0.069480719833761
 30
0.0
 40
23.73684611920309
 41
13.16638592764609
 68
     1
 69
     1
 12
10.30906833400472
 22
0.069480719833761
 13
0.0
 23
0.0
 14
0.5
 24
0.5
 15
0.0
 25
0.0
 16
0.0
 26
0.0
 36
1.0
 17
0.0
 27
0.0
 37
0.0
 42
50.0
 43
0.0
 44
0.0
 45
13.16638592764609
 50
0.0
 51
0.0
 72
   100
 90
   557152
  1

281
     0
 71
     1
 74
     0
110
0.0
120
0.0
130
0.0
111
1.0
121
0.0
131
0.0
112
0.0
122
1.0
132
0.0
 79
     0
146
0.0
  0
VIEWPORT
  5
BD7AA
102
{ACAD_XDICTIONARY
360
BD7AB
102
}
330
BD7A5
100
AcDbEntity
 67
     1
  8
0
100
AcDbViewport
 10
5.25
 20
3.5
 30
0.0
 40
8.4
 41
5.600000000000001
 68
     2
 69
     2
 12
5901.952017225546
 22
-3135.4680911765
 13
0.0
 23
0.0
 14
0.5
 24
0.5
 15
0.0
 25
0.0
 16
0.0
 26
0.0
 36
1.0
 17
0.0
 27
0.0
 37
0.0
 42
50.0
 43
0.0
 44
0.0
 45
478.5755015753064
 50
0.0
 51
0.0
 72
   100
341
E
 90
   557152
  1

281
     0
 71
     1
 74
     0
110
0.0
120
0.0
130
0.0
111
1.0
121
0.0
131
0.0
112
0.0
122
1.0
132
0.0
 79
     0
146
0.0
  0
ENDSEC
  0
SECTION
  2
OBJECTS
  0
DICTIONARY
  5
C
330
0
100
AcDbDictionary
281
     1
  3
ACAD_2007HEADERVARS_RT
350
BDA3C
  3
ACAD_CIP_PREVIOUS_PRODUCT_INFO
350
8F58E
  3
ACAD_COLOR
350
BD954
  3
ACAD_DETAILVIEWSTYLE
350
8F583
  3
ACAD_GROUP
350
D
  3
ACAD_IMAGE_VARS
350
BC743
  3
ACAD_LAYOUT
350
73F
  3
ACAD_MATERIAL
350
BD945
  3
ACAD_MLEADERSTYLE
350
BD94B
  3
ACAD_MLINESTYLE
350
1B
  3
ACAD_PLOTSETTINGS
350
740
  3
ACAD_PLOTSTYLENAME
350
73D
  3
ACAD_SCALELIST
350
8F56D
  3
ACAD_SECTIONVIEWSTYLE
350
8F581
  3
ACAD_TABLESTYLE
350
BD949
  3
ACAD_VISUALSTYLE
350
BD92C
  3
AcadDim
350
66482
  3
ACDB_RECOMPOSE_DATA
350
BDA3A
  3
AcDbVariableDictionary
350
11AC
  3
APPDATA
350
BC741
  3
CLOUDSETTINGS
350
BD611
  3
DWGPROPS
350
BDA3B
  0
DICTIONARY
  5
BD9E4
330
8
100
AcDbDictionary
280
     1
281
     1
  0
DICTIONARY
  5
1E591
330
2
100
AcDbDictionary
280
     1
281
     1
  3
ACAD_LAYERSTATES
360
1E615
  3
ACLYDICTIONARY
360
BD8CE
  0
DICTIONARY
  5
A181E
330
E
100
AcDbDictionary
280
     1
281
     1
  3
ADSK_XREC_LAYER_RECONCILED
360
A181F
  0
DICTIONARY
  5
A1826
330
8C6
100
AcDbDictionary
280
     1
281
     1
  3
ADSK_XREC_LAYER_RECONCILED
360
A1827
  0
DICTIONARY
  5
A182C
330
96A
100
AcDbDictionary
280
     1
281
     1
  3
ADSK_XREC_LAYER_RECONCILED
360
A182D
  0
DICTIONARY
  5
A182E
330
1521
100
AcDbDictionary
280
     1
281
     1
  3
ADSK_XREC_LAYER_RECONCILED
360
A182F
  0
DICTIONARY
  5
A1830
330
1522
100
AcDbDictionary
280
     1
281
     1
  3
ADSK_XREC_LAYER_RECONCILED
360
A1831
  0
DICTIONARY
  5
A1832
330
1523
100
AcDbDictionary
280
     1
281
     1
  3
ADSK_XREC_LAYER_RECONCILED
360
A1833
  0
DICTIONARY
  5
A1834
330
1526
100
AcDbDictionary
280
     1
281
     1
  3
ADSK_XREC_LAYER_RECONCILED
360
A1835
  0
DICTIONARY
  5
A1836
330
44F0
100
AcDbDictionary
280
     1
281
     1
  3
ADSK_XREC_LAYER_RECONCILED
360
A1837
  0
DICTIONARY
  5
A185E
330
89316
100
AcDbDictionary
280
     1
281
     1
  3
ADSK_XREC_LAYER_RECONCILED
360
A185F
  0
DICTIONARY
  5
BD87D
330
BD87C
100
AcDbDictionary
280
     1
281
     1
  3
ADSK_XREC_LAYER_RECONCILED
360
BD87E
  0
DICTIONARY
  5
9F677
330
18
100
AcDbDictionary
280
     1
281
     1
  3
ACAD_SORTENTS
360
9F678
  0
DICTIONARY
  5
BDA46
330
BD7A9
100
AcDbDictionary
280
     1
281
     1
  3
ACAD_XREC_ROUNDTRIP
360
BDA47
  0
DICTIONARY
  5
BD7AB
330
BD7AA
100
AcDbDictionary
280
     1
281
     1
  3
ACAD_XREC_ROUNDTRIP
360
BDA48
  3
ASDK_XREC_ANNOTATION_SCALE_INFO
360
BD7AC
  0
DICTIONARY
  5
BDA3C
102
{ACAD_REACTORS
330
C
102
}
330
C
100
AcDbDictionary
281
     1
  3
INTERFERECOLOR
350
BDA3D
  0
XRECORD
  5
8F58E
102
{ACAD_REACTORS
330
C
102
}
330
C
100
AcDbXrecord
280
     1
300
ACDLT
300
2019
300
87085ACDLT_2019_0F
  0
DICTIONARY
  5
BD954
102
{ACAD_REACTORS
330
C
102
}
330
C
100
AcDbDictionary
281
     1
  0
DICTIONARY
  5
8F583
102
{ACAD_REACTORS
330
C
102
}
330
C
100
AcDbDictionary
281
     1
  3
Imperial24
350
8F584
  0
DICTIONARY
  5
D
102
{ACAD_REACTORS
330
C
102
}
330
C
100
AcDbDictionary
281
     1
  3
*A1
350
BBF41
  3
*A10
350
B8DBF
  3
*A11
350
BBD53
  3
*A12
350
B7444
  3
*A13
350
BBD57
  3
*A14
350
BA00A
  3
*A2
350
B9FE0
  3
*A3
350
B6FCB
  3
*A4
350
B9FEE
  3
*A5
350
B6F9F
  3
*A6
350
BADF6
  3
*A7
350
B9FFC
  3
*A8
350
BBF42
  3
*A9
350
B661D
  0
RASTERVARIABLES
  5
BC743
102
{ACAD_REACTORS
330
C
102
}
330
C
100
AcDbRasterVariables
 90
        0
 70
     1
 71
     1
 72
     0
  0
DICTIONARY
  5
73F
102
{ACAD_REACTORS
330
C
102
}
330
C
100
AcDbDictionary
281
     1
  3
Model
350
741
  3
Sheet1
350
BD7A6
  0
DICTIONARY
  5
BD945
102
{ACAD_REACTORS
330
C
102
}
330
C
100
AcDbDictionary
281
     1
  3
ByBlock
350
BD947
  3
ByLayer
350
BD946
  3
Global
350
BD948
  0
DICTIONARY
  5
BD94B
102
{ACAD_REACTORS
330
C
102
}
330
C
100
AcDbDictionary
281
     1
  3
Standard
350
BD94C
  0
DICTIONARY
  5
1B
102
{ACAD_REACTORS
330
C
102
}
330
C
100
AcDbDictionary
281
     1
  3
STANDARD
350
1C
  0
DICTIONARY
  5
740
102
{ACAD_REACTORS
330
C
102
}
330
C
100
AcDbDictionary
281
     1
  0
ACDBDICTIONARYWDFLT
  5
73D
102
{ACAD_REACTORS
330
C
102
}
330
C
100
AcDbDictionary
281
     1
  3
Normal
350
73E
100
AcDbDictionaryWithDefault
340
73E
  0
DICTIONARY
  5
8F56D
102
{ACAD_REACTORS
330
C
102
}
330
C
100
AcDbDictionary
281
     1
  3
A0
350
8F56E
  3
A1
350
8F56F
  3
A2
350
8F570
  3
A3
350
8F571
  3
A4
350
8F572
  3
A5
350
8F573
  3
A6
350
8F574
  3
A7
350
8F575
  3
A8
350
8F576
  3
A9
350
8F577
  3
B0
350
8F578
  3
B1
350
8F579
  3
B2
350
8F57A
  3
B3
350
8F57B
  3
B4
350
8F57C
  3
B5
350
8F57D
  3
B6
350
8F57E
  0
DICTIONARY
  5
8F581
102
{ACAD_REACTORS
330
C
102
}
330
C
100
AcDbDictionary
281
     1
  3
Imperial24
350
8F582
  0
DICTIONARY
  5
BD949
102
{ACAD_REACTORS
330
C
102
}
330
C
100
AcDbDictionary
281
     1
  3
Standard
350
BD94A
  0
DICTIONARY
  5
BD92C
102
{ACAD_REACTORS
330
C
102
}
330
C
100
AcDbDictionary
281
     1
  3
2dWireframe
350
BD931
  3
Basic
350
BD934
  3
Brighten
350
BD938
  3
ColorChange
350
BD93C
  3
Conceptual
350
BD936
  3
Dim
350
BD937
  3
EdgeColorOff
350
BD93F
  3
Facepattern
350
BD93B
  3
Flat
350
BD92D
  3
FlatWithEdges
350
BD92E
  3
Gouraud
350
BD92F
  3
GouraudWithEdges
350
BD930
  3
Hidden
350
BD933
  3
JitterOff
350
BD93D
  3
Linepattern
350
BD93A
  3
OverhangOff
350
BD93E
  3
Realistic
350
BD935
  3
Shaded
350
BD944
  3
Shaded with edges
350
BD943
  3
Shades of Gray
350
BD940
  3
Sketchy
350
BD941
  3
Thicken
350
BD939
  3
Wireframe
350
BD932
  3
X-Ray
350
BD942
  0
XRECORD
  5
66482
102
{ACAD_REACTORS
330
C
102
}
330
C
100
AcDbXrecord
280
     1
 90
   990106
  3

 60
     0
 61
     0
 62
     4
 63
     4
 64
     1
 65
     0
 66
     0
 67
     3
 68
     1
 69
     0
 70
     0
 71
     0
 72
     0
 40
0.0
170
     2
  0
XRECORD
  5
BDA3A
102
{ACAD_REACTORS
330
C
102
}
330
C
100
AcDbXrecord
280
     1
 90
        1
330
BD94A
  0
DICTIONARY
  5
11AC
102
{ACAD_REACTORS
330
C
102
}
330
C
100
AcDbDictionary
281
     1
  3
CANNOSCALE
350
BD94E
  3
CMLEADERSTYLE
350
BD950
  3
CTABLESTYLE
350
BD94F
  3
CVIEWDETAILSTYLE
350
BDA28
  3
CVIEWSECTIONSTYLE
350
BDA29
  3
DGNFRAME
350
BDA2E
  3
DIMASSOC
350
11AD
  3
HIDETEXT
350
BDA2D
  3
INDEXCTL
350
A20AE
  3
LAYEREVAL
350
BDA2B
  3
LAYERNOTIFY
350
BDA2C
  3
LIGHTINGUNITS
350
BDA2A
  3
MSLTSCALE
350
BD951
  3
SORTENTS
350
AD08
  3
XCLIPFRAME
350
BDA38
  0
DICTIONARY
  5
BC741
102
{ACAD_REACTORS
330
C
102
}
330
C
100
AcDbDictionary
281
     1
  0
XRECORD
  5
BD611
102
{ACAD_REACTORS
330
C
102
}
330
C
100
AcDbXrecord
280
     1
 40
1.0
  0
XRECORD
  5
BDA3B
102
{ACAD_REACTORS
330
C
102
}
330
C
100
AcDbXrecord
280
     1
  1
DWGPROPS COOKIE
  2

  3

  4

  6

  7

  8
NI0949
  9

300
=
301
=
302
=
303
=
304
=
305
=
306
=
307
=
308
=
309
=
 40
0.0136752083333333
 41
2452479.723113426
 42
2458547.497789352
  1

 90
        0
  0
DICTIONARY
  5
1E615
102
{ACAD_REACTORS
330
1E591
102
}
330
1E591
100
AcDbDictionary
281
     1
  0
DICTIONARY
  5
BD8CE
102
{ACAD_REACTORS
330
1E591
102
}
330
1E591
100
AcDbDictionary
281
     1
  3
*A1
350
BD8CF
  3
*A10
350
BD8D2
  3
*A11
350
BD8D3
  3
*A2
350
BD8D4
  3
*A3
350
BD8D5
  3
*A4
350
BD8D6
  3
*A5
350
BD8D7
  3
*A6
350
BD8D8
  3
*A7
350
BD8D9
  3
*A8
350
BD8D0
  3
*A9
350
BD8D1
1001
ACAD
1000
<All
  0
XRECORD
  5
A181F
102
{ACAD_REACTORS
330
A181E
102
}
330
A181E
100
AcDbXrecord
280
     1
290
     1
  0
XRECORD
  5
A1827
102
{ACAD_REACTORS
330
A1826
102
}
330
A1826
100
AcDbXrecord
280
     1
290
     1
  0
XRECORD
  5
A182D
102
{ACAD_REACTORS
330
A182C
102
}
330
A182C
100
AcDbXrecord
280
     1
290
     1
  0
XRECORD
  5
A182F
102
{ACAD_REACTORS
330
A182E
102
}
330
A182E
100
AcDbXrecord
280
     1
290
     1
  0
XRECORD
  5
A1831
102
{ACAD_REACTORS
330
A1830
102
}
330
A1830
100
AcDbXrecord
280
     1
290
     1
  0
XRECORD
  5
A1833
102
{ACAD_REACTORS
330
A1832
102
}
330
A1832
100
AcDbXrecord
280
     1
290
     1
  0
XRECORD
  5
A1835
102
{ACAD_REACTORS
330
A1834
102
}
330
A1834
100
AcDbXrecord
280
     1
290
     1
  0
XRECORD
  5
A1837
102
{ACAD_REACTORS
330
A1836
102
}
330
A1836
100
AcDbXrecord
280
     1
290
     1
  0
XRECORD
  5
A185F
102
{ACAD_REACTORS
330
A185E
102
}
330
A185E
100
AcDbXrecord
280
     1
290
     1
  0
XRECORD
  5
BD87E
102
{ACAD_REACTORS
330
BD87D
102
}
330
BD87D
100
AcDbXrecord
280
     1
290
     1
  0
SORTENTSTABLE
  5
9F678
102
{ACAD_REACTORS
330
9F677
102
}
330
9F677
100
AcDbSortentsTable
330
18
  0
XRECORD
  5
BDA47
102
{ACAD_REACTORS
330
BDA46
102
}
330
BDA46
100
AcDbXrecord
280
     1
102
SHADEPLOT
 70
     0
  0
XRECORD
  5
BDA48
102
{ACAD_REACTORS
330
BD7AB
102
}
330
BD7AB
100
AcDbXrecord
280
     1
102
SHADEPLOT
 70
     0
  0
XRECORD
  5
BD7AC
102
{ACAD_REACTORS
330
BD7AB
102
}
330
BD7AB
100
AcDbXrecord
280
     1
 90
        1
340
8F56E
  0
XRECORD
  5
BDA3D
102
{ACAD_REACTORS
330
BDA3C
102
}
330
BDA3C
100
AcDbXrecord
280
     1
1004
1800000001000000000000C0000000000000000000000000
  0
ACDBDETAILVIEWSTYLE
  5
8F584
102
{ACAD_XDICTIONARY
360
BDA42
102
}
102
{ACAD_REACTORS
330
8F583
102
}
330
8F583
100
AcDbModelDocViewStyle
 70
     0
  3
Imperial24
290
     0
100
AcDbDetailViewStyle
 70
     0
 71
     0
 90
        3
 71
     1
340
F
 40
0.24
340
0
 40
0.24
300

 40
0.36
280
     3
 71
     2
340
14
 90
       25
 71
     3
340
F
 40
0.24
 90
        1
 40
0.75
 90
        1
300
%<\AcVar ViewType \f "%tc1">% %<\AcVar ViewDetailId>%\PSCALE %<\AcVar ViewScale \f "%sn">%
 71
     4
340
14
 90
       25
340
14
 90
       25
280
     0
1001
ACAD
1000
AcRTDxfName
1000
ACDBDETAILVIEWSTYLE
1000
AcRTDxfName
1000
ACDBDETAILVIEWSTYLE
1000
AcRTDxfName
1000
ACDBDETAILVIEWSTYLE
1000
AcRTDxfName
1000
ACDBDETAILVIEWSTYLE
1000
AcRTDxfName
1000
ACDBDETAILVIEWSTYLE
1000
AcRTDxfName
1000
ACDBDETAILVIEWSTYLE
1000
AcRTDxfName
1000
ACDBDETAILVIEWSTYLE
1000
AcRTDxfName
1000
ACDBDETAILVIEWSTYLE
  0
GROUP
  5
BBF41
102
{ACAD_REACTORS
330
D
102
}
330
D
100
AcDbGroup
300

 70
     1
 71
     1
340
BBF3B
  0
GROUP
  5
B8DBF
102
{ACAD_REACTORS
330
D
102
}
330
D
100
AcDbGroup
300

 70
     1
 71
     1
340
B8DBD
340
B8DBC
340
B8DBB
340
B8DBA
340
B8DBE
  0
GROUP
  5
BBD53
102
{ACAD_REACTORS
330
D
102
}
330
D
100
AcDbGroup
300

 70
     1
 71
     1
340
BBD4E
  0
GROUP
  5
B7444
102
{ACAD_REACTORS
330
D
102
}
330
D
100
AcDbGroup
300

 70
     1
 71
     1
340
B743F
340
B743E
340
B743D
340
B743C
340
B743B
340
B743A
340
B7439
340
B7438
340
B7437
340
B7436
340
B7435
340
B7434
340
B7433
340
B7432
340
B7431
340
B7430
340
B742F
340
B742E
340
B742D
340
B742C
340
B742B
340
B742A
340
B7441
340
B7440
  0
GROUP
  5
BBD57
102
{ACAD_REACTORS
330
D
102
}
330
D
100
AcDbGroup
300

 70
     1
 71
     1
340
BBD54
  0
GROUP
  5
BA00A
102
{ACAD_REACTORS
330
D
102
}
330
D
100
AcDbGroup
300

 70
     1
 71
     1
340
BA009
340
BA007
340
BA000
340
BA001
340
BA005
340
BA003
340
BA002
340
BA006
340
BA004
340
B9FFE
340
B9FFD
340
BA008
340
B9FFF
  0
GROUP
  5
B9FE0
102
{ACAD_REACTORS
330
D
102
}
330
D
100
AcDbGroup
300

 70
     1
 71
     1
340
B9FDF
340
B9FDD
340
B9FD6
340
B9FD7
340
B9FDB
340
B9FD9
340
B9FD8
340
B9FDC
340
B9FDA
340
B9FD4
340
B9FD3
340
B9FDE
340
B9FD5
  0
GROUP
  5
B6FCB
102
{ACAD_REACTORS
330
D
102
}
330
D
100
AcDbGroup
300

 70
     1
 71
     1
340
B6FC8
340
B6FC7
340
B6FC6
340
B6FC5
340
B6FC4
340
B6FC3
340
B6FC2
340
B6FC1
340
B6FC0
340
B6FBF
340
B6FBE
340
B6FBD
340
B6FBC
340
B6FBB
  0
GROUP
  5
B9FEE
102
{ACAD_REACTORS
330
D
102
}
330
D
100
AcDbGroup
300

 70
     1
 71
     1
340
B9FED
340
B9FEB
340
B9FE4
340
B9FE5
340
B9FE9
340
B9FE7
340
B9FE6
340
B9FEA
340
B9FE8
340
B9FE2
340
B9FE1
340
B9FEC
340
B9FE3
  0
GROUP
  5
B6F9F
102
{ACAD_REACTORS
330
D
102
}
330
D
100
AcDbGroup
300

 70
     1
 71
     1
340
B6F97
340
B6F96
340
B6F88
340
B6F87
340
B6F86
340
B6F85
340
B6F95
340
B6F94
340
B6F93
340
B6F92
340
B6F91
340
B6F90
340
B6F8F
340
B6F8E
340
B6F8D
340
B6F8C
340
B6F8B
340
B6F8A
340
B6F89
340
B6F9A
340
B6F99
340
B6F98
340
B6F9C
340
B6F9B
  0
GROUP
  5
BADF6
102
{ACAD_REACTORS
330
D
102
}
330
D
100
AcDbGroup
300

 70
     1
 71
     1
340
BAD67
340
BAD66
340
BAD95
340
BAD94
340
BAD97
340
BAD96
340
BAD93
340
BAD92
340
BAD91
340
BAD90
340
BAD8F
340
BAD8E
340
BAD8D
340
BAD8C
340
BAD8B
340
BAD8A
340
BAD89
340
BAD88
340
BAD87
340
BAD86
340
BAD85
340
BAD84
340
BAD83
340
BAD82
340
BAD81
340
BAD80
340
BAD7F
340
BAD7E
340
BAD7D
340
BAD7C
340
BAD7B
340
BAD7A
340
BAD79
340
BAD78
340
BAD77
340
BAD76
340
BAD75
340
BAD74
340
BAD73
340
BAD72
340
BAD71
340
BAD70
340
BAD6F
340
BAD6E
340
BAD6D
340
BAD6C
340
BAD69
340
BAD68
340
BAD6B
340
BAD6A
  0
GROUP
  5
B9FFC
102
{ACAD_REACTORS
330
D
102
}
330
D
100
AcDbGroup
300

 70
     1
 71
     1
340
B9FFB
340
B9FF9
340
B9FF2
340
B9FF3
340
B9FF7
340
B9FF5
340
B9FF4
340
B9FF8
340
B9FF6
340
B9FF0
340
B9FEF
340
B9FFA
340
B9FF1
  0
GROUP
  5
BBF42
102
{ACAD_REACTORS
330
D
102
}
330
D
100
AcDbGroup
300

 70
     1
 71
     1
340
BBF3E
  0
GROUP
  5
B661D
102
{ACAD_REACTORS
330
D
102
}
330
D
100
AcDbGroup
300

 70
     1
 71
     1
340
B660B
340
B65FF
340
B661C
340
B661B
340
B661A
340
B6619
340
B6618
340
B6611
340
B6610
340
B660F
340
B660E
340
B660D
340
B660C
340
B6605
340
B6604
340
B6603
340
B6602
340
B6601
340
B6600
340
B65FE
340
B65FD
340
B65FC
340
B6617
340
B6616
340
B6615
340
B6614
340
B6613
340
B6612
340
B660A
340
B6609
340
B6608
340
B6607
340
B6606
340
B65FB
  0
LAYOUT
  5
741
102
{ACAD_XDICTIONARY
360
BDA3E
102
}
102
{ACAD_REACTORS
330
73F
102
}
330
73F
100
AcDbPlotSettings
  1

  2
HP DesignJet 750C (D/A1) Color
  4
ANSI_A_(11.00_x_8.50_Inches)
  6

 40
6.349999999999999
 41
19.05
 42
6.349999999999999
 43
19.05
 44
279.4
 45
215.9
 46
0.0
 47
0.0
 48
0.0
 49
0.0
140
0.0
141
0.0
142
1.0
143
88.77529848489301
 70
 11952
 72
     0
 73
     0
 74
     0
  7

 75
     0
147
0.0112643946803532
148
-135294.6482860144
149
86780.92964376917
100
AcDbLayout
  1
Model
 70
     1
 71
     0
 10
0.0
 20
0.0
 11
12.0
 21
9.0
 12
0.0
 22
0.0
 32
0.0
 14
5550.058266067233
 24
-3352.208102051702
 34
0.0
 15
6253.845768383861
 25
-2974.268670697373
 35
137.5
146
0.0
 13
0.0
 23
0.0
 33
0.0
 16
1.0
 26
0.0
 36
0.0
 17
0.0
 27
1.0
 37
0.0
 76
     0
330
18
  0
LAYOUT
  5
BD7A6
102
{ACAD_XDICTIONARY
360
BDA44
102
}
102
{ACAD_REACTORS
330
73F
102
}
330
73F
100
AcDbPlotSettings
  1

  2
Adobe PDF
  4
Letter
  6

 40
0.0
 41
0.0
 42
0.0
 43
0.0
 44
215.9
 45
279.4
 46
0.0
 47
0.0
 48
0.0
 49
0.0
140
0.0
141
0.0
142
1.0
143
1.0
 70
   672
 72
     0
 73
     1
 74
     5
  7

 75
    16
147
1.0
148
0.0
149
0.0
100
AcDbLayout
  1
Sheet1
 70
     1
 71
     1
 10
0.0
 20
0.0
 11
11.0
 21
8.5
 12
0.0
 22
0.0
 32
0.0
 14
1.049999999999999
 24
0.6999999999999993
 34
0.0
 15
9.449999999999999
 25
6.3
 35
0.0
146
0.0
 13
0.0
 23
0.0
 33
0.0
 16
1.0
 26
0.0
 36
0.0
 17
0.0
 27
1.0
 37
0.0
 76
     0
330
BD7A5
331
BD7A9
1001
PLOTTRANSPARENCY
1071
        0
  0
MATERIAL
  5
BD947
102
{ACAD_XDICTIONARY
360
BDA7B
102
}
102
{ACAD_REACTORS
330
BD945
102
}
330
BD945
100
AcDbMaterial
  1
ByBlock
 73
     1
 78
     1
172
     1
176
     1
270
     1
274
     1
  0
MATERIAL
  5
BD946
102
{ACAD_XDICTIONARY
360
BDA79
102
}
102
{ACAD_REACTORS
330
BD945
102
}
330
BD945
100
AcDbMaterial
  1
ByLayer
 73
     1
 78
     1
172
     1
176
     1
270
     1
274
     1
  0
MATERIAL
  5
BD948
102
{ACAD_XDICTIONARY
360
BDA7D
102
}
102
{ACAD_REACTORS
330
BD945
102
}
330
BD945
100
AcDbMaterial
  1
Global
 73
     1
 78
     1
172
     1
176
     1
270
     1
274
     1
  0
MLEADERSTYLE
  5
BD94C
102
{ACAD_REACTORS
330
BD94B
102
}
330
BD94B
100
AcDbMLeaderStyle
170
     2
171
     1
172
     0
 90
        2
 40
0.0
 41
0.0
173
     1
 91
-1056964608
340
12
 92
       -2
290
     1
 42
0.09
291
     1
 43
0.36
  3
Standard
 44
0.18
300

342
F
174
     1
178
     6
175
     1
176
     0
 93
-1056964608
 45
0.18
292
     0
297
     0
 46
0.18
 94
-1056964608
 47
1.0
 49
1.0
140
1.0
293
     1
141
0.0
294
     1
177
     0
142
1.0
295
     0
296
     0
143
0.125
1001
ACAD_MLEADERVER
1070
     2
  0
MLINESTYLE
  5
1C
102
{ACAD_REACTORS
330
1B
102
}
330
1B
100
AcDbMlineStyle
  2
STANDARD
 70
     0
  3

 62
   256
 51
90.0
 52
90.0
 71
     2
 49
0.5
 62
   256
  6
BYLAYER
 49
-0.5
 62
   256
  6
BYLAYER
  0
ACDBPLACEHOLDER
  5
73E
102
{ACAD_REACTORS
330
73D
102
}
330
73D
  0
SCALE
  5
8F56E
102
{ACAD_REACTORS
330
8F56D
102
}
330
8F56D
100
AcDbScale
 70
     0
300
1:1
140
1.0
141
1.0
290
     1
  0
SCALE
  5
8F56F
102
{ACAD_REACTORS
330
8F56D
102
}
330
8F56D
100
AcDbScale
 70
     0
300
1/128" = 1'-0"
140
0.0078125
141
12.0
290
     0
  0
SCALE
  5
8F570
102
{ACAD_REACTORS
330
8F56D
102
}
330
8F56D
100
AcDbScale
 70
     0
300
1/64" = 1'-0"
140
0.015625
141
12.0
290
     0
  0
SCALE
  5
8F571
102
{ACAD_REACTORS
330
8F56D
102
}
330
8F56D
100
AcDbScale
 70
     0
300
1/32" = 1'-0"
140
0.03125
141
12.0
290
     0
  0
SCALE
  5
8F572
102
{ACAD_REACTORS
330
8F56D
102
}
330
8F56D
100
AcDbScale
 70
     0
300
1/16" = 1'-0"
140
0.0625
141
12.0
290
     0
  0
SCALE
  5
8F573
102
{ACAD_REACTORS
330
8F56D
102
}
330
8F56D
100
AcDbScale
 70
     0
300
3/32" = 1'-0"
140
0.09375
141
12.0
290
     0
  0
SCALE
  5
8F574
102
{ACAD_REACTORS
330
8F56D
102
}
330
8F56D
100
AcDbScale
 70
     0
300
1/8" = 1'-0"
140
0.125
141
12.0
290
     0
  0
SCALE
  5
8F575
102
{ACAD_REACTORS
330
8F56D
102
}
330
8F56D
100
AcDbScale
 70
     0
300
3/16" = 1'-0"
140
0.1875
141
12.0
290
     0
  0
SCALE
  5
8F576
102
{ACAD_REACTORS
330
8F56D
102
}
330
8F56D
100
AcDbScale
 70
     0
300
1/4" = 1'-0"
140
0.25
141
12.0
290
     0
  0
SCALE
  5
8F577
102
{ACAD_REACTORS
330
8F56D
102
}
330
8F56D
100
AcDbScale
 70
     0
300
3/8" = 1'-0"
140
0.375
141
12.0
290
     0
  0
SCALE
  5
8F578
102
{ACAD_REACTORS
330
8F56D
102
}
330
8F56D
100
AcDbScale
 70
     0
300
1/2" = 1'-0"
140
0.5
141
12.0
290
     0
  0
SCALE
  5
8F579
102
{ACAD_REACTORS
330
8F56D
102
}
330
8F56D
100
AcDbScale
 70
     0
300
3/4" = 1'-0"
140
0.75
141
12.0
290
     0
  0
SCALE
  5
8F57A
102
{ACAD_REACTORS
330
8F56D
102
}
330
8F56D
100
AcDbScale
 70
     0
300
1" = 1'-0"
140
1.0
141
12.0
290
     0
  0
SCALE
  5
8F57B
102
{ACAD_REACTORS
330
8F56D
102
}
330
8F56D
100
AcDbScale
 70
     0
300
1-1/2" = 1'-0"
140
1.5
141
12.0
290
     0
  0
SCALE
  5
8F57C
102
{ACAD_REACTORS
330
8F56D
102
}
330
8F56D
100
AcDbScale
 70
     0
300
3" = 1'-0"
140
3.0
141
12.0
290
     0
  0
SCALE
  5
8F57D
102
{ACAD_REACTORS
330
8F56D
102
}
330
8F56D
100
AcDbScale
 70
     0
300
6" = 1'-0"
140
6.0
141
12.0
290
     0
  0
SCALE
  5
8F57E
102
{ACAD_REACTORS
330
8F56D
102
}
330
8F56D
100
AcDbScale
 70
     0
300
1'-0" = 1'-0"
140
12.0
141
12.0
290
     0
  0
ACDBSECTIONVIEWSTYLE
  5
8F582
102
{ACAD_XDICTIONARY
360
BDA40
102
}
102
{ACAD_REACTORS
330
8F581
102
}
330
8F581
100
AcDbModelDocViewStyle
 70
     0
  3
Imperial24
290
     0
100
AcDbSectionViewStyle
 70
     0
 71
     0
 90
       78
 71
     1
340
F
 40
0.24
340
0
340
0
 40
0.24
300
I, O, Q, S, X, Z
 40
0.48
 90
        3
 40
0.18
 90
        1
 71
     2
340
808B3
 90
       25
340
14
 90
       50
 40
0.24
 40
0.0
 40
0.24
 71
     3
340
F
 40
0.24
 90
        1
 40
0.75
 90
        1
300
%<\AcVar ViewType \f "%tc1">% %<\AcVar ViewSectionStartId>%-%<\AcVar ViewSectionEndId>%\PSCALE %<\AcVar ViewScale \f "%sn">%
 71
     4
300
ANSI31
 40
1.0
 90
        0
290
     0
290
     0
 90
        6
 40
0.0
 40
1.570796326794897
 40
0.2617993877991494
 40
1.308996938995746
 40
-0.2617993877991494
 40
1.832595714594045
1001
ACAD
1000
AcRTDxfName
1000
ACDBSECTIONVIEWSTYLE
1000
AcRTDxfName
1000
ACDBSECTIONVIEWSTYLE
1000
AcRTDxfName
1000
ACDBSECTIONVIEWSTYLE
1000
AcRTDxfName
1000
ACDBSECTIONVIEWSTYLE
1000
AcRTDxfName
1000
ACDBSECTIONVIEWSTYLE
1000
AcRTDxfName
1000
ACDBSECTIONVIEWSTYLE
1000
AcRTDxfName
1000
ACDBSECTIONVIEWSTYLE
1000
AcRTDxfName
1000
ACDBSECTIONVIEWSTYLE
  0
TABLESTYLE
  5
BD94A
102
{ACAD_XDICTIONARY
360
BD9D5
102
}
102
{ACAD_REACTORS
330
BD949
102
}
330
BD949
100
AcDbTableStyle
  3
Standard
 70
     0
 71
     0
 40
0.06
 41
0.06
280
     0
281
     0
  7
STANDARD
140
0.18
170
     2
 62
     0
 63
     7
283
     0
274
    -2
284
     1
 64
     0
275
    -2
285
     1
 65
     0
276
    -2
286
     1
 66
     0
277
    -2
287
     1
 67
     0
278
    -2
288
     1
 68
     0
279
    -2
289
     1
 69
     0
  7
STANDARD
140
0.25
170
     5
 62
     0
 63
     7
283
     0
274
    -2
284
     1
 64
     0
275
    -2
285
     1
 65
     0
276
    -2
286
     1
 66
     0
277
    -2
287
     1
 67
     0
278
    -2
288
     1
 68
     0
279
    -2
289
     1
 69
     0
  7
STANDARD
140
0.18
170
     5
 62
     0
 63
     7
283
     0
274
    -2
284
     1
 64
     0
275
    -2
285
     1
 65
     0
276
    -2
286
     1
 66
     0
277
    -2
287
     1
 67
     0
278
    -2
288
     1
 68
     0
279
    -2
289
     1
 69
     0
  0
VISUALSTYLE
  5
BD931
102
{ACAD_XDICTIONARY
360
BDA51
102
}
102
{ACAD_REACTORS
330
BD92C
102
}
330
BD92C
100
AcDbVisualStyle
  2
2dWireframe
 70
     4
 71
     0
 72
     2
 73
     0
 90
        0
 40
-0.6
 41
-30.0
 62
     5
 63
     7
 74
     1
 91
        4
 64
     7
 65
   257
 75
     1
175
     1
 42
1.0
 92
        0
 66
   257
 43
1.0
 76
     1
 77
     6
 78
     2
 67
     7
 79
     5
170
     0
171
     0
290
     0
174
     0
 93
        1
 44
0.0
173
     0
291
     0
 45
0.0
1001
ACAD
1000
AcDbSavedByObjectVersion
1070
     0
  0
VISUALSTYLE
  5
BD934
102
{ACAD_XDICTIONARY
360
BDA57
102
}
102
{ACAD_REACTORS
330
BD92C
102
}
330
BD92C
100
AcDbVisualStyle
  2
Basic
 70
     7
 71
     1
 72
     0
 73
     1
 90
        0
 40
-0.6
 41
-30.0
 62
     5
 63
     7
 74
     0
 91
        4
 64
     7
 65
   257
 75
     1
175
     1
 42
1.0
 92
        8
 66
     7
 43
1.0
 76
     1
 77
     6
 78
     2
 67
     7
 79
     5
170
     0
171
     0
290
     0
174
     0
 93
        1
 44
0.0
173
     0
291
     1
 45
0.0
1001
ACAD
1000
AcDbSavedByObjectVersion
1070
     0
  0
VISUALSTYLE
  5
BD938
102
{ACAD_XDICTIONARY
360
BDA5F
102
}
102
{ACAD_REACTORS
330
BD92C
102
}
330
BD92C
100
AcDbVisualStyle
  2
Brighten
 70
    12
 71
     2
 72
     2
 73
     0
 90
        0
 40
-0.6
 41
-30.0
 62
     5
 63
     7
 74
     1
 91
        4
 64
     7
 65
   257
 75
     1
175
     1
 42
1.0
 92
        8
 66
     7
 43
1.0
 76
     1
 77
     6
 78
     2
 67
     7
 79
     5
170
     0
171
     0
290
     0
174
     0
 93
        1
 44
50.0
173
     0
291
     1
 45
0.0
1001
ACAD
1000
AcDbSavedByObjectVersion
1070
     0
  0
VISUALSTYLE
  5
BD93C
102
{ACAD_XDICTIONARY
360
BDA67
102
}
102
{ACAD_REACTORS
330
BD92C
102
}
330
BD92C
100
AcDbVisualStyle
  2
ColorChange
 70
    16
 71
     2
 72
     2
 73
     3
 90
        0
 40
-0.6
 41
-30.0
 62
     5
 63
     8
 74
     1
 91
        4
 64
     7
 65
   257
 75
     1
175
     1
 42
1.0
 92
        8
 66
     8
 43
1.0
 76
     1
 77
     6
 78
     2
 67
     7
 79
     5
170
     0
171
     0
290
     0
174
     0
 93
        1
 44
0.0
173
     0
291
     1
 45
0.0
1001
ACAD
1000
AcDbSavedByObjectVersion
1070
     0
  0
VISUALSTYLE
  5
BD936
102
{ACAD_XDICTIONARY
360
BDA5B
102
}
102
{ACAD_REACTORS
330
BD92C
102
}
330
BD92C
100
AcDbVisualStyle
  2
Conceptual
 70
     9
 71
     3
 72
     2
 73
     0
 90
        0
 40
-0.6
 41
-30.0
 62
     5
 63
     7
 74
     2
 91
        2
 64
     7
 65
   257
 75
     1
175
     1
 42
179.0
 92
        8
 66
     7
 43
1.0
 76
     1
 77
     6
 78
     2
 67
     7
 79
     3
170
     0
171
     0
290
     0
174
     0
 93
        1
 44
0.0
173
     0
291
     0
 45
0.0
1001
ACAD
1000
AcDbSavedByObjectVersion
1070
     0
  0
VISUALSTYLE
  5
BD937
102
{ACAD_XDICTIONARY
360
BDA5D
102
}
102
{ACAD_REACTORS
330
BD92C
102
}
330
BD92C
100
AcDbVisualStyle
  2
Dim
 70
    11
 71
     2
 72
     2
 73
     0
 90
        0
 40
-0.6
 41
-30.0
 62
     5
 63
     7
 74
     1
 91
        4
 64
     7
 65
   257
 75
     1
175
     1
 42
1.0
 92
        8
 66
     7
 43
1.0
 76
     1
 77
     6
 78
     2
 67
     7
 79
     5
170
     0
171
     0
290
     0
174
     0
 93
        1
 44
-50.0
173
     0
291
     1
 45
0.0
1001
ACAD
1000
AcDbSavedByObjectVersion
1070
     0
  0
VISUALSTYLE
  5
BD93F
102
{ACAD_XDICTIONARY
360
BDA6D
102
}
102
{ACAD_REACTORS
330
BD92C
102
}
330
BD92C
100
AcDbVisualStyle
  2
EdgeColorOff
 70
    22
 71
     2
 72
     2
 73
     0
 90
        0
 40
-0.6
 41
-30.0
 62
     5
 63
     7
 74
     1
 91
        4
 64
     7
 65
   257
 75
     1
175
     1
 42
1.0
 92
        8
 66
     7
 43
1.0
 76
     1
 77
     6
 78
     2
 67
     7
 79
     5
170
     0
171
     0
290
     0
174
     0
 93
        1
 44
0.0
173
     0
291
     1
 45
0.0
1001
ACAD
1000
AcDbSavedByObjectVersion
1070
     0
  0
VISUALSTYLE
  5
BD93B
102
{ACAD_XDICTIONARY
360
BDA65
102
}
102
{ACAD_REACTORS
330
BD92C
102
}
330
BD92C
100
AcDbVisualStyle
  2
Facepattern
 70
    15
 71
     2
 72
     2
 73
     0
 90
        0
 40
-0.6
 41
-30.0
 62
     5
 63
     7
 74
     1
 91
        4
 64
     7
 65
   257
 75
     1
175
     1
 42
1.0
 92
        8
 66
     7
 43
1.0
 76
     1
 77
     6
 78
     2
 67
     7
 79
     5
170
     0
171
     0
290
     0
174
     0
 93
        1
 44
0.0
173
     0
291
     1
 45
0.0
1001
ACAD
1000
AcDbSavedByObjectVersion
1070
     0
  0
VISUALSTYLE
  5
BD92D
102
{ACAD_XDICTIONARY
360
BDA49
102
}
102
{ACAD_REACTORS
330
BD92C
102
}
330
BD92C
100
AcDbVisualStyle
  2
Flat
 70
     0
 71
     2
 72
     1
 73
     1
 90
        2
 40
-0.6
 41
30.0
 62
     5
 63
     7
 74
     0
 91
        0
 64
     7
 65
   257
 75
     1
175
     1
 42
1.0
 92
        8
 66
     7
 43
1.0
 76
     1
 77
     6
 78
     2
 67
     7
 79
     5
170
     0
171
     0
290
     0
174
     0
 93
       13
 44
0.0
173
     0
291
     1
 45
0.0
1001
ACAD
1000
AcDbSavedByObjectVersion
1070
     0
  0
VISUALSTYLE
  5
BD92E
102
{ACAD_XDICTIONARY
360
BDA4B
102
}
102
{ACAD_REACTORS
330
BD92C
102
}
330
BD92C
100
AcDbVisualStyle
  2
FlatWithEdges
 70
     1
 71
     2
 72
     1
 73
     1
 90
        2
 40
-0.6
 41
30.0
 62
     5
 63
     7
 74
     1
 91
        0
 64
     7
 65
   257
 75
     1
175
     1
 42
1.0
 92
        0
 66
   257
 43
1.0
 76
     1
 77
     6
 78
     2
 67
     7
 79
     5
170
     0
171
     0
290
     0
174
     0
 93
       13
 44
0.0
173
     0
291
     1
 45
0.0
1001
ACAD
1000
AcDbSavedByObjectVersion
1070
     0
  0
VISUALSTYLE
  5
BD92F
102
{ACAD_XDICTIONARY
360
BDA4D
102
}
102
{ACAD_REACTORS
330
BD92C
102
}
330
BD92C
100
AcDbVisualStyle
  2
Gouraud
 70
     2
 71
     2
 72
     2
 73
     1
 90
        2
 40
-0.6
 41
30.0
 62
     5
 63
     7
 74
     0
 91
        0
 64
     7
 65
   257
 75
     1
175
     1
 42
1.0
 92
        0
 66
     7
 43
1.0
 76
     1
 77
     6
 78
     2
 67
     7
 79
     5
170
     0
171
     0
290
     0
174
     0
 93
       13
 44
0.0
173
     0
291
     1
 45
0.0
1001
ACAD
1000
AcDbSavedByObjectVersion
1070
     0
  0
VISUALSTYLE
  5
BD930
102
{ACAD_XDICTIONARY
360
BDA4F
102
}
102
{ACAD_REACTORS
330
BD92C
102
}
330
BD92C
100
AcDbVisualStyle
  2
GouraudWithEdges
 70
     3
 71
     2
 72
     2
 73
     1
 90
        2
 40
-0.6
 41
30.0
 62
     5
 63
     7
 74
     1
 91
        0
 64
     7
 65
   257
 75
     1
175
     1
 42
1.0
 92
        0
 66
   257
 43
1.0
 76
     1
 77
     6
 78
     2
 67
     7
 79
     5
170
     0
171
     0
290
     0
174
     0
 93
       13
 44
0.0
173
     0
291
     1
 45
0.0
1001
ACAD
1000
AcDbSavedByObjectVersion
1070
     0
  0
VISUALSTYLE
  5
BD933
102
{ACAD_XDICTIONARY
360
BDA55
102
}
102
{ACAD_REACTORS
330
BD92C
102
}
330
BD92C
100
AcDbVisualStyle
  2
Hidden
 70
     6
 71
     1
 72
     2
 73
     2
 90
        0
 40
-0.6
 41
-30.0
 62
     5
 63
     7
 74
     2
 91
        2
 64
     7
 65
   257
 75
     2
175
     1
 42
40.0
 92
        0
 66
   257
 43
1.0
 76
     1
 77
     6
 78
     2
 67
     7
 79
     3
170
     0
171
     0
290
     0
174
     0
 93
        1
 44
0.0
173
     0
291
     0
 45
0.0
1001
ACAD
1000
AcDbSavedByObjectVersion
1070
     0
  0
VISUALSTYLE
  5
BD93D
102
{ACAD_XDICTIONARY
360
BDA69
102
}
102
{ACAD_REACTORS
330
BD92C
102
}
330
BD92C
100
AcDbVisualStyle
  2
JitterOff
 70
    20
 71
     2
 72
     2
 73
     0
 90
        0
 40
-0.6
 41
-30.0
 62
     5
 63
     7
 74
     1
 91
        4
 64
     7
 65
   257
 75
     1
175
     1
 42
1.0
 92
       10
 66
     7
 43
1.0
 76
     1
 77
     6
 78
     2
 67
     7
 79
     5
170
     0
171
     0
290
     0
174
     0
 93
        1
 44
0.0
173
     0
291
     1
 45
0.0
1001
ACAD
1000
AcDbSavedByObjectVersion
1070
     0
  0
VISUALSTYLE
  5
BD93A
102
{ACAD_XDICTIONARY
360
BDA63
102
}
102
{ACAD_REACTORS
330
BD92C
102
}
330
BD92C
100
AcDbVisualStyle
  2
Linepattern
 70
    14
 71
     2
 72
     2
 73
     0
 90
        0
 40
-0.6
 41
-30.0
 62
     5
 63
     7
 74
     1
 91
        4
 64
     7
 65
   257
 75
     7
175
     7
 42
1.0
 92
        8
 66
     7
 43
1.0
 76
     1
 77
     6
 78
     2
 67
     7
 79
     5
170
     0
171
     0
290
     0
174
     0
 93
        1
 44
0.0
173
     0
291
     1
 45
0.0
1001
ACAD
1000
AcDbSavedByObjectVersion
1070
     0
  0
VISUALSTYLE
  5
BD93E
102
{ACAD_XDICTIONARY
360
BDA6B
102
}
102
{ACAD_REACTORS
330
BD92C
102
}
330
BD92C
100
AcDbVisualStyle
  2
OverhangOff
 70
    21
 71
     2
 72
     2
 73
     0
 90
        0
 40
-0.6
 41
-30.0
 62
     5
 63
     7
 74
     1
 91
        4
 64
     7
 65
   257
 75
     1
175
     1
 42
1.0
 92
        9
 66
     7
 43
1.0
 76
     1
 77
     6
 78
     2
 67
     7
 79
     5
170
     0
171
     0
290
     0
174
     0
 93
        1
 44
0.0
173
     0
291
     1
 45
0.0
1001
ACAD
1000
AcDbSavedByObjectVersion
1070
     0
  0
VISUALSTYLE
  5
BD935
102
{ACAD_XDICTIONARY
360
BDA59
102
}
102
{ACAD_REACTORS
330
BD92C
102
}
330
BD92C
100
AcDbVisualStyle
  2
Realistic
 70
     8
 71
     2
 72
     2
 73
     0
 90
        2
 40
-0.6
 41
30.0
 62
     5
 63
     7
 74
     0
 91
        0
 64
     7
 65
   257
 75
     1
175
     1
 42
1.0
 92
        8
 66
   257
 43
1.0
 76
     1
 77
     6
 78
     2
 67
     7
 79
     3
170
     0
171
     0
290
     0
174
     0
 93
       13
 44
0.0
173
     0
291
     0
 45
0.0
1001
ACAD
1000
AcDbSavedByObjectVersion
1070
     0
  0
VISUALSTYLE
  5
BD944
102
{ACAD_XDICTIONARY
360
BDA77
102
}
102
{ACAD_REACTORS
330
BD92C
102
}
330
BD92C
100
AcDbVisualStyle
  2
Shaded
 70
    27
 71
     2
 72
     2
 73
     1
 90
        2
 40
-0.6
 41
30.0
 62
     5
 63
     7
 74
     0
 91
        4
 64
     7
 65
   257
 75
     1
175
     1
 42
1.0
 92
        8
 66
   257
 43
1.0
 76
     1
 77
     6
 78
     2
 67
     8
 79
     3
170
     0
171
     0
290
     0
174
     0
 93
        5
 44
0.0
173
     0
291
     0
 45
0.0
1001
ACAD
1000
AcDbSavedByObjectVersion
1070
     0
  0
VISUALSTYLE
  5
BD943
102
{ACAD_XDICTIONARY
360
BDA75
102
}
102
{ACAD_REACTORS
330
BD92C
102
}
330
BD92C
100
AcDbVisualStyle
  2
Shaded with edges
 70
    26
 71
     2
 72
     2
 73
     1
 90
        2
 40
-0.6
 41
30.0
 62
     5
 63
     7
 74
     1
 91
        2
 64
     7
 65
   257
 75
     2
175
     1
 42
1.0
 92
        8
 66
   257
 43
1.0
 76
     1
 77
     6
 78
     2
 67
     7
 79
     3
170
     0
171
     0
290
     0
174
     0
 93
        5
 44
0.0
173
     0
291
     0
 45
0.0
1001
ACAD
1000
AcDbSavedByObjectVersion
1070
     0
  0
VISUALSTYLE
  5
BD940
102
{ACAD_XDICTIONARY
360
BDA6F
102
}
102
{ACAD_REACTORS
330
BD92C
102
}
330
BD92C
100
AcDbVisualStyle
  2
Shades of Gray
 70
    23
 71
     2
 72
     2
 73
     3
 90
        0
 40
-0.6
 41
-30.0
 62
     5
 63
     7
 74
     2
 91
        2
 64
     7
 65
     7
 75
     1
175
     1
 42
40.0
 92
        8
 66
     7
 43
1.0
 76
     1
 77
     6
 78
     2
 67
     7
 79
     3
170
     0
171
     0
290
     0
174
     0
 93
        1
 44
0.0
173
     0
291
     0
 45
0.0
1001
ACAD
1000
AcDbSavedByObjectVersion
1070
     0
  0
VISUALSTYLE
  5
BD941
102
{ACAD_XDICTIONARY
360
BDA71
102
}
102
{ACAD_REACTORS
330
BD92C
102
}
330
BD92C
100
AcDbVisualStyle
  2
Sketchy
 70
    24
 71
     1
 72
     2
 73
     2
 90
        0
 40
-0.6
 41
-30.0
 62
     5
 63
     7
 74
     2
 91
        2
 64
     7
 65
     7
 75
     1
175
     1
 42
40.0
 92
       11
 66
     7
 43
1.0
 76
     1
 77
     6
 78
     2
 67
     7
 79
     6
170
     0
171
     0
290
     0
174
     0
 93
        1
 44
0.0
173
     0
291
     0
 45
0.0
1001
ACAD
1000
AcDbSavedByObjectVersion
1070
     0
  0
VISUALSTYLE
  5
BD939
102
{ACAD_XDICTIONARY
360
BDA61
102
}
102
{ACAD_REACTORS
330
BD92C
102
}
330
BD92C
100
AcDbVisualStyle
  2
Thicken
 70
    13
 71
     2
 72
     2
 73
     0
 90
        0
 40
-0.6
 41
-30.0
 62
     5
 63
     7
 74
     1
 91
        4
 64
     7
 65
   257
 75
     1
175
     1
 42
1.0
 92
       12
 66
     7
 43
1.0
 76
     1
 77
     6
 78
     2
 67
     7
 79
     5
170
     0
171
     0
290
     0
174
     0
 93
        1
 44
0.0
173
     0
291
     1
 45
0.0
1001
ACAD
1000
AcDbSavedByObjectVersion
1070
     0
  0
VISUALSTYLE
  5
BD932
102
{ACAD_XDICTIONARY
360
BDA53
102
}
102
{ACAD_REACTORS
330
BD92C
102
}
330
BD92C
100
AcDbVisualStyle
  2
Wireframe
 70
     5
 71
     0
 72
     2
 73
     0
 90
        0
 40
-0.6
 41
-30.0
 62
     5
 63
     7
 74
     1
 91
        4
 64
     7
 65
   257
 75
     1
175
     1
 42
1.0
 92
        0
 66
   257
 43
1.0
 76
     1
 77
     6
 78
     2
 67
     7
 79
     3
170
     0
171
     0
290
     0
174
     0
 93
        1
 44
0.0
173
     0
291
     0
 45
0.0
1001
ACAD
1000
AcDbSavedByObjectVersion
1070
     0
  0
VISUALSTYLE
  5
BD942
102
{ACAD_XDICTIONARY
360
BDA73
102
}
102
{ACAD_REACTORS
330
BD92C
102
}
330
BD92C
100
AcDbVisualStyle
  2
X-Ray
 70
    25
 71
     2
 72
     2
 73
     1
 90
        1
 40
0.5
 41
-30.0
 62
     5
 63
     7
 74
     1
 91
        0
 64
     7
 65
   257
 75
     1
175
     1
 42
1.0
 92
        8
 66
     7
 43
1.0
 76
     1
 77
     6
 78
     2
 67
     7
 79
     3
170
     0
171
     0
290
     0
174
     0
 93
       13
 44
0.0
173
     0
291
     0
 45
0.0
1001
ACAD
1000
AcDbSavedByObjectVersion
1070
     0
  0
DICTIONARYVAR
  5
BD94E
102
{ACAD_REACTORS
330
11AC
102
}
330
11AC
100
DictionaryVariables
280
     0
  1
1:1
  0
DICTIONARYVAR
  5
BD950
102
{ACAD_REACTORS
330
11AC
102
}
330
11AC
100
DictionaryVariables
280
     0
  1
STANDARD
  0
DICTIONARYVAR
  5
BD94F
102
{ACAD_REACTORS
330
11AC
102
}
330
11AC
100
DictionaryVariables
280
     0
  1
STANDARD
  0
DICTIONARYVAR
  5
BDA28
102
{ACAD_REACTORS
330
11AC
102
}
330
11AC
100
DictionaryVariables
280
     0
  1
Imperial24
  0
DICTIONARYVAR
  5
BDA29
102
{ACAD_REACTORS
330
11AC
102
}
330
11AC
100
DictionaryVariables
280
     0
  1
Imperial24
  0
DICTIONARYVAR
  5
BDA2E
102
{ACAD_REACTORS
330
11AC
102
}
330
11AC
100
DictionaryVariables
280
     0
  1
2
  0
DICTIONARYVAR
  5
11AD
102
{ACAD_REACTORS
330
11AC
102
}
330
11AC
100
DictionaryVariables
280
     0
  1
1
  0
DICTIONARYVAR
  5
BDA2D
102
{ACAD_REACTORS
330
11AC
102
}
330
11AC
100
DictionaryVariables
280
     0
  1
1
  0
DICTIONARYVAR
  5
A20AE
102
{ACAD_REACTORS
330
11AC
102
}
330
11AC
100
DictionaryVariables
280
     0
  1
0
  0
DICTIONARYVAR
  5
BDA2B
102
{ACAD_REACTORS
330
11AC
102
}
330
11AC
100
DictionaryVariables
280
     0
  1
0
  0
DICTIONARYVAR
  5
BDA2C
102
{ACAD_REACTORS
330
11AC
102
}
330
11AC
100
DictionaryVariables
280
     0
  1
0
  0
DICTIONARYVAR
  5
BDA2A
102
{ACAD_REACTORS
330
11AC
102
}
330
11AC
100
DictionaryVariables
280
     0
  1
2
  0
DICTIONARYVAR
  5
BD951
102
{ACAD_REACTORS
330
11AC
102
}
330
11AC
100
DictionaryVariables
280
     0
  1
0
  0
DICTIONARYVAR
  5
AD08
102
{ACAD_REACTORS
330
11AC
102
}
330
11AC
100
DictionaryVariables
280
     0
  1
1
  0
DICTIONARYVAR
  5
BDA38
102
{ACAD_REACTORS
330
11AC
102
}
330
11AC
100
DictionaryVariables
280
     0
  1
2
  0
XRECORD
  5
BD8CF
102
{ACAD_REACTORS
330
BD8CE
102
}
330
BD8CE
100
AcDbXrecord
280
     1
  1
AcLyLayerFilter
 90
        1
300
0
301
NAME=="*0"
  0
XRECORD
  5
BD8D2
102
{ACAD_REACTORS
330
BD8CE
102
}
330
BD8CE
100
AcDbXrecord
280
     1
  1
AcLyLayerFilter
 90
        1
300
7
301
NAME=="*7"
  0
XRECORD
  5
BD8D3
102
{ACAD_REACTORS
330
BD8CE
102
}
330
BD8CE
100
AcDbXrecord
280
     1
  1
AcLyLayerFilter
 90
        1
300
kiseki
301
NAME=="kiseki*"
  0
XRECORD
  5
BD8D4
102
{ACAD_REACTORS
330
BD8CE
102
}
330
BD8CE
100
AcDbXrecord
280
     1
  1
AcLyLayerFilter
 90
        1
300
11
301
NAME=="*11"
  0
XRECORD
  5
BD8D5
102
{ACAD_REACTORS
330
BD8CE
102
}
330
BD8CE
100
AcDbXrecord
280
     1
  1
AcLyLayerFilter
 90
        1
300
150_
301
NAME=="150_*"
  0
XRECORD
  5
BD8D6
102
{ACAD_REACTORS
330
BD8CE
102
}
330
BD8CE
100
AcDbXrecord
280
     1
  1
AcLyLayerFilter
 90
        1
300
160_
301
NAME=="160_*"
  0
XRECORD
  5
BD8D7
102
{ACAD_REACTORS
330
BD8CE
102
}
330
BD8CE
100
AcDbXrecord
280
     1
  1
AcLyLayerFilter
 90
        1
300
170_
301
NAME=="170_*"
  0
XRECORD
  5
BD8D8
102
{ACAD_REACTORS
330
BD8CE
102
}
330
BD8CE
100
AcDbXrecord
280
     1
  1
AcLyLayerFilter
 90
        1
300
171_
301
NAME=="171_*"
  0
XRECORD
  5
BD8D9
102
{ACAD_REACTORS
330
BD8CE
102
}
330
BD8CE
100
AcDbXrecord
280
     1
  1
AcLyLayerFilter
 90
        1
300
350_
301
NAME=="350_*"
  0
XRECORD
  5
BD8D0
102
{ACAD_REACTORS
330
BD8CE
102
}
330
BD8CE
100
AcDbXrecord
280
     1
  1
AcLyLayerFilter
 90
        1
300
4
301
NAME=="*4"
  0
XRECORD
  5
BD8D1
102
{ACAD_REACTORS
330
BD8CE
102
}
330
BD8CE
100
AcDbXrecord
280
     1
  1
AcLyLayerFilter
 90
        1
300
5
301
NAME=="*5"
  0
DICTIONARY
  5
BDA42
330
8F584
100
AcDbDictionary
280
     1
281
     1
  3
ACAD_XREC_ROUNDTRIP
360
BDA43
  0
DICTIONARY
  5
BDA3E
330
741
100
AcDbDictionary
280
     1
281
     1
  3
ACAD_XREC_ROUNDTRIP
360
BDA3F
  0
DICTIONARY
  5
BDA44
330
BD7A6
100
AcDbDictionary
280
     1
281
     1
  3
ACAD_XREC_ROUNDTRIP
360
BDA45
  0
DICTIONARY
  5
BDA7B
330
BD947
100
AcDbDictionary
280
     1
281
     1
  3
ACAD_XREC_ROUNDTRIP
360
BDA7C
  0
DICTIONARY
  5
BDA79
330
BD946
100
AcDbDictionary
280
     1
281
     1
  3
ACAD_XREC_ROUNDTRIP
360
BDA7A
  0
DICTIONARY
  5
BDA7D
330
BD948
100
AcDbDictionary
280
     1
281
     1
  3
ACAD_XREC_ROUNDTRIP
360
BDA7E
  0
DICTIONARY
  5
BDA40
330
8F582
100
AcDbDictionary
280
     1
281
     1
  3
ACAD_XREC_ROUNDTRIP
360
BDA41
  0
DICTIONARY
  5
BD9D5
330
BD94A
100
AcDbDictionary
280
     1
281
     1
  3
ACAD_ROUNDTRIP_2008_TABLESTYLE_CELLSTYLEMAP
360
BDA39
  3
ACAD_XREC_ROUNDTRIP
360
BDA7F
  0
DICTIONARY
  5
BDA51
330
BD931
100
AcDbDictionary
280
     1
281
     1
  3
ACAD_XREC_ROUNDTRIP
360
BDA52
  0
DICTIONARY
  5
BDA57
330
BD934
100
AcDbDictionary
280
     1
281
     1
  3
ACAD_XREC_ROUNDTRIP
360
BDA58
  0
DICTIONARY
  5
BDA5F
330
BD938
100
AcDbDictionary
280
     1
281
     1
  3
ACAD_XREC_ROUNDTRIP
360
BDA60
  0
DICTIONARY
  5
BDA67
330
BD93C
100
AcDbDictionary
280
     1
281
     1
  3
ACAD_XREC_ROUNDTRIP
360
BDA68
  0
DICTIONARY
  5
BDA5B
330
BD936
100
AcDbDictionary
280
     1
281
     1
  3
ACAD_XREC_ROUNDTRIP
360
BDA5C
  0
DICTIONARY
  5
BDA5D
330
BD937
100
AcDbDictionary
280
     1
281
     1
  3
ACAD_XREC_ROUNDTRIP
360
BDA5E
  0
DICTIONARY
  5
BDA6D
330
BD93F
100
AcDbDictionary
280
     1
281
     1
  3
ACAD_XREC_ROUNDTRIP
360
BDA6E
  0
DICTIONARY
  5
BDA65
330
BD93B
100
AcDbDictionary
280
     1
281
     1
  3
ACAD_XREC_ROUNDTRIP
360
BDA66
  0
DICTIONARY
  5
BDA49
330
BD92D
100
AcDbDictionary
280
     1
281
     1
  3
ACAD_XREC_ROUNDTRIP
360
BDA4A
  0
DICTIONARY
  5
BDA4B
330
BD92E
100
AcDbDictionary
280
     1
281
     1
  3
ACAD_XREC_ROUNDTRIP
360
BDA4C
  0
DICTIONARY
  5
BDA4D
330
BD92F
100
AcDbDictionary
280
     1
281
     1
  3
ACAD_XREC_ROUNDTRIP
360
BDA4E
  0
DICTIONARY
  5
BDA4F
330
BD930
100
AcDbDictionary
280
     1
281
     1
  3
ACAD_XREC_ROUNDTRIP
360
BDA50
  0
DICTIONARY
  5
BDA55
330
BD933
100
AcDbDictionary
280
     1
281
     1
  3
ACAD_XREC_ROUNDTRIP
360
BDA56
  0
DICTIONARY
  5
BDA69
330
BD93D
100
AcDbDictionary
280
     1
281
     1
  3
ACAD_XREC_ROUNDTRIP
360
BDA6A
  0
DICTIONARY
  5
BDA63
330
BD93A
100
AcDbDictionary
280
     1
281
     1
  3
ACAD_XREC_ROUNDTRIP
360
BDA64
  0
DICTIONARY
  5
BDA6B
330
BD93E
100
AcDbDictionary
280
     1
281
     1
  3
ACAD_XREC_ROUNDTRIP
360
BDA6C
  0
DICTIONARY
  5
BDA59
330
BD935
100
AcDbDictionary
280
     1
281
     1
  3
ACAD_XREC_ROUNDTRIP
360
BDA5A
  0
DICTIONARY
  5
BDA77
330
BD944
100
AcDbDictionary
280
     1
281
     1
  3
ACAD_XREC_ROUNDTRIP
360
BDA78
  0
DICTIONARY
  5
BDA75
330
BD943
100
AcDbDictionary
280
     1
281
     1
  3
ACAD_XREC_ROUNDTRIP
360
BDA76
  0
DICTIONARY
  5
BDA6F
330
BD940
100
AcDbDictionary
280
     1
281
     1
  3
ACAD_XREC_ROUNDTRIP
360
BDA70
  0
DICTIONARY
  5
BDA71
330
BD941
100
AcDbDictionary
280
     1
281
     1
  3
ACAD_XREC_ROUNDTRIP
360
BDA72
  0
DICTIONARY
  5
BDA61
330
BD939
100
AcDbDictionary
280
     1
281
     1
  3
ACAD_XREC_ROUNDTRIP
360
BDA62
  0
DICTIONARY
  5
BDA53
330
BD932
100
AcDbDictionary
280
     1
281
     1
  3
ACAD_XREC_ROUNDTRIP
360
BDA54
  0
DICTIONARY
  5
BDA73
330
BD942
100
AcDbDictionary
280
     1
281
     1
  3
ACAD_XREC_ROUNDTRIP
360
BDA74
  0
XRECORD
  5
BDA43
102
{ACAD_REACTORS
330
BDA42
102
}
330
BDA42
100
AcDbXrecord
280
     1
102
DISPLAYNAME
  1
Imperial24
102
FLAGS
 90
        0
  0
XRECORD
  5
BDA3F
102
{ACAD_REACTORS
330
BDA3E
102
}
330
BDA3E
100
AcDbXrecord
280
     1
102
SHADEPLOT
 70
     0
102
SHADEPLOTRESLEVEL
 70
     2
102
SHADEPLOTCUSTOMDPI
 70
   300
  0
XRECORD
  5
BDA45
102
{ACAD_REACTORS
330
BDA44
102
}
330
BDA44
100
AcDbXrecord
280
     1
102
SHADEPLOT
 70
     0
102
SHADEPLOTRESLEVEL
 70
     2
102
SHADEPLOTCUSTOMDPI
 70
   300
  0
XRECORD
  5
BDA7C
102
{ACAD_REACTORS
330
BDA7B
102
}
330
BDA7B
100
AcDbXrecord
280
     1
102
MATERIAL
148
0.0
149
0.0
149
0.0
 93
        0
 94
      127
282
     0
 72
     1
 77
     1
171
     1
175
     1
179
     1
273
     0
  0
XRECORD
  5
BDA7A
102
{ACAD_REACTORS
330
BDA79
102
}
330
BDA79
100
AcDbXrecord
280
     1
102
MATERIAL
148
0.0
149
0.0
149
0.0
 93
        0
 94
      127
282
     0
 72
     1
 77
     1
171
     1
175
     1
179
     1
273
     0
  0
XRECORD
  5
BDA7E
102
{ACAD_REACTORS
330
BDA7D
102
}
330
BDA7D
100
AcDbXrecord
280
     1
102
MATERIAL
148
0.0
149
0.0
149
0.0
 93
        0
 94
      127
282
     0
 72
     1
 77
     1
171
     1
175
     1
179
     1
273
     0
  0
XRECORD
  5
BDA41
102
{ACAD_REACTORS
330
BDA40
102
}
330
BDA40
100
AcDbXrecord
280
     1
102
DISPLAYNAME
  1
Imperial24
102
FLAGS
 90
        0
  0
CELLSTYLEMAP
  5
BDA39
102
{ACAD_REACTORS
330
BD9D5
102
}
330
BD9D5
100
AcDbCellStyleMap
 90
        3
300
CELLSTYLE
  1
TABLEFORMAT_BEGIN
 90
        5
170
     1
 91
        0
 92
    32768
 62
   257
 93
        1
300
CONTENTFORMAT
  1
CONTENTFORMAT_BEGIN
 90
        0
 91
        0
 92
        4
 93
        0
300

 40
0.0
140
1.0
 94
        5
 62
     0
340
F
144
0.25
309
CONTENTFORMAT_END
171
     1
301
MARGIN
  1
CELLMARGIN_BEGIN
 40
0.06
 40
0.06
 40
0.06
 40
0.06
 40
0.06
 40
0.06
309
CELLMARGIN_END
 94
        6
 95
        1
302
GRIDFORMAT
  1
GRIDFORMAT_BEGIN
 90
        0
 91
        1
 62
     0
 92
       -2
340
12
 93
        0
 40
0.045
309
GRIDFORMAT_END
 95
        2
302
GRIDFORMAT
  1
GRIDFORMAT_BEGIN
 90
        0
 91
        1
 62
     0
 92
       -2
340
12
 93
        0
 40
0.045
309
GRIDFORMAT_END
 95
        4
302
GRIDFORMAT
  1
GRIDFORMAT_BEGIN
 90
        0
 91
        1
 62
     0
 92
       -2
340
12
 93
        0
 40
0.045
309
GRIDFORMAT_END
 95
        8
302
GRIDFORMAT
  1
GRIDFORMAT_BEGIN
 90
        0
 91
        1
 62
     0
 92
       -2
340
12
 93
        0
 40
0.045
309
GRIDFORMAT_END
 95
       16
302
GRIDFORMAT
  1
GRIDFORMAT_BEGIN
 90
        0
 91
        1
 62
     0
 92
       -2
340
12
 93
        0
 40
0.045
309
GRIDFORMAT_END
 95
       32
302
GRIDFORMAT
  1
GRIDFORMAT_BEGIN
 90
        0
 91
        1
 62
     0
 92
       -2
340
12
 93
        0
 40
0.045
309
GRIDFORMAT_END
309
TABLEFORMAT_END
  1
CELLSTYLE_BEGIN
 90
        1
 91
        1
300
_TITLE
309
CELLSTYLE_END
300
CELLSTYLE
  1
TABLEFORMAT_BEGIN
 90
        5
170
     1
 91
        0
 92
        0
 62
   257
 93
        1
300
CONTENTFORMAT
  1
CONTENTFORMAT_BEGIN
 90
        0
 91
        0
 92
        4
 93
        0
300

 40
0.0
140
1.0
 94
        5
 62
     0
340
F
144
0.18
309
CONTENTFORMAT_END
171
     1
301
MARGIN
  1
CELLMARGIN_BEGIN
 40
0.06
 40
0.06
 40
0.06
 40
0.06
 40
0.06
 40
0.06
309
CELLMARGIN_END
 94
        6
 95
        1
302
GRIDFORMAT
  1
GRIDFORMAT_BEGIN
 90
        0
 91
        1
 62
     0
 92
       -2
340
12
 93
        0
 40
0.045
309
GRIDFORMAT_END
 95
        2
302
GRIDFORMAT
  1
GRIDFORMAT_BEGIN
 90
        0
 91
        1
 62
     0
 92
       -2
340
12
 93
        0
 40
0.045
309
GRIDFORMAT_END
 95
        4
302
GRIDFORMAT
  1
GRIDFORMAT_BEGIN
 90
        0
 91
        1
 62
     0
 92
       -2
340
12
 93
        0
 40
0.045
309
GRIDFORMAT_END
 95
        8
302
GRIDFORMAT
  1
GRIDFORMAT_BEGIN
 90
        0
 91
        1
 62
     0
 92
       -2
340
12
 93
        0
 40
0.045
309
GRIDFORMAT_END
 95
       16
302
GRIDFORMAT
  1
GRIDFORMAT_BEGIN
 90
        0
 91
        1
 62
     0
 92
       -2
340
12
 93
        0
 40
0.045
309
GRIDFORMAT_END
 95
       32
302
GRIDFORMAT
  1
GRIDFORMAT_BEGIN
 90
        0
 91
        1
 62
     0
 92
       -2
340
12
 93
        0
 40
0.045
309
GRIDFORMAT_END
309
TABLEFORMAT_END
  1
CELLSTYLE_BEGIN
 90
        2
 91
        1
300
_HEADER
309
CELLSTYLE_END
300
CELLSTYLE
  1
TABLEFORMAT_BEGIN
 90
        5
170
     1
 91
        0
 92
        0
 62
   257
 93
        1
300
CONTENTFORMAT
  1
CONTENTFORMAT_BEGIN
 90
        0
 91
        0
 92
        4
 93
        0
300

 40
0.0
140
1.0
 94
        2
 62
     0
340
F
144
0.18
309
CONTENTFORMAT_END
171
     1
301
MARGIN
  1
CELLMARGIN_BEGIN
 40
0.06
 40
0.06
 40
0.06
 40
0.06
 40
0.06
 40
0.06
309
CELLMARGIN_END
 94
        6
 95
        1
302
GRIDFORMAT
  1
GRIDFORMAT_BEGIN
 90
        0
 91
        1
 62
     0
 92
       -2
340
12
 93
        0
 40
0.045
309
GRIDFORMAT_END
 95
        2
302
GRIDFORMAT
  1
GRIDFORMAT_BEGIN
 90
        0
 91
        1
 62
     0
 92
       -2
340
12
 93
        0
 40
0.045
309
GRIDFORMAT_END
 95
        4
302
GRIDFORMAT
  1
GRIDFORMAT_BEGIN
 90
        0
 91
        1
 62
     0
 92
       -2
340
12
 93
        0
 40
0.045
309
GRIDFORMAT_END
 95
        8
302
GRIDFORMAT
  1
GRIDFORMAT_BEGIN
 90
        0
 91
        1
 62
     0
 92
       -2
340
12
 93
        0
 40
0.045
309
GRIDFORMAT_END
 95
       16
302
GRIDFORMAT
  1
GRIDFORMAT_BEGIN
 90
        0
 91
        1
 62
     0
 92
       -2
340
12
 93
        0
 40
0.045
309
GRIDFORMAT_END
 95
       32
302
GRIDFORMAT
  1
GRIDFORMAT_BEGIN
 90
        0
 91
        1
 62
     0
 92
       -2
340
12
 93
        0
 40
0.045
309
GRIDFORMAT_END
309
TABLEFORMAT_END
  1
CELLSTYLE_BEGIN
 90
        3
 91
        2
300
_DATA
309
CELLSTYLE_END
  0
XRECORD
  5
BDA7F
102
{ACAD_REACTORS
330
BD9D5
102
}
330
BD9D5
100
AcDbXrecord
280
     1
102
ACAD_ROUNDTRIP_PRE2007_TABLESTYLE
 90
        4
 91
        0
  1

 92
        4
 93
        0
  2

 94
        4
 95
        0
  3

  0
XRECORD
  5
BDA52
102
{ACAD_REACTORS
330
BDA51
102
}
330
BDA51
100
AcDbXrecord
280
     1
102
RTVSPost2010Prop28
280
     1
102
RTVSPost2010PropOp28
 70
     1
102
RTVSPost2010Prop29
280
     1
102
RTVSPost2010PropOp29
 70
     1
102
RTVSPost2010Prop30
280
     0
102
RTVSPost2010PropOp30
 70
     1
102
RTVSPost2010Prop31
280
     0
102
RTVSPost2010PropOp31
 70
     1
102
RTVSPost2010Prop32
280
     0
102
RTVSPost2010PropOp32
 70
     1
102
RTVSPost2010Prop33
280
     0
102
RTVSPost2010PropOp33
 70
     1
102
RTVSPost2010Prop34
280
     0
102
RTVSPost2010PropOp34
 70
     1
102
RTVSPost2010Prop35
280
     0
102
RTVSPost2010PropOp35
 70
     1
102
RTVSPost2010Prop36
280
     0
102
RTVSPost2010PropOp36
 70
     1
102
RTVSPost2010Prop37
 90
       50
102
RTVSPost2010PropOp37
 70
     1
102
RTVSPost2010Prop38
140
0.0
102
RTVSPost2010PropOp38
 70
     1
102
RTVSPost2010Prop39
140
1.0
102
RTVSPost2010PropOp39
 70
     1
102
RTVSPost2010Prop40
 90
        0
102
RTVSPost2010PropOp40
 70
     1
102
RTVSPost2010Prop41ColorIndex
 90
       18
102
RTVSPost2010Prop41ColorRGB
 90
        0
102
RTVSPost2010PropOp41
 70
     1
102
RTVSPost2010Prop42
 90
       50
102
RTVSPost2010PropOp42
 70
     1
102
RTVSPost2010Prop43
 90
        3
102
RTVSPost2010PropOp43
 70
     1
102
RTVSPost2010Prop44ColorIndex
 90
        5
102
RTVSPost2010Prop44ColorRGB
 90
      255
102
RTVSPost2010PropOp44
 70
     1
102
RTVSPost2010Prop45
280
     0
102
RTVSPost2010PropOp45
 70
     1
102
RTVSPost2010Prop46
 90
       50
102
RTVSPost2010PropOp46
 70
     1
102
RTVSPost2010Prop47
 90
       50
102
RTVSPost2010PropOp47
 70
     1
102
RTVSPost2010Prop48
 90
       50
102
RTVSPost2010PropOp48
 70
     1
102
RTVSPost2010Prop49
280
     0
102
RTVSPost2010PropOp49
 70
     1
102
RTVSPost2010Prop50
 90
       50
102
RTVSPost2010PropOp50
 70
     1
102
RTVSPost2010Prop51ColorIndex
 90
      256
102
RTVSPost2010Prop51ColorRGB
 90
-16777216
102
RTVSPost2010PropOp51
 70
     0
102
RTVSPost2010Prop52
140
1.0
102
RTVSPost2010PropOp52
 70
     0
102
RTVSPost2010Prop53
 90
        2
102
RTVSPost2010PropOp53
 70
     1
102
RTVSPost2010Prop54
  1
strokes_ogs.tif
102
RTVSPost2010PropOp54
 70
     1
102
RTVSPost2010Prop55
280
     0
102
RTVSPost2010PropOp55
 70
     1
102
RTVSPost2010Prop56
140
1.0
102
RTVSPost2010PropOp56
 70
     1
102
RTVSPost2010Prop57
140
1.0
102
RTVSPost2010PropOp57
 70
     1
102
RTVSPropertyOp0
 70
     1
102
RTVSPropertyOp1
 70
     1
102
RTVSPropertyOp2
 70
     1
102
RTVSPropertyOp3
 70
     1
102
RTVSPropertyOp4
 70
     1
102
RTVSPropertyOp5
 70
     1
102
RTVSPropertyOp6
 70
     1
102
RTVSPropertyOp7
 70
     1
102
RTVSPropertyOp8
 70
     1
102
RTVSPropertyOp9
 70
     1
102
RTVSPropertyOp10
 70
     1
102
RTVSPropertyOp11
 70
     1
102
RTVSPropertyOp12
 70
     1
102
RTVSPropertyOp13
 70
     1
102
RTVSPropertyOp14
 70
     1
102
RTVSPropertyOp15
 70
     1
102
RTVSPropertyOp16
 70
     1
102
RTVSPropertyOp17
 70
     1
102
RTVSPropertyOp18
 70
     1
102
RTVSPropertyOp19
 70
     1
102
RTVSPropertyOp20
 70
     1
102
RTVSPropertyOp21
 70
     1
102
RTVSPropertyOp22
 70
     1
102
RTVSPropertyOp23
 70
     1
102
RTVSPropertyOp24
 70
     1
102
RTVSPropertyOp25
 70
     1
102
RTVSPropertyOp26
 70
     1
102
RTVSPropertyOp27
 70
     1
102
RTVSPropertyOp28
 70
     1
102
RTVSPropertyOp29
 70
     1
102
RTVSPropertyOp30
 70
     1
102
RTVSPropertyOp31
 70
     1
102
RTVSPropertyOp32
 70
     1
102
RTVSPropertyOp33
 70
     1
102
RTVSPropertyOp34
 70
     1
102
RTVSPropertyOp35
 70
     1
102
RTVSPropertyOp36
 70
     1
102
RTVSPropertyOp37
 70
     1
102
RTVSPropertyOp38
 70
     1
102
RTVSPropertyOp39
 70
     1
102
RTVSPropertyOp40
 70
     1
102
RTVSPropertyOp41
 70
     1
102
RTVSPropertyOp42
 70
     1
102
RTVSPropertyOp43
 70
     1
102
RTVSPropertyOp44
 70
     1
102
RTVSPropertyOp45
 70
     1
102
RTVSPropertyOp46
 70
     1
102
RTVSPropertyOp47
 70
     1
102
RTVSPropertyOp48
 70
     1
102
RTVSPropertyOp49
 70
     1
102
RTVSPropertyOp50
 70
     1
102
RTVSPropertyOp51
 70
     0
102
RTVSPropertyOp52
 70
     0
102
RTVSPropertyOp53
 70
     1
102
RTVSPropertyOp54
 70
     1
102
RTVSPropertyOp55
 70
     1
102
RTVSPropertyOp56
 70
     1
102
RTVSPropertyOp57
 70
     1
102
RTVSPropertyOp58
 70
     1
102
RTVSPropertyOp59
 70
     1
102
RTVSPropertyOp60
 70
     1
102
RTVSPropertyOp61
 70
     1
102
RTVSPropertyOp62
 70
     1
  0
XRECORD
  5
BDA58
102
{ACAD_REACTORS
330
BDA57
102
}
330
BDA57
100
AcDbXrecord
280
     1
102
RTVSPost2010Prop28
280
     0
102
RTVSPost2010PropOp28
 70
     1
102
RTVSPost2010Prop29
280
     1
102
RTVSPost2010PropOp29
 70
     1
102
RTVSPost2010Prop30
280
     1
102
RTVSPost2010PropOp30
 70
     1
102
RTVSPost2010Prop31
280
     0
102
RTVSPost2010PropOp31
 70
     1
102
RTVSPost2010Prop32
280
     0
102
RTVSPost2010PropOp32
 70
     1
102
RTVSPost2010Prop33
280
     0
102
RTVSPost2010PropOp33
 70
     1
102
RTVSPost2010Prop34
280
     0
102
RTVSPost2010PropOp34
 70
     1
102
RTVSPost2010Prop35
280
     0
102
RTVSPost2010PropOp35
 70
     1
102
RTVSPost2010Prop36
280
     0
102
RTVSPost2010PropOp36
 70
     1
102
RTVSPost2010Prop37
 90
       50
102
RTVSPost2010PropOp37
 70
     1
102
RTVSPost2010Prop38
140
0.0
102
RTVSPost2010PropOp38
 70
     1
102
RTVSPost2010Prop39
140
1.0
102
RTVSPost2010PropOp39
 70
     1
102
RTVSPost2010Prop40
 90
        0
102
RTVSPost2010PropOp40
 70
     1
102
RTVSPost2010Prop41ColorIndex
 90
       18
102
RTVSPost2010Prop41ColorRGB
 90
        0
102
RTVSPost2010PropOp41
 70
     1
102
RTVSPost2010Prop42
 90
       50
102
RTVSPost2010PropOp42
 70
     1
102
RTVSPost2010Prop43
 90
        3
102
RTVSPost2010PropOp43
 70
     1
102
RTVSPost2010Prop44ColorIndex
 90
        5
102
RTVSPost2010Prop44ColorRGB
 90
      255
102
RTVSPost2010PropOp44
 70
     1
102
RTVSPost2010Prop45
280
     0
102
RTVSPost2010PropOp45
 70
     1
102
RTVSPost2010Prop46
 90
       50
102
RTVSPost2010PropOp46
 70
     1
102
RTVSPost2010Prop47
 90
       50
102
RTVSPost2010PropOp47
 70
     1
102
RTVSPost2010Prop48
 90
       50
102
RTVSPost2010PropOp48
 70
     1
102
RTVSPost2010Prop49
280
     0
102
RTVSPost2010PropOp49
 70
     1
102
RTVSPost2010Prop50
 90
       50
102
RTVSPost2010PropOp50
 70
     1
102
RTVSPost2010Prop51ColorIndex
 90
      256
102
RTVSPost2010Prop51ColorRGB
 90
-16777216
102
RTVSPost2010PropOp51
 70
     0
102
RTVSPost2010Prop52
140
1.0
102
RTVSPost2010PropOp52
 70
     0
102
RTVSPost2010Prop53
 90
        2
102
RTVSPost2010PropOp53
 70
     1
102
RTVSPost2010Prop54
  1
strokes_ogs.tif
102
RTVSPost2010PropOp54
 70
     1
102
RTVSPost2010Prop55
280
     0
102
RTVSPost2010PropOp55
 70
     1
102
RTVSPost2010Prop56
140
1.0
102
RTVSPost2010PropOp56
 70
     1
102
RTVSPost2010Prop57
140
1.0
102
RTVSPost2010PropOp57
 70
     1
102
RTVSPropertyOp0
 70
     1
102
RTVSPropertyOp1
 70
     1
102
RTVSPropertyOp2
 70
     1
102
RTVSPropertyOp3
 70
     1
102
RTVSPropertyOp4
 70
     1
102
RTVSPropertyOp5
 70
     1
102
RTVSPropertyOp6
 70
     1
102
RTVSPropertyOp7
 70
     1
102
RTVSPropertyOp8
 70
     1
102
RTVSPropertyOp9
 70
     1
102
RTVSPropertyOp10
 70
     1
102
RTVSPropertyOp11
 70
     1
102
RTVSPropertyOp12
 70
     1
102
RTVSPropertyOp13
 70
     1
102
RTVSPropertyOp14
 70
     1
102
RTVSPropertyOp15
 70
     1
102
RTVSPropertyOp16
 70
     1
102
RTVSPropertyOp17
 70
     1
102
RTVSPropertyOp18
 70
     1
102
RTVSPropertyOp19
 70
     1
102
RTVSPropertyOp20
 70
     1
102
RTVSPropertyOp21
 70
     1
102
RTVSPropertyOp22
 70
     1
102
RTVSPropertyOp23
 70
     1
102
RTVSPropertyOp24
 70
     1
102
RTVSPropertyOp25
 70
     1
102
RTVSPropertyOp26
 70
     1
102
RTVSPropertyOp27
 70
     1
102
RTVSPropertyOp28
 70
     1
102
RTVSPropertyOp29
 70
     1
102
RTVSPropertyOp30
 70
     1
102
RTVSPropertyOp31
 70
     1
102
RTVSPropertyOp32
 70
     1
102
RTVSPropertyOp33
 70
     1
102
RTVSPropertyOp34
 70
     1
102
RTVSPropertyOp35
 70
     1
102
RTVSPropertyOp36
 70
     1
102
RTVSPropertyOp37
 70
     1
102
RTVSPropertyOp38
 70
     1
102
RTVSPropertyOp39
 70
     1
102
RTVSPropertyOp40
 70
     1
102
RTVSPropertyOp41
 70
     1
102
RTVSPropertyOp42
 70
     1
102
RTVSPropertyOp43
 70
     1
102
RTVSPropertyOp44
 70
     1
102
RTVSPropertyOp45
 70
     1
102
RTVSPropertyOp46
 70
     1
102
RTVSPropertyOp47
 70
     1
102
RTVSPropertyOp48
 70
     1
102
RTVSPropertyOp49
 70
     1
102
RTVSPropertyOp50
 70
     1
102
RTVSPropertyOp51
 70
     0
102
RTVSPropertyOp52
 70
     0
102
RTVSPropertyOp53
 70
     1
102
RTVSPropertyOp54
 70
     1
102
RTVSPropertyOp55
 70
     1
102
RTVSPropertyOp56
 70
     1
102
RTVSPropertyOp57
 70
     1
102
RTVSPropertyOp58
 70
     1
102
RTVSPropertyOp59
 70
     1
102
RTVSPropertyOp60
 70
     1
102
RTVSPropertyOp61
 70
     1
102
RTVSPropertyOp62
 70
     1
  0
XRECORD
  5
BDA60
102
{ACAD_REACTORS
330
BDA5F
102
}
330
BDA5F
100
AcDbXrecord
280
     1
102
RTVSPost2010Prop28
280
     0
102
RTVSPost2010PropOp28
 70
     1
102
RTVSPost2010Prop29
280
     1
102
RTVSPost2010PropOp29
 70
     1
102
RTVSPost2010Prop30
280
     1
102
RTVSPost2010PropOp30
 70
     1
102
RTVSPost2010Prop31
280
     0
102
RTVSPost2010PropOp31
 70
     1
102
RTVSPost2010Prop32
280
     0
102
RTVSPost2010PropOp32
 70
     1
102
RTVSPost2010Prop33
280
     0
102
RTVSPost2010PropOp33
 70
     1
102
RTVSPost2010Prop34
280
     0
102
RTVSPost2010PropOp34
 70
     1
102
RTVSPost2010Prop35
280
     0
102
RTVSPost2010PropOp35
 70
     1
102
RTVSPost2010Prop36
280
     0
102
RTVSPost2010PropOp36
 70
     1
102
RTVSPost2010Prop37
 90
       50
102
RTVSPost2010PropOp37
 70
     1
102
RTVSPost2010Prop38
140
0.0
102
RTVSPost2010PropOp38
 70
     1
102
RTVSPost2010Prop39
140
1.0
102
RTVSPost2010PropOp39
 70
     1
102
RTVSPost2010Prop40
 90
        0
102
RTVSPost2010PropOp40
 70
     1
102
RTVSPost2010Prop41ColorIndex
 90
       18
102
RTVSPost2010Prop41ColorRGB
 90
        0
102
RTVSPost2010PropOp41
 70
     1
102
RTVSPost2010Prop42
 90
       50
102
RTVSPost2010PropOp42
 70
     1
102
RTVSPost2010Prop43
 90
        3
102
RTVSPost2010PropOp43
 70
     1
102
RTVSPost2010Prop44ColorIndex
 90
        5
102
RTVSPost2010Prop44ColorRGB
 90
      255
102
RTVSPost2010PropOp44
 70
     1
102
RTVSPost2010Prop45
280
     0
102
RTVSPost2010PropOp45
 70
     1
102
RTVSPost2010Prop46
 90
       50
102
RTVSPost2010PropOp46
 70
     1
102
RTVSPost2010Prop47
 90
       50
102
RTVSPost2010PropOp47
 70
     1
102
RTVSPost2010Prop48
 90
       50
102
RTVSPost2010PropOp48
 70
     1
102
RTVSPost2010Prop49
280
     0
102
RTVSPost2010PropOp49
 70
     1
102
RTVSPost2010Prop50
 90
       50
102
RTVSPost2010PropOp50
 70
     1
102
RTVSPost2010Prop51ColorIndex
 90
      256
102
RTVSPost2010Prop51ColorRGB
 90
-16777216
102
RTVSPost2010PropOp51
 70
     0
102
RTVSPost2010Prop52
140
1.0
102
RTVSPost2010PropOp52
 70
     0
102
RTVSPost2010Prop53
 90
        2
102
RTVSPost2010PropOp53
 70
     1
102
RTVSPost2010Prop54
  1
strokes_ogs.tif
102
RTVSPost2010PropOp54
 70
     1
102
RTVSPost2010Prop55
280
     0
102
RTVSPost2010PropOp55
 70
     1
102
RTVSPost2010Prop56
140
1.0
102
RTVSPost2010PropOp56
 70
     1
102
RTVSPost2010Prop57
140
1.0
102
RTVSPost2010PropOp57
 70
     1
102
RTVSPropertyOp0
 70
     1
102
RTVSPropertyOp1
 70
     1
102
RTVSPropertyOp2
 70
     1
102
RTVSPropertyOp3
 70
     1
102
RTVSPropertyOp4
 70
     1
102
RTVSPropertyOp5
 70
     1
102
RTVSPropertyOp6
 70
     1
102
RTVSPropertyOp7
 70
     1
102
RTVSPropertyOp8
 70
     1
102
RTVSPropertyOp9
 70
     1
102
RTVSPropertyOp10
 70
     1
102
RTVSPropertyOp11
 70
     1
102
RTVSPropertyOp12
 70
     1
102
RTVSPropertyOp13
 70
     1
102
RTVSPropertyOp14
 70
     1
102
RTVSPropertyOp15
 70
     1
102
RTVSPropertyOp16
 70
     1
102
RTVSPropertyOp17
 70
     1
102
RTVSPropertyOp18
 70
     1
102
RTVSPropertyOp19
 70
     1
102
RTVSPropertyOp20
 70
     1
102
RTVSPropertyOp21
 70
     1
102
RTVSPropertyOp22
 70
     1
102
RTVSPropertyOp23
 70
     1
102
RTVSPropertyOp24
 70
     1
102
RTVSPropertyOp25
 70
     1
102
RTVSPropertyOp26
 70
     1
102
RTVSPropertyOp27
 70
     1
102
RTVSPropertyOp28
 70
     1
102
RTVSPropertyOp29
 70
     1
102
RTVSPropertyOp30
 70
     1
102
RTVSPropertyOp31
 70
     1
102
RTVSPropertyOp32
 70
     1
102
RTVSPropertyOp33
 70
     1
102
RTVSPropertyOp34
 70
     1
102
RTVSPropertyOp35
 70
     1
102
RTVSPropertyOp36
 70
     1
102
RTVSPropertyOp37
 70
     1
102
RTVSPropertyOp38
 70
     1
102
RTVSPropertyOp39
 70
     1
102
RTVSPropertyOp40
 70
     1
102
RTVSPropertyOp41
 70
     1
102
RTVSPropertyOp42
 70
     1
102
RTVSPropertyOp43
 70
     1
102
RTVSPropertyOp44
 70
     1
102
RTVSPropertyOp45
 70
     1
102
RTVSPropertyOp46
 70
     1
102
RTVSPropertyOp47
 70
     1
102
RTVSPropertyOp48
 70
     1
102
RTVSPropertyOp49
 70
     1
102
RTVSPropertyOp50
 70
     1
102
RTVSPropertyOp51
 70
     0
102
RTVSPropertyOp52
 70
     0
102
RTVSPropertyOp53
 70
     1
102
RTVSPropertyOp54
 70
     1
102
RTVSPropertyOp55
 70
     1
102
RTVSPropertyOp56
 70
     1
102
RTVSPropertyOp57
 70
     1
102
RTVSPropertyOp58
 70
     1
102
RTVSPropertyOp59
 70
     1
102
RTVSPropertyOp60
 70
     1
102
RTVSPropertyOp61
 70
     1
102
RTVSPropertyOp62
 70
     1
  0
XRECORD
  5
BDA68
102
{ACAD_REACTORS
330
BDA67
102
}
330
BDA67
100
AcDbXrecord
280
     1
102
RTVSPost2010Prop28
280
     0
102
RTVSPost2010PropOp28
 70
     1
102
RTVSPost2010Prop29
280
     1
102
RTVSPost2010PropOp29
 70
     1
102
RTVSPost2010Prop30
280
     1
102
RTVSPost2010PropOp30
 70
     1
102
RTVSPost2010Prop31
280
     0
102
RTVSPost2010PropOp31
 70
     1
102
RTVSPost2010Prop32
280
     0
102
RTVSPost2010PropOp32
 70
     1
102
RTVSPost2010Prop33
280
     0
102
RTVSPost2010PropOp33
 70
     1
102
RTVSPost2010Prop34
280
     0
102
RTVSPost2010PropOp34
 70
     1
102
RTVSPost2010Prop35
280
     0
102
RTVSPost2010PropOp35
 70
     1
102
RTVSPost2010Prop36
280
     0
102
RTVSPost2010PropOp36
 70
     1
102
RTVSPost2010Prop37
 90
       50
102
RTVSPost2010PropOp37
 70
     1
102
RTVSPost2010Prop38
140
0.0
102
RTVSPost2010PropOp38
 70
     1
102
RTVSPost2010Prop39
140
1.0
102
RTVSPost2010PropOp39
 70
     1
102
RTVSPost2010Prop40
 90
        0
102
RTVSPost2010PropOp40
 70
     1
102
RTVSPost2010Prop41ColorIndex
 90
       18
102
RTVSPost2010Prop41ColorRGB
 90
        0
102
RTVSPost2010PropOp41
 70
     1
102
RTVSPost2010Prop42
 90
       50
102
RTVSPost2010PropOp42
 70
     1
102
RTVSPost2010Prop43
 90
        3
102
RTVSPost2010PropOp43
 70
     1
102
RTVSPost2010Prop44ColorIndex
 90
        5
102
RTVSPost2010Prop44ColorRGB
 90
      255
102
RTVSPost2010PropOp44
 70
     1
102
RTVSPost2010Prop45
280
     0
102
RTVSPost2010PropOp45
 70
     1
102
RTVSPost2010Prop46
 90
       50
102
RTVSPost2010PropOp46
 70
     1
102
RTVSPost2010Prop47
 90
       50
102
RTVSPost2010PropOp47
 70
     1
102
RTVSPost2010Prop48
 90
       50
102
RTVSPost2010PropOp48
 70
     1
102
RTVSPost2010Prop49
280
     0
102
RTVSPost2010PropOp49
 70
     1
102
RTVSPost2010Prop50
 90
       50
102
RTVSPost2010PropOp50
 70
     1
102
RTVSPost2010Prop51ColorIndex
 90
      256
102
RTVSPost2010Prop51ColorRGB
 90
-16777216
102
RTVSPost2010PropOp51
 70
     0
102
RTVSPost2010Prop52
140
1.0
102
RTVSPost2010PropOp52
 70
     0
102
RTVSPost2010Prop53
 90
        2
102
RTVSPost2010PropOp53
 70
     1
102
RTVSPost2010Prop54
  1
strokes_ogs.tif
102
RTVSPost2010PropOp54
 70
     1
102
RTVSPost2010Prop55
280
     0
102
RTVSPost2010PropOp55
 70
     1
102
RTVSPost2010Prop56
140
1.0
102
RTVSPost2010PropOp56
 70
     1
102
RTVSPost2010Prop57
140
1.0
102
RTVSPost2010PropOp57
 70
     1
102
RTVSPropertyOp0
 70
     1
102
RTVSPropertyOp1
 70
     1
102
RTVSPropertyOp2
 70
     1
102
RTVSPropertyOp3
 70
     1
102
RTVSPropertyOp4
 70
     1
102
RTVSPropertyOp5
 70
     1
102
RTVSPropertyOp6
 70
     1
102
RTVSPropertyOp7
 70
     1
102
RTVSPropertyOp8
 70
     1
102
RTVSPropertyOp9
 70
     1
102
RTVSPropertyOp10
 70
     1
102
RTVSPropertyOp11
 70
     1
102
RTVSPropertyOp12
 70
     1
102
RTVSPropertyOp13
 70
     1
102
RTVSPropertyOp14
 70
     1
102
RTVSPropertyOp15
 70
     1
102
RTVSPropertyOp16
 70
     1
102
RTVSPropertyOp17
 70
     1
102
RTVSPropertyOp18
 70
     1
102
RTVSPropertyOp19
 70
     1
102
RTVSPropertyOp20
 70
     1
102
RTVSPropertyOp21
 70
     1
102
RTVSPropertyOp22
 70
     1
102
RTVSPropertyOp23
 70
     1
102
RTVSPropertyOp24
 70
     1
102
RTVSPropertyOp25
 70
     1
102
RTVSPropertyOp26
 70
     1
102
RTVSPropertyOp27
 70
     1
102
RTVSPropertyOp28
 70
     1
102
RTVSPropertyOp29
 70
     1
102
RTVSPropertyOp30
 70
     1
102
RTVSPropertyOp31
 70
     1
102
RTVSPropertyOp32
 70
     1
102
RTVSPropertyOp33
 70
     1
102
RTVSPropertyOp34
 70
     1
102
RTVSPropertyOp35
 70
     1
102
RTVSPropertyOp36
 70
     1
102
RTVSPropertyOp37
 70
     1
102
RTVSPropertyOp38
 70
     1
102
RTVSPropertyOp39
 70
     1
102
RTVSPropertyOp40
 70
     1
102
RTVSPropertyOp41
 70
     1
102
RTVSPropertyOp42
 70
     1
102
RTVSPropertyOp43
 70
     1
102
RTVSPropertyOp44
 70
     1
102
RTVSPropertyOp45
 70
     1
102
RTVSPropertyOp46
 70
     1
102
RTVSPropertyOp47
 70
     1
102
RTVSPropertyOp48
 70
     1
102
RTVSPropertyOp49
 70
     1
102
RTVSPropertyOp50
 70
     1
102
RTVSPropertyOp51
 70
     0
102
RTVSPropertyOp52
 70
     0
102
RTVSPropertyOp53
 70
     1
102
RTVSPropertyOp54
 70
     1
102
RTVSPropertyOp55
 70
     1
102
RTVSPropertyOp56
 70
     1
102
RTVSPropertyOp57
 70
     1
102
RTVSPropertyOp58
 70
     1
102
RTVSPropertyOp59
 70
     1
102
RTVSPropertyOp60
 70
     1
102
RTVSPropertyOp61
 70
     1
102
RTVSPropertyOp62
 70
     1
  0
XRECORD
  5
BDA5C
102
{ACAD_REACTORS
330
BDA5B
102
}
330
BDA5B
100
AcDbXrecord
280
     1
102
RTVSPost2010Prop28
280
     0
102
RTVSPost2010PropOp28
 70
     1
102
RTVSPost2010Prop29
280
     1
102
RTVSPost2010PropOp29
 70
     1
102
RTVSPost2010Prop30
280
     1
102
RTVSPost2010PropOp30
 70
     1
102
RTVSPost2010Prop31
280
     0
102
RTVSPost2010PropOp31
 70
     1
102
RTVSPost2010Prop32
280
     0
102
RTVSPost2010PropOp32
 70
     1
102
RTVSPost2010Prop33
280
     0
102
RTVSPost2010PropOp33
 70
     1
102
RTVSPost2010Prop34
280
     0
102
RTVSPost2010PropOp34
 70
     1
102
RTVSPost2010Prop35
280
     0
102
RTVSPost2010PropOp35
 70
     1
102
RTVSPost2010Prop36
280
     0
102
RTVSPost2010PropOp36
 70
     1
102
RTVSPost2010Prop37
 90
       50
102
RTVSPost2010PropOp37
 70
     1
102
RTVSPost2010Prop38
140
0.0
102
RTVSPost2010PropOp38
 70
     1
102
RTVSPost2010Prop39
140
1.0
102
RTVSPost2010PropOp39
 70
     1
102
RTVSPost2010Prop40
 90
        0
102
RTVSPost2010PropOp40
 70
     1
102
RTVSPost2010Prop41ColorIndex
 90
       18
102
RTVSPost2010Prop41ColorRGB
 90
        0
102
RTVSPost2010PropOp41
 70
     1
102
RTVSPost2010Prop42
 90
       50
102
RTVSPost2010PropOp42
 70
     1
102
RTVSPost2010Prop43
 90
        3
102
RTVSPost2010PropOp43
 70
     1
102
RTVSPost2010Prop44ColorIndex
 90
        5
102
RTVSPost2010Prop44ColorRGB
 90
      255
102
RTVSPost2010PropOp44
 70
     1
102
RTVSPost2010Prop45
280
     0
102
RTVSPost2010PropOp45
 70
     1
102
RTVSPost2010Prop46
 90
       50
102
RTVSPost2010PropOp46
 70
     1
102
RTVSPost2010Prop47
 90
       50
102
RTVSPost2010PropOp47
 70
     1
102
RTVSPost2010Prop48
 90
       50
102
RTVSPost2010PropOp48
 70
     1
102
RTVSPost2010Prop49
280
     0
102
RTVSPost2010PropOp49
 70
     1
102
RTVSPost2010Prop50
 90
       50
102
RTVSPost2010PropOp50
 70
     1
102
RTVSPost2010Prop51ColorIndex
 90
      256
102
RTVSPost2010Prop51ColorRGB
 90
-16777216
102
RTVSPost2010PropOp51
 70
     0
102
RTVSPost2010Prop52
140
1.0
102
RTVSPost2010PropOp52
 70
     0
102
RTVSPost2010Prop53
 90
        2
102
RTVSPost2010PropOp53
 70
     1
102
RTVSPost2010Prop54
  1
strokes_ogs.tif
102
RTVSPost2010PropOp54
 70
     1
102
RTVSPost2010Prop55
280
     0
102
RTVSPost2010PropOp55
 70
     1
102
RTVSPost2010Prop56
140
1.0
102
RTVSPost2010PropOp56
 70
     1
102
RTVSPost2010Prop57
140
1.0
102
RTVSPost2010PropOp57
 70
     1
102
RTVSPropertyOp0
 70
     1
102
RTVSPropertyOp1
 70
     1
102
RTVSPropertyOp2
 70
     1
102
RTVSPropertyOp3
 70
     1
102
RTVSPropertyOp4
 70
     1
102
RTVSPropertyOp5
 70
     1
102
RTVSPropertyOp6
 70
     1
102
RTVSPropertyOp7
 70
     1
102
RTVSPropertyOp8
 70
     1
102
RTVSPropertyOp9
 70
     1
102
RTVSPropertyOp10
 70
     1
102
RTVSPropertyOp11
 70
     1
102
RTVSPropertyOp12
 70
     1
102
RTVSPropertyOp13
 70
     1
102
RTVSPropertyOp14
 70
     1
102
RTVSPropertyOp15
 70
     1
102
RTVSPropertyOp16
 70
     1
102
RTVSPropertyOp17
 70
     1
102
RTVSPropertyOp18
 70
     1
102
RTVSPropertyOp19
 70
     1
102
RTVSPropertyOp20
 70
     1
102
RTVSPropertyOp21
 70
     1
102
RTVSPropertyOp22
 70
     1
102
RTVSPropertyOp23
 70
     1
102
RTVSPropertyOp24
 70
     1
102
RTVSPropertyOp25
 70
     1
102
RTVSPropertyOp26
 70
     1
102
RTVSPropertyOp27
 70
     1
102
RTVSPropertyOp28
 70
     1
102
RTVSPropertyOp29
 70
     1
102
RTVSPropertyOp30
 70
     1
102
RTVSPropertyOp31
 70
     1
102
RTVSPropertyOp32
 70
     1
102
RTVSPropertyOp33
 70
     1
102
RTVSPropertyOp34
 70
     1
102
RTVSPropertyOp35
 70
     1
102
RTVSPropertyOp36
 70
     1
102
RTVSPropertyOp37
 70
     1
102
RTVSPropertyOp38
 70
     1
102
RTVSPropertyOp39
 70
     1
102
RTVSPropertyOp40
 70
     1
102
RTVSPropertyOp41
 70
     1
102
RTVSPropertyOp42
 70
     1
102
RTVSPropertyOp43
 70
     1
102
RTVSPropertyOp44
 70
     1
102
RTVSPropertyOp45
 70
     1
102
RTVSPropertyOp46
 70
     1
102
RTVSPropertyOp47
 70
     1
102
RTVSPropertyOp48
 70
     1
102
RTVSPropertyOp49
 70
     1
102
RTVSPropertyOp50
 70
     1
102
RTVSPropertyOp51
 70
     0
102
RTVSPropertyOp52
 70
     0
102
RTVSPropertyOp53
 70
     1
102
RTVSPropertyOp54
 70
     1
102
RTVSPropertyOp55
 70
     1
102
RTVSPropertyOp56
 70
     1
102
RTVSPropertyOp57
 70
     1
102
RTVSPropertyOp58
 70
     1
102
RTVSPropertyOp59
 70
     1
102
RTVSPropertyOp60
 70
     1
102
RTVSPropertyOp61
 70
     1
102
RTVSPropertyOp62
 70
     1
  0
XRECORD
  5
BDA5E
102
{ACAD_REACTORS
330
BDA5D
102
}
330
BDA5D
100
AcDbXrecord
280
     1
102
RTVSPost2010Prop28
280
     0
102
RTVSPost2010PropOp28
 70
     1
102
RTVSPost2010Prop29
280
     1
102
RTVSPost2010PropOp29
 70
     1
102
RTVSPost2010Prop30
280
     1
102
RTVSPost2010PropOp30
 70
     1
102
RTVSPost2010Prop31
280
     0
102
RTVSPost2010PropOp31
 70
     1
102
RTVSPost2010Prop32
280
     0
102
RTVSPost2010PropOp32
 70
     1
102
RTVSPost2010Prop33
280
     0
102
RTVSPost2010PropOp33
 70
     1
102
RTVSPost2010Prop34
280
     0
102
RTVSPost2010PropOp34
 70
     1
102
RTVSPost2010Prop35
280
     0
102
RTVSPost2010PropOp35
 70
     1
102
RTVSPost2010Prop36
280
     0
102
RTVSPost2010PropOp36
 70
     1
102
RTVSPost2010Prop37
 90
       50
102
RTVSPost2010PropOp37
 70
     1
102
RTVSPost2010Prop38
140
0.0
102
RTVSPost2010PropOp38
 70
     1
102
RTVSPost2010Prop39
140
1.0
102
RTVSPost2010PropOp39
 70
     1
102
RTVSPost2010Prop40
 90
        0
102
RTVSPost2010PropOp40
 70
     1
102
RTVSPost2010Prop41ColorIndex
 90
       18
102
RTVSPost2010Prop41ColorRGB
 90
        0
102
RTVSPost2010PropOp41
 70
     1
102
RTVSPost2010Prop42
 90
       50
102
RTVSPost2010PropOp42
 70
     1
102
RTVSPost2010Prop43
 90
        3
102
RTVSPost2010PropOp43
 70
     1
102
RTVSPost2010Prop44ColorIndex
 90
        5
102
RTVSPost2010Prop44ColorRGB
 90
      255
102
RTVSPost2010PropOp44
 70
     1
102
RTVSPost2010Prop45
280
     0
102
RTVSPost2010PropOp45
 70
     1
102
RTVSPost2010Prop46
 90
       50
102
RTVSPost2010PropOp46
 70
     1
102
RTVSPost2010Prop47
 90
       50
102
RTVSPost2010PropOp47
 70
     1
102
RTVSPost2010Prop48
 90
       50
102
RTVSPost2010PropOp48
 70
     1
102
RTVSPost2010Prop49
280
     0
102
RTVSPost2010PropOp49
 70
     1
102
RTVSPost2010Prop50
 90
       50
102
RTVSPost2010PropOp50
 70
     1
102
RTVSPost2010Prop51ColorIndex
 90
      256
102
RTVSPost2010Prop51ColorRGB
 90
-16777216
102
RTVSPost2010PropOp51
 70
     0
102
RTVSPost2010Prop52
140
1.0
102
RTVSPost2010PropOp52
 70
     0
102
RTVSPost2010Prop53
 90
        2
102
RTVSPost2010PropOp53
 70
     1
102
RTVSPost2010Prop54
  1
strokes_ogs.tif
102
RTVSPost2010PropOp54
 70
     1
102
RTVSPost2010Prop55
280
     0
102
RTVSPost2010PropOp55
 70
     1
102
RTVSPost2010Prop56
140
1.0
102
RTVSPost2010PropOp56
 70
     1
102
RTVSPost2010Prop57
140
1.0
102
RTVSPost2010PropOp57
 70
     1
102
RTVSPropertyOp0
 70
     1
102
RTVSPropertyOp1
 70
     1
102
RTVSPropertyOp2
 70
     1
102
RTVSPropertyOp3
 70
     1
102
RTVSPropertyOp4
 70
     1
102
RTVSPropertyOp5
 70
     1
102
RTVSPropertyOp6
 70
     1
102
RTVSPropertyOp7
 70
     1
102
RTVSPropertyOp8
 70
     1
102
RTVSPropertyOp9
 70
     1
102
RTVSPropertyOp10
 70
     1
102
RTVSPropertyOp11
 70
     1
102
RTVSPropertyOp12
 70
     1
102
RTVSPropertyOp13
 70
     1
102
RTVSPropertyOp14
 70
     1
102
RTVSPropertyOp15
 70
     1
102
RTVSPropertyOp16
 70
     1
102
RTVSPropertyOp17
 70
     1
102
RTVSPropertyOp18
 70
     1
102
RTVSPropertyOp19
 70
     1
102
RTVSPropertyOp20
 70
     1
102
RTVSPropertyOp21
 70
     1
102
RTVSPropertyOp22
 70
     1
102
RTVSPropertyOp23
 70
     1
102
RTVSPropertyOp24
 70
     1
102
RTVSPropertyOp25
 70
     1
102
RTVSPropertyOp26
 70
     1
102
RTVSPropertyOp27
 70
     1
102
RTVSPropertyOp28
 70
     1
102
RTVSPropertyOp29
 70
     1
102
RTVSPropertyOp30
 70
     1
102
RTVSPropertyOp31
 70
     1
102
RTVSPropertyOp32
 70
     1
102
RTVSPropertyOp33
 70
     1
102
RTVSPropertyOp34
 70
     1
102
RTVSPropertyOp35
 70
     1
102
RTVSPropertyOp36
 70
     1
102
RTVSPropertyOp37
 70
     1
102
RTVSPropertyOp38
 70
     1
102
RTVSPropertyOp39
 70
     1
102
RTVSPropertyOp40
 70
     1
102
RTVSPropertyOp41
 70
     1
102
RTVSPropertyOp42
 70
     1
102
RTVSPropertyOp43
 70
     1
102
RTVSPropertyOp44
 70
     1
102
RTVSPropertyOp45
 70
     1
102
RTVSPropertyOp46
 70
     1
102
RTVSPropertyOp47
 70
     1
102
RTVSPropertyOp48
 70
     1
102
RTVSPropertyOp49
 70
     1
102
RTVSPropertyOp50
 70
     1
102
RTVSPropertyOp51
 70
     0
102
RTVSPropertyOp52
 70
     0
102
RTVSPropertyOp53
 70
     1
102
RTVSPropertyOp54
 70
     1
102
RTVSPropertyOp55
 70
     1
102
RTVSPropertyOp56
 70
     1
102
RTVSPropertyOp57
 70
     1
102
RTVSPropertyOp58
 70
     1
102
RTVSPropertyOp59
 70
     1
102
RTVSPropertyOp60
 70
     1
102
RTVSPropertyOp61
 70
     1
102
RTVSPropertyOp62
 70
     1
  0
XRECORD
  5
BDA6E
102
{ACAD_REACTORS
330
BDA6D
102
}
330
BDA6D
100
AcDbXrecord
280
     1
102
RTVSPost2010Prop28
280
     0
102
RTVSPost2010PropOp28
 70
     0
102
RTVSPost2010Prop29
280
     1
102
RTVSPost2010PropOp29
 70
     0
102
RTVSPost2010Prop30
280
     1
102
RTVSPost2010PropOp30
 70
     0
102
RTVSPost2010Prop31
280
     0
102
RTVSPost2010PropOp31
 70
     0
102
RTVSPost2010Prop32
280
     0
102
RTVSPost2010PropOp32
 70
     0
102
RTVSPost2010Prop33
280
     0
102
RTVSPost2010PropOp33
 70
     0
102
RTVSPost2010Prop34
280
     0
102
RTVSPost2010PropOp34
 70
     0
102
RTVSPost2010Prop35
280
     0
102
RTVSPost2010PropOp35
 70
     0
102
RTVSPost2010Prop36
280
     0
102
RTVSPost2010PropOp36
 70
     0
102
RTVSPost2010Prop37
 90
       50
102
RTVSPost2010PropOp37
 70
     0
102
RTVSPost2010Prop38
140
0.0
102
RTVSPost2010PropOp38
 70
     0
102
RTVSPost2010Prop39
140
1.0
102
RTVSPost2010PropOp39
 70
     0
102
RTVSPost2010Prop40
 90
        0
102
RTVSPost2010PropOp40
 70
     0
102
RTVSPost2010Prop41ColorIndex
 90
       18
102
RTVSPost2010Prop41ColorRGB
 90
        0
102
RTVSPost2010PropOp41
 70
     0
102
RTVSPost2010Prop42
 90
       50
102
RTVSPost2010PropOp42
 70
     0
102
RTVSPost2010Prop43
 90
        3
102
RTVSPost2010PropOp43
 70
     0
102
RTVSPost2010Prop44ColorIndex
 90
        5
102
RTVSPost2010Prop44ColorRGB
 90
      255
102
RTVSPost2010PropOp44
 70
     0
102
RTVSPost2010Prop45
280
     0
102
RTVSPost2010PropOp45
 70
     0
102
RTVSPost2010Prop46
 90
       50
102
RTVSPost2010PropOp46
 70
     0
102
RTVSPost2010Prop47
 90
       50
102
RTVSPost2010PropOp47
 70
     0
102
RTVSPost2010Prop48
 90
       50
102
RTVSPost2010PropOp48
 70
     0
102
RTVSPost2010Prop49
280
     0
102
RTVSPost2010PropOp49
 70
     0
102
RTVSPost2010Prop50
 90
       50
102
RTVSPost2010PropOp50
 70
     0
102
RTVSPost2010Prop51ColorIndex
 90
      256
102
RTVSPost2010Prop51ColorRGB
 90
-16777216
102
RTVSPost2010PropOp51
 70
     0
102
RTVSPost2010Prop52
140
1.0
102
RTVSPost2010PropOp52
 70
     0
102
RTVSPost2010Prop53
 90
        2
102
RTVSPost2010PropOp53
 70
     0
102
RTVSPost2010Prop54
  1
strokes_ogs.tif
102
RTVSPost2010PropOp54
 70
     0
102
RTVSPost2010Prop55
280
     0
102
RTVSPost2010PropOp55
 70
     0
102
RTVSPost2010Prop56
140
1.0
102
RTVSPost2010PropOp56
 70
     0
102
RTVSPost2010Prop57
140
1.0
102
RTVSPost2010PropOp57
 70
     0
102
RTVSPropertyOp0
 70
     0
102
RTVSPropertyOp1
 70
     0
102
RTVSPropertyOp2
 70
     0
102
RTVSPropertyOp3
 70
     0
102
RTVSPropertyOp4
 70
     0
102
RTVSPropertyOp5
 70
     0
102
RTVSPropertyOp6
 70
     0
102
RTVSPropertyOp7
 70
     0
102
RTVSPropertyOp8
 70
     0
102
RTVSPropertyOp9
 70
     0
102
RTVSPropertyOp10
 70
     0
102
RTVSPropertyOp11
 70
     0
102
RTVSPropertyOp12
 70
     0
102
RTVSPropertyOp13
 70
     0
102
RTVSPropertyOp14
 70
     2
102
RTVSPropertyOp15
 70
     0
102
RTVSPropertyOp16
 70
     0
102
RTVSPropertyOp17
 70
     0
102
RTVSPropertyOp18
 70
     0
102
RTVSPropertyOp19
 70
     0
102
RTVSPropertyOp20
 70
     0
102
RTVSPropertyOp21
 70
     0
102
RTVSPropertyOp22
 70
     0
102
RTVSPropertyOp23
 70
     0
102
RTVSPropertyOp24
 70
     0
102
RTVSPropertyOp25
 70
     0
102
RTVSPropertyOp26
 70
     0
102
RTVSPropertyOp27
 70
     0
102
RTVSPropertyOp28
 70
     0
102
RTVSPropertyOp29
 70
     0
102
RTVSPropertyOp30
 70
     0
102
RTVSPropertyOp31
 70
     0
102
RTVSPropertyOp32
 70
     0
102
RTVSPropertyOp33
 70
     0
102
RTVSPropertyOp34
 70
     0
102
RTVSPropertyOp35
 70
     0
102
RTVSPropertyOp36
 70
     0
102
RTVSPropertyOp37
 70
     0
102
RTVSPropertyOp38
 70
     0
102
RTVSPropertyOp39
 70
     0
102
RTVSPropertyOp40
 70
     0
102
RTVSPropertyOp41
 70
     0
102
RTVSPropertyOp42
 70
     0
102
RTVSPropertyOp43
 70
     0
102
RTVSPropertyOp44
 70
     0
102
RTVSPropertyOp45
 70
     0
102
RTVSPropertyOp46
 70
     0
102
RTVSPropertyOp47
 70
     0
102
RTVSPropertyOp48
 70
     0
102
RTVSPropertyOp49
 70
     0
102
RTVSPropertyOp50
 70
     0
102
RTVSPropertyOp51
 70
     0
102
RTVSPropertyOp52
 70
     0
102
RTVSPropertyOp53
 70
     0
102
RTVSPropertyOp54
 70
     0
102
RTVSPropertyOp55
 70
     0
102
RTVSPropertyOp56
 70
     0
102
RTVSPropertyOp57
 70
     0
102
RTVSPropertyOp58
 70
     1
102
RTVSPropertyOp59
 70
     1
102
RTVSPropertyOp60
 70
     1
102
RTVSPropertyOp61
 70
     1
102
RTVSPropertyOp62
 70
     1
  0
XRECORD
  5
BDA66
102
{ACAD_REACTORS
330
BDA65
102
}
330
BDA65
100
AcDbXrecord
280
     1
102
RTVSPost2010Prop28
280
     0
102
RTVSPost2010PropOp28
 70
     1
102
RTVSPost2010Prop29
280
     1
102
RTVSPost2010PropOp29
 70
     1
102
RTVSPost2010Prop30
280
     1
102
RTVSPost2010PropOp30
 70
     1
102
RTVSPost2010Prop31
280
     0
102
RTVSPost2010PropOp31
 70
     1
102
RTVSPost2010Prop32
280
     0
102
RTVSPost2010PropOp32
 70
     1
102
RTVSPost2010Prop33
280
     0
102
RTVSPost2010PropOp33
 70
     1
102
RTVSPost2010Prop34
280
     0
102
RTVSPost2010PropOp34
 70
     1
102
RTVSPost2010Prop35
280
     0
102
RTVSPost2010PropOp35
 70
     1
102
RTVSPost2010Prop36
280
     0
102
RTVSPost2010PropOp36
 70
     1
102
RTVSPost2010Prop37
 90
       50
102
RTVSPost2010PropOp37
 70
     1
102
RTVSPost2010Prop38
140
0.0
102
RTVSPost2010PropOp38
 70
     1
102
RTVSPost2010Prop39
140
1.0
102
RTVSPost2010PropOp39
 70
     1
102
RTVSPost2010Prop40
 90
        0
102
RTVSPost2010PropOp40
 70
     1
102
RTVSPost2010Prop41ColorIndex
 90
       18
102
RTVSPost2010Prop41ColorRGB
 90
        0
102
RTVSPost2010PropOp41
 70
     1
102
RTVSPost2010Prop42
 90
       50
102
RTVSPost2010PropOp42
 70
     1
102
RTVSPost2010Prop43
 90
        3
102
RTVSPost2010PropOp43
 70
     1
102
RTVSPost2010Prop44ColorIndex
 90
        5
102
RTVSPost2010Prop44ColorRGB
 90
      255
102
RTVSPost2010PropOp44
 70
     1
102
RTVSPost2010Prop45
280
     0
102
RTVSPost2010PropOp45
 70
     1
102
RTVSPost2010Prop46
 90
       50
102
RTVSPost2010PropOp46
 70
     1
102
RTVSPost2010Prop47
 90
       50
102
RTVSPost2010PropOp47
 70
     1
102
RTVSPost2010Prop48
 90
       50
102
RTVSPost2010PropOp48
 70
     1
102
RTVSPost2010Prop49
280
     0
102
RTVSPost2010PropOp49
 70
     1
102
RTVSPost2010Prop50
 90
       50
102
RTVSPost2010PropOp50
 70
     1
102
RTVSPost2010Prop51ColorIndex
 90
      256
102
RTVSPost2010Prop51ColorRGB
 90
-16777216
102
RTVSPost2010PropOp51
 70
     0
102
RTVSPost2010Prop52
140
1.0
102
RTVSPost2010PropOp52
 70
     0
102
RTVSPost2010Prop53
 90
        2
102
RTVSPost2010PropOp53
 70
     1
102
RTVSPost2010Prop54
  1
strokes_ogs.tif
102
RTVSPost2010PropOp54
 70
     1
102
RTVSPost2010Prop55
280
     0
102
RTVSPost2010PropOp55
 70
     1
102
RTVSPost2010Prop56
140
1.0
102
RTVSPost2010PropOp56
 70
     1
102
RTVSPost2010Prop57
140
1.0
102
RTVSPost2010PropOp57
 70
     1
102
RTVSPropertyOp0
 70
     1
102
RTVSPropertyOp1
 70
     1
102
RTVSPropertyOp2
 70
     1
102
RTVSPropertyOp3
 70
     1
102
RTVSPropertyOp4
 70
     1
102
RTVSPropertyOp5
 70
     1
102
RTVSPropertyOp6
 70
     1
102
RTVSPropertyOp7
 70
     1
102
RTVSPropertyOp8
 70
     1
102
RTVSPropertyOp9
 70
     1
102
RTVSPropertyOp10
 70
     1
102
RTVSPropertyOp11
 70
     1
102
RTVSPropertyOp12
 70
     1
102
RTVSPropertyOp13
 70
     1
102
RTVSPropertyOp14
 70
     1
102
RTVSPropertyOp15
 70
     1
102
RTVSPropertyOp16
 70
     1
102
RTVSPropertyOp17
 70
     1
102
RTVSPropertyOp18
 70
     1
102
RTVSPropertyOp19
 70
     1
102
RTVSPropertyOp20
 70
     1
102
RTVSPropertyOp21
 70
     1
102
RTVSPropertyOp22
 70
     1
102
RTVSPropertyOp23
 70
     1
102
RTVSPropertyOp24
 70
     1
102
RTVSPropertyOp25
 70
     1
102
RTVSPropertyOp26
 70
     1
102
RTVSPropertyOp27
 70
     1
102
RTVSPropertyOp28
 70
     1
102
RTVSPropertyOp29
 70
     1
102
RTVSPropertyOp30
 70
     1
102
RTVSPropertyOp31
 70
     1
102
RTVSPropertyOp32
 70
     1
102
RTVSPropertyOp33
 70
     1
102
RTVSPropertyOp34
 70
     1
102
RTVSPropertyOp35
 70
     1
102
RTVSPropertyOp36
 70
     1
102
RTVSPropertyOp37
 70
     1
102
RTVSPropertyOp38
 70
     1
102
RTVSPropertyOp39
 70
     1
102
RTVSPropertyOp40
 70
     1
102
RTVSPropertyOp41
 70
     1
102
RTVSPropertyOp42
 70
     1
102
RTVSPropertyOp43
 70
     1
102
RTVSPropertyOp44
 70
     1
102
RTVSPropertyOp45
 70
     1
102
RTVSPropertyOp46
 70
     1
102
RTVSPropertyOp47
 70
     1
102
RTVSPropertyOp48
 70
     1
102
RTVSPropertyOp49
 70
     1
102
RTVSPropertyOp50
 70
     1
102
RTVSPropertyOp51
 70
     0
102
RTVSPropertyOp52
 70
     0
102
RTVSPropertyOp53
 70
     1
102
RTVSPropertyOp54
 70
     1
102
RTVSPropertyOp55
 70
     1
102
RTVSPropertyOp56
 70
     1
102
RTVSPropertyOp57
 70
     1
102
RTVSPropertyOp58
 70
     1
102
RTVSPropertyOp59
 70
     1
102
RTVSPropertyOp60
 70
     1
102
RTVSPropertyOp61
 70
     1
102
RTVSPropertyOp62
 70
     1
  0
XRECORD
  5
BDA4A
102
{ACAD_REACTORS
330
BDA49
102
}
330
BDA49
100
AcDbXrecord
280
     1
102
RTVSPost2010Prop28
280
     0
102
RTVSPost2010PropOp28
 70
     1
102
RTVSPost2010Prop29
280
     1
102
RTVSPost2010PropOp29
 70
     1
102
RTVSPost2010Prop30
280
     1
102
RTVSPost2010PropOp30
 70
     1
102
RTVSPost2010Prop31
280
     0
102
RTVSPost2010PropOp31
 70
     1
102
RTVSPost2010Prop32
280
     0
102
RTVSPost2010PropOp32
 70
     1
102
RTVSPost2010Prop33
280
     0
102
RTVSPost2010PropOp33
 70
     1
102
RTVSPost2010Prop34
280
     0
102
RTVSPost2010PropOp34
 70
     1
102
RTVSPost2010Prop35
280
     0
102
RTVSPost2010PropOp35
 70
     1
102
RTVSPost2010Prop36
280
     0
102
RTVSPost2010PropOp36
 70
     1
102
RTVSPost2010Prop37
 90
       50
102
RTVSPost2010PropOp37
 70
     1
102
RTVSPost2010Prop38
140
0.0
102
RTVSPost2010PropOp38
 70
     1
102
RTVSPost2010Prop39
140
1.0
102
RTVSPost2010PropOp39
 70
     1
102
RTVSPost2010Prop40
 90
        0
102
RTVSPost2010PropOp40
 70
     1
102
RTVSPost2010Prop41ColorIndex
 90
       18
102
RTVSPost2010Prop41ColorRGB
 90
        0
102
RTVSPost2010PropOp41
 70
     1
102
RTVSPost2010Prop42
 90
       50
102
RTVSPost2010PropOp42
 70
     1
102
RTVSPost2010Prop43
 90
        3
102
RTVSPost2010PropOp43
 70
     1
102
RTVSPost2010Prop44ColorIndex
 90
        5
102
RTVSPost2010Prop44ColorRGB
 90
      255
102
RTVSPost2010PropOp44
 70
     1
102
RTVSPost2010Prop45
280
     0
102
RTVSPost2010PropOp45
 70
     1
102
RTVSPost2010Prop46
 90
       50
102
RTVSPost2010PropOp46
 70
     1
102
RTVSPost2010Prop47
 90
       50
102
RTVSPost2010PropOp47
 70
     1
102
RTVSPost2010Prop48
 90
       50
102
RTVSPost2010PropOp48
 70
     1
102
RTVSPost2010Prop49
280
     0
102
RTVSPost2010PropOp49
 70
     1
102
RTVSPost2010Prop50
 90
       50
102
RTVSPost2010PropOp50
 70
     1
102
RTVSPost2010Prop51ColorIndex
 90
      256
102
RTVSPost2010Prop51ColorRGB
 90
-16777216
102
RTVSPost2010PropOp51
 70
     0
102
RTVSPost2010Prop52
140
1.0
102
RTVSPost2010PropOp52
 70
     0
102
RTVSPost2010Prop53
 90
        2
102
RTVSPost2010PropOp53
 70
     1
102
RTVSPost2010Prop54
  1
strokes_ogs.tif
102
RTVSPost2010PropOp54
 70
     1
102
RTVSPost2010Prop55
280
     0
102
RTVSPost2010PropOp55
 70
     1
102
RTVSPost2010Prop56
140
1.0
102
RTVSPost2010PropOp56
 70
     1
102
RTVSPost2010Prop57
140
1.0
102
RTVSPost2010PropOp57
 70
     1
102
RTVSPropertyOp0
 70
     1
102
RTVSPropertyOp1
 70
     1
102
RTVSPropertyOp2
 70
     1
102
RTVSPropertyOp3
 70
     1
102
RTVSPropertyOp4
 70
     1
102
RTVSPropertyOp5
 70
     1
102
RTVSPropertyOp6
 70
     1
102
RTVSPropertyOp7
 70
     1
102
RTVSPropertyOp8
 70
     1
102
RTVSPropertyOp9
 70
     1
102
RTVSPropertyOp10
 70
     1
102
RTVSPropertyOp11
 70
     1
102
RTVSPropertyOp12
 70
     1
102
RTVSPropertyOp13
 70
     1
102
RTVSPropertyOp14
 70
     1
102
RTVSPropertyOp15
 70
     1
102
RTVSPropertyOp16
 70
     1
102
RTVSPropertyOp17
 70
     1
102
RTVSPropertyOp18
 70
     1
102
RTVSPropertyOp19
 70
     1
102
RTVSPropertyOp20
 70
     1
102
RTVSPropertyOp21
 70
     1
102
RTVSPropertyOp22
 70
     1
102
RTVSPropertyOp23
 70
     1
102
RTVSPropertyOp24
 70
     1
102
RTVSPropertyOp25
 70
     1
102
RTVSPropertyOp26
 70
     1
102
RTVSPropertyOp27
 70
     1
102
RTVSPropertyOp28
 70
     1
102
RTVSPropertyOp29
 70
     1
102
RTVSPropertyOp30
 70
     1
102
RTVSPropertyOp31
 70
     1
102
RTVSPropertyOp32
 70
     1
102
RTVSPropertyOp33
 70
     1
102
RTVSPropertyOp34
 70
     1
102
RTVSPropertyOp35
 70
     1
102
RTVSPropertyOp36
 70
     1
102
RTVSPropertyOp37
 70
     1
102
RTVSPropertyOp38
 70
     1
102
RTVSPropertyOp39
 70
     1
102
RTVSPropertyOp40
 70
     1
102
RTVSPropertyOp41
 70
     1
102
RTVSPropertyOp42
 70
     1
102
RTVSPropertyOp43
 70
     1
102
RTVSPropertyOp44
 70
     1
102
RTVSPropertyOp45
 70
     1
102
RTVSPropertyOp46
 70
     1
102
RTVSPropertyOp47
 70
     1
102
RTVSPropertyOp48
 70
     1
102
RTVSPropertyOp49
 70
     1
102
RTVSPropertyOp50
 70
     1
102
RTVSPropertyOp51
 70
     0
102
RTVSPropertyOp52
 70
     0
102
RTVSPropertyOp53
 70
     1
102
RTVSPropertyOp54
 70
     1
102
RTVSPropertyOp55
 70
     1
102
RTVSPropertyOp56
 70
     1
102
RTVSPropertyOp57
 70
     1
102
RTVSPropertyOp58
 70
     1
102
RTVSPropertyOp59
 70
     1
102
RTVSPropertyOp60
 70
     1
102
RTVSPropertyOp61
 70
     1
102
RTVSPropertyOp62
 70
     1
  0
XRECORD
  5
BDA4C
102
{ACAD_REACTORS
330
BDA4B
102
}
330
BDA4B
100
AcDbXrecord
280
     1
102
RTVSPost2010Prop28
280
     0
102
RTVSPost2010PropOp28
 70
     1
102
RTVSPost2010Prop29
280
     1
102
RTVSPost2010PropOp29
 70
     1
102
RTVSPost2010Prop30
280
     1
102
RTVSPost2010PropOp30
 70
     1
102
RTVSPost2010Prop31
280
     0
102
RTVSPost2010PropOp31
 70
     1
102
RTVSPost2010Prop32
280
     0
102
RTVSPost2010PropOp32
 70
     1
102
RTVSPost2010Prop33
280
     0
102
RTVSPost2010PropOp33
 70
     1
102
RTVSPost2010Prop34
280
     0
102
RTVSPost2010PropOp34
 70
     1
102
RTVSPost2010Prop35
280
     0
102
RTVSPost2010PropOp35
 70
     1
102
RTVSPost2010Prop36
280
     0
102
RTVSPost2010PropOp36
 70
     1
102
RTVSPost2010Prop37
 90
       50
102
RTVSPost2010PropOp37
 70
     1
102
RTVSPost2010Prop38
140
0.0
102
RTVSPost2010PropOp38
 70
     1
102
RTVSPost2010Prop39
140
1.0
102
RTVSPost2010PropOp39
 70
     1
102
RTVSPost2010Prop40
 90
        0
102
RTVSPost2010PropOp40
 70
     1
102
RTVSPost2010Prop41ColorIndex
 90
       18
102
RTVSPost2010Prop41ColorRGB
 90
        0
102
RTVSPost2010PropOp41
 70
     1
102
RTVSPost2010Prop42
 90
       50
102
RTVSPost2010PropOp42
 70
     1
102
RTVSPost2010Prop43
 90
        3
102
RTVSPost2010PropOp43
 70
     1
102
RTVSPost2010Prop44ColorIndex
 90
        5
102
RTVSPost2010Prop44ColorRGB
 90
      255
102
RTVSPost2010PropOp44
 70
     1
102
RTVSPost2010Prop45
280
     0
102
RTVSPost2010PropOp45
 70
     1
102
RTVSPost2010Prop46
 90
       50
102
RTVSPost2010PropOp46
 70
     1
102
RTVSPost2010Prop47
 90
       50
102
RTVSPost2010PropOp47
 70
     1
102
RTVSPost2010Prop48
 90
       50
102
RTVSPost2010PropOp48
 70
     1
102
RTVSPost2010Prop49
280
     0
102
RTVSPost2010PropOp49
 70
     1
102
RTVSPost2010Prop50
 90
       50
102
RTVSPost2010PropOp50
 70
     1
102
RTVSPost2010Prop51ColorIndex
 90
      256
102
RTVSPost2010Prop51ColorRGB
 90
-16777216
102
RTVSPost2010PropOp51
 70
     0
102
RTVSPost2010Prop52
140
1.0
102
RTVSPost2010PropOp52
 70
     0
102
RTVSPost2010Prop53
 90
        2
102
RTVSPost2010PropOp53
 70
     1
102
RTVSPost2010Prop54
  1
strokes_ogs.tif
102
RTVSPost2010PropOp54
 70
     1
102
RTVSPost2010Prop55
280
     0
102
RTVSPost2010PropOp55
 70
     1
102
RTVSPost2010Prop56
140
1.0
102
RTVSPost2010PropOp56
 70
     1
102
RTVSPost2010Prop57
140
1.0
102
RTVSPost2010PropOp57
 70
     1
102
RTVSPropertyOp0
 70
     1
102
RTVSPropertyOp1
 70
     1
102
RTVSPropertyOp2
 70
     1
102
RTVSPropertyOp3
 70
     1
102
RTVSPropertyOp4
 70
     1
102
RTVSPropertyOp5
 70
     1
102
RTVSPropertyOp6
 70
     1
102
RTVSPropertyOp7
 70
     1
102
RTVSPropertyOp8
 70
     1
102
RTVSPropertyOp9
 70
     1
102
RTVSPropertyOp10
 70
     1
102
RTVSPropertyOp11
 70
     1
102
RTVSPropertyOp12
 70
     1
102
RTVSPropertyOp13
 70
     1
102
RTVSPropertyOp14
 70
     1
102
RTVSPropertyOp15
 70
     1
102
RTVSPropertyOp16
 70
     1
102
RTVSPropertyOp17
 70
     1
102
RTVSPropertyOp18
 70
     1
102
RTVSPropertyOp19
 70
     1
102
RTVSPropertyOp20
 70
     1
102
RTVSPropertyOp21
 70
     1
102
RTVSPropertyOp22
 70
     1
102
RTVSPropertyOp23
 70
     1
102
RTVSPropertyOp24
 70
     1
102
RTVSPropertyOp25
 70
     1
102
RTVSPropertyOp26
 70
     1
102
RTVSPropertyOp27
 70
     1
102
RTVSPropertyOp28
 70
     1
102
RTVSPropertyOp29
 70
     1
102
RTVSPropertyOp30
 70
     1
102
RTVSPropertyOp31
 70
     1
102
RTVSPropertyOp32
 70
     1
102
RTVSPropertyOp33
 70
     1
102
RTVSPropertyOp34
 70
     1
102
RTVSPropertyOp35
 70
     1
102
RTVSPropertyOp36
 70
     1
102
RTVSPropertyOp37
 70
     1
102
RTVSPropertyOp38
 70
     1
102
RTVSPropertyOp39
 70
     1
102
RTVSPropertyOp40
 70
     1
102
RTVSPropertyOp41
 70
     1
102
RTVSPropertyOp42
 70
     1
102
RTVSPropertyOp43
 70
     1
102
RTVSPropertyOp44
 70
     1
102
RTVSPropertyOp45
 70
     1
102
RTVSPropertyOp46
 70
     1
102
RTVSPropertyOp47
 70
     1
102
RTVSPropertyOp48
 70
     1
102
RTVSPropertyOp49
 70
     1
102
RTVSPropertyOp50
 70
     1
102
RTVSPropertyOp51
 70
     0
102
RTVSPropertyOp52
 70
     0
102
RTVSPropertyOp53
 70
     1
102
RTVSPropertyOp54
 70
     1
102
RTVSPropertyOp55
 70
     1
102
RTVSPropertyOp56
 70
     1
102
RTVSPropertyOp57
 70
     1
102
RTVSPropertyOp58
 70
     1
102
RTVSPropertyOp59
 70
     1
102
RTVSPropertyOp60
 70
     1
102
RTVSPropertyOp61
 70
     1
102
RTVSPropertyOp62
 70
     1
  0
XRECORD
  5
BDA4E
102
{ACAD_REACTORS
330
BDA4D
102
}
330
BDA4D
100
AcDbXrecord
280
     1
102
RTVSPost2010Prop28
280
     0
102
RTVSPost2010PropOp28
 70
     1
102
RTVSPost2010Prop29
280
     1
102
RTVSPost2010PropOp29
 70
     1
102
RTVSPost2010Prop30
280
     1
102
RTVSPost2010PropOp30
 70
     1
102
RTVSPost2010Prop31
280
     0
102
RTVSPost2010PropOp31
 70
     1
102
RTVSPost2010Prop32
280
     0
102
RTVSPost2010PropOp32
 70
     1
102
RTVSPost2010Prop33
280
     0
102
RTVSPost2010PropOp33
 70
     1
102
RTVSPost2010Prop34
280
     0
102
RTVSPost2010PropOp34
 70
     1
102
RTVSPost2010Prop35
280
     0
102
RTVSPost2010PropOp35
 70
     1
102
RTVSPost2010Prop36
280
     0
102
RTVSPost2010PropOp36
 70
     1
102
RTVSPost2010Prop37
 90
       50
102
RTVSPost2010PropOp37
 70
     1
102
RTVSPost2010Prop38
140
0.0
102
RTVSPost2010PropOp38
 70
     1
102
RTVSPost2010Prop39
140
1.0
102
RTVSPost2010PropOp39
 70
     1
102
RTVSPost2010Prop40
 90
        0
102
RTVSPost2010PropOp40
 70
     1
102
RTVSPost2010Prop41ColorIndex
 90
       18
102
RTVSPost2010Prop41ColorRGB
 90
        0
102
RTVSPost2010PropOp41
 70
     1
102
RTVSPost2010Prop42
 90
       50
102
RTVSPost2010PropOp42
 70
     1
102
RTVSPost2010Prop43
 90
        3
102
RTVSPost2010PropOp43
 70
     1
102
RTVSPost2010Prop44ColorIndex
 90
        5
102
RTVSPost2010Prop44ColorRGB
 90
      255
102
RTVSPost2010PropOp44
 70
     1
102
RTVSPost2010Prop45
280
     0
102
RTVSPost2010PropOp45
 70
     1
102
RTVSPost2010Prop46
 90
       50
102
RTVSPost2010PropOp46
 70
     1
102
RTVSPost2010Prop47
 90
       50
102
RTVSPost2010PropOp47
 70
     1
102
RTVSPost2010Prop48
 90
       50
102
RTVSPost2010PropOp48
 70
     1
102
RTVSPost2010Prop49
280
     0
102
RTVSPost2010PropOp49
 70
     1
102
RTVSPost2010Prop50
 90
       50
102
RTVSPost2010PropOp50
 70
     1
102
RTVSPost2010Prop51ColorIndex
 90
      256
102
RTVSPost2010Prop51ColorRGB
 90
-16777216
102
RTVSPost2010PropOp51
 70
     0
102
RTVSPost2010Prop52
140
1.0
102
RTVSPost2010PropOp52
 70
     0
102
RTVSPost2010Prop53
 90
        2
102
RTVSPost2010PropOp53
 70
     1
102
RTVSPost2010Prop54
  1
strokes_ogs.tif
102
RTVSPost2010PropOp54
 70
     1
102
RTVSPost2010Prop55
280
     0
102
RTVSPost2010PropOp55
 70
     1
102
RTVSPost2010Prop56
140
1.0
102
RTVSPost2010PropOp56
 70
     1
102
RTVSPost2010Prop57
140
1.0
102
RTVSPost2010PropOp57
 70
     1
102
RTVSPropertyOp0
 70
     1
102
RTVSPropertyOp1
 70
     1
102
RTVSPropertyOp2
 70
     1
102
RTVSPropertyOp3
 70
     1
102
RTVSPropertyOp4
 70
     1
102
RTVSPropertyOp5
 70
     1
102
RTVSPropertyOp6
 70
     1
102
RTVSPropertyOp7
 70
     1
102
RTVSPropertyOp8
 70
     1
102
RTVSPropertyOp9
 70
     1
102
RTVSPropertyOp10
 70
     1
102
RTVSPropertyOp11
 70
     1
102
RTVSPropertyOp12
 70
     1
102
RTVSPropertyOp13
 70
     1
102
RTVSPropertyOp14
 70
     1
102
RTVSPropertyOp15
 70
     1
102
RTVSPropertyOp16
 70
     1
102
RTVSPropertyOp17
 70
     1
102
RTVSPropertyOp18
 70
     1
102
RTVSPropertyOp19
 70
     1
102
RTVSPropertyOp20
 70
     1
102
RTVSPropertyOp21
 70
     1
102
RTVSPropertyOp22
 70
     1
102
RTVSPropertyOp23
 70
     1
102
RTVSPropertyOp24
 70
     1
102
RTVSPropertyOp25
 70
     1
102
RTVSPropertyOp26
 70
     1
102
RTVSPropertyOp27
 70
     1
102
RTVSPropertyOp28
 70
     1
102
RTVSPropertyOp29
 70
     1
102
RTVSPropertyOp30
 70
     1
102
RTVSPropertyOp31
 70
     1
102
RTVSPropertyOp32
 70
     1
102
RTVSPropertyOp33
 70
     1
102
RTVSPropertyOp34
 70
     1
102
RTVSPropertyOp35
 70
     1
102
RTVSPropertyOp36
 70
     1
102
RTVSPropertyOp37
 70
     1
102
RTVSPropertyOp38
 70
     1
102
RTVSPropertyOp39
 70
     1
102
RTVSPropertyOp40
 70
     1
102
RTVSPropertyOp41
 70
     1
102
RTVSPropertyOp42
 70
     1
102
RTVSPropertyOp43
 70
     1
102
RTVSPropertyOp44
 70
     1
102
RTVSPropertyOp45
 70
     1
102
RTVSPropertyOp46
 70
     1
102
RTVSPropertyOp47
 70
     1
102
RTVSPropertyOp48
 70
     1
102
RTVSPropertyOp49
 70
     1
102
RTVSPropertyOp50
 70
     1
102
RTVSPropertyOp51
 70
     0
102
RTVSPropertyOp52
 70
     0
102
RTVSPropertyOp53
 70
     1
102
RTVSPropertyOp54
 70
     1
102
RTVSPropertyOp55
 70
     1
102
RTVSPropertyOp56
 70
     1
102
RTVSPropertyOp57
 70
     1
102
RTVSPropertyOp58
 70
     1
102
RTVSPropertyOp59
 70
     1
102
RTVSPropertyOp60
 70
     1
102
RTVSPropertyOp61
 70
     1
102
RTVSPropertyOp62
 70
     1
  0
XRECORD
  5
BDA50
102
{ACAD_REACTORS
330
BDA4F
102
}
330
BDA4F
100
AcDbXrecord
280
     1
102
RTVSPost2010Prop28
280
     0
102
RTVSPost2010PropOp28
 70
     1
102
RTVSPost2010Prop29
280
     1
102
RTVSPost2010PropOp29
 70
     1
102
RTVSPost2010Prop30
280
     1
102
RTVSPost2010PropOp30
 70
     1
102
RTVSPost2010Prop31
280
     0
102
RTVSPost2010PropOp31
 70
     1
102
RTVSPost2010Prop32
280
     0
102
RTVSPost2010PropOp32
 70
     1
102
RTVSPost2010Prop33
280
     0
102
RTVSPost2010PropOp33
 70
     1
102
RTVSPost2010Prop34
280
     0
102
RTVSPost2010PropOp34
 70
     1
102
RTVSPost2010Prop35
280
     0
102
RTVSPost2010PropOp35
 70
     1
102
RTVSPost2010Prop36
280
     0
102
RTVSPost2010PropOp36
 70
     1
102
RTVSPost2010Prop37
 90
       50
102
RTVSPost2010PropOp37
 70
     1
102
RTVSPost2010Prop38
140
0.0
102
RTVSPost2010PropOp38
 70
     1
102
RTVSPost2010Prop39
140
1.0
102
RTVSPost2010PropOp39
 70
     1
102
RTVSPost2010Prop40
 90
        0
102
RTVSPost2010PropOp40
 70
     1
102
RTVSPost2010Prop41ColorIndex
 90
       18
102
RTVSPost2010Prop41ColorRGB
 90
        0
102
RTVSPost2010PropOp41
 70
     1
102
RTVSPost2010Prop42
 90
       50
102
RTVSPost2010PropOp42
 70
     1
102
RTVSPost2010Prop43
 90
        3
102
RTVSPost2010PropOp43
 70
     1
102
RTVSPost2010Prop44ColorIndex
 90
        5
102
RTVSPost2010Prop44ColorRGB
 90
      255
102
RTVSPost2010PropOp44
 70
     1
102
RTVSPost2010Prop45
280
     0
102
RTVSPost2010PropOp45
 70
     1
102
RTVSPost2010Prop46
 90
       50
102
RTVSPost2010PropOp46
 70
     1
102
RTVSPost2010Prop47
 90
       50
102
RTVSPost2010PropOp47
 70
     1
102
RTVSPost2010Prop48
 90
       50
102
RTVSPost2010PropOp48
 70
     1
102
RTVSPost2010Prop49
280
     0
102
RTVSPost2010PropOp49
 70
     1
102
RTVSPost2010Prop50
 90
       50
102
RTVSPost2010PropOp50
 70
     1
102
RTVSPost2010Prop51ColorIndex
 90
      256
102
RTVSPost2010Prop51ColorRGB
 90
-16777216
102
RTVSPost2010PropOp51
 70
     0
102
RTVSPost2010Prop52
140
1.0
102
RTVSPost2010PropOp52
 70
     0
102
RTVSPost2010Prop53
 90
        2
102
RTVSPost2010PropOp53
 70
     1
102
RTVSPost2010Prop54
  1
strokes_ogs.tif
102
RTVSPost2010PropOp54
 70
     1
102
RTVSPost2010Prop55
280
     0
102
RTVSPost2010PropOp55
 70
     1
102
RTVSPost2010Prop56
140
1.0
102
RTVSPost2010PropOp56
 70
     1
102
RTVSPost2010Prop57
140
1.0
102
RTVSPost2010PropOp57
 70
     1
102
RTVSPropertyOp0
 70
     1
102
RTVSPropertyOp1
 70
     1
102
RTVSPropertyOp2
 70
     1
102
RTVSPropertyOp3
 70
     1
102
RTVSPropertyOp4
 70
     1
102
RTVSPropertyOp5
 70
     1
102
RTVSPropertyOp6
 70
     1
102
RTVSPropertyOp7
 70
     1
102
RTVSPropertyOp8
 70
     1
102
RTVSPropertyOp9
 70
     1
102
RTVSPropertyOp10
 70
     1
102
RTVSPropertyOp11
 70
     1
102
RTVSPropertyOp12
 70
     1
102
RTVSPropertyOp13
 70
     1
102
RTVSPropertyOp14
 70
     1
102
RTVSPropertyOp15
 70
     1
102
RTVSPropertyOp16
 70
     1
102
RTVSPropertyOp17
 70
     1
102
RTVSPropertyOp18
 70
     1
102
RTVSPropertyOp19
 70
     1
102
RTVSPropertyOp20
 70
     1
102
RTVSPropertyOp21
 70
     1
102
RTVSPropertyOp22
 70
     1
102
RTVSPropertyOp23
 70
     1
102
RTVSPropertyOp24
 70
     1
102
RTVSPropertyOp25
 70
     1
102
RTVSPropertyOp26
 70
     1
102
RTVSPropertyOp27
 70
     1
102
RTVSPropertyOp28
 70
     1
102
RTVSPropertyOp29
 70
     1
102
RTVSPropertyOp30
 70
     1
102
RTVSPropertyOp31
 70
     1
102
RTVSPropertyOp32
 70
     1
102
RTVSPropertyOp33
 70
     1
102
RTVSPropertyOp34
 70
     1
102
RTVSPropertyOp35
 70
     1
102
RTVSPropertyOp36
 70
     1
102
RTVSPropertyOp37
 70
     1
102
RTVSPropertyOp38
 70
     1
102
RTVSPropertyOp39
 70
     1
102
RTVSPropertyOp40
 70
     1
102
RTVSPropertyOp41
 70
     1
102
RTVSPropertyOp42
 70
     1
102
RTVSPropertyOp43
 70
     1
102
RTVSPropertyOp44
 70
     1
102
RTVSPropertyOp45
 70
     1
102
RTVSPropertyOp46
 70
     1
102
RTVSPropertyOp47
 70
     1
102
RTVSPropertyOp48
 70
     1
102
RTVSPropertyOp49
 70
     1
102
RTVSPropertyOp50
 70
     1
102
RTVSPropertyOp51
 70
     0
102
RTVSPropertyOp52
 70
     0
102
RTVSPropertyOp53
 70
     1
102
RTVSPropertyOp54
 70
     1
102
RTVSPropertyOp55
 70
     1
102
RTVSPropertyOp56
 70
     1
102
RTVSPropertyOp57
 70
     1
102
RTVSPropertyOp58
 70
     1
102
RTVSPropertyOp59
 70
     1
102
RTVSPropertyOp60
 70
     1
102
RTVSPropertyOp61
 70
     1
102
RTVSPropertyOp62
 70
     1
  0
XRECORD
  5
BDA56
102
{ACAD_REACTORS
330
BDA55
102
}
330
BDA55
100
AcDbXrecord
280
     1
102
RTVSPost2010Prop28
280
     0
102
RTVSPost2010PropOp28
 70
     1
102
RTVSPost2010Prop29
280
     1
102
RTVSPost2010PropOp29
 70
     1
102
RTVSPost2010Prop30
280
     1
102
RTVSPost2010PropOp30
 70
     1
102
RTVSPost2010Prop31
280
     0
102
RTVSPost2010PropOp31
 70
     1
102
RTVSPost2010Prop32
280
     0
102
RTVSPost2010PropOp32
 70
     1
102
RTVSPost2010Prop33
280
     0
102
RTVSPost2010PropOp33
 70
     1
102
RTVSPost2010Prop34
280
     0
102
RTVSPost2010PropOp34
 70
     1
102
RTVSPost2010Prop35
280
     0
102
RTVSPost2010PropOp35
 70
     1
102
RTVSPost2010Prop36
280
     0
102
RTVSPost2010PropOp36
 70
     1
102
RTVSPost2010Prop37
 90
       50
102
RTVSPost2010PropOp37
 70
     1
102
RTVSPost2010Prop38
140
0.0
102
RTVSPost2010PropOp38
 70
     1
102
RTVSPost2010Prop39
140
1.0
102
RTVSPost2010PropOp39
 70
     1
102
RTVSPost2010Prop40
 90
        0
102
RTVSPost2010PropOp40
 70
     1
102
RTVSPost2010Prop41ColorIndex
 90
       18
102
RTVSPost2010Prop41ColorRGB
 90
        0
102
RTVSPost2010PropOp41
 70
     1
102
RTVSPost2010Prop42
 90
       50
102
RTVSPost2010PropOp42
 70
     1
102
RTVSPost2010Prop43
 90
        3
102
RTVSPost2010PropOp43
 70
     1
102
RTVSPost2010Prop44ColorIndex
 90
        5
102
RTVSPost2010Prop44ColorRGB
 90
      255
102
RTVSPost2010PropOp44
 70
     1
102
RTVSPost2010Prop45
280
     0
102
RTVSPost2010PropOp45
 70
     1
102
RTVSPost2010Prop46
 90
       50
102
RTVSPost2010PropOp46
 70
     1
102
RTVSPost2010Prop47
 90
       50
102
RTVSPost2010PropOp47
 70
     1
102
RTVSPost2010Prop48
 90
       50
102
RTVSPost2010PropOp48
 70
     1
102
RTVSPost2010Prop49
280
     0
102
RTVSPost2010PropOp49
 70
     1
102
RTVSPost2010Prop50
 90
       50
102
RTVSPost2010PropOp50
 70
     1
102
RTVSPost2010Prop51ColorIndex
 90
      256
102
RTVSPost2010Prop51ColorRGB
 90
-16777216
102
RTVSPost2010PropOp51
 70
     0
102
RTVSPost2010Prop52
140
1.0
102
RTVSPost2010PropOp52
 70
     0
102
RTVSPost2010Prop53
 90
        2
102
RTVSPost2010PropOp53
 70
     1
102
RTVSPost2010Prop54
  1
strokes_ogs.tif
102
RTVSPost2010PropOp54
 70
     1
102
RTVSPost2010Prop55
280
     0
102
RTVSPost2010PropOp55
 70
     1
102
RTVSPost2010Prop56
140
1.0
102
RTVSPost2010PropOp56
 70
     1
102
RTVSPost2010Prop57
140
1.0
102
RTVSPost2010PropOp57
 70
     1
102
RTVSPropertyOp0
 70
     1
102
RTVSPropertyOp1
 70
     1
102
RTVSPropertyOp2
 70
     1
102
RTVSPropertyOp3
 70
     1
102
RTVSPropertyOp4
 70
     1
102
RTVSPropertyOp5
 70
     1
102
RTVSPropertyOp6
 70
     1
102
RTVSPropertyOp7
 70
     1
102
RTVSPropertyOp8
 70
     1
102
RTVSPropertyOp9
 70
     1
102
RTVSPropertyOp10
 70
     1
102
RTVSPropertyOp11
 70
     1
102
RTVSPropertyOp12
 70
     1
102
RTVSPropertyOp13
 70
     1
102
RTVSPropertyOp14
 70
     1
102
RTVSPropertyOp15
 70
     1
102
RTVSPropertyOp16
 70
     1
102
RTVSPropertyOp17
 70
     1
102
RTVSPropertyOp18
 70
     1
102
RTVSPropertyOp19
 70
     1
102
RTVSPropertyOp20
 70
     1
102
RTVSPropertyOp21
 70
     1
102
RTVSPropertyOp22
 70
     1
102
RTVSPropertyOp23
 70
     1
102
RTVSPropertyOp24
 70
     1
102
RTVSPropertyOp25
 70
     1
102
RTVSPropertyOp26
 70
     1
102
RTVSPropertyOp27
 70
     1
102
RTVSPropertyOp28
 70
     1
102
RTVSPropertyOp29
 70
     1
102
RTVSPropertyOp30
 70
     1
102
RTVSPropertyOp31
 70
     1
102
RTVSPropertyOp32
 70
     1
102
RTVSPropertyOp33
 70
     1
102
RTVSPropertyOp34
 70
     1
102
RTVSPropertyOp35
 70
     1
102
RTVSPropertyOp36
 70
     1
102
RTVSPropertyOp37
 70
     1
102
RTVSPropertyOp38
 70
     1
102
RTVSPropertyOp39
 70
     1
102
RTVSPropertyOp40
 70
     1
102
RTVSPropertyOp41
 70
     1
102
RTVSPropertyOp42
 70
     1
102
RTVSPropertyOp43
 70
     1
102
RTVSPropertyOp44
 70
     1
102
RTVSPropertyOp45
 70
     1
102
RTVSPropertyOp46
 70
     1
102
RTVSPropertyOp47
 70
     1
102
RTVSPropertyOp48
 70
     1
102
RTVSPropertyOp49
 70
     1
102
RTVSPropertyOp50
 70
     1
102
RTVSPropertyOp51
 70
     0
102
RTVSPropertyOp52
 70
     0
102
RTVSPropertyOp53
 70
     1
102
RTVSPropertyOp54
 70
     1
102
RTVSPropertyOp55
 70
     1
102
RTVSPropertyOp56
 70
     1
102
RTVSPropertyOp57
 70
     1
102
RTVSPropertyOp58
 70
     1
102
RTVSPropertyOp59
 70
     1
102
RTVSPropertyOp60
 70
     1
102
RTVSPropertyOp61
 70
     1
102
RTVSPropertyOp62
 70
     1
  0
XRECORD
  5
BDA6A
102
{ACAD_REACTORS
330
BDA69
102
}
330
BDA69
100
AcDbXrecord
280
     1
102
RTVSPost2010Prop28
280
     0
102
RTVSPost2010PropOp28
 70
     0
102
RTVSPost2010Prop29
280
     1
102
RTVSPost2010PropOp29
 70
     0
102
RTVSPost2010Prop30
280
     1
102
RTVSPost2010PropOp30
 70
     0
102
RTVSPost2010Prop31
280
     0
102
RTVSPost2010PropOp31
 70
     0
102
RTVSPost2010Prop32
280
     0
102
RTVSPost2010PropOp32
 70
     0
102
RTVSPost2010Prop33
280
     0
102
RTVSPost2010PropOp33
 70
     0
102
RTVSPost2010Prop34
280
     0
102
RTVSPost2010PropOp34
 70
     0
102
RTVSPost2010Prop35
280
     0
102
RTVSPost2010PropOp35
 70
     0
102
RTVSPost2010Prop36
280
     0
102
RTVSPost2010PropOp36
 70
     0
102
RTVSPost2010Prop37
 90
       50
102
RTVSPost2010PropOp37
 70
     0
102
RTVSPost2010Prop38
140
0.0
102
RTVSPost2010PropOp38
 70
     0
102
RTVSPost2010Prop39
140
1.0
102
RTVSPost2010PropOp39
 70
     0
102
RTVSPost2010Prop40
 90
        0
102
RTVSPost2010PropOp40
 70
     0
102
RTVSPost2010Prop41ColorIndex
 90
       18
102
RTVSPost2010Prop41ColorRGB
 90
        0
102
RTVSPost2010PropOp41
 70
     0
102
RTVSPost2010Prop42
 90
       50
102
RTVSPost2010PropOp42
 70
     0
102
RTVSPost2010Prop43
 90
        3
102
RTVSPost2010PropOp43
 70
     0
102
RTVSPost2010Prop44ColorIndex
 90
        5
102
RTVSPost2010Prop44ColorRGB
 90
      255
102
RTVSPost2010PropOp44
 70
     0
102
RTVSPost2010Prop45
280
     0
102
RTVSPost2010PropOp45
 70
     0
102
RTVSPost2010Prop46
 90
       50
102
RTVSPost2010PropOp46
 70
     0
102
RTVSPost2010Prop47
 90
       50
102
RTVSPost2010PropOp47
 70
     0
102
RTVSPost2010Prop48
 90
       50
102
RTVSPost2010PropOp48
 70
     0
102
RTVSPost2010Prop49
280
     0
102
RTVSPost2010PropOp49
 70
     0
102
RTVSPost2010Prop50
 90
       50
102
RTVSPost2010PropOp50
 70
     0
102
RTVSPost2010Prop51ColorIndex
 90
      256
102
RTVSPost2010Prop51ColorRGB
 90
-16777216
102
RTVSPost2010PropOp51
 70
     0
102
RTVSPost2010Prop52
140
1.0
102
RTVSPost2010PropOp52
 70
     0
102
RTVSPost2010Prop53
 90
        2
102
RTVSPost2010PropOp53
 70
     0
102
RTVSPost2010Prop54
  1
strokes_ogs.tif
102
RTVSPost2010PropOp54
 70
     0
102
RTVSPost2010Prop55
280
     0
102
RTVSPost2010PropOp55
 70
     0
102
RTVSPost2010Prop56
140
1.0
102
RTVSPost2010PropOp56
 70
     0
102
RTVSPost2010Prop57
140
1.0
102
RTVSPost2010PropOp57
 70
     0
102
RTVSPropertyOp0
 70
     0
102
RTVSPropertyOp1
 70
     0
102
RTVSPropertyOp2
 70
     0
102
RTVSPropertyOp3
 70
     0
102
RTVSPropertyOp4
 70
     0
102
RTVSPropertyOp5
 70
     0
102
RTVSPropertyOp6
 70
     0
102
RTVSPropertyOp7
 70
     0
102
RTVSPropertyOp8
 70
     0
102
RTVSPropertyOp9
 70
     0
102
RTVSPropertyOp10
 70
     0
102
RTVSPropertyOp11
 70
     0
102
RTVSPropertyOp12
 70
     0
102
RTVSPropertyOp13
 70
     0
102
RTVSPropertyOp14
 70
     2
102
RTVSPropertyOp15
 70
     0
102
RTVSPropertyOp16
 70
     0
102
RTVSPropertyOp17
 70
     0
102
RTVSPropertyOp18
 70
     0
102
RTVSPropertyOp19
 70
     0
102
RTVSPropertyOp20
 70
     0
102
RTVSPropertyOp21
 70
     0
102
RTVSPropertyOp22
 70
     0
102
RTVSPropertyOp23
 70
     0
102
RTVSPropertyOp24
 70
     0
102
RTVSPropertyOp25
 70
     0
102
RTVSPropertyOp26
 70
     0
102
RTVSPropertyOp27
 70
     0
102
RTVSPropertyOp28
 70
     0
102
RTVSPropertyOp29
 70
     0
102
RTVSPropertyOp30
 70
     0
102
RTVSPropertyOp31
 70
     0
102
RTVSPropertyOp32
 70
     0
102
RTVSPropertyOp33
 70
     0
102
RTVSPropertyOp34
 70
     0
102
RTVSPropertyOp35
 70
     0
102
RTVSPropertyOp36
 70
     0
102
RTVSPropertyOp37
 70
     0
102
RTVSPropertyOp38
 70
     0
102
RTVSPropertyOp39
 70
     0
102
RTVSPropertyOp40
 70
     0
102
RTVSPropertyOp41
 70
     0
102
RTVSPropertyOp42
 70
     0
102
RTVSPropertyOp43
 70
     0
102
RTVSPropertyOp44
 70
     0
102
RTVSPropertyOp45
 70
     0
102
RTVSPropertyOp46
 70
     0
102
RTVSPropertyOp47
 70
     0
102
RTVSPropertyOp48
 70
     0
102
RTVSPropertyOp49
 70
     0
102
RTVSPropertyOp50
 70
     0
102
RTVSPropertyOp51
 70
     0
102
RTVSPropertyOp52
 70
     0
102
RTVSPropertyOp53
 70
     0
102
RTVSPropertyOp54
 70
     0
102
RTVSPropertyOp55
 70
     0
102
RTVSPropertyOp56
 70
     0
102
RTVSPropertyOp57
 70
     0
102
RTVSPropertyOp58
 70
     1
102
RTVSPropertyOp59
 70
     1
102
RTVSPropertyOp60
 70
     1
102
RTVSPropertyOp61
 70
     1
102
RTVSPropertyOp62
 70
     1
  0
XRECORD
  5
BDA64
102
{ACAD_REACTORS
330
BDA63
102
}
330
BDA63
100
AcDbXrecord
280
     1
102
RTVSPost2010Prop28
280
     0
102
RTVSPost2010PropOp28
 70
     1
102
RTVSPost2010Prop29
280
     1
102
RTVSPost2010PropOp29
 70
     1
102
RTVSPost2010Prop30
280
     1
102
RTVSPost2010PropOp30
 70
     1
102
RTVSPost2010Prop31
280
     0
102
RTVSPost2010PropOp31
 70
     1
102
RTVSPost2010Prop32
280
     0
102
RTVSPost2010PropOp32
 70
     1
102
RTVSPost2010Prop33
280
     0
102
RTVSPost2010PropOp33
 70
     1
102
RTVSPost2010Prop34
280
     0
102
RTVSPost2010PropOp34
 70
     1
102
RTVSPost2010Prop35
280
     0
102
RTVSPost2010PropOp35
 70
     1
102
RTVSPost2010Prop36
280
     0
102
RTVSPost2010PropOp36
 70
     1
102
RTVSPost2010Prop37
 90
       50
102
RTVSPost2010PropOp37
 70
     1
102
RTVSPost2010Prop38
140
0.0
102
RTVSPost2010PropOp38
 70
     1
102
RTVSPost2010Prop39
140
1.0
102
RTVSPost2010PropOp39
 70
     1
102
RTVSPost2010Prop40
 90
        0
102
RTVSPost2010PropOp40
 70
     1
102
RTVSPost2010Prop41ColorIndex
 90
       18
102
RTVSPost2010Prop41ColorRGB
 90
        0
102
RTVSPost2010PropOp41
 70
     1
102
RTVSPost2010Prop42
 90
       50
102
RTVSPost2010PropOp42
 70
     1
102
RTVSPost2010Prop43
 90
        3
102
RTVSPost2010PropOp43
 70
     1
102
RTVSPost2010Prop44ColorIndex
 90
        5
102
RTVSPost2010Prop44ColorRGB
 90
      255
102
RTVSPost2010PropOp44
 70
     1
102
RTVSPost2010Prop45
280
     0
102
RTVSPost2010PropOp45
 70
     1
102
RTVSPost2010Prop46
 90
       50
102
RTVSPost2010PropOp46
 70
     1
102
RTVSPost2010Prop47
 90
       50
102
RTVSPost2010PropOp47
 70
     1
102
RTVSPost2010Prop48
 90
       50
102
RTVSPost2010PropOp48
 70
     1
102
RTVSPost2010Prop49
280
     0
102
RTVSPost2010PropOp49
 70
     1
102
RTVSPost2010Prop50
 90
       50
102
RTVSPost2010PropOp50
 70
     1
102
RTVSPost2010Prop51ColorIndex
 90
      256
102
RTVSPost2010Prop51ColorRGB
 90
-16777216
102
RTVSPost2010PropOp51
 70
     0
102
RTVSPost2010Prop52
140
1.0
102
RTVSPost2010PropOp52
 70
     0
102
RTVSPost2010Prop53
 90
        2
102
RTVSPost2010PropOp53
 70
     1
102
RTVSPost2010Prop54
  1
strokes_ogs.tif
102
RTVSPost2010PropOp54
 70
     1
102
RTVSPost2010Prop55
280
     0
102
RTVSPost2010PropOp55
 70
     1
102
RTVSPost2010Prop56
140
1.0
102
RTVSPost2010PropOp56
 70
     1
102
RTVSPost2010Prop57
140
1.0
102
RTVSPost2010PropOp57
 70
     1
102
RTVSPropertyOp0
 70
     1
102
RTVSPropertyOp1
 70
     1
102
RTVSPropertyOp2
 70
     1
102
RTVSPropertyOp3
 70
     1
102
RTVSPropertyOp4
 70
     1
102
RTVSPropertyOp5
 70
     1
102
RTVSPropertyOp6
 70
     1
102
RTVSPropertyOp7
 70
     1
102
RTVSPropertyOp8
 70
     1
102
RTVSPropertyOp9
 70
     1
102
RTVSPropertyOp10
 70
     1
102
RTVSPropertyOp11
 70
     1
102
RTVSPropertyOp12
 70
     1
102
RTVSPropertyOp13
 70
     1
102
RTVSPropertyOp14
 70
     1
102
RTVSPropertyOp15
 70
     1
102
RTVSPropertyOp16
 70
     1
102
RTVSPropertyOp17
 70
     1
102
RTVSPropertyOp18
 70
     1
102
RTVSPropertyOp19
 70
     1
102
RTVSPropertyOp20
 70
     1
102
RTVSPropertyOp21
 70
     1
102
RTVSPropertyOp22
 70
     1
102
RTVSPropertyOp23
 70
     1
102
RTVSPropertyOp24
 70
     1
102
RTVSPropertyOp25
 70
     1
102
RTVSPropertyOp26
 70
     1
102
RTVSPropertyOp27
 70
     1
102
RTVSPropertyOp28
 70
     1
102
RTVSPropertyOp29
 70
     1
102
RTVSPropertyOp30
 70
     1
102
RTVSPropertyOp31
 70
     1
102
RTVSPropertyOp32
 70
     1
102
RTVSPropertyOp33
 70
     1
102
RTVSPropertyOp34
 70
     1
102
RTVSPropertyOp35
 70
     1
102
RTVSPropertyOp36
 70
     1
102
RTVSPropertyOp37
 70
     1
102
RTVSPropertyOp38
 70
     1
102
RTVSPropertyOp39
 70
     1
102
RTVSPropertyOp40
 70
     1
102
RTVSPropertyOp41
 70
     1
102
RTVSPropertyOp42
 70
     1
102
RTVSPropertyOp43
 70
     1
102
RTVSPropertyOp44
 70
     1
102
RTVSPropertyOp45
 70
     1
102
RTVSPropertyOp46
 70
     1
102
RTVSPropertyOp47
 70
     1
102
RTVSPropertyOp48
 70
     1
102
RTVSPropertyOp49
 70
     1
102
RTVSPropertyOp50
 70
     1
102
RTVSPropertyOp51
 70
     0
102
RTVSPropertyOp52
 70
     0
102
RTVSPropertyOp53
 70
     1
102
RTVSPropertyOp54
 70
     1
102
RTVSPropertyOp55
 70
     1
102
RTVSPropertyOp56
 70
     1
102
RTVSPropertyOp57
 70
     1
102
RTVSPropertyOp58
 70
     1
102
RTVSPropertyOp59
 70
     1
102
RTVSPropertyOp60
 70
     1
102
RTVSPropertyOp61
 70
     1
102
RTVSPropertyOp62
 70
     1
  0
XRECORD
  5
BDA6C
102
{ACAD_REACTORS
330
BDA6B
102
}
330
BDA6B
100
AcDbXrecord
280
     1
102
RTVSPost2010Prop28
280
     0
102
RTVSPost2010PropOp28
 70
     0
102
RTVSPost2010Prop29
280
     1
102
RTVSPost2010PropOp29
 70
     0
102
RTVSPost2010Prop30
280
     1
102
RTVSPost2010PropOp30
 70
     0
102
RTVSPost2010Prop31
280
     0
102
RTVSPost2010PropOp31
 70
     0
102
RTVSPost2010Prop32
280
     0
102
RTVSPost2010PropOp32
 70
     0
102
RTVSPost2010Prop33
280
     0
102
RTVSPost2010PropOp33
 70
     0
102
RTVSPost2010Prop34
280
     0
102
RTVSPost2010PropOp34
 70
     0
102
RTVSPost2010Prop35
280
     0
102
RTVSPost2010PropOp35
 70
     0
102
RTVSPost2010Prop36
280
     0
102
RTVSPost2010PropOp36
 70
     0
102
RTVSPost2010Prop37
 90
       50
102
RTVSPost2010PropOp37
 70
     0
102
RTVSPost2010Prop38
140
0.0
102
RTVSPost2010PropOp38
 70
     0
102
RTVSPost2010Prop39
140
1.0
102
RTVSPost2010PropOp39
 70
     0
102
RTVSPost2010Prop40
 90
        0
102
RTVSPost2010PropOp40
 70
     0
102
RTVSPost2010Prop41ColorIndex
 90
       18
102
RTVSPost2010Prop41ColorRGB
 90
        0
102
RTVSPost2010PropOp41
 70
     0
102
RTVSPost2010Prop42
 90
       50
102
RTVSPost2010PropOp42
 70
     0
102
RTVSPost2010Prop43
 90
        3
102
RTVSPost2010PropOp43
 70
     0
102
RTVSPost2010Prop44ColorIndex
 90
        5
102
RTVSPost2010Prop44ColorRGB
 90
      255
102
RTVSPost2010PropOp44
 70
     0
102
RTVSPost2010Prop45
280
     0
102
RTVSPost2010PropOp45
 70
     0
102
RTVSPost2010Prop46
 90
       50
102
RTVSPost2010PropOp46
 70
     0
102
RTVSPost2010Prop47
 90
       50
102
RTVSPost2010PropOp47
 70
     0
102
RTVSPost2010Prop48
 90
       50
102
RTVSPost2010PropOp48
 70
     0
102
RTVSPost2010Prop49
280
     0
102
RTVSPost2010PropOp49
 70
     0
102
RTVSPost2010Prop50
 90
       50
102
RTVSPost2010PropOp50
 70
     0
102
RTVSPost2010Prop51ColorIndex
 90
      256
102
RTVSPost2010Prop51ColorRGB
 90
-16777216
102
RTVSPost2010PropOp51
 70
     0
102
RTVSPost2010Prop52
140
1.0
102
RTVSPost2010PropOp52
 70
     0
102
RTVSPost2010Prop53
 90
        2
102
RTVSPost2010PropOp53
 70
     0
102
RTVSPost2010Prop54
  1
strokes_ogs.tif
102
RTVSPost2010PropOp54
 70
     0
102
RTVSPost2010Prop55
280
     0
102
RTVSPost2010PropOp55
 70
     0
102
RTVSPost2010Prop56
140
1.0
102
RTVSPost2010PropOp56
 70
     0
102
RTVSPost2010Prop57
140
1.0
102
RTVSPost2010PropOp57
 70
     0
102
RTVSPropertyOp0
 70
     0
102
RTVSPropertyOp1
 70
     0
102
RTVSPropertyOp2
 70
     0
102
RTVSPropertyOp3
 70
     0
102
RTVSPropertyOp4
 70
     0
102
RTVSPropertyOp5
 70
     0
102
RTVSPropertyOp6
 70
     0
102
RTVSPropertyOp7
 70
     0
102
RTVSPropertyOp8
 70
     0
102
RTVSPropertyOp9
 70
     0
102
RTVSPropertyOp10
 70
     0
102
RTVSPropertyOp11
 70
     0
102
RTVSPropertyOp12
 70
     0
102
RTVSPropertyOp13
 70
     0
102
RTVSPropertyOp14
 70
     2
102
RTVSPropertyOp15
 70
     0
102
RTVSPropertyOp16
 70
     0
102
RTVSPropertyOp17
 70
     0
102
RTVSPropertyOp18
 70
     0
102
RTVSPropertyOp19
 70
     0
102
RTVSPropertyOp20
 70
     0
102
RTVSPropertyOp21
 70
     0
102
RTVSPropertyOp22
 70
     0
102
RTVSPropertyOp23
 70
     0
102
RTVSPropertyOp24
 70
     0
102
RTVSPropertyOp25
 70
     0
102
RTVSPropertyOp26
 70
     0
102
RTVSPropertyOp27
 70
     0
102
RTVSPropertyOp28
 70
     0
102
RTVSPropertyOp29
 70
     0
102
RTVSPropertyOp30
 70
     0
102
RTVSPropertyOp31
 70
     0
102
RTVSPropertyOp32
 70
     0
102
RTVSPropertyOp33
 70
     0
102
RTVSPropertyOp34
 70
     0
102
RTVSPropertyOp35
 70
     0
102
RTVSPropertyOp36
 70
     0
102
RTVSPropertyOp37
 70
     0
102
RTVSPropertyOp38
 70
     0
102
RTVSPropertyOp39
 70
     0
102
RTVSPropertyOp40
 70
     0
102
RTVSPropertyOp41
 70
     0
102
RTVSPropertyOp42
 70
     0
102
RTVSPropertyOp43
 70
     0
102
RTVSPropertyOp44
 70
     0
102
RTVSPropertyOp45
 70
     0
102
RTVSPropertyOp46
 70
     0
102
RTVSPropertyOp47
 70
     0
102
RTVSPropertyOp48
 70
     0
102
RTVSPropertyOp49
 70
     0
102
RTVSPropertyOp50
 70
     0
102
RTVSPropertyOp51
 70
     0
102
RTVSPropertyOp52
 70
     0
102
RTVSPropertyOp53
 70
     0
102
RTVSPropertyOp54
 70
     0
102
RTVSPropertyOp55
 70
     0
102
RTVSPropertyOp56
 70
     0
102
RTVSPropertyOp57
 70
     0
102
RTVSPropertyOp58
 70
     1
102
RTVSPropertyOp59
 70
     1
102
RTVSPropertyOp60
 70
     1
102
RTVSPropertyOp61
 70
     1
102
RTVSPropertyOp62
 70
     1
  0
XRECORD
  5
BDA5A
102
{ACAD_REACTORS
330
BDA59
102
}
330
BDA59
100
AcDbXrecord
280
     1
102
RTVSPost2010Prop28
280
     0
102
RTVSPost2010PropOp28
 70
     1
102
RTVSPost2010Prop29
280
     1
102
RTVSPost2010PropOp29
 70
     1
102
RTVSPost2010Prop30
280
     1
102
RTVSPost2010PropOp30
 70
     1
102
RTVSPost2010Prop31
280
     0
102
RTVSPost2010PropOp31
 70
     1
102
RTVSPost2010Prop32
280
     0
102
RTVSPost2010PropOp32
 70
     1
102
RTVSPost2010Prop33
280
     0
102
RTVSPost2010PropOp33
 70
     1
102
RTVSPost2010Prop34
280
     0
102
RTVSPost2010PropOp34
 70
     1
102
RTVSPost2010Prop35
280
     0
102
RTVSPost2010PropOp35
 70
     1
102
RTVSPost2010Prop36
280
     0
102
RTVSPost2010PropOp36
 70
     1
102
RTVSPost2010Prop37
 90
       50
102
RTVSPost2010PropOp37
 70
     1
102
RTVSPost2010Prop38
140
0.0
102
RTVSPost2010PropOp38
 70
     1
102
RTVSPost2010Prop39
140
1.0
102
RTVSPost2010PropOp39
 70
     1
102
RTVSPost2010Prop40
 90
        0
102
RTVSPost2010PropOp40
 70
     1
102
RTVSPost2010Prop41ColorIndex
 90
       18
102
RTVSPost2010Prop41ColorRGB
 90
        0
102
RTVSPost2010PropOp41
 70
     1
102
RTVSPost2010Prop42
 90
       50
102
RTVSPost2010PropOp42
 70
     1
102
RTVSPost2010Prop43
 90
        3
102
RTVSPost2010PropOp43
 70
     1
102
RTVSPost2010Prop44ColorIndex
 90
        5
102
RTVSPost2010Prop44ColorRGB
 90
      255
102
RTVSPost2010PropOp44
 70
     1
102
RTVSPost2010Prop45
280
     0
102
RTVSPost2010PropOp45
 70
     1
102
RTVSPost2010Prop46
 90
       50
102
RTVSPost2010PropOp46
 70
     1
102
RTVSPost2010Prop47
 90
       50
102
RTVSPost2010PropOp47
 70
     1
102
RTVSPost2010Prop48
 90
       50
102
RTVSPost2010PropOp48
 70
     1
102
RTVSPost2010Prop49
280
     0
102
RTVSPost2010PropOp49
 70
     1
102
RTVSPost2010Prop50
 90
       50
102
RTVSPost2010PropOp50
 70
     1
102
RTVSPost2010Prop51ColorIndex
 90
      256
102
RTVSPost2010Prop51ColorRGB
 90
-16777216
102
RTVSPost2010PropOp51
 70
     0
102
RTVSPost2010Prop52
140
1.0
102
RTVSPost2010PropOp52
 70
     0
102
RTVSPost2010Prop53
 90
        2
102
RTVSPost2010PropOp53
 70
     1
102
RTVSPost2010Prop54
  1
strokes_ogs.tif
102
RTVSPost2010PropOp54
 70
     1
102
RTVSPost2010Prop55
280
     0
102
RTVSPost2010PropOp55
 70
     1
102
RTVSPost2010Prop56
140
1.0
102
RTVSPost2010PropOp56
 70
     1
102
RTVSPost2010Prop57
140
1.0
102
RTVSPost2010PropOp57
 70
     1
102
RTVSPropertyOp0
 70
     1
102
RTVSPropertyOp1
 70
     1
102
RTVSPropertyOp2
 70
     1
102
RTVSPropertyOp3
 70
     1
102
RTVSPropertyOp4
 70
     1
102
RTVSPropertyOp5
 70
     1
102
RTVSPropertyOp6
 70
     1
102
RTVSPropertyOp7
 70
     1
102
RTVSPropertyOp8
 70
     1
102
RTVSPropertyOp9
 70
     1
102
RTVSPropertyOp10
 70
     1
102
RTVSPropertyOp11
 70
     1
102
RTVSPropertyOp12
 70
     1
102
RTVSPropertyOp13
 70
     1
102
RTVSPropertyOp14
 70
     1
102
RTVSPropertyOp15
 70
     1
102
RTVSPropertyOp16
 70
     1
102
RTVSPropertyOp17
 70
     1
102
RTVSPropertyOp18
 70
     1
102
RTVSPropertyOp19
 70
     1
102
RTVSPropertyOp20
 70
     1
102
RTVSPropertyOp21
 70
     1
102
RTVSPropertyOp22
 70
     1
102
RTVSPropertyOp23
 70
     1
102
RTVSPropertyOp24
 70
     1
102
RTVSPropertyOp25
 70
     1
102
RTVSPropertyOp26
 70
     1
102
RTVSPropertyOp27
 70
     1
102
RTVSPropertyOp28
 70
     1
102
RTVSPropertyOp29
 70
     1
102
RTVSPropertyOp30
 70
     1
102
RTVSPropertyOp31
 70
     1
102
RTVSPropertyOp32
 70
     1
102
RTVSPropertyOp33
 70
     1
102
RTVSPropertyOp34
 70
     1
102
RTVSPropertyOp35
 70
     1
102
RTVSPropertyOp36
 70
     1
102
RTVSPropertyOp37
 70
     1
102
RTVSPropertyOp38
 70
     1
102
RTVSPropertyOp39
 70
     1
102
RTVSPropertyOp40
 70
     1
102
RTVSPropertyOp41
 70
     1
102
RTVSPropertyOp42
 70
     1
102
RTVSPropertyOp43
 70
     1
102
RTVSPropertyOp44
 70
     1
102
RTVSPropertyOp45
 70
     1
102
RTVSPropertyOp46
 70
     1
102
RTVSPropertyOp47
 70
     1
102
RTVSPropertyOp48
 70
     1
102
RTVSPropertyOp49
 70
     1
102
RTVSPropertyOp50
 70
     1
102
RTVSPropertyOp51
 70
     0
102
RTVSPropertyOp52
 70
     0
102
RTVSPropertyOp53
 70
     1
102
RTVSPropertyOp54
 70
     1
102
RTVSPropertyOp55
 70
     1
102
RTVSPropertyOp56
 70
     1
102
RTVSPropertyOp57
 70
     1
102
RTVSPropertyOp58
 70
     1
102
RTVSPropertyOp59
 70
     1
102
RTVSPropertyOp60
 70
     1
102
RTVSPropertyOp61
 70
     1
102
RTVSPropertyOp62
 70
     1
  0
XRECORD
  5
BDA78
102
{ACAD_REACTORS
330
BDA77
102
}
330
BDA77
100
AcDbXrecord
280
     1
102
RTVSPost2010Prop28
280
     0
102
RTVSPost2010PropOp28
 70
     1
102
RTVSPost2010Prop29
280
     1
102
RTVSPost2010PropOp29
 70
     1
102
RTVSPost2010Prop30
280
     1
102
RTVSPost2010PropOp30
 70
     1
102
RTVSPost2010Prop31
280
     0
102
RTVSPost2010PropOp31
 70
     1
102
RTVSPost2010Prop32
280
     0
102
RTVSPost2010PropOp32
 70
     1
102
RTVSPost2010Prop33
280
     0
102
RTVSPost2010PropOp33
 70
     1
102
RTVSPost2010Prop34
280
     0
102
RTVSPost2010PropOp34
 70
     1
102
RTVSPost2010Prop35
280
     0
102
RTVSPost2010PropOp35
 70
     1
102
RTVSPost2010Prop36
280
     0
102
RTVSPost2010PropOp36
 70
     1
102
RTVSPost2010Prop37
 90
       50
102
RTVSPost2010PropOp37
 70
     1
102
RTVSPost2010Prop38
140
0.0
102
RTVSPost2010PropOp38
 70
     1
102
RTVSPost2010Prop39
140
1.0
102
RTVSPost2010PropOp39
 70
     1
102
RTVSPost2010Prop40
 90
        0
102
RTVSPost2010PropOp40
 70
     1
102
RTVSPost2010Prop41ColorIndex
 90
       18
102
RTVSPost2010Prop41ColorRGB
 90
        0
102
RTVSPost2010PropOp41
 70
     1
102
RTVSPost2010Prop42
 90
       50
102
RTVSPost2010PropOp42
 70
     1
102
RTVSPost2010Prop43
 90
        3
102
RTVSPost2010PropOp43
 70
     1
102
RTVSPost2010Prop44ColorIndex
 90
        5
102
RTVSPost2010Prop44ColorRGB
 90
      255
102
RTVSPost2010PropOp44
 70
     1
102
RTVSPost2010Prop45
280
     0
102
RTVSPost2010PropOp45
 70
     1
102
RTVSPost2010Prop46
 90
       50
102
RTVSPost2010PropOp46
 70
     1
102
RTVSPost2010Prop47
 90
       50
102
RTVSPost2010PropOp47
 70
     1
102
RTVSPost2010Prop48
 90
       50
102
RTVSPost2010PropOp48
 70
     1
102
RTVSPost2010Prop49
280
     0
102
RTVSPost2010PropOp49
 70
     1
102
RTVSPost2010Prop50
 90
       50
102
RTVSPost2010PropOp50
 70
     1
102
RTVSPost2010Prop51ColorIndex
 90
      256
102
RTVSPost2010Prop51ColorRGB
 90
-16777216
102
RTVSPost2010PropOp51
 70
     0
102
RTVSPost2010Prop52
140
1.0
102
RTVSPost2010PropOp52
 70
     0
102
RTVSPost2010Prop53
 90
        2
102
RTVSPost2010PropOp53
 70
     1
102
RTVSPost2010Prop54
  1
strokes_ogs.tif
102
RTVSPost2010PropOp54
 70
     1
102
RTVSPost2010Prop55
280
     0
102
RTVSPost2010PropOp55
 70
     1
102
RTVSPost2010Prop56
140
1.0
102
RTVSPost2010PropOp56
 70
     1
102
RTVSPost2010Prop57
140
1.0
102
RTVSPost2010PropOp57
 70
     1
102
RTVSPropertyOp0
 70
     1
102
RTVSPropertyOp1
 70
     1
102
RTVSPropertyOp2
 70
     1
102
RTVSPropertyOp3
 70
     1
102
RTVSPropertyOp4
 70
     1
102
RTVSPropertyOp5
 70
     1
102
RTVSPropertyOp6
 70
     1
102
RTVSPropertyOp7
 70
     1
102
RTVSPropertyOp8
 70
     1
102
RTVSPropertyOp9
 70
     1
102
RTVSPropertyOp10
 70
     1
102
RTVSPropertyOp11
 70
     1
102
RTVSPropertyOp12
 70
     1
102
RTVSPropertyOp13
 70
     1
102
RTVSPropertyOp14
 70
     1
102
RTVSPropertyOp15
 70
     1
102
RTVSPropertyOp16
 70
     1
102
RTVSPropertyOp17
 70
     1
102
RTVSPropertyOp18
 70
     1
102
RTVSPropertyOp19
 70
     1
102
RTVSPropertyOp20
 70
     1
102
RTVSPropertyOp21
 70
     1
102
RTVSPropertyOp22
 70
     1
102
RTVSPropertyOp23
 70
     1
102
RTVSPropertyOp24
 70
     1
102
RTVSPropertyOp25
 70
     1
102
RTVSPropertyOp26
 70
     1
102
RTVSPropertyOp27
 70
     1
102
RTVSPropertyOp28
 70
     1
102
RTVSPropertyOp29
 70
     1
102
RTVSPropertyOp30
 70
     1
102
RTVSPropertyOp31
 70
     1
102
RTVSPropertyOp32
 70
     1
102
RTVSPropertyOp33
 70
     1
102
RTVSPropertyOp34
 70
     1
102
RTVSPropertyOp35
 70
     1
102
RTVSPropertyOp36
 70
     1
102
RTVSPropertyOp37
 70
     1
102
RTVSPropertyOp38
 70
     1
102
RTVSPropertyOp39
 70
     1
102
RTVSPropertyOp40
 70
     1
102
RTVSPropertyOp41
 70
     1
102
RTVSPropertyOp42
 70
     1
102
RTVSPropertyOp43
 70
     1
102
RTVSPropertyOp44
 70
     1
102
RTVSPropertyOp45
 70
     1
102
RTVSPropertyOp46
 70
     1
102
RTVSPropertyOp47
 70
     1
102
RTVSPropertyOp48
 70
     1
102
RTVSPropertyOp49
 70
     1
102
RTVSPropertyOp50
 70
     1
102
RTVSPropertyOp51
 70
     0
102
RTVSPropertyOp52
 70
     0
102
RTVSPropertyOp53
 70
     1
102
RTVSPropertyOp54
 70
     1
102
RTVSPropertyOp55
 70
     1
102
RTVSPropertyOp56
 70
     1
102
RTVSPropertyOp57
 70
     1
102
RTVSPropertyOp58
 70
     1
102
RTVSPropertyOp59
 70
     1
102
RTVSPropertyOp60
 70
     1
102
RTVSPropertyOp61
 70
     1
102
RTVSPropertyOp62
 70
     1
  0
XRECORD
  5
BDA76
102
{ACAD_REACTORS
330
BDA75
102
}
330
BDA75
100
AcDbXrecord
280
     1
102
RTVSPost2010Prop28
280
     0
102
RTVSPost2010PropOp28
 70
     1
102
RTVSPost2010Prop29
280
     1
102
RTVSPost2010PropOp29
 70
     1
102
RTVSPost2010Prop30
280
     1
102
RTVSPost2010PropOp30
 70
     1
102
RTVSPost2010Prop31
280
     0
102
RTVSPost2010PropOp31
 70
     1
102
RTVSPost2010Prop32
280
     0
102
RTVSPost2010PropOp32
 70
     1
102
RTVSPost2010Prop33
280
     0
102
RTVSPost2010PropOp33
 70
     1
102
RTVSPost2010Prop34
280
     0
102
RTVSPost2010PropOp34
 70
     1
102
RTVSPost2010Prop35
280
     0
102
RTVSPost2010PropOp35
 70
     1
102
RTVSPost2010Prop36
280
     0
102
RTVSPost2010PropOp36
 70
     1
102
RTVSPost2010Prop37
 90
       50
102
RTVSPost2010PropOp37
 70
     1
102
RTVSPost2010Prop38
140
0.0
102
RTVSPost2010PropOp38
 70
     1
102
RTVSPost2010Prop39
140
1.0
102
RTVSPost2010PropOp39
 70
     1
102
RTVSPost2010Prop40
 90
        0
102
RTVSPost2010PropOp40
 70
     1
102
RTVSPost2010Prop41ColorIndex
 90
       18
102
RTVSPost2010Prop41ColorRGB
 90
        0
102
RTVSPost2010PropOp41
 70
     1
102
RTVSPost2010Prop42
 90
       50
102
RTVSPost2010PropOp42
 70
     1
102
RTVSPost2010Prop43
 90
        3
102
RTVSPost2010PropOp43
 70
     1
102
RTVSPost2010Prop44ColorIndex
 90
        5
102
RTVSPost2010Prop44ColorRGB
 90
      255
102
RTVSPost2010PropOp44
 70
     1
102
RTVSPost2010Prop45
280
     0
102
RTVSPost2010PropOp45
 70
     1
102
RTVSPost2010Prop46
 90
       50
102
RTVSPost2010PropOp46
 70
     1
102
RTVSPost2010Prop47
 90
       50
102
RTVSPost2010PropOp47
 70
     1
102
RTVSPost2010Prop48
 90
       50
102
RTVSPost2010PropOp48
 70
     1
102
RTVSPost2010Prop49
280
     0
102
RTVSPost2010PropOp49
 70
     1
102
RTVSPost2010Prop50
 90
       50
102
RTVSPost2010PropOp50
 70
     1
102
RTVSPost2010Prop51ColorIndex
 90
      256
102
RTVSPost2010Prop51ColorRGB
 90
-16777216
102
RTVSPost2010PropOp51
 70
     0
102
RTVSPost2010Prop52
140
1.0
102
RTVSPost2010PropOp52
 70
     0
102
RTVSPost2010Prop53
 90
        2
102
RTVSPost2010PropOp53
 70
     1
102
RTVSPost2010Prop54
  1
strokes_ogs.tif
102
RTVSPost2010PropOp54
 70
     1
102
RTVSPost2010Prop55
280
     0
102
RTVSPost2010PropOp55
 70
     1
102
RTVSPost2010Prop56
140
1.0
102
RTVSPost2010PropOp56
 70
     1
102
RTVSPost2010Prop57
140
1.0
102
RTVSPost2010PropOp57
 70
     1
102
RTVSPropertyOp0
 70
     1
102
RTVSPropertyOp1
 70
     1
102
RTVSPropertyOp2
 70
     1
102
RTVSPropertyOp3
 70
     1
102
RTVSPropertyOp4
 70
     1
102
RTVSPropertyOp5
 70
     1
102
RTVSPropertyOp6
 70
     1
102
RTVSPropertyOp7
 70
     1
102
RTVSPropertyOp8
 70
     1
102
RTVSPropertyOp9
 70
     1
102
RTVSPropertyOp10
 70
     1
102
RTVSPropertyOp11
 70
     1
102
RTVSPropertyOp12
 70
     1
102
RTVSPropertyOp13
 70
     1
102
RTVSPropertyOp14
 70
     1
102
RTVSPropertyOp15
 70
     1
102
RTVSPropertyOp16
 70
     1
102
RTVSPropertyOp17
 70
     1
102
RTVSPropertyOp18
 70
     1
102
RTVSPropertyOp19
 70
     1
102
RTVSPropertyOp20
 70
     1
102
RTVSPropertyOp21
 70
     1
102
RTVSPropertyOp22
 70
     1
102
RTVSPropertyOp23
 70
     1
102
RTVSPropertyOp24
 70
     1
102
RTVSPropertyOp25
 70
     1
102
RTVSPropertyOp26
 70
     1
102
RTVSPropertyOp27
 70
     1
102
RTVSPropertyOp28
 70
     1
102
RTVSPropertyOp29
 70
     1
102
RTVSPropertyOp30
 70
     1
102
RTVSPropertyOp31
 70
     1
102
RTVSPropertyOp32
 70
     1
102
RTVSPropertyOp33
 70
     1
102
RTVSPropertyOp34
 70
     1
102
RTVSPropertyOp35
 70
     1
102
RTVSPropertyOp36
 70
     1
102
RTVSPropertyOp37
 70
     1
102
RTVSPropertyOp38
 70
     1
102
RTVSPropertyOp39
 70
     1
102
RTVSPropertyOp40
 70
     1
102
RTVSPropertyOp41
 70
     1
102
RTVSPropertyOp42
 70
     1
102
RTVSPropertyOp43
 70
     1
102
RTVSPropertyOp44
 70
     1
102
RTVSPropertyOp45
 70
     1
102
RTVSPropertyOp46
 70
     1
102
RTVSPropertyOp47
 70
     1
102
RTVSPropertyOp48
 70
     1
102
RTVSPropertyOp49
 70
     1
102
RTVSPropertyOp50
 70
     1
102
RTVSPropertyOp51
 70
     0
102
RTVSPropertyOp52
 70
     0
102
RTVSPropertyOp53
 70
     1
102
RTVSPropertyOp54
 70
     1
102
RTVSPropertyOp55
 70
     1
102
RTVSPropertyOp56
 70
     1
102
RTVSPropertyOp57
 70
     1
102
RTVSPropertyOp58
 70
     1
102
RTVSPropertyOp59
 70
     1
102
RTVSPropertyOp60
 70
     1
102
RTVSPropertyOp61
 70
     1
102
RTVSPropertyOp62
 70
     1
  0
XRECORD
  5
BDA70
102
{ACAD_REACTORS
330
BDA6F
102
}
330
BDA6F
100
AcDbXrecord
280
     1
102
RTVSPost2010Prop28
280
     0
102
RTVSPost2010PropOp28
 70
     1
102
RTVSPost2010Prop29
280
     1
102
RTVSPost2010PropOp29
 70
     1
102
RTVSPost2010Prop30
280
     1
102
RTVSPost2010PropOp30
 70
     1
102
RTVSPost2010Prop31
280
     0
102
RTVSPost2010PropOp31
 70
     1
102
RTVSPost2010Prop32
280
     0
102
RTVSPost2010PropOp32
 70
     1
102
RTVSPost2010Prop33
280
     0
102
RTVSPost2010PropOp33
 70
     1
102
RTVSPost2010Prop34
280
     0
102
RTVSPost2010PropOp34
 70
     1
102
RTVSPost2010Prop35
280
     0
102
RTVSPost2010PropOp35
 70
     1
102
RTVSPost2010Prop36
280
     0
102
RTVSPost2010PropOp36
 70
     1
102
RTVSPost2010Prop37
 90
       50
102
RTVSPost2010PropOp37
 70
     1
102
RTVSPost2010Prop38
140
0.0
102
RTVSPost2010PropOp38
 70
     1
102
RTVSPost2010Prop39
140
1.0
102
RTVSPost2010PropOp39
 70
     1
102
RTVSPost2010Prop40
 90
        0
102
RTVSPost2010PropOp40
 70
     1
102
RTVSPost2010Prop41ColorIndex
 90
       18
102
RTVSPost2010Prop41ColorRGB
 90
        0
102
RTVSPost2010PropOp41
 70
     1
102
RTVSPost2010Prop42
 90
       50
102
RTVSPost2010PropOp42
 70
     1
102
RTVSPost2010Prop43
 90
        3
102
RTVSPost2010PropOp43
 70
     1
102
RTVSPost2010Prop44ColorIndex
 90
        5
102
RTVSPost2010Prop44ColorRGB
 90
      255
102
RTVSPost2010PropOp44
 70
     1
102
RTVSPost2010Prop45
280
     0
102
RTVSPost2010PropOp45
 70
     1
102
RTVSPost2010Prop46
 90
       50
102
RTVSPost2010PropOp46
 70
     1
102
RTVSPost2010Prop47
 90
       50
102
RTVSPost2010PropOp47
 70
     1
102
RTVSPost2010Prop48
 90
       50
102
RTVSPost2010PropOp48
 70
     1
102
RTVSPost2010Prop49
280
     0
102
RTVSPost2010PropOp49
 70
     1
102
RTVSPost2010Prop50
 90
       50
102
RTVSPost2010PropOp50
 70
     1
102
RTVSPost2010Prop51ColorIndex
 90
      256
102
RTVSPost2010Prop51ColorRGB
 90
-16777216
102
RTVSPost2010PropOp51
 70
     0
102
RTVSPost2010Prop52
140
1.0
102
RTVSPost2010PropOp52
 70
     0
102
RTVSPost2010Prop53
 90
        2
102
RTVSPost2010PropOp53
 70
     1
102
RTVSPost2010Prop54
  1
strokes_ogs.tif
102
RTVSPost2010PropOp54
 70
     1
102
RTVSPost2010Prop55
280
     0
102
RTVSPost2010PropOp55
 70
     1
102
RTVSPost2010Prop56
140
1.0
102
RTVSPost2010PropOp56
 70
     1
102
RTVSPost2010Prop57
140
1.0
102
RTVSPost2010PropOp57
 70
     1
102
RTVSPropertyOp0
 70
     1
102
RTVSPropertyOp1
 70
     1
102
RTVSPropertyOp2
 70
     1
102
RTVSPropertyOp3
 70
     1
102
RTVSPropertyOp4
 70
     1
102
RTVSPropertyOp5
 70
     1
102
RTVSPropertyOp6
 70
     1
102
RTVSPropertyOp7
 70
     1
102
RTVSPropertyOp8
 70
     1
102
RTVSPropertyOp9
 70
     1
102
RTVSPropertyOp10
 70
     1
102
RTVSPropertyOp11
 70
     1
102
RTVSPropertyOp12
 70
     1
102
RTVSPropertyOp13
 70
     1
102
RTVSPropertyOp14
 70
     1
102
RTVSPropertyOp15
 70
     1
102
RTVSPropertyOp16
 70
     1
102
RTVSPropertyOp17
 70
     1
102
RTVSPropertyOp18
 70
     1
102
RTVSPropertyOp19
 70
     1
102
RTVSPropertyOp20
 70
     1
102
RTVSPropertyOp21
 70
     1
102
RTVSPropertyOp22
 70
     1
102
RTVSPropertyOp23
 70
     1
102
RTVSPropertyOp24
 70
     1
102
RTVSPropertyOp25
 70
     1
102
RTVSPropertyOp26
 70
     1
102
RTVSPropertyOp27
 70
     1
102
RTVSPropertyOp28
 70
     1
102
RTVSPropertyOp29
 70
     1
102
RTVSPropertyOp30
 70
     1
102
RTVSPropertyOp31
 70
     1
102
RTVSPropertyOp32
 70
     1
102
RTVSPropertyOp33
 70
     1
102
RTVSPropertyOp34
 70
     1
102
RTVSPropertyOp35
 70
     1
102
RTVSPropertyOp36
 70
     1
102
RTVSPropertyOp37
 70
     1
102
RTVSPropertyOp38
 70
     1
102
RTVSPropertyOp39
 70
     1
102
RTVSPropertyOp40
 70
     1
102
RTVSPropertyOp41
 70
     1
102
RTVSPropertyOp42
 70
     1
102
RTVSPropertyOp43
 70
     1
102
RTVSPropertyOp44
 70
     1
102
RTVSPropertyOp45
 70
     1
102
RTVSPropertyOp46
 70
     1
102
RTVSPropertyOp47
 70
     1
102
RTVSPropertyOp48
 70
     1
102
RTVSPropertyOp49
 70
     1
102
RTVSPropertyOp50
 70
     1
102
RTVSPropertyOp51
 70
     0
102
RTVSPropertyOp52
 70
     0
102
RTVSPropertyOp53
 70
     1
102
RTVSPropertyOp54
 70
     1
102
RTVSPropertyOp55
 70
     1
102
RTVSPropertyOp56
 70
     1
102
RTVSPropertyOp57
 70
     1
102
RTVSPropertyOp58
 70
     1
102
RTVSPropertyOp59
 70
     1
102
RTVSPropertyOp60
 70
     1
102
RTVSPropertyOp61
 70
     1
102
RTVSPropertyOp62
 70
     1
  0
XRECORD
  5
BDA72
102
{ACAD_REACTORS
330
BDA71
102
}
330
BDA71
100
AcDbXrecord
280
     1
102
RTVSPost2010Prop28
280
     0
102
RTVSPost2010PropOp28
 70
     1
102
RTVSPost2010Prop29
280
     1
102
RTVSPost2010PropOp29
 70
     1
102
RTVSPost2010Prop30
280
     1
102
RTVSPost2010PropOp30
 70
     1
102
RTVSPost2010Prop31
280
     0
102
RTVSPost2010PropOp31
 70
     1
102
RTVSPost2010Prop32
280
     0
102
RTVSPost2010PropOp32
 70
     1
102
RTVSPost2010Prop33
280
     0
102
RTVSPost2010PropOp33
 70
     1
102
RTVSPost2010Prop34
280
     0
102
RTVSPost2010PropOp34
 70
     1
102
RTVSPost2010Prop35
280
     0
102
RTVSPost2010PropOp35
 70
     1
102
RTVSPost2010Prop36
280
     0
102
RTVSPost2010PropOp36
 70
     1
102
RTVSPost2010Prop37
 90
       50
102
RTVSPost2010PropOp37
 70
     1
102
RTVSPost2010Prop38
140
0.0
102
RTVSPost2010PropOp38
 70
     1
102
RTVSPost2010Prop39
140
1.0
102
RTVSPost2010PropOp39
 70
     1
102
RTVSPost2010Prop40
 90
        0
102
RTVSPost2010PropOp40
 70
     1
102
RTVSPost2010Prop41ColorIndex
 90
       18
102
RTVSPost2010Prop41ColorRGB
 90
        0
102
RTVSPost2010PropOp41
 70
     1
102
RTVSPost2010Prop42
 90
       50
102
RTVSPost2010PropOp42
 70
     1
102
RTVSPost2010Prop43
 90
        3
102
RTVSPost2010PropOp43
 70
     1
102
RTVSPost2010Prop44ColorIndex
 90
        5
102
RTVSPost2010Prop44ColorRGB
 90
      255
102
RTVSPost2010PropOp44
 70
     1
102
RTVSPost2010Prop45
280
     0
102
RTVSPost2010PropOp45
 70
     1
102
RTVSPost2010Prop46
 90
       50
102
RTVSPost2010PropOp46
 70
     1
102
RTVSPost2010Prop47
 90
       50
102
RTVSPost2010PropOp47
 70
     1
102
RTVSPost2010Prop48
 90
       50
102
RTVSPost2010PropOp48
 70
     1
102
RTVSPost2010Prop49
280
     0
102
RTVSPost2010PropOp49
 70
     1
102
RTVSPost2010Prop50
 90
       50
102
RTVSPost2010PropOp50
 70
     1
102
RTVSPost2010Prop51ColorIndex
 90
      256
102
RTVSPost2010Prop51ColorRGB
 90
-16777216
102
RTVSPost2010PropOp51
 70
     0
102
RTVSPost2010Prop52
140
1.0
102
RTVSPost2010PropOp52
 70
     0
102
RTVSPost2010Prop53
 90
        2
102
RTVSPost2010PropOp53
 70
     1
102
RTVSPost2010Prop54
  1
strokes_ogs.tif
102
RTVSPost2010PropOp54
 70
     1
102
RTVSPost2010Prop55
280
     0
102
RTVSPost2010PropOp55
 70
     1
102
RTVSPost2010Prop56
140
1.0
102
RTVSPost2010PropOp56
 70
     1
102
RTVSPost2010Prop57
140
1.0
102
RTVSPost2010PropOp57
 70
     1
102
RTVSPropertyOp0
 70
     1
102
RTVSPropertyOp1
 70
     1
102
RTVSPropertyOp2
 70
     1
102
RTVSPropertyOp3
 70
     1
102
RTVSPropertyOp4
 70
     1
102
RTVSPropertyOp5
 70
     1
102
RTVSPropertyOp6
 70
     1
102
RTVSPropertyOp7
 70
     1
102
RTVSPropertyOp8
 70
     1
102
RTVSPropertyOp9
 70
     1
102
RTVSPropertyOp10
 70
     1
102
RTVSPropertyOp11
 70
     1
102
RTVSPropertyOp12
 70
     1
102
RTVSPropertyOp13
 70
     1
102
RTVSPropertyOp14
 70
     1
102
RTVSPropertyOp15
 70
     1
102
RTVSPropertyOp16
 70
     1
102
RTVSPropertyOp17
 70
     1
102
RTVSPropertyOp18
 70
     1
102
RTVSPropertyOp19
 70
     1
102
RTVSPropertyOp20
 70
     1
102
RTVSPropertyOp21
 70
     1
102
RTVSPropertyOp22
 70
     1
102
RTVSPropertyOp23
 70
     1
102
RTVSPropertyOp24
 70
     1
102
RTVSPropertyOp25
 70
     1
102
RTVSPropertyOp26
 70
     1
102
RTVSPropertyOp27
 70
     1
102
RTVSPropertyOp28
 70
     1
102
RTVSPropertyOp29
 70
     1
102
RTVSPropertyOp30
 70
     1
102
RTVSPropertyOp31
 70
     1
102
RTVSPropertyOp32
 70
     1
102
RTVSPropertyOp33
 70
     1
102
RTVSPropertyOp34
 70
     1
102
RTVSPropertyOp35
 70
     1
102
RTVSPropertyOp36
 70
     1
102
RTVSPropertyOp37
 70
     1
102
RTVSPropertyOp38
 70
     1
102
RTVSPropertyOp39
 70
     1
102
RTVSPropertyOp40
 70
     1
102
RTVSPropertyOp41
 70
     1
102
RTVSPropertyOp42
 70
     1
102
RTVSPropertyOp43
 70
     1
102
RTVSPropertyOp44
 70
     1
102
RTVSPropertyOp45
 70
     1
102
RTVSPropertyOp46
 70
     1
102
RTVSPropertyOp47
 70
     1
102
RTVSPropertyOp48
 70
     1
102
RTVSPropertyOp49
 70
     1
102
RTVSPropertyOp50
 70
     1
102
RTVSPropertyOp51
 70
     0
102
RTVSPropertyOp52
 70
     0
102
RTVSPropertyOp53
 70
     1
102
RTVSPropertyOp54
 70
     1
102
RTVSPropertyOp55
 70
     1
102
RTVSPropertyOp56
 70
     1
102
RTVSPropertyOp57
 70
     1
102
RTVSPropertyOp58
 70
     1
102
RTVSPropertyOp59
 70
     1
102
RTVSPropertyOp60
 70
     1
102
RTVSPropertyOp61
 70
     1
102
RTVSPropertyOp62
 70
     1
  0
XRECORD
  5
BDA62
102
{ACAD_REACTORS
330
BDA61
102
}
330
BDA61
100
AcDbXrecord
280
     1
102
RTVSPost2010Prop28
280
     0
102
RTVSPost2010PropOp28
 70
     1
102
RTVSPost2010Prop29
280
     1
102
RTVSPost2010PropOp29
 70
     1
102
RTVSPost2010Prop30
280
     1
102
RTVSPost2010PropOp30
 70
     1
102
RTVSPost2010Prop31
280
     0
102
RTVSPost2010PropOp31
 70
     1
102
RTVSPost2010Prop32
280
     0
102
RTVSPost2010PropOp32
 70
     1
102
RTVSPost2010Prop33
280
     0
102
RTVSPost2010PropOp33
 70
     1
102
RTVSPost2010Prop34
280
     0
102
RTVSPost2010PropOp34
 70
     1
102
RTVSPost2010Prop35
280
     0
102
RTVSPost2010PropOp35
 70
     1
102
RTVSPost2010Prop36
280
     0
102
RTVSPost2010PropOp36
 70
     1
102
RTVSPost2010Prop37
 90
       50
102
RTVSPost2010PropOp37
 70
     1
102
RTVSPost2010Prop38
140
0.0
102
RTVSPost2010PropOp38
 70
     1
102
RTVSPost2010Prop39
140
1.0
102
RTVSPost2010PropOp39
 70
     1
102
RTVSPost2010Prop40
 90
        0
102
RTVSPost2010PropOp40
 70
     1
102
RTVSPost2010Prop41ColorIndex
 90
       18
102
RTVSPost2010Prop41ColorRGB
 90
        0
102
RTVSPost2010PropOp41
 70
     1
102
RTVSPost2010Prop42
 90
       50
102
RTVSPost2010PropOp42
 70
     1
102
RTVSPost2010Prop43
 90
        3
102
RTVSPost2010PropOp43
 70
     1
102
RTVSPost2010Prop44ColorIndex
 90
        5
102
RTVSPost2010Prop44ColorRGB
 90
      255
102
RTVSPost2010PropOp44
 70
     1
102
RTVSPost2010Prop45
280
     0
102
RTVSPost2010PropOp45
 70
     1
102
RTVSPost2010Prop46
 90
       50
102
RTVSPost2010PropOp46
 70
     1
102
RTVSPost2010Prop47
 90
       50
102
RTVSPost2010PropOp47
 70
     1
102
RTVSPost2010Prop48
 90
       50
102
RTVSPost2010PropOp48
 70
     1
102
RTVSPost2010Prop49
280
     0
102
RTVSPost2010PropOp49
 70
     1
102
RTVSPost2010Prop50
 90
       50
102
RTVSPost2010PropOp50
 70
     1
102
RTVSPost2010Prop51ColorIndex
 90
      256
102
RTVSPost2010Prop51ColorRGB
 90
-16777216
102
RTVSPost2010PropOp51
 70
     0
102
RTVSPost2010Prop52
140
1.0
102
RTVSPost2010PropOp52
 70
     0
102
RTVSPost2010Prop53
 90
        2
102
RTVSPost2010PropOp53
 70
     1
102
RTVSPost2010Prop54
  1
strokes_ogs.tif
102
RTVSPost2010PropOp54
 70
     1
102
RTVSPost2010Prop55
280
     0
102
RTVSPost2010PropOp55
 70
     1
102
RTVSPost2010Prop56
140
1.0
102
RTVSPost2010PropOp56
 70
     1
102
RTVSPost2010Prop57
140
1.0
102
RTVSPost2010PropOp57
 70
     1
102
RTVSPropertyOp0
 70
     1
102
RTVSPropertyOp1
 70
     1
102
RTVSPropertyOp2
 70
     1
102
RTVSPropertyOp3
 70
     1
102
RTVSPropertyOp4
 70
     1
102
RTVSPropertyOp5
 70
     1
102
RTVSPropertyOp6
 70
     1
102
RTVSPropertyOp7
 70
     1
102
RTVSPropertyOp8
 70
     1
102
RTVSPropertyOp9
 70
     1
102
RTVSPropertyOp10
 70
     1
102
RTVSPropertyOp11
 70
     1
102
RTVSPropertyOp12
 70
     1
102
RTVSPropertyOp13
 70
     1
102
RTVSPropertyOp14
 70
     1
102
RTVSPropertyOp15
 70
     1
102
RTVSPropertyOp16
 70
     1
102
RTVSPropertyOp17
 70
     1
102
RTVSPropertyOp18
 70
     1
102
RTVSPropertyOp19
 70
     1
102
RTVSPropertyOp20
 70
     1
102
RTVSPropertyOp21
 70
     1
102
RTVSPropertyOp22
 70
     1
102
RTVSPropertyOp23
 70
     1
102
RTVSPropertyOp24
 70
     1
102
RTVSPropertyOp25
 70
     1
102
RTVSPropertyOp26
 70
     1
102
RTVSPropertyOp27
 70
     1
102
RTVSPropertyOp28
 70
     1
102
RTVSPropertyOp29
 70
     1
102
RTVSPropertyOp30
 70
     1
102
RTVSPropertyOp31
 70
     1
102
RTVSPropertyOp32
 70
     1
102
RTVSPropertyOp33
 70
     1
102
RTVSPropertyOp34
 70
     1
102
RTVSPropertyOp35
 70
     1
102
RTVSPropertyOp36
 70
     1
102
RTVSPropertyOp37
 70
     1
102
RTVSPropertyOp38
 70
     1
102
RTVSPropertyOp39
 70
     1
102
RTVSPropertyOp40
 70
     1
102
RTVSPropertyOp41
 70
     1
102
RTVSPropertyOp42
 70
     1
102
RTVSPropertyOp43
 70
     1
102
RTVSPropertyOp44
 70
     1
102
RTVSPropertyOp45
 70
     1
102
RTVSPropertyOp46
 70
     1
102
RTVSPropertyOp47
 70
     1
102
RTVSPropertyOp48
 70
     1
102
RTVSPropertyOp49
 70
     1
102
RTVSPropertyOp50
 70
     1
102
RTVSPropertyOp51
 70
     0
102
RTVSPropertyOp52
 70
     0
102
RTVSPropertyOp53
 70
     1
102
RTVSPropertyOp54
 70
     1
102
RTVSPropertyOp55
 70
     1
102
RTVSPropertyOp56
 70
     1
102
RTVSPropertyOp57
 70
     1
102
RTVSPropertyOp58
 70
     1
102
RTVSPropertyOp59
 70
     1
102
RTVSPropertyOp60
 70
     1
102
RTVSPropertyOp61
 70
     1
102
RTVSPropertyOp62
 70
     1
  0
XRECORD
  5
BDA54
102
{ACAD_REACTORS
330
BDA53
102
}
330
BDA53
100
AcDbXrecord
280
     1
102
RTVSPost2010Prop28
280
     0
102
RTVSPost2010PropOp28
 70
     1
102
RTVSPost2010Prop29
280
     1
102
RTVSPost2010PropOp29
 70
     1
102
RTVSPost2010Prop30
280
     1
102
RTVSPost2010PropOp30
 70
     1
102
RTVSPost2010Prop31
280
     0
102
RTVSPost2010PropOp31
 70
     1
102
RTVSPost2010Prop32
280
     0
102
RTVSPost2010PropOp32
 70
     1
102
RTVSPost2010Prop33
280
     0
102
RTVSPost2010PropOp33
 70
     1
102
RTVSPost2010Prop34
280
     0
102
RTVSPost2010PropOp34
 70
     1
102
RTVSPost2010Prop35
280
     0
102
RTVSPost2010PropOp35
 70
     1
102
RTVSPost2010Prop36
280
     0
102
RTVSPost2010PropOp36
 70
     1
102
RTVSPost2010Prop37
 90
       50
102
RTVSPost2010PropOp37
 70
     1
102
RTVSPost2010Prop38
140
0.0
102
RTVSPost2010PropOp38
 70
     1
102
RTVSPost2010Prop39
140
1.0
102
RTVSPost2010PropOp39
 70
     1
102
RTVSPost2010Prop40
 90
        0
102
RTVSPost2010PropOp40
 70
     1
102
RTVSPost2010Prop41ColorIndex
 90
       18
102
RTVSPost2010Prop41ColorRGB
 90
        0
102
RTVSPost2010PropOp41
 70
     1
102
RTVSPost2010Prop42
 90
       50
102
RTVSPost2010PropOp42
 70
     1
102
RTVSPost2010Prop43
 90
        3
102
RTVSPost2010PropOp43
 70
     1
102
RTVSPost2010Prop44ColorIndex
 90
        5
102
RTVSPost2010Prop44ColorRGB
 90
      255
102
RTVSPost2010PropOp44
 70
     1
102
RTVSPost2010Prop45
280
     0
102
RTVSPost2010PropOp45
 70
     1
102
RTVSPost2010Prop46
 90
       50
102
RTVSPost2010PropOp46
 70
     1
102
RTVSPost2010Prop47
 90
       50
102
RTVSPost2010PropOp47
 70
     1
102
RTVSPost2010Prop48
 90
       50
102
RTVSPost2010PropOp48
 70
     1
102
RTVSPost2010Prop49
280
     0
102
RTVSPost2010PropOp49
 70
     1
102
RTVSPost2010Prop50
 90
       50
102
RTVSPost2010PropOp50
 70
     1
102
RTVSPost2010Prop51ColorIndex
 90
      256
102
RTVSPost2010Prop51ColorRGB
 90
-16777216
102
RTVSPost2010PropOp51
 70
     0
102
RTVSPost2010Prop52
140
1.0
102
RTVSPost2010PropOp52
 70
     0
102
RTVSPost2010Prop53
 90
        2
102
RTVSPost2010PropOp53
 70
     1
102
RTVSPost2010Prop54
  1
strokes_ogs.tif
102
RTVSPost2010PropOp54
 70
     1
102
RTVSPost2010Prop55
280
     0
102
RTVSPost2010PropOp55
 70
     1
102
RTVSPost2010Prop56
140
1.0
102
RTVSPost2010PropOp56
 70
     1
102
RTVSPost2010Prop57
140
1.0
102
RTVSPost2010PropOp57
 70
     1
102
RTVSPropertyOp0
 70
     1
102
RTVSPropertyOp1
 70
     1
102
RTVSPropertyOp2
 70
     1
102
RTVSPropertyOp3
 70
     1
102
RTVSPropertyOp4
 70
     1
102
RTVSPropertyOp5
 70
     1
102
RTVSPropertyOp6
 70
     1
102
RTVSPropertyOp7
 70
     1
102
RTVSPropertyOp8
 70
     1
102
RTVSPropertyOp9
 70
     1
102
RTVSPropertyOp10
 70
     1
102
RTVSPropertyOp11
 70
     1
102
RTVSPropertyOp12
 70
     1
102
RTVSPropertyOp13
 70
     1
102
RTVSPropertyOp14
 70
     1
102
RTVSPropertyOp15
 70
     1
102
RTVSPropertyOp16
 70
     1
102
RTVSPropertyOp17
 70
     1
102
RTVSPropertyOp18
 70
     1
102
RTVSPropertyOp19
 70
     1
102
RTVSPropertyOp20
 70
     1
102
RTVSPropertyOp21
 70
     1
102
RTVSPropertyOp22
 70
     1
102
RTVSPropertyOp23
 70
     1
102
RTVSPropertyOp24
 70
     1
102
RTVSPropertyOp25
 70
     1
102
RTVSPropertyOp26
 70
     1
102
RTVSPropertyOp27
 70
     1
102
RTVSPropertyOp28
 70
     1
102
RTVSPropertyOp29
 70
     1
102
RTVSPropertyOp30
 70
     1
102
RTVSPropertyOp31
 70
     1
102
RTVSPropertyOp32
 70
     1
102
RTVSPropertyOp33
 70
     1
102
RTVSPropertyOp34
 70
     1
102
RTVSPropertyOp35
 70
     1
102
RTVSPropertyOp36
 70
     1
102
RTVSPropertyOp37
 70
     1
102
RTVSPropertyOp38
 70
     1
102
RTVSPropertyOp39
 70
     1
102
RTVSPropertyOp40
 70
     1
102
RTVSPropertyOp41
 70
     1
102
RTVSPropertyOp42
 70
     1
102
RTVSPropertyOp43
 70
     1
102
RTVSPropertyOp44
 70
     1
102
RTVSPropertyOp45
 70
     1
102
RTVSPropertyOp46
 70
     1
102
RTVSPropertyOp47
 70
     1
102
RTVSPropertyOp48
 70
     1
102
RTVSPropertyOp49
 70
     1
102
RTVSPropertyOp50
 70
     1
102
RTVSPropertyOp51
 70
     0
102
RTVSPropertyOp52
 70
     0
102
RTVSPropertyOp53
 70
     1
102
RTVSPropertyOp54
 70
     1
102
RTVSPropertyOp55
 70
     1
102
RTVSPropertyOp56
 70
     1
102
RTVSPropertyOp57
 70
     1
102
RTVSPropertyOp58
 70
     1
102
RTVSPropertyOp59
 70
     1
102
RTVSPropertyOp60
 70
     1
102
RTVSPropertyOp61
 70
     1
102
RTVSPropertyOp62
 70
     1
  0
XRECORD
  5
BDA74
102
{ACAD_REACTORS
330
BDA73
102
}
330
BDA73
100
AcDbXrecord
280
     1
102
RTVSPost2010Prop28
280
     0
102
RTVSPost2010PropOp28
 70
     1
102
RTVSPost2010Prop29
280
     1
102
RTVSPost2010PropOp29
 70
     1
102
RTVSPost2010Prop30
280
     1
102
RTVSPost2010PropOp30
 70
     1
102
RTVSPost2010Prop31
280
     0
102
RTVSPost2010PropOp31
 70
     1
102
RTVSPost2010Prop32
280
     0
102
RTVSPost2010PropOp32
 70
     1
102
RTVSPost2010Prop33
280
     0
102
RTVSPost2010PropOp33
 70
     1
102
RTVSPost2010Prop34
280
     0
102
RTVSPost2010PropOp34
 70
     1
102
RTVSPost2010Prop35
280
     0
102
RTVSPost2010PropOp35
 70
     1
102
RTVSPost2010Prop36
280
     0
102
RTVSPost2010PropOp36
 70
     1
102
RTVSPost2010Prop37
 90
       50
102
RTVSPost2010PropOp37
 70
     1
102
RTVSPost2010Prop38
140
0.0
102
RTVSPost2010PropOp38
 70
     1
102
RTVSPost2010Prop39
140
1.0
102
RTVSPost2010PropOp39
 70
     1
102
RTVSPost2010Prop40
 90
        0
102
RTVSPost2010PropOp40
 70
     1
102
RTVSPost2010Prop41ColorIndex
 90
       18
102
RTVSPost2010Prop41ColorRGB
 90
        0
102
RTVSPost2010PropOp41
 70
     1
102
RTVSPost2010Prop42
 90
       50
102
RTVSPost2010PropOp42
 70
     1
102
RTVSPost2010Prop43
 90
        3
102
RTVSPost2010PropOp43
 70
     1
102
RTVSPost2010Prop44ColorIndex
 90
        5
102
RTVSPost2010Prop44ColorRGB
 90
      255
102
RTVSPost2010PropOp44
 70
     1
102
RTVSPost2010Prop45
280
     0
102
RTVSPost2010PropOp45
 70
     1
102
RTVSPost2010Prop46
 90
       50
102
RTVSPost2010PropOp46
 70
     1
102
RTVSPost2010Prop47
 90
       50
102
RTVSPost2010PropOp47
 70
     1
102
RTVSPost2010Prop48
 90
       50
102
RTVSPost2010PropOp48
 70
     1
102
RTVSPost2010Prop49
280
     0
102
RTVSPost2010PropOp49
 70
     1
102
RTVSPost2010Prop50
 90
       50
102
RTVSPost2010PropOp50
 70
     1
102
RTVSPost2010Prop51ColorIndex
 90
      256
102
RTVSPost2010Prop51ColorRGB
 90
-16777216
102
RTVSPost2010PropOp51
 70
     0
102
RTVSPost2010Prop52
140
1.0
102
RTVSPost2010PropOp52
 70
     0
102
RTVSPost2010Prop53
 90
        2
102
RTVSPost2010PropOp53
 70
     1
102
RTVSPost2010Prop54
  1
strokes_ogs.tif
102
RTVSPost2010PropOp54
 70
     1
102
RTVSPost2010Prop55
280
     0
102
RTVSPost2010PropOp55
 70
     1
102
RTVSPost2010Prop56
140
1.0
102
RTVSPost2010PropOp56
 70
     1
102
RTVSPost2010Prop57
140
1.0
102
RTVSPost2010PropOp57
 70
     1
102
RTVSPropertyOp0
 70
     1
102
RTVSPropertyOp1
 70
     1
102
RTVSPropertyOp2
 70
     1
102
RTVSPropertyOp3
 70
     1
102
RTVSPropertyOp4
 70
     1
102
RTVSPropertyOp5
 70
     1
102
RTVSPropertyOp6
 70
     1
102
RTVSPropertyOp7
 70
     1
102
RTVSPropertyOp8
 70
     1
102
RTVSPropertyOp9
 70
     1
102
RTVSPropertyOp10
 70
     1
102
RTVSPropertyOp11
 70
     1
102
RTVSPropertyOp12
 70
     1
102
RTVSPropertyOp13
 70
     1
102
RTVSPropertyOp14
 70
     1
102
RTVSPropertyOp15
 70
     1
102
RTVSPropertyOp16
 70
     1
102
RTVSPropertyOp17
 70
     1
102
RTVSPropertyOp18
 70
     1
102
RTVSPropertyOp19
 70
     1
102
RTVSPropertyOp20
 70
     1
102
RTVSPropertyOp21
 70
     1
102
RTVSPropertyOp22
 70
     1
102
RTVSPropertyOp23
 70
     1
102
RTVSPropertyOp24
 70
     1
102
RTVSPropertyOp25
 70
     1
102
RTVSPropertyOp26
 70
     1
102
RTVSPropertyOp27
 70
     1
102
RTVSPropertyOp28
 70
     1
102
RTVSPropertyOp29
 70
     1
102
RTVSPropertyOp30
 70
     1
102
RTVSPropertyOp31
 70
     1
102
RTVSPropertyOp32
 70
     1
102
RTVSPropertyOp33
 70
     1
102
RTVSPropertyOp34
 70
     1
102
RTVSPropertyOp35
 70
     1
102
RTVSPropertyOp36
 70
     1
102
RTVSPropertyOp37
 70
     1
102
RTVSPropertyOp38
 70
     1
102
RTVSPropertyOp39
 70
     1
102
RTVSPropertyOp40
 70
     1
102
RTVSPropertyOp41
 70
     1
102
RTVSPropertyOp42
 70
     1
102
RTVSPropertyOp43
 70
     1
102
RTVSPropertyOp44
 70
     1
102
RTVSPropertyOp45
 70
     1
102
RTVSPropertyOp46
 70
     1
102
RTVSPropertyOp47
 70
     1
102
RTVSPropertyOp48
 70
     1
102
RTVSPropertyOp49
 70
     1
102
RTVSPropertyOp50
 70
     1
102
RTVSPropertyOp51
 70
     0
102
RTVSPropertyOp52
 70
     0
102
RTVSPropertyOp53
 70
     1
102
RTVSPropertyOp54
 70
     1
102
RTVSPropertyOp55
 70
     1
102
RTVSPropertyOp56
 70
     1
102
RTVSPropertyOp57
 70
     1
102
RTVSPropertyOp58
 70
     1
102
RTVSPropertyOp59
 70
     1
102
RTVSPropertyOp60
 70
     1
102
RTVSPropertyOp61
 70
     1
102
RTVSPropertyOp62
 70
     1
  0
ENDSEC
  0
EOF
