  0
SECTION
  2
HEADER
  9
$ACADVER
  1
AC1027
  9
$ACADMAINTVER
 70
     8
  9
$DWGCODEPAGE
  3
ANSI_932
  9
$REQUIREDVERSIONS
160
                 0
  9
$LASTSAVEDBY
  1
a-okamoto
  9
$INSBASE
 10
0.0
 20
0.0
 30
0.0
  9
$EXTMIN
 10
5175.047491566596
 20
-1748.73751933252
 30
0.0
  9
$EXTMAX
 10
5883.522969975276
 20
-1375.737519332531
 30
0.0
  9
$LIMMIN
 10
0.0
 20
0.0
  9
$LIMMAX
 10
420.0
 20
297.0
  9
$ORTHOMODE
 70
     1
  9
$REGENMODE
 70
     1
  9
$FILLMODE
 70
     1
  9
$QTEXTMODE
 70
     0
  9
$MIRRTEXT
 70
     0
  9
$LTSCALE
 40
1.0
  9
$ATTMODE
 70
     1
  9
$TEXTSIZE
 40
0.2
  9
$TRACEWID
 40
1.0
  9
$TEXTSTYLE
  7
ｽﾀｲﾙ1
  9
$CLAYER
  8
waku
  9
$CELTYPE
  6
BYLAYER
  9
$CECOLOR
 62
   256
  9
$CELTSCALE
 40
1.0
  9
$DISPSILH
 70
     0
  9
$DIMSCALE
 40
2.0
  9
$DIMASZ
 40
2.5
  9
$DIMEXO
 40
1.0
  9
$DIMDLI
 40
0.38
  9
$DIMRND
 40
0.0
  9
$DIMDLE
 40
0.0
  9
$DIMEXE
 40
0.8
  9
$DIMTP
 40
0.0
  9
$DIMTM
 40
0.0
  9
$DIMTXT
 40
2.5
  9
$DIMCEN
 40
0.0
  9
$DIMTSZ
 40
0.0
  9
$DIMTOL
 70
     0
  9
$DIMLIM
 70
     0
  9
$DIMTIH
 70
     0
  9
$DIMTOH
 70
     0
  9
$DIMSE1
 70
     0
  9
$DIMSE2
 70
     0
  9
$DIMTAD
 70
     3
  9
$DIMZIN
 70
     8
  9
$DIMBLK
  1
Open30
  9
$DIMASO
 70
     1
  9
$DIMSHO
 70
     1
  9
$DIMPOST
  1

  9
$DIMAPOST
  1

  9
$DIMALT
 70
     0
  9
$DIMALTD
 70
     2
  9
$DIMALTF
 40
25.4
  9
$DIMLFAC
 40
1.0
  9
$DIMTOFL
 70
     0
  9
$DIMTVP
 40
0.0
  9
$DIMTIX
 70
     0
  9
$DIMSOXD
 70
     0
  9
$DIMSAH
 70
     0
  9
$DIMBLK1
  1

  9
$DIMBLK2
  1

  9
$DIMSTYLE
  2
まこ-10
  9
$DIMCLRD
 70
     4
  9
$DIMCLRE
 70
     4
  9
$DIMCLRT
 70
   256
  9
$DIMTFAC
 40
1.0
  9
$DIMGAP
 40
0.5
  9
$DIMJUST
 70
     0
  9
$DIMSD1
 70
     0
  9
$DIMSD2
 70
     0
  9
$DIMTOLJ
 70
     1
  9
$DIMTZIN
 70
     0
  9
$DIMALTZ
 70
     0
  9
$DIMALTTZ
 70
     0
  9
$DIMUPT
 70
     0
  9
$DIMDEC
 70
     5
  9
$DIMTDEC
 70
     5
  9
$DIMALTU
 70
     2
  9
$DIMALTTD
 70
     2
  9
$DIMTXSTY
  7
MSｺﾞｼｯｸ-0
  9
$DIMAUNIT
 70
     0
  9
$DIMADEC
 70
     5
  9
$DIMALTRND
 40
0.0
  9
$DIMAZIN
 70
     2
  9
$DIMDSEP
 70
    46
  9
$DIMATFIT
 70
     1
  9
$DIMFRAC
 70
     0
  9
$DIMLDRBLK
  1
Open30
  9
$DIMLUNIT
 70
     2
  9
$DIMLWD
 70
    13
  9
$DIMLWE
 70
    13
  9
$DIMTMOVE
 70
     0
  9
$DIMFXL
 40
1.0
  9
$DIMFXLON
 70
     0
  9
$DIMJOGANG
 40
0.7853981633974483
  9
$DIMTFILL
 70
     0
  9
$DIMTFILLCLR
 70
     0
  9
$DIMARCSYM
 70
     0
  9
$DIMLTYPE
  6

  9
$DIMLTEX1
  6

  9
$DIMLTEX2
  6

  9
$DIMTXTDIRECTION
 70
     0
  9
$LUNITS
 70
     2
  9
$LUPREC
 70
     4
  9
$SKETCHINC
 40
1.0
  9
$FILLETRAD
 40
35.0
  9
$AUNITS
 70
     0
  9
$AUPREC
 70
     0
  9
$MENU
  1
.
  9
$ELEVATION
 40
0.0
  9
$PELEVATION
 40
0.0
  9
$THICKNESS
 40
0.0
  9
$LIMCHECK
 70
     0
  9
$CHAMFERA
 40
0.5
  9
$CHAMFERB
 40
0.5
  9
$CHAMFERC
 40
20.0
  9
$CHAMFERD
 40
0.0
  9
$SKPOLY
 70
     0
  9
$TDCREATE
 40
2452479.723123183
  9
$TDUCREATE
 40
2452479.348123183
  9
$TDUPDATE
 40
2458052.440334653
  9
$TDUUPDATE
 40
2458052.065334653
  9
$TDINDWG
 40
16.0428978588
  9
$TDUSRTIMER
 40
2458052.063335949
  9
$USRTIMER
 70
     1
  9
$ANGBASE
 50
0.0
  9
$ANGDIR
 70
     0
  9
$PDMODE
 70
     0
  9
$PDSIZE
 40
0.0
  9
$PLINEWID
 40
0.0
  9
$SPLFRAME
 70
     0
  9
$SPLINETYPE
 70
     6
  9
$SPLINESEGS
 70
     8
  9
$HANDSEED
  5
BE8B2
  9
$SURFTAB1
 70
     6
  9
$SURFTAB2
 70
     6
  9
$SURFTYPE
 70
     6
  9
$SURFU
 70
     6
  9
$SURFV
 70
     6
  9
$UCSBASE
  2

  9
$UCSNAME
  2

  9
$UCSORG
 10
0.0
 20
0.0
 30
0.0
  9
$UCSXDIR
 10
1.0
 20
0.0
 30
0.0
  9
$UCSYDIR
 10
0.0
 20
1.0
 30
0.0
  9
$UCSORTHOREF
  2

  9
$UCSORTHOVIEW
 70
     0
  9
$UCSORGTOP
 10
0.0
 20
0.0
 30
0.0
  9
$UCSORGBOTTOM
 10
0.0
 20
0.0
 30
0.0
  9
$UCSORGLEFT
 10
0.0
 20
0.0
 30
0.0
  9
$UCSORGRIGHT
 10
0.0
 20
0.0
 30
0.0
  9
$UCSORGFRONT
 10
0.0
 20
0.0
 30
0.0
  9
$UCSORGBACK
 10
0.0
 20
0.0
 30
0.0
  9
$PUCSBASE
  2

  9
$PUCSNAME
  2

  9
$PUCSORG
 10
0.0
 20
0.0
 30
0.0
  9
$PUCSXDIR
 10
1.0
 20
0.0
 30
0.0
  9
$PUCSYDIR
 10
0.0
 20
1.0
 30
0.0
  9
$PUCSORTHOREF
  2

  9
$PUCSORTHOVIEW
 70
     0
  9
$PUCSORGTOP
 10
0.0
 20
0.0
 30
0.0
  9
$PUCSORGBOTTOM
 10
0.0
 20
0.0
 30
0.0
  9
$PUCSORGLEFT
 10
0.0
 20
0.0
 30
0.0
  9
$PUCSORGRIGHT
 10
0.0
 20
0.0
 30
0.0
  9
$PUCSORGFRONT
 10
0.0
 20
0.0
 30
0.0
  9
$PUCSORGBACK
 10
0.0
 20
0.0
 30
0.0
  9
$USERI1
 70
     0
  9
$USERI2
 70
     0
  9
$USERI3
 70
     0
  9
$USERI4
 70
     0
  9
$USERI5
 70
     0
  9
$USERR1
 40
10.0
  9
$USERR2
 40
0.0
  9
$USERR3
 40
0.0
  9
$USERR4
 40
0.0
  9
$USERR5
 40
0.0
  9
$WORLDVIEW
 70
     1
  9
$SHADEDGE
 70
     3
  9
$SHADEDIF
 70
    70
  9
$TILEMODE
 70
     0
  9
$MAXACTVP
 70
    48
  9
$PINSBASE
 10
0.0
 20
0.0
 30
0.0
  9
$PLIMCHECK
 70
     0
  9
$PEXTMIN
 10
1.05
 20
0.6999999999999997
 30
0.0
  9
$PEXTMAX
 10
9.45
 20
6.300000000000001
 30
0.0
  9
$PLIMMIN
 10
-0.25
 20
-0.7499999999999999
  9
$PLIMMAX
 10
10.75
 20
7.75
  9
$UNITMODE
 70
     0
  9
$VISRETAIN
 70
     1
  9
$PLINEGEN
 70
     0
  9
$PSLTSCALE
 70
     1
  9
$TREEDEPTH
 70
  3020
  9
$CMLSTYLE
  2
STANDARD
  9
$CMLJUST
 70
     0
  9
$CMLSCALE
 40
20.0
  9
$PROXYGRAPHICS
 70
     1
  9
$MEASUREMENT
 70
     0
  9
$CELWEIGHT
370
    -1
  9
$ENDCAPS
280
     0
  9
$JOINSTYLE
280
     0
  9
$LWDISPLAY
290
     1
  9
$INSUNITS
 70
     0
  9
$HYPERLINKBASE
  1

  9
$STYLESHEET
  1
monochrome.ctb
  9
$XEDIT
290
     1
  9
$CEPSNTYPE
380
     0
  9
$PSTYLEMODE
290
     1
  9
$FINGERPRINTGUID
  2
{6B368F64-F7EB-11D4-BFBA-00004C030E53}
  9
$VERSIONGUID
  2
{CD1AC7FD-4C40-42C6-8D73-E01153052FD0}
  9
$EXTNAMES
290
     1
  9
$PSVPSCALE
 40
0.0
  9
$OLESTARTUP
290
     0
  9
$SORTENTS
280
    96
  9
$INDEXCTL
280
     0
  9
$HIDETEXT
280
     1
  9
$XCLIPFRAME
280
     2
  9
$HALOGAP
280
     0
  9
$OBSCOLOR
 70
   257
  9
$OBSLTYPE
280
     0
  9
$INTERSECTIONDISPLAY
280
     0
  9
$INTERSECTIONCOLOR
 70
   257
  9
$DIMASSOC
280
     1
  9
$PROJECTNAME
  1

  9
$CAMERADISPLAY
290
     0
  9
$LENSLENGTH
 40
50.0
  9
$CAMERAHEIGHT
 40
0.0
  9
$STEPSPERSEC
 40
2.0
  9
$STEPSIZE
 40
6.0
  9
$3DDWFPREC
 40
2.0
  9
$PSOLWIDTH
 40
0.25
  9
$PSOLHEIGHT
 40
4.0
  9
$LOFTANG1
 40
1.570796326794897
  9
$LOFTANG2
 40
1.570796326794897
  9
$LOFTMAG1
 40
0.0
  9
$LOFTMAG2
 40
0.0
  9
$LOFTPARAM
 70
     7
  9
$LOFTNORMALS
280
     1
  9
$LATITUDE
 40
37.795
  9
$LONGITUDE
 40
-122.394
  9
$NORTHDIRECTION
 40
0.0
  9
$TIMEZONE
 70
 -8000
  9
$LIGHTGLYPHDISPLAY
280
     1
  9
$TILEMODELIGHTSYNCH
280
     1
  9
$SOLIDHIST
280
     0
  9
$SHOWHIST
280
     1
  9
$DWFFRAME
280
     2
  9
$DGNFRAME
280
     2
  9
$REALWORLDSCALE
290
     1
  9
$INTERFERECOLOR
 62
   256
  9
$CSHADOW
280
     0
  9
$SHADOWPLANELOCATION
 40
0.0
  0
ENDSEC
  0
SECTION
  2
CLASSES
  0
CLASS
  1
HATCH
  2
AcDbHatch
  3
ObjectDBX Classes
 90
        0
 91
        1
280
     0
281
     1
  0
CLASS
  1
LWPOLYLINE
  2
AcDbPolyline
  3
ObjectDBX Classes
 90
        0
 91
        1
280
     0
281
     1
  0
CLASS
  1
ACDBDICTIONARYWDFLT
  2
AcDbDictionaryWithDefault
  3
ObjectDBX Classes
 90
        0
 91
        4
280
     0
281
     0
  0
CLASS
  1
ACDBPLACEHOLDER
  2
AcDbPlaceHolder
  3
ObjectDBX Classes
 90
        0
 91
        1
280
     0
281
     0
  0
CLASS
  1
LAYOUT
  2
AcDbLayout
  3
ObjectDBX Classes
 90
        0
 91
        1
280
     0
281
     0
  0
CLASS
  1
DICTIONARYVAR
  2
AcDbDictionaryVar
  3
ObjectDBX Classes
 90
        0
 91
        4
280
     0
281
     0
  0
CLASS
  1
MATERIAL
  2
AcDbMaterial
  3
ObjectDBX Classes
 90
     1153
 91
        4
280
     0
281
     0
  0
CLASS
  1
VISUALSTYLE
  2
AcDbVisualStyle
  3
ObjectDBX Classes
 90
     4095
 91
        4
280
     0
281
     0
  0
CLASS
  1
TABLESTYLE
  2
AcDbTableStyle
  3
ObjectDBX Classes
 90
     4095
 91
        4
280
     0
281
     0
  0
CLASS
  1
SCALE
  2
AcDbScale
  3
ObjectDBX Classes
 90
     1153
 91
        4
280
     0
281
     0
  0
CLASS
  1
MLEADERSTYLE
  2
AcDbMLeaderStyle
  3
ACDB_MLEADERSTYLE_CLASS
 90
     4095
 91
        4
280
     0
281
     0
  0
CLASS
  1
SORTENTSTABLE
  2
AcDbSortentsTable
  3
ObjectDBX Classes
 90
        0
 91
        4
280
     0
281
     0
  0
CLASS
  1
CELLSTYLEMAP
  2
AcDbCellStyleMap
  3
ObjectDBX Classes
 90
     1152
 91
        4
280
     0
281
     0
  0
CLASS
  1
SUN
  2
AcDbSun
  3
SCENEOE
 90
     1153
 91
        4
280
     0
281
     0
  0
CLASS
  1
RASTERVARIABLES
  2
AcDbRasterVariables
  3
ISM
 90
        0
 91
        4
280
     0
281
     0
  0
ENDSEC
  0
SECTION
  2
TABLES
  0
TABLE
  2
VPORT
  5
8
330
0
100
AcDbSymbolTable
 70
     1
  0
VPORT
  5
A2A92
330
8
100
AcDbSymbolTableRecord
100
AcDbViewportTableRecord
  2
*Active
 70
     0
 10
0.0
 20
0.0
 11
1.0
 21
1.0
 12
5706.148290243423
 22
-1572.379154257124
 13
-147.9468458676922
 23
19.55743956420332
 14
10.0
 24
10.0
 15
10.0
 25
10.0
 16
0.0
 26
0.0
 36
1.0
 17
0.0
 27
0.0
 37
0.0
 40
929.8219053895594
 41
1.19874213836478
 42
50.0
 43
0.0
 44
0.0
 50
0.0
 51
0.0
 71
    16
 72
   100
 73
     1
 74
     0
 75
     0
 76
     0
 77
     0
 78
     0
281
     0
 65
     1
110
0.0
120
0.0
130
0.0
111
1.0
121
0.0
131
0.0
112
0.0
122
1.0
132
0.0
 79
     0
146
0.0
348
BE839
 60
     3
 61
     5
292
     1
282
     1
141
0.0
142
0.0
 63
   256
361
BE856
1001
ACAD_NAV_VCDISPLAY
1070
     3
  0
ENDTAB
  0
TABLE
  2
LTYPE
  5
5
330
0
100
AcDbSymbolTable
 70
     4
  0
LTYPE
  5
12
330
5
100
AcDbSymbolTableRecord
100
AcDbLinetypeTableRecord
  2
BYBLOCK
 70
     0
  3

 72
    65
 73
     0
 40
0.0
  0
LTYPE
  5
13
330
5
100
AcDbSymbolTableRecord
100
AcDbLinetypeTableRecord
  2
BYLAYER
 70
     0
  3

 72
    65
 73
     0
 40
0.0
  0
LTYPE
  5
14
330
5
100
AcDbSymbolTableRecord
100
AcDbLinetypeTableRecord
  2
CONTINUOUS
 70
     0
  3
Solid line
 72
    65
 73
     0
 40
0.0
  0
LTYPE
  5
8930E
330
5
100
AcDbSymbolTableRecord
100
AcDbLinetypeTableRecord
  2
CENTER
 70
     0
  3
____ _ ____ _ ____ _ ____ _ ____ _ ____ _ ____
 72
    65
 73
     4
 40
17.5
 49
13.0
 74
     0
 49
-1.5
 74
     0
 49
1.5
 74
     0
 49
-1.5
 74
     0
  0
ENDTAB
  0
TABLE
  2
LAYER
  5
2
102
{ACAD_XDICTIONARY
360
1E591
102
}
330
0
100
AcDbSymbolTable
 70
    16
  0
LAYER
  5
E
102
{ACAD_XDICTIONARY
360
A2CED
102
}
330
2
100
AcDbSymbolTableRecord
100
AcDbLayerTableRecord
  2
0
 70
     2
 62
     7
  6
CONTINUOUS
370
    -3
390
73E
347
BE850
348
0
  0
LAYER
  5
869
102
{ACAD_XDICTIONARY
360
A2CF1
102
}
330
2
100
AcDbSymbolTableRecord
100
AcDbLayerTableRecord
  2
waku
 70
     0
 62
     7
  6
CONTINUOUS
370
    -3
390
73E
347
BE850
348
0
  0
LAYER
  5
8C6
102
{ACAD_XDICTIONARY
360
A2CF5
102
}
330
2
100
AcDbSymbolTableRecord
100
AcDbLayerTableRecord
  2
文字
 70
     0
 62
     7
  6
CONTINUOUS
370
    20
390
73E
347
BE850
348
0
  0
LAYER
  5
1521
102
{ACAD_XDICTIONARY
360
A2CFD
102
}
330
2
100
AcDbSymbolTableRecord
100
AcDbLayerTableRecord
  2
実線
 70
     0
 62
     7
  6
CONTINUOUS
370
    30
390
73E
347
BE850
348
0
  0
LAYER
  5
1523
102
{ACAD_XDICTIONARY
360
A2D01
102
}
330
2
100
AcDbSymbolTableRecord
100
AcDbLayerTableRecord
  2
細線
 70
     0
 62
     7
  6
CONTINUOUS
370
    13
390
73E
347
BE850
348
0
  0
LAYER
  5
89319
102
{ACAD_XDICTIONARY
360
A2D33
102
}
330
2
100
AcDbSymbolTableRecord
100
AcDbLayerTableRecord
  2
ハッチング
 70
     0
 62
     7
  6
CONTINUOUS
370
     5
390
73E
347
BE850
348
0
  0
LAYER
  5
A2EBD
102
{ACAD_XDICTIONARY
360
A2EBE
102
}
330
2
100
AcDbSymbolTableRecord
100
AcDbLayerTableRecord
  2
CENTER
 70
     0
 62
     7
  6
CENTER
370
    13
390
73E
347
BE850
348
0
  0
ENDTAB
  0
TABLE
  2
STYLE
  5
3
330
0
100
AcDbSymbolTable
 70
     8
  0
STYLE
  5
F
330
3
100
AcDbSymbolTableRecord
100
AcDbTextStyleTableRecord
  2
STANDARD
 70
     0
 40
0.0
 41
1.0
 50
0.0
 71
     0
 42
2.5
  3
simplex.shx
  4
bigfont.shx
  0
STYLE
  5
8D7
330
3
100
AcDbSymbolTableRecord
100
AcDbTextStyleTableRecord
  2
MSｺﾞｼｯｸ-0
 70
     0
 40
0.0
 41
1.0
 50
0.0
 71
     0
 42
4.0
  3
simplex.shx
  4
bigfont.shx
  0
STYLE
  5
1529
330
3
100
AcDbSymbolTableRecord
100
AcDbTextStyleTableRecord
  2
まこ
 70
     0
 40
0.0
 41
1.0
 50
0.0
 71
     0
 42
3.2
  3
simplex.shx
  4
bigfont.shx
  0
STYLE
  5
80335
330
3
100
AcDbSymbolTableRecord
100
AcDbTextStyleTableRecord
  2
ｽﾀｲﾙ1
 70
     0
 40
0.0
 41
1.0
 50
0.0
 71
     0
 42
0.2
  3
simplex.shx
  4
extfont.shx
  0
ENDTAB
  0
TABLE
  2
VIEW
  5
6
330
0
100
AcDbSymbolTable
 70
     0
  0
ENDTAB
  0
TABLE
  2
UCS
  5
7
330
0
100
AcDbSymbolTable
 70
     0
  0
ENDTAB
  0
TABLE
  2
APPID
  5
9
330
0
100
AcDbSymbolTable
 70
    17
  0
APPID
  5
10
330
9
100
AcDbSymbolTableRecord
100
AcDbRegAppTableRecord
  2
ACAD
 70
     0
  0
APPID
  5
8F834
330
9
100
AcDbSymbolTableRecord
100
AcDbRegAppTableRecord
  2
ACAD_DSTYLE_DIMRADIAL_EXTENSION
 70
     0
  0
APPID
  5
8F835
330
9
100
AcDbSymbolTableRecord
100
AcDbRegAppTableRecord
  2
ACAD_DSTYLE_DIMFLIPARROW_WHICH_SYMBOL
 70
     0
  0
APPID
  5
9F979
330
9
100
AcDbSymbolTableRecord
100
AcDbRegAppTableRecord
  2
AcadAnnotative
 70
     0
  0
APPID
  5
A2AF3
330
9
100
AcDbSymbolTableRecord
100
AcDbRegAppTableRecord
  2
ACAD_EXEMPT_FROM_CAD_STANDARDS
 70
     0
  0
APPID
  5
A2AF5
330
9
100
AcDbSymbolTableRecord
100
AcDbRegAppTableRecord
  2
ACAD_PSEXT
 70
     0
  0
APPID
  5
A2AF6
330
9
100
AcDbSymbolTableRecord
100
AcDbRegAppTableRecord
  2
ACAD_NAV_VCDISPLAY
 70
     0
  0
APPID
  5
A2B75
330
9
100
AcDbSymbolTableRecord
100
AcDbRegAppTableRecord
  2
AcAecLayerStandard
 70
     0
  0
APPID
  5
A2B76
330
9
100
AcDbSymbolTableRecord
100
AcDbRegAppTableRecord
  2
AcCmTransparency
 70
     0
  0
APPID
  5
A2D87
330
9
100
AcDbSymbolTableRecord
100
AcDbRegAppTableRecord
  2
ACAD_MLEADERVER
 70
     0
  0
APPID
  5
A2EFD
330
9
100
AcDbSymbolTableRecord
100
AcDbRegAppTableRecord
  2
PE_CLOUD
 70
     0
  0
APPID
  5
A2EFE
330
9
100
AcDbSymbolTableRecord
100
AcDbRegAppTableRecord
  2
PLOTTRANSPARENCY
 70
     0
  0
APPID
  5
A926D
330
9
100
AcDbSymbolTableRecord
100
AcDbRegAppTableRecord
  2
ACAD_DSTYLE_DIMFLIPARROW_SYMBOL
 70
     0
  0
APPID
  5
A9FC8
330
9
100
AcDbSymbolTableRecord
100
AcDbRegAppTableRecord
  2
ACAD_DIMASSOC_DIMLFAC
 70
     0
  0
APPID
  5
A9FC9
330
9
100
AcDbSymbolTableRecord
100
AcDbRegAppTableRecord
  2
ACAD_DIMASSOC_CALC_DIMLFAC
 70
     0
  0
APPID
  5
A9FCA
330
9
100
AcDbSymbolTableRecord
100
AcDbRegAppTableRecord
  2
ACAD_DIMASSOC_OVERRIDDEN_DIMLFAC
 70
     0
  0
APPID
  5
B2101
330
9
100
AcDbSymbolTableRecord
100
AcDbRegAppTableRecord
  2
FX_RP_XDATA
 70
     0
  0
ENDTAB
  0
TABLE
  2
DIMSTYLE
  5
A
330
0
100
AcDbSymbolTable
 70
     3
100
AcDbDimStyleTable
  0
DIMSTYLE
105
1D
102
{ACAD_REACTORS
102
}
330
A
100
AcDbSymbolTableRecord
100
AcDbDimStyleTableRecord
  2
STANDARD
 70
     0
 41
3.0
 42
0.8
 44
0.8
 73
     0
 74
     0
 77
     3
 78
     8
 79
     2
140
3.0
141
0.0
147
0.5
176
     4
177
     4
178
   256
340
8D7
341
89E
342
89E
371
    13
372
    13
  0
DIMSTYLE
105
8264
102
{ACAD_REACTORS
102
}
330
A
100
AcDbSymbolTableRecord
100
AcDbDimStyleTableRecord
  2
まこ-10
 70
     0
 40
2.0
 41
2.5
 42
1.0
 44
0.8
 73
     0
 74
     0
 77
     3
 78
     8
 79
     2
140
2.5
141
0.0
147
0.5
176
     4
177
     4
271
     5
178
   256
179
     5
271
     5
272
     5
289
     1
340
8D7
341
89E
342
89E
371
    13
372
    13
  0
ENDTAB
  0
TABLE
  2
BLOCK_RECORD
  5
1
330
0
100
AcDbSymbolTable
 70
    47
  0
BLOCK_RECORD
  5
18
330
1
100
AcDbSymbolTableRecord
100
AcDbBlockTableRecord
  2
*MODEL_SPACE
340
741
 70
     0
280
     1
281
     0
  0
BLOCK_RECORD
  5
BE8A4
330
1
100
AcDbSymbolTableRecord
100
AcDbBlockTableRecord
  2
*Paper_Space
340
BE8A5
 70
     0
280
     1
281
     0
  0
BLOCK_RECORD
  5
89E
330
1
100
AcDbSymbolTableRecord
100
AcDbBlockTableRecord
  2
_Open30
340
0
102
{BLKREFS
331
B761B
331
B761C
331
B8F95
331
B8F96
331
B8FA2
331
B8FA3
331
BA3E0
331
BA3E1
331
BA3EA
331
BA3EB
331
BA3F6
331
BA3F7
331
BA404
331
BA405
331
BA4EC
331
BA4ED
331
BA4F8
331
BA4F9
331
BA507
331
BA508
331
BA515
331
BA516
331
BA5C9
331
BA5CA
331
BA5D7
331
BA5D8
331
BAB0E
331
BAB0F
331
BAC96
331
BAC97
331
BAD73
331
BAD74
331
BAD7F
331
BAD80
331
BADCF
331
BADD0
331
BADD9
331
BADDA
331
BADE3
331
BADE4
331
BAE32
331
BD283
331
BD291
331
BD2A4
331
BD42F
331
BD430
331
BD43E
331
BD43F
331
BD44C
331
BD44D
331
BD460
331
BD461
331
BD46E
331
BD46F
331
BD5B8
331
BD5B9
331
BD5C3
331
BD5CC
331
BD5CD
331
BD5D8
331
BD5D9
331
BD5E7
331
BD5E8
331
BD5F3
331
BD5F4
331
BD68A
331
BD68B
331
BD714
331
BD715
331
BD7FD
331
BD80E
331
BD80B
331
BD819
331
BD81A
331
BDEB6
331
0
331
0
331
0
331
0
331
0
331
0
102
}
 70
     0
280
     1
281
     0
  0
ENDTAB
  0
ENDSEC
  0
SECTION
  2
BLOCKS
  0
BLOCK
  5
19
330
18
100
AcDbEntity
  8
0
100
AcDbBlockBegin
  2
*MODEL_SPACE
 70
     0
 10
0.0
 20
0.0
 30
0.0
  3
*MODEL_SPACE
  1
*MODEL_SPACE
  0
ENDBLK
  5
1A
330
18
100
AcDbEntity
  8
0
100
AcDbBlockEnd
  0
BLOCK
  5
BE8A6
330
BE8A4
100
AcDbEntity
 67
     1
  8
0
100
AcDbBlockBegin
  2
*Paper_Space
 70
     0
 10
0.0
 20
0.0
 30
0.0
  3
*Paper_Space
  1
*Paper_Space
  0
ENDBLK
  5
BE8A7
330
BE8A4
100
AcDbEntity
 67
     1
  8
0
100
AcDbBlockEnd
  0
BLOCK
  5
8A2
330
89E
100
AcDbEntity
  8
0
100
AcDbBlockBegin
  2
_Open30
 70
     0
 10
0.0
 20
0.0
 30
0.0
  3
_Open30
  1
_Open30
  0
LINE
  5
89F
330
89E
100
AcDbEntity
  8
0
  6
ByBlock
 62
     0
370
    -2
100
AcDbLine
 10
-1.0
 20
0.26794919
 30
0.0
 11
0.0
 21
0.0
 31
0.0
  0
LINE
  5
8A0
330
89E
100
AcDbEntity
  8
0
  6
ByBlock
 62
     0
370
    -2
100
AcDbLine
 10
0.0
 20
0.0
 30
0.0
 11
-1.0
 21
-0.26794919
 31
0.0
  0
LINE
  5
8A1
330
89E
100
AcDbEntity
  8
0
  6
ByBlock
 62
     0
370
    -2
100
AcDbLine
 10
0.0
 20
0.0
 30
0.0
 11
-1.0
 21
0.0
 31
0.0
  0
ENDBLK
  5
8A3
330
89E
100
AcDbEntity
  8
0
100
AcDbBlockEnd
  0
ENDSEC
  0
SECTION
  2
ENTITIES
  0
TEXT
  5
16EAD
330
18
100
AcDbEntity
  8
文字
100
AcDbText
 10
-213.0399041533702
 20
458.6683596617152
 30
0.0
 40
2.699999892000001
  1

  7
まこ
 72
     1
 11
-213.0399041533702
 21
460.0183596077152
 31
0.0
100
AcDbText
 73
     2
  0
LINE
  5
B7548
330
18
100
AcDbEntity
  8
CENTER
100
AcDbLine
 10
5397.097491566596
 20
-1443.237519332518
 30
0.0
 11
5244.097491566592
 21
-1443.237519332518
 31
0.0
  0
LINE
  5
B7549
330
18
100
AcDbEntity
  8
CENTER
100
AcDbLine
 10
5336.097491566596
 20
-1382.237519332518
 30
0.0
 11
5336.097491566596
 21
-1476.965379448359
 31
0.0
  0
LINE
  5
B754A
330
18
100
AcDbEntity
  8
実線
100
AcDbLine
 10
5280.097491566596
 20
-1397.191346853147
 30
0.0
 11
5280.097491566596
 21
-1415.737519332518
 31
0.0
  0
LINE
  5
B754B
330
18
100
AcDbEntity
  8
実線
100
AcDbLine
 10
5392.097491566596
 20
-1397.191346853147
 30
0.0
 11
5392.097491566596
 21
-1489.28369181189
 31
0.0
  0
LINE
  5
B754C
330
18
100
AcDbEntity
  8
実線
100
AcDbLine
 10
5382.143664045967
 20
-1387.237519332518
 30
0.0
 11
5290.051319087224
 21
-1387.237519332518
 31
0.0
  0
LINE
  5
B754D
330
18
100
AcDbEntity
  8
実線
100
AcDbLine
 10
5382.143664045967
 20
-1499.237519332518
 30
0.0
 11
5290.051319087224
 21
-1499.237519332518
 31
0.0
  0
ARC
  5
B754E
330
18
100
AcDbEntity
  8
実線
100
AcDbCircle
 10
5336.097491566596
 20
-1443.237519332518
 30
0.0
 40
72.5
100
AcDbArc
 50
129.4288570533947
 51
140.5711429466053
  0
ARC
  5
B754F
330
18
100
AcDbEntity
  8
実線
100
AcDbCircle
 10
5336.097491566596
 20
-1443.237519332518
 30
0.0
 40
56.0
100
AcDbArc
 50
212.1939475443033
 51
147.8060524556967
  0
ARC
  5
B7550
330
18
100
AcDbEntity
  8
実線
100
AcDbCircle
 10
5336.097491566596
 20
-1443.237519332518
 30
0.0
 40
62.5
100
AcDbArc
 50
153.8961188626612
 51
206.1038811373388
  0
ARC
  5
B7551
330
18
100
AcDbEntity
  8
実線
100
AcDbCircle
 10
5336.097491566596
 20
-1443.237519332518
 30
0.0
 40
72.5
100
AcDbArc
 50
39.42885705339473
 51
50.57114294660528
  0
ARC
  5
B7552
330
18
100
AcDbEntity
  8
実線
100
AcDbCircle
 10
5336.097491566596
 20
-1443.237519332518
 30
0.0
 40
72.5
100
AcDbArc
 50
309.4288570533947
 51
320.5711429466053
  0
ARC
  5
B7553
330
18
100
AcDbEntity
  8
実線
100
AcDbCircle
 10
5336.097491566596
 20
-1443.237519332518
 30
0.0
 40
72.5
100
AcDbArc
 50
219.4288570533947
 51
230.5711429466053
  0
LINE
  5
B7558
330
18
100
AcDbEntity
  8
実線
100
AcDbLine
 10
5284.476274998213
 20
-1415.737519332518
 30
0.0
 11
5279.972630764985
 21
-1415.737519332518
 31
0.0
  0
LINE
  5
B7559
330
18
100
AcDbEntity
  8
実線
100
AcDbLine
 10
5284.476274998213
 20
-1470.737519332518
 30
0.0
 11
5279.972630764985
 21
-1470.737519332518
 31
0.0
  0
ARC
  5
B755C
330
18
100
AcDbEntity
  8
実線
100
AcDbCircle
 10
5284.476274998213
 20
-1410.737519332518
 30
0.0
 40
5.0
100
AcDbArc
 50
270.0
 51
327.8060524557083
  0
ARC
  5
B755D
330
18
100
AcDbEntity
  8
実線
100
AcDbCircle
 10
5284.476274998213
 20
-1475.737519332518
 30
0.0
 40
5.0
100
AcDbArc
 50
32.19394754429165
 51
90.0
  0
LINE
  5
B755E
330
18
100
AcDbEntity
  8
実線
100
AcDbLine
 10
5280.097491566596
 20
-1470.737519332518
 30
0.0
 11
5280.097491566596
 21
-1489.28369181189
 31
0.0
  0
ARC
  5
B7564
330
18
100
AcDbEntity
  8
CENTER
 48
0.5
100
AcDbCircle
 10
5336.097491566596
 20
-1443.237519332518
 30
0.0
 40
62.5
100
AcDbArc
 50
129.497490822239
 51
140.5025091777599
  0
LINE
  5
B7565
330
18
100
AcDbEntity
  8
CENTER
 48
0.5
100
AcDbLine
 10
5296.145958429557
 20
-1403.28598619548
 30
0.0
 11
5287.660677055317
 21
-1394.80070482124
 31
0.0
  0
CIRCLE
  5
B7566
330
18
100
AcDbEntity
  8
実線
100
AcDbCircle
 10
5291.903317742437
 20
-1399.043345508359
 30
0.0
 40
3.5
  0
CIRCLE
  5
B7567
330
18
100
AcDbEntity
  8
実線
100
AcDbCircle
 10
5291.903317742437
 20
-1487.431693156679
 30
0.0
 40
3.5
  0
LINE
  5
B7568
330
18
100
AcDbEntity
  8
CENTER
 48
0.5
100
AcDbLine
 10
5296.145958429557
 20
-1483.189052469559
 30
0.0
 11
5287.660677055317
 21
-1491.674333843799
 31
0.0
  0
ARC
  5
B7569
330
18
100
AcDbEntity
  8
CENTER
 48
0.5
100
AcDbCircle
 10
5336.097491566596
 20
-1443.23751933252
 30
0.0
 40
62.5
100
AcDbArc
 50
219.4974908222399
 51
230.5025091777567
  0
CIRCLE
  5
B756A
330
18
100
AcDbEntity
  8
実線
100
AcDbCircle
 10
5380.291665390754
 20
-1487.431693156677
 30
0.0
 40
3.5
  0
LINE
  5
B756B
330
18
100
AcDbEntity
  8
CENTER
 48
0.5
100
AcDbLine
 10
5376.049024703634
 20
-1483.189052469557
 30
0.0
 11
5384.534306077874
 21
-1491.674333843797
 31
0.0
  0
ARC
  5
B756C
330
18
100
AcDbEntity
  8
CENTER
 48
0.5
100
AcDbCircle
 10
5336.097491566596
 20
-1443.237519332518
 30
0.0
 40
62.5
100
AcDbArc
 50
309.497490822239
 51
327.2924427759554
  0
CIRCLE
  5
B756D
330
18
100
AcDbEntity
  8
実線
100
AcDbCircle
 10
5380.291665390754
 20
-1399.04334550836
 30
0.0
 40
3.5
  0
LINE
  5
B756E
330
18
100
AcDbEntity
  8
CENTER
 48
0.5
100
AcDbLine
 10
5376.049024703634
 20
-1403.28598619548
 30
0.0
 11
5384.53430607787
 21
-1394.80070482124
 31
0.0
  0
ARC
  5
B756F
330
18
100
AcDbEntity
  8
CENTER
 48
0.5
100
AcDbCircle
 10
5336.097491566596
 20
-1443.237519332518
 30
0.0
 40
62.5
100
AcDbArc
 50
39.4974908222399
 51
50.50250917776098
  0
CIRCLE
  5
B757D
330
18
100
AcDbEntity
  8
実線
100
AcDbCircle
 10
5336.097491566596
 20
-1443.237519332518
 30
0.0
 40
9.5
  0
CIRCLE
  5
B757E
330
18
100
AcDbEntity
  8
実線
100
AcDbCircle
 10
5336.097491566596
 20
-1443.237519332518
 30
0.0
 40
25.0
  0
CIRCLE
  5
B757F
330
18
100
AcDbEntity
  8
実線
100
AcDbCircle
 10
5336.097491566596
 20
-1443.237519332518
 30
0.0
 40
29.15
  0
CIRCLE
  5
B7580
102
{ACAD_REACTORS
330
B7D85
102
}
330
18
100
AcDbEntity
  8
CENTER
100
AcDbCircle
 10
5336.097491566596
 20
-1443.237519332518
 30
0.0
 40
17.5
  0
CIRCLE
  5
B7582
330
18
100
AcDbEntity
  8
実線
100
AcDbCircle
 10
5309.097491566596
 20
-1443.237519332518
 30
0.0
 40
1.0
  0
CIRCLE
  5
B7583
330
18
100
AcDbEntity
  8
実線
100
AcDbCircle
 10
5363.097491566596
 20
-1443.237519332518
 30
0.0
 40
1.0
  0
CIRCLE
  5
B7584
330
18
100
AcDbEntity
  8
細線
100
AcDbCircle
 10
5318.597491566596
 20
-1443.237519332518
 30
0.0
 40
2.5
  0
CIRCLE
  5
B7585
330
18
100
AcDbEntity
  8
実線
100
AcDbCircle
 10
5318.597491566596
 20
-1443.237519332518
 30
0.0
 40
2.0
  0
LINE
  5
B7586
330
18
100
AcDbEntity
  8
CENTER
 48
0.5
100
AcDbLine
 10
5314.597491566596
 20
-1443.237519332518
 30
0.0
 11
5322.597491566596
 21
-1443.237519332518
 31
0.0
  0
CIRCLE
  5
B7587
330
18
100
AcDbEntity
  8
細線
100
AcDbCircle
 10
5327.347491566596
 20
-1458.392963898742
 30
0.0
 40
2.5
  0
CIRCLE
  5
B7588
330
18
100
AcDbEntity
  8
実線
100
AcDbCircle
 10
5327.347491566596
 20
-1458.392963898742
 30
0.0
 40
2.0
  0
LINE
  5
B7589
330
18
100
AcDbEntity
  8
CENTER
 48
0.5
100
AcDbLine
 10
5325.347491566596
 20
-1461.857065513879
 30
0.0
 11
5329.347491566596
 21
-1454.928862283606
 31
0.0
  0
CIRCLE
  5
B758A
330
18
100
AcDbEntity
  8
細線
100
AcDbCircle
 10
5344.847491566596
 20
-1458.392963898746
 30
0.0
 40
2.5
  0
CIRCLE
  5
B758B
330
18
100
AcDbEntity
  8
実線
100
AcDbCircle
 10
5344.847491566596
 20
-1458.392963898746
 30
0.0
 40
2.0
  0
LINE
  5
B758C
330
18
100
AcDbEntity
  8
CENTER
 48
0.5
100
AcDbLine
 10
5346.847491566596
 20
-1461.85706551389
 30
0.0
 11
5342.847491566596
 21
-1454.92886228361
 31
0.0
  0
CIRCLE
  5
B758D
330
18
100
AcDbEntity
  8
細線
100
AcDbCircle
 10
5353.597491566596
 20
-1443.237519332518
 30
0.0
 40
2.5
  0
CIRCLE
  5
B758E
330
18
100
AcDbEntity
  8
実線
100
AcDbCircle
 10
5353.597491566596
 20
-1443.237519332518
 30
0.0
 40
2.0
  0
LINE
  5
B758F
330
18
100
AcDbEntity
  8
CENTER
 48
0.5
100
AcDbLine
 10
5357.597491566596
 20
-1443.237519332518
 30
0.0
 11
5349.597491566596
 21
-1443.237519332518
 31
0.0
  0
CIRCLE
  5
B7590
330
18
100
AcDbEntity
  8
細線
100
AcDbCircle
 10
5344.847491566596
 20
-1428.082074766292
 30
0.0
 40
2.5
  0
CIRCLE
  5
B7591
330
18
100
AcDbEntity
  8
実線
100
AcDbCircle
 10
5344.847491566596
 20
-1428.082074766292
 30
0.0
 40
2.0
  0
LINE
  5
B7592
330
18
100
AcDbEntity
  8
CENTER
 48
0.5
100
AcDbLine
 10
5346.847491566596
 20
-1424.617973151152
 30
0.0
 11
5342.847491566596
 21
-1431.546176381429
 31
0.0
  0
CIRCLE
  5
B7593
330
18
100
AcDbEntity
  8
細線
100
AcDbCircle
 10
5327.347491566596
 20
-1428.082074766289
 30
0.0
 40
2.5
  0
CIRCLE
  5
B7594
330
18
100
AcDbEntity
  8
実線
100
AcDbCircle
 10
5327.347491566596
 20
-1428.082074766289
 30
0.0
 40
2.0
  0
LINE
  5
B7595
330
18
100
AcDbEntity
  8
CENTER
 48
0.5
100
AcDbLine
 10
5325.347491566596
 20
-1424.617973151152
 30
0.0
 11
5329.347491566596
 21
-1431.546176381429
 31
0.0
  0
LINE
  5
B759A
330
18
100
AcDbEntity
  8
実線
100
AcDbLine
 10
5372.597867355447
 20
-1404.996708349946
 30
0.0
 11
5372.244313964851
 21
-1405.350261740541
 31
0.0
  0
LINE
  5
B759B
330
18
100
AcDbEntity
  8
実線
100
AcDbLine
 10
5372.244313964851
 20
-1406.737143543668
 30
0.0
 11
5372.597867355447
 21
-1407.090696934261
 31
0.0
  0
LINE
  5
B759C
330
18
100
AcDbEntity
  8
実線
100
AcDbLine
 10
5374.338302549166
 20
-1406.737143543668
 30
0.0
 11
5373.984749158573
 21
-1407.090696934261
 31
0.0
  0
LINE
  5
B759D
330
18
100
AcDbEntity
  8
実線
100
AcDbLine
 10
5373.984749158573
 20
-1404.996708349946
 30
0.0
 11
5374.338302549166
 21
-1405.350261740541
 31
0.0
  0
LINE
  5
B759E
330
18
100
AcDbEntity
  8
実線
100
AcDbLine
 10
5373.29130825701
 20
-1405.690149251511
 30
0.0
 11
5372.597867355447
 21
-1404.996708349946
 31
0.0
  0
LINE
  5
B759F
330
18
100
AcDbEntity
  8
実線
100
AcDbLine
 10
5372.937754866418
 20
-1406.043702642105
 30
0.0
 11
5372.244313964851
 21
-1405.350261740541
 31
0.0
  0
LINE
  5
B75A0
330
18
100
AcDbEntity
  8
実線
100
AcDbLine
 10
5373.29130825701
 20
-1405.690149251511
 30
0.0
 11
5373.984749158573
 21
-1404.996708349946
 31
0.0
  0
LINE
  5
B75A1
330
18
100
AcDbEntity
  8
実線
100
AcDbLine
 10
5373.644861647603
 20
-1406.043702642104
 30
0.0
 11
5374.338302549169
 21
-1405.350261740541
 31
0.0
  0
LINE
  5
B75A2
330
18
100
AcDbEntity
  8
実線
100
AcDbLine
 10
5373.984749158573
 20
-1407.090696934261
 30
0.0
 11
5373.291308257007
 21
-1406.397256032698
 31
0.0
  0
LINE
  5
B75A3
330
18
100
AcDbEntity
  8
実線
100
AcDbLine
 10
5374.338302549166
 20
-1406.737143543668
 30
0.0
 11
5373.644861647603
 21
-1406.043702642104
 31
0.0
  0
LINE
  5
B75A4
330
18
100
AcDbEntity
  8
実線
100
AcDbLine
 10
5372.244313964851
 20
-1406.737143543668
 30
0.0
 11
5372.937754866418
 21
-1406.043702642105
 31
0.0
  0
LINE
  5
B75A5
330
18
100
AcDbEntity
  8
実線
100
AcDbLine
 10
5372.597867355447
 20
-1407.090696934261
 30
0.0
 11
5373.291308257007
 21
-1406.397256032698
 31
0.0
  0
CIRCLE
  5
B75A6
330
18
100
AcDbEntity
  8
実線
100
AcDbCircle
 10
5373.291308257007
 20
-1406.043702642104
 30
0.0
 40
2.0
  0
LINE
  5
B75B5
330
18
100
AcDbEntity
  8
実線
 48
0.1
100
AcDbLine
 10
5268.597491566596
 20
-1438.474379611705
 30
0.0
 11
5273.597491566592
 21
-1438.474379611703
 31
0.0
  0
LINE
  5
B75B6
330
18
100
AcDbEntity
  8
実線
 48
0.1
100
AcDbLine
 10
5268.597491566596
 20
-1439.77341771738
 30
0.0
 11
5273.597491566592
 21
-1439.77341771738
 31
0.0
  0
LINE
  5
B75B7
330
18
100
AcDbEntity
  8
実線
 48
0.1
100
AcDbLine
 10
5268.597491566592
 20
-1446.701620947656
 30
0.0
 11
5273.597491566596
 21
-1446.701620947656
 31
0.0
  0
LINE
  5
B75B8
330
18
100
AcDbEntity
  8
実線
 48
0.1
100
AcDbLine
 10
5268.597491566592
 20
-1448.000659053332
 30
0.0
 11
5273.597491566596
 21
-1448.000659053332
 31
0.0
  0
LINE
  5
B75B9
330
18
100
AcDbEntity
  8
実線
100
AcDbLine
 10
5268.597491566596
 20
-1435.010277996567
 30
0.0
 11
5273.597491566592
 21
-1435.010277996567
 31
0.0
  0
LINE
  5
B75BA
330
18
100
AcDbEntity
  8
実線
100
AcDbLine
 10
5268.597491566592
 20
-1451.46476066847
 30
0.0
 11
5273.597491566596
 21
-1451.46476066847
 31
0.0
  0
LINE
  5
B75BB
330
18
100
AcDbEntity
  8
実線
100
AcDbLine
 10
5256.664478864701
 20
-1451.464760668472
 30
0.0
 11
5264.597491566592
 21
-1451.464760668472
 31
0.0
  0
LINE
  5
B75BC
330
18
100
AcDbEntity
  8
実線
100
AcDbLine
 10
5256.664478864701
 20
-1435.010277996567
 30
0.0
 11
5264.597491566596
 21
-1435.010277996567
 31
0.0
  0
LINE
  5
B75BD
330
18
100
AcDbEntity
  8
実線
 48
0.1
100
AcDbLine
 10
5256.097491566596
 20
-1438.474379611705
 30
0.0
 11
5264.597491566596
 21
-1438.474379611705
 31
0.0
  0
LINE
  5
B75BE
330
18
100
AcDbEntity
  8
実線
 48
0.1
100
AcDbLine
 10
5256.097491566596
 20
-1439.77341771738
 30
0.0
 11
5264.597491566596
 21
-1439.77341771738
 31
0.0
  0
LINE
  5
B75BF
330
18
100
AcDbEntity
  8
実線
 48
0.1
100
AcDbLine
 10
5256.097491566596
 20
-1448.000659053333
 30
0.0
 11
5264.597491566592
 21
-1448.000659053332
 31
0.0
  0
LINE
  5
B75C0
330
18
100
AcDbEntity
  8
実線
 48
0.1
100
AcDbLine
 10
5256.097491566596
 20
-1446.701620947658
 30
0.0
 11
5264.597491566592
 21
-1446.701620947656
 31
0.0
  0
LINE
  5
B75C1
330
18
100
AcDbEntity
  8
実線
100
AcDbLine
 10
5256.432428057133
 20
-1435.242328804137
 30
0.0
 11
5264.597491566596
 21
-1435.242328804137
 31
0.0
  0
LINE
  5
B75C2
330
18
100
AcDbEntity
  8
実線
100
AcDbLine
 10
5256.097491566596
 20
-1435.642328804136
 30
0.0
 11
5264.597491566596
 21
-1435.642328804136
 31
0.0
  0
LINE
  5
B75C3
330
18
100
AcDbEntity
  8
実線
100
AcDbLine
 10
5256.097491566596
 20
-1437.842328804135
 30
0.0
 11
5264.597491566596
 21
-1437.842328804135
 31
0.0
  0
LINE
  5
B75C4
330
18
100
AcDbEntity
  8
実線
100
AcDbLine
 10
5256.097491566596
 20
-1438.242328804137
 30
0.0
 11
5264.597491566596
 21
-1438.242328804137
 31
0.0
  0
LINE
  5
B75C5
330
18
100
AcDbEntity
  8
実線
100
AcDbLine
 10
5256.432428057133
 20
-1451.2327098609
 30
0.0
 11
5264.597491566596
 21
-1451.232709860902
 31
0.0
  0
LINE
  5
B75C6
330
18
100
AcDbEntity
  8
実線
100
AcDbLine
 10
5256.097491566596
 20
-1450.832709860902
 30
0.0
 11
5264.597491566596
 21
-1450.832709860902
 31
0.0
  0
LINE
  5
B75C7
330
18
100
AcDbEntity
  8
実線
100
AcDbLine
 10
5256.097491566596
 20
-1448.632709860901
 30
0.0
 11
5264.597491566596
 21
-1448.632709860901
 31
0.0
  0
LINE
  5
B75C8
330
18
100
AcDbEntity
  8
実線
100
AcDbLine
 10
5256.097491566596
 20
-1448.232709860903
 30
0.0
 11
5264.597491566596
 21
-1448.232709860902
 31
0.0
  0
LINE
  5
B75C9
330
18
100
AcDbEntity
  8
実線
100
AcDbLine
 10
5256.097491566596
 20
-1440.23751933252
 30
0.0
 11
5264.597491566596
 21
-1440.23751933252
 31
0.0
  0
LINE
  5
B75CA
330
18
100
AcDbEntity
  8
実線
100
AcDbLine
 10
5256.097491566596
 20
-1446.237519332518
 30
0.0
 11
5264.597491566596
 21
-1446.237519332518
 31
0.0
  0
LINE
  5
B75CB
330
18
100
AcDbEntity
  8
実線
100
AcDbLine
 10
5256.097491566596
 20
-1441.037519332519
 30
0.0
 11
5264.597491566592
 21
-1441.037519332519
 31
0.0
  0
LINE
  5
B75CC
330
18
100
AcDbEntity
  8
実線
100
AcDbLine
 10
5256.097491566596
 20
-1445.437519332519
 30
0.0
 11
5264.597491566596
 21
-1445.437519332519
 31
0.0
  0
LINE
  5
B75CD
330
18
100
AcDbEntity
  8
実線
100
AcDbLine
 10
5256.097491566596
 20
-1435.577265294674
 30
0.0
 11
5256.664478864701
 21
-1435.010277996567
 31
0.0
  0
LINE
  5
B75CE
330
18
100
AcDbEntity
  8
実線
100
AcDbLine
 10
5256.097491566596
 20
-1450.897773370363
 30
0.0
 11
5256.664478864701
 21
-1451.464760668472
 31
0.0
  0
ARC
  5
B75CF
330
18
100
AcDbEntity
  8
実線
100
AcDbCircle
 10
5255.597491566592
 20
-1439.737519332518
 30
0.0
 40
4.0
100
AcDbArc
 50
90.0
 51
180.0
  0
ARC
  5
B75D0
330
18
100
AcDbEntity
  8
実線
100
AcDbCircle
 10
5255.597491566592
 20
-1446.737519332518
 30
0.0
 40
4.0
100
AcDbArc
 50
180.0
 51
270.0
  0
LINE
  5
B75D1
330
18
100
AcDbEntity
  8
実線
100
AcDbLine
 10
5256.097491566592
 20
-1435.737519332518
 30
0.0
 11
5255.597491566592
 21
-1435.737519332518
 31
0.0
  0
LINE
  5
B75D2
330
18
100
AcDbEntity
  8
実線
100
AcDbLine
 10
5256.097491566596
 20
-1450.737519332518
 30
0.0
 11
5255.597491566592
 21
-1450.737519332518
 31
0.0
  0
LINE
  5
B75D3
330
18
100
AcDbEntity
  8
実線
100
AcDbLine
 10
5256.097491566596
 20
-1450.897773370363
 30
0.0
 11
5256.097491566596
 21
-1435.577265294674
 31
0.0
  0
LINE
  5
B75D4
330
18
100
AcDbEntity
  8
実線
100
AcDbLine
 10
5268.597491566592
 20
-1436.737519332518
 30
0.0
 11
5264.597491566596
 21
-1436.737519332518
 31
0.0
  0
LINE
  5
B75D5
330
18
100
AcDbEntity
  8
実線
100
AcDbLine
 10
5268.597491566596
 20
-1449.737519332518
 30
0.0
 11
5264.597491566596
 21
-1449.737519332518
 31
0.0
  0
LINE
  5
B75D6
330
18
100
AcDbEntity
  8
実線
100
AcDbLine
 10
5264.597491566592
 20
-1451.464760668472
 30
0.0
 11
5264.597491566596
 21
-1435.010277996567
 31
0.0
  0
LINE
  5
B75D7
330
18
100
AcDbEntity
  8
実線
100
AcDbLine
 10
5251.597491566592
 20
-1446.737519332518
 30
0.0
 11
5251.597491566592
 21
-1439.737519332518
 31
0.0
  0
LINE
  5
B75D8
330
18
100
AcDbEntity
  8
実線
100
AcDbLine
 10
5268.597491566592
 20
-1451.46476066847
 30
0.0
 11
5268.597491566596
 21
-1435.010277996567
 31
0.0
  0
LINE
  5
B75DC
330
18
100
AcDbEntity
  8
実線
100
AcDbLine
 10
5273.597491566596
 20
-1451.464760668472
 30
0.0
 11
5273.597491566596
 21
-1435.010277996567
 31
0.0
  0
LINE
  5
B75DD
330
18
100
AcDbEntity
  8
実線
100
AcDbLine
 10
5273.886158193969
 20
-1437.237519332518
 30
0.0
 11
5273.597491566592
 21
-1437.237519332518
 31
0.0
  0
LINE
  5
B75DE
330
18
100
AcDbEntity
  8
実線
100
AcDbLine
 10
5273.886158193969
 20
-1449.237519332518
 30
0.0
 11
5273.597491566592
 21
-1449.237519332518
 31
0.0
  0
LINE
  5
B75E3
330
18
100
AcDbEntity
  8
細線
100
AcDbLine
 10
5273.813186513076
 20
-1438.049519332518
 30
0.0
 11
5273.597491566596
 21
-1438.049519332518
 31
0.0
  0
LINE
  5
B75E4
330
18
100
AcDbEntity
  8
細線
100
AcDbLine
 10
5273.813186513076
 20
-1448.425519332518
 30
0.0
 11
5273.597491566596
 21
-1448.425519332518
 31
0.0
  0
ARC
  5
B75E7
330
18
100
AcDbEntity
  8
細線
100
AcDbCircle
 10
5248.288116566591
 20
-1441.812519332518
 30
0.0
 40
2.211071661123269
100
AcDbArc
 50
139.8730118731536
 51
220.1269881268418
  0
ARC
  5
B75E8
330
18
100
AcDbEntity
  8
細線
100
AcDbCircle
 10
5244.906866566609
 20
-1441.812519332526
 30
0.0
 40
2.211071661115542
100
AcDbArc
 50
319.8730118732083
 51
40.12698812726839
  0
ARC
  5
B75E9
330
18
100
AcDbEntity
  8
細線
100
AcDbCircle
 10
5248.288116566591
 20
-1444.662519332518
 30
0.0
 40
2.211071661123122
100
AcDbArc
 50
139.8730118731582
 51
220.1269881268464
  0
LINE
  5
B75EA
330
18
100
AcDbEntity
  8
CENTER
 48
0.5
100
AcDbLine
 10
5323.973135913615
 20
-1450.237519332517
 30
0.0
 11
5317.910958087125
 21
-1453.737519332517
 31
0.0
  0
CIRCLE
  5
B75EB
102
{ACAD_REACTORS
330
B7D85
102
}
330
18
100
AcDbEntity
  8
実線
100
AcDbCircle
 10
5320.94204700037
 20
-1451.987519332518
 30
0.0
 40
2.0
  0
LINE
  5
B75EC
102
{ACAD_REACTORS
330
B7D85
102
}
330
18
100
AcDbEntity
  8
実線
100
AcDbLine
 10
5319.209996192798
 20
-1452.987519332519
 30
0.0
 11
5322.674097807938
 21
-1450.987519332519
 31
0.0
  0
LINE
  5
B75ED
102
{ACAD_REACTORS
330
B7D85
102
}
330
18
100
AcDbEntity
  8
実線
100
AcDbLine
 10
5319.94204700037
 20
-1450.25546852495
 30
0.0
 11
5321.94204700037
 21
-1453.719570140088
 31
0.0
  0
ARC
  5
B7651
330
18
100
AcDbEntity
  8
実線
100
AcDbCircle
 10
5336.097491566596
 20
-1443.237519332518
 30
0.0
 40
55.25
100
AcDbArc
 50
208.9760803329347
 51
151.0239196670653
  0
HATCH
  5
B7D85
330
18
100
AcDbEntity
  8
ハッチング
 62
     7
100
AcDbHatch
 10
0.0
 20
0.0
 30
0.0
210
0.0
220
0.0
230
1.0
  2
SOLID
 70
     1
 71
     1
 91
        3
 92
        7
 72
     1
 73
     1
 93
        3
 10
5321.942047000369
 20
-1453.719570140087
 42
0.0
 10
5320.94204700037
 20
-1451.987519332519
 42
0.0
 10
5319.2099961928
 20
-1452.987519332518
 42
0.4142135623728943
 97
        3
330
B75ED
330
B75EC
330
B75EB
 92
        7
 72
     1
 73
     1
 93
        3
 10
5322.674097807938
 20
-1450.987519332519
 42
0.3975651194999006
 10
5320.042655320249
 20
-1450.201155818076
 42
0.0285947903435749
 10
5320.942047000368
 20
-1451.987519332519
 42
0.0
 97
        3
330
B75EB
330
B7580
330
B75EC
 92
        7
 72
     1
 73
     1
 93
        3
 10
5320.942047000368
 20
-1451.987519332517
 42
-0.0285947903437544
 10
5320.042655320249
 20
-1450.201155818076
 42
0.0142944737641165
 10
5319.94204700037
 20
-1450.25546852495
 42
0.0
 97
        3
330
B7580
330
B75EB
330
B75ED
 75
     0
 76
     1
 47
0.0
 98
        3
 10
5320.857081847198
 20
-1452.925602458078
 10
5321.355766949036
 20
-1450.930862050723
 10
5320.14196134715
 20
-1450.507612672983
1001
ACAD
1010
0.0
1020
0.0
1030
0.0
  0
LINE
  5
B7D87
330
18
100
AcDbEntity
  8
実線
100
AcDbLine
 10
5297.856680584024
 20
-1406.737143543667
 30
0.0
 11
5298.210233974618
 21
-1407.090696934263
 31
0.0
  0
LINE
  5
B7D88
330
18
100
AcDbEntity
  8
実線
100
AcDbLine
 10
5299.597115777746
 20
-1407.090696934263
 30
0.0
 11
5299.950669168338
 21
-1406.737143543667
 31
0.0
  0
LINE
  5
B7D89
330
18
100
AcDbEntity
  8
実線
100
AcDbLine
 10
5299.597115777746
 20
-1404.996708349949
 30
0.0
 11
5299.950669168338
 21
-1405.350261740541
 31
0.0
  0
LINE
  5
B7D8A
330
18
100
AcDbEntity
  8
実線
100
AcDbLine
 10
5297.856680584024
 20
-1405.350261740541
 30
0.0
 11
5298.210233974618
 21
-1404.996708349949
 31
0.0
  0
LINE
  5
B7D8B
330
18
100
AcDbEntity
  8
実線
100
AcDbLine
 10
5298.550121485589
 20
-1406.043702642104
 30
0.0
 11
5297.856680584024
 21
-1406.737143543667
 31
0.0
  0
LINE
  5
B7D8C
330
18
100
AcDbEntity
  8
実線
100
AcDbLine
 10
5298.903674876183
 20
-1406.397256032697
 30
0.0
 11
5298.210233974618
 21
-1407.090696934263
 31
0.0
  0
LINE
  5
B7D8D
330
18
100
AcDbEntity
  8
実線
100
AcDbLine
 10
5298.550121485589
 20
-1406.043702642104
 30
0.0
 11
5297.856680584024
 21
-1405.350261740541
 31
0.0
  0
LINE
  5
B7D8E
330
18
100
AcDbEntity
  8
実線
100
AcDbLine
 10
5298.903674876181
 20
-1405.690149251512
 30
0.0
 11
5298.210233974618
 21
-1404.996708349945
 31
0.0
  0
LINE
  5
B7D8F
330
18
100
AcDbEntity
  8
実線
100
AcDbLine
 10
5299.950669168338
 20
-1405.350261740541
 30
0.0
 11
5299.257228266775
 21
-1406.043702642108
 31
0.0
  0
LINE
  5
B7D90
330
18
100
AcDbEntity
  8
実線
100
AcDbLine
 10
5299.597115777746
 20
-1404.996708349949
 30
0.0
 11
5298.903674876181
 21
-1405.690149251512
 31
0.0
  0
LINE
  5
B7D91
330
18
100
AcDbEntity
  8
実線
100
AcDbLine
 10
5299.597115777746
 20
-1407.090696934263
 30
0.0
 11
5298.903674876183
 21
-1406.397256032697
 31
0.0
  0
LINE
  5
B7D92
330
18
100
AcDbEntity
  8
実線
100
AcDbLine
 10
5299.950669168338
 20
-1406.737143543667
 30
0.0
 11
5299.257228266775
 21
-1406.043702642108
 31
0.0
  0
CIRCLE
  5
B7D93
330
18
100
AcDbEntity
  8
実線
100
AcDbCircle
 10
5298.903674876181
 20
-1406.043702642108
 30
0.0
 40
2.0
  0
LINE
  5
B7D95
330
18
100
AcDbEntity
  8
実線
100
AcDbLine
 10
5299.597115777744
 20
-1481.47833031509
 30
0.0
 11
5299.95066916834
 21
-1481.124776924496
 31
0.0
  0
LINE
  5
B7D96
330
18
100
AcDbEntity
  8
実線
100
AcDbLine
 10
5299.95066916834
 20
-1479.737895121368
 30
0.0
 11
5299.597115777744
 21
-1479.384341730776
 31
0.0
  0
LINE
  5
B7D97
330
18
100
AcDbEntity
  8
実線
100
AcDbLine
 10
5297.856680584026
 20
-1479.737895121368
 30
0.0
 11
5298.210233974618
 21
-1479.384341730776
 31
0.0
  0
LINE
  5
B7D98
330
18
100
AcDbEntity
  8
実線
100
AcDbLine
 10
5298.210233974618
 20
-1481.47833031509
 30
0.0
 11
5297.856680584026
 21
-1481.124776924496
 31
0.0
  0
LINE
  5
B7D99
330
18
100
AcDbEntity
  8
実線
100
AcDbLine
 10
5298.903674876181
 20
-1480.784889413526
 30
0.0
 11
5299.597115777744
 21
-1481.47833031509
 31
0.0
  0
LINE
  5
B7D9A
330
18
100
AcDbEntity
  8
実線
100
AcDbLine
 10
5299.257228266773
 20
-1480.431336022931
 30
0.0
 11
5299.95066916834
 21
-1481.124776924496
 31
0.0
  0
LINE
  5
B7D9B
330
18
100
AcDbEntity
  8
実線
100
AcDbLine
 10
5298.903674876181
 20
-1480.784889413526
 30
0.0
 11
5298.210233974618
 21
-1481.47833031509
 31
0.0
  0
LINE
  5
B7D9C
330
18
100
AcDbEntity
  8
実線
100
AcDbLine
 10
5298.550121485589
 20
-1480.431336022933
 30
0.0
 11
5297.856680584022
 21
-1481.124776924496
 31
0.0
  0
LINE
  5
B7D9D
330
18
100
AcDbEntity
  8
実線
100
AcDbLine
 10
5298.210233974618
 20
-1479.384341730776
 30
0.0
 11
5298.903674876185
 21
-1480.077782632339
 31
0.0
  0
LINE
  5
B7D9E
330
18
100
AcDbEntity
  8
実線
100
AcDbLine
 10
5297.856680584026
 20
-1479.737895121368
 30
0.0
 11
5298.550121485589
 21
-1480.431336022933
 31
0.0
  0
LINE
  5
B7D9F
330
18
100
AcDbEntity
  8
実線
100
AcDbLine
 10
5299.95066916834
 20
-1479.737895121368
 30
0.0
 11
5299.257228266773
 21
-1480.431336022931
 31
0.0
  0
LINE
  5
B7DA0
330
18
100
AcDbEntity
  8
実線
100
AcDbLine
 10
5299.597115777744
 20
-1479.384341730776
 30
0.0
 11
5298.903674876185
 21
-1480.077782632339
 31
0.0
  0
CIRCLE
  5
B7DA1
330
18
100
AcDbEntity
  8
実線
100
AcDbCircle
 10
5298.903674876185
 20
-1480.431336022933
 30
0.0
 40
2.0
  0
LINE
  5
B7DA3
330
18
100
AcDbEntity
  8
実線
100
AcDbLine
 10
5374.338302549167
 20
-1479.73789512137
 30
0.0
 11
5373.984749158572
 21
-1479.384341730774
 31
0.0
  0
LINE
  5
B7DA4
330
18
100
AcDbEntity
  8
実線
100
AcDbLine
 10
5372.597867355445
 20
-1479.384341730774
 30
0.0
 11
5372.244313964852
 21
-1479.73789512137
 31
0.0
  0
LINE
  5
B7DA5
330
18
100
AcDbEntity
  8
実線
100
AcDbLine
 10
5372.597867355445
 20
-1481.478330315089
 30
0.0
 11
5372.244313964852
 21
-1481.124776924496
 31
0.0
  0
LINE
  5
B7DA6
330
18
100
AcDbEntity
  8
実線
100
AcDbLine
 10
5374.338302549167
 20
-1481.124776924496
 30
0.0
 11
5373.984749158572
 21
-1481.478330315089
 31
0.0
  0
LINE
  5
B7DA7
330
18
100
AcDbEntity
  8
実線
100
AcDbLine
 10
5373.644861647602
 20
-1480.431336022933
 30
0.0
 11
5374.338302549167
 21
-1479.73789512137
 31
0.0
  0
LINE
  5
B7DA8
330
18
100
AcDbEntity
  8
実線
100
AcDbLine
 10
5373.291308257008
 20
-1480.077782632341
 30
0.0
 11
5373.984749158572
 21
-1479.384341730774
 31
0.0
  0
LINE
  5
B7DA9
330
18
100
AcDbEntity
  8
実線
100
AcDbLine
 10
5373.644861647602
 20
-1480.431336022933
 30
0.0
 11
5374.338302549167
 21
-1481.124776924496
 31
0.0
  0
LINE
  5
B7DAA
330
18
100
AcDbEntity
  8
実線
100
AcDbLine
 10
5373.291308257009
 20
-1480.784889413526
 30
0.0
 11
5373.984749158572
 21
-1481.478330315093
 31
0.0
  0
LINE
  5
B7DAB
330
18
100
AcDbEntity
  8
実線
100
AcDbLine
 10
5372.244313964852
 20
-1481.124776924496
 30
0.0
 11
5372.937754866415
 21
-1480.43133602293
 31
0.0
  0
LINE
  5
B7DAC
330
18
100
AcDbEntity
  8
実線
100
AcDbLine
 10
5372.597867355445
 20
-1481.478330315089
 30
0.0
 11
5373.291308257009
 21
-1480.784889413526
 31
0.0
  0
LINE
  5
B7DAD
330
18
100
AcDbEntity
  8
実線
100
AcDbLine
 10
5372.597867355445
 20
-1479.384341730774
 30
0.0
 11
5373.291308257008
 21
-1480.077782632341
 31
0.0
  0
LINE
  5
B7DAE
330
18
100
AcDbEntity
  8
実線
100
AcDbLine
 10
5372.244313964852
 20
-1479.73789512137
 30
0.0
 11
5372.937754866415
 21
-1480.43133602293
 31
0.0
  0
CIRCLE
  5
B7DAF
330
18
100
AcDbEntity
  8
実線
100
AcDbCircle
 10
5373.291308257009
 20
-1480.43133602293
 30
0.0
 40
2.0
  0
CIRCLE
  5
B7DB0
330
18
100
AcDbEntity
  8
実線
100
AcDbCircle
 10
5336.097491566596
 20
-1443.237519332518
 30
0.0
 40
29.65
  0
ARC
  5
B7DB4
330
18
100
AcDbEntity
  8
実線
100
AcDbCircle
 10
5336.097491566596
 20
-1443.237519332518
 30
0.0
 40
61.0
100
AcDbArc
 50
155.1127895122029
 51
204.8872104877971
  0
LINE
  5
B7DB5
330
18
100
AcDbEntity
  8
実線
100
AcDbLine
 10
5286.888752505327
 20
-1416.987519332518
 30
0.0
 11
5281.669213070946
 21
-1416.987519332518
 31
0.0
  0
LINE
  5
B7DB6
330
18
100
AcDbEntity
  8
実線
100
AcDbLine
 10
5286.888752505327
 20
-1469.487519332518
 30
0.0
 11
5281.669213070946
 21
-1469.487519332518
 31
0.0
  0
ARC
  5
B7DB7
330
18
100
AcDbEntity
  8
実線
100
AcDbCircle
 10
5286.888752505327
 20
-1415.987519332518
 30
0.0
 40
1.0
100
AcDbArc
 50
270.0
 51
331.023919667057
  0
ARC
  5
B7DB8
330
18
100
AcDbEntity
  8
実線
100
AcDbCircle
 10
5281.669213070946
 20
-1417.987519332518
 30
0.0
 40
1.0
100
AcDbArc
 50
90.0
 51
155.1127895122032
  0
ARC
  5
B7DB9
330
18
100
AcDbEntity
  8
実線
100
AcDbCircle
 10
5281.669213070946
 20
-1468.487519332518
 30
0.0
 40
1.0
100
AcDbArc
 50
204.8872104877968
 51
270.0
  0
ARC
  5
B7DBA
330
18
100
AcDbEntity
  8
実線
100
AcDbCircle
 10
5286.888752505327
 20
-1470.487519332518
 30
0.0
 40
1.0
100
AcDbArc
 50
28.97608033294302
 51
90.0
  0
LINE
  5
B8EFC
330
18
100
AcDbEntity
  8
CENTER
100
AcDbLine
 10
5791.522969975273
 20
-1510.737519332531
 30
0.0
 11
5791.522969975273
 21
-1485.332910012755
 31
0.0
  0
LINE
  5
B8EFD
330
18
100
AcDbEntity
  8
CENTER
100
AcDbLine
 10
5724.022969975273
 20
-1443.237519332531
 30
0.0
 11
5883.522969975276
 21
-1443.237519332531
 31
0.0
  0
ARC
  5
B8EFE
330
18
100
AcDbEntity
  8
実線
100
AcDbCircle
 10
5791.522969975273
 20
-1443.237519332531
 30
0.0
 40
72.5
100
AcDbArc
 50
219.4288570533947
 51
230.5711429466053
  0
LINE
  5
B8EFF
330
18
100
AcDbEntity
  8
実線
100
AcDbLine
 10
5745.476797495901
 20
-1499.237519332531
 30
0.0
 11
5837.569142454644
 21
-1499.237519332531
 31
0.0
  0
LINE
  5
B8F00
330
18
100
AcDbEntity
  8
実線
100
AcDbLine
 10
5735.522969975273
 20
-1489.283691811902
 30
0.0
 11
5735.522969975273
 21
-1397.191346853159
 31
0.0
  0
LINE
  5
B8F01
330
18
100
AcDbEntity
  8
実線
100
AcDbLine
 10
5745.476797495901
 20
-1387.237519332531
 30
0.0
 11
5837.569142454644
 21
-1387.237519332531
 31
0.0
  0
ARC
  5
B8F02
330
18
100
AcDbEntity
  8
実線
100
AcDbCircle
 10
5791.522969975273
 20
-1443.237519332531
 30
0.0
 40
72.5
100
AcDbArc
 50
129.4288570533947
 51
140.5711429466053
  0
ARC
  5
B8F03
330
18
100
AcDbEntity
  8
実線
100
AcDbCircle
 10
5791.522969975273
 20
-1443.237519332531
 30
0.0
 40
72.5
100
AcDbArc
 50
39.42885705339473
 51
50.57114294660528
  0
ARC
  5
B8F04
330
18
100
AcDbEntity
  8
実線
100
AcDbCircle
 10
5791.522969975273
 20
-1443.237519332531
 30
0.0
 40
72.5
100
AcDbArc
 50
309.4288570533947
 51
320.5711429466053
  0
LINE
  5
B8F05
330
18
100
AcDbEntity
  8
実線
100
AcDbLine
 10
5847.522969975273
 20
-1415.737519332531
 30
0.0
 11
5847.522969975273
 21
-1397.191346853159
 31
0.0
  0
LINE
  5
B8F06
330
18
100
AcDbEntity
  8
実線
100
AcDbLine
 10
5847.522969975273
 20
-1415.737519332531
 30
0.0
 11
5847.647830776883
 21
-1415.737519332531
 31
0.0
  0
LINE
  5
B8F07
330
18
100
AcDbEntity
  8
実線
100
AcDbLine
 10
5847.522969975273
 20
-1470.737519332531
 30
0.0
 11
5847.647830776883
 21
-1470.737519332531
 31
0.0
  0
ARC
  5
B8F08
330
18
100
AcDbEntity
  8
実線
100
AcDbCircle
 10
5791.522969975273
 20
-1443.237519332531
 30
0.0
 40
62.5
100
AcDbArc
 50
333.896118862661
 51
26.10388113733884
  0
LINE
  5
B8F09
330
18
100
AcDbEntity
  8
実線
100
AcDbLine
 10
5847.522969975273
 20
-1489.283691811902
 30
0.0
 11
5847.522969975273
 21
-1470.737519332531
 31
0.0
  0
CIRCLE
  5
B8F0A
330
18
100
AcDbEntity
  8
実線
100
AcDbCircle
 10
5747.328796151114
 20
-1399.043345508372
 30
0.0
 40
3.5
  0
LINE
  5
B8F0B
330
18
100
AcDbEntity
  8
CENTER
 48
0.5
100
AcDbLine
 10
5751.571436838234
 20
-1403.285986195492
 30
0.0
 11
5743.086155463994
 21
-1394.800704821252
 31
0.0
  0
CIRCLE
  5
B8F0C
330
18
100
AcDbEntity
  8
実線
100
AcDbCircle
 10
5835.717143799431
 20
-1399.04334550837
 30
0.0
 40
3.5
  0
LINE
  5
B8F0D
330
18
100
AcDbEntity
  8
CENTER
 48
0.5
100
AcDbLine
 10
5831.474503112311
 20
-1403.28598619549
 30
0.0
 11
5839.959784486551
 21
-1394.80070482125
 31
0.0
  0
ARC
  5
B8F0E
330
18
100
AcDbEntity
  8
CENTER
 48
0.25
100
AcDbCircle
 10
5791.522969975273
 20
-1443.237519332529
 30
0.0
 40
62.5
100
AcDbArc
 50
39.49749082224007
 51
50.50250917775668
  0
CIRCLE
  5
B8F0F
330
18
100
AcDbEntity
  8
実線
100
AcDbCircle
 10
5835.717143799431
 20
-1487.43169315669
 30
0.0
 40
3.5
  0
LINE
  5
B8F10
330
18
100
AcDbEntity
  8
CENTER
 48
0.5
100
AcDbLine
 10
5831.474503112311
 20
-1483.189052469569
 30
0.0
 11
5839.959784486551
 21
-1491.674333843809
 31
0.0
  0
CIRCLE
  5
B8F11
330
18
100
AcDbEntity
  8
実線
100
AcDbCircle
 10
5747.328796151114
 20
-1487.431693156689
 30
0.0
 40
3.5
  0
LINE
  5
B8F12
330
18
100
AcDbEntity
  8
CENTER
 48
0.5
100
AcDbLine
 10
5751.571436838234
 20
-1483.189052469569
 30
0.0
 11
5743.086155463998
 21
-1491.674333843809
 31
0.0
  0
ARC
  5
B8F13
330
18
100
AcDbEntity
  8
CENTER
 48
0.5
100
AcDbCircle
 10
5791.522969975273
 20
-1443.237519332531
 30
0.0
 40
62.5
100
AcDbArc
 50
219.4974908222401
 51
230.502509177761
  0
LINE
  5
B8F14
330
18
100
AcDbEntity
  8
実線
100
AcDbLine
 10
5735.522969975273
 20
-1459.237519332531
 30
0.0
 11
5736.293901542065
 21
-1459.237519332531
 31
0.0
  0
LINE
  5
B8F15
330
18
100
AcDbEntity
  8
実線
100
AcDbLine
 10
5735.522969975273
 20
-1427.237519332531
 30
0.0
 11
5736.293901542065
 21
-1427.237519332531
 31
0.0
  0
LINE
  5
B8F16
330
18
100
AcDbEntity
  8
実線
100
AcDbLine
 10
5807.522969975273
 20
-1499.237519332531
 30
0.0
 11
5807.522969975273
 21
-1498.466587765739
 31
0.0
  0
LINE
  5
B8F17
330
18
100
AcDbEntity
  8
実線
100
AcDbLine
 10
5775.522969975273
 20
-1499.237519332531
 30
0.0
 11
5775.522969975273
 21
-1498.466587765739
 31
0.0
  0
ARC
  5
B8F18
330
18
100
AcDbEntity
  8
実線
100
AcDbCircle
 10
5791.522969975273
 20
-1443.237519332531
 30
0.0
 40
57.5
100
AcDbArc
 50
286.1564353572444
 51
73.84356464275562
  0
LINE
  5
B8F19
330
18
100
AcDbEntity
  8
実線
100
AcDbLine
 10
5807.522969975273
 20
-1388.008450899322
 30
0.0
 11
5807.522969975273
 21
-1387.237519332531
 31
0.0
  0
LINE
  5
B8F1A
330
18
100
AcDbEntity
  8
実線
100
AcDbLine
 10
5775.522969975273
 20
-1388.008450899322
 30
0.0
 11
5775.522969975273
 21
-1387.237519332531
 31
0.0
  0
ARC
  5
B8F1B
330
18
100
AcDbEntity
  8
実線
100
AcDbCircle
 10
5791.522969975273
 20
-1443.237519332531
 30
0.0
 40
57.5
100
AcDbArc
 50
196.1564353572444
 51
253.8435646427556
  0
ARC
  5
B8F1C
330
18
100
AcDbEntity
  8
実線
100
AcDbCircle
 10
5791.522969975273
 20
-1443.237519332531
 30
0.0
 40
57.5
100
AcDbArc
 50
106.1564353572444
 51
163.8435646427556
  0
LINE
  5
B8F2C
330
18
100
AcDbEntity
  8
実線
 48
0.1
100
AcDbLine
 10
5859.022969975273
 20
-1448.000659053344
 30
0.0
 11
5854.022969975276
 21
-1448.000659053346
 31
0.0
  0
LINE
  5
B8F2D
330
18
100
AcDbEntity
  8
実線
 48
0.1
100
AcDbLine
 10
5859.022969975273
 20
-1446.701620947669
 30
0.0
 11
5854.022969975276
 21
-1446.701620947669
 31
0.0
  0
LINE
  5
B8F2E
330
18
100
AcDbEntity
  8
実線
 48
0.1
100
AcDbLine
 10
5859.022969975276
 20
-1439.773417717392
 30
0.0
 11
5854.022969975273
 21
-1439.773417717392
 31
0.0
  0
LINE
  5
B8F2F
330
18
100
AcDbEntity
  8
実線
 48
0.1
100
AcDbLine
 10
5859.022969975276
 20
-1438.474379611717
 30
0.0
 11
5854.022969975273
 21
-1438.474379611717
 31
0.0
  0
LINE
  5
B8F30
330
18
100
AcDbEntity
  8
実線
100
AcDbLine
 10
5859.022969975273
 20
-1451.464760668482
 30
0.0
 11
5854.022969975276
 21
-1451.464760668482
 31
0.0
  0
LINE
  5
B8F31
330
18
100
AcDbEntity
  8
実線
100
AcDbLine
 10
5859.022969975276
 20
-1435.010277996579
 30
0.0
 11
5854.022969975273
 21
-1435.010277996579
 31
0.0
  0
LINE
  5
B8F32
330
18
100
AcDbEntity
  8
実線
100
AcDbLine
 10
5870.955982677167
 20
-1435.010277996577
 30
0.0
 11
5863.022969975276
 21
-1435.010277996577
 31
0.0
  0
LINE
  5
B8F33
330
18
100
AcDbEntity
  8
実線
100
AcDbLine
 10
5870.955982677167
 20
-1451.464760668482
 30
0.0
 11
5863.022969975273
 21
-1451.464760668482
 31
0.0
  0
LINE
  5
B8F34
330
18
100
AcDbEntity
  8
実線
 48
0.1
100
AcDbLine
 10
5871.522969975273
 20
-1448.000659053344
 30
0.0
 11
5863.022969975273
 21
-1448.000659053344
 31
0.0
  0
LINE
  5
B8F35
330
18
100
AcDbEntity
  8
実線
 48
0.1
100
AcDbLine
 10
5871.522969975273
 20
-1446.701620947669
 30
0.0
 11
5863.022969975273
 21
-1446.701620947669
 31
0.0
  0
LINE
  5
B8F36
330
18
100
AcDbEntity
  8
実線
 48
0.1
100
AcDbLine
 10
5871.522969975273
 20
-1438.474379611715
 30
0.0
 11
5863.022969975276
 21
-1438.474379611717
 31
0.0
  0
LINE
  5
B8F37
330
18
100
AcDbEntity
  8
実線
 48
0.1
100
AcDbLine
 10
5871.522969975273
 20
-1439.773417717391
 30
0.0
 11
5863.022969975276
 21
-1439.773417717392
 31
0.0
  0
LINE
  5
B8F38
330
18
100
AcDbEntity
  8
実線
100
AcDbLine
 10
5871.188033484736
 20
-1451.232709860912
 30
0.0
 11
5863.022969975273
 21
-1451.232709860912
 31
0.0
  0
LINE
  5
B8F39
330
18
100
AcDbEntity
  8
実線
100
AcDbLine
 10
5871.522969975273
 20
-1450.832709860912
 30
0.0
 11
5863.022969975273
 21
-1450.832709860912
 31
0.0
  0
LINE
  5
B8F3A
330
18
100
AcDbEntity
  8
実線
100
AcDbLine
 10
5871.522969975273
 20
-1448.632709860914
 30
0.0
 11
5863.022969975273
 21
-1448.632709860914
 31
0.0
  0
LINE
  5
B8F3B
330
18
100
AcDbEntity
  8
実線
100
AcDbLine
 10
5871.522969975273
 20
-1448.232709860912
 30
0.0
 11
5863.022969975273
 21
-1448.232709860912
 31
0.0
  0
LINE
  5
B8F3C
330
18
100
AcDbEntity
  8
実線
100
AcDbLine
 10
5871.188033484736
 20
-1435.242328804149
 30
0.0
 11
5863.022969975273
 21
-1435.242328804147
 31
0.0
  0
LINE
  5
B8F3D
330
18
100
AcDbEntity
  8
実線
100
AcDbLine
 10
5871.522969975273
 20
-1435.642328804147
 30
0.0
 11
5863.022969975273
 21
-1435.642328804147
 31
0.0
  0
LINE
  5
B8F3E
330
18
100
AcDbEntity
  8
実線
100
AcDbLine
 10
5871.522969975273
 20
-1437.842328804148
 30
0.0
 11
5863.022969975273
 21
-1437.842328804148
 31
0.0
  0
LINE
  5
B8F3F
330
18
100
AcDbEntity
  8
実線
100
AcDbLine
 10
5871.522969975273
 20
-1438.242328804145
 30
0.0
 11
5863.022969975273
 21
-1438.242328804147
 31
0.0
  0
LINE
  5
B8F40
330
18
100
AcDbEntity
  8
実線
100
AcDbLine
 10
5871.522969975273
 20
-1446.237519332529
 30
0.0
 11
5863.022969975273
 21
-1446.237519332529
 31
0.0
  0
LINE
  5
B8F41
330
18
100
AcDbEntity
  8
実線
100
AcDbLine
 10
5871.522969975273
 20
-1440.237519332531
 30
0.0
 11
5863.022969975273
 21
-1440.237519332531
 31
0.0
  0
LINE
  5
B8F42
330
18
100
AcDbEntity
  8
実線
100
AcDbLine
 10
5871.522969975273
 20
-1445.43751933253
 30
0.0
 11
5863.022969975276
 21
-1445.43751933253
 31
0.0
  0
LINE
  5
B8F43
330
18
100
AcDbEntity
  8
実線
100
AcDbLine
 10
5871.522969975273
 20
-1441.03751933253
 30
0.0
 11
5863.022969975273
 21
-1441.03751933253
 31
0.0
  0
LINE
  5
B8F44
330
18
100
AcDbEntity
  8
実線
100
AcDbLine
 10
5871.522969975273
 20
-1450.897773370375
 30
0.0
 11
5870.955982677167
 21
-1451.464760668482
 31
0.0
  0
LINE
  5
B8F45
330
18
100
AcDbEntity
  8
実線
100
AcDbLine
 10
5871.522969975273
 20
-1435.577265294686
 30
0.0
 11
5870.955982677167
 21
-1435.010277996577
 31
0.0
  0
ARC
  5
B8F46
330
18
100
AcDbEntity
  8
実線
100
AcDbCircle
 10
5872.022969975276
 20
-1446.737519332531
 30
0.0
 40
4.0
100
AcDbArc
 50
270.0
 51
0.0
  0
ARC
  5
B8F47
330
18
100
AcDbEntity
  8
実線
100
AcDbCircle
 10
5872.022969975276
 20
-1439.737519332531
 30
0.0
 40
4.0
100
AcDbArc
 50
0.0
 51
90.0
  0
LINE
  5
B8F48
330
18
100
AcDbEntity
  8
実線
100
AcDbLine
 10
5871.522969975276
 20
-1450.737519332531
 30
0.0
 11
5872.022969975276
 21
-1450.737519332531
 31
0.0
  0
LINE
  5
B8F49
330
18
100
AcDbEntity
  8
実線
100
AcDbLine
 10
5871.522969975273
 20
-1435.737519332531
 30
0.0
 11
5872.022969975276
 21
-1435.737519332531
 31
0.0
  0
LINE
  5
B8F4A
330
18
100
AcDbEntity
  8
実線
100
AcDbLine
 10
5871.522969975273
 20
-1435.577265294686
 30
0.0
 11
5871.522969975273
 21
-1450.897773370375
 31
0.0
  0
LINE
  5
B8F4B
330
18
100
AcDbEntity
  8
実線
100
AcDbLine
 10
5859.022969975276
 20
-1449.737519332531
 30
0.0
 11
5863.022969975273
 21
-1449.737519332531
 31
0.0
  0
LINE
  5
B8F4C
330
18
100
AcDbEntity
  8
実線
100
AcDbLine
 10
5859.022969975273
 20
-1436.737519332531
 30
0.0
 11
5863.022969975273
 21
-1436.737519332531
 31
0.0
  0
LINE
  5
B8F4D
330
18
100
AcDbEntity
  8
実線
100
AcDbLine
 10
5863.022969975276
 20
-1435.010277996577
 30
0.0
 11
5863.022969975273
 21
-1451.464760668482
 31
0.0
  0
LINE
  5
B8F4E
330
18
100
AcDbEntity
  8
実線
100
AcDbLine
 10
5876.022969975276
 20
-1439.737519332531
 30
0.0
 11
5876.022969975276
 21
-1446.737519332531
 31
0.0
  0
LINE
  5
B8F4F
330
18
100
AcDbEntity
  8
実線
100
AcDbLine
 10
5859.022969975276
 20
-1435.010277996579
 30
0.0
 11
5859.022969975273
 21
-1451.464760668482
 31
0.0
  0
LINE
  5
B8F50
330
18
100
AcDbEntity
  8
実線
100
AcDbLine
 10
5854.022969975273
 20
-1435.010277996577
 30
0.0
 11
5854.022969975273
 21
-1451.464760668482
 31
0.0
  0
LINE
  5
B8F51
330
18
100
AcDbEntity
  8
実線
100
AcDbLine
 10
5853.734303347899
 20
-1449.237519332531
 30
0.0
 11
5854.022969975276
 21
-1449.237519332531
 31
0.0
  0
LINE
  5
B8F52
330
18
100
AcDbEntity
  8
実線
100
AcDbLine
 10
5853.734303347899
 20
-1437.237519332531
 30
0.0
 11
5854.022969975276
 21
-1437.237519332531
 31
0.0
  0
LINE
  5
B8F53
330
18
100
AcDbEntity
  8
細線
100
AcDbLine
 10
5853.807275028792
 20
-1438.049519332531
 30
0.0
 11
5854.022969975273
 21
-1438.049519332531
 31
0.0
  0
LINE
  5
B8F54
330
18
100
AcDbEntity
  8
細線
100
AcDbLine
 10
5853.807275028792
 20
-1448.425519332531
 30
0.0
 11
5854.022969975273
 21
-1448.425519332531
 31
0.0
  0
LINE
  5
B8F55
330
18
100
AcDbEntity
  8
実線
100
AcDbLine
 10
5876.022969975276
 20
-1446.537519332531
 30
0.0
 11
5881.022969975276
 21
-1446.537519332531
 31
0.0
  0
LINE
  5
B8F56
330
18
100
AcDbEntity
  8
実線
100
AcDbLine
 10
5876.022969975276
 20
-1439.93751933253
 30
0.0
 11
5881.022969975276
 21
-1439.93751933253
 31
0.0
  0
ARC
  5
B8F57
330
18
100
AcDbEntity
  8
細線
100
AcDbCircle
 10
5878.550469975276
 20
-1444.887519332531
 30
0.0
 40
2.972499999999677
100
AcDbArc
 50
326.2832024645277
 51
33.71679753547594
  0
ARC
  5
B8F58
330
18
100
AcDbEntity
  8
細線
100
AcDbCircle
 10
5883.495469975276
 20
-1444.887519332531
 30
0.0
 40
2.972499999999677
100
AcDbArc
 50
146.2832024645241
 51
213.7167975354723
  0
ARC
  5
B8F59
330
18
100
AcDbEntity
  8
細線
100
AcDbCircle
 10
5878.550469975276
 20
-1441.58751933253
 30
0.0
 40
2.972499999999677
100
AcDbArc
 50
326.2832024645241
 51
33.71679753547229
  0
LINE
  5
B8F5A
330
18
100
AcDbEntity
  8
CENTER
100
AcDbLine
 10
5791.522969975276
 20
-1443.237519332531
 30
0.0
 11
5829.379014774442
 21
-1497.301554255604
 31
0.0
  0
CIRCLE
  5
B8F5C
330
18
100
AcDbEntity
  8
実線
100
AcDbCircle
 10
5827.371497247213
 20
-1494.434522100592
 30
0.0
 40
2.0
  0
LINE
  5
B8F5D
330
18
100
AcDbEntity
  8
CENTER
100
AcDbLine
 10
5791.522969975273
 20
-1443.237519332529
 30
0.0
 11
5753.093348739754
 21
-1388.354332365169
 31
0.0
  0
ARC
  5
B8F5E
330
18
100
AcDbEntity
  8
実線
100
AcDbCircle
 10
5756.248019139684
 20
-1392.859668608758
 30
0.0
 40
2.0
100
AcDbArc
 50
214.9999999999792
 51
34.99999999997922
  0
ARC
  5
B8F5F
330
18
100
AcDbEntity
  8
実線
100
AcDbCircle
 10
5755.100866266983
 20
-1391.221364520179
 30
0.0
 40
2.0
100
AcDbArc
 50
34.99999999997922
 51
214.9999999999792
  0
LINE
  5
B8F60
330
18
100
AcDbEntity
  8
実線
100
AcDbLine
 10
5757.886323228262
 20
-1391.712515736055
 30
0.0
 11
5756.73917035556
 21
-1390.074211647478
 31
0.0
  0
LINE
  5
B8F61
330
18
100
AcDbEntity
  8
実線
100
AcDbLine
 10
5754.609715051107
 20
-1394.00682148146
 30
0.0
 11
5753.462562178405
 21
-1392.368517392882
 31
0.0
  0
LINE
  5
B8F63
330
18
100
AcDbEntity
  8
実線
100
AcDbLine
 10
5828.518650119915
 20
-1496.07282618917
 30
0.0
 11
5826.224344374508
 21
-1492.796218012015
 31
0.0
  0
LINE
  5
B8F64
330
18
100
AcDbEntity
  8
実線
100
AcDbLine
 10
5825.733193158636
 20
-1495.581674973294
 30
0.0
 11
5829.009801335791
 21
-1493.287369227891
 31
0.0
  0
HATCH
  5
B8F65
330
18
100
AcDbEntity
  8
ハッチング
 62
     7
100
AcDbHatch
 10
0.0
 20
0.0
 30
0.0
210
0.0
220
0.0
230
1.0
  2
SOLID
 70
     1
 71
     0
 91
        3
 92
        7
 72
     1
 73
     1
 93
        4
 10
5828.518650119915
 20
-1496.07282618917
 42
0.2446984432290469
 10
5829.371497247213
 20
-1494.434522100592
 42
0.1539147210594603
 10
5829.009801335791
 20
-1493.28736922789
 42
0.0
 10
5827.371497247213
 20
-1494.434522100593
 42
0.0
 97
        0
 92
        7
 72
     1
 73
     1
 93
        4
 10
5825.629596494893
 20
-1495.417264065231
 42
0.0006459108403509
 10
5827.184809478636
 20
-1494.16790433602
 42
0.0
 10
5826.224344374508
 20
-1492.796218012016
 42
0.2446984432279043
 10
5825.371497247213
 20
-1494.434522100592
 42
0.1291263670314773
 97
        0
 92
        7
 72
     1
 73
     1
 93
        4
 10
5825.733193158635
 20
-1495.581674973294
 42
0.0
 10
5829.009801335791
 20
-1493.28736922789
 42
0.0579505161186743
 10
5828.702832323079
 20
-1492.942025227642
 42
-0.0012776753367381
 10
5825.629596494893
 20
-1495.417264065231
 42
0.0243052996001763
 97
        0
 75
     0
 76
     1
 47
0.0
 98
        3
 10
5828.138688634508
 20
-1495.010721453396
 10
5826.47797551119
 20
-1494.318757652013
 10
5825.736425886711
 20
-1495.560720647635
1001
ACAD
1010
0.0
1020
0.0
1030
0.0
  0
LINE
  5
B95F4
330
18
100
AcDbEntity
  8
CENTER
100
AcDbLine
 10
5336.097491566596
 20
-1598.237519332518
 30
0.0
 11
5336.097491566596
 21
-1671.737519332518
 31
0.0
  0
LINE
  5
B95F5
330
18
100
AcDbEntity
  8
実線
100
AcDbLine
 10
5392.097491566596
 20
-1606.737519332518
 30
0.0
 11
5392.097491566596
 21
-1669.237519332518
 31
0.0
  0
LINE
  5
B95F6
330
18
100
AcDbEntity
  8
実線
100
AcDbLine
 10
5273.597491566596
 20
-1669.237519332518
 30
0.0
 11
5320.097491566596
 21
-1669.237519332518
 31
0.0
  0
LINE
  5
B95F8
330
18
100
AcDbEntity
  8
実線
100
AcDbLine
 10
5273.597491566596
 20
-1606.737519332518
 30
0.0
 11
5273.597491566596
 21
-1669.237519332518
 31
0.0
  0
LINE
  5
B961C
330
18
100
AcDbEntity
  8
実線
100
AcDbLine
 10
5320.097491566596
 20
-1667.937519332518
 30
0.0
 11
5320.097491566596
 21
-1669.237519332518
 31
0.0
  0
LINE
  5
B961D
330
18
100
AcDbEntity
  8
実線
100
AcDbLine
 10
5352.097491566596
 20
-1667.937519332518
 30
0.0
 11
5352.097491566596
 21
-1669.237519332518
 31
0.0
  0
LINE
  5
B961E
330
18
100
AcDbEntity
  8
実線
100
AcDbLine
 10
5352.097491566596
 20
-1669.237519332518
 30
0.0
 11
5392.097491566596
 21
-1669.237519332518
 31
0.0
  0
LINE
  5
B9637
330
18
100
AcDbEntity
  8
実線
100
AcDbLine
 10
5392.097491566596
 20
-1649.237519332518
 30
0.0
 11
5280.097491566596
 21
-1649.237519332518
 31
0.0
  0
LINE
  5
B96DB
330
18
100
AcDbEntity
  8
実線
100
AcDbLine
 10
5361.097491566596
 20
-1603.737519332518
 30
0.0
 11
5361.097491566596
 21
-1604.537519332518
 31
0.0
  0
LINE
  5
B96DC
330
18
100
AcDbEntity
  8
実線
100
AcDbLine
 10
5311.097491566596
 20
-1603.737519332518
 30
0.0
 11
5311.097491566596
 21
-1604.537519332518
 31
0.0
  0
LINE
  5
B96DD
330
18
100
AcDbEntity
  8
実線
100
AcDbLine
 10
5311.597491566596
 20
-1603.237519332518
 30
0.0
 11
5360.597491566596
 21
-1603.237519332518
 31
0.0
  0
LINE
  5
B96DE
330
18
100
AcDbEntity
  8
実線
100
AcDbLine
 10
5306.947491566594
 20
-1604.737519332518
 30
0.0
 11
5365.247491566597
 21
-1604.737519332518
 31
0.0
  0
LINE
  5
B96E0
330
18
100
AcDbEntity
  8
実線
100
AcDbLine
 10
5365.247491566597
 20
-1604.737519332518
 30
0.0
 11
5365.247491566597
 21
-1606.237519332518
 31
0.0
  0
LINE
  5
B96E2
330
18
100
AcDbEntity
  8
実線
100
AcDbLine
 10
5306.947491566594
 20
-1604.737519332518
 30
0.0
 11
5306.947491566594
 21
-1606.237519332518
 31
0.0
  0
LINE
  5
B96F8
330
18
100
AcDbEntity
  8
実線
100
AcDbLine
 10
5325.297491566596
 20
-1667.937519332518
 30
0.0
 11
5346.897491566595
 21
-1667.937519332518
 31
0.0
  0
LINE
  5
B970F
330
18
100
AcDbEntity
  8
CENTER
 48
0.5
100
AcDbLine
 10
5318.597491566596
 20
-1600.737519332518
 30
0.0
 11
5318.597491566596
 21
-1609.237519332518
 31
0.0
  0
LINE
  5
B9710
330
18
100
AcDbEntity
  8
CENTER
 48
0.5
100
AcDbLine
 10
5353.597491566596
 20
-1600.737519332518
 30
0.0
 11
5353.597491566596
 21
-1609.237519332518
 31
0.0
  0
LINE
  5
B9753
330
18
100
AcDbEntity
  8
実線
100
AcDbLine
 10
5391.347491566596
 20
-1606.237519332518
 30
0.0
 11
5391.347491566596
 21
-1606.737519332518
 31
0.0
  0
LINE
  5
B9755
330
18
100
AcDbEntity
  8
実線
100
AcDbLine
 10
5391.347491566596
 20
-1606.237519332518
 30
0.0
 11
5275.097491566596
 21
-1606.237519332518
 31
0.0
  0
LINE
  5
B975C
330
18
100
AcDbEntity
  8
実線
100
AcDbLine
 10
5275.097491566596
 20
-1606.237519332518
 30
0.0
 11
5275.097491566596
 21
-1606.737519332518
 31
0.0
  0
ARC
  5
B975E
330
18
100
AcDbEntity
  8
実線
  6
Continuous
100
AcDbCircle
 10
5371.742114757007
 20
-1605.837519332519
 30
0.0
 40
0.4
100
AcDbArc
 50
90.0
 51
165.5224880002297
  0
LINE
  5
B9764
330
18
100
AcDbEntity
  8
実線
  6
Continuous
100
AcDbLine
 10
5371.74211475701
 20
-1605.437519332519
 30
0.0
 11
5374.840501757008
 21
-1605.437519332519
 31
0.0
  0
ARC
  5
B9765
330
18
100
AcDbEntity
  8
実線
  6
Continuous
100
AcDbCircle
 10
5374.840501757008
 20
-1605.837519332519
 30
0.0
 40
0.4
100
AcDbArc
 50
14.47751199983338
 51
90.0
  0
ARC
  5
B9768
330
18
100
AcDbEntity
  8
実線
  6
Continuous
100
AcDbCircle
 10
5373.291308757006
 20
-1606.237519332518
 30
0.0
 40
2.0
100
AcDbArc
 50
0.0
 51
14.47751200002931
  0
ARC
  5
B9769
330
18
100
AcDbEntity
  8
実線
  6
Continuous
100
AcDbCircle
 10
5373.291308757006
 20
-1606.237519332518
 30
0.0
 40
2.0
100
AcDbArc
 50
165.5224879999707
 51
180.0
  0
LINE
  5
B976A
330
18
100
AcDbEntity
  8
実線
  6
Continuous
100
AcDbLine
 10
5371.29130875701
 20
-1606.237519332518
 30
0.0
 11
5375.29130875701
 21
-1606.237519332518
 31
0.0
  0
LINE
  5
B9773
330
18
100
AcDbEntity
  8
実線
100
AcDbLine
 10
5392.097491566596
 20
-1606.737519332518
 30
0.0
 11
5275.097491566596
 21
-1606.737519332518
 31
0.0
  0
LINE
  5
B9A60
330
18
100
AcDbEntity
  8
実線
100
AcDbLine
 10
5392.097491566596
 20
-1606.737519332518
 30
0.0
 11
5273.597491566596
 21
-1606.737519332518
 31
0.0
  0
LINE
  5
B9BA0
330
18
100
AcDbEntity
  8
実線
100
AcDbLine
 10
5311.597491566596
 20
-1603.237519332518
 30
0.0
 11
5311.097491566596
 21
-1603.737519332518
 31
0.0
  0
LINE
  5
B9BA1
330
18
100
AcDbEntity
  8
実線
100
AcDbLine
 10
5360.597491566596
 20
-1603.237519332518
 30
0.0
 11
5361.097491566596
 21
-1603.737519332518
 31
0.0
  0
ARC
  5
B9BA4
330
18
100
AcDbEntity
  8
実線
100
AcDbCircle
 10
5361.297491566595
 20
-1604.537519332518
 30
0.0
 40
0.2000000000000001
100
AcDbArc
 50
180.0
 51
270.0
  0
ARC
  5
B9BA5
330
18
100
AcDbEntity
  8
実線
100
AcDbCircle
 10
5310.897491566596
 20
-1604.537519332518
 30
0.0
 40
0.2000000000000001
100
AcDbArc
 50
270.0
 51
0.0
  0
LINE
  5
B9BB0
330
18
100
AcDbEntity
  8
実線
100
AcDbLine
 10
5320.097491566596
 20
-1667.937519332518
 30
0.0
 11
5352.097491566596
 21
-1667.937519332518
 31
0.0
  0
LINE
  5
B9C49
330
18
100
AcDbEntity
  8
CENTER
100
AcDbLine
 10
5541.310230770934
 20
-1443.237519332524
 30
0.0
 11
5623.510230770934
 21
-1443.237519332524
 31
0.0
  0
LINE
  5
B9C4A
330
18
100
AcDbEntity
  8
実線
100
AcDbLine
 10
5557.310230770934
 20
-1387.237519332524
 30
0.0
 11
5619.810230770934
 21
-1387.237519332524
 31
0.0
  0
LINE
  5
B9C4B
330
18
100
AcDbEntity
  8
実線
100
AcDbLine
 10
5619.810230770934
 20
-1499.237519332524
 30
0.0
 11
5619.810230770934
 21
-1459.237519332524
 31
0.0
  0
LINE
  5
B9C4C
330
18
100
AcDbEntity
  8
実線
100
AcDbLine
 10
5557.310230770934
 20
-1499.237519332524
 30
0.0
 11
5619.810230770934
 21
-1499.237519332524
 31
0.0
  0
LINE
  5
B9C4E
330
18
100
AcDbEntity
  8
実線
100
AcDbLine
 10
5618.510230770934
 20
-1459.237519332524
 30
0.0
 11
5619.810230770934
 21
-1459.237519332524
 31
0.0
  0
LINE
  5
B9C4F
330
18
100
AcDbEntity
  8
実線
100
AcDbLine
 10
5618.510230770934
 20
-1427.237519332524
 30
0.0
 11
5619.810230770934
 21
-1427.237519332524
 31
0.0
  0
LINE
  5
B9C50
330
18
100
AcDbEntity
  8
実線
100
AcDbLine
 10
5619.810230770934
 20
-1427.237519332524
 30
0.0
 11
5619.810230770934
 21
-1387.237519332524
 31
0.0
  0
LINE
  5
B9C5A
330
18
100
AcDbEntity
  8
実線
100
AcDbLine
 10
5554.310230770934
 20
-1418.237519332524
 30
0.0
 11
5555.110230770934
 21
-1418.237519332524
 31
0.0
  0
LINE
  5
B9C5B
330
18
100
AcDbEntity
  8
実線
100
AcDbLine
 10
5554.310230770934
 20
-1468.237519332524
 30
0.0
 11
5555.110230770934
 21
-1468.237519332524
 31
0.0
  0
LINE
  5
B9C5C
330
18
100
AcDbEntity
  8
実線
100
AcDbLine
 10
5553.810230770934
 20
-1467.737519332524
 30
0.0
 11
5553.810230770934
 21
-1418.737519332524
 31
0.0
  0
LINE
  5
B9C5D
330
18
100
AcDbEntity
  8
実線
100
AcDbLine
 10
5555.310230770934
 20
-1472.387519332526
 30
0.0
 11
5555.310230770934
 21
-1414.087519332523
 31
0.0
  0
LINE
  5
B9C60
330
18
100
AcDbEntity
  8
実線
100
AcDbLine
 10
5618.510230770934
 20
-1454.037519332524
 30
0.0
 11
5618.510230770934
 21
-1432.437519332525
 31
0.0
  0
LINE
  5
B9C62
330
18
100
AcDbEntity
  8
CENTER
 48
0.5
100
AcDbLine
 10
5551.310230770934
 20
-1460.737519332524
 30
0.0
 11
5559.810230770934
 21
-1460.737519332524
 31
0.0
  0
LINE
  5
B9C63
330
18
100
AcDbEntity
  8
CENTER
 48
0.5
100
AcDbLine
 10
5551.310230770934
 20
-1425.737519332524
 30
0.0
 11
5559.810230770934
 21
-1425.737519332524
 31
0.0
  0
LINE
  5
B9C64
330
18
100
AcDbEntity
  8
実線
100
AcDbLine
 10
5556.810230770934
 20
-1387.987519332524
 30
0.0
 11
5557.310230770934
 21
-1387.987519332524
 31
0.0
  0
LINE
  5
B9C65
330
18
100
AcDbEntity
  8
実線
100
AcDbLine
 10
5556.810230770934
 20
-1387.987519332524
 30
0.0
 11
5556.810230770934
 21
-1498.487519332524
 31
0.0
  0
ARC
  5
B9C67
330
18
100
AcDbEntity
  8
実線
  6
Continuous
100
AcDbCircle
 10
5556.410230770935
 20
-1407.592896142106
 30
0.0
 40
0.4
100
AcDbArc
 50
180.0
 51
255.5224880002297
  0
LINE
  5
B9C6A
330
18
100
AcDbEntity
  8
実線
  6
Continuous
100
AcDbLine
 10
5556.010230770935
 20
-1407.592896142103
 30
0.0
 11
5556.010230770935
 21
-1404.494509142105
 31
0.0
  0
ARC
  5
B9C6B
330
18
100
AcDbEntity
  8
実線
  6
Continuous
100
AcDbCircle
 10
5556.410230770935
 20
-1404.494509142105
 30
0.0
 40
0.4
100
AcDbArc
 50
104.4775119997703
 51
180.0
  0
ARC
  5
B9C6E
330
18
100
AcDbEntity
  8
実線
  6
Continuous
100
AcDbCircle
 10
5556.810230770934
 20
-1406.043702142107
 30
0.0
 40
2.0
100
AcDbArc
 50
90.0
 51
104.477512000012
  0
ARC
  5
B9C6F
330
18
100
AcDbEntity
  8
実線
  6
Continuous
100
AcDbCircle
 10
5556.810230770934
 20
-1406.043702142107
 30
0.0
 40
2.0
100
AcDbArc
 50
255.522487999988
 51
270.0
  0
LINE
  5
B9C70
330
18
100
AcDbEntity
  8
実線
  6
Continuous
100
AcDbLine
 10
5556.810230770934
 20
-1408.043702142103
 30
0.0
 11
5556.810230770934
 21
-1404.043702142103
 31
0.0
  0
LINE
  5
B9C71
330
18
100
AcDbEntity
  8
実線
100
AcDbLine
 10
5557.310230770934
 20
-1387.237519332524
 30
0.0
 11
5557.310230770934
 21
-1499.237519332524
 31
0.0
  0
LINE
  5
B9C85
330
18
100
AcDbEntity
  8
実線
100
AcDbLine
 10
5557.310230770934
 20
-1387.237519332524
 30
0.0
 11
5557.310230770934
 21
-1499.237519332524
 31
0.0
  0
LINE
  5
B9C86
330
18
100
AcDbEntity
  8
実線
100
AcDbLine
 10
5555.310230770934
 20
-1472.387519332526
 30
0.0
 11
5556.810230770934
 21
-1472.387519332526
 31
0.0
  0
LINE
  5
B9C87
330
18
100
AcDbEntity
  8
実線
100
AcDbLine
 10
5553.810230770934
 20
-1467.737519332524
 30
0.0
 11
5554.310230770934
 21
-1468.237519332524
 31
0.0
  0
LINE
  5
B9C88
330
18
100
AcDbEntity
  8
実線
100
AcDbLine
 10
5555.310230770934
 20
-1414.087519332523
 30
0.0
 11
5556.810230770934
 21
-1414.087519332523
 31
0.0
  0
LINE
  5
B9C89
330
18
100
AcDbEntity
  8
実線
100
AcDbLine
 10
5553.810230770934
 20
-1418.737519332524
 30
0.0
 11
5554.310230770934
 21
-1418.237519332524
 31
0.0
  0
ARC
  5
B9C8A
330
18
100
AcDbEntity
  8
実線
100
AcDbCircle
 10
5555.110230770934
 20
-1418.037519332525
 30
0.0
 40
0.2000000000000001
100
AcDbArc
 50
270.0
 51
0.0
  0
ARC
  5
B9C8B
330
18
100
AcDbEntity
  8
実線
100
AcDbCircle
 10
5555.110230770934
 20
-1468.437519332524
 30
0.0
 40
0.2000000000000001
100
AcDbArc
 50
0.0
 51
90.0
  0
LINE
  5
B9C96
330
18
100
AcDbEntity
  8
実線
100
AcDbLine
 10
5618.510230770934
 20
-1459.237519332524
 30
0.0
 11
5618.510230770934
 21
-1427.237519332524
 31
0.0
  0
LINE
  5
B9C9A
330
18
100
AcDbEntity
  8
実線
100
AcDbLine
 10
5287.314810213476
 20
-1606.737519332518
 30
0.0
 11
5287.314810213476
 21
-1649.237519332518
 31
0.0
  0
LINE
  5
B9C9D
330
18
100
AcDbEntity
  8
実線
100
AcDbLine
 10
5280.097491566596
 20
-1606.737519332518
 30
0.0
 11
5280.097491566596
 21
-1669.237519332518
 31
0.0
  0
LINE
  5
B9C9E
330
18
100
AcDbEntity
  8
実線
100
AcDbLine
 10
5737.022969975273
 20
-1459.933327189595
 30
0.0
 11
5737.022969975273
 21
-1426.541711475467
 31
0.0
  0
LINE
  5
B9C9F
330
18
100
AcDbEntity
  8
実線
100
AcDbLine
 10
5846.022969975273
 20
-1459.933327189595
 30
0.0
 11
5846.022969975273
 21
-1426.541711475467
 31
0.0
  0
LINE
  5
B9CA0
330
18
100
AcDbEntity
  8
実線
100
AcDbLine
 10
5774.827162118208
 20
-1388.737519332531
 30
0.0
 11
5808.218777832337
 21
-1388.737519332531
 31
0.0
  0
LINE
  5
B9CA1
330
18
100
AcDbEntity
  8
実線
100
AcDbLine
 10
5774.827162118208
 20
-1497.737519332531
 30
0.0
 11
5808.218777832337
 21
-1497.737519332531
 31
0.0
  0
ARC
  5
B9CA2
330
18
100
AcDbEntity
  8
実線
100
AcDbCircle
 10
5791.522969975273
 20
-1443.237519332531
 30
0.0
 40
57.0
100
AcDbArc
 50
17.03218872133538
 51
72.9678112786644
  0
ARC
  5
B9CA3
330
18
100
AcDbEntity
  8
実線
100
AcDbCircle
 10
5791.522969975273
 20
-1443.237519332531
 30
0.0
 40
57.0
100
AcDbArc
 50
197.0321887213354
 51
252.9678112786644
  0
ARC
  5
B9CA4
330
18
100
AcDbEntity
  8
実線
100
AcDbCircle
 10
5791.522969975273
 20
-1443.237519332531
 30
0.0
 40
57.0
100
AcDbArc
 50
287.0321887213356
 51
342.9678112786647
  0
ARC
  5
B9CA5
330
18
100
AcDbEntity
  8
実線
100
AcDbCircle
 10
5791.522969975273
 20
-1443.237519332531
 30
0.0
 40
57.0
100
AcDbArc
 50
107.0321887213356
 51
162.9678112786646
  0
CIRCLE
  5
B9CC2
330
18
100
AcDbEntity
  8
実線
100
AcDbCircle
 10
5791.522969975273
 20
-1443.237519332531
 30
0.0
 40
9.5
  0
CIRCLE
  5
B9CC3
330
18
100
AcDbEntity
  8
実線
100
AcDbCircle
 10
5791.522969975273
 20
-1443.237519332531
 30
0.0
 40
10.8
  0
CIRCLE
  5
B9CC4
330
18
100
AcDbEntity
  8
実線
100
AcDbCircle
 10
5791.522969975273
 20
-1443.237519332531
 30
0.0
 40
11.3
  0
LINE
  5
B9D14
330
18
100
AcDbEntity
  8
実線
100
AcDbLine
 10
5829.578980682735
 20
-1403.44107343135
 30
0.0
 11
5829.225427292139
 21
-1403.794626821944
 31
0.0
  0
LINE
  5
B9D15
330
18
100
AcDbEntity
  8
実線
100
AcDbLine
 10
5829.225427292139
 20
-1405.181508625072
 30
0.0
 11
5829.578980682735
 21
-1405.535062015664
 31
0.0
  0
LINE
  5
B9D16
330
18
100
AcDbEntity
  8
実線
100
AcDbLine
 10
5831.319415876454
 20
-1405.181508625072
 30
0.0
 11
5830.965862485861
 21
-1405.535062015664
 31
0.0
  0
LINE
  5
B9D17
330
18
100
AcDbEntity
  8
実線
100
AcDbLine
 10
5830.965862485861
 20
-1403.44107343135
 30
0.0
 11
5831.319415876454
 21
-1403.794626821944
 31
0.0
  0
LINE
  5
B9D18
330
18
100
AcDbEntity
  8
実線
100
AcDbLine
 10
5830.272421584298
 20
-1404.134514332914
 30
0.0
 11
5829.578980682735
 21
-1403.44107343135
 31
0.0
  0
LINE
  5
B9D19
330
18
100
AcDbEntity
  8
実線
100
AcDbLine
 10
5829.918868193706
 20
-1404.488067723509
 30
0.0
 11
5829.225427292139
 21
-1403.794626821944
 31
0.0
  0
LINE
  5
B9D1A
330
18
100
AcDbEntity
  8
実線
100
AcDbLine
 10
5830.272421584298
 20
-1404.134514332914
 30
0.0
 11
5830.965862485861
 21
-1403.44107343135
 31
0.0
  0
LINE
  5
B9D1B
330
18
100
AcDbEntity
  8
実線
100
AcDbLine
 10
5830.625974974891
 20
-1404.488067723507
 30
0.0
 11
5831.319415876457
 21
-1403.794626821944
 31
0.0
  0
LINE
  5
B9D1C
330
18
100
AcDbEntity
  8
実線
100
AcDbLine
 10
5830.965862485861
 20
-1405.535062015664
 30
0.0
 11
5830.272421584295
 21
-1404.841621114101
 31
0.0
  0
LINE
  5
B9D1D
330
18
100
AcDbEntity
  8
実線
100
AcDbLine
 10
5831.319415876454
 20
-1405.181508625072
 30
0.0
 11
5830.625974974891
 21
-1404.488067723507
 31
0.0
  0
LINE
  5
B9D1E
330
18
100
AcDbEntity
  8
実線
100
AcDbLine
 10
5829.225427292139
 20
-1405.181508625072
 30
0.0
 11
5829.918868193706
 21
-1404.488067723509
 31
0.0
  0
LINE
  5
B9D1F
330
18
100
AcDbEntity
  8
実線
100
AcDbLine
 10
5829.578980682735
 20
-1405.535062015664
 30
0.0
 11
5830.272421584295
 21
-1404.841621114101
 31
0.0
  0
CIRCLE
  5
B9D20
330
18
100
AcDbEntity
  8
実線
100
AcDbCircle
 10
5830.272421584295
 20
-1404.488067723507
 30
0.0
 40
2.0
  0
LINE
  5
B9D21
330
18
100
AcDbEntity
  8
実線
100
AcDbLine
 10
5751.726524074091
 20
-1405.181508625068
 30
0.0
 11
5752.080077464685
 21
-1405.535062015664
 31
0.0
  0
LINE
  5
B9D22
330
18
100
AcDbEntity
  8
実線
100
AcDbLine
 10
5753.466959267813
 20
-1405.535062015664
 30
0.0
 11
5753.820512658405
 21
-1405.181508625068
 31
0.0
  0
LINE
  5
B9D23
330
18
100
AcDbEntity
  8
実線
100
AcDbLine
 10
5753.466959267813
 20
-1403.44107343135
 30
0.0
 11
5753.820512658405
 21
-1403.794626821942
 31
0.0
  0
LINE
  5
B9D24
330
18
100
AcDbEntity
  8
実線
100
AcDbLine
 10
5751.726524074091
 20
-1403.794626821942
 30
0.0
 11
5752.080077464685
 21
-1403.44107343135
 31
0.0
  0
LINE
  5
B9D25
330
18
100
AcDbEntity
  8
実線
100
AcDbLine
 10
5752.419964975656
 20
-1404.488067723505
 30
0.0
 11
5751.726524074091
 21
-1405.181508625068
 31
0.0
  0
LINE
  5
B9D26
330
18
100
AcDbEntity
  8
実線
100
AcDbLine
 10
5752.77351836625
 20
-1404.841621114098
 30
0.0
 11
5752.080077464685
 21
-1405.535062015664
 31
0.0
  0
LINE
  5
B9D27
330
18
100
AcDbEntity
  8
実線
100
AcDbLine
 10
5752.419964975656
 20
-1404.488067723505
 30
0.0
 11
5751.726524074091
 21
-1403.794626821942
 31
0.0
  0
LINE
  5
B9D28
330
18
100
AcDbEntity
  8
実線
100
AcDbLine
 10
5752.773518366248
 20
-1404.134514332913
 30
0.0
 11
5752.080077464685
 21
-1403.441073431346
 31
0.0
  0
LINE
  5
B9D29
330
18
100
AcDbEntity
  8
実線
100
AcDbLine
 10
5753.820512658405
 20
-1403.794626821942
 30
0.0
 11
5753.127071756842
 21
-1404.488067723509
 31
0.0
  0
LINE
  5
B9D2A
330
18
100
AcDbEntity
  8
実線
100
AcDbLine
 10
5753.466959267813
 20
-1403.44107343135
 30
0.0
 11
5752.773518366248
 21
-1404.134514332913
 31
0.0
  0
LINE
  5
B9D2B
330
18
100
AcDbEntity
  8
実線
100
AcDbLine
 10
5753.466959267813
 20
-1405.535062015664
 30
0.0
 11
5752.77351836625
 21
-1404.841621114098
 31
0.0
  0
LINE
  5
B9D2C
330
18
100
AcDbEntity
  8
実線
100
AcDbLine
 10
5753.820512658405
 20
-1405.181508625068
 30
0.0
 11
5753.127071756842
 21
-1404.488067723509
 31
0.0
  0
CIRCLE
  5
B9D2D
330
18
100
AcDbEntity
  8
実線
100
AcDbCircle
 10
5752.773518366248
 20
-1404.488067723509
 30
0.0
 40
2.0
  0
LINE
  5
B9D2E
330
18
100
AcDbEntity
  8
実線
100
AcDbLine
 10
5753.46695926781
 20
-1483.033965233712
 30
0.0
 11
5753.820512658406
 21
-1482.680411843118
 31
0.0
  0
LINE
  5
B9D2F
330
18
100
AcDbEntity
  8
実線
100
AcDbLine
 10
5753.820512658406
 20
-1481.29353003999
 30
0.0
 11
5753.46695926781
 21
-1480.939976649397
 31
0.0
  0
LINE
  5
B9D30
330
18
100
AcDbEntity
  8
実線
100
AcDbLine
 10
5751.726524074092
 20
-1481.29353003999
 30
0.0
 11
5752.080077464684
 21
-1480.939976649397
 31
0.0
  0
LINE
  5
B9D31
330
18
100
AcDbEntity
  8
実線
100
AcDbLine
 10
5752.080077464684
 20
-1483.033965233712
 30
0.0
 11
5751.726524074092
 21
-1482.680411843118
 31
0.0
  0
LINE
  5
B9D32
330
18
100
AcDbEntity
  8
実線
100
AcDbLine
 10
5752.773518366247
 20
-1482.340524332147
 30
0.0
 11
5753.46695926781
 21
-1483.033965233712
 31
0.0
  0
LINE
  5
B9D33
330
18
100
AcDbEntity
  8
実線
100
AcDbLine
 10
5753.12707175684
 20
-1481.986970941553
 30
0.0
 11
5753.820512658406
 21
-1482.680411843118
 31
0.0
  0
LINE
  5
B9D34
330
18
100
AcDbEntity
  8
実線
100
AcDbLine
 10
5752.773518366247
 20
-1482.340524332147
 30
0.0
 11
5752.080077464684
 21
-1483.033965233712
 31
0.0
  0
LINE
  5
B9D35
330
18
100
AcDbEntity
  8
実線
100
AcDbLine
 10
5752.419964975655
 20
-1481.986970941555
 30
0.0
 11
5751.726524074088
 21
-1482.680411843118
 31
0.0
  0
LINE
  5
B9D36
330
18
100
AcDbEntity
  8
実線
100
AcDbLine
 10
5752.080077464684
 20
-1480.939976649397
 30
0.0
 11
5752.773518366251
 21
-1481.63341755096
 31
0.0
  0
LINE
  5
B9D37
330
18
100
AcDbEntity
  8
実線
100
AcDbLine
 10
5751.726524074092
 20
-1481.29353003999
 30
0.0
 11
5752.419964975655
 21
-1481.986970941555
 31
0.0
  0
LINE
  5
B9D38
330
18
100
AcDbEntity
  8
実線
100
AcDbLine
 10
5753.820512658406
 20
-1481.29353003999
 30
0.0
 11
5753.12707175684
 21
-1481.986970941553
 31
0.0
  0
LINE
  5
B9D39
330
18
100
AcDbEntity
  8
実線
100
AcDbLine
 10
5753.46695926781
 20
-1480.939976649397
 30
0.0
 11
5752.773518366251
 21
-1481.63341755096
 31
0.0
  0
CIRCLE
  5
B9D3A
330
18
100
AcDbEntity
  8
実線
100
AcDbCircle
 10
5752.773518366251
 20
-1481.986970941555
 30
0.0
 40
2.0
  0
LINE
  5
B9D3B
330
18
100
AcDbEntity
  8
実線
100
AcDbLine
 10
5831.319415876454
 20
-1481.293530039993
 30
0.0
 11
5830.965862485859
 21
-1480.939976649397
 31
0.0
  0
LINE
  5
B9D3C
330
18
100
AcDbEntity
  8
実線
100
AcDbLine
 10
5829.578980682732
 20
-1480.939976649397
 30
0.0
 11
5829.225427292139
 21
-1481.293530039993
 31
0.0
  0
LINE
  5
B9D3D
330
18
100
AcDbEntity
  8
実線
100
AcDbLine
 10
5829.578980682732
 20
-1483.033965233712
 30
0.0
 11
5829.225427292139
 21
-1482.680411843119
 31
0.0
  0
LINE
  5
B9D3E
330
18
100
AcDbEntity
  8
実線
100
AcDbLine
 10
5831.319415876454
 20
-1482.680411843119
 30
0.0
 11
5830.965862485859
 21
-1483.033965233712
 31
0.0
  0
LINE
  5
B9D3F
330
18
100
AcDbEntity
  8
実線
100
AcDbLine
 10
5830.625974974889
 20
-1481.986970941556
 30
0.0
 11
5831.319415876454
 21
-1481.293530039993
 31
0.0
  0
LINE
  5
B9D40
330
18
100
AcDbEntity
  8
実線
100
AcDbLine
 10
5830.272421584295
 20
-1481.633417550964
 30
0.0
 11
5830.965862485859
 21
-1480.939976649397
 31
0.0
  0
LINE
  5
B9D41
330
18
100
AcDbEntity
  8
実線
100
AcDbLine
 10
5830.625974974889
 20
-1481.986970941556
 30
0.0
 11
5831.319415876454
 21
-1482.680411843119
 31
0.0
  0
LINE
  5
B9D42
330
18
100
AcDbEntity
  8
実線
100
AcDbLine
 10
5830.272421584296
 20
-1482.340524332149
 30
0.0
 11
5830.965862485859
 21
-1483.033965233715
 31
0.0
  0
LINE
  5
B9D43
330
18
100
AcDbEntity
  8
実線
100
AcDbLine
 10
5829.225427292139
 20
-1482.680411843119
 30
0.0
 11
5829.918868193702
 21
-1481.986970941552
 31
0.0
  0
LINE
  5
B9D44
330
18
100
AcDbEntity
  8
実線
100
AcDbLine
 10
5829.578980682732
 20
-1483.033965233712
 30
0.0
 11
5830.272421584296
 21
-1482.340524332149
 31
0.0
  0
LINE
  5
B9D45
330
18
100
AcDbEntity
  8
実線
100
AcDbLine
 10
5829.578980682732
 20
-1480.939976649397
 30
0.0
 11
5830.272421584295
 21
-1481.633417550964
 31
0.0
  0
LINE
  5
B9D46
330
18
100
AcDbEntity
  8
実線
100
AcDbLine
 10
5829.225427292139
 20
-1481.293530039993
 30
0.0
 11
5829.918868193702
 21
-1481.986970941552
 31
0.0
  0
CIRCLE
  5
B9D47
330
18
100
AcDbEntity
  8
実線
100
AcDbCircle
 10
5830.272421584296
 20
-1481.986970941552
 30
0.0
 40
2.0
  0
LINE
  5
B9D49
330
18
100
AcDbEntity
  8
実線
100
AcDbLine
 10
5599.810230770934
 20
-1499.237519332524
 30
0.0
 11
5599.810230770934
 21
-1387.237519332524
 31
0.0
  0
LINE
  5
B9D53
330
18
100
AcDbEntity
  8
実線
100
AcDbLine
 10
5281.034459503332
 20
-1606.237519332518
 30
0.0
 11
5281.034459503332
 21
-1606.737519332518
 31
0.0
  0
LINE
  5
B9D62
330
18
100
AcDbEntity
  8
実線
100
AcDbLine
 10
5287.481650526869
 20
-1606.237519332518
 30
0.0
 11
5287.481650526869
 21
-1606.737519332518
 31
0.0
  0
LINE
  5
B9ED2
330
18
100
AcDbEntity
  8
実線
100
AcDbLine
 10
5556.810230770934
 20
-1498.487519332524
 30
0.0
 11
5557.310230770934
 21
-1498.487519332524
 31
0.0
  0
ARC
  5
B9ED4
330
18
100
AcDbEntity
  8
実線
  6
Continuous
100
AcDbCircle
 10
5556.410230770935
 20
-1478.882142522943
 30
0.0
 40
0.4
100
AcDbArc
 50
104.4775119997703
 51
180.0
  0
LINE
  5
B9ED7
330
18
100
AcDbEntity
  8
実線
  6
Continuous
100
AcDbLine
 10
5556.010230770935
 20
-1478.882142522946
 30
0.0
 11
5556.010230770935
 21
-1481.980529522944
 31
0.0
  0
ARC
  5
B9ED8
330
18
100
AcDbEntity
  8
実線
  6
Continuous
100
AcDbCircle
 10
5556.410230770935
 20
-1481.980529522944
 30
0.0
 40
0.4
100
AcDbArc
 50
180.0
 51
255.5224880002297
  0
ARC
  5
B9EDB
330
18
100
AcDbEntity
  8
実線
  6
Continuous
100
AcDbCircle
 10
5556.810230770934
 20
-1480.431336522942
 30
0.0
 40
2.0
100
AcDbArc
 50
255.522487999988
 51
270.0
  0
ARC
  5
B9EDC
330
18
100
AcDbEntity
  8
実線
  6
Continuous
100
AcDbCircle
 10
5556.810230770934
 20
-1480.431336522942
 30
0.0
 40
2.0
100
AcDbArc
 50
90.0
 51
104.477512000012
  0
LINE
  5
B9EDD
330
18
100
AcDbEntity
  8
実線
  6
Continuous
100
AcDbLine
 10
5556.810230770934
 20
-1478.431336522945
 30
0.0
 11
5556.810230770934
 21
-1482.431336522945
 31
0.0
  0
ARC
  5
B9F28
330
18
100
AcDbEntity
  8
実線
  6
Continuous
100
AcDbCircle
 10
5297.354481376182
 20
-1605.837519332519
 30
0.0
 40
0.4
100
AcDbArc
 50
90.0
 51
165.5224880002297
  0
LINE
  5
B9F2B
330
18
100
AcDbEntity
  8
実線
  6
Continuous
100
AcDbLine
 10
5297.354481376186
 20
-1605.437519332519
 30
0.0
 11
5300.452868376184
 21
-1605.437519332519
 31
0.0
  0
ARC
  5
B9F2C
330
18
100
AcDbEntity
  8
実線
  6
Continuous
100
AcDbCircle
 10
5300.452868376184
 20
-1605.837519332519
 30
0.0
 40
0.4
100
AcDbArc
 50
14.47751199983338
 51
90.0
  0
ARC
  5
B9F2F
330
18
100
AcDbEntity
  8
実線
  6
Continuous
100
AcDbCircle
 10
5298.903675376181
 20
-1606.237519332518
 30
0.0
 40
2.0
100
AcDbArc
 50
0.0
 51
14.47751200002931
  0
ARC
  5
B9F30
330
18
100
AcDbEntity
  8
実線
  6
Continuous
100
AcDbCircle
 10
5298.903675376181
 20
-1606.237519332518
 30
0.0
 40
2.0
100
AcDbArc
 50
165.5224879999707
 51
180.0
  0
LINE
  5
B9F31
330
18
100
AcDbEntity
  8
実線
  6
Continuous
100
AcDbLine
 10
5296.903675376185
 20
-1606.237519332518
 30
0.0
 11
5300.903675376185
 21
-1606.237519332518
 31
0.0
  0
LINE
  5
BAB5E
330
18
100
AcDbEntity
  8
CENTER
 48
0.5
100
AcDbLine
 10
5336.097491566596
 20
-1494.841040267948
 30
0.0
 11
5336.097491566596
 21
-1504.237519332518
 31
0.0
  0
CIRCLE
  5
BAD12
330
18
100
AcDbEntity
  8
細線
 48
0.5
100
AcDbCircle
 10
5306.947491566593
 20
-1443.237519332518
 30
0.0
 40
4.341426460199443
  0
LINE
  5
BCE1C
330
18
100
AcDbEntity
  8
実線
100
AcDbLine
 10
5599.810230770934
 20
-1397.191346853147
 30
0.0
 11
5619.810230770934
 21
-1397.191346853147
 31
0.0
  0
LINE
  5
BCE1D
330
18
100
AcDbEntity
  8
実線
100
AcDbLine
 10
5599.810230770934
 20
-1489.28369181189
 30
0.0
 11
5619.810230770934
 21
-1489.28369181189
 31
0.0
  0
LINE
  5
BCE1E
330
18
100
AcDbEntity
  8
実線
100
AcDbLine
 10
5382.143664045967
 20
-1649.237519332518
 30
0.0
 11
5382.143664045967
 21
-1669.237519332518
 31
0.0
  0
LINE
  5
BCE1F
330
18
100
AcDbEntity
  8
実線
100
AcDbLine
 10
5290.051319087224
 20
-1649.237519332518
 30
0.0
 11
5290.051319087224
 21
-1669.237519332518
 31
0.0
  0
LINE
  5
BD3BB
330
18
100
AcDbEntity
  8
実線
 48
0.5
100
AcDbLine
 10
5186.322491566594
 20
-1532.737519332517
 30
0.0
 11
5186.322491566594
 21
-1542.237519332517
 31
0.0
  0
LINE
  5
BD3BC
330
18
100
AcDbEntity
  8
実線
 48
0.5
100
AcDbLine
 10
5197.276062995164
 20
-1538.934662189658
 30
0.0
 11
5197.276062995164
 21
-1542.237519332517
 31
0.0
  0
LINE
  5
BD3BD
330
18
100
AcDbEntity
  8
実線
 48
0.5
100
AcDbLine
 10
5196.11034870945
 20
-1538.837519332515
 30
0.0
 11
5196.11034870945
 21
-1542.237519332517
 31
0.0
  0
LINE
  5
BD3BE
330
18
100
AcDbEntity
  8
実線
 48
0.5
100
AcDbLine
 10
5193.872491566593
 20
-1532.737519332517
 30
0.0
 11
5193.872491566593
 21
-1542.237519332517
 31
0.0
  0
LINE
  5
BD3BF
330
18
100
AcDbEntity
  8
実線
 48
0.5
100
AcDbLine
 10
5189.772491566595
 20
-1532.737519332517
 30
0.0
 11
5189.772491566595
 21
-1542.237519332517
 31
0.0
  0
LINE
  5
BD3C0
330
18
100
AcDbEntity
  8
実線
 48
0.5
100
AcDbLine
 10
5190.422491566593
 20
-1532.737519332517
 30
0.0
 11
5190.422491566593
 21
-1542.237519332517
 31
0.0
  0
LINE
  5
BD3C1
330
18
100
AcDbEntity
  8
実線
 48
0.5
100
AcDbLine
 10
5198.247491566593
 20
-1537.477519332514
 30
0.0
 11
5198.247491566597
 21
-1548.746090761087
 31
0.0
  0
LINE
  5
BD3C2
330
18
100
AcDbEntity
  8
実線
 48
0.5
100
AcDbLine
 10
5198.665205852309
 20
-1539.352376475373
 30
0.0
 11
5198.665205852309
 21
-1549.717519332516
 31
0.0
  0
LINE
  5
BD3C3
330
18
100
AcDbEntity
  8
実線
 48
0.5
100
AcDbLine
 10
5184.847491566592
 20
-1542.237519332517
 30
0.0
 11
5194.847491566592
 21
-1542.237519332517
 31
0.0
  0
LINE
  5
BD3C4
330
18
100
AcDbEntity
  8
実線
 48
0.5
100
AcDbLine
 10
5183.947497619638
 20
-1556.437564433992
 30
0.0
 11
5195.747497619637
 21
-1556.437564433992
 31
0.0
  0
LINE
  5
BD3C5
330
18
100
AcDbEntity
  8
実線
 48
0.5
100
AcDbLine
 10
5194.847491566592
 20
-1542.237519332517
 30
0.0
 11
5198.665205852309
 21
-1542.237519332517
 31
0.0
  0
ARC
  5
BD3C6
330
18
100
AcDbEntity
  8
実線
 48
0.5
100
AcDbCircle
 10
5195.833914352641
 20
-1544.335805046801
 30
0.0
 40
0.4857142857142857
100
AcDbArc
 50
9.999999999879241
 51
90.0
  0
LINE
  5
BD3C7
330
18
100
AcDbEntity
  8
実線
 48
0.5
100
AcDbLine
 10
5195.333205852306
 20
-1543.850090761086
 30
0.0
 11
5195.833914352641
 21
-1543.850090761086
 31
0.0
  0
ARC
  5
BD3C8
330
18
100
AcDbEntity
  8
実線
 48
0.5
100
AcDbCircle
 10
5195.333205852306
 20
-1544.335805046801
 30
0.0
 40
0.4857142857142857
100
AcDbArc
 50
90.0
 51
180.0
  0
LINE
  5
BD3C9
330
18
100
AcDbEntity
  8
実線
 48
0.5
100
AcDbLine
 10
5197.276062995168
 20
-1549.717519332516
 30
0.0
 11
5198.665205852309
 21
-1549.717519332516
 31
0.0
  0
LINE
  5
BD3CA
330
18
100
AcDbEntity
  8
実線
 48
0.5
100
AcDbLine
 10
5198.247491566597
 20
-1548.746090761087
 30
0.0
 11
5198.665205852309
 21
-1548.746090761087
 31
0.0
  0
LINE
  5
BD3CB
330
18
100
AcDbEntity
  8
実線
 48
0.5
100
AcDbLine
 10
5194.847491566596
 20
-1555.337564433994
 30
0.0
 11
5195.747497619637
 21
-1555.337564433994
 31
0.0
  0
LINE
  5
BD3CC
330
18
100
AcDbEntity
  8
実線
 48
0.5
100
AcDbLine
 10
5195.747497619637
 20
-1556.437564433992
 30
0.0
 11
5195.747497619637
 21
-1555.337564433994
 31
0.0
  0
LINE
  5
BD3CD
330
18
100
AcDbEntity
  8
実線
 48
0.5
100
AcDbLine
 10
5196.312249546963
 20
-1544.251461646221
 30
0.0
 11
5197.276062995168
 21
-1549.717519332516
 31
0.0
  0
LINE
  5
BD3CE
330
18
100
AcDbEntity
  8
実線
 48
0.5
100
AcDbLine
 10
5194.847491566596
 20
-1555.337564433994
 30
0.0
 11
5194.847491566592
 21
-1542.237519332517
 31
0.0
  0
LINE
  5
BD3CF
330
18
100
AcDbEntity
  8
実線
100
AcDbLine
 10
5192.947491566594
 20
-1566.437564433992
 30
0.0
 11
5187.247491566595
 21
-1566.437564433992
 31
0.0
  0
LINE
  5
BD3D0
330
18
100
AcDbEntity
  8
実線
100
AcDbLine
 10
5192.097491566596
 20
-1566.437564433992
 30
0.0
 11
5188.097491566596
 21
-1566.437564433992
 31
0.0
  0
LINE
  5
BD3D1
330
18
100
AcDbEntity
  8
実線
 48
0.5
100
AcDbLine
 10
5183.947497619638
 20
-1555.33756443399
 30
0.0
 11
5184.847491566596
 21
-1555.33756443399
 31
0.0
  0
LINE
  5
BD3D2
330
18
100
AcDbEntity
  8
実線
 48
0.5
100
AcDbLine
 10
5183.947497619638
 20
-1556.437564433992
 30
0.0
 11
5183.947497619638
 21
-1555.33756443399
 31
0.0
  0
LINE
  5
BD3D3
330
18
100
AcDbEntity
  8
実線
 48
0.5
100
AcDbLine
 10
5184.847491566596
 20
-1555.337564433994
 30
0.0
 11
5184.847491566592
 21
-1542.237519332517
 31
0.0
  0
LINE
  5
BD3D4
330
18
100
AcDbEntity
  8
実線
 48
0.5
100
AcDbLine
 10
5190.422491566593
 20
-1532.737519332517
 30
0.0
 11
5193.872491566593
 21
-1532.737519332517
 31
0.0
  0
LINE
  5
BD3D5
330
18
100
AcDbEntity
  8
実線
 48
0.5
100
AcDbLine
 10
5198.247491566593
 20
-1537.477519332514
 30
0.0
 11
5197.276062995164
 21
-1536.506090761085
 31
0.0
  0
LINE
  5
BD3D6
330
18
100
AcDbEntity
  8
実線
 48
0.5
100
AcDbLine
 10
5197.276062995164
 20
-1538.934662189658
 30
0.0
 11
5198.247491566593
 21
-1538.934662189658
 31
0.0
  0
LINE
  5
BD3D7
330
18
100
AcDbEntity
  8
実線
 48
0.5
100
AcDbLine
 10
5198.247491566593
 20
-1538.934662189658
 30
0.0
 11
5198.665205852309
 21
-1539.352376475373
 31
0.0
  0
LINE
  5
BD3D8
330
18
100
AcDbEntity
  8
実線
 48
0.5
100
AcDbLine
 10
5195.041777280878
 20
-1537.477519332514
 30
0.0
 11
5195.041777280878
 21
-1538.934662189658
 31
0.0
  0
LINE
  5
BD3D9
330
18
100
AcDbEntity
  8
実線
 48
0.5
100
AcDbLine
 10
5196.013205852307
 20
-1536.506090761085
 30
0.0
 11
5195.041777280878
 21
-1537.477519332514
 31
0.0
  0
LINE
  5
BD3DA
330
18
100
AcDbEntity
  8
実線
 48
0.5
100
AcDbLine
 10
5195.041777280878
 20
-1538.934662189658
 30
0.0
 11
5196.11034870945
 21
-1538.837519332515
 31
0.0
  0
LINE
  5
BD3DB
330
18
100
AcDbEntity
  8
実線
 48
0.5
100
AcDbLine
 10
5196.013205852307
 20
-1536.506090761085
 30
0.0
 11
5197.276062995164
 21
-1536.506090761085
 31
0.0
  0
LINE
  5
BD3DC
330
18
100
AcDbEntity
  8
実線
 48
0.5
100
AcDbLine
 10
5186.322491566594
 20
-1532.737519332517
 30
0.0
 11
5189.772491566595
 21
-1532.737519332517
 31
0.0
  0
ARC
  5
BD3DD
330
18
100
AcDbEntity
  8
細線
100
AcDbCircle
 10
5191.522491566594
 20
-1573.921916883256
 30
0.0
 40
2.211071661122417
100
AcDbArc
 50
229.873011873189
 51
310.1269881268661
  0
ARC
  5
BD3DE
330
18
100
AcDbEntity
  8
細線
100
AcDbCircle
 10
5188.672491566595
 20
-1573.921916883254
 30
0.0
 40
2.211071661123589
100
AcDbArc
 50
229.873011873153
 51
310.1269881268472
  0
ARC
  5
BD3DF
330
18
100
AcDbEntity
  8
細線
100
AcDbCircle
 10
5188.672491566595
 20
-1577.303166883253
 30
0.0
 40
2.211071661123589
100
AcDbArc
 50
49.87301187315294
 51
130.126988126847
  0
ARC
  5
BD3E0
330
18
100
AcDbEntity
  8
細線
100
AcDbCircle
 10
5188.672491566591
 20
-1579.303166883252
 30
0.0
 40
2.211071661125347
100
AcDbArc
 50
49.87301187309886
 51
130.1269881266582
  0
ARC
  5
BD3E1
330
18
100
AcDbEntity
  8
細線
100
AcDbCircle
 10
5191.522491566589
 20
-1579.303166883255
 30
0.0
 40
2.211071661123564
100
AcDbArc
 50
49.87301187299828
 51
130.1269881267398
  0
ARC
  5
BD3E2
330
18
100
AcDbEntity
  8
細線
100
AcDbCircle
 10
5191.522491566598
 20
-1575.921916883251
 30
0.0
 40
2.211071661128368
100
AcDbArc
 50
229.873011873134
 51
310.1269881266231
  0
LINE
  5
BD401
330
18
100
AcDbEntity
  8
CENTER
100
AcDbLine
 10
5271.097491566596
 20
-1620.237519332518
 30
0.0
 11
5276.097491566596
 21
-1620.237519332518
 31
0.0
  0
LINE
  5
BD402
330
18
100
AcDbEntity
  8
実線
 48
0.1
100
AcDbLine
 10
5268.597491566596
 20
-1615.474379611705
 30
0.0
 11
5273.597491566592
 21
-1615.474379611703
 31
0.0
  0
LINE
  5
BD403
330
18
100
AcDbEntity
  8
実線
 48
0.1
100
AcDbLine
 10
5268.597491566596
 20
-1616.77341771738
 30
0.0
 11
5273.597491566592
 21
-1616.77341771738
 31
0.0
  0
LINE
  5
BD404
330
18
100
AcDbEntity
  8
実線
 48
0.1
100
AcDbLine
 10
5268.597491566592
 20
-1623.701620947656
 30
0.0
 11
5273.597491566596
 21
-1623.701620947656
 31
0.0
  0
LINE
  5
BD405
330
18
100
AcDbEntity
  8
実線
 48
0.1
100
AcDbLine
 10
5268.597491566592
 20
-1625.000659053332
 30
0.0
 11
5273.597491566596
 21
-1625.000659053332
 31
0.0
  0
LINE
  5
BD406
330
18
100
AcDbEntity
  8
実線
100
AcDbLine
 10
5268.597491566596
 20
-1612.010277996567
 30
0.0
 11
5273.597491566592
 21
-1612.010277996567
 31
0.0
  0
LINE
  5
BD407
330
18
100
AcDbEntity
  8
実線
100
AcDbLine
 10
5268.597491566592
 20
-1628.46476066847
 30
0.0
 11
5273.597491566596
 21
-1628.46476066847
 31
0.0
  0
LINE
  5
BD408
330
18
100
AcDbEntity
  8
実線
100
AcDbLine
 10
5256.664478864701
 20
-1628.464760668472
 30
0.0
 11
5264.597491566592
 21
-1628.464760668472
 31
0.0
  0
LINE
  5
BD409
330
18
100
AcDbEntity
  8
実線
100
AcDbLine
 10
5256.664478864701
 20
-1612.010277996567
 30
0.0
 11
5264.597491566596
 21
-1612.010277996567
 31
0.0
  0
LINE
  5
BD40A
330
18
100
AcDbEntity
  8
実線
 48
0.1
100
AcDbLine
 10
5256.097491566596
 20
-1615.474379611705
 30
0.0
 11
5264.597491566596
 21
-1615.474379611705
 31
0.0
  0
LINE
  5
BD40B
330
18
100
AcDbEntity
  8
実線
 48
0.1
100
AcDbLine
 10
5256.097491566596
 20
-1616.77341771738
 30
0.0
 11
5264.597491566596
 21
-1616.77341771738
 31
0.0
  0
LINE
  5
BD40C
330
18
100
AcDbEntity
  8
実線
 48
0.1
100
AcDbLine
 10
5256.097491566596
 20
-1625.000659053333
 30
0.0
 11
5264.597491566592
 21
-1625.000659053332
 31
0.0
  0
LINE
  5
BD40D
330
18
100
AcDbEntity
  8
実線
 48
0.1
100
AcDbLine
 10
5256.097491566596
 20
-1623.701620947658
 30
0.0
 11
5264.597491566592
 21
-1623.701620947656
 31
0.0
  0
LINE
  5
BD40E
330
18
100
AcDbEntity
  8
実線
100
AcDbLine
 10
5256.432428057133
 20
-1612.242328804137
 30
0.0
 11
5264.597491566596
 21
-1612.242328804137
 31
0.0
  0
LINE
  5
BD40F
330
18
100
AcDbEntity
  8
実線
100
AcDbLine
 10
5256.097491566596
 20
-1612.642328804136
 30
0.0
 11
5264.597491566596
 21
-1612.642328804136
 31
0.0
  0
LINE
  5
BD410
330
18
100
AcDbEntity
  8
実線
100
AcDbLine
 10
5256.097491566596
 20
-1614.842328804135
 30
0.0
 11
5264.597491566596
 21
-1614.842328804135
 31
0.0
  0
LINE
  5
BD411
330
18
100
AcDbEntity
  8
実線
100
AcDbLine
 10
5256.097491566596
 20
-1615.242328804137
 30
0.0
 11
5264.597491566596
 21
-1615.242328804137
 31
0.0
  0
LINE
  5
BD412
330
18
100
AcDbEntity
  8
実線
100
AcDbLine
 10
5256.432428057133
 20
-1628.2327098609
 30
0.0
 11
5264.597491566596
 21
-1628.232709860902
 31
0.0
  0
LINE
  5
BD413
330
18
100
AcDbEntity
  8
実線
100
AcDbLine
 10
5256.097491566596
 20
-1627.832709860902
 30
0.0
 11
5264.597491566596
 21
-1627.832709860902
 31
0.0
  0
LINE
  5
BD414
330
18
100
AcDbEntity
  8
実線
100
AcDbLine
 10
5256.097491566596
 20
-1625.632709860901
 30
0.0
 11
5264.597491566596
 21
-1625.632709860901
 31
0.0
  0
LINE
  5
BD415
330
18
100
AcDbEntity
  8
実線
100
AcDbLine
 10
5256.097491566596
 20
-1625.232709860903
 30
0.0
 11
5264.597491566596
 21
-1625.232709860902
 31
0.0
  0
LINE
  5
BD416
330
18
100
AcDbEntity
  8
実線
100
AcDbLine
 10
5256.097491566596
 20
-1617.23751933252
 30
0.0
 11
5264.597491566596
 21
-1617.23751933252
 31
0.0
  0
LINE
  5
BD417
330
18
100
AcDbEntity
  8
実線
100
AcDbLine
 10
5256.097491566596
 20
-1623.237519332518
 30
0.0
 11
5264.597491566596
 21
-1623.237519332518
 31
0.0
  0
LINE
  5
BD418
330
18
100
AcDbEntity
  8
実線
100
AcDbLine
 10
5256.097491566596
 20
-1618.037519332519
 30
0.0
 11
5264.597491566592
 21
-1618.037519332519
 31
0.0
  0
LINE
  5
BD419
330
18
100
AcDbEntity
  8
実線
100
AcDbLine
 10
5256.097491566596
 20
-1622.437519332519
 30
0.0
 11
5264.597491566596
 21
-1622.437519332519
 31
0.0
  0
LINE
  5
BD41A
330
18
100
AcDbEntity
  8
実線
100
AcDbLine
 10
5256.097491566596
 20
-1612.577265294674
 30
0.0
 11
5256.664478864701
 21
-1612.010277996567
 31
0.0
  0
LINE
  5
BD41B
330
18
100
AcDbEntity
  8
実線
100
AcDbLine
 10
5256.097491566596
 20
-1627.897773370363
 30
0.0
 11
5256.664478864701
 21
-1628.464760668472
 31
0.0
  0
ARC
  5
BD41C
330
18
100
AcDbEntity
  8
実線
100
AcDbCircle
 10
5255.597491566592
 20
-1616.737519332518
 30
0.0
 40
4.0
100
AcDbArc
 50
90.0
 51
180.0
  0
ARC
  5
BD41D
330
18
100
AcDbEntity
  8
実線
100
AcDbCircle
 10
5255.597491566592
 20
-1623.737519332518
 30
0.0
 40
4.0
100
AcDbArc
 50
180.0
 51
270.0
  0
LINE
  5
BD41E
330
18
100
AcDbEntity
  8
実線
100
AcDbLine
 10
5256.097491566592
 20
-1612.737519332518
 30
0.0
 11
5255.597491566592
 21
-1612.737519332518
 31
0.0
  0
LINE
  5
BD41F
330
18
100
AcDbEntity
  8
実線
100
AcDbLine
 10
5256.097491566596
 20
-1627.737519332518
 30
0.0
 11
5255.597491566592
 21
-1627.737519332518
 31
0.0
  0
LINE
  5
BD420
330
18
100
AcDbEntity
  8
実線
100
AcDbLine
 10
5256.097491566596
 20
-1627.897773370363
 30
0.0
 11
5256.097491566596
 21
-1612.577265294674
 31
0.0
  0
LINE
  5
BD421
330
18
100
AcDbEntity
  8
実線
100
AcDbLine
 10
5268.597491566592
 20
-1613.737519332518
 30
0.0
 11
5264.597491566596
 21
-1613.737519332518
 31
0.0
  0
LINE
  5
BD422
330
18
100
AcDbEntity
  8
実線
100
AcDbLine
 10
5268.597491566596
 20
-1626.737519332518
 30
0.0
 11
5264.597491566596
 21
-1626.737519332518
 31
0.0
  0
LINE
  5
BD423
330
18
100
AcDbEntity
  8
実線
100
AcDbLine
 10
5264.597491566592
 20
-1628.464760668472
 30
0.0
 11
5264.597491566596
 21
-1612.010277996567
 31
0.0
  0
LINE
  5
BD424
330
18
100
AcDbEntity
  8
実線
100
AcDbLine
 10
5251.597491566592
 20
-1623.737519332518
 30
0.0
 11
5251.597491566592
 21
-1616.737519332518
 31
0.0
  0
LINE
  5
BD425
330
18
100
AcDbEntity
  8
実線
100
AcDbLine
 10
5268.597491566592
 20
-1628.46476066847
 30
0.0
 11
5268.597491566596
 21
-1612.010277996567
 31
0.0
  0
LINE
  5
BD426
330
18
100
AcDbEntity
  8
実線
100
AcDbLine
 10
5273.597491566596
 20
-1628.464760668472
 30
0.0
 11
5273.597491566596
 21
-1612.010277996567
 31
0.0
  0
LINE
  5
BD427
330
18
100
AcDbEntity
  8
CENTER
100
AcDbLine
 10
5276.097491566596
 20
-1620.237519332518
 30
0.0
 11
5249.097491566592
 21
-1620.237519332518
 31
0.0
  0
LINE
  5
BD428
330
18
100
AcDbEntity
  8
実線
100
AcDbLine
 10
5251.597491566592
 20
-1623.737519332518
 30
0.0
 11
5251.597491566592
 21
-1616.737519332518
 31
0.0
  0
LINE
  5
BD55A
330
18
100
AcDbEntity
  8
実線
100
AcDbLine
 10
5201.447491566594
 20
-1737.537519332521
 30
0.0
 11
5178.747491566593
 21
-1737.537519332521
 31
0.0
  0
LINE
  5
BD55B
330
18
100
AcDbEntity
  8
実線
100
AcDbLine
 10
5193.397491566595
 20
-1708.73751933252
 30
0.0
 11
5186.797491566596
 21
-1708.73751933252
 31
0.0
  0
LWPOLYLINE
  5
BD55C
330
18
100
AcDbEntity
  8
実線
100
AcDbPolyline
 90
        4
 70
   129
 43
0.0
 10
5178.747491566593
 20
-1725.537519332521
 10
5178.747491566593
 20
-1748.73751933252
 10
5201.447491566594
 20
-1748.73751933252
 10
5201.447491566594
 20
-1725.537519332521
  0
LINE
  5
BD55D
330
18
100
AcDbEntity
  8
実線
100
AcDbLine
 10
5175.047491566596
 20
-1740.484887753573
 30
0.0
 11
5178.747491566593
 21
-1737.537519332521
 31
0.0
  0
LINE
  5
BD55E
330
18
100
AcDbEntity
  8
実線
100
AcDbLine
 10
5188.547491566593
 20
-1708.73751933252
 30
0.0
 11
5186.911686564583
 21
-1725.537519332521
 31
0.0
  0
LINE
  5
BD55F
330
18
100
AcDbEntity
  8
実線
100
AcDbLine
 10
5184.783686564586
 20
-1725.537519332521
 30
0.0
 11
5187.547491566593
 21
-1708.73751933252
 31
0.0
  0
LINE
  5
BD560
330
18
100
AcDbEntity
  8
実線
100
AcDbLine
 10
5189.039686564583
 20
-1725.537519332521
 30
0.0
 11
5189.547491566593
 21
-1708.73751933252
 31
0.0
  0
LINE
  5
BD561
330
18
100
AcDbEntity
  8
実線
100
AcDbLine
 10
5205.147491566595
 20
-1740.484887753573
 30
0.0
 11
5201.447491566594
 21
-1737.537519332521
 31
0.0
  0
LINE
  5
BD562
330
18
100
AcDbEntity
  8
実線
100
AcDbLine
 10
5192.547491566593
 20
-1708.73751933252
 30
0.0
 11
5195.423686564585
 21
-1725.537519332521
 31
0.0
  0
LINE
  5
BD563
330
18
100
AcDbEntity
  8
実線
100
AcDbLine
 10
5193.295686564585
 20
-1725.537519332521
 30
0.0
 11
5191.547491566593
 21
-1708.73751933252
 31
0.0
  0
LINE
  5
BD564
330
18
100
AcDbEntity
  8
実線
100
AcDbLine
 10
5190.547491566593
 20
-1708.73751933252
 30
0.0
 11
5191.167686564584
 21
-1725.537519332521
 31
0.0
  0
ARC
  5
BD565
330
18
100
AcDbEntity
  8
実線
100
AcDbCircle
 10
5221.397491566595
 20
-1688.537519330642
 30
0.0
 40
28.0
100
AcDbArc
 50
90.0
 51
180.0
  0
ARC
  5
BD566
330
18
100
AcDbEntity
  8
実線
100
AcDbCircle
 10
5221.397491566595
 20
-1688.537519330642
 30
0.0
 40
34.6
100
AcDbArc
 50
90.0
 51
180.0
  0
LINE
  5
BD567
330
18
100
AcDbEntity
  8
実線
100
AcDbLine
 10
5186.797491566596
 20
-1688.537519330642
 30
0.0
 11
5186.797491566596
 21
-1697.63751933158
 31
0.0
  0
LINE
  5
BD568
330
18
100
AcDbEntity
  8
実線
100
AcDbLine
 10
5193.397491566595
 20
-1688.537519330642
 30
0.0
 11
5193.397491566595
 21
-1697.63751933158
 31
0.0
  0
ARC
  5
BD569
330
18
100
AcDbEntity
  8
細線
100
AcDbCircle
 10
5191.747491566597
 20
-1702.110019331579
 30
0.0
 40
2.972499999998164
100
AcDbArc
 50
56.28320246454958
 51
123.7167975355331
  0
ARC
  5
BD56A
330
18
100
AcDbEntity
  8
細線
100
AcDbCircle
 10
5188.447491566598
 20
-1702.110019331579
 30
0.0
 40
2.972499999998164
100
AcDbArc
 50
56.28320246454958
 51
123.7167975355331
  0
ARC
  5
BD56B
330
18
100
AcDbEntity
  8
細線
100
AcDbCircle
 10
5188.447491566598
 20
-1697.165019331583
 30
0.0
 40
2.972499999998164
100
AcDbArc
 50
236.2832024644669
 51
303.7167975354504
  0
ARC
  5
BD56C
330
18
100
AcDbEntity
  8
細線
100
AcDbCircle
 10
5188.447491566598
 20
-1695.165019331583
 30
0.0
 40
2.972499999998164
100
AcDbArc
 50
236.2832024644669
 51
303.7167975354504
  0
ARC
  5
BD56D
330
18
100
AcDbEntity
  8
細線
100
AcDbCircle
 10
5191.747491566597
 20
-1695.165019331583
 30
0.0
 40
2.972499999998164
100
AcDbArc
 50
236.2832024644669
 51
303.7167975354504
  0
ARC
  5
BD56E
330
18
100
AcDbEntity
  8
細線
100
AcDbCircle
 10
5191.747491566597
 20
-1700.110019331579
 30
0.0
 40
2.972499999998164
100
AcDbArc
 50
56.28320246454958
 51
123.7167975355331
  0
LINE
  5
BD56F
330
18
100
AcDbEntity
  8
実線
100
AcDbLine
 10
5193.397491566595
 20
-1699.637519331581
 30
0.0
 11
5193.397491566595
 21
-1708.73751933252
 31
0.0
  0
LINE
  5
BD570
330
18
100
AcDbEntity
  8
実線
100
AcDbLine
 10
5186.797491566596
 20
-1699.637519331581
 30
0.0
 11
5186.797491566596
 21
-1708.73751933252
 31
0.0
  0
LINE
  5
BD571
330
18
100
AcDbEntity
  8
実線
100
AcDbLine
 10
5175.047491566596
 20
-1740.484887753573
 30
0.0
 11
5178.747491566593
 21
-1748.73751933252
 31
0.0
  0
LINE
  5
BD572
330
18
100
AcDbEntity
  8
実線
100
AcDbLine
 10
5205.147491566595
 20
-1740.484887753573
 30
0.0
 11
5201.447491566594
 21
-1748.73751933252
 31
0.0
  0
LINE
  5
BD584
330
18
100
AcDbEntity
  8
CENTER
100
AcDbLine
 10
5271.097491566596
 20
-1657.237519332518
 30
0.0
 11
5276.097491566596
 21
-1657.237519332518
 31
0.0
  0
LINE
  5
BD585
330
18
100
AcDbEntity
  8
実線
 48
0.1
100
AcDbLine
 10
5268.597491566596
 20
-1652.474379611705
 30
0.0
 11
5273.597491566592
 21
-1652.474379611703
 31
0.0
  0
LINE
  5
BD586
330
18
100
AcDbEntity
  8
実線
 48
0.1
100
AcDbLine
 10
5268.597491566596
 20
-1653.77341771738
 30
0.0
 11
5273.597491566592
 21
-1653.77341771738
 31
0.0
  0
LINE
  5
BD587
330
18
100
AcDbEntity
  8
実線
 48
0.1
100
AcDbLine
 10
5268.597491566592
 20
-1660.701620947656
 30
0.0
 11
5273.597491566596
 21
-1660.701620947656
 31
0.0
  0
LINE
  5
BD588
330
18
100
AcDbEntity
  8
実線
 48
0.1
100
AcDbLine
 10
5268.597491566592
 20
-1662.000659053332
 30
0.0
 11
5273.597491566596
 21
-1662.000659053332
 31
0.0
  0
LINE
  5
BD589
330
18
100
AcDbEntity
  8
実線
100
AcDbLine
 10
5268.597491566596
 20
-1649.010277996567
 30
0.0
 11
5273.597491566592
 21
-1649.010277996567
 31
0.0
  0
LINE
  5
BD58A
330
18
100
AcDbEntity
  8
実線
100
AcDbLine
 10
5268.597491566592
 20
-1665.46476066847
 30
0.0
 11
5273.597491566596
 21
-1665.46476066847
 31
0.0
  0
LINE
  5
BD58B
330
18
100
AcDbEntity
  8
実線
100
AcDbLine
 10
5256.664478864701
 20
-1665.464760668472
 30
0.0
 11
5264.597491566592
 21
-1665.464760668472
 31
0.0
  0
LINE
  5
BD58C
330
18
100
AcDbEntity
  8
実線
100
AcDbLine
 10
5256.664478864701
 20
-1649.010277996567
 30
0.0
 11
5264.597491566596
 21
-1649.010277996567
 31
0.0
  0
LINE
  5
BD58D
330
18
100
AcDbEntity
  8
実線
 48
0.1
100
AcDbLine
 10
5256.097491566596
 20
-1652.474379611705
 30
0.0
 11
5264.597491566596
 21
-1652.474379611705
 31
0.0
  0
LINE
  5
BD58E
330
18
100
AcDbEntity
  8
実線
 48
0.1
100
AcDbLine
 10
5256.097491566596
 20
-1653.77341771738
 30
0.0
 11
5264.597491566596
 21
-1653.77341771738
 31
0.0
  0
LINE
  5
BD58F
330
18
100
AcDbEntity
  8
実線
 48
0.1
100
AcDbLine
 10
5256.097491566596
 20
-1662.000659053333
 30
0.0
 11
5264.597491566592
 21
-1662.000659053332
 31
0.0
  0
LINE
  5
BD590
330
18
100
AcDbEntity
  8
実線
 48
0.1
100
AcDbLine
 10
5256.097491566596
 20
-1660.701620947658
 30
0.0
 11
5264.597491566592
 21
-1660.701620947656
 31
0.0
  0
LINE
  5
BD591
330
18
100
AcDbEntity
  8
実線
100
AcDbLine
 10
5256.432428057133
 20
-1649.242328804137
 30
0.0
 11
5264.597491566596
 21
-1649.242328804137
 31
0.0
  0
LINE
  5
BD592
330
18
100
AcDbEntity
  8
実線
100
AcDbLine
 10
5256.097491566596
 20
-1649.642328804136
 30
0.0
 11
5264.597491566596
 21
-1649.642328804136
 31
0.0
  0
LINE
  5
BD593
330
18
100
AcDbEntity
  8
実線
100
AcDbLine
 10
5256.097491566596
 20
-1651.842328804135
 30
0.0
 11
5264.597491566596
 21
-1651.842328804135
 31
0.0
  0
LINE
  5
BD594
330
18
100
AcDbEntity
  8
実線
100
AcDbLine
 10
5256.097491566596
 20
-1652.242328804137
 30
0.0
 11
5264.597491566596
 21
-1652.242328804137
 31
0.0
  0
LINE
  5
BD595
330
18
100
AcDbEntity
  8
実線
100
AcDbLine
 10
5256.432428057133
 20
-1665.2327098609
 30
0.0
 11
5264.597491566596
 21
-1665.232709860902
 31
0.0
  0
LINE
  5
BD596
330
18
100
AcDbEntity
  8
実線
100
AcDbLine
 10
5256.097491566596
 20
-1664.832709860902
 30
0.0
 11
5264.597491566596
 21
-1664.832709860902
 31
0.0
  0
LINE
  5
BD597
330
18
100
AcDbEntity
  8
実線
100
AcDbLine
 10
5256.097491566596
 20
-1662.632709860901
 30
0.0
 11
5264.597491566596
 21
-1662.632709860901
 31
0.0
  0
LINE
  5
BD598
330
18
100
AcDbEntity
  8
実線
100
AcDbLine
 10
5256.097491566596
 20
-1662.232709860903
 30
0.0
 11
5264.597491566596
 21
-1662.232709860902
 31
0.0
  0
LINE
  5
BD599
330
18
100
AcDbEntity
  8
実線
100
AcDbLine
 10
5256.097491566596
 20
-1654.23751933252
 30
0.0
 11
5264.597491566596
 21
-1654.23751933252
 31
0.0
  0
LINE
  5
BD59A
330
18
100
AcDbEntity
  8
実線
100
AcDbLine
 10
5256.097491566596
 20
-1660.237519332518
 30
0.0
 11
5264.597491566596
 21
-1660.237519332518
 31
0.0
  0
LINE
  5
BD59B
330
18
100
AcDbEntity
  8
実線
100
AcDbLine
 10
5256.097491566596
 20
-1655.037519332519
 30
0.0
 11
5264.597491566592
 21
-1655.037519332519
 31
0.0
  0
LINE
  5
BD59C
330
18
100
AcDbEntity
  8
実線
100
AcDbLine
 10
5256.097491566596
 20
-1659.437519332519
 30
0.0
 11
5264.597491566596
 21
-1659.437519332519
 31
0.0
  0
LINE
  5
BD59D
330
18
100
AcDbEntity
  8
実線
100
AcDbLine
 10
5256.097491566596
 20
-1649.577265294674
 30
0.0
 11
5256.664478864701
 21
-1649.010277996567
 31
0.0
  0
LINE
  5
BD59E
330
18
100
AcDbEntity
  8
実線
100
AcDbLine
 10
5256.097491566596
 20
-1664.897773370363
 30
0.0
 11
5256.664478864701
 21
-1665.464760668472
 31
0.0
  0
ARC
  5
BD59F
330
18
100
AcDbEntity
  8
実線
100
AcDbCircle
 10
5255.597491566592
 20
-1653.737519332518
 30
0.0
 40
4.0
100
AcDbArc
 50
90.0
 51
180.0
  0
ARC
  5
BD5A0
330
18
100
AcDbEntity
  8
実線
100
AcDbCircle
 10
5255.597491566592
 20
-1660.737519332518
 30
0.0
 40
4.0
100
AcDbArc
 50
180.0
 51
270.0
  0
LINE
  5
BD5A1
330
18
100
AcDbEntity
  8
実線
100
AcDbLine
 10
5256.097491566592
 20
-1649.737519332518
 30
0.0
 11
5255.597491566592
 21
-1649.737519332518
 31
0.0
  0
LINE
  5
BD5A2
330
18
100
AcDbEntity
  8
実線
100
AcDbLine
 10
5256.097491566596
 20
-1664.737519332518
 30
0.0
 11
5255.597491566592
 21
-1664.737519332518
 31
0.0
  0
LINE
  5
BD5A3
330
18
100
AcDbEntity
  8
実線
100
AcDbLine
 10
5256.097491566596
 20
-1664.897773370363
 30
0.0
 11
5256.097491566596
 21
-1649.577265294674
 31
0.0
  0
LINE
  5
BD5A4
330
18
100
AcDbEntity
  8
実線
100
AcDbLine
 10
5268.597491566592
 20
-1650.737519332518
 30
0.0
 11
5264.597491566596
 21
-1650.737519332518
 31
0.0
  0
LINE
  5
BD5A5
330
18
100
AcDbEntity
  8
実線
100
AcDbLine
 10
5268.597491566596
 20
-1663.737519332518
 30
0.0
 11
5264.597491566596
 21
-1663.737519332518
 31
0.0
  0
LINE
  5
BD5A6
330
18
100
AcDbEntity
  8
実線
100
AcDbLine
 10
5264.597491566592
 20
-1665.464760668472
 30
0.0
 11
5264.597491566596
 21
-1649.010277996567
 31
0.0
  0
LINE
  5
BD5A7
330
18
100
AcDbEntity
  8
実線
100
AcDbLine
 10
5251.597491566592
 20
-1660.737519332518
 30
0.0
 11
5251.597491566592
 21
-1653.737519332518
 31
0.0
  0
LINE
  5
BD5A8
330
18
100
AcDbEntity
  8
実線
100
AcDbLine
 10
5268.597491566592
 20
-1665.46476066847
 30
0.0
 11
5268.597491566596
 21
-1649.010277996567
 31
0.0
  0
LINE
  5
BD5A9
330
18
100
AcDbEntity
  8
実線
100
AcDbLine
 10
5273.597491566596
 20
-1665.464760668472
 30
0.0
 11
5273.597491566596
 21
-1649.010277996567
 31
0.0
  0
LINE
  5
BD5AA
330
18
100
AcDbEntity
  8
CENTER
100
AcDbLine
 10
5276.097491566596
 20
-1657.237519332518
 30
0.0
 11
5249.097491566592
 21
-1657.237519332518
 31
0.0
  0
LINE
  5
BD5AB
330
18
100
AcDbEntity
  8
実線
100
AcDbLine
 10
5251.597491566592
 20
-1660.537519330644
 30
0.0
 11
5221.397491566595
 21
-1660.537519330642
 31
0.0
  0
LINE
  5
BD5AC
330
18
100
AcDbEntity
  8
実線
100
AcDbLine
 10
5251.597491566592
 20
-1653.937519330644
 30
0.0
 11
5221.397491566595
 21
-1653.937519330642
 31
0.0
  0
LINE
  5
BD63D
330
18
100
AcDbEntity
  8
CENTER
100
AcDbLine
 10
5791.522969975273
 20
-1466.998898915742
 30
0.0
 11
5791.522969975273
 21
-1375.737519332531
 31
0.0
  0
CIRCLE
  5
BD6CB
330
18
100
AcDbEntity
  8
CENTER
100
AcDbCircle
 10
5791.522969975273
 20
-1443.237519332531
 30
0.0
 40
62.5
  0
HATCH
  5
BD7A8
330
18
100
AcDbEntity
  8
ハッチング
100
AcDbHatch
 10
0.0
 20
0.0
 30
0.0
210
0.0
220
0.0
230
1.0
  2
ANSI31
 70
     0
 71
     0
 91
       14
 92
        7
 72
     1
 73
     1
 93
       11
 10
5744.924189222245
 20
-1401.586545366353
 42
-0.2062005498466432
 10
5743.828796151114
 20
-1399.043345508372
 42
-0.67835296056283
 10
5749.871996009095
 20
-1396.638738579503
 42
-0.0216334092542572
 10
5754.054497761864
 20
-1393.213889016519
 42
0.0
 10
5753.462562178404
 20
-1392.368517392881
 42
-1.000000000000046
 10
5756.73917035556
 20
-1390.074211647478
 42
0.0
 10
5757.33110593902
 20
-1390.919583271115
 42
-0.0296941071205729
 10
5763.769591802517
 20
-1387.237519332531
 42
0.0
 10
5745.476797495901
 20
-1387.237519332531
 42
0.0486557348593004
 10
5735.522969975273
 20
-1397.191346853159
 42
0.0
 10
5735.522969975273
 20
-1415.484141159775
 42
-0.0674200255030077
 97
        0
 92
        7
 72
     1
 73
     1
 93
        6
 10
5736.293901542065
 20
-1427.237519332531
 42
-0.1265225033129589
 10
5750.864330057047
 20
-1402.578879414305
 42
0.0
 10
5749.803669885267
 20
-1401.518219242525
 42
-0.4060350632685054
 10
5744.924189222245
 20
-1401.586545366353
 42
0.0674200255030077
 10
5735.522969975273
 20
-1415.484141159775
 42
0.0
 10
5735.522969975272
 20
-1427.237519332531
 42
0.0
 97
        0
 92
        7
 72
     1
 73
     1
 93
        7
 10
5758.542324885088
 20
-1396.136276785914
 42
-0.0824063402166525
 10
5775.522969975273
 20
-1388.008450899322
 42
0.0
 10
5775.522969975272
 20
-1387.237519332531
 42
0.0
 10
5763.769591802517
 20
-1387.237519332531
 42
0.0296941071205729
 10
5757.33110593902
 20
-1390.919583271115
 42
0.0
 10
5757.886323228262
 20
-1391.712515736056
 42
-0.4142135623732859
 10
5757.395172012387
 20
-1394.497972697336
 42
0.0
 97
        0
 92
        7
 72
     1
 73
     1
 93
        9
 10
5743.828796151114
 20
-1487.431693156689
 42
-0.2062005498466432
 10
5744.924189222245
 20
-1484.888493298709
 42
-0.0100077296760735
 10
5743.294692557506
 20
-1482.99029605712
 42
-0.0573735846420605
 10
5735.522969975273
 20
-1470.990897505287
 42
0.0
 10
5735.522969975273
 20
-1489.283691811902
 42
0.0486557348592764
 10
5745.476797495901
 20
-1499.237519332531
 42
0.0
 10
5763.769591802517
 20
-1499.237519332531
 42
-0.0573735846421332
 10
5751.770193250684
 20
-1491.465796750297
 42
-0.0100077296762331
 10
5749.871996009095
 20
-1489.836300085559
 42
-0.6783529605627887
 97
        0
 92
        7
 72
     1
 73
     1
 93
        7
 10
5750.864330057047
 20
-1483.896159250757
 42
-0.1265225033129621
 10
5736.293901542065
 20
-1459.237519332531
 42
0.0
 10
5735.522969975272
 20
-1459.237519332531
 42
0.0
 10
5735.522969975273
 20
-1470.990897505287
 42
0.0573735846420605
 10
5743.294692557506
 20
-1482.99029605712
 42
0.0100077296760735
 10
5744.924189222245
 20
-1484.888493298709
 42
-0.406035063268598
 10
5749.803669885267
 20
-1484.956819422537
 42
0.0
 97
        0
 92
        7
 72
     1
 73
     1
 93
        8
 10
5775.522969975273
 20
-1498.466587765739
 42
-0.1265225033129246
 10
5750.864330057047
 20
-1483.896159250757
 42
0.0
 10
5749.803669885267
 20
-1484.956819422537
 42
-0.1989123673799051
 10
5750.828796151114
 20
-1487.431693156689
 42
-0.1916444556033868
 10
5749.871996009095
 20
-1489.836300085559
 42
0.0100077296762331
 10
5751.770193250684
 20
-1491.465796750297
 42
0.0573735846421332
 10
5763.769591802517
 20
-1499.237519332531
 42
0.0
 10
5775.522969975272
 20
-1499.237519332531
 42
0.0
 97
        0
 92
        7
 72
     1
 73
     1
 93
        7
 10
5825.715048429019
 20
-1495.555315262911
 42
-0.1498222851880411
 10
5825.371497247213
 20
-1494.434522100592
 42
-0.2446984432292284
 10
5826.224344374511
 20
-1492.796218012014
 42
0.0
 10
5824.503615065459
 20
-1490.338761879147
 42
-0.0824063402166776
 10
5807.522969975273
 20
-1498.466587765739
 42
0.0
 10
5807.522969975272
 20
-1499.237519332531
 42
0.0
 10
5819.276348148029
 20
-1499.237519332531
 42
0.029695132614266
 97
        0
 92
        7
 72
     1
 73
     1
 93
        8
 10
5838.1217507283
 20
-1484.888493298709
 42
0.067420025502991
 10
5847.522969975273
 20
-1470.990897505287
 42
0.0
 10
5847.522969975273
 20
-1470.737519332531
 42
0.0
 10
5847.647830776882
 20
-1470.73751933253
 42
0.1143947830205468
 10
5854.022969975272
 20
-1443.23751933253
 42
0.0
 10
5849.022969975273
 20
-1443.237519332531
 42
-0.1989123673796506
 10
5832.1816098935
 20
-1483.896159250757
 42
0.0
 10
5833.242270065279
 20
-1484.956819422537
 42
-0.4060350632683921
 97
        0
 92
        7
 72
     1
 73
     1
 93
       10
 10
5847.522969975273
 20
-1489.283691811902
 42
0.0
 10
5847.522969975273
 20
-1470.990897505287
 42
-0.067420025502991
 10
5838.1217507283
 20
-1484.888493298709
 42
-0.2062005498465471
 10
5839.217143799431
 20
-1487.43169315669
 42
-0.6783529605629125
 10
5833.17394394145
 20
-1489.836300085559
 42
-0.021634434323768
 10
5828.991237173482
 20
-1493.261303207439
 42
-0.1580121993673
 10
5829.371497247213
 20
-1494.434522100592
 42
-0.7393992321799903
 10
5825.715048429019
 20
-1495.555315262911
 42
-0.029695132614266
 10
5819.276348148029
 20
-1499.237519332531
 42
0.0
 10
5837.569142454644
 20
-1499.237519332531
 42
0.0486557348593004
 97
        0
 92
        7
 72
     1
 73
     1
 93
        9
 10
5854.022969975272
 20
-1443.23751933253
 42
0.1143947830205791
 10
5847.647830776881
 20
-1415.737519332531
 42
0.0
 10
5847.522969975273
 20
-1415.737519332531
 42
0.0
 10
5847.522969975273
 20
-1415.484141159775
 42
0.0573735846420676
 10
5839.751247393037
 20
-1403.48474260794
 42
0.0100077296754694
 10
5838.1217507283
 20
-1401.586545366351
 42
-0.4060350632683649
 10
5833.242270065278
 20
-1401.518219242523
 42
0.0
 10
5832.181609893499
 20
-1402.578879414303
 42
-0.1989123673796683
 10
5849.022969975273
 20
-1443.237519332531
 42
0.0
 97
        0
 92
        7
 72
     1
 73
     1
 93
        9
 10
5847.522969975273
 20
-1415.484141159775
 42
0.0
 10
5847.522969975273
 20
-1397.191346853159
 42
0.0486557348593004
 10
5837.569142454644
 20
-1387.237519332531
 42
0.0
 10
5819.276348148029
 20
-1387.237519332531
 42
-0.0573735846420479
 10
5831.275746699864
 20
-1395.009241914765
 42
-0.0100077296760093
 10
5833.17394394145
 20
-1396.638738579501
 42
-0.6783529605629125
 10
5839.217143799431
 20
-1399.04334550837
 42
-0.2062005498465641
 10
5838.1217507283
 20
-1401.586545366351
 42
-0.0100077296754694
 10
5839.751247393037
 20
-1403.48474260794
 42
-0.0573735846420676
 97
        0
 92
        7
 72
     1
 73
     1
 93
        8
 10
5831.275746699864
 20
-1395.009241914765
 42
0.0573735846420479
 10
5819.276348148029
 20
-1387.237519332531
 42
0.0
 10
5807.522969975272
 20
-1387.237519332531
 42
0.0
 10
5807.522969975273
 20
-1388.008450899322
 42
-0.1265225033129277
 10
5832.181609893499
 20
-1402.578879414303
 42
0.0
 10
5833.242270065278
 20
-1401.518219242523
 42
-0.198912367379809
 10
5832.217143799431
 20
-1399.04334550837
 42
-0.1916444556034662
 10
5833.17394394145
 20
-1396.638738579501
 42
0.0100077296751219
 97
        0
 92
       22
 72
     1
 73
     1
 93
        8
 10
5750.864330057047
 20
-1402.578879414305
 42
-0.0436609429085072
 10
5758.542324885088
 20
-1396.136276785914
 42
0.0
 10
5757.395172012387
 20
-1394.497972697336
 42
-0.4142135623729805
 10
5754.609715051106
 20
-1394.006821481459
 42
0.0
 10
5754.054497761864
 20
-1393.213889016519
 42
0.0216334092542572
 10
5749.871996009095
 20
-1396.638738579503
 42
-0.19164445560337
 10
5750.828796151114
 20
-1399.043345508372
 42
-0.198912367379809
 10
5749.803669885267
 20
-1401.518219242525
 42
0.0
 97
        0
 92
       22
 72
     1
 73
     1
 93
        7
 10
5828.991237173482
 20
-1493.261303207439
 42
0.021634434323768
 10
5833.17394394145
 20
-1489.836300085559
 42
-0.1916444556034662
 10
5832.217143799431
 20
-1487.43169315669
 42
-0.1989123673795033
 10
5833.242270065279
 20
-1484.956819422537
 42
0.0
 10
5832.1816098935
 20
-1483.896159250757
 42
-0.0436609429084197
 10
5824.503615065459
 20
-1490.338761879147
 42
0.0
 10
5826.224344374511
 20
-1492.796218012014
 42
-0.4095347983059832
 97
        0
 75
     0
 76
     1
 52
0.0
 41
30.0
 77
     0
 78
     1
 53
45.0
 43
0.0
 44
-10.0
 45
-2.651650429449553
 46
2.651650429449553
 79
     0
 47
0.0
 98
       14
 10
5740.061937386099
 20
-1400.100005968425
 10
5742.21255247259
 20
-1408.396484493141
 10
5758.969865471722
 20
-1394.391958804718
 10
5739.782423866622
 20
-1485.434786525576
 10
5743.279358966607
 20
-1478.720671133603
 10
5756.847467154552
 20
-1490.750127877554
 10
5823.331197275481
 20
-1495.352094469136
 10
5837.542741521823
 20
-1481.028648299594
 10
5842.802131912202
 20
-1485.952332920374
 10
5850.160557596346
 20
-1430.093165866976
 10
5844.901167205967
 20
-1402.789096606287
 10
5822.856488335657
 20
-1393.053629287927
 10
5752.792879311107
 20
-1397.256648038626
 10
5830.381018437052
 20
-1490.204606001957
1001
ACAD
1010
0.0
1020
0.0
1030
0.0
  0
LINE
  5
BDEA2
330
18
100
AcDbEntity
  8
実線
100
AcDbLine
 10
5251.597491566592
 20
-1440.387519332518
 30
0.0
 11
5246.597491566592
 21
-1440.387519332518
 31
0.0
  0
LINE
  5
BDEA3
330
18
100
AcDbEntity
  8
実線
100
AcDbLine
 10
5251.597491566592
 20
-1446.087519332518
 30
0.0
 11
5246.597491566592
 21
-1446.087519332518
 31
0.0
  0
LINE
  5
BDEA4
330
18
100
AcDbEntity
  8
実線
100
AcDbLine
 10
5187.247491566595
 20
-1575.612541883254
 30
0.0
 11
5187.247491566595
 21
-1566.437564433992
 31
0.0
  0
LINE
  5
BDEA5
330
18
100
AcDbEntity
  8
実線
100
AcDbLine
 10
5192.947491566594
 20
-1575.612541883254
 30
0.0
 11
5192.947491566594
 21
-1566.437564433992
 31
0.0
  0
LINE
  5
BDEA6
330
18
100
AcDbEntity
  8
実線
100
AcDbLine
 10
5187.247491566594
 20
-1582.387519332518
 30
0.0
 11
5187.247491566595
 21
-1577.612541883247
 31
0.0
  0
LINE
  5
BDEA7
330
18
100
AcDbEntity
  8
実線
100
AcDbLine
 10
5192.947491566594
 20
-1582.387519332518
 30
0.0
 11
5192.947491566594
 21
-1577.612541883259
 31
0.0
  0
LINE
  5
BDEA8
330
18
100
AcDbEntity
  8
実線
100
AcDbLine
 10
5251.597491566592
 20
-1617.387519332518
 30
0.0
 11
5227.947491566594
 21
-1617.387519332518
 31
0.0
  0
LINE
  5
BDEA9
330
18
100
AcDbEntity
  8
実線
100
AcDbLine
 10
5251.597491566592
 20
-1623.087519332519
 30
0.0
 11
5227.947491566591
 21
-1623.087519332518
 31
0.0
  0
ARC
  5
BDEAA
330
18
100
AcDbEntity
  8
実線
100
AcDbCircle
 10
5227.947491566594
 20
-1582.387519332518
 30
0.0
 40
35.00000000000001
100
AcDbArc
 50
180.0
 51
270.0
  0
ARC
  5
BDEAB
330
18
100
AcDbEntity
  8
実線
100
AcDbCircle
 10
5227.947491566594
 20
-1582.387519332518
 30
0.0
 40
40.70000000000001
100
AcDbArc
 50
180.0
 51
270.0
  0
LINE
  5
BDEAC
330
18
100
AcDbEntity
  8
実線
100
AcDbLine
 10
5187.865625227048
 20
-1566.437564433992
 30
0.0
 11
5187.200625227049
 21
-1556.437564433992
 31
0.0
  0
LINE
  5
BDEAD
330
18
100
AcDbEntity
  8
実線
100
AcDbLine
 10
5189.559357906141
 20
-1566.437564433992
 30
0.0
 11
5188.894357906142
 21
-1556.437564433992
 31
0.0
  0
LINE
  5
BDEAE
330
18
100
AcDbEntity
  8
実線
100
AcDbLine
 10
5190.635625227049
 20
-1566.437564433992
 30
0.0
 11
5191.300625227048
 21
-1556.437564433992
 31
0.0
  0
LINE
  5
BDEAF
330
18
100
AcDbEntity
  8
実線
100
AcDbLine
 10
5192.329357906141
 20
-1566.437564433992
 30
0.0
 11
5192.99435790614
 21
-1556.437564433992
 31
0.0
  0
TEXT
  5
BE8A1
330
18
100
AcDbEntity
  8
文字
100
AcDbText
 10
5787.146441091944
 20
-1690.495094582061
 30
0.0
 40
3.5
  1
τDISCモータ ND110-65-FSB-UC（ABS） NMR-SAEJA2A-131AB-UC
 41
0.38
  7
まこ
100
AcDbText
  0
TEXT
  5
BE8A2
330
18
100
AcDbEntity
  8
文字
100
AcDbText
 10
5788.806645268043
 20
-1701.720263456638
 30
0.0
 40
6.0
  1
外形図（ABS）
 41
0.6
  7
まこ
100
AcDbText
  0
TEXT
  5
BE8A3
330
18
100
AcDbEntity
  8
文字
100
AcDbText
 10
5786.958196086054
 20
-1713.078170224485
 30
0.0
 40
7.0
  1
ＳＥ－７８７００
 41
0.953
  7
まこ
100
AcDbText
  0
VIEWPORT
  5
BE8A8
330
BE8A4
100
AcDbEntity
 67
     1
  8
0
100
AcDbViewport
 10
5.25
 20
3.5
 30
0.0
 40
11.55
 41
8.925
 68
     1
 69
     1
 12
5.25
 22
3.5
 13
0.0
 23
0.0
 14
0.5
 24
0.5
 15
0.0
 25
0.0
 16
0.0
 26
0.0
 36
1.0
 17
0.0
 27
0.0
 37
0.0
 42
50.0
 43
0.0
 44
0.0
 45
8.925
 50
0.0
 51
0.0
 72
   100
 90
   557152
  1

281
     0
 71
     1
 74
     0
110
0.0
120
0.0
130
0.0
111
1.0
121
0.0
131
0.0
112
0.0
122
1.0
132
0.0
 79
     0
146
0.0
170
     0
 61
     5
292
     1
282
     1
141
0.0
142
0.0
 63
   256
361
BE8AC
  0
VIEWPORT
  5
BE8A9
102
{ACAD_XDICTIONARY
360
BE8AA
102
}
330
BE8A4
100
AcDbEntity
 67
     1
  8
0
100
AcDbViewport
 10
5.25
 20
3.5
 30
0.0
 40
8.4
 41
5.600000000000001
 68
     2
 69
     2
 12
5529.285230770936
 22
-1562.237519332526
 13
0.0
 23
0.0
 14
0.5
 24
0.5
 15
0.0
 25
0.0
 16
0.0
 26
0.0
 36
1.0
 17
0.0
 27
0.0
 37
0.0
 42
50.0
 43
0.0
 44
0.0
 45
481.7633253179023
 50
0.0
 51
0.0
 72
   100
331
E
 90
   557152
  1

281
     0
 71
     1
 74
     0
110
0.0
120
0.0
130
0.0
111
1.0
121
0.0
131
0.0
112
0.0
122
1.0
132
0.0
 79
     0
146
0.0
170
     0
 61
     5
292
     1
282
     1
141
0.0
142
0.0
 63
   256
  0
ENDSEC
  0
SECTION
  2
OBJECTS
  0
DICTIONARY
  5
C
330
0
100
AcDbDictionary
281
     1
  3
ACAD_CIP_PREVIOUS_PRODUCT_INFO
350
A2AF1
  3
ACAD_DETAILVIEWSTYLE
350
BE85B
  3
ACAD_GROUP
350
D
  3
ACAD_IMAGE_VARS
350
A2EA9
  3
ACAD_LAYOUT
350
73F
  3
ACAD_MATERIAL
350
BE84D
  3
ACAD_MLEADERSTYLE
350
BE853
  3
ACAD_MLINESTYLE
350
1B
  3
ACAD_PLOTSETTINGS
350
740
  3
ACAD_PLOTSTYLENAME
350
73D
  3
ACAD_SCALELIST
350
A2AD3
  3
ACAD_SECTIONVIEWSTYLE
350
BE85C
  3
ACAD_TABLESTYLE
350
BE851
  3
ACAD_VISUALSTYLE
350
BE834
  3
AcadDim
350
A8E9B
  3
ACDB_RECOMPOSE_DATA
350
BE8B1
  3
AcDbVariableDictionary
350
11AC
  3
APPDATA
350
A2EA7
  0
SUN
  5
BE856
330
A2A92
100
AcDbSun
 90
        1
290
     0
 63
     7
421
 16777215
 40
1.0
291
     1
 91
  2455826
 92
 54000000
292
     0
 70
     2
 71
   256
280
     1
  0
DICTIONARY
  5
1E591
330
2
100
AcDbDictionary
280
     1
281
     1
  3
ACAD_LAYERSTATES
360
1E615
  3
ACLYDICTIONARY
360
BE8AE
  0
DICTIONARY
  5
A2CED
330
E
100
AcDbDictionary
280
     1
281
     1
  3
ADSK_XREC_LAYER_RECONCILED
360
A2CEE
  0
DICTIONARY
  5
A2CF1
330
869
100
AcDbDictionary
280
     1
281
     1
  3
ADSK_XREC_LAYER_RECONCILED
360
A2CF2
  0
DICTIONARY
  5
A2CF5
330
8C6
100
AcDbDictionary
280
     1
281
     1
  3
ADSK_XREC_LAYER_RECONCILED
360
A2CF6
  0
DICTIONARY
  5
A2CFD
330
1521
100
AcDbDictionary
280
     1
281
     1
  3
ADSK_XREC_LAYER_RECONCILED
360
A2CFE
  0
DICTIONARY
  5
A2D01
330
1523
100
AcDbDictionary
280
     1
281
     1
  3
ADSK_XREC_LAYER_RECONCILED
360
A2D02
  0
DICTIONARY
  5
A2D33
330
89319
100
AcDbDictionary
280
     1
281
     1
  3
ADSK_XREC_LAYER_RECONCILED
360
A2D34
  0
DICTIONARY
  5
A2EBE
330
A2EBD
100
AcDbDictionary
280
     1
281
     1
  3
ADSK_XREC_LAYER_RECONCILED
360
A2EBF
  0
SUN
  5
BE8AC
330
BE8A8
100
AcDbSun
 90
        1
290
     0
 63
     7
421
 16777215
 40
1.0
291
     1
 91
  2455826
 92
 54000000
292
     0
 70
     2
 71
   256
280
     1
  0
DICTIONARY
  5
BE8AA
330
BE8A9
100
AcDbDictionary
280
     1
281
     1
  3
ASDK_XREC_ANNOTATION_SCALE_INFO
360
BE8AB
  0
XRECORD
  5
A2AF1
102
{ACAD_REACTORS
330
C
102
}
330
C
100
AcDbXrecord
280
     1
300
ACDLT
300
2012
300
ACDLT_F_S
  0
DICTIONARY
  5
BE85B
102
{ACAD_REACTORS
330
C
102
}
330
C
100
AcDbDictionary
281
     1
  0
DICTIONARY
  5
D
102
{ACAD_REACTORS
330
C
102
}
330
C
100
AcDbDictionary
281
     1
  0
RASTERVARIABLES
  5
A2EA9
102
{ACAD_REACTORS
330
C
102
}
330
C
100
AcDbRasterVariables
 90
        0
 70
     1
 71
     1
 72
     0
  0
DICTIONARY
  5
73F
102
{ACAD_REACTORS
330
C
102
}
330
C
100
AcDbDictionary
281
     1
  3
Model
350
741
  3
Sheet1
350
BE8A5
  0
DICTIONARY
  5
BE84D
102
{ACAD_REACTORS
330
C
102
}
330
C
100
AcDbDictionary
281
     1
  3
ByLayer
350
BE84E
  3
Global
350
BE850
  0
DICTIONARY
  5
BE853
102
{ACAD_REACTORS
330
C
102
}
330
C
100
AcDbDictionary
281
     1
  3
Standard
350
BE854
  0
DICTIONARY
  5
1B
102
{ACAD_REACTORS
330
C
102
}
330
C
100
AcDbDictionary
281
     1
  3
STANDARD
350
1C
  0
DICTIONARY
  5
740
102
{ACAD_REACTORS
330
C
102
}
330
C
100
AcDbDictionary
281
     1
  0
ACDBDICTIONARYWDFLT
  5
73D
102
{ACAD_REACTORS
330
C
102
}
330
C
100
AcDbDictionary
281
     1
  3
Normal
350
73E
100
AcDbDictionaryWithDefault
340
73E
  0
DICTIONARY
  5
A2AD3
102
{ACAD_REACTORS
330
C
102
}
330
C
100
AcDbDictionary
281
     1
  3
A0
350
A2AD4
  3
A1
350
A2AD5
  3
A2
350
A2AD6
  3
A3
350
A2AD7
  3
A4
350
A2AD8
  3
A5
350
A2AD9
  3
A6
350
A2ADA
  3
A7
350
A2ADB
  3
A8
350
A2ADC
  3
A9
350
A2ADD
  3
B0
350
A2ADE
  3
B1
350
A2ADF
  3
B2
350
A2AE0
  3
B3
350
A2AE1
  3
B4
350
A2AE2
  3
B5
350
A2AE3
  3
B6
350
A2AE4
  0
DICTIONARY
  5
BE85C
102
{ACAD_REACTORS
330
C
102
}
330
C
100
AcDbDictionary
281
     1
  0
DICTIONARY
  5
BE851
102
{ACAD_REACTORS
330
C
102
}
330
C
100
AcDbDictionary
281
     1
  3
Standard
350
BE852
  0
DICTIONARY
  5
BE834
102
{ACAD_REACTORS
330
C
102
}
330
C
100
AcDbDictionary
281
     1
  3
2dWireframe
350
BE839
  3
Basic
350
BE83C
  3
Brighten
350
BE840
  3
ColorChange
350
BE844
  3
Conceptual
350
BE83E
  3
Dim
350
BE83F
  3
EdgeColorOff
350
BE847
  3
Facepattern
350
BE843
  3
Flat
350
BE835
  3
FlatWithEdges
350
BE836
  3
Gouraud
350
BE837
  3
GouraudWithEdges
350
BE838
  3
Hidden
350
BE83B
  3
JitterOff
350
BE845
  3
Linepattern
350
BE842
  3
OverhangOff
350
BE846
  3
Realistic
350
BE83D
  3
Shaded
350
BE84C
  3
Shaded with edges
350
BE84B
  3
Shades of Gray
350
BE848
  3
Sketchy
350
BE849
  3
Thicken
350
BE841
  3
Wireframe
350
BE83A
  3
X-Ray
350
BE84A
  0
XRECORD
  5
A8E9B
102
{ACAD_REACTORS
330
C
102
}
330
C
100
AcDbXrecord
280
     1
340
0
 72
     0
 71
     0
 70
     0
 69
     0
 68
     1
 67
     3
 66
     0
 65
     0
 64
     1
 63
     5
 62
     5
 61
     0
 60
     0
 40
0.0
  0
XRECORD
  5
BE8B1
102
{ACAD_REACTORS
330
C
102
}
330
C
100
AcDbXrecord
280
     1
 90
        1
330
BE852
  0
DICTIONARY
  5
11AC
102
{ACAD_REACTORS
330
C
102
}
330
C
100
AcDbDictionary
281
     1
  3
CANNOSCALE
350
BE857
  3
CMLEADERSTYLE
350
BE859
  3
CTABLESTYLE
350
BE858
  3
DIMASSOC
350
11AD
  3
HPTRANSPARENCY
350
A6C00
  3
INDEXCTL
350
A2D8B
  3
MSLTSCALE
350
BE85A
  3
SORTENTS
350
AD08
  0
DICTIONARY
  5
A2EA7
102
{ACAD_REACTORS
330
C
102
}
330
C
100
AcDbDictionary
281
     1
  0
DICTIONARY
  5
1E615
102
{ACAD_REACTORS
330
1E591
102
}
330
1E591
100
AcDbDictionary
281
     1
  3
ARGON_LAYERP_6
350
B335B
  0
DICTIONARY
  5
BE8AE
102
{ACAD_REACTORS
330
1E591
102
}
330
1E591
100
AcDbDictionary
281
     1
1001
ACAD
1000
<All
  0
XRECORD
  5
A2CEE
102
{ACAD_REACTORS
330
A2CED
102
}
330
A2CED
100
AcDbXrecord
280
     1
290
     1
  0
XRECORD
  5
A2CF2
102
{ACAD_REACTORS
330
A2CF1
102
}
330
A2CF1
100
AcDbXrecord
280
     1
290
     1
  0
XRECORD
  5
A2CF6
102
{ACAD_REACTORS
330
A2CF5
102
}
330
A2CF5
100
AcDbXrecord
280
     1
290
     1
  0
XRECORD
  5
A2CFE
102
{ACAD_REACTORS
330
A2CFD
102
}
330
A2CFD
100
AcDbXrecord
280
     1
290
     1
  0
XRECORD
  5
A2D02
102
{ACAD_REACTORS
330
A2D01
102
}
330
A2D01
100
AcDbXrecord
280
     1
290
     1
  0
XRECORD
  5
A2D34
102
{ACAD_REACTORS
330
A2D33
102
}
330
A2D33
100
AcDbXrecord
280
     1
290
     1
  0
XRECORD
  5
A2EBF
102
{ACAD_REACTORS
330
A2EBE
102
}
330
A2EBE
100
AcDbXrecord
280
     1
290
     1
  0
XRECORD
  5
BE8AB
102
{ACAD_REACTORS
330
BE8AA
102
}
330
BE8AA
100
AcDbXrecord
280
     1
 90
        1
340
A2AD4
  0
LAYOUT
  5
741
102
{ACAD_REACTORS
330
73F
102
}
330
73F
100
AcDbPlotSettings
  1

  2
HP DesignJet 750C (D/A1) Color
  4
ANSI_A_(11.00_x_8.50_Inches)
  6

 40
6.35
 41
19.05
 42
6.35
 43
19.05
 44
279.4
 45
215.9
 46
0.0
 47
0.0
 48
0.0
 49
0.0
140
0.0
141
0.0
142
1.0
143
131.0153896462917
 70
 11952
 72
     0
 73
     0
 74
     0
  7
monochrome.ctb
 75
     0
 76
     0
 77
     2
 78
   300
147
0.0076326911113248
148
-129073.9064414952
149
50474.93667297666
100
AcDbLayout
  1
Model
 70
     1
 71
     0
 10
0.0
 20
0.0
 11
12.0
 21
9.0
 12
0.0
 22
0.0
 32
0.0
 14
5175.047491566596
 24
-1748.73751933252
 34
0.0
 15
5883.522969975276
 25
-1375.737519332531
 35
0.0
146
0.0
 13
0.0
 23
0.0
 33
0.0
 16
1.0
 26
0.0
 36
0.0
 17
0.0
 27
1.0
 37
0.0
 76
     0
330
18
331
A2A92
  0
LAYOUT
  5
BE8A5
102
{ACAD_REACTORS
330
73F
102
}
330
73F
100
AcDbPlotSettings
  1

  2
none_device
  4
ANSI_A_(11.00_x_8.50_Inches)
  6

 40
6.35
 41
19.05
 42
6.35
 43
19.05
 44
279.4
 45
215.9
 46
0.0
 47
0.0
 48
0.0
 49
0.0
140
0.0
141
0.0
142
1.0
143
1.0
 70
   688
 72
     0
 73
     0
 74
     5
  7

 75
    16
 76
     0
 77
     2
 78
   300
147
1.0
148
0.0
149
0.0
100
AcDbLayout
  1
Sheet1
 70
     1
 71
     1
 10
0.0
 20
0.0
 11
0.0
 21
0.0
 12
0.0
 22
0.0
 32
0.0
 14
1.05
 24
0.6999999999999997
 34
0.0
 15
9.45
 25
6.300000000000001
 35
0.0
146
0.0
 13
0.0
 23
0.0
 33
0.0
 16
1.0
 26
0.0
 36
0.0
 17
0.0
 27
1.0
 37
0.0
 76
     0
330
BE8A4
331
BE8A8
  0
MATERIAL
  5
BE84E
102
{ACAD_REACTORS
330
BE84D
102
}
330
BE84D
100
AcDbMaterial
  1
ByLayer
 72
     1
 94
      127
  0
MATERIAL
  5
BE850
102
{ACAD_REACTORS
330
BE84D
102
}
330
BE84D
100
AcDbMaterial
  1
Global
 72
     1
 94
      127
  0
MLEADERSTYLE
  5
BE854
102
{ACAD_REACTORS
330
BE853
102
}
330
BE853
100
AcDbMLeaderStyle
179
     2
170
     2
171
     1
172
     0
 90
        2
 40
0.0
 41
0.0
173
     1
 91
-1056964608
340
12
 92
       -2
290
     1
 42
0.09
291
     1
 43
0.36
  3
Standard
341
0
 44
0.18
300

342
F
174
     1
178
     6
175
     1
176
     0
 93
-1056964608
 45
0.18
292
     0
297
     0
 46
0.18
343
0
 94
-1056964608
 47
1.0
 49
1.0
140
1.0
293
     1
141
0.0
294
     1
177
     0
142
1.0
295
     0
296
     0
143
0.125
271
     0
272
     9
273
     9
298
     0
  0
MLINESTYLE
  5
1C
102
{ACAD_REACTORS
330
1B
102
}
330
1B
100
AcDbMlineStyle
  2
STANDARD
 70
     0
  3

 62
   256
 51
90.0
 52
90.0
 71
     2
 49
0.5
 62
   256
  6
BYLAYER
 49
-0.5
 62
   256
  6
BYLAYER
  0
ACDBPLACEHOLDER
  5
73E
102
{ACAD_REACTORS
330
73D
102
}
330
73D
  0
SCALE
  5
A2AD4
102
{ACAD_REACTORS
330
A2AD3
102
}
330
A2AD3
100
AcDbScale
 70
     0
300
1:1
140
1.0
141
1.0
290
     1
  0
SCALE
  5
A2AD5
102
{ACAD_REACTORS
330
A2AD3
102
}
330
A2AD3
100
AcDbScale
 70
     0
300
1/128" = 1'-0"
140
0.0078125
141
12.0
290
     0
  0
SCALE
  5
A2AD6
102
{ACAD_REACTORS
330
A2AD3
102
}
330
A2AD3
100
AcDbScale
 70
     0
300
1/64" = 1'-0"
140
0.015625
141
12.0
290
     0
  0
SCALE
  5
A2AD7
102
{ACAD_REACTORS
330
A2AD3
102
}
330
A2AD3
100
AcDbScale
 70
     0
300
1/32" = 1'-0"
140
0.03125
141
12.0
290
     0
  0
SCALE
  5
A2AD8
102
{ACAD_REACTORS
330
A2AD3
102
}
330
A2AD3
100
AcDbScale
 70
     0
300
1/16" = 1'-0"
140
0.0625
141
12.0
290
     0
  0
SCALE
  5
A2AD9
102
{ACAD_REACTORS
330
A2AD3
102
}
330
A2AD3
100
AcDbScale
 70
     0
300
3/32" = 1'-0"
140
0.09375
141
12.0
290
     0
  0
SCALE
  5
A2ADA
102
{ACAD_REACTORS
330
A2AD3
102
}
330
A2AD3
100
AcDbScale
 70
     0
300
1/8" = 1'-0"
140
0.125
141
12.0
290
     0
  0
SCALE
  5
A2ADB
102
{ACAD_REACTORS
330
A2AD3
102
}
330
A2AD3
100
AcDbScale
 70
     0
300
3/16" = 1'-0"
140
0.1875
141
12.0
290
     0
  0
SCALE
  5
A2ADC
102
{ACAD_REACTORS
330
A2AD3
102
}
330
A2AD3
100
AcDbScale
 70
     0
300
1/4" = 1'-0"
140
0.25
141
12.0
290
     0
  0
SCALE
  5
A2ADD
102
{ACAD_REACTORS
330
A2AD3
102
}
330
A2AD3
100
AcDbScale
 70
     0
300
3/8" = 1'-0"
140
0.375
141
12.0
290
     0
  0
SCALE
  5
A2ADE
102
{ACAD_REACTORS
330
A2AD3
102
}
330
A2AD3
100
AcDbScale
 70
     0
300
1/2" = 1'-0"
140
0.5
141
12.0
290
     0
  0
SCALE
  5
A2ADF
102
{ACAD_REACTORS
330
A2AD3
102
}
330
A2AD3
100
AcDbScale
 70
     0
300
3/4" = 1'-0"
140
0.75
141
12.0
290
     0
  0
SCALE
  5
A2AE0
102
{ACAD_REACTORS
330
A2AD3
102
}
330
A2AD3
100
AcDbScale
 70
     0
300
1" = 1'-0"
140
1.0
141
12.0
290
     0
  0
SCALE
  5
A2AE1
102
{ACAD_REACTORS
330
A2AD3
102
}
330
A2AD3
100
AcDbScale
 70
     0
300
1-1/2" = 1'-0"
140
1.5
141
12.0
290
     0
  0
SCALE
  5
A2AE2
102
{ACAD_REACTORS
330
A2AD3
102
}
330
A2AD3
100
AcDbScale
 70
     0
300
3" = 1'-0"
140
3.0
141
12.0
290
     0
  0
SCALE
  5
A2AE3
102
{ACAD_REACTORS
330
A2AD3
102
}
330
A2AD3
100
AcDbScale
 70
     0
300
6" = 1'-0"
140
6.0
141
12.0
290
     0
  0
SCALE
  5
A2AE4
102
{ACAD_REACTORS
330
A2AD3
102
}
330
A2AD3
100
AcDbScale
 70
     0
300
1'-0" = 1'-0"
140
12.0
141
12.0
290
     0
  0
TABLESTYLE
  5
BE852
102
{ACAD_REACTORS
330
BE851
102
}
102
{ACAD_XDICTIONARY
360
BE8AF
102
}
330
BE851
100
AcDbTableStyle
  3
Standard
 70
     0
 71
     0
 40
0.06
 41
0.06
280
     0
281
     0
  7
STANDARD
140
0.18
170
     2
 62
     0
 63
   257
283
     0
 90
        4
 91
        0
  1

274
    -2
284
     1
 64
     0
275
    -2
285
     1
 65
     0
276
    -2
286
     1
 66
     0
277
    -2
287
     1
 67
     0
278
    -2
288
     1
 68
     0
279
    -2
289
     1
 69
     0
  7
STANDARD
140
0.25
170
     5
 62
     0
 63
   257
283
     0
 90
        4
 91
        0
  1

274
    -2
284
     1
 64
     0
275
    -2
285
     1
 65
     0
276
    -2
286
     1
 66
     0
277
    -2
287
     1
 67
     0
278
    -2
288
     1
 68
     0
279
    -2
289
     1
 69
     0
  7
STANDARD
140
0.18
170
     5
 62
     0
 63
   257
283
     0
 90
        4
 91
        0
  1

274
    -2
284
     1
 64
     0
275
    -2
285
     1
 65
     0
276
    -2
286
     1
 66
     0
277
    -2
287
     1
 67
     0
278
    -2
288
     1
 68
     0
279
    -2
289
     1
 69
     0
  0
VISUALSTYLE
  5
BE839
102
{ACAD_REACTORS
330
BE834
102
}
330
BE834
100
AcDbVisualStyle
  2
2dWireframe
 70
     4
177
     3
291
     0
 70
    58
 90
        0
176
     1
 90
        2
176
     1
 90
        0
176
     1
 90
        0
176
     1
 40
0.6
176
     1
 40
30.0
176
     1
 62
     7
420
 16777215
176
     1
 90
        1
176
     1
 90
        4
176
     1
 62
     7
176
     1
 62
   257
176
     1
 90
        1
176
     1
 90
        1
176
     1
 40
1.0
176
     1
 90
        0
176
     1
 62
   257
176
     1
 40
1.0
176
     1
 90
        1
176
     1
 90
        6
176
     1
 90
        2
176
     1
 62
     7
176
     1
 90
        5
176
     1
 90
        0
176
     1
 90
        0
176
     1
290
     0
176
     1
 90
        1
176
     1
 40
0.0
176
     1
 90
        0
176
     1
290
     1
176
     1
290
     1
176
     1
290
     0
176
     1
290
     0
176
     1
290
     0
176
     1
290
     0
176
     1
290
     0
176
     1
290
     0
176
     1
290
     0
176
     1
 90
       50
176
     1
 40
0.0
176
     1
 40
1.0
176
     1
 90
        0
176
     1
 62
    18
420
        0
176
     1
 90
       50
176
     1
 90
        3
176
     1
 62
     5
420
      255
176
     1
290
     0
176
     1
 90
       50
176
     1
 90
       50
176
     1
 90
       50
176
     1
290
     0
176
     1
 90
       50
176
     1
 62
   256
176
     0
 40
1.0
176
     0
 90
        2
176
     1
  1
strokes_ogs.tif
176
     1
290
     0
176
     1
 40
1.0
176
     1
 40
1.0
176
     1
  0
VISUALSTYLE
  5
BE83C
102
{ACAD_REACTORS
330
BE834
102
}
330
BE834
100
AcDbVisualStyle
  2
Basic
 70
     7
177
     3
291
     1
 70
    58
 90
        1
176
     1
 90
        0
176
     1
 90
        1
176
     1
 90
        0
176
     1
 40
0.6
176
     1
 40
30.0
176
     1
 62
     7
420
 16777215
176
     1
 90
        0
176
     1
 90
        4
176
     1
 62
     7
176
     1
 62
   257
176
     1
 90
        1
176
     1
 90
        1
176
     1
 40
1.0
176
     1
 90
        8
176
     1
 62
     7
176
     1
 40
1.0
176
     1
 90
        1
176
     1
 90
        6
176
     1
 90
        2
176
     1
 62
     7
176
     1
 90
        5
176
     1
 90
        0
176
     1
 90
        0
176
     1
290
     0
176
     1
 90
        1
176
     1
 40
0.0
176
     1
 90
        0
176
     1
290
     0
176
     1
290
     1
176
     1
290
     1
176
     1
290
     0
176
     1
290
     0
176
     1
290
     0
176
     1
290
     0
176
     1
290
     0
176
     1
290
     0
176
     1
 90
       50
176
     1
 40
0.0
176
     1
 40
1.0
176
     1
 90
        0
176
     1
 62
    18
420
        0
176
     1
 90
       50
176
     1
 90
        3
176
     1
 62
     5
420
      255
176
     1
290
     0
176
     1
 90
       50
176
     1
 90
       50
176
     1
 90
       50
176
     1
290
     0
176
     1
 90
       50
176
     1
 62
   256
176
     0
 40
1.0
176
     0
 90
        2
176
     1
  1
strokes_ogs.tif
176
     1
290
     0
176
     1
 40
1.0
176
     1
 40
1.0
176
     1
  0
VISUALSTYLE
  5
BE840
102
{ACAD_REACTORS
330
BE834
102
}
330
BE834
100
AcDbVisualStyle
  2
Brighten
 70
    12
177
     3
291
     1
 70
    58
 90
        2
176
     1
 90
        2
176
     1
 90
        0
176
     1
 90
        0
176
     1
 40
0.6
176
     1
 40
30.0
176
     1
 62
     7
420
 16777215
176
     1
 90
        1
176
     1
 90
        4
176
     1
 62
     7
176
     1
 62
   257
176
     1
 90
        1
176
     1
 90
        1
176
     1
 40
1.0
176
     1
 90
        8
176
     1
 62
     7
176
     1
 40
1.0
176
     1
 90
        1
176
     1
 90
        6
176
     1
 90
        2
176
     1
 62
     7
176
     1
 90
        5
176
     1
 90
        0
176
     1
 90
        0
176
     1
290
     0
176
     1
 90
        1
176
     1
 40
50.0
176
     1
 90
        0
176
     1
290
     0
176
     1
290
     1
176
     1
290
     1
176
     1
290
     0
176
     1
290
     0
176
     1
290
     0
176
     1
290
     0
176
     1
290
     0
176
     1
290
     0
176
     1
 90
       50
176
     1
 40
0.0
176
     1
 40
1.0
176
     1
 90
        0
176
     1
 62
    18
420
        0
176
     1
 90
       50
176
     1
 90
        3
176
     1
 62
     5
420
      255
176
     1
290
     0
176
     1
 90
       50
176
     1
 90
       50
176
     1
 90
       50
176
     1
290
     0
176
     1
 90
       50
176
     1
 62
   256
176
     0
 40
1.0
176
     0
 90
        2
176
     1
  1
strokes_ogs.tif
176
     1
290
     0
176
     1
 40
1.0
176
     1
 40
1.0
176
     1
  0
VISUALSTYLE
  5
BE844
102
{ACAD_REACTORS
330
BE834
102
}
330
BE834
100
AcDbVisualStyle
  2
ColorChange
 70
    16
177
     3
291
     1
 70
    58
 90
        2
176
     1
 90
        2
176
     1
 90
        3
176
     1
 90
        0
176
     1
 40
0.6
176
     1
 40
30.0
176
     1
 62
     8
420
  8421504
176
     1
 90
        1
176
     1
 90
        4
176
     1
 62
     7
176
     1
 62
   257
176
     1
 90
        1
176
     1
 90
        1
176
     1
 40
1.0
176
     1
 90
        8
176
     1
 62
     8
420
  8421504
176
     1
 40
1.0
176
     1
 90
        1
176
     1
 90
        6
176
     1
 90
        2
176
     1
 62
     7
176
     1
 90
        5
176
     1
 90
        0
176
     1
 90
        0
176
     1
290
     0
176
     1
 90
        1
176
     1
 40
0.0
176
     1
 90
        0
176
     1
290
     0
176
     1
290
     1
176
     1
290
     1
176
     1
290
     0
176
     1
290
     0
176
     1
290
     0
176
     1
290
     0
176
     1
290
     0
176
     1
290
     0
176
     1
 90
       50
176
     1
 40
0.0
176
     1
 40
1.0
176
     1
 90
        0
176
     1
 62
    18
420
        0
176
     1
 90
       50
176
     1
 90
        3
176
     1
 62
     5
420
      255
176
     1
290
     0
176
     1
 90
       50
176
     1
 90
       50
176
     1
 90
       50
176
     1
290
     0
176
     1
 90
       50
176
     1
 62
   256
176
     0
 40
1.0
176
     0
 90
        2
176
     1
  1
strokes_ogs.tif
176
     1
290
     0
176
     1
 40
1.0
176
     1
 40
1.0
176
     1
  0
VISUALSTYLE
  5
BE83E
102
{ACAD_REACTORS
330
BE834
102
}
330
BE834
100
AcDbVisualStyle
  2
Conceptual
 70
     9
177
     3
291
     0
 70
    58
 90
        3
176
     1
 90
        2
176
     1
 90
        0
176
     1
 90
        0
176
     1
 40
0.6
176
     1
 40
30.0
176
     1
 62
     7
420
 16777215
176
     1
 90
        2
176
     1
 90
        2
176
     1
 62
     7
176
     1
 62
   257
176
     1
 90
        1
176
     1
 90
        1
176
     1
 40
179.0
176
     1
 90
        8
176
     1
 62
     7
176
     1
 40
1.0
176
     1
 90
        1
176
     1
 90
        6
176
     1
 90
        2
176
     1
 62
     7
176
     1
 90
        3
176
     1
 90
        0
176
     1
 90
        0
176
     1
290
     0
176
     1
 90
        1
176
     1
 40
0.0
176
     1
 90
        0
176
     1
290
     0
176
     1
290
     1
176
     1
290
     1
176
     1
290
     0
176
     1
290
     0
176
     1
290
     0
176
     1
290
     0
176
     1
290
     0
176
     1
290
     0
176
     1
 90
       50
176
     1
 40
0.0
176
     1
 40
1.0
176
     1
 90
        0
176
     1
 62
    18
420
        0
176
     1
 90
       50
176
     1
 90
        3
176
     1
 62
     5
420
      255
176
     1
290
     0
176
     1
 90
       50
176
     1
 90
       50
176
     1
 90
       50
176
     1
290
     0
176
     1
 90
       50
176
     1
 62
   256
176
     0
 40
1.0
176
     0
 90
        2
176
     1
  1
strokes_ogs.tif
176
     1
290
     0
176
     1
 40
1.0
176
     1
 40
1.0
176
     1
  0
VISUALSTYLE
  5
BE83F
102
{ACAD_REACTORS
330
BE834
102
}
330
BE834
100
AcDbVisualStyle
  2
Dim
 70
    11
177
     3
291
     1
 70
    58
 90
        2
176
     1
 90
        2
176
     1
 90
        0
176
     1
 90
        0
176
     1
 40
0.6
176
     1
 40
30.0
176
     1
 62
     7
420
 16777215
176
     1
 90
        1
176
     1
 90
        4
176
     1
 62
     7
176
     1
 62
   257
176
     1
 90
        1
176
     1
 90
        1
176
     1
 40
1.0
176
     1
 90
        8
176
     1
 62
     7
176
     1
 40
1.0
176
     1
 90
        1
176
     1
 90
        6
176
     1
 90
        2
176
     1
 62
     7
176
     1
 90
        5
176
     1
 90
        0
176
     1
 90
        0
176
     1
290
     0
176
     1
 90
        1
176
     1
 40
-50.0
176
     1
 90
        0
176
     1
290
     0
176
     1
290
     1
176
     1
290
     1
176
     1
290
     0
176
     1
290
     0
176
     1
290
     0
176
     1
290
     0
176
     1
290
     0
176
     1
290
     0
176
     1
 90
       50
176
     1
 40
0.0
176
     1
 40
1.0
176
     1
 90
        0
176
     1
 62
    18
420
        0
176
     1
 90
       50
176
     1
 90
        3
176
     1
 62
     5
420
      255
176
     1
290
     0
176
     1
 90
       50
176
     1
 90
       50
176
     1
 90
       50
176
     1
290
     0
176
     1
 90
       50
176
     1
 62
   256
176
     0
 40
1.0
176
     0
 90
        2
176
     1
  1
strokes_ogs.tif
176
     1
290
     0
176
     1
 40
1.0
176
     1
 40
1.0
176
     1
  0
VISUALSTYLE
  5
BE847
102
{ACAD_REACTORS
330
BE834
102
}
330
BE834
100
AcDbVisualStyle
  2
EdgeColorOff
 70
    22
177
     3
291
     1
 70
    58
 90
        2
176
     0
 90
        2
176
     0
 90
        0
176
     0
 90
        0
176
     0
 40
0.6
176
     0
 40
30.0
176
     0
 62
     7
420
 16777215
176
     0
 90
        1
176
     0
 90
        4
176
     0
 62
     7
176
     0
 62
   257
176
     0
 90
        1
176
     0
 90
        1
176
     0
 40
1.0
176
     0
 90
        8
176
     2
 62
     7
176
     0
 40
1.0
176
     0
 90
        1
176
     0
 90
        6
176
     0
 90
        2
176
     0
 62
     7
176
     0
 90
        5
176
     0
 90
        0
176
     0
 90
        0
176
     0
290
     0
176
     0
 90
        1
176
     0
 40
0.0
176
     0
 90
        0
176
     0
290
     0
176
     0
290
     1
176
     0
290
     1
176
     0
290
     0
176
     0
290
     0
176
     0
290
     0
176
     0
290
     0
176
     0
290
     0
176
     0
290
     0
176
     0
 90
       50
176
     0
 40
0.0
176
     0
 40
1.0
176
     0
 90
        0
176
     0
 62
    18
420
        0
176
     0
 90
       50
176
     0
 90
        3
176
     0
 62
     5
420
      255
176
     0
290
     0
176
     0
 90
       50
176
     0
 90
       50
176
     0
 90
       50
176
     0
290
     0
176
     0
 90
       50
176
     0
 62
   256
176
     0
 40
1.0
176
     0
 90
        2
176
     0
  1
strokes_ogs.tif
176
     0
290
     0
176
     0
 40
1.0
176
     0
 40
1.0
176
     0
  0
VISUALSTYLE
  5
BE843
102
{ACAD_REACTORS
330
BE834
102
}
330
BE834
100
AcDbVisualStyle
  2
Facepattern
 70
    15
177
     3
291
     1
 70
    58
 90
        2
176
     1
 90
        2
176
     1
 90
        0
176
     1
 90
        0
176
     1
 40
0.6
176
     1
 40
30.0
176
     1
 62
     7
420
 16777215
176
     1
 90
        1
176
     1
 90
        4
176
     1
 62
     7
176
     1
 62
   257
176
     1
 90
        1
176
     1
 90
        1
176
     1
 40
1.0
176
     1
 90
        8
176
     1
 62
     7
176
     1
 40
1.0
176
     1
 90
        1
176
     1
 90
        6
176
     1
 90
        2
176
     1
 62
     7
176
     1
 90
        5
176
     1
 90
        0
176
     1
 90
        0
176
     1
290
     0
176
     1
 90
        1
176
     1
 40
0.0
176
     1
 90
        0
176
     1
290
     0
176
     1
290
     1
176
     1
290
     1
176
     1
290
     0
176
     1
290
     0
176
     1
290
     0
176
     1
290
     0
176
     1
290
     0
176
     1
290
     0
176
     1
 90
       50
176
     1
 40
0.0
176
     1
 40
1.0
176
     1
 90
        0
176
     1
 62
    18
420
        0
176
     1
 90
       50
176
     1
 90
        3
176
     1
 62
     5
420
      255
176
     1
290
     0
176
     1
 90
       50
176
     1
 90
       50
176
     1
 90
       50
176
     1
290
     0
176
     1
 90
       50
176
     1
 62
   256
176
     0
 40
1.0
176
     0
 90
        2
176
     1
  1
strokes_ogs.tif
176
     1
290
     0
176
     1
 40
1.0
176
     1
 40
1.0
176
     1
  0
VISUALSTYLE
  5
BE835
102
{ACAD_REACTORS
330
BE834
102
}
330
BE834
100
AcDbVisualStyle
  2
Flat
 70
     0
177
     3
291
     1
 70
    58
 90
        2
176
     1
 90
        1
176
     1
 90
        1
176
     1
 90
        2
176
     1
 40
0.6
176
     1
 40
30.0
176
     1
 62
     7
420
 16777215
176
     1
 90
        0
176
     1
 90
        0
176
     1
 62
     7
176
     1
 62
   257
176
     1
 90
        1
176
     1
 90
        1
176
     1
 40
1.0
176
     1
 90
        8
176
     1
 62
     7
176
     1
 40
1.0
176
     1
 90
        1
176
     1
 90
        6
176
     1
 90
        2
176
     1
 62
     7
176
     1
 90
        5
176
     1
 90
        0
176
     1
 90
        0
176
     1
290
     0
176
     1
 90
       13
176
     1
 40
0.0
176
     1
 90
        0
176
     1
290
     0
176
     1
290
     1
176
     1
290
     1
176
     1
290
     0
176
     1
290
     0
176
     1
290
     0
176
     1
290
     0
176
     1
290
     0
176
     1
290
     0
176
     1
 90
       50
176
     1
 40
0.0
176
     1
 40
1.0
176
     1
 90
        0
176
     1
 62
    18
420
        0
176
     1
 90
       50
176
     1
 90
        3
176
     1
 62
     5
420
      255
176
     1
290
     0
176
     1
 90
       50
176
     1
 90
       50
176
     1
 90
       50
176
     1
290
     0
176
     1
 90
       50
176
     1
 62
   256
176
     0
 40
1.0
176
     0
 90
        2
176
     1
  1
strokes_ogs.tif
176
     1
290
     0
176
     1
 40
1.0
176
     1
 40
1.0
176
     1
  0
VISUALSTYLE
  5
BE836
102
{ACAD_REACTORS
330
BE834
102
}
330
BE834
100
AcDbVisualStyle
  2
FlatWithEdges
 70
     1
177
     3
291
     1
 70
    58
 90
        2
176
     1
 90
        1
176
     1
 90
        1
176
     1
 90
        2
176
     1
 40
0.6
176
     1
 40
30.0
176
     1
 62
     7
420
 16777215
176
     1
 90
        1
176
     1
 90
        0
176
     1
 62
     7
176
     1
 62
   257
176
     1
 90
        1
176
     1
 90
        1
176
     1
 40
1.0
176
     1
 90
        0
176
     1
 62
   257
176
     1
 40
1.0
176
     1
 90
        1
176
     1
 90
        6
176
     1
 90
        2
176
     1
 62
     7
176
     1
 90
        5
176
     1
 90
        0
176
     1
 90
        0
176
     1
290
     0
176
     1
 90
       13
176
     1
 40
0.0
176
     1
 90
        0
176
     1
290
     0
176
     1
290
     1
176
     1
290
     1
176
     1
290
     0
176
     1
290
     0
176
     1
290
     0
176
     1
290
     0
176
     1
290
     0
176
     1
290
     0
176
     1
 90
       50
176
     1
 40
0.0
176
     1
 40
1.0
176
     1
 90
        0
176
     1
 62
    18
420
        0
176
     1
 90
       50
176
     1
 90
        3
176
     1
 62
     5
420
      255
176
     1
290
     0
176
     1
 90
       50
176
     1
 90
       50
176
     1
 90
       50
176
     1
290
     0
176
     1
 90
       50
176
     1
 62
   256
176
     0
 40
1.0
176
     0
 90
        2
176
     1
  1
strokes_ogs.tif
176
     1
290
     0
176
     1
 40
1.0
176
     1
 40
1.0
176
     1
  0
VISUALSTYLE
  5
BE837
102
{ACAD_REACTORS
330
BE834
102
}
330
BE834
100
AcDbVisualStyle
  2
Gouraud
 70
     2
177
     3
291
     1
 70
    58
 90
        2
176
     1
 90
        2
176
     1
 90
        1
176
     1
 90
        2
176
     1
 40
0.6
176
     1
 40
30.0
176
     1
 62
     7
420
 16777215
176
     1
 90
        0
176
     1
 90
        0
176
     1
 62
     7
176
     1
 62
   257
176
     1
 90
        1
176
     1
 90
        1
176
     1
 40
1.0
176
     1
 90
        0
176
     1
 62
     7
176
     1
 40
1.0
176
     1
 90
        1
176
     1
 90
        6
176
     1
 90
        2
176
     1
 62
     7
176
     1
 90
        5
176
     1
 90
        0
176
     1
 90
        0
176
     1
290
     0
176
     1
 90
       13
176
     1
 40
0.0
176
     1
 90
        0
176
     1
290
     0
176
     1
290
     1
176
     1
290
     1
176
     1
290
     0
176
     1
290
     0
176
     1
290
     0
176
     1
290
     0
176
     1
290
     0
176
     1
290
     0
176
     1
 90
       50
176
     1
 40
0.0
176
     1
 40
1.0
176
     1
 90
        0
176
     1
 62
    18
420
        0
176
     1
 90
       50
176
     1
 90
        3
176
     1
 62
     5
420
      255
176
     1
290
     0
176
     1
 90
       50
176
     1
 90
       50
176
     1
 90
       50
176
     1
290
     0
176
     1
 90
       50
176
     1
 62
   256
176
     0
 40
1.0
176
     0
 90
        2
176
     1
  1
strokes_ogs.tif
176
     1
290
     0
176
     1
 40
1.0
176
     1
 40
1.0
176
     1
  0
VISUALSTYLE
  5
BE838
102
{ACAD_REACTORS
330
BE834
102
}
330
BE834
100
AcDbVisualStyle
  2
GouraudWithEdges
 70
     3
177
     3
291
     1
 70
    58
 90
        2
176
     1
 90
        2
176
     1
 90
        1
176
     1
 90
        2
176
     1
 40
0.6
176
     1
 40
30.0
176
     1
 62
     7
420
 16777215
176
     1
 90
        1
176
     1
 90
        0
176
     1
 62
     7
176
     1
 62
   257
176
     1
 90
        1
176
     1
 90
        1
176
     1
 40
1.0
176
     1
 90
        0
176
     1
 62
   257
176
     1
 40
1.0
176
     1
 90
        1
176
     1
 90
        6
176
     1
 90
        2
176
     1
 62
     7
176
     1
 90
        5
176
     1
 90
        0
176
     1
 90
        0
176
     1
290
     0
176
     1
 90
       13
176
     1
 40
0.0
176
     1
 90
        0
176
     1
290
     0
176
     1
290
     1
176
     1
290
     1
176
     1
290
     0
176
     1
290
     0
176
     1
290
     0
176
     1
290
     0
176
     1
290
     0
176
     1
290
     0
176
     1
 90
       50
176
     1
 40
0.0
176
     1
 40
1.0
176
     1
 90
        0
176
     1
 62
    18
420
        0
176
     1
 90
       50
176
     1
 90
        3
176
     1
 62
     5
420
      255
176
     1
290
     0
176
     1
 90
       50
176
     1
 90
       50
176
     1
 90
       50
176
     1
290
     0
176
     1
 90
       50
176
     1
 62
   256
176
     0
 40
1.0
176
     0
 90
        2
176
     1
  1
strokes_ogs.tif
176
     1
290
     0
176
     1
 40
1.0
176
     1
 40
1.0
176
     1
  0
VISUALSTYLE
  5
BE83B
102
{ACAD_REACTORS
330
BE834
102
}
330
BE834
100
AcDbVisualStyle
  2
Hidden
 70
     6
177
     3
291
     0
 70
    58
 90
        1
176
     1
 90
        2
176
     1
 90
        2
176
     1
 90
        0
176
     1
 40
0.6
176
     1
 40
30.0
176
     1
 62
     7
420
 16777215
176
     1
 90
        2
176
     1
 90
        2
176
     1
 62
     7
176
     1
 62
   257
176
     1
 90
        2
176
     1
 90
        1
176
     1
 40
40.0
176
     1
 90
        0
176
     1
 62
   257
176
     1
 40
1.0
176
     1
 90
        1
176
     1
 90
        6
176
     1
 90
        2
176
     1
 62
     7
176
     1
 90
        3
176
     1
 90
        0
176
     1
 90
        0
176
     1
290
     0
176
     1
 90
        1
176
     1
 40
0.0
176
     1
 90
        0
176
     1
290
     0
176
     1
290
     1
176
     1
290
     1
176
     1
290
     0
176
     1
290
     0
176
     1
290
     0
176
     1
290
     0
176
     1
290
     0
176
     1
290
     0
176
     1
 90
       50
176
     1
 40
0.0
176
     1
 40
1.0
176
     1
 90
        0
176
     1
 62
    18
420
        0
176
     1
 90
       50
176
     1
 90
        3
176
     1
 62
     5
420
      255
176
     1
290
     0
176
     1
 90
       50
176
     1
 90
       50
176
     1
 90
       50
176
     1
290
     0
176
     1
 90
       50
176
     1
 62
   256
176
     0
 40
1.0
176
     0
 90
        2
176
     1
  1
strokes_ogs.tif
176
     1
290
     0
176
     1
 40
1.0
176
     1
 40
1.0
176
     1
  0
VISUALSTYLE
  5
BE845
102
{ACAD_REACTORS
330
BE834
102
}
330
BE834
100
AcDbVisualStyle
  2
JitterOff
 70
    20
177
     3
291
     1
 70
    58
 90
        2
176
     0
 90
        2
176
     0
 90
        0
176
     0
 90
        0
176
     0
 40
0.6
176
     0
 40
30.0
176
     0
 62
     7
420
 16777215
176
     0
 90
        1
176
     0
 90
        4
176
     0
 62
     7
176
     0
 62
   257
176
     0
 90
        1
176
     0
 90
        1
176
     0
 40
1.0
176
     0
 90
       10
176
     2
 62
     7
176
     0
 40
1.0
176
     0
 90
        1
176
     0
 90
        6
176
     0
 90
        2
176
     0
 62
     7
176
     0
 90
        5
176
     0
 90
        0
176
     0
 90
        0
176
     0
290
     0
176
     0
 90
        1
176
     0
 40
0.0
176
     0
 90
        0
176
     0
290
     0
176
     0
290
     1
176
     0
290
     1
176
     0
290
     0
176
     0
290
     0
176
     0
290
     0
176
     0
290
     0
176
     0
290
     0
176
     0
290
     0
176
     0
 90
       50
176
     0
 40
0.0
176
     0
 40
1.0
176
     0
 90
        0
176
     0
 62
    18
420
        0
176
     0
 90
       50
176
     0
 90
        3
176
     0
 62
     5
420
      255
176
     0
290
     0
176
     0
 90
       50
176
     0
 90
       50
176
     0
 90
       50
176
     0
290
     0
176
     0
 90
       50
176
     0
 62
   256
176
     0
 40
1.0
176
     0
 90
        2
176
     0
  1
strokes_ogs.tif
176
     0
290
     0
176
     0
 40
1.0
176
     0
 40
1.0
176
     0
  0
VISUALSTYLE
  5
BE842
102
{ACAD_REACTORS
330
BE834
102
}
330
BE834
100
AcDbVisualStyle
  2
Linepattern
 70
    14
177
     3
291
     1
 70
    58
 90
        2
176
     1
 90
        2
176
     1
 90
        0
176
     1
 90
        0
176
     1
 40
0.6
176
     1
 40
30.0
176
     1
 62
     7
420
 16777215
176
     1
 90
        1
176
     1
 90
        4
176
     1
 62
     7
176
     1
 62
   257
176
     1
 90
        7
176
     1
 90
        7
176
     1
 40
1.0
176
     1
 90
        8
176
     1
 62
     7
176
     1
 40
1.0
176
     1
 90
        1
176
     1
 90
        6
176
     1
 90
        2
176
     1
 62
     7
176
     1
 90
        5
176
     1
 90
        0
176
     1
 90
        0
176
     1
290
     0
176
     1
 90
        1
176
     1
 40
0.0
176
     1
 90
        0
176
     1
290
     0
176
     1
290
     1
176
     1
290
     1
176
     1
290
     0
176
     1
290
     0
176
     1
290
     0
176
     1
290
     0
176
     1
290
     0
176
     1
290
     0
176
     1
 90
       50
176
     1
 40
0.0
176
     1
 40
1.0
176
     1
 90
        0
176
     1
 62
    18
420
        0
176
     1
 90
       50
176
     1
 90
        3
176
     1
 62
     5
420
      255
176
     1
290
     0
176
     1
 90
       50
176
     1
 90
       50
176
     1
 90
       50
176
     1
290
     0
176
     1
 90
       50
176
     1
 62
   256
176
     0
 40
1.0
176
     0
 90
        2
176
     1
  1
strokes_ogs.tif
176
     1
290
     0
176
     1
 40
1.0
176
     1
 40
1.0
176
     1
  0
VISUALSTYLE
  5
BE846
102
{ACAD_REACTORS
330
BE834
102
}
330
BE834
100
AcDbVisualStyle
  2
OverhangOff
 70
    21
177
     3
291
     1
 70
    58
 90
        2
176
     0
 90
        2
176
     0
 90
        0
176
     0
 90
        0
176
     0
 40
0.6
176
     0
 40
30.0
176
     0
 62
     7
420
 16777215
176
     0
 90
        1
176
     0
 90
        4
176
     0
 62
     7
176
     0
 62
   257
176
     0
 90
        1
176
     0
 90
        1
176
     0
 40
1.0
176
     0
 90
        9
176
     2
 62
     7
176
     0
 40
1.0
176
     0
 90
        1
176
     0
 90
        6
176
     0
 90
        2
176
     0
 62
     7
176
     0
 90
        5
176
     0
 90
        0
176
     0
 90
        0
176
     0
290
     0
176
     0
 90
        1
176
     0
 40
0.0
176
     0
 90
        0
176
     0
290
     0
176
     0
290
     1
176
     0
290
     1
176
     0
290
     0
176
     0
290
     0
176
     0
290
     0
176
     0
290
     0
176
     0
290
     0
176
     0
290
     0
176
     0
 90
       50
176
     0
 40
0.0
176
     0
 40
1.0
176
     0
 90
        0
176
     0
 62
    18
420
        0
176
     0
 90
       50
176
     0
 90
        3
176
     0
 62
     5
420
      255
176
     0
290
     0
176
     0
 90
       50
176
     0
 90
       50
176
     0
 90
       50
176
     0
290
     0
176
     0
 90
       50
176
     0
 62
   256
176
     0
 40
1.0
176
     0
 90
        2
176
     0
  1
strokes_ogs.tif
176
     0
290
     0
176
     0
 40
1.0
176
     0
 40
1.0
176
     0
  0
VISUALSTYLE
  5
BE83D
102
{ACAD_REACTORS
330
BE834
102
}
330
BE834
100
AcDbVisualStyle
  2
Realistic
 70
     8
177
     3
291
     0
 70
    58
 90
        2
176
     1
 90
        3
176
     1
 90
        0
176
     1
 90
        2
176
     1
 40
0.6
176
     1
 40
30.0
176
     1
 62
     7
420
 16777215
176
     1
 90
        0
176
     1
 90
        0
176
     1
 62
     7
176
     1
 62
   257
176
     1
 90
        1
176
     1
 90
        1
176
     1
 40
1.0
176
     1
 90
        8
176
     1
 62
   257
176
     1
 40
1.0
176
     1
 90
        1
176
     1
 90
        6
176
     1
 90
        2
176
     1
 62
     7
176
     1
 90
        3
176
     1
 90
        0
176
     1
 90
        0
176
     1
290
     0
176
     1
 90
       13
176
     1
 40
0.0
176
     1
 90
        0
176
     1
290
     0
176
     1
290
     1
176
     1
290
     1
176
     1
290
     0
176
     1
290
     0
176
     1
290
     0
176
     1
290
     0
176
     1
290
     0
176
     1
290
     0
176
     1
 90
       50
176
     1
 40
0.0
176
     1
 40
1.0
176
     1
 90
        0
176
     1
 62
    18
420
        0
176
     1
 90
       50
176
     1
 90
        3
176
     1
 62
     5
420
      255
176
     1
290
     0
176
     1
 90
       50
176
     1
 90
       50
176
     1
 90
       50
176
     1
290
     0
176
     1
 90
       50
176
     1
 62
   256
176
     0
 40
1.0
176
     0
 90
        2
176
     1
  1
strokes_ogs.tif
176
     1
290
     0
176
     1
 40
1.0
176
     1
 40
1.0
176
     1
  0
VISUALSTYLE
  5
BE84C
102
{ACAD_REACTORS
330
BE834
102
}
330
BE834
100
AcDbVisualStyle
  2
Shaded
 70
    27
177
     3
291
     0
 70
    58
 90
        2
176
     1
 90
        2
176
     1
 90
        1
176
     1
 90
        2
176
     1
 40
0.6
176
     1
 40
30.0
176
     1
 62
     7
420
 16777215
176
     1
 90
        0
176
     1
 90
        4
176
     1
 62
     7
176
     1
 62
   257
176
     1
 90
        1
176
     1
 90
        1
176
     1
 40
1.0
176
     1
 90
        8
176
     1
 62
   257
176
     1
 40
1.0
176
     1
 90
        1
176
     1
 90
        6
176
     1
 90
        2
176
     1
 62
     8
420
  7895160
176
     1
 90
        3
176
     1
 90
        0
176
     1
 90
        0
176
     1
290
     0
176
     1
 90
        5
176
     1
 40
0.0
176
     1
 90
        0
176
     1
290
     0
176
     1
290
     1
176
     1
290
     1
176
     1
290
     0
176
     1
290
     0
176
     1
290
     0
176
     1
290
     0
176
     1
290
     0
176
     1
290
     0
176
     1
 90
       50
176
     1
 40
0.0
176
     1
 40
1.0
176
     1
 90
        0
176
     1
 62
    18
420
        0
176
     1
 90
       50
176
     1
 90
        3
176
     1
 62
     5
420
      255
176
     1
290
     0
176
     1
 90
       50
176
     1
 90
       50
176
     1
 90
       50
176
     1
290
     0
176
     1
 90
       50
176
     1
 62
   256
176
     0
 40
1.0
176
     0
 90
        2
176
     1
  1
strokes_ogs.tif
176
     1
290
     0
176
     1
 40
1.0
176
     1
 40
1.0
176
     1
  0
VISUALSTYLE
  5
BE84B
102
{ACAD_REACTORS
330
BE834
102
}
330
BE834
100
AcDbVisualStyle
  2
Shaded with edges
 70
    26
177
     3
291
     0
 70
    58
 90
        2
176
     1
 90
        2
176
     1
 90
        1
176
     1
 90
        2
176
     1
 40
0.6
176
     1
 40
30.0
176
     1
 62
     7
420
 16777215
176
     1
 90
        1
176
     1
 90
       10
176
     1
 62
     7
176
     1
 62
   257
176
     1
 90
        2
176
     1
 90
        1
176
     1
 40
1.0
176
     1
 90
        8
176
     1
 62
   257
176
     1
 40
1.0
176
     1
 90
        1
176
     1
 90
        6
176
     1
 90
        2
176
     1
 62
     7
176
     1
 90
        3
176
     1
 90
        0
176
     1
 90
        0
176
     1
290
     0
176
     1
 90
        5
176
     1
 40
0.0
176
     1
 90
        0
176
     1
290
     0
176
     1
290
     1
176
     1
290
     1
176
     1
290
     0
176
     1
290
     0
176
     1
290
     0
176
     1
290
     0
176
     1
290
     0
176
     1
290
     0
176
     1
 90
       50
176
     1
 40
0.0
176
     1
 40
1.0
176
     1
 90
        0
176
     1
 62
    18
420
        0
176
     1
 90
       50
176
     1
 90
        3
176
     1
 62
     5
420
      255
176
     1
290
     0
176
     1
 90
       50
176
     1
 90
       50
176
     1
 90
       50
176
     1
290
     0
176
     1
 90
       50
176
     1
 62
   256
176
     0
 40
1.0
176
     0
 90
        2
176
     1
  1
strokes_ogs.tif
176
     1
290
     0
176
     1
 40
1.0
176
     1
 40
1.0
176
     1
  0
VISUALSTYLE
  5
BE848
102
{ACAD_REACTORS
330
BE834
102
}
330
BE834
100
AcDbVisualStyle
  2
Shades of Gray
 70
    23
177
     3
291
     0
 70
    58
 90
        2
176
     1
 90
        2
176
     1
 90
        3
176
     1
 90
        0
176
     1
 40
0.6
176
     1
 40
30.0
176
     1
 62
     7
420
 16777215
176
     1
 90
        2
176
     1
 90
        2
176
     1
 62
     7
176
     1
 62
     7
176
     1
 90
        1
176
     1
 90
        1
176
     1
 40
40.0
176
     1
 90
        8
176
     1
 62
     7
176
     1
 40
1.0
176
     1
 90
        1
176
     1
 90
        6
176
     1
 90
        2
176
     1
 62
     7
176
     1
 90
        3
176
     1
 90
        0
176
     1
 90
        0
176
     1
290
     0
176
     1
 90
        1
176
     1
 40
0.0
176
     1
 90
        0
176
     1
290
     0
176
     1
290
     1
176
     1
290
     1
176
     1
290
     0
176
     1
290
     0
176
     1
290
     0
176
     1
290
     0
176
     1
290
     0
176
     1
290
     0
176
     1
 90
       50
176
     1
 40
0.0
176
     1
 40
1.0
176
     1
 90
        0
176
     1
 62
    18
420
        0
176
     1
 90
       50
176
     1
 90
        3
176
     1
 62
     5
420
      255
176
     1
290
     0
176
     1
 90
       50
176
     1
 90
       50
176
     1
 90
       50
176
     1
290
     0
176
     1
 90
       50
176
     1
 62
   256
176
     0
 40
1.0
176
     0
 90
        2
176
     1
  1
strokes_ogs.tif
176
     1
290
     0
176
     1
 40
1.0
176
     1
 40
1.0
176
     1
  0
VISUALSTYLE
  5
BE849
102
{ACAD_REACTORS
330
BE834
102
}
330
BE834
100
AcDbVisualStyle
  2
Sketchy
 70
    24
177
     3
291
     0
 70
    58
 90
        1
176
     1
 90
        2
176
     1
 90
        2
176
     1
 90
        0
176
     1
 40
0.6
176
     1
 40
30.0
176
     1
 62
     7
420
 16777215
176
     1
 90
        2
176
     1
 90
        2
176
     1
 62
     7
176
     1
 62
     7
176
     1
 90
        1
176
     1
 90
        1
176
     1
 40
40.0
176
     1
 90
       11
176
     1
 62
     7
176
     1
 40
1.0
176
     1
 90
        1
176
     1
 90
        6
176
     1
 90
        2
176
     1
 62
     7
176
     1
 90
        6
176
     1
 90
        0
176
     1
 90
        0
176
     1
290
     0
176
     1
 90
        1
176
     1
 40
0.0
176
     1
 90
        0
176
     1
290
     0
176
     1
290
     1
176
     1
290
     1
176
     1
290
     0
176
     1
290
     0
176
     1
290
     0
176
     1
290
     0
176
     1
290
     0
176
     1
290
     0
176
     1
 90
       50
176
     1
 40
0.0
176
     1
 40
1.0
176
     1
 90
        0
176
     1
 62
    18
420
        0
176
     1
 90
       50
176
     1
 90
        3
176
     1
 62
     5
420
      255
176
     1
290
     0
176
     1
 90
       50
176
     1
 90
       50
176
     1
 90
       50
176
     1
290
     0
176
     1
 90
       50
176
     1
 62
   256
176
     0
 40
1.0
176
     0
 90
        2
176
     1
  1
strokes_ogs.tif
176
     1
290
     0
176
     1
 40
1.0
176
     1
 40
1.0
176
     1
  0
VISUALSTYLE
  5
BE841
102
{ACAD_REACTORS
330
BE834
102
}
330
BE834
100
AcDbVisualStyle
  2
Thicken
 70
    13
177
     3
291
     1
 70
    58
 90
        2
176
     1
 90
        2
176
     1
 90
        0
176
     1
 90
        0
176
     1
 40
0.6
176
     1
 40
30.0
176
     1
 62
     7
420
 16777215
176
     1
 90
        1
176
     1
 90
        4
176
     1
 62
     7
176
     1
 62
   257
176
     1
 90
        1
176
     1
 90
        1
176
     1
 40
1.0
176
     1
 90
       12
176
     1
 62
     7
176
     1
 40
1.0
176
     1
 90
        1
176
     1
 90
        6
176
     1
 90
        2
176
     1
 62
     7
176
     1
 90
        5
176
     1
 90
        0
176
     1
 90
        0
176
     1
290
     0
176
     1
 90
        1
176
     1
 40
0.0
176
     1
 90
        0
176
     1
290
     0
176
     1
290
     1
176
     1
290
     1
176
     1
290
     0
176
     1
290
     0
176
     1
290
     0
176
     1
290
     0
176
     1
290
     0
176
     1
290
     0
176
     1
 90
       50
176
     1
 40
0.0
176
     1
 40
1.0
176
     1
 90
        0
176
     1
 62
    18
420
        0
176
     1
 90
       50
176
     1
 90
        3
176
     1
 62
     5
420
      255
176
     1
290
     0
176
     1
 90
       50
176
     1
 90
       50
176
     1
 90
       50
176
     1
290
     0
176
     1
 90
       50
176
     1
 62
   256
176
     0
 40
1.0
176
     0
 90
        2
176
     1
  1
strokes_ogs.tif
176
     1
290
     0
176
     1
 40
1.0
176
     1
 40
1.0
176
     1
  0
VISUALSTYLE
  5
BE83A
102
{ACAD_REACTORS
330
BE834
102
}
330
BE834
100
AcDbVisualStyle
  2
Wireframe
 70
     5
177
     3
291
     0
 70
    58
 90
        0
176
     1
 90
        2
176
     1
 90
        0
176
     1
 90
        0
176
     1
 40
0.6
176
     1
 40
30.0
176
     1
 62
     7
420
 16777215
176
     1
 90
        1
176
     1
 90
        4
176
     1
 62
     7
176
     1
 62
   257
176
     1
 90
        1
176
     1
 90
        1
176
     1
 40
1.0
176
     1
 90
        0
176
     1
 62
   257
176
     1
 40
1.0
176
     1
 90
        1
176
     1
 90
        6
176
     1
 90
        2
176
     1
 62
     7
176
     1
 90
        3
176
     1
 90
        0
176
     1
 90
        0
176
     1
290
     0
176
     1
 90
        1
176
     1
 40
0.0
176
     1
 90
        0
176
     1
290
     0
176
     1
290
     1
176
     1
290
     1
176
     1
290
     0
176
     1
290
     0
176
     1
290
     0
176
     1
290
     0
176
     1
290
     0
176
     1
290
     0
176
     1
 90
       50
176
     1
 40
0.0
176
     1
 40
1.0
176
     1
 90
        0
176
     1
 62
    18
420
        0
176
     1
 90
       50
176
     1
 90
        3
176
     1
 62
     5
420
      255
176
     1
290
     0
176
     1
 90
       50
176
     1
 90
       50
176
     1
 90
       50
176
     1
290
     0
176
     1
 90
       50
176
     1
 62
   256
176
     0
 40
1.0
176
     0
 90
        2
176
     1
  1
strokes_ogs.tif
176
     1
290
     0
176
     1
 40
1.0
176
     1
 40
1.0
176
     1
  0
VISUALSTYLE
  5
BE84A
102
{ACAD_REACTORS
330
BE834
102
}
330
BE834
100
AcDbVisualStyle
  2
X-Ray
 70
    25
177
     3
291
     0
 70
    58
 90
        2
176
     1
 90
        2
176
     1
 90
        1
176
     1
 90
        1
176
     1
 40
0.5
176
     1
 40
30.0
176
     1
 62
     7
420
 16777215
176
     1
 90
        1
176
     1
 90
        0
176
     1
 62
     7
176
     1
 62
   257
176
     1
 90
        1
176
     1
 90
        1
176
     1
 40
1.0
176
     1
 90
        8
176
     1
 62
     7
176
     1
 40
1.0
176
     1
 90
        1
176
     1
 90
        6
176
     1
 90
        2
176
     1
 62
     7
176
     1
 90
        3
176
     1
 90
        0
176
     1
 90
        0
176
     1
290
     0
176
     1
 90
       13
176
     1
 40
0.0
176
     1
 90
        0
176
     1
290
     0
176
     1
290
     1
176
     1
290
     1
176
     1
290
     0
176
     1
290
     0
176
     1
290
     0
176
     1
290
     0
176
     1
290
     0
176
     1
290
     0
176
     1
 90
       50
176
     1
 40
0.0
176
     1
 40
1.0
176
     1
 90
        0
176
     1
 62
    18
420
        0
176
     1
 90
       50
176
     1
 90
        3
176
     1
 62
     5
420
      255
176
     1
290
     0
176
     1
 90
       50
176
     1
 90
       50
176
     1
 90
       50
176
     1
290
     0
176
     1
 90
       50
176
     1
 62
   256
176
     0
 40
1.0
176
     0
 90
        2
176
     1
  1
strokes_ogs.tif
176
     1
290
     0
176
     1
 40
1.0
176
     1
 40
1.0
176
     1
  0
DICTIONARYVAR
  5
BE857
102
{ACAD_REACTORS
330
11AC
102
}
330
11AC
100
DictionaryVariables
280
     0
  1
1:1
  0
DICTIONARYVAR
  5
BE859
102
{ACAD_REACTORS
330
11AC
102
}
330
11AC
100
DictionaryVariables
280
     0
  1
Standard
  0
DICTIONARYVAR
  5
BE858
102
{ACAD_REACTORS
330
11AC
102
}
330
11AC
100
DictionaryVariables
280
     0
  1
Standard
  0
DICTIONARYVAR
  5
11AD
102
{ACAD_REACTORS
330
11AC
102
}
330
11AC
100
DictionaryVariables
280
     0
  1
1
  0
DICTIONARYVAR
  5
A6C00
102
{ACAD_REACTORS
330
11AC
102
}
330
11AC
100
DictionaryVariables
280
     0
  1
ByLayer
  0
DICTIONARYVAR
  5
A2D8B
102
{ACAD_REACTORS
330
11AC
102
}
330
11AC
100
DictionaryVariables
280
     0
  1
0
  0
DICTIONARYVAR
  5
BE85A
102
{ACAD_REACTORS
330
11AC
102
}
330
11AC
100
DictionaryVariables
280
     0
  1
0
  0
DICTIONARYVAR
  5
AD08
102
{ACAD_REACTORS
330
11AC
102
}
330
11AC
100
DictionaryVariables
280
     0
  1
96
  0
XRECORD
  5
B335B
102
{ACAD_REACTORS
330
1E615
102
}
330
1E615
100
AcDbXrecord
280
     1
 91
    34815
301

290
     0
302
waku
330
E
 90
       24
 62
     7
370
    -3
331
14
  1
Color_7
440
 33554687
330
869
 90
        8
 62
     7
370
    -3
331
14
  1
Color_7
440
 33554687
330
8C6
 90
        8
 62
    40
370
    20
331
14
  1
Color_40
440
 33554687
330
1521
 90
        8
 62
     3
370
    30
331
14
  1
Color_3
440
 33554687
330
1523
 90
        8
 62
     7
370
    13
331
14
  1
Color_7
440
 33554687
330
89319
 90
        8
 62
     7
370
     5
331
14
  1
Color_7
440
 33554687
330
A2EBD
 90
        8
 62
     1
370
    13
331
8930E
  1
Color_1
440
 33554687
  0
DICTIONARY
  5
BE8AF
330
BE852
100
AcDbDictionary
280
     1
281
     1
  3
ACAD_ROUNDTRIP_2008_TABLESTYLE_CELLSTYLEMAP
360
BE8B0
  0
CELLSTYLEMAP
  5
BE8B0
102
{ACAD_REACTORS
330
BE8AF
102
}
330
BE8AF
100
AcDbCellStyleMap
 90
        3
300
CELLSTYLE
  1
TABLEFORMAT_BEGIN
 90
        5
170
     1
 91
        0
 92
    32768
 62
   257
 93
        1
300
CONTENTFORMAT
  1
CONTENTFORMAT_BEGIN
 90
        0
 91
        0
 92
        4
 93
        0
300

 40
0.0
140
1.0
 94
        5
 62
     0
340
F
144
0.25
309
CONTENTFORMAT_END
171
     1
301
MARGIN
  1
CELLMARGIN_BEGIN
 40
0.06
 40
0.06
 40
0.06
 40
0.06
 40
0.06
 40
0.06
309
CELLMARGIN_END
 94
        6
 95
        1
302
GRIDFORMAT
  1
GRIDFORMAT_BEGIN
 90
        0
 91
        1
 62
     0
 92
       -2
340
12
 93
        0
 40
0.045
309
GRIDFORMAT_END
 95
        2
302
GRIDFORMAT
  1
GRIDFORMAT_BEGIN
 90
        0
 91
        1
 62
     0
 92
       -2
340
12
 93
        0
 40
0.045
309
GRIDFORMAT_END
 95
        4
302
GRIDFORMAT
  1
GRIDFORMAT_BEGIN
 90
        0
 91
        1
 62
     0
 92
       -2
340
12
 93
        0
 40
0.045
309
GRIDFORMAT_END
 95
        8
302
GRIDFORMAT
  1
GRIDFORMAT_BEGIN
 90
        0
 91
        1
 62
     0
 92
       -2
340
12
 93
        0
 40
0.045
309
GRIDFORMAT_END
 95
       16
302
GRIDFORMAT
  1
GRIDFORMAT_BEGIN
 90
        0
 91
        1
 62
     0
 92
       -2
340
12
 93
        0
 40
0.045
309
GRIDFORMAT_END
 95
       32
302
GRIDFORMAT
  1
GRIDFORMAT_BEGIN
 90
        0
 91
        1
 62
     0
 92
       -2
340
12
 93
        0
 40
0.045
309
GRIDFORMAT_END
309
TABLEFORMAT_END
  1
CELLSTYLE_BEGIN
 90
        1
 91
        1
300
_TITLE
309
CELLSTYLE_END
300
CELLSTYLE
  1
TABLEFORMAT_BEGIN
 90
        5
170
     1
 91
        0
 92
        0
 62
   257
 93
        1
300
CONTENTFORMAT
  1
CONTENTFORMAT_BEGIN
 90
        0
 91
        0
 92
        4
 93
        0
300

 40
0.0
140
1.0
 94
        5
 62
     0
340
F
144
0.18
309
CONTENTFORMAT_END
171
     1
301
MARGIN
  1
CELLMARGIN_BEGIN
 40
0.06
 40
0.06
 40
0.06
 40
0.06
 40
0.06
 40
0.06
309
CELLMARGIN_END
 94
        6
 95
        1
302
GRIDFORMAT
  1
GRIDFORMAT_BEGIN
 90
        0
 91
        1
 62
     0
 92
       -2
340
12
 93
        0
 40
0.045
309
GRIDFORMAT_END
 95
        2
302
GRIDFORMAT
  1
GRIDFORMAT_BEGIN
 90
        0
 91
        1
 62
     0
 92
       -2
340
12
 93
        0
 40
0.045
309
GRIDFORMAT_END
 95
        4
302
GRIDFORMAT
  1
GRIDFORMAT_BEGIN
 90
        0
 91
        1
 62
     0
 92
       -2
340
12
 93
        0
 40
0.045
309
GRIDFORMAT_END
 95
        8
302
GRIDFORMAT
  1
GRIDFORMAT_BEGIN
 90
        0
 91
        1
 62
     0
 92
       -2
340
12
 93
        0
 40
0.045
309
GRIDFORMAT_END
 95
       16
302
GRIDFORMAT
  1
GRIDFORMAT_BEGIN
 90
        0
 91
        1
 62
     0
 92
       -2
340
12
 93
        0
 40
0.045
309
GRIDFORMAT_END
 95
       32
302
GRIDFORMAT
  1
GRIDFORMAT_BEGIN
 90
        0
 91
        1
 62
     0
 92
       -2
340
12
 93
        0
 40
0.045
309
GRIDFORMAT_END
309
TABLEFORMAT_END
  1
CELLSTYLE_BEGIN
 90
        2
 91
        1
300
_HEADER
309
CELLSTYLE_END
300
CELLSTYLE
  1
TABLEFORMAT_BEGIN
 90
        5
170
     1
 91
        0
 92
        0
 62
   257
 93
        1
300
CONTENTFORMAT
  1
CONTENTFORMAT_BEGIN
 90
        0
 91
        0
 92
        4
 93
        0
300

 40
0.0
140
1.0
 94
        2
 62
     0
340
F
144
0.18
309
CONTENTFORMAT_END
171
     1
301
MARGIN
  1
CELLMARGIN_BEGIN
 40
0.06
 40
0.06
 40
0.06
 40
0.06
 40
0.06
 40
0.06
309
CELLMARGIN_END
 94
        6
 95
        1
302
GRIDFORMAT
  1
GRIDFORMAT_BEGIN
 90
        0
 91
        1
 62
     0
 92
       -2
340
12
 93
        0
 40
0.045
309
GRIDFORMAT_END
 95
        2
302
GRIDFORMAT
  1
GRIDFORMAT_BEGIN
 90
        0
 91
        1
 62
     0
 92
       -2
340
12
 93
        0
 40
0.045
309
GRIDFORMAT_END
 95
        4
302
GRIDFORMAT
  1
GRIDFORMAT_BEGIN
 90
        0
 91
        1
 62
     0
 92
       -2
340
12
 93
        0
 40
0.045
309
GRIDFORMAT_END
 95
        8
302
GRIDFORMAT
  1
GRIDFORMAT_BEGIN
 90
        0
 91
        1
 62
     0
 92
       -2
340
12
 93
        0
 40
0.045
309
GRIDFORMAT_END
 95
       16
302
GRIDFORMAT
  1
GRIDFORMAT_BEGIN
 90
        0
 91
        1
 62
     0
 92
       -2
340
12
 93
        0
 40
0.045
309
GRIDFORMAT_END
 95
       32
302
GRIDFORMAT
  1
GRIDFORMAT_BEGIN
 90
        0
 91
        1
 62
     0
 92
       -2
340
12
 93
        0
 40
0.045
309
GRIDFORMAT_END
309
TABLEFORMAT_END
  1
CELLSTYLE_BEGIN
 90
        3
 91
        2
300
_DATA
309
CELLSTYLE_END
  0
ENDSEC
  0
SECTION
  2
ACDSDATA
 70
     2
 71
     2
  0
ACDSSCHEMA
 90
        0
  1
AcDb_Thumbnail_Schema
  2
AcDbDs::ID
280
    10
 91
        8
  2
Thumbnail_Data
280
    15
 91
        0
101
ACDSRECORD
 95
        0
 90
        2
  2
AcDbDs::TreatedAsObjectData
280
     1
291
     1
101
ACDSRECORD
 95
        0
 90
        3
  2
AcDbDs::Legacy
280
     1
291
     1
101
ACDSRECORD
  1
AcDbDs::ID
 90
        4
  2
AcDs:Indexable
280
     1
291
     1
101
ACDSRECORD
  1
AcDbDs::ID
 90
        5
  2
AcDbDs::HandleAttribute
280
     7
282
     1
  0
ACDSSCHEMA
 90
        1
  1
AcDb3DSolid_ASM_Data
  2
AcDbDs::ID
280
    10
 91
        8
  2
ASM_Data
280
    15
 91
        0
101
ACDSRECORD
 95
        1
 90
        2
  2
AcDbDs::TreatedAsObjectData
280
     1
291
     1
101
ACDSRECORD
 95
        1
 90
        3
  2
AcDbDs::Legacy
280
     1
291
     1
101
ACDSRECORD
  1
AcDbDs::ID
 90
        4
  2
AcDs:Indexable
280
     1
291
     1
101
ACDSRECORD
  1
AcDbDs::ID
 90
        5
  2
AcDbDs::HandleAttribute
280
     7
282
     1
  0
ACDSSCHEMA
 90
        2
  1
AcDbDs::TreatedAsObjectDataSchema
  2
AcDbDs::TreatedAsObjectData
280
     1
 91
        0
  0
ACDSSCHEMA
 90
        3
  1
AcDbDs::LegacySchema
  2
AcDbDs::Legacy
280
     1
 91
        0
  0
ACDSSCHEMA
 90
        4
  1
AcDbDs::IndexedPropertySchema
  2
AcDs:Indexable
280
     1
 91
        0
  0
ACDSSCHEMA
 90
        5
  1
AcDbDs::HandleAttributeSchema
  2
AcDbDs::HandleAttribute
280
     7
 91
        1
284
     1
  0
ACDSRECORD
 90
        0
  2
AcDbDs::ID
280
    10
320
741
  2
Thumbnail_Data
280
    15
 94
     4568
310
89504E470D0A1A0A0000000D4948445200000100000000D508020000003794B919000000097048597300000EC400000EC401952B0E1B0000118A49444154789CEDDD7B7C54E59DC7F1CFDC3299995C271713244120DC2F7207A116D1285A6B6D516BBBA2EEBA5ADBD5AA6B2F74ABAD6CADB7EDDA6ED5D5D522F625EAAAB4DA
310
D56EAD8A5CBC109170135424216080047299845C279949A67F24910993492675CEE4C2F7FDE28FC939CF73CE2FBCE697F39CE73CE77940444444444444444444444444444444444444444444444444444444444444444444444444444444444444444444444444444444444444444444444444444444444444444444444444
310
444444444444444444444444444444444444440689A9031DC0F0601DD8D39BC00DD5031BC4D061063B8C834C9805590078E043F00F70684395C109608285BDED37434E9F09F05E34238A542EE4445CF8307C16ED005260CA899FB2CB989C4E7B1C2DB0053E046A599702900A8BC0DACCA152F64D083A42291C8A7654C38EC9
310
C0635BE10918057B8236A6C0E5E0846A3806E02CA6290FF2200EEAE175280B2A9F06757033B41B18690F5E85B6F05FEB6FC1F35D9F47C1477047344F6E49B358FF681DEB199B3625AD7A7CF585BF4DAB75FBF62C6FFFB8E2E386EA868E32F905AC3BABB37C9E332F3D372D6347CA84F54D8553BC6D0DF1F50DF56DB3DA4AAE
310
2969DCDD18CDC8861DC312C00A4FE04EC1B386945D3497D01207BF80ABE13D780876C3716CB0103601A7C144B8062E8547E01EF091350E4F0EAEB3A8C982DBA0CDA8607BF03EFC3BBC1666EF76B8B0EBF3B9302DAA0990C6F817C7A7FCD9E9484D4E4A68F27FB5E6B83573B377B37D95BDE589163ABFFFE4C3BACFABC4C1D7
310
C85D917B7AD3E9739E496CDA5EFD69BE636495B5E8C6FA6DD76FE3C3E8C536EC18D6049A0C7978EE65F4ED60A5F667F0086C857970A4A7F2C7E0186C82FB60056C861F31EE7A46FB78FA31B80B4643B151C1F69B1D7EDFF5391DDE8CEAC17F86ED355BC678FF888A6DDE33A697584EFBF499F7B88B96404BD82AADF0074AFF
310
505ABABCF4C88ADC29FB462DD95758923336E191B4EC87B3CB17974735BE61C5C87B806252B651D38E3915FE0A37C27311D5E206B80E5EC1FB1A7B6B49AAA2AEA1EF7A31E585AF747D5E0A5F8EE6B1478E1A99FE5E7A1E9ED28BC71E3D275070E7E651F7901A61FA3F436979A97F9D3F6BF399594F96EFDE694E75A796A304
310
08CB6CE8D1EB2BA9FD3E9E242883C2FED45C0D07D9BA800F1EA4B1C4A8F0062D7F7373F356F7D151CE825505BCC3679001CE082BEFA3ECB1B237B30F6FAD4A9A91971708040C0D75A8333601DA92E075F8394C807D21BB5DB48FA3622E24F754793A7C17FE9FB601EEAA1D00F3D2DC7BEEF0153C56C00DF0364021CC8DB0F2
310
21F8170EFFF3E1BA872D8186CA40FB7103031DFA0C4B00377C0D8AE04DF8DF90BDE7C35628A2FD0DCAEF8123F0173827A4D86BB007EE372AC6B05C03F99C296797A7E4FCBACDBECDFCEAC4461F94436EE447D940F1AAE23D37378C3D9010FD108711C312E006D800DF861BBBF760C6C163F00298A19A40117E371C84445803
310
BF09B92BF91E7C05E28D0AB3674BC115DB3306C9F1C61F9AE5E59E93B7EF836C88FCEBDCF07043D5995539DBECE93307EE9719F48C49807858068FC0FA905DBF86F9F0190B1E77392E8BCBBB808BE7E0BAC431F6B5788EC2B9706FF7F2D5B0152E3224CC70DC4DC4B5C43AE93AD8E1F87C67516B119B7BD8BB05E645DE755D
310
8BE735CF81B3DC73CE4B8B6688C38B3109702954C10721DBF3E19BE0806FD0686DCD9FE1B381152E58E84DAB6AE31F00B802BED4BDD64B603324CC702CED9802117FCF16C1DEA89D7A2E6CE470FDAAFA7005F6C034C00A0EB0F771B4C6558D4727D7A6CE72442DBE61277A379873C005CD60824BE003680E29B3020EC06A66
310
1DC4FE52DAA7CEEAE2BB7D8DE05C15676B4A9A5A59B9E741B8057E04EF06D5DAD2D3A18C5499D09F4697130E47EDD4F1D00234852D5001AE31B00AFC300ABED3F11C318C265A135BEDD5712C86121803C0875013B58087BA685C0146C1EFE003D8086FC326DC57B909E9BB4C4848C89B90473CE635A44081FDE8BE353ED387
310
247FC4DE8D2DBB932AB380A721056676AF7934D60930A83938F026B9FBE00EF823BC02937A2B5E935093E44F65231C808DB01176C15740CD22E08B5F01E260C24DD97BF3CB037BF14FC27208B39FFA744F0224752F39EFB2053B9DC5739A6754CEDE1DC8CA4D1E71A0F52932D7321E4A3369B91C36B0647CDEFB9F14372F24
310
7D3C71FB005AC00EE5900135E0FB82E1F66504005EF0405A5713A3156C5D2D6F1F58A01A32C00F2668043B78E00BF6B79B210B4C100FF15DBDFE2D21CD1CDF623C2EEC3F644C0323B65273117157E25A79F2D102E0EBF8F366C7EC26A990BA399DBBEC7B71FED4BC78F5397F5A1D7A8B76CAF9A20960057F6A9D259E00F8C1
310
6CC602E636731CED2775EEDB6ADAF39AF30EF94BC6E2B61755C767410A49E0024712EDE5B802A99E628F2D85660B2E4BE737A0115C701412A1DEF804E888D90C1E707675B93483BDEB5AE9051BD44232B480057CE0829A68244032E4800D1C5D91348674473557526BC7EA20A981F926DEF2135FD9C373947668013394519B
310
D240BC97BAAE5D563359A352DDF6481FAC4904BE070D1080266826259012DC877DC27E3800A7B3E29D1B4D334DBC83F93F18F5207C00295C0E38612F548554AC863CA37F8720CB20D06BD7D3B6A0CFFF094BA276E67CE065B8AED7423BE15DF29793F2061C8351E14B4E26A32EE3072B1713E8CAD1007CD275A593A8DD043F
310
06AFC0ECCE01E8B53FADEDF999CD6E709271B5A57947536E9BD37AADEFE0D4D60438EB5147595A6057AD976B21006F75AF9511F3E70083DCD9B01296505BC9998BD8D5EBAB08294D2925D3EBB814DE8285D00C5B8CBF920E1DD1EB053A1234CCF37FE049B077F46804F909BC416566DB43B7AD993DD592116F1BB79AC95070
310
63607C036FA6C22D9005CBBBD7BA30F27130D191D842B30F5384DF9356980C1BA273EA0A38839147B3ABBC78C316AA871FE001A01CA6137EBC7336AE2697BDF628AF00D11EB53A2C18F31CE02D8887A521DBF7C283D0020F519F63DDB2D5B10E0ACD7CFABAB36AB193972003FEBB7B030358D253A3C848495E6CBE3E3BD9BB
310
6C8A668BA218C651E35EE6EEB36447890AB0416AB8423790F94E7C4581C6C3C5DEA3500837F4F4ECFE3AA887ED7018FE0F3643357C0C87E02721CFBC664019BC12DB7B80FCFEDC032C2574D8C21771F59DD9534AA6B0AC8F6263833E9FDBE35FB21CA6964F5DFED078E684EE934E868D057A095C703DFC25A49DB51A264101
310
54C27C180907611D5C08F7776F7698E137F040CC9F03BC4F2F0D10A3ED18E11BF12B67E6CA4C7A7D80BB3FE8F34E38F7A4DD26F825B66703C76638FA3710FD146358025440019C076D700FA4822568EF61B80966629ECCE8E9301B6E818FBA1F610CDC042DB81FE734A3A20CA30176C5F89427D466C79F51E39CBA7B123F8F
310
74DC8F073E3B69ACE8D7C9989771E1FAF45AB7E68BE88DB1EF03D0005F85ABC0D33184E564ED1E0ED486A9BB1B7E04D790EFED787BFE1472A88D058F7AE65D368FED707944558A604A477B73226C25634DC6D5FF35B9B0A2B1A625FC8B94627402A48FE39267B9E06D3802D7445CCD04F741398BF670C913BC38C3C0080721
310
1FBEA3C78F575E396EECFE638B26CF0B69DC740AEDFD5F076700F3C8989371C927D987261DF13A1C66BBC17FE38638C3FE775A61244DC9D0427B0396B99006EB616E5F5DAF73E1659800F9B8F61368213E0059836CE627071476FD7B24CAC7F66EF5BABFEE6E727A72CA7CF31EB54EC89B90FCD7E4D0A13BE3422AFA9C7CFA
310
203977E7CC7A7EB2A7ADA67DF269E625E6B2E2B29082728291F302DD8A73064D2BB13511A8C40F5C062B20002FC02A68C7E427CD4B950B26C334580663E07E781AC09948931BC70334BF05BF3330D21EF43E2DCA3698DDF5B9E3A5F8284E8B6263C25313DC15F17185297CE439D3ED2EFEC7F803B34AF77FB4BFF517AD9476
310
965A12FCEC21196E65DAA5D35A36373ED97EF38B3BD76FAFAA499E6EDB94BFB5F1A2C61877220F2D46260070337C9713C350003BCC3AF193AD92856BD9F49DA0CB4261F78EA064F8353C696C983D781666851F361CFCF029055E8EF2C4585819FDFBD189B3129D38DBCDEDD37C39AEC2A28FBF9DBCCFFE59E9E71910640E73
310
2AA95CB236D96CE7E0625B5289F380A56E7FDBFE86FC86CE07661286C109401FEFB2D86061804DBD473120CFED2DFD691EB61B306997A95B5BD1DCCE223376F041357C0A67C37E30410264413514F969086E5EB6C57C3ABD21C8F804E84B1CB40E740C43880DD2603C2C8097A01AE238E57AC944FA3175AF8888888848304B
310
D83D26C3C749880C628F43005E0F79B95DE494B0B6EB15D235031D898861C2B472526122D4801FA6C7362291180A930079F02EB861476CC31189AD08EE730B8C8F426470990B45F01C5441C6400723126BF1F03404E0C1818E44C448619A40DEAEE5A935945C86B5F0F700E7769FA35C64380A9F0066E25E8F8B6124220320
310
7C021471EF3FDD1B76AFC8B010FE8598B5F00158E1BE188623125BE16768D800B91DF36C880C5BE19B40CD6085CC18C6221273E1136013CC8416E5800C67E113A0047CF00EFC32FAA7FC7CD91F4BF7B17689513E95481F7A9D15E26CB81DD260453F4704C54376F72DF3610BE4C3F771BA19BF9F9D5D53855A83267D5BB485
310
F732E15158DF55A583BF73ED1991E8EA3501CCF067288389F083A0AF639F9E854CC8033F1C3EF971B21592E89CAFC9046941FB33A1A2C703CE8625D0EB5A4022064884CDF024BC0BCFC3C430C5CE84B5B0A56B25DA069809ABE1B7B0E8E4B2C14D201B2C0EDA15F6E5B31762BB40869C32FA5A23AC1E96C2A35009BBE1B790
310
1DB416D8E7C6402A644019984296F6ECAE1D1AC3ECAA0BB35DC420112C92570FD7C297E04E6886F7A1B8DB7E1798C730FF65184D750B6965606347806A834216899EC856896C87B7E102381DF2606AB79D8DC031D65D0B76380E40323C1CED48450CD0CF65523BD642DD14B2FD4FF063980945608A745113910117A575828F
310
C0AD413F4E0D5B506450D1DC57724A5302C8292D4A4D20601A38C11BD40D9A012E98D2DBF25EED11767DF6BD70BAC8DFA39F0990DDD3CAEFC0ADF05DB040C79A9C7600F26013AC8497C31E2FD0E7E20E57C05A8DCA16A34496006970139C0775D070F24E0BA44C81AD9047EB11E2BC90411DF80AE036980A37853DB005C641
310
6FEB182E809BE08588C214E9AF08126039AC80C7E12EB800A69D3CD0CD06B91E688452EA8E93540BCD14070666692F917EE92B01AE866FC0F7E13ED8051BE139D8D3AD881776DC02F78323A80934F08B8F89F4ADD7EF693EFC2B3C05B7C08DF049AF471A0D73A0144CB0124C300EB6C36258DFBDA4052682B7F3A784CF5B55
310
8E93530BE07C7813E66A34A818227C0298601DDC03BF828BE1687F8EEA8011BD1638DC79AD30C36950DE672DBFBEFD126317C0F3F0049C3FD091881826FC83B0D1B009A6C15B310C4724B6C2DF047F191E822BB4DAF86094E860D997D9F209F327515E8D3D0EAB198B05573CE5D500D96900E5D5A424D2ECE555CD711F46F8
310
04D00AEE83D8B4312C3B9BD3D3993F89D20A7233D95F46662A890E76EEC79D486E26406905E9C9D4372901FE0E6B616648078E0C0E16332333583885B9134876B1F84CAEBF98095A3CBEFFC2DE03E491F7C2C32F9C517D460C839148253878F2C7BCF3102FDDCDD9D3F9B7AB583A972B970C7458C38AAE008398C9445A12A7
310
A793E566441A732772D13C3253063AAC2128FC42D9DF84B9D00A6B63188E4426D1C90D17E3B0333A8B9A061A9B494EA02DC02DCBD8B083ABCFC753CFB7CEA5B985F366B3E7C040873B88F53A1462393C10AB40A43FE26D6C2FA2EA38494EF61D0268F55359CBC70701367F44450D5575D43571B87240031DC20A20A026909C
310
B26A21004DBDB5924486A36BA010FC1080006C838B063A241163F4D40D3A1D7E08563081099E85D498C7251213616E82B36054D7E7D47E0E0515193A4286438F850D70103EEF3D18070DB014EA631A99C840580001382768CBEDE00DBA20880C233DBD10F32A9406CD80BB182C70490C831289959E122011BED67DCBEB272F
310
7221222222222222222222222222222222222222222222222222222222222222222222222222222222222222222222222222222222222222222222222222222222222222222222222222222222222222222222222222222222222222222222222222223208FC0D4019A5DBCAE8DF100000000049454E44AE426082
  0
ENDSEC
  0
EOF
