  0
SECTION
  2
HEADER
  9
$ACADVER
  1
AC1014
  9
$ACADMAINTVER
 70
     9
  9
$DWGCODEPAGE
  3
ANSI_932
  9
$INSBASE
 10
0.0
 20
0.0
 30
0.0
  9
$EXTMIN
 10
-4097.682627405834
 20
-357.4888510248829
 30
0.0
  9
$EXTMAX
 10
-3864.838996740024
 20
-249.0064972744462
 30
0.0
  9
$LIMMIN
 10
0.0
 20
0.0
  9
$LIMMAX
 10
420.0
 20
297.0
  9
$ORTHOMODE
 70
     1
  9
$REGENMODE
 70
     1
  9
$FILLMODE
 70
     1
  9
$QTEXTMODE
 70
     0
  9
$MIRRTEXT
 70
     0
  9
$DRAGMODE
 70
     2
  9
$LTSCALE
 40
20.0
  9
$OSMODE
 70
   959
  9
$ATTMODE
 70
     2
  9
$TEXTSIZE
 40
10.0
  9
$TRACEWID
 40
1.0
  9
$TEXTSTYLE
  7
ｽﾀｲﾙ3
  9
$CLAYER
  8
文字
  9
$CELTYPE
  6
BYLAYER
  9
$CECOLOR
 62
   256
  9
$CELTSCALE
 40
1.0
  9
$DELOBJ
 70
     1
  9
$DISPSILH
 70
     0
  9
$DIMSCALE
 40
1.0
  9
$DIMASZ
 40
2.5
  9
$DIMEXO
 40
0.8
  9
$DIMDLI
 40
0.38
  9
$DIMRND
 40
0.0
  9
$DIMDLE
 40
0.0
  9
$DIMEXE
 40
0.18
  9
$DIMTP
 40
0.0
  9
$DIMTM
 40
0.0
  9
$DIMTXT
 40
3.0
  9
$DIMCEN
 40
0.0
  9
$DIMTSZ
 40
0.0
  9
$DIMTOL
 70
     0
  9
$DIMLIM
 70
     0
  9
$DIMTIH
 70
     0
  9
$DIMTOH
 70
     0
  9
$DIMSE1
 70
     0
  9
$DIMSE2
 70
     0
  9
$DIMTAD
 70
     3
  9
$DIMZIN
 70
     8
  9
$DIMBLK
  1
OPEN30
  9
$DIMASO
 70
     1
  9
$DIMSHO
 70
     1
  9
$DIMPOST
  1

  9
$DIMAPOST
  1

  9
$DIMALT
 70
     0
  9
$DIMALTD
 70
     2
  9
$DIMALTF
 40
25.4
  9
$DIMLFAC
 40
1.0
  9
$DIMTOFL
 70
     0
  9
$DIMTVP
 40
0.0
  9
$DIMTIX
 70
     0
  9
$DIMSOXD
 70
     0
  9
$DIMSAH
 70
     0
  9
$DIMBLK1
  1

  9
$DIMBLK2
  1

  9
$DIMSTYLE
  2
まこ
  9
$DIMCLRD
 70
     4
  9
$DIMCLRE
 70
     4
  9
$DIMCLRT
 70
     7
  9
$DIMTFAC
 40
1.0
  9
$DIMGAP
 40
0.5
  9
$DIMJUST
 70
     0
  9
$DIMSD1
 70
     0
  9
$DIMSD2
 70
     0
  9
$DIMTOLJ
 70
     1
  9
$DIMTZIN
 70
     0
  9
$DIMALTZ
 70
     0
  9
$DIMALTTZ
 70
     0
  9
$DIMFIT
 70
     1
  9
$DIMUPT
 70
     0
  9
$DIMUNIT
 70
     2
  9
$DIMDEC
 70
     2
  9
$DIMTDEC
 70
     2
  9
$DIMALTU
 70
     2
  9
$DIMALTTD
 70
     2
  9
$DIMTXSTY
  7
まこ
  9
$DIMAUNIT
 70
     0
  9
$LUNITS
 70
     2
  9
$LUPREC
 70
     4
  9
$SKETCHINC
 40
1.0
  9
$FILLETRAD
 40
2.0
  9
$AUNITS
 70
     0
  9
$AUPREC
 70
     0
  9
$MENU
  1
.
  9
$ELEVATION
 40
0.0
  9
$PELEVATION
 40
0.0
  9
$THICKNESS
 40
0.0
  9
$LIMCHECK
 70
     0
  9
$BLIPMODE
 70
     0
  9
$CHAMFERA
 40
0.5
  9
$CHAMFERB
 40
0.5
  9
$CHAMFERC
 40
20.0
  9
$CHAMFERD
 40
0.0
  9
$SKPOLY
 70
     0
  9
$TDCREATE
 40
2451224.660162384
  9
$TDUPDATE
 40
2455601.556042199
  9
$TDINDWG
 40
15.8377277199
  9
$TDUSRTIMER
 40
15.8377277199
  9
$USRTIMER
 70
     1
  9
$ANGBASE
 50
0.0
  9
$ANGDIR
 70
     0
  9
$PDMODE
 70
     0
  9
$PDSIZE
 40
0.0
  9
$PLINEWID
 40
0.0
  9
$COORDS
 70
     1
  9
$SPLFRAME
 70
     0
  9
$SPLINETYPE
 70
     6
  9
$SPLINESEGS
 70
     8
  9
$ATTDIA
 70
     0
  9
$ATTREQ
 70
     1
  9
$HANDLING
 70
-16383
  9
$HANDSEED
  5
24D89
  9
$SURFTAB1
 70
     6
  9
$SURFTAB2
 70
     6
  9
$SURFTYPE
 70
     6
  9
$SURFU
 70
     6
  9
$SURFV
 70
     6
  9
$UCSNAME
  2

  9
$UCSORG
 10
0.0
 20
0.0
 30
0.0
  9
$UCSXDIR
 10
1.0
 20
0.0
 30
0.0
  9
$UCSYDIR
 10
0.0
 20
1.0
 30
0.0
  9
$PUCSNAME
  2

  9
$PUCSORG
 10
0.0
 20
0.0
 30
0.0
  9
$PUCSXDIR
 10
1.0
 20
0.0
 30
0.0
  9
$PUCSYDIR
 10
0.0
 20
1.0
 30
0.0
  9
$USERI1
 70
     0
  9
$USERI2
 70
     0
  9
$USERI3
 70
     0
  9
$USERI4
 70
     0
  9
$USERI5
 70
     0
  9
$USERR1
 40
245.9999999999999
  9
$USERR2
 40
0.0
  9
$USERR3
 40
0.0
  9
$USERR4
 40
0.0
  9
$USERR5
 40
0.0
  9
$WORLDVIEW
 70
     1
  9
$SHADEDGE
 70
     3
  9
$SHADEDIF
 70
    70
  9
$TILEMODE
 70
     0
  9
$MAXACTVP
 70
    48
  9
$PINSBASE
 10
0.0
 20
0.0
 30
0.0
  9
$PLIMCHECK
 70
     0
  9
$PEXTMIN
 10
-0.0314991106509979
 20
-0.0111434599323275
 30
-0.0015258207003583
  9
$PEXTMAX
 10
400.0122888410431
 20
288.0074340150432
 30
0.0000000349246037
  9
$PLIMMIN
 10
-5.881892189108268
 20
-4.374238227738373
  9
$PLIMMAX
 10
414.0647630843292
 20
292.5517566453084
  9
$UNITMODE
 70
     0
  9
$VISRETAIN
 70
     1
  9
$PLINEGEN
 70
     0
  9
$PSLTSCALE
 70
     0
  9
$TREEDEPTH
 70
  3020
  9
$PICKSTYLE
 70
     0
  9
$CMLSTYLE
  2
STANDARD
  9
$CMLJUST
 70
     0
  9
$CMLSCALE
 40
20.0
  9
$PROXYGRAPHICS
 70
     1
  9
$MEASUREMENT
 70
     0
  0
ENDSEC
  0
SECTION
  2
CLASSES
  0
CLASS
  1
HATCH
  2
AcDbHatch
  3
AutoCAD 2000
 90
        0
280
     0
281
     1
  0
CLASS
  1
LWPOLYLINE
  2
AcDbPolyline
  3
AutoCAD 2000
 90
        0
280
     0
281
     1
  0
CLASS
  1
ACDBDICTIONARYWDFLT
  2
AcDbDictionaryWithDefault
  3
AutoCAD 2000
 90
        0
280
     0
281
     0
  0
CLASS
  1
ACDBPLACEHOLDER
  2
AcDbPlaceHolder
  3
AutoCAD 2000
 90
        0
280
     0
281
     0
  0
CLASS
  1
LAYOUT
  2
AcDbLayout
  3
AutoCAD 2000
 90
        0
280
     0
281
     0
  0
CLASS
  1
LONG_TRANSACTION
  2
AcDbLongTransaction
  3
AutoCAD 2000
 90
        0
280
     0
281
     0
  0
CLASS
  1
LWPOLYLINE
  2
AcDbPolyline
  3
AutoCAD 2000
 90
        0
280
     0
281
     1
  0
CLASS
  1
HATCH
  2
AcDbHatch
  3
AutoCAD 2000
 90
        0
280
     0
281
     1
  0
CLASS
  1
XRECORD
  2
AcDbXrecord
  3
AutoCAD 2000
 90
        0
280
     0
281
     0
  0
CLASS
  1
DICTIONARYVAR
  2
AcDbDictionaryVar
  3
AutoCAD 2000
 90
        0
280
     0
281
     0
  0
CLASS
  1
LONG_TRANSACTION
  2
AcDbLongTransaction
  3
AutoCAD 2000
 90
        0
280
     0
281
     0
  0
CLASS
  1
LWPOLYLINE
  2
AcDbPolyline
  3
AutoCAD 2000
 90
        0
280
     0
281
     1
  0
CLASS
  1
HATCH
  2
AcDbHatch
  3
AutoCAD 2000
 90
        0
280
     0
281
     1
  0
CLASS
  1
XRECORD
  2
AcDbXrecord
  3
AutoCAD 2000
 90
        0
280
     0
281
     0
  0
ENDSEC
  0
SECTION
  2
TABLES
  0
TABLE
  2
VPORT
  5
8
330
0
100
AcDbSymbolTable
 70
     2
  0
VPORT
  5
24D65
330
8
100
AcDbSymbolTableRecord
100
AcDbViewportTableRecord
  2
*ACTIVE
 70
     0
 10
0.0
 20
0.0
 11
1.0
 21
1.0
 12
-3981.284783504292
 22
-303.2425605700141
 13
0.0
 23
0.0
 14
10.0
 24
10.0
 15
10.0
 25
10.0
 16
0.0
 26
0.0
 36
1.0
 17
0.0
 27
0.0
 37
0.0
 40
109.3284093798577
 41
2.184834123222748
 42
50.0
 43
0.0
 44
0.0
 50
0.0
 51
0.0
 71
     0
 72
   100
 73
     1
 74
     0
 75
     0
 76
     0
 77
     0
 78
     0
  0
ENDTAB
  0
TABLE
  2
LTYPE
  5
5
330
0
100
AcDbSymbolTable
 70
     7
  0
LTYPE
  5
12
330
5
100
AcDbSymbolTableRecord
100
AcDbLinetypeTableRecord
  2
BYBLOCK
 70
     0
  3

 72
    65
 73
     0
 40
0.0
  0
LTYPE
  5
13
330
5
100
AcDbSymbolTableRecord
100
AcDbLinetypeTableRecord
  2
BYLAYER
 70
     0
  3

 72
    65
 73
     0
 40
0.0
  0
LTYPE
  5
14
330
5
100
AcDbSymbolTableRecord
100
AcDbLinetypeTableRecord
  2
CONTINUOUS
 70
     0
  3
Solid line
 72
    65
 73
     0
 40
0.0
  0
LTYPE
  5
126C
330
5
100
AcDbSymbolTableRecord
100
AcDbLinetypeTableRecord
  2
CENTER
 70
     0
  3
____ _ ____ _ ____ _ ____ _ ____ _ ____ _ ____
 72
    65
 73
     4
 40
2.0
 49
1.25
 74
     0
 49
-0.25
 74
     0
 49
0.25
 74
     0
 49
-0.25
 74
     0
  0
LTYPE
  5
126E
330
5
100
AcDbSymbolTableRecord
100
AcDbLinetypeTableRecord
  2
DASHDOT
 70
     0
  3
__ . __ . __ . __ . __ . __ . __ . __ . __ . __
 72
    65
 73
     4
 40
1.0
 49
0.5
 74
     0
 49
-0.25
 74
     0
 49
0.0
 74
     0
 49
-0.25
 74
     0
  0
LTYPE
  5
1541F
330
5
100
AcDbSymbolTableRecord
100
AcDbLinetypeTableRecord
  2
HIDDEN
 70
     0
  3
_ _ _ _ _ _ _ _ _ _ _ _ _ _ _ _ _ _ _ _ _ _ _
 72
    65
 73
     2
 40
0.375
 49
0.25
 74
     0
 49
-0.125
 74
     0
  0
LTYPE
  5
15420
330
5
100
AcDbSymbolTableRecord
100
AcDbLinetypeTableRecord
  2
CENTER2
 70
     0
  3
Center (.5x) ___ _ ___ _ ___ _ ___ _ ___ _ ___
 72
    65
 73
     4
 40
1.125
 49
0.75
 74
     0
 49
-0.125
 74
     0
 49
0.125
 74
     0
 49
-0.125
 74
     0
  0
LTYPE
  5
15421
330
5
100
AcDbSymbolTableRecord
100
AcDbLinetypeTableRecord
  2
PHANTOM2
 70
     0
  3
Phantom (.5x) ___ _ _ ___ _ _ ___ _ _ ___ _ _
 72
    65
 73
     6
 40
1.25
 49
0.625
 74
     0
 49
-0.125
 74
     0
 49
0.125
 74
     0
 49
-0.125
 74
     0
 49
0.125
 74
     0
 49
-0.125
 74
     0
  0
LTYPE
  5
1615D
330
5
100
AcDbSymbolTableRecord
100
AcDbLinetypeTableRecord
  2
PHANTOM
 70
     0
  3
Phantom ______  __  __  ______  __  __  ______
 72
    65
 73
     6
 40
2.5
 49
1.25
 74
     0
 49
-0.25
 74
     0
 49
0.25
 74
     0
 49
-0.25
 74
     0
 49
0.25
 74
     0
 49
-0.25
 74
     0
  0
ENDTAB
  0
TABLE
  2
LAYER
  5
2
102
{ACAD_XDICTIONARY
360
24C93
102
}
330
0
100
AcDbSymbolTable
 70
    12
  0
LAYER
  5
E
330
2
100
AcDbSymbolTableRecord
100
AcDbLayerTableRecord
  2
0
 70
     2
 62
     7
  6
CONTINUOUS
  0
LAYER
  5
2C
330
2
100
AcDbSymbolTableRecord
100
AcDbLayerTableRecord
  2
M_VIEW
 70
     4
 62
    -1
  6
CONTINUOUS
  0
LAYER
  5
30
330
2
100
AcDbSymbolTableRecord
100
AcDbLayerTableRecord
  2
FRAME025
 70
     0
 62
     7
  6
CONTINUOUS
  0
LAYER
  5
12B
330
2
100
AcDbSymbolTableRecord
100
AcDbLayerTableRecord
  2
DEFPOINTS
 70
     4
 62
    -7
  6
CONTINUOUS
  0
LAYER
  5
651
330
2
100
AcDbSymbolTableRecord
100
AcDbLayerTableRecord
  2
FRAME020
 70
     0
 62
     7
  6
CONTINUOUS
  0
LAYER
  5
1271
330
2
100
AcDbSymbolTableRecord
100
AcDbLayerTableRecord
  2
A
 70
     0
 62
     7
  6
CONTINUOUS
  0
LAYER
  5
A9BB
330
2
100
AcDbSymbolTableRecord
100
AcDbLayerTableRecord
  2
文字
 70
     0
 62
     7
  6
CONTINUOUS
  0
LAYER
  5
122DE
330
2
100
AcDbSymbolTableRecord
100
AcDbLayerTableRecord
  2
DIMENSION
 70
     0
 62
     7
  6
CONTINUOUS
  0
LAYER
  5
15425
330
2
100
AcDbSymbolTableRecord
100
AcDbLayerTableRecord
  2
中心線
 70
     0
 62
     7
  6
CENTER2
  0
LAYER
  5
1615E
330
2
100
AcDbSymbolTableRecord
100
AcDbLayerTableRecord
  2
２点鎖線
 70
     0
 62
     7
  6
PHANTOM
  0
LAYER
  5
17D4F
330
2
100
AcDbSymbolTableRecord
100
AcDbLayerTableRecord
  2
破線
 70
     0
 62
     7
  6
HIDDEN
  0
LAYER
  5
1A846
330
2
100
AcDbSymbolTableRecord
100
AcDbLayerTableRecord
  2
実線
 70
     0
 62
     7
  6
CONTINUOUS
  0
ENDTAB
  0
TABLE
  2
STYLE
  5
3
330
0
100
AcDbSymbolTable
 70
     8
  0
STYLE
  5
F
330
3
100
AcDbSymbolTableRecord
100
AcDbTextStyleTableRecord
  2
STANDARD
 70
     0
 40
0.0
 41
1.0
 50
0.0
 71
     0
 42
2.5
  3
isocp.shx
  4
bigfont.shx
  0
STYLE
  5
35
330
3
100
AcDbSymbolTableRecord
100
AcDbTextStyleTableRecord
  2
MSｺ_ｼｯｸ
 70
     0
 40
0.0
 41
1.0
 50
0.0
 71
     0
 42
5.0
  3
MS Gothic.ttf
  4

1001
ACAD
1000
MS Gothic
1071
    32817
  0
STYLE
  5
1275
330
3
100
AcDbSymbolTableRecord
100
AcDbTextStyleTableRecord
  2
BIGFONT
 70
     0
 40
2.0
 41
1.0
 50
0.0
 71
     0
 42
2.0
  3
txt.shx
  4
bigfont.shx
  0
STYLE
  5
1A849
330
3
100
AcDbSymbolTableRecord
100
AcDbTextStyleTableRecord
  2
まこ
 70
     0
 40
0.0
 41
1.0
 50
0.0
 71
     0
 42
2.5
  3
simplex.shx
  4
bigfont.shx
  0
STYLE
  5
1A84A
330
3
100
AcDbSymbolTableRecord
100
AcDbTextStyleTableRecord
  2
ｽﾀｲﾙ3
 70
     0
 40
10.0
 41
1.0
 50
0.0
 71
     0
 42
10.0
  3
isocp.shx
  4
extfont.shx
  0
ENDTAB
  0
TABLE
  2
VIEW
  5
6
330
0
100
AcDbSymbolTable
 70
     0
  0
ENDTAB
  0
TABLE
  2
UCS
  5
7
330
0
100
AcDbSymbolTable
 70
     0
  0
ENDTAB
  0
TABLE
  2
APPID
  5
9
330
0
100
AcDbSymbolTable
 70
     4
  0
APPID
  5
10
330
9
100
AcDbSymbolTableRecord
100
AcDbRegAppTableRecord
  2
ACAD
 70
     0
  0
APPID
  5
F013
330
9
100
AcDbSymbolTableRecord
100
AcDbRegAppTableRecord
  2
CONTENTBLOCKDESCRIPTION
 70
     0
  0
APPID
  5
F014
330
9
100
AcDbSymbolTableRecord
100
AcDbRegAppTableRecord
  2
CONTENTBLOCKICON
 70
     0
  0
APPID
  5
1A9A0
330
9
100
AcDbSymbolTableRecord
100
AcDbRegAppTableRecord
  2
DCO15
 70
     0
  0
ENDTAB
  0
TABLE
  2
DIMSTYLE
  5
A
330
0
100
AcDbSymbolTable
 70
     2
  0
DIMSTYLE
105
1D
330
A
100
AcDbSymbolTableRecord
100
AcDbDimStyleTableRecord
  2
STANDARD
 70
     0
  3

  4

  5

  6

  7

 40
1.0
 41
0.18
 42
0.0625
 43
0.38
 44
0.18
 45
0.0
 46
0.0
 47
0.0
 48
0.0
140
0.18
141
0.09
142
0.0
143
25.4
144
1.0
145
0.0
146
1.0
147
0.09
 71
     0
 72
     0
 73
     1
 74
     1
 75
     0
 76
     0
 77
     0
 78
     0
170
     0
171
     2
172
     0
173
     0
174
     0
175
     0
176
     0
177
     0
178
     0
270
     2
271
     4
272
     4
273
     2
274
     2
340
F
275
     0
280
     0
281
     0
282
     0
283
     1
284
     0
285
     0
286
     0
287
     3
288
     0
  0
DIMSTYLE
105
1A84D
102
{ACAD_REACTORS
330
218C8
330
218C9
330
218CA
330
218CC
102
}
330
A
100
AcDbSymbolTableRecord
100
AcDbDimStyleTableRecord
  2
まこ
 70
     0
  3

  4

  5
OPEN30
  6

  7

 40
1.0
 41
2.5
 42
0.8
 43
0.38
 44
0.18
 45
0.0
 46
0.0
 47
0.0
 48
0.0
140
3.0
141
0.0
142
0.0
143
25.4
144
1.0
145
0.0
146
1.0
147
0.5
 71
     0
 72
     0
 73
     0
 74
     0
 75
     0
 76
     0
 77
     3
 78
     8
170
     0
171
     2
172
     0
173
     0
174
     0
175
     0
176
     4
177
     4
178
     7
270
     2
271
     2
272
     2
273
     2
274
     2
340
1A849
275
     0
280
     0
281
     0
282
     0
283
     1
284
     0
285
     0
286
     0
287
     1
288
     0
  0
ENDTAB
  0
TABLE
  2
BLOCK_RECORD
  5
1
330
0
100
AcDbSymbolTable
 70
    15
  0
BLOCK_RECORD
  5
18
102
{ACAD_XDICTIONARY
360
EFC6
102
}
330
1
100
AcDbSymbolTableRecord
100
AcDbBlockTableRecord
  2
*MODEL_SPACE
  0
BLOCK_RECORD
  5
15
102
{ACAD_XDICTIONARY
360
EFC4
102
}
330
1
100
AcDbSymbolTableRecord
100
AcDbBlockTableRecord
  2
*PAPER_SPACE
  0
BLOCK_RECORD
  5
115C
330
1
100
AcDbSymbolTableRecord
100
AcDbBlockTableRecord
  2
機械A4横_LBP
  0
BLOCK_RECORD
  5
1215D
330
1
100
AcDbSymbolTableRecord
100
AcDbBlockTableRecord
  2
_OPEN30
  0
ENDTAB
  0
ENDSEC
  0
SECTION
  2
BLOCKS
  0
BLOCK
  5
19
330
18
100
AcDbEntity
  8
0
100
AcDbBlockBegin
  2
*MODEL_SPACE
 70
     0
 10
0.0
 20
0.0
 30
0.0
  3
*MODEL_SPACE
  1

  0
ENDBLK
  5
1A
330
18
100
AcDbEntity
  8
0
100
AcDbBlockEnd
  0
BLOCK
  5
16
330
15
100
AcDbEntity
 67
     1
  8
0
100
AcDbBlockBegin
  2
*PAPER_SPACE
 70
     0
 10
0.0
 20
0.0
 30
0.0
  3
*PAPER_SPACE
  1

  0
ENDBLK
  5
17
330
15
100
AcDbEntity
 67
     1
  8
0
100
AcDbBlockEnd
  0
BLOCK
  5
115D
330
115C
100
AcDbEntity
  8
0
100
AcDbBlockBegin
  2
機械A4横_LBP
 70
     0
 10
0.0
 20
0.0
 30
0.0
  3
機械A4横_LBP
  1

  0
ENDBLK
  5
115E
330
115C
100
AcDbEntity
  8
0
100
AcDbBlockEnd
  0
BLOCK
  5
12161
330
1215D
100
AcDbEntity
  8
0
100
AcDbBlockBegin
  2
_OPEN30
 70
     0
 10
0.0
 20
0.0
 30
0.0
  3
_OPEN30
  1

  0
LINE
  5
1215E
330
1215D
100
AcDbEntity
  8
0
  6
BYBLOCK
 62
     0
100
AcDbLine
 10
-1.0
 20
0.26794919
 30
0.0
 11
0.0
 21
0.0
 31
0.0
  0
LINE
  5
1215F
330
1215D
100
AcDbEntity
  8
0
  6
BYBLOCK
 62
     0
100
AcDbLine
 10
0.0
 20
0.0
 30
0.0
 11
-1.0
 21
-0.26794919
 31
0.0
  0
LINE
  5
12160
330
1215D
100
AcDbEntity
  8
0
  6
BYBLOCK
 62
     0
100
AcDbLine
 10
0.0
 20
0.0
 30
0.0
 11
-1.0
 21
0.0
 31
0.0
  0
ENDBLK
  5
12162
330
1215D
100
AcDbEntity
  8
0
100
AcDbBlockEnd
  0
ENDSEC
  0
SECTION
  2
ENTITIES
  0
MTEXT
  5
176FC
330
18
100
AcDbEntity
  8
DIMENSION
 62
     2
100
AcDbMText
 10
-100.7823601383244
 20
171.6213144128388
 30
0.0
 40
8.0
 41
0.0
 71
     4
 72
     1
  1

1001
ACAD
1000
MTEXTBEGIN
1070
    73
1070
     1
1070
    44
1040
1.0
1070
    74
1070
     0
1000
MTEXTEND
  0
TEXT
  5
187C8
330
18
100
AcDbEntity
  8
A
100
AcDbText
 10
27.08248755054501
 20
1784.547672862094
 30
0.0
 40
2.5
  1

  7
MSｺ_ｼｯｸ
100
AcDbText
  0
TEXT
  5
187C9
330
18
100
AcDbEntity
  8
A
100
AcDbText
 10
19.25748755054502
 20
1784.547672862094
 30
0.0
 40
2.5
  1

 41
0.5
  7
MSｺ_ｼｯｸ
100
AcDbText
  0
TEXT
  5
187CA
330
18
100
AcDbEntity
  8
A
100
AcDbText
 10
167.1825875009164
 20
2214.514692980458
 30
0.0
 40
3.524999999999999
  1
�    
100
AcDbText
  0
MTEXT
  5
187CB
330
18
100
AcDbEntity
  8
0
  6
BYBLOCK
100
AcDbMText
 10
325.4874764241681
 20
2232.511722574347
 30
0.0
 40
2.0
 41
0.0
 71
     4
 72
     5
  1

 11
-0.0000000000000002
 21
-1.0
 31
0.0
1001
ACAD
1000
MTEXTBEGIN
1070
    73
1070
     1
1070
    44
1040
1.0
1070
    74
1070
     0
1000
MTEXTEND
1000
MTEXTBEGIN
1070
    73
1070
     1
1070
    44
1040
1.0
1070
    74
1070
     0
1000
MTEXTEND
  0
MTEXT
  5
187CC
330
18
100
AcDbEntity
  8
0
  6
BYBLOCK
100
AcDbMText
 10
360.9528647873208
 20
2221.718414215929
 30
0.0
 40
2.0
 41
0.0
 71
     7
 72
     5
  1

 11
0.0000000000000001
 21
1.0
 31
0.0
1001
ACAD
1000
MTEXTBEGIN
1070
    73
1070
     1
1070
    44
1040
1.0
1070
    74
1070
     0
1000
MTEXTEND
1000
MTEXTBEGIN
1070
    73
1070
     1
1070
    44
1040
1.0
1070
    74
1070
     0
1000
MTEXTEND
  0
MTEXT
  5
187CD
330
18
100
AcDbEntity
  8
0
100
AcDbMText
 10
325.1733668026532
 20
2146.938903673639
 30
0.0
 40
2.0
 41
10.1453
 71
     1
 72
     5
  1

 11
-0.0000000000000002
 21
-1.0
 31
0.0
1001
ACAD
1000
MTEXTBEGIN
1070
    73
1070
     1
1070
    44
1040
1.0
1070
    74
1070
     0
1000
MTEXTEND
1000
MTEXTBEGIN
1070
    73
1070
     1
1070
    44
1040
1.0
1070
    74
1070
     0
1000
MTEXTEND
  0
MTEXT
  5
187CE
330
18
100
AcDbEntity
  8
0
100
AcDbMText
 10
280.7738750495033
 20
2115.30742008065
 30
0.0
 40
2.0
 41
0.0
 71
     1
 72
     5
  1

1001
ACAD
1000
MTEXTBEGIN
1070
    73
1070
     1
1070
    44
1040
1.0
1070
    74
1070
     0
1000
MTEXTEND
1000
MTEXTBEGIN
1070
    73
1070
     1
1070
    44
1040
1.0
1070
    74
1070
     0
1000
MTEXTEND
  0
MTEXT
  5
187CF
330
18
100
AcDbEntity
  8
0
  6
CENTER
100
AcDbMText
 10
606.3621522332661
 20
2216.239946825076
 30
0.0
 40
2.0
 41
15.6417
 71
     1
 72
     5
  1

  7
BIGFONT
1001
ACAD
1000
MTEXTBEGIN
1070
    73
1070
     1
1070
    44
1040
1.0
1070
    74
1070
     0
1000
MTEXTEND
1000
MTEXTBEGIN
1070
    73
1070
     1
1070
    44
1040
1.0
1070
    74
1070
     0
1000
MTEXTEND
  0
MTEXT
  5
187D0
330
18
100
AcDbEntity
  8
0
  6
DASHDOT
100
AcDbMText
 10
368.6842112890943
 20
2323.029441652852
 30
0.0
 40
1.0
 41
2.0
 71
     1
 72
     5
  1

  7
BIGFONT
1001
ACAD
1000
MTEXTBEGIN
1070
    73
1070
     1
1070
    44
1040
1.0
1070
    74
1070
     0
1000
MTEXTEND
1000
MTEXTBEGIN
1070
    73
1070
     1
1070
    44
1040
1.0
1070
    74
1070
     0
1000
MTEXTEND
  0
MTEXT
  5
187D1
330
18
100
AcDbEntity
  8
0
  6
BYBLOCK
100
AcDbMText
 10
325.4873894192176
 20
2232.511722574347
 30
0.0
 40
2.0
 41
0.0
 71
     4
 72
     5
  1

 11
-0.0000000000000002
 21
-1.0
 31
0.0
1001
ACAD
1000
MTEXTBEGIN
1070
    73
1070
     1
1070
    44
1040
1.0
1070
    74
1070
     0
1000
MTEXTEND
1000
MTEXTBEGIN
1070
    73
1070
     1
1070
    44
1040
1.0
1070
    74
1070
     0
1000
MTEXTEND
  0
MTEXT
  5
187D2
330
18
100
AcDbEntity
  8
0
  6
BYBLOCK
100
AcDbMText
 10
360.9527777823706
 20
2221.718414215929
 30
0.0
 40
2.0
 41
0.0
 71
     7
 72
     5
  1

 11
0.0000000000000001
 21
1.0
 31
0.0
1001
ACAD
1000
MTEXTBEGIN
1070
    73
1070
     1
1070
    44
1040
1.0
1070
    74
1070
     0
1000
MTEXTEND
1000
MTEXTBEGIN
1070
    73
1070
     1
1070
    44
1040
1.0
1070
    74
1070
     0
1000
MTEXTEND
  0
MTEXT
  5
187D3
330
18
100
AcDbEntity
  8
0
100
AcDbMText
 10
325.1732797977028
 20
2146.938903673639
 30
0.0
 40
2.0
 41
10.1453
 71
     1
 72
     5
  1

 11
-0.0000000000000002
 21
-1.0
 31
0.0
1001
ACAD
1000
MTEXTBEGIN
1070
    73
1070
     1
1070
    44
1040
1.0
1070
    74
1070
     0
1000
MTEXTEND
1000
MTEXTBEGIN
1070
    73
1070
     1
1070
    44
1040
1.0
1070
    74
1070
     0
1000
MTEXTEND
  0
MTEXT
  5
187D4
330
18
100
AcDbEntity
  8
0
100
AcDbMText
 10
280.7737880445529
 20
2115.30742008065
 30
0.0
 40
2.0
 41
0.0
 71
     1
 72
     5
  1

1001
ACAD
1000
MTEXTBEGIN
1070
    73
1070
     1
1070
    44
1040
1.0
1070
    74
1070
     0
1000
MTEXTEND
1000
MTEXTBEGIN
1070
    73
1070
     1
1070
    44
1040
1.0
1070
    74
1070
     0
1000
MTEXTEND
  0
MTEXT
  5
187D5
330
18
100
AcDbEntity
  8
0
  6
CENTER
100
AcDbMText
 10
606.3620652283159
 20
2216.239946825076
 30
0.0
 40
2.0
 41
15.6417
 71
     1
 72
     5
  1

  7
BIGFONT
1001
ACAD
1000
MTEXTBEGIN
1070
    73
1070
     1
1070
    44
1040
1.0
1070
    74
1070
     0
1000
MTEXTEND
1000
MTEXTBEGIN
1070
    73
1070
     1
1070
    44
1040
1.0
1070
    74
1070
     0
1000
MTEXTEND
  0
MTEXT
  5
187D6
330
18
100
AcDbEntity
  8
0
  6
DASHDOT
100
AcDbMText
 10
368.6841242841442
 20
2323.029441652852
 30
0.0
 40
1.0
 41
2.0
 71
     1
 72
     5
  1

  7
BIGFONT
1001
ACAD
1000
MTEXTBEGIN
1070
    73
1070
     1
1070
    44
1040
1.0
1070
    74
1070
     0
1000
MTEXTEND
1000
MTEXTBEGIN
1070
    73
1070
     1
1070
    44
1040
1.0
1070
    74
1070
     0
1000
MTEXTEND
  0
INSERT
  5
187D7
330
18
100
AcDbEntity
  8
FRAME025
100
AcDbBlockReference
  2
機械A4横_LBP
 10
271.0019941658661
 20
2006.88884056487
 30
0.0
  0
LINE
  5
218D0
102
{ACAD_REACTORS
330
21D4D
102
}
330
18
100
AcDbEntity
  8
２点鎖線
 48
0.5
100
AcDbLine
 10
-3917.700890137796
 20
-249.0064972744462
 30
0.0
 11
-3903.449820713296
 21
-249.0064972744462
 31
0.0
  0
LINE
  5
218D4
330
18
100
AcDbEntity
  8
破線
 48
5.0
100
AcDbLine
 10
-3877.449820713303
 20
-266.7476741496626
 30
0.0
 11
-3873.449820713303
 21
-266.7476741496626
 31
0.0
  0
LINE
  5
218D5
330
18
100
AcDbEntity
  8
実線
100
AcDbLine
 10
-3877.449820713303
 20
-263.2476741496625
 30
0.0
 11
-3873.449820713303
 21
-263.2476741496625
 31
0.0
  0
LINE
  5
218D7
330
18
100
AcDbEntity
  8
中心線
  6
CENTER
 48
3.0
100
AcDbLine
 10
-3879.449820713303
 20
-269.2476741496625
 30
0.0
 11
-3871.449820713303
 21
-269.2476741496625
 31
0.0
  0
LINE
  5
218D8
330
18
100
AcDbEntity
  8
破線
 48
5.0
100
AcDbLine
 10
-3877.449820713303
 20
-271.7476741496624
 30
0.0
 11
-3873.449820713303
 21
-271.7476741496624
 31
0.0
  0
LINE
  5
218D9
330
18
100
AcDbEntity
  8
実線
 48
10.0
100
AcDbLine
 10
-3887.549820713303
 20
-278.0476741496626
 30
0.0
 11
-3877.449820713303
 21
-278.0476741496626
 31
0.0
  0
LINE
  5
218DA
102
{ACAD_REACTORS
330
21E50
102
}
330
18
100
AcDbEntity
  8
２点鎖線
  6
PHANTOM2
 48
0.3
100
AcDbLine
 10
-3886.449820713302
 20
-273.2476741496611
 30
0.0
 11
-3888.049820713303
 21
-273.2476741496611
 31
0.0
  0
LINE
  5
218DB
102
{ACAD_REACTORS
330
21E50
102
}
330
18
100
AcDbEntity
  8
２点鎖線
  6
PHANTOM2
 48
0.3
100
AcDbLine
 10
-3886.449820713302
 20
-273.2476741496611
 30
0.0
 11
-3886.449820713304
 21
-258.2476741496611
 31
0.0
  0
LINE
  5
218DC
102
{ACAD_REACTORS
330
21E50
102
}
330
18
100
AcDbEntity
  8
２点鎖線
  6
PHANTOM2
 48
0.3
100
AcDbLine
 10
-3903.449820713304
 20
-258.7476741496621
 30
0.0
 11
-3902.949820713303
 21
-258.247674149662
 31
0.0
  0
LINE
  5
218DD
102
{ACAD_REACTORS
330
21E50
102
}
330
18
100
AcDbEntity
  8
２点鎖線
  6
PHANTOM2
 48
0.3
100
AcDbLine
 10
-3900.449820713303
 20
-258.2476741496626
 30
0.0
 11
-3902.949820713303
 21
-258.247674149662
 31
0.0
  0
LINE
  5
218DE
102
{ACAD_REACTORS
330
21E50
102
}
330
18
100
AcDbEntity
  8
２点鎖線
  6
PHANTOM2
 48
0.3
100
AcDbLine
 10
-3903.4498207133
 20
-278.2476741496631
 30
0.0
 11
-3903.449820713304
 21
-258.7476741496621
 31
0.0
  0
LINE
  5
218DF
330
18
100
AcDbEntity
  8
中心線
  6
CENTER
 48
5.0
100
AcDbLine
 10
-3884.449820713303
 20
-263.2476741496611
 30
0.0
 11
-3905.449820713295
 21
-263.2476741496627
 31
0.0
  0
LINE
  5
218E0
102
{ACAD_REACTORS
330
21E50
102
}
330
18
100
AcDbEntity
  8
２点鎖線
  6
PHANTOM2
 48
0.3
100
AcDbLine
 10
-3895.449820713297
 20
-279.6582899953305
 30
0.0
 11
-3903.4498207133
 21
-278.2476741496631
 31
0.0
  0
LINE
  5
218E1
102
{ACAD_REACTORS
330
21E50
102
}
330
18
100
AcDbEntity
  8
２点鎖線
  6
PHANTOM2
 48
0.3
100
AcDbLine
 10
-3886.449820713304
 20
-258.247674149662
 30
0.0
 11
-3900.449820713303
 21
-258.247674149663
 31
0.0
  0
LINE
  5
218E3
330
18
100
AcDbEntity
  8
中心線
100
AcDbLine
 10
-3864.838996740024
 20
-303.2476741496598
 30
0.0
 11
-3907.108611481389
 21
-303.2476741496635
 31
0.0
  0
LINE
  5
218E5
330
18
100
AcDbEntity
  8
実線
 48
10.0
100
AcDbLine
 10
-3887.549820713303
 20
-328.4476741496626
 30
0.0
 11
-3877.449820713303
 21
-328.4476741496626
 31
0.0
  0
LINE
  5
218E6
330
18
100
AcDbEntity
  8
中心線
 48
3.0
100
AcDbLine
 10
-3879.449820713303
 20
-337.2476741496627
 30
0.0
 11
-3871.449820713303
 21
-337.2476741496627
 31
0.0
  0
LINE
  5
218E7
330
18
100
AcDbEntity
  8
破線
 48
5.0
100
AcDbLine
 10
-3877.449820713303
 20
-339.7476741496626
 30
0.0
 11
-3873.449820713303
 21
-339.7476741496626
 31
0.0
  0
LINE
  5
218E8
330
18
100
AcDbEntity
  8
実線
100
AcDbLine
 10
-3877.449820713303
 20
-343.2476741496626
 30
0.0
 11
-3873.449820713303
 21
-343.2476741496626
 31
0.0
  0
LINE
  5
218E9
330
18
100
AcDbEntity
  8
破線
 48
5.0
100
AcDbLine
 10
-3877.449820713303
 20
-334.7476741496626
 30
0.0
 11
-3873.449820713303
 21
-334.7476741496626
 31
0.0
  0
LINE
  5
218EA
102
{ACAD_REACTORS
330
21E50
102
}
330
18
100
AcDbEntity
  8
２点鎖線
  6
PHANTOM2
 48
0.3
100
AcDbLine
 10
-3883.449820713295
 20
-333.2476741496599
 30
0.0
 11
-3888.049820713296
 21
-333.2476741496603
 31
0.0
  0
LINE
  5
218EB
102
{ACAD_REACTORS
330
21E50
102
}
330
18
100
AcDbEntity
  8
２点鎖線
  6
PHANTOM2
 48
0.3
100
AcDbLine
 10
-3892.422286703324
 20
-348.2476741496636
 30
0.0
 11
-3883.477354723263
 21
-348.2476741496621
 31
0.0
  0
LINE
  5
218EC
330
18
100
AcDbEntity
  8
中心線
  6
CENTER
 48
5.0
100
AcDbLine
 10
-3880.959104978188
 20
-343.2476741496603
 30
0.0
 11
-3905.449820713295
 21
-343.2476741496627
 31
0.0
  0
LINE
  5
218ED
102
{ACAD_REACTORS
330
21E50
102
}
330
18
100
AcDbEntity
  8
２点鎖線
  6
PHANTOM2
 48
0.3
100
AcDbLine
 10
-3895.449820713296
 20
-326.8370583039957
 30
0.0
 11
-3903.449820713296
 21
-328.247674149663
 31
0.0
  0
LINE
  5
218EE
102
{ACAD_REACTORS
330
21E50
102
}
330
18
100
AcDbEntity
  8
２点鎖線
  6
PHANTOM2
 48
0.3
100
AcDbLine
 10
-3902.949820713293
 20
-353.247674149663
 30
0.0
 11
-3903.449820713293
 21
-352.7476741496629
 31
0.0
  0
LINE
  5
218EF
102
{ACAD_REACTORS
330
21E50
102
}
330
18
100
AcDbEntity
  8
２点鎖線
  6
PHANTOM2
 48
0.3
100
AcDbLine
 10
-3900.449820713293
 20
-353.247674149663
 30
0.0
 11
-3902.949820713293
 21
-353.247674149663
 31
0.0
  0
LINE
  5
218F0
102
{ACAD_REACTORS
330
21D4D
102
}
330
18
100
AcDbEntity
  8
２点鎖線
 48
0.5
100
AcDbLine
 10
-3917.700890137782
 20
-357.4888510248829
 30
0.0
 11
-3903.449820713295
 21
-357.4888510248801
 31
0.0
  0
LINE
  5
218F1
102
{ACAD_REACTORS
330
21E50
102
}
330
18
100
AcDbEntity
  8
２点鎖線
  6
PHANTOM2
 48
0.3
100
AcDbLine
 10
-3900.449820713293
 20
-353.247674149663
 30
0.0
 11
-3883.449820713293
 21
-353.2476741496608
 31
0.0
  0
CIRCLE
  5
218F3
102
{ACAD_REACTORS
330
21E50
102
}
330
18
100
AcDbEntity
  8
２点鎖線
  6
PHANTOM2
 48
0.3
100
AcDbCircle
 10
-3887.949820713293
 20
-348.2476741496618
 30
0.0
 40
3.5
  0
LINE
  5
218F4
102
{ACAD_REACTORS
330
21E50
102
}
330
18
100
AcDbEntity
  8
２点鎖線
  6
PHANTOM2
 48
0.3
100
AcDbLine
 10
-3883.449820713293
 20
-353.2476741496608
 30
0.0
 11
-3883.449820713295
 21
-333.2476741496599
 31
0.0
  0
LINE
  5
218F5
102
{ACAD_REACTORS
330
21E50
102
}
330
18
100
AcDbEntity
  8
２点鎖線
  6
PHANTOM2
 48
0.3
100
AcDbLine
 10
-3883.449820713293
 20
-352.7476741496621
 30
0.0
 11
-3883.449820713293
 21
-343.747674149662
 31
0.0
  0
LINE
  5
218F6
102
{ACAD_REACTORS
330
21E50
102
}
330
18
100
AcDbEntity
  8
２点鎖線
  6
PHANTOM2
 48
0.3
100
AcDbLine
 10
-3903.449820713293
 20
-352.7476741496629
 30
0.0
 11
-3903.449820713296
 21
-328.247674149663
 31
0.0
  0
LINE
  5
218F7
102
{ACAD_REACTORS
330
21E50
102
}
330
18
100
AcDbEntity
  8
２点鎖線
  6
PHANTOM2
 48
0.3
100
AcDbLine
 10
-3887.949820713293
 20
-352.7201401396926
 30
0.0
 11
-3887.949820713295
 21
-343.7752081596313
 31
0.0
  0
LINE
  5
218F8
330
18
100
AcDbEntity
  8
実線
100
AcDbLine
 10
-3877.449820713303
 20
-263.2476741496625
 30
0.0
 11
-3877.449820713303
 21
-343.2476741496626
 31
0.0
  0
LINE
  5
218F9
330
18
100
AcDbEntity
  8
実線
100
AcDbLine
 10
-3873.449820713303
 20
-263.2476741496625
 30
0.0
 11
-3873.449820713303
 21
-343.2476741496626
 31
0.0
  0
LINE
  5
218FA
330
18
100
AcDbEntity
  8
実線
 48
10.0
100
AcDbLine
 10
-3887.549820713303
 20
-278.0476741496626
 30
0.0
 11
-3887.549820713303
 21
-328.4476741496626
 31
0.0
  0
LINE
  5
218FB
102
{ACAD_REACTORS
330
21E50
102
}
330
18
100
AcDbEntity
  8
２点鎖線
  6
PHANTOM2
 48
0.3
100
AcDbLine
 10
-3895.449820713296
 20
-326.8370583039957
 30
0.0
 11
-3895.449820713297
 21
-279.6582899953305
 31
0.0
  0
LINE
  5
218FC
102
{ACAD_REACTORS
330
21E50
102
}
330
18
100
AcDbEntity
  8
２点鎖線
  6
PHANTOM2
 48
0.3
100
AcDbLine
 10
-3888.049820713302
 20
-273.2476741496606
 30
0.0
 11
-3888.049820713296
 21
-333.2476741496603
 31
0.0
  0
LINE
  5
218FD
102
{ACAD_REACTORS
330
21D4D
102
}
330
18
100
AcDbEntity
  8
２点鎖線
 48
0.5
100
AcDbLine
 10
-3917.700890137782
 20
-357.4888510248829
 30
0.0
 11
-3917.700890137794
 21
-249.0064972744462
 31
0.0
  0
ARC
  5
21918
102
{ACAD_REACTORS
330
21D4E
102
}
330
18
100
AcDbEntity
  8
0
100
AcDbCircle
 10
-4028.211929937469
 20
-330.3476741496627
 30
0.0
 40
0.5
100
AcDbArc
 50
0.0
 51
90.0
  0
ARC
  5
21919
102
{ACAD_REACTORS
330
21D4E
102
}
330
18
100
AcDbEntity
  8
0
100
AcDbCircle
 10
-4062.21192993747
 20
-330.3476741496627
 30
0.0
 40
0.5
100
AcDbArc
 50
90.0
 51
180.0
  0
LINE
  5
2191A
102
{ACAD_REACTORS
330
21D4E
102
}
330
18
100
AcDbEntity
  8
0
100
AcDbLine
 10
-4028.211929937469
 20
-329.8476741496626
 30
0.0
 11
-4062.21192993747
 21
-329.8476741496626
 31
0.0
  0
ARC
  5
2191D
102
{ACAD_REACTORS
330
21D4E
102
}
330
18
100
AcDbEntity
  8
0
100
AcDbCircle
 10
-4028.211929937469
 20
-341.3476741496626
 30
0.0
 40
0.5
100
AcDbArc
 50
270.0
 51
0.0
  0
ARC
  5
21924
102
{ACAD_REACTORS
330
21D4E
102
}
330
18
100
AcDbEntity
  8
0
100
AcDbCircle
 10
-4062.21192993747
 20
-341.3476741496626
 30
0.0
 40
0.5
100
AcDbArc
 50
180.0
 51
270.0
  0
LINE
  5
2192D
102
{ACAD_REACTORS
330
21D4E
102
}
330
18
100
AcDbEntity
  8
0
100
AcDbLine
 10
-4062.21192993747
 20
-341.8476741496626
 30
0.0
 11
-4028.211929937469
 21
-341.8476741496626
 31
0.0
  0
LINE
  5
21930
102
{ACAD_REACTORS
330
21D4E
102
}
330
18
100
AcDbEntity
  8
0
100
AcDbLine
 10
-4062.71192993747
 20
-336.8476741496627
 30
0.0
 11
-4027.71192993747
 21
-336.8476741496627
 31
0.0
  0
LINE
  5
21932
102
{ACAD_REACTORS
330
21D4E
102
}
330
18
100
AcDbEntity
  8
0
100
AcDbLine
 10
-4027.71192993747
 20
-341.3476741496626
 30
0.0
 11
-4027.71192993747
 21
-330.3476741496627
 31
0.0
  0
LINE
  5
21933
102
{ACAD_REACTORS
330
21D4E
102
}
330
18
100
AcDbEntity
  8
0
100
AcDbLine
 10
-4062.71192993747
 20
-330.3476741496627
 30
0.0
 11
-4062.71192993747
 21
-341.3476741496626
 31
0.0
  0
LINE
  5
21999
330
18
100
AcDbEntity
  8
中心線
100
AcDbLine
 10
-4025.71192993747
 20
-269.2476741496625
 30
0.0
 11
-4016.71192993747
 21
-269.2476741496625
 31
0.0
  0
CIRCLE
  5
2199A
330
18
100
AcDbEntity
  8
実線
100
AcDbCircle
 10
-4021.21192993747
 20
-269.2476741496625
 30
0.0
 40
2.5
  0
LINE
  5
2199B
330
18
100
AcDbEntity
  8
中心線
100
AcDbLine
 10
-4021.21192993747
 20
-264.7476741496626
 30
0.0
 11
-4021.21192993747
 21
-273.7476741496625
 31
0.0
  0
LINE
  5
2199C
330
18
100
AcDbEntity
  8
中心線
100
AcDbLine
 10
-4073.711929937469
 20
-269.2476741496625
 30
0.0
 11
-4064.71192993747
 21
-269.2476741496625
 31
0.0
  0
LINE
  5
2199D
330
18
100
AcDbEntity
  8
中心線
100
AcDbLine
 10
-4069.21192993747
 20
-264.7476741496626
 30
0.0
 11
-4069.21192993747
 21
-273.7476741496625
 31
0.0
  0
CIRCLE
  5
2199E
330
18
100
AcDbEntity
  8
実線
100
AcDbCircle
 10
-4069.21192993747
 20
-269.2476741496625
 30
0.0
 40
2.5
  0
CIRCLE
  5
219A6
330
18
100
AcDbEntity
  8
実線
100
AcDbCircle
 10
-4021.21192993747
 20
-337.2476741496626
 30
0.0
 40
2.5
  0
LINE
  5
219A7
330
18
100
AcDbEntity
  8
中心線
100
AcDbLine
 10
-4025.71192993747
 20
-337.2476741496626
 30
0.0
 11
-4016.71192993747
 21
-337.2476741496626
 31
0.0
  0
LINE
  5
219A8
330
18
100
AcDbEntity
  8
中心線
100
AcDbLine
 10
-4021.21192993747
 20
-341.7476741496626
 30
0.0
 11
-4021.21192993747
 21
-332.7476741496626
 31
0.0
  0
LINE
  5
219AA
330
18
100
AcDbEntity
  8
中心線
100
AcDbLine
 10
-4069.21192993747
 20
-341.7476741496626
 30
0.0
 11
-4069.21192993747
 21
-332.7476741496626
 31
0.0
  0
CIRCLE
  5
219AB
330
18
100
AcDbEntity
  8
実線
100
AcDbCircle
 10
-4069.21192993747
 20
-337.2476741496626
 30
0.0
 40
2.5
  0
LINE
  5
219AC
330
18
100
AcDbEntity
  8
実線
100
AcDbLine
 10
-4093.21192993747
 20
-338.2476741496629
 30
0.0
 11
-4088.21192993747
 21
-343.2476741496628
 31
0.0
  0
LINE
  5
219AD
330
18
100
AcDbEntity
  8
中心線
100
AcDbLine
 10
-4073.711929937469
 20
-337.2476741496626
 30
0.0
 11
-4064.71192993747
 21
-337.2476741496626
 31
0.0
  0
LINE
  5
219AF
330
18
100
AcDbEntity
  8
実線
100
AcDbLine
 10
-4093.21192993747
 20
-263.2476741496625
 30
0.0
 11
-4093.21192993747
 21
-338.2476741496629
 31
0.0
  0
LINE
  5
219B0
330
18
100
AcDbEntity
  8
実線
100
AcDbLine
 10
-4093.21192993747
 20
-263.2476741496625
 30
0.0
 11
-3997.211929937469
 21
-263.2476741496621
 31
0.0
  0
LINE
  5
219B1
330
18
100
AcDbEntity
  8
中心線
100
AcDbLine
 10
-4097.682627405834
 20
-303.2476741496626
 30
0.0
 11
-3993.634442577018
 21
-303.2476741496627
 31
0.0
  0
LINE
  5
219B2
330
18
100
AcDbEntity
  8
実線
100
AcDbLine
 10
-4088.21192993747
 20
-343.2476741496628
 30
0.0
 11
-3997.211929937469
 21
-343.2476741496627
 31
0.0
  0
LINE
  5
219B3
330
18
100
AcDbEntity
  8
実線
100
AcDbLine
 10
-3997.211929937469
 20
-278.0476741496621
 30
0.0
 11
-4093.21192993747
 21
-278.0476741496626
 31
0.0
  0
LINE
  5
219B4
330
18
100
AcDbEntity
  8
実線
100
AcDbLine
 10
-3997.211929937469
 20
-328.4476741496626
 30
0.0
 11
-4093.21192993747
 21
-328.4476741496625
 31
0.0
  0
LINE
  5
219C9
102
{ACAD_REACTORS
330
21D4D
102
}
330
18
100
AcDbEntity
  8
２点鎖線
 48
0.5
100
AcDbLine
 10
-3903.449820713295
 20
-357.4888510248801
 30
0.0
 11
-3903.449820713296
 21
-249.0064972744462
 31
0.0
  0
LINE
  5
21D4F
330
18
100
AcDbEntity
  8
実線
100
AcDbLine
 10
-3997.211929937469
 20
-263.2476741496631
 30
0.0
 11
-3997.211929937469
 21
-343.2476741496627
 31
0.0
  0
LWPOLYLINE
  5
21E7B
102
{ACAD_REACTORS
330
21E86
102
}
330
18
100
AcDbEntity
  8
0
100
AcDbPolyline
 90
        8
 70
     1
 43
0.0
 10
-4016.71192993747
 20
-340.5771113092983
 10
-4002.711929937468
 20
-340.5771113092987
 42
0.4142135623730951
 10
-4002.21192993747
 20
-340.0771113092986
 10
-4002.21192993747
 20
-331.0771113092986
 42
0.4142135623730951
 10
-4002.711929937468
 20
-330.5771113092986
 10
-4016.71192993747
 20
-330.5771113092986
 42
0.4142135623730996
 10
-4017.211929937469
 20
-331.0771113092986
 10
-4017.211929937469
 20
-340.0771113092981
 42
0.4142135623730904
  0
LINE
  5
21E82
102
{ACAD_REACTORS
330
21E86
102
}
330
18
100
AcDbEntity
  8
0
100
AcDbLine
 10
-4017.211929937469
 20
-334.5771113092983
 30
0.0
 11
-4002.21192993747
 21
-334.5771113092983
 31
0.0
  0
LINE
  5
24D33
102
{ACAD_REACTORS
330
24D3F
330
24D40
102
}
330
18
100
AcDbEntity
  8
0
100
AcDbLine
 10
-4028.211929937469
 20
-264.7476741496623
 30
0.0
 11
-4062.21192993747
 21
-264.7476741496623
 31
0.0
  0
LINE
  5
24D34
102
{ACAD_REACTORS
330
24D3F
330
24D40
102
}
330
18
100
AcDbEntity
  8
0
100
AcDbLine
 10
-4062.21192993747
 20
-276.7476741496623
 30
0.0
 11
-4028.211929937469
 21
-276.7476741496623
 31
0.0
  0
LINE
  5
24D36
102
{ACAD_REACTORS
330
24D3F
330
24D40
102
}
330
18
100
AcDbEntity
  8
0
100
AcDbLine
 10
-4027.71192993747
 20
-269.7476741496623
 30
0.0
 11
-4062.711929937472
 21
-269.7476741496623
 31
0.0
  0
LINE
  5
24D39
102
{ACAD_REACTORS
330
24D3F
330
24D40
102
}
330
18
100
AcDbEntity
  8
0
100
AcDbLine
 10
-4062.71192993747
 20
-265.2476741496623
 30
0.0
 11
-4062.71192993747
 21
-276.2476741496623
 31
0.0
  0
ARC
  5
24D3A
102
{ACAD_REACTORS
330
24D3F
330
24D40
102
}
330
18
100
AcDbEntity
  8
0
100
AcDbCircle
 10
-4062.21192993747
 20
-276.2476741496614
 30
0.0
 40
0.5
100
AcDbArc
 50
180.0
 51
270.0
  0
ARC
  5
24D3B
102
{ACAD_REACTORS
330
24D3F
330
24D40
102
}
330
18
100
AcDbEntity
  8
0
100
AcDbCircle
 10
-4062.21192993747
 20
-265.2476741496613
 30
0.0
 40
0.5
100
AcDbArc
 50
90.0
 51
180.0
  0
LINE
  5
24D3C
102
{ACAD_REACTORS
330
24D3F
330
24D40
102
}
330
18
100
AcDbEntity
  8
0
100
AcDbLine
 10
-4027.71192993747
 20
-276.2476741496623
 30
0.0
 11
-4027.71192993747
 21
-265.2476741496623
 31
0.0
  0
ARC
  5
24D3D
102
{ACAD_REACTORS
330
24D3F
330
24D40
102
}
330
18
100
AcDbEntity
  8
0
100
AcDbCircle
 10
-4028.211929937469
 20
-276.2476741496614
 30
0.0
 40
0.5
100
AcDbArc
 50
270.0
 51
0.0
  0
ARC
  5
24D3E
102
{ACAD_REACTORS
330
24D3F
330
24D40
102
}
330
18
100
AcDbEntity
  8
0
100
AcDbCircle
 10
-4028.211929937469
 20
-265.2476741496613
 30
0.0
 40
0.5
100
AcDbArc
 50
0.0
 51
90.0
  0
VIEWPORT
  5
23
330
15
100
AcDbEntity
 67
     1
  8
0
100
AcDbViewport
 10
204.0914354476104
 20
144.088759208785
 30
0.0
 40
653.3404412610552
 41
299.0343451325003
 68
     1
 69
     1
1001
ACAD
1000
MVIEW
1002
{
1070
    16
1010
0.0
1020
0.0
1030
0.0
1010
0.0
1020
0.0
1030
1.0
1040
0.0
1040
299.0343451325003
1040
204.0914354476104
1040
144.088759208785
1040
50.0
1040
0.0
1040
0.0
1070
     0
1070
   100
1070
     1
1070
     0
1070
     0
1070
     0
1070
     0
1070
     0
1040
0.0
1040
0.0
1040
0.0
1040
10.0
1040
10.0
1040
10.0
1040
10.0
1070
     0
1002
{
1002
}
1002
}
  0
VIEWPORT
  5
2E
330
15
100
AcDbEntity
 67
     1
  8
M_VIEW
100
AcDbViewport
 10
200.0
 20
144.0
 30
0.0
 40
400.0
 41
288.0
 68
     2
 69
     2
1001
ACAD
1000
MVIEW
1002
{
1070
    16
1010
0.0
1020
0.0
1030
0.0
1010
0.0
1020
0.0
1030
1.0
1040
0.0
1040
287.9999922701748
1040
-3970.189106826092
1040
-322.9647684191025
1040
50.0
1040
0.0
1040
0.0
1070
     0
1070
   100
1070
     1
1070
     0
1070
     0
1070
     0
1070
     0
1070
     0
1040
0.0
1040
0.0
1040
0.0
1040
10.0
1040
10.0
1040
10.0
1040
10.0
1070
     0
1002
{
1002
}
1002
}
  0
INSERT
  5
115F
330
15
100
AcDbEntity
 67
     1
  8
FRAME025
100
AcDbBlockReference
  2
機械A4横_LBP
 10
82.74908858651452
 20
152.030959079227
 30
0.0
  0
TEXT
  5
AA6A
330
15
100
AcDbEntity
 67
     1
  8
文字
  6
BYBLOCK
 62
     0
100
AcDbText
 10
32.81885892396519
 20
73.01882819621747
 30
0.0
 40
3.2
  1

 50
90.0
 41
0.625
  7
MSｺ_ｼｯｸ
100
AcDbText
  0
TEXT
  5
AA6C
330
15
100
AcDbEntity
 67
     1
  8
文字
  6
BYBLOCK
 62
     0
100
AcDbText
 10
37.25020936743055
 20
73.01882819621747
 30
0.0
 40
3.2
  1

 50
90.0
 41
0.625
  7
MSｺ_ｼｯｸ
100
AcDbText
  0
TEXT
  5
FCA5
330
15
100
AcDbEntity
 67
     1
  8
FRAME020
  6
CONTINUOUS
100
AcDbText
 10
126.6213117262079
 20
29.63926951973459
 30
0.0
 40
2.5
  1

 41
0.625
  7
MSｺ_ｼｯｸ
100
AcDbText
  0
TEXT
  5
12229
330
15
100
AcDbEntity
 67
     1
  8
0
100
AcDbText
 10
324.703280378293
 20
10.63168299257869
 30
0.0
 40
6.0
  1
ＳＥ－３６００２
 41
1.1
100
AcDbText
  0
MTEXT
  5
24D4B
330
15
100
AcDbEntity
 67
     1
  8
文字
100
AcDbMText
 10
185.2217763735492
 20
25.42875466541465
 30
0.0
 40
6.0
 41
205.8434
 71
     1
 72
     5
  1
τﾘﾆｱﾓｰﾀ ｺｱﾚｽﾌﾗｯﾄ NVA-AM MGﾍﾞｰｽ MBV-AMA00B (96mm)
  7
ｽﾀｲﾙ3
1001
ACAD
1000
MTEXTBEGIN
1070
    73
1070
     1
1070
    44
1040
1.0
1070
    74
1070
     0
1000
MTEXTEND
  0
ENDSEC
  0
SECTION
  2
OBJECTS
  0
DICTIONARY
  5
C
330
0
100
AcDbDictionary
  3
ACAD_GROUP
350
D
  3
ACAD_LAYOUT
350
DB2
  3
ACAD_MLINESTYLE
350
1B
  3
ACAD_PLOTSETTINGS
350
DB3
  3
ACAD_PLOTSTYLENAME
350
FB5B
  3
ACADDIM
350
1B534
  3
ACDBHEADERROUNDTRIPXREC
350
24D66
  3
ACDBVARIABLEDICTIONARY
350
106A6
  3
ASE_INDEX_DICTIONARY
350
1A99F
  3
DWGPROPS
350
15EC9
1001
ACAD
1000
TREAT_AS_HARD
1070
     0
  0
DICTIONARY
  5
24C93
330
2
100
AcDbDictionary
280
     1
  3
ACAD_LAYERFILTERS
360
24C94
  3
ACAD_LAYERSTATES
360
24CA4
  0
DICTIONARY
  5
EFC6
330
18
100
AcDbDictionary
280
     1
  3
ACAD_LAYOUTSELFREF
360
24D88
  0
DICTIONARY
  5
EFC4
330
15
100
AcDbDictionary
280
     1
  3
ACAD_LAYOUTSELFREF
360
24D87
  0
DICTIONARY
  5
D
102
{ACAD_REACTORS
330
C
102
}
330
C
100
AcDbDictionary
  3
*A1
350
AC8A
  3
*A10
350
106C7
  3
*A100
350
23C23
  3
*A101
350
1606A
  3
*A102
350
2001C
  3
*A103
350
23C25
  3
*A104
350
169DA
  3
*A105
350
23C27
  3
*A106
350
21E50
  3
*A107
350
22A72
  3
*A108
350
1EB7D
  3
*A109
350
1B756
  3
*A11
350
1B732
  3
*A110
350
1738B
  3
*A111
350
23F0F
  3
*A112
350
20222
  3
*A113
350
1D670
  3
*A114
350
19F67
  3
*A115
350
2378C
  3
*A116
350
FB6C
  3
*A117
350
1D67A
  3
*A118
350
23F0D
  3
*A119
350
22232
  3
*A12
350
1F8F5
  3
*A120
350
1F918
  3
*A121
350
1D6D4
  3
*A122
350
ACAB
  3
*A123
350
1D6DE
  3
*A124
350
19989
  3
*A125
350
21E86
  3
*A126
350
FC9A
  3
*A127
350
1738A
  3
*A128
350
1F904
  3
*A129
350
17901
  3
*A13
350
1B744
  3
*A130
350
22639
  3
*A131
350
18F1F
  3
*A132
350
19861
  3
*A133
350
19F87
  3
*A134
350
22230
  3
*A135
350
1D6B6
  3
*A136
350
20227
  3
*A137
350
2020E
  3
*A138
350
20013
  3
*A139
350
2284C
  3
*A14
350
196C2
  3
*A140
350
1D6E8
  3
*A141
350
2022C
  3
*A142
350
173BF
  3
*A143
350
22430
  3
*A144
350
FBFF
  3
*A145
350
20213
  3
*A146
350
22A70
  3
*A147
350
1B729
  3
*A148
350
1F8FA
  3
*A149
350
1D6AC
  3
*A15
350
22CA0
  3
*A150
350
2263C
  3
*A151
350
24D30
  3
*A152
350
20025
  3
*A153
350
173BE
  3
*A154
350
AC9A
  3
*A155
350
1B720
  3
*A156
350
20010
  3
*A157
350
1D710
  3
*A158
350
1A09A
  3
*A159
350
17389
  3
*A16
350
FB6B
  3
*A160
350
19F55
  3
*A161
350
18FA7
  3
*A162
350
24D31
  3
*A163
350
1B73B
  3
*A164
350
1D698
  3
*A165
350
1F913
  3
*A166
350
22016
  3
*A167
350
20231
  3
*A168
350
2242D
  3
*A169
350
18FA6
  3
*A17
350
FC95
  3
*A170
350
2263A
  3
*A171
350
106B3
  3
*A172
350
22A73
  3
*A173
350
24D3F
  3
*A174
350
2284D
  3
*A175
350
19AA4
  3
*A176
350
22A71
  3
*A177
350
198F1
  3
*A178
350
FC91
  3
*A179
350
19988
  3
*A18
350
1A692
  3
*A180
350
ACBD
  3
*A181
350
ACA1
  3
*A182
350
19A52
  3
*A183
350
FCB8
  3
*A184
350
24D40
  3
*A185
350
19FAB
  3
*A186
350
2002B
  3
*A187
350
16068
  3
*A188
350
1A691
  3
*A189
350
1D706
  3
*A19
350
19881
  3
*A190
350
23C26
  3
*A191
350
1F8FF
  3
*A192
350
23F0C
  3
*A193
350
20218
  3
*A194
350
23F0E
  3
*A2
350
2284F
  3
*A20
350
18F22
  3
*A21
350
22CA1
  3
*A22
350
173BD
  3
*A23
350
16069
  3
*A24
350
1EB7C
  3
*A25
350
1EB7F
  3
*A26
350
19794
  3
*A27
350
16058
  3
*A28
350
22CA2
  3
*A29
350
20019
  3
*A3
350
106C6
  3
*A30
350
1D6F2
  3
*A31
350
1EB7E
  3
*A32
350
2001F
  3
*A33
350
22CA3
  3
*A34
350
19A86
  3
*A35
350
1F91D
  3
*A36
350
18F23
  3
*A37
350
1AA94
  3
*A38
350
1B74D
  3
*A39
350
231AD
  3
*A4
350
2021D
  3
*A40
350
1F8F0
  3
*A41
350
21D4D
  3
*A42
350
17BFF
  3
*A43
350
231AE
  3
*A44
350
1D684
  3
*A45
350
FC9B
  3
*A46
350
23C24
  3
*A47
350
1D6FC
  3
*A48
350
231F5
  3
*A49
350
20CA6
  3
*A5
350
23F10
  3
*A50
350
22017
  3
*A51
350
1D6C0
  3
*A52
350
18F21
  3
*A53
350
19729
  3
*A54
350
231F9
  3
*A55
350
1D6A2
  3
*A56
350
2242E
  3
*A57
350
1D68E
  3
*A58
350
19786
  3
*A59
350
20CA2
  3
*A6
350
1EB80
  3
*A60
350
20016
  3
*A61
350
ACB4
  3
*A62
350
20209
  3
*A63
350
1F90E
  3
*A64
350
22014
  3
*A65
350
18F20
  3
*A66
350
19A5A
  3
*A67
350
16059
  3
*A68
350
1A695
  3
*A69
350
22231
  3
*A7
350
19A51
  3
*A70
350
19787
  3
*A71
350
1D6CA
  3
*A72
350
21D4E
  3
*A73
350
20236
  3
*A74
350
2222F
  3
*A75
350
19256
  3
*A76
350
2242F
  3
*A77
350
18FA8
  3
*A78
350
2263B
  3
*A79
350
1606B
  3
*A8
350
19F99
  3
*A80
350
ACA2
  3
*A81
350
2284E
  3
*A82
350
20028
  3
*A83
350
106A5
  3
*A84
350
23216
  3
*A85
350
2342E
  3
*A86
350
2342F
  3
*A87
350
23430
  3
*A88
350
23431
  3
*A89
350
23432
  3
*A9
350
1F909
  3
*A90
350
22015
  3
*A91
350
23788
  3
*A92
350
23789
  3
*A93
350
2378A
  3
*A94
350
17B11
  3
*A95
350
19259
  3
*A96
350
20022
  3
*A97
350
1998A
  3
*A98
350
2378B
  3
*A99
350
19255
1001
ACAD
1000
TREAT_AS_HARD
1070
     0
  0
DICTIONARY
  5
DB2
102
{ACAD_REACTORS
330
C
102
}
330
C
100
AcDbDictionary
1001
ACAD
1000
TREAT_AS_HARD
1070
     0
  0
DICTIONARY
  5
1B
102
{ACAD_REACTORS
330
C
102
}
330
C
100
AcDbDictionary
  3
STANDARD
350
1C
1001
ACAD
1000
TREAT_AS_HARD
1070
     0
  0
DICTIONARY
  5
DB3
102
{ACAD_REACTORS
330
C
102
}
330
C
100
AcDbDictionary
1001
ACAD
1000
TREAT_AS_HARD
1070
     0
  0
ACDBDICTIONARYWDFLT
  5
FB5B
102
{ACAD_REACTORS
330
C
102
}
330
C
100
AcDbDictionary
281
     1
  3
Normal
350
FB5C
100
AcDbDictionaryWithDefault
340
FB5C
  0
XRECORD
  5
1B534
102
{ACAD_REACTORS
330
C
102
}
330
C
100
AcDbXrecord
 90
   990106
  3

 60
     0
 61
     0
 62
     4
 63
     4
 64
     1
 65
     0
 66
     0
 67
     3
 68
     1
 69
     0
 70
     0
 71
     0
 72
     0
 40
0.0
170
     2
340
21E8C
  0
DICTIONARY
  5
24D66
102
{ACAD_REACTORS
330
C
102
}
330
C
100
AcDbDictionary
  3
CEPSNTYPE
350
24D70
  3
DIMSTYLEDATA
350
24D74
  3
FINGERPRINTGUID
350
24D71
  3
HYPERLINKBASE
350
24D69
  3
INSUNITS
350
24D6F
  3
LAYOUTDICT
350
24D6B
  3
LWETCUNION
350
24D6E
  3
PLOTSETDICT
350
24D6C
  3
PLOTSTYLNAMDICT
350
24D6D
  3
PSVPSCALE
350
24D73
  3
PUCSBASE
350
24D77
  3
PUCSORGBACK
350
24D7D
  3
PUCSORGBOTTOM
350
24D79
  3
PUCSORGFRONT
350
24D7C
  3
PUCSORGLEFT
350
24D7A
  3
PUCSORGRIGHT
350
24D7B
  3
PUCSORGTOP
350
24D78
  3
PUCSORTHOREF
350
24D75
  3
PUCSORTHOVIEW
350
24D76
  3
STYLESHEET
350
24D6A
  3
TSTACKALIGN
350
24D67
  3
TSTACKSIZE
350
24D68
  3
UCSBASE
350
24D80
  3
UCSORGBACK
350
24D86
  3
UCSORGBOTTOM
350
24D82
  3
UCSORGFRONT
350
24D85
  3
UCSORGLEFT
350
24D83
  3
UCSORGRIGHT
350
24D84
  3
UCSORGTOP
350
24D81
  3
UCSORTHOREF
350
24D7E
  3
UCSORTHOVIEW
350
24D7F
  3
VERSIONGUID
350
24D72
  0
DICTIONARY
  5
106A6
102
{ACAD_REACTORS
330
C
102
}
330
C
100
AcDbDictionary
  3
SORTENTS
350
106A7
  0
DICTIONARY
  5
1A99F
102
{ACAD_REACTORS
330
C
102
}
330
C
100
AcDbDictionary
  3
ASEBLOCKHIERARCHYINDEXRECORD
350
1A9A1
1001
DCO15
1040
1464612067.17
  0
XRECORD
  5
15EC9
102
{ACAD_REACTORS
330
C
102
}
330
C
100
AcDbXrecord
  1
DWGPROPS COOKIE
  2

  3

  4

  6

  7

  8

  9

300
=
301
=
302
=
303
=
304
=
305
=
306
=
307
=
308
=
309
=
 40
12.65185717592592
 41
2451224.660162384
 42
2452395.660827315
  1

 90
        0
  0
DICTIONARY
  5
24C94
102
{ACAD_REACTORS
330
24C93
102
}
330
24C93
100
AcDbDictionary
280
     1
  3
0
360
24C95
  3
11
360
24C96
  3
150_
360
24C97
  3
160_
360
24C98
  3
170_
360
24C99
  3
171_
360
24C9A
  3
350_
360
24C9B
  3
4
360
24C9C
  3
5
360
24C9D
  3
7
360
24C9E
  3
KISEKI
360
24C9F
  0
DICTIONARY
  5
24CA4
102
{ACAD_REACTORS
330
24C93
102
}
330
24C93
100
AcDbDictionary
  0
XRECORD
  5
24D88
102
{ACAD_REACTORS
330
EFC6
102
}
330
EFC6
100
AcDbXrecord
340
18
  0
XRECORD
  5
24D87
102
{ACAD_REACTORS
330
EFC4
102
}
330
EFC4
100
AcDbXrecord
340
15
  0
GROUP
  5
AC8A
102
{ACAD_REACTORS
330
D
102
}
330
D
100
AcDbGroup
300

 70
     1
 71
     1
  0
GROUP
  5
106C7
102
{ACAD_REACTORS
330
D
102
}
330
D
100
AcDbGroup
300

 70
     1
 71
     1
  0
GROUP
  5
23C23
102
{ACAD_REACTORS
330
D
102
}
330
D
100
AcDbGroup
300

 70
     1
 71
     1
  0
GROUP
  5
1606A
102
{ACAD_REACTORS
330
D
102
}
330
D
100
AcDbGroup
300

 70
     1
 71
     1
  0
GROUP
  5
2001C
102
{ACAD_REACTORS
330
D
102
}
330
D
100
AcDbGroup
300

 70
     1
 71
     1
  0
GROUP
  5
23C25
102
{ACAD_REACTORS
330
D
102
}
330
D
100
AcDbGroup
300

 70
     1
 71
     1
  0
GROUP
  5
169DA
102
{ACAD_REACTORS
330
D
102
}
330
D
100
AcDbGroup
300

 70
     1
 71
     1
  0
GROUP
  5
23C27
102
{ACAD_REACTORS
330
D
102
}
330
D
100
AcDbGroup
300

 70
     1
 71
     1
  0
GROUP
  5
21E50
102
{ACAD_REACTORS
330
D
102
}
330
D
100
AcDbGroup
300

 70
     1
 71
     1
340
218E0
340
218DE
340
218DD
340
218DC
340
218E1
340
218DB
340
218DA
340
218FC
340
218F4
340
218F7
340
218F5
340
218F3
340
218EB
340
218EA
340
218F1
340
218EE
340
218EF
340
218F6
340
218ED
340
218FB
  0
GROUP
  5
22A72
102
{ACAD_REACTORS
330
D
102
}
330
D
100
AcDbGroup
300

 70
     1
 71
     1
  0
GROUP
  5
1EB7D
102
{ACAD_REACTORS
330
D
102
}
330
D
100
AcDbGroup
300

 70
     1
 71
     1
  0
GROUP
  5
1B756
102
{ACAD_REACTORS
330
D
102
}
330
D
100
AcDbGroup
300

 70
     1
 71
     1
  0
GROUP
  5
1B732
102
{ACAD_REACTORS
330
D
102
}
330
D
100
AcDbGroup
300

 70
     1
 71
     1
  0
GROUP
  5
1738B
102
{ACAD_REACTORS
330
D
102
}
330
D
100
AcDbGroup
300

 70
     1
 71
     1
  0
GROUP
  5
23F0F
102
{ACAD_REACTORS
330
D
102
}
330
D
100
AcDbGroup
300

 70
     1
 71
     1
  0
GROUP
  5
20222
102
{ACAD_REACTORS
330
D
102
}
330
D
100
AcDbGroup
300

 70
     1
 71
     1
  0
GROUP
  5
1D670
102
{ACAD_REACTORS
330
D
102
}
330
D
100
AcDbGroup
300

 70
     1
 71
     1
  0
GROUP
  5
19F67
102
{ACAD_REACTORS
330
D
102
}
330
D
100
AcDbGroup
300

 70
     1
 71
     1
  0
GROUP
  5
2378C
102
{ACAD_REACTORS
330
D
102
}
330
D
100
AcDbGroup
300

 70
     1
 71
     1
  0
GROUP
  5
FB6C
102
{ACAD_REACTORS
330
D
102
}
330
D
100
AcDbGroup
300

 70
     1
 71
     1
  0
GROUP
  5
1D67A
102
{ACAD_REACTORS
330
D
102
}
330
D
100
AcDbGroup
300

 70
     1
 71
     1
  0
GROUP
  5
23F0D
102
{ACAD_REACTORS
330
D
102
}
330
D
100
AcDbGroup
300

 70
     1
 71
     1
  0
GROUP
  5
22232
102
{ACAD_REACTORS
330
D
102
}
330
D
100
AcDbGroup
300

 70
     1
 71
     1
  0
GROUP
  5
1F8F5
102
{ACAD_REACTORS
330
D
102
}
330
D
100
AcDbGroup
300

 70
     1
 71
     1
  0
GROUP
  5
1F918
102
{ACAD_REACTORS
330
D
102
}
330
D
100
AcDbGroup
300

 70
     1
 71
     1
  0
GROUP
  5
1D6D4
102
{ACAD_REACTORS
330
D
102
}
330
D
100
AcDbGroup
300

 70
     1
 71
     1
  0
GROUP
  5
ACAB
102
{ACAD_REACTORS
330
D
102
}
330
D
100
AcDbGroup
300

 70
     1
 71
     1
  0
GROUP
  5
1D6DE
102
{ACAD_REACTORS
330
D
102
}
330
D
100
AcDbGroup
300

 70
     1
 71
     1
  0
GROUP
  5
19989
102
{ACAD_REACTORS
330
D
102
}
330
D
100
AcDbGroup
300

 70
     1
 71
     1
  0
GROUP
  5
21E86
102
{ACAD_REACTORS
330
D
102
}
330
D
100
AcDbGroup
300

 70
     1
 71
     1
340
21E7B
340
21E82
  0
GROUP
  5
FC9A
102
{ACAD_REACTORS
330
D
102
}
330
D
100
AcDbGroup
300

 70
     1
 71
     1
  0
GROUP
  5
1738A
102
{ACAD_REACTORS
330
D
102
}
330
D
100
AcDbGroup
300

 70
     1
 71
     1
  0
GROUP
  5
1F904
102
{ACAD_REACTORS
330
D
102
}
330
D
100
AcDbGroup
300

 70
     1
 71
     1
  0
GROUP
  5
17901
102
{ACAD_REACTORS
330
D
102
}
330
D
100
AcDbGroup
300

 70
     1
 71
     1
  0
GROUP
  5
1B744
102
{ACAD_REACTORS
330
D
102
}
330
D
100
AcDbGroup
300

 70
     1
 71
     1
  0
GROUP
  5
22639
102
{ACAD_REACTORS
330
D
102
}
330
D
100
AcDbGroup
300

 70
     1
 71
     1
  0
GROUP
  5
18F1F
102
{ACAD_REACTORS
330
D
102
}
330
D
100
AcDbGroup
300

 70
     1
 71
     1
  0
GROUP
  5
19861
102
{ACAD_REACTORS
330
D
102
}
330
D
100
AcDbGroup
300

 70
     1
 71
     1
  0
GROUP
  5
19F87
102
{ACAD_REACTORS
330
D
102
}
330
D
100
AcDbGroup
300

 70
     1
 71
     1
  0
GROUP
  5
22230
102
{ACAD_REACTORS
330
D
102
}
330
D
100
AcDbGroup
300

 70
     1
 71
     1
  0
GROUP
  5
1D6B6
102
{ACAD_REACTORS
330
D
102
}
330
D
100
AcDbGroup
300

 70
     1
 71
     1
  0
GROUP
  5
20227
102
{ACAD_REACTORS
330
D
102
}
330
D
100
AcDbGroup
300

 70
     1
 71
     1
  0
GROUP
  5
2020E
102
{ACAD_REACTORS
330
D
102
}
330
D
100
AcDbGroup
300

 70
     1
 71
     1
  0
GROUP
  5
20013
102
{ACAD_REACTORS
330
D
102
}
330
D
100
AcDbGroup
300

 70
     1
 71
     1
  0
GROUP
  5
2284C
102
{ACAD_REACTORS
330
D
102
}
330
D
100
AcDbGroup
300

 70
     1
 71
     1
  0
GROUP
  5
196C2
102
{ACAD_REACTORS
330
D
102
}
330
D
100
AcDbGroup
300

 70
     1
 71
     1
  0
GROUP
  5
1D6E8
102
{ACAD_REACTORS
330
D
102
}
330
D
100
AcDbGroup
300

 70
     1
 71
     1
  0
GROUP
  5
2022C
102
{ACAD_REACTORS
330
D
102
}
330
D
100
AcDbGroup
300

 70
     1
 71
     1
  0
GROUP
  5
173BF
102
{ACAD_REACTORS
330
D
102
}
330
D
100
AcDbGroup
300

 70
     1
 71
     1
  0
GROUP
  5
22430
102
{ACAD_REACTORS
330
D
102
}
330
D
100
AcDbGroup
300

 70
     1
 71
     1
  0
GROUP
  5
FBFF
102
{ACAD_REACTORS
330
D
102
}
330
D
100
AcDbGroup
300

 70
     1
 71
     1
  0
GROUP
  5
20213
102
{ACAD_REACTORS
330
D
102
}
330
D
100
AcDbGroup
300

 70
     1
 71
     1
  0
GROUP
  5
22A70
102
{ACAD_REACTORS
330
D
102
}
330
D
100
AcDbGroup
300

 70
     1
 71
     1
  0
GROUP
  5
1B729
102
{ACAD_REACTORS
330
D
102
}
330
D
100
AcDbGroup
300

 70
     1
 71
     1
  0
GROUP
  5
1F8FA
102
{ACAD_REACTORS
330
D
102
}
330
D
100
AcDbGroup
300

 70
     1
 71
     1
  0
GROUP
  5
1D6AC
102
{ACAD_REACTORS
330
D
102
}
330
D
100
AcDbGroup
300

 70
     1
 71
     1
  0
GROUP
  5
22CA0
102
{ACAD_REACTORS
330
D
102
}
330
D
100
AcDbGroup
300

 70
     1
 71
     1
  0
GROUP
  5
2263C
102
{ACAD_REACTORS
330
D
102
}
330
D
100
AcDbGroup
300

 70
     1
 71
     1
  0
GROUP
  5
24D30
102
{ACAD_REACTORS
330
D
102
}
330
D
100
AcDbGroup
300

 70
     1
 71
     1
  0
GROUP
  5
20025
102
{ACAD_REACTORS
330
D
102
}
330
D
100
AcDbGroup
300

 70
     1
 71
     1
  0
GROUP
  5
173BE
102
{ACAD_REACTORS
330
D
102
}
330
D
100
AcDbGroup
300

 70
     1
 71
     1
  0
GROUP
  5
AC9A
102
{ACAD_REACTORS
330
D
102
}
330
D
100
AcDbGroup
300

 70
     1
 71
     1
  0
GROUP
  5
1B720
102
{ACAD_REACTORS
330
D
102
}
330
D
100
AcDbGroup
300

 70
     1
 71
     1
  0
GROUP
  5
20010
102
{ACAD_REACTORS
330
D
102
}
330
D
100
AcDbGroup
300

 70
     1
 71
     1
  0
GROUP
  5
1D710
102
{ACAD_REACTORS
330
D
102
}
330
D
100
AcDbGroup
300

 70
     1
 71
     1
  0
GROUP
  5
1A09A
102
{ACAD_REACTORS
330
D
102
}
330
D
100
AcDbGroup
300

 70
     1
 71
     1
  0
GROUP
  5
17389
102
{ACAD_REACTORS
330
D
102
}
330
D
100
AcDbGroup
300

 70
     1
 71
     1
  0
GROUP
  5
FB6B
102
{ACAD_REACTORS
330
D
102
}
330
D
100
AcDbGroup
300

 70
     1
 71
     1
  0
GROUP
  5
19F55
102
{ACAD_REACTORS
330
D
102
}
330
D
100
AcDbGroup
300

 70
     1
 71
     1
  0
GROUP
  5
18FA7
102
{ACAD_REACTORS
330
D
102
}
330
D
100
AcDbGroup
300

 70
     1
 71
     1
  0
GROUP
  5
24D31
102
{ACAD_REACTORS
330
D
102
}
330
D
100
AcDbGroup
300

 70
     1
 71
     1
  0
GROUP
  5
1B73B
102
{ACAD_REACTORS
330
D
102
}
330
D
100
AcDbGroup
300

 70
     1
 71
     1
  0
GROUP
  5
1D698
102
{ACAD_REACTORS
330
D
102
}
330
D
100
AcDbGroup
300

 70
     1
 71
     1
  0
GROUP
  5
1F913
102
{ACAD_REACTORS
330
D
102
}
330
D
100
AcDbGroup
300

 70
     1
 71
     1
  0
GROUP
  5
22016
102
{ACAD_REACTORS
330
D
102
}
330
D
100
AcDbGroup
300

 70
     1
 71
     1
  0
GROUP
  5
20231
102
{ACAD_REACTORS
330
D
102
}
330
D
100
AcDbGroup
300

 70
     1
 71
     1
  0
GROUP
  5
2242D
102
{ACAD_REACTORS
330
D
102
}
330
D
100
AcDbGroup
300

 70
     1
 71
     1
  0
GROUP
  5
18FA6
102
{ACAD_REACTORS
330
D
102
}
330
D
100
AcDbGroup
300

 70
     1
 71
     1
  0
GROUP
  5
FC95
102
{ACAD_REACTORS
330
D
102
}
330
D
100
AcDbGroup
300

 70
     1
 71
     1
  0
GROUP
  5
2263A
102
{ACAD_REACTORS
330
D
102
}
330
D
100
AcDbGroup
300

 70
     1
 71
     1
  0
GROUP
  5
106B3
102
{ACAD_REACTORS
330
D
102
}
330
D
100
AcDbGroup
300

 70
     1
 71
     1
  0
GROUP
  5
22A73
102
{ACAD_REACTORS
330
D
102
}
330
D
100
AcDbGroup
300

 70
     1
 71
     1
  0
GROUP
  5
24D3F
102
{ACAD_REACTORS
330
D
102
}
330
D
100
AcDbGroup
300

 70
     1
 71
     1
340
24D33
340
24D34
340
24D36
340
24D39
340
24D3A
340
24D3B
340
24D3C
340
24D3D
340
24D3E
  0
GROUP
  5
2284D
102
{ACAD_REACTORS
330
D
102
}
330
D
100
AcDbGroup
300

 70
     1
 71
     1
  0
GROUP
  5
19AA4
102
{ACAD_REACTORS
330
D
102
}
330
D
100
AcDbGroup
300

 70
     1
 71
     1
  0
GROUP
  5
22A71
102
{ACAD_REACTORS
330
D
102
}
330
D
100
AcDbGroup
300

 70
     1
 71
     1
  0
GROUP
  5
198F1
102
{ACAD_REACTORS
330
D
102
}
330
D
100
AcDbGroup
300

 70
     1
 71
     1
  0
GROUP
  5
FC91
102
{ACAD_REACTORS
330
D
102
}
330
D
100
AcDbGroup
300

 70
     1
 71
     1
  0
GROUP
  5
19988
102
{ACAD_REACTORS
330
D
102
}
330
D
100
AcDbGroup
300

 70
     1
 71
     1
  0
GROUP
  5
1A692
102
{ACAD_REACTORS
330
D
102
}
330
D
100
AcDbGroup
300

 70
     1
 71
     1
  0
GROUP
  5
ACBD
102
{ACAD_REACTORS
330
D
102
}
330
D
100
AcDbGroup
300

 70
     1
 71
     1
  0
GROUP
  5
ACA1
102
{ACAD_REACTORS
330
D
102
}
330
D
100
AcDbGroup
300

 70
     1
 71
     1
  0
GROUP
  5
19A52
102
{ACAD_REACTORS
330
D
102
}
330
D
100
AcDbGroup
300

 70
     1
 71
     1
  0
GROUP
  5
FCB8
102
{ACAD_REACTORS
330
D
102
}
330
D
100
AcDbGroup
300

 70
     1
 71
     1
  0
GROUP
  5
24D40
102
{ACAD_REACTORS
330
D
102
}
330
D
100
AcDbGroup
300

 70
     1
 71
     1
340
24D33
340
24D34
340
24D36
340
24D39
340
24D3A
340
24D3B
340
24D3C
340
24D3D
340
24D3E
  0
GROUP
  5
19FAB
102
{ACAD_REACTORS
330
D
102
}
330
D
100
AcDbGroup
300

 70
     1
 71
     1
  0
GROUP
  5
2002B
102
{ACAD_REACTORS
330
D
102
}
330
D
100
AcDbGroup
300

 70
     1
 71
     1
  0
GROUP
  5
16068
102
{ACAD_REACTORS
330
D
102
}
330
D
100
AcDbGroup
300

 70
     1
 71
     1
  0
GROUP
  5
1A691
102
{ACAD_REACTORS
330
D
102
}
330
D
100
AcDbGroup
300

 70
     1
 71
     1
  0
GROUP
  5
1D706
102
{ACAD_REACTORS
330
D
102
}
330
D
100
AcDbGroup
300

 70
     1
 71
     1
  0
GROUP
  5
19881
102
{ACAD_REACTORS
330
D
102
}
330
D
100
AcDbGroup
300

 70
     1
 71
     1
  0
GROUP
  5
23C26
102
{ACAD_REACTORS
330
D
102
}
330
D
100
AcDbGroup
300

 70
     1
 71
     1
  0
GROUP
  5
1F8FF
102
{ACAD_REACTORS
330
D
102
}
330
D
100
AcDbGroup
300

 70
     1
 71
     1
  0
GROUP
  5
23F0C
102
{ACAD_REACTORS
330
D
102
}
330
D
100
AcDbGroup
300

 70
     1
 71
     1
  0
GROUP
  5
20218
102
{ACAD_REACTORS
330
D
102
}
330
D
100
AcDbGroup
300

 70
     1
 71
     1
  0
GROUP
  5
23F0E
102
{ACAD_REACTORS
330
D
102
}
330
D
100
AcDbGroup
300

 70
     1
 71
     1
  0
GROUP
  5
2284F
102
{ACAD_REACTORS
330
D
102
}
330
D
100
AcDbGroup
300

 70
     1
 71
     1
  0
GROUP
  5
18F22
102
{ACAD_REACTORS
330
D
102
}
330
D
100
AcDbGroup
300

 70
     1
 71
     1
  0
GROUP
  5
22CA1
102
{ACAD_REACTORS
330
D
102
}
330
D
100
AcDbGroup
300

 70
     1
 71
     1
  0
GROUP
  5
173BD
102
{ACAD_REACTORS
330
D
102
}
330
D
100
AcDbGroup
300

 70
     1
 71
     1
  0
GROUP
  5
16069
102
{ACAD_REACTORS
330
D
102
}
330
D
100
AcDbGroup
300

 70
     1
 71
     1
  0
GROUP
  5
1EB7C
102
{ACAD_REACTORS
330
D
102
}
330
D
100
AcDbGroup
300

 70
     1
 71
     1
  0
GROUP
  5
1EB7F
102
{ACAD_REACTORS
330
D
102
}
330
D
100
AcDbGroup
300

 70
     1
 71
     1
  0
GROUP
  5
19794
102
{ACAD_REACTORS
330
D
102
}
330
D
100
AcDbGroup
300

 70
     1
 71
     1
  0
GROUP
  5
16058
102
{ACAD_REACTORS
330
D
102
}
330
D
100
AcDbGroup
300

 70
     1
 71
     1
  0
GROUP
  5
22CA2
102
{ACAD_REACTORS
330
D
102
}
330
D
100
AcDbGroup
300

 70
     1
 71
     1
  0
GROUP
  5
20019
102
{ACAD_REACTORS
330
D
102
}
330
D
100
AcDbGroup
300

 70
     1
 71
     1
  0
GROUP
  5
106C6
102
{ACAD_REACTORS
330
D
102
}
330
D
100
AcDbGroup
300

 70
     1
 71
     1
  0
GROUP
  5
1D6F2
102
{ACAD_REACTORS
330
D
102
}
330
D
100
AcDbGroup
300

 70
     1
 71
     1
  0
GROUP
  5
1EB7E
102
{ACAD_REACTORS
330
D
102
}
330
D
100
AcDbGroup
300

 70
     1
 71
     1
  0
GROUP
  5
2001F
102
{ACAD_REACTORS
330
D
102
}
330
D
100
AcDbGroup
300

 70
     1
 71
     1
  0
GROUP
  5
22CA3
102
{ACAD_REACTORS
330
D
102
}
330
D
100
AcDbGroup
300

 70
     1
 71
     1
  0
GROUP
  5
19A86
102
{ACAD_REACTORS
330
D
102
}
330
D
100
AcDbGroup
300

 70
     1
 71
     1
  0
GROUP
  5
1F91D
102
{ACAD_REACTORS
330
D
102
}
330
D
100
AcDbGroup
300

 70
     1
 71
     1
  0
GROUP
  5
18F23
102
{ACAD_REACTORS
330
D
102
}
330
D
100
AcDbGroup
300

 70
     1
 71
     1
  0
GROUP
  5
1AA94
102
{ACAD_REACTORS
330
D
102
}
330
D
100
AcDbGroup
300

 70
     1
 71
     1
  0
GROUP
  5
1B74D
102
{ACAD_REACTORS
330
D
102
}
330
D
100
AcDbGroup
300

 70
     1
 71
     1
  0
GROUP
  5
231AD
102
{ACAD_REACTORS
330
D
102
}
330
D
100
AcDbGroup
300

 70
     1
 71
     1
  0
GROUP
  5
2021D
102
{ACAD_REACTORS
330
D
102
}
330
D
100
AcDbGroup
300

 70
     1
 71
     1
  0
GROUP
  5
1F8F0
102
{ACAD_REACTORS
330
D
102
}
330
D
100
AcDbGroup
300

 70
     1
 71
     1
  0
GROUP
  5
21D4D
102
{ACAD_REACTORS
330
D
102
}
330
D
100
AcDbGroup
300

 70
     1
 71
     1
340
218D0
340
218FD
340
218F0
340
219C9
  0
GROUP
  5
17BFF
102
{ACAD_REACTORS
330
D
102
}
330
D
100
AcDbGroup
300

 70
     1
 71
     1
  0
GROUP
  5
231AE
102
{ACAD_REACTORS
330
D
102
}
330
D
100
AcDbGroup
300

 70
     1
 71
     1
  0
GROUP
  5
1D684
102
{ACAD_REACTORS
330
D
102
}
330
D
100
AcDbGroup
300

 70
     1
 71
     1
  0
GROUP
  5
FC9B
102
{ACAD_REACTORS
330
D
102
}
330
D
100
AcDbGroup
300

 70
     1
 71
     1
  0
GROUP
  5
23C24
102
{ACAD_REACTORS
330
D
102
}
330
D
100
AcDbGroup
300

 70
     1
 71
     1
  0
GROUP
  5
1D6FC
102
{ACAD_REACTORS
330
D
102
}
330
D
100
AcDbGroup
300

 70
     1
 71
     1
  0
GROUP
  5
231F5
102
{ACAD_REACTORS
330
D
102
}
330
D
100
AcDbGroup
300

 70
     1
 71
     1
  0
GROUP
  5
20CA6
102
{ACAD_REACTORS
330
D
102
}
330
D
100
AcDbGroup
300

 70
     1
 71
     1
  0
GROUP
  5
23F10
102
{ACAD_REACTORS
330
D
102
}
330
D
100
AcDbGroup
300

 70
     1
 71
     1
  0
GROUP
  5
22017
102
{ACAD_REACTORS
330
D
102
}
330
D
100
AcDbGroup
300

 70
     1
 71
     1
  0
GROUP
  5
1D6C0
102
{ACAD_REACTORS
330
D
102
}
330
D
100
AcDbGroup
300

 70
     1
 71
     1
  0
GROUP
  5
18F21
102
{ACAD_REACTORS
330
D
102
}
330
D
100
AcDbGroup
300

 70
     1
 71
     1
  0
GROUP
  5
19729
102
{ACAD_REACTORS
330
D
102
}
330
D
100
AcDbGroup
300

 70
     1
 71
     1
  0
GROUP
  5
231F9
102
{ACAD_REACTORS
330
D
102
}
330
D
100
AcDbGroup
300

 70
     1
 71
     1
  0
GROUP
  5
1D6A2
102
{ACAD_REACTORS
330
D
102
}
330
D
100
AcDbGroup
300

 70
     1
 71
     1
  0
GROUP
  5
2242E
102
{ACAD_REACTORS
330
D
102
}
330
D
100
AcDbGroup
300

 70
     1
 71
     1
  0
GROUP
  5
1D68E
102
{ACAD_REACTORS
330
D
102
}
330
D
100
AcDbGroup
300

 70
     1
 71
     1
  0
GROUP
  5
19786
102
{ACAD_REACTORS
330
D
102
}
330
D
100
AcDbGroup
300

 70
     1
 71
     1
  0
GROUP
  5
20CA2
102
{ACAD_REACTORS
330
D
102
}
330
D
100
AcDbGroup
300

 70
     1
 71
     1
  0
GROUP
  5
1EB80
102
{ACAD_REACTORS
330
D
102
}
330
D
100
AcDbGroup
300

 70
     1
 71
     1
  0
GROUP
  5
20016
102
{ACAD_REACTORS
330
D
102
}
330
D
100
AcDbGroup
300

 70
     1
 71
     1
  0
GROUP
  5
ACB4
102
{ACAD_REACTORS
330
D
102
}
330
D
100
AcDbGroup
300

 70
     1
 71
     1
  0
GROUP
  5
20209
102
{ACAD_REACTORS
330
D
102
}
330
D
100
AcDbGroup
300

 70
     1
 71
     1
  0
GROUP
  5
1F90E
102
{ACAD_REACTORS
330
D
102
}
330
D
100
AcDbGroup
300

 70
     1
 71
     1
  0
GROUP
  5
22014
102
{ACAD_REACTORS
330
D
102
}
330
D
100
AcDbGroup
300

 70
     1
 71
     1
  0
GROUP
  5
18F20
102
{ACAD_REACTORS
330
D
102
}
330
D
100
AcDbGroup
300

 70
     1
 71
     1
  0
GROUP
  5
19A5A
102
{ACAD_REACTORS
330
D
102
}
330
D
100
AcDbGroup
300

 70
     1
 71
     1
  0
GROUP
  5
16059
102
{ACAD_REACTORS
330
D
102
}
330
D
100
AcDbGroup
300

 70
     1
 71
     1
  0
GROUP
  5
1A695
102
{ACAD_REACTORS
330
D
102
}
330
D
100
AcDbGroup
300

 70
     1
 71
     1
  0
GROUP
  5
22231
102
{ACAD_REACTORS
330
D
102
}
330
D
100
AcDbGroup
300

 70
     1
 71
     1
  0
GROUP
  5
19A51
102
{ACAD_REACTORS
330
D
102
}
330
D
100
AcDbGroup
300

 70
     1
 71
     1
  0
GROUP
  5
19787
102
{ACAD_REACTORS
330
D
102
}
330
D
100
AcDbGroup
300

 70
     1
 71
     1
  0
GROUP
  5
1D6CA
102
{ACAD_REACTORS
330
D
102
}
330
D
100
AcDbGroup
300

 70
     1
 71
     1
  0
GROUP
  5
21D4E
102
{ACAD_REACTORS
330
D
102
}
330
D
100
AcDbGroup
300

 70
     1
 71
     1
340
21933
340
21932
340
21930
340
2192D
340
21924
340
2191D
340
2191A
340
21919
340
21918
  0
GROUP
  5
20236
102
{ACAD_REACTORS
330
D
102
}
330
D
100
AcDbGroup
300

 70
     1
 71
     1
  0
GROUP
  5
2222F
102
{ACAD_REACTORS
330
D
102
}
330
D
100
AcDbGroup
300

 70
     1
 71
     1
  0
GROUP
  5
19256
102
{ACAD_REACTORS
330
D
102
}
330
D
100
AcDbGroup
300

 70
     1
 71
     1
  0
GROUP
  5
2242F
102
{ACAD_REACTORS
330
D
102
}
330
D
100
AcDbGroup
300

 70
     1
 71
     1
  0
GROUP
  5
18FA8
102
{ACAD_REACTORS
330
D
102
}
330
D
100
AcDbGroup
300

 70
     1
 71
     1
  0
GROUP
  5
2263B
102
{ACAD_REACTORS
330
D
102
}
330
D
100
AcDbGroup
300

 70
     1
 71
     1
  0
GROUP
  5
1606B
102
{ACAD_REACTORS
330
D
102
}
330
D
100
AcDbGroup
300

 70
     1
 71
     1
  0
GROUP
  5
19F99
102
{ACAD_REACTORS
330
D
102
}
330
D
100
AcDbGroup
300

 70
     1
 71
     1
  0
GROUP
  5
ACA2
102
{ACAD_REACTORS
330
D
102
}
330
D
100
AcDbGroup
300

 70
     1
 71
     1
  0
GROUP
  5
2284E
102
{ACAD_REACTORS
330
D
102
}
330
D
100
AcDbGroup
300

 70
     1
 71
     1
  0
GROUP
  5
20028
102
{ACAD_REACTORS
330
D
102
}
330
D
100
AcDbGroup
300

 70
     1
 71
     1
  0
GROUP
  5
106A5
102
{ACAD_REACTORS
330
D
102
}
330
D
100
AcDbGroup
300

 70
     1
 71
     1
  0
GROUP
  5
23216
102
{ACAD_REACTORS
330
D
102
}
330
D
100
AcDbGroup
300

 70
     1
 71
     1
  0
GROUP
  5
2342E
102
{ACAD_REACTORS
330
D
102
}
330
D
100
AcDbGroup
300

 70
     1
 71
     1
  0
GROUP
  5
2342F
102
{ACAD_REACTORS
330
D
102
}
330
D
100
AcDbGroup
300

 70
     1
 71
     1
  0
GROUP
  5
23430
102
{ACAD_REACTORS
330
D
102
}
330
D
100
AcDbGroup
300

 70
     1
 71
     1
  0
GROUP
  5
23431
102
{ACAD_REACTORS
330
D
102
}
330
D
100
AcDbGroup
300

 70
     1
 71
     1
  0
GROUP
  5
23432
102
{ACAD_REACTORS
330
D
102
}
330
D
100
AcDbGroup
300

 70
     1
 71
     1
  0
GROUP
  5
1F909
102
{ACAD_REACTORS
330
D
102
}
330
D
100
AcDbGroup
300

 70
     1
 71
     1
  0
GROUP
  5
22015
102
{ACAD_REACTORS
330
D
102
}
330
D
100
AcDbGroup
300

 70
     1
 71
     1
  0
GROUP
  5
23788
102
{ACAD_REACTORS
330
D
102
}
330
D
100
AcDbGroup
300

 70
     1
 71
     1
  0
GROUP
  5
23789
102
{ACAD_REACTORS
330
D
102
}
330
D
100
AcDbGroup
300

 70
     1
 71
     1
  0
GROUP
  5
2378A
102
{ACAD_REACTORS
330
D
102
}
330
D
100
AcDbGroup
300

 70
     1
 71
     1
  0
GROUP
  5
17B11
102
{ACAD_REACTORS
330
D
102
}
330
D
100
AcDbGroup
300

 70
     1
 71
     1
  0
GROUP
  5
19259
102
{ACAD_REACTORS
330
D
102
}
330
D
100
AcDbGroup
300

 70
     1
 71
     1
  0
GROUP
  5
20022
102
{ACAD_REACTORS
330
D
102
}
330
D
100
AcDbGroup
300

 70
     1
 71
     1
  0
GROUP
  5
1998A
102
{ACAD_REACTORS
330
D
102
}
330
D
100
AcDbGroup
300

 70
     1
 71
     1
  0
GROUP
  5
2378B
102
{ACAD_REACTORS
330
D
102
}
330
D
100
AcDbGroup
300

 70
     1
 71
     1
  0
GROUP
  5
19255
102
{ACAD_REACTORS
330
D
102
}
330
D
100
AcDbGroup
300

 70
     1
 71
     1
  0
MLINESTYLE
  5
1C
102
{ACAD_REACTORS
330
1B
102
}
330
1B
100
AcDbMlineStyle
  2
STANDARD
 70
     0
  3

 62
   256
 51
90.0
 52
90.0
 71
     2
 49
0.5
 62
   256
  6
BYLAYER
 49
-0.5
 62
   256
  6
BYLAYER
  0
ACDBPLACEHOLDER
  5
FB5C
102
{ACAD_REACTORS
330
FB5B
102
}
330
FB5B
100
AcDbPlaceHolder
280
     0
  0
XRECORD
  5
24D70
102
{ACAD_REACTORS
330
24D66
102
}
330
24D66
100
AcDbXrecord
 90
        0
  0
XRECORD
  5
24D74
102
{ACAD_REACTORS
330
24D66
102
}
330
24D66
100
AcDbXrecord
1000
DSTYLE
1002
{
1070
   289
 70
     1
1070
   341
340
1215D
1070
   342
340
1215D
1070
   371
 70
    13
1070
   372
 70
    13
1002
}
  0
XRECORD
  5
24D71
102
{ACAD_REACTORS
330
24D66
102
}
330
24D66
100
AcDbXrecord
  1
{D14EE3FF-941A-415A-9907-344E0A80D794}
  0
XRECORD
  5
24D69
102
{ACAD_REACTORS
330
24D66
102
}
330
24D66
100
AcDbXrecord
  1

  0
XRECORD
  5
24D6F
102
{ACAD_REACTORS
330
24D66
102
}
330
24D66
100
AcDbXrecord
 90
        0
  0
XRECORD
  5
24D6B
102
{ACAD_REACTORS
330
24D66
102
}
330
24D66
100
AcDbXrecord
340
DB2
  0
XRECORD
  5
24D6E
102
{ACAD_REACTORS
330
24D66
102
}
330
24D66
100
AcDbXrecord
 90
    10781
  0
XRECORD
  5
24D6C
102
{ACAD_REACTORS
330
24D66
102
}
330
24D66
100
AcDbXrecord
340
DB3
  0
XRECORD
  5
24D6D
102
{ACAD_REACTORS
330
24D66
102
}
330
24D66
100
AcDbXrecord
340
FB5B
  0
XRECORD
  5
24D73
102
{ACAD_REACTORS
330
24D66
102
}
330
24D66
100
AcDbXrecord
 40
0.0
  0
XRECORD
  5
24D77
102
{ACAD_REACTORS
330
24D66
102
}
330
24D66
100
AcDbXrecord
340
0
  0
XRECORD
  5
24D7D
102
{ACAD_REACTORS
330
24D66
102
}
330
24D66
100
AcDbXrecord
 10
0.0
 20
0.0
 30
0.0
  0
XRECORD
  5
24D79
102
{ACAD_REACTORS
330
24D66
102
}
330
24D66
100
AcDbXrecord
 10
0.0
 20
0.0
 30
0.0
  0
XRECORD
  5
24D7C
102
{ACAD_REACTORS
330
24D66
102
}
330
24D66
100
AcDbXrecord
 10
0.0
 20
0.0
 30
0.0
  0
XRECORD
  5
24D7A
102
{ACAD_REACTORS
330
24D66
102
}
330
24D66
100
AcDbXrecord
 10
0.0
 20
0.0
 30
0.0
  0
XRECORD
  5
24D7B
102
{ACAD_REACTORS
330
24D66
102
}
330
24D66
100
AcDbXrecord
 10
0.0
 20
0.0
 30
0.0
  0
XRECORD
  5
24D78
102
{ACAD_REACTORS
330
24D66
102
}
330
24D66
100
AcDbXrecord
 10
0.0
 20
0.0
 30
0.0
  0
XRECORD
  5
24D75
102
{ACAD_REACTORS
330
24D66
102
}
330
24D66
100
AcDbXrecord
340
0
  0
XRECORD
  5
24D76
102
{ACAD_REACTORS
330
24D66
102
}
330
24D66
100
AcDbXrecord
 70
     0
  0
XRECORD
  5
24D6A
102
{ACAD_REACTORS
330
24D66
102
}
330
24D66
100
AcDbXrecord
  1
MONOCHROME.CTB
  0
XRECORD
  5
24D67
102
{ACAD_REACTORS
330
24D66
102
}
330
24D66
100
AcDbXrecord
 90
        1
  0
XRECORD
  5
24D68
102
{ACAD_REACTORS
330
24D66
102
}
330
24D66
100
AcDbXrecord
 90
       70
  0
XRECORD
  5
24D80
102
{ACAD_REACTORS
330
24D66
102
}
330
24D66
100
AcDbXrecord
340
0
  0
XRECORD
  5
24D86
102
{ACAD_REACTORS
330
24D66
102
}
330
24D66
100
AcDbXrecord
 10
0.0
 20
0.0
 30
0.0
  0
XRECORD
  5
24D82
102
{ACAD_REACTORS
330
24D66
102
}
330
24D66
100
AcDbXrecord
 10
0.0
 20
0.0
 30
0.0
  0
XRECORD
  5
24D85
102
{ACAD_REACTORS
330
24D66
102
}
330
24D66
100
AcDbXrecord
 10
0.0
 20
0.0
 30
0.0
  0
XRECORD
  5
24D83
102
{ACAD_REACTORS
330
24D66
102
}
330
24D66
100
AcDbXrecord
 10
0.0
 20
0.0
 30
0.0
  0
XRECORD
  5
24D84
102
{ACAD_REACTORS
330
24D66
102
}
330
24D66
100
AcDbXrecord
 10
0.0
 20
0.0
 30
0.0
  0
XRECORD
  5
24D81
102
{ACAD_REACTORS
330
24D66
102
}
330
24D66
100
AcDbXrecord
 10
0.0
 20
0.0
 30
0.0
  0
XRECORD
  5
24D7E
102
{ACAD_REACTORS
330
24D66
102
}
330
24D66
100
AcDbXrecord
340
0
  0
XRECORD
  5
24D7F
102
{ACAD_REACTORS
330
24D66
102
}
330
24D66
100
AcDbXrecord
 70
     0
  0
XRECORD
  5
24D72
102
{ACAD_REACTORS
330
24D66
102
}
330
24D66
100
AcDbXrecord
  1
{BE93D652-F2ED-4C80-8D97-DBCF0312C717}
  0
DICTIONARYVAR
  5
106A7
102
{ACAD_REACTORS
330
106A6
102
}
330
106A6
100
DictionaryVariables
280
     0
  1
96
  0
XRECORD
  5
1A9A1
102
{ACAD_REACTORS
330
1A99F
102
}
330
1A99F
100
AcDbXrecord
330
187D7
330
0
330
0
330
0
330
0
330
0
330
0
330
0
330
0
330
0
330
79
330
115F
330
0
330
0
330
0
330
0
330
0
330
0
330
0
330
0
330
0
330
0
330
0
330
0
330
0
330
0
330
0
330
0
330
0
330
0
330
0
330
0
330
0
330
0
330
0
330
0
330
0
330
0
330
0
330
0
330
0
330
0
330
0
330
0
  0
XRECORD
  5
24C95
102
{ACAD_REACTORS
330
24C94
102
}
330
24C94
100
AcDbXrecord
  1
0
  1
*0
  1
*
  1
*
 70
     0
  1
*
  1
*
  0
XRECORD
  5
24C96
102
{ACAD_REACTORS
330
24C94
102
}
330
24C94
100
AcDbXrecord
  1
11
  1
*11
  1
*
  1
*
 70
     0
  1
*
  1
*
  0
XRECORD
  5
24C97
102
{ACAD_REACTORS
330
24C94
102
}
330
24C94
100
AcDbXrecord
  1
150_
  1
150_*
  1
*
  1
*
 70
     0
  1
*
  1
*
  0
XRECORD
  5
24C98
102
{ACAD_REACTORS
330
24C94
102
}
330
24C94
100
AcDbXrecord
  1
160_
  1
160_*
  1
*
  1
*
 70
     0
  1
*
  1
*
  0
XRECORD
  5
24C99
102
{ACAD_REACTORS
330
24C94
102
}
330
24C94
100
AcDbXrecord
  1
170_
  1
170_*
  1
*
  1
*
 70
     0
  1
*
  1
*
  0
XRECORD
  5
24C9A
102
{ACAD_REACTORS
330
24C94
102
}
330
24C94
100
AcDbXrecord
  1
171_
  1
171_*
  1
*
  1
*
 70
     0
  1
*
  1
*
  0
XRECORD
  5
24C9B
102
{ACAD_REACTORS
330
24C94
102
}
330
24C94
100
AcDbXrecord
  1
350_
  1
350_*
  1
*
  1
*
 70
     0
  1
*
  1
*
  0
XRECORD
  5
24C9C
102
{ACAD_REACTORS
330
24C94
102
}
330
24C94
100
AcDbXrecord
  1
4
  1
*4
  1
*
  1
*
 70
     0
  1
*
  1
*
  0
XRECORD
  5
24C9D
102
{ACAD_REACTORS
330
24C94
102
}
330
24C94
100
AcDbXrecord
  1
5
  1
*5
  1
*
  1
*
 70
     0
  1
*
  1
*
  0
XRECORD
  5
24C9E
102
{ACAD_REACTORS
330
24C94
102
}
330
24C94
100
AcDbXrecord
  1
7
  1
*7
  1
*
  1
*
 70
     0
  1
*
  1
*
  0
XRECORD
  5
24C9F
102
{ACAD_REACTORS
330
24C94
102
}
330
24C94
100
AcDbXrecord
  1
kiseki
  1
kiseki*
  1
*
  1
*
 70
     0
  1
*
  1
*
  0
ENDSEC
  0
EOF
