  0
SECTION
  2
HEADER
  9
$ACADVER
  1
AC1027
  9
$ACADMAINTVER
 70
     8
  9
$DWGCODEPAGE
  3
ANSI_932
  9
$REQUIREDVERSIONS
160
                 0
  9
$LASTSAVEDBY
  1
saegusa
  9
$INSBASE
 10
0.0
 20
0.0
 30
0.0
  9
$EXTMIN
 10
5743.036793916191
 20
-2408.572008166943
 30
0.0
  9
$EXTMAX
 10
6460.434031873806
 20
-2005.953553821388
 30
137.5
  9
$LIMMIN
 10
0.0
 20
0.0
  9
$LIMMAX
 10
420.0
 20
297.0
  9
$ORTHOMODE
 70
     1
  9
$REGENMODE
 70
     1
  9
$FILLMODE
 70
     1
  9
$QTEXTMODE
 70
     0
  9
$MIRRTEXT
 70
     0
  9
$LTSCALE
 40
1.0
  9
$ATTMODE
 70
     1
  9
$TEXTSIZE
 40
0.2
  9
$TRACEWID
 40
1.0
  9
$TEXTSTYLE
  7
まこ
  9
$CLAYER
  8
実線
  9
$CELTYPE
  6
BYLAYER
  9
$CECOLOR
 62
   256
  9
$CELTSCALE
 40
1.0
  9
$DISPSILH
 70
     0
  9
$DIMSCALE
 40
3.5
  9
$DIMASZ
 40
2.5
  9
$DIMEXO
 40
1.0
  9
$DIMDLI
 40
0.38
  9
$DIMRND
 40
0.0
  9
$DIMDLE
 40
0.0
  9
$DIMEXE
 40
1.0
  9
$DIMTP
 40
0.0
  9
$DIMTM
 40
0.0
  9
$DIMTXT
 40
2.5
  9
$DIMCEN
 40
0.0
  9
$DIMTSZ
 40
0.0
  9
$DIMTOL
 70
     0
  9
$DIMLIM
 70
     0
  9
$DIMTIH
 70
     0
  9
$DIMTOH
 70
     0
  9
$DIMSE1
 70
     0
  9
$DIMSE2
 70
     0
  9
$DIMTAD
 70
     3
  9
$DIMZIN
 70
     8
  9
$DIMBLK
  1
Open30
  9
$DIMASO
 70
     1
  9
$DIMSHO
 70
     1
  9
$DIMPOST
  1

  9
$DIMAPOST
  1

  9
$DIMALT
 70
     0
  9
$DIMALTD
 70
     2
  9
$DIMALTF
 40
25.4
  9
$DIMLFAC
 40
1.0
  9
$DIMTOFL
 70
     1
  9
$DIMTVP
 40
0.0
  9
$DIMTIX
 70
     0
  9
$DIMSOXD
 70
     0
  9
$DIMSAH
 70
     0
  9
$DIMBLK1
  1

  9
$DIMBLK2
  1

  9
$DIMSTYLE
  2
STANDARD
  9
$DIMCLRD
 70
     4
  9
$DIMCLRE
 70
     4
  9
$DIMCLRT
 70
   256
  9
$DIMTFAC
 40
1.0
  9
$DIMGAP
 40
0.5
  9
$DIMJUST
 70
     0
  9
$DIMSD1
 70
     0
  9
$DIMSD2
 70
     0
  9
$DIMTOLJ
 70
     1
  9
$DIMTZIN
 70
     0
  9
$DIMALTZ
 70
     0
  9
$DIMALTTZ
 70
     0
  9
$DIMUPT
 70
     0
  9
$DIMDEC
 70
     3
  9
$DIMTDEC
 70
     3
  9
$DIMALTU
 70
     2
  9
$DIMALTTD
 70
     2
  9
$DIMTXSTY
  7
STANDARD
  9
$DIMAUNIT
 70
     0
  9
$DIMADEC
 70
     3
  9
$DIMALTRND
 40
0.0
  9
$DIMAZIN
 70
     2
  9
$DIMDSEP
 70
    46
  9
$DIMATFIT
 70
     0
  9
$DIMFRAC
 70
     0
  9
$DIMLDRBLK
  1
Open30
  9
$DIMLUNIT
 70
     2
  9
$DIMLWD
 70
    13
  9
$DIMLWE
 70
    13
  9
$DIMTMOVE
 70
     0
  9
$DIMFXL
 40
1.0
  9
$DIMFXLON
 70
     0
  9
$DIMJOGANG
 40
0.7853981633974483
  9
$DIMTFILL
 70
     0
  9
$DIMTFILLCLR
 70
     0
  9
$DIMARCSYM
 70
     0
  9
$DIMLTYPE
  6

  9
$DIMLTEX1
  6

  9
$DIMLTEX2
  6

  9
$DIMTXTDIRECTION
 70
     0
  9
$LUNITS
 70
     2
  9
$LUPREC
 70
     4
  9
$SKETCHINC
 40
1.0
  9
$FILLETRAD
 40
40.0
  9
$AUNITS
 70
     0
  9
$AUPREC
 70
     0
  9
$MENU
  1
.
  9
$ELEVATION
 40
0.0
  9
$PELEVATION
 40
0.0
  9
$THICKNESS
 40
0.0
  9
$LIMCHECK
 70
     0
  9
$CHAMFERA
 40
0.5
  9
$CHAMFERB
 40
0.5
  9
$CHAMFERC
 40
20.0
  9
$CHAMFERD
 40
0.0
  9
$SKPOLY
 70
     0
  9
$TDCREATE
 40
2452479.723123183
  9
$TDUCREATE
 40
2452479.348123183
  9
$TDUPDATE
 40
2458137.495438044
  9
$TDUUPDATE
 40
2458137.120438044
  9
$TDINDWG
 40
17.0731389005
  9
$TDUSRTIMER
 40
2458137.120274838
  9
$USRTIMER
 70
     1
  9
$ANGBASE
 50
0.0
  9
$ANGDIR
 70
     0
  9
$PDMODE
 70
     0
  9
$PDSIZE
 40
0.0
  9
$PLINEWID
 40
0.0
  9
$SPLFRAME
 70
     0
  9
$SPLINETYPE
 70
     6
  9
$SPLINESEGS
 70
     8
  9
$HANDSEED
  5
109383
  9
$SURFTAB1
 70
     6
  9
$SURFTAB2
 70
     6
  9
$SURFTYPE
 70
     6
  9
$SURFU
 70
     6
  9
$SURFV
 70
     6
  9
$UCSBASE
  2

  9
$UCSNAME
  2

  9
$UCSORG
 10
0.0
 20
0.0
 30
0.0
  9
$UCSXDIR
 10
1.0
 20
0.0
 30
0.0
  9
$UCSYDIR
 10
0.0
 20
1.0
 30
0.0
  9
$UCSORTHOREF
  2

  9
$UCSORTHOVIEW
 70
     0
  9
$UCSORGTOP
 10
0.0
 20
0.0
 30
0.0
  9
$UCSORGBOTTOM
 10
0.0
 20
0.0
 30
0.0
  9
$UCSORGLEFT
 10
0.0
 20
0.0
 30
0.0
  9
$UCSORGRIGHT
 10
0.0
 20
0.0
 30
0.0
  9
$UCSORGFRONT
 10
0.0
 20
0.0
 30
0.0
  9
$UCSORGBACK
 10
0.0
 20
0.0
 30
0.0
  9
$PUCSBASE
  2

  9
$PUCSNAME
  2

  9
$PUCSORG
 10
0.0
 20
0.0
 30
0.0
  9
$PUCSXDIR
 10
1.0
 20
0.0
 30
0.0
  9
$PUCSYDIR
 10
0.0
 20
1.0
 30
0.0
  9
$PUCSORTHOREF
  2

  9
$PUCSORTHOVIEW
 70
     0
  9
$PUCSORGTOP
 10
0.0
 20
0.0
 30
0.0
  9
$PUCSORGBOTTOM
 10
0.0
 20
0.0
 30
0.0
  9
$PUCSORGLEFT
 10
0.0
 20
0.0
 30
0.0
  9
$PUCSORGRIGHT
 10
0.0
 20
0.0
 30
0.0
  9
$PUCSORGFRONT
 10
0.0
 20
0.0
 30
0.0
  9
$PUCSORGBACK
 10
0.0
 20
0.0
 30
0.0
  9
$USERI1
 70
     0
  9
$USERI2
 70
     0
  9
$USERI3
 70
     0
  9
$USERI4
 70
     0
  9
$USERI5
 70
     0
  9
$USERR1
 40
10.0
  9
$USERR2
 40
0.0
  9
$USERR3
 40
0.0
  9
$USERR4
 40
0.0
  9
$USERR5
 40
0.0
  9
$WORLDVIEW
 70
     1
  9
$SHADEDGE
 70
     3
  9
$SHADEDIF
 70
    70
  9
$TILEMODE
 70
     1
  9
$MAXACTVP
 70
    48
  9
$PINSBASE
 10
0.0
 20
0.0
 30
0.0
  9
$PLIMCHECK
 70
     0
  9
$PEXTMIN
 10
-3.997131835496828
 20
0.7026409330771171
 30
0.0
  9
$PEXTMAX
 10
4.402868164503173
 20
6.302640933077118
 30
0.0
  9
$PLIMMIN
 10
-5.297131835496827
 20
-0.7473590669228828
  9
$PLIMMAX
 10
5.702868164503173
 20
7.752640933077117
  9
$UNITMODE
 70
     0
  9
$VISRETAIN
 70
     1
  9
$PLINEGEN
 70
     0
  9
$PSLTSCALE
 70
     1
  9
$TREEDEPTH
 70
  3020
  9
$CMLSTYLE
  2
STANDARD
  9
$CMLJUST
 70
     0
  9
$CMLSCALE
 40
20.0
  9
$PROXYGRAPHICS
 70
     1
  9
$MEASUREMENT
 70
     0
  9
$CELWEIGHT
370
    -1
  9
$ENDCAPS
280
     0
  9
$JOINSTYLE
280
     0
  9
$LWDISPLAY
290
     0
  9
$INSUNITS
 70
     0
  9
$HYPERLINKBASE
  1

  9
$STYLESHEET
  1
monochrome.ctb
  9
$XEDIT
290
     1
  9
$CEPSNTYPE
380
     0
  9
$PSTYLEMODE
290
     1
  9
$FINGERPRINTGUID
  2
{6B368F64-F7EB-11D4-BFBA-00004C030E53}
  9
$VERSIONGUID
  2
{DC3A3D74-B690-4777-8B47-018C0883E011}
  9
$EXTNAMES
290
     1
  9
$PSVPSCALE
 40
0.5
  9
$OLESTARTUP
290
     0
  9
$SORTENTS
280
    96
  9
$INDEXCTL
280
     0
  9
$HIDETEXT
280
     1
  9
$XCLIPFRAME
280
     2
  9
$HALOGAP
280
     0
  9
$OBSCOLOR
 70
   257
  9
$OBSLTYPE
280
     0
  9
$INTERSECTIONDISPLAY
280
     0
  9
$INTERSECTIONCOLOR
 70
   257
  9
$DIMASSOC
280
     1
  9
$PROJECTNAME
  1

  9
$CAMERADISPLAY
290
     0
  9
$LENSLENGTH
 40
50.0
  9
$CAMERAHEIGHT
 40
0.0
  9
$STEPSPERSEC
 40
2.0
  9
$STEPSIZE
 40
6.0
  9
$3DDWFPREC
 40
2.0
  9
$PSOLWIDTH
 40
0.25
  9
$PSOLHEIGHT
 40
4.0
  9
$LOFTANG1
 40
1.570796326794897
  9
$LOFTANG2
 40
1.570796326794897
  9
$LOFTMAG1
 40
0.0
  9
$LOFTMAG2
 40
0.0
  9
$LOFTPARAM
 70
     7
  9
$LOFTNORMALS
280
     1
  9
$LATITUDE
 40
37.795
  9
$LONGITUDE
 40
-122.394
  9
$NORTHDIRECTION
 40
0.0
  9
$TIMEZONE
 70
 -8000
  9
$LIGHTGLYPHDISPLAY
280
     1
  9
$TILEMODELIGHTSYNCH
280
     1
  9
$SOLIDHIST
280
     0
  9
$SHOWHIST
280
     1
  9
$DWFFRAME
280
     2
  9
$DGNFRAME
280
     2
  9
$REALWORLDSCALE
290
     1
  9
$INTERFERECOLOR
 62
   256
  9
$CSHADOW
280
     0
  9
$SHADOWPLANELOCATION
 40
0.0
  0
ENDSEC
  0
SECTION
  2
CLASSES
  0
CLASS
  1
HATCH
  2
AcDbHatch
  3
ObjectDBX Classes
 90
        0
 91
        1
280
     0
281
     1
  0
CLASS
  1
LWPOLYLINE
  2
AcDbPolyline
  3
ObjectDBX Classes
 90
        0
 91
        1
280
     0
281
     1
  0
CLASS
  1
ACDBDICTIONARYWDFLT
  2
AcDbDictionaryWithDefault
  3
ObjectDBX Classes
 90
        0
 91
        4
280
     0
281
     0
  0
CLASS
  1
ACDBPLACEHOLDER
  2
AcDbPlaceHolder
  3
ObjectDBX Classes
 90
        0
 91
        1
280
     0
281
     0
  0
CLASS
  1
LAYOUT
  2
AcDbLayout
  3
ObjectDBX Classes
 90
        0
 91
        1
280
     0
281
     0
  0
CLASS
  1
DICTIONARYVAR
  2
AcDbDictionaryVar
  3
ObjectDBX Classes
 90
        0
 91
        4
280
     0
281
     0
  0
CLASS
  1
MATERIAL
  2
AcDbMaterial
  3
ObjectDBX Classes
 90
     1153
 91
        4
280
     0
281
     0
  0
CLASS
  1
VISUALSTYLE
  2
AcDbVisualStyle
  3
ObjectDBX Classes
 90
     4095
 91
        4
280
     0
281
     0
  0
CLASS
  1
TABLESTYLE
  2
AcDbTableStyle
  3
ObjectDBX Classes
 90
     4095
 91
        4
280
     0
281
     0
  0
CLASS
  1
SCALE
  2
AcDbScale
  3
ObjectDBX Classes
 90
     1153
 91
        4
280
     0
281
     0
  0
CLASS
  1
MLEADERSTYLE
  2
AcDbMLeaderStyle
  3
ACDB_MLEADERSTYLE_CLASS
 90
     4095
 91
        4
280
     0
281
     0
  0
CLASS
  1
SORTENTSTABLE
  2
AcDbSortentsTable
  3
ObjectDBX Classes
 90
        0
 91
        4
280
     0
281
     0
  0
CLASS
  1
CELLSTYLEMAP
  2
AcDbCellStyleMap
  3
ObjectDBX Classes
 90
     1152
 91
        4
280
     0
281
     0
  0
CLASS
  1
ACDBSECTIONVIEWSTYLE
  2
AcDbSectionViewStyle
  3
ObjectDBX Classes
 90
     1025
 91
        4
280
     0
281
     0
  0
CLASS
  1
ACDBDETAILVIEWSTYLE
  2
AcDbDetailViewStyle
  3
ObjectDBX Classes
 90
     1025
 91
        4
280
     0
281
     0
  0
CLASS
  1
ACDBASSOCACTION
  2
AcDbAssocAction
  3
ObjectDBX Classes
 90
     1025
 91
        1
280
     1
281
     0
  0
CLASS
  1
ACDBASSOCARRAYACTIONBODY
  2
AcDbAssocArrayActionBody
  3
ObjectDBX Classes
 90
     1025
 91
        1
280
     1
281
     0
  0
CLASS
  1
ACDBASSOCDEPENDENCY
  2
AcDbAssocDependency
  3
ObjectDBX Classes
 90
     1025
 91
        1
280
     1
281
     0
  0
CLASS
  1
ACDBASSOCVERTEXACTIONPARAM
  2
AcDbAssocVertexActionParam
  3
ObjectDBX Classes
 90
     1025
 91
        1
280
     1
281
     0
  0
CLASS
  1
ACDBASSOCARRAYPOLARPARAMETERS
  2
AcDbAssocArrayPolarParameters
  3
ObjectDBX Classes
 90
     1025
 91
        1
280
     1
281
     0
  0
CLASS
  1
ACDBASSOCNETWORK
  2
AcDbAssocNetwork
  3
ObjectDBX Classes
 90
     1025
 91
        1
280
     1
281
     0
  0
CLASS
  1
ACARRAYJIGENTITY
  2
AcArrayJigEntity
  3
ACAD_ARRAY
 90
      129
 91
        1
280
     1
281
     1
  0
CLASS
  1
SUN
  2
AcDbSun
  3
SCENEOE
 90
     1153
 91
        4
280
     0
281
     0
  0
CLASS
  1
RASTERVARIABLES
  2
AcDbRasterVariables
  3
ISM
 90
        0
 91
        4
280
     0
281
     0
  0
CLASS
  1
DIMASSOC
  2
AcDbDimAssoc
  3
"AcDbDimAssoc|Product Desc:     AcDim ARX App For Dimension|Company:          Autodesk, Inc.|WEB Address:      www.autodesk.com"
 90
        0
 91
        4
280
     0
281
     0
  0
CLASS
  1
ACDB_MTEXTOBJECTCONTEXTDATA_CLASS
  2
AcDbMTextObjectContextData
  3
ObjectDBX Classes
 90
     1153
 91
        4
280
     0
281
     0
  0
ENDSEC
  0
SECTION
  2
TABLES
  0
TABLE
  2
VPORT
  5
8
330
0
100
AcDbSymbolTable
 70
     1
  0
VPORT
  5
8865F
330
8
100
AcDbSymbolTableRecord
100
AcDbViewportTableRecord
  2
*Active
 70
     0
 10
0.0
 20
0.0
 11
1.0
 21
1.0
 12
6101.735412894998
 22
-2207.262780994165
 13
-147.9468458676922
 23
19.55743956420332
 14
10.0
 24
10.0
 15
10.0
 25
10.0
 16
0.0
 26
0.0
 36
1.0
 17
0.0
 27
0.0
 37
0.0
 40
410.670823432466
 41
2.1198224852071
 42
50.0
 43
0.0
 44
0.0
 50
0.0
 51
0.0
 71
    16
 72
   100
 73
     1
 74
     0
 75
     0
 76
     0
 77
     0
 78
     0
281
     0
 65
     1
110
0.0
120
0.0
130
0.0
111
1.0
121
0.0
131
0.0
112
0.0
122
1.0
132
0.0
 79
     0
146
0.0
348
108AB4
 60
     3
 61
     5
292
     1
282
     1
141
0.0
142
0.0
 63
   256
361
108AD0
1001
ACAD_NAV_VCDISPLAY
1070
     3
  0
ENDTAB
  0
TABLE
  2
LTYPE
  5
5
330
0
100
AcDbSymbolTable
 70
     4
  0
LTYPE
  5
12
330
5
100
AcDbSymbolTableRecord
100
AcDbLinetypeTableRecord
  2
BYBLOCK
 70
     0
  3

 72
    65
 73
     0
 40
0.0
  0
LTYPE
  5
13
330
5
100
AcDbSymbolTableRecord
100
AcDbLinetypeTableRecord
  2
BYLAYER
 70
     0
  3

 72
    65
 73
     0
 40
0.0
  0
LTYPE
  5
14
330
5
100
AcDbSymbolTableRecord
100
AcDbLinetypeTableRecord
  2
CONTINUOUS
 70
     0
  3
Solid line
 72
    65
 73
     0
 40
0.0
  0
LTYPE
  5
969
330
5
100
AcDbSymbolTableRecord
100
AcDbLinetypeTableRecord
  2
CENTER2
 70
     0
  3
Center (.5x) ___ _ ___ _ ___ _ ___ _ ___ _ ___
 72
    65
 73
     4
 40
28.575
 49
19.05
 74
     0
 49
-3.175
 74
     0
 49
3.175
 74
     0
 49
-3.175
 74
     0
  0
LTYPE
  5
88E9E
330
5
100
AcDbSymbolTableRecord
100
AcDbLinetypeTableRecord
  2
PHANTOM2
 70
     0
  3
___ _ _ ___ _ _ ___ _ _ ___ _ _
 72
    65
 73
     6
 40
1.25
 49
0.625
 74
     0
 49
-0.125
 74
     0
 49
0.125
 74
     0
 49
-0.125
 74
     0
 49
0.125
 74
     0
 49
-0.125
 74
     0
  0
LTYPE
  5
A7DA7
330
5
100
AcDbSymbolTableRecord
100
AcDbLinetypeTableRecord
  2
PHANTOM
 70
     0
  3
Phantom ______  __  __  ______  __  __  ______
 72
    65
 73
     6
 40
2.5
 49
1.25
 74
     0
 49
-0.25
 74
     0
 49
0.25
 74
     0
 49
-0.25
 74
     0
 49
0.25
 74
     0
 49
-0.25
 74
     0
  0
ENDTAB
  0
TABLE
  2
LAYER
  5
2
102
{ACAD_XDICTIONARY
360
1E591
102
}
330
0
100
AcDbSymbolTable
 70
     9
  0
LAYER
  5
E
102
{ACAD_XDICTIONARY
360
886FF
102
}
330
2
100
AcDbSymbolTableRecord
100
AcDbLayerTableRecord
  2
0
 70
     2
 62
     7
  6
CONTINUOUS
370
    -3
390
73E
347
108ACB
348
0
  0
LAYER
  5
8C6
102
{ACAD_XDICTIONARY
360
88707
102
}
330
2
100
AcDbSymbolTableRecord
100
AcDbLayerTableRecord
  2
文字
 70
     0
 62
     7
  6
CONTINUOUS
370
    20
390
73E
347
108ACB
348
0
  0
LAYER
  5
96A
102
{ACAD_XDICTIONARY
360
8870D
102
}
330
2
100
AcDbSymbolTableRecord
100
AcDbLayerTableRecord
  2
中心線
 70
     0
 62
     7
  6
CENTER2
370
     9
390
73E
347
108ACB
348
0
  0
LAYER
  5
1521
102
{ACAD_XDICTIONARY
360
8870F
102
}
330
2
100
AcDbSymbolTableRecord
100
AcDbLayerTableRecord
  2
実線
 70
     0
 62
     7
  6
CONTINUOUS
370
    30
390
73E
347
108ACB
348
0
  0
LAYER
  5
1523
102
{ACAD_XDICTIONARY
360
88713
102
}
330
2
100
AcDbSymbolTableRecord
100
AcDbLayerTableRecord
  2
細線
 70
     0
 62
     7
  6
CONTINUOUS
370
     9
390
73E
347
108ACB
348
0
  0
LAYER
  5
A7DA8
330
2
100
AcDbSymbolTableRecord
100
AcDbLayerTableRecord
  2
２点鎖線
 70
     0
 62
     7
  6
PHANTOM
370
    13
390
73E
347
108ACB
348
0
  0
LAYER
  5
108AE0
102
{ACAD_XDICTIONARY
360
108AE1
102
}
330
2
100
AcDbSymbolTableRecord
100
AcDbLayerTableRecord
  2
ｷｬｯﾌﾟﾎﾞﾙﾄ
 70
     0
 62
     7
  6
CONTINUOUS
370
    30
390
73E
347
108ACB
348
0
  0
LAYER
  5
108AE3
102
{ACAD_XDICTIONARY
360
108AE4
102
}
330
2
100
AcDbSymbolTableRecord
100
AcDbLayerTableRecord
  2
ｺﾈｸﾀ
 70
     0
 62
     7
  6
CONTINUOUS
370
    30
390
73E
347
108ACB
348
0
  0
LAYER
  5
108AE6
330
2
100
AcDbSymbolTableRecord
100
AcDbLayerTableRecord
  2
寸法線
 70
     0
 62
     7
  6
CONTINUOUS
370
    15
390
73E
347
108ACB
348
0
  0
ENDTAB
  0
TABLE
  2
STYLE
  5
3
330
0
100
AcDbSymbolTable
 70
     9
  0
STYLE
  5
F
330
3
100
AcDbSymbolTableRecord
100
AcDbTextStyleTableRecord
  2
STANDARD
 70
     0
 40
0.0
 41
1.0
 50
0.0
 71
     0
 42
0.2
  3
simplex.shx
  4
bigfont.shx
  0
STYLE
  5
34
330
3
100
AcDbSymbolTableRecord
100
AcDbTextStyleTableRecord
  2
TIMESNR
 70
     0
 40
0.0
 41
1.0
 50
0.0
 71
     0
 42
2.0
  3
times.ttf
  4

1001
ACAD
1000
Times New Roman
1071
       18
  0
STYLE
  5
35
330
3
100
AcDbSymbolTableRecord
100
AcDbTextStyleTableRecord
  2
MSｺﾞｼｯｸ
 70
     0
 40
0.0
 41
1.0
 50
0.0
 71
     0
 42
5.0
  3
msgothic.ttc
  4

1001
ACAD
1000
MS Gothic
1071
    32817
  0
STYLE
  5
36
330
3
100
AcDbSymbolTableRecord
100
AcDbTextStyleTableRecord
  2
ISOCP
 70
     0
 40
0.0
 41
1.0
 50
0.0
 71
     0
 42
2.5
  3
isocp.shx
  4

  0
STYLE
  5
1529
330
3
100
AcDbSymbolTableRecord
100
AcDbTextStyleTableRecord
  2
まこ
 70
     0
 40
0.0
 41
1.0
 50
0.0
 71
     0
 42
0.2
  3
simplex.shx
  4
bigfont.shx
  0
STYLE
  5
1A5A7
330
3
100
AcDbSymbolTableRecord
100
AcDbTextStyleTableRecord
  2
MSｺﾞｼｯｸN
 70
     0
 40
0.0
 41
1.0
 50
0.0
 71
     0
 42
5.0
  3
msgothic.ttc
  4

1001
ACAD
1000
MS Gothic
1071
    32817
  0
STYLE
  5
A4493
330
3
100
AcDbSymbolTableRecord
100
AcDbTextStyleTableRecord
  2
MSｺﾞｼｯｸ-0
 70
     0
 40
0.0
 41
1.0
 50
0.0
 71
     0
 42
0.2
  3
simplex.shx
  4
bigfont.shx
  0
STYLE
  5
B34A5
330
3
100
AcDbSymbolTableRecord
100
AcDbTextStyleTableRecord
  2
SLDTEXTSTYLE2
 70
     0
 40
0.0
 41
0.7
 50
0.0
 71
     0
 42
0.2
  3
TXT
  4
bigfont
  0
STYLE
  5
B34CC
330
3
100
AcDbSymbolTableRecord
100
AcDbTextStyleTableRecord
  2
SLDTEXTSTYLE9
 70
     0
 40
0.0
 41
1.0
 50
0.0
 71
     0
 42
0.2
  3
TXT
  4
bigfont
  0
ENDTAB
  0
TABLE
  2
VIEW
  5
6
330
0
100
AcDbSymbolTable
 70
     0
  0
ENDTAB
  0
TABLE
  2
UCS
  5
7
330
0
100
AcDbSymbolTable
 70
     0
  0
ENDTAB
  0
TABLE
  2
APPID
  5
9
330
0
100
AcDbSymbolTable
 70
    20
  0
APPID
  5
10
330
9
100
AcDbSymbolTableRecord
100
AcDbRegAppTableRecord
  2
ACAD
 70
     0
  0
APPID
  5
84F74
330
9
100
AcDbSymbolTableRecord
100
AcDbRegAppTableRecord
  2
ACAD_NAV_VCDISPLAY
 70
     0
  0
APPID
  5
84F75
330
9
100
AcDbSymbolTableRecord
100
AcDbRegAppTableRecord
  2
ACAD_PSEXT
 70
     0
  0
APPID
  5
85072
330
9
100
AcDbSymbolTableRecord
100
AcDbRegAppTableRecord
  2
AcadAnnotative
 70
     0
  0
APPID
  5
887D2
330
9
100
AcDbSymbolTableRecord
100
AcDbRegAppTableRecord
  2
ACAD_EXEMPT_FROM_CAD_STANDARDS
 70
     0
  0
APPID
  5
8890E
330
9
100
AcDbSymbolTableRecord
100
AcDbRegAppTableRecord
  2
ACAD_MLEADERVER
 70
     0
  0
APPID
  5
88F56
330
9
100
AcDbSymbolTableRecord
100
AcDbRegAppTableRecord
  2
GradientColor1ACI
 70
     0
  0
APPID
  5
88F57
330
9
100
AcDbSymbolTableRecord
100
AcDbRegAppTableRecord
  2
GradientColor2ACI
 70
     0
  0
APPID
  5
8A616
330
9
100
AcDbSymbolTableRecord
100
AcDbRegAppTableRecord
  2
ACAD_DSTYLE_DIMRADIAL_EXTENSION
 70
     0
  0
APPID
  5
9E46E
330
9
100
AcDbSymbolTableRecord
100
AcDbRegAppTableRecord
  2
AcadAnnoMonitorAlertIconDisabled
 70
     0
  0
APPID
  5
9FAE7
330
9
100
AcDbSymbolTableRecord
100
AcDbRegAppTableRecord
  2
ACAD_DSTYLE_DIMFLIPARROW_WHICH_SYMBOL
 70
     0
  0
APPID
  5
A1AA6
330
9
100
AcDbSymbolTableRecord
100
AcDbRegAppTableRecord
  2
PE_DIMMEASUREMENT
 70
     0
  0
APPID
  5
A625A
330
9
100
AcDbSymbolTableRecord
100
AcDbRegAppTableRecord
  2
AcadAnnotativeDecomposition
 70
     0
  0
APPID
  5
A62D6
330
9
100
AcDbSymbolTableRecord
100
AcDbRegAppTableRecord
  2
ACAD_DSTYLE_DIMFLIPARROW_SYMBOL
 70
     0
  0
APPID
  5
B7790
330
9
100
AcDbSymbolTableRecord
100
AcDbRegAppTableRecord
  2
ACAD_SPLINE_DATA
 70
     0
  0
APPID
  5
B7791
330
9
100
AcDbSymbolTableRecord
100
AcDbRegAppTableRecord
  2
ACAD_SPLINE_DATA2
 70
     0
  0
APPID
  5
BCEFC
330
9
100
AcDbSymbolTableRecord
100
AcDbRegAppTableRecord
  2
ACAD_DSTYLE_DIMJAG
 70
     0
  0
APPID
  5
BCEFD
330
9
100
AcDbSymbolTableRecord
100
AcDbRegAppTableRecord
  2
ACAD_DSTYLE_DIMTALN
 70
     0
  0
APPID
  5
BEE24
330
9
100
AcDbSymbolTableRecord
100
AcDbRegAppTableRecord
  2
ACAD_DSTYLE_DIMBREAK
 70
     0
  0
APPID
  5
101346
330
9
100
AcDbSymbolTableRecord
100
AcDbRegAppTableRecord
  2
PLOTTRANSPARENCY
 70
     0
  0
ENDTAB
  0
TABLE
  2
DIMSTYLE
  5
A
330
0
100
AcDbSymbolTable
 70
     1
100
AcDbDimStyleTable
  0
DIMSTYLE
105
1D
330
A
100
AcDbSymbolTableRecord
100
AcDbDimStyleTableRecord
  2
STANDARD
 70
     0
 40
3.5
 41
2.5
 42
1.0
 44
1.0
 73
     0
 74
     0
 77
     3
 78
     8
 79
     2
140
2.5
141
0.0
147
0.5
172
     1
176
     4
177
     4
271
     3
178
   256
179
     3
271
     3
272
     3
279
     2
340
F
341
89E
342
89E
371
    13
372
    13
  0
ENDTAB
  0
TABLE
  2
BLOCK_RECORD
  5
1
330
0
100
AcDbSymbolTable
 70
     5
  0
BLOCK_RECORD
  5
18
102
{ACAD_XDICTIONARY
360
8A30F
102
}
330
1
100
AcDbSymbolTableRecord
100
AcDbBlockTableRecord
  2
*MODEL_SPACE
340
741
 70
     0
280
     1
281
     0
  0
BLOCK_RECORD
  5
1089EB
330
1
100
AcDbSymbolTableRecord
100
AcDbBlockTableRecord
  2
*Paper_Space
340
1089EC
 70
     0
280
     1
281
     0
  0
BLOCK_RECORD
  5
89E
330
1
100
AcDbSymbolTableRecord
100
AcDbBlockTableRecord
  2
_Open30
340
0
 70
     0
280
     1
281
     0
  0
BLOCK_RECORD
  5
108B22
102
{ACAD_XDICTIONARY
360
108B23
102
}
330
1
100
AcDbSymbolTableRecord
100
AcDbBlockTableRecord
  2
*U1
340
0
102
{BLKREFS
331
108F63
102
}
 70
     0
280
     1
281
     0
  0
BLOCK_RECORD
  5
108B27
330
1
100
AcDbSymbolTableRecord
100
AcDbBlockTableRecord
  2
*U2
340
0
102
{BLKREFS
331
108B26
331
108B2C
331
108B2D
331
108B2E
331
108B2F
331
108B30
102
}
 70
     0
280
     1
281
     0
  0
BLOCK_RECORD
  5
108B33
102
{ACAD_XDICTIONARY
360
108B34
102
}
330
1
100
AcDbSymbolTableRecord
100
AcDbBlockTableRecord
  2
*U3
340
0
102
{BLKREFS
331
108F64
102
}
 70
     0
280
     1
281
     0
  0
BLOCK_RECORD
  5
108B38
330
1
100
AcDbSymbolTableRecord
100
AcDbBlockTableRecord
  2
*U4
340
0
102
{BLKREFS
331
108B37
331
108B3C
331
108B3D
331
108B3E
331
108B3F
331
108B40
102
}
 70
     0
280
     1
281
     0
  0
ENDTAB
  0
ENDSEC
  0
SECTION
  2
BLOCKS
  0
BLOCK
  5
19
330
18
100
AcDbEntity
  8
0
100
AcDbBlockBegin
  2
*MODEL_SPACE
 70
     0
 10
0.0
 20
0.0
 30
0.0
  3
*MODEL_SPACE
  1
*MODEL_SPACE
  0
ENDBLK
  5
1A
330
18
100
AcDbEntity
  8
0
100
AcDbBlockEnd
  0
BLOCK
  5
1089ED
330
1089EB
100
AcDbEntity
 67
     1
  8
0
100
AcDbBlockBegin
  2
*Paper_Space
 70
     0
 10
0.0
 20
0.0
 30
0.0
  3
*Paper_Space
  1
*Paper_Space
  0
ENDBLK
  5
1089EE
330
1089EB
100
AcDbEntity
 67
     1
  8
0
100
AcDbBlockEnd
  0
BLOCK
  5
B8111
330
89E
100
AcDbEntity
  8
0
100
AcDbBlockBegin
  2
_Open30
 70
     0
 10
0.0
 20
0.0
 30
0.0
  3
_Open30
  1
_Open30
  0
LINE
  5
B8113
330
89E
100
AcDbEntity
  8
0
  6
ByBlock
 62
     0
370
    -2
100
AcDbLine
 10
-1.0
 20
0.26794919
 30
0.0
 11
0.0
 21
0.0
 31
0.0
  0
LINE
  5
B8114
330
89E
100
AcDbEntity
  8
0
  6
ByBlock
 62
     0
370
    -2
100
AcDbLine
 10
0.0
 20
0.0
 30
0.0
 11
-1.0
 21
-0.26794919
 31
0.0
  0
LINE
  5
B8115
330
89E
100
AcDbEntity
  8
0
  6
ByBlock
 62
     0
370
    -2
100
AcDbLine
 10
0.0
 20
0.0
 30
0.0
 11
-1.0
 21
0.0
 31
0.0
  0
ENDBLK
  5
B8116
330
89E
100
AcDbEntity
  8
0
100
AcDbBlockEnd
  0
BLOCK
  5
108B25
330
108B22
100
AcDbEntity
  8
0
100
AcDbBlockBegin
  2
*U1
 70
     1
 10
0.0
 20
0.0
 30
0.0
  3
*U1
  1
*U2
  0
INSERT
  5
108B26
330
108B22
100
AcDbEntity
  8
実線
  6
ByBlock
 62
     0
370
    -2
380
     1
100
AcDbBlockReference
  2
*U2
 10
1924.900192440625
 20
-3266.536765645533
 30
0.0
  0
INSERT
  5
108B2C
330
108B22
100
AcDbEntity
  8
実線
  6
ByBlock
 62
     0
370
    -2
380
     1
100
AcDbBlockReference
  2
*U2
 10
1887.661100077894
 20
-3288.036765645533
 30
0.0
 41
0.9999999999999999
 42
0.9999999999999999
 43
0.9999999999999999
 50
60.0
  0
INSERT
  5
108B2D
330
108B22
100
AcDbEntity
  8
実線
  6
ByBlock
 62
     0
370
    -2
380
     1
100
AcDbBlockReference
  2
*U2
 10
1887.661100077894
 20
-3331.036765645533
 30
0.0
 50
120.0
  0
INSERT
  5
108B2E
330
108B22
100
AcDbEntity
  8
実線
  6
ByBlock
 62
     0
370
    -2
380
     1
100
AcDbBlockReference
  2
*U2
 10
1924.900192440625
 20
-3352.536765645533
 30
0.0
 50
180.0
  0
INSERT
  5
108B2F
330
108B22
100
AcDbEntity
  8
実線
  6
ByBlock
 62
     0
370
    -2
380
     1
100
AcDbBlockReference
  2
*U2
 10
1962.139284803356
 20
-3331.036765645533
 30
0.0
 50
240.0
  0
INSERT
  5
108B30
330
108B22
100
AcDbEntity
  8
実線
  6
ByBlock
 62
     0
370
    -2
380
     1
100
AcDbBlockReference
  2
*U2
 10
1962.139284803356
 20
-3288.036765645533
 30
0.0
 50
300.0
  0
ENDBLK
  5
108B31
330
108B22
100
AcDbEntity
  8
0
100
AcDbBlockEnd
  0
BLOCK
  5
108B28
330
108B27
100
AcDbEntity
  8
0
100
AcDbBlockBegin
  2
*U2
 70
     1
 10
0.0
 20
0.0
 30
0.0
  3
*U2
  1
*U3
  0
CIRCLE
  5
108B29
330
108B27
100
AcDbEntity
  8
細線
100
AcDbCircle
 10
0.0
 20
0.0
 30
0.0
 40
3.0
  0
CIRCLE
  5
108B2A
330
108B27
100
AcDbEntity
  8
実線
100
AcDbCircle
 10
-0.0000044392456857
 20
-0.0000000000004547
 30
0.0
 40
2.5
  0
ENDBLK
  5
108B2B
330
108B27
100
AcDbEntity
  8
0
100
AcDbBlockEnd
  0
BLOCK
  5
108B36
330
108B33
100
AcDbEntity
  8
0
100
AcDbBlockBegin
  2
*U3
 70
     1
 10
0.0
 20
0.0
 30
0.0
  3
*U3
  1
*U4
  0
INSERT
  5
108B37
330
108B33
100
AcDbEntity
  8
実線
  6
ByBlock
 62
     0
370
    -2
380
     1
100
AcDbBlockReference
  2
*U4
 10
1887.661100077894
 20
-3288.036765645533
 30
0.0
  0
INSERT
  5
108B3C
330
108B33
100
AcDbEntity
  8
実線
  6
ByBlock
 62
     0
370
    -2
380
     1
100
AcDbBlockReference
  2
*U4
 10
1887.661100077894
 20
-3331.036765645533
 30
0.0
 41
0.9999999999999998
 42
0.9999999999999998
 43
0.9999999999999998
 50
59.99999999999996
  0
INSERT
  5
108B3D
330
108B33
100
AcDbEntity
  8
実線
  6
ByBlock
 62
     0
370
    -2
380
     1
100
AcDbBlockReference
  2
*U4
 10
1924.900192440625
 20
-3352.536765645533
 30
0.0
 41
0.9999999999999998
 42
0.9999999999999998
 43
0.9999999999999998
 50
120.0
  0
INSERT
  5
108B3E
330
108B33
100
AcDbEntity
  8
実線
  6
ByBlock
 62
     0
370
    -2
380
     1
100
AcDbBlockReference
  2
*U4
 10
1962.139284803356
 20
-3331.036765645533
 30
0.0
 41
0.9999999999999998
 42
0.9999999999999998
 43
0.9999999999999998
 50
180.0
  0
INSERT
  5
108B3F
330
108B33
100
AcDbEntity
  8
実線
  6
ByBlock
 62
     0
370
    -2
380
     1
100
AcDbBlockReference
  2
*U4
 10
1962.139284803356
 20
-3288.036765645533
 30
0.0
 41
0.9999999999999996
 42
0.9999999999999996
 43
0.9999999999999996
 50
239.9999999999999
  0
INSERT
  5
108B40
330
108B33
100
AcDbEntity
  8
実線
  6
ByBlock
 62
     0
370
    -2
380
     1
100
AcDbBlockReference
  2
*U4
 10
1924.900192440625
 20
-3266.536765645533
 30
0.0
 41
0.9999999999999996
 42
0.9999999999999996
 43
0.9999999999999996
 50
300.0
  0
ENDBLK
  5
108B41
330
108B33
100
AcDbEntity
  8
0
100
AcDbBlockEnd
  0
BLOCK
  5
108B39
330
108B38
100
AcDbEntity
  8
0
100
AcDbBlockBegin
  2
*U4
 70
     1
 10
0.0
 20
0.0
 30
0.0
  3
*U4
  1
*U5
  0
LINE
  5
108B3A
330
108B38
100
AcDbEntity
  8
中心線
 48
0.5
100
AcDbLine
 10
-3.617670598589029
 20
2.088663093934883
 30
0.0
 11
3.617670598589029
 21
-2.088663093934883
 31
0.0
  0
ENDBLK
  5
108B3B
330
108B38
100
AcDbEntity
  8
0
100
AcDbBlockEnd
  0
ENDSEC
  0
SECTION
  2
ENTITIES
  0
TEXT
  5
108F57
330
18
100
AcDbEntity
  8
文字
100
AcDbText
 10
5070.829863667628
 20
1650.461072865279
 30
0.0
 40
2.699999892000001
  1

  7
まこ
 72
     1
 11
5070.829863667628
 21
1651.811072811279
 31
0.0
100
AcDbText
 73
     2
  0
HATCH
  5
108F58
330
18
100
AcDbEntity
  8
実線
100
AcDbHatch
 10
0.0
 20
0.0
 30
0.0
210
0.0
220
0.0
230
1.0
  2
ANSI31
 70
     0
 71
     1
 91
        2
 92
        7
 72
     1
 73
     1
 93
        4
 10
5888.077434021644
 20
-2118.058488893867
 42
-0.0174471698325642
 10
5887.402534716281
 20
-2115.135389352692
 42
0.3492112058185265
 10
5885.077434021645
 20
-2118.058488893867
 42
0.0655434628155587
 10
5885.179656542778
 20
-2118.834946029174
 42
0.0
 97
        3
330
108F5E
330
108F66
330
108F59
 92
        7
 72
     1
 73
     1
 93
        4
 10
5888.95450384879
 20
-2120.927417006998
 42
0.3297549225995011
 10
5891.077434021645
 20
-2118.058488893867
 42
0.0655434628154833
 10
5890.975211500512
 20
-2117.282031758559
 42
0.0
 10
5888.077434021644
 20
-2118.058488893867
 42
0.0174471698327344
 97
        3
330
108F66
330
108F59
330
108F5E
 75
     1
 76
     1
 52
90.0
 41
1.0
 77
     0
 78
     1
 53
135.0
 43
2620.075478906541
 44
-4031.829462395082
 45
-0.0883883476483184
 46
-0.0883883476483184
 79
     0
 47
0.0398232426108184
 98
        2
 10
5886.659509725938
 20
-2116.402465261614
 10
5889.566604957143
 20
-2119.271582740128
1001
GradientColor1ACI
1070
     5
1001
GradientColor2ACI
1070
     2
1001
ACAD
1010
0.0
1020
0.0
1030
0.0
  0
LINE
  5
108F59
102
{ACAD_REACTORS
330
108F58
102
}
330
18
100
AcDbEntity
  8
中心線
 48
0.5
100
AcDbLine
 10
5884.143768742224
 20
-2119.112511328782
 30
0.0
 11
5892.011099301066
 21
-2117.004466458951
 31
0.0
  0
LINE
  5
108F5A
330
18
100
AcDbEntity
  8
中心線
 48
0.5
100
AcDbLine
 10
5929.612244552074
 20
-2005.953553821388
 30
0.0
 11
5929.612244552074
 21
-2207.904986087528
 31
0.0
  0
CIRCLE
  5
108F5B
330
18
100
AcDbEntity
  8
実線
100
AcDbCircle
 10
5929.612244552074
 20
-2106.929269954458
 30
0.0
 40
94.0
  0
CIRCLE
  5
108F5C
330
18
100
AcDbEntity
  8
実線
100
AcDbCircle
 10
5929.612244552078
 20
-2106.929269954458
 30
0.0
 40
26.0
  0
CIRCLE
  5
108F5D
330
18
100
AcDbEntity
  8
実線
100
AcDbCircle
 10
5929.612244552074
 20
-2106.929269954458
 30
0.0
 40
38.00000000000045
  0
CIRCLE
  5
108F5E
102
{ACAD_REACTORS
330
108F58
102
}
330
18
100
AcDbEntity
  8
中心線
 48
0.5
100
AcDbCircle
 10
5929.612244552074
 20
-2106.929269954458
 30
0.0
 40
42.99999999999977
  0
CIRCLE
  5
108F5F
330
18
100
AcDbEntity
  8
実線
100
AcDbCircle
 10
5929.612244552078
 20
-2106.929269954458
 30
0.0
 40
48.0
  0
CIRCLE
  5
108F60
330
18
100
AcDbEntity
  8
実線
100
AcDbCircle
 10
5929.612244552078
 20
-2106.929269954458
 30
0.0
 40
50.00000000000068
  0
CIRCLE
  5
108F61
330
18
100
AcDbEntity
  8
実線
100
AcDbCircle
 10
5929.612244552078
 20
-2106.929269954458
 30
0.0
 40
50.49999999999977
  0
CIRCLE
  5
108F62
330
18
100
AcDbEntity
  8
実線
100
AcDbCircle
 10
5929.612244552078
 20
-2106.929269954458
 30
0.0
 40
93.0
  0
INSERT
  5
108F63
330
18
100
AcDbEntity
  8
実線
100
AcDbBlockReference
  2
*U1
 10
2620.075478906541
 20
-4031.829462395082
 30
0.0
 50
90.0
  0
INSERT
  5
108F64
330
18
100
AcDbEntity
  8
実線
 48
0.5
100
AcDbBlockReference
  2
*U3
 10
2620.075478906541
 20
-4031.829462395082
 30
0.0
 50
90.0
  0
LINE
  5
108F65
330
18
100
AcDbEntity
  8
中心線
 48
0.5
100
AcDbLine
 10
5828.636528419005
 20
-2106.929269954458
 30
0.0
 11
6030.587960685145
 21
-2106.929269954458
 31
0.0
  0
CIRCLE
  5
108F66
102
{ACAD_REACTORS
330
108F58
102
}
330
18
100
AcDbEntity
  8
実線
100
AcDbCircle
 10
5888.077434021645
 20
-2118.058488893867
 30
0.0
 40
3.0
  0
CIRCLE
  5
108F67
330
18
100
AcDbEntity
  8
実線
100
AcDbCircle
 10
6339.669203823659
 20
-2106.929269954461
 30
0.0
 40
26.0
  0
CIRCLE
  5
108F68
330
18
100
AcDbEntity
  8
実線
100
AcDbCircle
 10
6339.669203823659
 20
-2106.929269954458
 30
0.0
 40
27.9
  0
CIRCLE
  5
108F69
330
18
100
AcDbEntity
  8
実線
100
AcDbCircle
 10
6339.669203823659
 20
-2106.929269954458
 30
0.0
 40
28.4
  0
CIRCLE
  5
108F6A
330
18
100
AcDbEntity
  8
実線
100
AcDbCircle
 10
6339.669203823659
 20
-2106.929269954458
 30
0.0
 40
82.5
  0
CIRCLE
  5
108F6B
330
18
100
AcDbEntity
  8
実線
100
AcDbCircle
 10
6339.669203823659
 20
-2106.929269954458
 30
0.0
 40
83.0
  0
LINE
  5
108F6C
330
18
100
AcDbEntity
  8
中心線
 62
     7
 48
0.5
100
AcDbLine
 10
6117.311608661862
 20
-2106.929269954458
 30
0.0
 11
6206.372696219707
 21
-2106.929269954458
 31
0.0
  0
LINE
  5
108F6D
330
18
100
AcDbEntity
  8
実線
100
AcDbLine
 10
6123.737448398479
 20
-2200.929269954458
 30
0.0
 11
6195.137448398478
 21
-2200.929269954458
 31
0.0
  0
LINE
  5
108F6E
330
18
100
AcDbEntity
  8
実線
100
AcDbLine
 10
6120.137448398478
 20
-2106.929269954458
 30
0.0
 11
6120.137448398478
 21
-2154.929269954457
 31
0.0
  0
LINE
  5
108F6F
330
18
100
AcDbEntity
  8
実線
100
AcDbLine
 10
6120.137448398478
 20
-2154.929269954457
 30
0.0
 11
6122.137448398478
 21
-2154.929269954458
 31
0.0
  0
POINT
  5
108F70
330
18
100
AcDbEntity
  8
中心線
 48
0.5
100
AcDbPoint
 10
6195.137448398478
 20
-2194.929269954458
 30
0.0
 50
360.0
  0
POINT
  5
108F71
330
18
100
AcDbEntity
  8
中心線
 48
0.5
100
AcDbPoint
 10
6195.137448398478
 20
-2194.929269954458
 30
0.0
 50
360.0
  0
LINE
  5
108F72
330
18
100
AcDbEntity
  8
実線
100
AcDbLine
 10
6195.137448398478
 20
-2198.579269954457
 30
0.0
 11
6195.137448398478
 21
-2191.279269954457
 31
0.0
  0
LINE
  5
108F73
330
18
100
AcDbEntity
  8
実線
100
AcDbLine
 10
6122.137448398478
 20
-2156.929269954459
 30
0.0
 11
6123.237448398479
 21
-2156.929269954458
 31
0.0
  0
LINE
  5
108F74
330
18
100
AcDbEntity
  8
実線
  6
Continuous
100
AcDbLine
 10
6123.237449231812
 20
-2194.929270377774
 30
0.0
 11
6122.637449231814
 21
-2194.929270403334
 31
0.0
  0
LINE
  5
108F75
330
18
100
AcDbEntity
  8
実線
  6
Continuous
100
AcDbLine
 10
6123.237447565146
 20
-2188.929269531142
 30
0.0
 11
6122.637447565146
 21
-2188.929269838913
 31
0.0
  0
LINE
  5
108F76
330
18
100
AcDbEntity
  8
実線
  6
Continuous
100
AcDbLine
 10
6122.637449231814
 20
-2194.929270403334
 30
0.0
 11
6122.637447565146
 21
-2188.929269556702
 31
0.0
  0
LINE
  5
108F77
330
18
100
AcDbEntity
  8
実線
  6
Continuous
100
AcDbLine
 10
6123.237449231812
 20
-2194.929270377774
 30
0.0
 11
6123.237447565146
 21
-2188.929269531142
 31
0.0
  0
LINE
  5
108F78
330
18
100
AcDbEntity
  8
実線
100
AcDbLine
 10
6123.237448398479
 20
-2199.929269954458
 30
0.0
 11
6123.737448398479
 21
-2199.929269954457
 31
0.0
  0
LINE
  5
108F79
330
18
100
AcDbEntity
  8
実線
 48
2.0
100
AcDbLine
 10
6120.137448398478
 20
-2152.929269954458
 30
0.0
 11
6120.137448398478
 21
-2146.929269954458
 31
0.0
  0
LINE
  5
108F7A
330
18
100
AcDbEntity
  8
中心線
 48
0.5
100
AcDbLine
 10
6119.545330379429
 20
-2149.929269954458
 30
0.0
 11
6141.661777377454
 21
-2149.929269954458
 31
0.0
  0
POINT
  5
108F7B
330
18
100
AcDbEntity
  8
中心線
 48
0.5
100
AcDbPoint
 10
6120.137448398478
 20
-2149.929269954458
 30
0.0
 50
180.0
  0
POINT
  5
108F7C
330
18
100
AcDbEntity
  8
中心線
 48
0.5
100
AcDbPoint
 10
6120.137448398478
 20
-2149.929269954458
 30
0.0
 50
180.0
  0
LINE
  5
108F7D
330
18
100
AcDbEntity
  8
実線
100
AcDbLine
 10
6123.737448398479
 20
-2012.929269954458
 30
0.0
 11
6195.137448398478
 21
-2012.929269954458
 31
0.0
  0
LINE
  5
108F7E
330
18
100
AcDbEntity
  8
実線
100
AcDbLine
 10
6120.137448398478
 20
-2106.929269954458
 30
0.0
 11
6120.137448398478
 21
-2058.929269954459
 31
0.0
  0
LINE
  5
108F7F
330
18
100
AcDbEntity
  8
実線
100
AcDbLine
 10
6122.137448398478
 20
-2156.929269954459
 30
0.0
 11
6122.137448398478
 21
-2056.929269954457
 31
0.0
  0
LINE
  5
108F80
330
18
100
AcDbEntity
  8
実線
100
AcDbLine
 10
6120.137448398478
 20
-2058.929269954459
 30
0.0
 11
6122.137448398478
 21
-2058.929269954458
 31
0.0
  0
LINE
  5
108F81
330
18
100
AcDbEntity
  8
実線
100
AcDbLine
 10
6195.137448398478
 20
-2200.929269954458
 30
0.0
 11
6195.137448398478
 21
-2012.929269954458
 31
0.0
  0
POINT
  5
108F82
330
18
100
AcDbEntity
  8
中心線
 48
0.5
100
AcDbPoint
 10
6195.137448398478
 20
-2018.929269954458
 30
0.0
 50
360.0
  0
POINT
  5
108F83
330
18
100
AcDbEntity
  8
中心線
 48
0.5
100
AcDbPoint
 10
6195.137448398478
 20
-2018.929269954458
 30
0.0
 50
360.0
  0
LINE
  5
108F84
330
18
100
AcDbEntity
  8
実線
100
AcDbLine
 10
6195.137448398478
 20
-2015.279269954458
 30
0.0
 11
6195.137448398478
 21
-2022.579269954458
 31
0.0
  0
LINE
  5
108F85
330
18
100
AcDbEntity
  8
実線
100
AcDbLine
 10
6123.237448398479
 20
-2199.929269954458
 30
0.0
 11
6123.237448398479
 21
-2013.929269954458
 31
0.0
  0
LINE
  5
108F86
330
18
100
AcDbEntity
  8
実線
100
AcDbLine
 10
6123.737448398479
 20
-2200.929269954458
 30
0.0
 11
6123.737448398479
 21
-2012.929269954458
 31
0.0
  0
LINE
  5
108F87
330
18
100
AcDbEntity
  8
実線
100
AcDbLine
 10
6122.137448398478
 20
-2056.929269954457
 30
0.0
 11
6123.237448398479
 21
-2056.929269954458
 31
0.0
  0
LINE
  5
108F88
330
18
100
AcDbEntity
  8
実線
100
AcDbLine
 10
6123.237448398479
 20
-2013.929269954458
 30
0.0
 11
6123.737448398479
 21
-2013.929269954459
 31
0.0
  0
LINE
  5
108F89
330
18
100
AcDbEntity
  8
実線
 48
2.0
100
AcDbLine
 10
6120.137448398478
 20
-2060.929269954458
 30
0.0
 11
6120.137448398478
 21
-2066.929269954458
 31
0.0
  0
LINE
  5
108F8A
330
18
100
AcDbEntity
  8
中心線
 48
0.5
100
AcDbLine
 10
6119.545330379429
 20
-2063.929269954458
 30
0.0
 11
6141.661777377454
 21
-2063.929269954459
 31
0.0
  0
POINT
  5
108F8B
330
18
100
AcDbEntity
  8
中心線
 48
0.5
100
AcDbPoint
 10
6120.137448398478
 20
-2063.929269954458
 30
0.0
 50
180.0
  0
LINE
  5
108F8C
330
18
100
AcDbEntity
  8
中心線
 48
0.5
100
AcDbLine
 10
6339.669203823659
 20
-2005.953553821388
 30
0.0
 11
6339.669203823659
 21
-2207.904986087528
 31
0.0
  0
HATCH
  5
108F8D
330
18
100
AcDbEntity
  8
寸法線
100
AcDbHatch
 10
0.0
 20
0.0
 30
0.0
210
0.0
220
0.0
230
1.0
  2
ANSI31
 70
     0
 71
     0
 91
        3
 92
        7
 72
     1
 73
     1
 93
        4
 10
6393.719519069243
 20
-2178.891506035979
 42
-0.0083339121174275
 10
6391.291083095251
 20
-2180.652953940466
 42
0.0
 10
6393.011812404304
 20
-2183.110410073333
 42
0.2446984432290453
 10
6394.291083095251
 20
-2180.652953940466
 42
0.1581830546386379
 97
        0
 92
        7
 72
     1
 73
     1
 93
        5
 10
6390.14393022255
 20
-2179.01464985189
 42
-0.0062817342139872
 10
6388.316927161639
 20
-2180.260020762229
 42
0.0328505938106997
 10
6388.291083095251
 20
-2180.652953940466
 42
0.1496518589185558
 10
6388.805289477624
 20
-2182.332486640524
 42
0.0083339121174268
 10
6391.291083095251
 20
-2180.652953940466
 42
0.0
 97
        0
 92
        7
 72
     1
 73
     1
 93
        3
 10
6389.570353786197
 20
-2178.195497807599
 42
0.2101584926523409
 10
6388.316927161638
 20
-2180.260020762229
 42
0.0062817342139891
 10
6390.14393022255
 20
-2179.01464985189
 42
0.0
 97
        0
 75
     1
 76
     1
 52
0.0
 41
1.0
 77
     0
 78
     1
 53
45.0
 43
3989.141778360284
 44
1202.607495691075
 45
-0.0883883476483184
 46
0.0883883476483184
 79
     0
 47
0.0155783019283485
 98
        3
 10
6393.103162418421
 20
-2180.392473612237
 10
6390.266090337677
 20
-2180.314577283948
 10
6389.174909900789
 20
-2178.990425564688
1001
GradientColor1ACI
1070
     5
1001
GradientColor2ACI
1070
     2
1001
ACAD
1010
0.0
1020
0.0
1030
0.0
  0
LINE
  5
108F8E
330
18
100
AcDbEntity
  8
中心線
 48
0.5
100
AcDbLine
 10
5929.612244552074
 20
-2260.763206704586
 30
0.0
 11
5929.612244552074
 21
-2341.643065408209
 31
0.0
  0
LINE
  5
108F8F
330
18
100
AcDbEntity
  8
実線
100
AcDbLine
 10
5835.612244552074
 20
-2267.189046441204
 30
0.0
 11
5835.612244552074
 21
-2338.589046441203
 31
0.0
  0
LINE
  5
108F90
330
18
100
AcDbEntity
  8
実線
100
AcDbLine
 10
5929.612244552074
 20
-2263.589046441203
 30
0.0
 11
5881.612244552074
 21
-2263.589046441203
 31
0.0
  0
LINE
  5
108F91
330
18
100
AcDbEntity
  8
実線
100
AcDbLine
 10
5881.612244552074
 20
-2263.589046441203
 30
0.0
 11
5881.612244552074
 21
-2265.589046441203
 31
0.0
  0
POINT
  5
108F92
330
18
100
AcDbEntity
  8
中心線
 48
0.5
100
AcDbPoint
 10
5841.612244552074
 20
-2338.589046441203
 30
0.0
 50
270.0
  0
POINT
  5
108F93
330
18
100
AcDbEntity
  8
中心線
 48
0.5
100
AcDbPoint
 10
5841.612244552074
 20
-2338.589046441203
 30
0.0
 50
270.0
  0
LINE
  5
108F94
330
18
100
AcDbEntity
  8
実線
100
AcDbLine
 10
5837.962244552074
 20
-2338.589046441203
 30
0.0
 11
5845.262244552075
 21
-2338.589046441203
 31
0.0
  0
LINE
  5
108F95
330
18
100
AcDbEntity
  8
実線
100
AcDbLine
 10
5879.612244552074
 20
-2265.589046441203
 30
0.0
 11
5879.612244552074
 21
-2266.689046441203
 31
0.0
  0
LINE
  5
108F96
330
18
100
AcDbEntity
  8
実線
  6
Continuous
100
AcDbLine
 10
5841.612244128757
 20
-2266.689047274537
 30
0.0
 11
5841.612244103198
 21
-2266.089047274539
 31
0.0
  0
LINE
  5
108F97
330
18
100
AcDbEntity
  8
実線
  6
Continuous
100
AcDbLine
 10
5847.61224497539
 20
-2266.68904560787
 30
0.0
 11
5847.612244667618
 21
-2266.089045607872
 31
0.0
  0
LINE
  5
108F98
330
18
100
AcDbEntity
  8
実線
  6
Continuous
100
AcDbLine
 10
5841.612244103198
 20
-2266.089047274539
 30
0.0
 11
5847.61224494983
 21
-2266.089045607872
 31
0.0
  0
LINE
  5
108F99
330
18
100
AcDbEntity
  8
実線
  6
Continuous
100
AcDbLine
 10
5841.612244128757
 20
-2266.689047274537
 30
0.0
 11
5847.61224497539
 21
-2266.68904560787
 31
0.0
  0
LINE
  5
108F9A
330
18
100
AcDbEntity
  8
実線
100
AcDbLine
 10
5836.612244552074
 20
-2266.689046441204
 30
0.0
 11
5836.612244552074
 21
-2267.189046441203
 31
0.0
  0
LINE
  5
108F9B
330
18
100
AcDbEntity
  8
実線
 48
2.0
100
AcDbLine
 10
5883.612244552074
 20
-2263.589046441203
 30
0.0
 11
5889.612244552074
 21
-2263.589046441203
 31
0.0
  0
LINE
  5
108F9C
330
18
100
AcDbEntity
  8
中心線
 48
0.5
100
AcDbLine
 10
5886.612244552074
 20
-2262.996928422154
 30
0.0
 11
5886.612244552074
 21
-2285.113375420179
 31
0.0
  0
POINT
  5
108F9D
330
18
100
AcDbEntity
  8
中心線
 48
0.5
100
AcDbPoint
 10
5886.612244552074
 20
-2263.589046441203
 30
0.0
 50
89.99999999999999
  0
POINT
  5
108F9E
330
18
100
AcDbEntity
  8
中心線
 48
0.5
100
AcDbPoint
 10
5886.612244552074
 20
-2263.589046441203
 30
0.0
 50
89.99999999999999
  0
LINE
  5
108F9F
330
18
100
AcDbEntity
  8
実線
100
AcDbLine
 10
6023.612244552074
 20
-2267.189046441204
 30
0.0
 11
6023.612244552074
 21
-2338.589046441203
 31
0.0
  0
LINE
  5
108FA0
330
18
100
AcDbEntity
  8
実線
100
AcDbLine
 10
5929.612244552074
 20
-2263.589046441203
 30
0.0
 11
5977.612244552074
 21
-2263.589046441203
 31
0.0
  0
LINE
  5
108FA1
330
18
100
AcDbEntity
  8
実線
100
AcDbLine
 10
5879.612244552074
 20
-2265.589046441203
 30
0.0
 11
5979.612244552074
 21
-2265.589046441204
 31
0.0
  0
LINE
  5
108FA2
330
18
100
AcDbEntity
  8
実線
100
AcDbLine
 10
5977.612244552074
 20
-2263.589046441203
 30
0.0
 11
5977.612244552074
 21
-2265.589046441203
 31
0.0
  0
LINE
  5
108FA3
330
18
100
AcDbEntity
  8
実線
100
AcDbLine
 10
5835.612244552074
 20
-2338.589046441203
 30
0.0
 11
6023.612244552074
 21
-2338.589046441203
 31
0.0
  0
POINT
  5
108FA4
330
18
100
AcDbEntity
  8
中心線
 48
0.5
100
AcDbPoint
 10
6017.612244552074
 20
-2338.589046441203
 30
0.0
 50
270.0
  0
POINT
  5
108FA5
330
18
100
AcDbEntity
  8
中心線
 48
0.5
100
AcDbPoint
 10
6017.612244552074
 20
-2338.589046441203
 30
0.0
 50
270.0
  0
LINE
  5
108FA6
330
18
100
AcDbEntity
  8
実線
100
AcDbLine
 10
6021.262244552074
 20
-2338.589046441203
 30
0.0
 11
6013.962244552074
 21
-2338.589046441203
 31
0.0
  0
LINE
  5
108FA7
330
18
100
AcDbEntity
  8
実線
100
AcDbLine
 10
5836.612244552074
 20
-2266.689046441204
 30
0.0
 11
6022.612244552074
 21
-2266.689046441204
 31
0.0
  0
LINE
  5
108FA8
330
18
100
AcDbEntity
  8
実線
100
AcDbLine
 10
5835.612244552074
 20
-2267.189046441204
 30
0.0
 11
6023.612244552074
 21
-2267.189046441204
 31
0.0
  0
LINE
  5
108FA9
330
18
100
AcDbEntity
  8
実線
100
AcDbLine
 10
5979.612244552074
 20
-2265.589046441203
 30
0.0
 11
5979.612244552074
 21
-2266.689046441203
 31
0.0
  0
LINE
  5
108FAA
330
18
100
AcDbEntity
  8
実線
100
AcDbLine
 10
6022.612244552074
 20
-2266.689046441204
 30
0.0
 11
6022.612244552074
 21
-2267.189046441203
 31
0.0
  0
LINE
  5
108FAB
330
18
100
AcDbEntity
  8
実線
 48
2.0
100
AcDbLine
 10
5975.612244552074
 20
-2263.589046441203
 30
0.0
 11
5969.612244552074
 21
-2263.589046441203
 31
0.0
  0
LINE
  5
108FAC
330
18
100
AcDbEntity
  8
中心線
 48
0.5
100
AcDbLine
 10
5972.612244552074
 20
-2262.996928422154
 30
0.0
 11
5972.612244552074
 21
-2285.113375420179
 31
0.0
  0
POINT
  5
108FAD
330
18
100
AcDbEntity
  8
中心線
 48
0.5
100
AcDbPoint
 10
5972.612244552074
 20
-2263.589046441203
 30
0.0
 50
89.99999999999999
  0
POINT
  5
108FAE
330
18
100
AcDbEntity
  8
中心線
 48
0.5
100
AcDbPoint
 10
5972.612244552074
 20
-2263.589046441203
 30
0.0
 50
89.99999999999999
  0
LINE
  5
108FAF
330
18
100
AcDbEntity
  8
実線
 48
0.5
100
AcDbLine
 10
5835.612244552074
 20
-2185.480208841274
 30
0.0
 11
5835.612244552074
 21
-2028.378331067646
 31
0.0
  0
ARC
  5
108FB0
330
18
100
AcDbEntity
  8
実線
 48
0.5
100
AcDbCircle
 10
5929.612244552074
 20
-2106.929269954458
 30
0.0
 40
122.5
100
AcDbArc
 50
219.883759611152
 51
230.1162403888648
  0
LINE
  5
108FB1
330
18
100
AcDbEntity
  8
実線
 48
0.5
100
AcDbLine
 10
6008.163183438883
 20
-2200.929269954462
 30
0.0
 11
5851.061305665265
 21
-2200.929269954462
 31
0.0
  0
LINE
  5
108FB2
330
18
100
AcDbEntity
  8
実線
 48
0.5
100
AcDbLine
 10
6023.612244552076
 20
-2028.378331067646
 30
0.0
 11
6023.612244552076
 21
-2185.48020884127
 31
0.0
  0
ARC
  5
108FB3
330
18
100
AcDbEntity
  8
実線
 48
0.5
100
AcDbCircle
 10
5929.612244552074
 20
-2106.929269954458
 30
0.0
 40
122.5
100
AcDbArc
 50
309.8837596111356
 51
320.1162403888484
  0
LINE
  5
108FB4
330
18
100
AcDbEntity
  8
実線
 48
0.5
100
AcDbLine
 10
5851.061305665254
 20
-2012.929269954462
 30
0.0
 11
6008.163183438892
 21
-2012.929269954462
 31
0.0
  0
ARC
  5
108FB5
330
18
100
AcDbEntity
  8
実線
 48
0.5
100
AcDbCircle
 10
5929.612244552074
 20
-2106.929269954458
 30
0.0
 40
122.5
100
AcDbArc
 50
39.88375961115162
 51
50.11624038886438
  0
ARC
  5
108FB6
330
18
100
AcDbEntity
  8
実線
 48
0.5
100
AcDbCircle
 10
5929.612244552074
 20
-2106.929269954458
 30
0.0
 40
122.5
100
AcDbArc
 50
129.8837596111351
 51
140.116240388848
  0
CIRCLE
  5
108FB7
330
18
100
AcDbEntity
  8
実線
 48
0.5
100
AcDbCircle
 10
5929.612244552074
 20
-2106.929269954458
 30
0.0
 40
94.0
  0
LINE
  5
108FB8
330
18
100
AcDbEntity
  8
中心線
 48
0.5
100
AcDbLine
 10
5841.954081299136
 20
-2194.587433207387
 30
0.0
 11
5865.242449849899
 21
-2171.299064656625
 31
0.0
  0
ARC
  5
108FB9
330
18
100
AcDbEntity
  8
中心線
 48
0.5
100
AcDbCircle
 10
5929.612244552074
 20
-2106.929269954457
 30
0.0
 40
107.5
100
AcDbArc
 50
216.2145478824849
 51
233.7854383507998
  0
CIRCLE
  5
108FBA
330
18
100
AcDbEntity
  8
実線
 48
0.5
100
AcDbCircle
 10
5853.598265574517
 20
-2182.94324893201
 30
0.0
 40
11.0
  0
CIRCLE
  5
108FBB
330
18
100
AcDbEntity
  8
実線
 48
0.5
100
AcDbCircle
 10
5853.598265574517
 20
-2182.94324893201
 30
0.0
 40
5.5
  0
LINE
  5
108FBC
330
18
100
AcDbEntity
  8
中心線
 48
0.5
100
AcDbLine
 10
6017.270407805004
 20
-2194.587433207395
 30
0.0
 11
5993.982039254241
 21
-2171.299064656632
 31
0.0
  0
ARC
  5
108FBD
330
18
100
AcDbEntity
  8
中心線
 48
0.5
100
AcDbCircle
 10
5929.612244552074
 20
-2106.929269954458
 30
0.0
 40
107.5
100
AcDbArc
 50
306.2145478824839
 51
323.7854383507996
  0
CIRCLE
  5
108FBE
330
18
100
AcDbEntity
  8
実線
 48
0.5
100
AcDbCircle
 10
6005.626223529626
 20
-2182.943248932014
 30
0.0
 40
11.0
  0
CIRCLE
  5
108FBF
330
18
100
AcDbEntity
  8
実線
 48
0.5
100
AcDbCircle
 10
6005.626223529626
 20
-2182.943248932014
 30
0.0
 40
5.5
  0
LINE
  5
108FC0
330
18
100
AcDbEntity
  8
中心線
 48
0.5
100
AcDbLine
 10
5841.954081299143
 20
-2019.27110670152
 30
0.0
 11
5865.242449849906
 21
-2042.559475252282
 31
0.0
  0
ARC
  5
108FC1
330
18
100
AcDbEntity
  8
中心線
 48
0.5
100
AcDbCircle
 10
5929.612244552074
 20
-2106.929269954456
 30
0.0
 40
107.5
100
AcDbArc
 50
126.214547882485
 51
143.7854383507998
  0
CIRCLE
  5
108FC2
330
18
100
AcDbEntity
  8
実線
 48
0.5
100
AcDbCircle
 10
5853.598265574521
 20
-2030.9152909769
 30
0.0
 40
11.0
  0
CIRCLE
  5
108FC3
330
18
100
AcDbEntity
  8
実線
 48
0.5
100
AcDbCircle
 10
5853.598265574521
 20
-2030.9152909769
 30
0.0
 40
5.5
  0
LINE
  5
108FC4
330
18
100
AcDbEntity
  8
中心線
 48
0.5
100
AcDbLine
 10
6017.27040780501
 20
-2019.271106701526
 30
0.0
 11
5993.982039254248
 21
-2042.559475252289
 31
0.0
  0
ARC
  5
108FC5
330
18
100
AcDbEntity
  8
中心線
 48
0.5
100
AcDbCircle
 10
5929.612244552074
 20
-2106.929269954457
 30
0.0
 40
107.5
100
AcDbArc
 50
36.21454788248491
 51
53.78543835080033
  0
CIRCLE
  5
108FC6
330
18
100
AcDbEntity
  8
実線
 48
0.5
100
AcDbCircle
 10
6005.62622352963
 20
-2030.915290976904
 30
0.0
 40
11.0
  0
CIRCLE
  5
108FC7
330
18
100
AcDbEntity
  8
実線
 48
0.5
100
AcDbCircle
 10
6005.62622352963
 20
-2030.915290976904
 30
0.0
 40
5.5
  0
LINE
  5
108FC8
330
18
100
AcDbEntity
  8
実線
100
AcDbLine
 10
6175.137448398478
 20
-2200.929269954458
 30
0.0
 11
6175.137448398478
 21
-2012.929269954458
 31
0.0
  0
LINE
  5
108FC9
330
18
100
AcDbEntity
  8
中心線
 48
0.5
100
AcDbLine
 10
5842.004506022522
 20
-2106.929269954458
 30
0.0
 11
5808.847416501927
 21
-2106.929269954458
 31
0.0
  0
LINE
  5
108FCA
330
18
100
AcDbEntity
  8
ｺﾈｸﾀ
100
AcDbLine
 10
5834.112244552074
 20
-2112.429269954458
 30
0.0
 11
5834.112244552074
 21
-2112.929269954458
 31
0.0
  0
LINE
  5
108FCB
330
18
100
AcDbEntity
  8
ｺﾈｸﾀ
100
AcDbLine
 10
5835.612244552074
 20
-2112.429269954458
 30
0.0
 11
5835.612244552074
 21
-2112.929269954458
 31
0.0
  0
LINE
  5
108FCC
330
18
100
AcDbEntity
  8
ｺﾈｸﾀ
100
AcDbLine
 10
5834.112244552074
 20
-2112.929269954458
 30
0.0
 11
5835.612244552074
 21
-2112.929269954458
 31
0.0
  0
LINE
  5
108FCD
330
18
100
AcDbEntity
  8
ｺﾈｸﾀ
100
AcDbLine
 10
5834.112244552074
 20
-2101.429269954458
 30
0.0
 11
5834.112244552074
 21
-2100.929269954458
 31
0.0
  0
LINE
  5
108FCE
330
18
100
AcDbEntity
  8
ｺﾈｸﾀ
100
AcDbLine
 10
5835.612244552074
 20
-2101.429269954458
 30
0.0
 11
5835.612244552074
 21
-2100.929269954458
 31
0.0
  0
LINE
  5
108FCF
330
18
100
AcDbEntity
  8
ｺﾈｸﾀ
100
AcDbLine
 10
5834.112244552074
 20
-2100.929269954458
 30
0.0
 11
5835.612244552074
 21
-2100.929269954458
 31
0.0
  0
LINE
  5
108FD0
330
18
100
AcDbEntity
  8
ｺﾈｸﾀ
100
AcDbLine
 10
5824.412244552073
 20
-2101.429269954458
 30
0.0
 11
5823.412244552073
 21
-2101.429269954458
 31
0.0
  0
LINE
  5
108FD1
330
18
100
AcDbEntity
  8
ｺﾈｸﾀ
100
AcDbLine
 10
5829.909744552075
 20
-2101.429269954458
 30
0.0
 11
5823.412244552073
 21
-2101.429269954458
 31
0.0
  0
ARC
  5
108FD2
330
18
100
AcDbEntity
  8
ｺﾈｸﾀ
100
AcDbCircle
 10
5827.337346188167
 20
-2104.179269954458
 30
0.0
 40
4.367366609175968
100
AcDbArc
 50
153.9921761142785
 51
206.0078238857215
  0
LINE
  5
108FD3
330
18
100
AcDbEntity
  8
ｺﾈｸﾀ
100
AcDbLine
 10
5820.309744552073
 20
-2102.829269954456
 30
0.0
 11
5820.309744552073
 21
-2106.929269954458
 31
0.0
  0
LINE
  5
108FD4
330
18
100
AcDbEntity
  8
ｺﾈｸﾀ
100
AcDbLine
 10
5821.709744552074
 20
-2106.929269954458
 30
0.0
 11
5821.709744552074
 21
-2102.209037983209
 31
0.0
  0
LINE
  5
108FD5
330
18
100
AcDbEntity
  8
ｺﾈｸﾀ
100
AcDbLine
 10
5821.309744552073
 20
-2106.929269954458
 30
0.0
 11
5821.309744552073
 21
-2102.629269954459
 31
0.0
  0
ARC
  5
108FD6
330
18
100
AcDbEntity
  8
ｺﾈｸﾀ
100
AcDbCircle
 10
5827.337346188167
 20
-2109.679269954458
 30
0.0
 40
4.367366609175924
100
AcDbArc
 50
153.9921761142785
 51
206.0078238857215
  0
LINE
  5
108FD7
330
18
100
AcDbEntity
  8
ｺﾈｸﾀ
100
AcDbLine
 10
5821.309744552073
 20
-2111.229269954457
 30
0.0
 11
5821.309744552073
 21
-2106.929269954458
 31
0.0
  0
LINE
  5
108FD8
330
18
100
AcDbEntity
  8
ｺﾈｸﾀ
100
AcDbLine
 10
5821.709744552074
 20
-2111.649501925703
 30
0.0
 11
5821.709744552074
 21
-2106.929269954458
 31
0.0
  0
LINE
  5
108FD9
330
18
100
AcDbEntity
  8
ｺﾈｸﾀ
100
AcDbLine
 10
5820.309744552073
 20
-2106.929269954458
 30
0.0
 11
5820.309744552073
 21
-2111.029269954456
 31
0.0
  0
LINE
  5
108FDA
330
18
100
AcDbEntity
  8
ｺﾈｸﾀ
100
AcDbLine
 10
5823.412244552073
 20
-2112.429269954458
 30
0.0
 11
5824.412244552073
 21
-2112.429269954458
 31
0.0
  0
LINE
  5
108FDB
330
18
100
AcDbEntity
  8
ｺﾈｸﾀ
100
AcDbLine
 10
5821.309744552073
 20
-2111.229269954457
 30
0.0
 11
5820.309744552073
 21
-2111.029269954456
 31
0.0
  0
LINE
  5
108FDC
330
18
100
AcDbEntity
  8
ｺﾈｸﾀ
100
AcDbLine
 10
5821.709744552074
 20
-2111.649501925703
 30
0.0
 11
5823.412244552073
 21
-2112.429269954458
 31
0.0
  0
LINE
  5
108FDD
330
18
100
AcDbEntity
  8
ｺﾈｸﾀ
100
AcDbLine
 10
5823.412244552073
 20
-2111.594333463917
 30
0.0
 11
5823.412244552073
 21
-2112.429269954458
 31
0.0
  0
LINE
  5
108FDE
330
18
100
AcDbEntity
  8
ｺﾈｸﾀ
100
AcDbLine
 10
5821.709744552074
 20
-2111.229269954457
 30
0.0
 11
5821.309744552073
 21
-2111.229269954457
 31
0.0
  0
LINE
  5
108FDF
330
18
100
AcDbEntity
  8
ｺﾈｸﾀ
100
AcDbLine
 10
5823.412244552073
 20
-2106.929269954458
 30
0.0
 11
5823.412244552073
 21
-2107.764206444995
 31
0.0
  0
LINE
  5
108FE0
330
18
100
AcDbEntity
  8
ｺﾈｸﾀ
100
AcDbLine
 10
5823.412244552073
 20
-2106.094333463917
 30
0.0
 11
5823.412244552073
 21
-2106.929269954458
 31
0.0
  0
LINE
  5
108FE1
330
18
100
AcDbEntity
  8
ｺﾈｸﾀ
100
AcDbLine
 10
5820.309744552073
 20
-2102.829269954456
 30
0.0
 11
5821.309744552073
 21
-2102.629269954459
 31
0.0
  0
LINE
  5
108FE2
330
18
100
AcDbEntity
  8
ｺﾈｸﾀ
100
AcDbLine
 10
5821.309744552073
 20
-2102.629269954459
 30
0.0
 11
5821.709744552074
 21
-2102.629269954459
 31
0.0
  0
LINE
  5
108FE3
330
18
100
AcDbEntity
  8
ｺﾈｸﾀ
100
AcDbLine
 10
5829.909744552075
 20
-2111.594333463917
 30
0.0
 11
5823.412244552073
 21
-2111.594333463917
 31
0.0
  0
LINE
  5
108FE4
330
18
100
AcDbEntity
  8
ｺﾈｸﾀ
100
AcDbLine
 10
5823.412244552073
 20
-2112.429269954458
 30
0.0
 11
5829.909744552075
 21
-2112.429269954458
 31
0.0
  0
LINE
  5
108FE5
330
18
100
AcDbEntity
  8
ｺﾈｸﾀ
100
AcDbLine
 10
5829.909744552075
 20
-2107.764206444995
 30
0.0
 11
5823.412244552073
 21
-2107.764206444995
 31
0.0
  0
LINE
  5
108FE6
330
18
100
AcDbEntity
  8
ｺﾈｸﾀ
100
AcDbLine
 10
5823.412244552073
 20
-2106.094333463917
 30
0.0
 11
5829.909744552075
 21
-2106.094333463917
 31
0.0
  0
LINE
  5
108FE7
330
18
100
AcDbEntity
  8
ｺﾈｸﾀ
100
AcDbLine
 10
5823.412244552073
 20
-2102.264206444995
 30
0.0
 11
5829.909744552075
 21
-2102.264206444995
 31
0.0
  0
LINE
  5
108FE8
330
18
100
AcDbEntity
  8
ｺﾈｸﾀ
100
AcDbLine
 10
5823.412244552073
 20
-2101.429269954458
 30
0.0
 11
5821.709744552074
 21
-2102.209037983209
 31
0.0
  0
LINE
  5
108FE9
330
18
100
AcDbEntity
  8
ｺﾈｸﾀ
100
AcDbLine
 10
5834.112244552074
 20
-2101.429269954458
 30
0.0
 11
5835.612244552074
 21
-2101.429269954458
 31
0.0
  0
LINE
  5
108FEA
330
18
100
AcDbEntity
  8
ｺﾈｸﾀ
100
AcDbLine
 10
5828.909744552073
 20
-2101.429269954458
 30
0.0
 11
5829.909744552075
 21
-2101.429269954458
 31
0.0
  0
ARC
  5
108FEB
330
18
100
AcDbEntity
  8
ｺﾈｸﾀ
100
AcDbCircle
 10
5823.132033839606
 20
-2109.679269954458
 30
0.0
 40
7.043069696315629
100
AcDbArc
 50
344.2221938994588
 51
15.77780610054109
  0
ARC
  5
108FEC
330
18
100
AcDbEntity
  8
ｺﾈｸﾀ
100
AcDbCircle
 10
5823.132033839606
 20
-2104.179269954458
 30
0.0
 40
7.043069696315602
100
AcDbArc
 50
344.2221938994588
 51
15.77780610054109
  0
LINE
  5
108FED
330
18
100
AcDbEntity
  8
ｺﾈｸﾀ
100
AcDbLine
 10
5829.909744552075
 20
-2112.429269954458
 30
0.0
 11
5830.209744552074
 21
-2112.129269954459
 31
0.0
  0
ARC
  5
108FEE
330
18
100
AcDbEntity
  8
ｺﾈｸﾀ
100
AcDbCircle
 10
5838.037346188159
 20
-2104.179269954458
 30
0.0
 40
4.367366609166623
100
AcDbArc
 50
153.9921761142797
 51
206.0078238857203
  0
LINE
  5
108FEF
330
18
100
AcDbEntity
  8
ｺﾈｸﾀ
100
AcDbLine
 10
5830.549744609809
 20
-2111.937312094081
 30
0.0
 11
5830.799744609809
 21
-2101.921227814835
 31
0.0
  0
LINE
  5
108FF0
330
18
100
AcDbEntity
  8
ｺﾈｸﾀ
100
AcDbLine
 10
5831.049744609809
 20
-2111.937312094081
 30
0.0
 11
5831.299744609809
 21
-2101.921227814835
 31
0.0
  0
LINE
  5
108FF1
330
18
100
AcDbEntity
  8
ｺﾈｸﾀ
100
AcDbLine
 10
5831.549744609809
 20
-2111.937312094081
 30
0.0
 11
5831.799744609809
 21
-2101.921227814835
 31
0.0
  0
LINE
  5
108FF2
330
18
100
AcDbEntity
  8
ｺﾈｸﾀ
100
AcDbLine
 10
5832.049744609809
 20
-2111.937312094081
 30
0.0
 11
5832.299744609809
 21
-2101.921227814835
 31
0.0
  0
LINE
  5
108FF3
330
18
100
AcDbEntity
  8
ｺﾈｸﾀ
100
AcDbLine
 10
5832.549744609809
 20
-2111.937312094081
 30
0.0
 11
5832.799744609809
 21
-2101.921227814835
 31
0.0
  0
LINE
  5
108FF4
330
18
100
AcDbEntity
  8
ｺﾈｸﾀ
100
AcDbLine
 10
5830.209744552074
 20
-2101.729269954457
 30
0.0
 11
5830.209744552074
 21
-2106.929269954458
 31
0.0
  0
LINE
  5
108FF5
330
18
100
AcDbEntity
  8
ｺﾈｸﾀ
100
AcDbLine
 10
5835.612244552074
 20
-2106.094333463921
 30
0.0
 11
5835.612244552074
 21
-2102.264206444995
 31
0.0
  0
LINE
  5
108FF6
330
18
100
AcDbEntity
  8
ｺﾈｸﾀ
100
AcDbLine
 10
5833.612244552074
 20
-2106.929269954458
 30
0.0
 11
5833.612244552074
 21
-2102.138583437755
 31
0.0
  0
LINE
  5
108FF7
330
18
100
AcDbEntity
  8
ｺﾈｸﾀ
100
AcDbLine
 10
5830.208114436718
 20
-2105.592329959634
 30
0.0
 11
5830.299744609809
 21
-2101.921227814835
 31
0.0
  0
ARC
  5
108FF8
330
18
100
AcDbEntity
  8
ｺﾈｸﾀ
100
AcDbCircle
 10
5838.037346188159
 20
-2109.679269954454
 30
0.0
 40
4.367366609167326
100
AcDbArc
 50
153.9921761142743
 51
206.0078238857257
  0
LINE
  5
108FF9
330
18
100
AcDbEntity
  8
ｺﾈｸﾀ
100
AcDbLine
 10
5830.209744552074
 20
-2106.929269954458
 30
0.0
 11
5830.209744552074
 21
-2112.129269954459
 31
0.0
  0
LINE
  5
108FFA
330
18
100
AcDbEntity
  8
ｺﾈｸﾀ
100
AcDbLine
 10
5833.612244552074
 20
-2111.71995647116
 30
0.0
 11
5833.612244552074
 21
-2106.929269954458
 31
0.0
  0
LINE
  5
108FFB
330
18
100
AcDbEntity
  8
ｺﾈｸﾀ
100
AcDbLine
 10
5835.612244552074
 20
-2111.594333463917
 30
0.0
 11
5835.612244552074
 21
-2107.764206444995
 31
0.0
  0
LINE
  5
108FFC
330
18
100
AcDbEntity
  8
ｺﾈｸﾀ
100
AcDbLine
 10
5833.417512183569
 20
-2111.648636954456
 30
0.0
 11
5832.737244667544
 21
-2111.648636954456
 31
0.0
  0
LINE
  5
108FFD
330
18
100
AcDbEntity
  8
ｺﾈｸﾀ
100
AcDbLine
 10
5835.612244552074
 20
-2111.594333463917
 30
0.0
 11
5834.112244552074
 21
-2111.594333463917
 31
0.0
  0
LINE
  5
108FFE
330
18
100
AcDbEntity
  8
ｺﾈｸﾀ
100
AcDbLine
 10
5835.612244552074
 20
-2112.429269954458
 30
0.0
 11
5834.112244552074
 21
-2112.429269954458
 31
0.0
  0
LINE
  5
108FFF
330
18
100
AcDbEntity
  8
ｺﾈｸﾀ
100
AcDbLine
 10
5835.612244552074
 20
-2112.429269954458
 30
0.0
 11
5835.612244552074
 21
-2111.594333463917
 31
0.0
  0
ARC
  5
109000
330
18
100
AcDbEntity
  8
ｺﾈｸﾀ
100
AcDbCircle
 10
5833.412244552073
 20
-2111.848636954456
 30
0.0
 40
0.2000000000003013
100
AcDbArc
 50
0.0
 51
90.0
  0
LINE
  5
109001
330
18
100
AcDbEntity
  8
ｺﾈｸﾀ
100
AcDbLine
 10
5834.112244552074
 20
-2111.594333463917
 30
0.0
 11
5834.112244552074
 21
-2112.429269954458
 31
0.0
  0
LINE
  5
109002
330
18
100
AcDbEntity
  8
ｺﾈｸﾀ
100
AcDbLine
 10
5833.612244552074
 20
-2111.929269954458
 30
0.0
 11
5834.112244552074
 21
-2112.429269954458
 31
0.0
  0
LINE
  5
109003
330
18
100
AcDbEntity
  8
ｺﾈｸﾀ
100
AcDbLine
 10
5833.612244552074
 20
-2111.719269954459
 30
0.0
 11
5833.612244552074
 21
-2111.929269954458
 31
0.0
  0
ARC
  5
109004
330
18
100
AcDbEntity
  8
ｺﾈｸﾀ
100
AcDbCircle
 10
5831.549744609809
 20
-2111.901227795964
 30
0.0
 40
0.0360842981133216
100
AcDbArc
 50
210.0000172916693
 51
329.9999827083307
  0
ARC
  5
109005
330
18
100
AcDbEntity
  8
ｺﾈｸﾀ
100
AcDbCircle
 10
5832.049744609809
 20
-2111.901227795964
 30
0.0
 40
0.0360842981133216
100
AcDbArc
 50
210.0000172916693
 51
329.9999827083307
  0
ARC
  5
109006
330
18
100
AcDbEntity
  8
ｺﾈｸﾀ
100
AcDbCircle
 10
5832.549744609809
 20
-2111.901227795964
 30
0.0
 40
0.0360842981133216
100
AcDbArc
 50
210.0000172916693
 51
329.9999827083307
  0
LINE
  5
109007
330
18
100
AcDbEntity
  8
ｺﾈｸﾀ
100
AcDbLine
 10
5831.737244667544
 20
-2111.648636954456
 30
0.0
 11
5831.862244552074
 21
-2111.648636954456
 31
0.0
  0
LINE
  5
109008
330
18
100
AcDbEntity
  8
ｺﾈｸﾀ
100
AcDbLine
 10
5831.737244667544
 20
-2111.648636954456
 30
0.0
 11
5831.580994523207
 21
-2111.919269954456
 31
0.0
  0
LINE
  5
109009
330
18
100
AcDbEntity
  8
ｺﾈｸﾀ
100
AcDbLine
 10
5831.737244667544
 20
-2111.648636954456
 30
0.0
 11
5831.862244552074
 21
-2111.648636954456
 31
0.0
  0
LINE
  5
10900A
330
18
100
AcDbEntity
  8
ｺﾈｸﾀ
100
AcDbLine
 10
5832.237244667544
 20
-2111.648636954456
 30
0.0
 11
5832.362244552074
 21
-2111.648636954456
 31
0.0
  0
LINE
  5
10900B
330
18
100
AcDbEntity
  8
ｺﾈｸﾀ
100
AcDbLine
 10
5832.018494696411
 20
-2111.919269954456
 30
0.0
 11
5831.862244552074
 21
-2111.648636954456
 31
0.0
  0
LINE
  5
10900C
330
18
100
AcDbEntity
  8
ｺﾈｸﾀ
100
AcDbLine
 10
5832.237244667544
 20
-2111.648636954456
 30
0.0
 11
5832.080994523207
 21
-2111.919269954456
 31
0.0
  0
LINE
  5
10900D
330
18
100
AcDbEntity
  8
ｺﾈｸﾀ
100
AcDbLine
 10
5832.237244667544
 20
-2111.648636954456
 30
0.0
 11
5832.362244552074
 21
-2111.648636954456
 31
0.0
  0
LINE
  5
10900E
330
18
100
AcDbEntity
  8
ｺﾈｸﾀ
100
AcDbLine
 10
5832.237244667544
 20
-2111.648636954456
 30
0.0
 11
5832.362244552074
 21
-2111.648636954456
 31
0.0
  0
LINE
  5
10900F
330
18
100
AcDbEntity
  8
ｺﾈｸﾀ
100
AcDbLine
 10
5832.518494696411
 20
-2111.919269954456
 30
0.0
 11
5832.362244552074
 21
-2111.648636954456
 31
0.0
  0
LINE
  5
109010
330
18
100
AcDbEntity
  8
ｺﾈｸﾀ
100
AcDbLine
 10
5832.737244667544
 20
-2111.648636954456
 30
0.0
 11
5832.580994523207
 21
-2111.919269954456
 31
0.0
  0
ARC
  5
109011
330
18
100
AcDbEntity
  8
ｺﾈｸﾀ
100
AcDbCircle
 10
5830.549744609809
 20
-2111.901227795964
 30
0.0
 40
0.0360842981133216
100
AcDbArc
 50
210.0000172916693
 51
329.9999827083307
  0
ARC
  5
109012
330
18
100
AcDbEntity
  8
ｺﾈｸﾀ
100
AcDbCircle
 10
5831.049744609809
 20
-2111.901227795964
 30
0.0
 40
0.0360842981133216
100
AcDbArc
 50
210.0000172916693
 51
329.9999827083307
  0
LINE
  5
109013
330
18
100
AcDbEntity
  8
ｺﾈｸﾀ
100
AcDbLine
 10
5830.518494696413
 20
-2111.919269954456
 30
0.0
 11
5830.362244552074
 21
-2111.648636954456
 31
0.0
  0
LINE
  5
109014
330
18
100
AcDbEntity
  8
ｺﾈｸﾀ
100
AcDbLine
 10
5830.237244667544
 20
-2111.648636954456
 30
0.0
 11
5830.362244552074
 21
-2111.648636954456
 31
0.0
  0
LINE
  5
109015
330
18
100
AcDbEntity
  8
ｺﾈｸﾀ
100
AcDbLine
 10
5830.237244667544
 20
-2111.648636954456
 30
0.0
 11
5830.209744552074
 21
-2111.696268518456
 31
0.0
  0
LINE
  5
109016
330
18
100
AcDbEntity
  8
ｺﾈｸﾀ
100
AcDbLine
 10
5830.518494696413
 20
-2111.919269954456
 30
0.0
 11
5830.362244552074
 21
-2111.648636954456
 31
0.0
  0
LINE
  5
109017
330
18
100
AcDbEntity
  8
ｺﾈｸﾀ
100
AcDbLine
 10
5830.737244667544
 20
-2111.648636954456
 30
0.0
 11
5830.580994523207
 21
-2111.919269954456
 31
0.0
  0
LINE
  5
109018
330
18
100
AcDbEntity
  8
ｺﾈｸﾀ
100
AcDbLine
 10
5830.737244667544
 20
-2111.648636954456
 30
0.0
 11
5830.862244552074
 21
-2111.648636954456
 31
0.0
  0
LINE
  5
109019
330
18
100
AcDbEntity
  8
ｺﾈｸﾀ
100
AcDbLine
 10
5831.237244667544
 20
-2111.648636954456
 30
0.0
 11
5831.362244552074
 21
-2111.648636954456
 31
0.0
  0
LINE
  5
10901A
330
18
100
AcDbEntity
  8
ｺﾈｸﾀ
100
AcDbLine
 10
5831.237244667544
 20
-2111.648636954456
 30
0.0
 11
5831.080994523207
 21
-2111.919269954456
 31
0.0
  0
LINE
  5
10901B
330
18
100
AcDbEntity
  8
ｺﾈｸﾀ
100
AcDbLine
 10
5831.018494696411
 20
-2111.919269954456
 30
0.0
 11
5830.862244552074
 21
-2111.648636954456
 31
0.0
  0
LINE
  5
10901C
330
18
100
AcDbEntity
  8
ｺﾈｸﾀ
100
AcDbLine
 10
5831.518494696413
 20
-2111.919269954456
 30
0.0
 11
5831.362244552074
 21
-2111.648636954456
 31
0.0
  0
LINE
  5
10901D
330
18
100
AcDbEntity
  8
ｺﾈｸﾀ
100
AcDbLine
 10
5834.112244552074
 20
-2107.764206444995
 30
0.0
 11
5834.112244552074
 21
-2106.929269954458
 31
0.0
  0
LINE
  5
10901E
330
18
100
AcDbEntity
  8
ｺﾈｸﾀ
100
AcDbLine
 10
5835.612244552074
 20
-2107.764206444995
 30
0.0
 11
5835.612244552074
 21
-2106.929269954458
 31
0.0
  0
LINE
  5
10901F
330
18
100
AcDbEntity
  8
ｺﾈｸﾀ
100
AcDbLine
 10
5835.612244552074
 20
-2107.764206444995
 30
0.0
 11
5834.112244552074
 21
-2107.764206444995
 31
0.0
  0
LINE
  5
109020
330
18
100
AcDbEntity
  8
ｺﾈｸﾀ
100
AcDbLine
 10
5834.112244552074
 20
-2106.094333463917
 30
0.0
 11
5835.612244552074
 21
-2106.094333463921
 31
0.0
  0
LINE
  5
109021
330
18
100
AcDbEntity
  8
ｺﾈｸﾀ
100
AcDbLine
 10
5835.612244552074
 20
-2106.929269954458
 30
0.0
 11
5835.612244552074
 21
-2106.094333463921
 31
0.0
  0
LINE
  5
109022
330
18
100
AcDbEntity
  8
ｺﾈｸﾀ
100
AcDbLine
 10
5834.112244552074
 20
-2106.929269954458
 30
0.0
 11
5834.112244552074
 21
-2106.094333463917
 31
0.0
  0
LINE
  5
109023
330
18
100
AcDbEntity
  8
ｺﾈｸﾀ
100
AcDbLine
 10
5832.987244667544
 20
-2102.209902954456
 30
0.0
 11
5833.412244552073
 21
-2102.209902954456
 31
0.0
  0
LINE
  5
109024
330
18
100
AcDbEntity
  8
ｺﾈｸﾀ
100
AcDbLine
 10
5834.112244552074
 20
-2102.264206444995
 30
0.0
 11
5835.612244552074
 21
-2102.264206444995
 31
0.0
  0
ARC
  5
109025
330
18
100
AcDbEntity
  8
ｺﾈｸﾀ
100
AcDbCircle
 10
5833.412244552073
 20
-2102.009902954456
 30
0.0
 40
0.2000000000000028
100
AcDbArc
 50
270.0
 51
0.0
  0
LINE
  5
109026
330
18
100
AcDbEntity
  8
ｺﾈｸﾀ
100
AcDbLine
 10
5833.612244552074
 20
-2101.929269954458
 30
0.0
 11
5833.612244552074
 21
-2102.139269954457
 31
0.0
  0
LINE
  5
109027
330
18
100
AcDbEntity
  8
ｺﾈｸﾀ
100
AcDbLine
 10
5831.612244552074
 20
-2102.209902954456
 30
0.0
 11
5831.487244667544
 21
-2102.209902954456
 31
0.0
  0
ARC
  5
109028
330
18
100
AcDbEntity
  8
ｺﾈｸﾀ
100
AcDbCircle
 10
5832.799744609809
 20
-2101.957312112948
 30
0.0
 40
0.0360842981141831
100
AcDbArc
 50
30.00001729739401
 51
149.999982702606
  0
ARC
  5
109029
330
18
100
AcDbEntity
  8
ｺﾈｸﾀ
100
AcDbCircle
 10
5832.299744609809
 20
-2101.957312112948
 30
0.0
 40
0.0360842981141831
100
AcDbArc
 50
30.00001729739401
 51
149.999982702606
  0
ARC
  5
10902A
330
18
100
AcDbEntity
  8
ｺﾈｸﾀ
100
AcDbCircle
 10
5831.799744609809
 20
-2101.957312112948
 30
0.0
 40
0.0360842981141831
100
AcDbArc
 50
30.00001729739401
 51
149.999982702606
  0
LINE
  5
10902B
330
18
100
AcDbEntity
  8
ｺﾈｸﾀ
100
AcDbLine
 10
5832.830994523207
 20
-2101.939269954456
 30
0.0
 11
5832.987244667544
 21
-2102.209902954456
 31
0.0
  0
LINE
  5
10902C
330
18
100
AcDbEntity
  8
ｺﾈｸﾀ
100
AcDbLine
 10
5832.612244552074
 20
-2102.209902954456
 30
0.0
 11
5832.768494696411
 21
-2101.939269954456
 31
0.0
  0
LINE
  5
10902D
330
18
100
AcDbEntity
  8
ｺﾈｸﾀ
100
AcDbLine
 10
5832.612244552074
 20
-2102.209902954456
 30
0.0
 11
5832.487244667544
 21
-2102.209902954456
 31
0.0
  0
LINE
  5
10902E
330
18
100
AcDbEntity
  8
ｺﾈｸﾀ
100
AcDbLine
 10
5832.612244552074
 20
-2102.209902954456
 30
0.0
 11
5832.487244667544
 21
-2102.209902954456
 31
0.0
  0
LINE
  5
10902F
330
18
100
AcDbEntity
  8
ｺﾈｸﾀ
100
AcDbLine
 10
5832.330994523207
 20
-2101.939269954456
 30
0.0
 11
5832.487244667544
 21
-2102.209902954456
 31
0.0
  0
LINE
  5
109030
330
18
100
AcDbEntity
  8
ｺﾈｸﾀ
100
AcDbLine
 10
5832.112244552074
 20
-2102.209902954456
 30
0.0
 11
5832.268494696411
 21
-2101.939269954456
 31
0.0
  0
LINE
  5
109031
330
18
100
AcDbEntity
  8
ｺﾈｸﾀ
100
AcDbLine
 10
5832.612244552074
 20
-2102.209902954456
 30
0.0
 11
5832.487244667544
 21
-2102.209902954456
 31
0.0
  0
LINE
  5
109032
330
18
100
AcDbEntity
  8
ｺﾈｸﾀ
100
AcDbLine
 10
5832.112244552074
 20
-2102.209902954456
 30
0.0
 11
5831.987244667544
 21
-2102.209902954456
 31
0.0
  0
LINE
  5
109033
330
18
100
AcDbEntity
  8
ｺﾈｸﾀ
100
AcDbLine
 10
5831.830994523207
 20
-2101.939269954456
 30
0.0
 11
5831.987244667544
 21
-2102.209902954456
 31
0.0
  0
LINE
  5
109034
330
18
100
AcDbEntity
  8
ｺﾈｸﾀ
100
AcDbLine
 10
5831.612244552074
 20
-2102.209902954456
 30
0.0
 11
5831.768494696411
 21
-2101.939269954456
 31
0.0
  0
LINE
  5
109035
330
18
100
AcDbEntity
  8
ｺﾈｸﾀ
100
AcDbLine
 10
5832.112244552074
 20
-2102.209902954456
 30
0.0
 11
5831.987244667544
 21
-2102.209902954456
 31
0.0
  0
ARC
  5
109036
330
18
100
AcDbEntity
  8
ｺﾈｸﾀ
100
AcDbCircle
 10
5831.299744609809
 20
-2101.957312112948
 30
0.0
 40
0.0360842981141831
100
AcDbArc
 50
30.00001729739401
 51
149.999982702606
  0
ARC
  5
109037
330
18
100
AcDbEntity
  8
ｺﾈｸﾀ
100
AcDbCircle
 10
5830.799744609809
 20
-2101.957312112948
 30
0.0
 40
0.0360842981141831
100
AcDbArc
 50
30.00001729739401
 51
149.999982702606
  0
ARC
  5
109038
330
18
100
AcDbEntity
  8
ｺﾈｸﾀ
100
AcDbCircle
 10
5830.299744609809
 20
-2101.957312112948
 30
0.0
 40
0.0360842981133093
100
AcDbArc
 50
30.00001729166936
 51
149.9999827083307
  0
LINE
  5
109039
330
18
100
AcDbEntity
  8
ｺﾈｸﾀ
100
AcDbLine
 10
5831.330994523207
 20
-2101.939269954456
 30
0.0
 11
5831.487244667544
 21
-2102.209902954456
 31
0.0
  0
LINE
  5
10903A
330
18
100
AcDbEntity
  8
ｺﾈｸﾀ
100
AcDbLine
 10
5831.112244552074
 20
-2102.209902954456
 30
0.0
 11
5831.268494696411
 21
-2101.939269954456
 31
0.0
  0
LINE
  5
10903B
330
18
100
AcDbEntity
  8
ｺﾈｸﾀ
100
AcDbLine
 10
5830.830994523207
 20
-2101.939269954456
 30
0.0
 11
5830.987244667544
 21
-2102.209902954456
 31
0.0
  0
LINE
  5
10903C
330
18
100
AcDbEntity
  8
ｺﾈｸﾀ
100
AcDbLine
 10
5830.612244552074
 20
-2102.209902954456
 30
0.0
 11
5830.768494696411
 21
-2101.939269954456
 31
0.0
  0
LINE
  5
10903D
330
18
100
AcDbEntity
  8
ｺﾈｸﾀ
100
AcDbLine
 10
5831.112244552074
 20
-2102.209902954456
 30
0.0
 11
5830.987244667544
 21
-2102.209902954456
 31
0.0
  0
LINE
  5
10903E
330
18
100
AcDbEntity
  8
ｺﾈｸﾀ
100
AcDbLine
 10
5830.330994523207
 20
-2101.939269954456
 30
0.0
 11
5830.487244667544
 21
-2102.209902954456
 31
0.0
  0
LINE
  5
10903F
330
18
100
AcDbEntity
  8
ｺﾈｸﾀ
100
AcDbLine
 10
5830.612244552074
 20
-2102.209902954456
 30
0.0
 11
5830.487244667544
 21
-2102.209902954456
 31
0.0
  0
LINE
  5
109040
330
18
100
AcDbEntity
  8
ｺﾈｸﾀ
100
AcDbLine
 10
5830.209744552074
 20
-2102.041028118457
 30
0.0
 11
5830.268494696413
 21
-2101.939269954456
 31
0.0
  0
LINE
  5
109041
330
18
100
AcDbEntity
  8
ｺﾈｸﾀ
100
AcDbLine
 10
5829.909744552075
 20
-2112.429269954458
 30
0.0
 11
5828.909744552073
 21
-2112.429269954458
 31
0.0
  0
LINE
  5
109042
330
18
100
AcDbEntity
  8
ｺﾈｸﾀ
100
AcDbLine
 10
5829.909744552075
 20
-2111.594333463917
 30
0.0
 11
5829.909744552075
 21
-2112.429269954458
 31
0.0
  0
LINE
  5
109043
330
18
100
AcDbEntity
  8
ｺﾈｸﾀ
100
AcDbLine
 10
5829.909744552075
 20
-2106.929269954458
 30
0.0
 11
5829.909744552075
 21
-2107.764206444995
 31
0.0
  0
LINE
  5
109044
330
18
100
AcDbEntity
  8
ｺﾈｸﾀ
100
AcDbLine
 10
5829.909744552075
 20
-2106.094333463917
 30
0.0
 11
5829.909744552075
 21
-2106.929269954458
 31
0.0
  0
LINE
  5
109045
330
18
100
AcDbEntity
  8
ｺﾈｸﾀ
100
AcDbLine
 10
5823.412244552073
 20
-2101.429269954458
 30
0.0
 11
5823.412244552073
 21
-2102.264206444995
 31
0.0
  0
LINE
  5
109046
330
18
100
AcDbEntity
  8
ｺﾈｸﾀ
100
AcDbLine
 10
5830.209744552074
 20
-2101.729269954457
 30
0.0
 11
5829.909744552075
 21
-2101.429269954458
 31
0.0
  0
LINE
  5
109047
330
18
100
AcDbEntity
  8
ｺﾈｸﾀ
100
AcDbLine
 10
5835.612244552074
 20
-2102.264206444995
 30
0.0
 11
5835.612244552074
 21
-2101.429269954458
 31
0.0
  0
LINE
  5
109048
330
18
100
AcDbEntity
  8
ｺﾈｸﾀ
100
AcDbLine
 10
5834.112244552074
 20
-2101.429269954458
 30
0.0
 11
5833.612244552074
 21
-2101.929269954458
 31
0.0
  0
LINE
  5
109049
330
18
100
AcDbEntity
  8
ｺﾈｸﾀ
100
AcDbLine
 10
5834.112244552074
 20
-2101.429269954458
 30
0.0
 11
5834.112244552074
 21
-2102.264206444995
 31
0.0
  0
LINE
  5
10904A
330
18
100
AcDbEntity
  8
ｺﾈｸﾀ
100
AcDbLine
 10
5829.909744552075
 20
-2101.429269954458
 30
0.0
 11
5829.909744552075
 21
-2102.264206444995
 31
0.0
  0
ARC
  5
10904B
330
18
100
AcDbEntity
  8
細線
 48
0.5
100
AcDbCircle
 10
5815.258859401271
 20
-2105.304960322469
 30
0.0
 40
2.913419383267884
100
AcDbArc
 50
146.0822671585235
 51
213.7829047165868
  0
ARC
  5
10904C
330
18
100
AcDbEntity
  8
細線
 48
0.5
100
AcDbCircle
 10
5815.27031237365
 20
-2108.549263378035
 30
0.0
 40
2.925332558086853
100
AcDbArc
 50
146.2717780069387
 51
213.8626930980656
  0
ARC
  5
10904D
330
18
100
AcDbEntity
  8
細線
 48
0.5
100
AcDbCircle
 10
5810.389464358272
 20
-2108.554990966809
 30
0.0
 40
2.940959083827968
100
AcDbArc
 50
326.4753037091368
 51
33.65916739586376
  0
LINE
  5
10904E
330
18
100
AcDbEntity
  8
ｺﾈｸﾀ
100
AcDbLine
 10
5812.8411885529
 20
-2110.179271978895
 30
0.0
 11
5820.309744552073
 21
-2110.179269954458
 31
0.0
  0
LINE
  5
10904F
330
18
100
AcDbEntity
  8
ｺﾈｸﾀ
100
AcDbLine
 10
5812.841188552195
 20
-2103.679266572611
 30
0.0
 11
5820.309744552073
 21
-2103.679269954458
 31
0.0
  0
LINE
  5
109050
330
18
100
AcDbEntity
  8
実線
 48
0.5
100
AcDbLine
 10
6245.669203823659
 20
-2185.480208841274
 30
0.0
 11
6245.669203823658
 21
-2028.378331067646
 31
0.0
  0
ARC
  5
109051
330
18
100
AcDbEntity
  8
実線
 48
0.5
100
AcDbCircle
 10
6339.669203823659
 20
-2106.929269954458
 30
0.0
 40
122.5
100
AcDbArc
 50
219.8837596111542
 51
230.1162403888638
  0
LINE
  5
109052
330
18
100
AcDbEntity
  8
実線
 48
0.5
100
AcDbLine
 10
6418.220142710466
 20
-2200.929269954461
 30
0.0
 11
6261.118264936848
 21
-2200.929269954461
 31
0.0
  0
LINE
  5
109053
330
18
100
AcDbEntity
  8
実線
 48
0.5
100
AcDbLine
 10
6433.669203823659
 20
-2028.378331067646
 30
0.0
 11
6433.669203823659
 21
-2185.48020884127
 31
0.0
  0
ARC
  5
109054
330
18
100
AcDbEntity
  8
実線
 48
0.5
100
AcDbCircle
 10
6339.669203823659
 20
-2106.929269954458
 30
0.0
 40
122.5
100
AcDbArc
 50
309.8837596111361
 51
320.1162403888458
  0
LINE
  5
109055
330
18
100
AcDbEntity
  8
実線
 48
0.5
100
AcDbLine
 10
6261.118264936837
 20
-2012.929269954461
 30
0.0
 11
6418.220142710476
 21
-2012.929269954461
 31
0.0
  0
ARC
  5
109056
330
18
100
AcDbEntity
  8
実線
 48
0.5
100
AcDbCircle
 10
6339.669203823659
 20
-2106.929269954458
 30
0.0
 40
122.5
100
AcDbArc
 50
39.88375961115418
 51
50.11624038886388
  0
ARC
  5
109057
330
18
100
AcDbEntity
  8
実線
 48
0.5
100
AcDbCircle
 10
6339.669203823659
 20
-2106.929269954458
 30
0.0
 40
122.5
100
AcDbArc
 50
129.8837596111362
 51
140.1162403888458
  0
LINE
  5
109058
330
18
100
AcDbEntity
  8
中心線
 48
0.5
100
AcDbLine
 10
6252.011040570721
 20
-2194.587433207387
 30
0.0
 11
6275.299409121483
 21
-2171.299064656625
 31
0.0
  0
ARC
  5
109059
330
18
100
AcDbEntity
  8
中心線
 48
0.5
100
AcDbCircle
 10
6339.669203823658
 20
-2106.929269954456
 30
0.0
 40
107.5
100
AcDbArc
 50
216.2145478824844
 51
233.7854383507986
  0
CIRCLE
  5
10905A
330
18
100
AcDbEntity
  8
実線
 48
0.5
100
AcDbCircle
 10
6263.655224846101
 20
-2182.943248932009
 30
0.0
 40
5.5
  0
LINE
  5
10905B
330
18
100
AcDbEntity
  8
中心線
 48
0.5
100
AcDbLine
 10
6427.327367076588
 20
-2194.587433207394
 30
0.0
 11
6404.038998525825
 21
-2171.299064656631
 31
0.0
  0
ARC
  5
10905C
330
18
100
AcDbEntity
  8
中心線
 48
0.5
100
AcDbCircle
 10
6339.669203823658
 20
-2106.929269954457
 30
0.0
 40
107.5
100
AcDbArc
 50
306.2145478824851
 51
323.785438350798
  0
CIRCLE
  5
10905D
330
18
100
AcDbEntity
  8
実線
 48
0.5
100
AcDbCircle
 10
6415.683182801211
 20
-2182.943248932013
 30
0.0
 40
5.5
  0
LINE
  5
10905E
330
18
100
AcDbEntity
  8
中心線
 48
0.5
100
AcDbLine
 10
6252.011040570726
 20
-2019.27110670152
 30
0.0
 11
6275.299409121489
 21
-2042.559475252282
 31
0.0
  0
ARC
  5
10905F
330
18
100
AcDbEntity
  8
中心線
 48
0.5
100
AcDbCircle
 10
6339.669203823658
 20
-2106.929269954456
 30
0.0
 40
107.5
100
AcDbArc
 50
126.2145478824851
 51
143.785438350798
  0
CIRCLE
  5
109060
330
18
100
AcDbEntity
  8
実線
 48
0.5
100
AcDbCircle
 10
6263.655224846105
 20
-2030.9152909769
 30
0.0
 40
5.5
  0
LINE
  5
109061
330
18
100
AcDbEntity
  8
中心線
 48
0.5
100
AcDbLine
 10
6427.327367076594
 20
-2019.271106701526
 30
0.0
 11
6404.038998525831
 21
-2042.559475252288
 31
0.0
  0
ARC
  5
109062
330
18
100
AcDbEntity
  8
中心線
 48
0.5
100
AcDbCircle
 10
6339.669203823658
 20
-2106.929269954456
 30
0.0
 40
107.5
100
AcDbArc
 50
36.21454788248443
 51
53.7854383507991
  0
CIRCLE
  5
109063
330
18
100
AcDbEntity
  8
実線
 48
0.5
100
AcDbCircle
 10
6415.683182801213
 20
-2030.915290976903
 30
0.0
 40
5.5
  0
LINE
  5
109064
330
18
100
AcDbEntity
  8
中心線
 48
0.5
100
AcDbLine
 10
6397.586495241258
 20
-2189.643734248407
 30
0.0
 11
6281.751912406055
 21
-2024.214805660509
 31
0.0
  0
LINE
  5
109065
330
18
100
AcDbEntity
  8
中心線
 48
0.5
100
AcDbLine
 10
6440.644919956729
 20
-2106.929269954458
 30
0.0
 11
6238.69348769059
 21
-2106.929269954458
 31
0.0
  0
CIRCLE
  5
109066
330
18
100
AcDbEntity
  8
寸法線
100
AcDbCircle
 10
6391.291083095251
 20
-2180.652953940466
 30
0.0
 40
3.0
  0
CIRCLE
  5
109067
330
18
100
AcDbEntity
  8
中心線
 48
0.5
100
AcDbCircle
 10
6339.669203823658
 20
-2106.929269954456
 30
0.0
 40
90.0
  0
ARC
  5
109068
330
18
100
AcDbEntity
  8
実線
100
AcDbCircle
 10
6287.473748115711
 20
-2032.386433924159
 30
0.0
 40
3.0
100
AcDbArc
 50
35.00000000001551
 51
215.000000000002
  0
ARC
  5
109069
330
18
100
AcDbEntity
  8
実線
100
AcDbCircle
 10
6288.620900988413
 20
-2034.024738012737
 30
0.0
 40
3.0
100
AcDbArc
 50
215.0000000000155
 51
35.00000000001195
  0
LINE
  5
10906A
330
18
100
AcDbEntity
  8
実線
100
AcDbLine
 10
6289.931204248559
 20
-2030.665704615118
 30
0.0
 11
6291.078357121251
 21
-2032.304008703683
 31
0.0
  0
LINE
  5
10906B
330
18
100
AcDbEntity
  8
実線
100
AcDbLine
 10
6285.016291982825
 20
-2034.107163233226
 30
0.0
 11
6286.163444855519
 21
-2035.745467321791
 31
0.0
  0
LINE
  5
10906C
330
18
100
AcDbEntity
  8
中心線
 48
0.5
100
AcDbLine
 10
5818.632313028971
 20
-2326.589046441203
 30
0.0
 11
5840.811156918924
 21
-2326.589046441203
 31
0.0
  0
LINE
  5
10906D
330
18
100
AcDbEntity
  8
ｺﾈｸﾀ
 48
0.5
100
AcDbLine
 10
5829.908114436717
 20
-2325.252106446379
 30
0.0
 11
5829.999744609808
 21
-2321.58100430158
 31
0.0
  0
LINE
  5
10906E
330
18
100
AcDbEntity
  8
ｺﾈｸﾀ
 48
0.5
100
AcDbLine
 10
5829.909744552075
 20
-2321.700804605204
 30
0.0
 11
5829.968494696412
 21
-2321.599046441204
 31
0.0
  0
LINE
  5
10906F
330
18
100
AcDbEntity
  8
ｺﾈｸﾀ
 48
0.5
100
AcDbLine
 10
5835.612244552074
 20
-2321.787304010698
 30
0.0
 11
5835.612244552074
 21
-2324.476775489145
 31
0.0
  0
LINE
  5
109070
330
18
100
AcDbEntity
  8
ｺﾈｸﾀ
 48
0.5
100
AcDbLine
 10
5835.612244552074
 20
-2324.476775489145
 30
0.0
 11
5835.612244552074
 21
-2326.589046441203
 31
0.0
  0
LINE
  5
109071
330
18
100
AcDbEntity
  8
ｺﾈｸﾀ
 48
0.5
100
AcDbLine
 10
5835.312244552075
 20
-2321.923982931742
 30
0.0
 11
5835.312244552075
 21
-2321.089046441202
 31
0.0
  0
LINE
  5
109072
330
18
100
AcDbEntity
  8
ｺﾈｸﾀ
 48
0.5
100
AcDbLine
 10
5833.812244552075
 20
-2321.923982931742
 30
0.0
 11
5835.312244552075
 21
-2321.923982931742
 31
0.0
  0
LINE
  5
109073
330
18
100
AcDbEntity
  8
ｺﾈｸﾀ
 48
0.5
100
AcDbLine
 10
5833.812244552075
 20
-2321.089046441203
 30
0.0
 11
5833.812244552075
 21
-2321.923982931742
 31
0.0
  0
LINE
  5
109074
330
18
100
AcDbEntity
  8
ｺﾈｸﾀ
 48
0.5
100
AcDbLine
 10
5833.312244552075
 20
-2326.589046441203
 30
0.0
 11
5833.312244552075
 21
-2321.798359924501
 31
0.0
  0
LINE
  5
109075
330
18
100
AcDbEntity
  8
ｺﾈｸﾀ
 48
0.5
100
AcDbLine
 10
5833.812244552075
 20
-2326.589046441203
 30
0.0
 11
5833.812244552075
 21
-2325.754109950665
 31
0.0
  0
LINE
  5
109076
330
18
100
AcDbEntity
  8
ｺﾈｸﾀ
 48
0.5
100
AcDbLine
 10
5835.312244552075
 20
-2326.589046441203
 30
0.0
 11
5835.312244552075
 21
-2325.754109950665
 31
0.0
  0
LINE
  5
109077
330
18
100
AcDbEntity
  8
ｺﾈｸﾀ
 48
0.5
100
AcDbLine
 10
5833.812244552075
 20
-2325.754109950665
 30
0.0
 11
5835.312244552075
 21
-2325.754109950665
 31
0.0
  0
LINE
  5
109078
330
18
100
AcDbEntity
  8
ｺﾈｸﾀ
 48
0.5
100
AcDbLine
 10
5835.312244552075
 20
-2325.754109950665
 30
0.0
 11
5835.312244552075
 21
-2321.923982931742
 31
0.0
  0
LINE
  5
109079
330
18
100
AcDbEntity
  8
ｺﾈｸﾀ
 48
0.5
100
AcDbLine
 10
5833.812244552075
 20
-2321.089046441203
 30
0.0
 11
5835.312244552075
 21
-2321.089046441202
 31
0.0
  0
LINE
  5
10907A
330
18
100
AcDbEntity
  8
ｺﾈｸﾀ
 48
0.5
100
AcDbLine
 10
5833.812244552075
 20
-2321.089046441203
 30
0.0
 11
5833.312244552075
 21
-2321.589046441203
 31
0.0
  0
LINE
  5
10907B
330
18
100
AcDbEntity
  8
ｺﾈｸﾀ
 48
0.5
100
AcDbLine
 10
5833.312244552075
 20
-2321.589046441203
 30
0.0
 11
5833.312244552075
 21
-2321.799046441203
 31
0.0
  0
LINE
  5
10907C
330
18
100
AcDbEntity
  8
ｺﾈｸﾀ
 48
0.5
100
AcDbLine
 10
5821.009744552073
 20
-2322.289046441204
 30
0.0
 11
5821.409744552075
 21
-2322.289046441204
 31
0.0
  0
LINE
  5
10907D
330
18
100
AcDbEntity
  8
ｺﾈｸﾀ
 48
0.5
100
AcDbLine
 10
5820.009744552073
 20
-2322.489046441203
 30
0.0
 11
5821.009744552073
 21
-2322.289046441204
 31
0.0
  0
LINE
  5
10907E
330
18
100
AcDbEntity
  8
ｺﾈｸﾀ
 48
0.5
100
AcDbLine
 10
5821.009744552073
 20
-2326.589046441203
 30
0.0
 11
5821.009744552073
 21
-2322.289046441204
 31
0.0
  0
LINE
  5
10907F
330
18
100
AcDbEntity
  8
ｺﾈｸﾀ
 48
0.5
100
AcDbLine
 10
5829.909744552075
 20
-2321.389046441203
 30
0.0
 11
5829.909744552075
 21
-2326.589046441203
 31
0.0
  0
LINE
  5
109080
330
18
100
AcDbEntity
  8
ｺﾈｸﾀ
 48
0.5
100
AcDbLine
 10
5823.112244552074
 20
-2325.754109950665
 30
0.0
 11
5823.112244552074
 21
-2326.589046441203
 31
0.0
  0
LINE
  5
109081
330
18
100
AcDbEntity
  8
ｺﾈｸﾀ
 48
0.5
100
AcDbLine
 10
5829.609744552074
 20
-2325.754109950665
 30
0.0
 11
5829.609744552074
 21
-2326.589046441203
 31
0.0
  0
LINE
  5
109082
330
18
100
AcDbEntity
  8
ｺﾈｸﾀ
 48
0.5
100
AcDbLine
 10
5824.112244552074
 20
-2321.089046441203
 30
0.0
 11
5823.112244552074
 21
-2321.089046441203
 31
0.0
  0
LINE
  5
109083
330
18
100
AcDbEntity
  8
ｺﾈｸﾀ
 48
0.5
100
AcDbLine
 10
5829.909744552075
 20
-2321.389046441203
 30
0.0
 11
5829.609744552074
 21
-2321.089046441203
 31
0.0
  0
LINE
  5
109084
330
18
100
AcDbEntity
  8
ｺﾈｸﾀ
 48
0.5
100
AcDbLine
 10
5828.609744552074
 20
-2321.089046441203
 30
0.0
 11
5829.609744552074
 21
-2321.089046441203
 31
0.0
  0
LINE
  5
109085
330
18
100
AcDbEntity
  8
ｺﾈｸﾀ
 48
0.5
100
AcDbLine
 10
5823.112244552074
 20
-2321.089046441203
 30
0.0
 11
5821.409744552075
 21
-2321.868814469957
 31
0.0
  0
LINE
  5
109086
330
18
100
AcDbEntity
  8
ｺﾈｸﾀ
 48
0.5
100
AcDbLine
 10
5821.409744552075
 20
-2326.589046441203
 30
0.0
 11
5821.409744552075
 21
-2321.868814469957
 31
0.0
  0
LINE
  5
109087
330
18
100
AcDbEntity
  8
ｺﾈｸﾀ
 48
0.5
100
AcDbLine
 10
5823.112244552074
 20
-2325.754109950665
 30
0.0
 11
5829.609744552074
 21
-2325.754109950665
 31
0.0
  0
LINE
  5
109088
330
18
100
AcDbEntity
  8
ｺﾈｸﾀ
 48
0.5
100
AcDbLine
 10
5823.112244552074
 20
-2321.923982931742
 30
0.0
 11
5829.609744552074
 21
-2321.923982931742
 31
0.0
  0
LINE
  5
109089
330
18
100
AcDbEntity
  8
ｺﾈｸﾀ
 48
0.5
100
AcDbLine
 10
5823.112244552074
 20
-2321.089046441203
 30
0.0
 11
5823.112244552074
 21
-2321.923982931742
 31
0.0
  0
LINE
  5
10908A
330
18
100
AcDbEntity
  8
ｺﾈｸﾀ
 48
0.5
100
AcDbLine
 10
5829.609744552074
 20
-2321.089046441203
 30
0.0
 11
5823.112244552074
 21
-2321.089046441203
 31
0.0
  0
LINE
  5
10908B
330
18
100
AcDbEntity
  8
ｺﾈｸﾀ
 48
0.5
100
AcDbLine
 10
5829.609744552074
 20
-2321.089046441203
 30
0.0
 11
5829.609744552074
 21
-2321.923982931742
 31
0.0
  0
LINE
  5
10908C
330
18
100
AcDbEntity
  8
ｺﾈｸﾀ
 48
0.5
100
AcDbLine
 10
5820.009744552073
 20
-2322.489046441203
 30
0.0
 11
5820.009744552073
 21
-2326.589046441203
 31
0.0
  0
LINE
  5
10908D
330
18
100
AcDbEntity
  8
ｺﾈｸﾀ
 48
0.5
100
AcDbLine
 10
5820.009744552073
 20
-2326.589046441203
 30
0.0
 11
5820.009744552073
 21
-2330.689046441204
 31
0.0
  0
LINE
  5
10908E
330
18
100
AcDbEntity
  8
ｺﾈｸﾀ
 48
0.5
100
AcDbLine
 10
5833.312244552075
 20
-2331.379046441204
 30
0.0
 11
5833.312244552075
 21
-2331.589046441203
 31
0.0
  0
LINE
  5
10908F
330
18
100
AcDbEntity
  8
ｺﾈｸﾀ
 48
0.5
100
AcDbLine
 10
5833.312244552075
 20
-2331.589046441203
 30
0.0
 11
5833.812244552075
 21
-2332.089046441203
 31
0.0
  0
LINE
  5
109090
330
18
100
AcDbEntity
  8
ｺﾈｸﾀ
 48
0.5
100
AcDbLine
 10
5835.312244552075
 20
-2332.089046441203
 30
0.0
 11
5833.812244552075
 21
-2332.089046441203
 31
0.0
  0
LINE
  5
109091
330
18
100
AcDbEntity
  8
ｺﾈｸﾀ
 48
0.5
100
AcDbLine
 10
5835.312244552075
 20
-2331.254109950665
 30
0.0
 11
5835.312244552075
 21
-2327.42398293174
 31
0.0
  0
LINE
  5
109092
330
18
100
AcDbEntity
  8
ｺﾈｸﾀ
 48
0.5
100
AcDbLine
 10
5835.312244552075
 20
-2327.42398293174
 30
0.0
 11
5833.812244552075
 21
-2327.423982931742
 31
0.0
  0
LINE
  5
109093
330
18
100
AcDbEntity
  8
ｺﾈｸﾀ
 48
0.5
100
AcDbLine
 10
5835.312244552075
 20
-2327.42398293174
 30
0.0
 11
5835.312244552075
 21
-2326.589046441203
 31
0.0
  0
LINE
  5
109094
330
18
100
AcDbEntity
  8
ｺﾈｸﾀ
 48
0.5
100
AcDbLine
 10
5833.812244552075
 20
-2327.423982931742
 30
0.0
 11
5833.812244552075
 21
-2326.589046441203
 31
0.0
  0
LINE
  5
109095
330
18
100
AcDbEntity
  8
ｺﾈｸﾀ
 48
0.5
100
AcDbLine
 10
5833.312244552075
 20
-2331.379732957906
 30
0.0
 11
5833.312244552075
 21
-2326.589046441203
 31
0.0
  0
LINE
  5
109096
330
18
100
AcDbEntity
  8
ｺﾈｸﾀ
 48
0.5
100
AcDbLine
 10
5833.812244552075
 20
-2331.254109950665
 30
0.0
 11
5833.812244552075
 21
-2332.089046441203
 31
0.0
  0
LINE
  5
109097
330
18
100
AcDbEntity
  8
ｺﾈｸﾀ
 48
0.5
100
AcDbLine
 10
5835.312244552075
 20
-2331.254109950665
 30
0.0
 11
5833.812244552075
 21
-2331.254109950665
 31
0.0
  0
LINE
  5
109098
330
18
100
AcDbEntity
  8
ｺﾈｸﾀ
 48
0.5
100
AcDbLine
 10
5835.312244552075
 20
-2332.089046441203
 30
0.0
 11
5835.312244552075
 21
-2331.254109950665
 31
0.0
  0
LINE
  5
109099
330
18
100
AcDbEntity
  8
ｺﾈｸﾀ
 48
0.5
100
AcDbLine
 10
5829.609744552074
 20
-2331.254109950665
 30
0.0
 11
5829.609744552074
 21
-2332.089046441203
 31
0.0
  0
LINE
  5
10909A
330
18
100
AcDbEntity
  8
ｺﾈｸﾀ
 48
0.5
100
AcDbLine
 10
5823.112244552074
 20
-2332.089046441203
 30
0.0
 11
5829.609744552074
 21
-2332.089046441203
 31
0.0
  0
LINE
  5
10909B
330
18
100
AcDbEntity
  8
ｺﾈｸﾀ
 48
0.5
100
AcDbLine
 10
5823.112244552074
 20
-2331.254109950665
 30
0.0
 11
5823.112244552074
 21
-2332.089046441203
 31
0.0
  0
LINE
  5
10909C
330
18
100
AcDbEntity
  8
ｺﾈｸﾀ
 48
0.5
100
AcDbLine
 10
5829.609744552074
 20
-2331.254109950665
 30
0.0
 11
5823.112244552074
 21
-2331.254109950665
 31
0.0
  0
LINE
  5
10909D
330
18
100
AcDbEntity
  8
ｺﾈｸﾀ
 48
0.5
100
AcDbLine
 10
5829.609744552074
 20
-2327.423982931742
 30
0.0
 11
5823.112244552074
 21
-2327.423982931742
 31
0.0
  0
LINE
  5
10909E
330
18
100
AcDbEntity
  8
ｺﾈｸﾀ
 48
0.5
100
AcDbLine
 10
5821.409744552075
 20
-2331.30927841245
 30
0.0
 11
5821.409744552075
 21
-2326.589046441203
 31
0.0
  0
LINE
  5
10909F
330
18
100
AcDbEntity
  8
ｺﾈｸﾀ
 48
0.5
100
AcDbLine
 10
5821.409744552075
 20
-2331.30927841245
 30
0.0
 11
5823.112244552074
 21
-2332.089046441203
 31
0.0
  0
LINE
  5
1090A0
330
18
100
AcDbEntity
  8
ｺﾈｸﾀ
 48
0.5
100
AcDbLine
 10
5829.609744552074
 20
-2332.089046441203
 30
0.0
 11
5828.609744552074
 21
-2332.089046441203
 31
0.0
  0
LINE
  5
1090A1
330
18
100
AcDbEntity
  8
ｺﾈｸﾀ
 48
0.5
100
AcDbLine
 10
5829.609744552074
 20
-2332.089046441203
 30
0.0
 11
5829.909744552075
 21
-2331.789046441204
 31
0.0
  0
LINE
  5
1090A2
330
18
100
AcDbEntity
  8
ｺﾈｸﾀ
 48
0.5
100
AcDbLine
 10
5823.112244552074
 20
-2332.089046441203
 30
0.0
 11
5824.112244552074
 21
-2332.089046441203
 31
0.0
  0
LINE
  5
1090A3
330
18
100
AcDbEntity
  8
ｺﾈｸﾀ
 48
0.5
100
AcDbLine
 10
5829.609744552074
 20
-2326.589046441203
 30
0.0
 11
5829.609744552074
 21
-2327.423982931742
 31
0.0
  0
LINE
  5
1090A4
330
18
100
AcDbEntity
  8
ｺﾈｸﾀ
 48
0.5
100
AcDbLine
 10
5823.112244552074
 20
-2326.589046441203
 30
0.0
 11
5823.112244552074
 21
-2327.423982931742
 31
0.0
  0
LINE
  5
1090A5
330
18
100
AcDbEntity
  8
ｺﾈｸﾀ
 48
0.5
100
AcDbLine
 10
5835.612244552074
 20
-2326.589046441203
 30
0.0
 11
5835.612244552074
 21
-2328.701317393262
 31
0.0
  0
LINE
  5
1090A6
330
18
100
AcDbEntity
  8
ｺﾈｸﾀ
 48
0.5
100
AcDbLine
 10
5835.612244552074
 20
-2328.701317393262
 30
0.0
 11
5835.612244552074
 21
-2331.390788871709
 31
0.0
  0
LINE
  5
1090A7
330
18
100
AcDbEntity
  8
ｺﾈｸﾀ
 48
0.5
100
AcDbLine
 10
5832.687244667544
 20
-2321.869679441204
 30
0.0
 11
5833.112244552074
 21
-2321.869679441204
 31
0.0
  0
LINE
  5
1090A8
330
18
100
AcDbEntity
  8
ｺﾈｸﾀ
 48
0.5
100
AcDbLine
 10
5830.312244552075
 20
-2321.869679441204
 30
0.0
 11
5830.187244667544
 21
-2321.869679441204
 31
0.0
  0
LINE
  5
1090A9
330
18
100
AcDbEntity
  8
ｺﾈｸﾀ
 48
0.5
100
AcDbLine
 10
5830.030994523206
 20
-2321.599046441204
 30
0.0
 11
5830.187244667544
 21
-2321.869679441204
 31
0.0
  0
LINE
  5
1090AA
330
18
100
AcDbEntity
  8
ｺﾈｸﾀ
 48
0.5
100
AcDbLine
 10
5830.812244552075
 20
-2321.869679441204
 30
0.0
 11
5830.687244667544
 21
-2321.869679441204
 31
0.0
  0
LINE
  5
1090AB
330
18
100
AcDbEntity
  8
ｺﾈｸﾀ
 48
0.5
100
AcDbLine
 10
5830.312244552075
 20
-2321.869679441204
 30
0.0
 11
5830.468494696412
 21
-2321.599046441204
 31
0.0
  0
LINE
  5
1090AC
330
18
100
AcDbEntity
  8
ｺﾈｸﾀ
 48
0.5
100
AcDbLine
 10
5830.530994523206
 20
-2321.599046441204
 30
0.0
 11
5830.687244667544
 21
-2321.869679441204
 31
0.0
  0
LINE
  5
1090AD
330
18
100
AcDbEntity
  8
ｺﾈｸﾀ
 48
0.5
100
AcDbLine
 10
5831.312244552075
 20
-2321.869679441204
 30
0.0
 11
5831.187244667544
 21
-2321.869679441204
 31
0.0
  0
LINE
  5
1090AE
330
18
100
AcDbEntity
  8
ｺﾈｸﾀ
 48
0.5
100
AcDbLine
 10
5830.812244552075
 20
-2321.869679441204
 30
0.0
 11
5830.968494696412
 21
-2321.599046441204
 31
0.0
  0
LINE
  5
1090AF
330
18
100
AcDbEntity
  8
ｺﾈｸﾀ
 48
0.5
100
AcDbLine
 10
5831.030994523206
 20
-2321.599046441204
 30
0.0
 11
5831.187244667544
 21
-2321.869679441204
 31
0.0
  0
LINE
  5
1090B0
330
18
100
AcDbEntity
  8
ｺﾈｸﾀ
 48
0.5
100
AcDbLine
 10
5831.812244552075
 20
-2321.869679441204
 30
0.0
 11
5831.687244667544
 21
-2321.869679441204
 31
0.0
  0
LINE
  5
1090B1
330
18
100
AcDbEntity
  8
ｺﾈｸﾀ
 48
0.5
100
AcDbLine
 10
5831.312244552075
 20
-2321.869679441204
 30
0.0
 11
5831.468494696412
 21
-2321.599046441204
 31
0.0
  0
LINE
  5
1090B2
330
18
100
AcDbEntity
  8
ｺﾈｸﾀ
 48
0.5
100
AcDbLine
 10
5831.530994523206
 20
-2321.599046441204
 30
0.0
 11
5831.687244667544
 21
-2321.869679441204
 31
0.0
  0
LINE
  5
1090B3
330
18
100
AcDbEntity
  8
ｺﾈｸﾀ
 48
0.5
100
AcDbLine
 10
5831.812244552075
 20
-2321.869679441204
 30
0.0
 11
5831.687244667544
 21
-2321.869679441204
 31
0.0
  0
LINE
  5
1090B4
330
18
100
AcDbEntity
  8
ｺﾈｸﾀ
 48
0.5
100
AcDbLine
 10
5832.312244552075
 20
-2321.869679441204
 30
0.0
 11
5832.187244667544
 21
-2321.869679441204
 31
0.0
  0
LINE
  5
1090B5
330
18
100
AcDbEntity
  8
ｺﾈｸﾀ
 48
0.5
100
AcDbLine
 10
5831.812244552075
 20
-2321.869679441204
 30
0.0
 11
5831.968494696412
 21
-2321.599046441204
 31
0.0
  0
LINE
  5
1090B6
330
18
100
AcDbEntity
  8
ｺﾈｸﾀ
 48
0.5
100
AcDbLine
 10
5832.030994523206
 20
-2321.599046441204
 30
0.0
 11
5832.187244667544
 21
-2321.869679441204
 31
0.0
  0
LINE
  5
1090B7
330
18
100
AcDbEntity
  8
ｺﾈｸﾀ
 48
0.5
100
AcDbLine
 10
5832.312244552075
 20
-2321.869679441204
 30
0.0
 11
5832.187244667544
 21
-2321.869679441204
 31
0.0
  0
LINE
  5
1090B8
330
18
100
AcDbEntity
  8
ｺﾈｸﾀ
 48
0.5
100
AcDbLine
 10
5832.312244552075
 20
-2321.869679441204
 30
0.0
 11
5832.187244667544
 21
-2321.869679441204
 31
0.0
  0
LINE
  5
1090B9
330
18
100
AcDbEntity
  8
ｺﾈｸﾀ
 48
0.5
100
AcDbLine
 10
5832.312244552075
 20
-2321.869679441204
 30
0.0
 11
5832.468494696412
 21
-2321.599046441204
 31
0.0
  0
LINE
  5
1090BA
330
18
100
AcDbEntity
  8
ｺﾈｸﾀ
 48
0.5
100
AcDbLine
 10
5832.530994523206
 20
-2321.599046441204
 30
0.0
 11
5832.687244667544
 21
-2321.869679441204
 31
0.0
  0
LINE
  5
1090BB
330
18
100
AcDbEntity
  8
ｺﾈｸﾀ
 48
0.5
100
AcDbLine
 10
5832.437244667544
 20
-2331.308413441203
 30
0.0
 11
5832.280994523206
 21
-2331.579046441203
 31
0.0
  0
LINE
  5
1090BC
330
18
100
AcDbEntity
  8
ｺﾈｸﾀ
 48
0.5
100
AcDbLine
 10
5832.218494696412
 20
-2331.579046441203
 30
0.0
 11
5832.062244552075
 21
-2331.308413441203
 31
0.0
  0
LINE
  5
1090BD
330
18
100
AcDbEntity
  8
ｺﾈｸﾀ
 48
0.5
100
AcDbLine
 10
5831.937244667544
 20
-2331.308413441203
 30
0.0
 11
5832.062244552075
 21
-2331.308413441203
 31
0.0
  0
LINE
  5
1090BE
330
18
100
AcDbEntity
  8
ｺﾈｸﾀ
 48
0.5
100
AcDbLine
 10
5831.937244667544
 20
-2331.308413441203
 30
0.0
 11
5832.062244552075
 21
-2331.308413441203
 31
0.0
  0
LINE
  5
1090BF
330
18
100
AcDbEntity
  8
ｺﾈｸﾀ
 48
0.5
100
AcDbLine
 10
5831.937244667544
 20
-2331.308413441203
 30
0.0
 11
5831.780994523206
 21
-2331.579046441203
 31
0.0
  0
LINE
  5
1090C0
330
18
100
AcDbEntity
  8
ｺﾈｸﾀ
 48
0.5
100
AcDbLine
 10
5831.718494696412
 20
-2331.579046441203
 30
0.0
 11
5831.562244552075
 21
-2331.308413441203
 31
0.0
  0
LINE
  5
1090C1
330
18
100
AcDbEntity
  8
ｺﾈｸﾀ
 48
0.5
100
AcDbLine
 10
5831.937244667544
 20
-2331.308413441203
 30
0.0
 11
5832.062244552075
 21
-2331.308413441203
 31
0.0
  0
LINE
  5
1090C2
330
18
100
AcDbEntity
  8
ｺﾈｸﾀ
 48
0.5
100
AcDbLine
 10
5831.437244667544
 20
-2331.308413441203
 30
0.0
 11
5831.562244552075
 21
-2331.308413441203
 31
0.0
  0
LINE
  5
1090C3
330
18
100
AcDbEntity
  8
ｺﾈｸﾀ
 48
0.5
100
AcDbLine
 10
5831.437244667544
 20
-2331.308413441203
 30
0.0
 11
5831.280994523206
 21
-2331.579046441203
 31
0.0
  0
LINE
  5
1090C4
330
18
100
AcDbEntity
  8
ｺﾈｸﾀ
 48
0.5
100
AcDbLine
 10
5831.218494696412
 20
-2331.579046441203
 30
0.0
 11
5831.062244552075
 21
-2331.308413441203
 31
0.0
  0
LINE
  5
1090C5
330
18
100
AcDbEntity
  8
ｺﾈｸﾀ
 48
0.5
100
AcDbLine
 10
5831.437244667544
 20
-2331.308413441203
 30
0.0
 11
5831.562244552075
 21
-2331.308413441203
 31
0.0
  0
LINE
  5
1090C6
330
18
100
AcDbEntity
  8
ｺﾈｸﾀ
 48
0.5
100
AcDbLine
 10
5832.24974460981
 20
-2331.597088580827
 30
0.0
 11
5832.49974460981
 21
-2321.58100430158
 31
0.0
  0
LINE
  5
1090C7
330
18
100
AcDbEntity
  8
ｺﾈｸﾀ
 48
0.5
100
AcDbLine
 10
5831.74974460981
 20
-2331.597088580827
 30
0.0
 11
5831.99974460981
 21
-2321.58100430158
 31
0.0
  0
LINE
  5
1090C8
330
18
100
AcDbEntity
  8
ｺﾈｸﾀ
 48
0.5
100
AcDbLine
 10
5831.24974460981
 20
-2331.597088580827
 30
0.0
 11
5831.49974460981
 21
-2321.58100430158
 31
0.0
  0
LINE
  5
1090C9
330
18
100
AcDbEntity
  8
ｺﾈｸﾀ
 48
0.5
100
AcDbLine
 10
5833.117512183568
 20
-2331.308413441203
 30
0.0
 11
5832.437244667544
 21
-2331.308413441203
 31
0.0
  0
LINE
  5
1090CA
330
18
100
AcDbEntity
  8
ｺﾈｸﾀ
 48
0.5
100
AcDbLine
 10
5830.718494696412
 20
-2331.579046441203
 30
0.0
 11
5830.562244552075
 21
-2331.308413441203
 31
0.0
  0
LINE
  5
1090CB
330
18
100
AcDbEntity
  8
ｺﾈｸﾀ
 48
0.5
100
AcDbLine
 10
5830.937244667544
 20
-2331.308413441203
 30
0.0
 11
5830.780994523206
 21
-2331.579046441203
 31
0.0
  0
LINE
  5
1090CC
330
18
100
AcDbEntity
  8
ｺﾈｸﾀ
 48
0.5
100
AcDbLine
 10
5830.937244667544
 20
-2331.308413441203
 30
0.0
 11
5831.062244552075
 21
-2331.308413441203
 31
0.0
  0
LINE
  5
1090CD
330
18
100
AcDbEntity
  8
ｺﾈｸﾀ
 48
0.5
100
AcDbLine
 10
5830.74974460981
 20
-2331.597088580827
 30
0.0
 11
5830.99974460981
 21
-2321.58100430158
 31
0.0
  0
LINE
  5
1090CE
330
18
100
AcDbEntity
  8
ｺﾈｸﾀ
 48
0.5
100
AcDbLine
 10
5830.437244667544
 20
-2331.308413441203
 30
0.0
 11
5830.562244552075
 21
-2331.308413441203
 31
0.0
  0
LINE
  5
1090CF
330
18
100
AcDbEntity
  8
ｺﾈｸﾀ
 48
0.5
100
AcDbLine
 10
5830.437244667544
 20
-2331.308413441203
 30
0.0
 11
5830.280994523206
 21
-2331.579046441203
 31
0.0
  0
LINE
  5
1090D0
330
18
100
AcDbEntity
  8
ｺﾈｸﾀ
 48
0.5
100
AcDbLine
 10
5830.218494696412
 20
-2331.579046441203
 30
0.0
 11
5830.062244552075
 21
-2331.308413441203
 31
0.0
  0
LINE
  5
1090D1
330
18
100
AcDbEntity
  8
ｺﾈｸﾀ
 48
0.5
100
AcDbLine
 10
5830.24974460981
 20
-2331.597088580827
 30
0.0
 11
5830.49974460981
 21
-2321.58100430158
 31
0.0
  0
LINE
  5
1090D2
330
18
100
AcDbEntity
  8
ｺﾈｸﾀ
 48
0.5
100
AcDbLine
 10
5829.909744552075
 20
-2326.589046441203
 30
0.0
 11
5829.909744552075
 21
-2331.789046441204
 31
0.0
  0
LINE
  5
1090D3
330
18
100
AcDbEntity
  8
ｺﾈｸﾀ
 48
0.5
100
AcDbLine
 10
5821.009744552073
 20
-2330.889046441203
 30
0.0
 11
5821.009744552073
 21
-2326.589046441203
 31
0.0
  0
LINE
  5
1090D4
330
18
100
AcDbEntity
  8
ｺﾈｸﾀ
 48
0.5
100
AcDbLine
 10
5821.009744552073
 20
-2330.889046441203
 30
0.0
 11
5820.009744552073
 21
-2330.689046441204
 31
0.0
  0
LINE
  5
1090D5
330
18
100
AcDbEntity
  8
ｺﾈｸﾀ
 48
0.5
100
AcDbLine
 10
5821.409744552075
 20
-2330.889046441203
 30
0.0
 11
5821.009744552073
 21
-2330.889046441203
 31
0.0
  0
LINE
  5
1090D6
330
18
100
AcDbEntity
  8
ｺﾈｸﾀ
 48
0.5
100
AcDbLine
 10
5829.937244667544
 20
-2331.308413441203
 30
0.0
 11
5829.909744552075
 21
-2331.356045005204
 31
0.0
  0
LINE
  5
1090D7
330
18
100
AcDbEntity
  8
ｺﾈｸﾀ
 48
0.5
100
AcDbLine
 10
5829.937244667544
 20
-2331.308413441203
 30
0.0
 11
5830.062244552075
 21
-2331.308413441203
 31
0.0
  0
LINE
  5
1090D8
330
18
100
AcDbEntity
  8
ｺﾈｸﾀ
 48
0.5
100
AcDbLine
 10
5830.218494696412
 20
-2331.579046441203
 30
0.0
 11
5830.062244552075
 21
-2331.308413441203
 31
0.0
  0
ARC
  5
1090D9
330
18
100
AcDbEntity
  8
ｺﾈｸﾀ
 48
0.5
100
AcDbCircle
 10
5833.112244552074
 20
-2321.669679441203
 30
0.0
 40
0.2000000000000028
100
AcDbArc
 50
270.0
 51
0.0
  0
ARC
  5
1090DA
330
18
100
AcDbEntity
  8
ｺﾈｸﾀ
 48
0.5
100
AcDbCircle
 10
5833.112244552074
 20
-2331.508413441204
 30
0.0
 40
0.2000000000003013
100
AcDbArc
 50
0.0
 51
90.0
  0
ARC
  5
1090DB
330
18
100
AcDbEntity
  8
ｺﾈｸﾀ
 48
0.5
100
AcDbCircle
 10
5835.112244552074
 20
-2321.787304010698
 30
0.0
 40
0.5000000000001075
100
AcDbArc
 50
0.0
 51
66.42182152171078
  0
ARC
  5
1090DC
330
18
100
AcDbEntity
  8
ｺﾈｸﾀ
 48
0.5
100
AcDbCircle
 10
5837.73734618816
 20
-2323.839046441203
 30
0.0
 40
4.367366609166623
100
AcDbArc
 50
153.9921761143063
 51
206.0078238856937
  0
ARC
  5
1090DD
330
18
100
AcDbEntity
  8
ｺﾈｸﾀ
 48
0.5
100
AcDbCircle
 10
5822.832033839608
 20
-2323.839046441203
 30
0.0
 40
7.043069696315602
100
AcDbArc
 50
344.2221938994588
 51
15.77780610054109
  0
ARC
  5
1090DE
330
18
100
AcDbEntity
  8
ｺﾈｸﾀ
 48
0.5
100
AcDbCircle
 10
5827.037346188168
 20
-2323.839046441203
 30
0.0
 40
4.367366609175968
100
AcDbArc
 50
153.9921761144226
 51
206.0078238855774
  0
ARC
  5
1090DF
330
18
100
AcDbEntity
  8
ｺﾈｸﾀ
 48
0.5
100
AcDbCircle
 10
5837.73734618816
 20
-2329.339046441203
 30
0.0
 40
4.367366609167326
100
AcDbArc
 50
153.9921761143062
 51
206.0078238856938
  0
ARC
  5
1090E0
330
18
100
AcDbEntity
  8
ｺﾈｸﾀ
 48
0.5
100
AcDbCircle
 10
5827.037346188168
 20
-2329.339046441203
 30
0.0
 40
4.367366609175924
100
AcDbArc
 50
153.9921761144226
 51
206.0078238855774
  0
ARC
  5
1090E1
330
18
100
AcDbEntity
  8
ｺﾈｸﾀ
 48
0.5
100
AcDbCircle
 10
5822.832033839608
 20
-2329.339046441203
 30
0.0
 40
7.043069696315629
100
AcDbArc
 50
344.2221938994588
 51
15.77780610054109
  0
ARC
  5
1090E2
330
18
100
AcDbEntity
  8
ｺﾈｸﾀ
 48
0.5
100
AcDbCircle
 10
5835.112244552074
 20
-2331.390788871709
 30
0.0
 40
0.5
100
AcDbArc
 50
293.5781784781727
 51
0.0
  0
ARC
  5
1090E3
330
18
100
AcDbEntity
  8
ｺﾈｸﾀ
 48
0.5
100
AcDbCircle
 10
5829.99974460981
 20
-2321.617088599694
 30
0.0
 40
0.0360842981133093
100
AcDbArc
 50
30.00001729749075
 51
149.9999827025092
  0
ARC
  5
1090E4
330
18
100
AcDbEntity
  8
ｺﾈｸﾀ
 48
0.5
100
AcDbCircle
 10
5830.49974460981
 20
-2321.617088599694
 30
0.0
 40
0.0360842981141831
100
AcDbArc
 50
30.00001729739401
 51
149.9999827032313
  0
ARC
  5
1090E5
330
18
100
AcDbEntity
  8
ｺﾈｸﾀ
 48
0.5
100
AcDbCircle
 10
5830.99974460981
 20
-2321.617088599694
 30
0.0
 40
0.0360842981141831
100
AcDbArc
 50
30.00001729739401
 51
149.9999827032313
  0
ARC
  5
1090E6
330
18
100
AcDbEntity
  8
ｺﾈｸﾀ
 48
0.5
100
AcDbCircle
 10
5831.49974460981
 20
-2321.617088599694
 30
0.0
 40
0.0360842981141831
100
AcDbArc
 50
30.00001729739401
 51
149.9999827032313
  0
ARC
  5
1090E7
330
18
100
AcDbEntity
  8
ｺﾈｸﾀ
 48
0.5
100
AcDbCircle
 10
5831.99974460981
 20
-2321.617088599694
 30
0.0
 40
0.0360842981141831
100
AcDbArc
 50
30.00001729739401
 51
149.9999827032313
  0
ARC
  5
1090E8
330
18
100
AcDbEntity
  8
ｺﾈｸﾀ
 48
0.5
100
AcDbCircle
 10
5832.49974460981
 20
-2321.617088599694
 30
0.0
 40
0.0360842981141831
100
AcDbArc
 50
30.00001729739401
 51
149.9999827032313
  0
ARC
  5
1090E9
330
18
100
AcDbEntity
  8
ｺﾈｸﾀ
 48
0.5
100
AcDbCircle
 10
5832.24974460981
 20
-2331.561004282713
 30
0.0
 40
0.0360842981133216
100
AcDbArc
 50
210.0000172968654
 51
329.9999827025092
  0
ARC
  5
1090EA
330
18
100
AcDbEntity
  8
ｺﾈｸﾀ
 48
0.5
100
AcDbCircle
 10
5831.74974460981
 20
-2331.561004282713
 30
0.0
 40
0.0360842981133216
100
AcDbArc
 50
210.0000172968654
 51
329.9999827025092
  0
ARC
  5
1090EB
330
18
100
AcDbEntity
  8
ｺﾈｸﾀ
 48
0.5
100
AcDbCircle
 10
5831.24974460981
 20
-2331.561004282713
 30
0.0
 40
0.0360842981133216
100
AcDbArc
 50
210.0000172974907
 51
329.9999827025092
  0
ARC
  5
1090EC
330
18
100
AcDbEntity
  8
ｺﾈｸﾀ
 48
0.5
100
AcDbCircle
 10
5830.74974460981
 20
-2331.561004282713
 30
0.0
 40
0.0360842981133216
100
AcDbArc
 50
210.0000172968654
 51
329.9999827025092
  0
ARC
  5
1090ED
330
18
100
AcDbEntity
  8
ｺﾈｸﾀ
 48
0.5
100
AcDbCircle
 10
5830.24974460981
 20
-2331.561004282713
 30
0.0
 40
0.0360842981133216
100
AcDbArc
 50
210.0000172974907
 51
329.9999827025092
  0
LINE
  5
1090EE
330
18
100
AcDbEntity
  8
中心線
 48
0.5
100
AcDbLine
 10
5818.632313028971
 20
-2274.589046441203
 30
0.0
 11
5840.811156918924
 21
-2274.589046441203
 31
0.0
  0
LINE
  5
1090EF
330
18
100
AcDbEntity
  8
中心線
 48
0.5
100
AcDbLine
 10
5832.612246321372
 20
-2274.589046441203
 30
0.0
 11
5839.006578080673
 21
-2274.589046441203
 31
0.0
  0
LINE
  5
1090F0
330
18
100
AcDbEntity
  8
ｺﾈｸﾀ
 48
0.5
100
AcDbLine
 10
5829.908114436717
 20
-2273.252106446379
 30
0.0
 11
5829.999744609808
 21
-2269.58100430158
 31
0.0
  0
LINE
  5
1090F1
330
18
100
AcDbEntity
  8
ｺﾈｸﾀ
 48
0.5
100
AcDbLine
 10
5829.909744552075
 20
-2269.700804605204
 30
0.0
 11
5829.968494696412
 21
-2269.599046441204
 31
0.0
  0
LINE
  5
1090F2
330
18
100
AcDbEntity
  8
ｺﾈｸﾀ
 48
0.5
100
AcDbLine
 10
5835.612244552074
 20
-2269.787304010698
 30
0.0
 11
5835.612244552074
 21
-2272.476775489145
 31
0.0
  0
LINE
  5
1090F3
330
18
100
AcDbEntity
  8
ｺﾈｸﾀ
 48
0.5
100
AcDbLine
 10
5835.612244552074
 20
-2272.476775489145
 30
0.0
 11
5835.612244552074
 21
-2274.589046441203
 31
0.0
  0
LINE
  5
1090F4
330
18
100
AcDbEntity
  8
ｺﾈｸﾀ
 48
0.5
100
AcDbLine
 10
5835.312244552075
 20
-2269.923982931742
 30
0.0
 11
5835.312244552075
 21
-2269.089046441202
 31
0.0
  0
LINE
  5
1090F5
330
18
100
AcDbEntity
  8
ｺﾈｸﾀ
 48
0.5
100
AcDbLine
 10
5833.812244552075
 20
-2269.923982931742
 30
0.0
 11
5835.312244552075
 21
-2269.923982931742
 31
0.0
  0
LINE
  5
1090F6
330
18
100
AcDbEntity
  8
ｺﾈｸﾀ
 48
0.5
100
AcDbLine
 10
5833.812244552075
 20
-2269.089046441203
 30
0.0
 11
5833.812244552075
 21
-2269.923982931742
 31
0.0
  0
LINE
  5
1090F7
330
18
100
AcDbEntity
  8
ｺﾈｸﾀ
 48
0.5
100
AcDbLine
 10
5833.312244552075
 20
-2274.589046441203
 30
0.0
 11
5833.312244552075
 21
-2269.798359924501
 31
0.0
  0
LINE
  5
1090F8
330
18
100
AcDbEntity
  8
ｺﾈｸﾀ
 48
0.5
100
AcDbLine
 10
5833.812244552075
 20
-2274.589046441203
 30
0.0
 11
5833.812244552075
 21
-2273.754109950665
 31
0.0
  0
LINE
  5
1090F9
330
18
100
AcDbEntity
  8
ｺﾈｸﾀ
 48
0.5
100
AcDbLine
 10
5835.312244552075
 20
-2274.589046441203
 30
0.0
 11
5835.312244552075
 21
-2273.754109950665
 31
0.0
  0
LINE
  5
1090FA
330
18
100
AcDbEntity
  8
ｺﾈｸﾀ
 48
0.5
100
AcDbLine
 10
5833.812244552075
 20
-2273.754109950665
 30
0.0
 11
5835.312244552075
 21
-2273.754109950665
 31
0.0
  0
LINE
  5
1090FB
330
18
100
AcDbEntity
  8
ｺﾈｸﾀ
 48
0.5
100
AcDbLine
 10
5835.312244552075
 20
-2273.754109950665
 30
0.0
 11
5835.312244552075
 21
-2269.923982931742
 31
0.0
  0
LINE
  5
1090FC
330
18
100
AcDbEntity
  8
ｺﾈｸﾀ
 48
0.5
100
AcDbLine
 10
5833.812244552075
 20
-2269.089046441203
 30
0.0
 11
5835.312244552075
 21
-2269.089046441202
 31
0.0
  0
LINE
  5
1090FD
330
18
100
AcDbEntity
  8
ｺﾈｸﾀ
 48
0.5
100
AcDbLine
 10
5833.812244552075
 20
-2269.089046441203
 30
0.0
 11
5833.312244552075
 21
-2269.589046441203
 31
0.0
  0
LINE
  5
1090FE
330
18
100
AcDbEntity
  8
ｺﾈｸﾀ
 48
0.5
100
AcDbLine
 10
5833.312244552075
 20
-2269.589046441203
 30
0.0
 11
5833.312244552075
 21
-2269.799046441203
 31
0.0
  0
LINE
  5
1090FF
330
18
100
AcDbEntity
  8
ｺﾈｸﾀ
 48
0.5
100
AcDbLine
 10
5821.009744552073
 20
-2270.289046441204
 30
0.0
 11
5821.409744552075
 21
-2270.289046441204
 31
0.0
  0
LINE
  5
109100
330
18
100
AcDbEntity
  8
ｺﾈｸﾀ
 48
0.5
100
AcDbLine
 10
5820.009744552073
 20
-2270.489046441203
 30
0.0
 11
5821.009744552073
 21
-2270.289046441204
 31
0.0
  0
LINE
  5
109101
330
18
100
AcDbEntity
  8
ｺﾈｸﾀ
 48
0.5
100
AcDbLine
 10
5821.009744552073
 20
-2274.589046441203
 30
0.0
 11
5821.009744552073
 21
-2270.289046441204
 31
0.0
  0
LINE
  5
109102
330
18
100
AcDbEntity
  8
ｺﾈｸﾀ
 48
0.5
100
AcDbLine
 10
5829.909744552075
 20
-2269.389046441203
 30
0.0
 11
5829.909744552075
 21
-2274.589046441203
 31
0.0
  0
LINE
  5
109103
330
18
100
AcDbEntity
  8
ｺﾈｸﾀ
 48
0.5
100
AcDbLine
 10
5823.112244552074
 20
-2273.754109950665
 30
0.0
 11
5823.112244552074
 21
-2274.589046441203
 31
0.0
  0
LINE
  5
109104
330
18
100
AcDbEntity
  8
ｺﾈｸﾀ
 48
0.5
100
AcDbLine
 10
5829.609744552074
 20
-2273.754109950665
 30
0.0
 11
5829.609744552074
 21
-2274.589046441203
 31
0.0
  0
LINE
  5
109105
330
18
100
AcDbEntity
  8
ｺﾈｸﾀ
 48
0.5
100
AcDbLine
 10
5824.112244552074
 20
-2269.089046441203
 30
0.0
 11
5823.112244552074
 21
-2269.089046441203
 31
0.0
  0
LINE
  5
109106
330
18
100
AcDbEntity
  8
ｺﾈｸﾀ
 48
0.5
100
AcDbLine
 10
5829.909744552075
 20
-2269.389046441203
 30
0.0
 11
5829.609744552074
 21
-2269.089046441203
 31
0.0
  0
LINE
  5
109107
330
18
100
AcDbEntity
  8
ｺﾈｸﾀ
 48
0.5
100
AcDbLine
 10
5828.609744552074
 20
-2269.089046441203
 30
0.0
 11
5829.609744552074
 21
-2269.089046441203
 31
0.0
  0
LINE
  5
109108
330
18
100
AcDbEntity
  8
ｺﾈｸﾀ
 48
0.5
100
AcDbLine
 10
5823.112244552074
 20
-2269.089046441203
 30
0.0
 11
5821.409744552075
 21
-2269.868814469957
 31
0.0
  0
LINE
  5
109109
330
18
100
AcDbEntity
  8
ｺﾈｸﾀ
 48
0.5
100
AcDbLine
 10
5821.409744552075
 20
-2274.589046441203
 30
0.0
 11
5821.409744552075
 21
-2269.868814469957
 31
0.0
  0
LINE
  5
10910A
330
18
100
AcDbEntity
  8
ｺﾈｸﾀ
 48
0.5
100
AcDbLine
 10
5823.112244552074
 20
-2273.754109950665
 30
0.0
 11
5829.609744552074
 21
-2273.754109950665
 31
0.0
  0
LINE
  5
10910B
330
18
100
AcDbEntity
  8
ｺﾈｸﾀ
 48
0.5
100
AcDbLine
 10
5823.112244552074
 20
-2269.923982931742
 30
0.0
 11
5829.609744552074
 21
-2269.923982931742
 31
0.0
  0
LINE
  5
10910C
330
18
100
AcDbEntity
  8
ｺﾈｸﾀ
 48
0.5
100
AcDbLine
 10
5823.112244552074
 20
-2269.089046441203
 30
0.0
 11
5823.112244552074
 21
-2269.923982931742
 31
0.0
  0
LINE
  5
10910D
330
18
100
AcDbEntity
  8
ｺﾈｸﾀ
 48
0.5
100
AcDbLine
 10
5829.609744552074
 20
-2269.089046441203
 30
0.0
 11
5823.112244552074
 21
-2269.089046441203
 31
0.0
  0
LINE
  5
10910E
330
18
100
AcDbEntity
  8
ｺﾈｸﾀ
 48
0.5
100
AcDbLine
 10
5829.609744552074
 20
-2269.089046441203
 30
0.0
 11
5829.609744552074
 21
-2269.923982931742
 31
0.0
  0
LINE
  5
10910F
330
18
100
AcDbEntity
  8
ｺﾈｸﾀ
 48
0.5
100
AcDbLine
 10
5820.009744552073
 20
-2270.489046441203
 30
0.0
 11
5820.009744552073
 21
-2274.589046441203
 31
0.0
  0
LINE
  5
109110
330
18
100
AcDbEntity
  8
ｺﾈｸﾀ
 48
0.5
100
AcDbLine
 10
5820.009744552073
 20
-2274.589046441203
 30
0.0
 11
5820.009744552073
 21
-2278.689046441204
 31
0.0
  0
LINE
  5
109111
330
18
100
AcDbEntity
  8
ｺﾈｸﾀ
 48
0.5
100
AcDbLine
 10
5833.312244552075
 20
-2279.379046441204
 30
0.0
 11
5833.312244552075
 21
-2279.589046441203
 31
0.0
  0
LINE
  5
109112
330
18
100
AcDbEntity
  8
ｺﾈｸﾀ
 48
0.5
100
AcDbLine
 10
5833.312244552075
 20
-2279.589046441203
 30
0.0
 11
5833.812244552075
 21
-2280.089046441203
 31
0.0
  0
LINE
  5
109113
330
18
100
AcDbEntity
  8
ｺﾈｸﾀ
 48
0.5
100
AcDbLine
 10
5835.312244552075
 20
-2280.089046441203
 30
0.0
 11
5833.812244552075
 21
-2280.089046441203
 31
0.0
  0
LINE
  5
109114
330
18
100
AcDbEntity
  8
ｺﾈｸﾀ
 48
0.5
100
AcDbLine
 10
5835.312244552075
 20
-2279.254109950665
 30
0.0
 11
5835.312244552075
 21
-2275.42398293174
 31
0.0
  0
LINE
  5
109115
330
18
100
AcDbEntity
  8
ｺﾈｸﾀ
 48
0.5
100
AcDbLine
 10
5835.312244552075
 20
-2275.42398293174
 30
0.0
 11
5833.812244552075
 21
-2275.423982931742
 31
0.0
  0
LINE
  5
109116
330
18
100
AcDbEntity
  8
ｺﾈｸﾀ
 48
0.5
100
AcDbLine
 10
5835.312244552075
 20
-2275.42398293174
 30
0.0
 11
5835.312244552075
 21
-2274.589046441203
 31
0.0
  0
LINE
  5
109117
330
18
100
AcDbEntity
  8
ｺﾈｸﾀ
 48
0.5
100
AcDbLine
 10
5833.812244552075
 20
-2275.423982931742
 30
0.0
 11
5833.812244552075
 21
-2274.589046441203
 31
0.0
  0
LINE
  5
109118
330
18
100
AcDbEntity
  8
ｺﾈｸﾀ
 48
0.5
100
AcDbLine
 10
5833.312244552075
 20
-2279.379732957906
 30
0.0
 11
5833.312244552075
 21
-2274.589046441203
 31
0.0
  0
LINE
  5
109119
330
18
100
AcDbEntity
  8
ｺﾈｸﾀ
 48
0.5
100
AcDbLine
 10
5833.812244552075
 20
-2279.254109950665
 30
0.0
 11
5833.812244552075
 21
-2280.089046441203
 31
0.0
  0
LINE
  5
10911A
330
18
100
AcDbEntity
  8
ｺﾈｸﾀ
 48
0.5
100
AcDbLine
 10
5835.312244552075
 20
-2279.254109950665
 30
0.0
 11
5833.812244552075
 21
-2279.254109950665
 31
0.0
  0
LINE
  5
10911B
330
18
100
AcDbEntity
  8
ｺﾈｸﾀ
 48
0.5
100
AcDbLine
 10
5835.312244552075
 20
-2280.089046441203
 30
0.0
 11
5835.312244552075
 21
-2279.254109950665
 31
0.0
  0
LINE
  5
10911C
330
18
100
AcDbEntity
  8
ｺﾈｸﾀ
 48
0.5
100
AcDbLine
 10
5829.609744552074
 20
-2279.254109950665
 30
0.0
 11
5829.609744552074
 21
-2280.089046441203
 31
0.0
  0
LINE
  5
10911D
330
18
100
AcDbEntity
  8
ｺﾈｸﾀ
 48
0.5
100
AcDbLine
 10
5823.112244552074
 20
-2280.089046441203
 30
0.0
 11
5829.609744552074
 21
-2280.089046441203
 31
0.0
  0
LINE
  5
10911E
330
18
100
AcDbEntity
  8
ｺﾈｸﾀ
 48
0.5
100
AcDbLine
 10
5823.112244552074
 20
-2279.254109950665
 30
0.0
 11
5823.112244552074
 21
-2280.089046441203
 31
0.0
  0
LINE
  5
10911F
330
18
100
AcDbEntity
  8
ｺﾈｸﾀ
 48
0.5
100
AcDbLine
 10
5829.609744552074
 20
-2279.254109950665
 30
0.0
 11
5823.112244552074
 21
-2279.254109950665
 31
0.0
  0
LINE
  5
109120
330
18
100
AcDbEntity
  8
ｺﾈｸﾀ
 48
0.5
100
AcDbLine
 10
5829.609744552074
 20
-2275.423982931742
 30
0.0
 11
5823.112244552074
 21
-2275.423982931742
 31
0.0
  0
LINE
  5
109121
330
18
100
AcDbEntity
  8
ｺﾈｸﾀ
 48
0.5
100
AcDbLine
 10
5821.409744552075
 20
-2279.30927841245
 30
0.0
 11
5821.409744552075
 21
-2274.589046441203
 31
0.0
  0
LINE
  5
109122
330
18
100
AcDbEntity
  8
ｺﾈｸﾀ
 48
0.5
100
AcDbLine
 10
5821.409744552075
 20
-2279.30927841245
 30
0.0
 11
5823.112244552074
 21
-2280.089046441203
 31
0.0
  0
LINE
  5
109123
330
18
100
AcDbEntity
  8
ｺﾈｸﾀ
 48
0.5
100
AcDbLine
 10
5829.609744552074
 20
-2280.089046441203
 30
0.0
 11
5828.609744552074
 21
-2280.089046441203
 31
0.0
  0
LINE
  5
109124
330
18
100
AcDbEntity
  8
ｺﾈｸﾀ
 48
0.5
100
AcDbLine
 10
5829.609744552074
 20
-2280.089046441203
 30
0.0
 11
5829.909744552075
 21
-2279.789046441204
 31
0.0
  0
LINE
  5
109125
330
18
100
AcDbEntity
  8
ｺﾈｸﾀ
 48
0.5
100
AcDbLine
 10
5823.112244552074
 20
-2280.089046441203
 30
0.0
 11
5824.112244552074
 21
-2280.089046441203
 31
0.0
  0
LINE
  5
109126
330
18
100
AcDbEntity
  8
ｺﾈｸﾀ
 48
0.5
100
AcDbLine
 10
5829.609744552074
 20
-2274.589046441203
 30
0.0
 11
5829.609744552074
 21
-2275.423982931742
 31
0.0
  0
LINE
  5
109127
330
18
100
AcDbEntity
  8
ｺﾈｸﾀ
 48
0.5
100
AcDbLine
 10
5823.112244552074
 20
-2274.589046441203
 30
0.0
 11
5823.112244552074
 21
-2275.423982931742
 31
0.0
  0
LINE
  5
109128
330
18
100
AcDbEntity
  8
ｺﾈｸﾀ
 48
0.5
100
AcDbLine
 10
5835.612244552074
 20
-2274.589046441203
 30
0.0
 11
5835.612244552074
 21
-2276.701317393262
 31
0.0
  0
LINE
  5
109129
330
18
100
AcDbEntity
  8
ｺﾈｸﾀ
 48
0.5
100
AcDbLine
 10
5835.612244552074
 20
-2276.701317393262
 30
0.0
 11
5835.612244552074
 21
-2279.390788871709
 31
0.0
  0
LINE
  5
10912A
330
18
100
AcDbEntity
  8
ｺﾈｸﾀ
 48
0.5
100
AcDbLine
 10
5832.687244667544
 20
-2269.869679441204
 30
0.0
 11
5833.112244552074
 21
-2269.869679441204
 31
0.0
  0
LINE
  5
10912B
330
18
100
AcDbEntity
  8
ｺﾈｸﾀ
 48
0.5
100
AcDbLine
 10
5830.312244552075
 20
-2269.869679441204
 30
0.0
 11
5830.187244667544
 21
-2269.869679441204
 31
0.0
  0
LINE
  5
10912C
330
18
100
AcDbEntity
  8
ｺﾈｸﾀ
 48
0.5
100
AcDbLine
 10
5830.030994523206
 20
-2269.599046441204
 30
0.0
 11
5830.187244667544
 21
-2269.869679441204
 31
0.0
  0
LINE
  5
10912D
330
18
100
AcDbEntity
  8
ｺﾈｸﾀ
 48
0.5
100
AcDbLine
 10
5830.812244552075
 20
-2269.869679441204
 30
0.0
 11
5830.687244667544
 21
-2269.869679441204
 31
0.0
  0
LINE
  5
10912E
330
18
100
AcDbEntity
  8
ｺﾈｸﾀ
 48
0.5
100
AcDbLine
 10
5830.312244552075
 20
-2269.869679441204
 30
0.0
 11
5830.468494696412
 21
-2269.599046441204
 31
0.0
  0
LINE
  5
10912F
330
18
100
AcDbEntity
  8
ｺﾈｸﾀ
 48
0.5
100
AcDbLine
 10
5830.530994523206
 20
-2269.599046441204
 30
0.0
 11
5830.687244667544
 21
-2269.869679441204
 31
0.0
  0
LINE
  5
109130
330
18
100
AcDbEntity
  8
ｺﾈｸﾀ
 48
0.5
100
AcDbLine
 10
5831.312244552075
 20
-2269.869679441204
 30
0.0
 11
5831.187244667544
 21
-2269.869679441204
 31
0.0
  0
LINE
  5
109131
330
18
100
AcDbEntity
  8
ｺﾈｸﾀ
 48
0.5
100
AcDbLine
 10
5830.812244552075
 20
-2269.869679441204
 30
0.0
 11
5830.968494696412
 21
-2269.599046441204
 31
0.0
  0
LINE
  5
109132
330
18
100
AcDbEntity
  8
ｺﾈｸﾀ
 48
0.5
100
AcDbLine
 10
5831.030994523206
 20
-2269.599046441204
 30
0.0
 11
5831.187244667544
 21
-2269.869679441204
 31
0.0
  0
LINE
  5
109133
330
18
100
AcDbEntity
  8
ｺﾈｸﾀ
 48
0.5
100
AcDbLine
 10
5831.812244552075
 20
-2269.869679441204
 30
0.0
 11
5831.687244667544
 21
-2269.869679441204
 31
0.0
  0
LINE
  5
109134
330
18
100
AcDbEntity
  8
ｺﾈｸﾀ
 48
0.5
100
AcDbLine
 10
5831.312244552075
 20
-2269.869679441204
 30
0.0
 11
5831.468494696412
 21
-2269.599046441204
 31
0.0
  0
LINE
  5
109135
330
18
100
AcDbEntity
  8
ｺﾈｸﾀ
 48
0.5
100
AcDbLine
 10
5831.530994523206
 20
-2269.599046441204
 30
0.0
 11
5831.687244667544
 21
-2269.869679441204
 31
0.0
  0
LINE
  5
109136
330
18
100
AcDbEntity
  8
ｺﾈｸﾀ
 48
0.5
100
AcDbLine
 10
5831.812244552075
 20
-2269.869679441204
 30
0.0
 11
5831.687244667544
 21
-2269.869679441204
 31
0.0
  0
LINE
  5
109137
330
18
100
AcDbEntity
  8
ｺﾈｸﾀ
 48
0.5
100
AcDbLine
 10
5832.312244552075
 20
-2269.869679441204
 30
0.0
 11
5832.187244667544
 21
-2269.869679441204
 31
0.0
  0
LINE
  5
109138
330
18
100
AcDbEntity
  8
ｺﾈｸﾀ
 48
0.5
100
AcDbLine
 10
5831.812244552075
 20
-2269.869679441204
 30
0.0
 11
5831.968494696412
 21
-2269.599046441204
 31
0.0
  0
LINE
  5
109139
330
18
100
AcDbEntity
  8
ｺﾈｸﾀ
 48
0.5
100
AcDbLine
 10
5832.030994523206
 20
-2269.599046441204
 30
0.0
 11
5832.187244667544
 21
-2269.869679441204
 31
0.0
  0
LINE
  5
10913A
330
18
100
AcDbEntity
  8
ｺﾈｸﾀ
 48
0.5
100
AcDbLine
 10
5832.312244552075
 20
-2269.869679441204
 30
0.0
 11
5832.187244667544
 21
-2269.869679441204
 31
0.0
  0
LINE
  5
10913B
330
18
100
AcDbEntity
  8
ｺﾈｸﾀ
 48
0.5
100
AcDbLine
 10
5832.312244552075
 20
-2269.869679441204
 30
0.0
 11
5832.187244667544
 21
-2269.869679441204
 31
0.0
  0
LINE
  5
10913C
330
18
100
AcDbEntity
  8
ｺﾈｸﾀ
 48
0.5
100
AcDbLine
 10
5832.312244552075
 20
-2269.869679441204
 30
0.0
 11
5832.468494696412
 21
-2269.599046441204
 31
0.0
  0
LINE
  5
10913D
330
18
100
AcDbEntity
  8
ｺﾈｸﾀ
 48
0.5
100
AcDbLine
 10
5832.530994523206
 20
-2269.599046441204
 30
0.0
 11
5832.687244667544
 21
-2269.869679441204
 31
0.0
  0
LINE
  5
10913E
330
18
100
AcDbEntity
  8
ｺﾈｸﾀ
 48
0.5
100
AcDbLine
 10
5832.437244667544
 20
-2279.308413441203
 30
0.0
 11
5832.280994523206
 21
-2279.579046441203
 31
0.0
  0
LINE
  5
10913F
330
18
100
AcDbEntity
  8
ｺﾈｸﾀ
 48
0.5
100
AcDbLine
 10
5832.218494696412
 20
-2279.579046441203
 30
0.0
 11
5832.062244552075
 21
-2279.308413441203
 31
0.0
  0
LINE
  5
109140
330
18
100
AcDbEntity
  8
ｺﾈｸﾀ
 48
0.5
100
AcDbLine
 10
5831.937244667544
 20
-2279.308413441203
 30
0.0
 11
5832.062244552075
 21
-2279.308413441203
 31
0.0
  0
LINE
  5
109141
330
18
100
AcDbEntity
  8
ｺﾈｸﾀ
 48
0.5
100
AcDbLine
 10
5831.937244667544
 20
-2279.308413441203
 30
0.0
 11
5832.062244552075
 21
-2279.308413441203
 31
0.0
  0
LINE
  5
109142
330
18
100
AcDbEntity
  8
ｺﾈｸﾀ
 48
0.5
100
AcDbLine
 10
5831.937244667544
 20
-2279.308413441203
 30
0.0
 11
5831.780994523206
 21
-2279.579046441203
 31
0.0
  0
LINE
  5
109143
330
18
100
AcDbEntity
  8
ｺﾈｸﾀ
 48
0.5
100
AcDbLine
 10
5831.718494696412
 20
-2279.579046441203
 30
0.0
 11
5831.562244552075
 21
-2279.308413441203
 31
0.0
  0
LINE
  5
109144
330
18
100
AcDbEntity
  8
ｺﾈｸﾀ
 48
0.5
100
AcDbLine
 10
5831.937244667544
 20
-2279.308413441203
 30
0.0
 11
5832.062244552075
 21
-2279.308413441203
 31
0.0
  0
LINE
  5
109145
330
18
100
AcDbEntity
  8
ｺﾈｸﾀ
 48
0.5
100
AcDbLine
 10
5831.437244667544
 20
-2279.308413441203
 30
0.0
 11
5831.562244552075
 21
-2279.308413441203
 31
0.0
  0
LINE
  5
109146
330
18
100
AcDbEntity
  8
ｺﾈｸﾀ
 48
0.5
100
AcDbLine
 10
5831.437244667544
 20
-2279.308413441203
 30
0.0
 11
5831.280994523206
 21
-2279.579046441203
 31
0.0
  0
LINE
  5
109147
330
18
100
AcDbEntity
  8
ｺﾈｸﾀ
 48
0.5
100
AcDbLine
 10
5831.218494696412
 20
-2279.579046441203
 30
0.0
 11
5831.062244552075
 21
-2279.308413441203
 31
0.0
  0
LINE
  5
109148
330
18
100
AcDbEntity
  8
ｺﾈｸﾀ
 48
0.5
100
AcDbLine
 10
5831.437244667544
 20
-2279.308413441203
 30
0.0
 11
5831.562244552075
 21
-2279.308413441203
 31
0.0
  0
LINE
  5
109149
330
18
100
AcDbEntity
  8
ｺﾈｸﾀ
 48
0.5
100
AcDbLine
 10
5832.24974460981
 20
-2279.597088580827
 30
0.0
 11
5832.49974460981
 21
-2269.58100430158
 31
0.0
  0
LINE
  5
10914A
330
18
100
AcDbEntity
  8
ｺﾈｸﾀ
 48
0.5
100
AcDbLine
 10
5831.74974460981
 20
-2279.597088580827
 30
0.0
 11
5831.99974460981
 21
-2269.58100430158
 31
0.0
  0
LINE
  5
10914B
330
18
100
AcDbEntity
  8
ｺﾈｸﾀ
 48
0.5
100
AcDbLine
 10
5831.24974460981
 20
-2279.597088580827
 30
0.0
 11
5831.49974460981
 21
-2269.58100430158
 31
0.0
  0
LINE
  5
10914C
330
18
100
AcDbEntity
  8
ｺﾈｸﾀ
 48
0.5
100
AcDbLine
 10
5833.117512183568
 20
-2279.308413441203
 30
0.0
 11
5832.437244667544
 21
-2279.308413441203
 31
0.0
  0
LINE
  5
10914D
330
18
100
AcDbEntity
  8
ｺﾈｸﾀ
 48
0.5
100
AcDbLine
 10
5830.718494696412
 20
-2279.579046441203
 30
0.0
 11
5830.562244552075
 21
-2279.308413441203
 31
0.0
  0
LINE
  5
10914E
330
18
100
AcDbEntity
  8
ｺﾈｸﾀ
 48
0.5
100
AcDbLine
 10
5830.937244667544
 20
-2279.308413441203
 30
0.0
 11
5830.780994523206
 21
-2279.579046441203
 31
0.0
  0
LINE
  5
10914F
330
18
100
AcDbEntity
  8
ｺﾈｸﾀ
 48
0.5
100
AcDbLine
 10
5830.937244667544
 20
-2279.308413441203
 30
0.0
 11
5831.062244552075
 21
-2279.308413441203
 31
0.0
  0
LINE
  5
109150
330
18
100
AcDbEntity
  8
ｺﾈｸﾀ
 48
0.5
100
AcDbLine
 10
5830.74974460981
 20
-2279.597088580827
 30
0.0
 11
5830.99974460981
 21
-2269.58100430158
 31
0.0
  0
LINE
  5
109151
330
18
100
AcDbEntity
  8
ｺﾈｸﾀ
 48
0.5
100
AcDbLine
 10
5830.437244667544
 20
-2279.308413441203
 30
0.0
 11
5830.562244552075
 21
-2279.308413441203
 31
0.0
  0
LINE
  5
109152
330
18
100
AcDbEntity
  8
ｺﾈｸﾀ
 48
0.5
100
AcDbLine
 10
5830.437244667544
 20
-2279.308413441203
 30
0.0
 11
5830.280994523206
 21
-2279.579046441203
 31
0.0
  0
LINE
  5
109153
330
18
100
AcDbEntity
  8
ｺﾈｸﾀ
 48
0.5
100
AcDbLine
 10
5830.218494696412
 20
-2279.579046441203
 30
0.0
 11
5830.062244552075
 21
-2279.308413441203
 31
0.0
  0
LINE
  5
109154
330
18
100
AcDbEntity
  8
ｺﾈｸﾀ
 48
0.5
100
AcDbLine
 10
5830.24974460981
 20
-2279.597088580827
 30
0.0
 11
5830.49974460981
 21
-2269.58100430158
 31
0.0
  0
LINE
  5
109155
330
18
100
AcDbEntity
  8
ｺﾈｸﾀ
 48
0.5
100
AcDbLine
 10
5829.909744552075
 20
-2274.589046441203
 30
0.0
 11
5829.909744552075
 21
-2279.789046441204
 31
0.0
  0
LINE
  5
109156
330
18
100
AcDbEntity
  8
ｺﾈｸﾀ
 48
0.5
100
AcDbLine
 10
5821.009744552073
 20
-2278.889046441203
 30
0.0
 11
5821.009744552073
 21
-2274.589046441203
 31
0.0
  0
LINE
  5
109157
330
18
100
AcDbEntity
  8
ｺﾈｸﾀ
 48
0.5
100
AcDbLine
 10
5821.009744552073
 20
-2278.889046441203
 30
0.0
 11
5820.009744552073
 21
-2278.689046441204
 31
0.0
  0
LINE
  5
109158
330
18
100
AcDbEntity
  8
ｺﾈｸﾀ
 48
0.5
100
AcDbLine
 10
5821.409744552075
 20
-2278.889046441203
 30
0.0
 11
5821.009744552073
 21
-2278.889046441203
 31
0.0
  0
LINE
  5
109159
330
18
100
AcDbEntity
  8
ｺﾈｸﾀ
 48
0.5
100
AcDbLine
 10
5829.937244667544
 20
-2279.308413441203
 30
0.0
 11
5829.909744552075
 21
-2279.356045005204
 31
0.0
  0
LINE
  5
10915A
330
18
100
AcDbEntity
  8
ｺﾈｸﾀ
 48
0.5
100
AcDbLine
 10
5829.937244667544
 20
-2279.308413441203
 30
0.0
 11
5830.062244552075
 21
-2279.308413441203
 31
0.0
  0
LINE
  5
10915B
330
18
100
AcDbEntity
  8
ｺﾈｸﾀ
 48
0.5
100
AcDbLine
 10
5830.218494696412
 20
-2279.579046441203
 30
0.0
 11
5830.062244552075
 21
-2279.308413441203
 31
0.0
  0
ARC
  5
10915C
330
18
100
AcDbEntity
  8
ｺﾈｸﾀ
 48
0.5
100
AcDbCircle
 10
5833.112244552074
 20
-2269.669679441203
 30
0.0
 40
0.2000000000000028
100
AcDbArc
 50
270.0
 51
0.0
  0
ARC
  5
10915D
330
18
100
AcDbEntity
  8
ｺﾈｸﾀ
 48
0.5
100
AcDbCircle
 10
5833.112244552074
 20
-2279.508413441204
 30
0.0
 40
0.2000000000003013
100
AcDbArc
 50
0.0
 51
90.0
  0
ARC
  5
10915E
330
18
100
AcDbEntity
  8
ｺﾈｸﾀ
 48
0.5
100
AcDbCircle
 10
5835.112244552074
 20
-2269.787304010698
 30
0.0
 40
0.5000000000001075
100
AcDbArc
 50
0.0
 51
66.42182152171078
  0
ARC
  5
10915F
330
18
100
AcDbEntity
  8
ｺﾈｸﾀ
 48
0.5
100
AcDbCircle
 10
5837.73734618816
 20
-2271.839046441203
 30
0.0
 40
4.367366609166623
100
AcDbArc
 50
153.9921761143063
 51
206.0078238856937
  0
ARC
  5
109160
330
18
100
AcDbEntity
  8
ｺﾈｸﾀ
 48
0.5
100
AcDbCircle
 10
5822.832033839608
 20
-2271.839046441203
 30
0.0
 40
7.043069696315602
100
AcDbArc
 50
344.2221938994588
 51
15.77780610054109
  0
ARC
  5
109161
330
18
100
AcDbEntity
  8
ｺﾈｸﾀ
 48
0.5
100
AcDbCircle
 10
5827.037346188168
 20
-2271.839046441203
 30
0.0
 40
4.367366609175968
100
AcDbArc
 50
153.9921761144226
 51
206.0078238855774
  0
ARC
  5
109162
330
18
100
AcDbEntity
  8
ｺﾈｸﾀ
 48
0.5
100
AcDbCircle
 10
5837.73734618816
 20
-2277.339046441203
 30
0.0
 40
4.367366609167326
100
AcDbArc
 50
153.9921761143062
 51
206.0078238856938
  0
ARC
  5
109163
330
18
100
AcDbEntity
  8
ｺﾈｸﾀ
 48
0.5
100
AcDbCircle
 10
5827.037346188168
 20
-2277.339046441203
 30
0.0
 40
4.367366609175924
100
AcDbArc
 50
153.9921761144226
 51
206.0078238855774
  0
ARC
  5
109164
330
18
100
AcDbEntity
  8
ｺﾈｸﾀ
 48
0.5
100
AcDbCircle
 10
5822.832033839608
 20
-2277.339046441203
 30
0.0
 40
7.043069696315629
100
AcDbArc
 50
344.2221938994588
 51
15.77780610054109
  0
ARC
  5
109165
330
18
100
AcDbEntity
  8
ｺﾈｸﾀ
 48
0.5
100
AcDbCircle
 10
5835.112244552074
 20
-2279.390788871709
 30
0.0
 40
0.5
100
AcDbArc
 50
293.5781784781727
 51
0.0
  0
ARC
  5
109166
330
18
100
AcDbEntity
  8
ｺﾈｸﾀ
 48
0.5
100
AcDbCircle
 10
5829.99974460981
 20
-2269.617088599694
 30
0.0
 40
0.0360842981133093
100
AcDbArc
 50
30.00001729749075
 51
149.9999827025092
  0
ARC
  5
109167
330
18
100
AcDbEntity
  8
ｺﾈｸﾀ
 48
0.5
100
AcDbCircle
 10
5830.49974460981
 20
-2269.617088599694
 30
0.0
 40
0.0360842981141831
100
AcDbArc
 50
30.00001729739401
 51
149.9999827032313
  0
ARC
  5
109168
330
18
100
AcDbEntity
  8
ｺﾈｸﾀ
 48
0.5
100
AcDbCircle
 10
5830.99974460981
 20
-2269.617088599694
 30
0.0
 40
0.0360842981141831
100
AcDbArc
 50
30.00001729739401
 51
149.9999827032313
  0
ARC
  5
109169
330
18
100
AcDbEntity
  8
ｺﾈｸﾀ
 48
0.5
100
AcDbCircle
 10
5831.49974460981
 20
-2269.617088599694
 30
0.0
 40
0.0360842981141831
100
AcDbArc
 50
30.00001729739401
 51
149.9999827032313
  0
ARC
  5
10916A
330
18
100
AcDbEntity
  8
ｺﾈｸﾀ
 48
0.5
100
AcDbCircle
 10
5831.99974460981
 20
-2269.617088599694
 30
0.0
 40
0.0360842981141831
100
AcDbArc
 50
30.00001729739401
 51
149.9999827032313
  0
ARC
  5
10916B
330
18
100
AcDbEntity
  8
ｺﾈｸﾀ
 48
0.5
100
AcDbCircle
 10
5832.49974460981
 20
-2269.617088599694
 30
0.0
 40
0.0360842981141831
100
AcDbArc
 50
30.00001729739401
 51
149.9999827032313
  0
ARC
  5
10916C
330
18
100
AcDbEntity
  8
ｺﾈｸﾀ
 48
0.5
100
AcDbCircle
 10
5832.24974460981
 20
-2279.561004282713
 30
0.0
 40
0.0360842981133216
100
AcDbArc
 50
210.0000172968654
 51
329.9999827025092
  0
ARC
  5
10916D
330
18
100
AcDbEntity
  8
ｺﾈｸﾀ
 48
0.5
100
AcDbCircle
 10
5831.74974460981
 20
-2279.561004282713
 30
0.0
 40
0.0360842981133216
100
AcDbArc
 50
210.0000172968654
 51
329.9999827025092
  0
ARC
  5
10916E
330
18
100
AcDbEntity
  8
ｺﾈｸﾀ
 48
0.5
100
AcDbCircle
 10
5831.24974460981
 20
-2279.561004282713
 30
0.0
 40
0.0360842981133216
100
AcDbArc
 50
210.0000172974907
 51
329.9999827025092
  0
ARC
  5
10916F
330
18
100
AcDbEntity
  8
ｺﾈｸﾀ
 48
0.5
100
AcDbCircle
 10
5830.74974460981
 20
-2279.561004282713
 30
0.0
 40
0.0360842981133216
100
AcDbArc
 50
210.0000172968654
 51
329.9999827025092
  0
ARC
  5
109170
330
18
100
AcDbEntity
  8
ｺﾈｸﾀ
 48
0.5
100
AcDbCircle
 10
5830.24974460981
 20
-2279.561004282713
 30
0.0
 40
0.0360842981133216
100
AcDbArc
 50
210.0000172974907
 51
329.9999827025092
  0
LINE
  5
109171
330
18
100
AcDbEntity
  8
中心線
 48
0.5
100
AcDbLine
 10
5818.632312404357
 20
-2274.589046441203
 30
0.0
 11
5840.81115629431
 21
-2274.589046441203
 31
0.0
  0
ARC
  5
109172
330
18
100
AcDbEntity
  8
細線
 48
0.5
100
AcDbCircle
 10
5813.603471949258
 20
-2272.964736809215
 30
0.0
 40
2.913419383267884
100
AcDbArc
 50
146.082267158516
 51
213.7829047165793
  0
ARC
  5
109173
330
18
100
AcDbEntity
  8
細線
 48
0.5
100
AcDbCircle
 10
5813.614924921634
 20
-2276.209039864781
 30
0.0
 40
2.925332558086853
100
AcDbArc
 50
146.2717780069313
 51
213.862693098073
  0
ARC
  5
109174
330
18
100
AcDbEntity
  8
細線
 48
0.5
100
AcDbCircle
 10
5808.734076906259
 20
-2276.214767453555
 30
0.0
 40
2.940959083827968
100
AcDbArc
 50
326.4753037092399
 51
33.65916739615863
  0
LINE
  5
109175
330
18
100
AcDbEntity
  8
ｺﾈｸﾀ
100
AcDbLine
 10
5811.185800857489
 20
-2277.839048833034
 30
0.0
 11
5820.009744552073
 21
-2277.839046441203
 31
0.0
  0
LINE
  5
109176
330
18
100
AcDbEntity
  8
ｺﾈｸﾀ
100
AcDbLine
 10
5811.185801512871
 20
-2271.339042445621
 30
0.0
 11
5820.009744552073
 21
-2271.339046441203
 31
0.0
  0
ARC
  5
109177
330
18
100
AcDbEntity
  8
ｺﾈｸﾀ
100
AcDbCircle
 10
5794.565743606723
 20
-2236.339046441202
 30
0.0
 40
41.5
100
AcDbArc
 50
180.0
 51
270.0
  0
ARC
  5
109178
330
18
100
AcDbEntity
  8
ｺﾈｸﾀ
100
AcDbCircle
 10
5794.565743606723
 20
-2236.339046441202
 30
0.0
 40
35.0
100
AcDbArc
 50
180.0
 51
270.0
  0
LINE
  5
109179
330
18
100
AcDbEntity
  8
ｺﾈｸﾀ
100
AcDbLine
 10
5759.565743606723
 20
-2236.339046441202
 30
0.0
 11
5759.565743606723
 21
-2228.111389936011
 31
0.0
  0
LINE
  5
10917A
330
18
100
AcDbEntity
  8
ｺﾈｸﾀ
100
AcDbLine
 10
5753.065743606723
 20
-2236.339046441202
 30
0.0
 11
5753.065743606723
 21
-2228.111389936011
 31
0.0
  0
LINE
  5
10917B
330
18
100
AcDbEntity
  8
ｺﾈｸﾀ
 48
0.5
100
AcDbLine
 10
5760.090743606724
 20
-2194.411344834536
 30
0.0
 11
5756.640743606722
 21
-2194.411344834536
 31
0.0
  0
LINE
  5
10917C
330
18
100
AcDbEntity
  8
ｺﾈｸﾀ
 48
0.5
100
AcDbLine
 10
5755.990743606723
 20
-2194.411344834536
 30
0.0
 11
5752.540743606723
 21
-2194.411344834536
 31
0.0
  0
LINE
  5
10917D
330
18
100
AcDbEntity
  8
ｺﾈｸﾀ
 48
0.5
100
AcDbLine
 10
5761.565743606723
 20
-2217.011389936013
 30
0.0
 11
5761.565743606723
 21
-2203.911344834536
 31
0.0
  0
LINE
  5
10917E
330
18
100
AcDbEntity
  8
ｺﾈｸﾀ
 48
0.5
100
AcDbLine
 10
5751.565743606723
 20
-2217.011389936013
 30
0.0
 11
5751.565743606723
 21
-2203.911344834536
 31
0.0
  0
LINE
  5
10917F
330
18
100
AcDbEntity
  8
ｺﾈｸﾀ
 48
0.5
100
AcDbLine
 10
5750.100985626354
 20
-2205.92528714824
 30
0.0
 11
5749.137172178152
 21
-2211.391344834537
 31
0.0
  0
LINE
  5
109180
330
18
100
AcDbEntity
  8
ｺﾈｸﾀ
 48
0.5
100
AcDbLine
 10
5747.74802932101
 20
-2201.026201977394
 30
0.0
 11
5747.74802932101
 21
-2211.391344834535
 31
0.0
  0
LINE
  5
109181
330
18
100
AcDbEntity
  8
ｺﾈｸﾀ
 48
0.5
100
AcDbLine
 10
5748.165743606723
 20
-2199.151344834536
 30
0.0
 11
5748.165743606723
 21
-2210.419916263108
 31
0.0
  0
LINE
  5
109182
330
18
100
AcDbEntity
  8
ｺﾈｸﾀ
 48
0.5
100
AcDbLine
 10
5762.465737553682
 20
-2217.011389936011
 30
0.0
 11
5761.565743606723
 21
-2217.011389936011
 31
0.0
  0
LINE
  5
109183
330
18
100
AcDbEntity
  8
ｺﾈｸﾀ
 48
0.5
100
AcDbLine
 10
5762.465737553682
 20
-2218.111389936011
 30
0.0
 11
5762.465737553682
 21
-2217.011389936011
 31
0.0
  0
LINE
  5
109184
330
18
100
AcDbEntity
  8
ｺﾈｸﾀ
 48
0.5
100
AcDbLine
 10
5751.565743606723
 20
-2217.011389936013
 30
0.0
 11
5750.665737553679
 21
-2217.011389936013
 31
0.0
  0
LINE
  5
109185
330
18
100
AcDbEntity
  8
ｺﾈｸﾀ
 48
0.5
100
AcDbLine
 10
5750.665737553679
 20
-2218.111389936011
 30
0.0
 11
5750.665737553679
 21
-2217.011389936013
 31
0.0
  0
LINE
  5
109186
330
18
100
AcDbEntity
  8
ｺﾈｸﾀ
 48
0.5
100
AcDbLine
 10
5748.165743606723
 20
-2210.419916263108
 30
0.0
 11
5747.74802932101
 21
-2210.419916263108
 31
0.0
  0
LINE
  5
109187
330
18
100
AcDbEntity
  8
ｺﾈｸﾀ
 48
0.5
100
AcDbLine
 10
5749.137172178152
 20
-2211.391344834537
 30
0.0
 11
5747.74802932101
 21
-2211.391344834535
 31
0.0
  0
LINE
  5
109188
330
18
100
AcDbEntity
  8
ｺﾈｸﾀ
 48
0.5
100
AcDbLine
 10
5762.465737553682
 20
-2218.111389936011
 30
0.0
 11
5750.665737553679
 21
-2218.111389936011
 31
0.0
  0
LINE
  5
109189
330
18
100
AcDbEntity
  8
ｺﾈｸﾀ
 48
0.5
100
AcDbLine
 10
5750.400029321009
 20
-2198.179916263107
 30
0.0
 11
5749.137172178152
 21
-2198.179916263107
 31
0.0
  0
LINE
  5
10918A
330
18
100
AcDbEntity
  8
ｺﾈｸﾀ
 48
0.5
100
AcDbLine
 10
5751.371457892438
 20
-2200.608487691679
 30
0.0
 11
5750.302886463866
 21
-2200.511344834536
 31
0.0
  0
LINE
  5
10918B
330
18
100
AcDbEntity
  8
ｺﾈｸﾀ
 48
0.5
100
AcDbLine
 10
5750.400029321009
 20
-2198.179916263107
 30
0.0
 11
5751.371457892438
 21
-2199.151344834536
 31
0.0
  0
LINE
  5
10918C
330
18
100
AcDbEntity
  8
ｺﾈｸﾀ
 48
0.5
100
AcDbLine
 10
5751.371457892438
 20
-2199.151344834536
 30
0.0
 11
5751.371457892438
 21
-2200.608487691679
 31
0.0
  0
ARC
  5
10918D
330
18
100
AcDbEntity
  8
ｺﾈｸﾀ
 48
0.5
100
AcDbCircle
 10
5751.08002932101
 20
-2206.009630548822
 30
0.0
 40
0.4857142857142857
100
AcDbArc
 50
0.0
 51
90.0
  0
LINE
  5
10918E
330
18
100
AcDbEntity
  8
ｺﾈｸﾀ
 48
0.5
100
AcDbLine
 10
5751.08002932101
 20
-2205.523916263108
 30
0.0
 11
5750.579320820676
 21
-2205.523916263108
 31
0.0
  0
ARC
  5
10918F
330
18
100
AcDbEntity
  8
ｺﾈｸﾀ
 48
0.5
100
AcDbCircle
 10
5750.579320820676
 20
-2206.009630548822
 30
0.0
 40
0.4857142857142857
100
AcDbArc
 50
90.0
 51
170.0000000000679
  0
LINE
  5
109190
330
18
100
AcDbEntity
  8
ｺﾈｸﾀ
 48
0.5
100
AcDbLine
 10
5750.302886463866
 20
-2200.511344834536
 30
0.0
 11
5750.302886463866
 21
-2203.911344834536
 31
0.0
  0
LINE
  5
109191
330
18
100
AcDbEntity
  8
ｺﾈｸﾀ
 48
0.5
100
AcDbLine
 10
5749.137172178152
 20
-2200.608487691679
 30
0.0
 11
5749.137172178152
 21
-2203.911344834536
 31
0.0
  0
LINE
  5
109192
330
18
100
AcDbEntity
  8
ｺﾈｸﾀ
 48
0.5
100
AcDbLine
 10
5748.165743606723
 20
-2200.608487691679
 30
0.0
 11
5747.74802932101
 21
-2201.026201977394
 31
0.0
  0
LINE
  5
109193
330
18
100
AcDbEntity
  8
ｺﾈｸﾀ
 48
0.5
100
AcDbLine
 10
5749.137172178152
 20
-2200.608487691679
 30
0.0
 11
5748.165743606723
 21
-2200.608487691679
 31
0.0
  0
LINE
  5
109194
330
18
100
AcDbEntity
  8
ｺﾈｸﾀ
 48
0.5
100
AcDbLine
 10
5748.165743606723
 20
-2199.151344834536
 30
0.0
 11
5749.137172178152
 21
-2198.179916263107
 31
0.0
  0
LINE
  5
109195
330
18
100
AcDbEntity
  8
ｺﾈｸﾀ
 48
0.5
100
AcDbLine
 10
5751.565743606723
 20
-2203.911344834536
 30
0.0
 11
5747.74802932101
 21
-2203.911344834536
 31
0.0
  0
LINE
  5
109196
330
18
100
AcDbEntity
  8
ｺﾈｸﾀ
 48
0.5
100
AcDbLine
 10
5761.565743606723
 20
-2203.911344834536
 30
0.0
 11
5751.565743606723
 21
-2203.911344834536
 31
0.0
  0
LINE
  5
109197
330
18
100
AcDbEntity
  8
ｺﾈｸﾀ
 48
0.5
100
AcDbLine
 10
5758.315743606723
 20
-2228.111389936011
 30
0.0
 11
5754.315743606723
 21
-2228.111389936011
 31
0.0
  0
LINE
  5
109198
330
18
100
AcDbEntity
  8
ｺﾈｸﾀ
100
AcDbLine
 10
5753.065743606723
 20
-2228.111389936011
 30
0.0
 11
5759.565743606723
 21
-2228.111389936011
 31
0.0
  0
LINE
  5
109199
330
18
100
AcDbEntity
  8
ｺﾈｸﾀ
 48
0.5
100
AcDbLine
 10
5755.265743606725
 20
-2218.111389936011
 30
0.0
 11
5756.315743606723
 21
-2228.111389936011
 31
0.0
  0
LINE
  5
10919A
330
18
100
AcDbEntity
  8
ｺﾈｸﾀ
 48
0.5
100
AcDbLine
 10
5753.265743606725
 20
-2218.111389936011
 30
0.0
 11
5754.315743606723
 21
-2228.111389936011
 31
0.0
  0
LINE
  5
10919B
330
18
100
AcDbEntity
  8
ｺﾈｸﾀ
 48
0.5
100
AcDbLine
 10
5757.365743606723
 20
-2218.111389936011
 30
0.0
 11
5756.315743606723
 21
-2228.111389936011
 31
0.0
  0
LINE
  5
10919C
330
18
100
AcDbEntity
  8
ｺﾈｸﾀ
 48
0.5
100
AcDbLine
 10
5759.365743606723
 20
-2218.111389936011
 30
0.0
 11
5758.315743606723
 21
-2228.111389936011
 31
0.0
  0
LINE
  5
10919D
330
18
100
AcDbEntity
  8
ｺﾈｸﾀ
 48
0.5
100
AcDbLine
 10
5755.990743606723
 20
-2194.411344834536
 30
0.0
 11
5755.990743606723
 21
-2203.911344834536
 31
0.0
  0
LINE
  5
10919E
330
18
100
AcDbEntity
  8
ｺﾈｸﾀ
 48
0.5
100
AcDbLine
 10
5756.640743606722
 20
-2194.411344834536
 30
0.0
 11
5756.640743606722
 21
-2203.911344834536
 31
0.0
  0
LINE
  5
10919F
330
18
100
AcDbEntity
  8
ｺﾈｸﾀ
 48
0.5
100
AcDbLine
 10
5760.090743606724
 20
-2194.411344834536
 30
0.0
 11
5760.090743606722
 21
-2203.911344834536
 31
0.0
  0
LINE
  5
1091A0
330
18
100
AcDbEntity
  8
ｺﾈｸﾀ
 48
0.5
100
AcDbLine
 10
5752.540743606723
 20
-2194.411344834536
 30
0.0
 11
5752.540743606723
 21
-2203.911344834536
 31
0.0
  0
LINE
  5
1091A1
330
18
100
AcDbEntity
  8
ｺﾈｸﾀ
100
AcDbLine
 10
5794.566129666234
 20
-2277.838191298925
 30
0.0
 11
5807.278081849997
 21
-2277.838191298925
 31
0.0
  0
LINE
  5
1091A2
330
18
100
AcDbEntity
  8
ｺﾈｸﾀ
100
AcDbLine
 10
5794.565743606723
 20
-2271.339046441202
 30
0.0
 11
5807.277309730974
 21
-2271.339901583478
 31
0.0
  0
SPLINE
  5
1091A3
330
18
100
AcDbEntity
  8
細線
 48
0.5
100
AcDbSpline
210
0.0
220
0.0
230
1.0
 70
  1064
 71
     3
 72
     9
 73
     5
 74
     3
 42
0.000000001
 43
0.0000000001
 44
0.0000000001
 40
0.0
 40
0.0
 40
0.0
 40
0.0
 40
1.442885782325976
 40
3.409751760633742
 40
3.409751760633742
 40
3.409751760633742
 40
3.409751760633742
 10
5807.277309730974
 20
-2274.585889530762
 30
0.0
 10
5807.512017193546
 20
-2274.139782007982
 30
0.0
 10
5808.066665519524
 20
-2273.085564182938
 30
0.0
 10
5807.566070643627
 20
-2271.978497173344
 30
0.0
 10
5807.277309730974
 20
-2271.339901583478
 30
0.0
 11
5807.277309730974
 21
-2274.585889530762
 31
0.0
 11
5807.792471654775
 21
-2273.238103355917
 31
0.0
 11
5807.277309730974
 21
-2271.339901583478
 31
0.0
  0
SPLINE
  5
1091A4
330
18
100
AcDbEntity
  8
細線
 48
0.5
100
AcDbSpline
210
0.0
220
0.0
230
1.0
 70
  1064
 71
     3
 72
    11
 73
     7
 74
     5
 42
0.000000001
 43
0.0000000001
 44
0.0000000001
 40
0.0
 40
0.0
 40
0.0
 40
0.0
 40
1.96229486238819
 40
3.412610777824965
 40
4.859995365033199
 40
6.82686134334168
 40
6.82686134334168
 40
6.82686134334168
 40
6.82686134334168
 10
5807.277309730974
 20
-2277.839901583478
 30
0.0
 10
5807.564720494334
 20
-2277.203271712577
 30
0.0
 10
5808.06455417759
 20
-2276.096113965509
 30
0.0
 10
5807.281483257186
 20
-2274.590123732748
 30
0.0
 10
5806.486969869462
 20
-2273.087315569938
 30
0.0
 10
5806.988430541636
 20
-2271.978603438753
 30
0.0
 10
5807.277309730974
 20
-2271.339901583478
 30
0.0
 11
5807.277309730974
 21
-2277.839901583478
 31
0.0
 11
5807.792471654775
 21
-2275.946436685673
 31
0.0
 11
5807.279413401667
 21
-2274.589901583478
 31
0.0
 11
5806.76214780717
 21
-2273.238103355917
 31
0.0
 11
5807.277309730974
 21
-2271.339901583478
 31
0.0
  0
ARC
  5
1091A5
330
18
100
AcDbEntity
  8
細線
 48
0.5
100
AcDbCircle
 10
5813.616065365479
 20
-2328.233994234263
 30
0.0
 40
2.995825747190388
100
AcDbArc
 50
146.6960847691717
 51
213.4366978622531
  0
ARC
  5
1091A6
330
18
100
AcDbEntity
  8
細線
 48
0.5
100
AcDbCircle
 10
5813.627659865082
 20
-2324.939795537608
 30
0.0
 40
3.007880107305138
100
AcDbArc
 50
146.6164109970292
 51
213.2511526786186
  0
ARC
  5
1091A7
330
18
100
AcDbEntity
  8
細線
 48
0.5
100
AcDbCircle
 10
5808.581692543347
 20
-2324.933963784658
 30
0.0
 40
3.023738095284737
100
AcDbArc
 50
326.813702007552
 51
33.05386166790747
  0
LINE
  5
1091A8
330
18
100
AcDbEntity
  8
ｺﾈｸﾀ
100
AcDbLine
 10
5811.11606342921
 20
-2323.284734788499
 30
0.0
 11
5820.009744552073
 21
-2323.289046441203
 31
0.0
  0
LINE
  5
1091A9
330
18
100
AcDbEntity
  8
ｺﾈｸﾀ
100
AcDbLine
 10
5811.11606342921
 20
-2329.884740194785
 30
0.0
 11
5820.009744552073
 21
-2329.889046441204
 31
0.0
  0
LINE
  5
1091AA
330
18
100
AcDbEntity
  8
ｺﾈｸﾀ
100
AcDbLine
 10
5757.63679391619
 20
-2368.572008166943
 30
0.0
 11
5757.0165989182
 21
-2385.372008166944
 31
0.0
  0
LINE
  5
1091AB
330
18
100
AcDbEntity
  8
ｺﾈｸﾀ
100
AcDbLine
 10
5759.1445989182
 20
-2385.372008166944
 30
0.0
 11
5758.63679391619
 21
-2368.572008166943
 31
0.0
  0
LINE
  5
1091AC
330
18
100
AcDbEntity
  8
ｺﾈｸﾀ
100
AcDbLine
 10
5763.400598918201
 20
-2385.372008166944
 30
0.0
 11
5760.63679391619
 21
-2368.572008166943
 31
0.0
  0
LINE
  5
1091AD
330
18
100
AcDbEntity
  8
ｺﾈｸﾀ
100
AcDbLine
 10
5759.63679391619
 20
-2368.572008166943
 30
0.0
 11
5761.272598918201
 21
-2385.372008166944
 31
0.0
  0
LINE
  5
1091AE
330
18
100
AcDbEntity
  8
ｺﾈｸﾀ
100
AcDbLine
 10
5773.13679391619
 20
-2400.319376587996
 30
0.0
 11
5769.43679391619
 21
-2397.372008166944
 31
0.0
  0
LINE
  5
1091AF
330
18
100
AcDbEntity
  8
ｺﾈｸﾀ
100
AcDbLine
 10
5761.38679391619
 20
-2368.572008166943
 30
0.0
 11
5761.38679391619
 21
-2357.897429846073
 31
0.0
  0
LINE
  5
1091B0
330
18
100
AcDbEntity
  8
ｺﾈｸﾀ
100
AcDbLine
 10
5773.13679391619
 20
-2400.319376587996
 30
0.0
 11
5769.43679391619
 21
-2408.572008166943
 31
0.0
  0
LINE
  5
1091B1
330
18
100
AcDbEntity
  8
ｺﾈｸﾀ
100
AcDbLine
 10
5743.036793916191
 20
-2400.319376587996
 30
0.0
 11
5746.736793916191
 21
-2397.372008166944
 31
0.0
  0
LINE
  5
1091B2
330
18
100
AcDbEntity
  8
ｺﾈｸﾀ
100
AcDbLine
 10
5754.786793916189
 20
-2357.897429846074
 30
0.0
 11
5754.786793916191
 21
-2368.572008166943
 31
0.0
  0
LINE
  5
1091B3
330
18
100
AcDbEntity
  8
ｺﾈｸﾀ
100
AcDbLine
 10
5743.036793916191
 20
-2400.319376587996
 30
0.0
 11
5746.736793916191
 21
-2408.572008166943
 31
0.0
  0
LINE
  5
1091B4
330
18
100
AcDbEntity
  8
ｺﾈｸﾀ
100
AcDbLine
 10
5755.63679391619
 20
-2368.572008166943
 30
0.0
 11
5752.7605989182
 21
-2385.372008166944
 31
0.0
  0
LINE
  5
1091B5
330
18
100
AcDbEntity
  8
ｺﾈｸﾀ
100
AcDbLine
 10
5754.888598918201
 20
-2385.372008166944
 30
0.0
 11
5756.63679391619
 21
-2368.572008166943
 31
0.0
  0
LWPOLYLINE
  5
1091B6
330
18
100
AcDbEntity
  8
ｺﾈｸﾀ
100
AcDbPolyline
 90
        4
 70
   129
 43
0.0
 10
5769.43679391619
 20
-2385.372008166944
 10
5769.43679391619
 20
-2408.572008166943
 10
5746.73679391619
 20
-2408.572008166943
 10
5746.73679391619
 20
-2385.372008166944
  0
LINE
  5
1091B7
330
18
100
AcDbEntity
  8
ｺﾈｸﾀ
100
AcDbLine
 10
5746.736793916191
 20
-2397.372008166944
 30
0.0
 11
5769.43679391619
 21
-2397.372008166944
 31
0.0
  0
LINE
  5
1091B8
330
18
100
AcDbEntity
  8
ｺﾈｸﾀ
100
AcDbLine
 10
5754.786793916191
 20
-2368.572008166943
 30
0.0
 11
5761.38679391619
 21
-2368.572008166943
 31
0.0
  0
LINE
  5
1091B9
330
18
100
AcDbEntity
  8
ｺﾈｸﾀ
100
AcDbLine
 10
5789.377245572119
 20
-2329.897431474125
 30
0.0
 11
5807.112244552074
 21
-2329.891383621189
 31
0.0
  0
ARC
  5
1091BA
330
18
100
AcDbEntity
  8
ｺﾈｸﾀ
100
AcDbCircle
 10
5789.38679391619
 20
-2357.897429846073
 30
0.0
 40
28.0
100
AcDbArc
 50
90.0
 51
180.0
  0
ARC
  5
1091BB
330
18
100
AcDbEntity
  8
ｺﾈｸﾀ
100
AcDbCircle
 10
5789.38679391619
 20
-2357.897429846073
 30
0.0
 40
34.6
100
AcDbArc
 50
90.0
 51
180.0
  0
SPLINE
  5
1091BC
330
18
100
AcDbEntity
  8
細線
 48
0.5
100
AcDbSpline
210
0.0
220
0.0
230
1.0
 70
  1064
 71
     3
 72
     9
 73
     5
 74
     3
 42
0.000000001
 43
0.0000000001
 44
0.0000000001
 40
0.0
 40
0.0
 40
0.0
 40
0.0
 40
1.465084025132053
 40
3.462209480029108
 40
3.462209480029108
 40
3.462209480029108
 40
3.462209480029108
 10
5807.112244552074
 20
-2326.595457397792
 30
0.0
 10
5807.350562898686
 20
-2327.04842811323
 30
0.0
 10
5807.913744275832
 20
-2328.118864674045
 30
0.0
 10
5807.405447940306
 20
-2329.242963483787
 30
0.0
 10
5807.112244552074
 20
-2329.891383621189
 30
0.0
 11
5807.112244552074
 21
-2326.595457397792
 31
0.0
 11
5807.635332043934
 21
-2327.963978744559
 31
0.0
 11
5807.112244552074
 21
-2329.891383621189
 31
0.0
  0
SPLINE
  5
1091BD
330
18
100
AcDbEntity
  8
細線
 48
0.5
100
AcDbSpline
210
0.0
220
0.0
230
1.0
 70
  1064
 71
     3
 72
    11
 73
     7
 74
     5
 42
0.000000001
 43
0.0000000001
 44
0.0000000001
 40
0.0
 40
0.0
 40
0.0
 40
0.0
 40
1.992484014116255
 40
3.465112482100465
 40
4.934764524498998
 40
6.931889979397006
 40
6.931889979397006
 40
6.931889979397006
 40
6.931889979397006
 10
5807.112244552074
 20
-2323.291383621186
 30
0.0
 10
5807.404077019486
 20
-2323.937807797793
 30
0.0
 10
5807.911600451717
 20
-2325.061998740969
 30
0.0
 10
5807.11648228638
 20
-2326.591158054236
 30
0.0
 10
5806.309745615769
 20
-2328.11708634263
 30
0.0
 10
5806.818921067515
 20
-2329.242855583526
 30
0.0
 10
5807.112244552074
 20
-2329.891383621189
 30
0.0
 11
5807.112244552074
 21
-2323.291383621186
 31
0.0
 11
5807.635332043935
 21
-2325.213978748187
 31
0.0
 11
5807.114380586932
 21
-2326.591383621187
 31
0.0
 11
5806.589157060211
 21
-2327.963978744559
 31
0.0
 11
5807.112244552074
 21
-2329.891383621189
 31
0.0
  0
LINE
  5
1091BE
330
18
100
AcDbEntity
  8
ｺﾈｸﾀ
100
AcDbLine
 10
5807.112244552074
 20
-2323.291383621186
 30
0.0
 11
5789.3749956396
 21
-2323.297431857625
 31
0.0
  0
LINE
  5
1091BF
330
18
100
AcDbEntity
  8
実線
100
AcDbLine
 10
5835.612244552074
 20
-2318.589046441203
 30
0.0
 11
6023.612244552074
 21
-2318.589046441203
 31
0.0
  0
LINE
  5
1091C0
330
18
100
AcDbEntity
  8
実線
100
AcDbLine
 10
6195.137448398478
 20
-2028.378331067648
 30
0.0
 11
6175.137448398478
 21
-2028.378331067648
 31
0.0
  0
LINE
  5
1091C1
330
18
100
AcDbEntity
  8
0
 62
     7
100
AcDbLine
 10
6187.63744873373
 20
-2183.992309188993
 30
0.0
 11
6187.63744873373
 21
-2168.992309188993
 31
0.0
  0
LINE
  5
1091C2
330
18
100
AcDbEntity
  8
0
 62
     7
370
     9
100
AcDbLine
 10
6192.338954653116
 20
-2182.735235787374
 30
0.0
 11
6192.338954653116
 21
-2178.329735787374
 31
0.0
  0
LINE
  5
1091C3
330
18
100
AcDbEntity
  8
0
 62
     7
370
     9
100
AcDbLine
 10
6190.336454653117
 20
-2180.332235787376
 30
0.0
 11
6190.336454653117
 21
-2178.089435787376
 31
0.0
  0
LINE
  5
1091C4
330
18
100
AcDbEntity
  8
0
 62
     7
370
     9
100
AcDbLine
 10
6189.134954653118
 20
-2177.929235787374
 30
0.0
 11
6190.016054653118
 21
-2180.732735787376
 31
0.0
  0
CIRCLE
  5
1091C5
330
18
100
AcDbEntity
  8
0
 62
     7
370
     9
100
AcDbCircle
 10
6190.937204653123
 20
-2180.332235787377
 30
0.0
 40
0.6007500000000001
  0
ARC
  5
1091C6
330
18
100
AcDbEntity
  8
0
 62
     7
370
     9
100
AcDbCircle
 10
6191.137454653124
 20
-2180.332235787377
 30
0.0
 40
0.801
100
AcDbArc
 50
0.0
 51
180.0
  0
LINE
  5
1091C7
330
18
100
AcDbEntity
  8
0
 62
     7
370
     9
100
AcDbLine
 10
6189.134954653118
 20
-2182.334735787375
 30
0.0
 11
6189.134954653118
 21
-2177.929235787374
 31
0.0
  0
TEXT
  5
1091C8
330
18
100
AcDbEntity
  8
0
 62
     7
370
     9
100
AcDbText
 10
6186.678321748007
 20
-2182.777590709786
 30
0.0
 40
2.0
  1
Certificate
 50
90.0
  7
TIMESNR
 11
6187.317678035512
 21
-2182.777590709786
 31
0.0
100
AcDbText
 73
     1
  0
ARC
  5
1091C9
330
18
100
AcDbEntity
  8
0
 62
     7
370
     9
100
AcDbCircle
 10
6190.935341862426
 20
-2180.331304392028
 30
0.0
 40
1.003113223100251
100
AcDbArc
 50
203.5897772726021
 51
359.9468005913668
  0
LINE
  5
1091CA
330
18
100
AcDbEntity
  8
0
 62
     7
370
     9
100
AcDbLine
 10
6192.338954653116
 20
-2182.735235787374
 30
0.0
 11
6189.134954653118
 21
-2182.334735787375
 31
0.0
  0
LINE
  5
1091CB
330
18
100
AcDbEntity
  8
0
 62
     7
370
     9
100
AcDbLine
 10
6192.338954653116
 20
-2178.329735787374
 30
0.0
 11
6190.336454653117
 21
-2178.089435787376
 31
0.0
  0
TEXT
  5
1091CC
330
18
100
AcDbEntity
  8
0
 62
     7
370
     9
100
AcDbText
 10
6190.594458105554
 20
-2176.991723452848
 30
0.0
 40
1.44
  1
NIKKI
 50
90.0
  7
TIMESNR
100
AcDbText
  0
TEXT
  5
1091CD
330
18
100
AcDbEntity
  8
0
 62
     7
370
     9
100
AcDbText
 10
6192.291220514539
 20
-2177.113136562988
 30
0.0
 40
1.44
  1
DENSO
 50
90.0
  7
TIMESNR
100
AcDbText
  0
LINE
  5
1091CE
330
18
100
AcDbEntity
  8
0
 62
     7
100
AcDbLine
 10
6188.637448733729
 20
-2167.992309188992
 30
0.0
 11
6188.637448733729
 21
-2132.992309188992
 31
0.0
  0
ARC
  5
1091CF
330
18
100
AcDbEntity
  8
0
 62
     7
100
AcDbCircle
 10
6193.137448733732
 20
-2133.492309188993
 30
0.0
 40
0.5
100
AcDbArc
 50
0.0
 51
90.0
  0
ARC
  5
1091D0
330
18
100
AcDbEntity
  8
0
 62
     7
100
AcDbCircle
 10
6182.137448733732
 20
-2133.492309188993
 30
0.0
 40
0.5
100
AcDbArc
 50
90.0
 51
180.0
  0
LINE
  5
1091D1
330
18
100
AcDbEntity
  8
0
 62
     7
100
AcDbLine
 10
6193.137448733729
 20
-2132.992309188992
 30
0.0
 11
6182.137448733729
 21
-2132.992309188992
 31
0.0
  0
TEXT
  5
1091D2
330
18
100
AcDbEntity
  8
0
 62
     7
370
     9
100
AcDbText
 10
6191.03942876816
 20
-2159.702750353389
 30
0.0
 40
1.44
  1
NIKKI
 50
90.0
 41
1.25
  7
TIMESNR
100
AcDbText
  0
TEXT
  5
1091D3
330
18
100
AcDbEntity
  8
0
 62
     7
370
     9
100
AcDbText
 10
6192.736191177146
 20
-2159.82416346353
 30
0.0
 40
1.44
  1
DENSO
 50
90.0
 41
1.3
  7
TIMESNR
100
AcDbText
  0
LINE
  5
1091D4
330
18
100
AcDbEntity
  8
0
 62
     7
370
     9
100
AcDbLine
 10
6192.783925315726
 20
-2161.040762687915
 30
0.0
 11
6190.781425315728
 21
-2160.800462687914
 31
0.0
  0
ARC
  5
1091D5
330
18
100
AcDbEntity
  8
0
 62
     7
100
AcDbCircle
 10
6193.137448733732
 20
-2167.492309188993
 30
0.0
 40
0.5
100
AcDbArc
 50
270.0
 51
0.0
  0
ARC
  5
1091D6
330
18
100
AcDbEntity
  8
0
 62
     7
100
AcDbCircle
 10
6182.137448733732
 20
-2167.492309188993
 30
0.0
 40
0.5
100
AcDbArc
 50
180.0
 51
270.0
  0
LINE
  5
1091D7
330
18
100
AcDbEntity
  8
0
 62
     7
370
     9
100
AcDbLine
 10
6192.783925315726
 20
-2165.446262687916
 30
0.0
 11
6189.579925315725
 21
-2165.045762687916
 31
0.0
  0
LINE
  5
1091D8
330
18
100
AcDbEntity
  8
0
 62
     7
100
AcDbLine
 10
6182.137448733729
 20
-2167.992309188992
 30
0.0
 11
6193.137448733729
 21
-2167.992309188992
 31
0.0
  0
ARC
  5
1091D9
330
18
100
AcDbEntity
  8
0
 62
     7
370
     9
100
AcDbCircle
 10
6191.380312525032
 20
-2163.042331292566
 30
0.0
 40
1.003113223100251
100
AcDbArc
 50
203.5897772726021
 51
359.9468005913668
  0
LINE
  5
1091DA
330
18
100
AcDbEntity
  8
0
 62
     7
370
     9
100
AcDbLine
 10
6189.579925315725
 20
-2160.640262687916
 30
0.0
 11
6190.461025315723
 21
-2163.443762687914
 31
0.0
  0
LINE
  5
1091DB
330
18
100
AcDbEntity
  8
0
 62
     7
370
     9
100
AcDbLine
 10
6189.579925315725
 20
-2165.045762687916
 30
0.0
 11
6189.579925315725
 21
-2160.640262687916
 31
0.0
  0
TEXT
  5
1091DC
330
18
100
AcDbEntity
  8
0
 62
     7
370
     9
100
AcDbText
 10
6185.254716614606
 20
-2166.168339158128
 30
0.0
 40
2.6
  1
MODEL:
 50
90.0
 41
1.2
  7
MSｺﾞｼｯｸN
 11
6185.729663489606
 21
-2166.168339158128
 31
0.0
100
AcDbText
 73
     1
  0
LINE
  5
1091DD
330
18
100
AcDbEntity
  8
0
 62
     7
370
     9
100
AcDbLine
 10
6190.781425315728
 20
-2163.043262687914
 30
0.0
 11
6190.781425315728
 21
-2160.800462687914
 31
0.0
  0
LINE
  5
1091DE
330
18
100
AcDbEntity
  8
0
 62
     7
370
     9
100
AcDbLine
 10
6192.783925315726
 20
-2165.446262687916
 30
0.0
 11
6192.783925315726
 21
-2161.040762687915
 31
0.0
  0
CIRCLE
  5
1091DF
330
18
100
AcDbEntity
  8
0
 62
     7
370
     9
100
AcDbCircle
 10
6191.38217531573
 20
-2163.043262687915
 30
0.0
 40
0.6007500000000001
  0
ARC
  5
1091E0
330
18
100
AcDbEntity
  8
0
 62
     7
370
     9
100
AcDbCircle
 10
6191.582425315731
 20
-2163.043262687915
 30
0.0
 40
0.801
100
AcDbArc
 50
0.0
 51
180.0
  0
LINE
  5
1091E1
330
18
100
AcDbEntity
  8
0
 62
     7
100
AcDbLine
 10
6193.637448733729
 20
-2167.492309188992
 30
0.0
 11
6193.637448733729
 21
-2133.492309188992
 31
0.0
  0
LINE
  5
1091E2
330
18
100
AcDbEntity
  8
0
 62
     7
100
AcDbLine
 10
6181.637448733729
 20
-2133.492309188992
 30
0.0
 11
6181.637448733729
 21
-2167.492309188992
 31
0.0
  0
TEXT
  5
1091E3
330
18
100
AcDbEntity
  8
0
 62
     7
370
     9
100
AcDbText
 10
6188.078708417987
 20
-2166.195465730939
 30
0.0
 40
2.0
  1
SER No.******
 50
90.0
 41
1.2
  7
MSｺﾞｼｯｸN
 11
6188.444052167987
 21
-2166.195465730939
 31
0.0
100
AcDbText
 73
     1
  0
TEXT
  5
1091E4
330
18
100
AcDbEntity
  8
0
 62
     7
370
     9
100
AcDbText
 10
6193.002743370308
 20
-2148.370648794443
 30
137.5
 40
1.5
  1
MADE IN JAPAN
 50
90.0
  7
MSｺﾞｼｯｸN
 11
6193.276751182808
 21
-2148.370648794443
 31
137.5
100
AcDbText
 73
     1
  0
TEXT
  5
1091E5
330
18
100
AcDbEntity
  8
0
 62
     7
370
     9
100
AcDbText
 10
6191.132957319922
 20
-2148.370648794443
 30
137.5
 40
1.5
  1
SN-16140
 50
90.0
  7
MSｺﾞｼｯｸN
 11
6191.406965132422
 21
-2148.370648794443
 31
137.5
100
AcDbText
 73
     1
  0
LINE
  5
1091E6
330
18
100
AcDbEntity
  8
0
 62
     7
370
     9
100
AcDbLine
 10
6192.783925315726
 20
-2125.040762687915
 30
0.0
 11
6190.781425315728
 21
-2124.800462687914
 31
0.0
  0
ARC
  5
1091E7
330
18
100
AcDbEntity
  8
0
 62
     7
100
AcDbCircle
 10
6193.137448733732
 20
-2097.492309188993
 30
0.0
 40
0.5
100
AcDbArc
 50
0.0
 51
90.0
  0
ARC
  5
1091E8
330
18
100
AcDbEntity
  8
0
 62
     7
100
AcDbCircle
 10
6182.137448733732
 20
-2097.492309188993
 30
0.0
 40
0.5
100
AcDbArc
 50
90.0
 51
180.0
  0
LINE
  5
1091E9
330
18
100
AcDbEntity
  8
0
 62
     7
100
AcDbLine
 10
6193.137448733729
 20
-2096.992309188992
 30
0.0
 11
6182.137448733729
 21
-2096.992309188992
 31
0.0
  0
LINE
  5
1091EA
330
18
100
AcDbEntity
  8
0
 62
     7
370
     9
100
AcDbLine
 10
6192.783925315726
 20
-2129.446262687916
 30
0.0
 11
6192.783925315726
 21
-2125.040762687915
 31
0.0
  0
CIRCLE
  5
1091EB
330
18
100
AcDbEntity
  8
0
 62
     7
370
     9
100
AcDbCircle
 10
6191.38217531573
 20
-2127.043262687915
 30
0.0
 40
0.6007500000000001
  0
LINE
  5
1091EC
330
18
100
AcDbEntity
  8
0
 62
     7
370
     9
100
AcDbLine
 10
6189.579925315725
 20
-2124.640262687916
 30
0.0
 11
6190.461025315723
 21
-2127.443762687914
 31
0.0
  0
LINE
  5
1091ED
330
18
100
AcDbEntity
  8
0
 62
     7
370
     9
100
AcDbLine
 10
6189.579925315725
 20
-2129.045762687916
 30
0.0
 11
6189.579925315725
 21
-2124.640262687916
 31
0.0
  0
LINE
  5
1091EE
330
18
100
AcDbEntity
  8
0
 62
     7
370
     9
100
AcDbLine
 10
6190.781425315728
 20
-2127.043262687914
 30
0.0
 11
6190.781425315728
 21
-2124.800462687914
 31
0.0
  0
ARC
  5
1091EF
330
18
100
AcDbEntity
  8
0
 62
     7
370
     9
100
AcDbCircle
 10
6191.380312525032
 20
-2127.042331292566
 30
0.0
 40
1.003113223100251
100
AcDbArc
 50
203.5897772726021
 51
359.9468005913668
  0
LINE
  5
1091F0
330
18
100
AcDbEntity
  8
0
 62
     7
370
     9
100
AcDbLine
 10
6192.783925315726
 20
-2129.446262687916
 30
0.0
 11
6189.579925315725
 21
-2129.045762687916
 31
0.0
  0
ARC
  5
1091F1
330
18
100
AcDbEntity
  8
0
 62
     7
370
     9
100
AcDbCircle
 10
6191.582425315731
 20
-2127.043262687915
 30
0.0
 40
0.801
100
AcDbArc
 50
0.0
 51
180.0
  0
LINE
  5
1091F2
330
18
100
AcDbEntity
  8
0
 62
     7
100
AcDbLine
 10
6182.137448733729
 20
-2131.992309188992
 30
0.0
 11
6193.137448733729
 21
-2131.992309188992
 31
0.0
  0
ARC
  5
1091F3
330
18
100
AcDbEntity
  8
0
 62
     7
100
AcDbCircle
 10
6182.137448733732
 20
-2131.492309188993
 30
0.0
 40
0.5
100
AcDbArc
 50
180.0
 51
270.0
  0
ARC
  5
1091F4
330
18
100
AcDbEntity
  8
0
 62
     7
100
AcDbCircle
 10
6193.137448733732
 20
-2131.492309188993
 30
0.0
 40
0.5
100
AcDbArc
 50
270.0
 51
0.0
  0
LINE
  5
1091F5
330
18
100
AcDbEntity
  8
0
 62
     7
100
AcDbLine
 10
6181.637448733729
 20
-2097.492309188992
 30
0.0
 11
6181.637448733729
 21
-2131.492309188992
 31
0.0
  0
LINE
  5
1091F6
330
18
100
AcDbEntity
  8
0
 62
     7
100
AcDbLine
 10
6193.637448733729
 20
-2131.492309188992
 30
0.0
 11
6193.637448733729
 21
-2097.492309188992
 31
0.0
  0
LINE
  5
1091F7
330
18
100
AcDbEntity
  8
0
 62
     7
100
AcDbLine
 10
6188.637448733729
 20
-2131.992309188992
 30
0.0
 11
6188.637448733729
 21
-2096.992309188992
 31
0.0
  0
TEXT
  5
1091F8
330
18
100
AcDbEntity
  8
0
 62
     7
370
     9
100
AcDbText
 10
6188.078708417987
 20
-2130.195465730939
 30
0.0
 40
2.0
  1
******PPR
 50
90.0
 41
1.2
  7
MSｺﾞｼｯｸN
 11
6188.444052167987
 21
-2130.195465730939
 31
0.0
100
AcDbText
 73
     1
  0
TEXT
  5
1091F9
330
18
100
AcDbEntity
  8
0
 62
     7
370
     9
100
AcDbText
 10
6185.254716614606
 20
-2130.168339158128
 30
0.0
 40
2.6
  1
ENCODER
 50
90.0
 41
1.2
  7
MSｺﾞｼｯｸN
 11
6185.729663489606
 21
-2130.168339158128
 31
0.0
100
AcDbText
 73
     1
  0
TEXT
  5
1091FA
330
18
100
AcDbEntity
  8
0
 62
     7
370
     9
100
AcDbText
 10
6191.03942876816
 20
-2123.702750353389
 30
0.0
 40
1.44
  1
NIKKI
 50
90.0
 41
1.25
  7
TIMESNR
100
AcDbText
  0
TEXT
  5
1091FB
330
18
100
AcDbEntity
  8
0
 62
     7
370
     9
100
AcDbText
 10
6192.736191177146
 20
-2123.82416346353
 30
0.0
 40
1.44
  1
DENSO
 50
90.0
 41
1.3
  7
TIMESNR
100
AcDbText
  0
TEXT
  5
1091FC
330
18
100
AcDbEntity
  8
0
 62
     7
370
     9
100
AcDbText
 10
6191.132957319922
 20
-2112.370648794443
 30
137.5
 40
1.5
  1
SN-16140
 50
90.0
  7
MSｺﾞｼｯｸN
 11
6191.406965132422
 21
-2112.370648794443
 31
137.5
100
AcDbText
 73
     1
  0
TEXT
  5
1091FD
330
18
100
AcDbEntity
  8
0
 62
     7
370
     9
100
AcDbText
 10
6193.002743370308
 20
-2112.370648794443
 30
137.5
 40
1.5
  1
MADE IN JAPAN
 50
90.0
  7
MSｺﾞｼｯｸN
 11
6193.276751182808
 21
-2112.370648794443
 31
137.5
100
AcDbText
 73
     1
  0
LINE
  5
1091FE
330
18
100
AcDbEntity
  8
細線
 62
     7
370
     9
100
AcDbLine
 10
6189.579925315725
 20
-2057.903569161452
 30
0.0
 11
6190.461025315723
 21
-2060.70706916145
 31
0.0
  0
LINE
  5
1091FF
330
18
100
AcDbEntity
  8
細線
 62
     7
370
     9
100
AcDbLine
 10
6190.781425315728
 20
-2060.30656916145
 30
0.0
 11
6190.781425315728
 21
-2058.06376916145
 31
0.0
  0
ARC
  5
109200
330
18
100
AcDbEntity
  8
細線
 62
     7
370
     9
100
AcDbCircle
 10
6191.582425315728
 20
-2060.306569161452
 30
0.0
 40
0.801
100
AcDbArc
 50
0.0
 51
180.0
  0
CIRCLE
  5
109201
330
18
100
AcDbEntity
  8
細線
 62
     7
370
     9
100
AcDbCircle
 10
6191.382175315725
 20
-2060.306569161452
 30
0.0
 40
0.6007500000000001
  0
LINE
  5
109202
330
18
100
AcDbEntity
  8
細線
 62
     7
370
     9
100
AcDbLine
 10
6192.783925315726
 20
-2058.304069161452
 30
0.0
 11
6190.781425315728
 21
-2058.06376916145
 31
0.0
  0
TEXT
  5
109203
330
18
100
AcDbEntity
  8
細線
 62
     7
370
     9
100
AcDbText
 10
6192.736191177141
 20
-2057.087469937067
 30
0.0
 40
1.44
  1
DENSO
 50
90.0
 41
1.3
  7
TIMESNR
100
AcDbText
  0
TEXT
  5
109204
330
18
100
AcDbEntity
  8
細線
 62
     7
370
     9
100
AcDbText
 10
6191.039428768157
 20
-2056.966056826927
 30
0.0
 40
1.44
  1
NIKKI
 50
90.0
 41
1.25
  7
TIMESNR
100
AcDbText
  0
ARC
  5
109205
330
18
100
AcDbEntity
  8
細線
 62
     7
100
AcDbCircle
 10
6193.137448733729
 20
-2030.755615662531
 30
0.0
 40
0.5
100
AcDbArc
 50
0.0
 51
90.0
  0
ARC
  5
109206
330
18
100
AcDbEntity
  8
細線
 62
     7
100
AcDbCircle
 10
6182.137448733729
 20
-2030.755615662531
 30
0.0
 40
0.5
100
AcDbArc
 50
90.0
 51
180.0
  0
LINE
  5
109207
330
18
100
AcDbEntity
  8
細線
 62
     7
100
AcDbLine
 10
6193.137448733729
 20
-2030.255615662529
 30
0.0
 11
6182.137448733729
 21
-2030.255615662529
 31
0.0
  0
LINE
  5
109208
330
18
100
AcDbEntity
  8
細線
 62
     7
370
     9
100
AcDbLine
 10
6192.783925315726
 20
-2062.709569161452
 30
0.0
 11
6189.579925315725
 21
-2062.309069161453
 31
0.0
  0
ARC
  5
109209
330
18
100
AcDbEntity
  8
細線
 62
     7
100
AcDbCircle
 10
6193.137448733729
 20
-2064.755615662531
 30
0.0
 40
0.5
100
AcDbArc
 50
270.0
 51
0.0
  0
ARC
  5
10920A
330
18
100
AcDbEntity
  8
細線
 62
     7
100
AcDbCircle
 10
6182.137448733729
 20
-2064.755615662531
 30
0.0
 40
0.5
100
AcDbArc
 50
180.0
 51
270.0
  0
LINE
  5
10920B
330
18
100
AcDbEntity
  8
細線
 62
     7
100
AcDbLine
 10
6182.137448733729
 20
-2065.255615662529
 30
0.0
 11
6193.137448733729
 21
-2065.255615662529
 31
0.0
  0
LINE
  5
10920C
330
18
100
AcDbEntity
  8
細線
 62
     7
100
AcDbLine
 10
6181.637448733729
 20
-2030.755615662529
 30
0.0
 11
6181.637448733729
 21
-2064.755615662529
 31
0.0
  0
LINE
  5
10920D
330
18
100
AcDbEntity
  8
細線
 62
     7
100
AcDbLine
 10
6193.637448733729
 20
-2064.755615662529
 30
0.0
 11
6193.637448733729
 21
-2030.755615662529
 31
0.0
  0
LINE
  5
10920E
330
18
100
AcDbEntity
  8
細線
 62
     7
100
AcDbLine
 10
6188.637448733729
 20
-2065.255615662529
 30
0.0
 11
6188.637448733729
 21
-2030.255615662529
 31
0.0
  0
TEXT
  5
10920F
330
18
100
AcDbEntity
  8
細線
 62
     7
370
     9
100
AcDbText
 10
6188.078708417985
 20
-2063.458772204476
 30
0.0
 40
2.0
  1
SER No.******
 50
90.0
 41
1.2
  7
MSｺﾞｼｯｸN
 11
6188.444052167984
 21
-2063.458772204476
 31
0.0
100
AcDbText
 73
     1
  0
LINE
  5
109210
330
18
100
AcDbEntity
  8
細線
 62
     7
370
     9
100
AcDbLine
 10
6189.579925315725
 20
-2062.309069161453
 30
0.0
 11
6189.579925315725
 21
-2057.903569161452
 31
0.0
  0
LINE
  5
109211
330
18
100
AcDbEntity
  8
細線
 62
     7
370
     9
100
AcDbLine
 10
6192.783925315726
 20
-2062.709569161452
 30
0.0
 11
6192.783925315726
 21
-2058.304069161452
 31
0.0
  0
ARC
  5
109212
330
18
100
AcDbEntity
  8
細線
 62
     7
370
     9
100
AcDbCircle
 10
6191.380312525029
 20
-2060.305637766103
 30
0.0
 40
1.003113223100251
100
AcDbArc
 50
203.5897772726021
 51
359.9468005913668
  0
TEXT
  5
109213
330
18
100
AcDbEntity
  8
細線
 62
     7
370
     9
100
AcDbText
 10
6193.002743370304
 20
-2044.713940339701
 30
137.5
 40
1.5
  1
MADE IN JAPAN
 50
90.0
  7
MSｺﾞｼｯｸN
 11
6193.276751182803
 21
-2044.713940339701
 31
137.5
100
AcDbText
 73
     1
  0
TEXT
  5
109214
330
18
100
AcDbEntity
  8
細線
 62
     7
370
     9
100
AcDbText
 10
6191.132957319919
 20
-2044.713940339701
 30
137.5
 40
1.5
  1
SN-16140
 50
90.0
  7
MSｺﾞｼｯｸN
 11
6191.406965132419
 21
-2044.713940339701
 31
137.5
100
AcDbText
 73
     1
  0
LINE
  5
109215
330
18
100
AcDbEntity
  8
実線
100
AcDbLine
 10
6195.137448398478
 20
-2185.480208841267
 30
0.0
 11
6175.137448398478
 21
-2185.480208841267
 31
0.0
  0
LINE
  5
109216
330
18
100
AcDbEntity
  8
中心線
 48
0.5
100
AcDbLine
 10
6427.276942353211
 20
-2106.929269954458
 30
0.0
 11
6460.434031873806
 21
-2106.929269954458
 31
0.0
  0
LINE
  5
109217
330
18
100
AcDbEntity
  8
ｺﾈｸﾀ
100
AcDbLine
 10
6435.169203823659
 20
-2112.429269954458
 30
0.0
 11
6435.169203823659
 21
-2112.929269954458
 31
0.0
  0
LINE
  5
109218
330
18
100
AcDbEntity
  8
ｺﾈｸﾀ
100
AcDbLine
 10
6433.669203823659
 20
-2112.429269954458
 30
0.0
 11
6433.669203823659
 21
-2112.929269954458
 31
0.0
  0
LINE
  5
109219
330
18
100
AcDbEntity
  8
ｺﾈｸﾀ
100
AcDbLine
 10
6435.169203823659
 20
-2112.929269954458
 30
0.0
 11
6433.669203823659
 21
-2112.929269954458
 31
0.0
  0
LINE
  5
10921A
330
18
100
AcDbEntity
  8
ｺﾈｸﾀ
100
AcDbLine
 10
6435.169203823659
 20
-2101.429269954458
 30
0.0
 11
6435.169203823659
 21
-2100.929269954458
 31
0.0
  0
LINE
  5
10921B
330
18
100
AcDbEntity
  8
ｺﾈｸﾀ
100
AcDbLine
 10
6433.669203823659
 20
-2101.429269954458
 30
0.0
 11
6433.669203823659
 21
-2100.929269954458
 31
0.0
  0
LINE
  5
10921C
330
18
100
AcDbEntity
  8
ｺﾈｸﾀ
100
AcDbLine
 10
6435.169203823659
 20
-2100.929269954458
 30
0.0
 11
6433.669203823659
 21
-2100.929269954458
 31
0.0
  0
LINE
  5
10921D
330
18
100
AcDbEntity
  8
ｺﾈｸﾀ
100
AcDbLine
 10
6444.869203823659
 20
-2101.429269954458
 30
0.0
 11
6445.869203823659
 21
-2101.429269954458
 31
0.0
  0
LINE
  5
10921E
330
18
100
AcDbEntity
  8
ｺﾈｸﾀ
100
AcDbLine
 10
6439.371703823657
 20
-2101.429269954458
 30
0.0
 11
6445.869203823659
 21
-2101.429269954458
 31
0.0
  0
ARC
  5
10921F
330
18
100
AcDbEntity
  8
ｺﾈｸﾀ
100
AcDbCircle
 10
6441.944102187565
 20
-2104.179269954458
 30
0.0
 40
4.367366609175968
100
AcDbArc
 50
333.9921761142731
 51
26.00782388572687
  0
LINE
  5
109220
330
18
100
AcDbEntity
  8
ｺﾈｸﾀ
100
AcDbLine
 10
6448.971703823659
 20
-2102.829269954456
 30
0.0
 11
6448.971703823659
 21
-2106.929269954458
 31
0.0
  0
LINE
  5
109221
330
18
100
AcDbEntity
  8
ｺﾈｸﾀ
100
AcDbLine
 10
6447.571703823659
 20
-2106.929269954458
 30
0.0
 11
6447.571703823659
 21
-2102.209037983209
 31
0.0
  0
LINE
  5
109222
330
18
100
AcDbEntity
  8
ｺﾈｸﾀ
100
AcDbLine
 10
6447.971703823659
 20
-2106.929269954458
 30
0.0
 11
6447.971703823659
 21
-2102.629269954459
 31
0.0
  0
ARC
  5
109223
330
18
100
AcDbEntity
  8
ｺﾈｸﾀ
100
AcDbCircle
 10
6441.944102187565
 20
-2109.679269954458
 30
0.0
 40
4.367366609175924
100
AcDbArc
 50
333.9921761142731
 51
26.00782388572687
  0
LINE
  5
109224
330
18
100
AcDbEntity
  8
ｺﾈｸﾀ
100
AcDbLine
 10
6447.971703823659
 20
-2111.229269954457
 30
0.0
 11
6447.971703823659
 21
-2106.929269954458
 31
0.0
  0
LINE
  5
109225
330
18
100
AcDbEntity
  8
ｺﾈｸﾀ
100
AcDbLine
 10
6447.571703823659
 20
-2111.649501925703
 30
0.0
 11
6447.571703823659
 21
-2106.929269954458
 31
0.0
  0
LINE
  5
109226
330
18
100
AcDbEntity
  8
ｺﾈｸﾀ
100
AcDbLine
 10
6448.971703823659
 20
-2106.929269954458
 30
0.0
 11
6448.971703823659
 21
-2111.029269954456
 31
0.0
  0
LINE
  5
109227
330
18
100
AcDbEntity
  8
ｺﾈｸﾀ
100
AcDbLine
 10
6445.869203823659
 20
-2112.429269954458
 30
0.0
 11
6444.869203823659
 21
-2112.429269954458
 31
0.0
  0
LINE
  5
109228
330
18
100
AcDbEntity
  8
ｺﾈｸﾀ
100
AcDbLine
 10
6447.971703823659
 20
-2111.229269954457
 30
0.0
 11
6448.971703823659
 21
-2111.029269954456
 31
0.0
  0
LINE
  5
109229
330
18
100
AcDbEntity
  8
ｺﾈｸﾀ
100
AcDbLine
 10
6447.571703823659
 20
-2111.649501925703
 30
0.0
 11
6445.869203823659
 21
-2112.429269954458
 31
0.0
  0
LINE
  5
10922A
330
18
100
AcDbEntity
  8
ｺﾈｸﾀ
100
AcDbLine
 10
6445.869203823659
 20
-2111.594333463917
 30
0.0
 11
6445.869203823659
 21
-2112.429269954458
 31
0.0
  0
LINE
  5
10922B
330
18
100
AcDbEntity
  8
ｺﾈｸﾀ
100
AcDbLine
 10
6447.571703823659
 20
-2111.229269954457
 30
0.0
 11
6447.971703823659
 21
-2111.229269954457
 31
0.0
  0
LINE
  5
10922C
330
18
100
AcDbEntity
  8
ｺﾈｸﾀ
100
AcDbLine
 10
6445.869203823659
 20
-2106.929269954458
 30
0.0
 11
6445.869203823659
 21
-2107.764206444995
 31
0.0
  0
LINE
  5
10922D
330
18
100
AcDbEntity
  8
ｺﾈｸﾀ
100
AcDbLine
 10
6445.869203823659
 20
-2106.094333463917
 30
0.0
 11
6445.869203823659
 21
-2106.929269954458
 31
0.0
  0
LINE
  5
10922E
330
18
100
AcDbEntity
  8
ｺﾈｸﾀ
100
AcDbLine
 10
6448.971703823659
 20
-2102.829269954456
 30
0.0
 11
6447.971703823659
 21
-2102.629269954459
 31
0.0
  0
LINE
  5
10922F
330
18
100
AcDbEntity
  8
ｺﾈｸﾀ
100
AcDbLine
 10
6447.971703823659
 20
-2102.629269954459
 30
0.0
 11
6447.571703823659
 21
-2102.629269954459
 31
0.0
  0
LINE
  5
109230
330
18
100
AcDbEntity
  8
ｺﾈｸﾀ
100
AcDbLine
 10
6439.371703823657
 20
-2111.594333463917
 30
0.0
 11
6445.869203823659
 21
-2111.594333463917
 31
0.0
  0
LINE
  5
109231
330
18
100
AcDbEntity
  8
ｺﾈｸﾀ
100
AcDbLine
 10
6445.869203823659
 20
-2112.429269954458
 30
0.0
 11
6439.371703823657
 21
-2112.429269954458
 31
0.0
  0
LINE
  5
109232
330
18
100
AcDbEntity
  8
ｺﾈｸﾀ
100
AcDbLine
 10
6439.371703823657
 20
-2107.764206444995
 30
0.0
 11
6445.869203823659
 21
-2107.764206444995
 31
0.0
  0
LINE
  5
109233
330
18
100
AcDbEntity
  8
ｺﾈｸﾀ
100
AcDbLine
 10
6445.869203823659
 20
-2106.094333463917
 30
0.0
 11
6439.371703823657
 21
-2106.094333463917
 31
0.0
  0
LINE
  5
109234
330
18
100
AcDbEntity
  8
ｺﾈｸﾀ
100
AcDbLine
 10
6445.869203823659
 20
-2102.264206444995
 30
0.0
 11
6439.371703823657
 21
-2102.264206444995
 31
0.0
  0
LINE
  5
109235
330
18
100
AcDbEntity
  8
ｺﾈｸﾀ
100
AcDbLine
 10
6445.869203823659
 20
-2101.429269954458
 30
0.0
 11
6447.571703823659
 21
-2102.209037983209
 31
0.0
  0
LINE
  5
109236
330
18
100
AcDbEntity
  8
ｺﾈｸﾀ
100
AcDbLine
 10
6435.169203823659
 20
-2101.429269954458
 30
0.0
 11
6433.669203823659
 21
-2101.429269954458
 31
0.0
  0
LINE
  5
109237
330
18
100
AcDbEntity
  8
ｺﾈｸﾀ
100
AcDbLine
 10
6440.371703823659
 20
-2101.429269954458
 30
0.0
 11
6439.371703823657
 21
-2101.429269954458
 31
0.0
  0
ARC
  5
109238
330
18
100
AcDbEntity
  8
ｺﾈｸﾀ
100
AcDbCircle
 10
6446.149414536125
 20
-2109.679269954458
 30
0.0
 40
7.043069696315629
100
AcDbArc
 50
164.2221938994589
 51
195.7778061005411
  0
ARC
  5
109239
330
18
100
AcDbEntity
  8
ｺﾈｸﾀ
100
AcDbCircle
 10
6446.149414536125
 20
-2104.179269954458
 30
0.0
 40
7.043069696315602
100
AcDbArc
 50
164.2221938994589
 51
195.7778061005411
  0
LINE
  5
10923A
330
18
100
AcDbEntity
  8
ｺﾈｸﾀ
100
AcDbLine
 10
6439.371703823657
 20
-2112.429269954458
 30
0.0
 11
6439.071703823659
 21
-2112.129269954459
 31
0.0
  0
ARC
  5
10923B
330
18
100
AcDbEntity
  8
ｺﾈｸﾀ
100
AcDbCircle
 10
6431.244102187574
 20
-2104.179269954458
 30
0.0
 40
4.367366609166623
100
AcDbArc
 50
333.9921761142689
 51
26.00782388573106
  0
LINE
  5
10923C
330
18
100
AcDbEntity
  8
ｺﾈｸﾀ
100
AcDbLine
 10
6438.731703765923
 20
-2111.937312094081
 30
0.0
 11
6438.481703765923
 21
-2101.921227814835
 31
0.0
  0
LINE
  5
10923D
330
18
100
AcDbEntity
  8
ｺﾈｸﾀ
100
AcDbLine
 10
6438.231703765923
 20
-2111.937312094081
 30
0.0
 11
6437.981703765923
 21
-2101.921227814835
 31
0.0
  0
LINE
  5
10923E
330
18
100
AcDbEntity
  8
ｺﾈｸﾀ
100
AcDbLine
 10
6437.731703765923
 20
-2111.937312094081
 30
0.0
 11
6437.481703765923
 21
-2101.921227814835
 31
0.0
  0
LINE
  5
10923F
330
18
100
AcDbEntity
  8
ｺﾈｸﾀ
100
AcDbLine
 10
6437.231703765923
 20
-2111.937312094081
 30
0.0
 11
6436.981703765923
 21
-2101.921227814835
 31
0.0
  0
LINE
  5
109240
330
18
100
AcDbEntity
  8
ｺﾈｸﾀ
100
AcDbLine
 10
6436.731703765923
 20
-2111.937312094081
 30
0.0
 11
6436.481703765923
 21
-2101.921227814835
 31
0.0
  0
LINE
  5
109241
330
18
100
AcDbEntity
  8
ｺﾈｸﾀ
100
AcDbLine
 10
6439.071703823659
 20
-2101.729269954457
 30
0.0
 11
6439.071703823659
 21
-2106.929269954458
 31
0.0
  0
LINE
  5
109242
330
18
100
AcDbEntity
  8
ｺﾈｸﾀ
100
AcDbLine
 10
6433.669203823659
 20
-2106.094333463921
 30
0.0
 11
6433.669203823659
 21
-2102.264206444995
 31
0.0
  0
LINE
  5
109243
330
18
100
AcDbEntity
  8
ｺﾈｸﾀ
100
AcDbLine
 10
6435.669203823659
 20
-2106.929269954458
 30
0.0
 11
6435.669203823659
 21
-2102.138583437755
 31
0.0
  0
LINE
  5
109244
330
18
100
AcDbEntity
  8
ｺﾈｸﾀ
100
AcDbLine
 10
6439.073333939014
 20
-2105.592329959634
 30
0.0
 11
6438.981703765923
 21
-2101.921227814835
 31
0.0
  0
ARC
  5
109245
330
18
100
AcDbEntity
  8
ｺﾈｸﾀ
100
AcDbCircle
 10
6431.244102187574
 20
-2109.679269954454
 30
0.0
 40
4.367366609167326
100
AcDbArc
 50
333.9921761142689
 51
26.00782388573106
  0
LINE
  5
109246
330
18
100
AcDbEntity
  8
ｺﾈｸﾀ
100
AcDbLine
 10
6439.071703823659
 20
-2106.929269954458
 30
0.0
 11
6439.071703823659
 21
-2112.129269954459
 31
0.0
  0
LINE
  5
109247
330
18
100
AcDbEntity
  8
ｺﾈｸﾀ
100
AcDbLine
 10
6435.669203823659
 20
-2111.71995647116
 30
0.0
 11
6435.669203823659
 21
-2106.929269954458
 31
0.0
  0
LINE
  5
109248
330
18
100
AcDbEntity
  8
ｺﾈｸﾀ
100
AcDbLine
 10
6433.669203823659
 20
-2111.594333463917
 30
0.0
 11
6433.669203823659
 21
-2107.764206444995
 31
0.0
  0
LINE
  5
109249
330
18
100
AcDbEntity
  8
ｺﾈｸﾀ
100
AcDbLine
 10
6435.863936192163
 20
-2111.648636954456
 30
0.0
 11
6436.544203708188
 21
-2111.648636954456
 31
0.0
  0
LINE
  5
10924A
330
18
100
AcDbEntity
  8
ｺﾈｸﾀ
100
AcDbLine
 10
6433.669203823659
 20
-2111.594333463917
 30
0.0
 11
6435.169203823659
 21
-2111.594333463917
 31
0.0
  0
LINE
  5
10924B
330
18
100
AcDbEntity
  8
ｺﾈｸﾀ
100
AcDbLine
 10
6433.669203823659
 20
-2112.429269954458
 30
0.0
 11
6435.169203823659
 21
-2112.429269954458
 31
0.0
  0
LINE
  5
10924C
330
18
100
AcDbEntity
  8
ｺﾈｸﾀ
100
AcDbLine
 10
6433.669203823659
 20
-2112.429269954458
 30
0.0
 11
6433.669203823659
 21
-2111.594333463917
 31
0.0
  0
ARC
  5
10924D
330
18
100
AcDbEntity
  8
ｺﾈｸﾀ
100
AcDbCircle
 10
6435.869203823659
 20
-2111.848636954456
 30
0.0
 40
0.2000000000003013
100
AcDbArc
 50
90.0
 51
180.0
  0
LINE
  5
10924E
330
18
100
AcDbEntity
  8
ｺﾈｸﾀ
100
AcDbLine
 10
6435.169203823659
 20
-2111.594333463917
 30
0.0
 11
6435.169203823659
 21
-2112.429269954458
 31
0.0
  0
LINE
  5
10924F
330
18
100
AcDbEntity
  8
ｺﾈｸﾀ
100
AcDbLine
 10
6435.669203823659
 20
-2111.929269954458
 30
0.0
 11
6435.169203823659
 21
-2112.429269954458
 31
0.0
  0
LINE
  5
109250
330
18
100
AcDbEntity
  8
ｺﾈｸﾀ
100
AcDbLine
 10
6435.669203823659
 20
-2111.719269954459
 30
0.0
 11
6435.669203823659
 21
-2111.929269954458
 31
0.0
  0
ARC
  5
109251
330
18
100
AcDbEntity
  8
ｺﾈｸﾀ
100
AcDbCircle
 10
6437.731703765923
 20
-2111.901227795964
 30
0.0
 40
0.0360842981133216
100
AcDbArc
 50
210.0000172916693
 51
329.9999827083307
  0
ARC
  5
109252
330
18
100
AcDbEntity
  8
ｺﾈｸﾀ
100
AcDbCircle
 10
6437.231703765923
 20
-2111.901227795964
 30
0.0
 40
0.0360842981133216
100
AcDbArc
 50
210.0000172916693
 51
329.9999827083307
  0
ARC
  5
109253
330
18
100
AcDbEntity
  8
ｺﾈｸﾀ
100
AcDbCircle
 10
6436.731703765923
 20
-2111.901227795964
 30
0.0
 40
0.0360842981133216
100
AcDbArc
 50
210.0000172916693
 51
329.9999827083307
  0
LINE
  5
109254
330
18
100
AcDbEntity
  8
ｺﾈｸﾀ
100
AcDbLine
 10
6437.544203708188
 20
-2111.648636954456
 30
0.0
 11
6437.419203823659
 21
-2111.648636954456
 31
0.0
  0
LINE
  5
109255
330
18
100
AcDbEntity
  8
ｺﾈｸﾀ
100
AcDbLine
 10
6437.544203708188
 20
-2111.648636954456
 30
0.0
 11
6437.700453852525
 21
-2111.919269954456
 31
0.0
  0
LINE
  5
109256
330
18
100
AcDbEntity
  8
ｺﾈｸﾀ
100
AcDbLine
 10
6437.544203708188
 20
-2111.648636954456
 30
0.0
 11
6437.419203823659
 21
-2111.648636954456
 31
0.0
  0
LINE
  5
109257
330
18
100
AcDbEntity
  8
ｺﾈｸﾀ
100
AcDbLine
 10
6437.044203708188
 20
-2111.648636954456
 30
0.0
 11
6436.919203823659
 21
-2111.648636954456
 31
0.0
  0
LINE
  5
109258
330
18
100
AcDbEntity
  8
ｺﾈｸﾀ
100
AcDbLine
 10
6437.262953679322
 20
-2111.919269954456
 30
0.0
 11
6437.419203823659
 21
-2111.648636954456
 31
0.0
  0
LINE
  5
109259
330
18
100
AcDbEntity
  8
ｺﾈｸﾀ
100
AcDbLine
 10
6437.044203708188
 20
-2111.648636954456
 30
0.0
 11
6437.200453852525
 21
-2111.919269954456
 31
0.0
  0
LINE
  5
10925A
330
18
100
AcDbEntity
  8
ｺﾈｸﾀ
100
AcDbLine
 10
6437.044203708188
 20
-2111.648636954456
 30
0.0
 11
6436.919203823659
 21
-2111.648636954456
 31
0.0
  0
LINE
  5
10925B
330
18
100
AcDbEntity
  8
ｺﾈｸﾀ
100
AcDbLine
 10
6437.044203708188
 20
-2111.648636954456
 30
0.0
 11
6436.919203823659
 21
-2111.648636954456
 31
0.0
  0
LINE
  5
10925C
330
18
100
AcDbEntity
  8
ｺﾈｸﾀ
100
AcDbLine
 10
6436.762953679322
 20
-2111.919269954456
 30
0.0
 11
6436.919203823659
 21
-2111.648636954456
 31
0.0
  0
LINE
  5
10925D
330
18
100
AcDbEntity
  8
ｺﾈｸﾀ
100
AcDbLine
 10
6436.544203708188
 20
-2111.648636954456
 30
0.0
 11
6436.700453852525
 21
-2111.919269954456
 31
0.0
  0
ARC
  5
10925E
330
18
100
AcDbEntity
  8
ｺﾈｸﾀ
100
AcDbCircle
 10
6438.731703765923
 20
-2111.901227795964
 30
0.0
 40
0.0360842981133216
100
AcDbArc
 50
210.0000172916693
 51
329.9999827083307
  0
ARC
  5
10925F
330
18
100
AcDbEntity
  8
ｺﾈｸﾀ
100
AcDbCircle
 10
6438.231703765923
 20
-2111.901227795964
 30
0.0
 40
0.0360842981133216
100
AcDbArc
 50
210.0000172916693
 51
329.9999827083307
  0
LINE
  5
109260
330
18
100
AcDbEntity
  8
ｺﾈｸﾀ
100
AcDbLine
 10
6438.762953679319
 20
-2111.919269954456
 30
0.0
 11
6438.919203823659
 21
-2111.648636954456
 31
0.0
  0
LINE
  5
109261
330
18
100
AcDbEntity
  8
ｺﾈｸﾀ
100
AcDbLine
 10
6439.044203708188
 20
-2111.648636954456
 30
0.0
 11
6438.919203823659
 21
-2111.648636954456
 31
0.0
  0
LINE
  5
109262
330
18
100
AcDbEntity
  8
ｺﾈｸﾀ
100
AcDbLine
 10
6439.044203708188
 20
-2111.648636954456
 30
0.0
 11
6439.071703823659
 21
-2111.696268518456
 31
0.0
  0
LINE
  5
109263
330
18
100
AcDbEntity
  8
ｺﾈｸﾀ
100
AcDbLine
 10
6438.762953679319
 20
-2111.919269954456
 30
0.0
 11
6438.919203823659
 21
-2111.648636954456
 31
0.0
  0
LINE
  5
109264
330
18
100
AcDbEntity
  8
ｺﾈｸﾀ
100
AcDbLine
 10
6438.544203708188
 20
-2111.648636954456
 30
0.0
 11
6438.700453852525
 21
-2111.919269954456
 31
0.0
  0
LINE
  5
109265
330
18
100
AcDbEntity
  8
ｺﾈｸﾀ
100
AcDbLine
 10
6438.544203708188
 20
-2111.648636954456
 30
0.0
 11
6438.419203823659
 21
-2111.648636954456
 31
0.0
  0
LINE
  5
109266
330
18
100
AcDbEntity
  8
ｺﾈｸﾀ
100
AcDbLine
 10
6438.044203708188
 20
-2111.648636954456
 30
0.0
 11
6437.919203823659
 21
-2111.648636954456
 31
0.0
  0
LINE
  5
109267
330
18
100
AcDbEntity
  8
ｺﾈｸﾀ
100
AcDbLine
 10
6438.044203708188
 20
-2111.648636954456
 30
0.0
 11
6438.200453852525
 21
-2111.919269954456
 31
0.0
  0
LINE
  5
109268
330
18
100
AcDbEntity
  8
ｺﾈｸﾀ
100
AcDbLine
 10
6438.262953679322
 20
-2111.919269954456
 30
0.0
 11
6438.419203823659
 21
-2111.648636954456
 31
0.0
  0
LINE
  5
109269
330
18
100
AcDbEntity
  8
ｺﾈｸﾀ
100
AcDbLine
 10
6437.762953679319
 20
-2111.919269954456
 30
0.0
 11
6437.919203823659
 21
-2111.648636954456
 31
0.0
  0
LINE
  5
10926A
330
18
100
AcDbEntity
  8
ｺﾈｸﾀ
100
AcDbLine
 10
6435.169203823659
 20
-2107.764206444995
 30
0.0
 11
6435.169203823659
 21
-2106.929269954458
 31
0.0
  0
LINE
  5
10926B
330
18
100
AcDbEntity
  8
ｺﾈｸﾀ
100
AcDbLine
 10
6433.669203823659
 20
-2107.764206444995
 30
0.0
 11
6433.669203823659
 21
-2106.929269954458
 31
0.0
  0
LINE
  5
10926C
330
18
100
AcDbEntity
  8
ｺﾈｸﾀ
100
AcDbLine
 10
6433.669203823659
 20
-2107.764206444995
 30
0.0
 11
6435.169203823659
 21
-2107.764206444995
 31
0.0
  0
LINE
  5
10926D
330
18
100
AcDbEntity
  8
ｺﾈｸﾀ
100
AcDbLine
 10
6435.169203823659
 20
-2106.094333463917
 30
0.0
 11
6433.669203823659
 21
-2106.094333463921
 31
0.0
  0
LINE
  5
10926E
330
18
100
AcDbEntity
  8
ｺﾈｸﾀ
100
AcDbLine
 10
6433.669203823659
 20
-2106.929269954458
 30
0.0
 11
6433.669203823659
 21
-2106.094333463921
 31
0.0
  0
LINE
  5
10926F
330
18
100
AcDbEntity
  8
ｺﾈｸﾀ
100
AcDbLine
 10
6435.169203823659
 20
-2106.929269954458
 30
0.0
 11
6435.169203823659
 21
-2106.094333463917
 31
0.0
  0
LINE
  5
109270
330
18
100
AcDbEntity
  8
ｺﾈｸﾀ
100
AcDbLine
 10
6436.294203708188
 20
-2102.209902954456
 30
0.0
 11
6435.869203823659
 21
-2102.209902954456
 31
0.0
  0
LINE
  5
109271
330
18
100
AcDbEntity
  8
ｺﾈｸﾀ
100
AcDbLine
 10
6435.169203823659
 20
-2102.264206444995
 30
0.0
 11
6433.669203823659
 21
-2102.264206444995
 31
0.0
  0
ARC
  5
109272
330
18
100
AcDbEntity
  8
ｺﾈｸﾀ
100
AcDbCircle
 10
6435.869203823659
 20
-2102.009902954456
 30
0.0
 40
0.2000000000000028
100
AcDbArc
 50
180.0
 51
270.0
  0
LINE
  5
109273
330
18
100
AcDbEntity
  8
ｺﾈｸﾀ
100
AcDbLine
 10
6435.669203823659
 20
-2101.929269954458
 30
0.0
 11
6435.669203823659
 21
-2102.139269954457
 31
0.0
  0
LINE
  5
109274
330
18
100
AcDbEntity
  8
ｺﾈｸﾀ
100
AcDbLine
 10
6437.669203823659
 20
-2102.209902954456
 30
0.0
 11
6437.794203708188
 21
-2102.209902954456
 31
0.0
  0
ARC
  5
109275
330
18
100
AcDbEntity
  8
ｺﾈｸﾀ
100
AcDbCircle
 10
6436.481703765923
 20
-2101.957312112948
 30
0.0
 40
0.0360842981141831
100
AcDbArc
 50
30.00001729739401
 51
149.999982702606
  0
ARC
  5
109276
330
18
100
AcDbEntity
  8
ｺﾈｸﾀ
100
AcDbCircle
 10
6436.981703765923
 20
-2101.957312112948
 30
0.0
 40
0.0360842981141831
100
AcDbArc
 50
30.00001729739401
 51
149.999982702606
  0
ARC
  5
109277
330
18
100
AcDbEntity
  8
ｺﾈｸﾀ
100
AcDbCircle
 10
6437.481703765923
 20
-2101.957312112948
 30
0.0
 40
0.0360842981141831
100
AcDbArc
 50
30.00001729739401
 51
149.999982702606
  0
LINE
  5
109278
330
18
100
AcDbEntity
  8
ｺﾈｸﾀ
100
AcDbLine
 10
6436.450453852525
 20
-2101.939269954456
 30
0.0
 11
6436.294203708188
 21
-2102.209902954456
 31
0.0
  0
LINE
  5
109279
330
18
100
AcDbEntity
  8
ｺﾈｸﾀ
100
AcDbLine
 10
6436.669203823659
 20
-2102.209902954456
 30
0.0
 11
6436.512953679322
 21
-2101.939269954456
 31
0.0
  0
LINE
  5
10927A
330
18
100
AcDbEntity
  8
ｺﾈｸﾀ
100
AcDbLine
 10
6436.669203823659
 20
-2102.209902954456
 30
0.0
 11
6436.794203708188
 21
-2102.209902954456
 31
0.0
  0
LINE
  5
10927B
330
18
100
AcDbEntity
  8
ｺﾈｸﾀ
100
AcDbLine
 10
6436.669203823659
 20
-2102.209902954456
 30
0.0
 11
6436.794203708188
 21
-2102.209902954456
 31
0.0
  0
LINE
  5
10927C
330
18
100
AcDbEntity
  8
ｺﾈｸﾀ
100
AcDbLine
 10
6436.950453852525
 20
-2101.939269954456
 30
0.0
 11
6436.794203708188
 21
-2102.209902954456
 31
0.0
  0
LINE
  5
10927D
330
18
100
AcDbEntity
  8
ｺﾈｸﾀ
100
AcDbLine
 10
6437.169203823659
 20
-2102.209902954456
 30
0.0
 11
6437.012953679322
 21
-2101.939269954456
 31
0.0
  0
LINE
  5
10927E
330
18
100
AcDbEntity
  8
ｺﾈｸﾀ
100
AcDbLine
 10
6436.669203823659
 20
-2102.209902954456
 30
0.0
 11
6436.794203708188
 21
-2102.209902954456
 31
0.0
  0
LINE
  5
10927F
330
18
100
AcDbEntity
  8
ｺﾈｸﾀ
100
AcDbLine
 10
6437.169203823659
 20
-2102.209902954456
 30
0.0
 11
6437.294203708188
 21
-2102.209902954456
 31
0.0
  0
LINE
  5
109280
330
18
100
AcDbEntity
  8
ｺﾈｸﾀ
100
AcDbLine
 10
6437.450453852525
 20
-2101.939269954456
 30
0.0
 11
6437.294203708188
 21
-2102.209902954456
 31
0.0
  0
LINE
  5
109281
330
18
100
AcDbEntity
  8
ｺﾈｸﾀ
100
AcDbLine
 10
6437.669203823659
 20
-2102.209902954456
 30
0.0
 11
6437.512953679322
 21
-2101.939269954456
 31
0.0
  0
LINE
  5
109282
330
18
100
AcDbEntity
  8
ｺﾈｸﾀ
100
AcDbLine
 10
6437.169203823659
 20
-2102.209902954456
 30
0.0
 11
6437.294203708188
 21
-2102.209902954456
 31
0.0
  0
ARC
  5
109283
330
18
100
AcDbEntity
  8
ｺﾈｸﾀ
100
AcDbCircle
 10
6437.981703765923
 20
-2101.957312112948
 30
0.0
 40
0.0360842981141831
100
AcDbArc
 50
30.00001729739401
 51
149.999982702606
  0
ARC
  5
109284
330
18
100
AcDbEntity
  8
ｺﾈｸﾀ
100
AcDbCircle
 10
6438.481703765923
 20
-2101.957312112948
 30
0.0
 40
0.0360842981141831
100
AcDbArc
 50
30.00001729739401
 51
149.999982702606
  0
ARC
  5
109285
330
18
100
AcDbEntity
  8
ｺﾈｸﾀ
100
AcDbCircle
 10
6438.981703765923
 20
-2101.957312112948
 30
0.0
 40
0.0360842981133093
100
AcDbArc
 50
30.00001729166936
 51
149.9999827083307
  0
LINE
  5
109286
330
18
100
AcDbEntity
  8
ｺﾈｸﾀ
100
AcDbLine
 10
6437.950453852525
 20
-2101.939269954456
 30
0.0
 11
6437.794203708188
 21
-2102.209902954456
 31
0.0
  0
LINE
  5
109287
330
18
100
AcDbEntity
  8
ｺﾈｸﾀ
100
AcDbLine
 10
6438.169203823659
 20
-2102.209902954456
 30
0.0
 11
6438.012953679322
 21
-2101.939269954456
 31
0.0
  0
LINE
  5
109288
330
18
100
AcDbEntity
  8
ｺﾈｸﾀ
100
AcDbLine
 10
6438.450453852525
 20
-2101.939269954456
 30
0.0
 11
6438.294203708188
 21
-2102.209902954456
 31
0.0
  0
LINE
  5
109289
330
18
100
AcDbEntity
  8
ｺﾈｸﾀ
100
AcDbLine
 10
6438.669203823659
 20
-2102.209902954456
 30
0.0
 11
6438.512953679322
 21
-2101.939269954456
 31
0.0
  0
LINE
  5
10928A
330
18
100
AcDbEntity
  8
ｺﾈｸﾀ
100
AcDbLine
 10
6438.169203823659
 20
-2102.209902954456
 30
0.0
 11
6438.294203708188
 21
-2102.209902954456
 31
0.0
  0
LINE
  5
10928B
330
18
100
AcDbEntity
  8
ｺﾈｸﾀ
100
AcDbLine
 10
6438.950453852525
 20
-2101.939269954456
 30
0.0
 11
6438.794203708188
 21
-2102.209902954456
 31
0.0
  0
LINE
  5
10928C
330
18
100
AcDbEntity
  8
ｺﾈｸﾀ
100
AcDbLine
 10
6438.669203823659
 20
-2102.209902954456
 30
0.0
 11
6438.794203708188
 21
-2102.209902954456
 31
0.0
  0
LINE
  5
10928D
330
18
100
AcDbEntity
  8
ｺﾈｸﾀ
100
AcDbLine
 10
6439.071703823659
 20
-2102.041028118457
 30
0.0
 11
6439.012953679319
 21
-2101.939269954456
 31
0.0
  0
LINE
  5
10928E
330
18
100
AcDbEntity
  8
ｺﾈｸﾀ
100
AcDbLine
 10
6439.371703823657
 20
-2112.429269954458
 30
0.0
 11
6440.371703823659
 21
-2112.429269954458
 31
0.0
  0
LINE
  5
10928F
330
18
100
AcDbEntity
  8
ｺﾈｸﾀ
100
AcDbLine
 10
6439.371703823657
 20
-2111.594333463917
 30
0.0
 11
6439.371703823657
 21
-2112.429269954458
 31
0.0
  0
LINE
  5
109290
330
18
100
AcDbEntity
  8
ｺﾈｸﾀ
100
AcDbLine
 10
6439.371703823657
 20
-2106.929269954458
 30
0.0
 11
6439.371703823657
 21
-2107.764206444995
 31
0.0
  0
LINE
  5
109291
330
18
100
AcDbEntity
  8
ｺﾈｸﾀ
100
AcDbLine
 10
6439.371703823657
 20
-2106.094333463917
 30
0.0
 11
6439.371703823657
 21
-2106.929269954458
 31
0.0
  0
LINE
  5
109292
330
18
100
AcDbEntity
  8
ｺﾈｸﾀ
100
AcDbLine
 10
6445.869203823659
 20
-2101.429269954458
 30
0.0
 11
6445.869203823659
 21
-2102.264206444995
 31
0.0
  0
LINE
  5
109293
330
18
100
AcDbEntity
  8
ｺﾈｸﾀ
100
AcDbLine
 10
6439.071703823659
 20
-2101.729269954457
 30
0.0
 11
6439.371703823657
 21
-2101.429269954458
 31
0.0
  0
LINE
  5
109294
330
18
100
AcDbEntity
  8
ｺﾈｸﾀ
100
AcDbLine
 10
6433.669203823659
 20
-2102.264206444995
 30
0.0
 11
6433.669203823659
 21
-2101.429269954458
 31
0.0
  0
LINE
  5
109295
330
18
100
AcDbEntity
  8
ｺﾈｸﾀ
100
AcDbLine
 10
6435.169203823659
 20
-2101.429269954458
 30
0.0
 11
6435.669203823659
 21
-2101.929269954458
 31
0.0
  0
LINE
  5
109296
330
18
100
AcDbEntity
  8
ｺﾈｸﾀ
100
AcDbLine
 10
6435.169203823659
 20
-2101.429269954458
 30
0.0
 11
6435.169203823659
 21
-2102.264206444995
 31
0.0
  0
LINE
  5
109297
330
18
100
AcDbEntity
  8
ｺﾈｸﾀ
100
AcDbLine
 10
6439.371703823657
 20
-2101.429269954458
 30
0.0
 11
6439.371703823657
 21
-2102.264206444995
 31
0.0
  0
ARC
  5
109298
330
18
100
AcDbEntity
  8
細線
 48
0.5
100
AcDbCircle
 10
6454.02258897446
 20
-2105.304960322469
 30
0.0
 40
2.913419383267884
100
AcDbArc
 50
326.2170952834132
 51
33.91773284147655
  0
ARC
  5
109299
330
18
100
AcDbEntity
  8
細線
 48
0.5
100
AcDbCircle
 10
6454.011136002083
 20
-2108.549263378035
 30
0.0
 40
2.925332558086853
100
AcDbArc
 50
326.137306901927
 51
33.72822199306869
  0
ARC
  5
10929A
330
18
100
AcDbEntity
  8
細線
 48
0.5
100
AcDbCircle
 10
6458.89198401746
 20
-2108.554990966809
 30
0.0
 40
2.940959083827968
100
AcDbArc
 50
146.3408326041362
 51
213.5246962908707
  0
LINE
  5
10929B
330
18
100
AcDbEntity
  8
ｺﾈｸﾀ
100
AcDbLine
 10
6456.440259822832
 20
-2110.179271978895
 30
0.0
 11
6448.971703823659
 21
-2110.179269954458
 31
0.0
  0
LINE
  5
10929C
330
18
100
AcDbEntity
  8
ｺﾈｸﾀ
100
AcDbLine
 10
6456.440259823537
 20
-2103.679266572611
 30
0.0
 11
6448.971703823659
 21
-2103.679269954458
 31
0.0
  0
CIRCLE
  5
10929D
330
18
100
AcDbEntity
  8
ｷｬｯﾌﾟﾎﾞﾙﾄ
100
AcDbCircle
 10
5851.669958211473
 20
-2061.929269954452
 30
0.0
 40
3.0
  0
ARC
  5
10929E
330
18
100
AcDbEntity
  8
ｷｬｯﾌﾟﾎﾞﾙﾄ
100
AcDbCircle
 10
5852.145960505717
 20
-2062.753730112601
 30
0.0
 40
0.3170045884846654
100
AcDbArc
 50
74.65306140984192
 51
165.3469385903993
  0
CIRCLE
  5
10929F
330
18
100
AcDbEntity
  8
ｷｬｯﾌﾟﾎﾞﾙﾄ
100
AcDbCircle
 10
5851.669958211473
 20
-2061.929269954452
 30
0.0
 40
0.875
  0
ARC
  5
1092A0
330
18
100
AcDbEntity
  8
ｷｬｯﾌﾟﾎﾞﾙﾄ
100
AcDbCircle
 10
5852.276175994122
 20
-2062.27926995445
 30
0.0
 40
0.175
100
AcDbArc
 50
254.6530614094753
 51
45.34693859002846
  0
ARC
  5
1092A1
330
18
100
AcDbEntity
  8
ｷｬｯﾌﾟﾎﾞﾙﾄ
100
AcDbCircle
 10
5851.669958211472
 20
-2062.629269954452
 30
0.0
 40
0.175
100
AcDbArc
 50
194.6530614096484
 51
345.3469385904957
  0
ARC
  5
1092A2
330
18
100
AcDbEntity
  8
ｷｬｯﾌﾟﾎﾞﾙﾄ
100
AcDbCircle
 10
5851.193955917232
 20
-2062.7537301126
 30
0.0
 40
0.3170045884846654
100
AcDbArc
 50
14.65306140975972
 51
105.3469385901581
  0
ARC
  5
1092A3
330
18
100
AcDbEntity
  8
ｷｬｯﾌﾟﾎﾞﾙﾄ
100
AcDbCircle
 10
5850.71795362299
 20
-2061.929269954452
 30
0.0
 40
0.3170045884846654
100
AcDbArc
 50
314.6530614097114
 51
45.34693859028855
  0
ARC
  5
1092A4
330
18
100
AcDbEntity
  8
ｷｬｯﾌﾟﾎﾞﾙﾄ
100
AcDbCircle
 10
5851.193955917232
 20
-2061.104809796306
 30
0.0
 40
0.3170045884846654
100
AcDbArc
 50
254.6530614096834
 51
345.3469385903197
  0
ARC
  5
1092A5
330
18
100
AcDbEntity
  8
ｷｬｯﾌﾟﾎﾞﾙﾄ
100
AcDbCircle
 10
5852.145960505714
 20
-2061.104809796305
 30
0.0
 40
0.3170045884846654
100
AcDbArc
 50
194.6530614097597
 51
285.3469385901581
  0
ARC
  5
1092A6
330
18
100
AcDbEntity
  8
ｷｬｯﾌﾟﾎﾞﾙﾄ
100
AcDbCircle
 10
5852.621962799958
 20
-2061.929269954454
 30
0.0
 40
0.3170045884846654
100
AcDbArc
 50
134.6530614097115
 51
225.3469385902886
  0
ARC
  5
1092A7
330
18
100
AcDbEntity
  8
ｷｬｯﾌﾟﾎﾞﾙﾄ
100
AcDbCircle
 10
5852.276175994124
 20
-2061.579269954452
 30
0.0
 40
0.175
100
AcDbArc
 50
314.6530614096551
 51
105.3469385905247
  0
ARC
  5
1092A8
330
18
100
AcDbEntity
  8
ｷｬｯﾌﾟﾎﾞﾙﾄ
100
AcDbCircle
 10
5851.063740428825
 20
-2062.279269954453
 30
0.0
 40
0.175
100
AcDbArc
 50
134.6530614096551
 51
285.3469385901981
  0
ARC
  5
1092A9
330
18
100
AcDbEntity
  8
ｷｬｯﾌﾟﾎﾞﾙﾄ
100
AcDbCircle
 10
5851.063740428825
 20
-2061.579269954456
 30
0.0
 40
0.175
100
AcDbArc
 50
74.6530614094753
 51
225.3469385900285
  0
ARC
  5
1092AA
330
18
100
AcDbEntity
  8
ｷｬｯﾌﾟﾎﾞﾙﾄ
100
AcDbCircle
 10
5851.669958211476
 20
-2061.229269954455
 30
0.0
 40
0.175
100
AcDbArc
 50
14.65306140986774
 51
165.3469385899882
  0
CIRCLE
  5
1092AB
330
18
100
AcDbEntity
  8
ｷｬｯﾌﾟﾎﾞﾙﾄ
100
AcDbCircle
 10
6007.554530892678
 20
-2061.92926995446
 30
0.0
 40
3.0
  0
ARC
  5
1092AC
330
18
100
AcDbEntity
  8
ｷｬｯﾌﾟﾎﾞﾙﾄ
100
AcDbCircle
 10
6006.602526304193
 20
-2061.92926995446
 30
0.0
 40
0.3170045884846654
100
AcDbArc
 50
314.6530614097114
 51
45.34693859052101
  0
CIRCLE
  5
1092AD
330
18
100
AcDbEntity
  8
ｷｬｯﾌﾟﾎﾞﾙﾄ
100
AcDbCircle
 10
6007.554530892678
 20
-2061.92926995446
 30
0.0
 40
0.875
  0
ARC
  5
1092AE
330
18
100
AcDbEntity
  8
ｷｬｯﾌﾟﾎﾞﾙﾄ
100
AcDbCircle
 10
6006.948313110031
 20
-2062.27926995446
 30
0.0
 40
0.175
100
AcDbArc
 50
134.653061409234
 51
285.3469385901981
  0
ARC
  5
1092AF
330
18
100
AcDbEntity
  8
ｷｬｯﾌﾟﾎﾞﾙﾄ
100
AcDbCircle
 10
6006.948313110031
 20
-2061.579269954459
 30
0.0
 40
0.175
100
AcDbArc
 50
74.6530614094753
 51
225.3469385904496
  0
ARC
  5
1092B0
330
18
100
AcDbEntity
  8
ｷｬｯﾌﾟﾎﾞﾙﾄ
100
AcDbCircle
 10
6007.078528598436
 20
-2061.104809796313
 30
0.0
 40
0.3170045884846654
100
AcDbArc
 50
254.6530614098419
 51
345.3469385901608
  0
ARC
  5
1092B1
330
18
100
AcDbEntity
  8
ｷｬｯﾌﾟﾎﾞﾙﾄ
100
AcDbCircle
 10
6008.030533186921
 20
-2061.104809796313
 30
0.0
 40
0.3170045884846654
100
AcDbArc
 50
194.6530614097597
 51
285.3469385903166
  0
ARC
  5
1092B2
330
18
100
AcDbEntity
  8
ｷｬｯﾌﾟﾎﾞﾙﾄ
100
AcDbCircle
 10
6008.506535481163
 20
-2061.929269954459
 30
0.0
 40
0.3170045884846654
100
AcDbArc
 50
134.653061409479
 51
225.346938590521
  0
ARC
  5
1092B3
330
18
100
AcDbEntity
  8
ｷｬｯﾌﾟﾎﾞﾙﾄ
100
AcDbCircle
 10
6008.030533186921
 20
-2062.753730112605
 30
0.0
 40
0.3170045884846654
100
AcDbArc
 50
74.6530614096834
 51
165.3469385900812
  0
ARC
  5
1092B4
330
18
100
AcDbEntity
  8
ｷｬｯﾌﾟﾎﾞﾙﾄ
100
AcDbCircle
 10
6007.078528598435
 20
-2062.753730112606
 30
0.0
 40
0.3170045884846654
100
AcDbArc
 50
14.65306140975972
 51
105.3469385901581
  0
ARC
  5
1092B5
330
18
100
AcDbEntity
  8
ｷｬｯﾌﾟﾎﾞﾙﾄ
100
AcDbCircle
 10
6007.554530892679
 20
-2062.629269954461
 30
0.0
 40
0.175
100
AcDbArc
 50
194.6530614096484
 51
345.3469385903518
  0
ARC
  5
1092B6
330
18
100
AcDbEntity
  8
ｷｬｯﾌﾟﾎﾞﾙﾄ
100
AcDbCircle
 10
6007.554530892678
 20
-2061.22926995446
 30
0.0
 40
0.175
100
AcDbArc
 50
14.65306140979241
 51
165.3469385902076
  0
ARC
  5
1092B7
330
18
100
AcDbEntity
  8
ｷｬｯﾌﾟﾎﾞﾙﾄ
100
AcDbCircle
 10
6008.160748675326
 20
-2061.579269954457
 30
0.0
 40
0.175
100
AcDbArc
 50
314.6530614095504
 51
105.3469385901981
  0
ARC
  5
1092B8
330
18
100
AcDbEntity
  8
ｷｬｯﾌﾟﾎﾞﾙﾄ
100
AcDbCircle
 10
6008.160748675325
 20
-2062.27926995446
 30
0.0
 40
0.175
100
AcDbArc
 50
254.6530614097624
 51
45.34693859002846
  0
CIRCLE
  5
1092B9
330
18
100
AcDbEntity
  8
ｷｬｯﾌﾟﾎﾞﾙﾄ
100
AcDbCircle
 10
6007.554530892675
 20
-2151.929269954463
 30
0.0
 40
3.000000000000001
  0
ARC
  5
1092BA
330
18
100
AcDbEntity
  8
ｷｬｯﾌﾟﾎﾞﾙﾄ
100
AcDbCircle
 10
6007.078528598431
 20
-2151.104809796315
 30
0.0
 40
0.3170045884846655
100
AcDbArc
 50
254.6530614098419
 51
345.3469385903993
  0
CIRCLE
  5
1092BB
330
18
100
AcDbEntity
  8
ｷｬｯﾌﾟﾎﾞﾙﾄ
100
AcDbCircle
 10
6007.554530892675
 20
-2151.929269954463
 30
0.0
 40
0.8750000000000002
  0
ARC
  5
1092BC
330
18
100
AcDbEntity
  8
ｷｬｯﾌﾟﾎﾞﾙﾄ
100
AcDbCircle
 10
6006.948313110026
 20
-2151.579269954465
 30
0.0
 40
0.175
100
AcDbArc
 50
74.6530614094753
 51
225.3469385900285
  0
ARC
  5
1092BD
330
18
100
AcDbEntity
  8
ｷｬｯﾌﾟﾎﾞﾙﾄ
100
AcDbCircle
 10
6007.554530892676
 20
-2151.229269954464
 30
0.0
 40
0.175
100
AcDbArc
 50
14.65306140964837
 51
165.3469385904957
  0
ARC
  5
1092BE
330
18
100
AcDbEntity
  8
ｷｬｯﾌﾟﾎﾞﾙﾄ
100
AcDbCircle
 10
6008.030533186916
 20
-2151.104809796315
 30
0.0
 40
0.3170045884846655
100
AcDbArc
 50
194.6530614097597
 51
285.3469385901581
  0
ARC
  5
1092BF
330
18
100
AcDbEntity
  8
ｷｬｯﾌﾟﾎﾞﾙﾄ
100
AcDbCircle
 10
6008.50653548116
 20
-2151.929269954463
 30
0.0
 40
0.3170045884846655
100
AcDbArc
 50
134.6530614097115
 51
225.3469385902886
  0
ARC
  5
1092C0
330
18
100
AcDbEntity
  8
ｷｬｯﾌﾟﾎﾞﾙﾄ
100
AcDbCircle
 10
6008.030533186918
 20
-2152.75373011261
 30
0.0
 40
0.3170045884846655
100
AcDbArc
 50
74.6530614096834
 51
165.3469385903198
  0
ARC
  5
1092C1
330
18
100
AcDbEntity
  8
ｷｬｯﾌﾟﾎﾞﾙﾄ
100
AcDbCircle
 10
6007.078528598435
 20
-2152.75373011261
 30
0.0
 40
0.3170045884846655
100
AcDbArc
 50
14.65306140975972
 51
105.3469385901581
  0
ARC
  5
1092C2
330
18
100
AcDbEntity
  8
ｷｬｯﾌﾟﾎﾞﾙﾄ
100
AcDbCircle
 10
6006.602526304189
 20
-2151.929269954461
 30
0.0
 40
0.3170045884846655
100
AcDbArc
 50
314.6530614098862
 51
45.34693859011385
  0
ARC
  5
1092C3
330
18
100
AcDbEntity
  8
ｷｬｯﾌﾟﾎﾞﾙﾄ
100
AcDbCircle
 10
6006.948313110024
 20
-2152.279269954464
 30
0.0
 40
0.175
100
AcDbArc
 50
134.6530614096551
 51
285.3469385905247
  0
ARC
  5
1092C4
330
18
100
AcDbEntity
  8
ｷｬｯﾌﾟﾎﾞﾙﾄ
100
AcDbCircle
 10
6008.160748675323
 20
-2151.579269954462
 30
0.0
 40
0.175
100
AcDbArc
 50
314.6530614096551
 51
105.3469385901981
  0
ARC
  5
1092C5
330
18
100
AcDbEntity
  8
ｷｬｯﾌﾟﾎﾞﾙﾄ
100
AcDbCircle
 10
6008.160748675325
 20
-2152.27926995446
 30
0.0
 40
0.175
100
AcDbArc
 50
254.6530614094753
 51
45.34693859002846
  0
ARC
  5
1092C6
330
18
100
AcDbEntity
  8
ｷｬｯﾌﾟﾎﾞﾙﾄ
100
AcDbCircle
 10
6007.554530892672
 20
-2152.62926995446
 30
0.0
 40
0.175
100
AcDbArc
 50
194.6530614098677
 51
345.3469385899882
  0
CIRCLE
  5
1092C7
330
18
100
AcDbEntity
  8
ｷｬｯﾌﾟﾎﾞﾙﾄ
100
AcDbCircle
 10
5851.66995821147
 20
-2151.929269954456
 30
0.0
 40
3.0
  0
ARC
  5
1092C8
330
18
100
AcDbEntity
  8
ｷｬｯﾌﾟﾎﾞﾙﾄ
100
AcDbCircle
 10
5852.621962799955
 20
-2151.929269954456
 30
0.0
 40
0.3170045884846654
100
AcDbArc
 50
134.6530614097115
 51
225.346938590521
  0
CIRCLE
  5
1092C9
330
18
100
AcDbEntity
  8
ｷｬｯﾌﾟﾎﾞﾙﾄ
100
AcDbCircle
 10
5851.66995821147
 20
-2151.929269954456
 30
0.0
 40
0.875
  0
ARC
  5
1092CA
330
18
100
AcDbEntity
  8
ｷｬｯﾌﾟﾎﾞﾙﾄ
100
AcDbCircle
 10
5852.276175994117
 20
-2151.579269954455
 30
0.0
 40
0.175
100
AcDbArc
 50
314.653061409234
 51
105.3469385901981
  0
ARC
  5
1092CB
330
18
100
AcDbEntity
  8
ｷｬｯﾌﾟﾎﾞﾙﾄ
100
AcDbCircle
 10
5852.276175994118
 20
-2152.279269954457
 30
0.0
 40
0.175
100
AcDbArc
 50
254.6530614094753
 51
45.34693859044956
  0
ARC
  5
1092CC
330
18
100
AcDbEntity
  8
ｷｬｯﾌﾟﾎﾞﾙﾄ
100
AcDbCircle
 10
5852.145960505713
 20
-2152.753730112602
 30
0.0
 40
0.3170045884846654
100
AcDbArc
 50
74.6530614096834
 51
165.3469385901608
  0
ARC
  5
1092CD
330
18
100
AcDbEntity
  8
ｷｬｯﾌﾟﾎﾞﾙﾄ
100
AcDbCircle
 10
5851.193955917228
 20
-2152.753730112603
 30
0.0
 40
0.3170045884846654
100
AcDbArc
 50
14.65306140975972
 51
105.3469385903166
  0
ARC
  5
1092CE
330
18
100
AcDbEntity
  8
ｷｬｯﾌﾟﾎﾞﾙﾄ
100
AcDbCircle
 10
5850.717953622985
 20
-2151.929269954456
 30
0.0
 40
0.3170045884846654
100
AcDbArc
 50
314.6530614096537
 51
45.34693859034631
  0
ARC
  5
1092CF
330
18
100
AcDbEntity
  8
ｷｬｯﾌﾟﾎﾞﾙﾄ
100
AcDbCircle
 10
5851.193955917226
 20
-2151.10480979631
 30
0.0
 40
0.3170045884846654
100
AcDbArc
 50
254.6530614098419
 51
345.3469385900812
  0
ARC
  5
1092D0
330
18
100
AcDbEntity
  8
ｷｬｯﾌﾟﾎﾞﾙﾄ
100
AcDbCircle
 10
5852.145960505713
 20
-2151.10480979631
 30
0.0
 40
0.3170045884846654
100
AcDbArc
 50
194.6530614097597
 51
285.3469385901581
  0
ARC
  5
1092D1
330
18
100
AcDbEntity
  8
ｷｬｯﾌﾟﾎﾞﾙﾄ
100
AcDbCircle
 10
5851.66995821147
 20
-2151.229269954455
 30
0.0
 40
0.175
100
AcDbArc
 50
14.65306140964837
 51
165.3469385903516
  0
ARC
  5
1092D2
330
18
100
AcDbEntity
  8
ｷｬｯﾌﾟﾎﾞﾙﾄ
100
AcDbCircle
 10
5851.669958211471
 20
-2152.629269954455
 30
0.0
 40
0.175
100
AcDbArc
 50
194.6530614098677
 51
345.3469385901323
  0
ARC
  5
1092D3
330
18
100
AcDbEntity
  8
ｷｬｯﾌﾟﾎﾞﾙﾄ
100
AcDbCircle
 10
5851.063740428824
 20
-2152.279269954458
 30
0.0
 40
0.175
100
AcDbArc
 50
134.6530614095504
 51
285.3469385901981
  0
ARC
  5
1092D4
330
18
100
AcDbEntity
  8
ｷｬｯﾌﾟﾎﾞﾙﾄ
100
AcDbCircle
 10
5851.063740428825
 20
-2151.579269954456
 30
0.0
 40
0.175
100
AcDbArc
 50
74.65306140976246
 51
225.3469385900285
  0
CIRCLE
  5
1092D5
330
18
100
AcDbEntity
  8
ｷｬｯﾌﾟﾎﾞﾙﾄ
100
AcDbCircle
 10
5929.61224455207
 20
-2196.929269954461
 30
0.0
 40
3.0
  0
ARC
  5
1092D6
330
18
100
AcDbEntity
  8
ｷｬｯﾌﾟﾎﾞﾙﾄ
100
AcDbCircle
 10
5930.088246846313
 20
-2196.104809796313
 30
0.0
 40
0.3170045884846654
100
AcDbArc
 50
194.6530614097597
 51
285.3469385904968
  0
CIRCLE
  5
1092D7
330
18
100
AcDbEntity
  8
ｷｬｯﾌﾟﾎﾞﾙﾄ
100
AcDbCircle
 10
5929.61224455207
 20
-2196.929269954461
 30
0.0
 40
0.875
  0
ARC
  5
1092D8
330
18
100
AcDbEntity
  8
ｷｬｯﾌﾟﾎﾞﾙﾄ
100
AcDbCircle
 10
5929.612244552069
 20
-2196.229269954463
 30
0.0
 40
0.175
100
AcDbArc
 50
14.65306140936028
 51
165.3469385901323
  0
ARC
  5
1092D9
330
18
100
AcDbEntity
  8
ｷｬｯﾌﾟﾎﾞﾙﾄ
100
AcDbCircle
 10
5930.218462334719
 20
-2196.579269954463
 30
0.0
 40
0.175
100
AcDbArc
 50
314.6530614099715
 51
105.3469385902375
  0
ARC
  5
1092DA
330
18
100
AcDbEntity
  8
ｷｬｯﾌﾟﾎﾞﾙﾄ
100
AcDbCircle
 10
5930.564249140556
 20
-2196.92926995446
 30
0.0
 40
0.3170045884846654
100
AcDbArc
 50
134.6530614098862
 51
225.3469385901139
  0
ARC
  5
1092DB
330
18
100
AcDbEntity
  8
ｷｬｯﾌﾟﾎﾞﾙﾄ
100
AcDbCircle
 10
5930.088246846312
 20
-2197.753730112608
 30
0.0
 40
0.3170045884846654
100
AcDbArc
 50
74.6530614096834
 51
165.3469385902403
  0
ARC
  5
1092DC
330
18
100
AcDbEntity
  8
ｷｬｯﾌﾟﾎﾞﾙﾄ
100
AcDbCircle
 10
5929.136242257829
 20
-2197.753730112608
 30
0.0
 40
0.3170045884846654
100
AcDbArc
 50
14.65306140960069
 51
105.3469385903166
  0
ARC
  5
1092DD
330
18
100
AcDbEntity
  8
ｷｬｯﾌﾟﾎﾞﾙﾄ
100
AcDbCircle
 10
5928.660239963587
 20
-2196.929269954463
 30
0.0
 40
0.3170045884846654
100
AcDbArc
 50
314.6530614097114
 51
45.34693859011385
  0
ARC
  5
1092DE
330
18
100
AcDbEntity
  8
ｷｬｯﾌﾟﾎﾞﾙﾄ
100
AcDbCircle
 10
5929.13624225783
 20
-2196.104809796313
 30
0.0
 40
0.3170045884846654
100
AcDbArc
 50
254.6530614096834
 51
345.3469385901608
  0
ARC
  5
1092DF
330
18
100
AcDbEntity
  8
ｷｬｯﾌﾟﾎﾞﾙﾄ
100
AcDbCircle
 10
5929.00602676942
 20
-2196.579269954461
 30
0.0
 40
0.175
100
AcDbArc
 50
74.65306140976246
 51
225.3469385904496
  0
ARC
  5
1092E0
330
18
100
AcDbEntity
  8
ｷｬｯﾌﾟﾎﾞﾙﾄ
100
AcDbCircle
 10
5930.218462334719
 20
-2197.27926995446
 30
0.0
 40
0.175
100
AcDbArc
 50
254.653061410089
 51
45.34693859002846
  0
ARC
  5
1092E1
330
18
100
AcDbEntity
  8
ｷｬｯﾌﾟﾎﾞﾙﾄ
100
AcDbCircle
 10
5929.612244552074
 20
-2197.62926995446
 30
0.0
 40
0.175
100
AcDbArc
 50
194.6530614095043
 51
345.3469385901323
  0
ARC
  5
1092E2
330
18
100
AcDbEntity
  8
ｷｬｯﾌﾟﾎﾞﾙﾄ
100
AcDbCircle
 10
5929.006026769423
 20
-2197.279269954458
 30
0.0
 40
0.175
100
AcDbArc
 50
134.6530614096551
 51
285.346938589911
  0
LINE
  5
1092E3
330
18
100
AcDbEntity
  8
中心線
 48
0.5
100
AcDbLine
 10
5929.61224455207
 20
-2191.511463406359
 30
0.0
 11
5929.61224455207
 21
-2202.347076502564
 31
0.0
  0
CIRCLE
  5
1092E4
330
18
100
AcDbEntity
  8
ｷｬｯﾌﾟﾎﾞﾙﾄ
100
AcDbCircle
 10
5929.612244552079
 20
-2016.929269954454
 30
0.0
 40
3.0
  0
ARC
  5
1092E5
330
18
100
AcDbEntity
  8
ｷｬｯﾌﾟﾎﾞﾙﾄ
100
AcDbCircle
 10
5929.136242257836
 20
-2017.753730112602
 30
0.0
 40
0.3170045884846654
100
AcDbArc
 50
14.65306140975972
 51
105.3469385904969
  0
CIRCLE
  5
1092E6
330
18
100
AcDbEntity
  8
ｷｬｯﾌﾟﾎﾞﾙﾄ
100
AcDbCircle
 10
5929.612244552079
 20
-2016.929269954454
 30
0.0
 40
0.875
  0
ARC
  5
1092E7
330
18
100
AcDbEntity
  8
ｷｬｯﾌﾟﾎﾞﾙﾄ
100
AcDbCircle
 10
5929.61224455208
 20
-2017.629269954453
 30
0.0
 40
0.175
100
AcDbArc
 50
194.6530614093603
 51
345.3469385901323
  0
ARC
  5
1092E8
330
18
100
AcDbEntity
  8
ｷｬｯﾌﾟﾎﾞﾙﾄ
100
AcDbCircle
 10
5929.00602676943
 20
-2017.279269954453
 30
0.0
 40
0.175
100
AcDbArc
 50
134.6530614099192
 51
285.3469385902179
  0
ARC
  5
1092E9
330
18
100
AcDbEntity
  8
ｷｬｯﾌﾟﾎﾞﾙﾄ
100
AcDbCircle
 10
5928.660239963594
 20
-2016.929269954456
 30
0.0
 40
0.3170045884846654
100
AcDbArc
 50
314.6530614096826
 51
45.34693859028855
  0
ARC
  5
1092EA
330
18
100
AcDbEntity
  8
ｷｬｯﾌﾟﾎﾞﾙﾄ
100
AcDbCircle
 10
5929.136242257837
 20
-2016.104809796307
 30
0.0
 40
0.3170045884846654
100
AcDbArc
 50
254.6530614096725
 51
345.3469385902403
  0
ARC
  5
1092EB
330
18
100
AcDbEntity
  8
ｷｬｯﾌﾟﾎﾞﾙﾄ
100
AcDbCircle
 10
5930.088246846321
 20
-2016.104809796307
 30
0.0
 40
0.3170045884846654
100
AcDbArc
 50
194.6530614096007
 51
285.3469385903275
  0
ARC
  5
1092EC
330
18
100
AcDbEntity
  8
ｷｬｯﾌﾟﾎﾞﾙﾄ
100
AcDbCircle
 10
5930.564249140562
 20
-2016.929269954453
 30
0.0
 40
0.3170045884846654
100
AcDbArc
 50
134.6530614096826
 51
225.3469385901139
  0
ARC
  5
1092ED
330
18
100
AcDbEntity
  8
ｷｬｯﾌﾟﾎﾞﾙﾄ
100
AcDbCircle
 10
5930.08824684632
 20
-2017.753730112602
 30
0.0
 40
0.3170045884846654
100
AcDbArc
 50
74.65306140967253
 51
165.3469385901608
  0
ARC
  5
1092EE
330
18
100
AcDbEntity
  8
ｷｬｯﾌﾟﾎﾞﾙﾄ
100
AcDbCircle
 10
5930.218462334728
 20
-2017.279269954455
 30
0.0
 40
0.175
100
AcDbArc
 50
254.6530614097822
 51
45.34693859044956
  0
ARC
  5
1092EF
330
18
100
AcDbEntity
  8
ｷｬｯﾌﾟﾎﾞﾙﾄ
100
AcDbCircle
 10
5929.00602676943
 20
-2016.579269954456
 30
0.0
 40
0.175
100
AcDbArc
 50
74.65306141008902
 51
225.3469385900285
  0
ARC
  5
1092F0
330
18
100
AcDbEntity
  8
ｷｬｯﾌﾟﾎﾞﾙﾄ
100
AcDbCircle
 10
5929.612244552076
 20
-2016.229269954455
 30
0.0
 40
0.175
100
AcDbArc
 50
14.65306140957635
 51
165.3469385902796
  0
ARC
  5
1092F1
330
18
100
AcDbEntity
  8
ｷｬｯﾌﾟﾎﾞﾙﾄ
100
AcDbCircle
 10
5930.218462334727
 20
-2016.579269954457
 30
0.0
 40
0.175
100
AcDbArc
 50
314.6530614096027
 51
105.346938589911
  0
LINE
  5
1092F2
330
18
100
AcDbEntity
  8
中心線
 48
0.5
100
AcDbLine
 10
5929.612244552079
 20
-2022.347076502557
 30
0.0
 11
5929.612244552079
 21
-2011.511463406351
 31
0.0
  0
CIRCLE
  5
1092F3
330
18
100
AcDbEntity
  8
ｷｬｯﾌﾟﾎﾞﾙﾄ
100
AcDbCircle
 10
6309.245870950634
 20
-2180.377692789105
 30
0.0
 40
2.999999999999999
  0
ARC
  5
1092F4
330
18
100
AcDbEntity
  8
ｷｬｯﾌﾟﾎﾞﾙﾄ
100
AcDbCircle
 10
6310.001146970882
 20
-2179.798149115396
 30
0.0
 40
0.3170045884846653
100
AcDbArc
 50
172.1530614097817
 51
262.8469385904169
  0
CIRCLE
  5
1092F5
330
18
100
AcDbEntity
  8
ｷｬｯﾌﾟﾎﾞﾙﾄ
100
AcDbCircle
 10
6309.245870950634
 20
-2180.377692789105
 30
0.0
 40
0.8749999999999997
  0
ARC
  5
1092F6
330
18
100
AcDbEntity
  8
ｷｬｯﾌﾟﾎﾞﾙﾄ
100
AcDbCircle
 10
6309.513749353287
 20
-2179.730977116348
 30
0.0
 40
0.1749999999999999
100
AcDbArc
 50
352.1530614093537
 51
142.8469385902881
  0
ARC
  5
1092F7
330
18
100
AcDbEntity
  8
ｷｬｯﾌﾟﾎﾞﾙﾄ
100
AcDbCircle
 10
6309.939882353595
 20
-2180.286324454553
 30
0.0
 40
0.1749999999999999
100
AcDbArc
 50
292.153061409547
 51
82.84693859039372
  0
ARC
  5
1092F8
330
18
100
AcDbEntity
  8
ｷｬｯﾌﾟﾎﾞﾙﾄ
100
AcDbCircle
 10
6310.125408504791
 20
-2180.742009172653
 30
0.0
 40
0.3170045884846653
100
AcDbArc
 50
112.1530614097203
 51
202.8469385900551
  0
ARC
  5
1092F9
330
18
100
AcDbEntity
  8
ｷｬｯﾌﾟﾎﾞﾙﾄ
100
AcDbCircle
 10
6309.370132484544
 20
-2181.321552846362
 30
0.0
 40
0.3170045884846653
100
AcDbArc
 50
52.1530614096603
 51
142.84693859017
  0
ARC
  5
1092FA
330
18
100
AcDbEntity
  8
ｷｬｯﾌﾟﾎﾞﾙﾄ
100
AcDbCircle
 10
6308.490594930387
 20
-2180.957236462814
 30
0.0
 40
0.3170045884846653
100
AcDbArc
 50
352.1530614095373
 51
82.84693859041694
  0
ARC
  5
1092FB
330
18
100
AcDbEntity
  8
ｷｬｯﾌﾟﾎﾞﾙﾄ
100
AcDbCircle
 10
6308.366333396476
 20
-2180.013376405557
 30
0.0
 40
0.3170045884846653
100
AcDbArc
 50
292.1530614097203
 51
22.84693859005507
  0
ARC
  5
1092FC
330
18
100
AcDbEntity
  8
ｷｬｯﾌﾟﾎﾞﾙﾄ
100
AcDbCircle
 10
6309.121609416724
 20
-2179.433832731848
 30
0.0
 40
0.3170045884846653
100
AcDbArc
 50
232.1530614096603
 51
322.8469385901699
  0
ARC
  5
1092FD
330
18
100
AcDbEntity
  8
ｷｬｯﾌﾟﾎﾞﾙﾄ
100
AcDbCircle
 10
6308.819737950325
 20
-2179.822345450901
 30
0.0
 40
0.1749999999999999
100
AcDbArc
 50
52.15306140966905
 51
202.8469385904234
  0
ARC
  5
1092FE
330
18
100
AcDbEntity
  8
ｷｬｯﾌﾟﾎﾞﾙﾄ
100
AcDbCircle
 10
6309.672003950939
 20
-2180.933040127308
 30
0.0
 40
0.1749999999999999
100
AcDbArc
 50
232.1530614099955
 51
22.84693859001182
  0
ARC
  5
1092FF
330
18
100
AcDbEntity
  8
ｷｬｯﾌﾟﾎﾞﾙﾄ
100
AcDbCircle
 10
6308.977992547981
 20
-2181.024408461863
 30
0.0
 40
0.1749999999999999
100
AcDbArc
 50
172.1530614095011
 51
322.8469385899896
  0
ARC
  5
109300
330
18
100
AcDbEntity
  8
ｷｬｯﾌﾟﾎﾞﾙﾄ
100
AcDbCircle
 10
6308.551859547673
 20
-2180.469061123657
 30
0.0
 40
0.1749999999999999
100
AcDbArc
 50
112.153061409879
 51
262.8469385900796
  0
CIRCLE
  5
109301
330
18
100
AcDbEntity
  8
ｷｬｯﾌﾟﾎﾞﾙﾄ
100
AcDbCircle
 10
6370.092536696682
 20
-2180.377692789105
 30
0.0
 40
2.999999999999999
  0
ARC
  5
109302
330
18
100
AcDbEntity
  8
ｷｬｯﾌﾟﾎﾞﾙﾄ
100
AcDbCircle
 10
6370.216798230595
 20
-2179.433832731847
 30
0.0
 40
0.3170045884846653
100
AcDbArc
 50
217.1530614096652
 51
307.8469385903396
  0
CIRCLE
  5
109303
330
18
100
AcDbEntity
  8
ｷｬｯﾌﾟﾎﾞﾙﾄ
100
AcDbCircle
 10
6370.092536696682
 20
-2180.377692789105
 30
0.0
 40
0.8749999999999997
  0
ARC
  5
109304
330
18
100
AcDbEntity
  8
ｷｬｯﾌﾟﾎﾞﾙﾄ
100
AcDbCircle
 10
6369.824658294026
 20
-2179.730977116349
 30
0.0
 40
0.1749999999999999
100
AcDbArc
 50
37.15306140917609
 51
187.8469385902039
  0
ARC
  5
109305
330
18
100
AcDbEntity
  8
ｷｬｯﾌﾟﾎﾞﾙﾄ
100
AcDbCircle
 10
6370.518669696989
 20
-2179.822345450903
 30
0.0
 40
0.1749999999999999
100
AcDbArc
 50
337.1530614097138
 51
127.846938590331
  0
ARC
  5
109306
330
18
100
AcDbEntity
  8
ｷｬｯﾌﾟﾎﾞﾙﾄ
100
AcDbCircle
 10
6370.97207425084
 20
-2180.013376405556
 30
0.0
 40
0.3170045884846653
100
AcDbArc
 50
157.1530614097934
 51
247.8469385900965
  0
ARC
  5
109307
330
18
100
AcDbEntity
  8
ｷｬｯﾌﾟﾎﾞﾙﾄ
100
AcDbCircle
 10
6370.847812716929
 20
-2180.957236462814
 30
0.0
 40
0.3170045884846653
100
AcDbArc
 50
97.15306140974619
 51
187.8469385902183
  0
ARC
  5
109308
330
18
100
AcDbEntity
  8
ｷｬｯﾌﾟﾎﾞﾙﾄ
100
AcDbCircle
 10
6369.968275162772
 20
-2181.321552846363
 30
0.0
 40
0.3170045884846653
100
AcDbArc
 50
37.15306140959973
 51
127.8469385903397
  0
ARC
  5
109309
330
18
100
AcDbEntity
  8
ｷｬｯﾌﾟﾎﾞﾙﾄ
100
AcDbCircle
 10
6369.212999142525
 20
-2180.742009172655
 30
0.0
 40
0.3170045884846653
100
AcDbArc
 50
337.1530614097934
 51
67.84693859009644
  0
ARC
  5
10930A
330
18
100
AcDbEntity
  8
ｷｬｯﾌﾟﾎﾞﾙﾄ
100
AcDbCircle
 10
6369.337260676437
 20
-2179.798149115395
 30
0.0
 40
0.3170045884846653
100
AcDbArc
 50
277.1530614097462
 51
7.846938590136922
  0
ARC
  5
10930B
330
18
100
AcDbEntity
  8
ｷｬｯﾌﾟﾎﾞﾙﾄ
100
AcDbCircle
 10
6369.39852529372
 20
-2180.286324454552
 30
0.0
 40
0.1749999999999999
100
AcDbArc
 50
97.15306140960628
 51
247.8469385904529
  0
ARC
  5
10930C
330
18
100
AcDbEntity
  8
ｷｬｯﾌﾟﾎﾞﾙﾄ
100
AcDbCircle
 10
6370.786548099643
 20
-2180.469061123659
 30
0.0
 40
0.1749999999999999
100
AcDbArc
 50
277.1530614099203
 51
67.84693859012103
  0
ARC
  5
10930D
330
18
100
AcDbEntity
  8
ｷｬｯﾌﾟﾎﾞﾙﾄ
100
AcDbCircle
 10
6370.360415099341
 20
-2181.024408461861
 30
0.0
 40
0.1749999999999999
100
AcDbArc
 50
217.1530614095933
 51
7.84693859020391
  0
ARC
  5
10930E
330
18
100
AcDbEntity
  8
ｷｬｯﾌﾟﾎﾞﾙﾄ
100
AcDbCircle
 10
6369.666403696377
 20
-2180.933040127306
 30
0.0
 40
0.1749999999999999
100
AcDbArc
 50
157.1530614097138
 51
307.8469385900045
  0
CIRCLE
  5
10930F
330
18
100
AcDbEntity
  8
ｷｬｯﾌﾟﾎﾞﾙﾄ
100
AcDbCircle
 10
6266.220780989011
 20
-2137.352602827483
 30
0.0
 40
2.999999999999999
  0
ARC
  5
109310
330
18
100
AcDbEntity
  8
ｷｬｯﾌﾟﾎﾞﾙﾄ
100
AcDbCircle
 10
6267.16464104627
 20
-2137.476864361394
 30
0.0
 40
0.3170045884846653
100
AcDbArc
 50
127.1530614098955
 51
217.8469385904046
  0
CIRCLE
  5
109311
330
18
100
AcDbEntity
  8
ｷｬｯﾌﾟﾎﾞﾙﾄ
100
AcDbCircle
 10
6266.220780989011
 20
-2137.352602827483
 30
0.0
 40
0.8749999999999997
  0
ARC
  5
109312
330
18
100
AcDbEntity
  8
ｷｬｯﾌﾟﾎﾞﾙﾄ
100
AcDbCircle
 10
6266.867496661766
 20
-2137.084724424826
 30
0.0
 40
0.1749999999999999
100
AcDbArc
 50
307.1530614095932
 51
97.84693859003609
  0
ARC
  5
109313
330
18
100
AcDbEntity
  8
ｷｬｯﾌﾟﾎﾞﾙﾄ
100
AcDbCircle
 10
6266.776128327214
 20
-2137.778735827789
 30
0.0
 40
0.1749999999999999
100
AcDbArc
 50
247.1530614097138
 51
37.84693859033096
  0
ARC
  5
109314
330
18
100
AcDbEntity
  8
ｷｬｯﾌﾟﾎﾞﾙﾄ
100
AcDbCircle
 10
6266.585097372561
 20
-2138.23214038164
 30
0.0
 40
0.3170045884846653
100
AcDbArc
 50
67.15306140983726
 51
157.8469385901275
  0
ARC
  5
109315
330
18
100
AcDbEntity
  8
ｷｬｯﾌﾟﾎﾞﾙﾄ
100
AcDbCircle
 10
6265.641237315303
 20
-2138.107878847729
 30
0.0
 40
0.3170045884846653
100
AcDbArc
 50
7.153061409746169
 51
97.84693859013692
  0
ARC
  5
109316
330
18
100
AcDbEntity
  8
ｷｬｯﾌﾟﾎﾞﾙﾄ
100
AcDbCircle
 10
6265.276920931754
 20
-2137.228341293572
 30
0.0
 40
0.3170045884846653
100
AcDbArc
 50
307.1530614094846
 51
37.8469385903397
  0
ARC
  5
109317
330
18
100
AcDbEntity
  8
ｷｬｯﾌﾟﾎﾞﾙﾄ
100
AcDbCircle
 10
6265.856464605462
 20
-2136.473065273325
 30
0.0
 40
0.3170045884846653
100
AcDbArc
 50
247.1530614096858
 51
337.8469385901274
  0
ARC
  5
109318
330
18
100
AcDbEntity
  8
ｷｬｯﾌﾟﾎﾞﾙﾄ
100
AcDbCircle
 10
6266.80032466272
 20
-2136.597326807236
 30
0.0
 40
0.3170045884846653
100
AcDbArc
 50
187.1530614097462
 51
277.8469385901369
  0
ARC
  5
109319
330
18
100
AcDbEntity
  8
ｷｬｯﾌﾟﾎﾞﾙﾄ
100
AcDbCircle
 10
6266.312149323565
 20
-2136.658591424519
 30
0.0
 40
0.1749999999999999
100
AcDbArc
 50
7.153061409624812
 51
157.846938590453
  0
ARC
  5
10931A
330
18
100
AcDbEntity
  8
ｷｬｯﾌﾟﾎﾞﾙﾄ
100
AcDbCircle
 10
6266.129412654457
 20
-2138.046614230443
 30
0.0
 40
0.1749999999999999
100
AcDbArc
 50
187.1530614099202
 51
337.8469385901772
  0
ARC
  5
10931B
330
18
100
AcDbEntity
  8
ｷｬｯﾌﾟﾎﾞﾙﾄ
100
AcDbCircle
 10
6265.574065316255
 20
-2137.62048123014
 30
0.0
 40
0.1749999999999999
100
AcDbArc
 50
127.1530614095933
 51
277.8469385900361
  0
ARC
  5
10931C
330
18
100
AcDbEntity
  8
ｷｬｯﾌﾟﾎﾞﾙﾄ
100
AcDbCircle
 10
6265.665433650811
 20
-2136.926469827176
 30
0.0
 40
0.1749999999999999
100
AcDbArc
 50
67.15306140971379
 51
217.8469385899131
  0
CIRCLE
  5
10931D
330
18
100
AcDbEntity
  8
ｷｬｯﾌﾟﾎﾞﾙﾄ
100
AcDbCircle
 10
6266.220780989011
 20
-2076.505937081433
 30
0.0
 40
2.999999999999999
  0
ARC
  5
10931E
330
18
100
AcDbEntity
  8
ｷｬｯﾌﾟﾎﾞﾙﾄ
100
AcDbCircle
 10
6266.80032466272
 20
-2077.261213101681
 30
0.0
 40
0.3170045884846653
100
AcDbArc
 50
82.15306140968902
 51
172.846938590417
  0
CIRCLE
  5
10931F
330
18
100
AcDbEntity
  8
ｷｬｯﾌﾟﾎﾞﾙﾄ
100
AcDbCircle
 10
6266.220780989011
 20
-2076.505937081433
 30
0.0
 40
0.8749999999999997
  0
ARC
  5
109320
330
18
100
AcDbEntity
  8
ｷｬｯﾌﾟﾎﾞﾙﾄ
100
AcDbCircle
 10
6266.867496661767
 20
-2076.773815484086
 30
0.0
 40
0.1749999999999999
100
AcDbArc
 50
262.1530614093537
 51
52.84693859007948
  0
ARC
  5
109321
330
18
100
AcDbEntity
  8
ｷｬｯﾌﾟﾎﾞﾙﾄ
100
AcDbCircle
 10
6266.312149323564
 20
-2077.199948484394
 30
0.0
 40
0.1749999999999999
100
AcDbArc
 50
202.1530614096849
 51
352.8469385902275
  0
ARC
  5
109322
330
18
100
AcDbEntity
  8
ｷｬｯﾌﾟﾎﾞﾙﾄ
100
AcDbCircle
 10
6265.856464605464
 20
-2077.385474635591
 30
0.0
 40
0.3170045884846653
100
AcDbArc
 50
22.1530614097203
 51
112.8469385901308
  0
ARC
  5
109323
330
18
100
AcDbEntity
  8
ｷｬｯﾌﾟﾎﾞﾙﾄ
100
AcDbCircle
 10
6265.276920931754
 20
-2076.630198615344
 30
0.0
 40
0.3170045884846653
100
AcDbArc
 50
322.1530614097252
 51
52.84693859028513
  0
ARC
  5
109324
330
18
100
AcDbEntity
  8
ｷｬｯﾌﾟﾎﾞﾙﾄ
100
AcDbCircle
 10
6265.641237315302
 20
-2075.750661061186
 30
0.0
 40
0.3170045884846653
100
AcDbArc
 50
262.1530614095262
 51
352.8469385903354
  0
ARC
  5
109325
330
18
100
AcDbEntity
  8
ｷｬｯﾌﾟﾎﾞﾙﾄ
100
AcDbCircle
 10
6266.585097372558
 20
-2075.626399527275
 30
0.0
 40
0.3170045884846653
100
AcDbArc
 50
202.1530614097964
 51
292.8469385901308
  0
ARC
  5
109326
330
18
100
AcDbEntity
  8
ｷｬｯﾌﾟﾎﾞﾙﾄ
100
AcDbCircle
 10
6267.164641046268
 20
-2076.381675547523
 30
0.0
 40
0.3170045884846653
100
AcDbArc
 50
142.1530614097252
 51
232.846938590285
  0
ARC
  5
109327
330
18
100
AcDbEntity
  8
ｷｬｯﾌﾟﾎﾞﾙﾄ
100
AcDbCircle
 10
6266.776128327215
 20
-2076.079804081126
 30
0.0
 40
0.1749999999999999
100
AcDbArc
 50
322.153061409669
 51
112.8469385906184
  0
ARC
  5
109328
330
18
100
AcDbEntity
  8
ｷｬｯﾌﾟﾎﾞﾙﾄ
100
AcDbCircle
 10
6265.665433650807
 20
-2076.932070081739
 30
0.0
 40
0.1749999999999999
100
AcDbArc
 50
142.1530614097866
 51
292.8469385902862
  0
ARC
  5
109329
330
18
100
AcDbEntity
  8
ｷｬｯﾌﾟﾎﾞﾙﾄ
100
AcDbCircle
 10
6265.574065316253
 20
-2076.238058678781
 30
0.0
 40
0.1749999999999999
100
AcDbArc
 50
82.15306140964861
 51
232.8469385900795
  0
ARC
  5
10932A
330
18
100
AcDbEntity
  8
ｷｬｯﾌﾟﾎﾞﾙﾄ
100
AcDbCircle
 10
6266.12941265446
 20
-2075.811925678474
 30
0.0
 40
0.1749999999999999
100
AcDbArc
 50
22.15306140993513
 51
172.846938589932
  0
CIRCLE
  5
10932B
330
18
100
AcDbEntity
  8
ｷｬｯﾌﾟﾎﾞﾙﾄ
100
AcDbCircle
 10
6309.245870950634
 20
-2033.48084711981
 30
0.0
 40
2.999999999999999
  0
ARC
  5
10932C
330
18
100
AcDbEntity
  8
ｷｬｯﾌﾟﾎﾞﾙﾄ
100
AcDbCircle
 10
6309.121609416721
 20
-2034.424707177069
 30
0.0
 40
0.3170045884846653
100
AcDbArc
 50
37.15306140969799
 51
127.8469385903649
  0
CIRCLE
  5
10932D
330
18
100
AcDbEntity
  8
ｷｬｯﾌﾟﾎﾞﾙﾄ
100
AcDbCircle
 10
6309.245870950634
 20
-2033.48084711981
 30
0.0
 40
0.8749999999999997
  0
ARC
  5
10932E
330
18
100
AcDbEntity
  8
ｷｬｯﾌﾟﾎﾞﾙﾄ
100
AcDbCircle
 10
6309.513749353289
 20
-2034.127562792566
 30
0.0
 40
0.1749999999999999
100
AcDbArc
 50
217.1530614095339
 51
7.84693859020391
  0
ARC
  5
10932F
330
18
100
AcDbEntity
  8
ｷｬｯﾌﾟﾎﾞﾙﾄ
100
AcDbCircle
 10
6308.819737950326
 20
-2034.036194458013
 30
0.0
 40
0.1749999999999999
100
AcDbArc
 50
157.1530614097138
 51
307.8469385903766
  0
ARC
  5
109330
330
18
100
AcDbEntity
  8
ｷｬｯﾌﾟﾎﾞﾙﾄ
100
AcDbCircle
 10
6308.366333396477
 20
-2033.84516350336
 30
0.0
 40
0.3170045884846653
100
AcDbArc
 50
337.1530614096918
 51
67.84693859011196
  0
ARC
  5
109331
330
18
100
AcDbEntity
  8
ｷｬｯﾌﾟﾎﾞﾙﾄ
100
AcDbCircle
 10
6308.490594930387
 20
-2032.901303446102
 30
0.0
 40
0.3170045884846653
100
AcDbArc
 50
277.1530614097513
 51
7.846938590218345
  0
ARC
  5
109332
330
18
100
AcDbEntity
  8
ｷｬｯﾌﾟﾎﾞﾙﾄ
100
AcDbCircle
 10
6309.370132484543
 20
-2032.536987062553
 30
0.0
 40
0.3170045884846653
100
AcDbArc
 50
217.1530614095997
 51
307.8469385903396
  0
ARC
  5
109333
330
18
100
AcDbEntity
  8
ｷｬｯﾌﾟﾎﾞﾙﾄ
100
AcDbCircle
 10
6310.12540850479
 20
-2033.116530736261
 30
0.0
 40
0.3170045884846653
100
AcDbArc
 50
157.1530614096917
 51
247.8469385901119
  0
ARC
  5
109334
330
18
100
AcDbEntity
  8
ｷｬｯﾌﾟﾎﾞﾙﾄ
100
AcDbCircle
 10
6310.00114697088
 20
-2034.06039079352
 30
0.0
 40
0.3170045884846653
100
AcDbArc
 50
97.1530614097513
 51
187.8469385901369
  0
ARC
  5
109335
330
18
100
AcDbEntity
  8
ｷｬｯﾌﾟﾎﾞﾙﾄ
100
AcDbCircle
 10
6309.939882353597
 20
-2033.572215454364
 30
0.0
 40
0.1749999999999999
100
AcDbArc
 50
277.1530614096155
 51
67.84693859045295
  0
ARC
  5
109336
330
18
100
AcDbEntity
  8
ｷｬｯﾌﾟﾎﾞﾙﾄ
100
AcDbCircle
 10
6308.551859547672
 20
-2033.389478785257
 30
0.0
 40
0.1749999999999999
100
AcDbArc
 50
97.15306140991099
 51
247.846938590121
  0
ARC
  5
109337
330
18
100
AcDbEntity
  8
ｷｬｯﾌﾟﾎﾞﾙﾄ
100
AcDbCircle
 10
6308.977992547975
 20
-2032.834131447055
 30
0.0
 40
0.1749999999999999
100
AcDbArc
 50
37.15306140959327
 51
187.8469385902039
  0
ARC
  5
109338
330
18
100
AcDbEntity
  8
ｷｬｯﾌﾟﾎﾞﾙﾄ
100
AcDbCircle
 10
6309.672003950939
 20
-2032.92549978161
 30
0.0
 40
0.1749999999999999
100
AcDbArc
 50
337.1530614097138
 51
127.8469385900045
  0
CIRCLE
  5
109339
330
18
100
AcDbEntity
  8
ｷｬｯﾌﾟﾎﾞﾙﾄ
100
AcDbCircle
 10
6370.092536696682
 20
-2033.48084711981
 30
0.0
 40
2.999999999999999
  0
ARC
  5
10933A
330
18
100
AcDbEntity
  8
ｷｬｯﾌﾟﾎﾞﾙﾄ
100
AcDbCircle
 10
6369.337260676434
 20
-2034.060390793519
 30
0.0
 40
0.3170045884846653
100
AcDbArc
 50
352.1530614097816
 51
82.84693859041694
  0
CIRCLE
  5
10933B
330
18
100
AcDbEntity
  8
ｷｬｯﾌﾟﾎﾞﾙﾄ
100
AcDbCircle
 10
6370.092536696682
 20
-2033.48084711981
 30
0.0
 40
0.8749999999999997
  0
ARC
  5
10933C
330
18
100
AcDbEntity
  8
ｷｬｯﾌﾟﾎﾞﾙﾄ
100
AcDbCircle
 10
6369.824658294029
 20
-2034.127562792568
 30
0.0
 40
0.1749999999999999
100
AcDbArc
 50
172.1530614093536
 51
322.8469385903474
  0
ARC
  5
10933D
330
18
100
AcDbEntity
  8
ｷｬｯﾌﾟﾎﾞﾙﾄ
100
AcDbCircle
 10
6369.398525293722
 20
-2033.572215454363
 30
0.0
 40
0.1749999999999999
100
AcDbArc
 50
112.153061409879
 51
262.8469385900891
  0
ARC
  5
10933E
330
18
100
AcDbEntity
  8
ｷｬｯﾌﾟﾎﾞﾙﾄ
100
AcDbCircle
 10
6369.212999142524
 20
-2033.116530736263
 30
0.0
 40
0.3170045884846653
100
AcDbArc
 50
292.1530614097203
 51
22.84693859005507
  0
ARC
  5
10933F
330
18
100
AcDbEntity
  8
ｷｬｯﾌﾟﾎﾞﾙﾄ
100
AcDbCircle
 10
6369.968275162772
 20
-2032.536987062553
 30
0.0
 40
0.3170045884846653
100
AcDbArc
 50
232.1530614098657
 51
322.846938590302
  0
ARC
  5
109340
330
18
100
AcDbEntity
  8
ｷｬｯﾌﾟﾎﾞﾙﾄ
100
AcDbCircle
 10
6370.847812716929
 20
-2032.901303446102
 30
0.0
 40
0.3170045884846653
100
AcDbArc
 50
172.1530614095374
 51
262.8469385904169
  0
ARC
  5
109341
330
18
100
AcDbEntity
  8
ｷｬｯﾌﾟﾎﾞﾙﾄ
100
AcDbCircle
 10
6370.972074250841
 20
-2033.845163503358
 30
0.0
 40
0.3170045884846653
100
AcDbArc
 50
112.153061409888
 51
202.8469385900551
  0
ARC
  5
109342
330
18
100
AcDbEntity
  8
ｷｬｯﾌﾟﾎﾞﾙﾄ
100
AcDbCircle
 10
6370.216798230593
 20
-2034.424707177068
 30
0.0
 40
0.3170045884846653
100
AcDbArc
 50
52.15306140984054
 51
142.846938590302
  0
ARC
  5
109343
330
18
100
AcDbEntity
  8
ｷｬｯﾌﾟﾎﾞﾙﾄ
100
AcDbCircle
 10
6370.51866969699
 20
-2034.036194458015
 30
0.0
 40
0.1749999999999999
100
AcDbArc
 50
232.1530614096234
 51
22.84693859042344
  0
ARC
  5
109344
330
18
100
AcDbEntity
  8
ｷｬｯﾌﾟﾎﾞﾙﾄ
100
AcDbCircle
 10
6369.666403696377
 20
-2032.925499781608
 30
0.0
 40
0.1749999999999999
100
AcDbArc
 50
52.15306140994986
 51
202.8469385900804
  0
ARC
  5
109345
330
18
100
AcDbEntity
  8
ｷｬｯﾌﾟﾎﾞﾙﾄ
100
AcDbCircle
 10
6370.360415099335
 20
-2032.834131447052
 30
0.0
 40
0.1749999999999999
100
AcDbArc
 50
352.153061409501
 51
142.8469385900489
  0
ARC
  5
109346
330
18
100
AcDbEntity
  8
ｷｬｯﾌﾟﾎﾞﾙﾄ
100
AcDbCircle
 10
6370.786548099642
 20
-2033.389478785259
 30
0.0
 40
0.1749999999999999
100
AcDbArc
 50
292.1530614098789
 51
82.84693858978427
  0
CIRCLE
  5
109347
330
18
100
AcDbEntity
  8
ｷｬｯﾌﾟﾎﾞﾙﾄ
100
AcDbCircle
 10
6413.117626658305
 20
-2076.505937081433
 30
0.0
 40
2.999999999999999
  0
ARC
  5
109348
330
18
100
AcDbEntity
  8
ｷｬｯﾌﾟﾎﾞﾙﾄ
100
AcDbCircle
 10
6412.173766601047
 20
-2076.381675547522
 30
0.0
 40
0.3170045884846653
100
AcDbArc
 50
307.1530614097148
 51
37.84693859057036
  0
CIRCLE
  5
109349
330
18
100
AcDbEntity
  8
ｷｬｯﾌﾟﾎﾞﾙﾄ
100
AcDbCircle
 10
6413.117626658305
 20
-2076.505937081433
 30
0.0
 40
0.8749999999999997
  0
ARC
  5
10934A
330
18
100
AcDbEntity
  8
ｷｬｯﾌﾟﾎﾞﾙﾄ
100
AcDbCircle
 10
6412.470910985549
 20
-2076.77381548409
 30
0.0
 40
0.1749999999999999
100
AcDbArc
 50
127.153061409266
 51
277.8469385903514
  0
ARC
  5
10934B
330
18
100
AcDbEntity
  8
ｷｬｯﾌﾟﾎﾞﾙﾄ
100
AcDbCircle
 10
6412.562279320103
 20
-2076.079804081127
 30
0.0
 40
0.1749999999999999
100
AcDbArc
 50
67.15306140971379
 51
217.846938590331
  0
ARC
  5
10934C
330
18
100
AcDbEntity
  8
ｷｬｯﾌﾟﾎﾞﾙﾄ
100
AcDbCircle
 10
6412.753310274756
 20
-2075.626399527276
 30
0.0
 40
0.3170045884846653
100
AcDbArc
 50
247.1530614096858
 51
337.8469385901274
  0
ARC
  5
10934D
330
18
100
AcDbEntity
  8
ｷｬｯﾌﾟﾎﾞﾙﾄ
100
AcDbCircle
 10
6413.697170332013
 20
-2075.750661061186
 30
0.0
 40
0.3170045884846653
100
AcDbArc
 50
187.1530614097462
 51
277.846938590311
  0
ARC
  5
10934E
330
18
100
AcDbEntity
  8
ｷｬｯﾌﾟﾎﾞﾙﾄ
100
AcDbCircle
 10
6414.061486715563
 20
-2076.630198615344
 30
0.0
 40
0.3170045884846653
100
AcDbArc
 50
127.1530614096652
 51
217.8469385903397
  0
ARC
  5
10934F
330
18
100
AcDbEntity
  8
ｷｬｯﾌﾟﾎﾞﾙﾄ
100
AcDbCircle
 10
6413.481943041855
 20
-2077.38547463559
 30
0.0
 40
0.3170045884846653
100
AcDbArc
 50
67.15306140983726
 51
157.8469385901275
  0
ARC
  5
109350
330
18
100
AcDbEntity
  8
ｷｬｯﾌﾟﾎﾞﾙﾄ
100
AcDbCircle
 10
6412.538082984595
 20
-2077.261213101679
 30
0.0
 40
0.3170045884846653
100
AcDbArc
 50
7.153061409746169
 51
97.84693859013692
  0
ARC
  5
109351
330
18
100
AcDbEntity
  8
ｷｬｯﾌﾟﾎﾞﾙﾄ
100
AcDbCircle
 10
6413.026258323752
 20
-2077.199948484396
 30
0.0
 40
0.1749999999999999
100
AcDbArc
 50
187.1530614096248
 51
337.846938590453
  0
ARC
  5
109352
330
18
100
AcDbEntity
  8
ｷｬｯﾌﾟﾎﾞﾙﾄ
100
AcDbCircle
 10
6413.208994992859
 20
-2075.811925678472
 30
0.0
 40
0.1749999999999999
100
AcDbArc
 50
7.153061409920268
 51
157.8469385901772
  0
ARC
  5
109353
330
18
100
AcDbEntity
  8
ｷｬｯﾌﾟﾎﾞﾙﾄ
100
AcDbCircle
 10
6413.764342331062
 20
-2076.238058678776
 30
0.0
 40
0.1749999999999999
100
AcDbArc
 50
307.1530614095932
 51
97.8469385903514
  0
ARC
  5
109354
330
18
100
AcDbEntity
  8
ｷｬｯﾌﾟﾎﾞﾙﾄ
100
AcDbCircle
 10
6413.672973996506
 20
-2076.93207008174
 30
0.0
 40
0.1749999999999999
100
AcDbArc
 50
247.1530614097138
 51
37.84693859009582
  0
CIRCLE
  5
109355
330
18
100
AcDbEntity
  8
ｷｬｯﾌﾟﾎﾞﾙﾄ
100
AcDbCircle
 10
6413.117626658305
 20
-2137.352602827483
 30
0.0
 40
2.999999999999999
  0
ARC
  5
109356
330
18
100
AcDbEntity
  8
ｷｬｯﾌﾟﾎﾞﾙﾄ
100
AcDbCircle
 10
6412.538082984596
 20
-2136.597326807235
 30
0.0
 40
0.3170045884846653
100
AcDbArc
 50
262.1530614098631
 51
352.8469385904169
  0
CIRCLE
  5
109357
330
18
100
AcDbEntity
  8
ｷｬｯﾌﾟﾎﾞﾙﾄ
100
AcDbCircle
 10
6413.117626658305
 20
-2137.352602827483
 30
0.0
 40
0.8749999999999997
  0
ARC
  5
109358
330
18
100
AcDbEntity
  8
ｷｬｯﾌﾟﾎﾞﾙﾄ
100
AcDbCircle
 10
6412.470910985548
 20
-2137.084724424829
 30
0.0
 40
0.1749999999999999
100
AcDbArc
 50
82.1530614093536
 51
232.8469385904067
  0
ARC
  5
109359
330
18
100
AcDbEntity
  8
ｷｬｯﾌﾟﾎﾞﾙﾄ
100
AcDbCircle
 10
6413.026258323753
 20
-2136.658591424522
 30
0.0
 40
0.1749999999999999
100
AcDbArc
 50
22.15306140982284
 51
172.8469385902275
  0
ARC
  5
10935A
330
18
100
AcDbEntity
  8
ｷｬｯﾌﾟﾎﾞﾙﾄ
100
AcDbCircle
 10
6413.481943041854
 20
-2136.473065273324
 30
0.0
 40
0.3170045884846653
100
AcDbArc
 50
202.1530614097203
 51
292.8469385899792
  0
ARC
  5
10935B
330
18
100
AcDbEntity
  8
ｷｬｯﾌﾟﾎﾞﾙﾄ
100
AcDbCircle
 10
6414.061486715563
 20
-2137.228341293571
 30
0.0
 40
0.3170045884846653
100
AcDbArc
 50
142.153061409891
 51
232.8469385901045
  0
ARC
  5
10935C
330
18
100
AcDbEntity
  8
ｷｬｯﾌﾟﾎﾞﾙﾄ
100
AcDbCircle
 10
6413.697170332014
 20
-2138.107878847729
 30
0.0
 40
0.3170045884846653
100
AcDbArc
 50
82.15306140952616
 51
172.8469385903354
  0
ARC
  5
10935D
330
18
100
AcDbEntity
  8
ｷｬｯﾌﾟﾎﾞﾙﾄ
100
AcDbCircle
 10
6412.753310274757
 20
-2138.232140381641
 30
0.0
 40
0.3170045884846653
100
AcDbArc
 50
22.15306140979642
 51
112.8469385899793
  0
ARC
  5
10935E
330
18
100
AcDbEntity
  8
ｷｬｯﾌﾟﾎﾞﾙﾄ
100
AcDbCircle
 10
6412.173766601048
 20
-2137.476864361392
 30
0.0
 40
0.3170045884846653
100
AcDbArc
 50
322.1530614097252
 51
52.84693859028513
  0
ARC
  5
10935F
330
18
100
AcDbEntity
  8
ｷｬｯﾌﾟﾎﾞﾙﾄ
100
AcDbCircle
 10
6412.562279320102
 20
-2137.77873582779
 30
0.0
 40
0.1749999999999999
100
AcDbArc
 50
142.1530614096691
 51
292.8469385902862
  0
ARC
  5
109360
330
18
100
AcDbEntity
  8
ｷｬｯﾌﾟﾎﾞﾙﾄ
100
AcDbCircle
 10
6413.672973996509
 20
-2136.926469827177
 30
0.0
 40
0.1749999999999999
100
AcDbArc
 50
322.1530614097866
 51
112.846938589954
  0
ARC
  5
109361
330
18
100
AcDbEntity
  8
ｷｬｯﾌﾟﾎﾞﾙﾄ
100
AcDbCircle
 10
6413.764342331064
 20
-2137.620481230135
 30
0.0
 40
0.1749999999999999
100
AcDbArc
 50
262.1530614093537
 51
52.84693859040674
  0
ARC
  5
109362
330
18
100
AcDbEntity
  8
ｷｬｯﾌﾟﾎﾞﾙﾄ
100
AcDbCircle
 10
6413.208994992857
 20
-2138.046614230442
 30
0.0
 40
0.1749999999999999
100
AcDbArc
 50
202.1530614098228
 51
352.8469385899321
  0
LINE
  5
109363
330
18
100
AcDbEntity
  8
実線
  6
Continuous
100
AcDbLine
 10
6123.237449231812
 20
-2018.929269531142
 30
0.0
 11
6122.637449231814
 21
-2018.929269505581
 31
0.0
  0
LINE
  5
109364
330
18
100
AcDbEntity
  8
実線
  6
Continuous
100
AcDbLine
 10
6123.237447565146
 20
-2024.929270377774
 30
0.0
 11
6122.637447565146
 21
-2024.929270070003
 31
0.0
  0
LINE
  5
109365
330
18
100
AcDbEntity
  8
実線
  6
Continuous
100
AcDbLine
 10
6122.637449231814
 20
-2018.929269505581
 30
0.0
 11
6122.637447565146
 21
-2024.929270352213
 31
0.0
  0
LINE
  5
109366
330
18
100
AcDbEntity
  8
実線
  6
Continuous
100
AcDbLine
 10
6123.237449231812
 20
-2018.929269531142
 30
0.0
 11
6123.237447565146
 21
-2024.929270377774
 31
0.0
  0
LINE
  5
109367
330
18
100
AcDbEntity
  8
実線
  6
Continuous
100
AcDbLine
 10
6017.61224497539
 20
-2266.689047274537
 30
0.0
 11
6017.612245000951
 21
-2266.089047274539
 31
0.0
  0
LINE
  5
109368
330
18
100
AcDbEntity
  8
実線
  6
Continuous
100
AcDbLine
 10
6011.612244128757
 20
-2266.68904560787
 30
0.0
 11
6011.61224443653
 21
-2266.089045607872
 31
0.0
  0
LINE
  5
109369
330
18
100
AcDbEntity
  8
実線
  6
Continuous
100
AcDbLine
 10
6017.612245000951
 20
-2266.089047274539
 30
0.0
 11
6011.612244154318
 21
-2266.089045607872
 31
0.0
  0
LINE
  5
10936A
330
18
100
AcDbEntity
  8
実線
  6
Continuous
100
AcDbLine
 10
6017.61224497539
 20
-2266.689047274537
 30
0.0
 11
6011.612244128757
 21
-2266.68904560787
 31
0.0
  0
TEXT
  5
10936B
330
18
100
AcDbEntity
  8
文字
100
AcDbText
 10
6357.138762726716
 20
-2361.592091743465
 30
0.0
 40
6.0
  1
外形図（ABS）
 41
0.6
  7
まこ
100
AcDbText
  0
TEXT
  5
10936C
330
18
100
AcDbEntity
  8
文字
100
AcDbText
 10
6355.290313544727
 20
-2372.949998511312
 30
0.0
 40
7.0
  1
ＳＥ－８５６２０
 41
0.953
  7
まこ
100
AcDbText
  0
TEXT
  5
10936D
330
18
100
AcDbEntity
  8
文字
100
AcDbText
 10
6355.330023708617
 20
-2350.366922868888
 30
0.0
 40
3.2
  1
τDISCモータ FD180-75-FS（ABS）  FD18-621F05ENN
 41
0.42
  7
まこ
100
AcDbText
  0
TEXT
  5
10936E
330
18
100
AcDbEntity
  8
文字
  6
Continuous
100
AcDbText
 10
6355.015258156714
 20
-2342.959659901086
 30
0.0
 40
4.0
  1
２４８－３８２０
 41
0.625
100
AcDbText
  0
LINE
  5
10936F
330
18
100
AcDbEntity
  8
0
 62
     7
100
AcDbLine
 10
6193.63744873373
 20
-2183.492309188993
 30
0.0
 11
6193.637448733733
 21
-2169.492309188993
 31
0.0
  0
ARC
  5
109370
330
18
100
AcDbEntity
  8
0
 62
     7
100
AcDbCircle
 10
6193.137448733733
 20
-2169.492309188993
 30
0.0
 40
0.5
100
AcDbArc
 50
0.0
 51
90.0
  0
LINE
  5
109371
330
18
100
AcDbEntity
  8
0
 62
     7
100
AcDbLine
 10
6193.137448733733
 20
-2168.992309188993
 30
0.0
 11
6184.137448733733
 21
-2168.992309188993
 31
0.0
  0
ARC
  5
109372
330
18
100
AcDbEntity
  8
0
 62
     7
100
AcDbCircle
 10
6184.137448733733
 20
-2169.492309188993
 30
0.0
 40
0.5
100
AcDbArc
 50
90.0
 51
180.0
  0
LINE
  5
109373
330
18
100
AcDbEntity
  8
0
 62
     7
100
AcDbLine
 10
6183.637448733733
 20
-2169.492309188993
 30
0.0
 11
6183.637448733733
 21
-2183.492309188993
 31
0.0
  0
ARC
  5
109374
330
18
100
AcDbEntity
  8
0
 62
     7
100
AcDbCircle
 10
6184.137448733733
 20
-2183.492309188993
 30
0.0
 40
0.4999999999999961
100
AcDbArc
 50
180.0
 51
270.0
  0
LINE
  5
109375
330
18
100
AcDbEntity
  8
0
 62
     7
100
AcDbLine
 10
6184.137448733733
 20
-2183.992309188993
 30
0.0
 11
6193.13744873373
 21
-2183.992309188993
 31
0.0
  0
ARC
  5
109376
330
18
100
AcDbEntity
  8
0
 62
     7
100
AcDbCircle
 10
6193.13744873373
 20
-2183.492309188993
 30
0.0
 40
0.500000000000004
100
AcDbArc
 50
270.0
 51
0.0
  0
VIEWPORT
  5
1089EF
330
1089EB
100
AcDbEntity
 67
     1
  8
0
100
AcDbViewport
 10
0.0
 20
0.0
 30
0.0
 40
10.06011428571429
 41
5.712000000000002
 68
     1
 69
     1
 12
0.2028681645031725
 22
3.502640933077117
 13
0.0
 23
0.0
 14
0.5
 24
0.5
 15
0.0
 25
0.0
 16
0.0
 26
0.0
 36
1.0
 17
0.0
 27
0.0
 37
0.0
 42
50.0
 43
0.0
 44
0.0
 45
5.712000000000002
 50
0.0
 51
0.0
 72
   100
 90
   557168
  1

281
     0
 71
     1
 74
     0
110
0.0
120
0.0
130
0.0
111
1.0
121
0.0
131
0.0
112
0.0
122
1.0
132
0.0
 79
     0
146
0.0
170
     0
 61
     5
348
108AB4
292
     1
282
     1
141
0.0
142
0.0
 63
   256
361
109377
  0
VIEWPORT
  5
1089F0
102
{ACAD_XDICTIONARY
360
1089F1
102
}
330
1089EB
100
AcDbEntity
 67
     1
  8
0
100
AcDbViewport
 10
0.2028681645031725
 20
3.502640933077117
 30
0.0
 40
8.4
 41
5.600000000000001
 68
     2
 69
     2
 12
6313.927445538416
 22
-2276.061175056102
 13
0.0
 23
0.0
 14
0.5
 24
0.5
 15
0.0
 25
0.0
 16
0.0
 26
0.0
 36
1.0
 17
-222.2712532578616
 27
46.98416735532146
 37
0.0
 42
50.0
 43
0.0
 44
0.0
 45
868.1086728547178
 50
0.0
 51
0.0
 72
   100
331
E
 90
   557168
  1

281
     0
 71
     1
 74
     0
110
0.0
120
0.0
130
0.0
111
1.0
121
0.0
131
0.0
112
0.0
122
1.0
132
0.0
 79
     0
146
0.0
170
     0
 61
     5
348
108AB4
292
     1
282
     1
141
0.0
142
0.0
 63
   256
361
109378
  0
ENDSEC
  0
SECTION
  2
OBJECTS
  0
DICTIONARY
  5
C
330
0
100
AcDbDictionary
281
     1
  3
ACAD_CIP_PREVIOUS_PRODUCT_INFO
350
886B3
  3
ACAD_DETAILVIEWSTYLE
350
88EA0
  3
ACAD_GROUP
350
D
  3
ACAD_IMAGE_VARS
350
9FBFE
  3
ACAD_LAYOUT
350
73F
  3
ACAD_MATERIAL
350
108AC8
  3
ACAD_MLEADERSTYLE
350
108ACE
  3
ACAD_MLINESTYLE
350
1B
  3
ACAD_PLOTSETTINGS
350
740
  3
ACAD_PLOTSTYLENAME
350
73D
  3
ACAD_SCALELIST
350
88696
  3
ACAD_SECTIONVIEWSTYLE
350
88E9D
  3
ACAD_TABLESTYLE
350
108ACC
  3
ACAD_VISUALSTYLE
350
108AAF
  3
AcadDim
350
A2915
  3
ACDB_RECOMPOSE_DATA
350
109382
  3
AcDbVariableDictionary
350
11AC
  3
AcStStandard
350
A1E91
  3
APPDATA
350
9FBFC
  3
DimOffsetDictionary
350
B8117
  3
FX_DICT_DIMENSION_PALETTE
350
1083F9
  0
SUN
  5
108AD0
330
8865F
100
AcDbSun
 90
        1
290
     0
 63
     7
421
 16777215
 40
1.0
291
     1
 91
  2455826
 92
 54000000
292
     0
 70
     2
 71
   256
280
     1
  0
DICTIONARY
  5
1E591
330
2
100
AcDbDictionary
280
     1
281
     1
  3
ACAD_LAYERSTATES
360
1E615
  3
ACLYDICTIONARY
360
1089F5
  0
DICTIONARY
  5
886FF
330
E
100
AcDbDictionary
280
     1
281
     1
  3
ADSK_XREC_LAYER_RECONCILED
360
88700
  0
DICTIONARY
  5
88707
330
8C6
100
AcDbDictionary
280
     1
281
     1
  3
ADSK_XREC_LAYER_RECONCILED
360
88708
  0
DICTIONARY
  5
8870D
330
96A
100
AcDbDictionary
280
     1
281
     1
  3
ADSK_XREC_LAYER_RECONCILED
360
8870E
  0
DICTIONARY
  5
8870F
330
1521
100
AcDbDictionary
280
     1
281
     1
  3
ADSK_XREC_LAYER_RECONCILED
360
88710
  0
DICTIONARY
  5
88713
330
1523
100
AcDbDictionary
280
     1
281
     1
  3
ADSK_XREC_LAYER_RECONCILED
360
88714
  0
DICTIONARY
  5
108AE1
330
108AE0
100
AcDbDictionary
280
     1
281
     1
  3
ADSK_XREC_LAYER_RECONCILED
360
108AE2
  0
DICTIONARY
  5
108AE4
330
108AE3
100
AcDbDictionary
280
     1
281
     1
  3
ADSK_XREC_LAYER_RECONCILED
360
108AE5
  0
DICTIONARY
  5
8A30F
330
18
100
AcDbDictionary
280
     1
281
     1
  3
ACAD_SORTENTS
360
9DD08
  0
DICTIONARY
  5
108B23
330
108B22
100
AcDbDictionary
280
     1
281
     1
  3
AcDbBlockTableRecordData
360
108B24
  0
DICTIONARY
  5
108B34
330
108B33
100
AcDbDictionary
280
     1
281
     1
  3
AcDbBlockTableRecordData
360
108B35
  0
SUN
  5
109377
330
1089EF
100
AcDbSun
 90
        1
290
     0
 63
     7
421
 16777215
 40
1.0
291
     1
 91
  2455826
 92
 54000000
292
     0
 70
     2
 71
   256
280
     1
  0
DICTIONARY
  5
1089F1
330
1089F0
100
AcDbDictionary
280
     1
281
     1
  3
ASDK_XREC_ANNOTATION_SCALE_INFO
360
1089F2
  0
SUN
  5
109378
330
1089F0
100
AcDbSun
 90
        1
290
     0
 63
     7
421
 16777215
 40
1.0
291
     1
 91
  2455826
 92
 54000000
292
     0
 70
     2
 71
   256
280
     1
  0
XRECORD
  5
886B3
102
{ACAD_REACTORS
330
C
102
}
330
C
100
AcDbXrecord
280
     1
300
ACDLT
300
2013
300
ACDLT_F_S
  0
DICTIONARY
  5
88EA0
102
{ACAD_REACTORS
330
C
102
}
330
C
100
AcDbDictionary
281
     1
  3
Imperial24
350
88EA1
  0
DICTIONARY
  5
D
102
{ACAD_REACTORS
330
C
102
}
330
C
100
AcDbDictionary
281
     1
  0
RASTERVARIABLES
  5
9FBFE
102
{ACAD_REACTORS
330
C
102
}
330
C
100
AcDbRasterVariables
 90
        0
 70
     1
 71
     1
 72
     0
  0
DICTIONARY
  5
73F
102
{ACAD_REACTORS
330
C
102
}
330
C
100
AcDbDictionary
281
     1
  3
Model
350
741
  3
Sheet1
350
1089EC
  0
DICTIONARY
  5
108AC8
102
{ACAD_REACTORS
330
C
102
}
330
C
100
AcDbDictionary
281
     1
  3
ByBlock
350
108ACA
  3
ByLayer
350
108AC9
  3
Global
350
108ACB
  0
DICTIONARY
  5
108ACE
102
{ACAD_REACTORS
330
C
102
}
330
C
100
AcDbDictionary
281
     1
  3
Standard
350
108ACF
  0
DICTIONARY
  5
1B
102
{ACAD_REACTORS
330
C
102
}
330
C
100
AcDbDictionary
281
     1
  3
STANDARD
350
1C
  0
DICTIONARY
  5
740
102
{ACAD_REACTORS
330
C
102
}
330
C
100
AcDbDictionary
281
     1
  0
ACDBDICTIONARYWDFLT
  5
73D
102
{ACAD_REACTORS
330
C
102
}
330
C
100
AcDbDictionary
281
     1
  3
Normal
350
73E
100
AcDbDictionaryWithDefault
340
73E
  0
DICTIONARY
  5
88696
102
{ACAD_REACTORS
330
C
102
}
330
C
100
AcDbDictionary
281
     1
  3
*A1
350
B34ED
  3
A0
350
88697
  3
A1
350
88698
  3
A2
350
88699
  3
A3
350
8869A
  3
A4
350
8869B
  3
A5
350
8869C
  3
A6
350
8869D
  3
A7
350
8869E
  3
A8
350
8869F
  3
A9
350
886A0
  3
B0
350
886A1
  3
B1
350
886A2
  3
B2
350
886A3
  3
B3
350
886A4
  3
B4
350
886A5
  3
B5
350
886A6
  3
B6
350
886A7
  0
DICTIONARY
  5
88E9D
102
{ACAD_REACTORS
330
C
102
}
330
C
100
AcDbDictionary
281
     1
  3
Imperial24
350
88E9F
  0
DICTIONARY
  5
108ACC
102
{ACAD_REACTORS
330
C
102
}
330
C
100
AcDbDictionary
281
     1
  3
Standard
350
108ACD
  0
DICTIONARY
  5
108AAF
102
{ACAD_REACTORS
330
C
102
}
330
C
100
AcDbDictionary
281
     1
  3
2dWireframe
350
108AB4
  3
Basic
350
108AB7
  3
Brighten
350
108ABB
  3
ColorChange
350
108ABF
  3
Conceptual
350
108AB9
  3
Dim
350
108ABA
  3
EdgeColorOff
350
108AC2
  3
Facepattern
350
108ABE
  3
Flat
350
108AB0
  3
FlatWithEdges
350
108AB1
  3
Gouraud
350
108AB2
  3
GouraudWithEdges
350
108AB3
  3
Hidden
350
108AB6
  3
JitterOff
350
108AC0
  3
Linepattern
350
108ABD
  3
OverhangOff
350
108AC1
  3
Realistic
350
108AB8
  3
Shaded
350
108AC7
  3
Shaded with edges
350
108AC6
  3
Shades of Gray
350
108AC3
  3
Sketchy
350
108AC4
  3
Thicken
350
108ABC
  3
Wireframe
350
108AB5
  3
X-Ray
350
108AC5
  0
XRECORD
  5
A2915
102
{ACAD_REACTORS
330
C
102
}
330
C
100
AcDbXrecord
280
     1
340
0
 72
     0
 71
     0
 70
     0
 69
     0
 68
     0
 67
     3
 66
     0
 65
     0
 64
     1
 63
     5
 62
     5
 61
     0
 60
     0
 40
0.0
  0
XRECORD
  5
109382
102
{ACAD_REACTORS
330
C
102
}
330
C
100
AcDbXrecord
280
     1
 90
        1
330
108ACD
  0
DICTIONARY
  5
11AC
102
{ACAD_REACTORS
330
C
102
}
330
C
100
AcDbDictionary
281
     1
  3
CANNOSCALE
350
109379
  3
CMLEADERSTYLE
350
10937E
  3
CTABLESTYLE
350
10937D
  3
DGNFRAME
350
A62D0
  3
DIMASSOC
350
11AD
  3
HIDETEXT
350
A62CF
  3
INDEXCTL
350
88912
  3
MSLTSCALE
350
10937F
  3
SORTENTS
350
AD08
  0
DICTIONARY
  5
A1E91
102
{ACAD_REACTORS
330
C
102
}
330
C
100
AcDbDictionary
281
     1
  0
DICTIONARY
  5
9FBFC
102
{ACAD_REACTORS
330
C
102
}
330
C
100
AcDbDictionary
281
     1
  0
DICTIONARY
  5
B8117
102
{ACAD_REACTORS
330
C
102
}
330
C
100
AcDbDictionary
281
     1
  3
DIMRAILANGLE
350
106A74
  3
DIMRAILFIRSTOFFSET
350
106A72
  3
DIMRAILOFFSET
350
106A73
  3
DIMRAILSENABLED
350
106A75
  0
DICTIONARY
  5
1083F9
102
{ACAD_REACTORS
330
C
102
}
330
C
100
AcDbDictionary
281
     1
  0
DICTIONARY
  5
1E615
102
{ACAD_REACTORS
330
1E591
102
}
330
1E591
100
AcDbDictionary
281
     1
  3
ARGON_LAYERP_7
350
A1F78
  3
ARGON_LAYERP_8
350
A133B
  0
DICTIONARY
  5
1089F5
102
{ACAD_REACTORS
330
1E591
102
}
330
1E591
100
AcDbDictionary
281
     1
1001
ACAD
1000
<All
  0
XRECORD
  5
88700
102
{ACAD_REACTORS
330
886FF
102
}
330
886FF
100
AcDbXrecord
280
     1
290
     1
  0
XRECORD
  5
88708
102
{ACAD_REACTORS
330
88707
102
}
330
88707
100
AcDbXrecord
280
     1
290
     1
  0
XRECORD
  5
8870E
102
{ACAD_REACTORS
330
8870D
102
}
330
8870D
100
AcDbXrecord
280
     1
290
     1
  0
XRECORD
  5
88710
102
{ACAD_REACTORS
330
8870F
102
}
330
8870F
100
AcDbXrecord
280
     1
290
     1
  0
XRECORD
  5
88714
102
{ACAD_REACTORS
330
88713
102
}
330
88713
100
AcDbXrecord
280
     1
290
     1
  0
XRECORD
  5
108AE2
102
{ACAD_REACTORS
330
108AE1
102
}
330
108AE1
100
AcDbXrecord
280
     1
290
     1
  0
XRECORD
  5
108AE5
102
{ACAD_REACTORS
330
108AE4
102
}
330
108AE4
100
AcDbXrecord
280
     1
290
     1
  0
SORTENTSTABLE
  5
9DD08
102
{ACAD_REACTORS
330
8A30F
102
}
330
8A30F
100
AcDbSortentsTable
330
18
331
0
  5
16EAD
  0
DICTIONARY
  5
108B24
102
{ACAD_REACTORS
330
108B23
102
}
330
108B23
100
AcDbDictionary
280
     1
281
     1
  0
DICTIONARY
  5
108B35
102
{ACAD_REACTORS
330
108B34
102
}
330
108B34
100
AcDbDictionary
280
     1
281
     1
  0
XRECORD
  5
1089F2
102
{ACAD_REACTORS
330
1089F1
102
}
330
1089F1
100
AcDbXrecord
280
     1
 90
        1
340
88697
  0
ACDBDETAILVIEWSTYLE
  5
88EA1
102
{ACAD_REACTORS
330
88EA0
102
}
330
88EA0
100
AcDbModelDocViewStyle
 70
     0
  3
Imperial24
290
     0
100
AcDbDetailViewStyle
 70
     0
 71
     0
 90
        3
 71
     1
340
F
 62
   256
 40
0.24
340
0
 62
   256
 40
0.24
300

 40
0.36
280
     3
 71
     2
340
14
 90
       25
 62
   256
 71
     3
340
F
 62
   256
 40
0.24
 90
        1
 40
0.75
 90
        1
300
%<\AcVar ViewType \f "%tc1">% %<\AcVar ViewDetailId>%\PSCALE %<\AcVar ViewScale \f "%sn">%
 71
     4
340
14
 90
       25
 62
   256
340
14
 90
       25
 62
   256
280
     0
  0
LAYOUT
  5
741
102
{ACAD_REACTORS
330
73F
102
}
330
73F
100
AcDbPlotSettings
  1

  2
none_device
  4
ANSI_A_(11.00_x_8.50_Inches)
  6

 40
6.35
 41
19.05
 42
6.35
 43
19.05
 44
279.4
 45
215.9
 46
0.0
 47
0.0
 48
0.0
 49
0.0
140
0.0
141
0.0
142
1.0
143
49.04005954388705
 70
 11952
 72
     0
 73
     0
 74
     0
  7
monochrome.ctb
 75
     0
 76
     0
 77
     2
 78
   300
147
0.0203914923697243
148
-146804.8404405152
149
71805.08602696969
100
AcDbLayout
  1
Model
 70
     1
 71
     0
 10
0.0
 20
0.0
 11
12.0
 21
9.0
 12
0.0
 22
0.0
 32
0.0
 14
5743.036793916191
 24
-2408.572008166943
 34
0.0
 15
6460.434031873806
 25
-2005.953553821388
 35
137.5
146
0.0
 13
0.0
 23
0.0
 33
0.0
 16
1.0
 26
0.0
 36
0.0
 17
0.0
 27
1.0
 37
0.0
 76
     0
330
18
331
8865F
  0
LAYOUT
  5
1089EC
102
{ACAD_REACTORS
330
73F
102
}
330
73F
100
AcDbPlotSettings
  1

  2
none_device
  4
ANSI_A_(11.00_x_8.50_Inches)
  6

 40
6.35
 41
19.05
 42
6.35
 43
19.05
 44
279.4
 45
215.9
 46
0.0
 47
0.0
 48
0.0
 49
0.0
140
0.0
141
0.0
142
1.0
143
1.0
 70
   688
 72
     0
 73
     0
 74
     5
  7

 75
    16
 76
     0
 77
     2
 78
   300
147
1.0
148
128.1971486216194
149
-0.06707970015878
100
AcDbLayout
  1
Sheet1
 70
     1
 71
     1
 10
-5.297131835496827
 20
-0.7473590669228828
 11
5.702868164503173
 21
7.752640933077117
 12
0.0
 22
0.0
 32
0.0
 14
-3.997131835496828
 24
0.7026409330771171
 34
0.0
 15
4.402868164503173
 25
6.302640933077118
 35
0.0
146
0.0
 13
0.0
 23
0.0
 33
0.0
 16
1.0
 26
0.0
 36
0.0
 17
0.0
 27
1.0
 37
0.0
 76
     0
330
1089EB
331
1089EF
  0
MATERIAL
  5
108ACA
102
{ACAD_REACTORS
330
108AC8
102
}
330
108AC8
100
AcDbMaterial
  1
ByBlock
 72
     1
 94
      127
  0
MATERIAL
  5
108AC9
102
{ACAD_REACTORS
330
108AC8
102
}
330
108AC8
100
AcDbMaterial
  1
ByLayer
 72
     1
 94
      127
  0
MATERIAL
  5
108ACB
102
{ACAD_REACTORS
330
108AC8
102
}
330
108AC8
100
AcDbMaterial
  1
Global
 72
     1
 94
      127
  0
MLEADERSTYLE
  5
108ACF
102
{ACAD_REACTORS
330
108ACE
102
}
330
108ACE
100
AcDbMLeaderStyle
179
     2
170
     2
171
     1
172
     0
 90
        2
 40
0.0
 41
0.0
173
     1
 91
-1056964608
340
12
 92
       -2
290
     1
 42
0.09
291
     1
 43
0.36
  3
Standard
341
0
 44
0.18
300

342
F
174
     1
178
     6
175
     1
176
     0
 93
-1056964608
 45
0.18
292
     0
297
     0
 46
0.18
343
0
 94
-1056964608
 47
1.0
 49
1.0
140
1.0
293
     1
141
0.0
294
     1
177
     0
142
1.0
295
     0
296
     0
143
0.125
271
     0
272
     9
273
     9
298
     0
  0
MLINESTYLE
  5
1C
102
{ACAD_REACTORS
330
1B
102
}
330
1B
100
AcDbMlineStyle
  2
STANDARD
 70
     0
  3

 62
   256
 51
90.0
 52
90.0
 71
     2
 49
0.5
 62
   256
  6
BYLAYER
 49
-0.5
 62
   256
  6
BYLAYER
  0
ACDBPLACEHOLDER
  5
73E
102
{ACAD_REACTORS
330
73D
102
}
330
73D
  0
SCALE
  5
B34ED
102
{ACAD_REACTORS
330
88696
102
}
330
88696
100
AcDbScale
 70
     0
300
1:1_XREF_XREF
140
1.0
141
1.0
290
     0
  0
SCALE
  5
88697
102
{ACAD_REACTORS
330
88696
102
}
330
88696
100
AcDbScale
 70
     0
300
1:1
140
1.0
141
1.0
290
     1
  0
SCALE
  5
88698
102
{ACAD_REACTORS
330
88696
102
}
330
88696
100
AcDbScale
 70
     0
300
1/128" = 1'-0"
140
0.0078125
141
12.0
290
     0
  0
SCALE
  5
88699
102
{ACAD_REACTORS
330
88696
102
}
330
88696
100
AcDbScale
 70
     0
300
1/64" = 1'-0"
140
0.015625
141
12.0
290
     0
  0
SCALE
  5
8869A
102
{ACAD_REACTORS
330
88696
102
}
330
88696
100
AcDbScale
 70
     0
300
1/32" = 1'-0"
140
0.03125
141
12.0
290
     0
  0
SCALE
  5
8869B
102
{ACAD_REACTORS
330
88696
102
}
330
88696
100
AcDbScale
 70
     0
300
1/16" = 1'-0"
140
0.0625
141
12.0
290
     0
  0
SCALE
  5
8869C
102
{ACAD_REACTORS
330
88696
102
}
330
88696
100
AcDbScale
 70
     0
300
3/32" = 1'-0"
140
0.09375
141
12.0
290
     0
  0
SCALE
  5
8869D
102
{ACAD_REACTORS
330
88696
102
}
330
88696
100
AcDbScale
 70
     0
300
1/8" = 1'-0"
140
0.125
141
12.0
290
     0
  0
SCALE
  5
8869E
102
{ACAD_REACTORS
330
88696
102
}
330
88696
100
AcDbScale
 70
     0
300
3/16" = 1'-0"
140
0.1875
141
12.0
290
     0
  0
SCALE
  5
8869F
102
{ACAD_REACTORS
330
88696
102
}
330
88696
100
AcDbScale
 70
     0
300
1/4" = 1'-0"
140
0.25
141
12.0
290
     0
  0
SCALE
  5
886A0
102
{ACAD_REACTORS
330
88696
102
}
330
88696
100
AcDbScale
 70
     0
300
3/8" = 1'-0"
140
0.375
141
12.0
290
     0
  0
SCALE
  5
886A1
102
{ACAD_REACTORS
330
88696
102
}
330
88696
100
AcDbScale
 70
     0
300
1/2" = 1'-0"
140
0.5
141
12.0
290
     0
  0
SCALE
  5
886A2
102
{ACAD_REACTORS
330
88696
102
}
330
88696
100
AcDbScale
 70
     0
300
3/4" = 1'-0"
140
0.75
141
12.0
290
     0
  0
SCALE
  5
886A3
102
{ACAD_REACTORS
330
88696
102
}
330
88696
100
AcDbScale
 70
     0
300
1" = 1'-0"
140
1.0
141
12.0
290
     0
  0
SCALE
  5
886A4
102
{ACAD_REACTORS
330
88696
102
}
330
88696
100
AcDbScale
 70
     0
300
1-1/2" = 1'-0"
140
1.5
141
12.0
290
     0
  0
SCALE
  5
886A5
102
{ACAD_REACTORS
330
88696
102
}
330
88696
100
AcDbScale
 70
     0
300
3" = 1'-0"
140
3.0
141
12.0
290
     0
  0
SCALE
  5
886A6
102
{ACAD_REACTORS
330
88696
102
}
330
88696
100
AcDbScale
 70
     0
300
6" = 1'-0"
140
6.0
141
12.0
290
     0
  0
SCALE
  5
886A7
102
{ACAD_REACTORS
330
88696
102
}
330
88696
100
AcDbScale
 70
     0
300
1'-0" = 1'-0"
140
12.0
141
12.0
290
     0
  0
ACDBSECTIONVIEWSTYLE
  5
88E9F
102
{ACAD_REACTORS
330
88E9D
102
}
330
88E9D
100
AcDbModelDocViewStyle
 70
     0
  3
Imperial24
290
     0
100
AcDbSectionViewStyle
 70
     0
 71
     0
 90
       78
 71
     1
340
F
 62
   256
 40
0.24
340
0
340
0
 62
   256
 40
0.24
300
I, O, Q, S, X, Z
 40
0.48
 90
        3
 40
0.18
 90
        1
 71
     2
340
88E9E
 90
       25
 62
   256
340
14
 90
       50
 62
   256
 40
0.24
 40
0.0
 40
0.24
 71
     3
340
F
 62
   256
 40
0.24
 90
        1
 40
0.75
 90
        1
300
%<\AcVar ViewType \f "%tc1">% %<\AcVar ViewSectionStartId>%-%<\AcVar ViewSectionEndId>%\PSCALE %<\AcVar ViewScale \f "%sn">%
 71
     4
 62
   256
 62
   257
300
ANSI31
 40
1.0
 90
        0
290
     0
290
     0
 90
        6
 40
0.0
 40
1.570796326794897
 40
0.2617993877991494
 40
1.308996938995747
 40
-0.2617993877991494
 40
1.832595714594046
  0
TABLESTYLE
  5
108ACD
102
{ACAD_REACTORS
330
108ACC
102
}
102
{ACAD_XDICTIONARY
360
109380
102
}
330
108ACC
100
AcDbTableStyle
  3
Standard
 70
     0
 71
     0
 40
0.06
 41
0.06
280
     0
281
     0
  7
STANDARD
140
0.18
170
     2
 62
     0
 63
   257
283
     0
 90
        4
 91
        0
  1

274
    -2
284
     1
 64
     0
275
    -2
285
     1
 65
     0
276
    -2
286
     1
 66
     0
277
    -2
287
     1
 67
     0
278
    -2
288
     1
 68
     0
279
    -2
289
     1
 69
     0
  7
STANDARD
140
0.25
170
     5
 62
     0
 63
   257
283
     0
 90
        4
 91
        0
  1

274
    -2
284
     1
 64
     0
275
    -2
285
     1
 65
     0
276
    -2
286
     1
 66
     0
277
    -2
287
     1
 67
     0
278
    -2
288
     1
 68
     0
279
    -2
289
     1
 69
     0
  7
STANDARD
140
0.18
170
     5
 62
     0
 63
   257
283
     0
 90
        4
 91
        0
  1

274
    -2
284
     1
 64
     0
275
    -2
285
     1
 65
     0
276
    -2
286
     1
 66
     0
277
    -2
287
     1
 67
     0
278
    -2
288
     1
 68
     0
279
    -2
289
     1
 69
     0
  0
VISUALSTYLE
  5
108AB4
102
{ACAD_REACTORS
330
108AAF
102
}
330
108AAF
100
AcDbVisualStyle
  2
2dWireframe
 70
     4
177
     3
291
     0
 70
    58
 90
        0
176
     1
 90
        2
176
     1
 90
        0
176
     1
 90
        0
176
     1
 40
0.6
176
     1
 40
30.0
176
     1
 62
     7
420
 16777215
176
     1
 90
        1
176
     1
 90
        4
176
     1
 62
     7
176
     1
 62
   257
176
     1
 90
        1
176
     1
 90
        1
176
     1
 40
1.0
176
     1
 90
        0
176
     1
 62
   257
176
     1
 40
1.0
176
     1
 90
        1
176
     1
 90
        6
176
     1
 90
        2
176
     1
 62
     7
176
     1
 90
        5
176
     1
 90
        0
176
     1
 90
        0
176
     1
290
     0
176
     1
 90
        1
176
     1
 40
0.0
176
     1
 90
        0
176
     1
290
     1
176
     1
290
     1
176
     1
290
     0
176
     1
290
     0
176
     1
290
     0
176
     1
290
     0
176
     1
290
     0
176
     1
290
     0
176
     1
290
     0
176
     1
 90
       50
176
     1
 40
0.0
176
     1
 40
1.0
176
     1
 90
        0
176
     1
 62
    18
420
        0
176
     1
 90
       50
176
     1
 90
        3
176
     1
 62
     5
420
      255
176
     1
290
     0
176
     1
 90
       50
176
     1
 90
       50
176
     1
 90
       50
176
     1
290
     0
176
     1
 90
       50
176
     1
 62
   256
176
     0
 40
1.0
176
     0
 90
        2
176
     1
  1
strokes_ogs.tif
176
     1
290
     0
176
     1
 40
1.0
176
     1
 40
1.0
176
     1
  0
VISUALSTYLE
  5
108AB7
102
{ACAD_REACTORS
330
108AAF
102
}
330
108AAF
100
AcDbVisualStyle
  2
Basic
 70
     7
177
     3
291
     1
 70
    58
 90
        1
176
     1
 90
        0
176
     1
 90
        1
176
     1
 90
        0
176
     1
 40
0.6
176
     1
 40
30.0
176
     1
 62
     7
420
 16777215
176
     1
 90
        0
176
     1
 90
        4
176
     1
 62
     7
176
     1
 62
   257
176
     1
 90
        1
176
     1
 90
        1
176
     1
 40
1.0
176
     1
 90
        8
176
     1
 62
     7
176
     1
 40
1.0
176
     1
 90
        1
176
     1
 90
        6
176
     1
 90
        2
176
     1
 62
     7
176
     1
 90
        5
176
     1
 90
        0
176
     1
 90
        0
176
     1
290
     0
176
     1
 90
        1
176
     1
 40
0.0
176
     1
 90
        0
176
     1
290
     0
176
     1
290
     1
176
     1
290
     1
176
     1
290
     0
176
     1
290
     0
176
     1
290
     0
176
     1
290
     0
176
     1
290
     0
176
     1
290
     0
176
     1
 90
       50
176
     1
 40
0.0
176
     1
 40
1.0
176
     1
 90
        0
176
     1
 62
    18
420
        0
176
     1
 90
       50
176
     1
 90
        3
176
     1
 62
     5
420
      255
176
     1
290
     0
176
     1
 90
       50
176
     1
 90
       50
176
     1
 90
       50
176
     1
290
     0
176
     1
 90
       50
176
     1
 62
   256
176
     0
 40
1.0
176
     0
 90
        2
176
     1
  1
strokes_ogs.tif
176
     1
290
     0
176
     1
 40
1.0
176
     1
 40
1.0
176
     1
  0
VISUALSTYLE
  5
108ABB
102
{ACAD_REACTORS
330
108AAF
102
}
330
108AAF
100
AcDbVisualStyle
  2
Brighten
 70
    12
177
     3
291
     1
 70
    58
 90
        2
176
     1
 90
        2
176
     1
 90
        0
176
     1
 90
        0
176
     1
 40
0.6
176
     1
 40
30.0
176
     1
 62
     7
420
 16777215
176
     1
 90
        1
176
     1
 90
        4
176
     1
 62
     7
176
     1
 62
   257
176
     1
 90
        1
176
     1
 90
        1
176
     1
 40
1.0
176
     1
 90
        8
176
     1
 62
     7
176
     1
 40
1.0
176
     1
 90
        1
176
     1
 90
        6
176
     1
 90
        2
176
     1
 62
     7
176
     1
 90
        5
176
     1
 90
        0
176
     1
 90
        0
176
     1
290
     0
176
     1
 90
        1
176
     1
 40
50.0
176
     1
 90
        0
176
     1
290
     0
176
     1
290
     1
176
     1
290
     1
176
     1
290
     0
176
     1
290
     0
176
     1
290
     0
176
     1
290
     0
176
     1
290
     0
176
     1
290
     0
176
     1
 90
       50
176
     1
 40
0.0
176
     1
 40
1.0
176
     1
 90
        0
176
     1
 62
    18
420
        0
176
     1
 90
       50
176
     1
 90
        3
176
     1
 62
     5
420
      255
176
     1
290
     0
176
     1
 90
       50
176
     1
 90
       50
176
     1
 90
       50
176
     1
290
     0
176
     1
 90
       50
176
     1
 62
   256
176
     0
 40
1.0
176
     0
 90
        2
176
     1
  1
strokes_ogs.tif
176
     1
290
     0
176
     1
 40
1.0
176
     1
 40
1.0
176
     1
  0
VISUALSTYLE
  5
108ABF
102
{ACAD_REACTORS
330
108AAF
102
}
330
108AAF
100
AcDbVisualStyle
  2
ColorChange
 70
    16
177
     3
291
     1
 70
    58
 90
        2
176
     1
 90
        2
176
     1
 90
        3
176
     1
 90
        0
176
     1
 40
0.6
176
     1
 40
30.0
176
     1
 62
     8
420
  8421504
176
     1
 90
        1
176
     1
 90
        4
176
     1
 62
     7
176
     1
 62
   257
176
     1
 90
        1
176
     1
 90
        1
176
     1
 40
1.0
176
     1
 90
        8
176
     1
 62
     8
420
  8421504
176
     1
 40
1.0
176
     1
 90
        1
176
     1
 90
        6
176
     1
 90
        2
176
     1
 62
     7
176
     1
 90
        5
176
     1
 90
        0
176
     1
 90
        0
176
     1
290
     0
176
     1
 90
        1
176
     1
 40
0.0
176
     1
 90
        0
176
     1
290
     0
176
     1
290
     1
176
     1
290
     1
176
     1
290
     0
176
     1
290
     0
176
     1
290
     0
176
     1
290
     0
176
     1
290
     0
176
     1
290
     0
176
     1
 90
       50
176
     1
 40
0.0
176
     1
 40
1.0
176
     1
 90
        0
176
     1
 62
    18
420
        0
176
     1
 90
       50
176
     1
 90
        3
176
     1
 62
     5
420
      255
176
     1
290
     0
176
     1
 90
       50
176
     1
 90
       50
176
     1
 90
       50
176
     1
290
     0
176
     1
 90
       50
176
     1
 62
   256
176
     0
 40
1.0
176
     0
 90
        2
176
     1
  1
strokes_ogs.tif
176
     1
290
     0
176
     1
 40
1.0
176
     1
 40
1.0
176
     1
  0
VISUALSTYLE
  5
108AB9
102
{ACAD_REACTORS
330
108AAF
102
}
330
108AAF
100
AcDbVisualStyle
  2
Conceptual
 70
     9
177
     3
291
     0
 70
    58
 90
        3
176
     1
 90
        2
176
     1
 90
        0
176
     1
 90
        0
176
     1
 40
0.6
176
     1
 40
30.0
176
     1
 62
     7
420
 16777215
176
     1
 90
        2
176
     1
 90
        2
176
     1
 62
     7
176
     1
 62
   257
176
     1
 90
        1
176
     1
 90
        1
176
     1
 40
179.0
176
     1
 90
        8
176
     1
 62
     7
176
     1
 40
1.0
176
     1
 90
        1
176
     1
 90
        6
176
     1
 90
        2
176
     1
 62
     7
176
     1
 90
        3
176
     1
 90
        0
176
     1
 90
        0
176
     1
290
     0
176
     1
 90
        1
176
     1
 40
0.0
176
     1
 90
        0
176
     1
290
     0
176
     1
290
     1
176
     1
290
     1
176
     1
290
     0
176
     1
290
     0
176
     1
290
     0
176
     1
290
     0
176
     1
290
     0
176
     1
290
     0
176
     1
 90
       50
176
     1
 40
0.0
176
     1
 40
1.0
176
     1
 90
        0
176
     1
 62
    18
420
        0
176
     1
 90
       50
176
     1
 90
        3
176
     1
 62
     5
420
      255
176
     1
290
     0
176
     1
 90
       50
176
     1
 90
       50
176
     1
 90
       50
176
     1
290
     0
176
     1
 90
       50
176
     1
 62
   256
176
     0
 40
1.0
176
     0
 90
        2
176
     1
  1
strokes_ogs.tif
176
     1
290
     0
176
     1
 40
1.0
176
     1
 40
1.0
176
     1
  0
VISUALSTYLE
  5
108ABA
102
{ACAD_REACTORS
330
108AAF
102
}
330
108AAF
100
AcDbVisualStyle
  2
Dim
 70
    11
177
     3
291
     1
 70
    58
 90
        2
176
     1
 90
        2
176
     1
 90
        0
176
     1
 90
        0
176
     1
 40
0.6
176
     1
 40
30.0
176
     1
 62
     7
420
 16777215
176
     1
 90
        1
176
     1
 90
        4
176
     1
 62
     7
176
     1
 62
   257
176
     1
 90
        1
176
     1
 90
        1
176
     1
 40
1.0
176
     1
 90
        8
176
     1
 62
     7
176
     1
 40
1.0
176
     1
 90
        1
176
     1
 90
        6
176
     1
 90
        2
176
     1
 62
     7
176
     1
 90
        5
176
     1
 90
        0
176
     1
 90
        0
176
     1
290
     0
176
     1
 90
        1
176
     1
 40
-50.0
176
     1
 90
        0
176
     1
290
     0
176
     1
290
     1
176
     1
290
     1
176
     1
290
     0
176
     1
290
     0
176
     1
290
     0
176
     1
290
     0
176
     1
290
     0
176
     1
290
     0
176
     1
 90
       50
176
     1
 40
0.0
176
     1
 40
1.0
176
     1
 90
        0
176
     1
 62
    18
420
        0
176
     1
 90
       50
176
     1
 90
        3
176
     1
 62
     5
420
      255
176
     1
290
     0
176
     1
 90
       50
176
     1
 90
       50
176
     1
 90
       50
176
     1
290
     0
176
     1
 90
       50
176
     1
 62
   256
176
     0
 40
1.0
176
     0
 90
        2
176
     1
  1
strokes_ogs.tif
176
     1
290
     0
176
     1
 40
1.0
176
     1
 40
1.0
176
     1
  0
VISUALSTYLE
  5
108AC2
102
{ACAD_REACTORS
330
108AAF
102
}
330
108AAF
100
AcDbVisualStyle
  2
EdgeColorOff
 70
    22
177
     3
291
     1
 70
    58
 90
        2
176
     0
 90
        2
176
     0
 90
        0
176
     0
 90
        0
176
     0
 40
0.6
176
     0
 40
30.0
176
     0
 62
     7
420
 16777215
176
     0
 90
        1
176
     0
 90
        4
176
     0
 62
     7
176
     0
 62
   257
176
     0
 90
        1
176
     0
 90
        1
176
     0
 40
1.0
176
     0
 90
        8
176
     2
 62
     7
176
     0
 40
1.0
176
     0
 90
        1
176
     0
 90
        6
176
     0
 90
        2
176
     0
 62
     7
176
     0
 90
        5
176
     0
 90
        0
176
     0
 90
        0
176
     0
290
     0
176
     0
 90
        1
176
     0
 40
0.0
176
     0
 90
        0
176
     0
290
     0
176
     0
290
     1
176
     0
290
     1
176
     0
290
     0
176
     0
290
     0
176
     0
290
     0
176
     0
290
     0
176
     0
290
     0
176
     0
290
     0
176
     0
 90
       50
176
     0
 40
0.0
176
     0
 40
1.0
176
     0
 90
        0
176
     0
 62
    18
420
        0
176
     0
 90
       50
176
     0
 90
        3
176
     0
 62
     5
420
      255
176
     0
290
     0
176
     0
 90
       50
176
     0
 90
       50
176
     0
 90
       50
176
     0
290
     0
176
     0
 90
       50
176
     0
 62
   256
176
     0
 40
1.0
176
     0
 90
        2
176
     0
  1
strokes_ogs.tif
176
     0
290
     0
176
     0
 40
1.0
176
     0
 40
1.0
176
     0
  0
VISUALSTYLE
  5
108ABE
102
{ACAD_REACTORS
330
108AAF
102
}
330
108AAF
100
AcDbVisualStyle
  2
Facepattern
 70
    15
177
     3
291
     1
 70
    58
 90
        2
176
     1
 90
        2
176
     1
 90
        0
176
     1
 90
        0
176
     1
 40
0.6
176
     1
 40
30.0
176
     1
 62
     7
420
 16777215
176
     1
 90
        1
176
     1
 90
        4
176
     1
 62
     7
176
     1
 62
   257
176
     1
 90
        1
176
     1
 90
        1
176
     1
 40
1.0
176
     1
 90
        8
176
     1
 62
     7
176
     1
 40
1.0
176
     1
 90
        1
176
     1
 90
        6
176
     1
 90
        2
176
     1
 62
     7
176
     1
 90
        5
176
     1
 90
        0
176
     1
 90
        0
176
     1
290
     0
176
     1
 90
        1
176
     1
 40
0.0
176
     1
 90
        0
176
     1
290
     0
176
     1
290
     1
176
     1
290
     1
176
     1
290
     0
176
     1
290
     0
176
     1
290
     0
176
     1
290
     0
176
     1
290
     0
176
     1
290
     0
176
     1
 90
       50
176
     1
 40
0.0
176
     1
 40
1.0
176
     1
 90
        0
176
     1
 62
    18
420
        0
176
     1
 90
       50
176
     1
 90
        3
176
     1
 62
     5
420
      255
176
     1
290
     0
176
     1
 90
       50
176
     1
 90
       50
176
     1
 90
       50
176
     1
290
     0
176
     1
 90
       50
176
     1
 62
   256
176
     0
 40
1.0
176
     0
 90
        2
176
     1
  1
strokes_ogs.tif
176
     1
290
     0
176
     1
 40
1.0
176
     1
 40
1.0
176
     1
  0
VISUALSTYLE
  5
108AB0
102
{ACAD_REACTORS
330
108AAF
102
}
330
108AAF
100
AcDbVisualStyle
  2
Flat
 70
     0
177
     3
291
     1
 70
    58
 90
        2
176
     1
 90
        1
176
     1
 90
        1
176
     1
 90
        2
176
     1
 40
0.6
176
     1
 40
30.0
176
     1
 62
     7
420
 16777215
176
     1
 90
        0
176
     1
 90
        0
176
     1
 62
     7
176
     1
 62
   257
176
     1
 90
        1
176
     1
 90
        1
176
     1
 40
1.0
176
     1
 90
        8
176
     1
 62
     7
176
     1
 40
1.0
176
     1
 90
        1
176
     1
 90
        6
176
     1
 90
        2
176
     1
 62
     7
176
     1
 90
        5
176
     1
 90
        0
176
     1
 90
        0
176
     1
290
     0
176
     1
 90
       13
176
     1
 40
0.0
176
     1
 90
        0
176
     1
290
     0
176
     1
290
     1
176
     1
290
     1
176
     1
290
     0
176
     1
290
     0
176
     1
290
     0
176
     1
290
     0
176
     1
290
     0
176
     1
290
     0
176
     1
 90
       50
176
     1
 40
0.0
176
     1
 40
1.0
176
     1
 90
        0
176
     1
 62
    18
420
        0
176
     1
 90
       50
176
     1
 90
        3
176
     1
 62
     5
420
      255
176
     1
290
     0
176
     1
 90
       50
176
     1
 90
       50
176
     1
 90
       50
176
     1
290
     0
176
     1
 90
       50
176
     1
 62
   256
176
     0
 40
1.0
176
     0
 90
        2
176
     1
  1
strokes_ogs.tif
176
     1
290
     0
176
     1
 40
1.0
176
     1
 40
1.0
176
     1
  0
VISUALSTYLE
  5
108AB1
102
{ACAD_REACTORS
330
108AAF
102
}
330
108AAF
100
AcDbVisualStyle
  2
FlatWithEdges
 70
     1
177
     3
291
     1
 70
    58
 90
        2
176
     1
 90
        1
176
     1
 90
        1
176
     1
 90
        2
176
     1
 40
0.6
176
     1
 40
30.0
176
     1
 62
     7
420
 16777215
176
     1
 90
        1
176
     1
 90
        0
176
     1
 62
     7
176
     1
 62
   257
176
     1
 90
        1
176
     1
 90
        1
176
     1
 40
1.0
176
     1
 90
        0
176
     1
 62
   257
176
     1
 40
1.0
176
     1
 90
        1
176
     1
 90
        6
176
     1
 90
        2
176
     1
 62
     7
176
     1
 90
        5
176
     1
 90
        0
176
     1
 90
        0
176
     1
290
     0
176
     1
 90
       13
176
     1
 40
0.0
176
     1
 90
        0
176
     1
290
     0
176
     1
290
     1
176
     1
290
     1
176
     1
290
     0
176
     1
290
     0
176
     1
290
     0
176
     1
290
     0
176
     1
290
     0
176
     1
290
     0
176
     1
 90
       50
176
     1
 40
0.0
176
     1
 40
1.0
176
     1
 90
        0
176
     1
 62
    18
420
        0
176
     1
 90
       50
176
     1
 90
        3
176
     1
 62
     5
420
      255
176
     1
290
     0
176
     1
 90
       50
176
     1
 90
       50
176
     1
 90
       50
176
     1
290
     0
176
     1
 90
       50
176
     1
 62
   256
176
     0
 40
1.0
176
     0
 90
        2
176
     1
  1
strokes_ogs.tif
176
     1
290
     0
176
     1
 40
1.0
176
     1
 40
1.0
176
     1
  0
VISUALSTYLE
  5
108AB2
102
{ACAD_REACTORS
330
108AAF
102
}
330
108AAF
100
AcDbVisualStyle
  2
Gouraud
 70
     2
177
     3
291
     1
 70
    58
 90
        2
176
     1
 90
        2
176
     1
 90
        1
176
     1
 90
        2
176
     1
 40
0.6
176
     1
 40
30.0
176
     1
 62
     7
420
 16777215
176
     1
 90
        0
176
     1
 90
        0
176
     1
 62
     7
176
     1
 62
   257
176
     1
 90
        1
176
     1
 90
        1
176
     1
 40
1.0
176
     1
 90
        0
176
     1
 62
     7
176
     1
 40
1.0
176
     1
 90
        1
176
     1
 90
        6
176
     1
 90
        2
176
     1
 62
     7
176
     1
 90
        5
176
     1
 90
        0
176
     1
 90
        0
176
     1
290
     0
176
     1
 90
       13
176
     1
 40
0.0
176
     1
 90
        0
176
     1
290
     0
176
     1
290
     1
176
     1
290
     1
176
     1
290
     0
176
     1
290
     0
176
     1
290
     0
176
     1
290
     0
176
     1
290
     0
176
     1
290
     0
176
     1
 90
       50
176
     1
 40
0.0
176
     1
 40
1.0
176
     1
 90
        0
176
     1
 62
    18
420
        0
176
     1
 90
       50
176
     1
 90
        3
176
     1
 62
     5
420
      255
176
     1
290
     0
176
     1
 90
       50
176
     1
 90
       50
176
     1
 90
       50
176
     1
290
     0
176
     1
 90
       50
176
     1
 62
   256
176
     0
 40
1.0
176
     0
 90
        2
176
     1
  1
strokes_ogs.tif
176
     1
290
     0
176
     1
 40
1.0
176
     1
 40
1.0
176
     1
  0
VISUALSTYLE
  5
108AB3
102
{ACAD_REACTORS
330
108AAF
102
}
330
108AAF
100
AcDbVisualStyle
  2
GouraudWithEdges
 70
     3
177
     3
291
     1
 70
    58
 90
        2
176
     1
 90
        2
176
     1
 90
        1
176
     1
 90
        2
176
     1
 40
0.6
176
     1
 40
30.0
176
     1
 62
     7
420
 16777215
176
     1
 90
        1
176
     1
 90
        0
176
     1
 62
     7
176
     1
 62
   257
176
     1
 90
        1
176
     1
 90
        1
176
     1
 40
1.0
176
     1
 90
        0
176
     1
 62
   257
176
     1
 40
1.0
176
     1
 90
        1
176
     1
 90
        6
176
     1
 90
        2
176
     1
 62
     7
176
     1
 90
        5
176
     1
 90
        0
176
     1
 90
        0
176
     1
290
     0
176
     1
 90
       13
176
     1
 40
0.0
176
     1
 90
        0
176
     1
290
     0
176
     1
290
     1
176
     1
290
     1
176
     1
290
     0
176
     1
290
     0
176
     1
290
     0
176
     1
290
     0
176
     1
290
     0
176
     1
290
     0
176
     1
 90
       50
176
     1
 40
0.0
176
     1
 40
1.0
176
     1
 90
        0
176
     1
 62
    18
420
        0
176
     1
 90
       50
176
     1
 90
        3
176
     1
 62
     5
420
      255
176
     1
290
     0
176
     1
 90
       50
176
     1
 90
       50
176
     1
 90
       50
176
     1
290
     0
176
     1
 90
       50
176
     1
 62
   256
176
     0
 40
1.0
176
     0
 90
        2
176
     1
  1
strokes_ogs.tif
176
     1
290
     0
176
     1
 40
1.0
176
     1
 40
1.0
176
     1
  0
VISUALSTYLE
  5
108AB6
102
{ACAD_REACTORS
330
108AAF
102
}
330
108AAF
100
AcDbVisualStyle
  2
Hidden
 70
     6
177
     3
291
     0
 70
    58
 90
        1
176
     1
 90
        2
176
     1
 90
        2
176
     1
 90
        0
176
     1
 40
0.6
176
     1
 40
30.0
176
     1
 62
     7
420
 16777215
176
     1
 90
        2
176
     1
 90
        2
176
     1
 62
     7
176
     1
 62
   257
176
     1
 90
        2
176
     1
 90
        1
176
     1
 40
40.0
176
     1
 90
        0
176
     1
 62
   257
176
     1
 40
1.0
176
     1
 90
        1
176
     1
 90
        6
176
     1
 90
        2
176
     1
 62
     7
176
     1
 90
        3
176
     1
 90
        0
176
     1
 90
        0
176
     1
290
     0
176
     1
 90
        1
176
     1
 40
0.0
176
     1
 90
        0
176
     1
290
     0
176
     1
290
     1
176
     1
290
     1
176
     1
290
     0
176
     1
290
     0
176
     1
290
     0
176
     1
290
     0
176
     1
290
     0
176
     1
290
     0
176
     1
 90
       50
176
     1
 40
0.0
176
     1
 40
1.0
176
     1
 90
        0
176
     1
 62
    18
420
        0
176
     1
 90
       50
176
     1
 90
        3
176
     1
 62
     5
420
      255
176
     1
290
     0
176
     1
 90
       50
176
     1
 90
       50
176
     1
 90
       50
176
     1
290
     0
176
     1
 90
       50
176
     1
 62
   256
176
     0
 40
1.0
176
     0
 90
        2
176
     1
  1
strokes_ogs.tif
176
     1
290
     0
176
     1
 40
1.0
176
     1
 40
1.0
176
     1
  0
VISUALSTYLE
  5
108AC0
102
{ACAD_REACTORS
330
108AAF
102
}
330
108AAF
100
AcDbVisualStyle
  2
JitterOff
 70
    20
177
     3
291
     1
 70
    58
 90
        2
176
     0
 90
        2
176
     0
 90
        0
176
     0
 90
        0
176
     0
 40
0.6
176
     0
 40
30.0
176
     0
 62
     7
420
 16777215
176
     0
 90
        1
176
     0
 90
        4
176
     0
 62
     7
176
     0
 62
   257
176
     0
 90
        1
176
     0
 90
        1
176
     0
 40
1.0
176
     0
 90
       10
176
     2
 62
     7
176
     0
 40
1.0
176
     0
 90
        1
176
     0
 90
        6
176
     0
 90
        2
176
     0
 62
     7
176
     0
 90
        5
176
     0
 90
        0
176
     0
 90
        0
176
     0
290
     0
176
     0
 90
        1
176
     0
 40
0.0
176
     0
 90
        0
176
     0
290
     0
176
     0
290
     1
176
     0
290
     1
176
     0
290
     0
176
     0
290
     0
176
     0
290
     0
176
     0
290
     0
176
     0
290
     0
176
     0
290
     0
176
     0
 90
       50
176
     0
 40
0.0
176
     0
 40
1.0
176
     0
 90
        0
176
     0
 62
    18
420
        0
176
     0
 90
       50
176
     0
 90
        3
176
     0
 62
     5
420
      255
176
     0
290
     0
176
     0
 90
       50
176
     0
 90
       50
176
     0
 90
       50
176
     0
290
     0
176
     0
 90
       50
176
     0
 62
   256
176
     0
 40
1.0
176
     0
 90
        2
176
     0
  1
strokes_ogs.tif
176
     0
290
     0
176
     0
 40
1.0
176
     0
 40
1.0
176
     0
  0
VISUALSTYLE
  5
108ABD
102
{ACAD_REACTORS
330
108AAF
102
}
330
108AAF
100
AcDbVisualStyle
  2
Linepattern
 70
    14
177
     3
291
     1
 70
    58
 90
        2
176
     1
 90
        2
176
     1
 90
        0
176
     1
 90
        0
176
     1
 40
0.6
176
     1
 40
30.0
176
     1
 62
     7
420
 16777215
176
     1
 90
        1
176
     1
 90
        4
176
     1
 62
     7
176
     1
 62
   257
176
     1
 90
        7
176
     1
 90
        7
176
     1
 40
1.0
176
     1
 90
        8
176
     1
 62
     7
176
     1
 40
1.0
176
     1
 90
        1
176
     1
 90
        6
176
     1
 90
        2
176
     1
 62
     7
176
     1
 90
        5
176
     1
 90
        0
176
     1
 90
        0
176
     1
290
     0
176
     1
 90
        1
176
     1
 40
0.0
176
     1
 90
        0
176
     1
290
     0
176
     1
290
     1
176
     1
290
     1
176
     1
290
     0
176
     1
290
     0
176
     1
290
     0
176
     1
290
     0
176
     1
290
     0
176
     1
290
     0
176
     1
 90
       50
176
     1
 40
0.0
176
     1
 40
1.0
176
     1
 90
        0
176
     1
 62
    18
420
        0
176
     1
 90
       50
176
     1
 90
        3
176
     1
 62
     5
420
      255
176
     1
290
     0
176
     1
 90
       50
176
     1
 90
       50
176
     1
 90
       50
176
     1
290
     0
176
     1
 90
       50
176
     1
 62
   256
176
     0
 40
1.0
176
     0
 90
        2
176
     1
  1
strokes_ogs.tif
176
     1
290
     0
176
     1
 40
1.0
176
     1
 40
1.0
176
     1
  0
VISUALSTYLE
  5
108AC1
102
{ACAD_REACTORS
330
108AAF
102
}
330
108AAF
100
AcDbVisualStyle
  2
OverhangOff
 70
    21
177
     3
291
     1
 70
    58
 90
        2
176
     0
 90
        2
176
     0
 90
        0
176
     0
 90
        0
176
     0
 40
0.6
176
     0
 40
30.0
176
     0
 62
     7
420
 16777215
176
     0
 90
        1
176
     0
 90
        4
176
     0
 62
     7
176
     0
 62
   257
176
     0
 90
        1
176
     0
 90
        1
176
     0
 40
1.0
176
     0
 90
        9
176
     2
 62
     7
176
     0
 40
1.0
176
     0
 90
        1
176
     0
 90
        6
176
     0
 90
        2
176
     0
 62
     7
176
     0
 90
        5
176
     0
 90
        0
176
     0
 90
        0
176
     0
290
     0
176
     0
 90
        1
176
     0
 40
0.0
176
     0
 90
        0
176
     0
290
     0
176
     0
290
     1
176
     0
290
     1
176
     0
290
     0
176
     0
290
     0
176
     0
290
     0
176
     0
290
     0
176
     0
290
     0
176
     0
290
     0
176
     0
 90
       50
176
     0
 40
0.0
176
     0
 40
1.0
176
     0
 90
        0
176
     0
 62
    18
420
        0
176
     0
 90
       50
176
     0
 90
        3
176
     0
 62
     5
420
      255
176
     0
290
     0
176
     0
 90
       50
176
     0
 90
       50
176
     0
 90
       50
176
     0
290
     0
176
     0
 90
       50
176
     0
 62
   256
176
     0
 40
1.0
176
     0
 90
        2
176
     0
  1
strokes_ogs.tif
176
     0
290
     0
176
     0
 40
1.0
176
     0
 40
1.0
176
     0
  0
VISUALSTYLE
  5
108AB8
102
{ACAD_REACTORS
330
108AAF
102
}
330
108AAF
100
AcDbVisualStyle
  2
Realistic
 70
     8
177
     3
291
     0
 70
    58
 90
        2
176
     1
 90
        3
176
     1
 90
        0
176
     1
 90
        2
176
     1
 40
0.6
176
     1
 40
30.0
176
     1
 62
     7
420
 16777215
176
     1
 90
        0
176
     1
 90
        0
176
     1
 62
     7
176
     1
 62
   257
176
     1
 90
        1
176
     1
 90
        1
176
     1
 40
1.0
176
     1
 90
        8
176
     1
 62
   257
176
     1
 40
1.0
176
     1
 90
        1
176
     1
 90
        6
176
     1
 90
        2
176
     1
 62
     7
176
     1
 90
        3
176
     1
 90
        0
176
     1
 90
        0
176
     1
290
     0
176
     1
 90
       13
176
     1
 40
0.0
176
     1
 90
        0
176
     1
290
     0
176
     1
290
     1
176
     1
290
     1
176
     1
290
     0
176
     1
290
     0
176
     1
290
     0
176
     1
290
     0
176
     1
290
     0
176
     1
290
     0
176
     1
 90
       50
176
     1
 40
0.0
176
     1
 40
1.0
176
     1
 90
        0
176
     1
 62
    18
420
        0
176
     1
 90
       50
176
     1
 90
        3
176
     1
 62
     5
420
      255
176
     1
290
     0
176
     1
 90
       50
176
     1
 90
       50
176
     1
 90
       50
176
     1
290
     0
176
     1
 90
       50
176
     1
 62
   256
176
     0
 40
1.0
176
     0
 90
        2
176
     1
  1
strokes_ogs.tif
176
     1
290
     0
176
     1
 40
1.0
176
     1
 40
1.0
176
     1
  0
VISUALSTYLE
  5
108AC7
102
{ACAD_REACTORS
330
108AAF
102
}
330
108AAF
100
AcDbVisualStyle
  2
Shaded
 70
    27
177
     3
291
     0
 70
    58
 90
        2
176
     1
 90
        2
176
     1
 90
        1
176
     1
 90
        2
176
     1
 40
0.6
176
     1
 40
30.0
176
     1
 62
     7
420
 16777215
176
     1
 90
        0
176
     1
 90
        4
176
     1
 62
     7
176
     1
 62
   257
176
     1
 90
        1
176
     1
 90
        1
176
     1
 40
1.0
176
     1
 90
        8
176
     1
 62
   257
176
     1
 40
1.0
176
     1
 90
        1
176
     1
 90
        6
176
     1
 90
        2
176
     1
 62
     8
420
  7895160
176
     1
 90
        3
176
     1
 90
        0
176
     1
 90
        0
176
     1
290
     0
176
     1
 90
        5
176
     1
 40
0.0
176
     1
 90
        0
176
     1
290
     0
176
     1
290
     1
176
     1
290
     1
176
     1
290
     0
176
     1
290
     0
176
     1
290
     0
176
     1
290
     0
176
     1
290
     0
176
     1
290
     0
176
     1
 90
       50
176
     1
 40
0.0
176
     1
 40
1.0
176
     1
 90
        0
176
     1
 62
    18
420
        0
176
     1
 90
       50
176
     1
 90
        3
176
     1
 62
     5
420
      255
176
     1
290
     0
176
     1
 90
       50
176
     1
 90
       50
176
     1
 90
       50
176
     1
290
     0
176
     1
 90
       50
176
     1
 62
   256
176
     0
 40
1.0
176
     0
 90
        2
176
     1
  1
strokes_ogs.tif
176
     1
290
     0
176
     1
 40
1.0
176
     1
 40
1.0
176
     1
  0
VISUALSTYLE
  5
108AC6
102
{ACAD_REACTORS
330
108AAF
102
}
330
108AAF
100
AcDbVisualStyle
  2
Shaded with edges
 70
    26
177
     3
291
     0
 70
    58
 90
        2
176
     1
 90
        2
176
     1
 90
        1
176
     1
 90
        2
176
     1
 40
0.6
176
     1
 40
30.0
176
     1
 62
     7
420
 16777215
176
     1
 90
        1
176
     1
 90
       10
176
     1
 62
     7
176
     1
 62
   257
176
     1
 90
        2
176
     1
 90
        1
176
     1
 40
1.0
176
     1
 90
        8
176
     1
 62
   257
176
     1
 40
1.0
176
     1
 90
        1
176
     1
 90
        6
176
     1
 90
        2
176
     1
 62
     7
176
     1
 90
        3
176
     1
 90
        0
176
     1
 90
        0
176
     1
290
     0
176
     1
 90
        5
176
     1
 40
0.0
176
     1
 90
        0
176
     1
290
     0
176
     1
290
     1
176
     1
290
     1
176
     1
290
     0
176
     1
290
     0
176
     1
290
     0
176
     1
290
     0
176
     1
290
     0
176
     1
290
     0
176
     1
 90
       50
176
     1
 40
0.0
176
     1
 40
1.0
176
     1
 90
        0
176
     1
 62
    18
420
        0
176
     1
 90
       50
176
     1
 90
        3
176
     1
 62
     5
420
      255
176
     1
290
     0
176
     1
 90
       50
176
     1
 90
       50
176
     1
 90
       50
176
     1
290
     0
176
     1
 90
       50
176
     1
 62
   256
176
     0
 40
1.0
176
     0
 90
        2
176
     1
  1
strokes_ogs.tif
176
     1
290
     0
176
     1
 40
1.0
176
     1
 40
1.0
176
     1
  0
VISUALSTYLE
  5
108AC3
102
{ACAD_REACTORS
330
108AAF
102
}
330
108AAF
100
AcDbVisualStyle
  2
Shades of Gray
 70
    23
177
     3
291
     0
 70
    58
 90
        2
176
     1
 90
        2
176
     1
 90
        3
176
     1
 90
        0
176
     1
 40
0.6
176
     1
 40
30.0
176
     1
 62
     7
420
 16777215
176
     1
 90
        2
176
     1
 90
        2
176
     1
 62
     7
176
     1
 62
     7
176
     1
 90
        1
176
     1
 90
        1
176
     1
 40
40.0
176
     1
 90
        8
176
     1
 62
     7
176
     1
 40
1.0
176
     1
 90
        1
176
     1
 90
        6
176
     1
 90
        2
176
     1
 62
     7
176
     1
 90
        3
176
     1
 90
        0
176
     1
 90
        0
176
     1
290
     0
176
     1
 90
        1
176
     1
 40
0.0
176
     1
 90
        0
176
     1
290
     0
176
     1
290
     1
176
     1
290
     1
176
     1
290
     0
176
     1
290
     0
176
     1
290
     0
176
     1
290
     0
176
     1
290
     0
176
     1
290
     0
176
     1
 90
       50
176
     1
 40
0.0
176
     1
 40
1.0
176
     1
 90
        0
176
     1
 62
    18
420
        0
176
     1
 90
       50
176
     1
 90
        3
176
     1
 62
     5
420
      255
176
     1
290
     0
176
     1
 90
       50
176
     1
 90
       50
176
     1
 90
       50
176
     1
290
     0
176
     1
 90
       50
176
     1
 62
   256
176
     0
 40
1.0
176
     0
 90
        2
176
     1
  1
strokes_ogs.tif
176
     1
290
     0
176
     1
 40
1.0
176
     1
 40
1.0
176
     1
  0
VISUALSTYLE
  5
108AC4
102
{ACAD_REACTORS
330
108AAF
102
}
330
108AAF
100
AcDbVisualStyle
  2
Sketchy
 70
    24
177
     3
291
     0
 70
    58
 90
        1
176
     1
 90
        2
176
     1
 90
        2
176
     1
 90
        0
176
     1
 40
0.6
176
     1
 40
30.0
176
     1
 62
     7
420
 16777215
176
     1
 90
        2
176
     1
 90
        2
176
     1
 62
     7
176
     1
 62
     7
176
     1
 90
        1
176
     1
 90
        1
176
     1
 40
40.0
176
     1
 90
       11
176
     1
 62
     7
176
     1
 40
1.0
176
     1
 90
        1
176
     1
 90
        6
176
     1
 90
        2
176
     1
 62
     7
176
     1
 90
        6
176
     1
 90
        0
176
     1
 90
        0
176
     1
290
     0
176
     1
 90
        1
176
     1
 40
0.0
176
     1
 90
        0
176
     1
290
     0
176
     1
290
     1
176
     1
290
     1
176
     1
290
     0
176
     1
290
     0
176
     1
290
     0
176
     1
290
     0
176
     1
290
     0
176
     1
290
     0
176
     1
 90
       50
176
     1
 40
0.0
176
     1
 40
1.0
176
     1
 90
        0
176
     1
 62
    18
420
        0
176
     1
 90
       50
176
     1
 90
        3
176
     1
 62
     5
420
      255
176
     1
290
     0
176
     1
 90
       50
176
     1
 90
       50
176
     1
 90
       50
176
     1
290
     0
176
     1
 90
       50
176
     1
 62
   256
176
     0
 40
1.0
176
     0
 90
        2
176
     1
  1
strokes_ogs.tif
176
     1
290
     0
176
     1
 40
1.0
176
     1
 40
1.0
176
     1
  0
VISUALSTYLE
  5
108ABC
102
{ACAD_REACTORS
330
108AAF
102
}
330
108AAF
100
AcDbVisualStyle
  2
Thicken
 70
    13
177
     3
291
     1
 70
    58
 90
        2
176
     1
 90
        2
176
     1
 90
        0
176
     1
 90
        0
176
     1
 40
0.6
176
     1
 40
30.0
176
     1
 62
     7
420
 16777215
176
     1
 90
        1
176
     1
 90
        4
176
     1
 62
     7
176
     1
 62
   257
176
     1
 90
        1
176
     1
 90
        1
176
     1
 40
1.0
176
     1
 90
       12
176
     1
 62
     7
176
     1
 40
1.0
176
     1
 90
        1
176
     1
 90
        6
176
     1
 90
        2
176
     1
 62
     7
176
     1
 90
        5
176
     1
 90
        0
176
     1
 90
        0
176
     1
290
     0
176
     1
 90
        1
176
     1
 40
0.0
176
     1
 90
        0
176
     1
290
     0
176
     1
290
     1
176
     1
290
     1
176
     1
290
     0
176
     1
290
     0
176
     1
290
     0
176
     1
290
     0
176
     1
290
     0
176
     1
290
     0
176
     1
 90
       50
176
     1
 40
0.0
176
     1
 40
1.0
176
     1
 90
        0
176
     1
 62
    18
420
        0
176
     1
 90
       50
176
     1
 90
        3
176
     1
 62
     5
420
      255
176
     1
290
     0
176
     1
 90
       50
176
     1
 90
       50
176
     1
 90
       50
176
     1
290
     0
176
     1
 90
       50
176
     1
 62
   256
176
     0
 40
1.0
176
     0
 90
        2
176
     1
  1
strokes_ogs.tif
176
     1
290
     0
176
     1
 40
1.0
176
     1
 40
1.0
176
     1
  0
VISUALSTYLE
  5
108AB5
102
{ACAD_REACTORS
330
108AAF
102
}
330
108AAF
100
AcDbVisualStyle
  2
Wireframe
 70
     5
177
     3
291
     0
 70
    58
 90
        0
176
     1
 90
        2
176
     1
 90
        0
176
     1
 90
        0
176
     1
 40
0.6
176
     1
 40
30.0
176
     1
 62
     7
420
 16777215
176
     1
 90
        1
176
     1
 90
        4
176
     1
 62
     7
176
     1
 62
   257
176
     1
 90
        1
176
     1
 90
        1
176
     1
 40
1.0
176
     1
 90
        0
176
     1
 62
   257
176
     1
 40
1.0
176
     1
 90
        1
176
     1
 90
        6
176
     1
 90
        2
176
     1
 62
     7
176
     1
 90
        3
176
     1
 90
        0
176
     1
 90
        0
176
     1
290
     0
176
     1
 90
        1
176
     1
 40
0.0
176
     1
 90
        0
176
     1
290
     0
176
     1
290
     1
176
     1
290
     1
176
     1
290
     0
176
     1
290
     0
176
     1
290
     0
176
     1
290
     0
176
     1
290
     0
176
     1
290
     0
176
     1
 90
       50
176
     1
 40
0.0
176
     1
 40
1.0
176
     1
 90
        0
176
     1
 62
    18
420
        0
176
     1
 90
       50
176
     1
 90
        3
176
     1
 62
     5
420
      255
176
     1
290
     0
176
     1
 90
       50
176
     1
 90
       50
176
     1
 90
       50
176
     1
290
     0
176
     1
 90
       50
176
     1
 62
   256
176
     0
 40
1.0
176
     0
 90
        2
176
     1
  1
strokes_ogs.tif
176
     1
290
     0
176
     1
 40
1.0
176
     1
 40
1.0
176
     1
  0
VISUALSTYLE
  5
108AC5
102
{ACAD_REACTORS
330
108AAF
102
}
330
108AAF
100
AcDbVisualStyle
  2
X-Ray
 70
    25
177
     3
291
     0
 70
    58
 90
        2
176
     1
 90
        2
176
     1
 90
        1
176
     1
 90
        1
176
     1
 40
0.5
176
     1
 40
30.0
176
     1
 62
     7
420
 16777215
176
     1
 90
        1
176
     1
 90
        0
176
     1
 62
     7
176
     1
 62
   257
176
     1
 90
        1
176
     1
 90
        1
176
     1
 40
1.0
176
     1
 90
        8
176
     1
 62
     7
176
     1
 40
1.0
176
     1
 90
        1
176
     1
 90
        6
176
     1
 90
        2
176
     1
 62
     7
176
     1
 90
        3
176
     1
 90
        0
176
     1
 90
        0
176
     1
290
     0
176
     1
 90
       13
176
     1
 40
0.0
176
     1
 90
        0
176
     1
290
     0
176
     1
290
     1
176
     1
290
     1
176
     1
290
     0
176
     1
290
     0
176
     1
290
     0
176
     1
290
     0
176
     1
290
     0
176
     1
290
     0
176
     1
 90
       50
176
     1
 40
0.0
176
     1
 40
1.0
176
     1
 90
        0
176
     1
 62
    18
420
        0
176
     1
 90
       50
176
     1
 90
        3
176
     1
 62
     5
420
      255
176
     1
290
     0
176
     1
 90
       50
176
     1
 90
       50
176
     1
 90
       50
176
     1
290
     0
176
     1
 90
       50
176
     1
 62
   256
176
     0
 40
1.0
176
     0
 90
        2
176
     1
  1
strokes_ogs.tif
176
     1
290
     0
176
     1
 40
1.0
176
     1
 40
1.0
176
     1
  0
DICTIONARYVAR
  5
109379
102
{ACAD_REACTORS
330
11AC
102
}
330
11AC
100
DictionaryVariables
280
     0
  1
1:1
  0
DICTIONARYVAR
  5
10937E
102
{ACAD_REACTORS
330
11AC
102
}
330
11AC
100
DictionaryVariables
280
     0
  1
Standard
  0
DICTIONARYVAR
  5
10937D
102
{ACAD_REACTORS
330
11AC
102
}
330
11AC
100
DictionaryVariables
280
     0
  1
Standard
  0
DICTIONARYVAR
  5
A62D0
102
{ACAD_REACTORS
330
11AC
102
}
330
11AC
100
DictionaryVariables
280
     0
  1
2
  0
DICTIONARYVAR
  5
11AD
102
{ACAD_REACTORS
330
11AC
102
}
330
11AC
100
DictionaryVariables
280
     0
  1
1
  0
DICTIONARYVAR
  5
A62CF
102
{ACAD_REACTORS
330
11AC
102
}
330
11AC
100
DictionaryVariables
280
     0
  1
1
  0
DICTIONARYVAR
  5
88912
102
{ACAD_REACTORS
330
11AC
102
}
330
11AC
100
DictionaryVariables
280
     0
  1
0
  0
DICTIONARYVAR
  5
10937F
102
{ACAD_REACTORS
330
11AC
102
}
330
11AC
100
DictionaryVariables
280
     0
  1
0
  0
DICTIONARYVAR
  5
AD08
102
{ACAD_REACTORS
330
11AC
102
}
330
11AC
100
DictionaryVariables
280
     0
  1
96
  0
DICTIONARYVAR
  5
106A74
102
{ACAD_REACTORS
330
B8117
102
}
330
B8117
100
DictionaryVariables
280
     0
  1
0.261799
  0
DICTIONARYVAR
  5
106A72
102
{ACAD_REACTORS
330
B8117
102
}
330
B8117
100
DictionaryVariables
280
     0
  1
0.400000
  0
DICTIONARYVAR
  5
106A73
102
{ACAD_REACTORS
330
B8117
102
}
330
B8117
100
DictionaryVariables
280
     0
  1
0.250000
  0
DICTIONARYVAR
  5
106A75
102
{ACAD_REACTORS
330
B8117
102
}
330
B8117
100
DictionaryVariables
280
     0
  1
1
  0
XRECORD
  5
A1F78
102
{ACAD_REACTORS
330
1E615
102
}
330
1E615
100
AcDbXrecord
280
     1
 91
     1023
301

290
     0
302
寸法
330
E
 90
       24
 62
     7
370
    -3
331
14
  1
Color_7
330
0
 90
        9
 62
     1
370
    -3
331
14
  1
Color_1
330
0
 90
        0
 62
     7
370
    -3
331
14
  1
Color_7
330
0
 90
        8
 62
     7
370
    -3
331
14
  1
Color_7
330
0
 90
        8
 62
    40
370
    20
331
14
  1
Color_40
330
8C6
 90
        8
 62
    40
370
    20
331
14
  1
Color_40
330
0
 90
        8
 62
     7
370
    -3
331
14
  1
Color_7
330
0
 90
        8
 62
     7
370
    -3
331
14
  1
Color_7
330
96A
 90
        8
 62
     1
370
     9
331
969
  1
Color_1
330
1521
 90
        8
 62
     3
370
    30
331
14
  1
Color_3
330
0
 90
        8
 62
   252
370
    13
331
0
  1
Color_252
330
1523
 90
        9
 62
     7
370
     9
331
14
  1
Color_7
330
0
 90
        8
 62
    31
370
    30
331
14
  1
Color_31
330
0
 90
        8
 62
   121
370
    30
331
14
  1
Color_121
330
0
 90
        8
 62
   200
370
    13
331
0
  1
Color_200
330
0
 90
        8
 62
     3
370
    15
331
14
  1
Color_3
330
0
 90
        8
 62
     4
370
    13
331
14
  1
Color_4
330
0
 90
        8
 62
     7
370
    30
331
14
  1
Color_7
330
0
 90
        8
 62
     3
370
    30
331
14
  1
Color_3
330
0
 90
        8
 62
     1
370
    15
331
0
  1
Color_1
330
0
 90
        8
 62
     3
370
    13
331
0
  1
Color_3
330
0
 90
        8
 62
     9
370
     5
331
14
  1
Color_9
330
0
 90
        8
 62
     7
370
    -3
331
14
  1
Color_7
330
0
 90
        8
 62
     3
370
    15
331
14
  1
Color_3
330
0
 90
        8
 62
     3
370
    30
331
14
  1
Color_3
330
0
 90
        8
 62
   191
370
    30
331
0
  1
Color_191
330
0
 90
        8
 62
    11
370
     9
331
14
  1
Color_11
330
0
 90
        8
 62
   241
370
    20
331
14
  1
Color_241
330
0
 90
        8
 62
     4
370
    13
331
14
  1
Color_4
330
0
 90
        8
 62
     1
370
    13
331
0
  1
Color_1
330
0
 90
        8
 62
     6
370
    -3
331
14
  1
Color_6
330
0
 90
        8
 62
     7
370
    13
331
14
  1
Color_7
330
0
 90
        8
 62
   141
370
    30
331
14
  1
Color_141
330
0
 90
        8
 62
     3
370
    -3
331
14
  1
Color_3
330
0
 90
        8
 62
     3
370
    30
331
14
  1
Color_3
330
0
 90
        8
 62
     7
370
    -3
331
14
  1
Color_7
330
0
 90
        8
 62
     6
370
    15
331
14
  1
Color_6
330
0
 90
        8
 62
    31
370
    40
331
14
  1
Color_31
  0
XRECORD
  5
A133B
102
{ACAD_REACTORS
330
1E615
102
}
330
1E615
100
AcDbXrecord
280
     1
 91
     1023
301

290
     0
302
寸法
330
E
 90
       24
 62
     7
370
    -3
331
14
  1
Color_7
330
0
 90
        9
 62
     1
370
    -3
331
14
  1
Color_1
330
0
 90
        0
 62
     7
370
    -3
331
14
  1
Color_7
330
0
 90
        8
 62
     7
370
    -3
331
14
  1
Color_7
330
0
 90
        8
 62
    40
370
    20
331
14
  1
Color_40
330
8C6
 90
        8
 62
    40
370
    20
331
14
  1
Color_40
330
0
 90
        8
 62
     7
370
    -3
331
14
  1
Color_7
330
0
 90
        8
 62
     7
370
    -3
331
14
  1
Color_7
330
96A
 90
        9
 62
     1
370
     9
331
969
  1
Color_1
330
1521
 90
        8
 62
     3
370
    30
331
14
  1
Color_3
330
0
 90
        8
 62
   252
370
    13
331
0
  1
Color_252
330
1523
 90
        8
 62
     7
370
     9
331
14
  1
Color_7
330
0
 90
        8
 62
    31
370
    30
331
14
  1
Color_31
330
0
 90
        8
 62
   121
370
    30
331
14
  1
Color_121
330
0
 90
        8
 62
   200
370
    13
331
0
  1
Color_200
330
0
 90
        8
 62
     3
370
    15
331
14
  1
Color_3
330
0
 90
        8
 62
     4
370
    13
331
14
  1
Color_4
330
0
 90
        8
 62
     7
370
    30
331
14
  1
Color_7
330
0
 90
        8
 62
     3
370
    30
331
14
  1
Color_3
330
0
 90
        8
 62
     1
370
    15
331
0
  1
Color_1
330
0
 90
        8
 62
     3
370
    13
331
0
  1
Color_3
330
0
 90
        8
 62
     9
370
     5
331
14
  1
Color_9
330
0
 90
        8
 62
     7
370
    -3
331
14
  1
Color_7
330
0
 90
        8
 62
     3
370
    15
331
14
  1
Color_3
330
0
 90
        8
 62
     3
370
    30
331
14
  1
Color_3
330
0
 90
        8
 62
   191
370
    30
331
0
  1
Color_191
330
0
 90
        8
 62
    11
370
     9
331
14
  1
Color_11
330
0
 90
        8
 62
   241
370
    20
331
14
  1
Color_241
330
0
 90
        8
 62
     4
370
    13
331
14
  1
Color_4
330
0
 90
        8
 62
     1
370
    13
331
0
  1
Color_1
330
0
 90
        8
 62
     6
370
    -3
331
14
  1
Color_6
330
0
 90
        8
 62
     7
370
    13
331
14
  1
Color_7
330
0
 90
        8
 62
   141
370
    30
331
14
  1
Color_141
330
0
 90
        8
 62
     3
370
    -3
331
14
  1
Color_3
330
0
 90
        8
 62
     3
370
    30
331
14
  1
Color_3
330
0
 90
        8
 62
     7
370
    -3
331
14
  1
Color_7
330
0
 90
        8
 62
     6
370
    15
331
14
  1
Color_6
330
0
 90
        8
 62
    31
370
    40
331
14
  1
Color_31
330
0
 90
        8
 62
     7
370
    -3
331
14
  1
Color_7
  0
DICTIONARY
  5
109380
330
108ACD
100
AcDbDictionary
280
     1
281
     1
  3
ACAD_ROUNDTRIP_2008_TABLESTYLE_CELLSTYLEMAP
360
109381
  0
CELLSTYLEMAP
  5
109381
102
{ACAD_REACTORS
330
109380
102
}
330
109380
100
AcDbCellStyleMap
 90
        3
300
CELLSTYLE
  1
TABLEFORMAT_BEGIN
 90
        5
170
     1
 91
        0
 92
    32768
 62
   257
 93
        1
300
CONTENTFORMAT
  1
CONTENTFORMAT_BEGIN
 90
        0
 91
        0
 92
        4
 93
        0
300

 40
0.0
140
1.0
 94
        5
 62
     0
340
F
144
0.25
309
CONTENTFORMAT_END
171
     1
301
MARGIN
  1
CELLMARGIN_BEGIN
 40
0.06
 40
0.06
 40
0.06
 40
0.06
 40
0.06
 40
0.06
309
CELLMARGIN_END
 94
        6
 95
        1
302
GRIDFORMAT
  1
GRIDFORMAT_BEGIN
 90
        0
 91
        1
 62
     0
 92
       -2
340
12
 93
        0
 40
0.045
309
GRIDFORMAT_END
 95
        2
302
GRIDFORMAT
  1
GRIDFORMAT_BEGIN
 90
        0
 91
        1
 62
     0
 92
       -2
340
12
 93
        0
 40
0.045
309
GRIDFORMAT_END
 95
        4
302
GRIDFORMAT
  1
GRIDFORMAT_BEGIN
 90
        0
 91
        1
 62
     0
 92
       -2
340
12
 93
        0
 40
0.045
309
GRIDFORMAT_END
 95
        8
302
GRIDFORMAT
  1
GRIDFORMAT_BEGIN
 90
        0
 91
        1
 62
     0
 92
       -2
340
12
 93
        0
 40
0.045
309
GRIDFORMAT_END
 95
       16
302
GRIDFORMAT
  1
GRIDFORMAT_BEGIN
 90
        0
 91
        1
 62
     0
 92
       -2
340
12
 93
        0
 40
0.045
309
GRIDFORMAT_END
 95
       32
302
GRIDFORMAT
  1
GRIDFORMAT_BEGIN
 90
        0
 91
        1
 62
     0
 92
       -2
340
12
 93
        0
 40
0.045
309
GRIDFORMAT_END
309
TABLEFORMAT_END
  1
CELLSTYLE_BEGIN
 90
        1
 91
        1
300
_TITLE
309
CELLSTYLE_END
300
CELLSTYLE
  1
TABLEFORMAT_BEGIN
 90
        5
170
     1
 91
        0
 92
        0
 62
   257
 93
        1
300
CONTENTFORMAT
  1
CONTENTFORMAT_BEGIN
 90
        0
 91
        0
 92
        4
 93
        0
300

 40
0.0
140
1.0
 94
        5
 62
     0
340
F
144
0.18
309
CONTENTFORMAT_END
171
     1
301
MARGIN
  1
CELLMARGIN_BEGIN
 40
0.06
 40
0.06
 40
0.06
 40
0.06
 40
0.06
 40
0.06
309
CELLMARGIN_END
 94
        6
 95
        1
302
GRIDFORMAT
  1
GRIDFORMAT_BEGIN
 90
        0
 91
        1
 62
     0
 92
       -2
340
12
 93
        0
 40
0.045
309
GRIDFORMAT_END
 95
        2
302
GRIDFORMAT
  1
GRIDFORMAT_BEGIN
 90
        0
 91
        1
 62
     0
 92
       -2
340
12
 93
        0
 40
0.045
309
GRIDFORMAT_END
 95
        4
302
GRIDFORMAT
  1
GRIDFORMAT_BEGIN
 90
        0
 91
        1
 62
     0
 92
       -2
340
12
 93
        0
 40
0.045
309
GRIDFORMAT_END
 95
        8
302
GRIDFORMAT
  1
GRIDFORMAT_BEGIN
 90
        0
 91
        1
 62
     0
 92
       -2
340
12
 93
        0
 40
0.045
309
GRIDFORMAT_END
 95
       16
302
GRIDFORMAT
  1
GRIDFORMAT_BEGIN
 90
        0
 91
        1
 62
     0
 92
       -2
340
12
 93
        0
 40
0.045
309
GRIDFORMAT_END
 95
       32
302
GRIDFORMAT
  1
GRIDFORMAT_BEGIN
 90
        0
 91
        1
 62
     0
 92
       -2
340
12
 93
        0
 40
0.045
309
GRIDFORMAT_END
309
TABLEFORMAT_END
  1
CELLSTYLE_BEGIN
 90
        2
 91
        1
300
_HEADER
309
CELLSTYLE_END
300
CELLSTYLE
  1
TABLEFORMAT_BEGIN
 90
        5
170
     1
 91
        0
 92
        0
 62
   257
 93
        1
300
CONTENTFORMAT
  1
CONTENTFORMAT_BEGIN
 90
        0
 91
        0
 92
        4
 93
        0
300

 40
0.0
140
1.0
 94
        2
 62
     0
340
F
144
0.18
309
CONTENTFORMAT_END
171
     1
301
MARGIN
  1
CELLMARGIN_BEGIN
 40
0.06
 40
0.06
 40
0.06
 40
0.06
 40
0.06
 40
0.06
309
CELLMARGIN_END
 94
        6
 95
        1
302
GRIDFORMAT
  1
GRIDFORMAT_BEGIN
 90
        0
 91
        1
 62
     0
 92
       -2
340
12
 93
        0
 40
0.045
309
GRIDFORMAT_END
 95
        2
302
GRIDFORMAT
  1
GRIDFORMAT_BEGIN
 90
        0
 91
        1
 62
     0
 92
       -2
340
12
 93
        0
 40
0.045
309
GRIDFORMAT_END
 95
        4
302
GRIDFORMAT
  1
GRIDFORMAT_BEGIN
 90
        0
 91
        1
 62
     0
 92
       -2
340
12
 93
        0
 40
0.045
309
GRIDFORMAT_END
 95
        8
302
GRIDFORMAT
  1
GRIDFORMAT_BEGIN
 90
        0
 91
        1
 62
     0
 92
       -2
340
12
 93
        0
 40
0.045
309
GRIDFORMAT_END
 95
       16
302
GRIDFORMAT
  1
GRIDFORMAT_BEGIN
 90
        0
 91
        1
 62
     0
 92
       -2
340
12
 93
        0
 40
0.045
309
GRIDFORMAT_END
 95
       32
302
GRIDFORMAT
  1
GRIDFORMAT_BEGIN
 90
        0
 91
        1
 62
     0
 92
       -2
340
12
 93
        0
 40
0.045
309
GRIDFORMAT_END
309
TABLEFORMAT_END
  1
CELLSTYLE_BEGIN
 90
        3
 91
        2
300
_DATA
309
CELLSTYLE_END
  0
ENDSEC
  0
SECTION
  2
ACDSDATA
 70
     2
 71
     2
  0
ACDSSCHEMA
 90
        0
  1
AcDb_Thumbnail_Schema
  2
AcDbDs::ID
280
    10
 91
        8
  2
Thumbnail_Data
280
    15
 91
        0
101
ACDSRECORD
 95
        0
 90
        2
  2
AcDbDs::TreatedAsObjectData
280
     1
291
     1
101
ACDSRECORD
 95
        0
 90
        3
  2
AcDbDs::Legacy
280
     1
291
     1
101
ACDSRECORD
  1
AcDbDs::ID
 90
        4
  2
AcDs:Indexable
280
     1
291
     1
101
ACDSRECORD
  1
AcDbDs::ID
 90
        5
  2
AcDbDs::HandleAttribute
280
     7
282
     1
  0
ACDSSCHEMA
 90
        1
  1
AcDb3DSolid_ASM_Data
  2
AcDbDs::ID
280
    10
 91
        8
  2
ASM_Data
280
    15
 91
        0
101
ACDSRECORD
 95
        1
 90
        2
  2
AcDbDs::TreatedAsObjectData
280
     1
291
     1
101
ACDSRECORD
 95
        1
 90
        3
  2
AcDbDs::Legacy
280
     1
291
     1
101
ACDSRECORD
  1
AcDbDs::ID
 90
        4
  2
AcDs:Indexable
280
     1
291
     1
101
ACDSRECORD
  1
AcDbDs::ID
 90
        5
  2
AcDbDs::HandleAttribute
280
     7
282
     1
  0
ACDSSCHEMA
 90
        2
  1
AcDbDs::TreatedAsObjectDataSchema
  2
AcDbDs::TreatedAsObjectData
280
     1
 91
        0
  0
ACDSSCHEMA
 90
        3
  1
AcDbDs::LegacySchema
  2
AcDbDs::Legacy
280
     1
 91
        0
  0
ACDSSCHEMA
 90
        4
  1
AcDbDs::IndexedPropertySchema
  2
AcDs:Indexable
280
     1
 91
        0
  0
ACDSSCHEMA
 90
        5
  1
AcDbDs::HandleAttributeSchema
  2
AcDbDs::HandleAttribute
280
     7
 91
        1
284
     1
  0
ACDSRECORD
 90
        0
  2
AcDbDs::ID
280
    10
320
741
  2
Thumbnail_Data
280
    15
 94
    13353
310
89504E470D0A1A0A0000000D4948445200000100000000910802000000A35DF163000000097048597300000EC400000EC401952B0E1B0000200049444154789CED9D795C5367BAC74FF6842484251012F62DEC20FB2291258848AC4CEBDA56ADB5D3AB763AB64E6D3BB7B5DE2E335D6E97997AADFAB1ED5447ADB6E282800B
310
88B22B0212400C206191252480614F42B6FBC73B3737131073120868CFF7AFE4E49CF7BC39E73CE7DD9EE7F740100202020202C2934D7A7AFA42570101068BE47EA117BA0273060E875BE82A20C06091DC2FEC829CD5C6C6262B2B6B7070D0CC7262636329140A044152A91483C1502894D8D858F0934020E8EBEB33B37C2C
310
169B93936366212690919181C160E01E45A7D3A75F520C0673F1E24533EBB364C912676767330B31203A3A7A6E0BD46834454545535353B08E5A0003B0B1B1E17038A74E9D825B570C06636B6BCBE572232323BDBDBDC562715555D5F8F8380441414141C9C9C9F6F6F6A5A5A51A8D0682A0C0C0C0F0F07006835159595955
310
55D5D0D0303A3A0AB7AA0101014B972EADA8A8807BA099646565EDDCB913EE513C1E2F3F3F7FFA46332BB364C9128944C2E7F3CD2C471F028140A3D1CACACAD46AF5C4C4C49C948942A1D2D2D2EEDDBBD7DBDB6BFC519636007777776767E7DCDC5C5847B158AC152B560407074F4C4C1415157DF4D1470657ADBBBBDBC7C7
310
472C16E7E4E400BB3A7BF62CF8C9DBDB3B363676D5AA552A95EADAB56BE5E5E52A95CAC8F30A04021B1B9BA54B973636369A603F4F3AB6B6B6C1C1C142A1D09CB6D4CACACACFCF8FC56249241208821C1D1D210892CBE54E4E4E4E4E4E4C2613B4E1128944A150603098969696C9C949134EA4D56A0B0B0BD3D3D32914CAFD
310
FBF7C17BF0B158D4006C6D6D1313132B2A2A74AF254747C7DADADAEEEE6E2F2FAFDADADAE987848585AD59B3666A6AEAEAD5AB274F9E7C54A371FBF6EDC2C2C22B57AE4CDF4128140A85C29F7FFED9CECE2E2D2DED9B6FBEA9ABAB3B7BF6ECF4079A48244644445457573FFBECB31004011B93482468343A3A3ABAA8A8C8CC
310
BFFFC4919494241289A63FFDE9E9E9B5B5B5434343B31CEBE3E3636B6BABD56AA9546A7373735D5D9DC10E4422B1B5B5B5B5B555B7058FC7D3E9F498981832995C5353239148B45AED2CA708080818191931A85E7979795656D6E4E4647777B7517FD262D8DADA26242490C9E48F3FFE98442291C964269309411097CBDDB1
310
63C7F4FDFDFDFD0F1E3CB87DFB763A9D6E4CF9C6B7F55151519F7FFEF93BEFBC4320100C7EB2B1B1D9BF7F3F89442212892E2E2EA0581E8F47A3D1962E5D6A64F9E673E8D021138E9AF10A98DC050A0F0F67B1589E9E9E0101016834DACDCD8D42A1D8D9D965666682F1ABBDBDBD979797C151582C36363696C7E3B1D96CFD
310
ED8E8E8EE1E1E13B76EC00D7F3BBEFBECBCFCFFFAFFFFA2F1E8FF7E28B2FFEEE77BF737373A352A9BAFD5D5D5D333333793C9EAFAFEF2C955CB2644978783804416E6E6E341ACDCACA2A25250582A0152B56B0582C63FE26CAB8AB31076CDBB6ED1FFFF807E8A76ED8B041AD560B85C2D5AB57FFFCF3CF9E9E9E376EDC502A
310
95604F1289B46DDB36341AFDCB2FBF8076D318A2A3A3ABABAB8DAF4F4C4CCC73CF3D77F1E2C5CACA4ADDC6A8A8A8EEEEEE952B57AAD5EAFAFA7A1E8F77FCF8714747479148A45028381C8E65C6C4870E1D9AC331C0F48D8F253C3C5C2C168397ABA7A7E7CB2FBFFCEBAFBF2E5DBA746A6AEAA79F7E7A54E18989896432B9B6
310
B6563716DFB871A38D8D8D8D8DCDD8D8586D6DEDE8E8E8BD7BF7C04FBAFBC560301C1C1CE2E3E3ADADAD29148A42A1387AF4687F7F3FD8CDD7D717F40E1E3565C262B1D6AE5DDBD4D484C3E16C6C6C4E9F3E0D41101A8D4E4A4ABA79F3A65C2E9FFD9F5AA80B949E9E7EFCF871DD57B95CDEDFDFEFE9E979F6EC590A85F2F0
310
E1435B5B5BF0ACB3D9EC0D1B369C3B77AEA9A9695EAB74FBF6EDFAFAFA75EBD60507071F3D7A14F49D180C464D4DCDC3870FBBBBBB7D7D7D8F1F3F1E1C1C7CFBF66D3F3FBF9B376F1A3F78581030180C8FC7633018D1D1D15AAD168BC56A349AFEFE7E130C80C562E93A2DDEDEDEBFFEFAABB7B7774343839D9D9DFE6EC5C5
310
C53B76EC1089440281C0D7D7B7BCBC7C64640482203F3FBF975F7E59AD565FB972E5FCF9F30A8562967389C562B1587CF7EE5D0882502894B5B5F5B3CF3E9B9090909F9F9F9F9F7FFFFEFD8E8E8EC8C8C8E0E0E08A8A0ADD5B52078D46BB73E70E9D4E1F1919D18D0CC11F67B158EDEDEDB3FF530B1900168BD5AFBA4AA5C2
310
E3F1A3A3A3565656E3E3E35656561004E170B8975E7A8942A1ECDFBF1F5C475880D1152C140AC5891327962C59F2C9279F9C3C79B2A1A1016C57ABD5381C6E78789848242A954A341AAD56ABE1166E79D46A757E7E3E97CBFDF9E79FE572398FC7F3F0F0A0D16866164B2412E572B95C2E9F3EAC241008232323CECECE341A
310
ED9FFFFC270441010101494949898989C018CACACA1E55EC8CF74BABD58E8C8CB4B4B4E070B8A8A8A8888888F6F6F653A74E55555591C9E4949414B1585C5F5FAF7F8852A9C46030131313C0E0E1FEBB85590853ABD5414141341A2D3C3C7C7070904EA73F7CF870C78E1DF7EFDFFFFBDFFF6EC2D36F0E7C3EFF830F3E58BD
310
7A75606060575797BBBBFBC4C444444404068379E18517F87CBEB7B7F7635F248B933969B22A2B2BF7EEDDABD56AFDFCFC0CC663565656191919783CBEA5A58546A3EDD9B387C562FDF8E38F67CF9EF5F1F131BEFB6A8048246232990303039F7EFA694545C5D6AD5B5353532726260A0A0A060707E3E3E3F577EEEFEF0F08
310
0840A150111111D6D6D6A6FFCF79253333137CC06030AFBFFEBA9F9F1F06830163A9975F7E392323E3BDF7DE0B0D0D35E714664E78A3D1E8D75F7F3D2D2D6DDFBE7D9E9E9E68341A87C3A1D16830149B9353188F3983602E974B241221083A78F0604E4ECE7BEFBD6772511004613098E5CB9763B1587035E8747A5C5C1CF8
310
090C40D168348BC5DAB76FDFEEDDBB492492AE84C72EF4CE7E3131180C1AFDFF6FE784848477DF7D1774C06C6D6D333333F1783C04416432392929099C0E8BC5B258AC254B968043020202A68FD1A763E975006B6BEBA6A6A6D8D8581F1F1FB0A5ACACECF0E1C37BF6ECD1F54016048D4673E0C0812FBEF8E2C18307AEAEAE
310
818181A0B642A1D0C1C161012B663228144AFF193201341ABD6CD9B2D2D2525D4B32383848A1501212120606063A3A3A4646464824D2DAB56BEBEAEA4422914C26D31D3BBDB30E0B833E676565655D5DDDABAFBE2A10080A0B0B2F5FBE9C9C9C7CF7EEDD808080929212DDE9FAFAFA1C1C1C5C5C5C7A7A7A8C3C91A50D8042
310
A1DCB87143F7158542BDF7DE7B5BB66C31DF2DC2E406579F0F3EF8E0D9679F45A150FA03471A8D666D6DFD642D84BDF9E69B4E4E4EF6F6F6E614C26432050281C110B6B3B313F4124746460804C29E3D7BBEFBEEBB870F1F868484100884D9C7BBFAC0BD5F32996CFFFEFD5BB76EE57038656565A5A5A51B376E3C77EE9CC1
310
6EF5F5F5AEAEAEC6176BE93180FEF2040E877BE595572E5EBCD8D7D707D72D623A260C82A733353575E6CC195F5F5F5D4B0A41D0C8C8C893F5F44310442693AF5CB9F2DA6BAF9953486F6FAF6E3A52477070706767675F5F1F9BCD7EE18517F6EFDFFFF0E14308821A1B1BD3D2D28C2FDCB4FB75F4E851994CF6CA2BAFA8D5
310
EA93274F2624244C5FCC81B504B690DEA0BFFBDDEFDADBDB1B1B1B17B00ED3D16834FFFCE73F793CDE13DAF3D1919494545A5A3AB765BABBBB63B1D8AEAE2E1289C4E1708E1E3DAA3F6351565696989838B7679C4E4D4D0D9FCF7FE5955720082A2F2FE77038E694B66006101818E8E8E8A8DF1D5A3C4C4D4DFDF0C30FDBB7
310
6F37C125739120100870389CFEDAAAF98002F97C3E91487CFBEDB77FF9E517035785D1D1D1FEFE7E8335E0F9A0B6B6B6A2A222282848A150D4D4D4242424985CD4C218809595D5DAB56B8F1F3F3EBBB38731A050A8A0A0A0A0A0201289043E18B9063E3B62B1F8C68D1B1B376E34BF28B8A05028E01F660E4B972E05734173
310
487A7A3A58AEDAB973E7B7DF7E0BFC700D686B6BF3F0F030C6D7DFCC315B7373735454546060E0F0F0F0D0D0906E4E052E0B130FB07AF56A30AD6672090E0E0ECF3DF71C93C9BC7BF7EE4B2FBD343434D4DEDEEEE9E9B96CD9B27BF7EEF5F7F793C9E4D2D25273FA0072B93C2B2B2B3F3F7F7878D8E4424C203C3C5C37D568
310
32E7CE9DDBBE7DFBB56BD7E6A44A1004454444006FC5D5AB57979696CEB256535252B26CD9320BF80E1E3B766CEFDEBD2291A8A5A52531315122919830545B8016C0C3C363C3860D565656A6B997454747BFFDF6DBEFBFFFBE5AADAEAEAE1E1F1FCFCACADAB66D5B5D5DDDD75F7F9D959575F0E0C1D6D6D6FAFAFAE4E4E4BF
310
FCE52FBB76ED32A127606F6F9F9292D2DFDFBF77EF5E132A690E9E9E9EE617B267CF1E5B5B5B0683617E511004E1F1783299DCDFDF1F1111E1E0E030A3DFAE0E854221140AC13CF22CCCC9A4C537DF7CB379F3660882AAABAB6362624C2861015A800D1B365CBE7C994C26C36D019C9C9CD6AE5DEBECEC5C575777E1C285FB
310
F7EF4310141111C1E170140AC592254BC04AB8B5B5754949495F5FDFD5AB57E3E3E3030202F6EEDD5B595909CB8F6D6868C8CACA4A2010F8F8F8B0D96C7DAFDDF9263838984C26F3783C7D077A08820A0B0B8D9C2B8B8E8E6E6868A052A9151515662E0500D86C36706A58BE7CF9B7DF7EFBD8FD3B3B3B972F5FDED6D666FE
310
E4DEEC4C4E4EB6B6B62627271717172B954A32990C37BCC6D206E0EAEA8A46A38F1C3982C7E3615D1D4F4FCF975E7AE9EEDDBBAEAEAE60A2D7D5D555A954DEBF7F7F6C6C6C6262C2D1D1F1D2A54B5AAD964824DAD9D94547473B3A3A8686862A954AA150686363B367CF9EBFFDED6FC67BF57CF2C927180CC6C9C969CB962D
310
9F7EFAA929FFD624EEDEBD3B31316182071BA0B4B49446A3090402F0D57C2F6E47474760459B376F2E2E2E7EAC7F25E0FAF5EB69696957AF5E35F3EC8FA5B0B0F09D77DE292929A9A8A8080E0E861BB966E92ED0962D5B40AC16ACA77FF5EAD5C9C9C9454545D9D9D94C26333030D0D6D6B6B4B45424122D59B224393999C7
310
E33199CC8C8C0C1E8FC7E5725D5D5DBBBBBBF3F3F3BDBDBD994C2683C1C8CBCB7BF0E0C1871F7E68FCE4A656AB55A9543D3D3D535353212121A6FCDB8540A9540EEA61BE3B506464646363238140707777AFAAAA32F228B55A5D535333CB60664E162EC189CE9F3FCFE572552A9552A9048E95C6635103B0B6B666329970BB
310
135959596E6E6EF5F5F5656565090909959595C03D93CBE5623098828202E0377BE7CE9DCB972F83CF6D6D6D2C162B333373626242A9540A0402128974F5EAD5CACACA5DBB7619F8F43E96DCDCDCD5AB57C33AE4A9C1CACA4A2E976BB55A109707EBD20D0D0DE1F178F367B41E8B5AAD06417C028100B806198F45BB405151
310
51C5C5C5B00EF1F2F2727575ADAFAFBF73E70E87C3696C6C0451CFD32722F407554343434343432814AAAFAF0F8FC7DFB97327303090C1605CBD7A158FC7BFFAEAAB5F7DF595F17DA1D6D6567B7BFBE92B8EBF05DCDDDD6FDFBE8D42A1020202DCDCDC5E7DF5D52FBEF8C2F8C3CBCACAC2C3C3EBEAEAA6CF77CFC920188220
310
1717975DBB76DDBB776FD5AA5579797970C73C166D01D2D2D2604DCC81FE777B7B7B59591987C3A9AFAF7777770F0C0CCCCDCD35C6655AABD5F2F9FCF6F6F665CB96F5F6F62A954A6767E7B2B2B29E9E9E3FFDE94FC65743ABD50A0482A0A020E30F796AF0F2F29A9898F0F2F2F2F3F32B2B2BD38F9E3306AD56DBD2D2E2EF
310
EFAFDBE2EDEDFDE69B6FEED8B1232929E9BDF7DE4B4B4B3373C57D6A6A8ACFE7DBDBDB2F5BB60C82A0969616106A6B24966B016C6C6C502814AC39F5575F7D5528145EBF7E3D3E3EBEA9A9894EA7633018837BE0E4E414191909E9E9CCC8E572FD49E8C1C1C1D2D2D2CCCCCCDCDC5C2E975B5A5A2A1008222222BCBDBD8542
310
A19135292D2DCDC8C8686B6B33BEF24F01BA4995152B56BCFEFAEB180C462412C12D646262824AA5D2E9740E87C364326362626EDDBA353131A152A9800B5D666666737373767636F029828B4422397BF62C0A85DAB66D1B954A6D6B6BE372B9C6D7D37206E0E5E5052BACC4C9C90982A0D6D6562C162B954A150A85ABAB2B
310
F07D053099CC888808914804264C24120988312512893C1E6F6464A4BABA1A3827AA54AA8B172F820056108A1A1414C4E3F1F6EFDF6F64655A5A5ADE7CF3CDDF9A01242727836BEBE8E868CE98F5EEDDBB3FFFFCF38D1B379A9B9B0F1E3C0836EA6282FDFDFDFDFCFCDE7DF7DD828202D396CFC05BB5A4A4242929292F2F0F
310
D67298E5BA407083D65F7AE9A5C6C6C6DADADAD8D8D8CECECEE4E464FDA73F2E2E8EC96482B1AFC18172B93C3F3FBFB1B131212141DF2DA2BEBE3E2C2C6C6464C4D7D7B7B4B4D4CDCDCDC3C3C3F8FA8C8C8C981F5EF82442A3D1C0928B6990C9E4B7DF7EFBA79F7E128BC533CE8A363737E7E4E49C3A752A282868467D1023
310
696A6A02DD542B2B2BE347DE963380909010588E9F0E0E0E434343C1C1C10281C0CDCD4D7FEEC8CFCF6F6464C4E0D13718548D8C8C94949484848480D02108827A7A7A9C9D9DEFDFBFCF66B3BBBABA6A6B6BB3B2B28CAF4F7575F59CABF92D72C05B3F2E2EEEE6CD9BA69500DCE61A1B1B2F5DBA545353A3BFC86D70BFF87C
310
FE993367A854AAC9DE9D32990C84A455545418BFFA613903C062B1C64FBC4445454D4E4EF2F97C6767E7BEBE3E5F5F5FDD4B8848243A3B3BEB167A6641A3D15CBD7A75D3A64DBA2D0D0D0D212121FDFDFD140A657474543F84EFB18C8E8E2EDE90D3F964E5CA95C6075819B075EBD6AEAEAEDCDC5CA552D9D6D6E6E9E939CB
310
3517894445454569696926CF9C92C9640882542A15166B6CDF7E91AA43272727D7D6D68E8D8D4924125B5B5BA954AAFB09AE58E7CD9B37752F9E9E9E1E5757D77BF7EE858484DCBE7DDBC9C9C9F8E821301365FC791790949414EEFF61B247348D46038D67454585691E0D6066A6ADAD4D171E595C5C9C9C9C3CCB217C3E5F
310
2814FEE10F7F30E174100495949480950AE3FDD817A901585959D9DBDB63B158954A151C1C0CBC7001442271C6B8BB478DD20402818163964C26B3B1B1914AA5939393E6FB5D2E36525252EEDCB9535E5E6E6D6D3D3838684C60F88C84848480CB0E776949C7D2A54B4B4B4BCBCBCB755B341A4D43430388B69BF17E69349A
310
EEEE6E23B500673C3C2A2A0A8213913C5FB3405E5E5EAB56ADD2F519D6AC59F3F5D75F1B7F3893C9ACADAD0D0D0D158944111111BA713DDC91F4A340A3D1601A0ED69CB1E565A24D008D462B140A8542313535B572E54AF30B34392AC8CBCB4B28141A2C81F5F6F6BAB9B9CD52A6402058BD7AB58F8F8F09736E050505A9A9
310
A9100481E5B0C3870FEBFCE1C562717171F1F4D1FC1C1B405A5A1A5831FDD39FFE74F7EEDD2FBFFCD2D6D6B6A1A1E1DAB56BB05600AE5DBB462412D7AC59D3DCDCAC3F3D6C6D6DFDA825302357169B9A9AA2A3A357AD5AA5D168604D6E2895CAB912F2B60CA1A1A12E2E2EB0B4C2F5D13DB826AB759048A41995AA6EDEBCF9
310
FCF3CF8F8D8DCD78547F7F3F894462B3D9E64F3A5FBF7EFDB3CF3E7BE69967F87CFEFAF5EB5F7FFDF582820208828686866EDDBA05F6994B03F0F1F1E1703862B118BCA4A3A2A2CACBCB812D021F1EFD97814422D13DB2067EBF1289243535D5C5C5A5BBBBFBADB7DE3A72E4487C7C3C954A056A616363630402018FC78388
310
275D39BA299AE9257B79796DD9B26568684822916030986FBFFDB6BCBC7CF7EEDD9595958383832B57AE0495944824381C8E42A1808026FD72C0574F4F4FA066535959A93F2C9943381C4E4444040441494949939393A0020A85422E97EB2661552A556F6FAF838383CEF14B2693A9542A7005C2C2C28844A2542AE57038F6
310
F6F62A958ACBE58E8F8FD3E9F49E9E1E03593503F078FCF2E5CBB55AAD8787477777776A6AEAD4D414D05A84FEFD06197C35B850E0D7C4C444F036D4EDA052A9464747552A955C2E7FE69967341ACDE0E0A056AB3528D9CDCD2D2626068542197922DD2552A954B1B1B1381CCEDDDDDDD5D5F5830F3E8020E8C89123535353
310
9D9D9D9D9D9D128984CD662F5FBE5C2693814B319706D0D6D656505010191909EA74EBD6ADB7DE7ACBCECE6E6868E8FAF5EBD5D5D5C6BBF8FAFBFBE3F1F8A0A0A01F7FFCB1ABAB4B370D2797CBEBEBEB1FA5BDF1A8F21D1D1D753F050606EED9B367E3C68D070F1EC4E1701A8DE6F2E5CBC654098BC50A854293BD948DA4AC
310
ACCCD1D171FDFAF5FA8B1E4642A552F3F3F3E572794545855C2EEFEAEA52ABD562B1D8F8D5A5A9A929F007C14A626363E3C8C888BFBFBF69DDCE84848447DDF4EAEA6A5F5FDF7BF7EE7576764EFFF5C18307B76FDFBE74E912DC3362B1586B6BEB828282F8F8F8E1E1E16FBFFDF63FFFF33FB3B2B2AAABAB5F7BEDB5F0F070
310
E0DA7DFEFC79DD8B608EBB40151515A0A35C5A5ABA63C78E83070FAA54AA4D9B366DDCB81156A86E4242425E5E1E905B026F44805AADC662B1B006C106787A7AE6E7E79348A48282823D7BF6183FBF81C562E72AC0CA32D4D5D5B5B4B4C0750F9E8EC9E1B61D1D1D28D423E5C76FDCB8E1EFEFDFDDDD6D3039EEEEEE0EDC7B
310
4C38A36EF6934AA50E0F0FDBDBDB6FDBB6EDD5575F7DF9E597FBFBFBF7EDDB37DD4562BE06C16363635F7EF9A5EEAB542A85E5510CBC74366DDA343A3A3A32325255550594B38A8B8B1FA5F7FDA831001A8D9EDE130511C91A8DC678772008828014FDE2E7C5175F1C1A1AA252A9AFBCF2CA8913274C2B647272123C9A8FEA
310
AC3F16994C368BBA3F0860CAC8C83068815D5D5D67CCCA610C19191920BB0CE8C47EF1C517EDEDEDFA7AEED359A4D3A05AADD6CECE2E2E2E2E2B2B8B46A33D36C07416C2C2C20C5E274422512693B9B8B8B058ACE99E144F013FFCF0C3279F7C929C9C1C10106072211D1D1DDEDEDE1004DDBD7B779617F92C9C3B77CECACA
310
4ABF013740ABD5363636868585E9B6E070385F5FDFD973CFCC825AAD6E6E6E8675C82235809A9A1A3B3BBBB7DF7EBBAAAAEAD0A143FAAB39A5A5A56BD7AE35B21C1C0E47A7D3750D9FB7B7F7D8D8584040407373734848C8E0E0A0F16E832B56ACB04080DF9CD0D8D8685A9A2D7DA4522958080B0A0A322DA5A94C26138BC5
310
6C367B96C5B89E9E1E1B1B1BB0820B41507474B4878707505A3781888888070F1E4070C2CD2C6700381CCE78D7839292126767678D46F3E73FFF994AA5363535E91A81B1B1B1AAAA2A6316650904C2AA55ABF48780DEDEDE376FDEC460307D7D7D565656B09E123A9DBEC81364E8181E1E064F8099822EA05759585868B2D6
310
D5B163C7DCDDDDB95CEE2CFB94949480E5616F6FEFB0B0B0F3E7CF1B19763C9D818101088228148AF1DD36CB19407D7DBD9F9F9FF1FB0B85422F2FAFE1E161369BDDD9D9E9E1E1A16B88BBBBBB452291819CBA81D163B1580E8773F5EA55DD0080CD667774740406068A44225F5FDFF0F0F05F7FFDD5F8FA444747CFB9D2E0
310
3CE1EEEE0E3ECC49145B6969A9C9EBE54AA5F2C48913111111AB57AF36F0A5D5BF5F656565DBB66D4B4F4F1F1C1C34391F2B0A8502F3ECD1D1D1A01D3006CB194061612188D9319293274F7A7A7A8686865EBF7E9DCBE55EBB764D5F7BB5ADADEDE1C387999999E1E1E10612680C0683CBE5A6A6A65EBB764DF78E2791482E
310
2E2E5D5D5D0E0E0E62B1383030B0BDBD7DBAF2EB2C68B5DAF916F9982BF2F2F2804A8299A24672B99C48244E4D4D817C81A6D1DBDB7BE0C081A0A0A0DDBB77AF5DBBD6A0282C169B9292929191919E9E3E393979E6CC19934F141919D9D2D2024110ACB6DD7201313D3D3DB0AEE3F8F8784F4F4F5050504343C3C8C888ADAD
310
6D6363E3F2E5CB0B0B0B7505F6F4F4B058AC84840412890474502008128BC560225C57144864929797171515555959191919E9ECECAC4B246C0CA1A1A1B32F212D2A70389C979797BBBBFBD0D010DC41A13E9595957E7E7EF5F5F5636363542AD5E4E9208944F2D5575F3DF3CC333E3E3EA9A9A97C3EBFB7B7373A3A9AC160
310
C4C7C79348A4F6F6F65DBB76454646EADEE226101D1D7DECD831028100AB07653903181B1B0359638DBF8E393939BB77EF4E4B4BBB7EFD7A4444447777F7BD7BF7222323F595C9FAFAFA745366334E8F9248A4989898DCDCDCA8A8288140606767C766B3272727C562B1F1950F0C0CBC77EFDEDC6ACDCE1FBB76ED0239C298
310
4CA639B1E73299CCC9C9A9BEBEFEC48913FBF7EF57ABD5252525FAC90E8D47A954022D7F2693191717E7EAEACA66B3ABABABF3F2F2EAEBEBC10BBBA0A020383818AE5AB88B8BCB5FFFFAD75BB76ED168B4C9C949269309CBE62D3A0B545C5C0CD2B81A89542AFDF6DB6FFDFCFCE2E3E36B6A6A5C5C5C80508FF1DAE5313131
310
F1F1F1C5C5C5919191C3C3C332992C3A3A1A8D461F3D7AD4F86A60B1D8E8E868B8F1E08B01F3D5ADC562318BC5128BC55D5D5D4AA5D2B4B05D7D4422D1F9F3E70F1F3E7CF2E4C9FCFCFC9B376FEABA2B6AB55A2A95C24A6F0141109148ECEAEAB2B3B3036EA770DD9F2C2A8B525454F4DFFFFDDF172F5E34FE90A1A1213E9F
310
BF74E9D2898989DADADAC8C8C8D4D4548542A1542AB1586C7373B32ECED860109C9A9A4A2291582C16068361B158972E5D1A1F1F076306B8326FBEBEBE9D9D9D4FCA14900E2E97EBE2E262F29812D0D4D4949292D2D7D7575F5F4F2412AF5FBF3E57D59B71A6B2A7A787CBE54A2412E333CDB4B5B59D3C79F2F7BFFF3D703C
310
839B14C7A206303535D5DCDC1C161606AB3F5D5151A1D56AD3D3D3EDEDED8B8B8BBFF8E28BE6E666994CF6C30F3FF8F9F9E972ADB9BBBBEB37F7454545180C66FFFEFD5D5D5D0C06C3CACA8ACBE50604047CFAE9A77067D99E7DF659D3DAFD05048BC552281458216F330274E680FFCC6BAFBDA69F056C9E282A2A829BDCDB
310
CECE0EB8AC666464C0F520B2B436687676F6AE5DBBE00E282B2B2BFBFAFAD6AF5F4FA1508A8B8BC3C2C22A2B2B81F09B582CAEA9A981FE3D6B795050504A4A8A4C26E3F3F9D1D1D18585852B56AC989898F8EAABAFE03EFD363636542A1556D69DC5C08E1D3B984CA68D8D8DF94549A5523F3F3F8140D0D5D53557F118D0AC
310
EEEB656565B0048957AD5A05E6BB4C48B06B6903181C1C9C9A9A7AE38D370202024E9F3E6DBC505C6767E74F3FFD9495954526934F9C382197CB2F5FBE4C2412ADACAC626363351A8DBE3BB44422B972E50A708D52A9542E2E2E0D0D0DB05E2A68347AEFDEBD6E6E6EC3C3C37FFFFBDF61FE4BB3305F1D1A82201A8D565050
310
303636667EBA908E8E0E20DD939F9FBF6FDFBE9A9A1AF3D39ACCCEE8E82883C1B0B1B13166216FE3C68DB9B9B95AADD634AFD50590473F7CF8F0471F7D3430300037F26D6060E0871F7E6032993B77EE4C4D4D6D6E6E7EF0E081482402AE23B5B5B5959595A00BE8E3E3131717171919A9542A9B9A9A4C48BB4BA3D1944A75
310
733A78000013CF494441542518F9991C126E1A66AA43EB888888E0F1787362BD858585696969858585E7CF9FDFB1638769698C6171FFFEFD952B57EAAF63CE08C88170FAF4692B2B2BB8F33F80053080C1C1C19A9A1A168B05572714201289F6EDDBC76030525252424242D6AD5B4724128B8B8BD3D2D2424343D168744C4C
310
4C5D5DDDE8E8684E4E4E7575B569AB5752A9F4C68D1B7FFCE31FDF78E30D130E3707F333C6FAF9F9C964320A85325779FE944A657777B79797576363A3979757545414E8769AC363DD75F87CFE92254B66F756FC8FFFF80FA06E161F1FAF1F7C6C3C0B9322E9D8B163DF7CF38D399E2A62B1F8F4E9D31004914824E02281C7
310
E3CBCBCBC13B40A9549A99A819822032997CEEDC39F31F47B894949498993BB0A4A4A4B8B858AD56CF6172A7E6E6661E8FD7DEDE9E9393F3D65B6FF1F9FCF99E16138944203FC3A316EC376DDA74F6EC59994C161414343D9FB1912C8C37A846A3F9E9A79F40A64B3391C96493939393939342A1F0CE9D3BE0B3F94FBFBBBB
310
7B545414ACD5E239C47801A519191E1E1E1C1C1C1A1A9A5B2DC7CACA4A908FF16F7FFBDBB66DDB748A63A661CC0A5D4F4F8FA3A3E38C274A4F4F1F1F1F6F6B6BA35028E3E3E3A6C50F400BE80E5D5F5F3F323262B2E4C6BC422693B76CD962819EEE3C21168B5F79E51526930977516976A452E9D0D090B7B7B746A3B978F1
310
E23BEFBC3327F99766A7ABAB6B7AF2AF152B565859595DB870018BC5666464747575995CFE42C6039C3E7D3A2C2CCC9CA08DF90085426DD9B2E5FCF9F34F5C7678805C2E2F2F2FFFC73FFE21168BE77CFEAAA5A5058BC5FAF8F8F4F7F71F3A74E8FDF7DF37B31D782C2323231289443F2C73C58A154422F1C2850B04022123
310
23233B3BDB9CF22D6D00061ED1FBF7EF5FBD7AB5BBBBBBF933D6739272C7C6C6E6B9E79E6B6D6DD597E26232994F9028624545456969298140A8AEAE06C2F12633E31F6F6969A1D3E93E3E3E434343478E1C79E1851774DED7B030FE7EB5B6B6B2582CA097F8C61B6F1089C49C9C1C028190969676FBF6EDE9FBC3F2BAB7F4
310
20582693C5C5C5E9AF57E7E5E57DFEF9E79F7EFAA985D3F14E078542EDDEBD1B041BE816988786866C6C6CAE5CB9B2B07583051A8D8E8C8CACAAAA323357B64824E270387C3E5FDF7F914EA76BB55A0C0603B4AB8E1F3FBE79F366B1586CA4B88669DCBA750BA8659D3F7FBEA5A50587C3B1D9ECBABA3A37373703438A8F8F
310
074ED14662E916A0B7B797C562090482CB972F575555E5E7E7676464FCF8E38F1C0EC7CC142CE6A7DCD9B2654B49490983C100D3F0353535D7AE5D839BD46331402291984C2648EE6B6651401115854281A2E874BAB7B7775555554B4B0B1A8D0E0B0B53ABD5478F1EC562B16FBDF5967E73F158058DD9EF178D46D38FE6E1
310
7038CB962D2B28286869697176764E4949696C6CECEBEBEBEEEE0E0D0DC562B1607F0A8522954A6179EC59BA0558B66CD9E5CB9757AE5CB974E9D29696963D7BF6FCE52F7F898F8F3F75EAD4F3CF3FCF6030E6D0DDCA78A854EA8E1D3B8014CF912347E2E2E280A6CD8B2FBE989D9D6D6767C762B14C9E67B03C53535352A9
310
343939D964914D7D6EDCB8F1FDF7DF1F3F7EDCC3C363606040E76CD3DADAEAECEC1C191979F7EEDDDCDC5C3B3BBBCD9B377777775FBC7871D3A64D140A452291001768B80406066ED8B08144227DF8E187F6F6F67FF8C31FF2F2F276EDDAF5D34F3FB5B5B53535355DB87001EC29168B552AD59E3D7BCACBCB1D1C1C080402
310
981C371E4BB700565656409BB6B9B9D9C3C3E3C2850B76767652A91487C31D3A74C8CECE6EE7CE9DC66B5BCF093E3E3EBB77EFCECECEBE7DFBB68383C3C0C0805AAD2E2F2FF7F6F6BE70E142545494582C06E96A9E1440D0B35028849501E451242525EDDBB78F42A1080402037988DEDEDE3B77EE2426267A79793D7CF8F0
310
BBEFBE032FB5949414369B6DB22B1E0E8753ABD5643279FBF6ED090909EFBFFF7E7979398944F2F7F70F0F0F37182E32188CE2E262AD563B3838383E3E0EF75C0BB31026168B492412903ED77530B45A6D7676764848C8471F7D74FAF469B88111260C820904C2BA75EB1C1C1CBEFEFA6B7DDD4F1289646767D7DFDF8FC7E3
310
878787552A95F98EF516008D4603E5223C1E5F5252A252A98E1D3B669AA2893E542A1585424D4D4DCD180FA4D56A8B8A8AFCFDFD972F5F5E5B5BDBD2D202B2E26DDFBEDDC7C7272323A3A4A464461FD247DD2F369BEDE1E1E1E1E1515454F4CB2FBF80E5B6B8B8381289F4D24B2FF9F8F8183CE50A85028C8F8787874D98AB
310
B0900114151571B9DCA2A222D0F3F3F5F5EDEBEB9B98986030187575759E9E9EBA15EFC6C6C68E8E8ECD9B373FF3CC33870E1D9A27094E08826262629E7FFEF93367CEE84B470D0F0F031F2C2727A7F1F1710E8773EEDCB9A0A0A0AEAE2E269369428A384BA2D56A41989BBE1C22AC386C1D6363633A7DE6B6B6B6BD7BF7E6
310
E5E5013DA519F76F6E6E160A85EEEEEECF3CF30C588FDFBD7B378140080F0FFFE31FFF0882740502415D5D9DAE278942A174CB082B56ACB0B6B60E0A0AA25028656565252525393939E0A7B8B838B55ADDDADA0A7AF6ADADADA1A1A12011BAAE1C1E8F77EDDAB5D0D0507D13757777D745CF2E0A0804426666260E877BFDF5
310
D7F53B395C2E77CD9A35D3F707A16EEFBFFFBE91C99975F3368F65D9B265DF7CF3CDD6AD5B67ACE4E79F7FAE3FFCF2F7F7E7F1781E1E1E4078DE3298B60637E31530FEB218B066CD1A2A95EAE0E0A0DF8F020908677FD1822B16101060D06C72389C952B577EFCF1C7070E1C3870E0405E5E1EF8B07EFDFA952B571ADC651F
310
1F1F1E8F97999939E3DD0F0E0E061F121212F4273D512814B84DF1F1F1B6B6B6C6FC4DC3F6D1C1C10188C0F4F7F7C3920D34064747C775EBD6E5E5E5F9F9F969B55A8D464324125B5A5AE4723983C1D08FF4D5E1ECECBC73E74E1717971F7FFCB1ACAC6C96C2DF7AEBADECECEC591605190C466666E6F2E5CB7372722E5CB8
310
30DD758448242626261617172725251189449013E9E1C387582CD6C6C6E6D2A54B667A2818CFA1438776EEDC09F7A819E348E00697E8F3DC73CF8D8E8E4E4FEDCCE170EEDDBB37BB7E5B585818994CB6B5B595CBE5BDBDBDD3FD3467AC98BFBFBFB3B33391486C6B6B7BEC6C6640408048243298A3737474DCB871E3F1E3C7
310
8DEC3B1876816263631F3E7C181F1F2F140AE7DC002412C9D5AB57636363CF9C3983C56231188C2E3CE5512EC7BDBDBD7BF7EEA552A9AB56AD3A78F0A05028BC7FFFFEF5EBD7272626F4BDD2D7AC59939494646D6DFDD9679FE987BCE0F1785757D7E8E8E8D8D8D8E1E1E14B972E9D3C79F251FEA172B91CDC6CD07FB0B6B6
310
1E1D1D65B15821212177EEDCB1D8D3BF78A8AAAAF2F4F43448510541D0EC6F22802EE6894824B258AC9494148D46033AEB030303542A555F6C4BA77BDEDCDC6CA0E8310B33E689F3F1F1018110C694001918C0AA55AB1213134F9E3C2993C9CCF7279B91B6B6B69E9E9EA4A4A4929212E34F31363676EAD4A953A74E797B7B
310
FBFAFA7EF0C107C0056A7070707474B4A9A949A15088C5620A85E2E9E9C966B3C1C5F5F4F4542814DDDDDD3535357FFEF39FE17A0B82A79FC1603C298A88734E6F6F6F6F6F6F5656D683070FEAEAEA4C2B442E97B7B7B74F4F113D3A3A3A57C165002291181313D3D8D8086BDCF86F5DA0AFBFFEDAC3C3E3C30F3FE470385D
310
5D5DF3A7854F2412535252CC74A5B2B6B6A6D3E913131372B9DCDEDE3E2828A8A9A90982A0070F1EB8B9B969B5DA8E8E0E33EBD9D7D767F28D3787A8A82813A4D8671484522814D3FB307059B26489B3B3B3998518E0EEEE6E8E13DB746432597575355CF1A27F3380FFF99FFFF1F6F63E7EFC385840C9CFCF8795DB7D6131
310
A7B38B607916C9FDFAB72E9042A1B870E1C2A953A720086232994FD6EA8F0901D1080BC822B95FFFD609C162B1B0F4D21615A645C4212C148BE47EFD9B01BCF9E69B4F9CFC13028239180E43F51D95E18A6C21203C7118AE03A8D5EAC3870F4BA552994CB65011B1080816C3D000CE9D3B47A7D381240E98554440788A31EC
310
02C96432128904D4C017A442080896C4D000F0783C9D4E67B158F32D7F8780B018B1B5B505DA2F267B1122203C412CD234A908089601310084DF34880120FCA63134008D46637E142902C29382A1018C8C8CCC495A1104842782477681BABBBBE7565A150161113283010C0C0C383838B4B4B4C0D2584440781299C1001A1A
310
1A424343150A854AA5325F5B0F016131338301C8E5722C168BC562CBCACA66142C414078FA012BC10E0E0ED3D31320203CFDB0582CA0B347A7D317CA066069BB2627271BBFB38D8DCD13A1768830DFCC36E5EFEFEF3F3535D5DEDE4EA7D3A3A2A2CACACAF405344D00284C411024954A6797D9D9BD7BB79F9F9FABABABF1C2
310
01B05406984C2650BCFAEB5FFF3A7B42660A85422412552AD51327928E600C8F59F3F2F7F7572A9542A11083C170381C2C165B5D5D6D6438B38F8F0F954A55A9548D8D8D1B366C181F1FA750282009404343C3A354260140A013565E72583B0705057576764E4C4C3C361BB387870783C1181F1F6F6A6A62B158DF7FFFBD91
310
A7407822788C386E7373B3BFBFFFCB2FBF7CFCF8F1E2E262028110151535E34A190A852A2F2F8F8A8A02C29ACB972F57A9542D2D2DB1B1B11919191289242222026EE5B45AAD4E8DFEB1482412E30D607878B8B1B1116E1630C443F6E9E3F1EAD0CDCDCDCDCDCDE9E9E9C3C3C30281A0A2A262C6DD366CD8C066B36D6C6CB2
310
B3B3F178FCC68D1B3B3B3B71389C4AA57276767EF8F0A1BBBBBB42A17854CED719191818307E6758196280E8B9F1FB233CAD182B8F5E505040A7D3C3C3C3A954EAD8D8985AAD6E6A6AD2EF3C14151579797971B9DCECEC6C2C168BC7E3492412954A0542D0582CD6DADADACC21C41C8284FB200060E407181C1C2C2D2D8520
310
8842A1E070B8A4A424FD97280A85BA79F3E6A54B97403FA1B9B9D9D5D5D5CACACAC5C5656C6C0C8BC5C24D7801CD45DAAF47616767D7DBDB3B4F85233C4198922003A4E8D0A530D0273737177C3050BDCBCCCC34E1440808F3CDA28E0780350680B5B3542A9D27F96B84278B85C911662433A6417E14B0F4FB11C51704C0A2
310
6E0160F16449F9222C129E1E0340403001C400107ED33C3D0660429E600484A7C70010104CE0E93180F95B3543788A797A0C0001C104100340F84DF3F418003208463081A7C70010104CC072AE10AB56AD9A5727E4E8E8E8F91E070706062E86D4B6087388290640A552232323A76FAFADAD0D0909C1E3F11004858686FAFB
310
FB4310E4E4E4141010A05028962C5962665D1F0BF27422C0C55803A0D168898989E0F3D8D8D87437353A9D1E1010B075EBD637DF7C138BC56EDBB64D2010F4F4F4C4C4C43CFBECB357AF5EB5B3B353A95470A3101110E695C71B001E8F8F8B8BD36834B3BF5FC3C3C34522516969E9E4E4248542A150282E2E2E6432994AA5
310
4210E4E5E5E5EFEF3F36366642588C912083600413788C013099CCE4E4E4BCBCBCB1B1310882525252ACACAC66DC9340207476763A3A3A8288B0919191818181EAEAEAD4D4540882A452696565E55C571E01613E717272D2F5F5E3E3E3793C1E894432FEF0B8B8381E8F979E9E0E41D0BBEFBE3B2F55D4C302920D882AC4D3
310
C7235B001C0E171212525858482010366CD8909B9B2B954A61157DEBD62DDDE7F9EBF9202098C3230D80CBE5161616A2D1E8A4A4A493274FC28AB79A4E7D7DFD7CBF3EA3A3A3E7B57C08829028CAF983C96432994C2C162B93C95A5B5B793C9E4020F0F0F0108BC577EEDC99BFF3CE6C001E1E1E0F1E3C50ABD5F1F1F1D5D5
310
D5663EFD1004F5F6F6CEB70A437B7BBB402098D75320CC1FEEEEEED1D1D11A8DC6C6C626373777F9F2E50E0E0E32992C3535755E0D6066C0DBDACDCD8DCBE55AFADC080816640657085B5B5BD0DD0F0E0E2E2A2AB27895107E8BF8FAFA767575B5B6B6FEFEF7BFFFECB3CF6432595F5FDF7BEFBDF7D1471FE5E4E4DCBB774F
310
2C16BFF8E28BADADAD9F7CF2494F4FCFF0F0706767A74C260379DD4D66862E909797577B7B3B168B45C403112C86542A3D76EC1804417C3E5F26937DF9E5971004555555B158ACBABABA9090101C0ED7D2D2F2D1471F31188CC3870F77747480145E3D3D3D735C15D0FF613299203F0002C20282FA3FE6A9FC45AD0B84F09B
310
E2B9E79E9B9898D8BA752B9FCF1F1F1FAFA8A8F0F5F57575750D0C0CACAEAEEEEDEDCDCBCB9BF393220680B058484B4BB3B7B75FBF7E3D8542E9EEEE068E056C367B686848AD56DBDADACEC749110340582C7CFFFDF70402E1C489130303036AB5BAB3B3737070108D464B24120281008499E71CC40010160B757575065B06
310
0606AAAAAAE6F5A433248A8B8C8C64B158010101434343B0F259202098C3871F7E28954AC562F1AE5DBB3A3A3A74D924E2E2E2D2D2D2F87CFEBA75EB9C9C9C3A3A3A3EFBEC33B95CDEDDDDBD7DFB76140A656D6DBD7AF56AA150A85028E09E74E64CF1274E9CE072B97C3EDFDCFF848060342291282A2A0A82202727273C1E
310
EFE7E7C7E3F1ECEDEDBDBCBCD86C360441DEDEDE9E9E9E1004F5F4F430994C08824647471B1A1A40C2CF391B24BCF1C61B1F7FFC7176763698674540B00CAEAEAEE0210E0D0DA5D168BAED542A153CF7341A0D6CD7FD1A1E1E4EA150200872737333EDA4338C014824527F7F7F686828994C36AD50040413E8EEEE061F1A1A
310
1AF4B78F8D8D8170145D7A52DD07DDB0E1C18307A69DD4B00B8446A3351A0D0441229108B43208084F31860640A3D1C864725F5FDF82D40601C1C2FC7F17C8D7D797CD6693C9640F0F0FA552E9E0E0005C21A6A6A60A0B0B17AE86080816E151012B481C20C2530CA20C87F09B06310084DF34FF3F06201289313131D3F7F0
310
F3F32B2A2A92CBE516AC15028285F89701848787FBFAFA9694944CDFC3C7C7273131B1B8B818898F4178FAF89701D8DADA0A85C2C1C1C1E97B8045070C06831800C2D3C7BFC600252525CB962D9B710F1289A4D1684C7033424058FCFCAB0550ABD5028160C619CF88888803070E58B6560808080808080808F3CAFF028822
310
9F4833739A970000000049454E44AE426082
  0
ACDSRECORD
 90
        0
  2
AcDbDs::ID
280
    10
320
1089EC
  2
Thumbnail_Data
280
    15
 94
     4791
310
89504E470D0A1A0A0000000D49484452000001000000007808020000009216BB29000000097048597300000EC400000EC401952B0E1B0000126949444154789CED9D7B4C5BE5FFC74F7B7A398796F6B4D002BD00EB0528A36CE8746E889B6E738CCD0CE6A29BC9DC4C5CB278498C31D9FE34468D8B7F98C544176722D1E862
310
7492E06EA81BC3DDD9DCA5DD60DC4BA1405B680F50E8F5B4DF3F4ED25F7F6D613DED80D2F3BCFE82E79CCF793E94E7DDF3DC3E9F87D1D8D808CD0B9FCFDFBD7B77F8570E872397CB070606E6B70200169FB2B2B2478F1E857FFDEAABAF4422D1FC262CAA75F87CBED45B7F5D5DDDD0D0508A0F0164124AA5F2ECD9B3293E24
310
B2F5270865013C118686868C46E392540D0044C25C6A070080A5040800406B280B008661B158BC10AE00002922954AA99A5016008BC5CACDCDA56A05002C02797979544D401708406B800000B4060800406B280BC0EFF75B2C9685700500481193C944D584B20082C1E0CCCC0C552B006011989E9EA66A02BA40005A030400
310
A035C9080086E127EE0700903A2C16E5BD6D9405C0E572D56A35552B006011D0E974544D401708406B800000B4060800406B280B20140AF9FDFE857005004891245A2665013C91904800602148222412748100B4060800406B800000B4269990C89C9C9C857005004891450A89040200A42720241200A006100080D6000100
310
680D08894C1E0CC396DA8584582E7EA64E12219194F74FD327241286E1AAAA2AAFD71B5BAE56AB351A0D97CB1D1919110804F7EFDFB7D96CB14F2008A2A3A323F11AABAAAA028140546176763619E967B55AE3D682A2687979B9CFE79BEBB15AADB6A7A7679E7A7D3E5F575757E27EA62D4984442E4D72DCF4272727A7AAAA
310
CA6AB53A1C8E9999191CC72108AAACACD4683404417475755DB870A1AEAEAEA7A7A7A7A7A7A8A848ABD5120471F7EE5DB3D90C41904824924AA51886EDDCB9B3B9B939140A255269201088CD19ACD7EBC942BD5E1F2B80BCBCBC828282FFFEFB8FCBE5B2D96C97CB4596A328AAD16862ABF07ABD7D7D7D044190BF8AC56287
310
C3C1E1705E7CF1C5D6D6560A1F50A60004101FA5528961188BC5AAA9A9F9E69B6F0A0A0A366EDC683018FEF8E38FF03D46A3916C9A388EDFBF7F1F82A0B56BD75657579F3973462010AC5AB5CAEBF57ABDDEAAAAAA3B77EE24ED89542AD5EBF5100431188CD8AB128984C160D4D6D63A1C0E83C1A0D7EBED76BB4422E172B9
310
088278BD5EB2FFC3E3F1984C268661D3D3D3288A1204F1E8D1A3402030333353575707C3F0AD5BB756AD5A45FE15B4221901C0301CFE0AC954601866B3D92B56ACB0582C9B366D0A0683274F9E7CACD5CD9B37DBDBDBB76FDF1E0A8582C1605959595B5B5B8A9B676D369B4C263B72E4C8471F7D147589C964864221044194
310
4AE5C8C888C7E3A9ABABEBECEC0C0683F5F5F5870F1F9E98988022DE211004EDDAB56BCD9A35376EDC282D2DB55AADE3E3E3288ACA64B273E7CE49249254FC4C07582C566C1FF2312654EBE072B9454545DDDDDD540D97178140C0E5723D78F060FDFAF56D6D6D896F330C8542A74F9F6E6868C030ACA5A5253B3B3B7567A6
310
A6A6E2F667200862B3D9131313274E9C282E2E7EE699672E5EBCA850289A9B9B4F9F3E1DF77EF20D8620C8860D1B200852A954ADADAD2E976BC58A15A9FBB9E4E8743AAAE74E8069D0F80483C13FFFFC93C1605CBD7A35894DB64D4D4D5D5D5D168BE5F2E5CBA93BA352A9E6FAC6F1FBFDE4251445592C168EE3E7CE9D9B4B
310
2D613C1E4F4B4B4B6E6EAED3E9E4F1783E9F6FFE517206030430277C3E7FE5CA950F1E3C88BD24140AEBEBEBD7AE5D5B5F5FBF65CB16044162EFB97CF9F2CE9D3B13AF0E86E179D26E171717CF63AB52A91004B1DBED3D3D3D1E8FC7E57225D29F696B6B130A857C3EFF89BCA69629400073B27FFFFED8CD550882ECD9B3E7
310
8D37DE080683300CBBDD6E1445DF7CF3CDF7DE7B8FC98CFE30CBCBCBB76FDF9E60757ABDBEBABA5AAFD7979696465D8261B8BDBD7DAEA924168B251008C462716F6F2F59323636969F9F9F48A5B76FDFCEC9C9292B2B4BD0C9CC038444C687C7E3F5F6F61E3B762CB2B0A0A0E0C0810332994CA150582C16BBDD3E323262B3
310
D99E7BEE398220F6EEDD1B9531E9C30F3FCCCACA4AB0468FC7333C3C6C341A63A7E47FFCF1C7BD7BF7CEF5B1EB743A954A75F5EAD5C8C28E8E8EF2F2F244EA9D9D9DF5783C9971E6C33C8B2173B134A744A63FB5B5B55F7CF145640993C9DCB2654B7B7B3B0441269309C77104412C168BC3E1E8EFEF2F2C2C0C8542BB77EF
310
FEF5D75F23AD0C06434545C5829E0808C370757575474747E458852008ABD5AA5028F2F2F256AF5E5D545464341A07070763CD57AD5A353B3BBB70EE2D26492CE7812E507C1004F1783C91259B376FB65AAD6C36DB68340A85429D4E87A22882207ABD9E2088BEBE3E3E9FEFF3F9A272337575752D6807432291601876F4E8
310
D1D891FACCCCCC071F7CC0E7F3FBFBFB0D06C3F3CF3FBF75EBD6D827FCF0C30FE3E3E30BE7619A0304109FD85911AD563B3939E972B9727373A7A7A71F3E7C68B55A474646483DF87C3E87C3313C3C4C4E2F2E1AF9F9F90441C4DD22B17FFFFE4F3FFDD4E1708C8F8F9BCDE69F7FFED9E572AD5EBD3AF6CEF1F1F124424932
310
032080FF83C160646767EFDAB5EBADB7DE8AFA52E472B97C3E5FAD56777676E6E6E6465DEDEFEF57A95456AB552C16C70E8593D8A14589B8E35D1E8FE772B9701C37994CE119A46BD7AE6DDAB429F666B3D94C10845EAFDFBF7FFFE6CD9B51145D5087D30ACA6300369B2D914846464616C29BA5A5BABABAA1A1412693E974
310
BACF3FFF9CDC8040C2E170D6AD5BE7F7FB0D068356AB250BC33F903F6767671F3870402A9546CDFD2B95CAA2A2A2B8FDEF48300C532814919546D5A2D56ADD6E7778AA0786E18A8A8AC2C2C2DEDEDE582B0CC3B2B3B3C972994C565353436E6792C964B137933DBAE79F7F3E10084824929D3B777EF2C92776BB7D7E87D390
310
443EE728A867D36532F97C3E55AB65C1952B57DADBDBB55A6D4E4E8E4C268B1CB972381C93C9949595F5F0E1430882C297C23F8442211CC7BFFDF65B954A1535E4ADACAC4CE4BF82E338390B147B295C186EFD1004110461341A753A9DDFEF8FB5E272B9E5E5E591E546A391C9645A2C96D89B4522119FCF1F1E1E369BCD2E
310
976B707090EA8682344120105035019BE1FE1F3E9F8F6CE26FBFFD7654B9C7E3B97DFBB646A32167D9C7C6C6C2579F7EFAE97BF7EE959797BBDD6E2E971BF5CCF9D7B052C76AB5C6167ABDDED9D95972B3270441DDDDDD252525AB57AFBE70E142ECCD1A8D667676D6E9742EE86C557A0204101F85421155F2CF3FFF0483C1
310
82820293C924168BF57ABD52A9F47ABD5C2EB7BFBF5F2412E5E5E5E5E7E7B7B4B4445AC130BCA0CB26A3A3A30C0643A9540E0D0D455DFAE9A79F0E1C3880E3B8CFE70B0402757575A3A3A371F77B0A85C2B82AA20360101C1FA7D3193516BC70E1424545058EE3EBD6ADE3703846A3D16EB79B4C26A3D1585C5C5C52524210
310
0441105143DEAAAAAABEBEBE85F3737C7CDCED761F3C78B0A2A222F66A6363A3D1687CF6D9672B2A2A8E1F3F7EF7EEDDD823241A1A1A62DF5AF481F21BC0EFF70F0F0F2F842B69C5F5EBD7D7AD5B77F1E2C570492814FAFEFBEFF7EDDB2793C950146D6E6E964AA51E8F47A954BEFBEEBB2D2D2D3E9FEFC4891351CF292D2D
310
35180C0BEA6A2814FAF7DF7F3B3B3BE35EEDEBEB3B75EA14D9B7211725A282D4EC763B8EE3A3A3A332996C41FD5C049258A24DE694C88C59389C07B7DB2D97CB8F1C391259383B3BDBD8D878EFDEBDEEEEEEC2C2428542A156ABB3B2B2CE9F3FDFD9D979FCF8F1A83089AFBFFE3AF17F098220E42C50EC5EA0F9E9E8E8B058
310
2C2FBDF4D263EF0C0683A3A3A372B93CB2D25028C46030C8C881E54E38202E71C018604E7EFBEDB7DADADAA842AFD7DBD4D4C466B3753ADDC68D1B038180C16018181888BB53EDF6EDDBD7AE5D8B9D768C8BC16040102489612841106EB7DB6C36ABD5EAC776B79C4E2786617C3EDFE57231188C0D1B3698CDE6C8C925BA01
310
C60073E2F178EEDFBF5F5555157B895C10686D6D3D7DFA747F7F7FDCD6BF63C78EA6A6A6C4AB4B25DB80C96422A3C312498D3630304086BFBCF0C20B7D7D7D76BB9D0EBB1BE7028444C687C964BEF2CA2BB3B3B33A9D4E2412450E0612A1BEBE1EC3B0356BD6B058ACD1D1D10572128220369B5D5A5A4A366272F14BA150DC
310
BB772F2B2B2B6E8A04369B1D0C06A7A7A70F1D3AD4DADA8AA2E8D4D494542A4D22A9601A924448243825323E2C160B86E1828282B1B131B7DBBD7DFBF6B831E9B12008F2FAEBAFBBDD6E9BCDF6D4534F4D4D4DA5EE09822071636E2008F2FBFD7C3E7FDBB66DB9B9B977EEDC999C9C9C9C9CACA9A9F9EEBBEF6267722108DA
310
B76FDFE1C387310CCBCFCF27D7ECD6AF5FFFEAABAFCE35865E5E24714A241803C48720889C9C9CC1C141B95C7EFDFA75A150B867CF9E919191B6B6B6B94C984CE6CB2FBFCC64327FFFFD77B55ABD66CD9AAB57AF220892A206C82F75285E56886030C86030D86CB6C5622167264C269340204051F4B3CF3E2B2A2A2A292921
310
5F62288A92739D5D5D5DB76EDDF27ABD1F7FFC714949895028C4719C7C09C46640A2037414C08E1D3B7273731B1B1BE7B9A7B7B7572E97DB6CB65BB76E611886E3F8C99327E572795D5D1D82200E87A3A7A7A7A6A646A9540E0C0C141616F2783C0E87D3DCDC4C36C4E1E161A7D3A956ABA9E6C68AC5E9749283D4B883E9D1
310
D1D1E2E2E21B376EB0582C72683B353565341A61182E29292167FD272727DD6EB7DBED8620C866B385D7BCBABBBBB3B2B22E5DBA94959555595979E3C68D54FC5CA6D04E0018861D3C78B0A9A9094551B24DC4C5E5729D3F7F5EA7D31516164210A4542AC97272C1552C16979797070201BFDFAF5028701C27770746750E6D
310
365B7F7F7FE2BEF9FDFED856CE62B1C8C2B8BB4A272626A6A7A7139C688220482A95C6EE7C9E9999A167EB879210C0720F890C040277EEDCF9FBEFBF1104994700100411041137223E0C97CB7DB2DD8624D24F4010E4F3F9E69F3CEDEEEEA649F726899048DA9D12E972B92E5EBCF8DA6BAFA5BEEB7DB9B4AAE5E267EA8090
310
C884C0713C140A65644803802A74140004417177050368084D050000905016009BCD5EEEDB06070707793C5EDC7522C0B2A6A8A888AA096501644048E4D4D4D4CCCC8C48245A6A47004F181012992843434372B9BCB2B2D26834C6DDCAC6E17022575E190C4643434356565630180C178A4422A7D3196985A2686767E7B56B
310
D7220B098258A621B67480A602C0711CC3B0BCBCBC952B57861B7A2010405174DBB66D2A958A3CFA25D2442412E1381E39A5886158D436070CC3C462F18E1D3B220BB95CEE2FBFFCB2607F0A2025682A0008824C2693D96CD6E97461019496964E4D4D555757ABD5EABFFEFAEBD4A95391F7AB54AAB1B1B1C860A0C88327E6
310
2A81E6D8C2004813681D12190C06C91C102464DB25773EC7B65A97CBF5D89E4C548F08B0C824B1449BCC29917408898C256EFAC12832E6AB619992444824580700D01A200000AD494600B1B96500807420899649EB5322190C467E7E7EF87014369B1D0A852A2A2A341A4D22FB0A2393E3CE8342A1A061CAC12521895322E9
310
FB5D8E61984AA58261387C1046494989D56A7DFFFDF7351ACD3BEFBC93C847095AF67287A6022057ACFC7E7F4F4F4F387B02D99AABABAB190CC6962D5B1E3B7F9FE01B203F3F3F4D742210083C1E0F9FCF2733E60220DA0A800C718CDB2EC978B73367CE3CF62103030389CCBBA549EB872068EBD6AD269349ABD536353591
310
7F2683C158D6F17DA943BB904892ECECECD403629298755E5AB45AAD52A9140A85478E1CB15AAD08820885C263C78E65CC0B019C1299280281203332E150422E973399CCB1B1B1DADADA43870EC54D95BEAC49222492A65DA0152B56DCBC7973A9BD586C1A1B1B272626F87C3E994645A5524110E4F57AE91C204AC7853036
310
9BFDE5975F667C76C758783C9E442231180C6363632E972B140AB9DD6E81409060D2BB8C848E6F80B2B2B22B57AE2895CAC89D7074E0D2A54BE40F919D9F054D5D9AFED02E24924C8B79F4E8510CC39288A003A4332024F2F1F078BC6030383E3EEEF57A6975202E1D48222492766380B2B2B2CECE4EA3D1F8F0E1C3B8B9FF
310
01B482766380070F1E141616E6E4E4C030DCDADABAD4EE009618DA09C06AB5D2F64850402CC9E40605714F80F464314E890C8542F40C8904A43F20241200A006100080D680904840E6C066B3A99A24734A24B9890A004837CACACAA89A802E1080D6000100680D100080D65016004110CB2E141040139238939CB200028100
310
6DA3870069CEE0E0205513D00502D01A200000AD010200D01ADA8544023298E2E262AA26B40B89046430D9D9D9544D401708406B800000B4060800406B4048242073002191005A03422201006A000100680D088904640E202412406B40482400400D200000AD010200D09A644222C307EB020069C5E4E4245593644222697E
310
A80E206D319BCD544D401708406B800000B4666996B4944AE592D40B485B944AA5D1685CFC7A290B80CD664BA5528BC5924AAD67CF9E4DC51C90793C91D65F5C5C6C32992899FC0FD997FF20F2B019F20000000049454E44AE426082
  0
ENDSEC
  0
EOF
