  0
SECTION
  2
HEADER
  9
$ACADVER
  1
AC1015
  9
$ACADMAINTVER
 70
    20
  9
$DWGCODEPAGE
  3
ANSI_932
  9
$INSBASE
 10
0.0
 20
0.0
 30
0.0
  9
$EXTMIN
 10
5090.066485192963
 20
-3795.390395958178
 30
0.0
  9
$EXTMAX
 10
5807.65811001989
 20
-3481.060569895068
 30
137.5
  9
$LIMMIN
 10
0.0
 20
0.0
  9
$LIMMAX
 10
420.0
 20
297.0
  9
$ORTHOMODE
 70
     1
  9
$REGENMODE
 70
     1
  9
$FILLMODE
 70
     1
  9
$QTEXTMODE
 70
     0
  9
$MIRRTEXT
 70
     0
  9
$LTSCALE
 40
1.0
  9
$ATTMODE
 70
     1
  9
$TEXTSIZE
 40
3.2
  9
$TRACEWID
 40
1.0
  9
$TEXTSTYLE
  7
まこ
  9
$CLAYER
  8
WAKU0
  9
$CELTYPE
  6
BYLAYER
  9
$CECOLOR
 62
   256
  9
$CELTSCALE
 40
1.0
  9
$DISPSILH
 70
     0
  9
$DIMSCALE
 40
2.0
  9
$DIMASZ
 40
2.5
  9
$DIMEXO
 40
1.0
  9
$DIMDLI
 40
0.38
  9
$DIMRND
 40
0.0
  9
$DIMDLE
 40
0.0
  9
$DIMEXE
 40
1.0
  9
$DIMTP
 40
0.0
  9
$DIMTM
 40
0.0
  9
$DIMTXT
 40
2.5
  9
$DIMCEN
 40
0.0
  9
$DIMTSZ
 40
0.0
  9
$DIMTOL
 70
     0
  9
$DIMLIM
 70
     0
  9
$DIMTIH
 70
     0
  9
$DIMTOH
 70
     0
  9
$DIMSE1
 70
     0
  9
$DIMSE2
 70
     0
  9
$DIMTAD
 70
     3
  9
$DIMZIN
 70
     8
  9
$DIMBLK
  1
Open30
  9
$DIMASO
 70
     1
  9
$DIMSHO
 70
     1
  9
$DIMPOST
  1

  9
$DIMAPOST
  1

  9
$DIMALT
 70
     0
  9
$DIMALTD
 70
     2
  9
$DIMALTF
 40
25.4
  9
$DIMLFAC
 40
1.0
  9
$DIMTOFL
 70
     1
  9
$DIMTVP
 40
0.0
  9
$DIMTIX
 70
     0
  9
$DIMSOXD
 70
     0
  9
$DIMSAH
 70
     0
  9
$DIMBLK1
  1

  9
$DIMBLK2
  1

  9
$DIMSTYLE
  2
STANDARD
  9
$DIMCLRD
 70
     4
  9
$DIMCLRE
 70
     4
  9
$DIMCLRT
 70
   256
  9
$DIMTFAC
 40
1.0
  9
$DIMGAP
 40
1.0
  9
$DIMJUST
 70
     0
  9
$DIMSD1
 70
     0
  9
$DIMSD2
 70
     0
  9
$DIMTOLJ
 70
     1
  9
$DIMTZIN
 70
     0
  9
$DIMALTZ
 70
     0
  9
$DIMALTTZ
 70
     0
  9
$DIMUPT
 70
     0
  9
$DIMDEC
 70
     3
  9
$DIMTDEC
 70
     3
  9
$DIMALTU
 70
     2
  9
$DIMALTTD
 70
     2
  9
$DIMTXSTY
  7
STANDARD
  9
$DIMAUNIT
 70
     0
  9
$DIMADEC
 70
     3
  9
$DIMALTRND
 40
0.0
  9
$DIMAZIN
 70
     2
  9
$DIMDSEP
 70
    46
  9
$DIMATFIT
 70
     3
  9
$DIMFRAC
 70
     0
  9
$DIMLDRBLK
  1
Open30
  9
$DIMLUNIT
 70
     2
  9
$DIMLWD
 70
    13
  9
$DIMLWE
 70
    13
  9
$DIMTMOVE
 70
     2
  9
$LUNITS
 70
     2
  9
$LUPREC
 70
     4
  9
$SKETCHINC
 40
1.0
  9
$FILLETRAD
 40
28.0
  9
$AUNITS
 70
     0
  9
$AUPREC
 70
     0
  9
$MENU
  1
.
  9
$ELEVATION
 40
0.0
  9
$PELEVATION
 40
0.0
  9
$THICKNESS
 40
0.0
  9
$LIMCHECK
 70
     0
  9
$CHAMFERA
 40
0.5
  9
$CHAMFERB
 40
0.5
  9
$CHAMFERC
 40
20.0
  9
$CHAMFERD
 40
0.0
  9
$SKPOLY
 70
     0
  9
$TDCREATE
 40
2452479.723113426
  9
$TDUCREATE
 40
2452479.348123183
  9
$TDUPDATE
 40
2459529.665972223
  9
$TDUUPDATE
 40
2459529.290972222
  9
$TDINDWG
 40
16.2034654398
  9
$TDUSRTIMER
 40
2458554.443238703
  9
$USRTIMER
 70
     1
  9
$ANGBASE
 50
0.0
  9
$ANGDIR
 70
     0
  9
$PDMODE
 70
     0
  9
$PDSIZE
 40
0.0
  9
$PLINEWID
 40
0.0
  9
$SPLFRAME
 70
     0
  9
$SPLINETYPE
 70
     6
  9
$SPLINESEGS
 70
     8
  9
$HANDSEED
  5
DD84C
  9
$SURFTAB1
 70
     6
  9
$SURFTAB2
 70
     6
  9
$SURFTYPE
 70
     6
  9
$SURFU
 70
     6
  9
$SURFV
 70
     6
  9
$UCSBASE
  2

  9
$UCSNAME
  2

  9
$UCSORG
 10
0.0
 20
0.0
 30
0.0
  9
$UCSXDIR
 10
1.0
 20
0.0
 30
0.0
  9
$UCSYDIR
 10
0.0
 20
1.0
 30
0.0
  9
$UCSORTHOREF
  2

  9
$UCSORTHOVIEW
 70
     0
  9
$UCSORGTOP
 10
0.0
 20
0.0
 30
0.0
  9
$UCSORGBOTTOM
 10
0.0
 20
0.0
 30
0.0
  9
$UCSORGLEFT
 10
0.0
 20
0.0
 30
0.0
  9
$UCSORGRIGHT
 10
0.0
 20
0.0
 30
0.0
  9
$UCSORGFRONT
 10
0.0
 20
0.0
 30
0.0
  9
$UCSORGBACK
 10
0.0
 20
0.0
 30
0.0
  9
$PUCSBASE
  2

  9
$PUCSNAME
  2

  9
$PUCSORG
 10
0.0
 20
0.0
 30
0.0
  9
$PUCSXDIR
 10
1.0
 20
0.0
 30
0.0
  9
$PUCSYDIR
 10
0.0
 20
1.0
 30
0.0
  9
$PUCSORTHOREF
  2

  9
$PUCSORTHOVIEW
 70
     0
  9
$PUCSORGTOP
 10
0.0
 20
0.0
 30
0.0
  9
$PUCSORGBOTTOM
 10
0.0
 20
0.0
 30
0.0
  9
$PUCSORGLEFT
 10
0.0
 20
0.0
 30
0.0
  9
$PUCSORGRIGHT
 10
0.0
 20
0.0
 30
0.0
  9
$PUCSORGFRONT
 10
0.0
 20
0.0
 30
0.0
  9
$PUCSORGBACK
 10
0.0
 20
0.0
 30
0.0
  9
$USERI1
 70
     0
  9
$USERI2
 70
     0
  9
$USERI3
 70
     0
  9
$USERI4
 70
     0
  9
$USERI5
 70
     0
  9
$USERR1
 40
10.0
  9
$USERR2
 40
0.0
  9
$USERR3
 40
0.0
  9
$USERR4
 40
0.0
  9
$USERR5
 40
0.0
  9
$WORLDVIEW
 70
     1
  9
$SHADEDGE
 70
     3
  9
$SHADEDIF
 70
    70
  9
$TILEMODE
 70
     0
  9
$MAXACTVP
 70
    48
  9
$PINSBASE
 10
0.0
 20
0.0
 30
0.0
  9
$PLIMCHECK
 70
     0
  9
$PEXTMIN
 10
1.049999999999999
 20
0.6999999999999998
 30
0.0
  9
$PEXTMAX
 10
9.449999999999999
 20
6.3
 30
0.0
  9
$PLIMMIN
 10
0.0
 20
0.0
  9
$PLIMMAX
 10
0.0
 20
0.0
  9
$UNITMODE
 70
     0
  9
$VISRETAIN
 70
     1
  9
$PLINEGEN
 70
     0
  9
$PSLTSCALE
 70
     1
  9
$TREEDEPTH
 70
  3020
  9
$CMLSTYLE
  2
STANDARD
  9
$CMLJUST
 70
     0
  9
$CMLSCALE
 40
20.0
  9
$PROXYGRAPHICS
 70
     1
  9
$MEASUREMENT
 70
     0
  9
$CELWEIGHT
370
    -1
  9
$ENDCAPS
280
     0
  9
$JOINSTYLE
280
     0
  9
$LWDISPLAY
290
     0
  9
$INSUNITS
 70
     0
  9
$HYPERLINKBASE
  1

  9
$STYLESHEET
  1
monochrome.ctb
  9
$XEDIT
290
     1
  9
$CEPSNTYPE
380
     0
  9
$PSTYLEMODE
290
     1
  9
$FINGERPRINTGUID
  2
{6B368F64-F7EB-11D4-BFBA-00004C030E53}
  9
$VERSIONGUID
  2
{FAD334F0-6D9C-7E44-B193-08C74FD8DCD3}
  9
$EXTNAMES
290
     1
  9
$PSVPSCALE
 40
0.5
  9
$OLESTARTUP
290
     0
  0
ENDSEC
  0
SECTION
  2
CLASSES
  0
CLASS
  1
ACDBDICTIONARYWDFLT
  2
AcDbDictionaryWithDefault
  3
ObjectDBX Classes
 90
        0
280
     0
281
     0
  0
CLASS
  1
ACDBPLACEHOLDER
  2
AcDbPlaceHolder
  3
ObjectDBX Classes
 90
        0
280
     0
281
     0
  0
CLASS
  1
LAYOUT
  2
AcDbLayout
  3
ObjectDBX Classes
 90
        0
280
     0
281
     0
  0
CLASS
  1
DICTIONARYVAR
  2
AcDbDictionaryVar
  3
ObjectDBX Classes
 90
        0
280
     0
281
     0
  0
CLASS
  1
MATERIAL
  2
AcDbMaterial
  3
ObjectDBX Classes
 90
     1153
280
     0
281
     0
  0
CLASS
  1
VISUALSTYLE
  2
AcDbVisualStyle
  3
ObjectDBX Classes
 90
     4095
280
     0
281
     0
  0
CLASS
  1
TABLESTYLE
  2
AcDbTableStyle
  3
ObjectDBX Classes
 90
     4095
280
     0
281
     0
  0
CLASS
  1
SCALE
  2
AcDbScale
  3
ObjectDBX Classes
 90
     1153
280
     0
281
     0
  0
CLASS
  1
MLEADERSTYLE
  2
AcDbMLeaderStyle
  3
ACDB_MLEADERSTYLE_CLASS
 90
     4095
280
     0
281
     0
  0
CLASS
  1
CELLSTYLEMAP
  2
AcDbCellStyleMap
  3
ObjectDBX Classes
 90
     1152
280
     0
281
     0
  0
CLASS
  1
SORTENTSTABLE
  2
AcDbSortentsTable
  3
ObjectDBX Classes
 90
        0
280
     0
281
     0
  0
CLASS
  1
ACDBSECTIONVIEWSTYLE
  2
AcDbSectionViewStyle
  3
ObjectDBX Classes
 90
     1025
280
     0
281
     0
  0
CLASS
  1
ACDBDETAILVIEWSTYLE
  2
AcDbDetailViewStyle
  3
ObjectDBX Classes
 90
     1025
280
     0
281
     0
  0
CLASS
  1
ACDBASSOCACTION
  2
AcDbAssocAction
  3
ObjectDBX Classes
 90
    33793
280
     1
281
     0
  0
CLASS
  1
ACDBASSOCARRAYACTIONBODY
  2
AcDbAssocArrayActionBody
  3
ObjectDBX Classes
 90
    33793
280
     1
281
     0
  0
CLASS
  1
ACDBASSOCDEPENDENCY
  2
AcDbAssocDependency
  3
ObjectDBX Classes
 90
    33793
280
     1
281
     0
  0
CLASS
  1
ACDBASSOCVERTEXACTIONPARAM
  2
AcDbAssocVertexActionParam
  3
ObjectDBX Classes
 90
    33793
280
     1
281
     0
  0
CLASS
  1
ACDBASSOCARRAYPOLARPARAMETERS
  2
AcDbAssocArrayPolarParameters
  3
ObjectDBX Classes
 90
    33793
280
     1
281
     0
  0
CLASS
  1
ACDBASSOCNETWORK
  2
AcDbAssocNetwork
  3
ObjectDBX Classes
 90
    33793
280
     1
281
     0
  0
CLASS
  1
SUN
  2
AcDbSun
  3
SCENEOE
 90
     1153
280
     0
281
     0
  0
CLASS
  1
RASTERVARIABLES
  2
AcDbRasterVariables
  3
ISM
 90
        0
280
     0
281
     0
  0
ENDSEC
  0
SECTION
  2
TABLES
  0
TABLE
  2
VPORT
  5
8
102
{ACAD_XDICTIONARY
360
DD69D
102
}
330
0
100
AcDbSymbolTable
 70
     1
  0
VPORT
  5
DA70E
330
8
100
AcDbSymbolTableRecord
100
AcDbViewportTableRecord
  2
*Active
 70
     0
 10
0.0
 20
0.0
 11
1.0
 21
1.0
 12
5833.857844647234
 22
-3769.557933659485
 13
-147.9468458676922
 23
19.55743956420332
 14
10.0
 24
10.0
 15
10.0
 25
10.0
 16
0.0
 26
0.0
 36
1.0
 17
0.0
 27
0.0
 37
0.0
 40
817.0267144001991
 41
1.474226804123711
 42
50.0
 43
0.0
 44
0.0
 50
0.0
 51
0.0
 71
    16
 72
   100
 73
     1
 74
     0
 75
     0
 76
     0
 77
     0
 78
     0
281
     0
 65
     1
110
0.0
120
0.0
130
0.0
111
1.0
121
0.0
131
0.0
112
0.0
122
1.0
132
0.0
 79
     0
146
0.0
1001
ACAD_NAV_VCDISPLAY
1070
     3
  0
ENDTAB
  0
TABLE
  2
LTYPE
  5
5
330
0
100
AcDbSymbolTable
 70
     3
  0
LTYPE
  5
12
330
5
100
AcDbSymbolTableRecord
100
AcDbLinetypeTableRecord
  2
BYBLOCK
 70
     0
  3

 72
    65
 73
     0
 40
0.0
  0
LTYPE
  5
13
330
5
100
AcDbSymbolTableRecord
100
AcDbLinetypeTableRecord
  2
BYLAYER
 70
     0
  3

 72
    65
 73
     0
 40
0.0
  0
LTYPE
  5
14
330
5
100
AcDbSymbolTableRecord
100
AcDbLinetypeTableRecord
  2
CONTINUOUS
 70
     0
  3
Solid line
 72
    65
 73
     0
 40
0.0
  0
LTYPE
  5
969
330
5
100
AcDbSymbolTableRecord
100
AcDbLinetypeTableRecord
  2
CENTER2
 70
     0
  3
Center (.5x) ___ _ ___ _ ___ _ ___ _ ___ _ ___
 72
    65
 73
     4
 40
28.575
 49
19.05
 74
     0
 49
-3.174999999999999
 74
     0
 49
3.174999999999999
 74
     0
 49
-3.174999999999999
 74
     0
  0
LTYPE
  5
916D9
330
5
100
AcDbSymbolTableRecord
100
AcDbLinetypeTableRecord
  2
PHANTOM2
 70
     0
  3
___ _ _ ___ _ _ ___ _ _ ___ _ _
 72
    65
 73
     6
 40
1.25
 49
0.625
 74
     0
 49
-0.125
 74
     0
 49
0.125
 74
     0
 49
-0.125
 74
     0
 49
0.125
 74
     0
 49
-0.125
 74
     0
  0
ENDTAB
  0
TABLE
  2
LAYER
  5
2
102
{ACAD_XDICTIONARY
360
1E591
102
}
330
0
100
AcDbSymbolTable
 70
     9
  0
LAYER
  5
E
102
{ACAD_XDICTIONARY
360
8E76A
102
}
330
2
100
AcDbSymbolTableRecord
100
AcDbLayerTableRecord
  2
0
 70
     2
 62
     7
  6
CONTINUOUS
370
    -3
390
73E
  0
LAYER
  5
8C6
102
{ACAD_XDICTIONARY
360
8E772
102
}
330
2
100
AcDbSymbolTableRecord
100
AcDbLayerTableRecord
  2
文字
 70
     0
 62
     7
  6
CONTINUOUS
370
    20
390
73E
  0
LAYER
  5
8D4
102
{ACAD_XDICTIONARY
360
8E774
102
}
330
2
100
AcDbSymbolTableRecord
100
AcDbLayerTableRecord
  2
WAKU0
 70
     0
 62
     7
  6
CONTINUOUS
370
    -3
390
73E
  0
LAYER
  5
96A
102
{ACAD_XDICTIONARY
360
8E778
102
}
330
2
100
AcDbSymbolTableRecord
100
AcDbLayerTableRecord
  2
中心線
 70
     0
 62
     7
  6
CENTER2
370
     9
390
73E
  0
LAYER
  5
1521
102
{ACAD_XDICTIONARY
360
8E77A
102
}
330
2
100
AcDbSymbolTableRecord
100
AcDbLayerTableRecord
  2
実線
 70
     0
 62
     7
  6
CONTINUOUS
370
    30
390
73E
  0
LAYER
  5
1523
102
{ACAD_XDICTIONARY
360
8E77E
102
}
330
2
100
AcDbSymbolTableRecord
100
AcDbLayerTableRecord
  2
細線
 70
     0
 62
     7
  6
CONTINUOUS
370
     9
390
73E
  0
LAYER
  5
1526
102
{ACAD_XDICTIONARY
360
8E780
102
}
330
2
100
AcDbSymbolTableRecord
100
AcDbLayerTableRecord
  2
\U+FF77\U+FF6C\U+FF6F\U+FF8C\U+FF9F\U+FF8E\U+FF9E\U+FF99\U+FF84
 70
     0
 62
     7
  6
CONTINUOUS
370
    30
390
73E
  0
LAYER
  5
44F0
102
{ACAD_XDICTIONARY
360
8E782
102
}
330
2
100
AcDbSymbolTableRecord
100
AcDbLayerTableRecord
  2
\U+FF7A\U+FF88\U+FF78\U+FF80
 70
     0
 62
     7
  6
CONTINUOUS
370
    30
390
73E
  0
LAYER
  5
22A60
102
{ACAD_XDICTIONARY
360
8E786
102
}
330
2
100
AcDbSymbolTableRecord
100
AcDbLayerTableRecord
  2
寸法
 70
     0
 62
     7
  6
CONTINUOUS
370
    15
390
73E
  0
ENDTAB
  0
TABLE
  2
STYLE
  5
3
330
0
100
AcDbSymbolTable
 70
     4
  0
STYLE
  5
F
330
3
100
AcDbSymbolTableRecord
100
AcDbTextStyleTableRecord
  2
STANDARD
 70
     0
 40
0.0
 41
1.0
 50
0.0
 71
     0
 42
2.5
  3
simplex.shx
  4
bigfont.shx
  0
STYLE
  5
34
330
3
100
AcDbSymbolTableRecord
100
AcDbTextStyleTableRecord
  2
TIMESNR
 70
     0
 40
0.0
 41
1.0
 50
0.0
 71
     0
 42
2.0
  3
times.ttf
  4

1001
ACAD
1000
Times New Roman
1071
       18
  0
STYLE
  5
1529
330
3
100
AcDbSymbolTableRecord
100
AcDbTextStyleTableRecord
  2
まこ
 70
     0
 40
0.0
 41
1.0
 50
0.0
 71
     0
 42
3.2
  3
simplex.shx
  4
bigfont.shx
  0
STYLE
  5
1A5A7
330
3
100
AcDbSymbolTableRecord
100
AcDbTextStyleTableRecord
  2
MS\U+FF7A\U+FF9E\U+FF7C\U+FF6F\U+FF78N
 70
     0
 40
0.0
 41
1.0
 50
0.0
 71
     0
 42
5.0
  3

  4

1001
ACAD
1000
MS Gothic
1071
    32817
  0
ENDTAB
  0
TABLE
  2
VIEW
  5
6
330
0
100
AcDbSymbolTable
 70
     0
  0
ENDTAB
  0
TABLE
  2
UCS
  5
7
330
0
100
AcDbSymbolTable
 70
     0
  0
ENDTAB
  0
TABLE
  2
APPID
  5
9
330
0
100
AcDbSymbolTable
 70
    17
  0
APPID
  5
10
330
9
100
AcDbSymbolTableRecord
100
AcDbRegAppTableRecord
  2
ACAD
 70
     0
  0
APPID
  5
84F74
330
9
100
AcDbSymbolTableRecord
100
AcDbRegAppTableRecord
  2
ACAD_NAV_VCDISPLAY
 70
     0
  0
APPID
  5
84F75
330
9
100
AcDbSymbolTableRecord
100
AcDbRegAppTableRecord
  2
ACAD_PSEXT
 70
     0
  0
APPID
  5
85072
330
9
100
AcDbSymbolTableRecord
100
AcDbRegAppTableRecord
  2
AcadAnnotative
 70
     0
  0
APPID
  5
8E6EF
330
9
100
AcDbSymbolTableRecord
100
AcDbRegAppTableRecord
  2
ACAD_EXEMPT_FROM_CAD_STANDARDS
 70
     0
  0
APPID
  5
90B0E
330
9
100
AcDbSymbolTableRecord
100
AcDbRegAppTableRecord
  2
AcAecLayerStandard
 70
     0
  0
APPID
  5
90B0F
330
9
100
AcDbSymbolTableRecord
100
AcDbRegAppTableRecord
  2
AcCmTransparency
 70
     0
  0
APPID
  5
90B10
330
9
100
AcDbSymbolTableRecord
100
AcDbRegAppTableRecord
  2
ACAD_DSTYLE_DIMJAG
 70
     0
  0
APPID
  5
90B11
330
9
100
AcDbSymbolTableRecord
100
AcDbRegAppTableRecord
  2
ACAD_DSTYLE_DIMTALN
 70
     0
  0
APPID
  5
91087
330
9
100
AcDbSymbolTableRecord
100
AcDbRegAppTableRecord
  2
ACAD_MLEADERVER
 70
     0
  0
APPID
  5
94C60
330
9
100
AcDbSymbolTableRecord
100
AcDbRegAppTableRecord
  2
GradientColor1ACI
 70
     0
  0
APPID
  5
94C61
330
9
100
AcDbSymbolTableRecord
100
AcDbRegAppTableRecord
  2
GradientColor2ACI
 70
     0
  0
APPID
  5
96671
330
9
100
AcDbSymbolTableRecord
100
AcDbRegAppTableRecord
  2
ACAD_DSTYLE_DIMRADIAL_EXTENSION
 70
     0
  0
APPID
  5
ACF82
330
9
100
AcDbSymbolTableRecord
100
AcDbRegAppTableRecord
  2
AcadAnnoMonitorAlertIconDisabled
 70
     0
  0
APPID
  5
D9C3D
330
9
100
AcDbSymbolTableRecord
100
AcDbRegAppTableRecord
  2
ACAD_DSTYLE_DIMFLIPARROW_SYMBOL
 70
     0
  0
APPID
  5
D9C3E
330
9
100
AcDbSymbolTableRecord
100
AcDbRegAppTableRecord
  2
ACAD_DSTYLE_DIMFLIPARROW_WHICH_SYMBOL
 70
     0
  0
APPID
  5
DA7FB
330
9
100
AcDbSymbolTableRecord
100
AcDbRegAppTableRecord
  2
PLOTTRANSPARENCY
 70
     0
  0
ENDTAB
  0
TABLE
  2
DIMSTYLE
  5
A
330
0
100
AcDbSymbolTable
 70
     1
100
AcDbDimStyleTable
 71
     0
  0
DIMSTYLE
105
1D
330
A
100
AcDbSymbolTableRecord
100
AcDbDimStyleTableRecord
  2
STANDARD
 70
     0
 40
2.0
 41
2.5
 42
1.0
 44
1.0
 73
     0
 74
     0
 77
     3
 78
     8
 79
     2
140
2.5
141
0.0
147
1.0
172
     1
176
     4
177
     4
178
   256
179
     3
271
     3
272
     3
279
     2
340
F
341
89E
342
89E
371
    13
372
    13
  0
ENDTAB
  0
TABLE
  2
BLOCK_RECORD
  5
1
330
0
100
AcDbSymbolTable
 70
     4
  0
BLOCK_RECORD
  5
18
102
{ACAD_XDICTIONARY
360
90FBB
102
}
330
1
100
AcDbSymbolTableRecord
100
AcDbBlockTableRecord
  2
*MODEL_SPACE
340
741
  0
BLOCK_RECORD
  5
DA855
330
1
100
AcDbSymbolTableRecord
100
AcDbBlockTableRecord
  2
*Paper_Space
340
DA856
  0
BLOCK_RECORD
  5
89E
330
1
100
AcDbSymbolTableRecord
100
AcDbBlockTableRecord
  2
_Open30
340
0
  0
BLOCK_RECORD
  5
D8630
330
1
100
AcDbSymbolTableRecord
100
AcDbBlockTableRecord
  2
*U1
340
0
102
{BLKREFS
331
D8CB4
102
}
  0
BLOCK_RECORD
  5
D8635
330
1
100
AcDbSymbolTableRecord
100
AcDbBlockTableRecord
  2
*U2
340
0
102
{BLKREFS
331
D8634
331
D863B
331
D863C
331
D863D
331
D863E
331
D863F
102
}
  0
BLOCK_RECORD
  5
D9AAC
102
{ACAD_XDICTIONARY
360
D9ADB
102
}
330
1
100
AcDbSymbolTableRecord
100
AcDbBlockTableRecord
  2
A$C23141
340
0
102
{BLKREFS
331
D9B13
102
}
  0
ENDTAB
  0
ENDSEC
  0
SECTION
  2
BLOCKS
  0
BLOCK
  5
19
330
18
100
AcDbEntity
  8
0
100
AcDbBlockBegin
  2
*MODEL_SPACE
 70
     0
 10
0.0
 20
0.0
 30
0.0
  3
*MODEL_SPACE
  1
*MODEL_SPACE
  0
ENDBLK
  5
1A
330
18
100
AcDbEntity
  8
0
100
AcDbBlockEnd
  0
BLOCK
  5
DA857
330
DA855
100
AcDbEntity
 67
     1
  8
0
100
AcDbBlockBegin
  2
*Paper_Space
 70
     0
 10
0.0
 20
0.0
 30
0.0
  3
*Paper_Space
  1

  0
ENDBLK
  5
DA858
330
DA855
100
AcDbEntity
 67
     1
  8
0
100
AcDbBlockEnd
  0
BLOCK
  5
8A2
330
89E
100
AcDbEntity
  8
0
100
AcDbBlockBegin
  2
_Open30
 70
     0
 10
0.0
 20
0.0
 30
0.0
  3
_Open30
  1
_Open30
  0
LINE
  5
89F
330
89E
100
AcDbEntity
  8
0
  6
ByBlock
 62
     0
370
    -2
100
AcDbLine
 10
-1.0
 20
0.26794919
 30
0.0
 11
0.0
 21
0.0
 31
0.0
  0
LINE
  5
8A0
330
89E
100
AcDbEntity
  8
0
  6
ByBlock
 62
     0
370
    -2
100
AcDbLine
 10
0.0
 20
0.0
 30
0.0
 11
-1.0
 21
-0.26794919
 31
0.0
  0
LINE
  5
8A1
330
89E
100
AcDbEntity
  8
0
  6
ByBlock
 62
     0
370
    -2
100
AcDbLine
 10
0.0
 20
0.0
 30
0.0
 11
-1.0
 21
0.0
 31
0.0
  0
ENDBLK
  5
8A3
330
89E
100
AcDbEntity
  8
0
100
AcDbBlockEnd
  0
BLOCK
  5
D8633
330
D8630
100
AcDbEntity
  8
0
100
AcDbBlockBegin
  2
*U1
 70
     1
 10
0.0
 20
0.0
 30
0.0
  3
*U1
  1
*U4
  0
INSERT
  5
D8634
330
D8630
100
AcDbEntity
  8
実線
  6
ByBlock
 62
     0
370
    -2
380
     1
100
AcDbBlockReference
  2
*U2
 10
1615.834480707239
 20
-66.02721154681643
 30
0.0
  0
INSERT
  5
D863B
330
D8630
100
AcDbEntity
  8
実線
  6
ByBlock
 62
     0
370
    -2
380
     1
100
AcDbBlockReference
  2
*U2
 10
1559.54282946125
 20
-33.52721154681645
 30
0.0
 50
60.0
  0
INSERT
  5
D863C
330
D8630
100
AcDbEntity
  8
実線
  6
ByBlock
 62
     0
370
    -2
380
     1
100
AcDbBlockReference
  2
*U2
 10
1503.251178215262
 20
-66.02721154681649
 30
0.0
 50
120.0
  0
INSERT
  5
D863D
330
D8630
100
AcDbEntity
  8
実線
  6
ByBlock
 62
     0
370
    -2
380
     1
100
AcDbBlockReference
  2
*U2
 10
1503.251178215262
 20
-131.0272115468165
 30
0.0
 50
180.0
  0
INSERT
  5
D863E
330
D8630
100
AcDbEntity
  8
実線
  6
ByBlock
 62
     0
370
    -2
380
     1
100
AcDbBlockReference
  2
*U2
 10
1559.54282946125
 20
-163.5272115468165
 30
0.0
 50
239.9999999999999
  0
INSERT
  5
D863F
330
D8630
100
AcDbEntity
  8
実線
  6
ByBlock
 62
     0
370
    -2
380
     1
100
AcDbBlockReference
  2
*U2
 10
1615.834480707239
 20
-131.0272115468165
 30
0.0
 50
300.0
  0
ENDBLK
  5
D8640
330
D8630
100
AcDbEntity
  8
0
100
AcDbBlockEnd
  0
BLOCK
  5
D8636
330
D8635
100
AcDbEntity
  8
0
100
AcDbBlockBegin
  2
*U2
 70
     1
 10
0.0
 20
0.0
 30
0.0
  3
*U2
  1
*U5
  0
LINE
  5
D8637
330
D8635
100
AcDbEntity
  8
中心線
 48
0.2
100
AcDbLine
 10
-3.515251206888478
 20
-2.029531230566135
 30
0.0
 11
3.515251206888478
 21
2.029531230566021
 31
0.0
  0
CIRCLE
  5
D8638
330
D8635
100
AcDbEntity
  8
細線
100
AcDbCircle
 10
-0.0000000000004547
 20
0.0
 30
0.0
 40
3.0
  0
CIRCLE
  5
D8639
330
D8635
100
AcDbEntity
  8
実線
100
AcDbCircle
 10
-0.0000000000004547
 20
0.0
 30
0.0
 40
2.5
  0
ENDBLK
  5
D863A
330
D8635
100
AcDbEntity
  8
0
100
AcDbBlockEnd
  0
BLOCK
  5
D9B11
330
D9AAC
100
AcDbEntity
  8
0
100
AcDbBlockBegin
  2
A$C23141
 70
     0
 10
0.0
 20
0.0
 30
0.0
  3
A$C23141
  1
A$C23141
  0
CIRCLE
  5
D9ADD
330
D9AAC
100
AcDbEntity
  8
\U+FF77\U+FF6C\U+FF6F\U+FF8C\U+FF9F\U+FF8E\U+FF9E\U+FF99\U+FF84
100
AcDbCircle
 10
-38.71409626997229
 20
38.71409626995684
 30
0.0
 40
2.0
  0
LINE
  5
D9ADE
330
D9AAC
100
AcDbEntity
  8
\U+FF77\U+FF6C\U+FF6F\U+FF8C\U+FF9F\U+FF8E\U+FF9E\U+FF99\U+FF84
100
AcDbLine
 10
-37.66710197781504
 20
38.02065536839564
 30
0.0
 11
-38.36054287937804
 21
38.71409626995684
 31
0.0
  0
LINE
  5
D9ADF
330
D9AAC
100
AcDbEntity
  8
\U+FF77\U+FF6C\U+FF6F\U+FF8C\U+FF9F\U+FF8E\U+FF9E\U+FF99\U+FF84
100
AcDbLine
 10
-38.02065536840746
 20
37.66710197780139
 30
0.0
 11
-38.71409626997047
 21
38.3605428793644
 31
0.0
  0
LINE
  5
D9AE0
330
D9AAC
100
AcDbEntity
  8
\U+FF77\U+FF6C\U+FF6F\U+FF8C\U+FF9F\U+FF8E\U+FF9E\U+FF99\U+FF84
100
AcDbLine
 10
-38.02065536840746
 20
37.66710197779958
 30
0.0
 11
-37.66710197781504
 21
38.02065536839564
 31
0.0
  0
CIRCLE
  5
D9AE1
330
D9AAC
100
AcDbEntity
  8
\U+FF77\U+FF6C\U+FF6F\U+FF8C\U+FF9F\U+FF8E\U+FF9E\U+FF99\U+FF84
100
AcDbCircle
 10
38.71409626997411
 20
38.71409626995501
 30
0.0
 40
2.0
  0
LINE
  5
D9AE2
330
D9AAC
100
AcDbEntity
  8
\U+FF77\U+FF6C\U+FF6F\U+FF8C\U+FF9F\U+FF8E\U+FF9E\U+FF99\U+FF84
100
AcDbLine
 10
38.02065536841201
 20
37.66710197779776
 30
0.0
 11
38.71409626997411
 21
38.36054287936076
 31
0.0
  0
LINE
  5
D9AE3
330
D9AAC
100
AcDbEntity
  8
\U+FF77\U+FF6C\U+FF6F\U+FF8C\U+FF9F\U+FF8E\U+FF9E\U+FF99\U+FF84
100
AcDbLine
 10
37.66710197781777
 20
38.02065536839018
 30
0.0
 11
38.36054287938168
 21
38.71409626995319
 31
0.0
  0
LINE
  5
D9AE4
330
D9AAC
100
AcDbEntity
  8
\U+FF77\U+FF6C\U+FF6F\U+FF8C\U+FF9F\U+FF8E\U+FF9E\U+FF99\U+FF84
100
AcDbLine
 10
39.76109056213136
 20
38.02065536839018
 30
0.0
 11
39.06764966056926
 21
38.71409626995501
 31
0.0
  0
LINE
  5
D9AE5
330
D9AAC
100
AcDbEntity
  8
\U+FF77\U+FF6C\U+FF6F\U+FF8C\U+FF9F\U+FF8E\U+FF9E\U+FF99\U+FF84
100
AcDbLine
 10
39.40753717153893
 20
37.66710197779776
 30
0.0
 11
38.71409626997411
 21
38.36054287936076
 31
0.0
  0
LINE
  5
D9AE6
330
D9AAC
100
AcDbEntity
  8
\U+FF77\U+FF6C\U+FF6F\U+FF8C\U+FF9F\U+FF8E\U+FF9E\U+FF99\U+FF84
100
AcDbLine
 10
39.06764966056926
 20
38.71409626995501
 30
0.0
 11
39.76109056213318
 21
39.40753717151711
 31
0.0
  0
LINE
  5
D9AE7
330
D9AAC
100
AcDbEntity
  8
\U+FF77\U+FF6C\U+FF6F\U+FF8C\U+FF9F\U+FF8E\U+FF9E\U+FF99\U+FF84
100
AcDbLine
 10
38.71409626997503
 20
39.06764966054743
 30
0.0
 11
39.40753717153802
 21
39.76109056211135
 31
0.0
  0
LINE
  5
D9AE8
330
D9AAC
100
AcDbEntity
  8
\U+FF77\U+FF6C\U+FF6F\U+FF8C\U+FF9F\U+FF8E\U+FF9E\U+FF99\U+FF84
100
AcDbLine
 10
38.36054287938168
 20
38.71409626995319
 30
0.0
 11
37.66710197781867
 21
39.40753717151711
 31
0.0
  0
LINE
  5
D9AE9
330
D9AAC
100
AcDbEntity
  8
\U+FF77\U+FF6C\U+FF6F\U+FF8C\U+FF9F\U+FF8E\U+FF9E\U+FF99\U+FF84
100
AcDbLine
 10
38.71409626997503
 20
39.06764966054743
 30
0.0
 11
38.0206553684111
 21
39.76109056211135
 31
0.0
  0
LINE
  5
D9AEA
330
D9AAC
100
AcDbEntity
  8
\U+FF77\U+FF6C\U+FF6F\U+FF8C\U+FF9F\U+FF8E\U+FF9E\U+FF99\U+FF84
100
AcDbLine
 10
39.76109056213136
 20
38.02065536839018
 30
0.0
 11
39.40753717153893
 21
37.66710197779776
 31
0.0
  0
LINE
  5
D9AEB
330
D9AAC
100
AcDbEntity
  8
\U+FF77\U+FF6C\U+FF6F\U+FF8C\U+FF9F\U+FF8E\U+FF9E\U+FF99\U+FF84
100
AcDbLine
 10
37.66710197781595
 20
38.02065536839018
 30
0.0
 11
38.02065536841201
 21
37.66710197779776
 31
0.0
  0
LINE
  5
D9AEC
330
D9AAC
100
AcDbEntity
  8
\U+FF77\U+FF6C\U+FF6F\U+FF8C\U+FF9F\U+FF8E\U+FF9E\U+FF99\U+FF84
100
AcDbLine
 10
38.0206553684111
 20
39.76109056211135
 30
0.0
 11
37.66710197781867
 21
39.40753717151711
 31
0.0
  0
LINE
  5
D9AED
330
D9AAC
100
AcDbEntity
  8
\U+FF77\U+FF6C\U+FF6F\U+FF8C\U+FF9F\U+FF8E\U+FF9E\U+FF99\U+FF84
100
AcDbLine
 10
39.40753717153802
 20
39.76109056211135
 30
0.0
 11
39.76109056213136
 21
39.40753717151802
 31
0.0
  0
LINE
  5
D9AEE
330
D9AAC
100
AcDbEntity
  8
\U+FF77\U+FF6C\U+FF6F\U+FF8C\U+FF9F\U+FF8E\U+FF9E\U+FF99\U+FF84
100
AcDbLine
 10
-38.02065536840746
 20
39.76109056211408
 30
0.0
 11
-38.71409626997229
 21
39.06764966055289
 31
0.0
  0
LINE
  5
D9AEF
330
D9AAC
100
AcDbEntity
  8
\U+FF77\U+FF6C\U+FF6F\U+FF8C\U+FF9F\U+FF8E\U+FF9E\U+FF99\U+FF84
100
AcDbLine
 10
-37.66710197781504
 20
39.40753717152166
 30
0.0
 11
-38.36054287937804
 21
38.71409626995684
 31
0.0
  0
LINE
  5
D9AF0
330
D9AAC
100
AcDbEntity
  8
\U+FF77\U+FF6C\U+FF6F\U+FF8C\U+FF9F\U+FF8E\U+FF9E\U+FF99\U+FF84
100
AcDbLine
 10
-38.71409626997229
 20
39.06764966055289
 30
0.0
 11
-39.4075371715353
 21
39.76109056211591
 31
0.0
  0
LINE
  5
D9AF1
330
D9AAC
100
AcDbEntity
  8
\U+FF77\U+FF6C\U+FF6F\U+FF8C\U+FF9F\U+FF8E\U+FF9E\U+FF99\U+FF84
100
AcDbLine
 10
-39.06764966056471
 20
38.71409626995865
 30
0.0
 11
-39.76109056212954
 21
39.40753717152166
 31
0.0
  0
LINE
  5
D9AF2
330
D9AAC
100
AcDbEntity
  8
\U+FF77\U+FF6C\U+FF6F\U+FF8C\U+FF9F\U+FF8E\U+FF9E\U+FF99\U+FF84
100
AcDbLine
 10
-38.71409626997047
 20
38.3605428793644
 30
0.0
 11
-39.4075371715353
 21
37.66710197780139
 31
0.0
  0
LINE
  5
D9AF3
330
D9AAC
100
AcDbEntity
  8
\U+FF77\U+FF6C\U+FF6F\U+FF8C\U+FF9F\U+FF8E\U+FF9E\U+FF99\U+FF84
100
AcDbLine
 10
-39.06764966056471
 20
38.71409626995865
 30
0.0
 11
-39.76109056212954
 21
38.02065536839382
 31
0.0
  0
LINE
  5
D9AF4
330
D9AAC
100
AcDbEntity
  8
\U+FF77\U+FF6C\U+FF6F\U+FF8C\U+FF9F\U+FF8E\U+FF9E\U+FF99\U+FF84
100
AcDbLine
 10
-39.76109056212954
 20
39.40753717152166
 30
0.0
 11
-39.4075371715353
 21
39.76109056211408
 31
0.0
  0
LINE
  5
D9AF5
330
D9AAC
100
AcDbEntity
  8
\U+FF77\U+FF6C\U+FF6F\U+FF8C\U+FF9F\U+FF8E\U+FF9E\U+FF99\U+FF84
100
AcDbLine
 10
-38.02065536840746
 20
39.76109056211408
 30
0.0
 11
-37.66710197781504
 21
39.40753717152166
 31
0.0
  0
LINE
  5
D9AF6
330
D9AAC
100
AcDbEntity
  8
\U+FF77\U+FF6C\U+FF6F\U+FF8C\U+FF9F\U+FF8E\U+FF9E\U+FF99\U+FF84
100
AcDbLine
 10
-39.76109056212954
 20
38.02065536839382
 30
0.0
 11
-39.4075371715353
 21
37.66710197780139
 31
0.0
  0
CIRCLE
  5
D9AF7
330
D9AAC
100
AcDbEntity
  8
\U+FF77\U+FF6C\U+FF6F\U+FF8C\U+FF9F\U+FF8E\U+FF9E\U+FF99\U+FF84
100
AcDbCircle
 10
-38.71409626997411
 20
-38.71409626999048
 30
0.0
 40
2.0
  0
LINE
  5
D9AF8
330
D9AAC
100
AcDbEntity
  8
\U+FF77\U+FF6C\U+FF6F\U+FF8C\U+FF9F\U+FF8E\U+FF9E\U+FF99\U+FF84
100
AcDbLine
 10
-38.02065536841201
 20
-37.66710197783323
 30
0.0
 11
-38.71409626997411
 21
-38.36054287939623
 31
0.0
  0
LINE
  5
D9AF9
330
D9AAC
100
AcDbEntity
  8
\U+FF77\U+FF6C\U+FF6F\U+FF8C\U+FF9F\U+FF8E\U+FF9E\U+FF99\U+FF84
100
AcDbLine
 10
-37.66710197781777
 20
-38.02065536842565
 30
0.0
 11
-38.36054287938168
 21
-38.71409626998866
 31
0.0
  0
LINE
  5
D9AFA
330
D9AAC
100
AcDbEntity
  8
\U+FF77\U+FF6C\U+FF6F\U+FF8C\U+FF9F\U+FF8E\U+FF9E\U+FF99\U+FF84
100
AcDbLine
 10
-39.76109056213136
 20
-38.02065536842656
 30
0.0
 11
-39.06764966056926
 21
-38.71409626999139
 31
0.0
  0
LINE
  5
D9AFB
330
D9AAC
100
AcDbEntity
  8
\U+FF77\U+FF6C\U+FF6F\U+FF8C\U+FF9F\U+FF8E\U+FF9E\U+FF99\U+FF84
100
AcDbLine
 10
-39.40753717153893
 20
-37.66710197783323
 30
0.0
 11
-38.71409626997411
 21
-38.36054287939623
 31
0.0
  0
LINE
  5
D9AFC
330
D9AAC
100
AcDbEntity
  8
\U+FF77\U+FF6C\U+FF6F\U+FF8C\U+FF9F\U+FF8E\U+FF9E\U+FF99\U+FF84
100
AcDbLine
 10
-39.06764966056926
 20
-38.71409626999139
 30
0.0
 11
-39.76109056213318
 21
-39.40753717155259
 31
0.0
  0
LINE
  5
D9AFD
330
D9AAC
100
AcDbEntity
  8
\U+FF77\U+FF6C\U+FF6F\U+FF8C\U+FF9F\U+FF8E\U+FF9E\U+FF99\U+FF84
100
AcDbLine
 10
-38.71409626997503
 20
-39.0676496605829
 30
0.0
 11
-39.40753717153802
 21
-39.76109056214682
 31
0.0
  0
LINE
  5
D9AFE
330
D9AAC
100
AcDbEntity
  8
\U+FF77\U+FF6C\U+FF6F\U+FF8C\U+FF9F\U+FF8E\U+FF9E\U+FF99\U+FF84
100
AcDbLine
 10
-38.36054287938168
 20
-38.71409626998866
 30
0.0
 11
-37.66710197781867
 21
-39.40753717155259
 31
0.0
  0
LINE
  5
D9AFF
330
D9AAC
100
AcDbEntity
  8
\U+FF77\U+FF6C\U+FF6F\U+FF8C\U+FF9F\U+FF8E\U+FF9E\U+FF99\U+FF84
100
AcDbLine
 10
-38.71409626997503
 20
-39.0676496605829
 30
0.0
 11
-38.0206553684111
 21
-39.76109056214682
 31
0.0
  0
LINE
  5
D9B00
330
D9AAC
100
AcDbEntity
  8
\U+FF77\U+FF6C\U+FF6F\U+FF8C\U+FF9F\U+FF8E\U+FF9E\U+FF99\U+FF84
100
AcDbLine
 10
-39.40753717153802
 20
-39.76109056214682
 30
0.0
 11
-39.76109056213136
 21
-39.40753717155349
 31
0.0
  0
LINE
  5
D9B01
330
D9AAC
100
AcDbEntity
  8
\U+FF77\U+FF6C\U+FF6F\U+FF8C\U+FF9F\U+FF8E\U+FF9E\U+FF99\U+FF84
100
AcDbLine
 10
-39.76109056213136
 20
-38.02065536842656
 30
0.0
 11
-39.40753717153893
 21
-37.66710197783323
 31
0.0
  0
LINE
  5
D9B02
330
D9AAC
100
AcDbEntity
  8
\U+FF77\U+FF6C\U+FF6F\U+FF8C\U+FF9F\U+FF8E\U+FF9E\U+FF99\U+FF84
100
AcDbLine
 10
-37.66710197781595
 20
-38.02065536842565
 30
0.0
 11
-38.02065536841201
 21
-37.66710197783323
 31
0.0
  0
LINE
  5
D9B03
330
D9AAC
100
AcDbEntity
  8
\U+FF77\U+FF6C\U+FF6F\U+FF8C\U+FF9F\U+FF8E\U+FF9E\U+FF99\U+FF84
100
AcDbLine
 10
-38.0206553684111
 20
-39.76109056214682
 30
0.0
 11
-37.66710197781867
 21
-39.40753717155259
 31
0.0
  0
CIRCLE
  5
D9B04
330
D9AAC
100
AcDbEntity
  8
\U+FF77\U+FF6C\U+FF6F\U+FF8C\U+FF9F\U+FF8E\U+FF9E\U+FF99\U+FF84
100
AcDbCircle
 10
38.71409626997229
 20
-38.71409626999139
 30
0.0
 40
2.0
  0
LINE
  5
D9B05
330
D9AAC
100
AcDbEntity
  8
\U+FF77\U+FF6C\U+FF6F\U+FF8C\U+FF9F\U+FF8E\U+FF9E\U+FF99\U+FF84
100
AcDbLine
 10
37.66710197781413
 20
-38.0206553684302
 30
0.0
 11
38.36054287937714
 21
-38.71409626999139
 31
0.0
  0
LINE
  5
D9B06
330
D9AAC
100
AcDbEntity
  8
\U+FF77\U+FF6C\U+FF6F\U+FF8C\U+FF9F\U+FF8E\U+FF9E\U+FF99\U+FF84
100
AcDbLine
 10
38.02065536840655
 20
-37.66710197783596
 30
0.0
 11
38.71409626996956
 21
-38.36054287939897
 31
0.0
  0
LINE
  5
D9B07
330
D9AAC
100
AcDbEntity
  8
\U+FF77\U+FF6C\U+FF6F\U+FF8C\U+FF9F\U+FF8E\U+FF9E\U+FF99\U+FF84
100
AcDbLine
 10
38.02065536840746
 20
-39.76109056214864
 30
0.0
 11
38.71409626997229
 21
-39.06764966058745
 31
0.0
  0
LINE
  5
D9B08
330
D9AAC
100
AcDbEntity
  8
\U+FF77\U+FF6C\U+FF6F\U+FF8C\U+FF9F\U+FF8E\U+FF9E\U+FF99\U+FF84
100
AcDbLine
 10
37.66710197781413
 20
-39.40753717155621
 30
0.0
 11
38.36054287937714
 21
-38.71409626999139
 31
0.0
  0
LINE
  5
D9B09
330
D9AAC
100
AcDbEntity
  8
\U+FF77\U+FF6C\U+FF6F\U+FF8C\U+FF9F\U+FF8E\U+FF9E\U+FF99\U+FF84
100
AcDbLine
 10
38.71409626997229
 20
-39.06764966058745
 30
0.0
 11
39.40753717153348
 21
-39.76109056215046
 31
0.0
  0
LINE
  5
D9B0A
330
D9AAC
100
AcDbEntity
  8
\U+FF77\U+FF6C\U+FF6F\U+FF8C\U+FF9F\U+FF8E\U+FF9E\U+FF99\U+FF84
100
AcDbLine
 10
39.0676496605638
 20
-38.71409626999322
 30
0.0
 11
39.76109056212772
 21
-39.40753717155621
 31
0.0
  0
LINE
  5
D9B0B
330
D9AAC
100
AcDbEntity
  8
\U+FF77\U+FF6C\U+FF6F\U+FF8C\U+FF9F\U+FF8E\U+FF9E\U+FF99\U+FF84
100
AcDbLine
 10
38.71409626996956
 20
-38.36054287939897
 30
0.0
 11
39.40753717153348
 21
-37.66710197783596
 31
0.0
  0
LINE
  5
D9B0C
330
D9AAC
100
AcDbEntity
  8
\U+FF77\U+FF6C\U+FF6F\U+FF8C\U+FF9F\U+FF8E\U+FF9E\U+FF99\U+FF84
100
AcDbLine
 10
39.0676496605638
 20
-38.71409626999322
 30
0.0
 11
39.76109056212772
 21
-38.02065536842838
 31
0.0
  0
LINE
  5
D9B0D
330
D9AAC
100
AcDbEntity
  8
\U+FF77\U+FF6C\U+FF6F\U+FF8C\U+FF9F\U+FF8E\U+FF9E\U+FF99\U+FF84
100
AcDbLine
 10
39.76109056212772
 20
-39.40753717155621
 30
0.0
 11
39.4075371715344
 21
-39.76109056214864
 31
0.0
  0
LINE
  5
D9B0E
330
D9AAC
100
AcDbEntity
  8
\U+FF77\U+FF6C\U+FF6F\U+FF8C\U+FF9F\U+FF8E\U+FF9E\U+FF99\U+FF84
100
AcDbLine
 10
38.02065536840746
 20
-39.76109056214864
 30
0.0
 11
37.66710197781413
 21
-39.40753717155621
 31
0.0
  0
LINE
  5
D9B0F
330
D9AAC
100
AcDbEntity
  8
\U+FF77\U+FF6C\U+FF6F\U+FF8C\U+FF9F\U+FF8E\U+FF9E\U+FF99\U+FF84
100
AcDbLine
 10
38.02065536840655
 20
-37.66710197783414
 30
0.0
 11
37.66710197781413
 21
-38.0206553684302
 31
0.0
  0
LINE
  5
D9B10
330
D9AAC
100
AcDbEntity
  8
\U+FF77\U+FF6C\U+FF6F\U+FF8C\U+FF9F\U+FF8E\U+FF9E\U+FF99\U+FF84
100
AcDbLine
 10
39.76109056212772
 20
-38.02065536842838
 30
0.0
 11
39.40753717153348
 21
-37.66710197783596
 31
0.0
  0
ENDBLK
  5
D9B12
330
D9AAC
100
AcDbEntity
  8
0
100
AcDbBlockEnd
  0
ENDSEC
  0
SECTION
  2
ENTITIES
  0
ARC
  5
D8937
330
18
100
AcDbEntity
  8
実線
100
AcDbCircle
 10
5175.066485192964
 20
-3631.060571593665
 30
0.0
 40
64.5
100
AcDbArc
 50
44.99999999999942
 51
89.99999999994749
  0
LINE
  5
D8939
330
18
100
AcDbEntity
  8
\U+FF77\U+FF6C\U+FF6F\U+FF8C\U+FF9F\U+FF8E\U+FF9E\U+FF99\U+FF84
100
AcDbLine
 10
5247.939189527876
 20
-3611.53438931685
 30
0.0
 11
5246.918569277581
 21
-3610.513769066554
 31
0.0
  0
LINE
  5
D893A
330
18
100
AcDbEntity
  8
\U+FF77\U+FF6C\U+FF6F\U+FF8C\U+FF9F\U+FF8E\U+FF9E\U+FF99\U+FF84
100
AcDbLine
 10
5245.52437608806
 20
-3610.887342005779
 30
0.0
 11
5245.150803148836
 21
-3612.2815351953
 31
0.0
  0
LINE
  5
D893B
330
18
100
AcDbEntity
  8
\U+FF77\U+FF6C\U+FF6F\U+FF8C\U+FF9F\U+FF8E\U+FF9E\U+FF99\U+FF84
100
AcDbLine
 10
5245.150803148836
 20
-3612.2815351953
 30
0.0
 11
5246.171423399133
 21
-3613.302155445588
 31
0.0
  0
LINE
  5
D893C
330
18
100
AcDbEntity
  8
\U+FF77\U+FF6C\U+FF6F\U+FF8C\U+FF9F\U+FF8E\U+FF9E\U+FF99\U+FF84
100
AcDbLine
 10
5246.171423399133
 20
-3613.302155445588
 30
0.0
 11
5247.565616588648
 21
-3612.928582506363
 31
0.0
  0
LINE
  5
D893D
330
18
100
AcDbEntity
  8
\U+FF77\U+FF6C\U+FF6F\U+FF8C\U+FF9F\U+FF8E\U+FF9E\U+FF99\U+FF84
100
AcDbLine
 10
5246.918569277581
 20
-3610.513769066554
 30
0.0
 11
5245.52437608806
 21
-3610.887342005779
 31
0.0
  0
CIRCLE
  5
D893E
330
18
100
AcDbEntity
  8
\U+FF77\U+FF6C\U+FF6F\U+FF8C\U+FF9F\U+FF8E\U+FF9E\U+FF99\U+FF84
100
AcDbCircle
 10
5246.544996338357
 20
-3611.907962256077
 30
0.0
 40
3.5
  0
LINE
  5
D893F
330
18
100
AcDbEntity
  8
\U+FF77\U+FF6C\U+FF6F\U+FF8C\U+FF9F\U+FF8E\U+FF9E\U+FF99\U+FF84
100
AcDbLine
 10
5247.565616588648
 20
-3612.928582506363
 30
0.0
 11
5247.939189527876
 21
-3611.53438931685
 31
0.0
  0
LINE
  5
D8940
330
18
100
AcDbEntity
  8
\U+FF77\U+FF6C\U+FF6F\U+FF8C\U+FF9F\U+FF8E\U+FF9E\U+FF99\U+FF84
100
AcDbLine
 10
5247.939189527876
 20
-3650.586753870473
 30
0.0
 11
5247.565616588651
 21
-3649.192560680953
 31
0.0
  0
LINE
  5
D8941
330
18
100
AcDbEntity
  8
\U+FF77\U+FF6C\U+FF6F\U+FF8C\U+FF9F\U+FF8E\U+FF9E\U+FF99\U+FF84
100
AcDbLine
 10
5246.171423399133
 20
-3648.818987741729
 30
0.0
 11
5245.150803148839
 21
-3649.839607992024
 31
0.0
  0
LINE
  5
D8942
330
18
100
AcDbEntity
  8
\U+FF77\U+FF6C\U+FF6F\U+FF8C\U+FF9F\U+FF8E\U+FF9E\U+FF99\U+FF84
100
AcDbLine
 10
5245.150803148839
 20
-3649.839607992024
 30
0.0
 11
5245.524376088064
 21
-3651.233801181537
 31
0.0
  0
LINE
  5
D8943
330
18
100
AcDbEntity
  8
\U+FF77\U+FF6C\U+FF6F\U+FF8C\U+FF9F\U+FF8E\U+FF9E\U+FF99\U+FF84
100
AcDbLine
 10
5245.524376088064
 20
-3651.233801181537
 30
0.0
 11
5246.918569277585
 21
-3651.607374120762
 31
0.0
  0
LINE
  5
D8944
330
18
100
AcDbEntity
  8
\U+FF77\U+FF6C\U+FF6F\U+FF8C\U+FF9F\U+FF8E\U+FF9E\U+FF99\U+FF84
100
AcDbLine
 10
5247.565616588651
 20
-3649.192560680953
 30
0.0
 11
5246.171423399133
 21
-3648.818987741729
 31
0.0
  0
CIRCLE
  5
D8945
330
18
100
AcDbEntity
  8
\U+FF77\U+FF6C\U+FF6F\U+FF8C\U+FF9F\U+FF8E\U+FF9E\U+FF99\U+FF84
100
AcDbCircle
 10
5246.544996338359
 20
-3650.21318093125
 30
0.0
 40
3.5
  0
LINE
  5
D8946
330
18
100
AcDbEntity
  8
\U+FF77\U+FF6C\U+FF6F\U+FF8C\U+FF9F\U+FF8E\U+FF9E\U+FF99\U+FF84
100
AcDbLine
 10
5246.918569277585
 20
-3651.607374120762
 30
0.0
 11
5247.939189527876
 21
-3650.586753870473
 31
0.0
  0
LINE
  5
D8947
330
18
100
AcDbEntity
  8
\U+FF77\U+FF6C\U+FF6F\U+FF8C\U+FF9F\U+FF8E\U+FF9E\U+FF99\U+FF84
100
AcDbLine
 10
5228.413007251067
 20
-3684.407093651762
 30
0.0
 11
5228.786580190291
 21
-3683.012900462241
 31
0.0
  0
LINE
  5
D8948
330
18
100
AcDbEntity
  8
\U+FF77\U+FF6C\U+FF6F\U+FF8C\U+FF9F\U+FF8E\U+FF9E\U+FF99\U+FF84
100
AcDbLine
 10
5227.765959939997
 20
-3681.992280211947
 30
0.0
 11
5226.371766750477
 21
-3682.365853151172
 31
0.0
  0
LINE
  5
D8949
330
18
100
AcDbEntity
  8
\U+FF77\U+FF6C\U+FF6F\U+FF8C\U+FF9F\U+FF8E\U+FF9E\U+FF99\U+FF84
100
AcDbLine
 10
5226.371766750477
 20
-3682.365853151172
 30
0.0
 11
5225.998193811258
 21
-3683.760046340687
 31
0.0
  0
LINE
  5
D894A
330
18
100
AcDbEntity
  8
\U+FF77\U+FF6C\U+FF6F\U+FF8C\U+FF9F\U+FF8E\U+FF9E\U+FF99\U+FF84
100
AcDbLine
 10
5225.998193811258
 20
-3683.760046340687
 30
0.0
 11
5227.018814061551
 21
-3684.780666590981
 31
0.0
  0
LINE
  5
D894B
330
18
100
AcDbEntity
  8
\U+FF77\U+FF6C\U+FF6F\U+FF8C\U+FF9F\U+FF8E\U+FF9E\U+FF99\U+FF84
100
AcDbLine
 10
5228.786580190291
 20
-3683.012900462241
 30
0.0
 11
5227.765959939997
 21
-3681.992280211947
 31
0.0
  0
CIRCLE
  5
D894C
330
18
100
AcDbEntity
  8
\U+FF77\U+FF6C\U+FF6F\U+FF8C\U+FF9F\U+FF8E\U+FF9E\U+FF99\U+FF84
100
AcDbCircle
 10
5227.392387000774
 20
-3683.386473401471
 30
0.0
 40
3.5
  0
LINE
  5
D894D
330
18
100
AcDbEntity
  8
\U+FF77\U+FF6C\U+FF6F\U+FF8C\U+FF9F\U+FF8E\U+FF9E\U+FF99\U+FF84
100
AcDbLine
 10
5227.018814061551
 20
-3684.780666590981
 30
0.0
 11
5228.413007251067
 21
-3684.407093651762
 31
0.0
  0
LINE
  5
D894E
330
18
100
AcDbEntity
  8
\U+FF77\U+FF6C\U+FF6F\U+FF8C\U+FF9F\U+FF8E\U+FF9E\U+FF99\U+FF84
100
AcDbLine
 10
5194.592667469777
 20
-3703.933275928575
 30
0.0
 11
5195.613287720075
 21
-3702.912655678279
 31
0.0
  0
LINE
  5
D894F
330
18
100
AcDbEntity
  8
\U+FF77\U+FF6C\U+FF6F\U+FF8C\U+FF9F\U+FF8E\U+FF9E\U+FF99\U+FF84
100
AcDbLine
 10
5195.23971478085
 20
-3701.518462488759
 30
0.0
 11
5193.845521591329
 21
-3701.144889549534
 31
0.0
  0
LINE
  5
D8950
330
18
100
AcDbEntity
  8
\U+FF77\U+FF6C\U+FF6F\U+FF8C\U+FF9F\U+FF8E\U+FF9E\U+FF99\U+FF84
100
AcDbLine
 10
5193.845521591329
 20
-3701.144889549534
 30
0.0
 11
5192.824901341039
 21
-3702.16550979983
 31
0.0
  0
LINE
  5
D8951
330
18
100
AcDbEntity
  8
\U+FF77\U+FF6C\U+FF6F\U+FF8C\U+FF9F\U+FF8E\U+FF9E\U+FF99\U+FF84
100
AcDbLine
 10
5192.824901341039
 20
-3702.16550979983
 30
0.0
 11
5193.198474280265
 21
-3703.559702989347
 31
0.0
  0
LINE
  5
D8952
330
18
100
AcDbEntity
  8
\U+FF77\U+FF6C\U+FF6F\U+FF8C\U+FF9F\U+FF8E\U+FF9E\U+FF99\U+FF84
100
AcDbLine
 10
5195.613287720075
 20
-3702.912655678279
 30
0.0
 11
5195.23971478085
 21
-3701.518462488759
 31
0.0
  0
CIRCLE
  5
D8953
330
18
100
AcDbEntity
  8
\U+FF77\U+FF6C\U+FF6F\U+FF8C\U+FF9F\U+FF8E\U+FF9E\U+FF99\U+FF84
100
AcDbCircle
 10
5194.219094530552
 20
-3702.539082739055
 30
0.0
 40
3.5
  0
LINE
  5
D8954
330
18
100
AcDbEntity
  8
\U+FF77\U+FF6C\U+FF6F\U+FF8C\U+FF9F\U+FF8E\U+FF9E\U+FF99\U+FF84
100
AcDbLine
 10
5193.198474280265
 20
-3703.559702989347
 30
0.0
 11
5194.592667469777
 21
-3703.933275928575
 31
0.0
  0
LINE
  5
D8955
330
18
100
AcDbEntity
  8
\U+FF77\U+FF6C\U+FF6F\U+FF8C\U+FF9F\U+FF8E\U+FF9E\U+FF99\U+FF84
100
AcDbLine
 10
5155.540302916155
 20
-3703.933275928577
 30
0.0
 11
5156.934496105676
 21
-3703.559702989351
 31
0.0
  0
LINE
  5
D8956
330
18
100
AcDbEntity
  8
\U+FF77\U+FF6C\U+FF6F\U+FF8C\U+FF9F\U+FF8E\U+FF9E\U+FF99\U+FF84
100
AcDbLine
 10
5157.3080690449
 20
-3702.165509799832
 30
0.0
 11
5156.287448794604
 21
-3701.144889549539
 31
0.0
  0
LINE
  5
D8957
330
18
100
AcDbEntity
  8
\U+FF77\U+FF6C\U+FF6F\U+FF8C\U+FF9F\U+FF8E\U+FF9E\U+FF99\U+FF84
100
AcDbLine
 10
5156.287448794604
 20
-3701.144889549539
 30
0.0
 11
5154.893255605092
 21
-3701.518462488762
 31
0.0
  0
LINE
  5
D8958
330
18
100
AcDbEntity
  8
\U+FF77\U+FF6C\U+FF6F\U+FF8C\U+FF9F\U+FF8E\U+FF9E\U+FF99\U+FF84
100
AcDbLine
 10
5154.893255605092
 20
-3701.518462488762
 30
0.0
 11
5154.519682665867
 21
-3702.912655678284
 31
0.0
  0
LINE
  5
D8959
330
18
100
AcDbEntity
  8
\U+FF77\U+FF6C\U+FF6F\U+FF8C\U+FF9F\U+FF8E\U+FF9E\U+FF99\U+FF84
100
AcDbLine
 10
5156.934496105676
 20
-3703.559702989351
 30
0.0
 11
5157.3080690449
 21
-3702.165509799832
 31
0.0
  0
CIRCLE
  5
D895A
330
18
100
AcDbEntity
  8
\U+FF77\U+FF6C\U+FF6F\U+FF8C\U+FF9F\U+FF8E\U+FF9E\U+FF99\U+FF84
100
AcDbCircle
 10
5155.913875855379
 20
-3702.539082739058
 30
0.0
 40
3.5
  0
LINE
  5
D895B
330
18
100
AcDbEntity
  8
\U+FF77\U+FF6C\U+FF6F\U+FF8C\U+FF9F\U+FF8E\U+FF9E\U+FF99\U+FF84
100
AcDbLine
 10
5154.519682665867
 20
-3702.912655678284
 30
0.0
 11
5155.540302916155
 21
-3703.933275928577
 31
0.0
  0
LINE
  5
D895C
330
18
100
AcDbEntity
  8
\U+FF77\U+FF6C\U+FF6F\U+FF8C\U+FF9F\U+FF8E\U+FF9E\U+FF99\U+FF84
100
AcDbLine
 10
5121.719963134867
 20
-3684.407093651767
 30
0.0
 11
5123.11415632439
 21
-3684.780666590992
 31
0.0
  0
LINE
  5
D895D
330
18
100
AcDbEntity
  8
\U+FF77\U+FF6C\U+FF6F\U+FF8C\U+FF9F\U+FF8E\U+FF9E\U+FF99\U+FF84
100
AcDbLine
 10
5124.134776574683
 20
-3683.760046340696
 30
0.0
 11
5123.761203635456
 21
-3682.365853151177
 31
0.0
  0
LINE
  5
D895E
330
18
100
AcDbEntity
  8
\U+FF77\U+FF6C\U+FF6F\U+FF8C\U+FF9F\U+FF8E\U+FF9E\U+FF99\U+FF84
100
AcDbLine
 10
5123.761203635456
 20
-3682.365853151177
 30
0.0
 11
5122.367010445941
 21
-3681.992280211956
 31
0.0
  0
LINE
  5
D895F
330
18
100
AcDbEntity
  8
\U+FF77\U+FF6C\U+FF6F\U+FF8C\U+FF9F\U+FF8E\U+FF9E\U+FF99\U+FF84
100
AcDbLine
 10
5122.367010445941
 20
-3681.992280211956
 30
0.0
 11
5121.346390195647
 21
-3683.01290046225
 31
0.0
  0
LINE
  5
D8960
330
18
100
AcDbEntity
  8
\U+FF77\U+FF6C\U+FF6F\U+FF8C\U+FF9F\U+FF8E\U+FF9E\U+FF99\U+FF84
100
AcDbLine
 10
5123.11415632439
 20
-3684.780666590992
 30
0.0
 11
5124.134776574683
 21
-3683.760046340696
 31
0.0
  0
CIRCLE
  5
D8961
330
18
100
AcDbEntity
  8
\U+FF77\U+FF6C\U+FF6F\U+FF8C\U+FF9F\U+FF8E\U+FF9E\U+FF99\U+FF84
100
AcDbCircle
 10
5122.74058338516
 20
-3683.386473401468
 30
0.0
 40
3.5
  0
LINE
  5
D8962
330
18
100
AcDbEntity
  8
\U+FF77\U+FF6C\U+FF6F\U+FF8C\U+FF9F\U+FF8E\U+FF9E\U+FF99\U+FF84
100
AcDbLine
 10
5121.346390195647
 20
-3683.01290046225
 30
0.0
 11
5121.719963134867
 21
-3684.407093651767
 31
0.0
  0
LINE
  5
D8963
330
18
100
AcDbEntity
  8
\U+FF77\U+FF6C\U+FF6F\U+FF8C\U+FF9F\U+FF8E\U+FF9E\U+FF99\U+FF84
100
AcDbLine
 10
5102.193780858053
 20
-3650.586753870477
 30
0.0
 11
5103.214401108349
 21
-3651.607374120773
 31
0.0
  0
LINE
  5
D8964
330
18
100
AcDbEntity
  8
\U+FF77\U+FF6C\U+FF6F\U+FF8C\U+FF9F\U+FF8E\U+FF9E\U+FF99\U+FF84
100
AcDbLine
 10
5104.60859429787
 20
-3651.233801181548
 30
0.0
 11
5104.982167237094
 21
-3649.839607992028
 31
0.0
  0
LINE
  5
D8965
330
18
100
AcDbEntity
  8
\U+FF77\U+FF6C\U+FF6F\U+FF8C\U+FF9F\U+FF8E\U+FF9E\U+FF99\U+FF84
100
AcDbLine
 10
5104.982167237094
 20
-3649.839607992028
 30
0.0
 11
5103.9615469868
 21
-3648.818987741739
 31
0.0
  0
LINE
  5
D8966
330
18
100
AcDbEntity
  8
\U+FF77\U+FF6C\U+FF6F\U+FF8C\U+FF9F\U+FF8E\U+FF9E\U+FF99\U+FF84
100
AcDbLine
 10
5103.9615469868
 20
-3648.818987741739
 30
0.0
 11
5102.567353797281
 21
-3649.192560680964
 31
0.0
  0
LINE
  5
D8967
330
18
100
AcDbEntity
  8
\U+FF77\U+FF6C\U+FF6F\U+FF8C\U+FF9F\U+FF8E\U+FF9E\U+FF99\U+FF84
100
AcDbLine
 10
5103.214401108349
 20
-3651.607374120773
 30
0.0
 11
5104.60859429787
 21
-3651.233801181548
 31
0.0
  0
CIRCLE
  5
D8968
330
18
100
AcDbEntity
  8
\U+FF77\U+FF6C\U+FF6F\U+FF8C\U+FF9F\U+FF8E\U+FF9E\U+FF99\U+FF84
100
AcDbCircle
 10
5103.587974047573
 20
-3650.213180931252
 30
0.0
 40
3.5
  0
LINE
  5
D8969
330
18
100
AcDbEntity
  8
\U+FF77\U+FF6C\U+FF6F\U+FF8C\U+FF9F\U+FF8E\U+FF9E\U+FF99\U+FF84
100
AcDbLine
 10
5102.567353797281
 20
-3649.192560680964
 30
0.0
 11
5102.193780858053
 21
-3650.586753870477
 31
0.0
  0
LINE
  5
D896A
330
18
100
AcDbEntity
  8
\U+FF77\U+FF6C\U+FF6F\U+FF8C\U+FF9F\U+FF8E\U+FF9E\U+FF99\U+FF84
100
AcDbLine
 10
5102.19378085805
 20
-3611.534389316857
 30
0.0
 11
5102.567353797276
 21
-3612.928582506376
 31
0.0
  0
LINE
  5
D896B
330
18
100
AcDbEntity
  8
\U+FF77\U+FF6C\U+FF6F\U+FF8C\U+FF9F\U+FF8E\U+FF9E\U+FF99\U+FF84
100
AcDbLine
 10
5103.961546986797
 20
-3613.302155445601
 30
0.0
 11
5104.982167237093
 21
-3612.281535195305
 31
0.0
  0
LINE
  5
D896C
330
18
100
AcDbEntity
  8
\U+FF77\U+FF6C\U+FF6F\U+FF8C\U+FF9F\U+FF8E\U+FF9E\U+FF99\U+FF84
100
AcDbLine
 10
5104.982167237093
 20
-3612.281535195305
 30
0.0
 11
5104.608594297864
 21
-3610.88734200579
 31
0.0
  0
LINE
  5
D896D
330
18
100
AcDbEntity
  8
\U+FF77\U+FF6C\U+FF6F\U+FF8C\U+FF9F\U+FF8E\U+FF9E\U+FF99\U+FF84
100
AcDbLine
 10
5104.608594297864
 20
-3610.88734200579
 30
0.0
 11
5103.214401108346
 21
-3610.513769066567
 31
0.0
  0
LINE
  5
D896E
330
18
100
AcDbEntity
  8
\U+FF77\U+FF6C\U+FF6F\U+FF8C\U+FF9F\U+FF8E\U+FF9E\U+FF99\U+FF84
100
AcDbLine
 10
5102.567353797276
 20
-3612.928582506376
 30
0.0
 11
5103.961546986797
 21
-3613.302155445601
 31
0.0
  0
CIRCLE
  5
D896F
330
18
100
AcDbEntity
  8
\U+FF77\U+FF6C\U+FF6F\U+FF8C\U+FF9F\U+FF8E\U+FF9E\U+FF99\U+FF84
100
AcDbCircle
 10
5103.587974047569
 20
-3611.90796225608
 30
0.0
 40
3.5
  0
LINE
  5
D8970
330
18
100
AcDbEntity
  8
\U+FF77\U+FF6C\U+FF6F\U+FF8C\U+FF9F\U+FF8E\U+FF9E\U+FF99\U+FF84
100
AcDbLine
 10
5103.214401108346
 20
-3610.513769066567
 30
0.0
 11
5102.19378085805
 21
-3611.534389316857
 31
0.0
  0
LINE
  5
D8971
330
18
100
AcDbEntity
  8
\U+FF77\U+FF6C\U+FF6F\U+FF8C\U+FF9F\U+FF8E\U+FF9E\U+FF99\U+FF84
100
AcDbLine
 10
5121.719963134864
 20
-3577.714049535567
 30
0.0
 11
5121.34639019564
 21
-3579.108242725089
 31
0.0
  0
LINE
  5
D8972
330
18
100
AcDbEntity
  8
\U+FF77\U+FF6C\U+FF6F\U+FF8C\U+FF9F\U+FF8E\U+FF9E\U+FF99\U+FF84
100
AcDbLine
 10
5122.367010445936
 20
-3580.128862975384
 30
0.0
 11
5123.761203635455
 21
-3579.755290036157
 31
0.0
  0
LINE
  5
D8973
330
18
100
AcDbEntity
  8
\U+FF77\U+FF6C\U+FF6F\U+FF8C\U+FF9F\U+FF8E\U+FF9E\U+FF99\U+FF84
100
AcDbLine
 10
5123.761203635455
 20
-3579.755290036157
 30
0.0
 11
5124.134776574676
 21
-3578.361096846642
 31
0.0
  0
LINE
  5
D8974
330
18
100
AcDbEntity
  8
\U+FF77\U+FF6C\U+FF6F\U+FF8C\U+FF9F\U+FF8E\U+FF9E\U+FF99\U+FF84
100
AcDbLine
 10
5124.134776574676
 20
-3578.361096846642
 30
0.0
 11
5123.114156324382
 21
-3577.340476596346
 31
0.0
  0
LINE
  5
D8975
330
18
100
AcDbEntity
  8
\U+FF77\U+FF6C\U+FF6F\U+FF8C\U+FF9F\U+FF8E\U+FF9E\U+FF99\U+FF84
100
AcDbLine
 10
5121.34639019564
 20
-3579.108242725089
 30
0.0
 11
5122.367010445936
 21
-3580.128862975384
 31
0.0
  0
CIRCLE
  5
D8976
330
18
100
AcDbEntity
  8
\U+FF77\U+FF6C\U+FF6F\U+FF8C\U+FF9F\U+FF8E\U+FF9E\U+FF99\U+FF84
100
AcDbCircle
 10
5122.74058338516
 20
-3578.734669785863
 30
0.0
 40
3.5
  0
LINE
  5
D8977
330
18
100
AcDbEntity
  8
\U+FF77\U+FF6C\U+FF6F\U+FF8C\U+FF9F\U+FF8E\U+FF9E\U+FF99\U+FF84
100
AcDbLine
 10
5123.114156324382
 20
-3577.340476596346
 30
0.0
 11
5121.719963134864
 21
-3577.714049535567
 31
0.0
  0
LINE
  5
D8978
330
18
100
AcDbEntity
  8
\U+FF77\U+FF6C\U+FF6F\U+FF8C\U+FF9F\U+FF8E\U+FF9E\U+FF99\U+FF84
100
AcDbLine
 10
5155.540302916151
 20
-3558.187867258754
 30
0.0
 11
5154.519682665856
 21
-3559.20848750905
 31
0.0
  0
LINE
  5
D8979
330
18
100
AcDbEntity
  8
\U+FF77\U+FF6C\U+FF6F\U+FF8C\U+FF9F\U+FF8E\U+FF9E\U+FF99\U+FF84
100
AcDbLine
 10
5156.934496105665
 20
-3558.56144019798
 30
0.0
 11
5155.540302916151
 21
-3558.187867258754
 31
0.0
  0
LINE
  5
D897A
330
18
100
AcDbEntity
  8
\U+FF77\U+FF6C\U+FF6F\U+FF8C\U+FF9F\U+FF8E\U+FF9E\U+FF99\U+FF84
100
AcDbLine
 10
5154.893255605081
 20
-3560.602680698568
 30
0.0
 11
5156.287448794601
 21
-3560.976253637793
 31
0.0
  0
LINE
  5
D897B
330
18
100
AcDbEntity
  8
\U+FF77\U+FF6C\U+FF6F\U+FF8C\U+FF9F\U+FF8E\U+FF9E\U+FF99\U+FF84
100
AcDbLine
 10
5156.287448794601
 20
-3560.976253637793
 30
0.0
 11
5157.30806904489
 21
-3559.955633387501
 31
0.0
  0
LINE
  5
D897C
330
18
100
AcDbEntity
  8
\U+FF77\U+FF6C\U+FF6F\U+FF8C\U+FF9F\U+FF8E\U+FF9E\U+FF99\U+FF84
100
AcDbLine
 10
5157.30806904489
 20
-3559.955633387501
 30
0.0
 11
5156.934496105665
 21
-3558.56144019798
 31
0.0
  0
LINE
  5
D897D
330
18
100
AcDbEntity
  8
\U+FF77\U+FF6C\U+FF6F\U+FF8C\U+FF9F\U+FF8E\U+FF9E\U+FF99\U+FF84
100
AcDbLine
 10
5154.519682665856
 20
-3559.20848750905
 30
0.0
 11
5154.893255605081
 21
-3560.602680698568
 31
0.0
  0
CIRCLE
  5
D897E
330
18
100
AcDbEntity
  8
\U+FF77\U+FF6C\U+FF6F\U+FF8C\U+FF9F\U+FF8E\U+FF9E\U+FF99\U+FF84
100
AcDbCircle
 10
5155.913875855375
 20
-3559.582060448272
 30
0.0
 40
3.5
  0
CIRCLE
  5
D897F
330
18
100
AcDbEntity
  8
実線
100
AcDbCircle
 10
5155.913875855375
 20
-3559.582060448272
 30
0.0
 40
4.0
  0
CIRCLE
  5
D8980
330
18
100
AcDbEntity
  8
実線
100
AcDbCircle
 10
5122.740583385171
 20
-3578.734669785907
 30
0.0
 40
3.99999999999996
  0
CIRCLE
  5
D8981
330
18
100
AcDbEntity
  8
実線
100
AcDbCircle
 10
5103.587974047616
 20
-3611.907962256069
 30
0.0
 40
4.000000000000006
  0
CIRCLE
  5
D8982
330
18
100
AcDbEntity
  8
実線
100
AcDbCircle
 10
5246.544996338352
 20
-3611.907962256078
 30
0.0
 40
4.000000000000013
  0
CIRCLE
  5
D8983
330
18
100
AcDbEntity
  8
実線
100
AcDbCircle
 10
5227.392387000779
 20
-3683.386473401519
 30
0.0
 40
4.000000000000028
  0
CIRCLE
  5
D8984
330
18
100
AcDbEntity
  8
実線
100
AcDbCircle
 10
5246.544996338402
 20
-3650.213180931238
 30
0.0
 40
3.999999999999996
  0
CIRCLE
  5
D8985
330
18
100
AcDbEntity
  8
実線
100
AcDbCircle
 10
5194.219094530548
 20
-3702.539082739055
 30
0.0
 40
4.0
  0
CIRCLE
  5
D8986
330
18
100
AcDbEntity
  8
実線
100
AcDbCircle
 10
5155.913875855389
 20
-3702.539082739106
 30
0.0
 40
3.999999999999999
  0
CIRCLE
  5
D8987
330
18
100
AcDbEntity
  8
実線
100
AcDbCircle
 10
5103.587974047571
 20
-3650.213180931252
 30
0.0
 40
4.000000000000006
  0
CIRCLE
  5
D8988
330
18
100
AcDbEntity
  8
実線
100
AcDbCircle
 10
5122.740583385205
 20
-3683.386473401457
 30
0.0
 40
4.000000000000013
  0
ARC
  5
D8989
330
18
100
AcDbEntity
  8
実線
100
AcDbCircle
 10
5175.066485192963
 20
-3631.060571593665
 30
0.0
 40
64.5
100
AcDbArc
 50
90.0
 51
44.99999999999942
  0
LINE
  5
D898A
330
18
100
AcDbEntity
  8
\U+FF77\U+FF6C\U+FF6F\U+FF8C\U+FF9F\U+FF8E\U+FF9E\U+FF99\U+FF84
  6
Continuous
100
AcDbLine
 10
5220.206180169365
 20
-3618.965426778128
 30
0.0
 11
5219.757892407957
 21
-3620.63845939239
 31
0.0
  0
LINE
  5
D898B
330
18
100
AcDbEntity
  8
\U+FF77\U+FF6C\U+FF6F\U+FF8C\U+FF9F\U+FF8E\U+FF9E\U+FF99\U+FF84
  6
Continuous
100
AcDbLine
 10
5219.757892234091
 20
-3620.638459438978
 30
0.0
 11
5218.084859479379
 21
-3621.086747214513
 31
0.0
  0
LINE
  5
D898C
330
18
100
AcDbEntity
  8
\U+FF77\U+FF6C\U+FF6F\U+FF8C\U+FF9F\U+FF8E\U+FF9E\U+FF99\U+FF84
  6
Continuous
100
AcDbLine
 10
5217.778673255201
 20
-3620.780560998362
 30
0.0
 11
5217.778769847782
 21
-3620.780535116458
 31
0.0
  0
LINE
  5
D898D
330
18
100
AcDbEntity
  8
\U+FF77\U+FF6C\U+FF6F\U+FF8C\U+FF9F\U+FF8E\U+FF9E\U+FF99\U+FF84
100
AcDbLine
 10
5217.472487031022
 20
-3620.474374782209
 30
0.0
 11
5217.472512912926
 21
-3620.47447137479
 31
0.0
  0
LINE
  5
D898E
330
18
100
AcDbEntity
  8
\U+FF77\U+FF6C\U+FF6F\U+FF8C\U+FF9F\U+FF8E\U+FF9E\U+FF99\U+FF84
  6
Continuous
100
AcDbLine
 10
5218.981435098783
 20
-3617.74068196011
 30
0.0
 11
5217.308402749758
 21
-3618.188969626943
 31
0.0
  0
LINE
  5
D898F
330
18
100
AcDbEntity
  8
\U+FF77\U+FF6C\U+FF6F\U+FF8C\U+FF9F\U+FF8E\U+FF9E\U+FF99\U+FF84
  6
Continuous
100
AcDbLine
 10
5220.206179879586
 20
-3618.965426855773
 30
0.0
 11
5218.981434866963
 21
-3617.740682022226
 31
0.0
  0
LINE
  5
D8990
330
18
100
AcDbEntity
  8
\U+FF77\U+FF6C\U+FF6F\U+FF8C\U+FF9F\U+FF8E\U+FF9E\U+FF99\U+FF84
  6
Continuous
100
AcDbLine
 10
5216.860114872442
 20
-3619.862002272262
 30
0.0
 11
5217.308402749758
 21
-3618.188969626943
 31
0.0
  0
CIRCLE
  5
D8991
330
18
100
AcDbEntity
  8
\U+FF77\U+FF6C\U+FF6F\U+FF8C\U+FF9F\U+FF8E\U+FF9E\U+FF99\U+FF84
  6
Continuous
100
AcDbCircle
 10
5218.533147376014
 20
-3619.413714564017
 30
0.0
 40
3.099999999999988
  0
CIRCLE
  5
D8992
330
18
100
AcDbEntity
  8
\U+FF77\U+FF6C\U+FF6F\U+FF8C\U+FF9F\U+FF8E\U+FF9E\U+FF99\U+FF84
  6
Continuous
100
AcDbCircle
 10
5218.533147376014
 20
-3619.413714564017
 30
0.0
 40
3.5
  0
LINE
  5
D8993
330
18
100
AcDbEntity
  8
\U+FF77\U+FF6C\U+FF6F\U+FF8C\U+FF9F\U+FF8E\U+FF9E\U+FF99\U+FF84
  6
Continuous
100
AcDbLine
 10
5218.084859479379
 20
-3621.086747214513
 30
0.0
 11
5216.860114582665
 21
-3619.862002349906
 31
0.0
  0
LINE
  5
D8994
330
18
100
AcDbEntity
  8
\U+FF77\U+FF6C\U+FF6F\U+FF8C\U+FF9F\U+FF8E\U+FF9E\U+FF99\U+FF84
  6
Continuous
100
AcDbLine
 10
5220.20618016938
 20
-3643.155716409161
 30
0.0
 11
5218.981435272663
 21
-3644.380461273766
 31
0.0
  0
LINE
  5
D8995
330
18
100
AcDbEntity
  8
\U+FF77\U+FF6C\U+FF6F\U+FF8C\U+FF9F\U+FF8E\U+FF9E\U+FF99\U+FF84
  6
Continuous
100
AcDbLine
 10
5218.981435098797
 20
-3644.380461227178
 30
0.0
 11
5217.308402344084
 21
-3643.932173451642
 31
0.0
  0
LINE
  5
D8996
330
18
100
AcDbEntity
  8
\U+FF77\U+FF6C\U+FF6F\U+FF8C\U+FF9F\U+FF8E\U+FF9E\U+FF99\U+FF84
  6
Continuous
100
AcDbLine
 10
5217.196330403733
 20
-3643.513915298077
 30
0.0
 11
5217.196426996315
 21
-3643.513941179983
 31
0.0
  0
LINE
  5
D8997
330
18
100
AcDbEntity
  8
\U+FF77\U+FF6C\U+FF6F\U+FF8C\U+FF9F\U+FF8E\U+FF9E\U+FF99\U+FF84
100
AcDbLine
 10
5217.084258463381
 20
-3643.095657144511
 30
0.0
 11
5217.08423258148
 21
-3643.095753737092
 31
0.0
  0
LINE
  5
D8998
330
18
100
AcDbEntity
  8
\U+FF77\U+FF6C\U+FF6F\U+FF8C\U+FF9F\U+FF8E\U+FF9E\U+FF99\U+FF84
  6
Continuous
100
AcDbLine
 10
5219.757892234105
 20
-3641.482683748309
 30
0.0
 11
5218.084859885081
 21
-3641.034396081479
 31
0.0
  0
LINE
  5
D8999
330
18
100
AcDbEntity
  8
\U+FF77\U+FF6C\U+FF6F\U+FF8C\U+FF9F\U+FF8E\U+FF9E\U+FF99\U+FF84
  6
Continuous
100
AcDbLine
 10
5220.2061798796
 20
-3643.155716331512
 30
0.0
 11
5219.757892002284
 21
-3641.482683686194
 31
0.0
  0
LINE
  5
D899A
330
18
100
AcDbEntity
  8
\U+FF77\U+FF6C\U+FF6F\U+FF8C\U+FF9F\U+FF8E\U+FF9E\U+FF99\U+FF84
  6
Continuous
100
AcDbLine
 10
5216.860114872456
 20
-3642.259140915029
 30
0.0
 11
5218.084859885081
 21
-3641.034396081479
 31
0.0
  0
CIRCLE
  5
D899B
330
18
100
AcDbEntity
  8
\U+FF77\U+FF6C\U+FF6F\U+FF8C\U+FF9F\U+FF8E\U+FF9E\U+FF99\U+FF84
  6
Continuous
100
AcDbCircle
 10
5218.533147376028
 20
-3642.70742862327
 30
0.0
 40
3.099999999999988
  0
CIRCLE
  5
D899C
330
18
100
AcDbEntity
  8
\U+FF77\U+FF6C\U+FF6F\U+FF8C\U+FF9F\U+FF8E\U+FF9E\U+FF99\U+FF84
  6
Continuous
100
AcDbCircle
 10
5218.533147376028
 20
-3642.70742862327
 30
0.0
 40
3.5
  0
LINE
  5
D899D
330
18
100
AcDbEntity
  8
\U+FF77\U+FF6C\U+FF6F\U+FF8C\U+FF9F\U+FF8E\U+FF9E\U+FF99\U+FF84
  6
Continuous
100
AcDbLine
 10
5217.308402344084
 20
-3643.932173451642
 30
0.0
 11
5216.860114582678
 21
-3642.259140837381
 31
0.0
  0
LINE
  5
D899E
330
18
100
AcDbEntity
  8
\U+FF77\U+FF6C\U+FF6F\U+FF8C\U+FF9F\U+FF8E\U+FF9E\U+FF99\U+FF84
  6
Continuous
100
AcDbLine
 10
5208.111035353872
 20
-3664.105121754543
 30
0.0
 11
5206.438002727857
 21
-3664.553409472088
 31
0.0
  0
LINE
  5
D899F
330
18
100
AcDbEntity
  8
\U+FF77\U+FF6C\U+FF6F\U+FF8C\U+FF9F\U+FF8E\U+FF9E\U+FF99\U+FF84
  6
Continuous
100
AcDbLine
 10
5206.438002600577
 20
-3664.55340934481
 30
0.0
 11
5205.213257621404
 21
-3663.328664365632
 31
0.0
  0
LINE
  5
D89A0
330
18
100
AcDbEntity
  8
\U+FF77\U+FF6C\U+FF6F\U+FF8C\U+FF9F\U+FF8E\U+FF9E\U+FF99\U+FF84
  6
Continuous
100
AcDbLine
 10
5205.325329550788
 20
-3662.910406209132
 30
0.0
 11
5205.325400261466
 21
-3662.910476919807
 31
0.0
  0
LINE
  5
D89A1
330
18
100
AcDbEntity
  8
\U+FF77\U+FF6C\U+FF6F\U+FF8C\U+FF9F\U+FF8E\U+FF9E\U+FF99\U+FF84
100
AcDbLine
 10
5205.437401480178
 20
-3662.492148052626
 30
0.0
 11
5205.437330769499
 21
-3662.492218763302
 31
0.0
  0
LINE
  5
D89A2
330
18
100
AcDbEntity
  8
\U+FF77\U+FF6C\U+FF6F\U+FF8C\U+FF9F\U+FF8E\U+FF9E\U+FF99\U+FF84
  6
Continuous
100
AcDbLine
 10
5208.559322944139
 20
-3662.43208900125
 30
0.0
 11
5207.334578261946
 21
-3661.207344319058
 31
0.0
  0
LINE
  5
D89A3
330
18
100
AcDbEntity
  8
\U+FF77\U+FF6C\U+FF6F\U+FF8C\U+FF9F\U+FF8E\U+FF9E\U+FF99\U+FF84
  6
Continuous
100
AcDbLine
 10
5208.111035141739
 20
-3664.105121542409
 30
0.0
 11
5208.559322774434
 21
-3662.432088831546
 31
0.0
  0
LINE
  5
D89A4
330
18
100
AcDbEntity
  8
\U+FF77\U+FF6C\U+FF6F\U+FF8C\U+FF9F\U+FF8E\U+FF9E\U+FF99\U+FF84
  6
Continuous
100
AcDbLine
 10
5205.661545551082
 20
-3661.655631951751
 30
0.0
 11
5207.334578261946
 21
-3661.207344319058
 31
0.0
  0
CIRCLE
  5
D89A5
330
18
100
AcDbEntity
  8
\U+FF77\U+FF6C\U+FF6F\U+FF8C\U+FF9F\U+FF8E\U+FF9E\U+FF99\U+FF84
  6
Continuous
100
AcDbCircle
 10
5206.886290346411
 20
-3662.880376747082
 30
0.0
 40
3.099999999999988
  0
CIRCLE
  5
D89A6
330
18
100
AcDbEntity
  8
\U+FF77\U+FF6C\U+FF6F\U+FF8C\U+FF9F\U+FF8E\U+FF9E\U+FF99\U+FF84
  6
Continuous
100
AcDbCircle
 10
5206.886290346411
 20
-3662.880376747082
 30
0.0
 40
3.5
  0
LINE
  5
D89A7
330
18
100
AcDbEntity
  8
\U+FF77\U+FF6C\U+FF6F\U+FF8C\U+FF9F\U+FF8E\U+FF9E\U+FF99\U+FF84
  6
Continuous
100
AcDbLine
 10
5205.213257621404
 20
-3663.328664365632
 30
0.0
 11
5205.661545338951
 21
-3661.655631739621
 31
0.0
  0
LINE
  5
D89A8
330
18
100
AcDbEntity
  8
\U+FF77\U+FF6C\U+FF6F\U+FF8C\U+FF9F\U+FF8E\U+FF9E\U+FF99\U+FF84
  6
Continuous
100
AcDbLine
 10
5187.161630008501
 20
-3676.200266570067
 30
0.0
 11
5185.488597394238
 21
-3675.751978808661
 31
0.0
  0
LINE
  5
D89A9
330
18
100
AcDbEntity
  8
\U+FF77\U+FF6C\U+FF6F\U+FF8C\U+FF9F\U+FF8E\U+FF9E\U+FF99\U+FF84
  6
Continuous
100
AcDbLine
 10
5185.48859734765
 20
-3675.751978634795
 30
0.0
 11
5185.040309572116
 21
-3674.078945880083
 31
0.0
  0
LINE
  5
D89AA
330
18
100
AcDbEntity
  8
\U+FF77\U+FF6C\U+FF6F\U+FF8C\U+FF9F\U+FF8E\U+FF9E\U+FF99\U+FF84
  6
Continuous
100
AcDbLine
 10
5185.346495788266
 20
-3673.772759655905
 30
0.0
 11
5185.346521670171
 21
-3673.772856248484
 31
0.0
  0
LINE
  5
D89AB
330
18
100
AcDbEntity
  8
\U+FF77\U+FF6C\U+FF6F\U+FF8C\U+FF9F\U+FF8E\U+FF9E\U+FF99\U+FF84
100
AcDbLine
 10
5185.65268200442
 20
-3673.466573431724
 30
0.0
 11
5185.652585411839
 21
-3673.466599313631
 31
0.0
  0
LINE
  5
D89AC
330
18
100
AcDbEntity
  8
\U+FF77\U+FF6C\U+FF6F\U+FF8C\U+FF9F\U+FF8E\U+FF9E\U+FF99\U+FF84
  6
Continuous
100
AcDbLine
 10
5188.386374826519
 20
-3674.975521499488
 30
0.0
 11
5187.938087159686
 21
-3673.302489150461
 31
0.0
  0
LINE
  5
D89AD
330
18
100
AcDbEntity
  8
\U+FF77\U+FF6C\U+FF6F\U+FF8C\U+FF9F\U+FF8E\U+FF9E\U+FF99\U+FF84
  6
Continuous
100
AcDbLine
 10
5187.161629930855
 20
-3676.20026628029
 30
0.0
 11
5188.386374764403
 21
-3674.975521267665
 31
0.0
  0
LINE
  5
D89AE
330
18
100
AcDbEntity
  8
\U+FF77\U+FF6C\U+FF6F\U+FF8C\U+FF9F\U+FF8E\U+FF9E\U+FF99\U+FF84
  6
Continuous
100
AcDbLine
 10
5186.265054514368
 20
-3672.854201273145
 30
0.0
 11
5187.938087159686
 21
-3673.302489150461
 31
0.0
  0
CIRCLE
  5
D89AF
330
18
100
AcDbEntity
  8
\U+FF77\U+FF6C\U+FF6F\U+FF8C\U+FF9F\U+FF8E\U+FF9E\U+FF99\U+FF84
  6
Continuous
100
AcDbCircle
 10
5186.713342222612
 20
-3674.527233776716
 30
0.0
 40
3.099999999999988
  0
CIRCLE
  5
D89B0
330
18
100
AcDbEntity
  8
\U+FF77\U+FF6C\U+FF6F\U+FF8C\U+FF9F\U+FF8E\U+FF9E\U+FF99\U+FF84
  6
Continuous
100
AcDbCircle
 10
5186.713342222612
 20
-3674.527233776716
 30
0.0
 40
3.5
  0
LINE
  5
D89B1
330
18
100
AcDbEntity
  8
\U+FF77\U+FF6C\U+FF6F\U+FF8C\U+FF9F\U+FF8E\U+FF9E\U+FF99\U+FF84
  6
Continuous
100
AcDbLine
 10
5185.040309572116
 20
-3674.078945880083
 30
0.0
 11
5186.265054436722
 21
-3672.854200983369
 31
0.0
  0
LINE
  5
D89B2
330
18
100
AcDbEntity
  8
\U+FF77\U+FF6C\U+FF6F\U+FF8C\U+FF9F\U+FF8E\U+FF9E\U+FF99\U+FF84
  6
Continuous
100
AcDbLine
 10
5162.971340377468
 20
-3676.200266570078
 30
0.0
 11
5161.746595512861
 21
-3674.975521673361
 31
0.0
  0
LINE
  5
D89B3
330
18
100
AcDbEntity
  8
\U+FF77\U+FF6C\U+FF6F\U+FF8C\U+FF9F\U+FF8E\U+FF9E\U+FF99\U+FF84
  6
Continuous
100
AcDbLine
 10
5161.746595559447
 20
-3674.975521499495
 30
0.0
 11
5162.194883334985
 21
-3673.302488744783
 31
0.0
  0
LINE
  5
D89B4
330
18
100
AcDbEntity
  8
\U+FF77\U+FF6C\U+FF6F\U+FF8C\U+FF9F\U+FF8E\U+FF9E\U+FF99\U+FF84
  6
Continuous
100
AcDbLine
 10
5162.613141488548
 20
-3673.190416804431
 30
0.0
 11
5162.613115606646
 21
-3673.190513397014
 31
0.0
  0
LINE
  5
D89B5
330
18
100
AcDbEntity
  8
\U+FF77\U+FF6C\U+FF6F\U+FF8C\U+FF9F\U+FF8E\U+FF9E\U+FF99\U+FF84
100
AcDbLine
 10
5163.031399642117
 20
-3673.07834486408
 30
0.0
 11
5163.031303049534
 21
-3673.078318982179
 31
0.0
  0
LINE
  5
D89B6
330
18
100
AcDbEntity
  8
\U+FF77\U+FF6C\U+FF6F\U+FF8C\U+FF9F\U+FF8E\U+FF9E\U+FF99\U+FF84
  6
Continuous
100
AcDbLine
 10
5164.644373038316
 20
-3675.751978634806
 30
0.0
 11
5165.092660705148
 21
-3674.078946285779
 31
0.0
  0
LINE
  5
D89B7
330
18
100
AcDbEntity
  8
\U+FF77\U+FF6C\U+FF6F\U+FF8C\U+FF9F\U+FF8E\U+FF9E\U+FF99\U+FF84
  6
Continuous
100
AcDbLine
 10
5162.971340455113
 20
-3676.200266280299
 30
0.0
 11
5164.644373100433
 21
-3675.751978402983
 31
0.0
  0
LINE
  5
D89B8
330
18
100
AcDbEntity
  8
\U+FF77\U+FF6C\U+FF6F\U+FF8C\U+FF9F\U+FF8E\U+FF9E\U+FF99\U+FF84
  6
Continuous
100
AcDbLine
 10
5163.8679158716
 20
-3672.854201273156
 30
0.0
 11
5165.092660705148
 21
-3674.078946285779
 31
0.0
  0
CIRCLE
  5
D89B9
330
18
100
AcDbEntity
  8
\U+FF77\U+FF6C\U+FF6F\U+FF8C\U+FF9F\U+FF8E\U+FF9E\U+FF99\U+FF84
  6
Continuous
100
AcDbCircle
 10
5163.419628163357
 20
-3674.527233776731
 30
0.0
 40
3.099999999999988
  0
CIRCLE
  5
D89BA
330
18
100
AcDbEntity
  8
\U+FF77\U+FF6C\U+FF6F\U+FF8C\U+FF9F\U+FF8E\U+FF9E\U+FF99\U+FF84
  6
Continuous
100
AcDbCircle
 10
5163.419628163357
 20
-3674.527233776731
 30
0.0
 40
3.5
  0
LINE
  5
D89BB
330
18
100
AcDbEntity
  8
\U+FF77\U+FF6C\U+FF6F\U+FF8C\U+FF9F\U+FF8E\U+FF9E\U+FF99\U+FF84
  6
Continuous
100
AcDbLine
 10
5162.194883334985
 20
-3673.302488744783
 30
0.0
 11
5163.867915949246
 21
-3672.85420098338
 31
0.0
  0
LINE
  5
D89BC
330
18
100
AcDbEntity
  8
\U+FF77\U+FF6C\U+FF6F\U+FF8C\U+FF9F\U+FF8E\U+FF9E\U+FF99\U+FF84
  6
Continuous
100
AcDbLine
 10
5142.021935032086
 20
-3664.105121754576
 30
0.0
 11
5141.573647314539
 21
-3662.432089128561
 31
0.0
  0
LINE
  5
D89BD
330
18
100
AcDbEntity
  8
\U+FF77\U+FF6C\U+FF6F\U+FF8C\U+FF9F\U+FF8E\U+FF9E\U+FF99\U+FF84
  6
Continuous
100
AcDbLine
 10
5141.573647441817
 20
-3662.432089001282
 30
0.0
 11
5142.798392420997
 21
-3661.207344022108
 31
0.0
  0
LINE
  5
D89BE
330
18
100
AcDbEntity
  8
\U+FF77\U+FF6C\U+FF6F\U+FF8C\U+FF9F\U+FF8E\U+FF9E\U+FF99\U+FF84
  6
Continuous
100
AcDbLine
 10
5143.216650577496
 20
-3661.319415951493
 30
0.0
 11
5143.216579866821
 21
-3661.319486662171
 31
0.0
  0
LINE
  5
D89BF
330
18
100
AcDbEntity
  8
\U+FF77\U+FF6C\U+FF6F\U+FF8C\U+FF9F\U+FF8E\U+FF9E\U+FF99\U+FF84
100
AcDbLine
 10
5143.634908734004
 20
-3661.43148788088
 30
0.0
 11
5143.634838023327
 21
-3661.431417170204
 31
0.0
  0
LINE
  5
D89C0
330
18
100
AcDbEntity
  8
\U+FF77\U+FF6C\U+FF6F\U+FF8C\U+FF9F\U+FF8E\U+FF9E\U+FF99\U+FF84
  6
Continuous
100
AcDbLine
 10
5143.694967785378
 20
-3664.553409344844
 30
0.0
 11
5144.91971246757
 21
-3663.328664662647
 31
0.0
  0
LINE
  5
D89C1
330
18
100
AcDbEntity
  8
\U+FF77\U+FF6C\U+FF6F\U+FF8C\U+FF9F\U+FF8E\U+FF9E\U+FF99\U+FF84
  6
Continuous
100
AcDbLine
 10
5142.02193524422
 20
-3664.105121542445
 30
0.0
 11
5143.694967955083
 21
-3664.553409175136
 31
0.0
  0
LINE
  5
D89C2
330
18
100
AcDbEntity
  8
\U+FF77\U+FF6C\U+FF6F\U+FF8C\U+FF9F\U+FF8E\U+FF9E\U+FF99\U+FF84
  6
Continuous
100
AcDbLine
 10
5144.471424834877
 20
-3661.655631951784
 30
0.0
 11
5144.91971246757
 21
-3663.328664662647
 31
0.0
  0
CIRCLE
  5
D89C3
330
18
100
AcDbEntity
  8
\U+FF77\U+FF6C\U+FF6F\U+FF8C\U+FF9F\U+FF8E\U+FF9E\U+FF99\U+FF84
  6
Continuous
100
AcDbCircle
 10
5143.246680039545
 20
-3662.880376747111
 30
0.0
 40
3.099999999999988
  0
CIRCLE
  5
D89C4
330
18
100
AcDbEntity
  8
\U+FF77\U+FF6C\U+FF6F\U+FF8C\U+FF9F\U+FF8E\U+FF9E\U+FF99\U+FF84
  6
Continuous
100
AcDbCircle
 10
5143.246680039545
 20
-3662.880376747111
 30
0.0
 40
3.5
  0
LINE
  5
D89C5
330
18
100
AcDbEntity
  8
\U+FF77\U+FF6C\U+FF6F\U+FF8C\U+FF9F\U+FF8E\U+FF9E\U+FF99\U+FF84
  6
Continuous
100
AcDbLine
 10
5142.798392420997
 20
-3661.207344022108
 30
0.0
 11
5144.471425047008
 21
-3661.655631739653
 31
0.0
  0
LINE
  5
D89C6
330
18
100
AcDbEntity
  8
\U+FF77\U+FF6C\U+FF6F\U+FF8C\U+FF9F\U+FF8E\U+FF9E\U+FF99\U+FF84
  6
Continuous
100
AcDbLine
 10
5129.926790216561
 20
-3643.155716409205
 30
0.0
 11
5130.375077977968
 21
-3641.48268379494
 31
0.0
  0
LINE
  5
D89C7
330
18
100
AcDbEntity
  8
\U+FF77\U+FF6C\U+FF6F\U+FF8C\U+FF9F\U+FF8E\U+FF9E\U+FF99\U+FF84
  6
Continuous
100
AcDbLine
 10
5130.375078151834
 20
-3641.482683748352
 30
0.0
 11
5132.048110906546
 21
-3641.03439597282
 31
0.0
  0
LINE
  5
D89C8
330
18
100
AcDbEntity
  8
\U+FF77\U+FF6C\U+FF6F\U+FF8C\U+FF9F\U+FF8E\U+FF9E\U+FF99\U+FF84
  6
Continuous
100
AcDbLine
 10
5132.354297130723
 20
-3641.340582188968
 30
0.0
 11
5132.354200538144
 21
-3641.340608070874
 31
0.0
  0
LINE
  5
D89C9
330
18
100
AcDbEntity
  8
\U+FF77\U+FF6C\U+FF6F\U+FF8C\U+FF9F\U+FF8E\U+FF9E\U+FF99\U+FF84
100
AcDbLine
 10
5132.660483354904
 20
-3641.646768405124
 30
0.0
 11
5132.660457472999
 21
-3641.646671812541
 31
0.0
  0
LINE
  5
D89CA
330
18
100
AcDbEntity
  8
\U+FF77\U+FF6C\U+FF6F\U+FF8C\U+FF9F\U+FF8E\U+FF9E\U+FF99\U+FF84
  6
Continuous
100
AcDbLine
 10
5131.151535287141
 20
-3644.380461227223
 30
0.0
 11
5132.824567636167
 21
-3643.932173560389
 31
0.0
  0
LINE
  5
D89CB
330
18
100
AcDbEntity
  8
\U+FF77\U+FF6C\U+FF6F\U+FF8C\U+FF9F\U+FF8E\U+FF9E\U+FF99\U+FF84
  6
Continuous
100
AcDbLine
 10
5129.926790506338
 20
-3643.155716331559
 30
0.0
 11
5131.151535518964
 21
-3644.380461165108
 31
0.0
  0
LINE
  5
D89CC
330
18
100
AcDbEntity
  8
\U+FF77\U+FF6C\U+FF6F\U+FF8C\U+FF9F\U+FF8E\U+FF9E\U+FF99\U+FF84
  6
Continuous
100
AcDbLine
 10
5133.272855513483
 20
-3642.25914091507
 30
0.0
 11
5132.824567636167
 21
-3643.932173560389
 31
0.0
  0
CIRCLE
  5
D89CD
330
18
100
AcDbEntity
  8
\U+FF77\U+FF6C\U+FF6F\U+FF8C\U+FF9F\U+FF8E\U+FF9E\U+FF99\U+FF84
  6
Continuous
100
AcDbCircle
 10
5131.599823009911
 20
-3642.707428623316
 30
0.0
 40
3.099999999999988
  0
CIRCLE
  5
D89CE
330
18
100
AcDbEntity
  8
\U+FF77\U+FF6C\U+FF6F\U+FF8C\U+FF9F\U+FF8E\U+FF9E\U+FF99\U+FF84
  6
Continuous
100
AcDbCircle
 10
5131.599823009911
 20
-3642.707428623316
 30
0.0
 40
3.5
  0
LINE
  5
D89CF
330
18
100
AcDbEntity
  8
\U+FF77\U+FF6C\U+FF6F\U+FF8C\U+FF9F\U+FF8E\U+FF9E\U+FF99\U+FF84
  6
Continuous
100
AcDbLine
 10
5132.048110906546
 20
-3641.03439597282
 30
0.0
 11
5133.27285580326
 21
-3642.259140837425
 31
0.0
  0
LINE
  5
D89D0
330
18
100
AcDbEntity
  8
\U+FF77\U+FF6C\U+FF6F\U+FF8C\U+FF9F\U+FF8E\U+FF9E\U+FF99\U+FF84
  6
Continuous
100
AcDbLine
 10
5129.926790216548
 20
-3618.965426778173
 30
0.0
 11
5131.151535113264
 21
-3617.740681913565
 31
0.0
  0
LINE
  5
D89D1
330
18
100
AcDbEntity
  8
\U+FF77\U+FF6C\U+FF6F\U+FF8C\U+FF9F\U+FF8E\U+FF9E\U+FF99\U+FF84
  6
Continuous
100
AcDbLine
 10
5131.151535287131
 20
-3617.740681960153
 30
0.0
 11
5132.824568041843
 21
-3618.188969735689
 31
0.0
  0
LINE
  5
D89D2
330
18
100
AcDbEntity
  8
\U+FF77\U+FF6C\U+FF6F\U+FF8C\U+FF9F\U+FF8E\U+FF9E\U+FF99\U+FF84
  6
Continuous
100
AcDbLine
 10
5132.936639982194
 20
-3618.607227889253
 30
0.0
 11
5132.936543389613
 21
-3618.607202007352
 31
0.0
  0
LINE
  5
D89D3
330
18
100
AcDbEntity
  8
\U+FF77\U+FF6C\U+FF6F\U+FF8C\U+FF9F\U+FF8E\U+FF9E\U+FF99\U+FF84
100
AcDbLine
 10
5133.048711922545
 20
-3619.025486042821
 30
0.0
 11
5133.04873780445
 21
-3619.02538945024
 31
0.0
  0
LINE
  5
D89D4
330
18
100
AcDbEntity
  8
\U+FF77\U+FF6C\U+FF6F\U+FF8C\U+FF9F\U+FF8E\U+FF9E\U+FF99\U+FF84
  6
Continuous
100
AcDbLine
 10
5130.375078151823
 20
-3620.63845943902
 30
0.0
 11
5132.04811050085
 21
-3621.086747105852
 31
0.0
  0
LINE
  5
D89D5
330
18
100
AcDbEntity
  8
\U+FF77\U+FF6C\U+FF6F\U+FF8C\U+FF9F\U+FF8E\U+FF9E\U+FF99\U+FF84
  6
Continuous
100
AcDbLine
 10
5129.926790506326
 20
-3618.965426855819
 30
0.0
 11
5130.375078383644
 21
-3620.638459501137
 31
0.0
  0
LINE
  5
D89D6
330
18
100
AcDbEntity
  8
\U+FF77\U+FF6C\U+FF6F\U+FF8C\U+FF9F\U+FF8E\U+FF9E\U+FF99\U+FF84
  6
Continuous
100
AcDbLine
 10
5133.272855513473
 20
-3619.862002272304
 30
0.0
 11
5132.04811050085
 21
-3621.086747105852
 31
0.0
  0
CIRCLE
  5
D89D7
330
18
100
AcDbEntity
  8
\U+FF77\U+FF6C\U+FF6F\U+FF8C\U+FF9F\U+FF8E\U+FF9E\U+FF99\U+FF84
  6
Continuous
100
AcDbCircle
 10
5131.599823009899
 20
-3619.41371456406
 30
0.0
 40
3.099999999999988
  0
CIRCLE
  5
D89D8
330
18
100
AcDbEntity
  8
\U+FF77\U+FF6C\U+FF6F\U+FF8C\U+FF9F\U+FF8E\U+FF9E\U+FF99\U+FF84
  6
Continuous
100
AcDbCircle
 10
5131.599823009899
 20
-3619.41371456406
 30
0.0
 40
3.5
  0
LINE
  5
D89D9
330
18
100
AcDbEntity
  8
\U+FF77\U+FF6C\U+FF6F\U+FF8C\U+FF9F\U+FF8E\U+FF9E\U+FF99\U+FF84
  6
Continuous
100
AcDbLine
 10
5132.824568041843
 20
-3618.188969735689
 30
0.0
 11
5133.272855803248
 21
-3619.86200234995
 31
0.0
  0
LINE
  5
D89DA
330
18
100
AcDbEntity
  8
\U+FF77\U+FF6C\U+FF6F\U+FF8C\U+FF9F\U+FF8E\U+FF9E\U+FF99\U+FF84
  6
Continuous
100
AcDbLine
 10
5142.021935032055
 20
-3598.016021432788
 30
0.0
 11
5143.69496765807
 21
-3597.567733715241
 31
0.0
  0
LINE
  5
D89DB
330
18
100
AcDbEntity
  8
\U+FF77\U+FF6C\U+FF6F\U+FF8C\U+FF9F\U+FF8E\U+FF9E\U+FF99\U+FF84
  6
Continuous
100
AcDbLine
 10
5143.69496778535
 20
-3597.567733842519
 30
0.0
 11
5144.919712764526
 21
-3598.7924788217
 31
0.0
  0
LINE
  5
D89DC
330
18
100
AcDbEntity
  8
\U+FF77\U+FF6C\U+FF6F\U+FF8C\U+FF9F\U+FF8E\U+FF9E\U+FF99\U+FF84
  6
Continuous
100
AcDbLine
 10
5144.807640835139
 20
-3599.210736978199
 30
0.0
 11
5144.807570124459
 21
-3599.210666267523
 31
0.0
  0
LINE
  5
D89DD
330
18
100
AcDbEntity
  8
\U+FF77\U+FF6C\U+FF6F\U+FF8C\U+FF9F\U+FF8E\U+FF9E\U+FF99\U+FF84
100
AcDbLine
 10
5144.695568905753
 20
-3599.628995134707
 30
0.0
 11
5144.695639616428
 21
-3599.628924424029
 31
0.0
  0
LINE
  5
D89DE
330
18
100
AcDbEntity
  8
\U+FF77\U+FF6C\U+FF6F\U+FF8C\U+FF9F\U+FF8E\U+FF9E\U+FF99\U+FF84
  6
Continuous
100
AcDbLine
 10
5141.573647441788
 20
-3599.689054186081
 30
0.0
 11
5142.798392123982
 21
-3600.913798868272
 31
0.0
  0
LINE
  5
D89DF
330
18
100
AcDbEntity
  8
\U+FF77\U+FF6C\U+FF6F\U+FF8C\U+FF9F\U+FF8E\U+FF9E\U+FF99\U+FF84
  6
Continuous
100
AcDbLine
 10
5142.021935244187
 20
-3598.016021644922
 30
0.0
 11
5141.573647611493
 21
-3599.689054355786
 31
0.0
  0
LINE
  5
D89E0
330
18
100
AcDbEntity
  8
\U+FF77\U+FF6C\U+FF6F\U+FF8C\U+FF9F\U+FF8E\U+FF9E\U+FF99\U+FF84
  6
Continuous
100
AcDbLine
 10
5144.471424834844
 20
-3600.465511235579
 30
0.0
 11
5142.798392123982
 21
-3600.913798868272
 31
0.0
  0
CIRCLE
  5
D89E1
330
18
100
AcDbEntity
  8
\U+FF77\U+FF6C\U+FF6F\U+FF8C\U+FF9F\U+FF8E\U+FF9E\U+FF99\U+FF84
  6
Continuous
100
AcDbCircle
 10
5143.246680039514
 20
-3599.240766440249
 30
0.0
 40
3.099999999999988
  0
CIRCLE
  5
D89E2
330
18
100
AcDbEntity
  8
\U+FF77\U+FF6C\U+FF6F\U+FF8C\U+FF9F\U+FF8E\U+FF9E\U+FF99\U+FF84
  6
Continuous
100
AcDbCircle
 10
5143.246680039514
 20
-3599.240766440249
 30
0.0
 40
3.5
  0
LINE
  5
D89E3
330
18
100
AcDbEntity
  8
\U+FF77\U+FF6C\U+FF6F\U+FF8C\U+FF9F\U+FF8E\U+FF9E\U+FF99\U+FF84
  6
Continuous
100
AcDbLine
 10
5144.919712764526
 20
-3598.7924788217
 30
0.0
 11
5144.471425046979
 21
-3600.465511447711
 31
0.0
  0
LINE
  5
D89E4
330
18
100
AcDbEntity
  8
\U+FF77\U+FF6C\U+FF6F\U+FF8C\U+FF9F\U+FF8E\U+FF9E\U+FF99\U+FF84
  6
Continuous
100
AcDbLine
 10
5162.971340377426
 20
-3585.920876617263
 30
0.0
 11
5164.644372991688
 21
-3586.36916437867
 31
0.0
  0
LINE
  5
D89E5
330
18
100
AcDbEntity
  8
\U+FF77\U+FF6C\U+FF6F\U+FF8C\U+FF9F\U+FF8E\U+FF9E\U+FF99\U+FF84
  6
Continuous
100
AcDbLine
 10
5164.644373038276
 20
-3586.369164552536
 30
0.0
 11
5165.092660813811
 21
-3588.042197307248
 31
0.0
  0
LINE
  5
D89E6
330
18
100
AcDbEntity
  8
\U+FF77\U+FF6C\U+FF6F\U+FF8C\U+FF9F\U+FF8E\U+FF9E\U+FF99\U+FF84
  6
Continuous
100
AcDbLine
 10
5164.786474597661
 20
-3588.348383531425
 30
0.0
 11
5164.786448715755
 21
-3588.348286938846
 31
0.0
  0
LINE
  5
D89E7
330
18
100
AcDbEntity
  8
\U+FF77\U+FF6C\U+FF6F\U+FF8C\U+FF9F\U+FF8E\U+FF9E\U+FF99\U+FF84
100
AcDbLine
 10
5164.480288381507
 20
-3588.654569755608
 30
0.0
 11
5164.480384974087
 21
-3588.654543873701
 31
0.0
  0
LINE
  5
D89E8
330
18
100
AcDbEntity
  8
\U+FF77\U+FF6C\U+FF6F\U+FF8C\U+FF9F\U+FF8E\U+FF9E\U+FF99\U+FF84
  6
Continuous
100
AcDbLine
 10
5165.092660813811
 20
-3588.042197307248
 30
0.0
 11
5163.867915949204
 21
-3589.266942203963
 31
0.0
  0
LINE
  5
D89E9
330
18
100
AcDbEntity
  8
\U+FF77\U+FF6C\U+FF6F\U+FF8C\U+FF9F\U+FF8E\U+FF9E\U+FF99\U+FF84
  6
Continuous
100
AcDbLine
 10
5161.746595559407
 20
-3587.145621687843
 30
0.0
 11
5162.19488322624
 21
-3588.81865403687
 31
0.0
  0
LINE
  5
D89EA
330
18
100
AcDbEntity
  8
\U+FF77\U+FF6C\U+FF6F\U+FF8C\U+FF9F\U+FF8E\U+FF9E\U+FF99\U+FF84
  6
Continuous
100
AcDbLine
 10
5162.971340455071
 20
-3585.920876907041
 30
0.0
 11
5161.746595621524
 21
-3587.145621919666
 31
0.0
  0
LINE
  5
D89EB
330
18
100
AcDbEntity
  8
\U+FF77\U+FF6C\U+FF6F\U+FF8C\U+FF9F\U+FF8E\U+FF9E\U+FF99\U+FF84
  6
Continuous
100
AcDbLine
 10
5163.867915871559
 20
-3589.266941914186
 30
0.0
 11
5162.19488322624
 21
-3588.81865403687
 31
0.0
  0
CIRCLE
  5
D89EC
330
18
100
AcDbEntity
  8
\U+FF77\U+FF6C\U+FF6F\U+FF8C\U+FF9F\U+FF8E\U+FF9E\U+FF99\U+FF84
  6
Continuous
100
AcDbCircle
 10
5163.419628163313
 20
-3587.593909410614
 30
0.0
 40
3.099999999999988
  0
CIRCLE
  5
D89ED
330
18
100
AcDbEntity
  8
\U+FF77\U+FF6C\U+FF6F\U+FF8C\U+FF9F\U+FF8E\U+FF9E\U+FF99\U+FF84
  6
Continuous
100
AcDbCircle
 10
5163.419628163313
 20
-3587.593909410614
 30
0.0
 40
3.5
  0
LINE
  5
D89EE
330
18
100
AcDbEntity
  8
中心線
 48
0.5
100
AcDbLine
 10
5139.076196075579
 20
-3651.83957470383
 30
0.0
 11
5131.382437162323
 21
-3656.281568483479
 31
0.0
  0
LINE
  5
D89EF
330
18
100
AcDbEntity
  8
中心線
 48
0.5
100
AcDbLine
 10
5139.076196075552
 20
-3610.281568483546
 30
0.0
 11
5131.382437162296
 21
-3605.8395747039
 31
0.0
  0
LINE
  5
D89F0
330
18
100
AcDbEntity
  8
中心線
 48
0.5
100
AcDbLine
 10
5211.056774310376
 20
-3651.839574703783
 30
0.0
 11
5218.750533223633
 21
-3656.281568483431
 31
0.0
  0
LINE
  5
D89F2
330
18
100
AcDbEntity
  8
中心線
 48
0.5
100
AcDbLine
 10
5260.066485192962
 20
-3631.060571593665
 30
0.0
 11
5090.066485192963
 21
-3631.060571593665
 31
0.0
  0
CIRCLE
  5
D89F3
330
18
100
AcDbEntity
  8
実線
100
AcDbCircle
 10
5135.229316618913
 20
-3654.060571593614
 30
0.0
 40
2.499999999999984
  0
CIRCLE
  5
D89F4
330
18
100
AcDbEntity
  8
細線
100
AcDbCircle
 10
5135.229316618913
 20
-3654.060571593614
 30
0.0
 40
3.000001261558388
  0
CIRCLE
  5
D89F5
330
18
100
AcDbEntity
  8
実線
100
AcDbCircle
 10
5143.246680039562
 20
-3662.880376747065
 30
0.0
 40
4.000000000000012
  0
CIRCLE
  5
D89F6
330
18
100
AcDbEntity
  8
実線
100
AcDbCircle
 10
5163.419628163313
 20
-3674.527233776713
 30
0.0
 40
4.000000000000006
  0
CIRCLE
  5
D89F7
330
18
100
AcDbEntity
  8
実線
100
AcDbCircle
 10
5131.599823009914
 20
-3642.707428623313
 30
0.0
 40
4.000000000000006
  0
CIRCLE
  5
D89F8
330
18
100
AcDbEntity
  8
実線
100
AcDbCircle
 10
5131.599823009914
 20
-3619.413714564012
 30
0.0
 40
3.999999999999987
  0
CIRCLE
  5
D89F9
330
18
100
AcDbEntity
  8
実線
100
AcDbCircle
 10
5135.229316618913
 20
-3608.060571593713
 30
0.0
 40
2.499999999999984
  0
CIRCLE
  5
D89FA
330
18
100
AcDbEntity
  8
細線
100
AcDbCircle
 10
5135.229316618913
 20
-3608.060571593713
 30
0.0
 40
3.000001383441456
  0
CIRCLE
  5
D89FB
330
18
100
AcDbEntity
  8
実線
100
AcDbCircle
 10
5143.246680039562
 20
-3599.240766440264
 30
0.0
 40
4.000000000000037
  0
CIRCLE
  5
D89FC
330
18
100
AcDbEntity
  8
実線
100
AcDbCircle
 10
5163.419628163313
 20
-3587.593909410614
 30
0.0
 40
4.000000000000029
  0
CIRCLE
  5
D89FD
330
18
100
AcDbEntity
  8
実線
100
AcDbCircle
 10
5186.713342222613
 20
-3674.527233776713
 30
0.0
 40
3.999999999999984
  0
CIRCLE
  5
D89FE
330
18
100
AcDbEntity
  8
実線
100
AcDbCircle
 10
5214.903653767013
 20
-3654.060571593614
 30
0.0
 40
2.500000000000028
  0
CIRCLE
  5
D89FF
330
18
100
AcDbEntity
  8
細線
100
AcDbCircle
 10
5214.903653767013
 20
-3654.060571593614
 30
0.0
 40
3.000001383441158
  0
CIRCLE
  5
D8A00
330
18
100
AcDbEntity
  8
実線
100
AcDbCircle
 10
5206.886290346362
 20
-3662.880376747065
 30
0.0
 40
4.000000000000022
  0
CIRCLE
  5
D8A01
330
18
100
AcDbEntity
  8
実線
100
AcDbCircle
 10
5218.533147376014
 20
-3642.707428623313
 30
0.0
 40
3.999999999999997
  0
CIRCLE
  5
D8A02
330
18
100
AcDbEntity
  8
実線
100
AcDbCircle
 10
5218.533147376014
 20
-3619.413714564012
 30
0.0
 40
4.000000000000006
  0
CIRCLE
  5
D8A03
330
18
100
AcDbEntity
  8
実線
100
AcDbCircle
 10
5175.066485192963
 20
-3677.060571593713
 30
0.0
 40
2.499999999999984
  0
CIRCLE
  5
D8A05
330
18
100
AcDbEntity
  8
細線
100
AcDbCircle
 10
5175.066485192963
 20
-3677.060571593713
 30
0.0
 40
3.00000002607704
  0
LINE
  5
D8A06
330
18
100
AcDbEntity
  8
\U+FF77\U+FF6C\U+FF6F\U+FF8C\U+FF9F\U+FF8E\U+FF9E\U+FF99\U+FF84
100
AcDbLine
 10
5194.592667469777
 20
-3558.187867258755
 30
0.0
 11
5195.613287720075
 21
-3559.208487509051
 31
0.0
  0
LINE
  5
D8A07
330
18
100
AcDbEntity
  8
\U+FF77\U+FF6C\U+FF6F\U+FF8C\U+FF9F\U+FF8E\U+FF9E\U+FF99\U+FF84
100
AcDbLine
 10
5195.23971478085
 20
-3560.602680698572
 30
0.0
 11
5193.845521591329
 21
-3560.976253637797
 31
0.0
  0
LINE
  5
D8A08
330
18
100
AcDbEntity
  8
\U+FF77\U+FF6C\U+FF6F\U+FF8C\U+FF9F\U+FF8E\U+FF9E\U+FF99\U+FF84
100
AcDbLine
 10
5193.845521591329
 20
-3560.976253637797
 30
0.0
 11
5192.824901341039
 21
-3559.955633387501
 31
0.0
  0
LINE
  5
D8A09
330
18
100
AcDbEntity
  8
\U+FF77\U+FF6C\U+FF6F\U+FF8C\U+FF9F\U+FF8E\U+FF9E\U+FF99\U+FF84
100
AcDbLine
 10
5192.824901341039
 20
-3559.955633387501
 30
0.0
 11
5193.198474280265
 21
-3558.561440197985
 31
0.0
  0
LINE
  5
D8A0A
330
18
100
AcDbEntity
  8
\U+FF77\U+FF6C\U+FF6F\U+FF8C\U+FF9F\U+FF8E\U+FF9E\U+FF99\U+FF84
100
AcDbLine
 10
5195.613287720075
 20
-3559.208487509051
 30
0.0
 11
5195.23971478085
 21
-3560.602680698572
 31
0.0
  0
CIRCLE
  5
D8A0B
330
18
100
AcDbEntity
  8
\U+FF77\U+FF6C\U+FF6F\U+FF8C\U+FF9F\U+FF8E\U+FF9E\U+FF99\U+FF84
100
AcDbCircle
 10
5194.219094530552
 20
-3559.582060448276
 30
0.0
 40
3.5
  0
LINE
  5
D8A0C
330
18
100
AcDbEntity
  8
\U+FF77\U+FF6C\U+FF6F\U+FF8C\U+FF9F\U+FF8E\U+FF9E\U+FF99\U+FF84
100
AcDbLine
 10
5193.198474280265
 20
-3558.561440197985
 30
0.0
 11
5194.592667469777
 21
-3558.187867258755
 31
0.0
  0
CIRCLE
  5
D8A0D
330
18
100
AcDbEntity
  8
実線
100
AcDbCircle
 10
5194.219094530548
 20
-3559.582060448276
 30
0.0
 40
4.0
  0
LINE
  5
D8A0E
330
18
100
AcDbEntity
  8
\U+FF77\U+FF6C\U+FF6F\U+FF8C\U+FF9F\U+FF8E\U+FF9E\U+FF99\U+FF84
  6
Continuous
100
AcDbLine
 10
5208.111035353872
 20
-3598.016021432788
 30
0.0
 11
5206.438002727857
 21
-3597.567733715243
 31
0.0
  0
LINE
  5
D8A0F
330
18
100
AcDbEntity
  8
\U+FF77\U+FF6C\U+FF6F\U+FF8C\U+FF9F\U+FF8E\U+FF9E\U+FF99\U+FF84
  6
Continuous
100
AcDbLine
 10
5206.438002600577
 20
-3597.567733842522
 30
0.0
 11
5205.213257621404
 21
-3598.7924788217
 31
0.0
  0
LINE
  5
D8A10
330
18
100
AcDbEntity
  8
\U+FF77\U+FF6C\U+FF6F\U+FF8C\U+FF9F\U+FF8E\U+FF9E\U+FF99\U+FF84
  6
Continuous
100
AcDbLine
 10
5205.325329550788
 20
-3599.210736978199
 30
0.0
 11
5205.325400261466
 21
-3599.210666267523
 31
0.0
  0
LINE
  5
D8A11
330
18
100
AcDbEntity
  8
\U+FF77\U+FF6C\U+FF6F\U+FF8C\U+FF9F\U+FF8E\U+FF9E\U+FF99\U+FF84
100
AcDbLine
 10
5205.437401480178
 20
-3599.628995134707
 30
0.0
 11
5205.437330769499
 21
-3599.628924424029
 31
0.0
  0
LINE
  5
D8A12
330
18
100
AcDbEntity
  8
\U+FF77\U+FF6C\U+FF6F\U+FF8C\U+FF9F\U+FF8E\U+FF9E\U+FF99\U+FF84
  6
Continuous
100
AcDbLine
 10
5208.559322944139
 20
-3599.689054186081
 30
0.0
 11
5207.334578261946
 21
-3600.913798868275
 31
0.0
  0
LINE
  5
D8A13
330
18
100
AcDbEntity
  8
\U+FF77\U+FF6C\U+FF6F\U+FF8C\U+FF9F\U+FF8E\U+FF9E\U+FF99\U+FF84
  6
Continuous
100
AcDbLine
 10
5208.111035141739
 20
-3598.016021644922
 30
0.0
 11
5208.559322774434
 21
-3599.689054355786
 31
0.0
  0
LINE
  5
D8A14
330
18
100
AcDbEntity
  8
\U+FF77\U+FF6C\U+FF6F\U+FF8C\U+FF9F\U+FF8E\U+FF9E\U+FF99\U+FF84
  6
Continuous
100
AcDbLine
 10
5205.661545551082
 20
-3600.465511235579
 30
0.0
 11
5207.334578261946
 21
-3600.913798868275
 31
0.0
  0
CIRCLE
  5
D8A15
330
18
100
AcDbEntity
  8
\U+FF77\U+FF6C\U+FF6F\U+FF8C\U+FF9F\U+FF8E\U+FF9E\U+FF99\U+FF84
  6
Continuous
100
AcDbCircle
 10
5206.886290346411
 20
-3599.240766440249
 30
0.0
 40
3.099999999999988
  0
CIRCLE
  5
D8A16
330
18
100
AcDbEntity
  8
\U+FF77\U+FF6C\U+FF6F\U+FF8C\U+FF9F\U+FF8E\U+FF9E\U+FF99\U+FF84
  6
Continuous
100
AcDbCircle
 10
5206.886290346411
 20
-3599.240766440249
 30
0.0
 40
3.5
  0
LINE
  5
D8A17
330
18
100
AcDbEntity
  8
\U+FF77\U+FF6C\U+FF6F\U+FF8C\U+FF9F\U+FF8E\U+FF9E\U+FF99\U+FF84
  6
Continuous
100
AcDbLine
 10
5205.213257621404
 20
-3598.7924788217
 30
0.0
 11
5205.661545338951
 21
-3600.465511447711
 31
0.0
  0
LINE
  5
D8A18
330
18
100
AcDbEntity
  8
\U+FF77\U+FF6C\U+FF6F\U+FF8C\U+FF9F\U+FF8E\U+FF9E\U+FF99\U+FF84
  6
Continuous
100
AcDbLine
 10
5187.161630008501
 20
-3585.920876617263
 30
0.0
 11
5185.488597394238
 21
-3586.36916437867
 31
0.0
  0
LINE
  5
D8A19
330
18
100
AcDbEntity
  8
\U+FF77\U+FF6C\U+FF6F\U+FF8C\U+FF9F\U+FF8E\U+FF9E\U+FF99\U+FF84
  6
Continuous
100
AcDbLine
 10
5185.48859734765
 20
-3586.369164552536
 30
0.0
 11
5185.040309572116
 21
-3588.042197307248
 31
0.0
  0
LINE
  5
D8A1A
330
18
100
AcDbEntity
  8
\U+FF77\U+FF6C\U+FF6F\U+FF8C\U+FF9F\U+FF8E\U+FF9E\U+FF99\U+FF84
  6
Continuous
100
AcDbLine
 10
5185.346495788266
 20
-3588.348383531425
 30
0.0
 11
5185.346521670171
 21
-3588.348286938846
 31
0.0
  0
LINE
  5
D8A1B
330
18
100
AcDbEntity
  8
\U+FF77\U+FF6C\U+FF6F\U+FF8C\U+FF9F\U+FF8E\U+FF9E\U+FF99\U+FF84
100
AcDbLine
 10
5185.65268200442
 20
-3588.654569755608
 30
0.0
 11
5185.652585411839
 21
-3588.654543873701
 31
0.0
  0
LINE
  5
D8A1C
330
18
100
AcDbEntity
  8
\U+FF77\U+FF6C\U+FF6F\U+FF8C\U+FF9F\U+FF8E\U+FF9E\U+FF99\U+FF84
  6
Continuous
100
AcDbLine
 10
5188.386374826519
 20
-3587.145621687843
 30
0.0
 11
5187.938087159686
 21
-3588.81865403687
 31
0.0
  0
LINE
  5
D8A1D
330
18
100
AcDbEntity
  8
\U+FF77\U+FF6C\U+FF6F\U+FF8C\U+FF9F\U+FF8E\U+FF9E\U+FF99\U+FF84
  6
Continuous
100
AcDbLine
 10
5187.161629930855
 20
-3585.920876907041
 30
0.0
 11
5188.386374764403
 21
-3587.145621919666
 31
0.0
  0
LINE
  5
D8A1E
330
18
100
AcDbEntity
  8
\U+FF77\U+FF6C\U+FF6F\U+FF8C\U+FF9F\U+FF8E\U+FF9E\U+FF99\U+FF84
  6
Continuous
100
AcDbLine
 10
5186.265054514368
 20
-3589.266941914186
 30
0.0
 11
5187.938087159686
 21
-3588.81865403687
 31
0.0
  0
CIRCLE
  5
D8A1F
330
18
100
AcDbEntity
  8
\U+FF77\U+FF6C\U+FF6F\U+FF8C\U+FF9F\U+FF8E\U+FF9E\U+FF99\U+FF84
  6
Continuous
100
AcDbCircle
 10
5186.713342222612
 20
-3587.593909410614
 30
0.0
 40
3.099999999999988
  0
CIRCLE
  5
D8A20
330
18
100
AcDbEntity
  8
\U+FF77\U+FF6C\U+FF6F\U+FF8C\U+FF9F\U+FF8E\U+FF9E\U+FF99\U+FF84
  6
Continuous
100
AcDbCircle
 10
5186.713342222612
 20
-3587.593909410614
 30
0.0
 40
3.5
  0
LINE
  5
D8A21
330
18
100
AcDbEntity
  8
\U+FF77\U+FF6C\U+FF6F\U+FF8C\U+FF9F\U+FF8E\U+FF9E\U+FF99\U+FF84
  6
Continuous
100
AcDbLine
 10
5185.040309572116
 20
-3588.042197307248
 30
0.0
 11
5186.265054436722
 21
-3589.266942203963
 31
0.0
  0
LINE
  5
D8A22
330
18
100
AcDbEntity
  8
中心線
 48
0.5
100
AcDbLine
 10
5211.056774310376
 20
-3610.281568483549
 30
0.0
 11
5218.750533223633
 21
-3605.8395747039
 31
0.0
  0
CIRCLE
  5
D8A23
330
18
100
AcDbEntity
  8
実線
100
AcDbCircle
 10
5186.713342222613
 20
-3587.593909410618
 30
0.0
 40
3.999999999999984
  0
CIRCLE
  5
D8A24
330
18
100
AcDbEntity
  8
実線
100
AcDbCircle
 10
5214.903653767013
 20
-3608.060571593716
 30
0.0
 40
2.500000000000028
  0
CIRCLE
  5
D8A25
330
18
100
AcDbEntity
  8
細線
100
AcDbCircle
 10
5214.903653767013
 20
-3608.060571593716
 30
0.0
 40
3.000001383441158
  0
CIRCLE
  5
D8A26
330
18
100
AcDbEntity
  8
実線
100
AcDbCircle
 10
5206.886290346362
 20
-3599.240766440267
 30
0.0
 40
4.000000000000022
  0
CIRCLE
  5
D8A27
330
18
100
AcDbEntity
  8
実線
100
AcDbCircle
 10
5175.066485192963
 20
-3585.060571593619
 30
0.0
 40
2.499999999999984
  0
CIRCLE
  5
D8A28
330
18
100
AcDbEntity
  8
細線
100
AcDbCircle
 10
5175.066485192963
 20
-3585.060571593619
 30
0.0
 40
3.00000002607704
  0
LINE
  5
D8A29
330
18
100
AcDbEntity
  8
\U+FF77\U+FF6C\U+FF6F\U+FF8C\U+FF9F\U+FF8E\U+FF9E\U+FF99\U+FF84
100
AcDbLine
 10
5228.413007251067
 20
-3577.714049535569
 30
0.0
 11
5228.786580190291
 21
-3579.108242725089
 31
0.0
  0
LINE
  5
D8A2A
330
18
100
AcDbEntity
  8
\U+FF77\U+FF6C\U+FF6F\U+FF8C\U+FF9F\U+FF8E\U+FF9E\U+FF99\U+FF84
100
AcDbLine
 10
5227.765959939997
 20
-3580.128862975384
 30
0.0
 11
5226.371766750477
 21
-3579.755290036159
 31
0.0
  0
LINE
  5
D8A2B
330
18
100
AcDbEntity
  8
\U+FF77\U+FF6C\U+FF6F\U+FF8C\U+FF9F\U+FF8E\U+FF9E\U+FF99\U+FF84
100
AcDbLine
 10
5226.371766750477
 20
-3579.755290036159
 30
0.0
 11
5225.998193811258
 21
-3578.361096846644
 31
0.0
  0
LINE
  5
D8A2C
330
18
100
AcDbEntity
  8
\U+FF77\U+FF6C\U+FF6F\U+FF8C\U+FF9F\U+FF8E\U+FF9E\U+FF99\U+FF84
100
AcDbLine
 10
5225.998193811258
 20
-3578.361096846644
 30
0.0
 11
5227.018814061551
 21
-3577.34047659635
 31
0.0
  0
LINE
  5
D8A2D
330
18
100
AcDbEntity
  8
\U+FF77\U+FF6C\U+FF6F\U+FF8C\U+FF9F\U+FF8E\U+FF9E\U+FF99\U+FF84
100
AcDbLine
 10
5228.786580190291
 20
-3579.108242725089
 30
0.0
 11
5227.765959939997
 21
-3580.128862975384
 31
0.0
  0
CIRCLE
  5
D8A2E
330
18
100
AcDbEntity
  8
\U+FF77\U+FF6C\U+FF6F\U+FF8C\U+FF9F\U+FF8E\U+FF9E\U+FF99\U+FF84
100
AcDbCircle
 10
5227.392387000774
 20
-3578.734669785859
 30
0.0
 40
3.5
  0
LINE
  5
D8A2F
330
18
100
AcDbEntity
  8
\U+FF77\U+FF6C\U+FF6F\U+FF8C\U+FF9F\U+FF8E\U+FF9E\U+FF99\U+FF84
100
AcDbLine
 10
5227.018814061551
 20
-3577.34047659635
 30
0.0
 11
5228.413007251067
 21
-3577.714049535569
 31
0.0
  0
CIRCLE
  5
D8A30
330
18
100
AcDbEntity
  8
実線
100
AcDbCircle
 10
5227.392387000779
 20
-3578.734669785812
 30
0.0
 40
4.000000000000028
  0
CIRCLE
  5
D8A31
330
18
100
AcDbEntity
  8
実線
100
AcDbCircle
 10
5175.066485192963
 20
-3631.060571593665
 30
0.0
 40
63.79999999999999
  0
CIRCLE
  5
D8A32
330
18
100
AcDbEntity
  8
中心線
 48
0.5
100
AcDbCircle
 10
5175.066485192964
 20
-3631.060571593665
 30
0.0
 40
45.99999999993292
  0
LINE
  5
D8A34
330
18
100
AcDbEntity
  8
実線
100
AcDbLine
 10
5378.773339186885
 20
-3684.960572994367
 30
0.0
 11
5380.673339212986
 21
-3684.960572994367
 31
0.0
  0
LINE
  5
D8A35
330
18
100
AcDbEntity
  8
実線
100
AcDbLine
 10
5381.073339071405
 20
-3567.260571939318
 30
0.0
 11
5381.073339212985
 21
-3694.860571248018
 31
0.0
  0
LINE
  5
D8A39
330
18
100
AcDbEntity
  8
中心線
 48
0.5
100
AcDbLine
 10
5397.075490734436
 20
-3677.060571593718
 30
0.0
 11
5375.073339186887
 21
-3677.060571593718
 31
0.0
  0
LINE
  5
D8A3A
330
18
100
AcDbEntity
  8
実線
100
AcDbLine
 10
5378.273339186885
 20
-3577.660570192967
 30
0.0
 11
5378.273339186885
 21
-3684.460572994368
 31
0.0
  0
LINE
  5
D8A3B
330
18
100
AcDbEntity
  8
中心線
 48
0.5
100
AcDbLine
 10
5486.373339186837
 20
-3631.060571593665
 30
0.0
 11
5375.204616546551
 21
-3631.060571593665
 31
0.0
  0
LINE
  5
D8A3D
330
18
100
AcDbEntity
  8
中心線
 48
0.5
100
AcDbLine
 10
5397.075490734436
 20
-3585.060571593616
 30
0.0
 11
5375.073339186887
 21
-3585.060571593616
 31
0.0
  0
LINE
  5
D8A40
330
18
100
AcDbEntity
  8
実線
100
AcDbLine
 10
5378.773339186885
 20
-3577.160570192968
 30
0.0
 11
5380.673339212986
 21
-3577.160570192963
 31
0.0
  0
ARC
  5
D8A43
330
18
100
AcDbEntity
  8
実線
100
AcDbCircle
 10
5483.973333533217
 20
-3684.261378093664
 30
0.0
 40
0.4
100
AcDbArc
 50
0.0
 51
75.52248799996114
  0
ARC
  5
D8A44
330
18
100
AcDbEntity
  8
実線
100
AcDbCircle
 10
5483.573333533218
 20
-3685.810572093663
 30
0.0
 40
2.0
100
AcDbArc
 50
75.52248799996114
 51
90.0
  0
ARC
  5
D8A45
330
18
100
AcDbEntity
  8
実線
100
AcDbCircle
 10
5483.573333533218
 20
-3685.810572093663
 30
0.0
 40
2.0
100
AcDbArc
 50
270.0
 51
284.4775120000389
  0
ARC
  5
D8A46
330
18
100
AcDbEntity
  8
実線
100
AcDbCircle
 10
5483.973333533217
 20
-3687.359765093664
 30
0.0
 40
0.4
100
AcDbArc
 50
284.4775120000389
 51
0.0
  0
LINE
  5
D8A47
330
18
100
AcDbEntity
  8
実線
100
AcDbLine
 10
5484.373333533218
 20
-3684.261378093665
 30
0.0
 11
5484.373333533218
 21
-3687.359765093666
 31
0.0
  0
ARC
  5
D8A48
330
18
100
AcDbEntity
  8
実線
100
AcDbCircle
 10
5483.973333533217
 20
-3574.761378093664
 30
0.0
 40
0.4
100
AcDbArc
 50
0.0
 51
75.52248799996114
  0
ARC
  5
D8A49
330
18
100
AcDbEntity
  8
実線
100
AcDbCircle
 10
5483.573333533218
 20
-3576.310572093663
 30
0.0
 40
2.0
100
AcDbArc
 50
75.52248799996114
 51
90.0
  0
ARC
  5
D8A4A
330
18
100
AcDbEntity
  8
実線
100
AcDbCircle
 10
5483.573333533218
 20
-3576.310572093665
 30
0.0
 40
2.0
100
AcDbArc
 50
270.0
 51
284.4775120000389
  0
ARC
  5
D8A4B
330
18
100
AcDbEntity
  8
実線
100
AcDbCircle
 10
5483.973333533217
 20
-3577.859765093665
 30
0.0
 40
0.4
100
AcDbArc
 50
284.4775120000389
 51
0.0
  0
LINE
  5
D8A4C
330
18
100
AcDbEntity
  8
実線
100
AcDbLine
 10
5484.373333533218
 20
-3574.761378093665
 30
0.0
 11
5484.373333533218
 21
-3577.859765093665
 31
0.0
  0
LINE
  5
D8A4D
330
18
100
AcDbEntity
  8
実線
100
AcDbLine
 10
5483.573336385389
 20
-3574.060571593665
 30
0.0
 11
5483.073336385388
 21
-3574.060571593665
 31
0.0
  0
LINE
  5
D8A4E
330
18
100
AcDbEntity
  8
実線
100
AcDbLine
 10
5483.073336385388
 20
-3573.560564411369
 30
0.0
 11
5483.073343567687
 21
-3688.560571593667
 31
0.0
  0
LINE
  5
D8A4F
330
18
100
AcDbEntity
  8
実線
100
AcDbLine
 10
5483.573336385389
 20
-3688.060571593665
 30
0.0
 11
5483.073336385388
 21
-3688.060571593665
 31
0.0
  0
LINE
  5
D8A50
330
18
100
AcDbEntity
  8
実線
100
AcDbLine
 10
5483.573336385389
 20
-3574.060571593665
 30
0.0
 11
5483.573336385389
 21
-3688.060571593665
 31
0.0
  0
LINE
  5
D8A51
330
18
100
AcDbEntity
  8
実線
100
AcDbLine
 10
5382.073338203287
 20
-3560.560570848662
 30
0.0
 11
5381.773336862192
 21
-3560.560570848662
 31
0.0
  0
LINE
  5
D8A52
330
18
100
AcDbEntity
  8
実線
100
AcDbLine
 10
5382.073338203287
 20
-3553.560570848662
 30
0.0
 11
5381.773336862192
 21
-3553.560570848662
 31
0.0
  0
LINE
  5
D8A54
330
18
100
AcDbEntity
  8
実線
100
AcDbLine
 10
5388.073338203288
 20
-3551.56057087768
 30
0.0
 11
5382.073338203288
 21
-3551.56057087768
 31
0.0
  0
LINE
  5
D8A55
330
18
100
AcDbEntity
  8
実線
100
AcDbLine
 10
5381.773336862192
 20
-3553.560570848662
 30
0.0
 11
5381.773336862192
 21
-3560.560570848662
 31
0.0
  0
LINE
  5
D8A57
330
18
100
AcDbEntity
  8
実線
100
AcDbLine
 10
5388.073338203287
 20
-3711.060573292265
 30
0.0
 11
5388.07333686219
 21
-3551.060569895069
 31
0.0
  0
LINE
  5
D8A58
330
18
100
AcDbEntity
  8
実線
100
AcDbLine
 10
5382.073338203288
 20
-3551.56057087768
 30
0.0
 11
5382.073338203287
 21
-3710.560572309658
 31
0.0
  0
LINE
  5
D8A59
330
18
100
AcDbEntity
  8
実線
100
AcDbLine
 10
5388.073338203288
 20
-3710.560572309658
 30
0.0
 11
5382.073338203288
 21
-3710.560572309658
 31
0.0
  0
LINE
  5
D8A5A
330
18
100
AcDbEntity
  8
実線
100
AcDbLine
 10
5382.073338203287
 20
-3708.560572338676
 30
0.0
 11
5381.773336862192
 21
-3708.560572338676
 31
0.0
  0
LINE
  5
D8A5B
330
18
100
AcDbEntity
  8
実線
100
AcDbLine
 10
5382.073338203287
 20
-3701.560572338677
 30
0.0
 11
5381.773336862192
 21
-3701.560572338677
 31
0.0
  0
LINE
  5
D8A5C
330
18
100
AcDbEntity
  8
実線
100
AcDbLine
 10
5381.773336862192
 20
-3708.560572338676
 30
0.0
 11
5381.773336862192
 21
-3701.560572338677
 31
0.0
  0
LINE
  5
D8A5D
330
18
100
AcDbEntity
  8
実線
100
AcDbLine
 10
5474.073340140488
 20
-3711.060573292265
 30
0.0
 11
5474.073340140488
 21
-3551.06056989507
 31
0.0
  0
LINE
  5
D8A5E
330
18
100
AcDbEntity
  8
実線
100
AcDbLine
 10
5474.073340140488
 20
-3689.060578775966
 30
0.0
 11
5480.073340140489
 21
-3689.060573321281
 31
0.0
  0
LINE
  5
D8A5F
330
18
100
AcDbEntity
  8
実線
100
AcDbLine
 10
5483.073336385388
 20
-3687.085571420666
 30
0.0
 11
5483.073336385388
 21
-3688.560578775965
 31
0.0
  0
LINE
  5
D8A60
330
18
100
AcDbEntity
  8
実線
100
AcDbLine
 10
5388.07333686219
 20
-3711.060573292265
 30
0.0
 11
5474.073340140488
 21
-3711.060573292265
 31
0.0
  0
LINE
  5
D8A61
330
18
100
AcDbEntity
  8
中心線
 48
0.5
100
AcDbLine
 10
5475.731387647248
 20
-3696.060577357437
 30
0.0
 11
5458.484655141453
 21
-3696.060577357437
 31
0.0
  0
LINE
  5
D8A62
330
18
100
AcDbEntity
  8
実線
100
AcDbLine
 10
5474.073340140488
 20
-3573.060564411369
 30
0.0
 11
5480.073340140489
 21
-3573.060564411369
 31
0.0
  0
LINE
  5
D8A63
330
18
100
AcDbEntity
  8
実線
100
AcDbLine
 10
5388.07333686219
 20
-3551.060569895069
 30
0.0
 11
5474.073340140488
 21
-3551.060569895066
 31
0.0
  0
LINE
  5
D8A64
330
18
100
AcDbEntity
  8
実線
100
AcDbLine
 10
5378.273339186885
 20
-3684.460572994368
 30
0.0
 11
5378.773339186885
 21
-3684.960572994367
 31
0.0
  0
LINE
  5
D8A65
330
18
100
AcDbEntity
  8
実線
100
AcDbLine
 10
5378.273339186885
 20
-3577.660570192967
 30
0.0
 11
5378.773339186885
 21
-3577.160570192968
 31
0.0
  0
LINE
  5
D8A66
330
18
100
AcDbEntity
  8
実線
100
AcDbLine
 10
5381.073339212985
 20
-3694.860571248018
 30
0.0
 11
5382.073338203287
 21
-3694.860571246819
 31
0.0
  0
LINE
  5
D8A67
330
18
100
AcDbEntity
  8
実線
100
AcDbLine
 10
5381.073339212985
 20
-3567.260571939318
 30
0.0
 11
5382.073338203287
 21
-3567.26057193812
 31
0.0
  0
ARC
  5
D8A68
330
18
100
AcDbEntity
  8
実線
100
AcDbCircle
 10
5380.673339212986
 20
-3685.360572994368
 30
0.0
 40
0.4
100
AcDbArc
 50
0.0
 51
90.0
  0
ARC
  5
D8A69
330
18
100
AcDbEntity
  8
実線
100
AcDbCircle
 10
5380.673339212986
 20
-3576.760570192965
 30
0.0
 40
0.4
100
AcDbArc
 50
270.0
 51
0.0
  0
LINE
  5
D8A6A
330
18
100
AcDbEntity
  8
\U+FF7A\U+FF88\U+FF78\U+FF80
100
AcDbLine
 10
5516.052773838785
 20
-3582.810566469343
 30
0.0
 11
5499.17583638539
 21
-3582.810571593665
 31
0.0
  0
LINE
  5
D8A6B
330
18
100
AcDbEntity
  8
\U+FF7A\U+FF88\U+FF78\U+FF80
100
AcDbLine
 10
5516.052773804351
 20
-3589.310576781116
 30
0.0
 11
5499.17583638539
 21
-3589.310571593665
 31
0.0
  0
LINE
  5
D8A79
330
18
100
AcDbEntity
  8
\U+FF7A\U+FF88\U+FF78\U+FF80
100
AcDbLine
 10
5485.373336385386
 20
-3681.560571593665
 30
0.0
 11
5485.373336385386
 21
-3682.060571593665
 31
0.0
  0
LINE
  5
D8A7A
330
18
100
AcDbEntity
  8
\U+FF7A\U+FF88\U+FF78\U+FF80
100
AcDbLine
 10
5483.873336385386
 20
-3681.560571593665
 30
0.0
 11
5483.873336385386
 21
-3682.060571593665
 31
0.0
  0
LINE
  5
D8A7B
330
18
100
AcDbEntity
  8
\U+FF7A\U+FF88\U+FF78\U+FF80
100
AcDbLine
 10
5485.373336385386
 20
-3682.060571593665
 30
0.0
 11
5483.873336385386
 21
-3682.060571593665
 31
0.0
  0
LINE
  5
D8A7C
330
18
100
AcDbEntity
  8
\U+FF7A\U+FF88\U+FF78\U+FF80
100
AcDbLine
 10
5485.373336385386
 20
-3670.560571593665
 30
0.0
 11
5485.373336385386
 21
-3670.060571593666
 31
0.0
  0
LINE
  5
D8A7D
330
18
100
AcDbEntity
  8
\U+FF7A\U+FF88\U+FF78\U+FF80
100
AcDbLine
 10
5483.873336385386
 20
-3670.560571593665
 30
0.0
 11
5483.873336385386
 21
-3670.060571593666
 31
0.0
  0
LINE
  5
D8A7E
330
18
100
AcDbEntity
  8
\U+FF7A\U+FF88\U+FF78\U+FF80
100
AcDbLine
 10
5485.373336385386
 20
-3670.060571593666
 30
0.0
 11
5483.873336385386
 21
-3670.060571593666
 31
0.0
  0
LINE
  5
D8A7F
330
18
100
AcDbEntity
  8
中心線
 48
0.5
100
AcDbLine
 10
5478.450283351838
 20
-3676.060571593665
 30
0.0
 11
5500.412715849563
 21
-3676.060571593665
 31
0.0
  0
LINE
  5
D8A80
330
18
100
AcDbEntity
  8
\U+FF7A\U+FF88\U+FF78\U+FF80
100
AcDbLine
 10
5495.073336385387
 20
-3670.560571593665
 30
0.0
 11
5496.073336385387
 21
-3670.560571593665
 31
0.0
  0
LINE
  5
D8A81
330
18
100
AcDbEntity
  8
\U+FF7A\U+FF88\U+FF78\U+FF80
100
AcDbLine
 10
5489.575836385386
 20
-3670.560571593665
 30
0.0
 11
5496.073336385387
 21
-3670.560571593665
 31
0.0
  0
ARC
  5
D8A82
330
18
100
AcDbEntity
  8
\U+FF7A\U+FF88\U+FF78\U+FF80
100
AcDbCircle
 10
5492.148234749294
 20
-3673.310571593666
 30
0.0
 40
4.367366609175967
100
AcDbArc
 50
333.9921761143638
 51
26.00782388563611
  0
LINE
  5
D8A83
330
18
100
AcDbEntity
  8
\U+FF7A\U+FF88\U+FF78\U+FF80
100
AcDbLine
 10
5499.175836385387
 20
-3671.960571593663
 30
0.0
 11
5499.175836385387
 21
-3676.060571593665
 31
0.0
  0
LINE
  5
D8A84
330
18
100
AcDbEntity
  8
\U+FF7A\U+FF88\U+FF78\U+FF80
100
AcDbLine
 10
5497.775836385386
 20
-3676.060571593665
 30
0.0
 11
5497.775836385386
 21
-3671.340339622418
 31
0.0
  0
LINE
  5
D8A85
330
18
100
AcDbEntity
  8
\U+FF7A\U+FF88\U+FF78\U+FF80
100
AcDbLine
 10
5498.175836385388
 20
-3676.060571593665
 30
0.0
 11
5498.175836385388
 21
-3671.760571593666
 31
0.0
  0
ARC
  5
D8A86
330
18
100
AcDbEntity
  8
\U+FF7A\U+FF88\U+FF78\U+FF80
100
AcDbCircle
 10
5492.148234749294
 20
-3678.810571593665
 30
0.0
 40
4.367366609175923
100
AcDbArc
 50
333.9921761143638
 51
26.00782388563611
  0
LINE
  5
D8A87
330
18
100
AcDbEntity
  8
\U+FF7A\U+FF88\U+FF78\U+FF80
100
AcDbLine
 10
5498.175836385388
 20
-3680.360571593666
 30
0.0
 11
5498.175836385388
 21
-3676.060571593665
 31
0.0
  0
LINE
  5
D8A88
330
18
100
AcDbEntity
  8
\U+FF7A\U+FF88\U+FF78\U+FF80
100
AcDbLine
 10
5497.775836385386
 20
-3680.78080356491
 30
0.0
 11
5497.775836385386
 21
-3676.060571593665
 31
0.0
  0
LINE
  5
D8A89
330
18
100
AcDbEntity
  8
\U+FF7A\U+FF88\U+FF78\U+FF80
100
AcDbLine
 10
5499.175836385387
 20
-3676.060571593665
 30
0.0
 11
5499.175836385387
 21
-3680.160571593664
 31
0.0
  0
LINE
  5
D8A8A
330
18
100
AcDbEntity
  8
\U+FF7A\U+FF88\U+FF78\U+FF80
100
AcDbLine
 10
5496.073336385387
 20
-3681.560571593665
 30
0.0
 11
5495.073336385387
 21
-3681.560571593665
 31
0.0
  0
LINE
  5
D8A8B
330
18
100
AcDbEntity
  8
\U+FF7A\U+FF88\U+FF78\U+FF80
100
AcDbLine
 10
5498.175836385388
 20
-3680.360571593666
 30
0.0
 11
5499.175836385387
 21
-3680.160571593664
 31
0.0
  0
LINE
  5
D8A8C
330
18
100
AcDbEntity
  8
\U+FF7A\U+FF88\U+FF78\U+FF80
100
AcDbLine
 10
5497.775836385386
 20
-3680.78080356491
 30
0.0
 11
5496.073336385387
 21
-3681.560571593665
 31
0.0
  0
LINE
  5
D8A8D
330
18
100
AcDbEntity
  8
\U+FF7A\U+FF88\U+FF78\U+FF80
100
AcDbLine
 10
5496.073336385387
 20
-3680.725635103125
 30
0.0
 11
5496.073336385387
 21
-3681.560571593665
 31
0.0
  0
LINE
  5
D8A8E
330
18
100
AcDbEntity
  8
\U+FF7A\U+FF88\U+FF78\U+FF80
100
AcDbLine
 10
5497.775836385386
 20
-3680.360571593666
 30
0.0
 11
5498.175836385388
 21
-3680.360571593666
 31
0.0
  0
LINE
  5
D8A8F
330
18
100
AcDbEntity
  8
\U+FF7A\U+FF88\U+FF78\U+FF80
100
AcDbLine
 10
5496.073336385387
 20
-3676.060571593665
 30
0.0
 11
5496.073336385387
 21
-3676.895508084202
 31
0.0
  0
LINE
  5
D8A90
330
18
100
AcDbEntity
  8
\U+FF7A\U+FF88\U+FF78\U+FF80
100
AcDbLine
 10
5496.073336385387
 20
-3675.225635103125
 30
0.0
 11
5496.073336385387
 21
-3676.060571593665
 31
0.0
  0
LINE
  5
D8A91
330
18
100
AcDbEntity
  8
\U+FF7A\U+FF88\U+FF78\U+FF80
100
AcDbLine
 10
5499.175836385387
 20
-3671.960571593663
 30
0.0
 11
5498.175836385388
 21
-3671.760571593666
 31
0.0
  0
LINE
  5
D8A92
330
18
100
AcDbEntity
  8
\U+FF7A\U+FF88\U+FF78\U+FF80
100
AcDbLine
 10
5498.175836385388
 20
-3671.760571593666
 30
0.0
 11
5497.775836385386
 21
-3671.760571593666
 31
0.0
  0
LINE
  5
D8A93
330
18
100
AcDbEntity
  8
\U+FF7A\U+FF88\U+FF78\U+FF80
100
AcDbLine
 10
5489.575836385386
 20
-3680.725635103125
 30
0.0
 11
5496.073336385387
 21
-3680.725635103125
 31
0.0
  0
LINE
  5
D8A94
330
18
100
AcDbEntity
  8
\U+FF7A\U+FF88\U+FF78\U+FF80
100
AcDbLine
 10
5496.073336385387
 20
-3681.560571593665
 30
0.0
 11
5489.575836385386
 21
-3681.560571593665
 31
0.0
  0
LINE
  5
D8A95
330
18
100
AcDbEntity
  8
\U+FF7A\U+FF88\U+FF78\U+FF80
100
AcDbLine
 10
5489.575836385386
 20
-3676.895508084202
 30
0.0
 11
5496.073336385387
 21
-3676.895508084202
 31
0.0
  0
LINE
  5
D8A96
330
18
100
AcDbEntity
  8
\U+FF7A\U+FF88\U+FF78\U+FF80
100
AcDbLine
 10
5496.073336385387
 20
-3675.225635103125
 30
0.0
 11
5489.575836385386
 21
-3675.225635103125
 31
0.0
  0
LINE
  5
D8A97
330
18
100
AcDbEntity
  8
\U+FF7A\U+FF88\U+FF78\U+FF80
100
AcDbLine
 10
5496.073336385387
 20
-3671.395508084202
 30
0.0
 11
5489.575836385386
 21
-3671.395508084202
 31
0.0
  0
LINE
  5
D8A98
330
18
100
AcDbEntity
  8
\U+FF7A\U+FF88\U+FF78\U+FF80
100
AcDbLine
 10
5496.073336385387
 20
-3670.560571593665
 30
0.0
 11
5497.775836385386
 21
-3671.340339622418
 31
0.0
  0
LINE
  5
D8A99
330
18
100
AcDbEntity
  8
\U+FF7A\U+FF88\U+FF78\U+FF80
100
AcDbLine
 10
5485.373336385386
 20
-3670.560571593665
 30
0.0
 11
5483.873336385386
 21
-3670.560571593665
 31
0.0
  0
LINE
  5
D8A9A
330
18
100
AcDbEntity
  8
\U+FF7A\U+FF88\U+FF78\U+FF80
100
AcDbLine
 10
5490.575836385388
 20
-3670.560571593665
 30
0.0
 11
5489.575836385386
 21
-3670.560571593665
 31
0.0
  0
ARC
  5
D8A9B
330
18
100
AcDbEntity
  8
\U+FF7A\U+FF88\U+FF78\U+FF80
100
AcDbCircle
 10
5496.353547097854
 20
-3678.810571593665
 30
0.0
 40
7.043069696315629
100
AcDbArc
 50
164.2221938995667
 51
195.7778061004333
  0
ARC
  5
D8A9C
330
18
100
AcDbEntity
  8
\U+FF7A\U+FF88\U+FF78\U+FF80
100
AcDbCircle
 10
5496.353547097854
 20
-3673.310571593666
 30
0.0
 40
7.043069696315601
100
AcDbArc
 50
164.2221938995667
 51
195.7778061004333
  0
LINE
  5
D8A9D
330
18
100
AcDbEntity
  8
\U+FF7A\U+FF88\U+FF78\U+FF80
100
AcDbLine
 10
5489.575836385386
 20
-3681.560571593665
 30
0.0
 11
5489.275836385386
 21
-3681.260571593667
 31
0.0
  0
ARC
  5
D8A9E
330
18
100
AcDbEntity
  8
\U+FF7A\U+FF88\U+FF78\U+FF80
100
AcDbCircle
 10
5481.448234749301
 20
-3673.310571593666
 30
0.0
 40
4.367366609166622
100
AcDbArc
 50
333.9921761143652
 51
26.00782388563495
  0
LINE
  5
D8A9F
330
18
100
AcDbEntity
  8
\U+FF7A\U+FF88\U+FF78\U+FF80
100
AcDbLine
 10
5488.935836327651
 20
-3681.06861373329
 30
0.0
 11
5488.68583632765
 21
-3671.052529454043
 31
0.0
  0
LINE
  5
D8AA0
330
18
100
AcDbEntity
  8
\U+FF7A\U+FF88\U+FF78\U+FF80
100
AcDbLine
 10
5488.43583632765
 20
-3681.06861373329
 30
0.0
 11
5488.185836327651
 21
-3671.052529454043
 31
0.0
  0
LINE
  5
D8AA1
330
18
100
AcDbEntity
  8
\U+FF7A\U+FF88\U+FF78\U+FF80
100
AcDbLine
 10
5487.93583632765
 20
-3681.06861373329
 30
0.0
 11
5487.68583632765
 21
-3671.052529454043
 31
0.0
  0
LINE
  5
D8AA2
330
18
100
AcDbEntity
  8
\U+FF7A\U+FF88\U+FF78\U+FF80
100
AcDbLine
 10
5487.435836327651
 20
-3681.06861373329
 30
0.0
 11
5487.18583632765
 21
-3671.052529454043
 31
0.0
  0
LINE
  5
D8AA3
330
18
100
AcDbEntity
  8
\U+FF7A\U+FF88\U+FF78\U+FF80
100
AcDbLine
 10
5486.93583632765
 20
-3681.06861373329
 30
0.0
 11
5486.685836327651
 21
-3671.052529454043
 31
0.0
  0
LINE
  5
D8AA4
330
18
100
AcDbEntity
  8
\U+FF7A\U+FF88\U+FF78\U+FF80
100
AcDbLine
 10
5489.275836385386
 20
-3670.860571593665
 30
0.0
 11
5489.275836385386
 21
-3676.060571593665
 31
0.0
  0
LINE
  5
D8AA5
330
18
100
AcDbEntity
  8
\U+FF7A\U+FF88\U+FF78\U+FF80
100
AcDbLine
 10
5483.873336385386
 20
-3675.225635103128
 30
0.0
 11
5483.873336385386
 21
-3671.395508084202
 31
0.0
  0
LINE
  5
D8AA6
330
18
100
AcDbEntity
  8
\U+FF7A\U+FF88\U+FF78\U+FF80
100
AcDbLine
 10
5485.873336385386
 20
-3676.060571593665
 30
0.0
 11
5485.873336385386
 21
-3671.269885076963
 31
0.0
  0
LINE
  5
D8AA7
330
18
100
AcDbEntity
  8
\U+FF7A\U+FF88\U+FF78\U+FF80
100
AcDbLine
 10
5483.573336385386
 20
-3671.258829163158
 30
0.0
 11
5483.573336385386
 21
-3673.948300641609
 31
0.0
  0
LINE
  5
D8AA8
330
18
100
AcDbEntity
  8
\U+FF7A\U+FF88\U+FF78\U+FF80
100
AcDbLine
 10
5489.277466500742
 20
-3674.723631598841
 30
0.0
 11
5489.18583632765
 21
-3671.052529454043
 31
0.0
  0
ARC
  5
D8AA9
330
18
100
AcDbEntity
  8
\U+FF7A\U+FF88\U+FF78\U+FF80
100
AcDbCircle
 10
5481.448234749301
 20
-3678.810571593661
 30
0.0
 40
4.367366609167325
100
AcDbArc
 50
333.9921761143703
 51
26.00782388562971
  0
LINE
  5
D8AAA
330
18
100
AcDbEntity
  8
\U+FF7A\U+FF88\U+FF78\U+FF80
100
AcDbLine
 10
5489.275836385386
 20
-3676.060571593665
 30
0.0
 11
5489.275836385386
 21
-3681.260571593667
 31
0.0
  0
LINE
  5
D8AAB
330
18
100
AcDbEntity
  8
\U+FF7A\U+FF88\U+FF78\U+FF80
100
AcDbLine
 10
5483.573336385386
 20
-3678.172842545722
 30
0.0
 11
5483.573336385386
 21
-3680.86231402417
 31
0.0
  0
LINE
  5
D8AAC
330
18
100
AcDbEntity
  8
\U+FF7A\U+FF88\U+FF78\U+FF80
100
AcDbLine
 10
5485.873336385386
 20
-3680.851258110368
 30
0.0
 11
5485.873336385386
 21
-3676.060571593665
 31
0.0
  0
LINE
  5
D8AAD
330
18
100
AcDbEntity
  8
\U+FF7A\U+FF88\U+FF78\U+FF80
100
AcDbLine
 10
5483.873336385386
 20
-3680.725635103125
 30
0.0
 11
5483.873336385386
 21
-3676.895508084202
 31
0.0
  0
LINE
  5
D8AAE
330
18
100
AcDbEntity
  8
\U+FF7A\U+FF88\U+FF78\U+FF80
100
AcDbLine
 10
5486.068068753891
 20
-3680.779938593663
 30
0.0
 11
5486.748336269917
 21
-3680.779938593663
 31
0.0
  0
LINE
  5
D8AAF
330
18
100
AcDbEntity
  8
\U+FF7A\U+FF88\U+FF78\U+FF80
100
AcDbLine
 10
5483.873336385386
 20
-3680.725635103125
 30
0.0
 11
5485.373336385386
 21
-3680.725635103125
 31
0.0
  0
LINE
  5
D8AB0
330
18
100
AcDbEntity
  8
\U+FF7A\U+FF88\U+FF78\U+FF80
100
AcDbLine
 10
5483.873336385386
 20
-3681.560571593665
 30
0.0
 11
5485.373336385386
 21
-3681.560571593665
 31
0.0
  0
ARC
  5
D8AB1
330
18
100
AcDbEntity
  8
\U+FF7A\U+FF88\U+FF78\U+FF80
100
AcDbCircle
 10
5484.073336385387
 20
-3680.862314024168
 30
0.0
 40
0.5
100
AcDbArc
 50
180.0
 51
246.4218215218271
  0
LINE
  5
D8AB2
330
18
100
AcDbEntity
  8
\U+FF7A\U+FF88\U+FF78\U+FF80
100
AcDbLine
 10
5483.873336385386
 20
-3681.560571593665
 30
0.0
 11
5483.873336385386
 21
-3680.725635103125
 31
0.0
  0
ARC
  5
D8AB3
330
18
100
AcDbEntity
  8
\U+FF7A\U+FF88\U+FF78\U+FF80
100
AcDbCircle
 10
5486.073336385387
 20
-3680.979938593664
 30
0.0
 40
0.2000000000003013
100
AcDbArc
 50
90.0
 51
180.0
  0
LINE
  5
D8AB4
330
18
100
AcDbEntity
  8
\U+FF7A\U+FF88\U+FF78\U+FF80
100
AcDbLine
 10
5485.373336385386
 20
-3680.725635103125
 30
0.0
 11
5485.373336385386
 21
-3681.560571593665
 31
0.0
  0
LINE
  5
D8AB5
330
18
100
AcDbEntity
  8
\U+FF7A\U+FF88\U+FF78\U+FF80
100
AcDbLine
 10
5485.873336385386
 20
-3681.060571593665
 30
0.0
 11
5485.373336385386
 21
-3681.560571593665
 31
0.0
  0
LINE
  5
D8AB6
330
18
100
AcDbEntity
  8
\U+FF7A\U+FF88\U+FF78\U+FF80
100
AcDbLine
 10
5485.873336385386
 20
-3680.850571593666
 30
0.0
 11
5485.873336385386
 21
-3681.060571593665
 31
0.0
  0
ARC
  5
D8AB7
330
18
100
AcDbEntity
  8
\U+FF7A\U+FF88\U+FF78\U+FF80
100
AcDbCircle
 10
5487.93583632765
 20
-3681.032529435171
 30
0.0
 40
0.0360842981133216
100
AcDbArc
 50
210.0000172974907
 51
329.9999827025092
  0
ARC
  5
D8AB8
330
18
100
AcDbEntity
  8
\U+FF7A\U+FF88\U+FF78\U+FF80
100
AcDbCircle
 10
5487.435836327651
 20
-3681.032529435171
 30
0.0
 40
0.0360842981133216
100
AcDbArc
 50
210.0000172974907
 51
329.9999827031346
  0
ARC
  5
D8AB9
330
18
100
AcDbEntity
  8
\U+FF7A\U+FF88\U+FF78\U+FF80
100
AcDbCircle
 10
5486.93583632765
 20
-3681.032529435171
 30
0.0
 40
0.0360842981133216
100
AcDbArc
 50
210.0000172974907
 51
329.9999827031346
  0
LINE
  5
D8ABA
330
18
100
AcDbEntity
  8
\U+FF7A\U+FF88\U+FF78\U+FF80
100
AcDbLine
 10
5487.748336269916
 20
-3680.779938593663
 30
0.0
 11
5487.623336385386
 21
-3680.779938593663
 31
0.0
  0
LINE
  5
D8ABB
330
18
100
AcDbEntity
  8
\U+FF7A\U+FF88\U+FF78\U+FF80
100
AcDbLine
 10
5487.748336269916
 20
-3680.779938593663
 30
0.0
 11
5487.904586414254
 21
-3681.050571593663
 31
0.0
  0
LINE
  5
D8ABC
330
18
100
AcDbEntity
  8
\U+FF7A\U+FF88\U+FF78\U+FF80
100
AcDbLine
 10
5487.748336269916
 20
-3680.779938593663
 30
0.0
 11
5487.623336385386
 21
-3680.779938593663
 31
0.0
  0
LINE
  5
D8ABD
330
18
100
AcDbEntity
  8
\U+FF7A\U+FF88\U+FF78\U+FF80
100
AcDbLine
 10
5487.248336269917
 20
-3680.779938593663
 30
0.0
 11
5487.123336385386
 21
-3680.779938593663
 31
0.0
  0
LINE
  5
D8ABE
330
18
100
AcDbEntity
  8
\U+FF7A\U+FF88\U+FF78\U+FF80
100
AcDbLine
 10
5487.46708624105
 20
-3681.050571593663
 30
0.0
 11
5487.623336385386
 21
-3680.779938593663
 31
0.0
  0
LINE
  5
D8ABF
330
18
100
AcDbEntity
  8
\U+FF7A\U+FF88\U+FF78\U+FF80
100
AcDbLine
 10
5487.248336269917
 20
-3680.779938593663
 30
0.0
 11
5487.404586414253
 21
-3681.050571593663
 31
0.0
  0
LINE
  5
D8AC0
330
18
100
AcDbEntity
  8
\U+FF7A\U+FF88\U+FF78\U+FF80
100
AcDbLine
 10
5487.248336269917
 20
-3680.779938593663
 30
0.0
 11
5487.123336385386
 21
-3680.779938593663
 31
0.0
  0
LINE
  5
D8AC1
330
18
100
AcDbEntity
  8
\U+FF7A\U+FF88\U+FF78\U+FF80
100
AcDbLine
 10
5487.248336269917
 20
-3680.779938593663
 30
0.0
 11
5487.123336385386
 21
-3680.779938593663
 31
0.0
  0
LINE
  5
D8AC2
330
18
100
AcDbEntity
  8
\U+FF7A\U+FF88\U+FF78\U+FF80
100
AcDbLine
 10
5486.967086241049
 20
-3681.050571593663
 30
0.0
 11
5487.123336385386
 21
-3680.779938593663
 31
0.0
  0
LINE
  5
D8AC3
330
18
100
AcDbEntity
  8
\U+FF7A\U+FF88\U+FF78\U+FF80
100
AcDbLine
 10
5486.748336269917
 20
-3680.779938593663
 30
0.0
 11
5486.904586414254
 21
-3681.050571593663
 31
0.0
  0
ARC
  5
D8AC4
330
18
100
AcDbEntity
  8
\U+FF7A\U+FF88\U+FF78\U+FF80
100
AcDbCircle
 10
5488.935836327651
 20
-3681.032529435171
 30
0.0
 40
0.0360842981133216
100
AcDbArc
 50
210.0000172974907
 51
329.9999827025092
  0
ARC
  5
D8AC5
330
18
100
AcDbEntity
  8
\U+FF7A\U+FF88\U+FF78\U+FF80
100
AcDbCircle
 10
5488.43583632765
 20
-3681.032529435171
 30
0.0
 40
0.0360842981133216
100
AcDbArc
 50
210.0000172974907
 51
329.9999827031346
  0
LINE
  5
D8AC6
330
18
100
AcDbEntity
  8
\U+FF7A\U+FF88\U+FF78\U+FF80
100
AcDbLine
 10
5488.967086241047
 20
-3681.050571593663
 30
0.0
 11
5489.123336385386
 21
-3680.779938593663
 31
0.0
  0
LINE
  5
D8AC7
330
18
100
AcDbEntity
  8
\U+FF7A\U+FF88\U+FF78\U+FF80
100
AcDbLine
 10
5489.248336269916
 20
-3680.779938593663
 30
0.0
 11
5489.123336385386
 21
-3680.779938593663
 31
0.0
  0
LINE
  5
D8AC8
330
18
100
AcDbEntity
  8
\U+FF7A\U+FF88\U+FF78\U+FF80
100
AcDbLine
 10
5489.248336269916
 20
-3680.779938593663
 30
0.0
 11
5489.275836385386
 21
-3680.827570157664
 31
0.0
  0
LINE
  5
D8AC9
330
18
100
AcDbEntity
  8
\U+FF7A\U+FF88\U+FF78\U+FF80
100
AcDbLine
 10
5488.967086241047
 20
-3681.050571593663
 30
0.0
 11
5489.123336385386
 21
-3680.779938593663
 31
0.0
  0
LINE
  5
D8ACA
330
18
100
AcDbEntity
  8
\U+FF7A\U+FF88\U+FF78\U+FF80
100
AcDbLine
 10
5488.748336269917
 20
-3680.779938593663
 30
0.0
 11
5488.904586414253
 21
-3681.050571593663
 31
0.0
  0
LINE
  5
D8ACB
330
18
100
AcDbEntity
  8
\U+FF7A\U+FF88\U+FF78\U+FF80
100
AcDbLine
 10
5488.748336269917
 20
-3680.779938593663
 30
0.0
 11
5488.623336385386
 21
-3680.779938593663
 31
0.0
  0
LINE
  5
D8ACC
330
18
100
AcDbEntity
  8
\U+FF7A\U+FF88\U+FF78\U+FF80
100
AcDbLine
 10
5488.248336269917
 20
-3680.779938593663
 30
0.0
 11
5488.123336385386
 21
-3680.779938593663
 31
0.0
  0
LINE
  5
D8ACD
330
18
100
AcDbEntity
  8
\U+FF7A\U+FF88\U+FF78\U+FF80
100
AcDbLine
 10
5488.248336269917
 20
-3680.779938593663
 30
0.0
 11
5488.404586414254
 21
-3681.050571593663
 31
0.0
  0
LINE
  5
D8ACE
330
18
100
AcDbEntity
  8
\U+FF7A\U+FF88\U+FF78\U+FF80
100
AcDbLine
 10
5488.467086241049
 20
-3681.050571593663
 30
0.0
 11
5488.623336385386
 21
-3680.779938593663
 31
0.0
  0
LINE
  5
D8ACF
330
18
100
AcDbEntity
  8
\U+FF7A\U+FF88\U+FF78\U+FF80
100
AcDbLine
 10
5487.967086241048
 20
-3681.050571593663
 30
0.0
 11
5488.123336385386
 21
-3680.779938593663
 31
0.0
  0
LINE
  5
D8AD0
330
18
100
AcDbEntity
  8
\U+FF7A\U+FF88\U+FF78\U+FF80
100
AcDbLine
 10
5483.573336385386
 20
-3676.060571593665
 30
0.0
 11
5483.573336385386
 21
-3678.172842545722
 31
0.0
  0
LINE
  5
D8AD1
330
18
100
AcDbEntity
  8
\U+FF7A\U+FF88\U+FF78\U+FF80
100
AcDbLine
 10
5485.373336385386
 20
-3676.895508084202
 30
0.0
 11
5485.373336385386
 21
-3676.060571593665
 31
0.0
  0
LINE
  5
D8AD2
330
18
100
AcDbEntity
  8
\U+FF7A\U+FF88\U+FF78\U+FF80
100
AcDbLine
 10
5483.873336385386
 20
-3676.895508084202
 30
0.0
 11
5483.873336385386
 21
-3676.060571593665
 31
0.0
  0
LINE
  5
D8AD3
330
18
100
AcDbEntity
  8
\U+FF7A\U+FF88\U+FF78\U+FF80
100
AcDbLine
 10
5483.873336385386
 20
-3676.895508084202
 30
0.0
 11
5485.373336385386
 21
-3676.895508084202
 31
0.0
  0
LINE
  5
D8AD4
330
18
100
AcDbEntity
  8
\U+FF7A\U+FF88\U+FF78\U+FF80
100
AcDbLine
 10
5483.573336385386
 20
-3673.948300641609
 30
0.0
 11
5483.573336385386
 21
-3676.060571593665
 31
0.0
  0
LINE
  5
D8AD5
330
18
100
AcDbEntity
  8
\U+FF7A\U+FF88\U+FF78\U+FF80
100
AcDbLine
 10
5485.373336385386
 20
-3675.225635103125
 30
0.0
 11
5483.873336385386
 21
-3675.225635103128
 31
0.0
  0
LINE
  5
D8AD6
330
18
100
AcDbEntity
  8
\U+FF7A\U+FF88\U+FF78\U+FF80
100
AcDbLine
 10
5483.873336385386
 20
-3676.060571593665
 30
0.0
 11
5483.873336385386
 21
-3675.225635103128
 31
0.0
  0
LINE
  5
D8AD7
330
18
100
AcDbEntity
  8
\U+FF7A\U+FF88\U+FF78\U+FF80
100
AcDbLine
 10
5485.373336385386
 20
-3676.060571593665
 30
0.0
 11
5485.373336385386
 21
-3675.225635103125
 31
0.0
  0
LINE
  5
D8AD8
330
18
100
AcDbEntity
  8
\U+FF7A\U+FF88\U+FF78\U+FF80
100
AcDbLine
 10
5486.498336269917
 20
-3671.341204593665
 30
0.0
 11
5486.073336385387
 21
-3671.341204593665
 31
0.0
  0
LINE
  5
D8AD9
330
18
100
AcDbEntity
  8
\U+FF7A\U+FF88\U+FF78\U+FF80
100
AcDbLine
 10
5485.373336385386
 20
-3671.395508084202
 30
0.0
 11
5483.873336385386
 21
-3671.395508084202
 31
0.0
  0
ARC
  5
D8ADA
330
18
100
AcDbEntity
  8
\U+FF7A\U+FF88\U+FF78\U+FF80
100
AcDbCircle
 10
5484.073336385387
 20
-3671.258829163158
 30
0.0
 40
0.5000000000001075
100
AcDbArc
 50
113.5781784781728
 51
180.0
  0
ARC
  5
D8ADB
330
18
100
AcDbEntity
  8
\U+FF7A\U+FF88\U+FF78\U+FF80
100
AcDbCircle
 10
5486.073336385387
 20
-3671.141204593663
 30
0.0
 40
0.2000000000000028
100
AcDbArc
 50
180.0
 51
270.0
  0
LINE
  5
D8ADC
330
18
100
AcDbEntity
  8
\U+FF7A\U+FF88\U+FF78\U+FF80
100
AcDbLine
 10
5485.873336385386
 20
-3671.060571593665
 30
0.0
 11
5485.873336385386
 21
-3671.270571593665
 31
0.0
  0
LINE
  5
D8ADD
330
18
100
AcDbEntity
  8
\U+FF7A\U+FF88\U+FF78\U+FF80
100
AcDbLine
 10
5487.873336385386
 20
-3671.341204593665
 30
0.0
 11
5487.998336269917
 21
-3671.341204593665
 31
0.0
  0
ARC
  5
D8ADE
330
18
100
AcDbEntity
  8
\U+FF7A\U+FF88\U+FF78\U+FF80
100
AcDbCircle
 10
5486.685836327651
 20
-3671.088613752156
 30
0.0
 40
0.0360842981141831
100
AcDbArc
 50
30.00001729676869
 51
149.999982702606
  0
ARC
  5
D8ADF
330
18
100
AcDbEntity
  8
\U+FF7A\U+FF88\U+FF78\U+FF80
100
AcDbCircle
 10
5487.18583632765
 20
-3671.088613752156
 30
0.0
 40
0.0360842981141831
100
AcDbArc
 50
30.00001729676869
 51
149.999982702606
  0
ARC
  5
D8AE0
330
18
100
AcDbEntity
  8
\U+FF7A\U+FF88\U+FF78\U+FF80
100
AcDbCircle
 10
5487.68583632765
 20
-3671.088613752156
 30
0.0
 40
0.0360842981141831
100
AcDbArc
 50
30.00001729676869
 51
149.999982702606
  0
LINE
  5
D8AE1
330
18
100
AcDbEntity
  8
\U+FF7A\U+FF88\U+FF78\U+FF80
100
AcDbLine
 10
5486.654586414253
 20
-3671.070571593664
 30
0.0
 11
5486.498336269917
 21
-3671.341204593665
 31
0.0
  0
LINE
  5
D8AE2
330
18
100
AcDbEntity
  8
\U+FF7A\U+FF88\U+FF78\U+FF80
100
AcDbLine
 10
5486.873336385386
 20
-3671.341204593665
 30
0.0
 11
5486.71708624105
 21
-3671.070571593664
 31
0.0
  0
LINE
  5
D8AE3
330
18
100
AcDbEntity
  8
\U+FF7A\U+FF88\U+FF78\U+FF80
100
AcDbLine
 10
5486.873336385386
 20
-3671.341204593665
 30
0.0
 11
5486.998336269916
 21
-3671.341204593665
 31
0.0
  0
LINE
  5
D8AE4
330
18
100
AcDbEntity
  8
\U+FF7A\U+FF88\U+FF78\U+FF80
100
AcDbLine
 10
5486.873336385386
 20
-3671.341204593665
 30
0.0
 11
5486.998336269916
 21
-3671.341204593665
 31
0.0
  0
LINE
  5
D8AE5
330
18
100
AcDbEntity
  8
\U+FF7A\U+FF88\U+FF78\U+FF80
100
AcDbLine
 10
5487.154586414254
 20
-3671.070571593664
 30
0.0
 11
5486.998336269916
 21
-3671.341204593665
 31
0.0
  0
LINE
  5
D8AE6
330
18
100
AcDbEntity
  8
\U+FF7A\U+FF88\U+FF78\U+FF80
100
AcDbLine
 10
5487.373336385386
 20
-3671.341204593665
 30
0.0
 11
5487.217086241049
 21
-3671.070571593664
 31
0.0
  0
LINE
  5
D8AE7
330
18
100
AcDbEntity
  8
\U+FF7A\U+FF88\U+FF78\U+FF80
100
AcDbLine
 10
5486.873336385386
 20
-3671.341204593665
 30
0.0
 11
5486.998336269916
 21
-3671.341204593665
 31
0.0
  0
LINE
  5
D8AE8
330
18
100
AcDbEntity
  8
\U+FF7A\U+FF88\U+FF78\U+FF80
100
AcDbLine
 10
5487.373336385386
 20
-3671.341204593665
 30
0.0
 11
5487.498336269917
 21
-3671.341204593665
 31
0.0
  0
LINE
  5
D8AE9
330
18
100
AcDbEntity
  8
\U+FF7A\U+FF88\U+FF78\U+FF80
100
AcDbLine
 10
5487.654586414254
 20
-3671.070571593664
 30
0.0
 11
5487.498336269917
 21
-3671.341204593665
 31
0.0
  0
LINE
  5
D8AEA
330
18
100
AcDbEntity
  8
\U+FF7A\U+FF88\U+FF78\U+FF80
100
AcDbLine
 10
5487.873336385386
 20
-3671.341204593665
 30
0.0
 11
5487.717086241049
 21
-3671.070571593664
 31
0.0
  0
LINE
  5
D8AEB
330
18
100
AcDbEntity
  8
\U+FF7A\U+FF88\U+FF78\U+FF80
100
AcDbLine
 10
5487.373336385386
 20
-3671.341204593665
 30
0.0
 11
5487.498336269917
 21
-3671.341204593665
 31
0.0
  0
ARC
  5
D8AEC
330
18
100
AcDbEntity
  8
\U+FF7A\U+FF88\U+FF78\U+FF80
100
AcDbCircle
 10
5488.185836327651
 20
-3671.088613752156
 30
0.0
 40
0.0360842981141831
100
AcDbArc
 50
30.00001729676869
 51
149.999982702606
  0
ARC
  5
D8AED
330
18
100
AcDbEntity
  8
\U+FF7A\U+FF88\U+FF78\U+FF80
100
AcDbCircle
 10
5488.68583632765
 20
-3671.088613752156
 30
0.0
 40
0.0360842981141831
100
AcDbArc
 50
30.00001729676869
 51
149.999982702606
  0
ARC
  5
D8AEE
330
18
100
AcDbEntity
  8
\U+FF7A\U+FF88\U+FF78\U+FF80
100
AcDbCircle
 10
5489.18583632765
 20
-3671.088613752156
 30
0.0
 40
0.0360842981133093
100
AcDbArc
 50
30.00001729749075
 51
149.9999827025092
  0
LINE
  5
D8AEF
330
18
100
AcDbEntity
  8
\U+FF7A\U+FF88\U+FF78\U+FF80
100
AcDbLine
 10
5488.154586414253
 20
-3671.070571593664
 30
0.0
 11
5487.998336269917
 21
-3671.341204593665
 31
0.0
  0
LINE
  5
D8AF0
330
18
100
AcDbEntity
  8
\U+FF7A\U+FF88\U+FF78\U+FF80
100
AcDbLine
 10
5488.373336385386
 20
-3671.341204593665
 30
0.0
 11
5488.21708624105
 21
-3671.070571593664
 31
0.0
  0
LINE
  5
D8AF1
330
18
100
AcDbEntity
  8
\U+FF7A\U+FF88\U+FF78\U+FF80
100
AcDbLine
 10
5488.654586414253
 20
-3671.070571593664
 30
0.0
 11
5488.498336269916
 21
-3671.341204593665
 31
0.0
  0
LINE
  5
D8AF2
330
18
100
AcDbEntity
  8
\U+FF7A\U+FF88\U+FF78\U+FF80
100
AcDbLine
 10
5488.873336385386
 20
-3671.341204593665
 30
0.0
 11
5488.717086241049
 21
-3671.070571593664
 31
0.0
  0
LINE
  5
D8AF3
330
18
100
AcDbEntity
  8
\U+FF7A\U+FF88\U+FF78\U+FF80
100
AcDbLine
 10
5488.373336385386
 20
-3671.341204593665
 30
0.0
 11
5488.498336269916
 21
-3671.341204593665
 31
0.0
  0
LINE
  5
D8AF4
330
18
100
AcDbEntity
  8
\U+FF7A\U+FF88\U+FF78\U+FF80
100
AcDbLine
 10
5489.154586414254
 20
-3671.070571593664
 30
0.0
 11
5488.998336269917
 21
-3671.341204593665
 31
0.0
  0
LINE
  5
D8AF5
330
18
100
AcDbEntity
  8
\U+FF7A\U+FF88\U+FF78\U+FF80
100
AcDbLine
 10
5488.873336385386
 20
-3671.341204593665
 30
0.0
 11
5488.998336269917
 21
-3671.341204593665
 31
0.0
  0
LINE
  5
D8AF6
330
18
100
AcDbEntity
  8
\U+FF7A\U+FF88\U+FF78\U+FF80
100
AcDbLine
 10
5489.275836385386
 20
-3671.172329757665
 30
0.0
 11
5489.217086241048
 21
-3671.070571593664
 31
0.0
  0
LINE
  5
D8AF7
330
18
100
AcDbEntity
  8
\U+FF7A\U+FF88\U+FF78\U+FF80
100
AcDbLine
 10
5489.575836385386
 20
-3681.560571593665
 30
0.0
 11
5490.575836385388
 21
-3681.560571593665
 31
0.0
  0
LINE
  5
D8AF8
330
18
100
AcDbEntity
  8
\U+FF7A\U+FF88\U+FF78\U+FF80
100
AcDbLine
 10
5489.575836385386
 20
-3680.725635103125
 30
0.0
 11
5489.575836385386
 21
-3681.560571593665
 31
0.0
  0
LINE
  5
D8AF9
330
18
100
AcDbEntity
  8
\U+FF7A\U+FF88\U+FF78\U+FF80
100
AcDbLine
 10
5489.575836385386
 20
-3676.060571593665
 30
0.0
 11
5489.575836385386
 21
-3676.895508084202
 31
0.0
  0
LINE
  5
D8AFA
330
18
100
AcDbEntity
  8
\U+FF7A\U+FF88\U+FF78\U+FF80
100
AcDbLine
 10
5489.575836385386
 20
-3675.225635103125
 30
0.0
 11
5489.575836385386
 21
-3676.060571593665
 31
0.0
  0
LINE
  5
D8AFB
330
18
100
AcDbEntity
  8
\U+FF7A\U+FF88\U+FF78\U+FF80
100
AcDbLine
 10
5496.073336385387
 20
-3670.560571593665
 30
0.0
 11
5496.073336385387
 21
-3671.395508084202
 31
0.0
  0
LINE
  5
D8AFC
330
18
100
AcDbEntity
  8
\U+FF7A\U+FF88\U+FF78\U+FF80
100
AcDbLine
 10
5489.275836385386
 20
-3670.860571593665
 30
0.0
 11
5489.575836385386
 21
-3670.560571593665
 31
0.0
  0
LINE
  5
D8AFD
330
18
100
AcDbEntity
  8
\U+FF7A\U+FF88\U+FF78\U+FF80
100
AcDbLine
 10
5483.873336385386
 20
-3671.395508084202
 30
0.0
 11
5483.873336385386
 21
-3670.560571593665
 31
0.0
  0
LINE
  5
D8AFE
330
18
100
AcDbEntity
  8
\U+FF7A\U+FF88\U+FF78\U+FF80
100
AcDbLine
 10
5485.373336385386
 20
-3670.560571593665
 30
0.0
 11
5485.873336385386
 21
-3671.060571593665
 31
0.0
  0
LINE
  5
D8AFF
330
18
100
AcDbEntity
  8
\U+FF7A\U+FF88\U+FF78\U+FF80
100
AcDbLine
 10
5485.373336385386
 20
-3670.560571593665
 30
0.0
 11
5485.373336385386
 21
-3671.395508084202
 31
0.0
  0
LINE
  5
D8B00
330
18
100
AcDbEntity
  8
\U+FF7A\U+FF88\U+FF78\U+FF80
100
AcDbLine
 10
5489.575836385386
 20
-3670.560571593665
 30
0.0
 11
5489.575836385386
 21
-3671.395508084202
 31
0.0
  0
LINE
  5
D8B01
330
18
100
AcDbEntity
  8
\U+FF7A\U+FF88\U+FF78\U+FF80
100
AcDbLine
 10
5489.575836385387
 20
-3580.560571593665
 30
0.0
 11
5489.575836385387
 21
-3581.395508084202
 31
0.0
  0
LINE
  5
D8B02
330
18
100
AcDbEntity
  8
\U+FF7A\U+FF88\U+FF78\U+FF80
100
AcDbLine
 10
5485.373336385388
 20
-3580.560571593665
 30
0.0
 11
5485.373336385388
 21
-3581.395508084202
 31
0.0
  0
LINE
  5
D8B03
330
18
100
AcDbEntity
  8
\U+FF7A\U+FF88\U+FF78\U+FF80
100
AcDbLine
 10
5485.373336385388
 20
-3580.560571593665
 30
0.0
 11
5485.873336385388
 21
-3581.060571593666
 31
0.0
  0
LINE
  5
D8B04
330
18
100
AcDbEntity
  8
\U+FF7A\U+FF88\U+FF78\U+FF80
100
AcDbLine
 10
5483.873336385388
 20
-3581.395508084202
 30
0.0
 11
5483.873336385388
 21
-3580.560571593665
 31
0.0
  0
LINE
  5
D8B05
330
18
100
AcDbEntity
  8
\U+FF7A\U+FF88\U+FF78\U+FF80
100
AcDbLine
 10
5489.275836385388
 20
-3580.860571593665
 30
0.0
 11
5489.575836385387
 21
-3580.560571593665
 31
0.0
  0
LINE
  5
D8B06
330
18
100
AcDbEntity
  8
\U+FF7A\U+FF88\U+FF78\U+FF80
100
AcDbLine
 10
5496.073336385389
 20
-3580.560571593665
 30
0.0
 11
5496.073336385389
 21
-3581.395508084202
 31
0.0
  0
LINE
  5
D8B07
330
18
100
AcDbEntity
  8
\U+FF7A\U+FF88\U+FF78\U+FF80
100
AcDbLine
 10
5489.575836385387
 20
-3585.225635103125
 30
0.0
 11
5489.575836385387
 21
-3586.060571593665
 31
0.0
  0
LINE
  5
D8B08
330
18
100
AcDbEntity
  8
\U+FF7A\U+FF88\U+FF78\U+FF80
100
AcDbLine
 10
5489.575836385387
 20
-3586.060571593665
 30
0.0
 11
5489.575836385387
 21
-3586.895508084202
 31
0.0
  0
LINE
  5
D8B09
330
18
100
AcDbEntity
  8
\U+FF7A\U+FF88\U+FF78\U+FF80
100
AcDbLine
 10
5489.575836385387
 20
-3590.725635103125
 30
0.0
 11
5489.575836385387
 21
-3591.560571593665
 31
0.0
  0
LINE
  5
D8B0A
330
18
100
AcDbEntity
  8
\U+FF7A\U+FF88\U+FF78\U+FF80
100
AcDbLine
 10
5489.575836385387
 20
-3591.560571593665
 30
0.0
 11
5490.575836385389
 21
-3591.560571593665
 31
0.0
  0
LINE
  5
D8B0B
330
18
100
AcDbEntity
  8
\U+FF7A\U+FF88\U+FF78\U+FF80
100
AcDbLine
 10
5489.275836385388
 20
-3581.172329757665
 30
0.0
 11
5489.217086241049
 21
-3581.070571593664
 31
0.0
  0
LINE
  5
D8B0C
330
18
100
AcDbEntity
  8
\U+FF7A\U+FF88\U+FF78\U+FF80
100
AcDbLine
 10
5488.873336385388
 20
-3581.341204593664
 30
0.0
 11
5488.998336269919
 21
-3581.341204593664
 31
0.0
  0
LINE
  5
D8B0D
330
18
100
AcDbEntity
  8
\U+FF7A\U+FF88\U+FF78\U+FF80
100
AcDbLine
 10
5489.154586414255
 20
-3581.070571593664
 30
0.0
 11
5488.998336269919
 21
-3581.341204593664
 31
0.0
  0
LINE
  5
D8B0E
330
18
100
AcDbEntity
  8
\U+FF7A\U+FF88\U+FF78\U+FF80
100
AcDbLine
 10
5488.373336385388
 20
-3581.341204593664
 30
0.0
 11
5488.498336269919
 21
-3581.341204593664
 31
0.0
  0
LINE
  5
D8B0F
330
18
100
AcDbEntity
  8
\U+FF7A\U+FF88\U+FF78\U+FF80
100
AcDbLine
 10
5488.873336385388
 20
-3581.341204593664
 30
0.0
 11
5488.717086241051
 21
-3581.070571593664
 31
0.0
  0
LINE
  5
D8B10
330
18
100
AcDbEntity
  8
\U+FF7A\U+FF88\U+FF78\U+FF80
100
AcDbLine
 10
5488.654586414256
 20
-3581.070571593664
 30
0.0
 11
5488.498336269919
 21
-3581.341204593664
 31
0.0
  0
LINE
  5
D8B11
330
18
100
AcDbEntity
  8
\U+FF7A\U+FF88\U+FF78\U+FF80
100
AcDbLine
 10
5488.373336385388
 20
-3581.341204593664
 30
0.0
 11
5488.217086241051
 21
-3581.070571593664
 31
0.0
  0
LINE
  5
D8B12
330
18
100
AcDbEntity
  8
\U+FF7A\U+FF88\U+FF78\U+FF80
100
AcDbLine
 10
5488.154586414255
 20
-3581.070571593664
 30
0.0
 11
5487.998336269918
 21
-3581.341204593664
 31
0.0
  0
ARC
  5
D8B13
330
18
100
AcDbEntity
  8
\U+FF7A\U+FF88\U+FF78\U+FF80
100
AcDbCircle
 10
5489.185836327653
 20
-3581.088613752155
 30
0.0
 40
0.0360842981133093
100
AcDbArc
 50
30.00001729749075
 51
149.9999827025092
  0
ARC
  5
D8B14
330
18
100
AcDbEntity
  8
\U+FF7A\U+FF88\U+FF78\U+FF80
100
AcDbCircle
 10
5488.685836327653
 20
-3581.088613752155
 30
0.0
 40
0.0360842981141831
100
AcDbArc
 50
30.00001729676869
 51
149.999982702606
  0
ARC
  5
D8B15
330
18
100
AcDbEntity
  8
\U+FF7A\U+FF88\U+FF78\U+FF80
100
AcDbCircle
 10
5488.185836327653
 20
-3581.088613752155
 30
0.0
 40
0.0360842981141831
100
AcDbArc
 50
30.00001729676869
 51
149.999982702606
  0
LINE
  5
D8B16
330
18
100
AcDbEntity
  8
\U+FF7A\U+FF88\U+FF78\U+FF80
100
AcDbLine
 10
5487.373336385388
 20
-3581.341204593664
 30
0.0
 11
5487.498336269919
 21
-3581.341204593664
 31
0.0
  0
LINE
  5
D8B17
330
18
100
AcDbEntity
  8
\U+FF7A\U+FF88\U+FF78\U+FF80
100
AcDbLine
 10
5487.873336385388
 20
-3581.341204593664
 30
0.0
 11
5487.717086241051
 21
-3581.070571593664
 31
0.0
  0
LINE
  5
D8B18
330
18
100
AcDbEntity
  8
\U+FF7A\U+FF88\U+FF78\U+FF80
100
AcDbLine
 10
5487.654586414255
 20
-3581.070571593664
 30
0.0
 11
5487.498336269919
 21
-3581.341204593664
 31
0.0
  0
LINE
  5
D8B19
330
18
100
AcDbEntity
  8
\U+FF7A\U+FF88\U+FF78\U+FF80
100
AcDbLine
 10
5487.373336385388
 20
-3581.341204593664
 30
0.0
 11
5487.498336269919
 21
-3581.341204593664
 31
0.0
  0
LINE
  5
D8B1A
330
18
100
AcDbEntity
  8
\U+FF7A\U+FF88\U+FF78\U+FF80
100
AcDbLine
 10
5486.873336385388
 20
-3581.341204593664
 30
0.0
 11
5486.998336269919
 21
-3581.341204593664
 31
0.0
  0
LINE
  5
D8B1B
330
18
100
AcDbEntity
  8
\U+FF7A\U+FF88\U+FF78\U+FF80
100
AcDbLine
 10
5487.373336385388
 20
-3581.341204593664
 30
0.0
 11
5487.217086241051
 21
-3581.070571593664
 31
0.0
  0
LINE
  5
D8B1C
330
18
100
AcDbEntity
  8
\U+FF7A\U+FF88\U+FF78\U+FF80
100
AcDbLine
 10
5487.154586414256
 20
-3581.070571593664
 30
0.0
 11
5486.998336269919
 21
-3581.341204593664
 31
0.0
  0
LINE
  5
D8B1D
330
18
100
AcDbEntity
  8
\U+FF7A\U+FF88\U+FF78\U+FF80
100
AcDbLine
 10
5486.873336385388
 20
-3581.341204593664
 30
0.0
 11
5486.998336269919
 21
-3581.341204593664
 31
0.0
  0
LINE
  5
D8B1E
330
18
100
AcDbEntity
  8
\U+FF7A\U+FF88\U+FF78\U+FF80
100
AcDbLine
 10
5486.873336385388
 20
-3581.341204593664
 30
0.0
 11
5486.998336269919
 21
-3581.341204593664
 31
0.0
  0
LINE
  5
D8B1F
330
18
100
AcDbEntity
  8
\U+FF7A\U+FF88\U+FF78\U+FF80
100
AcDbLine
 10
5486.873336385388
 20
-3581.341204593664
 30
0.0
 11
5486.717086241051
 21
-3581.070571593664
 31
0.0
  0
LINE
  5
D8B20
330
18
100
AcDbEntity
  8
\U+FF7A\U+FF88\U+FF78\U+FF80
100
AcDbLine
 10
5486.654586414255
 20
-3581.070571593664
 30
0.0
 11
5486.498336269918
 21
-3581.341204593664
 31
0.0
  0
ARC
  5
D8B21
330
18
100
AcDbEntity
  8
\U+FF7A\U+FF88\U+FF78\U+FF80
100
AcDbCircle
 10
5487.685836327653
 20
-3581.088613752155
 30
0.0
 40
0.0360842981141831
100
AcDbArc
 50
30.00001729676869
 51
149.999982702606
  0
ARC
  5
D8B22
330
18
100
AcDbEntity
  8
\U+FF7A\U+FF88\U+FF78\U+FF80
100
AcDbCircle
 10
5487.185836327654
 20
-3581.088613752155
 30
0.0
 40
0.0360842981141831
100
AcDbArc
 50
30.00001729676869
 51
149.999982702606
  0
ARC
  5
D8B23
330
18
100
AcDbEntity
  8
\U+FF7A\U+FF88\U+FF78\U+FF80
100
AcDbCircle
 10
5486.685836327653
 20
-3581.088613752155
 30
0.0
 40
0.0360842981141831
100
AcDbArc
 50
30.00001729676869
 51
149.999982702606
  0
LINE
  5
D8B24
330
18
100
AcDbEntity
  8
\U+FF7A\U+FF88\U+FF78\U+FF80
100
AcDbLine
 10
5487.873336385388
 20
-3581.341204593664
 30
0.0
 11
5487.998336269918
 21
-3581.341204593664
 31
0.0
  0
LINE
  5
D8B25
330
18
100
AcDbEntity
  8
\U+FF7A\U+FF88\U+FF78\U+FF80
100
AcDbLine
 10
5485.873336385388
 20
-3581.060571593666
 30
0.0
 11
5485.873336385388
 21
-3581.270571593665
 31
0.0
  0
ARC
  5
D8B26
330
18
100
AcDbEntity
  8
\U+FF7A\U+FF88\U+FF78\U+FF80
100
AcDbCircle
 10
5486.073336385389
 20
-3581.141204593663
 30
0.0
 40
0.2000000000000028
100
AcDbArc
 50
180.0
 51
270.0
  0
ARC
  5
D8B27
330
18
100
AcDbEntity
  8
\U+FF7A\U+FF88\U+FF78\U+FF80
100
AcDbCircle
 10
5484.073336385389
 20
-3581.258829163159
 30
0.0
 40
0.5000000000001075
100
AcDbArc
 50
113.5781784781728
 51
180.0
  0
LINE
  5
D8B28
330
18
100
AcDbEntity
  8
\U+FF7A\U+FF88\U+FF78\U+FF80
100
AcDbLine
 10
5485.373336385388
 20
-3581.395508084202
 30
0.0
 11
5483.873336385388
 21
-3581.395508084202
 31
0.0
  0
LINE
  5
D8B29
330
18
100
AcDbEntity
  8
\U+FF7A\U+FF88\U+FF78\U+FF80
100
AcDbLine
 10
5486.498336269918
 20
-3581.341204593664
 30
0.0
 11
5486.073336385389
 21
-3581.341204593664
 31
0.0
  0
LINE
  5
D8B2A
330
18
100
AcDbEntity
  8
\U+FF7A\U+FF88\U+FF78\U+FF80
100
AcDbLine
 10
5485.373336385388
 20
-3586.060571593665
 30
0.0
 11
5485.373336385388
 21
-3585.225635103125
 31
0.0
  0
LINE
  5
D8B2B
330
18
100
AcDbEntity
  8
\U+FF7A\U+FF88\U+FF78\U+FF80
100
AcDbLine
 10
5483.873336385388
 20
-3586.060571593665
 30
0.0
 11
5483.873336385388
 21
-3585.225635103128
 31
0.0
  0
LINE
  5
D8B2C
330
18
100
AcDbEntity
  8
\U+FF7A\U+FF88\U+FF78\U+FF80
100
AcDbLine
 10
5485.373336385388
 20
-3585.225635103125
 30
0.0
 11
5483.873336385388
 21
-3585.225635103128
 31
0.0
  0
LINE
  5
D8B2D
330
18
100
AcDbEntity
  8
\U+FF7A\U+FF88\U+FF78\U+FF80
100
AcDbLine
 10
5483.573336385389
 20
-3583.948300641609
 30
0.0
 11
5483.573336385389
 21
-3586.060571593665
 31
0.0
  0
LINE
  5
D8B2E
330
18
100
AcDbEntity
  8
\U+FF7A\U+FF88\U+FF78\U+FF80
100
AcDbLine
 10
5483.873336385388
 20
-3586.895508084202
 30
0.0
 11
5485.373336385388
 21
-3586.895508084202
 31
0.0
  0
LINE
  5
D8B2F
330
18
100
AcDbEntity
  8
\U+FF7A\U+FF88\U+FF78\U+FF80
100
AcDbLine
 10
5483.873336385388
 20
-3586.895508084202
 30
0.0
 11
5483.873336385388
 21
-3586.060571593665
 31
0.0
  0
LINE
  5
D8B30
330
18
100
AcDbEntity
  8
\U+FF7A\U+FF88\U+FF78\U+FF80
100
AcDbLine
 10
5485.373336385388
 20
-3586.895508084202
 30
0.0
 11
5485.373336385388
 21
-3586.060571593665
 31
0.0
  0
LINE
  5
D8B31
330
18
100
AcDbEntity
  8
\U+FF7A\U+FF88\U+FF78\U+FF80
100
AcDbLine
 10
5483.573336385389
 20
-3586.060571593665
 30
0.0
 11
5483.573336385389
 21
-3588.172842545722
 31
0.0
  0
LINE
  5
D8B32
330
18
100
AcDbEntity
  8
\U+FF7A\U+FF88\U+FF78\U+FF80
100
AcDbLine
 10
5487.967086241049
 20
-3591.050571593663
 30
0.0
 11
5488.123336385388
 21
-3590.779938593663
 31
0.0
  0
LINE
  5
D8B33
330
18
100
AcDbEntity
  8
\U+FF7A\U+FF88\U+FF78\U+FF80
100
AcDbLine
 10
5488.467086241051
 20
-3591.050571593663
 30
0.0
 11
5488.623336385388
 21
-3590.779938593663
 31
0.0
  0
LINE
  5
D8B34
330
18
100
AcDbEntity
  8
\U+FF7A\U+FF88\U+FF78\U+FF80
100
AcDbLine
 10
5488.248336269919
 20
-3590.779938593663
 30
0.0
 11
5488.404586414255
 21
-3591.050571593663
 31
0.0
  0
LINE
  5
D8B35
330
18
100
AcDbEntity
  8
\U+FF7A\U+FF88\U+FF78\U+FF80
100
AcDbLine
 10
5488.248336269919
 20
-3590.779938593663
 30
0.0
 11
5488.123336385388
 21
-3590.779938593663
 31
0.0
  0
LINE
  5
D8B36
330
18
100
AcDbEntity
  8
\U+FF7A\U+FF88\U+FF78\U+FF80
100
AcDbLine
 10
5488.748336269918
 20
-3590.779938593663
 30
0.0
 11
5488.623336385388
 21
-3590.779938593663
 31
0.0
  0
LINE
  5
D8B37
330
18
100
AcDbEntity
  8
\U+FF7A\U+FF88\U+FF78\U+FF80
100
AcDbLine
 10
5488.748336269918
 20
-3590.779938593663
 30
0.0
 11
5488.904586414255
 21
-3591.050571593663
 31
0.0
  0
LINE
  5
D8B38
330
18
100
AcDbEntity
  8
\U+FF7A\U+FF88\U+FF78\U+FF80
100
AcDbLine
 10
5488.96708624105
 20
-3591.050571593663
 30
0.0
 11
5489.123336385388
 21
-3590.779938593663
 31
0.0
  0
LINE
  5
D8B39
330
18
100
AcDbEntity
  8
\U+FF7A\U+FF88\U+FF78\U+FF80
100
AcDbLine
 10
5489.248336269919
 20
-3590.779938593663
 30
0.0
 11
5489.275836385388
 21
-3590.827570157664
 31
0.0
  0
LINE
  5
D8B3A
330
18
100
AcDbEntity
  8
\U+FF7A\U+FF88\U+FF78\U+FF80
100
AcDbLine
 10
5489.248336269919
 20
-3590.779938593663
 30
0.0
 11
5489.123336385388
 21
-3590.779938593663
 31
0.0
  0
LINE
  5
D8B3B
330
18
100
AcDbEntity
  8
\U+FF7A\U+FF88\U+FF78\U+FF80
100
AcDbLine
 10
5488.96708624105
 20
-3591.050571593663
 30
0.0
 11
5489.123336385388
 21
-3590.779938593663
 31
0.0
  0
ARC
  5
D8B3C
330
18
100
AcDbEntity
  8
\U+FF7A\U+FF88\U+FF78\U+FF80
100
AcDbCircle
 10
5488.435836327653
 20
-3591.032529435171
 30
0.0
 40
0.0360842981133216
100
AcDbArc
 50
210.0000172974907
 51
329.9999827031346
  0
ARC
  5
D8B3D
330
18
100
AcDbEntity
  8
\U+FF7A\U+FF88\U+FF78\U+FF80
100
AcDbCircle
 10
5488.935836327653
 20
-3591.032529435171
 30
0.0
 40
0.0360842981133216
100
AcDbArc
 50
210.0000172974907
 51
329.9999827025092
  0
LINE
  5
D8B3E
330
18
100
AcDbEntity
  8
\U+FF7A\U+FF88\U+FF78\U+FF80
100
AcDbLine
 10
5486.748336269918
 20
-3590.779938593663
 30
0.0
 11
5486.904586414255
 21
-3591.050571593663
 31
0.0
  0
LINE
  5
D8B3F
330
18
100
AcDbEntity
  8
\U+FF7A\U+FF88\U+FF78\U+FF80
100
AcDbLine
 10
5486.967086241051
 20
-3591.050571593663
 30
0.0
 11
5487.123336385388
 21
-3590.779938593663
 31
0.0
  0
LINE
  5
D8B40
330
18
100
AcDbEntity
  8
\U+FF7A\U+FF88\U+FF78\U+FF80
100
AcDbLine
 10
5487.248336269918
 20
-3590.779938593663
 30
0.0
 11
5487.123336385388
 21
-3590.779938593663
 31
0.0
  0
LINE
  5
D8B41
330
18
100
AcDbEntity
  8
\U+FF7A\U+FF88\U+FF78\U+FF80
100
AcDbLine
 10
5487.248336269918
 20
-3590.779938593663
 30
0.0
 11
5487.123336385388
 21
-3590.779938593663
 31
0.0
  0
LINE
  5
D8B42
330
18
100
AcDbEntity
  8
\U+FF7A\U+FF88\U+FF78\U+FF80
100
AcDbLine
 10
5487.248336269918
 20
-3590.779938593663
 30
0.0
 11
5487.404586414255
 21
-3591.050571593663
 31
0.0
  0
LINE
  5
D8B43
330
18
100
AcDbEntity
  8
\U+FF7A\U+FF88\U+FF78\U+FF80
100
AcDbLine
 10
5487.467086241051
 20
-3591.050571593663
 30
0.0
 11
5487.623336385389
 21
-3590.779938593663
 31
0.0
  0
LINE
  5
D8B44
330
18
100
AcDbEntity
  8
\U+FF7A\U+FF88\U+FF78\U+FF80
100
AcDbLine
 10
5487.248336269918
 20
-3590.779938593663
 30
0.0
 11
5487.123336385388
 21
-3590.779938593663
 31
0.0
  0
LINE
  5
D8B45
330
18
100
AcDbEntity
  8
\U+FF7A\U+FF88\U+FF78\U+FF80
100
AcDbLine
 10
5487.748336269919
 20
-3590.779938593663
 30
0.0
 11
5487.623336385389
 21
-3590.779938593663
 31
0.0
  0
LINE
  5
D8B46
330
18
100
AcDbEntity
  8
\U+FF7A\U+FF88\U+FF78\U+FF80
100
AcDbLine
 10
5487.748336269919
 20
-3590.779938593663
 30
0.0
 11
5487.904586414256
 21
-3591.050571593663
 31
0.0
  0
LINE
  5
D8B47
330
18
100
AcDbEntity
  8
\U+FF7A\U+FF88\U+FF78\U+FF80
100
AcDbLine
 10
5487.748336269919
 20
-3590.779938593663
 30
0.0
 11
5487.623336385389
 21
-3590.779938593663
 31
0.0
  0
ARC
  5
D8B48
330
18
100
AcDbEntity
  8
\U+FF7A\U+FF88\U+FF78\U+FF80
100
AcDbCircle
 10
5486.935836327653
 20
-3591.032529435171
 30
0.0
 40
0.0360842981133216
100
AcDbArc
 50
210.0000172974907
 51
329.9999827031346
  0
ARC
  5
D8B49
330
18
100
AcDbEntity
  8
\U+FF7A\U+FF88\U+FF78\U+FF80
100
AcDbCircle
 10
5487.435836327653
 20
-3591.032529435171
 30
0.0
 40
0.0360842981133216
100
AcDbArc
 50
210.0000172974907
 51
329.9999827031346
  0
ARC
  5
D8B4A
330
18
100
AcDbEntity
  8
\U+FF7A\U+FF88\U+FF78\U+FF80
100
AcDbCircle
 10
5487.935836327654
 20
-3591.032529435171
 30
0.0
 40
0.0360842981133216
100
AcDbArc
 50
210.0000172974907
 51
329.9999827025092
  0
LINE
  5
D8B4B
330
18
100
AcDbEntity
  8
\U+FF7A\U+FF88\U+FF78\U+FF80
100
AcDbLine
 10
5485.873336385388
 20
-3590.850571593666
 30
0.0
 11
5485.873336385388
 21
-3591.060571593665
 31
0.0
  0
LINE
  5
D8B4C
330
18
100
AcDbEntity
  8
\U+FF7A\U+FF88\U+FF78\U+FF80
100
AcDbLine
 10
5485.873336385388
 20
-3591.060571593665
 30
0.0
 11
5485.373336385388
 21
-3591.560571593665
 31
0.0
  0
LINE
  5
D8B4D
330
18
100
AcDbEntity
  8
\U+FF7A\U+FF88\U+FF78\U+FF80
100
AcDbLine
 10
5485.373336385388
 20
-3590.725635103125
 30
0.0
 11
5485.373336385388
 21
-3591.560571593665
 31
0.0
  0
ARC
  5
D8B4E
330
18
100
AcDbEntity
  8
\U+FF7A\U+FF88\U+FF78\U+FF80
100
AcDbCircle
 10
5486.073336385389
 20
-3590.979938593664
 30
0.0
 40
0.2000000000003013
100
AcDbArc
 50
90.0
 51
180.0
  0
LINE
  5
D8B4F
330
18
100
AcDbEntity
  8
\U+FF7A\U+FF88\U+FF78\U+FF80
100
AcDbLine
 10
5483.873336385388
 20
-3591.560571593665
 30
0.0
 11
5483.873336385388
 21
-3590.725635103125
 31
0.0
  0
ARC
  5
D8B50
330
18
100
AcDbEntity
  8
\U+FF7A\U+FF88\U+FF78\U+FF80
100
AcDbCircle
 10
5484.073336385389
 20
-3590.862314024168
 30
0.0
 40
0.5
100
AcDbArc
 50
180.0
 51
246.4218215218271
  0
LINE
  5
D8B51
330
18
100
AcDbEntity
  8
\U+FF7A\U+FF88\U+FF78\U+FF80
100
AcDbLine
 10
5483.873336385388
 20
-3591.560571593665
 30
0.0
 11
5485.373336385388
 21
-3591.560571593665
 31
0.0
  0
LINE
  5
D8B52
330
18
100
AcDbEntity
  8
\U+FF7A\U+FF88\U+FF78\U+FF80
100
AcDbLine
 10
5483.873336385388
 20
-3590.725635103125
 30
0.0
 11
5485.373336385388
 21
-3590.725635103125
 31
0.0
  0
LINE
  5
D8B53
330
18
100
AcDbEntity
  8
\U+FF7A\U+FF88\U+FF78\U+FF80
100
AcDbLine
 10
5486.068068753894
 20
-3590.779938593663
 30
0.0
 11
5486.748336269918
 21
-3590.779938593663
 31
0.0
  0
LINE
  5
D8B54
330
18
100
AcDbEntity
  8
\U+FF7A\U+FF88\U+FF78\U+FF80
100
AcDbLine
 10
5483.873336385388
 20
-3590.725635103125
 30
0.0
 11
5483.873336385388
 21
-3586.895508084202
 31
0.0
  0
LINE
  5
D8B55
330
18
100
AcDbEntity
  8
\U+FF7A\U+FF88\U+FF78\U+FF80
100
AcDbLine
 10
5485.873336385388
 20
-3590.851258110368
 30
0.0
 11
5485.873336385388
 21
-3586.060571593665
 31
0.0
  0
LINE
  5
D8B56
330
18
100
AcDbEntity
  8
\U+FF7A\U+FF88\U+FF78\U+FF80
100
AcDbLine
 10
5483.573336385389
 20
-3588.172842545722
 30
0.0
 11
5483.573336385389
 21
-3590.862314024169
 31
0.0
  0
LINE
  5
D8B57
330
18
100
AcDbEntity
  8
\U+FF7A\U+FF88\U+FF78\U+FF80
100
AcDbLine
 10
5489.275836385388
 20
-3586.060571593665
 30
0.0
 11
5489.275836385388
 21
-3591.260571593667
 31
0.0
  0
ARC
  5
D8B58
330
18
100
AcDbEntity
  8
\U+FF7A\U+FF88\U+FF78\U+FF80
100
AcDbCircle
 10
5481.448234749303
 20
-3588.810571593661
 30
0.0
 40
4.367366609167325
100
AcDbArc
 50
333.9921761143703
 51
26.00782388562971
  0
LINE
  5
D8B59
330
18
100
AcDbEntity
  8
\U+FF7A\U+FF88\U+FF78\U+FF80
100
AcDbLine
 10
5489.277466500744
 20
-3584.723631598841
 30
0.0
 11
5489.185836327653
 21
-3581.052529454042
 31
0.0
  0
LINE
  5
D8B5A
330
18
100
AcDbEntity
  8
\U+FF7A\U+FF88\U+FF78\U+FF80
100
AcDbLine
 10
5483.573336385389
 20
-3581.258829163159
 30
0.0
 11
5483.573336385389
 21
-3583.948300641609
 31
0.0
  0
LINE
  5
D8B5B
330
18
100
AcDbEntity
  8
\U+FF7A\U+FF88\U+FF78\U+FF80
100
AcDbLine
 10
5485.873336385388
 20
-3586.060571593665
 30
0.0
 11
5485.873336385388
 21
-3581.269885076963
 31
0.0
  0
LINE
  5
D8B5C
330
18
100
AcDbEntity
  8
\U+FF7A\U+FF88\U+FF78\U+FF80
100
AcDbLine
 10
5483.873336385388
 20
-3585.225635103128
 30
0.0
 11
5483.873336385388
 21
-3581.395508084202
 31
0.0
  0
LINE
  5
D8B5D
330
18
100
AcDbEntity
  8
\U+FF7A\U+FF88\U+FF78\U+FF80
100
AcDbLine
 10
5489.275836385388
 20
-3580.860571593665
 30
0.0
 11
5489.275836385388
 21
-3586.060571593665
 31
0.0
  0
LINE
  5
D8B5E
330
18
100
AcDbEntity
  8
\U+FF7A\U+FF88\U+FF78\U+FF80
100
AcDbLine
 10
5486.935836327653
 20
-3591.06861373329
 30
0.0
 11
5486.685836327653
 21
-3581.052529454042
 31
0.0
  0
LINE
  5
D8B5F
330
18
100
AcDbEntity
  8
\U+FF7A\U+FF88\U+FF78\U+FF80
100
AcDbLine
 10
5487.435836327653
 20
-3591.06861373329
 30
0.0
 11
5487.185836327654
 21
-3581.052529454042
 31
0.0
  0
LINE
  5
D8B60
330
18
100
AcDbEntity
  8
\U+FF7A\U+FF88\U+FF78\U+FF80
100
AcDbLine
 10
5487.935836327654
 20
-3591.06861373329
 30
0.0
 11
5487.685836327653
 21
-3581.052529454042
 31
0.0
  0
LINE
  5
D8B61
330
18
100
AcDbEntity
  8
\U+FF7A\U+FF88\U+FF78\U+FF80
100
AcDbLine
 10
5488.435836327653
 20
-3591.06861373329
 30
0.0
 11
5488.185836327653
 21
-3581.052529454042
 31
0.0
  0
LINE
  5
D8B62
330
18
100
AcDbEntity
  8
\U+FF7A\U+FF88\U+FF78\U+FF80
100
AcDbLine
 10
5488.935836327653
 20
-3591.06861373329
 30
0.0
 11
5488.685836327653
 21
-3581.052529454042
 31
0.0
  0
ARC
  5
D8B63
330
18
100
AcDbEntity
  8
\U+FF7A\U+FF88\U+FF78\U+FF80
100
AcDbCircle
 10
5481.448234749303
 20
-3583.310571593665
 30
0.0
 40
4.367366609166622
100
AcDbArc
 50
333.9921761143652
 51
26.00782388563495
  0
LINE
  5
D8B64
330
18
100
AcDbEntity
  8
\U+FF7A\U+FF88\U+FF78\U+FF80
100
AcDbLine
 10
5489.575836385387
 20
-3591.560571593665
 30
0.0
 11
5489.275836385388
 21
-3591.260571593667
 31
0.0
  0
ARC
  5
D8B65
330
18
100
AcDbEntity
  8
\U+FF7A\U+FF88\U+FF78\U+FF80
100
AcDbCircle
 10
5496.353547097855
 20
-3583.310571593665
 30
0.0
 40
7.043069696315601
100
AcDbArc
 50
164.2221938995667
 51
195.7778061004333
  0
ARC
  5
D8B66
330
18
100
AcDbEntity
  8
\U+FF7A\U+FF88\U+FF78\U+FF80
100
AcDbCircle
 10
5496.353547097855
 20
-3588.810571593665
 30
0.0
 40
7.043069696315629
100
AcDbArc
 50
164.2221938995667
 51
195.7778061004333
  0
LINE
  5
D8B67
330
18
100
AcDbEntity
  8
\U+FF7A\U+FF88\U+FF78\U+FF80
100
AcDbLine
 10
5490.575836385389
 20
-3580.560571593665
 30
0.0
 11
5489.575836385387
 21
-3580.560571593665
 31
0.0
  0
LINE
  5
D8B68
330
18
100
AcDbEntity
  8
\U+FF7A\U+FF88\U+FF78\U+FF80
100
AcDbLine
 10
5485.373336385388
 20
-3580.560571593665
 30
0.0
 11
5483.873336385388
 21
-3580.560571593665
 31
0.0
  0
LINE
  5
D8B69
330
18
100
AcDbEntity
  8
\U+FF7A\U+FF88\U+FF78\U+FF80
100
AcDbLine
 10
5496.073336385389
 20
-3580.560571593665
 30
0.0
 11
5497.775836385388
 21
-3581.340339622418
 31
0.0
  0
LINE
  5
D8B6A
330
18
100
AcDbEntity
  8
\U+FF7A\U+FF88\U+FF78\U+FF80
100
AcDbLine
 10
5496.073336385389
 20
-3581.395508084202
 30
0.0
 11
5489.575836385387
 21
-3581.395508084202
 31
0.0
  0
LINE
  5
D8B6B
330
18
100
AcDbEntity
  8
\U+FF7A\U+FF88\U+FF78\U+FF80
100
AcDbLine
 10
5496.073336385389
 20
-3585.225635103125
 30
0.0
 11
5489.575836385387
 21
-3585.225635103125
 31
0.0
  0
LINE
  5
D8B6C
330
18
100
AcDbEntity
  8
\U+FF7A\U+FF88\U+FF78\U+FF80
100
AcDbLine
 10
5489.575836385387
 20
-3586.895508084202
 30
0.0
 11
5496.073336385389
 21
-3586.895508084202
 31
0.0
  0
LINE
  5
D8B6D
330
18
100
AcDbEntity
  8
\U+FF7A\U+FF88\U+FF78\U+FF80
100
AcDbLine
 10
5496.073336385389
 20
-3591.560571593665
 30
0.0
 11
5489.575836385387
 21
-3591.560571593665
 31
0.0
  0
LINE
  5
D8B6E
330
18
100
AcDbEntity
  8
\U+FF7A\U+FF88\U+FF78\U+FF80
100
AcDbLine
 10
5489.575836385387
 20
-3590.725635103125
 30
0.0
 11
5496.073336385389
 21
-3590.725635103125
 31
0.0
  0
LINE
  5
D8B6F
330
18
100
AcDbEntity
  8
\U+FF7A\U+FF88\U+FF78\U+FF80
100
AcDbLine
 10
5498.17583638539
 20
-3581.760571593667
 30
0.0
 11
5497.775836385388
 21
-3581.760571593667
 31
0.0
  0
LINE
  5
D8B70
330
18
100
AcDbEntity
  8
\U+FF7A\U+FF88\U+FF78\U+FF80
100
AcDbLine
 10
5499.17583638539
 20
-3581.960571593663
 30
0.0
 11
5498.17583638539
 21
-3581.760571593667
 31
0.0
  0
LINE
  5
D8B71
330
18
100
AcDbEntity
  8
\U+FF7A\U+FF88\U+FF78\U+FF80
100
AcDbLine
 10
5496.073336385389
 20
-3585.225635103125
 30
0.0
 11
5496.073336385389
 21
-3586.060571593665
 31
0.0
  0
LINE
  5
D8B72
330
18
100
AcDbEntity
  8
\U+FF7A\U+FF88\U+FF78\U+FF80
100
AcDbLine
 10
5496.073336385389
 20
-3586.060571593665
 30
0.0
 11
5496.073336385389
 21
-3586.895508084202
 31
0.0
  0
LINE
  5
D8B73
330
18
100
AcDbEntity
  8
\U+FF7A\U+FF88\U+FF78\U+FF80
100
AcDbLine
 10
5497.775836385388
 20
-3590.360571593665
 30
0.0
 11
5498.17583638539
 21
-3590.360571593665
 31
0.0
  0
LINE
  5
D8B74
330
18
100
AcDbEntity
  8
\U+FF7A\U+FF88\U+FF78\U+FF80
100
AcDbLine
 10
5496.073336385389
 20
-3590.725635103125
 30
0.0
 11
5496.073336385389
 21
-3591.560571593665
 31
0.0
  0
LINE
  5
D8B75
330
18
100
AcDbEntity
  8
\U+FF7A\U+FF88\U+FF78\U+FF80
100
AcDbLine
 10
5497.775836385388
 20
-3590.780803564911
 30
0.0
 11
5496.073336385389
 21
-3591.560571593665
 31
0.0
  0
LINE
  5
D8B76
330
18
100
AcDbEntity
  8
\U+FF7A\U+FF88\U+FF78\U+FF80
100
AcDbLine
 10
5498.17583638539
 20
-3590.360571593665
 30
0.0
 11
5499.17583638539
 21
-3590.160571593664
 31
0.0
  0
LINE
  5
D8B77
330
18
100
AcDbEntity
  8
\U+FF7A\U+FF88\U+FF78\U+FF80
100
AcDbLine
 10
5496.073336385389
 20
-3591.560571593665
 30
0.0
 11
5495.073336385388
 21
-3591.560571593665
 31
0.0
  0
LINE
  5
D8B78
330
18
100
AcDbEntity
  8
\U+FF7A\U+FF88\U+FF78\U+FF80
100
AcDbLine
 10
5499.17583638539
 20
-3586.060571593665
 30
0.0
 11
5499.17583638539
 21
-3590.160571593664
 31
0.0
  0
LINE
  5
D8B79
330
18
100
AcDbEntity
  8
\U+FF7A\U+FF88\U+FF78\U+FF80
100
AcDbLine
 10
5497.775836385388
 20
-3590.780803564911
 30
0.0
 11
5497.775836385388
 21
-3586.060571593665
 31
0.0
  0
LINE
  5
D8B7A
330
18
100
AcDbEntity
  8
\U+FF7A\U+FF88\U+FF78\U+FF80
100
AcDbLine
 10
5498.17583638539
 20
-3590.360571593665
 30
0.0
 11
5498.17583638539
 21
-3586.060571593665
 31
0.0
  0
ARC
  5
D8B7B
330
18
100
AcDbEntity
  8
\U+FF7A\U+FF88\U+FF78\U+FF80
100
AcDbCircle
 10
5492.148234749294
 20
-3588.810571593665
 30
0.0
 40
4.367366609175923
100
AcDbArc
 50
333.9921761143638
 51
26.00782388563611
  0
LINE
  5
D8B7C
330
18
100
AcDbEntity
  8
\U+FF7A\U+FF88\U+FF78\U+FF80
100
AcDbLine
 10
5498.17583638539
 20
-3586.060571593665
 30
0.0
 11
5498.17583638539
 21
-3581.760571593667
 31
0.0
  0
LINE
  5
D8B7D
330
18
100
AcDbEntity
  8
\U+FF7A\U+FF88\U+FF78\U+FF80
100
AcDbLine
 10
5497.775836385388
 20
-3586.060571593665
 30
0.0
 11
5497.775836385388
 21
-3581.340339622418
 31
0.0
  0
LINE
  5
D8B7E
330
18
100
AcDbEntity
  8
\U+FF7A\U+FF88\U+FF78\U+FF80
100
AcDbLine
 10
5499.17583638539
 20
-3581.960571593663
 30
0.0
 11
5499.17583638539
 21
-3586.060571593665
 31
0.0
  0
ARC
  5
D8B7F
330
18
100
AcDbEntity
  8
\U+FF7A\U+FF88\U+FF78\U+FF80
100
AcDbCircle
 10
5492.148234749294
 20
-3583.310571593665
 30
0.0
 40
4.367366609175967
100
AcDbArc
 50
333.9921761143638
 51
26.00782388563611
  0
LINE
  5
D8B80
330
18
100
AcDbEntity
  8
\U+FF7A\U+FF88\U+FF78\U+FF80
100
AcDbLine
 10
5489.575836385387
 20
-3580.560571593665
 30
0.0
 11
5496.073336385389
 21
-3580.560571593665
 31
0.0
  0
LINE
  5
D8B81
330
18
100
AcDbEntity
  8
\U+FF7A\U+FF88\U+FF78\U+FF80
100
AcDbLine
 10
5495.073336385388
 20
-3580.560571593665
 30
0.0
 11
5496.073336385389
 21
-3580.560571593665
 31
0.0
  0
LINE
  5
D8B82
330
18
100
AcDbEntity
  8
中心線
 48
0.5
100
AcDbLine
 10
5478.45028335184
 20
-3586.060571593665
 30
0.0
 11
5500.412715849565
 21
-3586.060571593665
 31
0.0
  0
LINE
  5
D8B83
330
18
100
AcDbEntity
  8
\U+FF7A\U+FF88\U+FF78\U+FF80
100
AcDbLine
 10
5485.373336385388
 20
-3580.060571593665
 30
0.0
 11
5483.873336385388
 21
-3580.060571593665
 31
0.0
  0
LINE
  5
D8B84
330
18
100
AcDbEntity
  8
\U+FF7A\U+FF88\U+FF78\U+FF80
100
AcDbLine
 10
5483.873336385388
 20
-3580.560571593665
 30
0.0
 11
5483.873336385388
 21
-3580.060571593665
 31
0.0
  0
LINE
  5
D8B85
330
18
100
AcDbEntity
  8
\U+FF7A\U+FF88\U+FF78\U+FF80
100
AcDbLine
 10
5485.373336385388
 20
-3580.560571593665
 30
0.0
 11
5485.373336385388
 21
-3580.060571593665
 31
0.0
  0
LINE
  5
D8B86
330
18
100
AcDbEntity
  8
\U+FF7A\U+FF88\U+FF78\U+FF80
100
AcDbLine
 10
5485.373336385388
 20
-3592.060571593665
 30
0.0
 11
5483.873336385388
 21
-3592.060571593665
 31
0.0
  0
LINE
  5
D8B87
330
18
100
AcDbEntity
  8
\U+FF7A\U+FF88\U+FF78\U+FF80
100
AcDbLine
 10
5483.873336385388
 20
-3591.560571593665
 30
0.0
 11
5483.873336385388
 21
-3592.060571593665
 31
0.0
  0
LINE
  5
D8B88
330
18
100
AcDbEntity
  8
\U+FF7A\U+FF88\U+FF78\U+FF80
100
AcDbLine
 10
5485.373336385388
 20
-3591.560571593665
 30
0.0
 11
5485.373336385388
 21
-3592.060571593665
 31
0.0
  0
CIRCLE
  5
D8B9F
330
18
100
AcDbEntity
  8
実線
100
AcDbCircle
 10
5175.066485192964
 20
-3631.060571593665
 30
0.0
 40
53.9
  0
TEXT
  5
D8BB5
330
18
100
AcDbEntity
  8
文字
370
     9
100
AcDbText
 10
5466.047309755636
 20
-3661.559913943769
 30
0.0
 40
1.439999999999999
  1
NIKKI
 50
90.0
  7
TIMESNR
100
AcDbText
  0
LINE
  5
D8BB6
330
18
100
AcDbEntity
  8
文字
100
AcDbLine
 10
5463.090300383811
 20
-3668.560499679915
 30
0.0
 11
5463.090300383811
 21
-3653.560499679914
 31
0.0
  0
TEXT
  5
D8BB7
330
18
100
AcDbEntity
  8
文字
370
     9
100
AcDbText
 10
5467.74407216462
 20
-3661.681327053908
 30
0.0
 40
1.439999999999999
  1
DENSO
 50
90.0
  7
TIMESNR
100
AcDbText
  0
LINE
  5
D8BB8
330
18
100
AcDbEntity
  8
文字
370
     9
100
AcDbLine
 10
5467.791806303199
 20
-3662.897926278295
 30
0.0
 11
5465.7893063032
 21
-3662.657626278297
 31
0.0
  0
LINE
  5
D8BB9
330
18
100
AcDbEntity
  8
文字
370
     9
100
AcDbLine
 10
5467.791806303199
 20
-3667.303426278295
 30
0.0
 11
5464.587806303201
 21
-3666.902926278297
 31
0.0
  0
LINE
  5
D8BBA
330
18
100
AcDbEntity
  8
文字
370
     9
100
AcDbLine
 10
5464.587806303201
 20
-3666.902926278297
 30
0.0
 11
5464.587806303201
 21
-3662.497426278295
 31
0.0
  0
ARC
  5
D8BBB
330
18
100
AcDbEntity
  8
文字
370
     9
100
AcDbCircle
 10
5466.388193512507
 20
-3664.899494882948
 30
0.0
 40
1.003113223100251
100
AcDbArc
 50
203.5897772726021
 51
359.9468005913668
  0
LINE
  5
D8BBC
330
18
100
AcDbEntity
  8
文字
370
     9
100
AcDbLine
 10
5464.587806303201
 20
-3662.497426278295
 30
0.0
 11
5465.4689063032
 21
-3665.300926278297
 31
0.0
  0
CIRCLE
  5
D8BBD
330
18
100
AcDbEntity
  8
文字
370
     9
100
AcDbCircle
 10
5466.390056303205
 20
-3664.900426278297
 30
0.0
 40
0.6007500000000002
  0
ARC
  5
D8BBE
330
18
100
AcDbEntity
  8
文字
370
     9
100
AcDbCircle
 10
5466.590306303205
 20
-3664.900426278297
 30
0.0
 40
0.8009999999999999
100
AcDbArc
 50
0.0
 51
180.0
  0
LINE
  5
D8BBF
330
18
100
AcDbEntity
  8
文字
370
     9
100
AcDbLine
 10
5465.7893063032
 20
-3664.900426278297
 30
0.0
 11
5465.7893063032
 21
-3662.657626278297
 31
0.0
  0
LINE
  5
D8BC0
330
18
100
AcDbEntity
  8
文字
370
     9
100
AcDbLine
 10
5467.791806303199
 20
-3667.303426278295
 30
0.0
 11
5467.791806303199
 21
-3662.897926278295
 31
0.0
  0
LWPOLYLINE
  5
D8BC1
330
18
100
AcDbEntity
  8
文字
100
AcDbPolyline
 90
        8
 70
     1
 43
0.0
 10
5469.090300383811
 20
-3668.060499679914
 10
5469.090300383815
 20
-3654.060499679914
 42
0.4142135623730951
 10
5468.590300383815
 20
-3653.560499679914
 10
5459.590300383815
 20
-3653.560499679914
 42
0.4142135623730951
 10
5459.090300383815
 20
-3654.060499679914
 10
5459.090300383815
 20
-3668.060499679914
 42
0.4142135623730996
 10
5459.590300383815
 20
-3668.560499679915
 10
5468.590300383811
 20
-3668.560499679915
 42
0.4142135623730904
  0
TEXT
  5
D8BC2
330
18
100
AcDbEntity
  8
文字
370
     9
100
AcDbText
 10
5462.13174093289
 20
-3667.345781200706
 30
0.0
 40
2.0
  1
Certificate
 50
90.0
  7
TIMESNR
 11
5462.770529685593
 21
-3667.345781200706
 31
0.0
100
AcDbText
 73
     1
  0
ARC
  5
D8BC3
330
18
100
AcDbEntity
  8
文字
100
AcDbCircle
 10
5468.573340140491
 20
-3574.060571593669
 30
0.0
 40
0.5
100
AcDbArc
 50
0.0
 51
90.0
  0
TEXT
  5
D8BC4
330
18
100
AcDbEntity
  8
文字
370
     9
100
AcDbText
 10
5466.47532017492
 20
-3600.271012758065
 30
0.0
 40
1.439999999999999
  1
NIKKI
 50
90.0
 41
1.25
  7
TIMESNR
100
AcDbText
  0
TEXT
  5
D8BC5
330
18
100
AcDbEntity
  8
文字
370
     9
100
AcDbText
 10
5468.172082583905
 20
-3600.392425868206
 30
0.0
 40
1.439999999999999
  1
DENSO
 50
90.0
 41
1.3
  7
TIMESNR
100
AcDbText
  0
LINE
  5
D8BC6
330
18
100
AcDbEntity
  8
文字
370
     9
100
AcDbLine
 10
5468.219816722486
 20
-3601.609025092592
 30
0.0
 11
5466.217316722487
 21
-3601.368725092591
 31
0.0
  0
ARC
  5
D8BC7
330
18
100
AcDbEntity
  8
文字
370
     9
100
AcDbCircle
 10
5467.018316722491
 20
-3603.611525092591
 30
0.0
 40
0.8009999999999999
100
AcDbArc
 50
0.0
 51
180.0
  0
LINE
  5
D8BC8
330
18
100
AcDbEntity
  8
文字
370
     9
100
AcDbLine
 10
5465.015816722484
 20
-3601.208525092592
 30
0.0
 11
5465.896916722483
 21
-3604.012025092591
 31
0.0
  0
LINE
  5
D8BC9
330
18
100
AcDbEntity
  8
文字
370
     9
100
AcDbLine
 10
5466.217316722487
 20
-3603.611525092591
 30
0.0
 11
5466.217316722487
 21
-3601.368725092591
 31
0.0
  0
CIRCLE
  5
D8BCA
330
18
100
AcDbEntity
  8
文字
370
     9
100
AcDbCircle
 10
5466.818066722488
 20
-3603.611525092591
 30
0.0
 40
0.6007500000000002
  0
ARC
  5
D8BCB
330
18
100
AcDbEntity
  8
文字
100
AcDbCircle
 10
5457.573340140491
 20
-3574.060571593669
 30
0.0
 40
0.5
100
AcDbArc
 50
90.0
 51
180.0
  0
LINE
  5
D8BCC
330
18
100
AcDbEntity
  8
文字
100
AcDbLine
 10
5468.573340140488
 20
-3573.560571593669
 30
0.0
 11
5457.573340140488
 21
-3573.560571593669
 31
0.0
  0
LINE
  5
D8BCD
330
18
100
AcDbEntity
  8
文字
100
AcDbLine
 10
5464.073340140488
 20
-3648.560571593669
 30
0.0
 11
5464.073340140488
 21
-3613.560571593669
 31
0.0
  0
ARC
  5
D8BCE
330
18
100
AcDbEntity
  8
文字
100
AcDbCircle
 10
5457.573340140491
 20
-3614.06057159367
 30
0.0
 40
0.5
100
AcDbArc
 50
90.0
 51
180.0
  0
ARC
  5
D8BCF
330
18
100
AcDbEntity
  8
文字
100
AcDbCircle
 10
5468.573340140491
 20
-3614.06057159367
 30
0.0
 40
0.5
100
AcDbArc
 50
0.0
 51
90.0
  0
LINE
  5
D8BD0
330
18
100
AcDbEntity
  8
文字
100
AcDbLine
 10
5468.573340140488
 20
-3613.560571593669
 30
0.0
 11
5457.573340140488
 21
-3613.560571593669
 31
0.0
  0
LINE
  5
D8BD1
330
18
100
AcDbEntity
  8
文字
100
AcDbLine
 10
5469.073340140488
 20
-3648.060571593669
 30
0.0
 11
5469.073340140488
 21
-3614.06057159367
 31
0.0
  0
LINE
  5
D8BD2
330
18
100
AcDbEntity
  8
文字
370
     9
100
AcDbLine
 10
5465.015816722484
 20
-3641.208525092592
 30
0.0
 11
5465.896916722483
 21
-3644.012025092592
 31
0.0
  0
LINE
  5
D8BD3
330
18
100
AcDbEntity
  8
文字
370
     9
100
AcDbLine
 10
5465.015816722484
 20
-3645.614025092593
 30
0.0
 11
5465.015816722484
 21
-3641.208525092592
 31
0.0
  0
LINE
  5
D8BD4
330
18
100
AcDbEntity
  8
文字
370
     9
100
AcDbLine
 10
5466.217316722487
 20
-3643.611525092591
 30
0.0
 11
5466.217316722487
 21
-3641.368725092591
 31
0.0
  0
ARC
  5
D8BD5
330
18
100
AcDbEntity
  8
文字
370
     9
100
AcDbCircle
 10
5467.018316722491
 20
-3643.611525092591
 30
0.0
 40
0.8009999999999999
100
AcDbArc
 50
0.0
 51
180.0
  0
CIRCLE
  5
D8BD6
330
18
100
AcDbEntity
  8
文字
370
     9
100
AcDbCircle
 10
5466.818066722488
 20
-3643.611525092591
 30
0.0
 40
0.6007500000000002
  0
LINE
  5
D8BD7
330
18
100
AcDbEntity
  8
文字
370
     9
100
AcDbLine
 10
5468.219816722486
 20
-3646.014525092593
 30
0.0
 11
5468.219816722486
 21
-3641.609025092593
 31
0.0
  0
LINE
  5
D8BD8
330
18
100
AcDbEntity
  8
文字
370
     9
100
AcDbLine
 10
5468.219816722486
 20
-3646.014525092593
 30
0.0
 11
5465.015816722484
 21
-3645.614025092593
 31
0.0
  0
ARC
  5
D8BD9
330
18
100
AcDbEntity
  8
文字
370
     9
100
AcDbCircle
 10
5466.816203931792
 20
-3643.610593697243
 30
0.0
 40
1.003113223100251
100
AcDbArc
 50
203.5897772726021
 51
359.9468005913668
  0
ARC
  5
D8BDA
330
18
100
AcDbEntity
  8
文字
100
AcDbCircle
 10
5468.573340140491
 20
-3648.060571593669
 30
0.0
 40
0.5
100
AcDbArc
 50
270.0
 51
0.0
  0
LINE
  5
D8BDB
330
18
100
AcDbEntity
  8
文字
370
     9
100
AcDbLine
 10
5468.219816722486
 20
-3641.609025092593
 30
0.0
 11
5466.217316722487
 21
-3641.368725092591
 31
0.0
  0
TEXT
  5
D8BDC
330
18
100
AcDbEntity
  8
文字
370
     9
100
AcDbText
 10
5468.172082583905
 20
-3640.392425868206
 30
0.0
 40
1.439999999999999
  1
DENSO
 50
90.0
 41
1.3
  7
TIMESNR
100
AcDbText
  0
TEXT
  5
D8BDD
330
18
100
AcDbEntity
  8
文字
370
     9
100
AcDbText
 10
5466.47532017492
 20
-3640.271012758065
 30
0.0
 40
1.439999999999999
  1
NIKKI
 50
90.0
 41
1.25
  7
TIMESNR
100
AcDbText
  0
LINE
  5
D8BDE
330
18
100
AcDbEntity
  8
文字
100
AcDbLine
 10
5457.073340140488
 20
-3614.06057159367
 30
0.0
 11
5457.073340140488
 21
-3648.060571593669
 31
0.0
  0
TEXT
  5
D8BDF
330
18
100
AcDbEntity
  8
文字
370
     9
100
AcDbText
 10
5460.690427992812
 20
-3646.736601562804
 30
0.0
 40
2.6
  1
MODEL:
 50
90.0
 41
1.199999999999999
  7
MS\U+FF7A\U+FF9E\U+FF7C\U+FF6F\U+FF78N
 11
5461.165554896365
 21
-3646.736601562804
 31
0.0
100
AcDbText
 73
     1
  0
ARC
  5
D8BE0
330
18
100
AcDbEntity
  8
文字
100
AcDbCircle
 10
5457.573340140491
 20
-3648.060571593669
 30
0.0
 40
0.5
100
AcDbArc
 50
180.0
 51
270.0
  0
TEXT
  5
D8BE1
330
18
100
AcDbEntity
  8
文字
370
     9
100
AcDbText
 10
5463.514461341244
 20
-3646.763728135616
 30
0.0
 40
2.0
  1
SER No.******
 50
90.0
 41
1.199999999999999
  7
MS\U+FF7A\U+FF9E\U+FF7C\U+FF6F\U+FF78N
 11
5463.879943574747
 21
-3646.763728135616
 31
0.0
100
AcDbText
 73
     1
  0
LINE
  5
D8BE2
330
18
100
AcDbEntity
  8
文字
100
AcDbLine
 10
5457.573340140488
 20
-3648.560571593669
 30
0.0
 11
5468.573340140488
 21
-3648.560571593669
 31
0.0
  0
ARC
  5
D8BE3
330
18
100
AcDbEntity
  8
文字
100
AcDbCircle
 10
5468.573340140491
 20
-3608.060571593669
 30
0.0
 40
0.5
100
AcDbArc
 50
270.0
 51
0.0
  0
LINE
  5
D8BE4
330
18
100
AcDbEntity
  8
文字
370
     9
100
AcDbLine
 10
5468.219816722486
 20
-3606.014525092593
 30
0.0
 11
5465.015816722484
 21
-3605.614025092593
 31
0.0
  0
ARC
  5
D8BE5
330
18
100
AcDbEntity
  8
文字
100
AcDbCircle
 10
5457.573340140491
 20
-3608.060571593669
 30
0.0
 40
0.5
100
AcDbArc
 50
180.0
 51
270.0
  0
LINE
  5
D8BE6
330
18
100
AcDbEntity
  8
文字
100
AcDbLine
 10
5457.573340140488
 20
-3608.560571593669
 30
0.0
 11
5468.573340140488
 21
-3608.560571593669
 31
0.0
  0
ARC
  5
D8BE7
330
18
100
AcDbEntity
  8
文字
370
     9
100
AcDbCircle
 10
5466.816203931792
 20
-3603.610593697243
 30
0.0
 40
1.003113223100251
100
AcDbArc
 50
203.5897772726021
 51
359.9468005913668
  0
LINE
  5
D8BE8
330
18
100
AcDbEntity
  8
文字
370
     9
100
AcDbLine
 10
5465.015816722484
 20
-3605.614025092593
 30
0.0
 11
5465.015816722484
 21
-3601.208525092592
 31
0.0
  0
LINE
  5
D8BE9
330
18
100
AcDbEntity
  8
文字
370
     9
100
AcDbLine
 10
5468.219816722486
 20
-3606.014525092593
 30
0.0
 11
5468.219816722486
 21
-3601.609025092592
 31
0.0
  0
LINE
  5
D8BEA
330
18
100
AcDbEntity
  8
文字
100
AcDbLine
 10
5469.073340140488
 20
-3608.060571593669
 30
0.0
 11
5469.073340140488
 21
-3574.060571593669
 31
0.0
  0
LINE
  5
D8BEB
330
18
100
AcDbEntity
  8
文字
100
AcDbLine
 10
5464.073340140488
 20
-3608.560571593669
 30
0.0
 11
5464.073340140488
 21
-3573.560571593669
 31
0.0
  0
TEXT
  5
D8BEC
330
18
100
AcDbEntity
  8
文字
370
     9
100
AcDbText
 10
5460.690427992812
 20
-3606.736601562804
 30
0.0
 40
2.6
  1
ENCODER
 50
90.0
 41
1.199999999999999
  7
MS\U+FF7A\U+FF9E\U+FF7C\U+FF6F\U+FF78N
 11
5461.165554896365
 21
-3606.736601562804
 31
0.0
100
AcDbText
 73
     1
  0
LINE
  5
D8BED
330
18
100
AcDbEntity
  8
文字
100
AcDbLine
 10
5457.073340140488
 20
-3574.060571593669
 30
0.0
 11
5457.073340140488
 21
-3608.060571593669
 31
0.0
  0
TEXT
  5
D8BEE
330
18
100
AcDbEntity
  8
文字
370
     9
100
AcDbText
 10
5463.514461341244
 20
-3606.763728135615
 30
0.0
 40
2.0
  1
******PPR
 50
90.0
 41
1.199999999999999
  7
MS\U+FF7A\U+FF9E\U+FF7C\U+FF6F\U+FF78N
 11
5463.879943574747
 21
-3606.763728135615
 31
0.0
100
AcDbText
 73
     1
  0
TEXT
  5
D8BEF
330
18
100
AcDbEntity
  8
文字
370
     9
100
AcDbText
 10
5468.43853091444
 20
-3588.938911199119
 30
137.5
 40
1.5
  1
MADE IN JAPAN
 50
90.0
  7
MS\U+FF7A\U+FF9E\U+FF7C\U+FF6F\U+FF78N
 11
5468.712642589567
 21
-3588.938911199119
 31
137.5
100
AcDbText
 73
     1
  0
TEXT
  5
D8BF0
330
18
100
AcDbEntity
  8
文字
370
     9
100
AcDbText
 10
5466.568744864055
 20
-3588.938911199119
 30
137.5
 40
1.5
  1
SN-16140
 50
90.0
  7
MS\U+FF7A\U+FF9E\U+FF7C\U+FF6F\U+FF78N
 11
5466.842856539181
 21
-3588.938911199119
 31
137.5
100
AcDbText
 73
     1
  0
TEXT
  5
D8BF1
330
18
100
AcDbEntity
  8
文字
370
     9
100
AcDbText
 10
5468.43853091444
 20
-3628.938911199119
 30
137.5
 40
1.5
  1
MADE IN JAPAN
 50
90.0
  7
MS\U+FF7A\U+FF9E\U+FF7C\U+FF6F\U+FF78N
 11
5468.712642589567
 21
-3628.938911199119
 31
137.5
100
AcDbText
 73
     1
  0
TEXT
  5
D8BF2
330
18
100
AcDbEntity
  8
文字
370
     9
100
AcDbText
 10
5466.568744864055
 20
-3628.938911199119
 30
137.5
 40
1.5
  1
SN-16140
 50
90.0
  7
MS\U+FF7A\U+FF9E\U+FF7C\U+FF6F\U+FF78N
 11
5466.842856539181
 21
-3628.938911199119
 31
137.5
100
AcDbText
 73
     1
  0
LINE
  5
D8C5C
330
18
100
AcDbEntity
  8
実線
100
AcDbLine
 10
5480.073445143168
 20
-3689.060573321186
 30
0.0
 11
5480.073340140489
 21
-3573.060569866049
 31
0.0
  0
LINE
  5
D8C5D
330
18
100
AcDbEntity
  8
実線
100
AcDbLine
 10
5483.073340140489
 20
-3573.560569866049
 30
0.0
 11
5480.073340140489
 21
-3573.560569866049
 31
0.0
  0
LINE
  5
D8C61
330
18
100
AcDbEntity
  8
実線
100
AcDbLine
 10
5483.073340140489
 20
-3688.560573321281
 30
0.0
 11
5480.073340140489
 21
-3688.560573321281
 31
0.0
  0
LINE
  5
D8C69
330
18
100
AcDbEntity
  8
中心線
 48
0.5
100
AcDbLine
 10
5475.731387647248
 20
-3566.060565829894
 30
0.0
 11
5458.484655141453
 21
-3566.060565829894
 31
0.0
  0
CIRCLE
  5
D8CA2
330
18
100
AcDbEntity
  8
実線
100
AcDbCircle
 10
5175.066485192963
 20
-3631.060571593665
 30
0.0
 40
79.5
  0
CIRCLE
  5
D8CA3
330
18
100
AcDbEntity
  8
実線
100
AcDbCircle
 10
5175.066485192963
 20
-3631.060571593665
 30
0.0
 40
80.0
  0
CIRCLE
  5
D8CA5
330
18
100
AcDbEntity
  8
実線
100
AcDbCircle
 10
5175.066485192963
 20
-3631.060571593664
 30
0.0
 40
38.0
  0
LINE
  5
D8CA9
330
18
100
AcDbEntity
  8
中心線
 48
0.5
100
AcDbLine
 10
5175.066485192963
 20
-3719.930479921981
 30
0.0
 11
5175.066485192964
 21
-3546.060571593665
 31
0.0
  0
INSERT
  5
D8CB4
330
18
100
AcDbEntity
  8
実線
100
AcDbBlockReference
  2
*U1
 10
7118.847367245229
 20
-2936.616225026627
 30
0.0
 50
209.9999999999998
  0
ARC
  5
D8CB5
330
18
100
AcDbEntity
  8
中心線
 48
0.5
100
AcDbCircle
 10
5718.980052868522
 20
-3631.060571593665
 30
0.0
 40
45.0
100
AcDbArc
 50
59.7596516788141
 51
101.0
  0
LINE
  5
D8CB6
330
18
100
AcDbEntity
  8
\U+FF7A\U+FF88\U+FF78\U+FF80
100
AcDbLine
 10
5719.653396902792
 20
-3580.098473992023
 30
0.0
 11
5723.806708834252
 21
-3582.496389753679
 31
0.0
  0
LINE
  5
D8CB7
330
18
100
AcDbEntity
  8
\U+FF7A\U+FF88\U+FF78\U+FF80
100
AcDbLine
 10
5723.806708834252
 20
-3589.624753433651
 30
0.0
 11
5719.653396902792
 21
-3592.022669195308
 31
0.0
  0
CIRCLE
  5
D8CB8
330
18
100
AcDbEntity
  8
\U+FF7A\U+FF88\U+FF78\U+FF80
100
AcDbCircle
 10
5718.980052868522
 20
-3586.060571593665
 30
0.0
 40
4.720231971247017
  0
CIRCLE
  5
D8CB9
330
18
100
AcDbEntity
  8
\U+FF7A\U+FF88\U+FF78\U+FF80
100
AcDbCircle
 10
5718.980052868522
 20
-3586.060571593665
 30
0.0
 40
4.300000000000011
  0
CIRCLE
  5
D8CBA
330
18
100
AcDbEntity
  8
\U+FF7A\U+FF88\U+FF78\U+FF80
100
AcDbCircle
 10
5718.980052868522
 20
-3586.060571593665
 30
0.0
 40
4.100000000000023
  0
ARC
  5
D8CBB
330
18
100
AcDbEntity
  8
\U+FF7A\U+FF88\U+FF78\U+FF80
100
AcDbCircle
 10
5718.980052868522
 20
-3586.060571593665
 30
0.0
 40
5.999999999999767
100
AcDbArc
 50
143.5564643091007
 51
156.4435356909223
  0
ARC
  5
D8CBC
330
18
100
AcDbEntity
  8
\U+FF7A\U+FF88\U+FF78\U+FF80
100
AcDbCircle
 10
5718.980052868522
 20
-3586.060571593665
 30
0.0
 40
6.000000000000245
100
AcDbArc
 50
203.5564643091011
 51
216.4435356909028
  0
LINE
  5
D8CBD
330
18
100
AcDbEntity
  8
\U+FF7A\U+FF88\U+FF78\U+FF80
100
AcDbLine
 10
5713.480052868522
 20
-3588.458487355322
 30
0.0
 11
5713.480052868522
 21
-3583.662655832009
 31
0.0
  0
ARC
  5
D8CBE
330
18
100
AcDbEntity
  8
\U+FF7A\U+FF88\U+FF78\U+FF80
100
AcDbCircle
 10
5718.980052868522
 20
-3586.060571593665
 30
0.0
 40
6.0
100
AcDbArc
 50
90.0
 51
96.44353569092512
  0
ARC
  5
D8CBF
330
18
100
AcDbEntity
  8
\U+FF7A\U+FF88\U+FF78\U+FF80
100
AcDbCircle
 10
5718.980052868522
 20
-3586.060571593665
 30
0.0
 40
5.999999999999436
100
AcDbArc
 50
83.55646430908302
 51
90.0
  0
ARC
  5
D8CC0
330
18
100
AcDbEntity
  8
\U+FF7A\U+FF88\U+FF78\U+FF80
100
AcDbCircle
 10
5718.980052868522
 20
-3586.060571593665
 30
0.0
 40
6.000000000000412
100
AcDbArc
 50
263.5564643090754
 51
269.9999999999913
  0
ARC
  5
D8CC1
330
18
100
AcDbEntity
  8
\U+FF7A\U+FF88\U+FF78\U+FF80
100
AcDbCircle
 10
5718.980052868522
 20
-3586.060571593665
 30
0.0
 40
6.0
100
AcDbArc
 50
269.9999999999913
 51
276.4435356909074
  0
LINE
  5
D8CC2
330
18
100
AcDbEntity
  8
\U+FF7A\U+FF88\U+FF78\U+FF80
100
AcDbLine
 10
5714.153396902792
 20
-3582.496389753679
 30
0.0
 11
5718.306708834251
 21
-3580.098473992023
 31
0.0
  0
LINE
  5
D8CC3
330
18
100
AcDbEntity
  8
\U+FF7A\U+FF88\U+FF78\U+FF80
100
AcDbLine
 10
5718.306708834251
 20
-3592.022669195308
 30
0.0
 11
5714.153396902792
 21
-3589.624753433651
 31
0.0
  0
CIRCLE
  5
D8CC4
330
18
100
AcDbEntity
  8
\U+FF7A\U+FF88\U+FF78\U+FF80
100
AcDbCircle
 10
5718.980052868522
 20
-3586.060571593665
 30
0.0
 40
3.600000000000023
  0
CIRCLE
  5
D8CC5
330
18
100
AcDbEntity
  8
\U+FF7A\U+FF88\U+FF78\U+FF80
100
AcDbCircle
 10
5718.980052868522
 20
-3586.060571593665
 30
0.0
 40
3.25
  0
ARC
  5
D8CC7
330
18
100
AcDbEntity
  8
\U+FF7A\U+FF88\U+FF78\U+FF80
100
AcDbCircle
 10
5718.980052868522
 20
-3586.060571593665
 30
0.0
 40
5.99999999999986
100
AcDbArc
 50
23.55646430908175
 51
36.4435356909115
  0
ARC
  5
D8CC8
330
18
100
AcDbEntity
  8
\U+FF7A\U+FF88\U+FF78\U+FF80
100
AcDbCircle
 10
5718.980052868522
 20
-3586.060571593665
 30
0.0
 40
5.999999999999842
100
AcDbArc
 50
323.5564643090885
 51
336.4435356908949
  0
LINE
  5
D8CC9
330
18
100
AcDbEntity
  8
\U+FF7A\U+FF88\U+FF78\U+FF80
100
AcDbLine
 10
5724.480052868521
 20
-3583.662655832009
 30
0.0
 11
5724.480052868521
 21
-3588.458487355322
 31
0.0
  0
LINE
  5
D8CCA
330
18
100
AcDbEntity
  8
\U+FF7A\U+FF88\U+FF78\U+FF80
100
AcDbLine
 10
5737.042853214666
 20
-3583.402161760739
 30
0.0
 11
5740.125554295996
 21
-3587.075981849306
 31
0.0
  0
LINE
  5
D8CCB
330
18
100
AcDbEntity
  8
\U+FF7A\U+FF88\U+FF78\U+FF80
100
AcDbLine
 10
5737.687510328494
 20
-3593.774452597654
 30
0.0
 11
5732.964538262195
 21
-3594.607240002078
 31
0.0
  0
CIRCLE
  5
D8CCC
330
18
100
AcDbEntity
  8
\U+FF7A\U+FF88\U+FF78\U+FF80
100
AcDbCircle
 10
5734.370959318177
 20
-3588.7744036583
 30
0.0
 40
4.720231971247016
  0
CIRCLE
  5
D8CCD
330
18
100
AcDbEntity
  8
\U+FF7A\U+FF88\U+FF78\U+FF80
100
AcDbCircle
 10
5734.370959318177
 20
-3588.7744036583
 30
0.0
 40
4.300000000000009
  0
CIRCLE
  5
D8CCE
330
18
100
AcDbEntity
  8
\U+FF7A\U+FF88\U+FF78\U+FF80
100
AcDbCircle
 10
5734.370959318177
 20
-3588.7744036583
 30
0.0
 40
4.100000000000022
  0
ARC
  5
D8CCF
330
18
100
AcDbEntity
  8
\U+FF7A\U+FF88\U+FF78\U+FF80
100
AcDbCircle
 10
5734.370959318177
 20
-3588.7744036583
 30
0.0
 40
5.999999999999766
100
AcDbArc
 50
123.5564643090882
 51
136.443535690899
  0
ARC
  5
D8CD0
330
18
100
AcDbEntity
  8
\U+FF7A\U+FF88\U+FF78\U+FF80
100
AcDbCircle
 10
5734.370959318177
 20
-3588.7744036583
 30
0.0
 40
6.000000000000244
100
AcDbArc
 50
183.5564643090738
 51
196.4435356909106
  0
LINE
  5
D8CD1
330
18
100
AcDbEntity
  8
\U+FF7A\U+FF88\U+FF78\U+FF80
100
AcDbLine
 10
5728.38251441137
 20
-3589.146596616501
 30
0.0
 11
5730.022785396339
 21
-3584.639989123513
 31
0.0
  0
ARC
  5
D8CD2
330
18
100
AcDbEntity
  8
\U+FF7A\U+FF88\U+FF78\U+FF80
100
AcDbCircle
 10
5734.370959318177
 20
-3588.7744036583
 30
0.0
 40
5.999999999999999
100
AcDbArc
 50
70.00000000000112
 51
76.44353569092003
  0
ARC
  5
D8CD3
330
18
100
AcDbEntity
  8
\U+FF7A\U+FF88\U+FF78\U+FF80
100
AcDbCircle
 10
5734.370959318177
 20
-3588.7744036583
 30
0.0
 40
5.999999999999436
100
AcDbArc
 50
63.55646430908074
 51
69.99999999999963
  0
ARC
  5
D8CD4
330
18
100
AcDbEntity
  8
\U+FF7A\U+FF88\U+FF78\U+FF80
100
AcDbCircle
 10
5734.370959318177
 20
-3588.7744036583
 30
0.0
 40
6.000000000000411
100
AcDbArc
 50
243.5564643090846
 51
250.0000000000026
  0
ARC
  5
D8CD5
330
18
100
AcDbEntity
  8
\U+FF7A\U+FF88\U+FF78\U+FF80
100
AcDbCircle
 10
5734.370959318177
 20
-3588.7744036583
 30
0.0
 40
5.999999999999999
100
AcDbArc
 50
250.0000000000011
 51
256.44353569092
  0
LINE
  5
D8CD6
330
18
100
AcDbEntity
  8
\U+FF7A\U+FF88\U+FF78\U+FF80
100
AcDbLine
 10
5731.054408307859
 20
-3583.77435471894
 30
0.0
 11
5735.777380374159
 21
-3582.941567314521
 31
0.0
  0
LINE
  5
D8CD7
330
18
100
AcDbEntity
  8
\U+FF7A\U+FF88\U+FF78\U+FF80
100
AcDbLine
 10
5731.699065421687
 20
-3594.146645555858
 30
0.0
 11
5728.616364340358
 21
-3590.472825467291
 31
0.0
  0
CIRCLE
  5
D8CD8
330
18
100
AcDbEntity
  8
\U+FF7A\U+FF88\U+FF78\U+FF80
100
AcDbCircle
 10
5734.370959318177
 20
-3588.7744036583
 30
0.0
 40
3.600000000000023
  0
CIRCLE
  5
D8CD9
330
18
100
AcDbEntity
  8
\U+FF7A\U+FF88\U+FF78\U+FF80
100
AcDbCircle
 10
5734.370959318177
 20
-3588.7744036583
 30
0.0
 40
3.299999999999998
  0
ARC
  5
D8CDB
330
18
100
AcDbEntity
  8
\U+FF7A\U+FF88\U+FF78\U+FF80
100
AcDbCircle
 10
5734.370959318177
 20
-3588.7744036583
 30
0.0
 40
5.999999999999859
100
AcDbArc
 50
3.556464309091697
 51
16.44353569091903
  0
ARC
  5
D8CDC
330
18
100
AcDbEntity
  8
\U+FF7A\U+FF88\U+FF78\U+FF80
100
AcDbCircle
 10
5734.370959318177
 20
-3588.7744036583
 30
0.0
 40
5.999999999999841
100
AcDbArc
 50
303.5564643090979
 51
316.4435356909267
  0
LINE
  5
D8CDD
330
18
100
AcDbEntity
  8
\U+FF7A\U+FF88\U+FF78\U+FF80
100
AcDbLine
 10
5740.359404224983
 20
-3588.402210700096
 30
0.0
 11
5738.719133240016
 21
-3592.908818193084
 31
0.0
  0
LINE
  5
D8CED
330
18
100
AcDbEntity
  8
中心線
 48
0.5
100
AcDbLine
 10
5718.980052868515
 20
-3719.490536078369
 30
0.0
 11
5718.980052868515
 21
-3543.576035553228
 31
0.0
  0
CIRCLE
  5
D8CF6
330
18
100
AcDbEntity
  8
実線
100
AcDbCircle
 10
5718.980052868515
 20
-3631.060571593665
 30
0.0
 40
80.0
  0
LINE
  5
D8CF8
330
18
100
AcDbEntity
  8
中心線
 48
0.5
100
AcDbLine
 10
5631.495516828077
 20
-3631.060571593665
 30
0.0
 11
5806.464588908951
 21
-3631.060571593665
 31
0.0
  0
LINE
  5
D8CFA
330
18
100
AcDbEntity
  8
実線
100
AcDbLine
 10
5714.48005286507
 20
-3552.660572010932
 30
0.0
 11
5714.48005286507
 21
-3553.060572010927
 31
0.0
  0
LINE
  5
D8CFB
330
18
100
AcDbEntity
  8
実線
100
AcDbLine
 10
5710.10505286507
 20
-3552.260572010931
 30
0.0
 11
5711.855052865069
 21
-3552.260572010931
 31
0.0
  0
LINE
  5
D8CFC
330
18
100
AcDbEntity
  8
実線
100
AcDbLine
 10
5714.48005286507
 20
-3552.660572010932
 30
0.0
 11
5711.855052865069
 21
-3552.260572010931
 31
0.0
  0
LINE
  5
D8CFD
330
18
100
AcDbEntity
  8
実線
100
AcDbLine
 10
5707.480052865069
 20
-3552.660572010932
 30
0.0
 11
5707.480052865069
 21
-3553.060572010927
 31
0.0
  0
LINE
  5
D8CFE
330
18
100
AcDbEntity
  8
実線
100
AcDbLine
 10
5714.48005286507
 20
-3553.060572010927
 30
0.0
 11
5707.480052865069
 21
-3553.060572010927
 31
0.0
  0
LINE
  5
D8CFF
330
18
100
AcDbEntity
  8
実線
100
AcDbLine
 10
5707.480052865069
 20
-3553.060572010927
 30
0.0
 11
5714.48005286507
 21
-3553.060572010927
 31
0.0
  0
LINE
  5
D8D00
330
18
100
AcDbEntity
  8
実線
100
AcDbLine
 10
5710.10505286507
 20
-3552.260572010931
 30
0.0
 11
5707.480052865069
 21
-3552.660572010932
 31
0.0
  0
LINE
  5
D8D01
330
18
100
AcDbEntity
  8
実線
100
AcDbLine
 10
5707.480052865069
 20
-3552.660572010932
 30
0.0
 11
5714.48005286507
 21
-3552.660572010932
 31
0.0
  0
LINE
  5
D8D02
330
18
100
AcDbEntity
  8
実線
100
AcDbLine
 10
5707.480052865069
 20
-3553.060572010927
 30
0.0
 11
5730.480052865069
 21
-3553.060572010927
 31
0.0
  0
LINE
  5
D8D03
330
18
100
AcDbEntity
  8
実線
100
AcDbLine
 10
5707.480052865069
 20
-3554.060572010927
 30
0.0
 11
5707.480052865069
 21
-3553.060572010927
 31
0.0
  0
LINE
  5
D8D04
330
18
100
AcDbEntity
  8
実線
100
AcDbLine
 10
5723.48005286507
 20
-3552.660572010932
 30
0.0
 11
5723.48005286507
 21
-3553.060572010927
 31
0.0
  0
LINE
  5
D8D05
330
18
100
AcDbEntity
  8
実線
100
AcDbLine
 10
5727.85505286507
 20
-3552.260572010931
 30
0.0
 11
5726.105052865069
 21
-3552.260572010931
 31
0.0
  0
LINE
  5
D8D06
330
18
100
AcDbEntity
  8
実線
100
AcDbLine
 10
5723.48005286507
 20
-3552.660572010932
 30
0.0
 11
5726.105052865069
 21
-3552.260572010931
 31
0.0
  0
LINE
  5
D8D07
330
18
100
AcDbEntity
  8
実線
100
AcDbLine
 10
5730.480052865069
 20
-3554.060572010927
 30
0.0
 11
5730.480052865069
 21
-3553.060572010927
 31
0.0
  0
LINE
  5
D8D08
330
18
100
AcDbEntity
  8
実線
100
AcDbLine
 10
5730.480052865069
 20
-3552.660572010932
 30
0.0
 11
5723.48005286507
 21
-3552.660572010932
 31
0.0
  0
LINE
  5
D8D09
330
18
100
AcDbEntity
  8
実線
100
AcDbLine
 10
5727.85505286507
 20
-3552.260572010931
 30
0.0
 11
5730.480052865069
 21
-3552.660572010932
 31
0.0
  0
LINE
  5
D8D0A
330
18
100
AcDbEntity
  8
実線
100
AcDbLine
 10
5730.480052865069
 20
-3553.060572010927
 30
0.0
 11
5723.48005286507
 21
-3553.060572010927
 31
0.0
  0
LINE
  5
D8D0B
330
18
100
AcDbEntity
  8
実線
100
AcDbLine
 10
5723.48005286507
 20
-3553.060572010927
 30
0.0
 11
5730.480052865069
 21
-3553.060572010927
 31
0.0
  0
LINE
  5
D8D0C
330
18
100
AcDbEntity
  8
実線
100
AcDbLine
 10
5730.480052865069
 20
-3552.660572010932
 30
0.0
 11
5730.480052865069
 21
-3553.060572010927
 31
0.0
  0
LINE
  5
D8D0D
330
18
100
AcDbEntity
  8
実線
100
AcDbLine
 10
5706.48005267882
 20
-3552.043170852126
 30
0.0
 11
5706.48005267882
 21
-3554.060572010927
 31
0.0
  0
LINE
  5
D8D0E
330
18
100
AcDbEntity
  8
実線
100
AcDbLine
 10
5731.48005305132
 20
-3552.043170852126
 30
0.0
 11
5731.48005305132
 21
-3554.060572010927
 31
0.0
  0
LINE
  5
D8D0F
330
18
100
AcDbEntity
  8
実線
100
AcDbLine
 10
5731.48005305132
 20
-3554.060572010927
 30
0.0
 11
5706.48005267882
 21
-3554.060572010927
 31
0.0
  0
ARC
  5
D8F00
330
18
100
AcDbEntity
  8
細線
 48
0.5
100
AcDbCircle
 10
5513.148367729194
 20
-3674.413461563367
 30
0.0
 40
3.342317391022791
100
AcDbArc
 50
330.4749002060369
 51
29.63903398040319
  0
ARC
  5
D8F01
330
18
100
AcDbEntity
  8
細線
 48
0.5
100
AcDbCircle
 10
5513.703309703346
 20
-3584.436190315761
 30
0.0
 40
2.85703248384745
100
AcDbArc
 50
325.4570557123102
 51
34.67984813690402
  0
ARC
  5
D8F02
330
18
100
AcDbEntity
  8
細線
 48
0.5
100
AcDbCircle
 10
5513.681730059809
 20
-3587.684927096574
 30
0.0
 40
2.874819183077052
100
AcDbArc
 50
325.5644441092025
 51
34.29865082850924
  0
ARC
  5
D8F03
330
18
100
AcDbEntity
  8
細線
 48
0.5
100
AcDbCircle
 10
5518.446552925572
 20
-3587.690619738225
 30
0.0
 40
2.890404695195004
100
AcDbArc
 50
145.7754593547372
 51
214.0876355828866
  0
ARC
  5
D8F07
330
18
100
AcDbEntity
  8
細線
 48
0.5
100
AcDbCircle
 10
5518.978967319887
 20
-3677.713478777334
 30
0.0
 40
3.357384742926893
100
AcDbArc
 50
150.506826436756
 51
209.3792393758311
  0
ARC
  5
D8F08
330
18
100
AcDbEntity
  8
細線
 48
0.5
100
AcDbCircle
 10
5513.148367659745
 20
-3677.70768162387
 30
0.0
 40
3.342317451406183
100
AcDbArc
 50
330.360966606713
 51
29.5250992058738
  0
TEXT
  5
D98F0
330
18
100
AcDbEntity
  8
文字
370
     9
100
AcDbText
 10
5450.51446134124
 20
-3606.763728135617
 30
0.0
 40
2.0
  1
SER No.******
 50
90.0
 41
1.199999999999999
  7
MS\U+FF7A\U+FF9E\U+FF7C\U+FF6F\U+FF78N
 11
5450.879943574744
 21
-3606.763728135617
 31
0.0
100
AcDbText
 73
     1
  0
LINE
  5
D98F1
330
18
100
AcDbEntity
  8
文字
100
AcDbLine
 10
5444.073340140484
 20
-3574.06057159367
 30
0.0
 11
5444.073340140484
 21
-3608.06057159367
 31
0.0
  0
LINE
  5
D98F2
330
18
100
AcDbEntity
  8
文字
100
AcDbLine
 10
5456.073340140484
 20
-3608.06057159367
 30
0.0
 11
5456.073340140484
 21
-3574.06057159367
 31
0.0
  0
LINE
  5
D98F3
330
18
100
AcDbEntity
  8
文字
100
AcDbLine
 10
5451.073340140484
 20
-3608.56057159367
 30
0.0
 11
5451.073340140484
 21
-3573.56057159367
 31
0.0
  0
ARC
  5
D98F4
330
18
100
AcDbEntity
  8
文字
370
     9
100
AcDbCircle
 10
5454.018316722486
 20
-3603.611525092592
 30
0.0
 40
0.8009999999999999
100
AcDbArc
 50
0.0
 51
180.0
  0
CIRCLE
  5
D98F5
330
18
100
AcDbEntity
  8
文字
370
     9
100
AcDbCircle
 10
5453.818066722485
 20
-3603.611525092592
 30
0.0
 40
0.6007500000000002
  0
LINE
  5
D98F6
330
18
100
AcDbEntity
  8
文字
370
     9
100
AcDbLine
 10
5455.219816722483
 20
-3606.014525092593
 30
0.0
 11
5455.219816722483
 21
-3601.609025092594
 31
0.0
  0
LINE
  5
D98F7
330
18
100
AcDbEntity
  8
文字
370
     9
100
AcDbLine
 10
5453.217316722484
 20
-3603.611525092591
 30
0.0
 11
5453.217316722484
 21
-3601.368725092591
 31
0.0
  0
TEXT
  5
D98F8
330
18
100
AcDbEntity
  8
文字
370
     9
100
AcDbText
 10
5447.690427992808
 20
-3606.736601562805
 30
0.0
 40
2.6
  1
MODEL:
 50
90.0
 41
1.199999999999999
  7
MS\U+FF7A\U+FF9E\U+FF7C\U+FF6F\U+FF78N
 11
5448.165554896362
 21
-3606.736601562805
 31
0.0
100
AcDbText
 73
     1
  0
LINE
  5
D98F9
330
18
100
AcDbEntity
  8
文字
370
     9
100
AcDbLine
 10
5452.015816722481
 20
-3605.614025092594
 30
0.0
 11
5452.015816722481
 21
-3601.208525092593
 31
0.0
  0
LINE
  5
D98FA
330
18
100
AcDbEntity
  8
文字
370
     9
100
AcDbLine
 10
5452.015816722481
 20
-3601.208525092593
 30
0.0
 11
5452.89691672248
 21
-3604.012025092591
 31
0.0
  0
ARC
  5
D98FB
330
18
100
AcDbEntity
  8
文字
370
     9
100
AcDbCircle
 10
5453.816203931787
 20
-3603.610593697244
 30
0.0
 40
1.003113223100251
100
AcDbArc
 50
203.5897772726021
 51
359.9468005913668
  0
LINE
  5
D98FC
330
18
100
AcDbEntity
  8
文字
100
AcDbLine
 10
5444.573340140484
 20
-3608.56057159367
 30
0.0
 11
5455.573340140484
 21
-3608.56057159367
 31
0.0
  0
LINE
  5
D98FD
330
18
100
AcDbEntity
  8
文字
370
     9
100
AcDbLine
 10
5455.219816722483
 20
-3606.014525092593
 30
0.0
 11
5452.015816722481
 21
-3605.614025092594
 31
0.0
  0
ARC
  5
D98FE
330
18
100
AcDbEntity
  8
文字
100
AcDbCircle
 10
5444.573340140488
 20
-3608.060571593671
 30
0.0
 40
0.5
100
AcDbArc
 50
180.0
 51
270.0
  0
ARC
  5
D98FF
330
18
100
AcDbEntity
  8
文字
100
AcDbCircle
 10
5455.573340140488
 20
-3608.060571593671
 30
0.0
 40
0.5
100
AcDbArc
 50
270.0
 51
0.0
  0
LINE
  5
D9900
330
18
100
AcDbEntity
  8
文字
370
     9
100
AcDbLine
 10
5455.219816722483
 20
-3601.609025092594
 30
0.0
 11
5453.217316722484
 21
-3601.368725092591
 31
0.0
  0
TEXT
  5
D9901
330
18
100
AcDbEntity
  8
文字
370
     9
100
AcDbText
 10
5455.172082583901
 20
-3600.392425868207
 30
0.0
 40
1.439999999999999
  1
DENSO
 50
90.0
 41
1.3
  7
TIMESNR
100
AcDbText
  0
TEXT
  5
D9902
330
18
100
AcDbEntity
  8
文字
370
     9
100
AcDbText
 10
5453.475320174916
 20
-3600.271012758067
 30
0.0
 40
1.439999999999999
  1
NIKKI
 50
90.0
 41
1.25
  7
TIMESNR
100
AcDbText
  0
LINE
  5
D9903
330
18
100
AcDbEntity
  8
文字
100
AcDbLine
 10
5455.573340140484
 20
-3573.56057159367
 30
0.0
 11
5444.573340140484
 21
-3573.56057159367
 31
0.0
  0
ARC
  5
D9904
330
18
100
AcDbEntity
  8
文字
100
AcDbCircle
 10
5444.573340140488
 20
-3574.060571593671
 30
0.0
 40
0.5
100
AcDbArc
 50
90.0
 51
180.0
  0
ARC
  5
D9905
330
18
100
AcDbEntity
  8
文字
100
AcDbCircle
 10
5455.573340140488
 20
-3574.060571593671
 30
0.0
 40
0.5
100
AcDbArc
 50
0.0
 51
90.0
  0
TEXT
  5
D9906
330
18
100
AcDbEntity
  8
文字
370
     9
100
AcDbText
 10
5453.568744864051
 20
-3588.93891119912
 30
137.5
 40
1.5
  1
SN-16140
 50
90.0
  7
MS\U+FF7A\U+FF9E\U+FF7C\U+FF6F\U+FF78N
 11
5453.842856539178
 21
-3588.93891119912
 31
137.5
100
AcDbText
 73
     1
  0
TEXT
  5
D9907
330
18
100
AcDbEntity
  8
文字
370
     9
100
AcDbText
 10
5455.438530914436
 20
-3588.93891119912
 30
137.5
 40
1.5
  1
MADE IN JAPAN
 50
90.0
  7
MS\U+FF7A\U+FF9E\U+FF7C\U+FF6F\U+FF78N
 11
5455.712642589563
 21
-3588.93891119912
 31
137.5
100
AcDbText
 73
     1
  0
LINE
  5
D9A88
330
18
100
AcDbEntity
  8
\U+FF7A\U+FF88\U+FF78\U+FF80
100
AcDbLine
 10
5499.175836385387
 20
-3672.760571593665
 30
0.0
 11
5516.05337036093
 21
-3672.760571593665
 31
0.0
  0
LINE
  5
D9A89
330
18
100
AcDbEntity
  8
\U+FF7A\U+FF88\U+FF78\U+FF80
100
AcDbLine
 10
5499.175836385387
 20
-3679.360571593667
 30
0.0
 11
5516.053370360902
 21
-3679.360571593667
 31
0.0
  0
INSERT
  5
D9B13
330
18
100
AcDbEntity
  8
寸法
100
AcDbBlockReference
  2
A$C23141
 10
5718.980052868515
 20
-3631.060571593665
 30
0.0
  0
LINE
  5
D9B14
330
18
100
AcDbEntity
  8
\U+FF7A\U+FF88\U+FF78\U+FF80
100
AcDbLine
 10
5718.980052868522
 20
-3582.810571593665
 30
0.0
 11
5718.980052868522
 21
-3589.310571593665
 31
0.0
  0
LINE
  5
D9B15
330
18
100
AcDbEntity
  8
\U+FF7A\U+FF88\U+FF78\U+FF80
100
AcDbLine
 10
5715.730052868522
 20
-3586.060571593665
 30
0.0
 11
5722.230052868521
 21
-3586.060571593665
 31
0.0
  0
LINE
  5
D9B19
330
18
100
AcDbEntity
  8
中心線
100
AcDbLine
 10
5718.980052868522
 20
-3631.060571593665
 30
0.0
 11
5737.278130536445
 21
-3580.78701638162
 31
0.0
  0
LINE
  5
D9B1A
330
18
100
AcDbEntity
  8
\U+FF7A\U+FF88\U+FF78\U+FF80
100
AcDbLine
 10
5733.242292845202
 20
-3591.875389306892
 30
0.0
 11
5735.499625791151
 21
-3585.673418009705
 31
0.0
  0
LINE
  5
D9B1B
330
18
100
AcDbEntity
  8
\U+FF7A\U+FF88\U+FF78\U+FF80
100
AcDbLine
 10
5731.269973669583
 20
-3587.645737185324
 30
0.0
 11
5737.47194496677
 21
-3589.903070131274
 31
0.0
  0
LINE
  5
DA49F
330
18
100
AcDbEntity
  8
\U+FF7A\U+FF88\U+FF78\U+FF80
100
AcDbLine
 10
5577.459514688558
 20
-3514.760569895067
 30
0.0
 11
5570.959514688557
 21
-3514.760569895067
 31
0.0
  0
LINE
  5
DA4A0
330
18
100
AcDbEntity
  8
\U+FF7A\U+FF88\U+FF78\U+FF80
 48
0.5
100
AcDbLine
 10
5572.209514688558
 20
-3514.760569895067
 30
0.0
 11
5576.209514688557
 21
-3514.760569895067
 31
0.0
  0
LINE
  5
DA4A1
330
18
100
AcDbEntity
  8
\U+FF7A\U+FF88\U+FF78\U+FF80
 48
0.5
100
AcDbLine
 10
5576.209514688557
 20
-3514.760569895067
 30
0.0
 11
5572.209514688558
 21
-3514.760569895067
 31
0.0
  0
LINE
  5
DA4A2
330
18
100
AcDbEntity
  8
\U+FF7A\U+FF88\U+FF78\U+FF80
100
AcDbLine
 10
5535.959514689233
 20
-3582.810570906254
 30
0.0
 11
5518.060529057724
 21
-3582.810566406215
 31
0.0
  0
LINE
  5
DA4A3
330
18
100
AcDbEntity
  8
\U+FF7A\U+FF88\U+FF78\U+FF80
100
AcDbLine
 10
5535.959514688293
 20
-3589.310570905048
 30
0.0
 11
5518.060529057725
 21
-3589.310576781115
 31
0.0
  0
ARC
  5
DA4A4
330
18
100
AcDbEntity
  8
\U+FF7A\U+FF88\U+FF78\U+FF80
100
AcDbCircle
 10
5535.959514689233
 20
-3547.810570906254
 30
0.0
 40
35.0
100
AcDbArc
 50
270.0000000022927
 51
0.0000000060447841
  0
ARC
  5
DA4A5
330
18
100
AcDbEntity
  8
\U+FF7A\U+FF88\U+FF78\U+FF80
100
AcDbCircle
 10
5535.959514688293
 20
-3547.810570905048
 30
0.0
 40
41.5
100
AcDbArc
 50
270.0000000022407
 51
0.0000000052110208
  0
LINE
  5
DA4A6
330
18
100
AcDbEntity
  8
\U+FF7A\U+FF88\U+FF78\U+FF80
100
AcDbLine
 10
5570.959514688557
 20
-3514.760569895069
 30
0.0
 11
5570.959514689233
 21
-3547.810570902562
 31
0.0
  0
LINE
  5
DA4A7
330
18
100
AcDbEntity
  8
\U+FF7A\U+FF88\U+FF78\U+FF80
100
AcDbLine
 10
5577.459514688558
 20
-3514.760569895067
 30
0.0
 11
5577.459514688293
 21
-3547.810570901274
 31
0.0
  0
LINE
  5
DA4C0
330
18
100
AcDbEntity
  8
\U+FF7A\U+FF88\U+FF78\U+FF80
 48
0.5
100
AcDbLine
 10
5575.709514688558
 20
-3747.360571593665
 30
0.0
 11
5572.709526794643
 21
-3747.360571593665
 31
0.0
  0
LINE
  5
DA4C1
330
18
100
AcDbEntity
  8
\U+FF7A\U+FF88\U+FF78\U+FF80
100
AcDbLine
 10
5577.5095207416
 20
-3747.360571593665
 30
0.0
 11
5570.9095207416
 21
-3747.360571593665
 31
0.0
  0
LINE
  5
DA4C2
330
18
100
AcDbEntity
  8
\U+FF7A\U+FF88\U+FF78\U+FF80
100
AcDbLine
 10
5570.664508635516
 20
-3481.060569895068
 30
0.0
 11
5574.114508635517
 21
-3481.060569895068
 31
0.0
  0
LINE
  5
DA4C3
330
18
100
AcDbEntity
  8
\U+FF7A\U+FF88\U+FF78\U+FF80
100
AcDbLine
 10
5574.804508635516
 20
-3481.060569895068
 30
0.0
 11
5578.254508635516
 21
-3481.060569895068
 31
0.0
  0
LINE
  5
DA4C4
330
18
100
AcDbEntity
  8
\U+FF7A\U+FF88\U+FF78\U+FF80
100
AcDbLine
 10
5568.159508635517
 20
-3482.860569895067
 30
0.0
 11
5567.159508635517
 21
-3482.860569895067
 31
0.0
  0
LINE
  5
DA4C5
330
18
100
AcDbEntity
  8
\U+FF7A\U+FF88\U+FF78\U+FF80
100
AcDbLine
 10
5580.359508635515
 20
-3504.760569895067
 30
0.0
 11
5580.359508635515
 21
-3504.260569895067
 31
0.0
  0
LINE
  5
DA4C6
330
18
100
AcDbEntity
  8
\U+FF7A\U+FF88\U+FF78\U+FF80
100
AcDbLine
 10
5579.859508635515
 20
-3503.760569895067
 30
0.0
 11
5579.859508635515
 21
-3504.760569895067
 31
0.0
  0
LINE
  5
DA4C7
330
18
100
AcDbEntity
  8
\U+FF7A\U+FF88\U+FF78\U+FF80
100
AcDbLine
 10
5579.359508635516
 20
-3503.760569895067
 30
0.0
 11
5579.359508635516
 21
-3490.360569895067
 31
0.0
  0
LINE
  5
DA4C8
330
18
100
AcDbEntity
  8
\U+FF7A\U+FF88\U+FF78\U+FF80
100
AcDbLine
 10
5578.859508635515
 20
-3504.260569895067
 30
0.0
 11
5578.859508635515
 21
-3490.360569895067
 31
0.0
  0
LINE
  5
DA4C9
330
18
100
AcDbEntity
  8
\U+FF7A\U+FF88\U+FF78\U+FF80
100
AcDbLine
 10
5566.159508635516
 20
-3487.410569895067
 30
0.0
 11
5567.159508635517
 21
-3487.410569895067
 31
0.0
  0
LINE
  5
DA4CA
330
18
100
AcDbEntity
  8
\U+FF7A\U+FF88\U+FF78\U+FF80
100
AcDbLine
 10
5578.254508635516
 20
-3490.060569895069
 30
0.0
 11
5578.254508635516
 21
-3481.060569895068
 31
0.0
  0
LINE
  5
DA4CB
330
18
100
AcDbEntity
  8
\U+FF7A\U+FF88\U+FF78\U+FF80
100
AcDbLine
 10
5568.159508635517
 20
-3487.296834632517
 30
0.0
 11
5569.459508635516
 21
-3487.410569895067
 31
0.0
  0
LINE
  5
DA4CC
330
18
100
AcDbEntity
  8
\U+FF7A\U+FF88\U+FF78\U+FF80
100
AcDbLine
 10
5567.159508635517
 20
-3489.560569895068
 30
0.0
 11
5568.159508635517
 21
-3489.560569895068
 31
0.0
  0
LINE
  5
DA4CD
330
18
100
AcDbEntity
  8
\U+FF7A\U+FF88\U+FF78\U+FF80
100
AcDbLine
 10
5570.664508635516
 20
-3490.060569895069
 30
0.0
 11
5574.114508635517
 21
-3490.060569895069
 31
0.0
  0
LINE
  5
DA4CE
330
18
100
AcDbEntity
  8
\U+FF7A\U+FF88\U+FF78\U+FF80
100
AcDbLine
 10
5574.804508635516
 20
-3490.060569895069
 30
0.0
 11
5578.254508635516
 21
-3490.060569895069
 31
0.0
  0
LINE
  5
DA4CF
330
18
100
AcDbEntity
  8
\U+FF7A\U+FF88\U+FF78\U+FF80
100
AcDbLine
 10
5574.804508635516
 20
-3490.060569895069
 30
0.0
 11
5574.804508635516
 21
-3481.060569895068
 31
0.0
  0
LINE
  5
DA4D0
330
18
100
AcDbEntity
  8
\U+FF7A\U+FF88\U+FF78\U+FF80
100
AcDbLine
 10
5579.359508635516
 20
-3490.360569895067
 30
0.0
 11
5569.559508635516
 21
-3490.360569895067
 31
0.0
  0
LINE
  5
DA4D1
330
18
100
AcDbEntity
  8
\U+FF7A\U+FF88\U+FF78\U+FF80
100
AcDbLine
 10
5568.859508635515
 20
-3491.060569895068
 30
0.0
 11
5566.159508635516
 21
-3491.060569895068
 31
0.0
  0
LINE
  5
DA4D2
330
18
100
AcDbEntity
  8
\U+FF7A\U+FF88\U+FF78\U+FF80
100
AcDbLine
 10
5574.114508635517
 20
-3490.060569895069
 30
0.0
 11
5574.114508635517
 21
-3481.060569895068
 31
0.0
  0
LINE
  5
DA4D3
330
18
100
AcDbEntity
  8
\U+FF7A\U+FF88\U+FF78\U+FF80
100
AcDbLine
 10
5567.659508635516
 20
-3492.560569895069
 30
0.0
 11
5569.059508635516
 21
-3492.560569895069
 31
0.0
  0
LINE
  5
DA4D4
330
18
100
AcDbEntity
  8
\U+FF7A\U+FF88\U+FF78\U+FF80
100
AcDbLine
 10
5569.601251066016
 20
-3492.760569895067
 30
0.0
 11
5568.659508635517
 21
-3492.760569895067
 31
0.0
  0
LINE
  5
DA4D5
330
18
100
AcDbEntity
  8
\U+FF7A\U+FF88\U+FF78\U+FF80
100
AcDbLine
 10
5569.459508635516
 20
-3485.910569895067
 30
0.0
 11
5568.159508635517
 21
-3482.860569895067
 31
0.0
  0
LINE
  5
DA4D6
330
18
100
AcDbEntity
  8
\U+FF7A\U+FF88\U+FF78\U+FF80
100
AcDbLine
 10
5571.059508635516
 20
-3504.760569895067
 30
0.0
 11
5571.059508635516
 21
-3490.360569895067
 31
0.0
  0
LINE
  5
DA4D7
330
18
100
AcDbEntity
  8
\U+FF7A\U+FF88\U+FF78\U+FF80
100
AcDbLine
 10
5570.664508635516
 20
-3490.060569895069
 30
0.0
 11
5570.664508635516
 21
-3481.060569895068
 31
0.0
  0
LINE
  5
DA4D8
330
18
100
AcDbEntity
  8
\U+FF7A\U+FF88\U+FF78\U+FF80
100
AcDbLine
 10
5570.559508635516
 20
-3504.760569895067
 30
0.0
 11
5570.559508635516
 21
-3490.360569895067
 31
0.0
  0
LINE
  5
DA4D9
330
18
100
AcDbEntity
  8
\U+FF7A\U+FF88\U+FF78\U+FF80
100
AcDbLine
 10
5570.059508635516
 20
-3490.360569895067
 30
0.0
 11
5570.059508635516
 21
-3503.760569895067
 31
0.0
  0
LINE
  5
DA4DA
330
18
100
AcDbEntity
  8
\U+FF7A\U+FF88\U+FF78\U+FF80
100
AcDbLine
 10
5569.601251066016
 20
-3503.760569895067
 30
0.0
 11
5569.601251066016
 21
-3492.760569895067
 31
0.0
  0
LINE
  5
DA4DB
330
18
100
AcDbEntity
  8
\U+FF7A\U+FF88\U+FF78\U+FF80
100
AcDbLine
 10
5569.559508635516
 20
-3490.360569895067
 30
0.0
 11
5569.559508635516
 21
-3492.760569895067
 31
0.0
  0
LINE
  5
DA4DC
330
18
100
AcDbEntity
  8
\U+FF7A\U+FF88\U+FF78\U+FF80
100
AcDbLine
 10
5569.459508635516
 20
-3487.410569895067
 30
0.0
 11
5569.459508635516
 21
-3485.910569895067
 31
0.0
  0
LINE
  5
DA4DD
330
18
100
AcDbEntity
  8
\U+FF7A\U+FF88\U+FF78\U+FF80
100
AcDbLine
 10
5569.017766205017
 20
-3503.760569895067
 30
0.0
 11
5569.017766205017
 21
-3504.760569895067
 31
0.0
  0
LINE
  5
DA4DE
330
18
100
AcDbEntity
  8
\U+FF7A\U+FF88\U+FF78\U+FF80
100
AcDbLine
 10
5568.559508635516
 20
-3504.760569895067
 30
0.0
 11
5568.559508635516
 21
-3503.760569895067
 31
0.0
  0
LINE
  5
DA4DF
330
18
100
AcDbEntity
  8
\U+FF7A\U+FF88\U+FF78\U+FF80
100
AcDbLine
 10
5566.159508635516
 20
-3497.560569895068
 30
0.0
 11
5565.659508635516
 21
-3497.560569895068
 31
0.0
  0
LINE
  5
DA4E0
330
18
100
AcDbEntity
  8
\U+FF7A\U+FF88\U+FF78\U+FF80
100
AcDbLine
 10
5568.159508635517
 20
-3504.760569895067
 30
0.0
 11
5568.159508635517
 21
-3493.260569895067
 31
0.0
  0
LINE
  5
DA4E1
330
18
100
AcDbEntity
  8
\U+FF7A\U+FF88\U+FF78\U+FF80
100
AcDbLine
 10
5568.159508635517
 20
-3491.060569895068
 30
0.0
 11
5568.159508635517
 21
-3487.296834632517
 31
0.0
  0
LINE
  5
DA4E2
330
18
100
AcDbEntity
  8
\U+FF7A\U+FF88\U+FF78\U+FF80
100
AcDbLine
 10
5567.159508635517
 20
-3498.560569895068
 30
0.0
 11
5568.159508635517
 21
-3492.560569895069
 31
0.0
  0
LINE
  5
DA4E3
330
18
100
AcDbEntity
  8
\U+FF7A\U+FF88\U+FF78\U+FF80
100
AcDbLine
 10
5565.659508635516
 20
-3498.560569895068
 30
0.0
 11
5567.159508635517
 21
-3498.560569895068
 31
0.0
  0
LINE
  5
DA4E4
330
18
100
AcDbEntity
  8
\U+FF7A\U+FF88\U+FF78\U+FF80
100
AcDbLine
 10
5567.159508635517
 20
-3498.560569895068
 30
0.0
 11
5567.159508635517
 21
-3493.060569895068
 31
0.0
  0
LINE
  5
DA4E5
330
18
100
AcDbEntity
  8
\U+FF7A\U+FF88\U+FF78\U+FF80
100
AcDbLine
 10
5567.159508635517
 20
-3490.560569895068
 30
0.0
 11
5567.159508635517
 21
-3487.410569895067
 31
0.0
  0
LINE
  5
DA4E6
330
18
100
AcDbEntity
  8
\U+FF7A\U+FF88\U+FF78\U+FF80
100
AcDbLine
 10
5566.159508635516
 20
-3483.860569895067
 30
0.0
 11
5566.159508635516
 21
-3497.560569895068
 31
0.0
  0
LINE
  5
DA4E7
330
18
100
AcDbEntity
  8
\U+FF7A\U+FF88\U+FF78\U+FF80
100
AcDbLine
 10
5565.659508635516
 20
-3488.276595298868
 30
0.0
 11
5565.659508635516
 21
-3498.560569895068
 31
0.0
  0
LINE
  5
DA4E8
330
18
100
AcDbEntity
  8
\U+FF7A\U+FF88\U+FF78\U+FF80
100
AcDbLine
 10
5566.159508635516
 20
-3487.410569895067
 30
0.0
 11
5565.659508635516
 21
-3488.276595298868
 31
0.0
  0
LINE
  5
DA4E9
330
18
100
AcDbEntity
  8
\U+FF7A\U+FF88\U+FF78\U+FF80
100
AcDbLine
 10
5567.159508635517
 20
-3482.860569895067
 30
0.0
 11
5566.159508635516
 21
-3483.860569895067
 31
0.0
  0
LINE
  5
DA4EA
330
18
100
AcDbEntity
  8
\U+FF7A\U+FF88\U+FF78\U+FF80
100
AcDbLine
 10
5579.859508635515
 20
-3503.760569895067
 30
0.0
 11
5579.359508635516
 21
-3503.760569895067
 31
0.0
  0
LINE
  5
DA4EB
330
18
100
AcDbEntity
  8
\U+FF7A\U+FF88\U+FF78\U+FF80
100
AcDbLine
 10
5570.059508635516
 20
-3503.760569895067
 30
0.0
 11
5568.559508635516
 21
-3503.760569895067
 31
0.0
  0
LINE
  5
DA4EC
330
18
100
AcDbEntity
  8
\U+FF7A\U+FF88\U+FF78\U+FF80
100
AcDbLine
 10
5580.359508635515
 20
-3504.260569895067
 30
0.0
 11
5578.859508635515
 21
-3504.260569895067
 31
0.0
  0
LINE
  5
DA4ED
330
18
100
AcDbEntity
  8
\U+FF7A\U+FF88\U+FF78\U+FF80
100
AcDbLine
 10
5580.359508635515
 20
-3504.760569895067
 30
0.0
 11
5568.159508635517
 21
-3504.760569895067
 31
0.0
  0
ARC
  5
DA4EE
330
18
100
AcDbEntity
  8
\U+FF7A\U+FF88\U+FF78\U+FF80
100
AcDbCircle
 10
5568.859508635515
 20
-3490.360569895067
 30
0.0
 40
0.7
100
AcDbArc
 50
270.0
 51
0.0
  0
ARC
  5
DA4EF
330
18
100
AcDbEntity
  8
\U+FF7A\U+FF88\U+FF78\U+FF80
100
AcDbCircle
 10
5569.059508635516
 20
-3493.060569895068
 30
0.0
 40
0.5
100
AcDbArc
 50
37.24116237545892
 51
90.0
  0
ARC
  5
DA4F0
330
18
100
AcDbEntity
  8
\U+FF7A\U+FF88\U+FF78\U+FF80
100
AcDbCircle
 10
5567.659508635516
 20
-3493.060569895068
 30
0.0
 40
0.5
100
AcDbArc
 50
90.0
 51
180.0
  0
ARC
  5
DA4F1
330
18
100
AcDbEntity
  8
\U+FF7A\U+FF88\U+FF78\U+FF80
100
AcDbCircle
 10
5579.859508635515
 20
-3504.260569895067
 30
0.0
 40
0.5
100
AcDbArc
 50
0.0
 51
90.0
  0
ARC
  5
DA4F2
330
18
100
AcDbEntity
  8
\U+FF7A\U+FF88\U+FF78\U+FF80
100
AcDbCircle
 10
5567.659508635516
 20
-3490.560569895068
 30
0.0
 40
0.5
100
AcDbArc
 50
180.0
 51
270.0
  0
ARC
  5
DA4F3
330
18
100
AcDbEntity
  8
\U+FF7A\U+FF88\U+FF78\U+FF80
100
AcDbCircle
 10
5568.659508635517
 20
-3493.260569895067
 30
0.0
 40
0.5
100
AcDbArc
 50
90.0
 51
180.0
  0
ARC
  5
DA4F4
330
18
100
AcDbEntity
  8
\U+FF7A\U+FF88\U+FF78\U+FF80
100
AcDbCircle
 10
5578.554508635516
 20
-3490.060569895069
 30
0.0
 40
0.3
100
AcDbArc
 50
180.0
 51
270.0
  0
ARC
  5
DA4F5
330
18
100
AcDbEntity
  8
\U+FF7A\U+FF88\U+FF78\U+FF80
100
AcDbCircle
 10
5574.504508635516
 20
-3490.060569895069
 30
0.0
 40
0.3
100
AcDbArc
 50
270.0
 51
0.0
  0
ARC
  5
DA4F6
330
18
100
AcDbEntity
  8
\U+FF7A\U+FF88\U+FF78\U+FF80
100
AcDbCircle
 10
5570.364508635517
 20
-3490.060569895069
 30
0.0
 40
0.3
100
AcDbArc
 50
270.0
 51
0.0
  0
ARC
  5
DA4F7
330
18
100
AcDbEntity
  8
\U+FF7A\U+FF88\U+FF78\U+FF80
100
AcDbCircle
 10
5574.414508635516
 20
-3490.060569895069
 30
0.0
 40
0.3
100
AcDbArc
 50
180.0
 51
270.0
  0
LINE
  5
DA4F8
330
18
100
AcDbEntity
  8
\U+FF7A\U+FF88\U+FF78\U+FF80
100
AcDbLine
 10
5579.359508635516
 20
-3503.760569895067
 30
0.0
 11
5578.859508635515
 21
-3504.260569895067
 31
0.0
  0
LINE
  5
DA4F9
330
18
100
AcDbEntity
  8
\U+FF7A\U+FF88\U+FF78\U+FF80
100
AcDbLine
 10
5574.209514688558
 20
-3514.760569895067
 30
0.0
 11
5573.259514688558
 21
-3504.760569895067
 31
0.0
  0
LINE
  5
DA4FA
330
18
100
AcDbEntity
  8
\U+FF7A\U+FF88\U+FF78\U+FF80
100
AcDbLine
 10
5574.209514688558
 20
-3514.760569895067
 30
0.0
 11
5575.159514688556
 21
-3504.760569895067
 31
0.0
  0
LINE
  5
DA4FB
330
18
100
AcDbEntity
  8
\U+FF7A\U+FF88\U+FF78\U+FF80
100
AcDbLine
 10
5576.118069180838
 20
-3514.760569895067
 30
0.0
 11
5577.068069180836
 21
-3504.760569895067
 31
0.0
  0
LINE
  5
DA4FC
330
18
100
AcDbEntity
  8
\U+FF7A\U+FF88\U+FF78\U+FF80
100
AcDbLine
 10
5572.300960196278
 20
-3514.760569895067
 30
0.0
 11
5571.350960196277
 21
-3504.760569895067
 31
0.0
  0
ARC
  5
DA4FD
330
18
100
AcDbEntity
  8
細線
 48
0.5
100
AcDbCircle
 10
5520.431572802266
 20
-3584.436216090757
 30
0.0
 40
2.874819183077052
100
AcDbArc
 50
145.5644441092074
 51
214.2986508285162
  0
ARC
  5
DA4FE
330
18
100
AcDbEntity
  8
細線
 48
0.5
100
AcDbCircle
 10
5515.666749936503
 20
-3584.430523449106
 30
0.0
 40
2.890404695195004
100
AcDbArc
 50
325.7754593547426
 51
34.08763558287622
  0
ARC
  5
DA4FF
330
18
100
AcDbEntity
  8
細線
 48
0.5
100
AcDbCircle
 10
5520.431572802269
 20
-3587.684927096572
 30
0.0
 40
2.874819183077052
100
AcDbArc
 50
145.7013491715053
 51
214.4355558907927
  0
ARC
  5
DA500
330
18
100
AcDbEntity
  8
細線
 48
0.5
100
AcDbCircle
 10
5515.134335542189
 20
-3674.407664409997
 30
0.0
 40
3.357384742927909
100
AcDbArc
 50
330.5068264367636
 51
29.37923937582453
  0
ARC
  5
DA501
330
18
100
AcDbEntity
  8
細線
 48
0.5
100
AcDbCircle
 10
5520.964935202333
 20
-3674.413461563462
 30
0.0
 40
3.342317451406294
100
AcDbArc
 50
150.3609666066941
 51
209.5250992058566
  0
ARC
  5
DA502
330
18
100
AcDbEntity
  8
細線
 48
0.5
100
AcDbCircle
 10
5520.964935202333
 20
-3677.707681623872
 30
0.0
 40
3.342317451407431
100
AcDbArc
 50
150.4749007941207
 51
209.6390333932606
  0
LINE
  5
DA504
330
18
100
AcDbEntity
  8
\U+FF7A\U+FF88\U+FF78\U+FF80
100
AcDbLine
 10
5560.509520731169
 20
-3769.860617094492
 30
0.0
 11
5587.909520752031
 21
-3769.860617094492
 31
0.0
  0
LINE
  5
DA505
330
18
100
AcDbEntity
  8
\U+FF7A\U+FF88\U+FF78\U+FF80
100
AcDbLine
 10
5560.509520731169
 20
-3770.860616327083
 30
0.0
 11
5587.909520752031
 21
-3770.860616327083
 31
0.0
  0
LINE
  5
DA506
330
18
100
AcDbEntity
  8
\U+FF7A\U+FF88\U+FF78\U+FF80
100
AcDbLine
 10
5587.909520752031
 20
-3770.860616327083
 30
0.0
 11
5587.909520752031
 21
-3769.860617094492
 31
0.0
  0
LINE
  5
DA507
330
18
100
AcDbEntity
  8
\U+FF7A\U+FF88\U+FF78\U+FF80
100
AcDbLine
 10
5560.509520731169
 20
-3769.860617094492
 30
0.0
 11
5560.509520731169
 21
-3770.860616327083
 31
0.0
  0
LINE
  5
DA508
330
18
100
AcDbEntity
  8
\U+FF7A\U+FF88\U+FF78\U+FF80
100
AcDbLine
 10
5585.559521018762
 20
-3770.860616327083
 30
0.0
 11
5585.559521018762
 21
-3781.060616695141
 31
0.0
  0
LINE
  5
DA509
330
18
100
AcDbEntity
  8
\U+FF7A\U+FF88\U+FF78\U+FF80
100
AcDbLine
 10
5585.559521018762
 20
-3781.060616695141
 30
0.0
 11
5562.859520464439
 21
-3781.060616695141
 31
0.0
  0
LINE
  5
DA50A
330
18
100
AcDbEntity
  8
\U+FF7A\U+FF88\U+FF78\U+FF80
100
AcDbLine
 10
5562.859520464439
 20
-3770.860616327083
 30
0.0
 11
5562.859520464439
 21
-3781.060616695141
 31
0.0
  0
LINE
  5
DA50B
330
18
100
AcDbEntity
  8
\U+FF7A\U+FF88\U+FF78\U+FF80
100
AcDbLine
 10
5585.559521018762
 20
-3766.560617112374
 30
0.0
 11
5585.559521018762
 21
-3769.860617094492
 31
0.0
  0
LINE
  5
DA50C
330
18
100
AcDbEntity
  8
\U+FF7A\U+FF88\U+FF78\U+FF80
100
AcDbLine
 10
5562.859520464439
 20
-3766.560617112374
 30
0.0
 11
5562.859520464439
 21
-3769.860617094492
 31
0.0
  0
LINE
  5
DA50D
330
18
100
AcDbEntity
  8
\U+FF7A\U+FF88\U+FF78\U+FF80
100
AcDbLine
 10
5586.449520810742
 20
-3778.660616581147
 30
0.0
 11
5587.909520752031
 21
-3772.860616654908
 31
0.0
  0
LINE
  5
DA50E
330
18
100
AcDbEntity
  8
\U+FF7A\U+FF88\U+FF78\U+FF80
100
AcDbLine
 10
5585.559521018762
 20
-3778.660616581147
 30
0.0
 11
5586.449520810742
 21
-3778.660616581147
 31
0.0
  0
LINE
  5
DA50F
330
18
100
AcDbEntity
  8
\U+FF7A\U+FF88\U+FF78\U+FF80
100
AcDbLine
 10
5587.909520752031
 20
-3772.860616654908
 30
0.0
 11
5587.909520752031
 21
-3770.860616327083
 31
0.0
  0
LINE
  5
DA510
330
18
100
AcDbEntity
  8
\U+FF7A\U+FF88\U+FF78\U+FF80
100
AcDbLine
 10
5561.969520672459
 20
-3778.660616581147
 30
0.0
 11
5562.859520464439
 21
-3778.660616581147
 31
0.0
  0
LINE
  5
DA511
330
18
100
AcDbEntity
  8
\U+FF7A\U+FF88\U+FF78\U+FF80
100
AcDbLine
 10
5561.969520672459
 20
-3778.660616581147
 30
0.0
 11
5560.509520731169
 21
-3772.860616654908
 31
0.0
  0
LINE
  5
DA512
330
18
100
AcDbEntity
  8
\U+FF7A\U+FF88\U+FF78\U+FF80
100
AcDbLine
 10
5560.509520731169
 20
-3772.860616654908
 30
0.0
 11
5560.509520731169
 21
-3770.860616327083
 31
0.0
  0
LINE
  5
DA513
330
18
100
AcDbEntity
  8
\U+FF7A\U+FF88\U+FF78\U+FF80
100
AcDbLine
 10
5562.859520464439
 20
-3757.860616990184
 30
0.0
 11
5585.559521018762
 21
-3757.860616990184
 31
0.0
  0
LINE
  5
DA514
330
18
100
AcDbEntity
  8
\U+FF7A\U+FF88\U+FF78\U+FF80
100
AcDbLine
 10
5585.559521018762
 20
-3766.560617112374
 30
0.0
 11
5585.559521018762
 21
-3757.860616990184
 31
0.0
  0
LINE
  5
DA515
330
18
100
AcDbEntity
  8
\U+FF7A\U+FF88\U+FF78\U+FF80
100
AcDbLine
 10
5562.859520464439
 20
-3757.860616990184
 30
0.0
 11
5562.859520464439
 21
-3766.560617112374
 31
0.0
  0
ARC
  5
DA516
330
18
100
AcDbEntity
  8
\U+FF7A\U+FF88\U+FF78\U+FF80
100
AcDbCircle
 10
5562.739520741599
 20
-3779.460616695141
 30
0.0
 40
1.305526713629417
100
AcDbArc
 50
201.0413367809925
 51
275.2738959573502
  0
LINE
  5
DA517
330
18
100
AcDbEntity
  8
\U+FF7A\U+FF88\U+FF78\U+FF80
100
AcDbLine
 10
5559.159521161813
 20
-3773.790616751468
 30
0.0
 11
5561.521044149298
 21
-3779.929354879824
 31
0.0
  0
LINE
  5
DA518
330
18
100
AcDbEntity
  8
\U+FF7A\U+FF88\U+FF78\U+FF80
100
AcDbLine
 10
5559.159521161813
 20
-3773.790616751468
 30
0.0
 11
5559.159521161813
 21
-3773.440616880363
 31
0.0
  0
LINE
  5
DA519
330
18
100
AcDbEntity
  8
\U+FF7A\U+FF88\U+FF78\U+FF80
100
AcDbLine
 10
5560.159520394403
 20
-3770.660616666828
 30
0.0
 11
5559.159521161813
 21
-3773.440616880363
 31
0.0
  0
LINE
  5
DA51A
330
18
100
AcDbEntity
  8
\U+FF7A\U+FF88\U+FF78\U+FF80
100
AcDbLine
 10
5560.159520394403
 20
-3770.660616666828
 30
0.0
 11
5560.509520731169
 21
-3770.660616666828
 31
0.0
  0
ARC
  5
DA51B
330
18
100
AcDbEntity
  8
\U+FF7A\U+FF88\U+FF78\U+FF80
100
AcDbCircle
 10
5585.679520741599
 20
-3779.460616695141
 30
0.0
 40
1.305526713629419
100
AcDbArc
 50
264.726104042598
 51
338.9586632190075
  0
LINE
  5
DA51C
330
18
100
AcDbEntity
  8
\U+FF7A\U+FF88\U+FF78\U+FF80
100
AcDbLine
 10
5588.259521088797
 20
-3770.660616666828
 30
0.0
 11
5587.909520752031
 21
-3770.660616666828
 31
0.0
  0
LINE
  5
DA51D
330
18
100
AcDbEntity
  8
\U+FF7A\U+FF88\U+FF78\U+FF80
100
AcDbLine
 10
5586.897997333903
 20
-3779.929354879824
 30
0.0
 11
5589.259520321387
 21
-3773.790616751468
 31
0.0
  0
LINE
  5
DA51E
330
18
100
AcDbEntity
  8
\U+FF7A\U+FF88\U+FF78\U+FF80
100
AcDbLine
 10
5589.259520321387
 20
-3773.790616751468
 30
0.0
 11
5589.259520321387
 21
-3773.440616880363
 31
0.0
  0
LINE
  5
DA51F
330
18
100
AcDbEntity
  8
\U+FF7A\U+FF88\U+FF78\U+FF80
100
AcDbLine
 10
5589.259520321387
 20
-3773.440616880363
 30
0.0
 11
5588.259521088797
 21
-3770.660616666828
 31
0.0
  0
LINE
  5
DA520
330
18
100
AcDbEntity
  8
\U+FF7A\U+FF88\U+FF78\U+FF80
100
AcDbLine
 10
5565.459520704347
 20
-3757.860616990184
 30
0.0
 11
5572.459520741599
 21
-3747.360571593665
 31
0.0
  0
LINE
  5
DA521
330
18
100
AcDbEntity
  8
\U+FF7A\U+FF88\U+FF78\U+FF80
100
AcDbLine
 10
5572.9595207416
 20
-3747.360571593665
 30
0.0
 11
5567.959520881299
 21
-3757.860616990184
 31
0.0
  0
LINE
  5
DA522
330
18
100
AcDbEntity
  8
\U+FF7A\U+FF88\U+FF78\U+FF80
100
AcDbLine
 10
5570.459520825419
 20
-3757.860616990184
 30
0.0
 11
5573.4595207416
 21
-3747.360571593665
 31
0.0
  0
LINE
  5
DA523
330
18
100
AcDbEntity
  8
\U+FF7A\U+FF88\U+FF78\U+FF80
100
AcDbLine
 10
5573.959520741599
 20
-3747.360571593665
 30
0.0
 11
5572.959520784092
 21
-3757.860616990184
 31
0.0
  0
LINE
  5
DA524
330
18
100
AcDbEntity
  8
\U+FF7A\U+FF88\U+FF78\U+FF80
100
AcDbLine
 10
5574.4595207416
 20
-3747.360571593665
 30
0.0
 11
5575.459520699109
 21
-3757.860616990184
 31
0.0
  0
LINE
  5
DA525
330
18
100
AcDbEntity
  8
\U+FF7A\U+FF88\U+FF78\U+FF80
100
AcDbLine
 10
5577.959520657781
 20
-3757.860616990184
 30
0.0
 11
5574.9595207416
 21
-3747.360571593665
 31
0.0
  0
LINE
  5
DA526
330
18
100
AcDbEntity
  8
\U+FF7A\U+FF88\U+FF78\U+FF80
100
AcDbLine
 10
5575.459520741599
 20
-3747.360571593665
 30
0.0
 11
5580.459520601902
 21
-3757.860616990184
 31
0.0
  0
LINE
  5
DA527
330
18
100
AcDbEntity
  8
\U+FF7A\U+FF88\U+FF78\U+FF80
100
AcDbLine
 10
5582.959520778851
 20
-3757.860616990184
 30
0.0
 11
5575.9595207416
 21
-3747.360571593665
 31
0.0
  0
LINE
  5
DA528
330
18
100
AcDbEntity
  8
\U+FF7A\U+FF88\U+FF78\U+FF80
100
AcDbLine
 10
5570.9095207416
 20
-3747.360571593665
 30
0.0
 11
5570.9095207416
 21
-3707.360571593666
 31
0.0
  0
LINE
  5
DA529
330
18
100
AcDbEntity
  8
\U+FF7A\U+FF88\U+FF78\U+FF80
100
AcDbLine
 10
5577.5095207416
 20
-3747.360571593665
 30
0.0
 11
5577.5095207416
 21
-3707.360571593666
 31
0.0
  0
ARC
  5
DA52A
330
18
100
AcDbEntity
  8
\U+FF7A\U+FF88\U+FF78\U+FF80
100
AcDbCircle
 10
5542.909520741599
 20
-3707.360571593666
 30
0.0
 40
28.0
100
AcDbArc
 50
0.0
 51
90.0
  0
ARC
  5
DA52B
330
18
100
AcDbEntity
  8
\U+FF7A\U+FF88\U+FF78\U+FF80
100
AcDbCircle
 10
5542.909520741599
 20
-3707.360571593666
 30
0.0
 40
34.6
100
AcDbArc
 50
0.0
 51
90.0
  0
LINE
  5
DA52D
330
18
100
AcDbEntity
  8
\U+FF7A\U+FF88\U+FF78\U+FF80
100
AcDbLine
 10
5518.059932501178
 20
-3672.760571593665
 30
0.0
 11
5542.909520741599
 21
-3672.760571593665
 31
0.0
  0
LINE
  5
DA52E
330
18
100
AcDbEntity
  8
\U+FF7A\U+FF88\U+FF78\U+FF80
100
AcDbLine
 10
5518.059932501175
 20
-3679.360571593667
 30
0.0
 11
5542.909520741599
 21
-3679.360571593667
 31
0.0
  0
CIRCLE
  5
DD596
330
18
100
AcDbEntity
  8
実線
100
AcDbCircle
 10
5175.066485192963
 20
-3631.060571593665
 30
0.0
 40
12.5
  0
CIRCLE
  5
DD597
330
18
100
AcDbEntity
  8
実線
100
AcDbCircle
 10
5718.980052868522
 20
-3631.060571593665
 30
0.0
 40
12.5
  0
CIRCLE
  5
DD598
330
18
100
AcDbEntity
  8
実線
100
AcDbCircle
 10
5718.980052868522
 20
-3631.060571593665
 30
0.0
 40
13.8
  0
CIRCLE
  5
DD59A
330
18
100
AcDbEntity
  8
実線
100
AcDbCircle
 10
5718.980052868522
 20
-3631.060571593665
 30
0.0
 40
14.5
  0
CIRCLE
  5
DD59B
330
18
100
AcDbEntity
  8
中心線
100
AcDbCircle
 10
5718.980052868522
 20
-3631.060571593665
 30
0.0
 40
65.0
  0
CIRCLE
  5
DD59C
330
18
100
AcDbEntity
  8
実線
100
AcDbCircle
 10
5718.980052868522
 20
-3631.060571593665
 30
0.0
 40
57.0
  0
CIRCLE
  5
DD59D
330
18
100
AcDbEntity
  8
実線
100
AcDbCircle
 10
5718.980052868522
 20
-3631.060571593665
 30
0.0
 40
57.5
  0
CIRCLE
  5
DD59E
330
18
100
AcDbEntity
  8
実線
100
AcDbCircle
 10
5718.980052868522
 20
-3631.060571593665
 30
0.0
 40
58.0
  0
CIRCLE
  5
DD59F
330
18
100
AcDbEntity
  8
実線
100
AcDbCircle
 10
5718.980052868522
 20
-3631.060571593665
 30
0.0
 40
60.5
  0
TEXT
  5
DD6FA
330
18
100
AcDbEntity
  8
文字
100
AcDbText
 10
5739.683425868548
 20
-3784.499155856996
 30
0.0
 40
6.0
  1
外形図（ABS）＿高精度（３μｍ）＿平行度
 41
0.4
  7
まこ
100
AcDbText
  0
TEXT
  5
DD6FB
330
18
100
AcDbEntity
  8
文字
100
AcDbText
 10
5737.834976686559
 20
-3795.857062624843
 30
0.0
 40
7.0
  1
ＳＥ－８２１３２Ａ
 41
0.9529999999999999
  7
まこ
100
AcDbText
  0
TEXT
  5
DD6FC
330
18
100
AcDbEntity
  8
文字
100
AcDbText
 10
5738.026603025474
 20
-3773.391248914677
 30
0.0
 40
3.5
  1
τDISCモータ DD160-96-LSP3（H）（ABS）　DD16-251L04CNN-P3（H）
 41
0.38
  7
まこ
100
AcDbText
  0
VIEWPORT
  5
DA859
102
{ACAD_XDICTIONARY
360
DD845
102
}
330
DA855
100
AcDbEntity
 67
     1
  8
0
100
AcDbViewport
 10
6.580337383023564
 20
4.206180629874832
 30
0.0
 40
13.75778117850371
 41
9.378467874866389
 68
     1
 69
     1
 12
6.580337383023564
 22
4.206180629874832
 13
0.0
 23
0.0
 14
0.5
 24
0.5
 15
0.0
 25
0.0
 16
0.0
 26
0.0
 36
1.0
 17
0.0
 27
0.0
 37
0.0
 42
50.0
 43
0.0
 44
0.0
 45
9.378467874866389
 50
0.0
 51
0.0
 72
   100
 90
   557152
  1

281
     0
 71
     1
 74
     0
110
0.0
120
0.0
130
0.0
111
1.0
121
0.0
131
0.0
112
0.0
122
1.0
132
0.0
 79
     0
146
0.0
  0
VIEWPORT
  5
DA85A
102
{ACAD_XDICTIONARY
360
DA85B
102
}
330
DA855
100
AcDbEntity
 67
     1
  8
0
100
AcDbViewport
 10
5.25
 20
3.5
 30
0.0
 40
8.4
 41
5.6
 68
     2
 69
     2
 12
5448.265537050957
 22
-3639.950457928635
 13
0.0
 23
0.0
 14
0.5
 24
0.5
 15
0.0
 25
0.0
 16
0.0
 26
0.0
 36
1.0
 17
0.0
 27
0.0
 37
0.0
 42
50.0
 43
0.0
 44
0.0
 45
487.1507105268726
 50
0.0
 51
0.0
 72
   100
341
E
 90
   557152
  1

281
     0
 71
     1
 74
     0
110
0.0
120
0.0
130
0.0
111
1.0
121
0.0
131
0.0
112
0.0
122
1.0
132
0.0
 79
     0
146
0.0
  0
ENDSEC
  0
SECTION
  2
OBJECTS
  0
DICTIONARY
  5
C
330
0
100
AcDbDictionary
281
     1
  3
ACAD_2007HEADERVARS_RT
350
DD802
  3
ACAD_CIP_PREVIOUS_PRODUCT_INFO
350
8E6ED
  3
ACAD_COLOR
350
DD574
  3
ACAD_DETAILVIEWSTYLE
350
916DB
  3
ACAD_GROUP
350
D
  3
ACAD_IMAGE_VARS
350
D801B
  3
ACAD_LAYOUT
350
73F
  3
ACAD_MATERIAL
350
DA72F
  3
ACAD_MLEADERSTYLE
350
DA735
  3
ACAD_MLINESTYLE
350
1B
  3
ACAD_PLOTSETTINGS
350
740
  3
ACAD_PLOTSTYLENAME
350
73D
  3
ACAD_SCALELIST
350
8E6CF
  3
ACAD_SECTIONVIEWSTYLE
350
916D8
  3
ACAD_TABLESTYLE
350
DA733
  3
ACAD_VISUALSTYLE
350
DA716
  3
AcadDim
350
D9B50
  3
ACDB_RECOMPOSE_DATA
350
DD800
  3
AcDbVariableDictionary
350
11AC
  3
AcDsDecomposeData
350
DD809
  3
APPDATA
350
D8019
  3
DWGPROPS
350
DD801
  0
DICTIONARY
  5
DD69D
330
8
100
AcDbDictionary
280
     1
281
     1
  0
DICTIONARY
  5
1E591
330
2
100
AcDbDictionary
280
     1
281
     1
  3
ACAD_LAYERSTATES
360
1E615
  0
DICTIONARY
  5
8E76A
330
E
100
AcDbDictionary
280
     1
281
     1
  3
ADSK_XREC_LAYER_RECONCILED
360
8E76B
  0
DICTIONARY
  5
8E772
330
8C6
100
AcDbDictionary
280
     1
281
     1
  3
ADSK_XREC_LAYER_RECONCILED
360
8E773
  0
DICTIONARY
  5
8E774
330
8D4
100
AcDbDictionary
280
     1
281
     1
  3
ADSK_XREC_LAYER_RECONCILED
360
8E775
  0
DICTIONARY
  5
8E778
330
96A
100
AcDbDictionary
280
     1
281
     1
  3
ADSK_XREC_LAYER_RECONCILED
360
8E779
  0
DICTIONARY
  5
8E77A
330
1521
100
AcDbDictionary
280
     1
281
     1
  3
ADSK_XREC_LAYER_RECONCILED
360
8E77B
  0
DICTIONARY
  5
8E77E
330
1523
100
AcDbDictionary
280
     1
281
     1
  3
ADSK_XREC_LAYER_RECONCILED
360
8E77F
  0
DICTIONARY
  5
8E780
330
1526
100
AcDbDictionary
280
     1
281
     1
  3
ADSK_XREC_LAYER_RECONCILED
360
8E781
  0
DICTIONARY
  5
8E782
330
44F0
100
AcDbDictionary
280
     1
281
     1
  3
ADSK_XREC_LAYER_RECONCILED
360
8E783
  0
DICTIONARY
  5
8E786
330
22A60
100
AcDbDictionary
280
     1
281
     1
  3
ADSK_XREC_LAYER_RECONCILED
360
8E787
  0
DICTIONARY
  5
90FBB
330
18
100
AcDbDictionary
280
     1
281
     1
  3
ACAD_SORTENTS
360
90FBC
  0
DICTIONARY
  5
D9ADB
330
D9AAC
100
AcDbDictionary
280
     1
281
     1
  3
ACAD_SORTENTS
360
D9ADC
  0
DICTIONARY
  5
DD845
330
DA859
100
AcDbDictionary
280
     1
281
     1
  3
ACAD_XREC_ROUNDTRIP
360
DD846
  0
DICTIONARY
  5
DA85B
330
DA85A
100
AcDbDictionary
280
     1
281
     1
  3
ACAD_XREC_ROUNDTRIP
360
DD847
  3
ASDK_XREC_ANNOTATION_SCALE_INFO
360
DA85C
  0
DICTIONARY
  5
DD802
102
{ACAD_REACTORS
330
C
102
}
330
C
100
AcDbDictionary
281
     1
  3
INTERFERECOLOR
350
DD803
  0
XRECORD
  5
8E6ED
102
{ACAD_REACTORS
330
C
102
}
330
C
100
AcDbXrecord
280
     1
300
ACDLT
300
2019
300

  0
DICTIONARY
  5
DD574
102
{ACAD_REACTORS
330
C
102
}
330
C
100
AcDbDictionary
281
     1
  0
DICTIONARY
  5
916DB
102
{ACAD_REACTORS
330
C
102
}
330
C
100
AcDbDictionary
281
     1
  3
Imperial24
350
916DC
  0
DICTIONARY
  5
D
102
{ACAD_REACTORS
330
C
102
}
330
C
100
AcDbDictionary
281
     1
  0
RASTERVARIABLES
  5
D801B
102
{ACAD_REACTORS
330
C
102
}
330
C
100
AcDbRasterVariables
 90
        0
 70
     1
 71
     1
 72
     0
  0
DICTIONARY
  5
73F
102
{ACAD_REACTORS
330
C
102
}
330
C
100
AcDbDictionary
281
     1
  3
Model
350
741
  3
Sheet1
350
DA856
  0
DICTIONARY
  5
DA72F
102
{ACAD_REACTORS
330
C
102
}
330
C
100
AcDbDictionary
281
     1
  3
ByBlock
350
DD56C
  3
ByLayer
350
DD564
  3
Global
350
DA732
  0
DICTIONARY
  5
DA735
102
{ACAD_REACTORS
330
C
102
}
330
C
100
AcDbDictionary
281
     1
  3
Standard
350
DA736
  0
DICTIONARY
  5
1B
102
{ACAD_REACTORS
330
C
102
}
330
C
100
AcDbDictionary
281
     1
  3
STANDARD
350
1C
  0
DICTIONARY
  5
740
102
{ACAD_REACTORS
330
C
102
}
330
C
100
AcDbDictionary
281
     1
  0
ACDBDICTIONARYWDFLT
  5
73D
102
{ACAD_REACTORS
330
C
102
}
330
C
100
AcDbDictionary
281
     1
  3
Normal
350
73E
100
AcDbDictionaryWithDefault
340
73E
  0
DICTIONARY
  5
8E6CF
102
{ACAD_REACTORS
330
C
102
}
330
C
100
AcDbDictionary
281
     1
  3
A0
350
8E6D0
  3
A1
350
8E6D1
  3
A2
350
8E6D2
  3
A3
350
8E6D3
  3
A4
350
8E6D4
  3
A5
350
8E6D5
  3
A6
350
8E6D6
  3
A7
350
8E6D7
  3
A8
350
8E6D8
  3
A9
350
8E6D9
  3
B0
350
8E6DA
  3
B1
350
8E6DB
  3
B2
350
8E6DC
  3
B3
350
8E6DD
  3
B4
350
8E6DE
  3
B5
350
8E6DF
  3
B6
350
8E6E0
  0
DICTIONARY
  5
916D8
102
{ACAD_REACTORS
330
C
102
}
330
C
100
AcDbDictionary
281
     1
  3
Imperial24
350
916DA
  0
DICTIONARY
  5
DA733
102
{ACAD_REACTORS
330
C
102
}
330
C
100
AcDbDictionary
281
     1
  3
Standard
350
DA734
  0
DICTIONARY
  5
DA716
102
{ACAD_REACTORS
330
C
102
}
330
C
100
AcDbDictionary
281
     1
  3
2dWireframe
350
DA71B
  3
Basic
350
DA71E
  3
Brighten
350
DA722
  3
ColorChange
350
DA726
  3
Conceptual
350
DA720
  3
Dim
350
DA721
  3
EdgeColorOff
350
DA729
  3
Facepattern
350
DA725
  3
Flat
350
DA717
  3
FlatWithEdges
350
DA718
  3
Gouraud
350
DA719
  3
GouraudWithEdges
350
DA71A
  3
Hidden
350
DA71D
  3
JitterOff
350
DA727
  3
Linepattern
350
DA724
  3
OverhangOff
350
DA728
  3
Realistic
350
DA71F
  3
Shaded
350
DA72E
  3
Shaded with edges
350
DA72D
  3
Shades of Gray
350
DA72A
  3
Sketchy
350
DA72B
  3
Thicken
350
DA723
  3
Wireframe
350
DA71C
  3
X-Ray
350
DA72C
  0
XRECORD
  5
D9B50
102
{ACAD_REACTORS
330
C
102
}
330
C
100
AcDbXrecord
280
     1
340
0
 72
     0
 71
     0
 70
     0
 69
     0
 68
     0
 67
     3
 66
     0
 65
     0
 64
     1
 63
     5
 62
     5
 61
     2
 60
     0
 40
0.0
  0
XRECORD
  5
DD800
102
{ACAD_REACTORS
330
C
102
}
330
C
100
AcDbXrecord
280
     1
 90
        1
330
DA734
  0
DICTIONARY
  5
11AC
102
{ACAD_REACTORS
330
C
102
}
330
C
100
AcDbDictionary
281
     1
  3
CANNOSCALE
350
DD66A
  3
CMLEADERSTYLE
350
DA7F2
  3
CTABLESTYLE
350
DA7F1
  3
CVIEWDETAILSTYLE
350
DD5FC
  3
CVIEWSECTIONSTYLE
350
DD5FD
  3
DGNFRAME
350
DD602
  3
DIMASSOC
350
11AD
  3
HIDETEXT
350
DD601
  3
INDEXCTL
350
9109B
  3
LAYEREVAL
350
DD5FF
  3
LAYERNOTIFY
350
DD600
  3
LIGHTINGUNITS
350
DD5FE
  3
LOFTANG1
350
DD7A6
  3
LOFTANG2
350
DD7A7
  3
MSLTSCALE
350
DA7F3
  3
SORTENTS
350
AD08
  3
XCLIPFRAME
350
DD7A8
  0
DICTIONARY
  5
DD809
102
{ACAD_REACTORS
330
C
102
}
330
C
100
AcDbDictionary
281
     1
  3
AcDsRecords
350
DD80B
  3
AcDsSchemas
350
DD80A
1001
ACAD
1070
     2
  0
DICTIONARY
  5
D8019
102
{ACAD_REACTORS
330
C
102
}
330
C
100
AcDbDictionary
281
     1
  0
XRECORD
  5
DD801
102
{ACAD_REACTORS
330
C
102
}
330
C
100
AcDbXrecord
280
     1
  1
DWGPROPS COOKIE
  2

  3

  4

  6

  7

  8
NI0949
  9

300
=
301
=
302
=
303
=
304
=
305
=
306
=
307
=
308
=
309
=
 40
16.20345386574074
 41
2452479.723113426
 42
2459529.665972223
  1

 90
        0
  0
DICTIONARY
  5
1E615
102
{ACAD_REACTORS
330
1E591
102
}
330
1E591
100
AcDbDictionary
281
     1
  0
XRECORD
  5
8E76B
102
{ACAD_REACTORS
330
8E76A
102
}
330
8E76A
100
AcDbXrecord
280
     1
290
     1
  0
XRECORD
  5
8E773
102
{ACAD_REACTORS
330
8E772
102
}
330
8E772
100
AcDbXrecord
280
     1
290
     1
  0
XRECORD
  5
8E775
102
{ACAD_REACTORS
330
8E774
102
}
330
8E774
100
AcDbXrecord
280
     1
290
     1
  0
XRECORD
  5
8E779
102
{ACAD_REACTORS
330
8E778
102
}
330
8E778
100
AcDbXrecord
280
     1
290
     1
  0
XRECORD
  5
8E77B
102
{ACAD_REACTORS
330
8E77A
102
}
330
8E77A
100
AcDbXrecord
280
     1
290
     1
  0
XRECORD
  5
8E77F
102
{ACAD_REACTORS
330
8E77E
102
}
330
8E77E
100
AcDbXrecord
280
     1
290
     1
  0
XRECORD
  5
8E781
102
{ACAD_REACTORS
330
8E780
102
}
330
8E780
100
AcDbXrecord
280
     1
290
     1
  0
XRECORD
  5
8E783
102
{ACAD_REACTORS
330
8E782
102
}
330
8E782
100
AcDbXrecord
280
     1
290
     1
  0
XRECORD
  5
8E787
102
{ACAD_REACTORS
330
8E786
102
}
330
8E786
100
AcDbXrecord
280
     1
290
     1
  0
SORTENTSTABLE
  5
90FBC
102
{ACAD_REACTORS
330
90FBB
102
}
330
90FBB
100
AcDbSortentsTable
330
18
  0
SORTENTSTABLE
  5
D9ADC
102
{ACAD_REACTORS
330
D9ADB
102
}
330
D9ADB
100
AcDbSortentsTable
330
D9AAC
  0
XRECORD
  5
DD846
102
{ACAD_REACTORS
330
DD845
102
}
330
DD845
100
AcDbXrecord
280
     1
102
SHADEPLOT
 70
     0
  0
XRECORD
  5
DD847
102
{ACAD_REACTORS
330
DA85B
102
}
330
DA85B
100
AcDbXrecord
280
     1
102
SHADEPLOT
 70
     0
  0
XRECORD
  5
DA85C
102
{ACAD_REACTORS
330
DA85B
102
}
330
DA85B
100
AcDbXrecord
280
     1
 90
        1
340
8E6D0
  0
XRECORD
  5
DD803
102
{ACAD_REACTORS
330
DD802
102
}
330
DD802
100
AcDbXrecord
280
     1
1004
1800000001000000000000C0000000000000000000000000
  0
ACDBDETAILVIEWSTYLE
  5
916DC
102
{ACAD_XDICTIONARY
360
DD80F
102
}
102
{ACAD_REACTORS
330
916DB
102
}
330
916DB
100
AcDbModelDocViewStyle
 70
     0
  3
Imperial24
290
     0
100
AcDbDetailViewStyle
 70
     0
 71
     0
 90
        3
 71
     1
340
F
 40
0.24
340
0
 40
0.24
300

 40
0.36
280
     3
 71
     2
340
14
 90
       25
 71
     3
340
F
 40
0.24
 90
        1
 40
0.75
 90
        1
300
%<\AcVar ViewType \f "%tc1">% %<\AcVar ViewDetailId>%\PSCALE %<\AcVar ViewScale \f "%sn">%
 71
     4
340
14
 90
       25
340
14
 90
       25
280
     0
  0
LAYOUT
  5
741
102
{ACAD_XDICTIONARY
360
DD69F
102
}
102
{ACAD_REACTORS
330
73F
102
}
330
73F
100
AcDbPlotSettings
  1

  2
none_device
  4
Letter_(8.50_x_11.00_Inches)
  6

 40
6.349999999999999
 41
6.349999999999999
 42
6.349999999999999
 43
6.349999999999999
 44
215.9
 45
279.4
 46
0.0
 47
0.0
 48
0.0
 49
0.0
140
0.0
141
0.0
142
1.0
143
76.4294537004986
 70
 11952
 72
     0
 73
     1
 74
     0
  7
monochrome.ctb
 75
     0
147
0.0130839611116241
148
-128384.028326893
149
100558.603804186
100
AcDbLayout
  1
Model
 70
     1
 71
     0
 10
0.0
 20
0.0
 11
12.0
 21
9.0
 12
0.0
 22
0.0
 32
0.0
 14
5090.066485192963
 24
-3812.473665994369
 34
0.0
 15
5806.464588908951
 25
-3481.060569895068
 35
137.5
146
0.0
 13
0.0
 23
0.0
 33
0.0
 16
1.0
 26
0.0
 36
0.0
 17
0.0
 27
1.0
 37
0.0
 76
     0
330
18
  0
LAYOUT
  5
DA856
102
{ACAD_XDICTIONARY
360
DD6D9
102
}
102
{ACAD_REACTORS
330
73F
102
}
330
73F
100
AcDbPlotSettings
  1

  2
none_device
  4
ANSI_A_(11.00_x_8.50_Inches)
  6

 40
6.349999999999999
 41
19.05
 42
6.349999999999999
 43
19.05
 44
279.4
 45
215.9
 46
0.0
 47
0.0
 48
0.0
 49
0.0
140
0.0
141
0.0
142
1.0
143
1.0
 70
   688
 72
     0
 73
     0
 74
     5
  7

 75
    16
147
1.0
148
0.0
149
0.0
100
AcDbLayout
  1
Sheet1
 70
     1
 71
     1
 10
0.0
 20
0.0
 11
0.0
 21
0.0
 12
0.0
 22
0.0
 32
0.0
 14
1.049999999999999
 24
0.6999999999999998
 34
0.0
 15
9.449999999999999
 25
6.3
 35
0.0
146
0.0
 13
0.0
 23
0.0
 33
0.0
 16
1.0
 26
0.0
 36
0.0
 17
0.0
 27
1.0
 37
0.0
 76
     0
330
DA855
331
DA859
  0
MATERIAL
  5
DD56C
102
{ACAD_XDICTIONARY
360
DD84A
102
}
102
{ACAD_REACTORS
330
DA72F
102
}
330
DA72F
100
AcDbMaterial
  1
ByBlock
 72
     0
 43
0.0208333333333333
 43
0.0
 43
0.0
 43
0.0
 43
0.0
 43
0.0208333333333333
 43
0.0
 43
0.0
 43
0.0
 43
0.0
 43
1.0
 43
0.0
 43
0.0
 43
0.0
 43
0.0
 43
1.0
 77
     0
 47
0.0208333333333333
 47
0.0
 47
0.0
 47
0.0
 47
0.0
 47
0.0208333333333333
 47
0.0
 47
0.0
 47
0.0
 47
0.0
 47
1.0
 47
0.0
 47
0.0
 47
0.0
 47
0.0
 47
1.0
171
     0
 49
0.0208333333333333
 49
0.0
 49
0.0
 49
0.0
 49
0.0
 49
0.0208333333333333
 49
0.0
 49
0.0
 49
0.0
 49
0.0
 49
1.0
 49
0.0
 49
0.0
 49
0.0
 49
0.0
 49
1.0
175
     0
142
0.0208333333333333
142
0.0
142
0.0
142
0.0
142
0.0
142
0.0208333333333333
142
0.0
142
0.0
142
0.0
142
0.0
142
1.0
142
0.0
142
0.0
142
0.0
142
0.0
142
1.0
179
     0
144
0.0208333333333333
144
0.0
144
0.0
144
0.0
144
0.0
144
0.0208333333333333
144
0.0
144
0.0
144
0.0
144
0.0
144
1.0
144
0.0
144
0.0
144
0.0
144
0.0
144
1.0
147
0.0208333333333333
147
0.0
147
0.0
147
0.0
147
0.0
147
0.0208333333333333
147
0.0
147
0.0
147
0.0
147
0.0
147
1.0
147
0.0
147
0.0
147
0.0
147
0.0
147
1.0
  0
MATERIAL
  5
DD564
102
{ACAD_XDICTIONARY
360
DD848
102
}
102
{ACAD_REACTORS
330
DA72F
102
}
330
DA72F
100
AcDbMaterial
  1
ByLayer
 72
     0
 43
0.0208333333333333
 43
0.0
 43
0.0
 43
0.0
 43
0.0
 43
0.0208333333333333
 43
0.0
 43
0.0
 43
0.0
 43
0.0
 43
1.0
 43
0.0
 43
0.0
 43
0.0
 43
0.0
 43
1.0
 77
     0
 47
0.0208333333333333
 47
0.0
 47
0.0
 47
0.0
 47
0.0
 47
0.0208333333333333
 47
0.0
 47
0.0
 47
0.0
 47
0.0
 47
1.0
 47
0.0
 47
0.0
 47
0.0
 47
0.0
 47
1.0
171
     0
 49
0.0208333333333333
 49
0.0
 49
0.0
 49
0.0
 49
0.0
 49
0.0208333333333333
 49
0.0
 49
0.0
 49
0.0
 49
0.0
 49
1.0
 49
0.0
 49
0.0
 49
0.0
 49
0.0
 49
1.0
175
     0
142
0.0208333333333333
142
0.0
142
0.0
142
0.0
142
0.0
142
0.0208333333333333
142
0.0
142
0.0
142
0.0
142
0.0
142
1.0
142
0.0
142
0.0
142
0.0
142
0.0
142
1.0
179
     0
144
0.0208333333333333
144
0.0
144
0.0
144
0.0
144
0.0
144
0.0208333333333333
144
0.0
144
0.0
144
0.0
144
0.0
144
1.0
144
0.0
144
0.0
144
0.0
144
0.0
144
1.0
147
0.0208333333333333
147
0.0
147
0.0
147
0.0
147
0.0
147
0.0208333333333333
147
0.0
147
0.0
147
0.0
147
0.0
147
1.0
147
0.0
147
0.0
147
0.0
147
0.0
147
1.0
  0
MATERIAL
  5
DA732
102
{ACAD_XDICTIONARY
360
DD841
102
}
102
{ACAD_REACTORS
330
DA72F
102
}
330
DA72F
100
AcDbMaterial
  1
Global
 73
     1
 78
     1
172
     1
176
     1
270
     1
274
     1
  0
MLEADERSTYLE
  5
DA736
102
{ACAD_REACTORS
330
DA735
102
}
330
DA735
100
AcDbMLeaderStyle
170
     2
171
     1
172
     0
 90
        2
 40
0.0
 41
0.0
173
     1
 91
-1056964608
340
12
 92
       -2
290
     1
 42
0.09
291
     1
 43
0.36
  3
Standard
 44
0.18
300

342
F
174
     1
178
     6
175
     1
176
     0
 93
-1056964608
 45
0.18
292
     0
297
     0
 46
0.18
 94
-1056964608
 47
1.0
 49
1.0
140
1.0
293
     1
141
0.0
294
     1
177
     0
142
1.0
295
     0
296
     0
143
0.125
1001
ACAD_MLEADERVER
1070
     2
  0
MLINESTYLE
  5
1C
102
{ACAD_REACTORS
330
1B
102
}
330
1B
100
AcDbMlineStyle
  2
STANDARD
 70
     0
  3

 62
   256
 51
90.0
 52
90.0
 71
     2
 49
0.5
 62
   256
  6
BYLAYER
 49
-0.5
 62
   256
  6
BYLAYER
  0
ACDBPLACEHOLDER
  5
73E
102
{ACAD_REACTORS
330
73D
102
}
330
73D
  0
SCALE
  5
8E6D0
102
{ACAD_REACTORS
330
8E6CF
102
}
330
8E6CF
100
AcDbScale
 70
     0
300
1:1
140
1.0
141
1.0
290
     1
  0
SCALE
  5
8E6D1
102
{ACAD_REACTORS
330
8E6CF
102
}
330
8E6CF
100
AcDbScale
 70
     0
300
1/128" = 1'-0"
140
0.0078125
141
12.0
290
     0
  0
SCALE
  5
8E6D2
102
{ACAD_REACTORS
330
8E6CF
102
}
330
8E6CF
100
AcDbScale
 70
     0
300
1/64" = 1'-0"
140
0.015625
141
12.0
290
     0
  0
SCALE
  5
8E6D3
102
{ACAD_REACTORS
330
8E6CF
102
}
330
8E6CF
100
AcDbScale
 70
     0
300
1/32" = 1'-0"
140
0.03125
141
12.0
290
     0
  0
SCALE
  5
8E6D4
102
{ACAD_REACTORS
330
8E6CF
102
}
330
8E6CF
100
AcDbScale
 70
     0
300
1/16" = 1'-0"
140
0.0625
141
12.0
290
     0
  0
SCALE
  5
8E6D5
102
{ACAD_REACTORS
330
8E6CF
102
}
330
8E6CF
100
AcDbScale
 70
     0
300
3/32" = 1'-0"
140
0.09375
141
12.0
290
     0
  0
SCALE
  5
8E6D6
102
{ACAD_REACTORS
330
8E6CF
102
}
330
8E6CF
100
AcDbScale
 70
     0
300
1/8" = 1'-0"
140
0.125
141
12.0
290
     0
  0
SCALE
  5
8E6D7
102
{ACAD_REACTORS
330
8E6CF
102
}
330
8E6CF
100
AcDbScale
 70
     0
300
3/16" = 1'-0"
140
0.1875
141
12.0
290
     0
  0
SCALE
  5
8E6D8
102
{ACAD_REACTORS
330
8E6CF
102
}
330
8E6CF
100
AcDbScale
 70
     0
300
1/4" = 1'-0"
140
0.25
141
12.0
290
     0
  0
SCALE
  5
8E6D9
102
{ACAD_REACTORS
330
8E6CF
102
}
330
8E6CF
100
AcDbScale
 70
     0
300
3/8" = 1'-0"
140
0.375
141
12.0
290
     0
  0
SCALE
  5
8E6DA
102
{ACAD_REACTORS
330
8E6CF
102
}
330
8E6CF
100
AcDbScale
 70
     0
300
1/2" = 1'-0"
140
0.5
141
12.0
290
     0
  0
SCALE
  5
8E6DB
102
{ACAD_REACTORS
330
8E6CF
102
}
330
8E6CF
100
AcDbScale
 70
     0
300
3/4" = 1'-0"
140
0.75
141
12.0
290
     0
  0
SCALE
  5
8E6DC
102
{ACAD_REACTORS
330
8E6CF
102
}
330
8E6CF
100
AcDbScale
 70
     0
300
1" = 1'-0"
140
1.0
141
12.0
290
     0
  0
SCALE
  5
8E6DD
102
{ACAD_REACTORS
330
8E6CF
102
}
330
8E6CF
100
AcDbScale
 70
     0
300
1-1/2" = 1'-0"
140
1.5
141
12.0
290
     0
  0
SCALE
  5
8E6DE
102
{ACAD_REACTORS
330
8E6CF
102
}
330
8E6CF
100
AcDbScale
 70
     0
300
3" = 1'-0"
140
3.0
141
12.0
290
     0
  0
SCALE
  5
8E6DF
102
{ACAD_REACTORS
330
8E6CF
102
}
330
8E6CF
100
AcDbScale
 70
     0
300
6" = 1'-0"
140
6.0
141
12.0
290
     0
  0
SCALE
  5
8E6E0
102
{ACAD_REACTORS
330
8E6CF
102
}
330
8E6CF
100
AcDbScale
 70
     0
300
1'-0" = 1'-0"
140
12.0
141
12.0
290
     0
  0
ACDBSECTIONVIEWSTYLE
  5
916DA
102
{ACAD_XDICTIONARY
360
DD80D
102
}
102
{ACAD_REACTORS
330
916D8
102
}
330
916D8
100
AcDbModelDocViewStyle
 70
     0
  3
Imperial24
290
     0
100
AcDbSectionViewStyle
 70
     0
 71
     0
 90
       78
 71
     1
340
F
 40
0.24
340
0
340
0
 40
0.24
300
I, O, Q, S, X, Z
 40
0.48
 90
        3
 40
0.18
 90
        1
 71
     2
340
916D9
 90
       25
340
14
 90
       50
 40
0.24
 40
0.0
 40
0.24
 71
     3
340
F
 40
0.24
 90
        1
 40
0.75
 90
        1
300
%<\AcVar ViewType \f "%tc1">% %<\AcVar ViewSectionStartId>%-%<\AcVar ViewSectionEndId>%\PSCALE %<\AcVar ViewScale \f "%sn">%
 71
     4
300
ANSI31
 40
1.0
 90
        0
290
     0
290
     0
 90
        6
 40
0.0
 40
1.570796326794897
 40
0.2617993877991494
 40
1.308996938995746
 40
-0.2617993877991494
 40
1.832595714594045
  0
TABLESTYLE
  5
DA734
102
{ACAD_XDICTIONARY
360
DD68E
102
}
102
{ACAD_REACTORS
330
DA733
102
}
330
DA733
100
AcDbTableStyle
  3
Standard
 70
     0
 71
     0
 40
0.06
 41
0.06
280
     0
281
     0
  7
STANDARD
140
0.18
170
     2
 62
     0
 63
     7
283
     0
274
    -2
284
     1
 64
     0
275
    -2
285
     1
 65
     0
276
    -2
286
     1
 66
     0
277
    -2
287
     1
 67
     0
278
    -2
288
     1
 68
     0
279
    -2
289
     1
 69
     0
  7
STANDARD
140
0.25
170
     5
 62
     0
 63
     7
283
     0
274
    -2
284
     1
 64
     0
275
    -2
285
     1
 65
     0
276
    -2
286
     1
 66
     0
277
    -2
287
     1
 67
     0
278
    -2
288
     1
 68
     0
279
    -2
289
     1
 69
     0
  7
STANDARD
140
0.18
170
     5
 62
     0
 63
     7
283
     0
274
    -2
284
     1
 64
     0
275
    -2
285
     1
 65
     0
276
    -2
286
     1
 66
     0
277
    -2
287
     1
 67
     0
278
    -2
288
     1
 68
     0
279
    -2
289
     1
 69
     0
  0
VISUALSTYLE
  5
DA71B
102
{ACAD_XDICTIONARY
360
DD819
102
}
102
{ACAD_REACTORS
330
DA716
102
}
330
DA716
100
AcDbVisualStyle
  2
2dWireframe
 70
     4
 71
     0
 72
     2
 73
     0
 90
        0
 40
-0.6
 41
-30.0
 62
     5
 63
     7
 74
     1
 91
        4
 64
     7
 65
   257
 75
     1
175
     1
 42
1.0
 92
        0
 66
   257
 43
1.0
 76
     1
 77
     6
 78
     2
 67
     7
 79
     5
170
     0
171
     0
290
     0
174
     0
 93
        1
 44
0.0
173
     0
291
     0
 45
0.0
1001
ACAD
1000
AcDbSavedByObjectVersion
1070
     0
  0
VISUALSTYLE
  5
DA71E
102
{ACAD_XDICTIONARY
360
DD81F
102
}
102
{ACAD_REACTORS
330
DA716
102
}
330
DA716
100
AcDbVisualStyle
  2
Basic
 70
     7
 71
     1
 72
     0
 73
     1
 90
        0
 40
-0.6
 41
-30.0
 62
     5
 63
     7
 74
     0
 91
        4
 64
     7
 65
   257
 75
     1
175
     1
 42
1.0
 92
        8
 66
     7
 43
1.0
 76
     1
 77
     6
 78
     2
 67
     7
 79
     5
170
     0
171
     0
290
     0
174
     0
 93
        1
 44
0.0
173
     0
291
     1
 45
0.0
1001
ACAD
1000
AcDbSavedByObjectVersion
1070
     0
  0
VISUALSTYLE
  5
DA722
102
{ACAD_XDICTIONARY
360
DD827
102
}
102
{ACAD_REACTORS
330
DA716
102
}
330
DA716
100
AcDbVisualStyle
  2
Brighten
 70
    12
 71
     2
 72
     2
 73
     0
 90
        0
 40
-0.6
 41
-30.0
 62
     5
 63
     7
 74
     1
 91
        4
 64
     7
 65
   257
 75
     1
175
     1
 42
1.0
 92
        8
 66
     7
 43
1.0
 76
     1
 77
     6
 78
     2
 67
     7
 79
     5
170
     0
171
     0
290
     0
174
     0
 93
        1
 44
50.0
173
     0
291
     1
 45
0.0
1001
ACAD
1000
AcDbSavedByObjectVersion
1070
     0
  0
VISUALSTYLE
  5
DA726
102
{ACAD_XDICTIONARY
360
DD82F
102
}
102
{ACAD_REACTORS
330
DA716
102
}
330
DA716
100
AcDbVisualStyle
  2
ColorChange
 70
    16
 71
     2
 72
     2
 73
     3
 90
        0
 40
-0.6
 41
-30.0
 62
     5
 63
     8
 74
     1
 91
        4
 64
     7
 65
   257
 75
     1
175
     1
 42
1.0
 92
        8
 66
     8
 43
1.0
 76
     1
 77
     6
 78
     2
 67
     7
 79
     5
170
     0
171
     0
290
     0
174
     0
 93
        1
 44
0.0
173
     0
291
     1
 45
0.0
1001
ACAD
1000
AcDbSavedByObjectVersion
1070
     0
  0
VISUALSTYLE
  5
DA720
102
{ACAD_XDICTIONARY
360
DD823
102
}
102
{ACAD_REACTORS
330
DA716
102
}
330
DA716
100
AcDbVisualStyle
  2
Conceptual
 70
     9
 71
     3
 72
     2
 73
     0
 90
        0
 40
-0.6
 41
-30.0
 62
     5
 63
     7
 74
     2
 91
        2
 64
     7
 65
   257
 75
     1
175
     1
 42
179.0
 92
        8
 66
     7
 43
1.0
 76
     1
 77
     6
 78
     2
 67
     7
 79
     3
170
     0
171
     0
290
     0
174
     0
 93
        1
 44
0.0
173
     0
291
     0
 45
0.0
1001
ACAD
1000
AcDbSavedByObjectVersion
1070
     0
  0
VISUALSTYLE
  5
DA721
102
{ACAD_XDICTIONARY
360
DD825
102
}
102
{ACAD_REACTORS
330
DA716
102
}
330
DA716
100
AcDbVisualStyle
  2
Dim
 70
    11
 71
     2
 72
     2
 73
     0
 90
        0
 40
-0.6
 41
-30.0
 62
     5
 63
     7
 74
     1
 91
        4
 64
     7
 65
   257
 75
     1
175
     1
 42
1.0
 92
        8
 66
     7
 43
1.0
 76
     1
 77
     6
 78
     2
 67
     7
 79
     5
170
     0
171
     0
290
     0
174
     0
 93
        1
 44
-50.0
173
     0
291
     1
 45
0.0
1001
ACAD
1000
AcDbSavedByObjectVersion
1070
     0
  0
VISUALSTYLE
  5
DA729
102
{ACAD_XDICTIONARY
360
DD835
102
}
102
{ACAD_REACTORS
330
DA716
102
}
330
DA716
100
AcDbVisualStyle
  2
EdgeColorOff
 70
    22
 71
     2
 72
     2
 73
     0
 90
        0
 40
-0.6
 41
-30.0
 62
     5
 63
     7
 74
     1
 91
        4
 64
     7
 65
   257
 75
     1
175
     1
 42
1.0
 92
        8
 66
     7
 43
1.0
 76
     1
 77
     6
 78
     2
 67
     7
 79
     5
170
     0
171
     0
290
     0
174
     0
 93
        1
 44
0.0
173
     0
291
     1
 45
0.0
1001
ACAD
1000
AcDbSavedByObjectVersion
1070
     0
  0
VISUALSTYLE
  5
DA725
102
{ACAD_XDICTIONARY
360
DD82D
102
}
102
{ACAD_REACTORS
330
DA716
102
}
330
DA716
100
AcDbVisualStyle
  2
Facepattern
 70
    15
 71
     2
 72
     2
 73
     0
 90
        0
 40
-0.6
 41
-30.0
 62
     5
 63
     7
 74
     1
 91
        4
 64
     7
 65
   257
 75
     1
175
     1
 42
1.0
 92
        8
 66
     7
 43
1.0
 76
     1
 77
     6
 78
     2
 67
     7
 79
     5
170
     0
171
     0
290
     0
174
     0
 93
        1
 44
0.0
173
     0
291
     1
 45
0.0
1001
ACAD
1000
AcDbSavedByObjectVersion
1070
     0
  0
VISUALSTYLE
  5
DA717
102
{ACAD_XDICTIONARY
360
DD811
102
}
102
{ACAD_REACTORS
330
DA716
102
}
330
DA716
100
AcDbVisualStyle
  2
Flat
 70
     0
 71
     2
 72
     1
 73
     1
 90
        2
 40
-0.6
 41
30.0
 62
     5
 63
     7
 74
     0
 91
        0
 64
     7
 65
   257
 75
     1
175
     1
 42
1.0
 92
        8
 66
     7
 43
1.0
 76
     1
 77
     6
 78
     2
 67
     7
 79
     5
170
     0
171
     0
290
     0
174
     0
 93
       13
 44
0.0
173
     0
291
     1
 45
0.0
1001
ACAD
1000
AcDbSavedByObjectVersion
1070
     0
  0
VISUALSTYLE
  5
DA718
102
{ACAD_XDICTIONARY
360
DD813
102
}
102
{ACAD_REACTORS
330
DA716
102
}
330
DA716
100
AcDbVisualStyle
  2
FlatWithEdges
 70
     1
 71
     2
 72
     1
 73
     1
 90
        2
 40
-0.6
 41
30.0
 62
     5
 63
     7
 74
     1
 91
        0
 64
     7
 65
   257
 75
     1
175
     1
 42
1.0
 92
        0
 66
   257
 43
1.0
 76
     1
 77
     6
 78
     2
 67
     7
 79
     5
170
     0
171
     0
290
     0
174
     0
 93
       13
 44
0.0
173
     0
291
     1
 45
0.0
1001
ACAD
1000
AcDbSavedByObjectVersion
1070
     0
  0
VISUALSTYLE
  5
DA719
102
{ACAD_XDICTIONARY
360
DD815
102
}
102
{ACAD_REACTORS
330
DA716
102
}
330
DA716
100
AcDbVisualStyle
  2
Gouraud
 70
     2
 71
     2
 72
     2
 73
     1
 90
        2
 40
-0.6
 41
30.0
 62
     5
 63
     7
 74
     0
 91
        0
 64
     7
 65
   257
 75
     1
175
     1
 42
1.0
 92
        0
 66
     7
 43
1.0
 76
     1
 77
     6
 78
     2
 67
     7
 79
     5
170
     0
171
     0
290
     0
174
     0
 93
       13
 44
0.0
173
     0
291
     1
 45
0.0
1001
ACAD
1000
AcDbSavedByObjectVersion
1070
     0
  0
VISUALSTYLE
  5
DA71A
102
{ACAD_XDICTIONARY
360
DD817
102
}
102
{ACAD_REACTORS
330
DA716
102
}
330
DA716
100
AcDbVisualStyle
  2
GouraudWithEdges
 70
     3
 71
     2
 72
     2
 73
     1
 90
        2
 40
-0.6
 41
30.0
 62
     5
 63
     7
 74
     1
 91
        0
 64
     7
 65
   257
 75
     1
175
     1
 42
1.0
 92
        0
 66
   257
 43
1.0
 76
     1
 77
     6
 78
     2
 67
     7
 79
     5
170
     0
171
     0
290
     0
174
     0
 93
       13
 44
0.0
173
     0
291
     1
 45
0.0
1001
ACAD
1000
AcDbSavedByObjectVersion
1070
     0
  0
VISUALSTYLE
  5
DA71D
102
{ACAD_XDICTIONARY
360
DD81D
102
}
102
{ACAD_REACTORS
330
DA716
102
}
330
DA716
100
AcDbVisualStyle
  2
Hidden
 70
     6
 71
     1
 72
     2
 73
     2
 90
        0
 40
-0.6
 41
-30.0
 62
     5
 63
     7
 74
     2
 91
        2
 64
     7
 65
   257
 75
     2
175
     1
 42
40.0
 92
        0
 66
   257
 43
1.0
 76
     1
 77
     6
 78
     2
 67
     7
 79
     3
170
     0
171
     0
290
     0
174
     0
 93
        1
 44
0.0
173
     0
291
     0
 45
0.0
1001
ACAD
1000
AcDbSavedByObjectVersion
1070
     0
  0
VISUALSTYLE
  5
DA727
102
{ACAD_XDICTIONARY
360
DD831
102
}
102
{ACAD_REACTORS
330
DA716
102
}
330
DA716
100
AcDbVisualStyle
  2
JitterOff
 70
    20
 71
     2
 72
     2
 73
     0
 90
        0
 40
-0.6
 41
-30.0
 62
     5
 63
     7
 74
     1
 91
        4
 64
     7
 65
   257
 75
     1
175
     1
 42
1.0
 92
       10
 66
     7
 43
1.0
 76
     1
 77
     6
 78
     2
 67
     7
 79
     5
170
     0
171
     0
290
     0
174
     0
 93
        1
 44
0.0
173
     0
291
     1
 45
0.0
1001
ACAD
1000
AcDbSavedByObjectVersion
1070
     0
  0
VISUALSTYLE
  5
DA724
102
{ACAD_XDICTIONARY
360
DD82B
102
}
102
{ACAD_REACTORS
330
DA716
102
}
330
DA716
100
AcDbVisualStyle
  2
Linepattern
 70
    14
 71
     2
 72
     2
 73
     0
 90
        0
 40
-0.6
 41
-30.0
 62
     5
 63
     7
 74
     1
 91
        4
 64
     7
 65
   257
 75
     7
175
     7
 42
1.0
 92
        8
 66
     7
 43
1.0
 76
     1
 77
     6
 78
     2
 67
     7
 79
     5
170
     0
171
     0
290
     0
174
     0
 93
        1
 44
0.0
173
     0
291
     1
 45
0.0
1001
ACAD
1000
AcDbSavedByObjectVersion
1070
     0
  0
VISUALSTYLE
  5
DA728
102
{ACAD_XDICTIONARY
360
DD833
102
}
102
{ACAD_REACTORS
330
DA716
102
}
330
DA716
100
AcDbVisualStyle
  2
OverhangOff
 70
    21
 71
     2
 72
     2
 73
     0
 90
        0
 40
-0.6
 41
-30.0
 62
     5
 63
     7
 74
     1
 91
        4
 64
     7
 65
   257
 75
     1
175
     1
 42
1.0
 92
        9
 66
     7
 43
1.0
 76
     1
 77
     6
 78
     2
 67
     7
 79
     5
170
     0
171
     0
290
     0
174
     0
 93
        1
 44
0.0
173
     0
291
     1
 45
0.0
1001
ACAD
1000
AcDbSavedByObjectVersion
1070
     0
  0
VISUALSTYLE
  5
DA71F
102
{ACAD_XDICTIONARY
360
DD821
102
}
102
{ACAD_REACTORS
330
DA716
102
}
330
DA716
100
AcDbVisualStyle
  2
Realistic
 70
     8
 71
     2
 72
     2
 73
     0
 90
        2
 40
-0.6
 41
30.0
 62
     5
 63
     7
 74
     0
 91
        0
 64
     7
 65
   257
 75
     1
175
     1
 42
1.0
 92
        8
 66
   257
 43
1.0
 76
     1
 77
     6
 78
     2
 67
     7
 79
     3
170
     0
171
     0
290
     0
174
     0
 93
       13
 44
0.0
173
     0
291
     0
 45
0.0
1001
ACAD
1000
AcDbSavedByObjectVersion
1070
     0
  0
VISUALSTYLE
  5
DA72E
102
{ACAD_XDICTIONARY
360
DD83F
102
}
102
{ACAD_REACTORS
330
DA716
102
}
330
DA716
100
AcDbVisualStyle
  2
Shaded
 70
    27
 71
     2
 72
     2
 73
     1
 90
        2
 40
-0.6
 41
30.0
 62
     5
 63
     7
 74
     0
 91
        4
 64
     7
 65
   257
 75
     1
175
     1
 42
1.0
 92
        8
 66
   257
 43
1.0
 76
     1
 77
     6
 78
     2
 67
     8
 79
     3
170
     0
171
     0
290
     0
174
     0
 93
        5
 44
0.0
173
     0
291
     0
 45
0.0
1001
ACAD
1000
AcDbSavedByObjectVersion
1070
     0
  0
VISUALSTYLE
  5
DA72D
102
{ACAD_XDICTIONARY
360
DD83D
102
}
102
{ACAD_REACTORS
330
DA716
102
}
330
DA716
100
AcDbVisualStyle
  2
Shaded with edges
 70
    26
 71
     2
 72
     2
 73
     1
 90
        2
 40
-0.6
 41
30.0
 62
     5
 63
     7
 74
     1
 91
        2
 64
     7
 65
   257
 75
     2
175
     1
 42
1.0
 92
        8
 66
   257
 43
1.0
 76
     1
 77
     6
 78
     2
 67
     7
 79
     3
170
     0
171
     0
290
     0
174
     0
 93
        5
 44
0.0
173
     0
291
     0
 45
0.0
1001
ACAD
1000
AcDbSavedByObjectVersion
1070
     0
  0
VISUALSTYLE
  5
DA72A
102
{ACAD_XDICTIONARY
360
DD837
102
}
102
{ACAD_REACTORS
330
DA716
102
}
330
DA716
100
AcDbVisualStyle
  2
Shades of Gray
 70
    23
 71
     2
 72
     2
 73
     3
 90
        0
 40
-0.6
 41
-30.0
 62
     5
 63
     7
 74
     2
 91
        2
 64
     7
 65
     7
 75
     1
175
     1
 42
40.0
 92
        8
 66
     7
 43
1.0
 76
     1
 77
     6
 78
     2
 67
     7
 79
     3
170
     0
171
     0
290
     0
174
     0
 93
        1
 44
0.0
173
     0
291
     0
 45
0.0
1001
ACAD
1000
AcDbSavedByObjectVersion
1070
     0
  0
VISUALSTYLE
  5
DA72B
102
{ACAD_XDICTIONARY
360
DD839
102
}
102
{ACAD_REACTORS
330
DA716
102
}
330
DA716
100
AcDbVisualStyle
  2
Sketchy
 70
    24
 71
     1
 72
     2
 73
     2
 90
        0
 40
-0.6
 41
-30.0
 62
     5
 63
     7
 74
     2
 91
        2
 64
     7
 65
     7
 75
     1
175
     1
 42
40.0
 92
       11
 66
     7
 43
1.0
 76
     1
 77
     6
 78
     2
 67
     7
 79
     6
170
     0
171
     0
290
     0
174
     0
 93
        1
 44
0.0
173
     0
291
     0
 45
0.0
1001
ACAD
1000
AcDbSavedByObjectVersion
1070
     0
  0
VISUALSTYLE
  5
DA723
102
{ACAD_XDICTIONARY
360
DD829
102
}
102
{ACAD_REACTORS
330
DA716
102
}
330
DA716
100
AcDbVisualStyle
  2
Thicken
 70
    13
 71
     2
 72
     2
 73
     0
 90
        0
 40
-0.6
 41
-30.0
 62
     5
 63
     7
 74
     1
 91
        4
 64
     7
 65
   257
 75
     1
175
     1
 42
1.0
 92
       12
 66
     7
 43
1.0
 76
     1
 77
     6
 78
     2
 67
     7
 79
     5
170
     0
171
     0
290
     0
174
     0
 93
        1
 44
0.0
173
     0
291
     1
 45
0.0
1001
ACAD
1000
AcDbSavedByObjectVersion
1070
     0
  0
VISUALSTYLE
  5
DA71C
102
{ACAD_XDICTIONARY
360
DD81B
102
}
102
{ACAD_REACTORS
330
DA716
102
}
330
DA716
100
AcDbVisualStyle
  2
Wireframe
 70
     5
 71
     0
 72
     2
 73
     0
 90
        0
 40
-0.6
 41
-30.0
 62
     5
 63
     7
 74
     1
 91
        4
 64
     7
 65
   257
 75
     1
175
     1
 42
1.0
 92
        0
 66
   257
 43
1.0
 76
     1
 77
     6
 78
     2
 67
     7
 79
     3
170
     0
171
     0
290
     0
174
     0
 93
        1
 44
0.0
173
     0
291
     0
 45
0.0
1001
ACAD
1000
AcDbSavedByObjectVersion
1070
     0
  0
VISUALSTYLE
  5
DA72C
102
{ACAD_XDICTIONARY
360
DD83B
102
}
102
{ACAD_REACTORS
330
DA716
102
}
330
DA716
100
AcDbVisualStyle
  2
X-Ray
 70
    25
 71
     2
 72
     2
 73
     1
 90
        1
 40
0.5
 41
-30.0
 62
     5
 63
     7
 74
     1
 91
        0
 64
     7
 65
   257
 75
     1
175
     1
 42
1.0
 92
        8
 66
     7
 43
1.0
 76
     1
 77
     6
 78
     2
 67
     7
 79
     3
170
     0
171
     0
290
     0
174
     0
 93
       13
 44
0.0
173
     0
291
     0
 45
0.0
1001
ACAD
1000
AcDbSavedByObjectVersion
1070
     0
  0
DICTIONARYVAR
  5
DD66A
102
{ACAD_REACTORS
330
11AC
102
}
330
11AC
100
DictionaryVariables
280
     0
  1
1:1
  0
DICTIONARYVAR
  5
DA7F2
102
{ACAD_REACTORS
330
11AC
102
}
330
11AC
100
DictionaryVariables
280
     0
  1
STANDARD
  0
DICTIONARYVAR
  5
DA7F1
102
{ACAD_REACTORS
330
11AC
102
}
330
11AC
100
DictionaryVariables
280
     0
  1
STANDARD
  0
DICTIONARYVAR
  5
DD5FC
102
{ACAD_REACTORS
330
11AC
102
}
330
11AC
100
DictionaryVariables
280
     0
  1
Imperial24
  0
DICTIONARYVAR
  5
DD5FD
102
{ACAD_REACTORS
330
11AC
102
}
330
11AC
100
DictionaryVariables
280
     0
  1
Imperial24
  0
DICTIONARYVAR
  5
DD602
102
{ACAD_REACTORS
330
11AC
102
}
330
11AC
100
DictionaryVariables
280
     0
  1
2
  0
DICTIONARYVAR
  5
11AD
102
{ACAD_REACTORS
330
11AC
102
}
330
11AC
100
DictionaryVariables
280
     0
  1
1
  0
DICTIONARYVAR
  5
DD601
102
{ACAD_REACTORS
330
11AC
102
}
330
11AC
100
DictionaryVariables
280
     0
  1
1
  0
DICTIONARYVAR
  5
9109B
102
{ACAD_REACTORS
330
11AC
102
}
330
11AC
100
DictionaryVariables
280
     0
  1
0
  0
DICTIONARYVAR
  5
DD5FF
102
{ACAD_REACTORS
330
11AC
102
}
330
11AC
100
DictionaryVariables
280
     0
  1
0
  0
DICTIONARYVAR
  5
DD600
102
{ACAD_REACTORS
330
11AC
102
}
330
11AC
100
DictionaryVariables
280
     0
  1
0
  0
DICTIONARYVAR
  5
DD5FE
102
{ACAD_REACTORS
330
11AC
102
}
330
11AC
100
DictionaryVariables
280
     0
  1
2
  0
DICTIONARYVAR
  5
DD7A6
102
{ACAD_REACTORS
330
11AC
102
}
330
11AC
100
DictionaryVariables
280
     0
  1
1.570796
  0
DICTIONARYVAR
  5
DD7A7
102
{ACAD_REACTORS
330
11AC
102
}
330
11AC
100
DictionaryVariables
280
     0
  1
1.570796
  0
DICTIONARYVAR
  5
DA7F3
102
{ACAD_REACTORS
330
11AC
102
}
330
11AC
100
DictionaryVariables
280
     0
  1
0
  0
DICTIONARYVAR
  5
AD08
102
{ACAD_REACTORS
330
11AC
102
}
330
11AC
100
DictionaryVariables
280
     0
  1
96
  0
DICTIONARYVAR
  5
DD7A8
102
{ACAD_REACTORS
330
11AC
102
}
330
11AC
100
DictionaryVariables
280
     0
  1
2
  0
DICTIONARY
  5
DD80B
102
{ACAD_REACTORS
330
DD809
102
}
330
DD809
100
AcDbDictionary
281
     1
  0
DICTIONARY
  5
DD80A
102
{ACAD_REACTORS
330
DD809
102
}
330
DD809
100
AcDbDictionary
281
     1
  3
2406190005056
350
DD804
  3
2406190005072
350
DD805
  3
2406190005088
350
DD806
  3
2406190005104
350
DD807
  3
2406190005120
350
DD808
  0
DICTIONARY
  5
DD80F
330
916DC
100
AcDbDictionary
280
     1
281
     1
  3
ACAD_XREC_ROUNDTRIP
360
DD810
  0
DICTIONARY
  5
DD69F
330
741
100
AcDbDictionary
280
     1
281
     1
  3
ACAD_XREC_ROUNDTRIP
360
DD80C
  0
DICTIONARY
  5
DD6D9
330
DA856
100
AcDbDictionary
280
     1
281
     1
  3
ACAD_XREC_ROUNDTRIP
360
DD844
  0
DICTIONARY
  5
DD84A
330
DD56C
100
AcDbDictionary
280
     1
281
     1
  3
ACAD_XREC_ROUNDTRIP
360
DD84B
  0
DICTIONARY
  5
DD848
330
DD564
100
AcDbDictionary
280
     1
281
     1
  3
ACAD_XREC_ROUNDTRIP
360
DD849
  0
DICTIONARY
  5
DD841
330
DA732
100
AcDbDictionary
280
     1
281
     1
  3
ACAD_XREC_ROUNDTRIP
360
DD842
  0
DICTIONARY
  5
DD80D
330
916DA
100
AcDbDictionary
280
     1
281
     1
  3
ACAD_XREC_ROUNDTRIP
360
DD80E
  0
DICTIONARY
  5
DD68E
330
DA734
100
AcDbDictionary
280
     1
281
     1
  3
ACAD_ROUNDTRIP_2008_TABLESTYLE_CELLSTYLEMAP
360
DD7FF
  3
ACAD_XREC_ROUNDTRIP
360
DD843
  0
DICTIONARY
  5
DD819
330
DA71B
100
AcDbDictionary
280
     1
281
     1
  3
ACAD_XREC_ROUNDTRIP
360
DD81A
  0
DICTIONARY
  5
DD81F
330
DA71E
100
AcDbDictionary
280
     1
281
     1
  3
ACAD_XREC_ROUNDTRIP
360
DD820
  0
DICTIONARY
  5
DD827
330
DA722
100
AcDbDictionary
280
     1
281
     1
  3
ACAD_XREC_ROUNDTRIP
360
DD828
  0
DICTIONARY
  5
DD82F
330
DA726
100
AcDbDictionary
280
     1
281
     1
  3
ACAD_XREC_ROUNDTRIP
360
DD830
  0
DICTIONARY
  5
DD823
330
DA720
100
AcDbDictionary
280
     1
281
     1
  3
ACAD_XREC_ROUNDTRIP
360
DD824
  0
DICTIONARY
  5
DD825
330
DA721
100
AcDbDictionary
280
     1
281
     1
  3
ACAD_XREC_ROUNDTRIP
360
DD826
  0
DICTIONARY
  5
DD835
330
DA729
100
AcDbDictionary
280
     1
281
     1
  3
ACAD_XREC_ROUNDTRIP
360
DD836
  0
DICTIONARY
  5
DD82D
330
DA725
100
AcDbDictionary
280
     1
281
     1
  3
ACAD_XREC_ROUNDTRIP
360
DD82E
  0
DICTIONARY
  5
DD811
330
DA717
100
AcDbDictionary
280
     1
281
     1
  3
ACAD_XREC_ROUNDTRIP
360
DD812
  0
DICTIONARY
  5
DD813
330
DA718
100
AcDbDictionary
280
     1
281
     1
  3
ACAD_XREC_ROUNDTRIP
360
DD814
  0
DICTIONARY
  5
DD815
330
DA719
100
AcDbDictionary
280
     1
281
     1
  3
ACAD_XREC_ROUNDTRIP
360
DD816
  0
DICTIONARY
  5
DD817
330
DA71A
100
AcDbDictionary
280
     1
281
     1
  3
ACAD_XREC_ROUNDTRIP
360
DD818
  0
DICTIONARY
  5
DD81D
330
DA71D
100
AcDbDictionary
280
     1
281
     1
  3
ACAD_XREC_ROUNDTRIP
360
DD81E
  0
DICTIONARY
  5
DD831
330
DA727
100
AcDbDictionary
280
     1
281
     1
  3
ACAD_XREC_ROUNDTRIP
360
DD832
  0
DICTIONARY
  5
DD82B
330
DA724
100
AcDbDictionary
280
     1
281
     1
  3
ACAD_XREC_ROUNDTRIP
360
DD82C
  0
DICTIONARY
  5
DD833
330
DA728
100
AcDbDictionary
280
     1
281
     1
  3
ACAD_XREC_ROUNDTRIP
360
DD834
  0
DICTIONARY
  5
DD821
330
DA71F
100
AcDbDictionary
280
     1
281
     1
  3
ACAD_XREC_ROUNDTRIP
360
DD822
  0
DICTIONARY
  5
DD83F
330
DA72E
100
AcDbDictionary
280
     1
281
     1
  3
ACAD_XREC_ROUNDTRIP
360
DD840
  0
DICTIONARY
  5
DD83D
330
DA72D
100
AcDbDictionary
280
     1
281
     1
  3
ACAD_XREC_ROUNDTRIP
360
DD83E
  0
DICTIONARY
  5
DD837
330
DA72A
100
AcDbDictionary
280
     1
281
     1
  3
ACAD_XREC_ROUNDTRIP
360
DD838
  0
DICTIONARY
  5
DD839
330
DA72B
100
AcDbDictionary
280
     1
281
     1
  3
ACAD_XREC_ROUNDTRIP
360
DD83A
  0
DICTIONARY
  5
DD829
330
DA723
100
AcDbDictionary
280
     1
281
     1
  3
ACAD_XREC_ROUNDTRIP
360
DD82A
  0
DICTIONARY
  5
DD81B
330
DA71C
100
AcDbDictionary
280
     1
281
     1
  3
ACAD_XREC_ROUNDTRIP
360
DD81C
  0
DICTIONARY
  5
DD83B
330
DA72C
100
AcDbDictionary
280
     1
281
     1
  3
ACAD_XREC_ROUNDTRIP
360
DD83C
  0
XRECORD
  5
DD804
102
{ACAD_REACTORS
330
DD80A
102
}
330
DD80A
100
AcDbXrecord
280
     1
  1
AcDb_Thumbnail_Schema
102
{ATTRRECORD
341
DD805
  2
AcDbDs::TreatedAsObjectData
280
     1
291
     1
102
ATTRRECORD}
102
{ATTRRECORD
341
DD806
  2
AcDbDs::Legacy
280
     1
291
     1
102
ATTRRECORD}
  2
AcDbDs::ID
280
    10
 91
        8
102
{ATTRRECORD
341
DD807
  2
AcDs:Indexable
280
     1
291
     1
102
ATTRRECORD}
102
{ATTRRECORD
341
DD808
  2
AcDbDs::HandleAttribute
280
     7
282
     1
102
ATTRRECORD}
  2
Thumbnail_Data
280
    15
 91
        0
  0
XRECORD
  5
DD805
102
{ACAD_REACTORS
330
DD80A
102
}
330
DD80A
100
AcDbXrecord
280
     1
  1
AcDbDs::TreatedAsObjectDataSchema
  2
AcDbDs::TreatedAsObjectData
280
     1
 91
        0
  0
XRECORD
  5
DD806
102
{ACAD_REACTORS
330
DD80A
102
}
330
DD80A
100
AcDbXrecord
280
     1
  1
AcDbDs::LegacySchema
  2
AcDbDs::Legacy
280
     1
 91
        0
  0
XRECORD
  5
DD807
102
{ACAD_REACTORS
330
DD80A
102
}
330
DD80A
100
AcDbXrecord
280
     1
  1
AcDbDs::IndexedPropertySchema
  2
AcDs:Indexable
280
     1
 91
        0
  0
XRECORD
  5
DD808
102
{ACAD_REACTORS
330
DD80A
102
}
330
DD80A
100
AcDbXrecord
280
     1
  1
AcDbDs::HandleAttributeSchema
  2
AcDbDs::HandleAttribute
280
     7
 91
        1
284
     1
  0
XRECORD
  5
DD810
102
{ACAD_REACTORS
330
DD80F
102
}
330
DD80F
100
AcDbXrecord
280
     1
102
DISPLAYNAME
  1
Imperial24
102
FLAGS
 90
        0
  0
XRECORD
  5
DD80C
102
{ACAD_REACTORS
330
DD69F
102
}
330
DD69F
100
AcDbXrecord
280
     1
102
SHADEPLOT
 70
     0
102
SHADEPLOTRESLEVEL
 70
     2
102
SHADEPLOTCUSTOMDPI
 70
   300
  0
XRECORD
  5
DD844
102
{ACAD_REACTORS
330
DD6D9
102
}
330
DD6D9
100
AcDbXrecord
280
     1
102
SHADEPLOT
 70
     0
102
SHADEPLOTRESLEVEL
 70
     2
102
SHADEPLOTCUSTOMDPI
 70
   300
  0
XRECORD
  5
DD84B
102
{ACAD_REACTORS
330
DD84A
102
}
330
DD84A
100
AcDbXrecord
280
     1
102
MATERIAL
148
0.0
149
0.0
149
0.0
 93
        0
 94
      127
282
     0
 72
     0
 77
     0
171
     0
175
     0
179
     0
273
     0
  0
XRECORD
  5
DD849
102
{ACAD_REACTORS
330
DD848
102
}
330
DD848
100
AcDbXrecord
280
     1
102
MATERIAL
148
0.0
149
0.0
149
0.0
 93
        0
 94
      127
282
     0
 72
     0
 77
     0
171
     0
175
     0
179
     0
273
     0
  0
XRECORD
  5
DD842
102
{ACAD_REACTORS
330
DD841
102
}
330
DD841
100
AcDbXrecord
280
     1
102
MATERIAL
148
0.0
149
0.0
149
0.0
 93
        0
 94
      127
282
     0
 72
     1
 77
     1
171
     1
175
     1
179
     1
273
     0
  0
XRECORD
  5
DD80E
102
{ACAD_REACTORS
330
DD80D
102
}
330
DD80D
100
AcDbXrecord
280
     1
102
DISPLAYNAME
  1
Imperial24
102
FLAGS
 90
        0
  0
CELLSTYLEMAP
  5
DD7FF
102
{ACAD_REACTORS
330
DD68E
102
}
330
DD68E
100
AcDbCellStyleMap
 90
        3
300
CELLSTYLE
  1
TABLEFORMAT_BEGIN
 90
        5
170
     1
 91
        0
 92
    32768
 62
   257
 93
        1
300
CONTENTFORMAT
  1
CONTENTFORMAT_BEGIN
 90
        0
 91
        0
 92
        4
 93
        0
300

 40
0.0
140
1.0
 94
        5
 62
     0
340
F
144
0.25
309
CONTENTFORMAT_END
171
     1
301
MARGIN
  1
CELLMARGIN_BEGIN
 40
0.06
 40
0.06
 40
0.06
 40
0.06
 40
0.06
 40
0.06
309
CELLMARGIN_END
 94
        6
 95
        1
302
GRIDFORMAT
  1
GRIDFORMAT_BEGIN
 90
        0
 91
        1
 62
     0
 92
       -2
340
12
 93
        0
 40
0.045
309
GRIDFORMAT_END
 95
        2
302
GRIDFORMAT
  1
GRIDFORMAT_BEGIN
 90
        0
 91
        1
 62
     0
 92
       -2
340
12
 93
        0
 40
0.045
309
GRIDFORMAT_END
 95
        4
302
GRIDFORMAT
  1
GRIDFORMAT_BEGIN
 90
        0
 91
        1
 62
     0
 92
       -2
340
12
 93
        0
 40
0.045
309
GRIDFORMAT_END
 95
        8
302
GRIDFORMAT
  1
GRIDFORMAT_BEGIN
 90
        0
 91
        1
 62
     0
 92
       -2
340
12
 93
        0
 40
0.045
309
GRIDFORMAT_END
 95
       16
302
GRIDFORMAT
  1
GRIDFORMAT_BEGIN
 90
        0
 91
        1
 62
     0
 92
       -2
340
12
 93
        0
 40
0.045
309
GRIDFORMAT_END
 95
       32
302
GRIDFORMAT
  1
GRIDFORMAT_BEGIN
 90
        0
 91
        1
 62
     0
 92
       -2
340
12
 93
        0
 40
0.045
309
GRIDFORMAT_END
309
TABLEFORMAT_END
  1
CELLSTYLE_BEGIN
 90
        1
 91
        1
300
_TITLE
309
CELLSTYLE_END
300
CELLSTYLE
  1
TABLEFORMAT_BEGIN
 90
        5
170
     1
 91
        0
 92
        0
 62
   257
 93
        1
300
CONTENTFORMAT
  1
CONTENTFORMAT_BEGIN
 90
        0
 91
        0
 92
        4
 93
        0
300

 40
0.0
140
1.0
 94
        5
 62
     0
340
F
144
0.18
309
CONTENTFORMAT_END
171
     1
301
MARGIN
  1
CELLMARGIN_BEGIN
 40
0.06
 40
0.06
 40
0.06
 40
0.06
 40
0.06
 40
0.06
309
CELLMARGIN_END
 94
        6
 95
        1
302
GRIDFORMAT
  1
GRIDFORMAT_BEGIN
 90
        0
 91
        1
 62
     0
 92
       -2
340
12
 93
        0
 40
0.045
309
GRIDFORMAT_END
 95
        2
302
GRIDFORMAT
  1
GRIDFORMAT_BEGIN
 90
        0
 91
        1
 62
     0
 92
       -2
340
12
 93
        0
 40
0.045
309
GRIDFORMAT_END
 95
        4
302
GRIDFORMAT
  1
GRIDFORMAT_BEGIN
 90
        0
 91
        1
 62
     0
 92
       -2
340
12
 93
        0
 40
0.045
309
GRIDFORMAT_END
 95
        8
302
GRIDFORMAT
  1
GRIDFORMAT_BEGIN
 90
        0
 91
        1
 62
     0
 92
       -2
340
12
 93
        0
 40
0.045
309
GRIDFORMAT_END
 95
       16
302
GRIDFORMAT
  1
GRIDFORMAT_BEGIN
 90
        0
 91
        1
 62
     0
 92
       -2
340
12
 93
        0
 40
0.045
309
GRIDFORMAT_END
 95
       32
302
GRIDFORMAT
  1
GRIDFORMAT_BEGIN
 90
        0
 91
        1
 62
     0
 92
       -2
340
12
 93
        0
 40
0.045
309
GRIDFORMAT_END
309
TABLEFORMAT_END
  1
CELLSTYLE_BEGIN
 90
        2
 91
        1
300
_HEADER
309
CELLSTYLE_END
300
CELLSTYLE
  1
TABLEFORMAT_BEGIN
 90
        5
170
     1
 91
        0
 92
        0
 62
   257
 93
        1
300
CONTENTFORMAT
  1
CONTENTFORMAT_BEGIN
 90
        0
 91
        0
 92
        4
 93
        0
300

 40
0.0
140
1.0
 94
        2
 62
     0
340
F
144
0.18
309
CONTENTFORMAT_END
171
     1
301
MARGIN
  1
CELLMARGIN_BEGIN
 40
0.06
 40
0.06
 40
0.06
 40
0.06
 40
0.06
 40
0.06
309
CELLMARGIN_END
 94
        6
 95
        1
302
GRIDFORMAT
  1
GRIDFORMAT_BEGIN
 90
        0
 91
        1
 62
     0
 92
       -2
340
12
 93
        0
 40
0.045
309
GRIDFORMAT_END
 95
        2
302
GRIDFORMAT
  1
GRIDFORMAT_BEGIN
 90
        0
 91
        1
 62
     0
 92
       -2
340
12
 93
        0
 40
0.045
309
GRIDFORMAT_END
 95
        4
302
GRIDFORMAT
  1
GRIDFORMAT_BEGIN
 90
        0
 91
        1
 62
     0
 92
       -2
340
12
 93
        0
 40
0.045
309
GRIDFORMAT_END
 95
        8
302
GRIDFORMAT
  1
GRIDFORMAT_BEGIN
 90
        0
 91
        1
 62
     0
 92
       -2
340
12
 93
        0
 40
0.045
309
GRIDFORMAT_END
 95
       16
302
GRIDFORMAT
  1
GRIDFORMAT_BEGIN
 90
        0
 91
        1
 62
     0
 92
       -2
340
12
 93
        0
 40
0.045
309
GRIDFORMAT_END
 95
       32
302
GRIDFORMAT
  1
GRIDFORMAT_BEGIN
 90
        0
 91
        1
 62
     0
 92
       -2
340
12
 93
        0
 40
0.045
309
GRIDFORMAT_END
309
TABLEFORMAT_END
  1
CELLSTYLE_BEGIN
 90
        3
 91
        2
300
_DATA
309
CELLSTYLE_END
  0
XRECORD
  5
DD843
102
{ACAD_REACTORS
330
DD68E
102
}
330
DD68E
100
AcDbXrecord
280
     1
102
ACAD_ROUNDTRIP_PRE2007_TABLESTYLE
 90
        4
 91
        0
  1

 92
        4
 93
        0
  2

 94
        4
 95
        0
  3

  0
XRECORD
  5
DD81A
102
{ACAD_REACTORS
330
DD819
102
}
330
DD819
100
AcDbXrecord
280
     1
102
RTVSPost2010Prop28
280
     1
102
RTVSPost2010PropOp28
 70
     1
102
RTVSPost2010Prop29
280
     1
102
RTVSPost2010PropOp29
 70
     1
102
RTVSPost2010Prop30
280
     0
102
RTVSPost2010PropOp30
 70
     1
102
RTVSPost2010Prop31
280
     0
102
RTVSPost2010PropOp31
 70
     1
102
RTVSPost2010Prop32
280
     0
102
RTVSPost2010PropOp32
 70
     1
102
RTVSPost2010Prop33
280
     0
102
RTVSPost2010PropOp33
 70
     1
102
RTVSPost2010Prop34
280
     0
102
RTVSPost2010PropOp34
 70
     1
102
RTVSPost2010Prop35
280
     0
102
RTVSPost2010PropOp35
 70
     1
102
RTVSPost2010Prop36
280
     0
102
RTVSPost2010PropOp36
 70
     1
102
RTVSPost2010Prop37
 90
       50
102
RTVSPost2010PropOp37
 70
     1
102
RTVSPost2010Prop38
140
0.0
102
RTVSPost2010PropOp38
 70
     1
102
RTVSPost2010Prop39
140
1.0
102
RTVSPost2010PropOp39
 70
     1
102
RTVSPost2010Prop40
 90
        0
102
RTVSPost2010PropOp40
 70
     1
102
RTVSPost2010Prop41ColorIndex
 90
       18
102
RTVSPost2010Prop41ColorRGB
 90
        0
102
RTVSPost2010PropOp41
 70
     1
102
RTVSPost2010Prop42
 90
       50
102
RTVSPost2010PropOp42
 70
     1
102
RTVSPost2010Prop43
 90
        3
102
RTVSPost2010PropOp43
 70
     1
102
RTVSPost2010Prop44ColorIndex
 90
        5
102
RTVSPost2010Prop44ColorRGB
 90
      255
102
RTVSPost2010PropOp44
 70
     1
102
RTVSPost2010Prop45
280
     0
102
RTVSPost2010PropOp45
 70
     1
102
RTVSPost2010Prop46
 90
       50
102
RTVSPost2010PropOp46
 70
     1
102
RTVSPost2010Prop47
 90
       50
102
RTVSPost2010PropOp47
 70
     1
102
RTVSPost2010Prop48
 90
       50
102
RTVSPost2010PropOp48
 70
     1
102
RTVSPost2010Prop49
280
     0
102
RTVSPost2010PropOp49
 70
     1
102
RTVSPost2010Prop50
 90
       50
102
RTVSPost2010PropOp50
 70
     1
102
RTVSPost2010Prop51ColorIndex
 90
      256
102
RTVSPost2010Prop51ColorRGB
 90
-16777216
102
RTVSPost2010PropOp51
 70
     0
102
RTVSPost2010Prop52
140
1.0
102
RTVSPost2010PropOp52
 70
     0
102
RTVSPost2010Prop53
 90
        2
102
RTVSPost2010PropOp53
 70
     1
102
RTVSPost2010Prop54
  1
strokes_ogs.tif
102
RTVSPost2010PropOp54
 70
     1
102
RTVSPost2010Prop55
280
     0
102
RTVSPost2010PropOp55
 70
     1
102
RTVSPost2010Prop56
140
1.0
102
RTVSPost2010PropOp56
 70
     1
102
RTVSPost2010Prop57
140
1.0
102
RTVSPost2010PropOp57
 70
     1
102
RTVSPropertyOp0
 70
     1
102
RTVSPropertyOp1
 70
     1
102
RTVSPropertyOp2
 70
     1
102
RTVSPropertyOp3
 70
     1
102
RTVSPropertyOp4
 70
     1
102
RTVSPropertyOp5
 70
     1
102
RTVSPropertyOp6
 70
     1
102
RTVSPropertyOp7
 70
     1
102
RTVSPropertyOp8
 70
     1
102
RTVSPropertyOp9
 70
     1
102
RTVSPropertyOp10
 70
     1
102
RTVSPropertyOp11
 70
     1
102
RTVSPropertyOp12
 70
     1
102
RTVSPropertyOp13
 70
     1
102
RTVSPropertyOp14
 70
     1
102
RTVSPropertyOp15
 70
     1
102
RTVSPropertyOp16
 70
     1
102
RTVSPropertyOp17
 70
     1
102
RTVSPropertyOp18
 70
     1
102
RTVSPropertyOp19
 70
     1
102
RTVSPropertyOp20
 70
     1
102
RTVSPropertyOp21
 70
     1
102
RTVSPropertyOp22
 70
     1
102
RTVSPropertyOp23
 70
     1
102
RTVSPropertyOp24
 70
     1
102
RTVSPropertyOp25
 70
     1
102
RTVSPropertyOp26
 70
     1
102
RTVSPropertyOp27
 70
     1
102
RTVSPropertyOp28
 70
     1
102
RTVSPropertyOp29
 70
     1
102
RTVSPropertyOp30
 70
     1
102
RTVSPropertyOp31
 70
     1
102
RTVSPropertyOp32
 70
     1
102
RTVSPropertyOp33
 70
     1
102
RTVSPropertyOp34
 70
     1
102
RTVSPropertyOp35
 70
     1
102
RTVSPropertyOp36
 70
     1
102
RTVSPropertyOp37
 70
     1
102
RTVSPropertyOp38
 70
     1
102
RTVSPropertyOp39
 70
     1
102
RTVSPropertyOp40
 70
     1
102
RTVSPropertyOp41
 70
     1
102
RTVSPropertyOp42
 70
     1
102
RTVSPropertyOp43
 70
     1
102
RTVSPropertyOp44
 70
     1
102
RTVSPropertyOp45
 70
     1
102
RTVSPropertyOp46
 70
     1
102
RTVSPropertyOp47
 70
     1
102
RTVSPropertyOp48
 70
     1
102
RTVSPropertyOp49
 70
     1
102
RTVSPropertyOp50
 70
     1
102
RTVSPropertyOp51
 70
     0
102
RTVSPropertyOp52
 70
     0
102
RTVSPropertyOp53
 70
     1
102
RTVSPropertyOp54
 70
     1
102
RTVSPropertyOp55
 70
     1
102
RTVSPropertyOp56
 70
     1
102
RTVSPropertyOp57
 70
     1
102
RTVSPropertyOp58
 70
     1
102
RTVSPropertyOp59
 70
     1
102
RTVSPropertyOp60
 70
     1
102
RTVSPropertyOp61
 70
     1
102
RTVSPropertyOp62
 70
     1
  0
XRECORD
  5
DD820
102
{ACAD_REACTORS
330
DD81F
102
}
330
DD81F
100
AcDbXrecord
280
     1
102
RTVSPost2010Prop28
280
     0
102
RTVSPost2010PropOp28
 70
     1
102
RTVSPost2010Prop29
280
     1
102
RTVSPost2010PropOp29
 70
     1
102
RTVSPost2010Prop30
280
     1
102
RTVSPost2010PropOp30
 70
     1
102
RTVSPost2010Prop31
280
     0
102
RTVSPost2010PropOp31
 70
     1
102
RTVSPost2010Prop32
280
     0
102
RTVSPost2010PropOp32
 70
     1
102
RTVSPost2010Prop33
280
     0
102
RTVSPost2010PropOp33
 70
     1
102
RTVSPost2010Prop34
280
     0
102
RTVSPost2010PropOp34
 70
     1
102
RTVSPost2010Prop35
280
     0
102
RTVSPost2010PropOp35
 70
     1
102
RTVSPost2010Prop36
280
     0
102
RTVSPost2010PropOp36
 70
     1
102
RTVSPost2010Prop37
 90
       50
102
RTVSPost2010PropOp37
 70
     1
102
RTVSPost2010Prop38
140
0.0
102
RTVSPost2010PropOp38
 70
     1
102
RTVSPost2010Prop39
140
1.0
102
RTVSPost2010PropOp39
 70
     1
102
RTVSPost2010Prop40
 90
        0
102
RTVSPost2010PropOp40
 70
     1
102
RTVSPost2010Prop41ColorIndex
 90
       18
102
RTVSPost2010Prop41ColorRGB
 90
        0
102
RTVSPost2010PropOp41
 70
     1
102
RTVSPost2010Prop42
 90
       50
102
RTVSPost2010PropOp42
 70
     1
102
RTVSPost2010Prop43
 90
        3
102
RTVSPost2010PropOp43
 70
     1
102
RTVSPost2010Prop44ColorIndex
 90
        5
102
RTVSPost2010Prop44ColorRGB
 90
      255
102
RTVSPost2010PropOp44
 70
     1
102
RTVSPost2010Prop45
280
     0
102
RTVSPost2010PropOp45
 70
     1
102
RTVSPost2010Prop46
 90
       50
102
RTVSPost2010PropOp46
 70
     1
102
RTVSPost2010Prop47
 90
       50
102
RTVSPost2010PropOp47
 70
     1
102
RTVSPost2010Prop48
 90
       50
102
RTVSPost2010PropOp48
 70
     1
102
RTVSPost2010Prop49
280
     0
102
RTVSPost2010PropOp49
 70
     1
102
RTVSPost2010Prop50
 90
       50
102
RTVSPost2010PropOp50
 70
     1
102
RTVSPost2010Prop51ColorIndex
 90
      256
102
RTVSPost2010Prop51ColorRGB
 90
-16777216
102
RTVSPost2010PropOp51
 70
     0
102
RTVSPost2010Prop52
140
1.0
102
RTVSPost2010PropOp52
 70
     0
102
RTVSPost2010Prop53
 90
        2
102
RTVSPost2010PropOp53
 70
     1
102
RTVSPost2010Prop54
  1
strokes_ogs.tif
102
RTVSPost2010PropOp54
 70
     1
102
RTVSPost2010Prop55
280
     0
102
RTVSPost2010PropOp55
 70
     1
102
RTVSPost2010Prop56
140
1.0
102
RTVSPost2010PropOp56
 70
     1
102
RTVSPost2010Prop57
140
1.0
102
RTVSPost2010PropOp57
 70
     1
102
RTVSPropertyOp0
 70
     1
102
RTVSPropertyOp1
 70
     1
102
RTVSPropertyOp2
 70
     1
102
RTVSPropertyOp3
 70
     1
102
RTVSPropertyOp4
 70
     1
102
RTVSPropertyOp5
 70
     1
102
RTVSPropertyOp6
 70
     1
102
RTVSPropertyOp7
 70
     1
102
RTVSPropertyOp8
 70
     1
102
RTVSPropertyOp9
 70
     1
102
RTVSPropertyOp10
 70
     1
102
RTVSPropertyOp11
 70
     1
102
RTVSPropertyOp12
 70
     1
102
RTVSPropertyOp13
 70
     1
102
RTVSPropertyOp14
 70
     1
102
RTVSPropertyOp15
 70
     1
102
RTVSPropertyOp16
 70
     1
102
RTVSPropertyOp17
 70
     1
102
RTVSPropertyOp18
 70
     1
102
RTVSPropertyOp19
 70
     1
102
RTVSPropertyOp20
 70
     1
102
RTVSPropertyOp21
 70
     1
102
RTVSPropertyOp22
 70
     1
102
RTVSPropertyOp23
 70
     1
102
RTVSPropertyOp24
 70
     1
102
RTVSPropertyOp25
 70
     1
102
RTVSPropertyOp26
 70
     1
102
RTVSPropertyOp27
 70
     1
102
RTVSPropertyOp28
 70
     1
102
RTVSPropertyOp29
 70
     1
102
RTVSPropertyOp30
 70
     1
102
RTVSPropertyOp31
 70
     1
102
RTVSPropertyOp32
 70
     1
102
RTVSPropertyOp33
 70
     1
102
RTVSPropertyOp34
 70
     1
102
RTVSPropertyOp35
 70
     1
102
RTVSPropertyOp36
 70
     1
102
RTVSPropertyOp37
 70
     1
102
RTVSPropertyOp38
 70
     1
102
RTVSPropertyOp39
 70
     1
102
RTVSPropertyOp40
 70
     1
102
RTVSPropertyOp41
 70
     1
102
RTVSPropertyOp42
 70
     1
102
RTVSPropertyOp43
 70
     1
102
RTVSPropertyOp44
 70
     1
102
RTVSPropertyOp45
 70
     1
102
RTVSPropertyOp46
 70
     1
102
RTVSPropertyOp47
 70
     1
102
RTVSPropertyOp48
 70
     1
102
RTVSPropertyOp49
 70
     1
102
RTVSPropertyOp50
 70
     1
102
RTVSPropertyOp51
 70
     0
102
RTVSPropertyOp52
 70
     0
102
RTVSPropertyOp53
 70
     1
102
RTVSPropertyOp54
 70
     1
102
RTVSPropertyOp55
 70
     1
102
RTVSPropertyOp56
 70
     1
102
RTVSPropertyOp57
 70
     1
102
RTVSPropertyOp58
 70
     1
102
RTVSPropertyOp59
 70
     1
102
RTVSPropertyOp60
 70
     1
102
RTVSPropertyOp61
 70
     1
102
RTVSPropertyOp62
 70
     1
  0
XRECORD
  5
DD828
102
{ACAD_REACTORS
330
DD827
102
}
330
DD827
100
AcDbXrecord
280
     1
102
RTVSPost2010Prop28
280
     0
102
RTVSPost2010PropOp28
 70
     1
102
RTVSPost2010Prop29
280
     1
102
RTVSPost2010PropOp29
 70
     1
102
RTVSPost2010Prop30
280
     1
102
RTVSPost2010PropOp30
 70
     1
102
RTVSPost2010Prop31
280
     0
102
RTVSPost2010PropOp31
 70
     1
102
RTVSPost2010Prop32
280
     0
102
RTVSPost2010PropOp32
 70
     1
102
RTVSPost2010Prop33
280
     0
102
RTVSPost2010PropOp33
 70
     1
102
RTVSPost2010Prop34
280
     0
102
RTVSPost2010PropOp34
 70
     1
102
RTVSPost2010Prop35
280
     0
102
RTVSPost2010PropOp35
 70
     1
102
RTVSPost2010Prop36
280
     0
102
RTVSPost2010PropOp36
 70
     1
102
RTVSPost2010Prop37
 90
       50
102
RTVSPost2010PropOp37
 70
     1
102
RTVSPost2010Prop38
140
0.0
102
RTVSPost2010PropOp38
 70
     1
102
RTVSPost2010Prop39
140
1.0
102
RTVSPost2010PropOp39
 70
     1
102
RTVSPost2010Prop40
 90
        0
102
RTVSPost2010PropOp40
 70
     1
102
RTVSPost2010Prop41ColorIndex
 90
       18
102
RTVSPost2010Prop41ColorRGB
 90
        0
102
RTVSPost2010PropOp41
 70
     1
102
RTVSPost2010Prop42
 90
       50
102
RTVSPost2010PropOp42
 70
     1
102
RTVSPost2010Prop43
 90
        3
102
RTVSPost2010PropOp43
 70
     1
102
RTVSPost2010Prop44ColorIndex
 90
        5
102
RTVSPost2010Prop44ColorRGB
 90
      255
102
RTVSPost2010PropOp44
 70
     1
102
RTVSPost2010Prop45
280
     0
102
RTVSPost2010PropOp45
 70
     1
102
RTVSPost2010Prop46
 90
       50
102
RTVSPost2010PropOp46
 70
     1
102
RTVSPost2010Prop47
 90
       50
102
RTVSPost2010PropOp47
 70
     1
102
RTVSPost2010Prop48
 90
       50
102
RTVSPost2010PropOp48
 70
     1
102
RTVSPost2010Prop49
280
     0
102
RTVSPost2010PropOp49
 70
     1
102
RTVSPost2010Prop50
 90
       50
102
RTVSPost2010PropOp50
 70
     1
102
RTVSPost2010Prop51ColorIndex
 90
      256
102
RTVSPost2010Prop51ColorRGB
 90
-16777216
102
RTVSPost2010PropOp51
 70
     0
102
RTVSPost2010Prop52
140
1.0
102
RTVSPost2010PropOp52
 70
     0
102
RTVSPost2010Prop53
 90
        2
102
RTVSPost2010PropOp53
 70
     1
102
RTVSPost2010Prop54
  1
strokes_ogs.tif
102
RTVSPost2010PropOp54
 70
     1
102
RTVSPost2010Prop55
280
     0
102
RTVSPost2010PropOp55
 70
     1
102
RTVSPost2010Prop56
140
1.0
102
RTVSPost2010PropOp56
 70
     1
102
RTVSPost2010Prop57
140
1.0
102
RTVSPost2010PropOp57
 70
     1
102
RTVSPropertyOp0
 70
     1
102
RTVSPropertyOp1
 70
     1
102
RTVSPropertyOp2
 70
     1
102
RTVSPropertyOp3
 70
     1
102
RTVSPropertyOp4
 70
     1
102
RTVSPropertyOp5
 70
     1
102
RTVSPropertyOp6
 70
     1
102
RTVSPropertyOp7
 70
     1
102
RTVSPropertyOp8
 70
     1
102
RTVSPropertyOp9
 70
     1
102
RTVSPropertyOp10
 70
     1
102
RTVSPropertyOp11
 70
     1
102
RTVSPropertyOp12
 70
     1
102
RTVSPropertyOp13
 70
     1
102
RTVSPropertyOp14
 70
     1
102
RTVSPropertyOp15
 70
     1
102
RTVSPropertyOp16
 70
     1
102
RTVSPropertyOp17
 70
     1
102
RTVSPropertyOp18
 70
     1
102
RTVSPropertyOp19
 70
     1
102
RTVSPropertyOp20
 70
     1
102
RTVSPropertyOp21
 70
     1
102
RTVSPropertyOp22
 70
     1
102
RTVSPropertyOp23
 70
     1
102
RTVSPropertyOp24
 70
     1
102
RTVSPropertyOp25
 70
     1
102
RTVSPropertyOp26
 70
     1
102
RTVSPropertyOp27
 70
     1
102
RTVSPropertyOp28
 70
     1
102
RTVSPropertyOp29
 70
     1
102
RTVSPropertyOp30
 70
     1
102
RTVSPropertyOp31
 70
     1
102
RTVSPropertyOp32
 70
     1
102
RTVSPropertyOp33
 70
     1
102
RTVSPropertyOp34
 70
     1
102
RTVSPropertyOp35
 70
     1
102
RTVSPropertyOp36
 70
     1
102
RTVSPropertyOp37
 70
     1
102
RTVSPropertyOp38
 70
     1
102
RTVSPropertyOp39
 70
     1
102
RTVSPropertyOp40
 70
     1
102
RTVSPropertyOp41
 70
     1
102
RTVSPropertyOp42
 70
     1
102
RTVSPropertyOp43
 70
     1
102
RTVSPropertyOp44
 70
     1
102
RTVSPropertyOp45
 70
     1
102
RTVSPropertyOp46
 70
     1
102
RTVSPropertyOp47
 70
     1
102
RTVSPropertyOp48
 70
     1
102
RTVSPropertyOp49
 70
     1
102
RTVSPropertyOp50
 70
     1
102
RTVSPropertyOp51
 70
     0
102
RTVSPropertyOp52
 70
     0
102
RTVSPropertyOp53
 70
     1
102
RTVSPropertyOp54
 70
     1
102
RTVSPropertyOp55
 70
     1
102
RTVSPropertyOp56
 70
     1
102
RTVSPropertyOp57
 70
     1
102
RTVSPropertyOp58
 70
     1
102
RTVSPropertyOp59
 70
     1
102
RTVSPropertyOp60
 70
     1
102
RTVSPropertyOp61
 70
     1
102
RTVSPropertyOp62
 70
     1
  0
XRECORD
  5
DD830
102
{ACAD_REACTORS
330
DD82F
102
}
330
DD82F
100
AcDbXrecord
280
     1
102
RTVSPost2010Prop28
280
     0
102
RTVSPost2010PropOp28
 70
     1
102
RTVSPost2010Prop29
280
     1
102
RTVSPost2010PropOp29
 70
     1
102
RTVSPost2010Prop30
280
     1
102
RTVSPost2010PropOp30
 70
     1
102
RTVSPost2010Prop31
280
     0
102
RTVSPost2010PropOp31
 70
     1
102
RTVSPost2010Prop32
280
     0
102
RTVSPost2010PropOp32
 70
     1
102
RTVSPost2010Prop33
280
     0
102
RTVSPost2010PropOp33
 70
     1
102
RTVSPost2010Prop34
280
     0
102
RTVSPost2010PropOp34
 70
     1
102
RTVSPost2010Prop35
280
     0
102
RTVSPost2010PropOp35
 70
     1
102
RTVSPost2010Prop36
280
     0
102
RTVSPost2010PropOp36
 70
     1
102
RTVSPost2010Prop37
 90
       50
102
RTVSPost2010PropOp37
 70
     1
102
RTVSPost2010Prop38
140
0.0
102
RTVSPost2010PropOp38
 70
     1
102
RTVSPost2010Prop39
140
1.0
102
RTVSPost2010PropOp39
 70
     1
102
RTVSPost2010Prop40
 90
        0
102
RTVSPost2010PropOp40
 70
     1
102
RTVSPost2010Prop41ColorIndex
 90
       18
102
RTVSPost2010Prop41ColorRGB
 90
        0
102
RTVSPost2010PropOp41
 70
     1
102
RTVSPost2010Prop42
 90
       50
102
RTVSPost2010PropOp42
 70
     1
102
RTVSPost2010Prop43
 90
        3
102
RTVSPost2010PropOp43
 70
     1
102
RTVSPost2010Prop44ColorIndex
 90
        5
102
RTVSPost2010Prop44ColorRGB
 90
      255
102
RTVSPost2010PropOp44
 70
     1
102
RTVSPost2010Prop45
280
     0
102
RTVSPost2010PropOp45
 70
     1
102
RTVSPost2010Prop46
 90
       50
102
RTVSPost2010PropOp46
 70
     1
102
RTVSPost2010Prop47
 90
       50
102
RTVSPost2010PropOp47
 70
     1
102
RTVSPost2010Prop48
 90
       50
102
RTVSPost2010PropOp48
 70
     1
102
RTVSPost2010Prop49
280
     0
102
RTVSPost2010PropOp49
 70
     1
102
RTVSPost2010Prop50
 90
       50
102
RTVSPost2010PropOp50
 70
     1
102
RTVSPost2010Prop51ColorIndex
 90
      256
102
RTVSPost2010Prop51ColorRGB
 90
-16777216
102
RTVSPost2010PropOp51
 70
     0
102
RTVSPost2010Prop52
140
1.0
102
RTVSPost2010PropOp52
 70
     0
102
RTVSPost2010Prop53
 90
        2
102
RTVSPost2010PropOp53
 70
     1
102
RTVSPost2010Prop54
  1
strokes_ogs.tif
102
RTVSPost2010PropOp54
 70
     1
102
RTVSPost2010Prop55
280
     0
102
RTVSPost2010PropOp55
 70
     1
102
RTVSPost2010Prop56
140
1.0
102
RTVSPost2010PropOp56
 70
     1
102
RTVSPost2010Prop57
140
1.0
102
RTVSPost2010PropOp57
 70
     1
102
RTVSPropertyOp0
 70
     1
102
RTVSPropertyOp1
 70
     1
102
RTVSPropertyOp2
 70
     1
102
RTVSPropertyOp3
 70
     1
102
RTVSPropertyOp4
 70
     1
102
RTVSPropertyOp5
 70
     1
102
RTVSPropertyOp6
 70
     1
102
RTVSPropertyOp7
 70
     1
102
RTVSPropertyOp8
 70
     1
102
RTVSPropertyOp9
 70
     1
102
RTVSPropertyOp10
 70
     1
102
RTVSPropertyOp11
 70
     1
102
RTVSPropertyOp12
 70
     1
102
RTVSPropertyOp13
 70
     1
102
RTVSPropertyOp14
 70
     1
102
RTVSPropertyOp15
 70
     1
102
RTVSPropertyOp16
 70
     1
102
RTVSPropertyOp17
 70
     1
102
RTVSPropertyOp18
 70
     1
102
RTVSPropertyOp19
 70
     1
102
RTVSPropertyOp20
 70
     1
102
RTVSPropertyOp21
 70
     1
102
RTVSPropertyOp22
 70
     1
102
RTVSPropertyOp23
 70
     1
102
RTVSPropertyOp24
 70
     1
102
RTVSPropertyOp25
 70
     1
102
RTVSPropertyOp26
 70
     1
102
RTVSPropertyOp27
 70
     1
102
RTVSPropertyOp28
 70
     1
102
RTVSPropertyOp29
 70
     1
102
RTVSPropertyOp30
 70
     1
102
RTVSPropertyOp31
 70
     1
102
RTVSPropertyOp32
 70
     1
102
RTVSPropertyOp33
 70
     1
102
RTVSPropertyOp34
 70
     1
102
RTVSPropertyOp35
 70
     1
102
RTVSPropertyOp36
 70
     1
102
RTVSPropertyOp37
 70
     1
102
RTVSPropertyOp38
 70
     1
102
RTVSPropertyOp39
 70
     1
102
RTVSPropertyOp40
 70
     1
102
RTVSPropertyOp41
 70
     1
102
RTVSPropertyOp42
 70
     1
102
RTVSPropertyOp43
 70
     1
102
RTVSPropertyOp44
 70
     1
102
RTVSPropertyOp45
 70
     1
102
RTVSPropertyOp46
 70
     1
102
RTVSPropertyOp47
 70
     1
102
RTVSPropertyOp48
 70
     1
102
RTVSPropertyOp49
 70
     1
102
RTVSPropertyOp50
 70
     1
102
RTVSPropertyOp51
 70
     0
102
RTVSPropertyOp52
 70
     0
102
RTVSPropertyOp53
 70
     1
102
RTVSPropertyOp54
 70
     1
102
RTVSPropertyOp55
 70
     1
102
RTVSPropertyOp56
 70
     1
102
RTVSPropertyOp57
 70
     1
102
RTVSPropertyOp58
 70
     1
102
RTVSPropertyOp59
 70
     1
102
RTVSPropertyOp60
 70
     1
102
RTVSPropertyOp61
 70
     1
102
RTVSPropertyOp62
 70
     1
  0
XRECORD
  5
DD824
102
{ACAD_REACTORS
330
DD823
102
}
330
DD823
100
AcDbXrecord
280
     1
102
RTVSPost2010Prop28
280
     0
102
RTVSPost2010PropOp28
 70
     1
102
RTVSPost2010Prop29
280
     1
102
RTVSPost2010PropOp29
 70
     1
102
RTVSPost2010Prop30
280
     1
102
RTVSPost2010PropOp30
 70
     1
102
RTVSPost2010Prop31
280
     0
102
RTVSPost2010PropOp31
 70
     1
102
RTVSPost2010Prop32
280
     0
102
RTVSPost2010PropOp32
 70
     1
102
RTVSPost2010Prop33
280
     0
102
RTVSPost2010PropOp33
 70
     1
102
RTVSPost2010Prop34
280
     0
102
RTVSPost2010PropOp34
 70
     1
102
RTVSPost2010Prop35
280
     0
102
RTVSPost2010PropOp35
 70
     1
102
RTVSPost2010Prop36
280
     0
102
RTVSPost2010PropOp36
 70
     1
102
RTVSPost2010Prop37
 90
       50
102
RTVSPost2010PropOp37
 70
     1
102
RTVSPost2010Prop38
140
0.0
102
RTVSPost2010PropOp38
 70
     1
102
RTVSPost2010Prop39
140
1.0
102
RTVSPost2010PropOp39
 70
     1
102
RTVSPost2010Prop40
 90
        0
102
RTVSPost2010PropOp40
 70
     1
102
RTVSPost2010Prop41ColorIndex
 90
       18
102
RTVSPost2010Prop41ColorRGB
 90
        0
102
RTVSPost2010PropOp41
 70
     1
102
RTVSPost2010Prop42
 90
       50
102
RTVSPost2010PropOp42
 70
     1
102
RTVSPost2010Prop43
 90
        3
102
RTVSPost2010PropOp43
 70
     1
102
RTVSPost2010Prop44ColorIndex
 90
        5
102
RTVSPost2010Prop44ColorRGB
 90
      255
102
RTVSPost2010PropOp44
 70
     1
102
RTVSPost2010Prop45
280
     0
102
RTVSPost2010PropOp45
 70
     1
102
RTVSPost2010Prop46
 90
       50
102
RTVSPost2010PropOp46
 70
     1
102
RTVSPost2010Prop47
 90
       50
102
RTVSPost2010PropOp47
 70
     1
102
RTVSPost2010Prop48
 90
       50
102
RTVSPost2010PropOp48
 70
     1
102
RTVSPost2010Prop49
280
     0
102
RTVSPost2010PropOp49
 70
     1
102
RTVSPost2010Prop50
 90
       50
102
RTVSPost2010PropOp50
 70
     1
102
RTVSPost2010Prop51ColorIndex
 90
      256
102
RTVSPost2010Prop51ColorRGB
 90
-16777216
102
RTVSPost2010PropOp51
 70
     0
102
RTVSPost2010Prop52
140
1.0
102
RTVSPost2010PropOp52
 70
     0
102
RTVSPost2010Prop53
 90
        2
102
RTVSPost2010PropOp53
 70
     1
102
RTVSPost2010Prop54
  1
strokes_ogs.tif
102
RTVSPost2010PropOp54
 70
     1
102
RTVSPost2010Prop55
280
     0
102
RTVSPost2010PropOp55
 70
     1
102
RTVSPost2010Prop56
140
1.0
102
RTVSPost2010PropOp56
 70
     1
102
RTVSPost2010Prop57
140
1.0
102
RTVSPost2010PropOp57
 70
     1
102
RTVSPropertyOp0
 70
     1
102
RTVSPropertyOp1
 70
     1
102
RTVSPropertyOp2
 70
     1
102
RTVSPropertyOp3
 70
     1
102
RTVSPropertyOp4
 70
     1
102
RTVSPropertyOp5
 70
     1
102
RTVSPropertyOp6
 70
     1
102
RTVSPropertyOp7
 70
     1
102
RTVSPropertyOp8
 70
     1
102
RTVSPropertyOp9
 70
     1
102
RTVSPropertyOp10
 70
     1
102
RTVSPropertyOp11
 70
     1
102
RTVSPropertyOp12
 70
     1
102
RTVSPropertyOp13
 70
     1
102
RTVSPropertyOp14
 70
     1
102
RTVSPropertyOp15
 70
     1
102
RTVSPropertyOp16
 70
     1
102
RTVSPropertyOp17
 70
     1
102
RTVSPropertyOp18
 70
     1
102
RTVSPropertyOp19
 70
     1
102
RTVSPropertyOp20
 70
     1
102
RTVSPropertyOp21
 70
     1
102
RTVSPropertyOp22
 70
     1
102
RTVSPropertyOp23
 70
     1
102
RTVSPropertyOp24
 70
     1
102
RTVSPropertyOp25
 70
     1
102
RTVSPropertyOp26
 70
     1
102
RTVSPropertyOp27
 70
     1
102
RTVSPropertyOp28
 70
     1
102
RTVSPropertyOp29
 70
     1
102
RTVSPropertyOp30
 70
     1
102
RTVSPropertyOp31
 70
     1
102
RTVSPropertyOp32
 70
     1
102
RTVSPropertyOp33
 70
     1
102
RTVSPropertyOp34
 70
     1
102
RTVSPropertyOp35
 70
     1
102
RTVSPropertyOp36
 70
     1
102
RTVSPropertyOp37
 70
     1
102
RTVSPropertyOp38
 70
     1
102
RTVSPropertyOp39
 70
     1
102
RTVSPropertyOp40
 70
     1
102
RTVSPropertyOp41
 70
     1
102
RTVSPropertyOp42
 70
     1
102
RTVSPropertyOp43
 70
     1
102
RTVSPropertyOp44
 70
     1
102
RTVSPropertyOp45
 70
     1
102
RTVSPropertyOp46
 70
     1
102
RTVSPropertyOp47
 70
     1
102
RTVSPropertyOp48
 70
     1
102
RTVSPropertyOp49
 70
     1
102
RTVSPropertyOp50
 70
     1
102
RTVSPropertyOp51
 70
     0
102
RTVSPropertyOp52
 70
     0
102
RTVSPropertyOp53
 70
     1
102
RTVSPropertyOp54
 70
     1
102
RTVSPropertyOp55
 70
     1
102
RTVSPropertyOp56
 70
     1
102
RTVSPropertyOp57
 70
     1
102
RTVSPropertyOp58
 70
     1
102
RTVSPropertyOp59
 70
     1
102
RTVSPropertyOp60
 70
     1
102
RTVSPropertyOp61
 70
     1
102
RTVSPropertyOp62
 70
     1
  0
XRECORD
  5
DD826
102
{ACAD_REACTORS
330
DD825
102
}
330
DD825
100
AcDbXrecord
280
     1
102
RTVSPost2010Prop28
280
     0
102
RTVSPost2010PropOp28
 70
     1
102
RTVSPost2010Prop29
280
     1
102
RTVSPost2010PropOp29
 70
     1
102
RTVSPost2010Prop30
280
     1
102
RTVSPost2010PropOp30
 70
     1
102
RTVSPost2010Prop31
280
     0
102
RTVSPost2010PropOp31
 70
     1
102
RTVSPost2010Prop32
280
     0
102
RTVSPost2010PropOp32
 70
     1
102
RTVSPost2010Prop33
280
     0
102
RTVSPost2010PropOp33
 70
     1
102
RTVSPost2010Prop34
280
     0
102
RTVSPost2010PropOp34
 70
     1
102
RTVSPost2010Prop35
280
     0
102
RTVSPost2010PropOp35
 70
     1
102
RTVSPost2010Prop36
280
     0
102
RTVSPost2010PropOp36
 70
     1
102
RTVSPost2010Prop37
 90
       50
102
RTVSPost2010PropOp37
 70
     1
102
RTVSPost2010Prop38
140
0.0
102
RTVSPost2010PropOp38
 70
     1
102
RTVSPost2010Prop39
140
1.0
102
RTVSPost2010PropOp39
 70
     1
102
RTVSPost2010Prop40
 90
        0
102
RTVSPost2010PropOp40
 70
     1
102
RTVSPost2010Prop41ColorIndex
 90
       18
102
RTVSPost2010Prop41ColorRGB
 90
        0
102
RTVSPost2010PropOp41
 70
     1
102
RTVSPost2010Prop42
 90
       50
102
RTVSPost2010PropOp42
 70
     1
102
RTVSPost2010Prop43
 90
        3
102
RTVSPost2010PropOp43
 70
     1
102
RTVSPost2010Prop44ColorIndex
 90
        5
102
RTVSPost2010Prop44ColorRGB
 90
      255
102
RTVSPost2010PropOp44
 70
     1
102
RTVSPost2010Prop45
280
     0
102
RTVSPost2010PropOp45
 70
     1
102
RTVSPost2010Prop46
 90
       50
102
RTVSPost2010PropOp46
 70
     1
102
RTVSPost2010Prop47
 90
       50
102
RTVSPost2010PropOp47
 70
     1
102
RTVSPost2010Prop48
 90
       50
102
RTVSPost2010PropOp48
 70
     1
102
RTVSPost2010Prop49
280
     0
102
RTVSPost2010PropOp49
 70
     1
102
RTVSPost2010Prop50
 90
       50
102
RTVSPost2010PropOp50
 70
     1
102
RTVSPost2010Prop51ColorIndex
 90
      256
102
RTVSPost2010Prop51ColorRGB
 90
-16777216
102
RTVSPost2010PropOp51
 70
     0
102
RTVSPost2010Prop52
140
1.0
102
RTVSPost2010PropOp52
 70
     0
102
RTVSPost2010Prop53
 90
        2
102
RTVSPost2010PropOp53
 70
     1
102
RTVSPost2010Prop54
  1
strokes_ogs.tif
102
RTVSPost2010PropOp54
 70
     1
102
RTVSPost2010Prop55
280
     0
102
RTVSPost2010PropOp55
 70
     1
102
RTVSPost2010Prop56
140
1.0
102
RTVSPost2010PropOp56
 70
     1
102
RTVSPost2010Prop57
140
1.0
102
RTVSPost2010PropOp57
 70
     1
102
RTVSPropertyOp0
 70
     1
102
RTVSPropertyOp1
 70
     1
102
RTVSPropertyOp2
 70
     1
102
RTVSPropertyOp3
 70
     1
102
RTVSPropertyOp4
 70
     1
102
RTVSPropertyOp5
 70
     1
102
RTVSPropertyOp6
 70
     1
102
RTVSPropertyOp7
 70
     1
102
RTVSPropertyOp8
 70
     1
102
RTVSPropertyOp9
 70
     1
102
RTVSPropertyOp10
 70
     1
102
RTVSPropertyOp11
 70
     1
102
RTVSPropertyOp12
 70
     1
102
RTVSPropertyOp13
 70
     1
102
RTVSPropertyOp14
 70
     1
102
RTVSPropertyOp15
 70
     1
102
RTVSPropertyOp16
 70
     1
102
RTVSPropertyOp17
 70
     1
102
RTVSPropertyOp18
 70
     1
102
RTVSPropertyOp19
 70
     1
102
RTVSPropertyOp20
 70
     1
102
RTVSPropertyOp21
 70
     1
102
RTVSPropertyOp22
 70
     1
102
RTVSPropertyOp23
 70
     1
102
RTVSPropertyOp24
 70
     1
102
RTVSPropertyOp25
 70
     1
102
RTVSPropertyOp26
 70
     1
102
RTVSPropertyOp27
 70
     1
102
RTVSPropertyOp28
 70
     1
102
RTVSPropertyOp29
 70
     1
102
RTVSPropertyOp30
 70
     1
102
RTVSPropertyOp31
 70
     1
102
RTVSPropertyOp32
 70
     1
102
RTVSPropertyOp33
 70
     1
102
RTVSPropertyOp34
 70
     1
102
RTVSPropertyOp35
 70
     1
102
RTVSPropertyOp36
 70
     1
102
RTVSPropertyOp37
 70
     1
102
RTVSPropertyOp38
 70
     1
102
RTVSPropertyOp39
 70
     1
102
RTVSPropertyOp40
 70
     1
102
RTVSPropertyOp41
 70
     1
102
RTVSPropertyOp42
 70
     1
102
RTVSPropertyOp43
 70
     1
102
RTVSPropertyOp44
 70
     1
102
RTVSPropertyOp45
 70
     1
102
RTVSPropertyOp46
 70
     1
102
RTVSPropertyOp47
 70
     1
102
RTVSPropertyOp48
 70
     1
102
RTVSPropertyOp49
 70
     1
102
RTVSPropertyOp50
 70
     1
102
RTVSPropertyOp51
 70
     0
102
RTVSPropertyOp52
 70
     0
102
RTVSPropertyOp53
 70
     1
102
RTVSPropertyOp54
 70
     1
102
RTVSPropertyOp55
 70
     1
102
RTVSPropertyOp56
 70
     1
102
RTVSPropertyOp57
 70
     1
102
RTVSPropertyOp58
 70
     1
102
RTVSPropertyOp59
 70
     1
102
RTVSPropertyOp60
 70
     1
102
RTVSPropertyOp61
 70
     1
102
RTVSPropertyOp62
 70
     1
  0
XRECORD
  5
DD836
102
{ACAD_REACTORS
330
DD835
102
}
330
DD835
100
AcDbXrecord
280
     1
102
RTVSPost2010Prop28
280
     0
102
RTVSPost2010PropOp28
 70
     0
102
RTVSPost2010Prop29
280
     1
102
RTVSPost2010PropOp29
 70
     0
102
RTVSPost2010Prop30
280
     1
102
RTVSPost2010PropOp30
 70
     0
102
RTVSPost2010Prop31
280
     0
102
RTVSPost2010PropOp31
 70
     0
102
RTVSPost2010Prop32
280
     0
102
RTVSPost2010PropOp32
 70
     0
102
RTVSPost2010Prop33
280
     0
102
RTVSPost2010PropOp33
 70
     0
102
RTVSPost2010Prop34
280
     0
102
RTVSPost2010PropOp34
 70
     0
102
RTVSPost2010Prop35
280
     0
102
RTVSPost2010PropOp35
 70
     0
102
RTVSPost2010Prop36
280
     0
102
RTVSPost2010PropOp36
 70
     0
102
RTVSPost2010Prop37
 90
       50
102
RTVSPost2010PropOp37
 70
     0
102
RTVSPost2010Prop38
140
0.0
102
RTVSPost2010PropOp38
 70
     0
102
RTVSPost2010Prop39
140
1.0
102
RTVSPost2010PropOp39
 70
     0
102
RTVSPost2010Prop40
 90
        0
102
RTVSPost2010PropOp40
 70
     0
102
RTVSPost2010Prop41ColorIndex
 90
       18
102
RTVSPost2010Prop41ColorRGB
 90
        0
102
RTVSPost2010PropOp41
 70
     0
102
RTVSPost2010Prop42
 90
       50
102
RTVSPost2010PropOp42
 70
     0
102
RTVSPost2010Prop43
 90
        3
102
RTVSPost2010PropOp43
 70
     0
102
RTVSPost2010Prop44ColorIndex
 90
        5
102
RTVSPost2010Prop44ColorRGB
 90
      255
102
RTVSPost2010PropOp44
 70
     0
102
RTVSPost2010Prop45
280
     0
102
RTVSPost2010PropOp45
 70
     0
102
RTVSPost2010Prop46
 90
       50
102
RTVSPost2010PropOp46
 70
     0
102
RTVSPost2010Prop47
 90
       50
102
RTVSPost2010PropOp47
 70
     0
102
RTVSPost2010Prop48
 90
       50
102
RTVSPost2010PropOp48
 70
     0
102
RTVSPost2010Prop49
280
     0
102
RTVSPost2010PropOp49
 70
     0
102
RTVSPost2010Prop50
 90
       50
102
RTVSPost2010PropOp50
 70
     0
102
RTVSPost2010Prop51ColorIndex
 90
      256
102
RTVSPost2010Prop51ColorRGB
 90
-16777216
102
RTVSPost2010PropOp51
 70
     0
102
RTVSPost2010Prop52
140
1.0
102
RTVSPost2010PropOp52
 70
     0
102
RTVSPost2010Prop53
 90
        2
102
RTVSPost2010PropOp53
 70
     0
102
RTVSPost2010Prop54
  1
strokes_ogs.tif
102
RTVSPost2010PropOp54
 70
     0
102
RTVSPost2010Prop55
280
     0
102
RTVSPost2010PropOp55
 70
     0
102
RTVSPost2010Prop56
140
1.0
102
RTVSPost2010PropOp56
 70
     0
102
RTVSPost2010Prop57
140
1.0
102
RTVSPost2010PropOp57
 70
     0
102
RTVSPropertyOp0
 70
     0
102
RTVSPropertyOp1
 70
     0
102
RTVSPropertyOp2
 70
     0
102
RTVSPropertyOp3
 70
     0
102
RTVSPropertyOp4
 70
     0
102
RTVSPropertyOp5
 70
     0
102
RTVSPropertyOp6
 70
     0
102
RTVSPropertyOp7
 70
     0
102
RTVSPropertyOp8
 70
     0
102
RTVSPropertyOp9
 70
     0
102
RTVSPropertyOp10
 70
     0
102
RTVSPropertyOp11
 70
     0
102
RTVSPropertyOp12
 70
     0
102
RTVSPropertyOp13
 70
     0
102
RTVSPropertyOp14
 70
     2
102
RTVSPropertyOp15
 70
     0
102
RTVSPropertyOp16
 70
     0
102
RTVSPropertyOp17
 70
     0
102
RTVSPropertyOp18
 70
     0
102
RTVSPropertyOp19
 70
     0
102
RTVSPropertyOp20
 70
     0
102
RTVSPropertyOp21
 70
     0
102
RTVSPropertyOp22
 70
     0
102
RTVSPropertyOp23
 70
     0
102
RTVSPropertyOp24
 70
     0
102
RTVSPropertyOp25
 70
     0
102
RTVSPropertyOp26
 70
     0
102
RTVSPropertyOp27
 70
     0
102
RTVSPropertyOp28
 70
     0
102
RTVSPropertyOp29
 70
     0
102
RTVSPropertyOp30
 70
     0
102
RTVSPropertyOp31
 70
     0
102
RTVSPropertyOp32
 70
     0
102
RTVSPropertyOp33
 70
     0
102
RTVSPropertyOp34
 70
     0
102
RTVSPropertyOp35
 70
     0
102
RTVSPropertyOp36
 70
     0
102
RTVSPropertyOp37
 70
     0
102
RTVSPropertyOp38
 70
     0
102
RTVSPropertyOp39
 70
     0
102
RTVSPropertyOp40
 70
     0
102
RTVSPropertyOp41
 70
     0
102
RTVSPropertyOp42
 70
     0
102
RTVSPropertyOp43
 70
     0
102
RTVSPropertyOp44
 70
     0
102
RTVSPropertyOp45
 70
     0
102
RTVSPropertyOp46
 70
     0
102
RTVSPropertyOp47
 70
     0
102
RTVSPropertyOp48
 70
     0
102
RTVSPropertyOp49
 70
     0
102
RTVSPropertyOp50
 70
     0
102
RTVSPropertyOp51
 70
     0
102
RTVSPropertyOp52
 70
     0
102
RTVSPropertyOp53
 70
     0
102
RTVSPropertyOp54
 70
     0
102
RTVSPropertyOp55
 70
     0
102
RTVSPropertyOp56
 70
     0
102
RTVSPropertyOp57
 70
     0
102
RTVSPropertyOp58
 70
     1
102
RTVSPropertyOp59
 70
     1
102
RTVSPropertyOp60
 70
     1
102
RTVSPropertyOp61
 70
     1
102
RTVSPropertyOp62
 70
     1
  0
XRECORD
  5
DD82E
102
{ACAD_REACTORS
330
DD82D
102
}
330
DD82D
100
AcDbXrecord
280
     1
102
RTVSPost2010Prop28
280
     0
102
RTVSPost2010PropOp28
 70
     1
102
RTVSPost2010Prop29
280
     1
102
RTVSPost2010PropOp29
 70
     1
102
RTVSPost2010Prop30
280
     1
102
RTVSPost2010PropOp30
 70
     1
102
RTVSPost2010Prop31
280
     0
102
RTVSPost2010PropOp31
 70
     1
102
RTVSPost2010Prop32
280
     0
102
RTVSPost2010PropOp32
 70
     1
102
RTVSPost2010Prop33
280
     0
102
RTVSPost2010PropOp33
 70
     1
102
RTVSPost2010Prop34
280
     0
102
RTVSPost2010PropOp34
 70
     1
102
RTVSPost2010Prop35
280
     0
102
RTVSPost2010PropOp35
 70
     1
102
RTVSPost2010Prop36
280
     0
102
RTVSPost2010PropOp36
 70
     1
102
RTVSPost2010Prop37
 90
       50
102
RTVSPost2010PropOp37
 70
     1
102
RTVSPost2010Prop38
140
0.0
102
RTVSPost2010PropOp38
 70
     1
102
RTVSPost2010Prop39
140
1.0
102
RTVSPost2010PropOp39
 70
     1
102
RTVSPost2010Prop40
 90
        0
102
RTVSPost2010PropOp40
 70
     1
102
RTVSPost2010Prop41ColorIndex
 90
       18
102
RTVSPost2010Prop41ColorRGB
 90
        0
102
RTVSPost2010PropOp41
 70
     1
102
RTVSPost2010Prop42
 90
       50
102
RTVSPost2010PropOp42
 70
     1
102
RTVSPost2010Prop43
 90
        3
102
RTVSPost2010PropOp43
 70
     1
102
RTVSPost2010Prop44ColorIndex
 90
        5
102
RTVSPost2010Prop44ColorRGB
 90
      255
102
RTVSPost2010PropOp44
 70
     1
102
RTVSPost2010Prop45
280
     0
102
RTVSPost2010PropOp45
 70
     1
102
RTVSPost2010Prop46
 90
       50
102
RTVSPost2010PropOp46
 70
     1
102
RTVSPost2010Prop47
 90
       50
102
RTVSPost2010PropOp47
 70
     1
102
RTVSPost2010Prop48
 90
       50
102
RTVSPost2010PropOp48
 70
     1
102
RTVSPost2010Prop49
280
     0
102
RTVSPost2010PropOp49
 70
     1
102
RTVSPost2010Prop50
 90
       50
102
RTVSPost2010PropOp50
 70
     1
102
RTVSPost2010Prop51ColorIndex
 90
      256
102
RTVSPost2010Prop51ColorRGB
 90
-16777216
102
RTVSPost2010PropOp51
 70
     0
102
RTVSPost2010Prop52
140
1.0
102
RTVSPost2010PropOp52
 70
     0
102
RTVSPost2010Prop53
 90
        2
102
RTVSPost2010PropOp53
 70
     1
102
RTVSPost2010Prop54
  1
strokes_ogs.tif
102
RTVSPost2010PropOp54
 70
     1
102
RTVSPost2010Prop55
280
     0
102
RTVSPost2010PropOp55
 70
     1
102
RTVSPost2010Prop56
140
1.0
102
RTVSPost2010PropOp56
 70
     1
102
RTVSPost2010Prop57
140
1.0
102
RTVSPost2010PropOp57
 70
     1
102
RTVSPropertyOp0
 70
     1
102
RTVSPropertyOp1
 70
     1
102
RTVSPropertyOp2
 70
     1
102
RTVSPropertyOp3
 70
     1
102
RTVSPropertyOp4
 70
     1
102
RTVSPropertyOp5
 70
     1
102
RTVSPropertyOp6
 70
     1
102
RTVSPropertyOp7
 70
     1
102
RTVSPropertyOp8
 70
     1
102
RTVSPropertyOp9
 70
     1
102
RTVSPropertyOp10
 70
     1
102
RTVSPropertyOp11
 70
     1
102
RTVSPropertyOp12
 70
     1
102
RTVSPropertyOp13
 70
     1
102
RTVSPropertyOp14
 70
     1
102
RTVSPropertyOp15
 70
     1
102
RTVSPropertyOp16
 70
     1
102
RTVSPropertyOp17
 70
     1
102
RTVSPropertyOp18
 70
     1
102
RTVSPropertyOp19
 70
     1
102
RTVSPropertyOp20
 70
     1
102
RTVSPropertyOp21
 70
     1
102
RTVSPropertyOp22
 70
     1
102
RTVSPropertyOp23
 70
     1
102
RTVSPropertyOp24
 70
     1
102
RTVSPropertyOp25
 70
     1
102
RTVSPropertyOp26
 70
     1
102
RTVSPropertyOp27
 70
     1
102
RTVSPropertyOp28
 70
     1
102
RTVSPropertyOp29
 70
     1
102
RTVSPropertyOp30
 70
     1
102
RTVSPropertyOp31
 70
     1
102
RTVSPropertyOp32
 70
     1
102
RTVSPropertyOp33
 70
     1
102
RTVSPropertyOp34
 70
     1
102
RTVSPropertyOp35
 70
     1
102
RTVSPropertyOp36
 70
     1
102
RTVSPropertyOp37
 70
     1
102
RTVSPropertyOp38
 70
     1
102
RTVSPropertyOp39
 70
     1
102
RTVSPropertyOp40
 70
     1
102
RTVSPropertyOp41
 70
     1
102
RTVSPropertyOp42
 70
     1
102
RTVSPropertyOp43
 70
     1
102
RTVSPropertyOp44
 70
     1
102
RTVSPropertyOp45
 70
     1
102
RTVSPropertyOp46
 70
     1
102
RTVSPropertyOp47
 70
     1
102
RTVSPropertyOp48
 70
     1
102
RTVSPropertyOp49
 70
     1
102
RTVSPropertyOp50
 70
     1
102
RTVSPropertyOp51
 70
     0
102
RTVSPropertyOp52
 70
     0
102
RTVSPropertyOp53
 70
     1
102
RTVSPropertyOp54
 70
     1
102
RTVSPropertyOp55
 70
     1
102
RTVSPropertyOp56
 70
     1
102
RTVSPropertyOp57
 70
     1
102
RTVSPropertyOp58
 70
     1
102
RTVSPropertyOp59
 70
     1
102
RTVSPropertyOp60
 70
     1
102
RTVSPropertyOp61
 70
     1
102
RTVSPropertyOp62
 70
     1
  0
XRECORD
  5
DD812
102
{ACAD_REACTORS
330
DD811
102
}
330
DD811
100
AcDbXrecord
280
     1
102
RTVSPost2010Prop28
280
     0
102
RTVSPost2010PropOp28
 70
     1
102
RTVSPost2010Prop29
280
     1
102
RTVSPost2010PropOp29
 70
     1
102
RTVSPost2010Prop30
280
     1
102
RTVSPost2010PropOp30
 70
     1
102
RTVSPost2010Prop31
280
     0
102
RTVSPost2010PropOp31
 70
     1
102
RTVSPost2010Prop32
280
     0
102
RTVSPost2010PropOp32
 70
     1
102
RTVSPost2010Prop33
280
     0
102
RTVSPost2010PropOp33
 70
     1
102
RTVSPost2010Prop34
280
     0
102
RTVSPost2010PropOp34
 70
     1
102
RTVSPost2010Prop35
280
     0
102
RTVSPost2010PropOp35
 70
     1
102
RTVSPost2010Prop36
280
     0
102
RTVSPost2010PropOp36
 70
     1
102
RTVSPost2010Prop37
 90
       50
102
RTVSPost2010PropOp37
 70
     1
102
RTVSPost2010Prop38
140
0.0
102
RTVSPost2010PropOp38
 70
     1
102
RTVSPost2010Prop39
140
1.0
102
RTVSPost2010PropOp39
 70
     1
102
RTVSPost2010Prop40
 90
        0
102
RTVSPost2010PropOp40
 70
     1
102
RTVSPost2010Prop41ColorIndex
 90
       18
102
RTVSPost2010Prop41ColorRGB
 90
        0
102
RTVSPost2010PropOp41
 70
     1
102
RTVSPost2010Prop42
 90
       50
102
RTVSPost2010PropOp42
 70
     1
102
RTVSPost2010Prop43
 90
        3
102
RTVSPost2010PropOp43
 70
     1
102
RTVSPost2010Prop44ColorIndex
 90
        5
102
RTVSPost2010Prop44ColorRGB
 90
      255
102
RTVSPost2010PropOp44
 70
     1
102
RTVSPost2010Prop45
280
     0
102
RTVSPost2010PropOp45
 70
     1
102
RTVSPost2010Prop46
 90
       50
102
RTVSPost2010PropOp46
 70
     1
102
RTVSPost2010Prop47
 90
       50
102
RTVSPost2010PropOp47
 70
     1
102
RTVSPost2010Prop48
 90
       50
102
RTVSPost2010PropOp48
 70
     1
102
RTVSPost2010Prop49
280
     0
102
RTVSPost2010PropOp49
 70
     1
102
RTVSPost2010Prop50
 90
       50
102
RTVSPost2010PropOp50
 70
     1
102
RTVSPost2010Prop51ColorIndex
 90
      256
102
RTVSPost2010Prop51ColorRGB
 90
-16777216
102
RTVSPost2010PropOp51
 70
     0
102
RTVSPost2010Prop52
140
1.0
102
RTVSPost2010PropOp52
 70
     0
102
RTVSPost2010Prop53
 90
        2
102
RTVSPost2010PropOp53
 70
     1
102
RTVSPost2010Prop54
  1
strokes_ogs.tif
102
RTVSPost2010PropOp54
 70
     1
102
RTVSPost2010Prop55
280
     0
102
RTVSPost2010PropOp55
 70
     1
102
RTVSPost2010Prop56
140
1.0
102
RTVSPost2010PropOp56
 70
     1
102
RTVSPost2010Prop57
140
1.0
102
RTVSPost2010PropOp57
 70
     1
102
RTVSPropertyOp0
 70
     1
102
RTVSPropertyOp1
 70
     1
102
RTVSPropertyOp2
 70
     1
102
RTVSPropertyOp3
 70
     1
102
RTVSPropertyOp4
 70
     1
102
RTVSPropertyOp5
 70
     1
102
RTVSPropertyOp6
 70
     1
102
RTVSPropertyOp7
 70
     1
102
RTVSPropertyOp8
 70
     1
102
RTVSPropertyOp9
 70
     1
102
RTVSPropertyOp10
 70
     1
102
RTVSPropertyOp11
 70
     1
102
RTVSPropertyOp12
 70
     1
102
RTVSPropertyOp13
 70
     1
102
RTVSPropertyOp14
 70
     1
102
RTVSPropertyOp15
 70
     1
102
RTVSPropertyOp16
 70
     1
102
RTVSPropertyOp17
 70
     1
102
RTVSPropertyOp18
 70
     1
102
RTVSPropertyOp19
 70
     1
102
RTVSPropertyOp20
 70
     1
102
RTVSPropertyOp21
 70
     1
102
RTVSPropertyOp22
 70
     1
102
RTVSPropertyOp23
 70
     1
102
RTVSPropertyOp24
 70
     1
102
RTVSPropertyOp25
 70
     1
102
RTVSPropertyOp26
 70
     1
102
RTVSPropertyOp27
 70
     1
102
RTVSPropertyOp28
 70
     1
102
RTVSPropertyOp29
 70
     1
102
RTVSPropertyOp30
 70
     1
102
RTVSPropertyOp31
 70
     1
102
RTVSPropertyOp32
 70
     1
102
RTVSPropertyOp33
 70
     1
102
RTVSPropertyOp34
 70
     1
102
RTVSPropertyOp35
 70
     1
102
RTVSPropertyOp36
 70
     1
102
RTVSPropertyOp37
 70
     1
102
RTVSPropertyOp38
 70
     1
102
RTVSPropertyOp39
 70
     1
102
RTVSPropertyOp40
 70
     1
102
RTVSPropertyOp41
 70
     1
102
RTVSPropertyOp42
 70
     1
102
RTVSPropertyOp43
 70
     1
102
RTVSPropertyOp44
 70
     1
102
RTVSPropertyOp45
 70
     1
102
RTVSPropertyOp46
 70
     1
102
RTVSPropertyOp47
 70
     1
102
RTVSPropertyOp48
 70
     1
102
RTVSPropertyOp49
 70
     1
102
RTVSPropertyOp50
 70
     1
102
RTVSPropertyOp51
 70
     0
102
RTVSPropertyOp52
 70
     0
102
RTVSPropertyOp53
 70
     1
102
RTVSPropertyOp54
 70
     1
102
RTVSPropertyOp55
 70
     1
102
RTVSPropertyOp56
 70
     1
102
RTVSPropertyOp57
 70
     1
102
RTVSPropertyOp58
 70
     1
102
RTVSPropertyOp59
 70
     1
102
RTVSPropertyOp60
 70
     1
102
RTVSPropertyOp61
 70
     1
102
RTVSPropertyOp62
 70
     1
  0
XRECORD
  5
DD814
102
{ACAD_REACTORS
330
DD813
102
}
330
DD813
100
AcDbXrecord
280
     1
102
RTVSPost2010Prop28
280
     0
102
RTVSPost2010PropOp28
 70
     1
102
RTVSPost2010Prop29
280
     1
102
RTVSPost2010PropOp29
 70
     1
102
RTVSPost2010Prop30
280
     1
102
RTVSPost2010PropOp30
 70
     1
102
RTVSPost2010Prop31
280
     0
102
RTVSPost2010PropOp31
 70
     1
102
RTVSPost2010Prop32
280
     0
102
RTVSPost2010PropOp32
 70
     1
102
RTVSPost2010Prop33
280
     0
102
RTVSPost2010PropOp33
 70
     1
102
RTVSPost2010Prop34
280
     0
102
RTVSPost2010PropOp34
 70
     1
102
RTVSPost2010Prop35
280
     0
102
RTVSPost2010PropOp35
 70
     1
102
RTVSPost2010Prop36
280
     0
102
RTVSPost2010PropOp36
 70
     1
102
RTVSPost2010Prop37
 90
       50
102
RTVSPost2010PropOp37
 70
     1
102
RTVSPost2010Prop38
140
0.0
102
RTVSPost2010PropOp38
 70
     1
102
RTVSPost2010Prop39
140
1.0
102
RTVSPost2010PropOp39
 70
     1
102
RTVSPost2010Prop40
 90
        0
102
RTVSPost2010PropOp40
 70
     1
102
RTVSPost2010Prop41ColorIndex
 90
       18
102
RTVSPost2010Prop41ColorRGB
 90
        0
102
RTVSPost2010PropOp41
 70
     1
102
RTVSPost2010Prop42
 90
       50
102
RTVSPost2010PropOp42
 70
     1
102
RTVSPost2010Prop43
 90
        3
102
RTVSPost2010PropOp43
 70
     1
102
RTVSPost2010Prop44ColorIndex
 90
        5
102
RTVSPost2010Prop44ColorRGB
 90
      255
102
RTVSPost2010PropOp44
 70
     1
102
RTVSPost2010Prop45
280
     0
102
RTVSPost2010PropOp45
 70
     1
102
RTVSPost2010Prop46
 90
       50
102
RTVSPost2010PropOp46
 70
     1
102
RTVSPost2010Prop47
 90
       50
102
RTVSPost2010PropOp47
 70
     1
102
RTVSPost2010Prop48
 90
       50
102
RTVSPost2010PropOp48
 70
     1
102
RTVSPost2010Prop49
280
     0
102
RTVSPost2010PropOp49
 70
     1
102
RTVSPost2010Prop50
 90
       50
102
RTVSPost2010PropOp50
 70
     1
102
RTVSPost2010Prop51ColorIndex
 90
      256
102
RTVSPost2010Prop51ColorRGB
 90
-16777216
102
RTVSPost2010PropOp51
 70
     0
102
RTVSPost2010Prop52
140
1.0
102
RTVSPost2010PropOp52
 70
     0
102
RTVSPost2010Prop53
 90
        2
102
RTVSPost2010PropOp53
 70
     1
102
RTVSPost2010Prop54
  1
strokes_ogs.tif
102
RTVSPost2010PropOp54
 70
     1
102
RTVSPost2010Prop55
280
     0
102
RTVSPost2010PropOp55
 70
     1
102
RTVSPost2010Prop56
140
1.0
102
RTVSPost2010PropOp56
 70
     1
102
RTVSPost2010Prop57
140
1.0
102
RTVSPost2010PropOp57
 70
     1
102
RTVSPropertyOp0
 70
     1
102
RTVSPropertyOp1
 70
     1
102
RTVSPropertyOp2
 70
     1
102
RTVSPropertyOp3
 70
     1
102
RTVSPropertyOp4
 70
     1
102
RTVSPropertyOp5
 70
     1
102
RTVSPropertyOp6
 70
     1
102
RTVSPropertyOp7
 70
     1
102
RTVSPropertyOp8
 70
     1
102
RTVSPropertyOp9
 70
     1
102
RTVSPropertyOp10
 70
     1
102
RTVSPropertyOp11
 70
     1
102
RTVSPropertyOp12
 70
     1
102
RTVSPropertyOp13
 70
     1
102
RTVSPropertyOp14
 70
     1
102
RTVSPropertyOp15
 70
     1
102
RTVSPropertyOp16
 70
     1
102
RTVSPropertyOp17
 70
     1
102
RTVSPropertyOp18
 70
     1
102
RTVSPropertyOp19
 70
     1
102
RTVSPropertyOp20
 70
     1
102
RTVSPropertyOp21
 70
     1
102
RTVSPropertyOp22
 70
     1
102
RTVSPropertyOp23
 70
     1
102
RTVSPropertyOp24
 70
     1
102
RTVSPropertyOp25
 70
     1
102
RTVSPropertyOp26
 70
     1
102
RTVSPropertyOp27
 70
     1
102
RTVSPropertyOp28
 70
     1
102
RTVSPropertyOp29
 70
     1
102
RTVSPropertyOp30
 70
     1
102
RTVSPropertyOp31
 70
     1
102
RTVSPropertyOp32
 70
     1
102
RTVSPropertyOp33
 70
     1
102
RTVSPropertyOp34
 70
     1
102
RTVSPropertyOp35
 70
     1
102
RTVSPropertyOp36
 70
     1
102
RTVSPropertyOp37
 70
     1
102
RTVSPropertyOp38
 70
     1
102
RTVSPropertyOp39
 70
     1
102
RTVSPropertyOp40
 70
     1
102
RTVSPropertyOp41
 70
     1
102
RTVSPropertyOp42
 70
     1
102
RTVSPropertyOp43
 70
     1
102
RTVSPropertyOp44
 70
     1
102
RTVSPropertyOp45
 70
     1
102
RTVSPropertyOp46
 70
     1
102
RTVSPropertyOp47
 70
     1
102
RTVSPropertyOp48
 70
     1
102
RTVSPropertyOp49
 70
     1
102
RTVSPropertyOp50
 70
     1
102
RTVSPropertyOp51
 70
     0
102
RTVSPropertyOp52
 70
     0
102
RTVSPropertyOp53
 70
     1
102
RTVSPropertyOp54
 70
     1
102
RTVSPropertyOp55
 70
     1
102
RTVSPropertyOp56
 70
     1
102
RTVSPropertyOp57
 70
     1
102
RTVSPropertyOp58
 70
     1
102
RTVSPropertyOp59
 70
     1
102
RTVSPropertyOp60
 70
     1
102
RTVSPropertyOp61
 70
     1
102
RTVSPropertyOp62
 70
     1
  0
XRECORD
  5
DD816
102
{ACAD_REACTORS
330
DD815
102
}
330
DD815
100
AcDbXrecord
280
     1
102
RTVSPost2010Prop28
280
     0
102
RTVSPost2010PropOp28
 70
     1
102
RTVSPost2010Prop29
280
     1
102
RTVSPost2010PropOp29
 70
     1
102
RTVSPost2010Prop30
280
     1
102
RTVSPost2010PropOp30
 70
     1
102
RTVSPost2010Prop31
280
     0
102
RTVSPost2010PropOp31
 70
     1
102
RTVSPost2010Prop32
280
     0
102
RTVSPost2010PropOp32
 70
     1
102
RTVSPost2010Prop33
280
     0
102
RTVSPost2010PropOp33
 70
     1
102
RTVSPost2010Prop34
280
     0
102
RTVSPost2010PropOp34
 70
     1
102
RTVSPost2010Prop35
280
     0
102
RTVSPost2010PropOp35
 70
     1
102
RTVSPost2010Prop36
280
     0
102
RTVSPost2010PropOp36
 70
     1
102
RTVSPost2010Prop37
 90
       50
102
RTVSPost2010PropOp37
 70
     1
102
RTVSPost2010Prop38
140
0.0
102
RTVSPost2010PropOp38
 70
     1
102
RTVSPost2010Prop39
140
1.0
102
RTVSPost2010PropOp39
 70
     1
102
RTVSPost2010Prop40
 90
        0
102
RTVSPost2010PropOp40
 70
     1
102
RTVSPost2010Prop41ColorIndex
 90
       18
102
RTVSPost2010Prop41ColorRGB
 90
        0
102
RTVSPost2010PropOp41
 70
     1
102
RTVSPost2010Prop42
 90
       50
102
RTVSPost2010PropOp42
 70
     1
102
RTVSPost2010Prop43
 90
        3
102
RTVSPost2010PropOp43
 70
     1
102
RTVSPost2010Prop44ColorIndex
 90
        5
102
RTVSPost2010Prop44ColorRGB
 90
      255
102
RTVSPost2010PropOp44
 70
     1
102
RTVSPost2010Prop45
280
     0
102
RTVSPost2010PropOp45
 70
     1
102
RTVSPost2010Prop46
 90
       50
102
RTVSPost2010PropOp46
 70
     1
102
RTVSPost2010Prop47
 90
       50
102
RTVSPost2010PropOp47
 70
     1
102
RTVSPost2010Prop48
 90
       50
102
RTVSPost2010PropOp48
 70
     1
102
RTVSPost2010Prop49
280
     0
102
RTVSPost2010PropOp49
 70
     1
102
RTVSPost2010Prop50
 90
       50
102
RTVSPost2010PropOp50
 70
     1
102
RTVSPost2010Prop51ColorIndex
 90
      256
102
RTVSPost2010Prop51ColorRGB
 90
-16777216
102
RTVSPost2010PropOp51
 70
     0
102
RTVSPost2010Prop52
140
1.0
102
RTVSPost2010PropOp52
 70
     0
102
RTVSPost2010Prop53
 90
        2
102
RTVSPost2010PropOp53
 70
     1
102
RTVSPost2010Prop54
  1
strokes_ogs.tif
102
RTVSPost2010PropOp54
 70
     1
102
RTVSPost2010Prop55
280
     0
102
RTVSPost2010PropOp55
 70
     1
102
RTVSPost2010Prop56
140
1.0
102
RTVSPost2010PropOp56
 70
     1
102
RTVSPost2010Prop57
140
1.0
102
RTVSPost2010PropOp57
 70
     1
102
RTVSPropertyOp0
 70
     1
102
RTVSPropertyOp1
 70
     1
102
RTVSPropertyOp2
 70
     1
102
RTVSPropertyOp3
 70
     1
102
RTVSPropertyOp4
 70
     1
102
RTVSPropertyOp5
 70
     1
102
RTVSPropertyOp6
 70
     1
102
RTVSPropertyOp7
 70
     1
102
RTVSPropertyOp8
 70
     1
102
RTVSPropertyOp9
 70
     1
102
RTVSPropertyOp10
 70
     1
102
RTVSPropertyOp11
 70
     1
102
RTVSPropertyOp12
 70
     1
102
RTVSPropertyOp13
 70
     1
102
RTVSPropertyOp14
 70
     1
102
RTVSPropertyOp15
 70
     1
102
RTVSPropertyOp16
 70
     1
102
RTVSPropertyOp17
 70
     1
102
RTVSPropertyOp18
 70
     1
102
RTVSPropertyOp19
 70
     1
102
RTVSPropertyOp20
 70
     1
102
RTVSPropertyOp21
 70
     1
102
RTVSPropertyOp22
 70
     1
102
RTVSPropertyOp23
 70
     1
102
RTVSPropertyOp24
 70
     1
102
RTVSPropertyOp25
 70
     1
102
RTVSPropertyOp26
 70
     1
102
RTVSPropertyOp27
 70
     1
102
RTVSPropertyOp28
 70
     1
102
RTVSPropertyOp29
 70
     1
102
RTVSPropertyOp30
 70
     1
102
RTVSPropertyOp31
 70
     1
102
RTVSPropertyOp32
 70
     1
102
RTVSPropertyOp33
 70
     1
102
RTVSPropertyOp34
 70
     1
102
RTVSPropertyOp35
 70
     1
102
RTVSPropertyOp36
 70
     1
102
RTVSPropertyOp37
 70
     1
102
RTVSPropertyOp38
 70
     1
102
RTVSPropertyOp39
 70
     1
102
RTVSPropertyOp40
 70
     1
102
RTVSPropertyOp41
 70
     1
102
RTVSPropertyOp42
 70
     1
102
RTVSPropertyOp43
 70
     1
102
RTVSPropertyOp44
 70
     1
102
RTVSPropertyOp45
 70
     1
102
RTVSPropertyOp46
 70
     1
102
RTVSPropertyOp47
 70
     1
102
RTVSPropertyOp48
 70
     1
102
RTVSPropertyOp49
 70
     1
102
RTVSPropertyOp50
 70
     1
102
RTVSPropertyOp51
 70
     0
102
RTVSPropertyOp52
 70
     0
102
RTVSPropertyOp53
 70
     1
102
RTVSPropertyOp54
 70
     1
102
RTVSPropertyOp55
 70
     1
102
RTVSPropertyOp56
 70
     1
102
RTVSPropertyOp57
 70
     1
102
RTVSPropertyOp58
 70
     1
102
RTVSPropertyOp59
 70
     1
102
RTVSPropertyOp60
 70
     1
102
RTVSPropertyOp61
 70
     1
102
RTVSPropertyOp62
 70
     1
  0
XRECORD
  5
DD818
102
{ACAD_REACTORS
330
DD817
102
}
330
DD817
100
AcDbXrecord
280
     1
102
RTVSPost2010Prop28
280
     0
102
RTVSPost2010PropOp28
 70
     1
102
RTVSPost2010Prop29
280
     1
102
RTVSPost2010PropOp29
 70
     1
102
RTVSPost2010Prop30
280
     1
102
RTVSPost2010PropOp30
 70
     1
102
RTVSPost2010Prop31
280
     0
102
RTVSPost2010PropOp31
 70
     1
102
RTVSPost2010Prop32
280
     0
102
RTVSPost2010PropOp32
 70
     1
102
RTVSPost2010Prop33
280
     0
102
RTVSPost2010PropOp33
 70
     1
102
RTVSPost2010Prop34
280
     0
102
RTVSPost2010PropOp34
 70
     1
102
RTVSPost2010Prop35
280
     0
102
RTVSPost2010PropOp35
 70
     1
102
RTVSPost2010Prop36
280
     0
102
RTVSPost2010PropOp36
 70
     1
102
RTVSPost2010Prop37
 90
       50
102
RTVSPost2010PropOp37
 70
     1
102
RTVSPost2010Prop38
140
0.0
102
RTVSPost2010PropOp38
 70
     1
102
RTVSPost2010Prop39
140
1.0
102
RTVSPost2010PropOp39
 70
     1
102
RTVSPost2010Prop40
 90
        0
102
RTVSPost2010PropOp40
 70
     1
102
RTVSPost2010Prop41ColorIndex
 90
       18
102
RTVSPost2010Prop41ColorRGB
 90
        0
102
RTVSPost2010PropOp41
 70
     1
102
RTVSPost2010Prop42
 90
       50
102
RTVSPost2010PropOp42
 70
     1
102
RTVSPost2010Prop43
 90
        3
102
RTVSPost2010PropOp43
 70
     1
102
RTVSPost2010Prop44ColorIndex
 90
        5
102
RTVSPost2010Prop44ColorRGB
 90
      255
102
RTVSPost2010PropOp44
 70
     1
102
RTVSPost2010Prop45
280
     0
102
RTVSPost2010PropOp45
 70
     1
102
RTVSPost2010Prop46
 90
       50
102
RTVSPost2010PropOp46
 70
     1
102
RTVSPost2010Prop47
 90
       50
102
RTVSPost2010PropOp47
 70
     1
102
RTVSPost2010Prop48
 90
       50
102
RTVSPost2010PropOp48
 70
     1
102
RTVSPost2010Prop49
280
     0
102
RTVSPost2010PropOp49
 70
     1
102
RTVSPost2010Prop50
 90
       50
102
RTVSPost2010PropOp50
 70
     1
102
RTVSPost2010Prop51ColorIndex
 90
      256
102
RTVSPost2010Prop51ColorRGB
 90
-16777216
102
RTVSPost2010PropOp51
 70
     0
102
RTVSPost2010Prop52
140
1.0
102
RTVSPost2010PropOp52
 70
     0
102
RTVSPost2010Prop53
 90
        2
102
RTVSPost2010PropOp53
 70
     1
102
RTVSPost2010Prop54
  1
strokes_ogs.tif
102
RTVSPost2010PropOp54
 70
     1
102
RTVSPost2010Prop55
280
     0
102
RTVSPost2010PropOp55
 70
     1
102
RTVSPost2010Prop56
140
1.0
102
RTVSPost2010PropOp56
 70
     1
102
RTVSPost2010Prop57
140
1.0
102
RTVSPost2010PropOp57
 70
     1
102
RTVSPropertyOp0
 70
     1
102
RTVSPropertyOp1
 70
     1
102
RTVSPropertyOp2
 70
     1
102
RTVSPropertyOp3
 70
     1
102
RTVSPropertyOp4
 70
     1
102
RTVSPropertyOp5
 70
     1
102
RTVSPropertyOp6
 70
     1
102
RTVSPropertyOp7
 70
     1
102
RTVSPropertyOp8
 70
     1
102
RTVSPropertyOp9
 70
     1
102
RTVSPropertyOp10
 70
     1
102
RTVSPropertyOp11
 70
     1
102
RTVSPropertyOp12
 70
     1
102
RTVSPropertyOp13
 70
     1
102
RTVSPropertyOp14
 70
     1
102
RTVSPropertyOp15
 70
     1
102
RTVSPropertyOp16
 70
     1
102
RTVSPropertyOp17
 70
     1
102
RTVSPropertyOp18
 70
     1
102
RTVSPropertyOp19
 70
     1
102
RTVSPropertyOp20
 70
     1
102
RTVSPropertyOp21
 70
     1
102
RTVSPropertyOp22
 70
     1
102
RTVSPropertyOp23
 70
     1
102
RTVSPropertyOp24
 70
     1
102
RTVSPropertyOp25
 70
     1
102
RTVSPropertyOp26
 70
     1
102
RTVSPropertyOp27
 70
     1
102
RTVSPropertyOp28
 70
     1
102
RTVSPropertyOp29
 70
     1
102
RTVSPropertyOp30
 70
     1
102
RTVSPropertyOp31
 70
     1
102
RTVSPropertyOp32
 70
     1
102
RTVSPropertyOp33
 70
     1
102
RTVSPropertyOp34
 70
     1
102
RTVSPropertyOp35
 70
     1
102
RTVSPropertyOp36
 70
     1
102
RTVSPropertyOp37
 70
     1
102
RTVSPropertyOp38
 70
     1
102
RTVSPropertyOp39
 70
     1
102
RTVSPropertyOp40
 70
     1
102
RTVSPropertyOp41
 70
     1
102
RTVSPropertyOp42
 70
     1
102
RTVSPropertyOp43
 70
     1
102
RTVSPropertyOp44
 70
     1
102
RTVSPropertyOp45
 70
     1
102
RTVSPropertyOp46
 70
     1
102
RTVSPropertyOp47
 70
     1
102
RTVSPropertyOp48
 70
     1
102
RTVSPropertyOp49
 70
     1
102
RTVSPropertyOp50
 70
     1
102
RTVSPropertyOp51
 70
     0
102
RTVSPropertyOp52
 70
     0
102
RTVSPropertyOp53
 70
     1
102
RTVSPropertyOp54
 70
     1
102
RTVSPropertyOp55
 70
     1
102
RTVSPropertyOp56
 70
     1
102
RTVSPropertyOp57
 70
     1
102
RTVSPropertyOp58
 70
     1
102
RTVSPropertyOp59
 70
     1
102
RTVSPropertyOp60
 70
     1
102
RTVSPropertyOp61
 70
     1
102
RTVSPropertyOp62
 70
     1
  0
XRECORD
  5
DD81E
102
{ACAD_REACTORS
330
DD81D
102
}
330
DD81D
100
AcDbXrecord
280
     1
102
RTVSPost2010Prop28
280
     0
102
RTVSPost2010PropOp28
 70
     1
102
RTVSPost2010Prop29
280
     1
102
RTVSPost2010PropOp29
 70
     1
102
RTVSPost2010Prop30
280
     1
102
RTVSPost2010PropOp30
 70
     1
102
RTVSPost2010Prop31
280
     0
102
RTVSPost2010PropOp31
 70
     1
102
RTVSPost2010Prop32
280
     0
102
RTVSPost2010PropOp32
 70
     1
102
RTVSPost2010Prop33
280
     0
102
RTVSPost2010PropOp33
 70
     1
102
RTVSPost2010Prop34
280
     0
102
RTVSPost2010PropOp34
 70
     1
102
RTVSPost2010Prop35
280
     0
102
RTVSPost2010PropOp35
 70
     1
102
RTVSPost2010Prop36
280
     0
102
RTVSPost2010PropOp36
 70
     1
102
RTVSPost2010Prop37
 90
       50
102
RTVSPost2010PropOp37
 70
     1
102
RTVSPost2010Prop38
140
0.0
102
RTVSPost2010PropOp38
 70
     1
102
RTVSPost2010Prop39
140
1.0
102
RTVSPost2010PropOp39
 70
     1
102
RTVSPost2010Prop40
 90
        0
102
RTVSPost2010PropOp40
 70
     1
102
RTVSPost2010Prop41ColorIndex
 90
       18
102
RTVSPost2010Prop41ColorRGB
 90
        0
102
RTVSPost2010PropOp41
 70
     1
102
RTVSPost2010Prop42
 90
       50
102
RTVSPost2010PropOp42
 70
     1
102
RTVSPost2010Prop43
 90
        3
102
RTVSPost2010PropOp43
 70
     1
102
RTVSPost2010Prop44ColorIndex
 90
        5
102
RTVSPost2010Prop44ColorRGB
 90
      255
102
RTVSPost2010PropOp44
 70
     1
102
RTVSPost2010Prop45
280
     0
102
RTVSPost2010PropOp45
 70
     1
102
RTVSPost2010Prop46
 90
       50
102
RTVSPost2010PropOp46
 70
     1
102
RTVSPost2010Prop47
 90
       50
102
RTVSPost2010PropOp47
 70
     1
102
RTVSPost2010Prop48
 90
       50
102
RTVSPost2010PropOp48
 70
     1
102
RTVSPost2010Prop49
280
     0
102
RTVSPost2010PropOp49
 70
     1
102
RTVSPost2010Prop50
 90
       50
102
RTVSPost2010PropOp50
 70
     1
102
RTVSPost2010Prop51ColorIndex
 90
      256
102
RTVSPost2010Prop51ColorRGB
 90
-16777216
102
RTVSPost2010PropOp51
 70
     0
102
RTVSPost2010Prop52
140
1.0
102
RTVSPost2010PropOp52
 70
     0
102
RTVSPost2010Prop53
 90
        2
102
RTVSPost2010PropOp53
 70
     1
102
RTVSPost2010Prop54
  1
strokes_ogs.tif
102
RTVSPost2010PropOp54
 70
     1
102
RTVSPost2010Prop55
280
     0
102
RTVSPost2010PropOp55
 70
     1
102
RTVSPost2010Prop56
140
1.0
102
RTVSPost2010PropOp56
 70
     1
102
RTVSPost2010Prop57
140
1.0
102
RTVSPost2010PropOp57
 70
     1
102
RTVSPropertyOp0
 70
     1
102
RTVSPropertyOp1
 70
     1
102
RTVSPropertyOp2
 70
     1
102
RTVSPropertyOp3
 70
     1
102
RTVSPropertyOp4
 70
     1
102
RTVSPropertyOp5
 70
     1
102
RTVSPropertyOp6
 70
     1
102
RTVSPropertyOp7
 70
     1
102
RTVSPropertyOp8
 70
     1
102
RTVSPropertyOp9
 70
     1
102
RTVSPropertyOp10
 70
     1
102
RTVSPropertyOp11
 70
     1
102
RTVSPropertyOp12
 70
     1
102
RTVSPropertyOp13
 70
     1
102
RTVSPropertyOp14
 70
     1
102
RTVSPropertyOp15
 70
     1
102
RTVSPropertyOp16
 70
     1
102
RTVSPropertyOp17
 70
     1
102
RTVSPropertyOp18
 70
     1
102
RTVSPropertyOp19
 70
     1
102
RTVSPropertyOp20
 70
     1
102
RTVSPropertyOp21
 70
     1
102
RTVSPropertyOp22
 70
     1
102
RTVSPropertyOp23
 70
     1
102
RTVSPropertyOp24
 70
     1
102
RTVSPropertyOp25
 70
     1
102
RTVSPropertyOp26
 70
     1
102
RTVSPropertyOp27
 70
     1
102
RTVSPropertyOp28
 70
     1
102
RTVSPropertyOp29
 70
     1
102
RTVSPropertyOp30
 70
     1
102
RTVSPropertyOp31
 70
     1
102
RTVSPropertyOp32
 70
     1
102
RTVSPropertyOp33
 70
     1
102
RTVSPropertyOp34
 70
     1
102
RTVSPropertyOp35
 70
     1
102
RTVSPropertyOp36
 70
     1
102
RTVSPropertyOp37
 70
     1
102
RTVSPropertyOp38
 70
     1
102
RTVSPropertyOp39
 70
     1
102
RTVSPropertyOp40
 70
     1
102
RTVSPropertyOp41
 70
     1
102
RTVSPropertyOp42
 70
     1
102
RTVSPropertyOp43
 70
     1
102
RTVSPropertyOp44
 70
     1
102
RTVSPropertyOp45
 70
     1
102
RTVSPropertyOp46
 70
     1
102
RTVSPropertyOp47
 70
     1
102
RTVSPropertyOp48
 70
     1
102
RTVSPropertyOp49
 70
     1
102
RTVSPropertyOp50
 70
     1
102
RTVSPropertyOp51
 70
     0
102
RTVSPropertyOp52
 70
     0
102
RTVSPropertyOp53
 70
     1
102
RTVSPropertyOp54
 70
     1
102
RTVSPropertyOp55
 70
     1
102
RTVSPropertyOp56
 70
     1
102
RTVSPropertyOp57
 70
     1
102
RTVSPropertyOp58
 70
     1
102
RTVSPropertyOp59
 70
     1
102
RTVSPropertyOp60
 70
     1
102
RTVSPropertyOp61
 70
     1
102
RTVSPropertyOp62
 70
     1
  0
XRECORD
  5
DD832
102
{ACAD_REACTORS
330
DD831
102
}
330
DD831
100
AcDbXrecord
280
     1
102
RTVSPost2010Prop28
280
     0
102
RTVSPost2010PropOp28
 70
     0
102
RTVSPost2010Prop29
280
     1
102
RTVSPost2010PropOp29
 70
     0
102
RTVSPost2010Prop30
280
     1
102
RTVSPost2010PropOp30
 70
     0
102
RTVSPost2010Prop31
280
     0
102
RTVSPost2010PropOp31
 70
     0
102
RTVSPost2010Prop32
280
     0
102
RTVSPost2010PropOp32
 70
     0
102
RTVSPost2010Prop33
280
     0
102
RTVSPost2010PropOp33
 70
     0
102
RTVSPost2010Prop34
280
     0
102
RTVSPost2010PropOp34
 70
     0
102
RTVSPost2010Prop35
280
     0
102
RTVSPost2010PropOp35
 70
     0
102
RTVSPost2010Prop36
280
     0
102
RTVSPost2010PropOp36
 70
     0
102
RTVSPost2010Prop37
 90
       50
102
RTVSPost2010PropOp37
 70
     0
102
RTVSPost2010Prop38
140
0.0
102
RTVSPost2010PropOp38
 70
     0
102
RTVSPost2010Prop39
140
1.0
102
RTVSPost2010PropOp39
 70
     0
102
RTVSPost2010Prop40
 90
        0
102
RTVSPost2010PropOp40
 70
     0
102
RTVSPost2010Prop41ColorIndex
 90
       18
102
RTVSPost2010Prop41ColorRGB
 90
        0
102
RTVSPost2010PropOp41
 70
     0
102
RTVSPost2010Prop42
 90
       50
102
RTVSPost2010PropOp42
 70
     0
102
RTVSPost2010Prop43
 90
        3
102
RTVSPost2010PropOp43
 70
     0
102
RTVSPost2010Prop44ColorIndex
 90
        5
102
RTVSPost2010Prop44ColorRGB
 90
      255
102
RTVSPost2010PropOp44
 70
     0
102
RTVSPost2010Prop45
280
     0
102
RTVSPost2010PropOp45
 70
     0
102
RTVSPost2010Prop46
 90
       50
102
RTVSPost2010PropOp46
 70
     0
102
RTVSPost2010Prop47
 90
       50
102
RTVSPost2010PropOp47
 70
     0
102
RTVSPost2010Prop48
 90
       50
102
RTVSPost2010PropOp48
 70
     0
102
RTVSPost2010Prop49
280
     0
102
RTVSPost2010PropOp49
 70
     0
102
RTVSPost2010Prop50
 90
       50
102
RTVSPost2010PropOp50
 70
     0
102
RTVSPost2010Prop51ColorIndex
 90
      256
102
RTVSPost2010Prop51ColorRGB
 90
-16777216
102
RTVSPost2010PropOp51
 70
     0
102
RTVSPost2010Prop52
140
1.0
102
RTVSPost2010PropOp52
 70
     0
102
RTVSPost2010Prop53
 90
        2
102
RTVSPost2010PropOp53
 70
     0
102
RTVSPost2010Prop54
  1
strokes_ogs.tif
102
RTVSPost2010PropOp54
 70
     0
102
RTVSPost2010Prop55
280
     0
102
RTVSPost2010PropOp55
 70
     0
102
RTVSPost2010Prop56
140
1.0
102
RTVSPost2010PropOp56
 70
     0
102
RTVSPost2010Prop57
140
1.0
102
RTVSPost2010PropOp57
 70
     0
102
RTVSPropertyOp0
 70
     0
102
RTVSPropertyOp1
 70
     0
102
RTVSPropertyOp2
 70
     0
102
RTVSPropertyOp3
 70
     0
102
RTVSPropertyOp4
 70
     0
102
RTVSPropertyOp5
 70
     0
102
RTVSPropertyOp6
 70
     0
102
RTVSPropertyOp7
 70
     0
102
RTVSPropertyOp8
 70
     0
102
RTVSPropertyOp9
 70
     0
102
RTVSPropertyOp10
 70
     0
102
RTVSPropertyOp11
 70
     0
102
RTVSPropertyOp12
 70
     0
102
RTVSPropertyOp13
 70
     0
102
RTVSPropertyOp14
 70
     2
102
RTVSPropertyOp15
 70
     0
102
RTVSPropertyOp16
 70
     0
102
RTVSPropertyOp17
 70
     0
102
RTVSPropertyOp18
 70
     0
102
RTVSPropertyOp19
 70
     0
102
RTVSPropertyOp20
 70
     0
102
RTVSPropertyOp21
 70
     0
102
RTVSPropertyOp22
 70
     0
102
RTVSPropertyOp23
 70
     0
102
RTVSPropertyOp24
 70
     0
102
RTVSPropertyOp25
 70
     0
102
RTVSPropertyOp26
 70
     0
102
RTVSPropertyOp27
 70
     0
102
RTVSPropertyOp28
 70
     0
102
RTVSPropertyOp29
 70
     0
102
RTVSPropertyOp30
 70
     0
102
RTVSPropertyOp31
 70
     0
102
RTVSPropertyOp32
 70
     0
102
RTVSPropertyOp33
 70
     0
102
RTVSPropertyOp34
 70
     0
102
RTVSPropertyOp35
 70
     0
102
RTVSPropertyOp36
 70
     0
102
RTVSPropertyOp37
 70
     0
102
RTVSPropertyOp38
 70
     0
102
RTVSPropertyOp39
 70
     0
102
RTVSPropertyOp40
 70
     0
102
RTVSPropertyOp41
 70
     0
102
RTVSPropertyOp42
 70
     0
102
RTVSPropertyOp43
 70
     0
102
RTVSPropertyOp44
 70
     0
102
RTVSPropertyOp45
 70
     0
102
RTVSPropertyOp46
 70
     0
102
RTVSPropertyOp47
 70
     0
102
RTVSPropertyOp48
 70
     0
102
RTVSPropertyOp49
 70
     0
102
RTVSPropertyOp50
 70
     0
102
RTVSPropertyOp51
 70
     0
102
RTVSPropertyOp52
 70
     0
102
RTVSPropertyOp53
 70
     0
102
RTVSPropertyOp54
 70
     0
102
RTVSPropertyOp55
 70
     0
102
RTVSPropertyOp56
 70
     0
102
RTVSPropertyOp57
 70
     0
102
RTVSPropertyOp58
 70
     1
102
RTVSPropertyOp59
 70
     1
102
RTVSPropertyOp60
 70
     1
102
RTVSPropertyOp61
 70
     1
102
RTVSPropertyOp62
 70
     1
  0
XRECORD
  5
DD82C
102
{ACAD_REACTORS
330
DD82B
102
}
330
DD82B
100
AcDbXrecord
280
     1
102
RTVSPost2010Prop28
280
     0
102
RTVSPost2010PropOp28
 70
     1
102
RTVSPost2010Prop29
280
     1
102
RTVSPost2010PropOp29
 70
     1
102
RTVSPost2010Prop30
280
     1
102
RTVSPost2010PropOp30
 70
     1
102
RTVSPost2010Prop31
280
     0
102
RTVSPost2010PropOp31
 70
     1
102
RTVSPost2010Prop32
280
     0
102
RTVSPost2010PropOp32
 70
     1
102
RTVSPost2010Prop33
280
     0
102
RTVSPost2010PropOp33
 70
     1
102
RTVSPost2010Prop34
280
     0
102
RTVSPost2010PropOp34
 70
     1
102
RTVSPost2010Prop35
280
     0
102
RTVSPost2010PropOp35
 70
     1
102
RTVSPost2010Prop36
280
     0
102
RTVSPost2010PropOp36
 70
     1
102
RTVSPost2010Prop37
 90
       50
102
RTVSPost2010PropOp37
 70
     1
102
RTVSPost2010Prop38
140
0.0
102
RTVSPost2010PropOp38
 70
     1
102
RTVSPost2010Prop39
140
1.0
102
RTVSPost2010PropOp39
 70
     1
102
RTVSPost2010Prop40
 90
        0
102
RTVSPost2010PropOp40
 70
     1
102
RTVSPost2010Prop41ColorIndex
 90
       18
102
RTVSPost2010Prop41ColorRGB
 90
        0
102
RTVSPost2010PropOp41
 70
     1
102
RTVSPost2010Prop42
 90
       50
102
RTVSPost2010PropOp42
 70
     1
102
RTVSPost2010Prop43
 90
        3
102
RTVSPost2010PropOp43
 70
     1
102
RTVSPost2010Prop44ColorIndex
 90
        5
102
RTVSPost2010Prop44ColorRGB
 90
      255
102
RTVSPost2010PropOp44
 70
     1
102
RTVSPost2010Prop45
280
     0
102
RTVSPost2010PropOp45
 70
     1
102
RTVSPost2010Prop46
 90
       50
102
RTVSPost2010PropOp46
 70
     1
102
RTVSPost2010Prop47
 90
       50
102
RTVSPost2010PropOp47
 70
     1
102
RTVSPost2010Prop48
 90
       50
102
RTVSPost2010PropOp48
 70
     1
102
RTVSPost2010Prop49
280
     0
102
RTVSPost2010PropOp49
 70
     1
102
RTVSPost2010Prop50
 90
       50
102
RTVSPost2010PropOp50
 70
     1
102
RTVSPost2010Prop51ColorIndex
 90
      256
102
RTVSPost2010Prop51ColorRGB
 90
-16777216
102
RTVSPost2010PropOp51
 70
     0
102
RTVSPost2010Prop52
140
1.0
102
RTVSPost2010PropOp52
 70
     0
102
RTVSPost2010Prop53
 90
        2
102
RTVSPost2010PropOp53
 70
     1
102
RTVSPost2010Prop54
  1
strokes_ogs.tif
102
RTVSPost2010PropOp54
 70
     1
102
RTVSPost2010Prop55
280
     0
102
RTVSPost2010PropOp55
 70
     1
102
RTVSPost2010Prop56
140
1.0
102
RTVSPost2010PropOp56
 70
     1
102
RTVSPost2010Prop57
140
1.0
102
RTVSPost2010PropOp57
 70
     1
102
RTVSPropertyOp0
 70
     1
102
RTVSPropertyOp1
 70
     1
102
RTVSPropertyOp2
 70
     1
102
RTVSPropertyOp3
 70
     1
102
RTVSPropertyOp4
 70
     1
102
RTVSPropertyOp5
 70
     1
102
RTVSPropertyOp6
 70
     1
102
RTVSPropertyOp7
 70
     1
102
RTVSPropertyOp8
 70
     1
102
RTVSPropertyOp9
 70
     1
102
RTVSPropertyOp10
 70
     1
102
RTVSPropertyOp11
 70
     1
102
RTVSPropertyOp12
 70
     1
102
RTVSPropertyOp13
 70
     1
102
RTVSPropertyOp14
 70
     1
102
RTVSPropertyOp15
 70
     1
102
RTVSPropertyOp16
 70
     1
102
RTVSPropertyOp17
 70
     1
102
RTVSPropertyOp18
 70
     1
102
RTVSPropertyOp19
 70
     1
102
RTVSPropertyOp20
 70
     1
102
RTVSPropertyOp21
 70
     1
102
RTVSPropertyOp22
 70
     1
102
RTVSPropertyOp23
 70
     1
102
RTVSPropertyOp24
 70
     1
102
RTVSPropertyOp25
 70
     1
102
RTVSPropertyOp26
 70
     1
102
RTVSPropertyOp27
 70
     1
102
RTVSPropertyOp28
 70
     1
102
RTVSPropertyOp29
 70
     1
102
RTVSPropertyOp30
 70
     1
102
RTVSPropertyOp31
 70
     1
102
RTVSPropertyOp32
 70
     1
102
RTVSPropertyOp33
 70
     1
102
RTVSPropertyOp34
 70
     1
102
RTVSPropertyOp35
 70
     1
102
RTVSPropertyOp36
 70
     1
102
RTVSPropertyOp37
 70
     1
102
RTVSPropertyOp38
 70
     1
102
RTVSPropertyOp39
 70
     1
102
RTVSPropertyOp40
 70
     1
102
RTVSPropertyOp41
 70
     1
102
RTVSPropertyOp42
 70
     1
102
RTVSPropertyOp43
 70
     1
102
RTVSPropertyOp44
 70
     1
102
RTVSPropertyOp45
 70
     1
102
RTVSPropertyOp46
 70
     1
102
RTVSPropertyOp47
 70
     1
102
RTVSPropertyOp48
 70
     1
102
RTVSPropertyOp49
 70
     1
102
RTVSPropertyOp50
 70
     1
102
RTVSPropertyOp51
 70
     0
102
RTVSPropertyOp52
 70
     0
102
RTVSPropertyOp53
 70
     1
102
RTVSPropertyOp54
 70
     1
102
RTVSPropertyOp55
 70
     1
102
RTVSPropertyOp56
 70
     1
102
RTVSPropertyOp57
 70
     1
102
RTVSPropertyOp58
 70
     1
102
RTVSPropertyOp59
 70
     1
102
RTVSPropertyOp60
 70
     1
102
RTVSPropertyOp61
 70
     1
102
RTVSPropertyOp62
 70
     1
  0
XRECORD
  5
DD834
102
{ACAD_REACTORS
330
DD833
102
}
330
DD833
100
AcDbXrecord
280
     1
102
RTVSPost2010Prop28
280
     0
102
RTVSPost2010PropOp28
 70
     0
102
RTVSPost2010Prop29
280
     1
102
RTVSPost2010PropOp29
 70
     0
102
RTVSPost2010Prop30
280
     1
102
RTVSPost2010PropOp30
 70
     0
102
RTVSPost2010Prop31
280
     0
102
RTVSPost2010PropOp31
 70
     0
102
RTVSPost2010Prop32
280
     0
102
RTVSPost2010PropOp32
 70
     0
102
RTVSPost2010Prop33
280
     0
102
RTVSPost2010PropOp33
 70
     0
102
RTVSPost2010Prop34
280
     0
102
RTVSPost2010PropOp34
 70
     0
102
RTVSPost2010Prop35
280
     0
102
RTVSPost2010PropOp35
 70
     0
102
RTVSPost2010Prop36
280
     0
102
RTVSPost2010PropOp36
 70
     0
102
RTVSPost2010Prop37
 90
       50
102
RTVSPost2010PropOp37
 70
     0
102
RTVSPost2010Prop38
140
0.0
102
RTVSPost2010PropOp38
 70
     0
102
RTVSPost2010Prop39
140
1.0
102
RTVSPost2010PropOp39
 70
     0
102
RTVSPost2010Prop40
 90
        0
102
RTVSPost2010PropOp40
 70
     0
102
RTVSPost2010Prop41ColorIndex
 90
       18
102
RTVSPost2010Prop41ColorRGB
 90
        0
102
RTVSPost2010PropOp41
 70
     0
102
RTVSPost2010Prop42
 90
       50
102
RTVSPost2010PropOp42
 70
     0
102
RTVSPost2010Prop43
 90
        3
102
RTVSPost2010PropOp43
 70
     0
102
RTVSPost2010Prop44ColorIndex
 90
        5
102
RTVSPost2010Prop44ColorRGB
 90
      255
102
RTVSPost2010PropOp44
 70
     0
102
RTVSPost2010Prop45
280
     0
102
RTVSPost2010PropOp45
 70
     0
102
RTVSPost2010Prop46
 90
       50
102
RTVSPost2010PropOp46
 70
     0
102
RTVSPost2010Prop47
 90
       50
102
RTVSPost2010PropOp47
 70
     0
102
RTVSPost2010Prop48
 90
       50
102
RTVSPost2010PropOp48
 70
     0
102
RTVSPost2010Prop49
280
     0
102
RTVSPost2010PropOp49
 70
     0
102
RTVSPost2010Prop50
 90
       50
102
RTVSPost2010PropOp50
 70
     0
102
RTVSPost2010Prop51ColorIndex
 90
      256
102
RTVSPost2010Prop51ColorRGB
 90
-16777216
102
RTVSPost2010PropOp51
 70
     0
102
RTVSPost2010Prop52
140
1.0
102
RTVSPost2010PropOp52
 70
     0
102
RTVSPost2010Prop53
 90
        2
102
RTVSPost2010PropOp53
 70
     0
102
RTVSPost2010Prop54
  1
strokes_ogs.tif
102
RTVSPost2010PropOp54
 70
     0
102
RTVSPost2010Prop55
280
     0
102
RTVSPost2010PropOp55
 70
     0
102
RTVSPost2010Prop56
140
1.0
102
RTVSPost2010PropOp56
 70
     0
102
RTVSPost2010Prop57
140
1.0
102
RTVSPost2010PropOp57
 70
     0
102
RTVSPropertyOp0
 70
     0
102
RTVSPropertyOp1
 70
     0
102
RTVSPropertyOp2
 70
     0
102
RTVSPropertyOp3
 70
     0
102
RTVSPropertyOp4
 70
     0
102
RTVSPropertyOp5
 70
     0
102
RTVSPropertyOp6
 70
     0
102
RTVSPropertyOp7
 70
     0
102
RTVSPropertyOp8
 70
     0
102
RTVSPropertyOp9
 70
     0
102
RTVSPropertyOp10
 70
     0
102
RTVSPropertyOp11
 70
     0
102
RTVSPropertyOp12
 70
     0
102
RTVSPropertyOp13
 70
     0
102
RTVSPropertyOp14
 70
     2
102
RTVSPropertyOp15
 70
     0
102
RTVSPropertyOp16
 70
     0
102
RTVSPropertyOp17
 70
     0
102
RTVSPropertyOp18
 70
     0
102
RTVSPropertyOp19
 70
     0
102
RTVSPropertyOp20
 70
     0
102
RTVSPropertyOp21
 70
     0
102
RTVSPropertyOp22
 70
     0
102
RTVSPropertyOp23
 70
     0
102
RTVSPropertyOp24
 70
     0
102
RTVSPropertyOp25
 70
     0
102
RTVSPropertyOp26
 70
     0
102
RTVSPropertyOp27
 70
     0
102
RTVSPropertyOp28
 70
     0
102
RTVSPropertyOp29
 70
     0
102
RTVSPropertyOp30
 70
     0
102
RTVSPropertyOp31
 70
     0
102
RTVSPropertyOp32
 70
     0
102
RTVSPropertyOp33
 70
     0
102
RTVSPropertyOp34
 70
     0
102
RTVSPropertyOp35
 70
     0
102
RTVSPropertyOp36
 70
     0
102
RTVSPropertyOp37
 70
     0
102
RTVSPropertyOp38
 70
     0
102
RTVSPropertyOp39
 70
     0
102
RTVSPropertyOp40
 70
     0
102
RTVSPropertyOp41
 70
     0
102
RTVSPropertyOp42
 70
     0
102
RTVSPropertyOp43
 70
     0
102
RTVSPropertyOp44
 70
     0
102
RTVSPropertyOp45
 70
     0
102
RTVSPropertyOp46
 70
     0
102
RTVSPropertyOp47
 70
     0
102
RTVSPropertyOp48
 70
     0
102
RTVSPropertyOp49
 70
     0
102
RTVSPropertyOp50
 70
     0
102
RTVSPropertyOp51
 70
     0
102
RTVSPropertyOp52
 70
     0
102
RTVSPropertyOp53
 70
     0
102
RTVSPropertyOp54
 70
     0
102
RTVSPropertyOp55
 70
     0
102
RTVSPropertyOp56
 70
     0
102
RTVSPropertyOp57
 70
     0
102
RTVSPropertyOp58
 70
     1
102
RTVSPropertyOp59
 70
     1
102
RTVSPropertyOp60
 70
     1
102
RTVSPropertyOp61
 70
     1
102
RTVSPropertyOp62
 70
     1
  0
XRECORD
  5
DD822
102
{ACAD_REACTORS
330
DD821
102
}
330
DD821
100
AcDbXrecord
280
     1
102
RTVSPost2010Prop28
280
     0
102
RTVSPost2010PropOp28
 70
     1
102
RTVSPost2010Prop29
280
     1
102
RTVSPost2010PropOp29
 70
     1
102
RTVSPost2010Prop30
280
     1
102
RTVSPost2010PropOp30
 70
     1
102
RTVSPost2010Prop31
280
     0
102
RTVSPost2010PropOp31
 70
     1
102
RTVSPost2010Prop32
280
     0
102
RTVSPost2010PropOp32
 70
     1
102
RTVSPost2010Prop33
280
     0
102
RTVSPost2010PropOp33
 70
     1
102
RTVSPost2010Prop34
280
     0
102
RTVSPost2010PropOp34
 70
     1
102
RTVSPost2010Prop35
280
     0
102
RTVSPost2010PropOp35
 70
     1
102
RTVSPost2010Prop36
280
     0
102
RTVSPost2010PropOp36
 70
     1
102
RTVSPost2010Prop37
 90
       50
102
RTVSPost2010PropOp37
 70
     1
102
RTVSPost2010Prop38
140
0.0
102
RTVSPost2010PropOp38
 70
     1
102
RTVSPost2010Prop39
140
1.0
102
RTVSPost2010PropOp39
 70
     1
102
RTVSPost2010Prop40
 90
        0
102
RTVSPost2010PropOp40
 70
     1
102
RTVSPost2010Prop41ColorIndex
 90
       18
102
RTVSPost2010Prop41ColorRGB
 90
        0
102
RTVSPost2010PropOp41
 70
     1
102
RTVSPost2010Prop42
 90
       50
102
RTVSPost2010PropOp42
 70
     1
102
RTVSPost2010Prop43
 90
        3
102
RTVSPost2010PropOp43
 70
     1
102
RTVSPost2010Prop44ColorIndex
 90
        5
102
RTVSPost2010Prop44ColorRGB
 90
      255
102
RTVSPost2010PropOp44
 70
     1
102
RTVSPost2010Prop45
280
     0
102
RTVSPost2010PropOp45
 70
     1
102
RTVSPost2010Prop46
 90
       50
102
RTVSPost2010PropOp46
 70
     1
102
RTVSPost2010Prop47
 90
       50
102
RTVSPost2010PropOp47
 70
     1
102
RTVSPost2010Prop48
 90
       50
102
RTVSPost2010PropOp48
 70
     1
102
RTVSPost2010Prop49
280
     0
102
RTVSPost2010PropOp49
 70
     1
102
RTVSPost2010Prop50
 90
       50
102
RTVSPost2010PropOp50
 70
     1
102
RTVSPost2010Prop51ColorIndex
 90
      256
102
RTVSPost2010Prop51ColorRGB
 90
-16777216
102
RTVSPost2010PropOp51
 70
     0
102
RTVSPost2010Prop52
140
1.0
102
RTVSPost2010PropOp52
 70
     0
102
RTVSPost2010Prop53
 90
        2
102
RTVSPost2010PropOp53
 70
     1
102
RTVSPost2010Prop54
  1
strokes_ogs.tif
102
RTVSPost2010PropOp54
 70
     1
102
RTVSPost2010Prop55
280
     0
102
RTVSPost2010PropOp55
 70
     1
102
RTVSPost2010Prop56
140
1.0
102
RTVSPost2010PropOp56
 70
     1
102
RTVSPost2010Prop57
140
1.0
102
RTVSPost2010PropOp57
 70
     1
102
RTVSPropertyOp0
 70
     1
102
RTVSPropertyOp1
 70
     1
102
RTVSPropertyOp2
 70
     1
102
RTVSPropertyOp3
 70
     1
102
RTVSPropertyOp4
 70
     1
102
RTVSPropertyOp5
 70
     1
102
RTVSPropertyOp6
 70
     1
102
RTVSPropertyOp7
 70
     1
102
RTVSPropertyOp8
 70
     1
102
RTVSPropertyOp9
 70
     1
102
RTVSPropertyOp10
 70
     1
102
RTVSPropertyOp11
 70
     1
102
RTVSPropertyOp12
 70
     1
102
RTVSPropertyOp13
 70
     1
102
RTVSPropertyOp14
 70
     1
102
RTVSPropertyOp15
 70
     1
102
RTVSPropertyOp16
 70
     1
102
RTVSPropertyOp17
 70
     1
102
RTVSPropertyOp18
 70
     1
102
RTVSPropertyOp19
 70
     1
102
RTVSPropertyOp20
 70
     1
102
RTVSPropertyOp21
 70
     1
102
RTVSPropertyOp22
 70
     1
102
RTVSPropertyOp23
 70
     1
102
RTVSPropertyOp24
 70
     1
102
RTVSPropertyOp25
 70
     1
102
RTVSPropertyOp26
 70
     1
102
RTVSPropertyOp27
 70
     1
102
RTVSPropertyOp28
 70
     1
102
RTVSPropertyOp29
 70
     1
102
RTVSPropertyOp30
 70
     1
102
RTVSPropertyOp31
 70
     1
102
RTVSPropertyOp32
 70
     1
102
RTVSPropertyOp33
 70
     1
102
RTVSPropertyOp34
 70
     1
102
RTVSPropertyOp35
 70
     1
102
RTVSPropertyOp36
 70
     1
102
RTVSPropertyOp37
 70
     1
102
RTVSPropertyOp38
 70
     1
102
RTVSPropertyOp39
 70
     1
102
RTVSPropertyOp40
 70
     1
102
RTVSPropertyOp41
 70
     1
102
RTVSPropertyOp42
 70
     1
102
RTVSPropertyOp43
 70
     1
102
RTVSPropertyOp44
 70
     1
102
RTVSPropertyOp45
 70
     1
102
RTVSPropertyOp46
 70
     1
102
RTVSPropertyOp47
 70
     1
102
RTVSPropertyOp48
 70
     1
102
RTVSPropertyOp49
 70
     1
102
RTVSPropertyOp50
 70
     1
102
RTVSPropertyOp51
 70
     0
102
RTVSPropertyOp52
 70
     0
102
RTVSPropertyOp53
 70
     1
102
RTVSPropertyOp54
 70
     1
102
RTVSPropertyOp55
 70
     1
102
RTVSPropertyOp56
 70
     1
102
RTVSPropertyOp57
 70
     1
102
RTVSPropertyOp58
 70
     1
102
RTVSPropertyOp59
 70
     1
102
RTVSPropertyOp60
 70
     1
102
RTVSPropertyOp61
 70
     1
102
RTVSPropertyOp62
 70
     1
  0
XRECORD
  5
DD840
102
{ACAD_REACTORS
330
DD83F
102
}
330
DD83F
100
AcDbXrecord
280
     1
102
RTVSPost2010Prop28
280
     0
102
RTVSPost2010PropOp28
 70
     1
102
RTVSPost2010Prop29
280
     1
102
RTVSPost2010PropOp29
 70
     1
102
RTVSPost2010Prop30
280
     1
102
RTVSPost2010PropOp30
 70
     1
102
RTVSPost2010Prop31
280
     0
102
RTVSPost2010PropOp31
 70
     1
102
RTVSPost2010Prop32
280
     0
102
RTVSPost2010PropOp32
 70
     1
102
RTVSPost2010Prop33
280
     0
102
RTVSPost2010PropOp33
 70
     1
102
RTVSPost2010Prop34
280
     0
102
RTVSPost2010PropOp34
 70
     1
102
RTVSPost2010Prop35
280
     0
102
RTVSPost2010PropOp35
 70
     1
102
RTVSPost2010Prop36
280
     0
102
RTVSPost2010PropOp36
 70
     1
102
RTVSPost2010Prop37
 90
       50
102
RTVSPost2010PropOp37
 70
     1
102
RTVSPost2010Prop38
140
0.0
102
RTVSPost2010PropOp38
 70
     1
102
RTVSPost2010Prop39
140
1.0
102
RTVSPost2010PropOp39
 70
     1
102
RTVSPost2010Prop40
 90
        0
102
RTVSPost2010PropOp40
 70
     1
102
RTVSPost2010Prop41ColorIndex
 90
       18
102
RTVSPost2010Prop41ColorRGB
 90
        0
102
RTVSPost2010PropOp41
 70
     1
102
RTVSPost2010Prop42
 90
       50
102
RTVSPost2010PropOp42
 70
     1
102
RTVSPost2010Prop43
 90
        3
102
RTVSPost2010PropOp43
 70
     1
102
RTVSPost2010Prop44ColorIndex
 90
        5
102
RTVSPost2010Prop44ColorRGB
 90
      255
102
RTVSPost2010PropOp44
 70
     1
102
RTVSPost2010Prop45
280
     0
102
RTVSPost2010PropOp45
 70
     1
102
RTVSPost2010Prop46
 90
       50
102
RTVSPost2010PropOp46
 70
     1
102
RTVSPost2010Prop47
 90
       50
102
RTVSPost2010PropOp47
 70
     1
102
RTVSPost2010Prop48
 90
       50
102
RTVSPost2010PropOp48
 70
     1
102
RTVSPost2010Prop49
280
     0
102
RTVSPost2010PropOp49
 70
     1
102
RTVSPost2010Prop50
 90
       50
102
RTVSPost2010PropOp50
 70
     1
102
RTVSPost2010Prop51ColorIndex
 90
      256
102
RTVSPost2010Prop51ColorRGB
 90
-16777216
102
RTVSPost2010PropOp51
 70
     0
102
RTVSPost2010Prop52
140
1.0
102
RTVSPost2010PropOp52
 70
     0
102
RTVSPost2010Prop53
 90
        2
102
RTVSPost2010PropOp53
 70
     1
102
RTVSPost2010Prop54
  1
strokes_ogs.tif
102
RTVSPost2010PropOp54
 70
     1
102
RTVSPost2010Prop55
280
     0
102
RTVSPost2010PropOp55
 70
     1
102
RTVSPost2010Prop56
140
1.0
102
RTVSPost2010PropOp56
 70
     1
102
RTVSPost2010Prop57
140
1.0
102
RTVSPost2010PropOp57
 70
     1
102
RTVSPropertyOp0
 70
     1
102
RTVSPropertyOp1
 70
     1
102
RTVSPropertyOp2
 70
     1
102
RTVSPropertyOp3
 70
     1
102
RTVSPropertyOp4
 70
     1
102
RTVSPropertyOp5
 70
     1
102
RTVSPropertyOp6
 70
     1
102
RTVSPropertyOp7
 70
     1
102
RTVSPropertyOp8
 70
     1
102
RTVSPropertyOp9
 70
     1
102
RTVSPropertyOp10
 70
     1
102
RTVSPropertyOp11
 70
     1
102
RTVSPropertyOp12
 70
     1
102
RTVSPropertyOp13
 70
     1
102
RTVSPropertyOp14
 70
     1
102
RTVSPropertyOp15
 70
     1
102
RTVSPropertyOp16
 70
     1
102
RTVSPropertyOp17
 70
     1
102
RTVSPropertyOp18
 70
     1
102
RTVSPropertyOp19
 70
     1
102
RTVSPropertyOp20
 70
     1
102
RTVSPropertyOp21
 70
     1
102
RTVSPropertyOp22
 70
     1
102
RTVSPropertyOp23
 70
     1
102
RTVSPropertyOp24
 70
     1
102
RTVSPropertyOp25
 70
     1
102
RTVSPropertyOp26
 70
     1
102
RTVSPropertyOp27
 70
     1
102
RTVSPropertyOp28
 70
     1
102
RTVSPropertyOp29
 70
     1
102
RTVSPropertyOp30
 70
     1
102
RTVSPropertyOp31
 70
     1
102
RTVSPropertyOp32
 70
     1
102
RTVSPropertyOp33
 70
     1
102
RTVSPropertyOp34
 70
     1
102
RTVSPropertyOp35
 70
     1
102
RTVSPropertyOp36
 70
     1
102
RTVSPropertyOp37
 70
     1
102
RTVSPropertyOp38
 70
     1
102
RTVSPropertyOp39
 70
     1
102
RTVSPropertyOp40
 70
     1
102
RTVSPropertyOp41
 70
     1
102
RTVSPropertyOp42
 70
     1
102
RTVSPropertyOp43
 70
     1
102
RTVSPropertyOp44
 70
     1
102
RTVSPropertyOp45
 70
     1
102
RTVSPropertyOp46
 70
     1
102
RTVSPropertyOp47
 70
     1
102
RTVSPropertyOp48
 70
     1
102
RTVSPropertyOp49
 70
     1
102
RTVSPropertyOp50
 70
     1
102
RTVSPropertyOp51
 70
     0
102
RTVSPropertyOp52
 70
     0
102
RTVSPropertyOp53
 70
     1
102
RTVSPropertyOp54
 70
     1
102
RTVSPropertyOp55
 70
     1
102
RTVSPropertyOp56
 70
     1
102
RTVSPropertyOp57
 70
     1
102
RTVSPropertyOp58
 70
     1
102
RTVSPropertyOp59
 70
     1
102
RTVSPropertyOp60
 70
     1
102
RTVSPropertyOp61
 70
     1
102
RTVSPropertyOp62
 70
     1
  0
XRECORD
  5
DD83E
102
{ACAD_REACTORS
330
DD83D
102
}
330
DD83D
100
AcDbXrecord
280
     1
102
RTVSPost2010Prop28
280
     0
102
RTVSPost2010PropOp28
 70
     1
102
RTVSPost2010Prop29
280
     1
102
RTVSPost2010PropOp29
 70
     1
102
RTVSPost2010Prop30
280
     1
102
RTVSPost2010PropOp30
 70
     1
102
RTVSPost2010Prop31
280
     0
102
RTVSPost2010PropOp31
 70
     1
102
RTVSPost2010Prop32
280
     0
102
RTVSPost2010PropOp32
 70
     1
102
RTVSPost2010Prop33
280
     0
102
RTVSPost2010PropOp33
 70
     1
102
RTVSPost2010Prop34
280
     0
102
RTVSPost2010PropOp34
 70
     1
102
RTVSPost2010Prop35
280
     0
102
RTVSPost2010PropOp35
 70
     1
102
RTVSPost2010Prop36
280
     0
102
RTVSPost2010PropOp36
 70
     1
102
RTVSPost2010Prop37
 90
       50
102
RTVSPost2010PropOp37
 70
     1
102
RTVSPost2010Prop38
140
0.0
102
RTVSPost2010PropOp38
 70
     1
102
RTVSPost2010Prop39
140
1.0
102
RTVSPost2010PropOp39
 70
     1
102
RTVSPost2010Prop40
 90
        0
102
RTVSPost2010PropOp40
 70
     1
102
RTVSPost2010Prop41ColorIndex
 90
       18
102
RTVSPost2010Prop41ColorRGB
 90
        0
102
RTVSPost2010PropOp41
 70
     1
102
RTVSPost2010Prop42
 90
       50
102
RTVSPost2010PropOp42
 70
     1
102
RTVSPost2010Prop43
 90
        3
102
RTVSPost2010PropOp43
 70
     1
102
RTVSPost2010Prop44ColorIndex
 90
        5
102
RTVSPost2010Prop44ColorRGB
 90
      255
102
RTVSPost2010PropOp44
 70
     1
102
RTVSPost2010Prop45
280
     0
102
RTVSPost2010PropOp45
 70
     1
102
RTVSPost2010Prop46
 90
       50
102
RTVSPost2010PropOp46
 70
     1
102
RTVSPost2010Prop47
 90
       50
102
RTVSPost2010PropOp47
 70
     1
102
RTVSPost2010Prop48
 90
       50
102
RTVSPost2010PropOp48
 70
     1
102
RTVSPost2010Prop49
280
     0
102
RTVSPost2010PropOp49
 70
     1
102
RTVSPost2010Prop50
 90
       50
102
RTVSPost2010PropOp50
 70
     1
102
RTVSPost2010Prop51ColorIndex
 90
      256
102
RTVSPost2010Prop51ColorRGB
 90
-16777216
102
RTVSPost2010PropOp51
 70
     0
102
RTVSPost2010Prop52
140
1.0
102
RTVSPost2010PropOp52
 70
     0
102
RTVSPost2010Prop53
 90
        2
102
RTVSPost2010PropOp53
 70
     1
102
RTVSPost2010Prop54
  1
strokes_ogs.tif
102
RTVSPost2010PropOp54
 70
     1
102
RTVSPost2010Prop55
280
     0
102
RTVSPost2010PropOp55
 70
     1
102
RTVSPost2010Prop56
140
1.0
102
RTVSPost2010PropOp56
 70
     1
102
RTVSPost2010Prop57
140
1.0
102
RTVSPost2010PropOp57
 70
     1
102
RTVSPropertyOp0
 70
     1
102
RTVSPropertyOp1
 70
     1
102
RTVSPropertyOp2
 70
     1
102
RTVSPropertyOp3
 70
     1
102
RTVSPropertyOp4
 70
     1
102
RTVSPropertyOp5
 70
     1
102
RTVSPropertyOp6
 70
     1
102
RTVSPropertyOp7
 70
     1
102
RTVSPropertyOp8
 70
     1
102
RTVSPropertyOp9
 70
     1
102
RTVSPropertyOp10
 70
     1
102
RTVSPropertyOp11
 70
     1
102
RTVSPropertyOp12
 70
     1
102
RTVSPropertyOp13
 70
     1
102
RTVSPropertyOp14
 70
     1
102
RTVSPropertyOp15
 70
     1
102
RTVSPropertyOp16
 70
     1
102
RTVSPropertyOp17
 70
     1
102
RTVSPropertyOp18
 70
     1
102
RTVSPropertyOp19
 70
     1
102
RTVSPropertyOp20
 70
     1
102
RTVSPropertyOp21
 70
     1
102
RTVSPropertyOp22
 70
     1
102
RTVSPropertyOp23
 70
     1
102
RTVSPropertyOp24
 70
     1
102
RTVSPropertyOp25
 70
     1
102
RTVSPropertyOp26
 70
     1
102
RTVSPropertyOp27
 70
     1
102
RTVSPropertyOp28
 70
     1
102
RTVSPropertyOp29
 70
     1
102
RTVSPropertyOp30
 70
     1
102
RTVSPropertyOp31
 70
     1
102
RTVSPropertyOp32
 70
     1
102
RTVSPropertyOp33
 70
     1
102
RTVSPropertyOp34
 70
     1
102
RTVSPropertyOp35
 70
     1
102
RTVSPropertyOp36
 70
     1
102
RTVSPropertyOp37
 70
     1
102
RTVSPropertyOp38
 70
     1
102
RTVSPropertyOp39
 70
     1
102
RTVSPropertyOp40
 70
     1
102
RTVSPropertyOp41
 70
     1
102
RTVSPropertyOp42
 70
     1
102
RTVSPropertyOp43
 70
     1
102
RTVSPropertyOp44
 70
     1
102
RTVSPropertyOp45
 70
     1
102
RTVSPropertyOp46
 70
     1
102
RTVSPropertyOp47
 70
     1
102
RTVSPropertyOp48
 70
     1
102
RTVSPropertyOp49
 70
     1
102
RTVSPropertyOp50
 70
     1
102
RTVSPropertyOp51
 70
     0
102
RTVSPropertyOp52
 70
     0
102
RTVSPropertyOp53
 70
     1
102
RTVSPropertyOp54
 70
     1
102
RTVSPropertyOp55
 70
     1
102
RTVSPropertyOp56
 70
     1
102
RTVSPropertyOp57
 70
     1
102
RTVSPropertyOp58
 70
     1
102
RTVSPropertyOp59
 70
     1
102
RTVSPropertyOp60
 70
     1
102
RTVSPropertyOp61
 70
     1
102
RTVSPropertyOp62
 70
     1
  0
XRECORD
  5
DD838
102
{ACAD_REACTORS
330
DD837
102
}
330
DD837
100
AcDbXrecord
280
     1
102
RTVSPost2010Prop28
280
     0
102
RTVSPost2010PropOp28
 70
     1
102
RTVSPost2010Prop29
280
     1
102
RTVSPost2010PropOp29
 70
     1
102
RTVSPost2010Prop30
280
     1
102
RTVSPost2010PropOp30
 70
     1
102
RTVSPost2010Prop31
280
     0
102
RTVSPost2010PropOp31
 70
     1
102
RTVSPost2010Prop32
280
     0
102
RTVSPost2010PropOp32
 70
     1
102
RTVSPost2010Prop33
280
     0
102
RTVSPost2010PropOp33
 70
     1
102
RTVSPost2010Prop34
280
     0
102
RTVSPost2010PropOp34
 70
     1
102
RTVSPost2010Prop35
280
     0
102
RTVSPost2010PropOp35
 70
     1
102
RTVSPost2010Prop36
280
     0
102
RTVSPost2010PropOp36
 70
     1
102
RTVSPost2010Prop37
 90
       50
102
RTVSPost2010PropOp37
 70
     1
102
RTVSPost2010Prop38
140
0.0
102
RTVSPost2010PropOp38
 70
     1
102
RTVSPost2010Prop39
140
1.0
102
RTVSPost2010PropOp39
 70
     1
102
RTVSPost2010Prop40
 90
        0
102
RTVSPost2010PropOp40
 70
     1
102
RTVSPost2010Prop41ColorIndex
 90
       18
102
RTVSPost2010Prop41ColorRGB
 90
        0
102
RTVSPost2010PropOp41
 70
     1
102
RTVSPost2010Prop42
 90
       50
102
RTVSPost2010PropOp42
 70
     1
102
RTVSPost2010Prop43
 90
        3
102
RTVSPost2010PropOp43
 70
     1
102
RTVSPost2010Prop44ColorIndex
 90
        5
102
RTVSPost2010Prop44ColorRGB
 90
      255
102
RTVSPost2010PropOp44
 70
     1
102
RTVSPost2010Prop45
280
     0
102
RTVSPost2010PropOp45
 70
     1
102
RTVSPost2010Prop46
 90
       50
102
RTVSPost2010PropOp46
 70
     1
102
RTVSPost2010Prop47
 90
       50
102
RTVSPost2010PropOp47
 70
     1
102
RTVSPost2010Prop48
 90
       50
102
RTVSPost2010PropOp48
 70
     1
102
RTVSPost2010Prop49
280
     0
102
RTVSPost2010PropOp49
 70
     1
102
RTVSPost2010Prop50
 90
       50
102
RTVSPost2010PropOp50
 70
     1
102
RTVSPost2010Prop51ColorIndex
 90
      256
102
RTVSPost2010Prop51ColorRGB
 90
-16777216
102
RTVSPost2010PropOp51
 70
     0
102
RTVSPost2010Prop52
140
1.0
102
RTVSPost2010PropOp52
 70
     0
102
RTVSPost2010Prop53
 90
        2
102
RTVSPost2010PropOp53
 70
     1
102
RTVSPost2010Prop54
  1
strokes_ogs.tif
102
RTVSPost2010PropOp54
 70
     1
102
RTVSPost2010Prop55
280
     0
102
RTVSPost2010PropOp55
 70
     1
102
RTVSPost2010Prop56
140
1.0
102
RTVSPost2010PropOp56
 70
     1
102
RTVSPost2010Prop57
140
1.0
102
RTVSPost2010PropOp57
 70
     1
102
RTVSPropertyOp0
 70
     1
102
RTVSPropertyOp1
 70
     1
102
RTVSPropertyOp2
 70
     1
102
RTVSPropertyOp3
 70
     1
102
RTVSPropertyOp4
 70
     1
102
RTVSPropertyOp5
 70
     1
102
RTVSPropertyOp6
 70
     1
102
RTVSPropertyOp7
 70
     1
102
RTVSPropertyOp8
 70
     1
102
RTVSPropertyOp9
 70
     1
102
RTVSPropertyOp10
 70
     1
102
RTVSPropertyOp11
 70
     1
102
RTVSPropertyOp12
 70
     1
102
RTVSPropertyOp13
 70
     1
102
RTVSPropertyOp14
 70
     1
102
RTVSPropertyOp15
 70
     1
102
RTVSPropertyOp16
 70
     1
102
RTVSPropertyOp17
 70
     1
102
RTVSPropertyOp18
 70
     1
102
RTVSPropertyOp19
 70
     1
102
RTVSPropertyOp20
 70
     1
102
RTVSPropertyOp21
 70
     1
102
RTVSPropertyOp22
 70
     1
102
RTVSPropertyOp23
 70
     1
102
RTVSPropertyOp24
 70
     1
102
RTVSPropertyOp25
 70
     1
102
RTVSPropertyOp26
 70
     1
102
RTVSPropertyOp27
 70
     1
102
RTVSPropertyOp28
 70
     1
102
RTVSPropertyOp29
 70
     1
102
RTVSPropertyOp30
 70
     1
102
RTVSPropertyOp31
 70
     1
102
RTVSPropertyOp32
 70
     1
102
RTVSPropertyOp33
 70
     1
102
RTVSPropertyOp34
 70
     1
102
RTVSPropertyOp35
 70
     1
102
RTVSPropertyOp36
 70
     1
102
RTVSPropertyOp37
 70
     1
102
RTVSPropertyOp38
 70
     1
102
RTVSPropertyOp39
 70
     1
102
RTVSPropertyOp40
 70
     1
102
RTVSPropertyOp41
 70
     1
102
RTVSPropertyOp42
 70
     1
102
RTVSPropertyOp43
 70
     1
102
RTVSPropertyOp44
 70
     1
102
RTVSPropertyOp45
 70
     1
102
RTVSPropertyOp46
 70
     1
102
RTVSPropertyOp47
 70
     1
102
RTVSPropertyOp48
 70
     1
102
RTVSPropertyOp49
 70
     1
102
RTVSPropertyOp50
 70
     1
102
RTVSPropertyOp51
 70
     0
102
RTVSPropertyOp52
 70
     0
102
RTVSPropertyOp53
 70
     1
102
RTVSPropertyOp54
 70
     1
102
RTVSPropertyOp55
 70
     1
102
RTVSPropertyOp56
 70
     1
102
RTVSPropertyOp57
 70
     1
102
RTVSPropertyOp58
 70
     1
102
RTVSPropertyOp59
 70
     1
102
RTVSPropertyOp60
 70
     1
102
RTVSPropertyOp61
 70
     1
102
RTVSPropertyOp62
 70
     1
  0
XRECORD
  5
DD83A
102
{ACAD_REACTORS
330
DD839
102
}
330
DD839
100
AcDbXrecord
280
     1
102
RTVSPost2010Prop28
280
     0
102
RTVSPost2010PropOp28
 70
     1
102
RTVSPost2010Prop29
280
     1
102
RTVSPost2010PropOp29
 70
     1
102
RTVSPost2010Prop30
280
     1
102
RTVSPost2010PropOp30
 70
     1
102
RTVSPost2010Prop31
280
     0
102
RTVSPost2010PropOp31
 70
     1
102
RTVSPost2010Prop32
280
     0
102
RTVSPost2010PropOp32
 70
     1
102
RTVSPost2010Prop33
280
     0
102
RTVSPost2010PropOp33
 70
     1
102
RTVSPost2010Prop34
280
     0
102
RTVSPost2010PropOp34
 70
     1
102
RTVSPost2010Prop35
280
     0
102
RTVSPost2010PropOp35
 70
     1
102
RTVSPost2010Prop36
280
     0
102
RTVSPost2010PropOp36
 70
     1
102
RTVSPost2010Prop37
 90
       50
102
RTVSPost2010PropOp37
 70
     1
102
RTVSPost2010Prop38
140
0.0
102
RTVSPost2010PropOp38
 70
     1
102
RTVSPost2010Prop39
140
1.0
102
RTVSPost2010PropOp39
 70
     1
102
RTVSPost2010Prop40
 90
        0
102
RTVSPost2010PropOp40
 70
     1
102
RTVSPost2010Prop41ColorIndex
 90
       18
102
RTVSPost2010Prop41ColorRGB
 90
        0
102
RTVSPost2010PropOp41
 70
     1
102
RTVSPost2010Prop42
 90
       50
102
RTVSPost2010PropOp42
 70
     1
102
RTVSPost2010Prop43
 90
        3
102
RTVSPost2010PropOp43
 70
     1
102
RTVSPost2010Prop44ColorIndex
 90
        5
102
RTVSPost2010Prop44ColorRGB
 90
      255
102
RTVSPost2010PropOp44
 70
     1
102
RTVSPost2010Prop45
280
     0
102
RTVSPost2010PropOp45
 70
     1
102
RTVSPost2010Prop46
 90
       50
102
RTVSPost2010PropOp46
 70
     1
102
RTVSPost2010Prop47
 90
       50
102
RTVSPost2010PropOp47
 70
     1
102
RTVSPost2010Prop48
 90
       50
102
RTVSPost2010PropOp48
 70
     1
102
RTVSPost2010Prop49
280
     0
102
RTVSPost2010PropOp49
 70
     1
102
RTVSPost2010Prop50
 90
       50
102
RTVSPost2010PropOp50
 70
     1
102
RTVSPost2010Prop51ColorIndex
 90
      256
102
RTVSPost2010Prop51ColorRGB
 90
-16777216
102
RTVSPost2010PropOp51
 70
     0
102
RTVSPost2010Prop52
140
1.0
102
RTVSPost2010PropOp52
 70
     0
102
RTVSPost2010Prop53
 90
        2
102
RTVSPost2010PropOp53
 70
     1
102
RTVSPost2010Prop54
  1
strokes_ogs.tif
102
RTVSPost2010PropOp54
 70
     1
102
RTVSPost2010Prop55
280
     0
102
RTVSPost2010PropOp55
 70
     1
102
RTVSPost2010Prop56
140
1.0
102
RTVSPost2010PropOp56
 70
     1
102
RTVSPost2010Prop57
140
1.0
102
RTVSPost2010PropOp57
 70
     1
102
RTVSPropertyOp0
 70
     1
102
RTVSPropertyOp1
 70
     1
102
RTVSPropertyOp2
 70
     1
102
RTVSPropertyOp3
 70
     1
102
RTVSPropertyOp4
 70
     1
102
RTVSPropertyOp5
 70
     1
102
RTVSPropertyOp6
 70
     1
102
RTVSPropertyOp7
 70
     1
102
RTVSPropertyOp8
 70
     1
102
RTVSPropertyOp9
 70
     1
102
RTVSPropertyOp10
 70
     1
102
RTVSPropertyOp11
 70
     1
102
RTVSPropertyOp12
 70
     1
102
RTVSPropertyOp13
 70
     1
102
RTVSPropertyOp14
 70
     1
102
RTVSPropertyOp15
 70
     1
102
RTVSPropertyOp16
 70
     1
102
RTVSPropertyOp17
 70
     1
102
RTVSPropertyOp18
 70
     1
102
RTVSPropertyOp19
 70
     1
102
RTVSPropertyOp20
 70
     1
102
RTVSPropertyOp21
 70
     1
102
RTVSPropertyOp22
 70
     1
102
RTVSPropertyOp23
 70
     1
102
RTVSPropertyOp24
 70
     1
102
RTVSPropertyOp25
 70
     1
102
RTVSPropertyOp26
 70
     1
102
RTVSPropertyOp27
 70
     1
102
RTVSPropertyOp28
 70
     1
102
RTVSPropertyOp29
 70
     1
102
RTVSPropertyOp30
 70
     1
102
RTVSPropertyOp31
 70
     1
102
RTVSPropertyOp32
 70
     1
102
RTVSPropertyOp33
 70
     1
102
RTVSPropertyOp34
 70
     1
102
RTVSPropertyOp35
 70
     1
102
RTVSPropertyOp36
 70
     1
102
RTVSPropertyOp37
 70
     1
102
RTVSPropertyOp38
 70
     1
102
RTVSPropertyOp39
 70
     1
102
RTVSPropertyOp40
 70
     1
102
RTVSPropertyOp41
 70
     1
102
RTVSPropertyOp42
 70
     1
102
RTVSPropertyOp43
 70
     1
102
RTVSPropertyOp44
 70
     1
102
RTVSPropertyOp45
 70
     1
102
RTVSPropertyOp46
 70
     1
102
RTVSPropertyOp47
 70
     1
102
RTVSPropertyOp48
 70
     1
102
RTVSPropertyOp49
 70
     1
102
RTVSPropertyOp50
 70
     1
102
RTVSPropertyOp51
 70
     0
102
RTVSPropertyOp52
 70
     0
102
RTVSPropertyOp53
 70
     1
102
RTVSPropertyOp54
 70
     1
102
RTVSPropertyOp55
 70
     1
102
RTVSPropertyOp56
 70
     1
102
RTVSPropertyOp57
 70
     1
102
RTVSPropertyOp58
 70
     1
102
RTVSPropertyOp59
 70
     1
102
RTVSPropertyOp60
 70
     1
102
RTVSPropertyOp61
 70
     1
102
RTVSPropertyOp62
 70
     1
  0
XRECORD
  5
DD82A
102
{ACAD_REACTORS
330
DD829
102
}
330
DD829
100
AcDbXrecord
280
     1
102
RTVSPost2010Prop28
280
     0
102
RTVSPost2010PropOp28
 70
     1
102
RTVSPost2010Prop29
280
     1
102
RTVSPost2010PropOp29
 70
     1
102
RTVSPost2010Prop30
280
     1
102
RTVSPost2010PropOp30
 70
     1
102
RTVSPost2010Prop31
280
     0
102
RTVSPost2010PropOp31
 70
     1
102
RTVSPost2010Prop32
280
     0
102
RTVSPost2010PropOp32
 70
     1
102
RTVSPost2010Prop33
280
     0
102
RTVSPost2010PropOp33
 70
     1
102
RTVSPost2010Prop34
280
     0
102
RTVSPost2010PropOp34
 70
     1
102
RTVSPost2010Prop35
280
     0
102
RTVSPost2010PropOp35
 70
     1
102
RTVSPost2010Prop36
280
     0
102
RTVSPost2010PropOp36
 70
     1
102
RTVSPost2010Prop37
 90
       50
102
RTVSPost2010PropOp37
 70
     1
102
RTVSPost2010Prop38
140
0.0
102
RTVSPost2010PropOp38
 70
     1
102
RTVSPost2010Prop39
140
1.0
102
RTVSPost2010PropOp39
 70
     1
102
RTVSPost2010Prop40
 90
        0
102
RTVSPost2010PropOp40
 70
     1
102
RTVSPost2010Prop41ColorIndex
 90
       18
102
RTVSPost2010Prop41ColorRGB
 90
        0
102
RTVSPost2010PropOp41
 70
     1
102
RTVSPost2010Prop42
 90
       50
102
RTVSPost2010PropOp42
 70
     1
102
RTVSPost2010Prop43
 90
        3
102
RTVSPost2010PropOp43
 70
     1
102
RTVSPost2010Prop44ColorIndex
 90
        5
102
RTVSPost2010Prop44ColorRGB
 90
      255
102
RTVSPost2010PropOp44
 70
     1
102
RTVSPost2010Prop45
280
     0
102
RTVSPost2010PropOp45
 70
     1
102
RTVSPost2010Prop46
 90
       50
102
RTVSPost2010PropOp46
 70
     1
102
RTVSPost2010Prop47
 90
       50
102
RTVSPost2010PropOp47
 70
     1
102
RTVSPost2010Prop48
 90
       50
102
RTVSPost2010PropOp48
 70
     1
102
RTVSPost2010Prop49
280
     0
102
RTVSPost2010PropOp49
 70
     1
102
RTVSPost2010Prop50
 90
       50
102
RTVSPost2010PropOp50
 70
     1
102
RTVSPost2010Prop51ColorIndex
 90
      256
102
RTVSPost2010Prop51ColorRGB
 90
-16777216
102
RTVSPost2010PropOp51
 70
     0
102
RTVSPost2010Prop52
140
1.0
102
RTVSPost2010PropOp52
 70
     0
102
RTVSPost2010Prop53
 90
        2
102
RTVSPost2010PropOp53
 70
     1
102
RTVSPost2010Prop54
  1
strokes_ogs.tif
102
RTVSPost2010PropOp54
 70
     1
102
RTVSPost2010Prop55
280
     0
102
RTVSPost2010PropOp55
 70
     1
102
RTVSPost2010Prop56
140
1.0
102
RTVSPost2010PropOp56
 70
     1
102
RTVSPost2010Prop57
140
1.0
102
RTVSPost2010PropOp57
 70
     1
102
RTVSPropertyOp0
 70
     1
102
RTVSPropertyOp1
 70
     1
102
RTVSPropertyOp2
 70
     1
102
RTVSPropertyOp3
 70
     1
102
RTVSPropertyOp4
 70
     1
102
RTVSPropertyOp5
 70
     1
102
RTVSPropertyOp6
 70
     1
102
RTVSPropertyOp7
 70
     1
102
RTVSPropertyOp8
 70
     1
102
RTVSPropertyOp9
 70
     1
102
RTVSPropertyOp10
 70
     1
102
RTVSPropertyOp11
 70
     1
102
RTVSPropertyOp12
 70
     1
102
RTVSPropertyOp13
 70
     1
102
RTVSPropertyOp14
 70
     1
102
RTVSPropertyOp15
 70
     1
102
RTVSPropertyOp16
 70
     1
102
RTVSPropertyOp17
 70
     1
102
RTVSPropertyOp18
 70
     1
102
RTVSPropertyOp19
 70
     1
102
RTVSPropertyOp20
 70
     1
102
RTVSPropertyOp21
 70
     1
102
RTVSPropertyOp22
 70
     1
102
RTVSPropertyOp23
 70
     1
102
RTVSPropertyOp24
 70
     1
102
RTVSPropertyOp25
 70
     1
102
RTVSPropertyOp26
 70
     1
102
RTVSPropertyOp27
 70
     1
102
RTVSPropertyOp28
 70
     1
102
RTVSPropertyOp29
 70
     1
102
RTVSPropertyOp30
 70
     1
102
RTVSPropertyOp31
 70
     1
102
RTVSPropertyOp32
 70
     1
102
RTVSPropertyOp33
 70
     1
102
RTVSPropertyOp34
 70
     1
102
RTVSPropertyOp35
 70
     1
102
RTVSPropertyOp36
 70
     1
102
RTVSPropertyOp37
 70
     1
102
RTVSPropertyOp38
 70
     1
102
RTVSPropertyOp39
 70
     1
102
RTVSPropertyOp40
 70
     1
102
RTVSPropertyOp41
 70
     1
102
RTVSPropertyOp42
 70
     1
102
RTVSPropertyOp43
 70
     1
102
RTVSPropertyOp44
 70
     1
102
RTVSPropertyOp45
 70
     1
102
RTVSPropertyOp46
 70
     1
102
RTVSPropertyOp47
 70
     1
102
RTVSPropertyOp48
 70
     1
102
RTVSPropertyOp49
 70
     1
102
RTVSPropertyOp50
 70
     1
102
RTVSPropertyOp51
 70
     0
102
RTVSPropertyOp52
 70
     0
102
RTVSPropertyOp53
 70
     1
102
RTVSPropertyOp54
 70
     1
102
RTVSPropertyOp55
 70
     1
102
RTVSPropertyOp56
 70
     1
102
RTVSPropertyOp57
 70
     1
102
RTVSPropertyOp58
 70
     1
102
RTVSPropertyOp59
 70
     1
102
RTVSPropertyOp60
 70
     1
102
RTVSPropertyOp61
 70
     1
102
RTVSPropertyOp62
 70
     1
  0
XRECORD
  5
DD81C
102
{ACAD_REACTORS
330
DD81B
102
}
330
DD81B
100
AcDbXrecord
280
     1
102
RTVSPost2010Prop28
280
     0
102
RTVSPost2010PropOp28
 70
     1
102
RTVSPost2010Prop29
280
     1
102
RTVSPost2010PropOp29
 70
     1
102
RTVSPost2010Prop30
280
     1
102
RTVSPost2010PropOp30
 70
     1
102
RTVSPost2010Prop31
280
     0
102
RTVSPost2010PropOp31
 70
     1
102
RTVSPost2010Prop32
280
     0
102
RTVSPost2010PropOp32
 70
     1
102
RTVSPost2010Prop33
280
     0
102
RTVSPost2010PropOp33
 70
     1
102
RTVSPost2010Prop34
280
     0
102
RTVSPost2010PropOp34
 70
     1
102
RTVSPost2010Prop35
280
     0
102
RTVSPost2010PropOp35
 70
     1
102
RTVSPost2010Prop36
280
     0
102
RTVSPost2010PropOp36
 70
     1
102
RTVSPost2010Prop37
 90
       50
102
RTVSPost2010PropOp37
 70
     1
102
RTVSPost2010Prop38
140
0.0
102
RTVSPost2010PropOp38
 70
     1
102
RTVSPost2010Prop39
140
1.0
102
RTVSPost2010PropOp39
 70
     1
102
RTVSPost2010Prop40
 90
        0
102
RTVSPost2010PropOp40
 70
     1
102
RTVSPost2010Prop41ColorIndex
 90
       18
102
RTVSPost2010Prop41ColorRGB
 90
        0
102
RTVSPost2010PropOp41
 70
     1
102
RTVSPost2010Prop42
 90
       50
102
RTVSPost2010PropOp42
 70
     1
102
RTVSPost2010Prop43
 90
        3
102
RTVSPost2010PropOp43
 70
     1
102
RTVSPost2010Prop44ColorIndex
 90
        5
102
RTVSPost2010Prop44ColorRGB
 90
      255
102
RTVSPost2010PropOp44
 70
     1
102
RTVSPost2010Prop45
280
     0
102
RTVSPost2010PropOp45
 70
     1
102
RTVSPost2010Prop46
 90
       50
102
RTVSPost2010PropOp46
 70
     1
102
RTVSPost2010Prop47
 90
       50
102
RTVSPost2010PropOp47
 70
     1
102
RTVSPost2010Prop48
 90
       50
102
RTVSPost2010PropOp48
 70
     1
102
RTVSPost2010Prop49
280
     0
102
RTVSPost2010PropOp49
 70
     1
102
RTVSPost2010Prop50
 90
       50
102
RTVSPost2010PropOp50
 70
     1
102
RTVSPost2010Prop51ColorIndex
 90
      256
102
RTVSPost2010Prop51ColorRGB
 90
-16777216
102
RTVSPost2010PropOp51
 70
     0
102
RTVSPost2010Prop52
140
1.0
102
RTVSPost2010PropOp52
 70
     0
102
RTVSPost2010Prop53
 90
        2
102
RTVSPost2010PropOp53
 70
     1
102
RTVSPost2010Prop54
  1
strokes_ogs.tif
102
RTVSPost2010PropOp54
 70
     1
102
RTVSPost2010Prop55
280
     0
102
RTVSPost2010PropOp55
 70
     1
102
RTVSPost2010Prop56
140
1.0
102
RTVSPost2010PropOp56
 70
     1
102
RTVSPost2010Prop57
140
1.0
102
RTVSPost2010PropOp57
 70
     1
102
RTVSPropertyOp0
 70
     1
102
RTVSPropertyOp1
 70
     1
102
RTVSPropertyOp2
 70
     1
102
RTVSPropertyOp3
 70
     1
102
RTVSPropertyOp4
 70
     1
102
RTVSPropertyOp5
 70
     1
102
RTVSPropertyOp6
 70
     1
102
RTVSPropertyOp7
 70
     1
102
RTVSPropertyOp8
 70
     1
102
RTVSPropertyOp9
 70
     1
102
RTVSPropertyOp10
 70
     1
102
RTVSPropertyOp11
 70
     1
102
RTVSPropertyOp12
 70
     1
102
RTVSPropertyOp13
 70
     1
102
RTVSPropertyOp14
 70
     1
102
RTVSPropertyOp15
 70
     1
102
RTVSPropertyOp16
 70
     1
102
RTVSPropertyOp17
 70
     1
102
RTVSPropertyOp18
 70
     1
102
RTVSPropertyOp19
 70
     1
102
RTVSPropertyOp20
 70
     1
102
RTVSPropertyOp21
 70
     1
102
RTVSPropertyOp22
 70
     1
102
RTVSPropertyOp23
 70
     1
102
RTVSPropertyOp24
 70
     1
102
RTVSPropertyOp25
 70
     1
102
RTVSPropertyOp26
 70
     1
102
RTVSPropertyOp27
 70
     1
102
RTVSPropertyOp28
 70
     1
102
RTVSPropertyOp29
 70
     1
102
RTVSPropertyOp30
 70
     1
102
RTVSPropertyOp31
 70
     1
102
RTVSPropertyOp32
 70
     1
102
RTVSPropertyOp33
 70
     1
102
RTVSPropertyOp34
 70
     1
102
RTVSPropertyOp35
 70
     1
102
RTVSPropertyOp36
 70
     1
102
RTVSPropertyOp37
 70
     1
102
RTVSPropertyOp38
 70
     1
102
RTVSPropertyOp39
 70
     1
102
RTVSPropertyOp40
 70
     1
102
RTVSPropertyOp41
 70
     1
102
RTVSPropertyOp42
 70
     1
102
RTVSPropertyOp43
 70
     1
102
RTVSPropertyOp44
 70
     1
102
RTVSPropertyOp45
 70
     1
102
RTVSPropertyOp46
 70
     1
102
RTVSPropertyOp47
 70
     1
102
RTVSPropertyOp48
 70
     1
102
RTVSPropertyOp49
 70
     1
102
RTVSPropertyOp50
 70
     1
102
RTVSPropertyOp51
 70
     0
102
RTVSPropertyOp52
 70
     0
102
RTVSPropertyOp53
 70
     1
102
RTVSPropertyOp54
 70
     1
102
RTVSPropertyOp55
 70
     1
102
RTVSPropertyOp56
 70
     1
102
RTVSPropertyOp57
 70
     1
102
RTVSPropertyOp58
 70
     1
102
RTVSPropertyOp59
 70
     1
102
RTVSPropertyOp60
 70
     1
102
RTVSPropertyOp61
 70
     1
102
RTVSPropertyOp62
 70
     1
  0
XRECORD
  5
DD83C
102
{ACAD_REACTORS
330
DD83B
102
}
330
DD83B
100
AcDbXrecord
280
     1
102
RTVSPost2010Prop28
280
     0
102
RTVSPost2010PropOp28
 70
     1
102
RTVSPost2010Prop29
280
     1
102
RTVSPost2010PropOp29
 70
     1
102
RTVSPost2010Prop30
280
     1
102
RTVSPost2010PropOp30
 70
     1
102
RTVSPost2010Prop31
280
     0
102
RTVSPost2010PropOp31
 70
     1
102
RTVSPost2010Prop32
280
     0
102
RTVSPost2010PropOp32
 70
     1
102
RTVSPost2010Prop33
280
     0
102
RTVSPost2010PropOp33
 70
     1
102
RTVSPost2010Prop34
280
     0
102
RTVSPost2010PropOp34
 70
     1
102
RTVSPost2010Prop35
280
     0
102
RTVSPost2010PropOp35
 70
     1
102
RTVSPost2010Prop36
280
     0
102
RTVSPost2010PropOp36
 70
     1
102
RTVSPost2010Prop37
 90
       50
102
RTVSPost2010PropOp37
 70
     1
102
RTVSPost2010Prop38
140
0.0
102
RTVSPost2010PropOp38
 70
     1
102
RTVSPost2010Prop39
140
1.0
102
RTVSPost2010PropOp39
 70
     1
102
RTVSPost2010Prop40
 90
        0
102
RTVSPost2010PropOp40
 70
     1
102
RTVSPost2010Prop41ColorIndex
 90
       18
102
RTVSPost2010Prop41ColorRGB
 90
        0
102
RTVSPost2010PropOp41
 70
     1
102
RTVSPost2010Prop42
 90
       50
102
RTVSPost2010PropOp42
 70
     1
102
RTVSPost2010Prop43
 90
        3
102
RTVSPost2010PropOp43
 70
     1
102
RTVSPost2010Prop44ColorIndex
 90
        5
102
RTVSPost2010Prop44ColorRGB
 90
      255
102
RTVSPost2010PropOp44
 70
     1
102
RTVSPost2010Prop45
280
     0
102
RTVSPost2010PropOp45
 70
     1
102
RTVSPost2010Prop46
 90
       50
102
RTVSPost2010PropOp46
 70
     1
102
RTVSPost2010Prop47
 90
       50
102
RTVSPost2010PropOp47
 70
     1
102
RTVSPost2010Prop48
 90
       50
102
RTVSPost2010PropOp48
 70
     1
102
RTVSPost2010Prop49
280
     0
102
RTVSPost2010PropOp49
 70
     1
102
RTVSPost2010Prop50
 90
       50
102
RTVSPost2010PropOp50
 70
     1
102
RTVSPost2010Prop51ColorIndex
 90
      256
102
RTVSPost2010Prop51ColorRGB
 90
-16777216
102
RTVSPost2010PropOp51
 70
     0
102
RTVSPost2010Prop52
140
1.0
102
RTVSPost2010PropOp52
 70
     0
102
RTVSPost2010Prop53
 90
        2
102
RTVSPost2010PropOp53
 70
     1
102
RTVSPost2010Prop54
  1
strokes_ogs.tif
102
RTVSPost2010PropOp54
 70
     1
102
RTVSPost2010Prop55
280
     0
102
RTVSPost2010PropOp55
 70
     1
102
RTVSPost2010Prop56
140
1.0
102
RTVSPost2010PropOp56
 70
     1
102
RTVSPost2010Prop57
140
1.0
102
RTVSPost2010PropOp57
 70
     1
102
RTVSPropertyOp0
 70
     1
102
RTVSPropertyOp1
 70
     1
102
RTVSPropertyOp2
 70
     1
102
RTVSPropertyOp3
 70
     1
102
RTVSPropertyOp4
 70
     1
102
RTVSPropertyOp5
 70
     1
102
RTVSPropertyOp6
 70
     1
102
RTVSPropertyOp7
 70
     1
102
RTVSPropertyOp8
 70
     1
102
RTVSPropertyOp9
 70
     1
102
RTVSPropertyOp10
 70
     1
102
RTVSPropertyOp11
 70
     1
102
RTVSPropertyOp12
 70
     1
102
RTVSPropertyOp13
 70
     1
102
RTVSPropertyOp14
 70
     1
102
RTVSPropertyOp15
 70
     1
102
RTVSPropertyOp16
 70
     1
102
RTVSPropertyOp17
 70
     1
102
RTVSPropertyOp18
 70
     1
102
RTVSPropertyOp19
 70
     1
102
RTVSPropertyOp20
 70
     1
102
RTVSPropertyOp21
 70
     1
102
RTVSPropertyOp22
 70
     1
102
RTVSPropertyOp23
 70
     1
102
RTVSPropertyOp24
 70
     1
102
RTVSPropertyOp25
 70
     1
102
RTVSPropertyOp26
 70
     1
102
RTVSPropertyOp27
 70
     1
102
RTVSPropertyOp28
 70
     1
102
RTVSPropertyOp29
 70
     1
102
RTVSPropertyOp30
 70
     1
102
RTVSPropertyOp31
 70
     1
102
RTVSPropertyOp32
 70
     1
102
RTVSPropertyOp33
 70
     1
102
RTVSPropertyOp34
 70
     1
102
RTVSPropertyOp35
 70
     1
102
RTVSPropertyOp36
 70
     1
102
RTVSPropertyOp37
 70
     1
102
RTVSPropertyOp38
 70
     1
102
RTVSPropertyOp39
 70
     1
102
RTVSPropertyOp40
 70
     1
102
RTVSPropertyOp41
 70
     1
102
RTVSPropertyOp42
 70
     1
102
RTVSPropertyOp43
 70
     1
102
RTVSPropertyOp44
 70
     1
102
RTVSPropertyOp45
 70
     1
102
RTVSPropertyOp46
 70
     1
102
RTVSPropertyOp47
 70
     1
102
RTVSPropertyOp48
 70
     1
102
RTVSPropertyOp49
 70
     1
102
RTVSPropertyOp50
 70
     1
102
RTVSPropertyOp51
 70
     0
102
RTVSPropertyOp52
 70
     0
102
RTVSPropertyOp53
 70
     1
102
RTVSPropertyOp54
 70
     1
102
RTVSPropertyOp55
 70
     1
102
RTVSPropertyOp56
 70
     1
102
RTVSPropertyOp57
 70
     1
102
RTVSPropertyOp58
 70
     1
102
RTVSPropertyOp59
 70
     1
102
RTVSPropertyOp60
 70
     1
102
RTVSPropertyOp61
 70
     1
102
RTVSPropertyOp62
 70
     1
  0
ENDSEC
  0
EOF
