  0
SECTION
  2
HEADER
  9
$ACADVER
  1
AC1014
  9
$ACADMAINTVER
 70
     9
  9
$DWGCODEPAGE
  3
ANSI_932
  9
$INSBASE
 10
0.0
 20
0.0
 30
0.0
  9
$EXTMIN
 10
-98.67733520921683
 20
-226.953037691096
 30
0.0
  9
$EXTMAX
 10
1071.486212597787
 20
555.8432888680394
 30
0.0
  9
$LIMMIN
 10
0.0
 20
0.0
  9
$LIMMAX
 10
420.0
 20
297.0
  9
$ORTHOMODE
 70
     1
  9
$REGENMODE
 70
     1
  9
$FILLMODE
 70
     1
  9
$QTEXTMODE
 70
     0
  9
$MIRRTEXT
 70
     0
  9
$DRAGMODE
 70
     2
  9
$LTSCALE
 40
20.0
  9
$OSMODE
 70
    37
  9
$ATTMODE
 70
     2
  9
$TEXTSIZE
 40
10.0
  9
$TRACEWID
 40
1.0
  9
$TEXTSTYLE
  7
ｽﾀｲﾙ3
  9
$CLAYER
  8
寸法線
  9
$CELTYPE
  6
BYLAYER
  9
$CECOLOR
 62
   256
  9
$CELTSCALE
 40
1.0
  9
$DELOBJ
 70
     1
  9
$DISPSILH
 70
     0
  9
$DIMSCALE
 40
2.0
  9
$DIMASZ
 40
3.5
  9
$DIMEXO
 40
1.0
  9
$DIMDLI
 40
6.5
  9
$DIMRND
 40
0.005
  9
$DIMDLE
 40
0.0
  9
$DIMEXE
 40
1.0
  9
$DIMTP
 40
0.0
  9
$DIMTM
 40
0.0
  9
$DIMTXT
 40
3.0
  9
$DIMCEN
 40
2.5
  9
$DIMTSZ
 40
0.0
  9
$DIMTOL
 70
     0
  9
$DIMLIM
 70
     0
  9
$DIMTIH
 70
     0
  9
$DIMTOH
 70
     0
  9
$DIMSE1
 70
     0
  9
$DIMSE2
 70
     0
  9
$DIMTAD
 70
     1
  9
$DIMZIN
 70
     9
  9
$DIMBLK
  1
OPEN30
  9
$DIMASO
 70
     1
  9
$DIMSHO
 70
     1
  9
$DIMPOST
  1

  9
$DIMAPOST
  1

  9
$DIMALT
 70
     0
  9
$DIMALTD
 70
     4
  9
$DIMALTF
 40
0.0394
  9
$DIMLFAC
 40
1.0
  9
$DIMTOFL
 70
     1
  9
$DIMTVP
 40
0.0
  9
$DIMTIX
 70
     0
  9
$DIMSOXD
 70
     0
  9
$DIMSAH
 70
     0
  9
$DIMBLK1
  1

  9
$DIMBLK2
  1

  9
$DIMSTYLE
  2
STD_M_
  9
$DIMCLRD
 70
     4
  9
$DIMCLRE
 70
     4
  9
$DIMCLRT
 70
   256
  9
$DIMTFAC
 40
1.0
  9
$DIMGAP
 40
0.75
  9
$DIMJUST
 70
     0
  9
$DIMSD1
 70
     0
  9
$DIMSD2
 70
     0
  9
$DIMTOLJ
 70
     1
  9
$DIMTZIN
 70
     9
  9
$DIMALTZ
 70
     0
  9
$DIMALTTZ
 70
     0
  9
$DIMFIT
 70
     3
  9
$DIMUPT
 70
     0
  9
$DIMUNIT
 70
     2
  9
$DIMDEC
 70
     2
  9
$DIMTDEC
 70
     2
  9
$DIMALTU
 70
     8
  9
$DIMALTTD
 70
     4
  9
$DIMTXSTY
  7
STANDARD
  9
$DIMAUNIT
 70
     0
  9
$LUNITS
 70
     2
  9
$LUPREC
 70
     4
  9
$SKETCHINC
 40
1.0
  9
$FILLETRAD
 40
20.0
  9
$AUNITS
 70
     0
  9
$AUPREC
 70
     0
  9
$MENU
  1
.
  9
$ELEVATION
 40
0.0
  9
$PELEVATION
 40
0.0
  9
$THICKNESS
 40
0.0
  9
$LIMCHECK
 70
     0
  9
$BLIPMODE
 70
     0
  9
$CHAMFERA
 40
1.0
  9
$CHAMFERB
 40
1.0
  9
$CHAMFERC
 40
20.0
  9
$CHAMFERD
 40
0.0
  9
$SKPOLY
 70
     0
  9
$TDCREATE
 40
2451224.660162384
  9
$TDUPDATE
 40
2455777.842909247
  9
$TDINDWG
 40
14.4198382986
  9
$TDUSRTIMER
 40
14.4198382986
  9
$USRTIMER
 70
     1
  9
$ANGBASE
 50
0.0
  9
$ANGDIR
 70
     0
  9
$PDMODE
 70
     0
  9
$PDSIZE
 40
0.0
  9
$PLINEWID
 40
0.0
  9
$COORDS
 70
     0
  9
$SPLFRAME
 70
     0
  9
$SPLINETYPE
 70
     6
  9
$SPLINESEGS
 70
     8
  9
$ATTDIA
 70
     0
  9
$ATTREQ
 70
     1
  9
$HANDLING
 70
-16383
  9
$HANDSEED
  5
1C311
  9
$SURFTAB1
 70
     6
  9
$SURFTAB2
 70
     6
  9
$SURFTYPE
 70
     6
  9
$SURFU
 70
     6
  9
$SURFV
 70
     6
  9
$UCSNAME
  2

  9
$UCSORG
 10
0.0
 20
0.0
 30
0.0
  9
$UCSXDIR
 10
1.0
 20
0.0
 30
0.0
  9
$UCSYDIR
 10
0.0
 20
1.0
 30
0.0
  9
$PUCSNAME
  2

  9
$PUCSORG
 10
0.0
 20
0.0
 30
0.0
  9
$PUCSXDIR
 10
1.0
 20
0.0
 30
0.0
  9
$PUCSYDIR
 10
0.0
 20
1.0
 30
0.0
  9
$USERI1
 70
     0
  9
$USERI2
 70
     0
  9
$USERI3
 70
     0
  9
$USERI4
 70
     0
  9
$USERI5
 70
     0
  9
$USERR1
 40
0.0
  9
$USERR2
 40
0.0
  9
$USERR3
 40
0.0
  9
$USERR4
 40
0.0
  9
$USERR5
 40
0.0
  9
$WORLDVIEW
 70
     1
  9
$SHADEDGE
 70
     3
  9
$SHADEDIF
 70
    70
  9
$TILEMODE
 70
     0
  9
$MAXACTVP
 70
    48
  9
$PINSBASE
 10
0.0
 20
0.0
 30
0.0
  9
$PLIMCHECK
 70
     0
  9
$PEXTMIN
 10
0.1210353171572933
 20
3.009241196971856
 30
0.0
  9
$PEXTMAX
 10
400.0
 20
284.9352752494937
 30
0.0
  9
$PLIMMIN
 10
-7.911608844909429
 20
-4.333360750747466
  9
$PLIMMAX
 10
418.1587821331476
 20
296.9224610029298
  9
$UNITMODE
 70
     0
  9
$VISRETAIN
 70
     1
  9
$PLINEGEN
 70
     0
  9
$PSLTSCALE
 70
     0
  9
$TREEDEPTH
 70
  3020
  9
$PICKSTYLE
 70
     0
  9
$CMLSTYLE
  2
STANDARD
  9
$CMLJUST
 70
     0
  9
$CMLSCALE
 40
20.0
  9
$PROXYGRAPHICS
 70
     1
  9
$MEASUREMENT
 70
     0
  0
ENDSEC
  0
SECTION
  2
CLASSES
  0
CLASS
  1
HATCH
  2
AcDbHatch
  3
AutoCAD 2000
 90
        0
280
     0
281
     1
  0
CLASS
  1
LWPOLYLINE
  2
AcDbPolyline
  3
AutoCAD 2000
 90
        0
280
     0
281
     1
  0
CLASS
  1
ACDBDICTIONARYWDFLT
  2
AcDbDictionaryWithDefault
  3
AutoCAD 2000
 90
        0
280
     0
281
     0
  0
CLASS
  1
ACDBPLACEHOLDER
  2
AcDbPlaceHolder
  3
AutoCAD 2000
 90
        0
280
     0
281
     0
  0
CLASS
  1
LAYOUT
  2
AcDbLayout
  3
AutoCAD 2000
 90
        0
280
     0
281
     0
  0
CLASS
  1
LONG_TRANSACTION
  2
AcDbLongTransaction
  3
AutoCAD 2000
 90
        0
280
     0
281
     0
  0
CLASS
  1
LWPOLYLINE
  2
AcDbPolyline
  3
AutoCAD 2000
 90
        0
280
     0
281
     1
  0
CLASS
  1
HATCH
  2
AcDbHatch
  3
AutoCAD 2000
 90
        0
280
     0
281
     1
  0
CLASS
  1
XRECORD
  2
AcDbXrecord
  3
AutoCAD 2000
 90
        0
280
     0
281
     0
  0
CLASS
  1
DICTIONARYVAR
  2
AcDbDictionaryVar
  3
AutoCAD 2000
 90
        0
280
     0
281
     0
  0
CLASS
  1
LONG_TRANSACTION
  2
AcDbLongTransaction
  3
AutoCAD 2000
 90
        0
280
     0
281
     0
  0
CLASS
  1
LWPOLYLINE
  2
AcDbPolyline
  3
AutoCAD 2000
 90
        0
280
     0
281
     1
  0
CLASS
  1
HATCH
  2
AcDbHatch
  3
AutoCAD 2000
 90
        0
280
     0
281
     1
  0
CLASS
  1
XRECORD
  2
AcDbXrecord
  3
AutoCAD 2000
 90
        0
280
     0
281
     0
  0
ENDSEC
  0
SECTION
  2
TABLES
  0
TABLE
  2
VPORT
  5
8
330
0
100
AcDbSymbolTable
 70
     2
  0
VPORT
  5
1C2ED
330
8
100
AcDbSymbolTableRecord
100
AcDbViewportTableRecord
  2
*ACTIVE
 70
     0
 10
0.0
 20
0.0
 11
1.0
 21
1.0
 12
486.4044414187844
 22
164.4540765908965
 13
0.0
 23
0.0
 14
10.0
 24
10.0
 15
10.0
 25
10.0
 16
0.0
 26
0.0
 36
1.0
 17
0.0
 27
0.0
 37
0.0
 40
788.8156155182834
 41
1.527918781725888
 42
50.0
 43
0.0
 44
0.0
 50
0.0
 51
0.0
 71
     0
 72
   100
 73
     1
 74
     0
 75
     0
 76
     0
 77
     0
 78
     0
  0
ENDTAB
  0
TABLE
  2
LTYPE
  5
5
330
0
100
AcDbSymbolTable
 70
     7
  0
LTYPE
  5
12
330
5
100
AcDbSymbolTableRecord
100
AcDbLinetypeTableRecord
  2
BYBLOCK
 70
     0
  3

 72
    65
 73
     0
 40
0.0
  0
LTYPE
  5
13
330
5
100
AcDbSymbolTableRecord
100
AcDbLinetypeTableRecord
  2
BYLAYER
 70
     0
  3

 72
    65
 73
     0
 40
0.0
  0
LTYPE
  5
14
330
5
100
AcDbSymbolTableRecord
100
AcDbLinetypeTableRecord
  2
CONTINUOUS
 70
     0
  3
Solid line
 72
    65
 73
     0
 40
0.0
  0
LTYPE
  5
126C
330
5
100
AcDbSymbolTableRecord
100
AcDbLinetypeTableRecord
  2
CENTER
 70
     0
  3
____ _ ____ _ ____ _ ____ _ ____ _ ____ _ ____
 72
    65
 73
     4
 40
2.0
 49
1.25
 74
     0
 49
-0.25
 74
     0
 49
0.25
 74
     0
 49
-0.25
 74
     0
  0
LTYPE
  5
126E
330
5
100
AcDbSymbolTableRecord
100
AcDbLinetypeTableRecord
  2
DASHDOT
 70
     0
  3
__ . __ . __ . __ . __ . __ . __ . __ . __ . __
 72
    65
 73
     4
 40
1.0
 49
0.5
 74
     0
 49
-0.25
 74
     0
 49
0.0
 74
     0
 49
-0.25
 74
     0
  0
LTYPE
  5
1541F
330
5
100
AcDbSymbolTableRecord
100
AcDbLinetypeTableRecord
  2
HIDDEN
 70
     0
  3
_ _ _ _ _ _ _ _ _ _ _ _ _ _ _ _ _ _ _ _ _ _ _
 72
    65
 73
     2
 40
0.375
 49
0.25
 74
     0
 49
-0.125
 74
     0
  0
LTYPE
  5
15420
330
5
100
AcDbSymbolTableRecord
100
AcDbLinetypeTableRecord
  2
CENTER2
 70
     0
  3
Center (.5x) ___ _ ___ _ ___ _ ___ _ ___ _ ___
 72
    65
 73
     4
 40
1.125
 49
0.75
 74
     0
 49
-0.125
 74
     0
 49
0.125
 74
     0
 49
-0.125
 74
     0
  0
LTYPE
  5
15421
330
5
100
AcDbSymbolTableRecord
100
AcDbLinetypeTableRecord
  2
PHANTOM2
 70
     0
  3
Phantom (.5x) ___ _ _ ___ _ _ ___ _ _ ___ _ _
 72
    65
 73
     6
 40
1.25
 49
0.625
 74
     0
 49
-0.125
 74
     0
 49
0.125
 74
     0
 49
-0.125
 74
     0
 49
0.125
 74
     0
 49
-0.125
 74
     0
  0
LTYPE
  5
1615D
330
5
100
AcDbSymbolTableRecord
100
AcDbLinetypeTableRecord
  2
PHANTOM
 70
     0
  3
Phantom ______  __  __  ______  __  __  ______
 72
    65
 73
     6
 40
2.5
 49
1.25
 74
     0
 49
-0.25
 74
     0
 49
0.25
 74
     0
 49
-0.25
 74
     0
 49
0.25
 74
     0
 49
-0.25
 74
     0
  0
ENDTAB
  0
TABLE
  2
LAYER
  5
2
102
{ACAD_XDICTIONARY
360
1BC29
102
}
330
0
100
AcDbSymbolTable
 70
    18
  0
LAYER
  5
E
330
2
100
AcDbSymbolTableRecord
100
AcDbLayerTableRecord
  2
0
 70
     2
 62
     7
  6
CONTINUOUS
  0
LAYER
  5
2C
330
2
100
AcDbSymbolTableRecord
100
AcDbLayerTableRecord
  2
M_VIEW
 70
     0
 62
    -1
  6
CONTINUOUS
  0
LAYER
  5
30
330
2
100
AcDbSymbolTableRecord
100
AcDbLayerTableRecord
  2
FRAME025
 70
     0
 62
     7
  6
CONTINUOUS
  0
LAYER
  5
12B
330
2
100
AcDbSymbolTableRecord
100
AcDbLayerTableRecord
  2
DEFPOINTS
 70
     4
 62
    -7
  6
CONTINUOUS
  0
LAYER
  5
651
330
2
100
AcDbSymbolTableRecord
100
AcDbLayerTableRecord
  2
FRAME020
 70
     0
 62
     7
  6
CONTINUOUS
  0
LAYER
  5
1271
330
2
100
AcDbSymbolTableRecord
100
AcDbLayerTableRecord
  2
A
 70
     0
 62
     7
  6
CONTINUOUS
  0
LAYER
  5
A9BB
330
2
100
AcDbSymbolTableRecord
100
AcDbLayerTableRecord
  2
文字
 70
     0
 62
     7
  6
CONTINUOUS
  0
LAYER
  5
12163
330
2
100
AcDbSymbolTableRecord
100
AcDbLayerTableRecord
  2
寸法線
 70
     0
 62
     7
  6
CONTINUOUS
  0
LAYER
  5
122DE
330
2
100
AcDbSymbolTableRecord
100
AcDbLayerTableRecord
  2
DIMENSION
 70
     0
 62
     7
  6
CONTINUOUS
  0
LAYER
  5
15422
330
2
100
AcDbSymbolTableRecord
100
AcDbLayerTableRecord
  2
細線
 70
     0
 62
     7
  6
CONTINUOUS
  0
LAYER
  5
15423
330
2
100
AcDbSymbolTableRecord
100
AcDbLayerTableRecord
  2
CENTER
 70
     0
 62
     7
  6
CENTER
  0
LAYER
  5
15425
330
2
100
AcDbSymbolTableRecord
100
AcDbLayerTableRecord
  2
中心線
 70
     0
 62
     7
  6
CENTER2
  0
LAYER
  5
15426
330
2
100
AcDbSymbolTableRecord
100
AcDbLayerTableRecord
  2
仮想線
 70
     0
 62
     7
  6
PHANTOM2
  0
LAYER
  5
15427
330
2
100
AcDbSymbolTableRecord
100
AcDbLayerTableRecord
  2
ﾍ__ｽ
 70
     0
 62
     7
  6
CONTINUOUS
  0
LAYER
  5
1615E
330
2
100
AcDbSymbolTableRecord
100
AcDbLayerTableRecord
  2
２点鎖線
 70
     0
 62
     7
  6
PHANTOM
  0
LAYER
  5
17D4F
330
2
100
AcDbSymbolTableRecord
100
AcDbLayerTableRecord
  2
破線
 70
     0
 62
     7
  6
HIDDEN
  0
LAYER
  5
1A847
330
2
100
AcDbSymbolTableRecord
100
AcDbLayerTableRecord
  2
ｷｬｯﾌ_ﾎ_ﾙﾄ
 70
     0
 62
     7
  6
CONTINUOUS
  0
ENDTAB
  0
TABLE
  2
STYLE
  5
3
330
0
100
AcDbSymbolTable
 70
     4
  0
STYLE
  5
F
330
3
100
AcDbSymbolTableRecord
100
AcDbTextStyleTableRecord
  2
STANDARD
 70
     0
 40
0.0
 41
1.0
 50
0.0
 71
     0
 42
2.5
  3
isocp.shx
  4
bigfont.shx
  0
STYLE
  5
35
330
3
100
AcDbSymbolTableRecord
100
AcDbTextStyleTableRecord
  2
MSｺ_ｼｯｸ
 70
     0
 40
0.0
 41
1.0
 50
0.0
 71
     0
 42
5.0
  3
MS Gothic.ttf
  4

1001
ACAD
1000
MS Gothic
1071
    32817
  0
STYLE
  5
1275
330
3
100
AcDbSymbolTableRecord
100
AcDbTextStyleTableRecord
  2
BIGFONT
 70
     0
 40
2.0
 41
1.0
 50
0.0
 71
     0
 42
2.0
  3
txt.shx
  4
bigfont.shx
  0
STYLE
  5
1A84A
330
3
100
AcDbSymbolTableRecord
100
AcDbTextStyleTableRecord
  2
ｽﾀｲﾙ3
 70
     0
 40
10.0
 41
1.0
 50
0.0
 71
     0
 42
10.0
  3
isocp.shx
  4
extfont.shx
  0
ENDTAB
  0
TABLE
  2
VIEW
  5
6
330
0
100
AcDbSymbolTable
 70
     0
  0
ENDTAB
  0
TABLE
  2
UCS
  5
7
330
0
100
AcDbSymbolTable
 70
     0
  0
ENDTAB
  0
TABLE
  2
APPID
  5
9
330
0
100
AcDbSymbolTable
 70
     4
  0
APPID
  5
10
330
9
100
AcDbSymbolTableRecord
100
AcDbRegAppTableRecord
  2
ACAD
 70
     0
  0
APPID
  5
F013
330
9
100
AcDbSymbolTableRecord
100
AcDbRegAppTableRecord
  2
CONTENTBLOCKDESCRIPTION
 70
     0
  0
APPID
  5
F014
330
9
100
AcDbSymbolTableRecord
100
AcDbRegAppTableRecord
  2
CONTENTBLOCKICON
 70
     0
  0
APPID
  5
1A9A0
330
9
100
AcDbSymbolTableRecord
100
AcDbRegAppTableRecord
  2
DCO15
 70
     0
  0
ENDTAB
  0
TABLE
  2
DIMSTYLE
  5
A
330
0
100
AcDbSymbolTable
 70
     2
  0
DIMSTYLE
105
1D
330
A
100
AcDbSymbolTableRecord
100
AcDbDimStyleTableRecord
  2
STANDARD
 70
     0
  3

  4

  5

  6

  7

 40
1.0
 41
0.18
 42
0.0625
 43
0.38
 44
0.18
 45
0.0
 46
0.0
 47
0.0
 48
0.0
140
0.18
141
0.09
142
0.0
143
25.4
144
1.0
145
0.0
146
1.0
147
0.09
 71
     0
 72
     0
 73
     1
 74
     1
 75
     0
 76
     0
 77
     0
 78
     0
170
     0
171
     2
172
     0
173
     0
174
     0
175
     0
176
     0
177
     0
178
     0
270
     2
271
     4
272
     4
273
     2
274
     2
340
F
275
     0
280
     0
281
     0
282
     0
283
     1
284
     0
285
     0
286
     0
287
     3
288
     0
  0
DIMSTYLE
105
1542A
102
{ACAD_REACTORS
330
167CA
330
1754D
330
18D19
330
18FF7
330
19004
330
1900A
330
1A353
330
1A66C
330
1A670
330
1A694
330
1BA47
330
1BA58
330
1BA5A
330
1BC41
330
1BCB9
330
1BCC2
102
}
330
A
100
AcDbSymbolTableRecord
100
AcDbDimStyleTableRecord
  2
STD_M_
 70
     0
  3

  4

  5
OPEN30
  6

  7

 40
2.0
 41
3.5
 42
1.0
 43
6.5
 44
1.0
 45
0.005
 46
0.0
 47
0.0
 48
0.0
140
3.0
141
2.5
142
0.0
143
0.0394
144
1.0
145
0.0
146
1.0
147
0.75
 71
     0
 72
     0
 73
     0
 74
     0
 75
     0
 76
     0
 77
     1
 78
     9
170
     0
171
     4
172
     1
173
     0
174
     0
175
     0
176
     4
177
     4
178
   256
270
     2
271
     2
272
     2
273
     8
274
     4
340
F
275
     0
280
     0
281
     0
282
     0
283
     1
284
     9
285
     0
286
     0
287
     3
288
     0
  0
ENDTAB
  0
TABLE
  2
BLOCK_RECORD
  5
1
330
0
100
AcDbSymbolTable
 70
    35
  0
BLOCK_RECORD
  5
18
102
{ACAD_XDICTIONARY
360
EFC6
102
}
330
1
100
AcDbSymbolTableRecord
100
AcDbBlockTableRecord
  2
*MODEL_SPACE
  0
BLOCK_RECORD
  5
15
102
{ACAD_XDICTIONARY
360
EFC4
102
}
330
1
100
AcDbSymbolTableRecord
100
AcDbBlockTableRecord
  2
*PAPER_SPACE
  0
BLOCK_RECORD
  5
115C
330
1
100
AcDbSymbolTableRecord
100
AcDbBlockTableRecord
  2
機械A4横_LBP
  0
BLOCK_RECORD
  5
1215D
330
1
100
AcDbSymbolTableRecord
100
AcDbBlockTableRecord
  2
_OPEN30
  0
ENDTAB
  0
ENDSEC
  0
SECTION
  2
BLOCKS
  0
BLOCK
  5
19
330
18
100
AcDbEntity
  8
0
100
AcDbBlockBegin
  2
*MODEL_SPACE
 70
     0
 10
0.0
 20
0.0
 30
0.0
  3
*MODEL_SPACE
  1

  0
ENDBLK
  5
1A
330
18
100
AcDbEntity
  8
0
100
AcDbBlockEnd
  0
BLOCK
  5
16
330
15
100
AcDbEntity
 67
     1
  8
0
100
AcDbBlockBegin
  2
*PAPER_SPACE
 70
     0
 10
0.0
 20
0.0
 30
0.0
  3
*PAPER_SPACE
  1

  0
ENDBLK
  5
17
330
15
100
AcDbEntity
 67
     1
  8
0
100
AcDbBlockEnd
  0
BLOCK
  5
115D
330
115C
100
AcDbEntity
  8
0
100
AcDbBlockBegin
  2
機械A4横_LBP
 70
     0
 10
0.0
 20
0.0
 30
0.0
  3
機械A4横_LBP
  1

  0
ENDBLK
  5
115E
330
115C
100
AcDbEntity
  8
0
100
AcDbBlockEnd
  0
BLOCK
  5
12161
330
1215D
100
AcDbEntity
  8
0
100
AcDbBlockBegin
  2
_OPEN30
 70
     0
 10
0.0
 20
0.0
 30
0.0
  3
_OPEN30
  1

  0
LINE
  5
1215E
330
1215D
100
AcDbEntity
  8
0
  6
BYBLOCK
 62
     0
100
AcDbLine
 10
-1.0
 20
0.26794919
 30
0.0
 11
0.0
 21
0.0
 31
0.0
  0
LINE
  5
1215F
330
1215D
100
AcDbEntity
  8
0
  6
BYBLOCK
 62
     0
100
AcDbLine
 10
0.0
 20
0.0
 30
0.0
 11
-1.0
 21
-0.26794919
 31
0.0
  0
LINE
  5
12160
330
1215D
100
AcDbEntity
  8
0
  6
BYBLOCK
 62
     0
100
AcDbLine
 10
0.0
 20
0.0
 30
0.0
 11
-1.0
 21
0.0
 31
0.0
  0
ENDBLK
  5
12162
330
1215D
100
AcDbEntity
  8
0
100
AcDbBlockEnd
  0
ENDSEC
  0
SECTION
  2
ENTITIES
  0
ARC
  5
16607
330
18
100
AcDbEntity
  8
0
100
AcDbCircle
 10
574.0664622099452
 20
212.0683736814489
 30
0.0
 40
9.015903847971634
100
AcDbArc
 50
5.539633318506666
 51
27.82043885584001
  0
LINE
  5
16608
330
18
100
AcDbEntity
  8
0
100
AcDbLine
 10
582.0402587275141
 20
211.767288868039
 30
0.0
 11
586.5402587275146
 21
217.0387174394668
 31
0.0
  0
LINE
  5
16609
330
18
100
AcDbEntity
  8
0
100
AcDbLine
 10
583.0402587275141
 20
231.5958602966102
 30
0.0
 11
583.0402587275146
 21
212.9387174394678
 31
0.0
  0
ARC
  5
1660A
330
18
100
AcDbEntity
  8
0
100
AcDbCircle
 10
574.0664622099452
 20
232.466204054629
 30
0.0
 40
9.015903847971634
100
AcDbArc
 50
332.1795611441596
 51
354.4603666814933
  0
ARC
  5
1660B
330
18
100
AcDbEntity
  8
0
100
AcDbCircle
 10
572.5402587275143
 20
222.267288868039
 30
0.0
 40
10.50000000000042
100
AcDbArc
 50
334.791234703239
 51
25.20876529676096
  0
LINE
  5
1660C
330
18
100
AcDbEntity
  8
0
100
AcDbLine
 10
582.0402587275141
 20
232.767288868039
 30
0.0
 11
586.5402587275146
 21
227.4958602966112
 31
0.0
  0
LINE
  5
1660D
330
18
100
AcDbEntity
  8
0
100
AcDbLine
 10
586.5402587275146
 20
227.4958602966112
 30
0.0
 11
586.5402587275146
 21
217.0387174394668
 31
0.0
  0
LINE
  5
1660E
330
18
100
AcDbEntity
  8
0
100
AcDbLine
 10
582.0402587275146
 20
217.7951529130396
 30
0.0
 11
582.0402587275146
 21
216.2761155095872
 31
0.0
  0
LINE
  5
1660F
330
18
100
AcDbEntity
  8
0
100
AcDbLine
 10
582.0402587275146
 20
228.2584622264912
 30
0.0
 11
582.0402587275146
 21
226.7394248230389
 31
0.0
  0
LINE
  5
16610
330
18
100
AcDbEntity
  8
0
100
AcDbLine
 10
573.0402587275145
 20
231.767288868039
 30
0.0
 11
573.0402587275145
 21
212.767288868039
 31
0.0
  0
LINE
  5
16611
330
18
100
AcDbEntity
  8
0
100
AcDbLine
 10
576.0402587275145
 20
232.767288868039
 30
0.0
 11
576.0402587275145
 21
211.767288868039
 31
0.0
  0
LINE
  5
16612
330
18
100
AcDbEntity
  8
0
100
AcDbLine
 10
571.0402587275146
 20
232.767288868039
 30
0.0
 11
571.0402587275146
 21
211.767288868039
 31
0.0
  0
LINE
  5
16613
330
18
100
AcDbEntity
  8
0
100
AcDbLine
 10
568.5402587275141
 20
211.767288868039
 30
0.0
 11
571.0402587275146
 21
211.767288868039
 31
0.0
  0
LINE
  5
16614
330
18
100
AcDbEntity
  8
0
100
AcDbLine
 10
573.0402587275145
 20
212.767288868039
 30
0.0
 11
576.0402587275145
 21
212.767288868039
 31
0.0
  0
LINE
  5
16615
330
18
100
AcDbEntity
  8
0
100
AcDbLine
 10
571.0402587275146
 20
217.7951529130396
 30
0.0
 11
568.5402587275141
 21
217.7951529130396
 31
0.0
  0
LINE
  5
16616
330
18
100
AcDbEntity
  8
0
100
AcDbLine
 10
571.0402587275146
 20
214.8672888680384
 30
0.0
 11
573.0402587275145
 21
214.8672888680384
 31
0.0
  0
LINE
  5
16617
330
18
100
AcDbEntity
  8
0
100
AcDbLine
 10
571.0402587275146
 20
216.2761155095872
 30
0.0
 11
568.5402587275141
 21
216.2761155095872
 31
0.0
  0
LINE
  5
16618
330
18
100
AcDbEntity
  8
0
100
AcDbLine
 10
568.5402587275141
 20
232.767288868039
 30
0.0
 11
571.0402587275146
 21
232.767288868039
 31
0.0
  0
LINE
  5
16619
330
18
100
AcDbEntity
  8
0
100
AcDbLine
 10
571.0402587275146
 20
229.6672888680386
 30
0.0
 11
573.0402587275145
 21
229.6672888680386
 31
0.0
  0
LINE
  5
1661A
330
18
100
AcDbEntity
  8
0
100
AcDbLine
 10
568.5402587275141
 20
228.2584622264912
 30
0.0
 11
571.0402587275146
 21
228.2584622264912
 31
0.0
  0
LINE
  5
1661B
330
18
100
AcDbEntity
  8
0
100
AcDbLine
 10
568.5402587275141
 20
226.7394248230389
 30
0.0
 11
571.0402587275146
 21
226.7394248230389
 31
0.0
  0
LINE
  5
1661C
330
18
100
AcDbEntity
  8
0
100
AcDbLine
 10
573.0402587275145
 20
231.767288868039
 30
0.0
 11
576.0402587275145
 21
231.767288868039
 31
0.0
  0
LINE
  5
1661D
330
18
100
AcDbEntity
  8
0
100
AcDbLine
 10
576.0402587275145
 20
211.767288868039
 30
0.0
 11
582.0402587275141
 21
211.767288868039
 31
0.0
  0
LINE
  5
1661E
330
18
100
AcDbEntity
  8
0
100
AcDbLine
 10
582.0402587275146
 20
216.2761155095872
 30
0.0
 11
576.0402587275145
 21
216.2761155095872
 31
0.0
  0
LINE
  5
1661F
330
18
100
AcDbEntity
  8
0
100
AcDbLine
 10
582.0402587275146
 20
217.7951529130396
 30
0.0
 11
576.0402587275145
 21
217.7951529130396
 31
0.0
  0
LINE
  5
16620
330
18
100
AcDbEntity
  8
0
100
AcDbLine
 10
576.0402587275145
 20
232.767288868039
 30
0.0
 11
582.0402587275146
 21
232.767288868039
 31
0.0
  0
LINE
  5
16621
330
18
100
AcDbEntity
  8
0
100
AcDbLine
 10
576.0402587275145
 20
228.2584622264912
 30
0.0
 11
582.0402587275146
 21
228.2584622264912
 31
0.0
  0
LINE
  5
16622
330
18
100
AcDbEntity
  8
0
100
AcDbLine
 10
576.0402587275145
 20
226.7394248230389
 30
0.0
 11
582.0402587275146
 21
226.7394248230389
 31
0.0
  0
ARC
  5
1662A
330
18
100
AcDbEntity
  8
0
100
AcDbCircle
 10
574.0664622099461
 20
412.4662040546292
 30
0.0
 40
9.015903847971634
100
AcDbArc
 50
332.1795611441596
 51
354.4603666814933
  0
LINE
  5
1662B
330
18
100
AcDbEntity
  8
0
100
AcDbLine
 10
571.0402587275154
 20
408.2584622264908
 30
0.0
 11
568.5402587275141
 21
408.2584622264908
 31
0.0
  0
LINE
  5
1662C
330
18
100
AcDbEntity
  8
0
100
AcDbLine
 10
571.0402587275154
 20
409.6672888680396
 30
0.0
 11
573.0402587275155
 21
409.6672888680396
 31
0.0
  0
LINE
  5
1662D
330
18
100
AcDbEntity
  8
0
100
AcDbLine
 10
573.0402587275155
 20
411.7672888680391
 30
0.0
 11
576.0402587275154
 21
411.7672888680391
 31
0.0
  0
LINE
  5
1662E
330
18
100
AcDbEntity
  8
0
100
AcDbLine
 10
568.5402587275141
 20
412.7672888680391
 30
0.0
 11
571.0402587275154
 21
412.7672888680391
 31
0.0
  0
LINE
  5
1662F
330
18
100
AcDbEntity
  8
0
100
AcDbLine
 10
582.0402587275155
 20
408.2584622264908
 30
0.0
 11
576.0402587275154
 21
408.2584622264908
 31
0.0
  0
LINE
  5
16630
330
18
100
AcDbEntity
  8
0
100
AcDbLine
 10
576.0402587275154
 20
412.7672888680391
 30
0.0
 11
582.040258727515
 21
412.7672888680391
 31
0.0
  0
LINE
  5
16631
330
18
100
AcDbEntity
  8
0
100
AcDbLine
 10
586.540258727515
 20
397.0387174394664
 30
0.0
 11
586.5402587275155
 21
407.4958602966108
 31
0.0
  0
ARC
  5
16632
330
18
100
AcDbEntity
  8
0
100
AcDbCircle
 10
572.5402587275152
 20
402.2672888680391
 30
0.0
 40
10.50000000000042
100
AcDbArc
 50
334.791234703239
 51
25.20876529676096
  0
LINE
  5
16633
330
18
100
AcDbEntity
  8
0
100
AcDbLine
 10
582.0402587275146
 20
391.7672888680391
 30
0.0
 11
586.540258727515
 21
397.0387174394664
 31
0.0
  0
ARC
  5
16634
330
18
100
AcDbEntity
  8
0
100
AcDbCircle
 10
574.0664622099457
 20
392.0683736814491
 30
0.0
 40
9.015903847971634
100
AcDbArc
 50
5.539633318506666
 51
27.82043885584001
  0
LINE
  5
16635
330
18
100
AcDbEntity
  8
0
100
AcDbLine
 10
582.040258727515
 20
396.2761155095865
 30
0.0
 11
582.040258727515
 21
397.7951529130392
 31
0.0
  0
LINE
  5
16636
330
18
100
AcDbEntity
  8
0
100
AcDbLine
 10
568.5402587275141
 20
391.7672888680391
 30
0.0
 11
571.040258727515
 21
391.7672888680391
 31
0.0
  0
LINE
  5
16637
330
18
100
AcDbEntity
  8
0
100
AcDbLine
 10
568.5402587275141
 20
396.2761155095869
 30
0.0
 11
571.040258727515
 21
396.2761155095869
 31
0.0
  0
LINE
  5
16638
330
18
100
AcDbEntity
  8
0
100
AcDbLine
 10
571.040258727515
 20
394.8672888680395
 30
0.0
 11
573.040258727515
 21
394.8672888680395
 31
0.0
  0
LINE
  5
16639
330
18
100
AcDbEntity
  8
0
100
AcDbLine
 10
568.5402587275141
 20
397.7951529130392
 30
0.0
 11
571.040258727515
 21
397.7951529130392
 31
0.0
  0
LINE
  5
1663A
330
18
100
AcDbEntity
  8
0
100
AcDbLine
 10
573.040258727515
 20
392.7672888680391
 30
0.0
 11
576.040258727515
 21
392.7672888680391
 31
0.0
  0
LINE
  5
1663B
330
18
100
AcDbEntity
  8
0
100
AcDbLine
 10
571.0402587275154
 20
406.7394248230385
 30
0.0
 11
568.5402587275141
 21
406.7394248230385
 31
0.0
  0
LINE
  5
1663C
330
18
100
AcDbEntity
  8
0
100
AcDbLine
 10
576.040258727515
 20
397.7951529130392
 30
0.0
 11
582.040258727515
 21
397.7951529130392
 31
0.0
  0
LINE
  5
1663D
330
18
100
AcDbEntity
  8
0
100
AcDbLine
 10
576.040258727515
 20
391.7672888680391
 30
0.0
 11
582.040258727515
 21
391.7672888680391
 31
0.0
  0
LINE
  5
1663E
330
18
100
AcDbEntity
  8
0
100
AcDbLine
 10
576.040258727515
 20
396.2761155095869
 30
0.0
 11
582.040258727515
 21
396.2761155095865
 31
0.0
  0
LINE
  5
1663F
330
18
100
AcDbEntity
  8
0
100
AcDbLine
 10
582.0402587275155
 20
406.7394248230385
 30
0.0
 11
576.0402587275154
 21
406.7394248230385
 31
0.0
  0
LINE
  5
16642
330
18
100
AcDbEntity
  8
0
100
AcDbLine
 10
571.040258727515
 20
391.7672888680391
 30
0.0
 11
571.0402587275154
 21
412.7672888680391
 31
0.0
  0
LINE
  5
16643
330
18
100
AcDbEntity
  8
0
100
AcDbLine
 10
573.040258727515
 20
392.7672888680391
 30
0.0
 11
573.0402587275155
 21
411.7672888680391
 31
0.0
  0
LINE
  5
16644
330
18
100
AcDbEntity
  8
0
100
AcDbLine
 10
583.040258727515
 20
392.9387174394679
 30
0.0
 11
583.0402587275155
 21
411.5958602966103
 31
0.0
  0
LINE
  5
16645
330
18
100
AcDbEntity
  8
0
100
AcDbLine
 10
576.040258727515
 20
391.7672888680391
 30
0.0
 11
576.0402587275154
 21
412.7672888680391
 31
0.0
  0
LINE
  5
16646
330
18
100
AcDbEntity
  8
0
100
AcDbLine
 10
582.040258727515
 20
412.7672888680391
 30
0.0
 11
586.5402587275155
 21
407.4958602966108
 31
0.0
  0
LINE
  5
16647
330
18
100
AcDbEntity
  8
0
100
AcDbLine
 10
582.0402587275155
 20
406.7394248230385
 30
0.0
 11
582.0402587275155
 21
408.2584622264908
 31
0.0
  0
LINE
  5
166C3
330
18
100
AcDbEntity
  8
破線
100
AcDbLine
 10
458.0402552046096
 20
279.7672888680392
 30
0.0
 11
565.5402552046056
 21
279.7672888680391
 31
0.0
  0
LINE
  5
166C4
330
18
100
AcDbEntity
  8
破線
100
AcDbLine
 10
458.0402552046096
 20
344.7672888680392
 30
0.0
 11
565.5402552046057
 21
344.7672888680388
 31
0.0
  0
LINE
  5
166E2
330
18
100
AcDbEntity
  8
0
100
AcDbLine
 10
454.3402552046053
 20
513.2672888680388
 30
0.0
 11
454.8402552046059
 21
513.2672888680388
 31
0.0
  0
LINE
  5
166E4
330
18
100
AcDbEntity
  8
0
100
AcDbLine
 10
454.0402552046053
 20
462.2672888680394
 30
0.0
 11
453.040255204606
 21
462.2672888680394
 31
0.0
  0
LINE
  5
166E5
330
18
100
AcDbEntity
  8
0
100
AcDbLine
 10
450.5402552046059
 20
442.2672888680394
 30
0.0
 11
453.0402552046059
 21
442.2672888680391
 31
0.0
  0
LINE
  5
166E9
330
18
100
AcDbEntity
  8
0
100
AcDbLine
 10
453.040255204606
 20
312.267288868039
 30
0.0
 11
453.040255204606
 21
462.2672888680394
 31
0.0
  0
LINE
  5
166EA
330
18
100
AcDbEntity
  8
0
100
AcDbLine
 10
450.0402552046059
 20
441.7672888680395
 30
0.0
 11
450.0402552046059
 21
312.267288868039
 31
0.0
  0
LINE
  5
166EB
330
18
100
AcDbEntity
  8
0
100
AcDbLine
 10
454.3402552046053
 20
312.267288868039
 30
0.0
 11
454.3402552046054
 21
513.2672888680388
 31
0.0
  0
LINE
  5
166EC
330
18
100
AcDbEntity
  8
0
100
AcDbLine
 10
454.8402552046058
 20
312.2672888680389
 30
0.0
 11
454.8402552046058
 21
513.7672888680388
 31
0.0
  0
LINE
  5
166ED
330
18
100
AcDbEntity
  8
0
100
AcDbLine
 10
565.540255204606
 20
514.9672888680388
 30
0.0
 11
565.5402552046057
 21
312.267288868039
 31
0.0
  0
LINE
  5
166F0
330
18
100
AcDbEntity
  8
0
100
AcDbLine
 10
450.540255204606
 20
182.2672888680392
 30
0.0
 11
453.040255204606
 21
182.2672888680392
 31
0.0
  0
LINE
  5
166F1
330
18
100
AcDbEntity
  8
0
100
AcDbLine
 10
454.0402552046053
 20
162.267288868039
 30
0.0
 11
453.040255204606
 21
162.267288868039
 31
0.0
  0
LINE
  5
16710
330
18
100
AcDbEntity
  8
0
100
AcDbLine
 10
454.3402552046053
 20
111.2672888680394
 30
0.0
 11
454.8402552046058
 21
111.2672888680394
 31
0.0
  0
LINE
  5
16712
330
18
100
AcDbEntity
  8
0
100
AcDbLine
 10
454.3402552046054
 20
111.2672888680394
 30
0.0
 11
454.3402552046053
 21
312.267288868039
 31
0.0
  0
LINE
  5
16719
330
18
100
AcDbEntity
  8
0
100
AcDbLine
 10
454.8402552046058
 20
110.7672888680395
 30
0.0
 11
454.8402552046059
 21
312.267288868039
 31
0.0
  0
LINE
  5
16720
330
18
100
AcDbEntity
  8
0
100
AcDbLine
 10
453.040255204606
 20
312.2672888680392
 30
0.0
 11
453.040255204606
 21
162.2672888680392
 31
0.0
  0
LINE
  5
16721
330
18
100
AcDbEntity
  8
0
100
AcDbLine
 10
450.0402552046059
 20
182.7672888680392
 30
0.0
 11
450.0402552046059
 21
312.2672888680392
 31
0.0
  0
LINE
  5
16722
330
18
100
AcDbEntity
  8
0
100
AcDbLine
 10
565.540255204606
 20
109.5672888680389
 30
0.0
 11
565.5402552046057
 21
312.2672888680392
 31
0.0
  0
LINE
  5
1672A
330
18
100
AcDbEntity
  8
0
100
AcDbLine
 10
568.5402587275127
 20
446.767288868039
 30
0.0
 11
568.5402587275127
 21
312.267288868039
 31
0.0
  0
LINE
  5
167A2
330
18
100
AcDbEntity
  8
0
100
AcDbLine
 10
568.5402587275127
 20
177.7672888680392
 30
0.0
 11
568.5402587275127
 21
312.2672888680392
 31
0.0
  0
LINE
  5
167BD
330
18
100
AcDbEntity
  8
0
100
AcDbLine
 10
565.5402552046058
 20
447.2672888680395
 30
0.0
 11
568.0402587275128
 21
447.2672888680391
 31
0.0
  0
LINE
  5
167BE
330
18
100
AcDbEntity
  8
0
100
AcDbLine
 10
565.5402552046058
 20
177.2672888680387
 30
0.0
 11
568.0402587275128
 21
177.2672888680391
 31
0.0
  0
LINE
  5
17523
330
18
100
AcDbEntity
  8
0
100
AcDbLine
 10
450.0402552046059
 20
182.7672888680392
 30
0.0
 11
450.5402552046059
 21
182.2672888680392
 31
0.0
  0
LINE
  5
17524
330
18
100
AcDbEntity
  8
0
100
AcDbLine
 10
450.5402552046059
 20
442.2672888680394
 30
0.0
 11
450.0402552046059
 21
441.7672888680395
 31
0.0
  0
LINE
  5
17525
330
18
100
AcDbEntity
  8
0
100
AcDbLine
 10
568.0402587275128
 20
447.2672888680391
 30
0.0
 11
568.5402587275127
 21
446.767288868039
 31
0.0
  0
LINE
  5
17526
330
18
100
AcDbEntity
  8
0
100
AcDbLine
 10
568.5402587275127
 20
177.7672888680392
 30
0.0
 11
568.0402587275128
 21
177.2672888680391
 31
0.0
  0
MTEXT
  5
176FC
330
18
100
AcDbEntity
  8
DIMENSION
 62
     2
100
AcDbMText
 10
-100.7823601383244
 20
171.621314412839
 30
0.0
 40
8.0
 41
0.0
 71
     4
 72
     1
  1

1001
ACAD
1000
MTEXTBEGIN
1070
    73
1070
     1
1070
    44
1040
1.0
1070
    74
1070
     0
1000
MTEXTEND
  0
TEXT
  5
187C8
330
18
100
AcDbEntity
  8
A
100
AcDbText
 10
27.08248755054501
 20
1784.547672862096
 30
0.0
 40
2.5
  1

  7
MSｺ_ｼｯｸ
100
AcDbText
  0
TEXT
  5
187C9
330
18
100
AcDbEntity
  8
A
100
AcDbText
 10
19.25748755054502
 20
1784.547672862096
 30
0.0
 40
2.5
  1

 41
0.5
  7
MSｺ_ｼｯｸ
100
AcDbText
  0
TEXT
  5
187CA
330
18
100
AcDbEntity
  8
A
100
AcDbText
 10
167.1825875009164
 20
2214.514692980458
 30
0.0
 40
3.524999999999999
  1
�    
100
AcDbText
  0
MTEXT
  5
187CB
330
18
100
AcDbEntity
  8
0
  6
BYBLOCK
100
AcDbMText
 10
325.4874764241681
 20
2232.511722574347
 30
0.0
 40
2.0
 41
0.0
 71
     4
 72
     5
  1

 11
-0.0000000000000002
 21
-1.0
 31
0.0
1001
ACAD
1000
MTEXTBEGIN
1070
    73
1070
     1
1070
    44
1040
1.0
1070
    74
1070
     0
1000
MTEXTEND
1000
MTEXTBEGIN
1070
    73
1070
     1
1070
    44
1040
1.0
1070
    74
1070
     0
1000
MTEXTEND
  0
MTEXT
  5
187CC
330
18
100
AcDbEntity
  8
0
  6
BYBLOCK
100
AcDbMText
 10
360.9528647873208
 20
2221.718414215929
 30
0.0
 40
2.0
 41
0.0
 71
     7
 72
     5
  1

 11
0.0000000000000001
 21
1.0
 31
0.0
1001
ACAD
1000
MTEXTBEGIN
1070
    73
1070
     1
1070
    44
1040
1.0
1070
    74
1070
     0
1000
MTEXTEND
1000
MTEXTBEGIN
1070
    73
1070
     1
1070
    44
1040
1.0
1070
    74
1070
     0
1000
MTEXTEND
  0
MTEXT
  5
187CD
330
18
100
AcDbEntity
  8
0
100
AcDbMText
 10
325.1733668026532
 20
2146.93890367364
 30
0.0
 40
2.0
 41
10.1453
 71
     1
 72
     5
  1

 11
-0.0000000000000002
 21
-1.0
 31
0.0
1001
ACAD
1000
MTEXTBEGIN
1070
    73
1070
     1
1070
    44
1040
1.0
1070
    74
1070
     0
1000
MTEXTEND
1000
MTEXTBEGIN
1070
    73
1070
     1
1070
    44
1040
1.0
1070
    74
1070
     0
1000
MTEXTEND
  0
MTEXT
  5
187CE
330
18
100
AcDbEntity
  8
0
100
AcDbMText
 10
280.7738750495033
 20
2115.30742008065
 30
0.0
 40
2.0
 41
0.0
 71
     1
 72
     5
  1

1001
ACAD
1000
MTEXTBEGIN
1070
    73
1070
     1
1070
    44
1040
1.0
1070
    74
1070
     0
1000
MTEXTEND
1000
MTEXTBEGIN
1070
    73
1070
     1
1070
    44
1040
1.0
1070
    74
1070
     0
1000
MTEXTEND
  0
MTEXT
  5
187CF
330
18
100
AcDbEntity
  8
0
  6
CENTER
100
AcDbMText
 10
606.3621522332663
 20
2216.239946825076
 30
0.0
 40
2.0
 41
15.6417
 71
     1
 72
     5
  1

  7
BIGFONT
1001
ACAD
1000
MTEXTBEGIN
1070
    73
1070
     1
1070
    44
1040
1.0
1070
    74
1070
     0
1000
MTEXTEND
1000
MTEXTBEGIN
1070
    73
1070
     1
1070
    44
1040
1.0
1070
    74
1070
     0
1000
MTEXTEND
  0
MTEXT
  5
187D0
330
18
100
AcDbEntity
  8
0
  6
DASHDOT
100
AcDbMText
 10
368.6842112890944
 20
2323.029441652852
 30
0.0
 40
1.0
 41
2.0
 71
     1
 72
     5
  1

  7
BIGFONT
1001
ACAD
1000
MTEXTBEGIN
1070
    73
1070
     1
1070
    44
1040
1.0
1070
    74
1070
     0
1000
MTEXTEND
1000
MTEXTBEGIN
1070
    73
1070
     1
1070
    44
1040
1.0
1070
    74
1070
     0
1000
MTEXTEND
  0
MTEXT
  5
187D1
330
18
100
AcDbEntity
  8
0
  6
BYBLOCK
100
AcDbMText
 10
325.4873894192178
 20
2232.511722574347
 30
0.0
 40
2.0
 41
0.0
 71
     4
 72
     5
  1

 11
-0.0000000000000002
 21
-1.0
 31
0.0
1001
ACAD
1000
MTEXTBEGIN
1070
    73
1070
     1
1070
    44
1040
1.0
1070
    74
1070
     0
1000
MTEXTEND
1000
MTEXTBEGIN
1070
    73
1070
     1
1070
    44
1040
1.0
1070
    74
1070
     0
1000
MTEXTEND
  0
MTEXT
  5
187D2
330
18
100
AcDbEntity
  8
0
  6
BYBLOCK
100
AcDbMText
 10
360.9527777823707
 20
2221.718414215929
 30
0.0
 40
2.0
 41
0.0
 71
     7
 72
     5
  1

 11
0.0000000000000001
 21
1.0
 31
0.0
1001
ACAD
1000
MTEXTBEGIN
1070
    73
1070
     1
1070
    44
1040
1.0
1070
    74
1070
     0
1000
MTEXTEND
1000
MTEXTBEGIN
1070
    73
1070
     1
1070
    44
1040
1.0
1070
    74
1070
     0
1000
MTEXTEND
  0
MTEXT
  5
187D3
330
18
100
AcDbEntity
  8
0
100
AcDbMText
 10
325.1732797977028
 20
2146.93890367364
 30
0.0
 40
2.0
 41
10.1453
 71
     1
 72
     5
  1

 11
-0.0000000000000002
 21
-1.0
 31
0.0
1001
ACAD
1000
MTEXTBEGIN
1070
    73
1070
     1
1070
    44
1040
1.0
1070
    74
1070
     0
1000
MTEXTEND
1000
MTEXTBEGIN
1070
    73
1070
     1
1070
    44
1040
1.0
1070
    74
1070
     0
1000
MTEXTEND
  0
MTEXT
  5
187D4
330
18
100
AcDbEntity
  8
0
100
AcDbMText
 10
280.773788044553
 20
2115.30742008065
 30
0.0
 40
2.0
 41
0.0
 71
     1
 72
     5
  1

1001
ACAD
1000
MTEXTBEGIN
1070
    73
1070
     1
1070
    44
1040
1.0
1070
    74
1070
     0
1000
MTEXTEND
1000
MTEXTBEGIN
1070
    73
1070
     1
1070
    44
1040
1.0
1070
    74
1070
     0
1000
MTEXTEND
  0
MTEXT
  5
187D5
330
18
100
AcDbEntity
  8
0
  6
CENTER
100
AcDbMText
 10
606.3620652283159
 20
2216.239946825076
 30
0.0
 40
2.0
 41
15.6417
 71
     1
 72
     5
  1

  7
BIGFONT
1001
ACAD
1000
MTEXTBEGIN
1070
    73
1070
     1
1070
    44
1040
1.0
1070
    74
1070
     0
1000
MTEXTEND
1000
MTEXTBEGIN
1070
    73
1070
     1
1070
    44
1040
1.0
1070
    74
1070
     0
1000
MTEXTEND
  0
MTEXT
  5
187D6
330
18
100
AcDbEntity
  8
0
  6
DASHDOT
100
AcDbMText
 10
368.6841242841443
 20
2323.029441652852
 30
0.0
 40
1.0
 41
2.0
 71
     1
 72
     5
  1

  7
BIGFONT
1001
ACAD
1000
MTEXTBEGIN
1070
    73
1070
     1
1070
    44
1040
1.0
1070
    74
1070
     0
1000
MTEXTEND
1000
MTEXTBEGIN
1070
    73
1070
     1
1070
    44
1040
1.0
1070
    74
1070
     0
1000
MTEXTEND
  0
INSERT
  5
187D7
330
18
100
AcDbEntity
  8
FRAME025
100
AcDbBlockReference
  2
機械A4横_LBP
 10
271.0019941658661
 20
2006.88884056487
 30
0.0
  0
LINE
  5
18C8B
330
18
100
AcDbEntity
  8
0
100
AcDbLine
 10
628.8927787450802
 20
129.0055980022231
 30
0.0
 11
628.8927787450802
 21
142.7672888680387
 31
0.0
  0
LINE
  5
18C8C
330
18
100
AcDbEntity
  8
0
100
AcDbLine
 10
623.0127787450806
 20
129.0055980022231
 30
0.0
 11
623.0127787450806
 21
142.7672888680387
 31
0.0
  0
LINE
  5
18CCF
330
18
100
AcDbEntity
  8
0
100
AcDbLine
 10
628.8927787450802
 20
129.0055980022231
 30
0.0
 11
623.0127787450806
 21
129.0055980022231
 31
0.0
  0
LINE
  5
18CD3
330
18
100
AcDbEntity
  8
中心線
100
AcDbLine
 10
591.1313256927287
 20
222.2672888680391
 30
0.0
 11
557.3616523734719
 21
222.2672888680387
 31
0.0
  0
LINE
  5
18CF8
330
18
100
AcDbEntity
  8
0
100
AcDbLine
 10
623.0127787450806
 20
142.7672888680387
 30
0.0
 11
628.8927787450802
 21
142.7672888680387
 31
0.0
  0
ARC
  5
18CFA
330
18
100
AcDbEntity
  8
0
100
AcDbCircle
 10
595.0061185496268
 20
202.2672888680387
 30
0.0
 40
17.89999999999969
100
AcDbArc
 50
0.0
 51
90.0
  0
ARC
  5
18CFB
330
18
100
AcDbEntity
  8
0
100
AcDbCircle
 10
595.0061185496268
 20
202.2672888680387
 30
0.0
 40
22.09999999999948
100
AcDbArc
 50
0.0
 51
90.0
  0
LINE
  5
18CFD
330
18
100
AcDbEntity
  8
0
100
AcDbLine
 10
586.5402587275146
 20
224.3672888680382
 30
0.0
 11
595.0061185496263
 21
224.3672888680384
 31
0.0
  0
LINE
  5
18CFE
330
18
100
AcDbEntity
  8
0
100
AcDbLine
 10
586.540258727515
 20
220.1672888680383
 30
0.0
 11
595.0061185496264
 21
220.1672888680386
 31
0.0
  0
LINE
  5
18D00
330
18
100
AcDbEntity
  8
0
100
AcDbLine
 10
625.91303928226
 20
422.2672888680388
 30
0.0
 11
625.91303928226
 21
496.9432888680394
 31
0.0
  0
LINE
  5
18D02
330
18
100
AcDbEntity
  8
0
100
AcDbLine
 10
633.4130392786603
 20
422.2672888680388
 30
0.0
 11
633.4130392786603
 21
496.9432888680394
 31
0.0
  0
LINE
  5
18D1B
330
18
100
AcDbEntity
  8
中心線
100
AcDbLine
 10
598.9128820678461
 20
402.2672888680387
 30
0.0
 11
557.3616523734724
 21
402.2672888680387
 31
0.0
  0
ARC
  5
18D3A
330
18
100
AcDbEntity
  8
0
100
AcDbCircle
 10
609.6630392804602
 20
422.2672888680388
 30
0.0
 40
16.25000000180011
100
AcDbArc
 50
270.0
 51
0.0
  0
ARC
  5
18D3C
330
18
100
AcDbEntity
  8
0
100
AcDbCircle
 10
609.6630392804602
 20
422.2672888680388
 30
0.0
 40
23.74999999820033
100
AcDbArc
 50
270.0
 51
0.0
  0
LINE
  5
18D3F
330
18
100
AcDbEntity
  8
0
100
AcDbLine
 10
609.6630392804602
 20
406.0172888662388
 30
0.0
 11
586.5402587275155
 21
406.0172888662389
 31
0.0
  0
LINE
  5
18D40
330
18
100
AcDbEntity
  8
0
100
AcDbLine
 10
609.6630392804607
 20
398.5172888698384
 30
0.0
 11
586.5402587275155
 21
398.5172888698386
 31
0.0
  0
LINE
  5
18FF9
330
18
100
AcDbEntity
  8
0
100
AcDbLine
 10
565.0402552046059
 20
109.0672888680389
 30
0.0
 11
565.540255204606
 21
109.567288868039
 31
0.0
  0
LINE
  5
18FFF
330
18
100
AcDbEntity
  8
0
100
AcDbLine
 10
455.8402552046059
 20
109.7672888680395
 30
0.0
 11
533.2402552046061
 21
109.7672888680392
 31
0.0
  0
LWPOLYLINE
  5
1993F
102
{ACAD_REACTORS
330
19989
102
}
330
18
100
AcDbEntity
  8
0
100
AcDbPolyline
 90
        4
 70
     1
 43
0.0
 10
644.4130392804598
 20
555.8432888680394
 10
644.4130392804598
 20
550.8432888680395
 10
614.9130392804598
 20
550.8432888680395
 10
614.9130392804598
 20
555.8432888680394
  0
LWPOLYLINE
  5
19940
102
{ACAD_REACTORS
330
19989
102
}
330
18
100
AcDbEntity
  8
0
100
AcDbPolyline
 90
        4
 70
     1
 43
0.0
 10
620.9130392804597
 20
526.4652632451547
 10
620.9130392804597
 20
516.4652632451548
 10
638.4130392804597
 20
516.4652632451548
 10
638.4130392804597
 20
526.4652632451547
  0
TEXT
  5
19941
102
{ACAD_REACTORS
330
19989
102
}
330
18
100
AcDbEntity
  8
FRAME020
  6
CONTINUOUS
100
AcDbText
 10
623.2293849323373
 20
520.7218066489672
 30
0.0
 40
4.0
  1
ＡＭＰ
100
AcDbText
  0
LINE
  5
19942
102
{ACAD_REACTORS
330
19989
102
}
330
18
100
AcDbEntity
  8
0
100
AcDbLine
 10
640.66303928046
 20
532.8432888680395
 30
0.0
 11
640.6630392804597
 21
508.8432888680395
 31
0.0
  0
LINE
  5
19943
102
{ACAD_REACTORS
330
19989
102
}
330
18
100
AcDbEntity
  8
0
100
AcDbLine
 10
618.6630392804597
 20
532.8432888680395
 30
0.0
 11
618.6630392804597
 21
508.8432888680395
 31
0.0
  0
TEXT
  5
19944
102
{ACAD_REACTORS
330
19989
102
}
330
18
100
AcDbEntity
  8
FRAME020
  6
CONTINUOUS
100
AcDbText
 10
624.037875109145
 20
517.1493425010285
 30
0.0
 40
2.799999999999999
  1
0-5200
100
AcDbText
  0
LINE
  5
19945
102
{ACAD_REACTORS
330
19989
102
}
330
18
100
AcDbEntity
  8
0
100
AcDbLine
 10
637.0380392804597
 20
508.8432888680395
 30
0.0
 11
622.2880392804597
 21
508.8432888680395
 31
0.0
  0
LINE
  5
19946
102
{ACAD_REACTORS
330
19989
102
}
330
18
100
AcDbEntity
  8
0
100
AcDbLine
 10
640.6630392804597
 20
508.8432888680395
 30
0.0
 11
618.6630392804597
 21
508.8432888680395
 31
0.0
  0
TEXT
  5
19947
102
{ACAD_REACTORS
330
19989
102
}
330
18
100
AcDbEntity
  8
FRAME020
  6
CONTINUOUS
100
AcDbText
 10
621.9464365475334
 20
509.3413613051711
 30
0.0
 40
3.0
  1
B2
100
AcDbText
  0
LWPOLYLINE
  5
19948
102
{ACAD_REACTORS
330
19989
102
}
330
18
100
AcDbEntity
  8
0
100
AcDbPolyline
 90
        4
 70
     1
 43
0.0
 10
621.9130392804597
 20
513.3432888680395
 10
621.9130392804597
 20
508.8432888680395
 10
626.4130392804597
 20
508.8432888680395
 10
626.4130392804597
 20
513.3432888680395
  0
TEXT
  5
19949
102
{ACAD_REACTORS
330
19989
102
}
330
18
100
AcDbEntity
  8
FRAME020
  6
CONTINUOUS
100
AcDbText
 10
632.9464365475335
 20
509.3413613051711
 30
0.0
 40
3.0
  1
B1
100
AcDbText
  0
LWPOLYLINE
  5
1994A
102
{ACAD_REACTORS
330
19989
102
}
330
18
100
AcDbEntity
  8
0
100
AcDbPolyline
 90
        4
 70
     1
 43
0.0
 10
632.9130392804597
 20
513.3432888680395
 10
632.9130392804597
 20
508.8432888680395
 10
637.4130392804597
 20
508.8432888680395
 10
637.4130392804597
 20
513.3432888680395
  0
LWPOLYLINE
  5
1994B
102
{ACAD_REACTORS
330
19989
102
}
330
18
100
AcDbEntity
  8
0
100
AcDbPolyline
 90
        4
 70
     1
 43
0.0
 10
646.5130392804598
 20
550.8432888680395
 10
646.5130392804598
 20
546.8432888680395
 10
612.8130392804599
 20
546.8432888680395
 10
612.8130392804599
 20
550.8432888680395
  0
LINE
  5
1994C
102
{ACAD_REACTORS
330
19989
102
}
330
18
100
AcDbEntity
  8
0
100
AcDbLine
 10
628.1630392804597
 20
533.8432888680395
 30
0.0
 11
628.1630392804597
 21
546.8432888680395
 31
0.0
  0
LINE
  5
1994D
102
{ACAD_REACTORS
330
19989
102
}
330
18
100
AcDbEntity
  8
0
100
AcDbLine
 10
631.1630392804597
 20
533.8432888680395
 30
0.0
 11
631.1630392804597
 21
546.8432888680395
 31
0.0
  0
LINE
  5
1994E
102
{ACAD_REACTORS
330
19989
102
}
330
18
100
AcDbEntity
  8
0
100
AcDbLine
 10
614.9130392804598
 20
546.8432888680395
 30
0.0
 11
614.9130392804598
 21
533.8432888680395
 31
0.0
  0
LINE
  5
1994F
102
{ACAD_REACTORS
330
19989
102
}
330
18
100
AcDbEntity
  8
0
100
AcDbLine
 10
622.1630392804597
 20
533.8432888680395
 30
0.0
 11
622.1630392804597
 21
546.8432888680395
 31
0.0
  0
LINE
  5
19950
102
{ACAD_REACTORS
330
19989
102
}
330
18
100
AcDbEntity
  8
0
100
AcDbLine
 10
619.1630392804597
 20
533.8432888680395
 30
0.0
 11
619.1630392804597
 21
546.8432888680395
 31
0.0
  0
LINE
  5
19951
102
{ACAD_REACTORS
330
19989
102
}
330
18
100
AcDbEntity
  8
0
100
AcDbLine
 10
625.1630392804598
 20
533.8432888680395
 30
0.0
 11
625.1630392804598
 21
546.8432888680395
 31
0.0
  0
LINE
  5
19952
102
{ACAD_REACTORS
330
19989
102
}
330
18
100
AcDbEntity
  8
0
100
AcDbLine
 10
619.1630392804597
 20
533.8432888680395
 30
0.0
 11
614.9130392804598
 21
533.8432888680395
 31
0.0
  0
LINE
  5
19953
102
{ACAD_REACTORS
330
19989
102
}
330
18
100
AcDbEntity
  8
0
100
AcDbLine
 10
618.6630392804597
 20
532.8432888680395
 30
0.0
 11
619.1630392804597
 21
533.8432888680395
 31
0.0
  0
LINE
  5
19954
102
{ACAD_REACTORS
330
19989
102
}
330
18
100
AcDbEntity
  8
0
100
AcDbLine
 10
614.9130392804598
 20
533.8432888680395
 30
0.0
 11
618.6630392804597
 21
532.8432888680395
 31
0.0
  0
LINE
  5
19955
102
{ACAD_REACTORS
330
19989
102
}
330
18
100
AcDbEntity
  8
0
100
AcDbLine
 10
631.1630392804597
 20
533.8432888680395
 30
0.0
 11
628.1630392804597
 21
533.8432888680395
 31
0.0
  0
LINE
  5
19956
102
{ACAD_REACTORS
330
19989
102
}
330
18
100
AcDbEntity
  8
0
100
AcDbLine
 10
625.1630392804598
 20
533.8432888680395
 30
0.0
 11
622.1630392804597
 21
533.8432888680395
 31
0.0
  0
LINE
  5
19957
102
{ACAD_REACTORS
330
19989
102
}
330
18
100
AcDbEntity
  8
0
100
AcDbLine
 10
634.1630392804598
 20
533.8432888680395
 30
0.0
 11
634.1630392804598
 21
546.8432888680395
 31
0.0
  0
LINE
  5
19958
102
{ACAD_REACTORS
330
19989
102
}
330
18
100
AcDbEntity
  8
0
100
AcDbLine
 10
637.1630392804597
 20
533.8432888680395
 30
0.0
 11
637.1630392804597
 21
546.8432888680395
 31
0.0
  0
LINE
  5
19959
102
{ACAD_REACTORS
330
19989
102
}
330
18
100
AcDbEntity
  8
0
100
AcDbLine
 10
640.1630392804597
 20
533.8432888680395
 30
0.0
 11
640.1630392804597
 21
546.8432888680395
 31
0.0
  0
LINE
  5
1995A
102
{ACAD_REACTORS
330
19989
102
}
330
18
100
AcDbEntity
  8
0
100
AcDbLine
 10
644.4130392804598
 20
533.8432888680395
 30
0.0
 11
644.4130392804598
 21
546.8432888680395
 31
0.0
  0
LINE
  5
1995B
102
{ACAD_REACTORS
330
19989
102
}
330
18
100
AcDbEntity
  8
0
100
AcDbLine
 10
644.4130392804598
 20
533.8432888680395
 30
0.0
 11
640.1630392804597
 21
533.8432888680395
 31
0.0
  0
LINE
  5
1995C
102
{ACAD_REACTORS
330
19989
102
}
330
18
100
AcDbEntity
  8
0
100
AcDbLine
 10
644.4130392804598
 20
533.8432888680395
 30
0.0
 11
640.6630392804597
 21
532.8432888680395
 31
0.0
  0
LINE
  5
1995D
102
{ACAD_REACTORS
330
19989
102
}
330
18
100
AcDbEntity
  8
0
100
AcDbLine
 10
637.1630392804597
 20
533.8432888680395
 30
0.0
 11
634.1630392804598
 21
533.8432888680395
 31
0.0
  0
LINE
  5
1995E
102
{ACAD_REACTORS
330
19989
102
}
330
18
100
AcDbEntity
  8
0
100
AcDbLine
 10
640.6630392804597
 20
532.8432888680395
 30
0.0
 11
640.1630392804597
 21
533.8432888680395
 31
0.0
  0
LINE
  5
1996D
102
{ACAD_REACTORS
330
19988
102
}
330
18
100
AcDbEntity
  8
0
100
AcDbLine
 10
630.7630392804601
 20
494.6378834626343
 30
0.0
 11
633.1630392804602
 21
508.8432888680395
 31
0.0
  0
LINE
  5
1996E
102
{ACAD_REACTORS
330
19988
102
}
330
18
100
AcDbEntity
  8
0
100
AcDbLine
 10
630.9455896160304
 20
493.5573828277706
 30
0.0
 11
633.5630392804598
 21
508.8432888680395
 31
0.0
  0
LINE
  5
1996F
102
{ACAD_REACTORS
330
19988
102
}
330
18
100
AcDbEntity
  8
0
100
AcDbLine
 10
632.0630392804599
 20
486.9432888680393
 30
0.0
 11
628.36303928046
 21
508.8432888680395
 31
0.0
  0
LINE
  5
19970
102
{ACAD_REACTORS
330
19988
102
}
330
18
100
AcDbEntity
  8
0
100
AcDbLine
 10
629.6630392804598
 20
486.9432888680393
 30
0.0
 11
625.9630392804599
 21
508.8432888680395
 31
0.0
  0
LINE
  5
19971
102
{ACAD_REACTORS
330
19988
102
}
330
18
100
AcDbEntity
  8
0
100
AcDbLine
 10
630.0630392804598
 20
486.9432888680393
 30
0.0
 11
626.36303928046
 21
508.8432888680395
 31
0.0
  0
LINE
  5
19972
102
{ACAD_REACTORS
330
19988
102
}
330
18
100
AcDbEntity
  8
0
100
AcDbLine
 10
627.6630392804597
 20
486.9432888680393
 30
0.0
 11
623.9630392804599
 21
508.8432888680395
 31
0.0
  0
LINE
  5
19973
102
{ACAD_REACTORS
330
19988
102
}
330
18
100
AcDbEntity
  8
0
100
AcDbLine
 10
631.9630392804599
 20
487.5351807599308
 30
0.0
 11
635.5630392804599
 21
508.8432888680395
 31
0.0
  0
LINE
  5
19974
102
{ACAD_REACTORS
330
19988
102
}
330
18
100
AcDbEntity
  8
0
100
AcDbLine
 10
629.5630392804598
 20
487.5351807599308
 30
0.0
 11
629.7630392804601
 21
488.7189645437151
 31
0.0
  0
LINE
  5
19975
102
{ACAD_REACTORS
330
19988
102
}
330
18
100
AcDbEntity
  8
0
100
AcDbLine
 10
628.5455896160303
 20
493.5573828277706
 30
0.0
 11
628.7469318979094
 21
494.7332217539451
 31
0.0
  0
LINE
  5
19976
102
{ACAD_REACTORS
330
19988
102
}
330
18
100
AcDbEntity
  8
0
100
AcDbLine
 10
629.7536433073057
 20
500.6124163848176
 30
0.0
 11
631.1630392804602
 21
508.8432888680395
 31
0.0
  0
LINE
  5
19977
102
{ACAD_REACTORS
330
19988
102
}
330
18
100
AcDbEntity
  8
0
100
AcDbLine
 10
629.8130392804599
 20
486.9432888680393
 30
0.0
 11
629.9388782066346
 21
487.6781881968981
 31
0.0
  0
LINE
  5
19978
102
{ACAD_REACTORS
330
19988
102
}
330
18
100
AcDbEntity
  8
0
100
AcDbLine
 10
627.4130392804602
 20
486.9432888680393
 30
0.0
 11
627.5388782066345
 21
487.6781881968981
 31
0.0
  0
LINE
  5
19979
102
{ACAD_REACTORS
330
19988
102
}
330
18
100
AcDbEntity
  8
0
100
AcDbLine
 10
625.91303928226
 20
486.9432888680393
 30
0.0
 11
633.4130392786603
 21
486.9432888680393
 31
0.0
  0
LINE
  5
19A57
330
18
100
AcDbEntity
  8
0
100
AcDbLine
 10
565.0402552046057
 20
515.4672888680391
 30
0.0
 11
565.5402552046057
 21
514.9672888680391
 31
0.0
  0
LINE
  5
19A59
330
18
100
AcDbEntity
  8
0
100
AcDbLine
 10
455.8402552046059
 20
514.7672888680387
 30
0.0
 11
533.240255204606
 21
514.767288868039
 31
0.0
  0
LINE
  5
19A61
330
18
100
AcDbEntity
  8
中心線
100
AcDbLine
 10
418.9768887382655
 20
312.267288868039
 30
0.0
 11
574.118654805008
 21
312.267288868039
 31
0.0
  0
ARC
  5
1A329
330
18
100
AcDbEntity
  8
中心線
100
AcDbCircle
 10
858.9862125977873
 20
312.2672888680389
 30
0.0
 40
90.0
100
AcDbArc
 50
250.0000000000007
 51
290.0000000000078
  0
CIRCLE
  5
1A32A
330
18
100
AcDbEntity
  8
0
100
AcDbCircle
 10
858.9862125977875
 20
312.2672888680389
 30
0.0
 40
135.0
  0
CIRCLE
  5
1A32B
330
18
100
AcDbEntity
  8
0
100
AcDbCircle
 10
858.9862125977875
 20
312.2672888680389
 30
0.0
 40
115.0249999999996
  0
CIRCLE
  5
1A32F
330
18
100
AcDbEntity
  8
CENTER
100
AcDbCircle
 10
858.9862125977875
 20
312.2672888680389
 30
0.0
 40
188.0000021790729
  0
LINE
  5
1A330
330
18
100
AcDbEntity
  8
中心線
100
AcDbLine
 10
858.9862125977877
 20
524.767288868039
 30
0.0
 11
858.9862125977875
 21
99.76728886803904
 31
0.0
  0
CIRCLE
  5
1A339
330
18
100
AcDbEntity
  8
細線
 48
5.0
100
AcDbCircle
 10
858.9862125977875
 20
124.267286688966
 30
0.0
 40
4.000000000002989
  0
LINE
  5
1A348
330
18
100
AcDbEntity
  8
中心線
 48
30.0
100
AcDbLine
 10
702.7475080353005
 20
222.0628307310485
 30
0.0
 11
689.3616570942622
 21
214.3345060869078
 31
0.0
  0
CIRCLE
  5
1A349
330
18
100
AcDbEntity
  8
ﾍ__ｽ
100
AcDbCircle
 10
696.1734347991814
 20
218.2672877785024
 30
0.0
 40
3.200000000000265
  0
CIRCLE
  5
1A34A
330
18
100
AcDbEntity
  8
細線
 48
5.0
100
AcDbCircle
 10
696.1734347991814
 20
218.2672877785024
 30
0.0
 40
4.000000000002989
  0
CIRCLE
  5
1A34D
330
18
100
AcDbEntity
  8
0
100
AcDbCircle
 10
858.986218537583
 20
222.2672968952125
 30
0.0
 40
7.564530200546926
  0
LWPOLYLINE
  5
1A34E
330
18
100
AcDbEntity
  8
0
100
AcDbPolyline
 90
        6
 70
     1
 43
0.0
 10
858.9862185375828
 20
232.6388955549899
 10
850.0041506203588
 20
227.4530962251011
 10
850.0041506203592
 20
217.0814975653239
 10
858.9862185375832
 20
211.8956982354351
 10
867.9682864548068
 20
217.0814975653237
 10
867.9682864548068
 20
227.4530962251011
  0
CIRCLE
  5
1A34F
330
18
100
AcDbEntity
  8
0
100
AcDbCircle
 10
858.9862125977871
 20
222.2672888680384
 30
0.0
 40
4.607147494343507
  0
CIRCLE
  5
1A350
330
18
100
AcDbEntity
  8
0
100
AcDbCircle
 10
858.9862125977871
 20
222.2672888680384
 30
0.0
 40
2.400000000000199
  0
CIRCLE
  5
1A354
330
18
100
AcDbEntity
  8
0
100
AcDbCircle
 10
858.9862125977875
 20
124.267286688966
 30
0.0
 40
3.200000000000265
  0
LINE
  5
1A366
330
18
100
AcDbEntity
  8
中心線
 48
30.0
100
AcDbLine
 10
1015.224917160274
 20
222.0628307310485
 30
0.0
 11
1028.610768101313
 21
214.3345060869078
 31
0.0
  0
CIRCLE
  5
1A367
330
18
100
AcDbEntity
  8
細線
 48
5.0
100
AcDbCircle
 10
1021.798990396394
 20
218.2672877785024
 30
0.0
 40
4.000000000002989
  0
CIRCLE
  5
1A368
330
18
100
AcDbEntity
  8
ﾍ__ｽ
100
AcDbCircle
 10
1021.798990396394
 20
218.2672877785024
 30
0.0
 40
3.200000000000265
  0
LINE
  5
1A36E
330
18
100
AcDbEntity
  8
中心線
100
AcDbLine
 10
1071.486212597787
 20
312.267288868039
 30
0.0
 11
646.4862125977877
 21
312.267288868039
 31
0.0
  0
CIRCLE
  5
1A375
330
18
100
AcDbEntity
  8
0
100
AcDbCircle
 10
858.9862125977875
 20
312.2672888680389
 30
0.0
 40
32.5
  0
LINE
  5
1A37F
330
18
100
AcDbEntity
  8
中心線
 48
30.0
100
AcDbLine
 10
702.7475080353008
 20
402.4717470050295
 30
0.0
 11
689.3616570942624
 21
410.2000716491702
 31
0.0
  0
CIRCLE
  5
1A380
330
18
100
AcDbEntity
  8
ﾍ__ｽ
100
AcDbCircle
 10
696.1734347991805
 20
406.2672899575753
 30
0.0
 40
3.200000000000265
  0
CIRCLE
  5
1A381
330
18
100
AcDbEntity
  8
細線
 48
5.0
100
AcDbCircle
 10
696.1734347991805
 20
406.2672899575753
 30
0.0
 40
4.000000000002989
  0
ARC
  5
1A38A
330
18
100
AcDbEntity
  8
中心線
100
AcDbCircle
 10
858.9862125977873
 20
312.2672888680389
 30
0.0
 40
90.0
100
AcDbArc
 50
70.00000000000039
 51
109.999999999995
  0
LWPOLYLINE
  5
1A38B
330
18
100
AcDbEntity
  8
0
100
AcDbPolyline
 90
        6
 70
     1
 43
0.0
 10
858.9862066579918
 20
391.895682181088
 10
867.9682745752158
 20
397.0814815109769
 10
867.9682745752153
 20
407.4530801707541
 10
858.9862066579915
 20
412.6388795006429
 10
850.0041387407678
 20
407.4530801707543
 10
850.004138740768
 20
397.0814815109769
  0
CIRCLE
  5
1A38C
330
18
100
AcDbEntity
  8
0
100
AcDbCircle
 10
858.9862125977875
 20
402.2672888680395
 30
0.0
 40
4.607147494343507
  0
CIRCLE
  5
1A38D
330
18
100
AcDbEntity
  8
0
100
AcDbCircle
 10
858.9862066579916
 20
402.2672808408653
 30
0.0
 40
7.564530200546926
  0
CIRCLE
  5
1A38E
330
18
100
AcDbEntity
  8
0
100
AcDbCircle
 10
858.9862125977875
 20
402.2672888680395
 30
0.0
 40
2.400000000000199
  0
LINE
  5
1A394
330
18
100
AcDbEntity
  8
中心線
 48
30.0
100
AcDbLine
 10
1015.224917160274
 20
402.4717470050295
 30
0.0
 11
1028.610768101313
 21
410.2000716491702
 31
0.0
  0
CIRCLE
  5
1A395
330
18
100
AcDbEntity
  8
細線
 48
5.0
100
AcDbCircle
 10
1021.798990396394
 20
406.2672899575749
 30
0.0
 40
4.000000000002989
  0
CIRCLE
  5
1A396
330
18
100
AcDbEntity
  8
ﾍ__ｽ
100
AcDbCircle
 10
1021.798990396394
 20
406.2672899575749
 30
0.0
 40
3.200000000000265
  0
CIRCLE
  5
1A39B
330
18
100
AcDbEntity
  8
細線
 48
5.0
100
AcDbCircle
 10
858.9862125977875
 20
500.2672910471118
 30
0.0
 40
4.000000000002989
  0
CIRCLE
  5
1A3A9
330
18
100
AcDbEntity
  8
ﾍ__ｽ
100
AcDbCircle
 10
858.9862125977875
 20
500.2672910471118
 30
0.0
 40
3.200000000000265
  0
LINE
  5
1A443
330
18
100
AcDbEntity
  8
２点鎖線
 48
0.5
100
AcDbLine
 10
428.8702588460785
 20
332.2433662039559
 30
0.0
 11
418.8702588460785
 21
322.2433662039559
 31
0.0
  0
LINE
  5
1A444
330
18
100
AcDbEntity
  8
２点鎖線
 48
0.5
100
AcDbLine
 10
428.8702588460785
 20
332.2433662039559
 30
0.0
 11
466.0402552046056
 21
332.2433662039561
 31
0.0
  0
LINE
  5
1A445
330
18
100
AcDbEntity
  8
２点鎖線
 48
0.5
100
AcDbLine
 10
466.0402552046056
 20
292.2433662039559
 30
0.0
 11
428.8702588460785
 21
292.2433662039559
 31
0.0
  0
CIRCLE
  5
1A446
330
18
100
AcDbEntity
  8
２点鎖線
 48
0.5
100
AcDbCircle
 10
438.870258846079
 20
312.2433662040357
 30
0.0
 40
10.0
  0
CIRCLE
  5
1A447
330
18
100
AcDbEntity
  8
２点鎖線
 48
0.5
100
AcDbCircle
 10
462.0402552046051
 20
322.267288868039
 30
0.0
 40
4.25
  0
LINE
  5
1A448
330
18
100
AcDbEntity
  8
２点鎖線
 48
0.5
100
AcDbLine
 10
469.0402552046056
 20
329.2433662039561
 30
0.0
 11
469.0402552046056
 21
295.2433662039559
 31
0.0
  0
LINE
  5
1A449
330
18
100
AcDbEntity
  8
CENTER
 48
0.5
100
AcDbLine
 10
462.0402552046051
 20
328.2230755706771
 30
0.0
 11
462.0402552046051
 21
295.4293038974358
 31
0.0
  0
CIRCLE
  5
1A44A
330
18
100
AcDbEntity
  8
２点鎖線
 48
0.5
100
AcDbCircle
 10
462.0402552046051
 20
302.267288868039
 30
0.0
 40
4.25
  0
LINE
  5
1A44B
330
18
100
AcDbEntity
  8
２点鎖線
 48
0.5
100
AcDbLine
 10
469.0402552046056
 20
295.2433662039559
 30
0.0
 11
466.0402552046056
 21
292.2433662039559
 31
0.0
  0
LINE
  5
1A44C
330
18
100
AcDbEntity
  8
中心線
 48
0.5
100
AcDbLine
 10
455.9597700035054
 20
302.267288868039
 30
0.0
 11
467.9878832025659
 21
302.267288868039
 31
0.0
  0
LINE
  5
1A44D
330
18
100
AcDbEntity
  8
中心線
 48
0.5
100
AcDbLine
 10
455.9597700035054
 20
322.267288868039
 30
0.0
 11
467.9878832025659
 21
322.267288868039
 31
0.0
  0
LINE
  5
1A44E
330
18
100
AcDbEntity
  8
２点鎖線
 48
0.5
100
AcDbLine
 10
469.0402552046056
 20
329.2433662039561
 30
0.0
 11
466.0402552046056
 21
332.2433662039561
 31
0.0
  0
LINE
  5
1A44F
330
18
100
AcDbEntity
  8
CENTER
100
AcDbLine
 10
438.8702588460787
 20
336.3618195403105
 30
0.0
 11
438.8702588460787
 21
288.2794031168159
 31
0.0
  0
LINE
  5
1A450
330
18
100
AcDbEntity
  8
２点鎖線
 48
0.5
100
AcDbLine
 10
418.8702588460785
 20
302.2433662039559
 30
0.0
 11
418.8702588460785
 21
322.2433662039559
 31
0.0
  0
LINE
  5
1A451
330
18
100
AcDbEntity
  8
２点鎖線
 48
0.5
100
AcDbLine
 10
418.8702588460785
 20
302.2433662039559
 30
0.0
 11
428.8702588460785
 21
292.2433662039559
 31
0.0
  0
CIRCLE
  5
1A570
330
18
100
AcDbEntity
  8
0
100
AcDbCircle
 10
126.3226647907831
 20
312.2672888680397
 30
0.0
 40
130.0
  0
CIRCLE
  5
1A571
330
18
100
AcDbEntity
  8
中心線
100
AcDbCircle
 10
126.3226647907831
 20
312.2672888680397
 30
0.0
 40
110.0
  0
CIRCLE
  5
1A572
330
18
100
AcDbEntity
  8
0
100
AcDbCircle
 10
126.3226647907831
 20
312.2672888680397
 30
0.0
 40
150.0
  0
LWPOLYLINE
  5
1A577
330
18
100
AcDbEntity
  8
細線
 48
5.0
100
AcDbPolyline
 90
        6
 70
     1
 43
0.0
 10
149.0404605526812
 20
346.9083050194168
 10
147.6815626717325
 20
349.2619851915173
 10
144.9637669098347
 20
349.2619851915173
 10
143.6048690288856
 20
346.9083050194157
 10
144.9637669098353
 20
344.5546248473156
 10
147.6815626717325
 20
344.554624847316
  0
CIRCLE
  5
1A578
330
18
100
AcDbEntity
  8
0
100
AcDbCircle
 10
146.3226647907835
 20
346.9083050194167
 30
0.0
 40
5.588235294117647
  0
CIRCLE
  5
1A579
330
18
100
AcDbEntity
  8
細線
 48
5.0
100
AcDbCircle
 10
146.3226647907835
 20
346.9083050194167
 30
0.0
 40
5.0
  0
LINE
  5
1A58C
102
{ACAD_REACTORS
330
1A692
102
}
330
18
100
AcDbEntity
  8
仮想線
 48
0.5
100
AcDbLine
 10
340.6226594832305
 20
326.2966784833196
 30
0.0
 11
340.6226594832305
 21
318.39667848332
 31
0.0
  0
LINE
  5
1A58D
102
{ACAD_REACTORS
330
1A692
102
}
330
18
100
AcDbEntity
  8
仮想線
 48
0.5
100
AcDbLine
 10
334.3226594832314
 20
322.2672888680394
 30
0.0
 11
334.3226594832303
 21
317.2672888680394
 31
0.0
  0
LINE
  5
1A58E
102
{ACAD_REACTORS
330
1A692
102
}
330
18
100
AcDbEntity
  8
仮想線
 48
0.5
100
AcDbLine
 10
335.6226594832305
 20
326.8672888680393
 30
0.0
 11
335.6226594832305
 21
317.6672888680395
 31
0.0
  0
LINE
  5
1A58F
102
{ACAD_REACTORS
330
1A692
102
}
330
18
100
AcDbEntity
  8
仮想線
 48
0.5
100
AcDbLine
 10
333.3226542174823
 20
332.3466784833205
 30
0.0
 11
333.3226752804761
 21
292.3466784833198
 31
0.0
  0
LINE
  5
1A590
102
{ACAD_REACTORS
330
1A692
102
}
330
18
100
AcDbEntity
  8
仮想線
  6
BYBLOCK
 48
0.5
100
AcDbLine
 10
328.8226542174815
 20
332.3466784833203
 30
0.0
 11
328.8226752804756
 21
292.3466784833203
 31
0.0
  0
LINE
  5
1A591
102
{ACAD_REACTORS
330
1A692
102
}
330
18
100
AcDbEntity
  8
中心線
 48
0.5
100
AcDbLine
 10
318.2896601649338
 20
302.2672888680396
 30
0.0
 11
343.3805232071058
 21
302.2672888680396
 31
0.0
  0
LINE
  5
1A592
102
{ACAD_REACTORS
330
1A692
102
}
330
18
100
AcDbEntity
  8
仮想線
 48
0.5
100
AcDbLine
 10
340.6226594832305
 20
298.2378992527594
 30
0.0
 11
340.6226594832305
 21
306.137899252759
 31
0.0
  0
LINE
  5
1A593
102
{ACAD_REACTORS
330
1A692
102
}
330
18
100
AcDbEntity
  8
仮想線
 48
0.5
100
AcDbLine
 10
334.3226594832314
 20
302.2672888680394
 30
0.0
 11
334.3226594832303
 21
307.2672888680396
 31
0.0
  0
LINE
  5
1A594
102
{ACAD_REACTORS
330
1A692
102
}
330
18
100
AcDbEntity
  8
仮想線
 48
0.5
100
AcDbLine
 10
335.6226594832305
 20
297.6672888680397
 30
0.0
 11
335.6226594832305
 21
306.8672888680395
 31
0.0
  0
LINE
  5
1A595
102
{ACAD_REACTORS
330
1A692
102
}
330
18
100
AcDbEntity
  8
仮想線
 48
0.5
100
AcDbLine
 10
335.6226594832305
 20
297.9378992527592
 30
0.0
 11
340.3226594832303
 21
297.9378992527592
 31
0.0
  0
LINE
  5
1A596
102
{ACAD_REACTORS
330
1A692
102
}
330
18
100
AcDbEntity
  8
仮想線
 48
0.5
100
AcDbLine
 10
340.6226594832305
 20
298.2378992527594
 30
0.0
 11
340.3226594832303
 21
297.9378992527592
 31
0.0
  0
LINE
  5
1A597
102
{ACAD_REACTORS
330
1A692
102
}
330
18
100
AcDbEntity
  8
仮想線
 48
0.5
100
AcDbLine
 10
334.3226594832303
 20
297.2672888680396
 30
0.0
 11
334.3226594832312
 21
302.2672888680394
 31
0.0
  0
LINE
  5
1A598
102
{ACAD_REACTORS
330
1A692
102
}
330
18
100
AcDbEntity
  8
仮想線
 48
0.5
100
AcDbLine
 10
334.3226594832308
 20
297.6672888680397
 30
0.0
 11
335.6226594832305
 21
297.6672888680397
 31
0.0
  0
LINE
  5
1A599
102
{ACAD_REACTORS
330
1A692
102
}
330
18
100
AcDbEntity
  8
仮想線
 48
0.5
100
AcDbLine
 10
333.3226594832304
 20
297.2672888680398
 30
0.0
 11
334.3226594832303
 21
297.2672888680396
 31
0.0
  0
LINE
  5
1A59A
102
{ACAD_REACTORS
330
1A692
102
}
330
18
100
AcDbEntity
  8
仮想線
  6
BYBLOCK
 48
0.5
100
AcDbLine
 10
333.3226752804761
 20
292.3466784833198
 30
0.0
 11
328.8226752804756
 21
292.3466784833203
 31
0.0
  0
LINE
  5
1A59B
102
{ACAD_REACTORS
330
1A692
102
}
330
18
100
AcDbEntity
  8
仮想線
 48
0.5
100
AcDbLine
 10
335.6226594832305
 20
318.0966784833198
 30
0.0
 11
340.3226594832308
 21
318.0966784833198
 31
0.0
  0
LINE
  5
1A59C
102
{ACAD_REACTORS
330
1A692
102
}
330
18
100
AcDbEntity
  8
仮想線
 48
0.5
100
AcDbLine
 10
340.3226594832308
 20
318.0966784833198
 30
0.0
 11
340.6226594832305
 21
318.39667848332
 31
0.0
  0
LINE
  5
1A59D
102
{ACAD_REACTORS
330
1A692
102
}
330
18
100
AcDbEntity
  8
仮想線
 48
0.5
100
AcDbLine
 10
335.6226594832305
 20
306.4378992527592
 30
0.0
 11
340.3226594832308
 21
306.4378992527592
 31
0.0
  0
LINE
  5
1A59E
102
{ACAD_REACTORS
330
1A692
102
}
330
18
100
AcDbEntity
  8
仮想線
 48
0.5
100
AcDbLine
 10
340.3226594832308
 20
306.4378992527592
 30
0.0
 11
340.6226594832305
 21
306.137899252759
 31
0.0
  0
LINE
  5
1A59F
102
{ACAD_REACTORS
330
1A692
102
}
330
18
100
AcDbEntity
  8
仮想線
 48
0.5
100
AcDbLine
 10
334.3226594832308
 20
317.6672888680395
 30
0.0
 11
335.6226594832305
 21
317.6672888680395
 31
0.0
  0
LINE
  5
1A5A0
102
{ACAD_REACTORS
330
1A692
102
}
330
18
100
AcDbEntity
  8
仮想線
 48
0.5
100
AcDbLine
 10
333.3226594832304
 20
317.2672888680394
 30
0.0
 11
334.3226594832303
 21
317.2672888680394
 31
0.0
  0
LINE
  5
1A5A1
102
{ACAD_REACTORS
330
1A692
102
}
330
18
100
AcDbEntity
  8
仮想線
 48
0.5
100
AcDbLine
 10
334.3226594832308
 20
306.8672888680395
 30
0.0
 11
335.6226594832305
 21
306.8672888680395
 31
0.0
  0
LINE
  5
1A5A2
102
{ACAD_REACTORS
330
1A692
102
}
330
18
100
AcDbEntity
  8
仮想線
 48
0.5
100
AcDbLine
 10
333.3226594832304
 20
307.2672888680396
 30
0.0
 11
334.3226594832303
 21
307.2672888680396
 31
0.0
  0
LINE
  5
1A5A3
102
{ACAD_REACTORS
330
1A692
102
}
330
18
100
AcDbEntity
  8
中心線
 48
0.5
100
AcDbLine
 10
318.2896601649338
 20
322.2672888680392
 30
0.0
 11
343.3805232071058
 21
322.2672888680394
 31
0.0
  0
LINE
  5
1A5A4
102
{ACAD_REACTORS
330
1A692
102
}
330
18
100
AcDbEntity
  8
仮想線
 48
0.5
100
AcDbLine
 10
328.8226542174816
 20
332.3466784833203
 30
0.0
 11
333.3226542174823
 21
332.3466784833205
 31
0.0
  0
LINE
  5
1A5A5
102
{ACAD_REACTORS
330
1A692
102
}
330
18
100
AcDbEntity
  8
仮想線
 48
0.5
100
AcDbLine
 10
334.3226594832303
 20
327.2672888680394
 30
0.0
 11
334.3226594832314
 21
322.2672888680394
 31
0.0
  0
LINE
  5
1A5A6
102
{ACAD_REACTORS
330
1A692
102
}
330
18
100
AcDbEntity
  8
仮想線
 48
0.5
100
AcDbLine
 10
334.3226594832308
 20
326.8672888680393
 30
0.0
 11
335.6226594832305
 21
326.8672888680393
 31
0.0
  0
LINE
  5
1A5A7
102
{ACAD_REACTORS
330
1A692
102
}
330
18
100
AcDbEntity
  8
仮想線
 48
0.5
100
AcDbLine
 10
333.3226594832304
 20
327.2672888680391
 30
0.0
 11
334.3226594832303
 21
327.2672888680394
 31
0.0
  0
LINE
  5
1A5A8
102
{ACAD_REACTORS
330
1A692
102
}
330
18
100
AcDbEntity
  8
仮想線
 48
0.5
100
AcDbLine
 10
340.6226594832305
 20
326.2966784833196
 30
0.0
 11
340.3226594832303
 21
326.5966784833198
 31
0.0
  0
LINE
  5
1A5A9
102
{ACAD_REACTORS
330
1A692
102
}
330
18
100
AcDbEntity
  8
仮想線
 48
0.5
100
AcDbLine
 10
335.6226594832305
 20
326.5966784833198
 30
0.0
 11
340.3226594832303
 21
326.5966784833198
 31
0.0
  0
CIRCLE
  5
1A5AC
330
18
100
AcDbEntity
  8
細線
 48
5.0
100
AcDbCircle
 10
78.48723574514679
 20
196.7823473041289
 30
0.0
 40
2.399999999999999
  0
CIRCLE
  5
1A5AD
330
18
100
AcDbEntity
  8
細線
 48
5.0
100
AcDbCircle
 10
78.48723574514679
 20
196.7823473041289
 30
0.0
 40
3.0
  0
CIRCLE
  5
1A5B1
330
18
100
AcDbEntity
  8
細線
 48
5.0
100
AcDbCircle
 10
37.9343171424648
 20
223.8789412197213
 30
0.0
 40
2.399999999999999
  0
CIRCLE
  5
1A5B2
330
18
100
AcDbEntity
  8
細線
 48
5.0
100
AcDbCircle
 10
37.9343171424648
 20
223.8789412197213
 30
0.0
 40
3.0
  0
CIRCLE
  5
1A5B5
330
18
100
AcDbEntity
  8
0
100
AcDbCircle
 10
71.32266479078168
 20
217.004494451752
 30
0.0
 40
3.277999999999999
  0
LINE
  5
1A5B6
330
18
100
AcDbEntity
  8
CENTER
100
AcDbLine
 10
75.60117194342706
 20
224.4150862206775
 30
0.0
 11
67.07130522931379
 21
209.6409236900426
 31
0.0
  0
CIRCLE
  5
1A5B7
330
18
100
AcDbEntity
  8
細線
 48
5.0
100
AcDbCircle
 10
71.32266479078168
 20
217.004494451752
 30
0.0
 40
4.0
  0
CIRCLE
  5
1A5BB
330
18
100
AcDbEntity
  8
細線
 48
5.0
100
AcDbCircle
 10
10.83772322687218
 20
264.4318598224035
 30
0.0
 40
3.0
  0
CIRCLE
  5
1A5BC
330
18
100
AcDbEntity
  8
細線
 48
5.0
100
AcDbCircle
 10
10.83772322687218
 20
264.4318598224035
 30
0.0
 40
2.399999999999999
  0
SOLID
  5
1A5BF
330
18
100
AcDbEntity
  8
0
  6
BYBLOCK
 62
     0
100
AcDbTrace
 10
-28.17733520921683
 20
314.5766899480396
 30
0.0
 11
-24.17733520921683
 21
312.2672888680396
 31
0.0
 12
-28.17733520921683
 22
309.9578877880395
 32
0.0
 13
-28.17733520921683
 23
309.9578877880395
 33
0.0
  0
SOLID
  5
1A5C0
330
18
100
AcDbEntity
  8
0
  6
BYBLOCK
 62
     0
100
AcDbTrace
 10
-19.17733520921683
 20
314.5766899480396
 30
0.0
 11
-23.17733520921683
 21
312.2672888680396
 31
0.0
 12
-19.17733520921683
 22
309.9578877880395
 32
0.0
 13
-19.17733520921683
 23
309.9578877880395
 33
0.0
  0
CIRCLE
  5
1A5C2
330
18
100
AcDbEntity
  8
細線
 48
5.0
100
AcDbCircle
 10
1.322664790783164
 20
312.2672888680397
 30
0.0
 40
3.0
  0
CIRCLE
  5
1A5C3
330
18
100
AcDbEntity
  8
細線
 48
5.0
100
AcDbCircle
 10
1.322664790783164
 20
312.2672888680397
 30
0.0
 40
2.399999999999999
  0
CIRCLE
  5
1A5C5
330
18
100
AcDbEntity
  8
0
100
AcDbCircle
 10
16.32266479078316
 20
312.2672888680412
 30
0.0
 40
3.277999999999999
  0
CIRCLE
  5
1A5C6
330
18
100
AcDbEntity
  8
細線
 48
5.0
100
AcDbCircle
 10
16.32266479078316
 20
312.2672888680412
 30
0.0
 40
4.0
  0
CIRCLE
  5
1A5CB
330
18
100
AcDbEntity
  8
細線
 48
5.0
100
AcDbCircle
 10
126.3226647907831
 20
187.2672888680394
 30
0.0
 40
2.399999999999999
  0
CIRCLE
  5
1A5CC
330
18
100
AcDbEntity
  8
細線
 48
5.0
100
AcDbCircle
 10
126.3226647907831
 20
187.2672888680394
 30
0.0
 40
3.0
  0
CIRCLE
  5
1A5D1
330
18
100
AcDbEntity
  8
細線
 48
5.0
100
AcDbCircle
 10
174.1580938364195
 20
196.7823473041285
 30
0.0
 40
2.399999999999999
  0
CIRCLE
  5
1A5D2
330
18
100
AcDbEntity
  8
細線
 48
5.0
100
AcDbCircle
 10
174.1580938364195
 20
196.7823473041285
 30
0.0
 40
3.0
  0
LINE
  5
1A5D3
330
18
100
AcDbEntity
  8
CENTER
100
AcDbLine
 10
177.0441576381397
 20
224.4150862206777
 30
0.0
 11
185.5740243522529
 21
209.6409236900429
 31
0.0
  0
CIRCLE
  5
1A5D4
330
18
100
AcDbEntity
  8
細線
 48
5.0
100
AcDbCircle
 10
181.3226647907848
 20
217.0044944517523
 30
0.0
 40
4.0
  0
CIRCLE
  5
1A5D5
330
18
100
AcDbEntity
  8
0
100
AcDbCircle
 10
181.3226647907848
 20
217.0044944517523
 30
0.0
 40
3.277999999999999
  0
CIRCLE
  5
1A5D8
330
18
100
AcDbEntity
  8
細線
 48
5.0
100
AcDbCircle
 10
86.32266479078342
 20
312.2672888680393
 30
0.0
 40
5.0
  0
LWPOLYLINE
  5
1A5D9
330
18
100
AcDbEntity
  8
細線
 48
5.0
100
AcDbPolyline
 90
        6
 70
     1
 43
0.0
 10
84.96376690983447
 20
314.6209690401402
 10
83.60486902888599
 20
312.2672888680396
 10
84.96376690983501
 20
309.9136086959384
 10
87.68156267173301
 20
309.9136086959384
 10
89.04046055268072
 20
312.2672888680398
 10
87.68156267173182
 20
314.6209690401402
  0
CIRCLE
  5
1A5DA
330
18
100
AcDbEntity
  8
0
100
AcDbCircle
 10
86.32266479078342
 20
312.2672888680393
 30
0.0
 40
5.588235294117647
  0
CIRCLE
  5
1A5DB
330
18
100
AcDbEntity
  8
0
100
AcDbCircle
 10
106.3226647907832
 20
277.6262727166616
 30
0.0
 40
5.588235294117647
  0
LWPOLYLINE
  5
1A5DC
330
18
100
AcDbEntity
  8
細線
 48
5.0
100
AcDbPolyline
 90
        6
 70
     1
 43
0.0
 10
103.6048690288856
 20
277.6262727166615
 10
104.9637669098342
 20
275.272592544561
 10
107.681562671732
 20
275.2725925445611
 10
109.040460552681
 20
277.6262727166624
 10
107.6815626717314
 20
279.9799528887628
 10
104.9637669098343
 20
279.9799528887624
  0
CIRCLE
  5
1A5DD
330
18
100
AcDbEntity
  8
細線
 48
5.0
100
AcDbCircle
 10
106.3226647907832
 20
277.6262727166616
 30
0.0
 40
5.0
  0
CIRCLE
  5
1A5DE
330
18
100
AcDbEntity
  8
細線
 48
5.0
100
AcDbCircle
 10
106.3226647907835
 20
346.9083050194167
 30
0.0
 40
5.0
  0
CIRCLE
  5
1A5DF
330
18
100
AcDbEntity
  8
0
100
AcDbCircle
 10
106.3226647907835
 20
346.9083050194167
 30
0.0
 40
5.588235294117647
  0
LWPOLYLINE
  5
1A5E0
330
18
100
AcDbEntity
  8
細線
 48
5.0
100
AcDbPolyline
 90
        6
 70
     1
 43
0.0
 10
107.6815626717323
 20
349.261985191518
 10
104.963766909835
 20
349.2619851915176
 10
103.6048690288862
 20
346.9083050194164
 10
104.9637669098353
 20
344.5546248473151
 10
107.6815626717327
 20
344.5546248473164
 10
109.0404605526809
 20
346.908305019417
  0
LWPOLYLINE
  5
1A5E1
330
18
100
AcDbEntity
  8
細線
 48
5.0
100
AcDbPolyline
 90
        6
 70
     1
 43
0.0
 10
144.9637669098344
 20
275.2725925445604
 10
147.6815626717316
 20
275.2725925445604
 10
149.0404605526805
 20
277.6262727166617
 10
147.6815626717314
 20
279.979952888763
 10
144.9637669098341
 20
279.9799528887619
 10
143.6048690288858
 20
277.6262727166611
  0
CIRCLE
  5
1A5E2
330
18
100
AcDbEntity
  8
細線
 48
5.0
100
AcDbCircle
 10
146.3226647907831
 20
277.6262727166614
 30
0.0
 40
5.0
  0
CIRCLE
  5
1A5E3
330
18
100
AcDbEntity
  8
0
100
AcDbCircle
 10
146.3226647907831
 20
277.6262727166614
 30
0.0
 40
5.588235294117647
  0
CIRCLE
  5
1A5E4
330
18
100
AcDbEntity
  8
0
100
AcDbCircle
 10
166.3226647907834
 20
312.2672888680392
 30
0.0
 40
5.588235294117647
  0
LWPOLYLINE
  5
1A5E5
330
18
100
AcDbEntity
  8
細線
 48
5.0
100
AcDbPolyline
 90
        6
 70
     1
 43
0.0
 10
167.6815626717323
 20
309.913608695938
 10
169.0404605526806
 20
312.2672888680385
 10
167.6815626717317
 20
314.6209690401397
 10
164.9637669098338
 20
314.6209690401398
 10
163.604869028886
 20
312.2672888680384
 10
164.9637669098348
 20
309.9136086959378
  0
CIRCLE
  5
1A5E6
330
18
100
AcDbEntity
  8
細線
 48
5.0
100
AcDbCircle
 10
166.3226647907834
 20
312.2672888680392
 30
0.0
 40
5.0
  0
CIRCLE
  5
1A5F0
330
18
100
AcDbEntity
  8
細線
 48
5.0
100
AcDbCircle
 10
78.48723574514747
 20
427.7522304319508
 30
0.0
 40
2.399999999999999
  0
CIRCLE
  5
1A5F1
330
18
100
AcDbEntity
  8
細線
 48
5.0
100
AcDbCircle
 10
78.48723574514747
 20
427.7522304319508
 30
0.0
 40
3.0
  0
CIRCLE
  5
1A5F5
330
18
100
AcDbEntity
  8
細線
 48
5.0
100
AcDbCircle
 10
10.83772322687263
 20
360.1027179136762
 30
0.0
 40
3.0
  0
CIRCLE
  5
1A5F6
330
18
100
AcDbEntity
  8
細線
 48
5.0
100
AcDbCircle
 10
10.83772322687263
 20
360.1027179136762
 30
0.0
 40
2.399999999999999
  0
CIRCLE
  5
1A5F9
330
18
100
AcDbEntity
  8
0
100
AcDbCircle
 10
71.3226647907843
 20
407.5300832843285
 30
0.0
 40
3.277999999999999
  0
LINE
  5
1A5FA
330
18
100
AcDbEntity
  8
CENTER
100
AcDbLine
 10
75.60117194342706
 20
400.1194915154018
 30
0.0
 11
67.07130522931357
 21
414.8936540460371
 31
0.0
  0
CIRCLE
  5
1A5FB
330
18
100
AcDbEntity
  8
細線
 48
5.0
100
AcDbCircle
 10
71.3226647907843
 20
407.5300832843285
 30
0.0
 40
4.0
  0
CIRCLE
  5
1A5FC
330
18
100
AcDbEntity
  8
細線
 48
5.0
100
AcDbCircle
 10
37.93431714246503
 20
400.6556365163581
 30
0.0
 40
2.399999999999999
  0
CIRCLE
  5
1A5FD
330
18
100
AcDbEntity
  8
細線
 48
5.0
100
AcDbCircle
 10
37.93431714246503
 20
400.6556365163581
 30
0.0
 40
3.0
  0
CIRCLE
  5
1A608
330
18
100
AcDbEntity
  8
細線
 48
5.0
100
AcDbCircle
 10
126.3226647907836
 20
437.2672888680398
 30
0.0
 40
2.399999999999999
  0
CIRCLE
  5
1A609
330
18
100
AcDbEntity
  8
細線
 48
5.0
100
AcDbCircle
 10
126.3226647907836
 20
437.2672888680398
 30
0.0
 40
3.0
  0
LINE
  5
1A60A
330
18
100
AcDbEntity
  8
CENTER
100
AcDbLine
 10
177.0441576381397
 20
400.1194915154022
 30
0.0
 11
185.5740243522525
 21
414.8936540460371
 31
0.0
  0
CIRCLE
  5
1A60B
330
18
100
AcDbEntity
  8
細線
 48
5.0
100
AcDbCircle
 10
181.3226647907818
 20
407.5300832843289
 30
0.0
 40
4.0
  0
CIRCLE
  5
1A60C
330
18
100
AcDbEntity
  8
0
100
AcDbCircle
 10
181.3226647907818
 20
407.5300832843289
 30
0.0
 40
3.277999999999999
  0
CIRCLE
  5
1A610
330
18
100
AcDbEntity
  8
細線
 48
5.0
100
AcDbCircle
 10
174.1580938364195
 20
427.7522304319508
 30
0.0
 40
3.0
  0
CIRCLE
  5
1A611
330
18
100
AcDbEntity
  8
細線
 48
5.0
100
AcDbCircle
 10
174.1580938364195
 20
427.7522304319508
 30
0.0
 40
2.399999999999999
  0
LINE
  5
1A612
102
{ACAD_REACTORS
330
1A691
102
}
330
18
100
AcDbEntity
  8
仮想線
 48
0.5
100
AcDbLine
 10
-82.97732990166412
 20
326.8672888680398
 30
0.0
 11
-82.97732990166412
 21
317.6672888680399
 31
0.0
  0
LINE
  5
1A613
102
{ACAD_REACTORS
330
1A691
102
}
330
18
100
AcDbEntity
  8
仮想線
 48
0.5
100
AcDbLine
 10
-81.67732990166507
 20
322.2672888680401
 30
0.0
 11
-81.67732990166394
 21
317.2672888680398
 31
0.0
  0
LINE
  5
1A614
102
{ACAD_REACTORS
330
1A691
102
}
330
18
100
AcDbEntity
  8
仮想線
 48
0.5
100
AcDbLine
 10
-87.97732990166412
 20
326.2966784833201
 30
0.0
 11
-87.97732990166412
 21
318.3966784833204
 31
0.0
  0
LINE
  5
1A615
102
{ACAD_REACTORS
330
1A691
102
}
330
18
100
AcDbEntity
  8
仮想線
  6
BYBLOCK
 48
0.5
100
AcDbLine
 10
-76.17732463591517
 20
292.1878992527592
 30
0.0
 11
-76.17734569890934
 21
332.1878992527592
 31
0.0
  0
LINE
  5
1A616
102
{ACAD_REACTORS
330
1A691
102
}
330
18
100
AcDbEntity
  8
仮想線
 48
0.5
100
AcDbLine
 10
-80.67732463591609
 20
292.1878992527589
 30
0.0
 11
-80.67734569890978
 21
332.1878992527596
 31
0.0
  0
LINE
  5
1A617
102
{ACAD_REACTORS
330
1A691
102
}
330
18
100
AcDbEntity
  8
仮想線
 48
0.5
100
AcDbLine
 10
-87.97732990166412
 20
298.2378992527598
 30
0.0
 11
-87.97732990166412
 21
306.1378992527595
 31
0.0
  0
LINE
  5
1A618
102
{ACAD_REACTORS
330
1A691
102
}
330
18
100
AcDbEntity
  8
仮想線
 48
0.5
100
AcDbLine
 10
-82.97732990166412
 20
297.6672888680401
 30
0.0
 11
-82.97732990166412
 21
306.86728886804
 31
0.0
  0
LINE
  5
1A619
102
{ACAD_REACTORS
330
1A691
102
}
330
18
100
AcDbEntity
  8
仮想線
 48
0.5
100
AcDbLine
 10
-81.67732990166507
 20
302.2672888680401
 30
0.0
 11
-81.67732990166394
 21
307.2672888680401
 31
0.0
  0
LINE
  5
1A61A
102
{ACAD_REACTORS
330
1A691
102
}
330
18
100
AcDbEntity
  8
仮想線
 48
0.5
100
AcDbLine
 10
-82.97732990166412
 20
297.9378992527596
 30
0.0
 11
-87.67732990166393
 21
297.9378992527596
 31
0.0
  0
LINE
  5
1A61B
102
{ACAD_REACTORS
330
1A691
102
}
330
18
100
AcDbEntity
  8
仮想線
 48
0.5
100
AcDbLine
 10
-87.97732990166412
 20
298.2378992527598
 30
0.0
 11
-87.67732990166393
 21
297.9378992527596
 31
0.0
  0
LINE
  5
1A61C
102
{ACAD_REACTORS
330
1A691
102
}
330
18
100
AcDbEntity
  8
仮想線
 48
0.5
100
AcDbLine
 10
-80.67732990166394
 20
297.2672888680403
 30
0.0
 11
-81.67732990166394
 21
297.2672888680401
 31
0.0
  0
LINE
  5
1A61D
102
{ACAD_REACTORS
330
1A691
102
}
330
18
100
AcDbEntity
  8
仮想線
 48
0.5
100
AcDbLine
 10
-81.6773299016644
 20
297.6672888680401
 30
0.0
 11
-82.97732990166412
 21
297.6672888680401
 31
0.0
  0
LINE
  5
1A61E
102
{ACAD_REACTORS
330
1A691
102
}
330
18
100
AcDbEntity
  8
仮想線
 48
0.5
100
AcDbLine
 10
-81.67732990166394
 20
297.2672888680401
 30
0.0
 11
-81.67732990166507
 21
302.2672888680401
 31
0.0
  0
LINE
  5
1A61F
102
{ACAD_REACTORS
330
1A691
102
}
330
18
100
AcDbEntity
  8
仮想線
 48
0.5
100
AcDbLine
 10
-76.17732463591517
 20
292.1878992527592
 30
0.0
 11
-80.67732463591609
 21
292.1878992527589
 31
0.0
  0
LINE
  5
1A620
102
{ACAD_REACTORS
330
1A691
102
}
330
18
100
AcDbEntity
  8
仮想線
 48
0.5
100
AcDbLine
 10
-80.67732990166394
 20
317.2672888680398
 30
0.0
 11
-81.67732990166394
 21
317.2672888680398
 31
0.0
  0
LINE
  5
1A621
102
{ACAD_REACTORS
330
1A691
102
}
330
18
100
AcDbEntity
  8
仮想線
 48
0.5
100
AcDbLine
 10
-81.6773299016644
 20
317.6672888680399
 30
0.0
 11
-82.97732990166412
 21
317.6672888680399
 31
0.0
  0
LINE
  5
1A622
102
{ACAD_REACTORS
330
1A691
102
}
330
18
100
AcDbEntity
  8
仮想線
 48
0.5
100
AcDbLine
 10
-80.67732990166394
 20
307.2672888680401
 30
0.0
 11
-81.67732990166394
 21
307.2672888680401
 31
0.0
  0
LINE
  5
1A623
102
{ACAD_REACTORS
330
1A691
102
}
330
18
100
AcDbEntity
  8
仮想線
 48
0.5
100
AcDbLine
 10
-81.6773299016644
 20
306.86728886804
 30
0.0
 11
-82.97732990166412
 21
306.86728886804
 31
0.0
  0
LINE
  5
1A624
102
{ACAD_REACTORS
330
1A691
102
}
330
18
100
AcDbEntity
  8
仮想線
 48
0.5
100
AcDbLine
 10
-87.6773299016644
 20
318.0966784833203
 30
0.0
 11
-87.97732990166412
 21
318.3966784833204
 31
0.0
  0
LINE
  5
1A625
102
{ACAD_REACTORS
330
1A691
102
}
330
18
100
AcDbEntity
  8
仮想線
 48
0.5
100
AcDbLine
 10
-82.97732990166412
 20
318.0966784833203
 30
0.0
 11
-87.6773299016644
 21
318.0966784833203
 31
0.0
  0
LINE
  5
1A626
102
{ACAD_REACTORS
330
1A691
102
}
330
18
100
AcDbEntity
  8
仮想線
 48
0.5
100
AcDbLine
 10
-87.6773299016644
 20
306.4378992527597
 30
0.0
 11
-87.97732990166412
 21
306.1378992527595
 31
0.0
  0
LINE
  5
1A627
102
{ACAD_REACTORS
330
1A691
102
}
330
18
100
AcDbEntity
  8
仮想線
 48
0.5
100
AcDbLine
 10
-82.97732990166412
 20
306.4378992527597
 30
0.0
 11
-87.6773299016644
 21
306.4378992527597
 31
0.0
  0
LINE
  5
1A62A
102
{ACAD_REACTORS
330
1A691
102
}
330
18
100
AcDbEntity
  8
仮想線
  6
BYBLOCK
 48
0.5
100
AcDbLine
 10
-80.67734569890978
 20
332.1878992527596
 30
0.0
 11
-76.17734569890934
 21
332.1878992527592
 31
0.0
  0
LINE
  5
1A62B
102
{ACAD_REACTORS
330
1A691
102
}
330
18
100
AcDbEntity
  8
仮想線
 48
0.5
100
AcDbLine
 10
-80.67732990166394
 20
327.2672888680396
 30
0.0
 11
-81.67732990166394
 21
327.2672888680399
 31
0.0
  0
LINE
  5
1A62C
102
{ACAD_REACTORS
330
1A691
102
}
330
18
100
AcDbEntity
  8
仮想線
 48
0.5
100
AcDbLine
 10
-81.6773299016644
 20
326.8672888680398
 30
0.0
 11
-82.97732990166412
 21
326.8672888680398
 31
0.0
  0
LINE
  5
1A62D
102
{ACAD_REACTORS
330
1A691
102
}
330
18
100
AcDbEntity
  8
仮想線
 48
0.5
100
AcDbLine
 10
-81.67732990166394
 20
327.2672888680399
 30
0.0
 11
-81.67732990166484
 21
322.2672888680401
 31
0.0
  0
LINE
  5
1A62E
102
{ACAD_REACTORS
330
1A691
102
}
330
18
100
AcDbEntity
  8
仮想線
 48
0.5
100
AcDbLine
 10
-87.97732990166412
 20
326.2966784833201
 30
0.0
 11
-87.67732990166393
 21
326.5966784833203
 31
0.0
  0
LINE
  5
1A62F
102
{ACAD_REACTORS
330
1A691
102
}
330
18
100
AcDbEntity
  8
仮想線
 48
0.5
100
AcDbLine
 10
-82.97732990166412
 20
326.5966784833203
 30
0.0
 11
-87.67732990166393
 21
326.5966784833203
 31
0.0
  0
CIRCLE
  5
1A638
330
18
100
AcDbEntity
  8
細線
 48
5.0
100
AcDbCircle
 10
214.7110124391019
 20
223.8789412197211
 30
0.0
 40
2.399999999999999
  0
CIRCLE
  5
1A639
330
18
100
AcDbEntity
  8
細線
 48
5.0
100
AcDbCircle
 10
214.7110124391019
 20
223.8789412197211
 30
0.0
 40
3.0
  0
CIRCLE
  5
1A63F
330
18
100
AcDbEntity
  8
細線
 48
5.0
100
AcDbCircle
 10
241.8076063546938
 20
264.4318598224035
 30
0.0
 40
3.0
  0
CIRCLE
  5
1A640
330
18
100
AcDbEntity
  8
細線
 48
5.0
100
AcDbCircle
 10
241.8076063546938
 20
264.4318598224035
 30
0.0
 40
2.399999999999999
  0
CIRCLE
  5
1A641
330
18
100
AcDbEntity
  8
細線
 48
5.0
100
AcDbCircle
 10
236.3226647907829
 20
312.2672888680415
 30
0.0
 40
4.0
  0
CIRCLE
  5
1A642
330
18
100
AcDbEntity
  8
0
100
AcDbCircle
 10
236.3226647907829
 20
312.2672888680415
 30
0.0
 40
3.277999999999999
  0
CIRCLE
  5
1A646
330
18
100
AcDbEntity
  8
細線
 48
5.0
100
AcDbCircle
 10
251.3226647907834
 20
312.2672888680394
 30
0.0
 40
2.399999999999999
  0
CIRCLE
  5
1A647
330
18
100
AcDbEntity
  8
細線
 48
5.0
100
AcDbCircle
 10
251.3226647907834
 20
312.2672888680394
 30
0.0
 40
3.0
  0
CIRCLE
  5
1A655
330
18
100
AcDbEntity
  8
細線
 48
5.0
100
AcDbCircle
 10
241.8076063546942
 20
360.1027179136757
 30
0.0
 40
3.0
  0
CIRCLE
  5
1A656
330
18
100
AcDbEntity
  8
細線
 48
5.0
100
AcDbCircle
 10
241.8076063546942
 20
360.1027179136757
 30
0.0
 40
2.399999999999999
  0
CIRCLE
  5
1A658
330
18
100
AcDbEntity
  8
細線
 48
5.0
100
AcDbCircle
 10
214.7110124391019
 20
400.6556365163581
 30
0.0
 40
2.399999999999999
  0
CIRCLE
  5
1A659
330
18
100
AcDbEntity
  8
細線
 48
5.0
100
AcDbCircle
 10
214.7110124391019
 20
400.6556365163581
 30
0.0
 40
3.0
  0
LINE
  5
1A667
102
{ACAD_REACTORS
330
1A691
102
}
330
18
100
AcDbEntity
  8
中心線
 48
0.5
100
AcDbLine
 10
-65.6443305833676
 20
322.2672888680398
 30
0.0
 11
-90.73519362553941
 21
322.2672888680398
 31
0.0
  0
LINE
  5
1A668
102
{ACAD_REACTORS
330
1A691
102
}
330
18
100
AcDbEntity
  8
中心線
 48
0.5
100
AcDbLine
 10
-65.6443305833676
 20
302.2672888680403
 30
0.0
 11
-90.73519362553941
 21
302.2672888680401
 31
0.0
  0
LINE
  5
1A669
330
18
100
AcDbEntity
  8
中心線
100
AcDbLine
 10
341.3226647907831
 20
312.2672888680392
 30
0.0
 11
-98.67733520921683
 21
312.2672888680397
 31
0.0
  0
LINE
  5
1A66A
330
18
100
AcDbEntity
  8
中心線
100
AcDbLine
 10
126.3226647907831
 20
97.26728886803948
 30
0.0
 11
126.3226647907831
 21
537.2672888680393
 31
0.0
  0
LINE
  5
1A8A5
330
18
100
AcDbEntity
  8
中心線
 48
0.2
100
AcDbLine
 10
465.0817236935881
 20
116.767288868039
 30
0.0
 11
453.9712886264039
 21
116.767288868039
 31
0.0
  0
LINE
  5
1A8A6
330
18
100
AcDbEntity
  8
中心線
 48
0.5
100
AcDbLine
 10
452.5402552046057
 20
116.767288868039
 30
0.0
 11
461.3402552046054
 21
116.767288868039
 31
0.0
  0
LINE
  5
1A8AD
330
18
100
AcDbEntity
  8
ｷｬｯﾌ_ﾎ_ﾙﾄ
100
AcDbLine
 10
454.3402552046054
 20
120.267288868039
 30
0.0
 11
454.3402552046054
 21
113.267288868039
 31
0.0
  0
LINE
  5
1A8AE
330
18
100
AcDbEntity
  8
ｷｬｯﾌ_ﾎ_ﾙﾄ
100
AcDbLine
 10
453.8402552046059
 20
120.267288868039
 30
0.0
 11
453.8402552046059
 21
113.267288868039
 31
0.0
  0
LINE
  5
1A8AF
330
18
100
AcDbEntity
  8
ｷｬｯﾌ_ﾎ_ﾙﾄ
100
AcDbLine
 10
453.5402552046057
 20
119.2172888680388
 30
0.0
 11
453.5402552046057
 21
114.3172888680392
 31
0.0
  0
LINE
  5
1A8B2
330
18
100
AcDbEntity
  8
ｷｬｯﾌ_ﾎ_ﾙﾄ
100
AcDbLine
 10
453.8402552046059
 20
113.267288868039
 30
0.0
 11
453.5402552046057
 21
114.3172888680392
 31
0.0
  0
LINE
  5
1A8B3
330
18
100
AcDbEntity
  8
ｷｬｯﾌ_ﾎ_ﾙﾄ
100
AcDbLine
 10
453.8402552046059
 20
113.267288868039
 30
0.0
 11
454.3402552046054
 21
113.267288868039
 31
0.0
  0
LINE
  5
1A8B6
330
18
100
AcDbEntity
  8
ｷｬｯﾌ_ﾎ_ﾙﾄ
100
AcDbLine
 10
453.8402552046059
 20
120.267288868039
 30
0.0
 11
453.5402552046057
 21
119.2172888680388
 31
0.0
  0
LINE
  5
1A8B7
330
18
100
AcDbEntity
  8
ｷｬｯﾌ_ﾎ_ﾙﾄ
100
AcDbLine
 10
453.8402552046059
 20
120.267288868039
 30
0.0
 11
454.3402552046054
 21
120.267288868039
 31
0.0
  0
LINE
  5
1A8C5
330
18
100
AcDbEntity
  8
中心線
 48
0.2
100
AcDbLine
 10
465.0817236935881
 20
507.767288868039
 30
0.0
 11
453.9712886264039
 21
507.767288868039
 31
0.0
  0
LINE
  5
1A8C6
330
18
100
AcDbEntity
  8
中心線
 48
0.5
100
AcDbLine
 10
452.5402552046057
 20
507.767288868039
 30
0.0
 11
461.3402552046054
 21
507.767288868039
 31
0.0
  0
LINE
  5
1A8CD
330
18
100
AcDbEntity
  8
ｷｬｯﾌ_ﾎ_ﾙﾄ
100
AcDbLine
 10
454.3402552046054
 20
511.267288868039
 30
0.0
 11
454.3402552046054
 21
504.267288868039
 31
0.0
  0
LINE
  5
1A8CE
330
18
100
AcDbEntity
  8
ｷｬｯﾌ_ﾎ_ﾙﾄ
100
AcDbLine
 10
453.8402552046059
 20
511.267288868039
 30
0.0
 11
453.8402552046059
 21
504.267288868039
 31
0.0
  0
LINE
  5
1A8CF
330
18
100
AcDbEntity
  8
ｷｬｯﾌ_ﾎ_ﾙﾄ
100
AcDbLine
 10
453.5402552046057
 20
510.2172888680388
 30
0.0
 11
453.5402552046057
 21
505.3172888680392
 31
0.0
  0
LINE
  5
1A8D2
330
18
100
AcDbEntity
  8
ｷｬｯﾌ_ﾎ_ﾙﾄ
100
AcDbLine
 10
453.8402552046059
 20
504.267288868039
 30
0.0
 11
453.5402552046057
 21
505.3172888680392
 31
0.0
  0
LINE
  5
1A8D3
330
18
100
AcDbEntity
  8
ｷｬｯﾌ_ﾎ_ﾙﾄ
100
AcDbLine
 10
453.8402552046059
 20
504.267288868039
 30
0.0
 11
454.3402552046054
 21
504.267288868039
 31
0.0
  0
LINE
  5
1A8D6
330
18
100
AcDbEntity
  8
ｷｬｯﾌ_ﾎ_ﾙﾄ
100
AcDbLine
 10
453.8402552046059
 20
511.267288868039
 30
0.0
 11
453.5402552046057
 21
510.2172888680388
 31
0.0
  0
LINE
  5
1A8D7
330
18
100
AcDbEntity
  8
ｷｬｯﾌ_ﾎ_ﾙﾄ
100
AcDbLine
 10
453.8402552046059
 20
511.267288868039
 30
0.0
 11
454.3402552046054
 21
511.267288868039
 31
0.0
  0
LWPOLYLINE
  5
1A9AE
330
18
100
AcDbEntity
  8
0
100
AcDbPolyline
 90
        6
 70
     1
 43
0.0
 10
915.2919936845037
 20
255.9615161814617
 10
912.6076264231935
 20
245.9433211760774
 10
919.9414541672677
 20
238.6094934320041
 10
929.9596491726518
 20
241.293860693314
 10
932.6440164339619
 20
251.3120556986979
 10
925.310188689888
 20
258.6458834427718
  0
CIRCLE
  5
1A9AF
330
18
100
AcDbEntity
  8
0
100
AcDbCircle
 10
922.6258214285778
 20
248.6276884373879
 30
0.0
 40
7.564530200546926
  0
ARC
  5
1A9B0
330
18
100
AcDbEntity
  8
中心線
100
AcDbCircle
 10
858.9862125977877
 20
312.2672888680384
 30
0.0
 40
90.0
100
AcDbArc
 50
295.0000000000007
 51
335.0000000000079
  0
CIRCLE
  5
1A9B1
330
18
100
AcDbEntity
  8
0
100
AcDbCircle
 10
922.625822904577
 20
248.6276785612487
 30
0.0
 40
4.607147494343507
  0
CIRCLE
  5
1A9B2
330
18
100
AcDbEntity
  8
0
100
AcDbCircle
 10
922.625822904577
 20
248.6276785612487
 30
0.0
 40
2.400000000000199
  0
LINE
  5
1AA0C
330
18
100
AcDbEntity
  8
中心線
100
AcDbLine
 10
858.9862125977875
 20
312.2672888680406
 30
0.0
 11
933.7977983971635
 21
237.4557030686622
 31
0.0
  0
LINE
  5
1AA0F
330
18
100
AcDbEntity
  8
中心線
100
AcDbLine
 10
591.3769088282138
 20
248.6276884373883
 30
0.0
 11
557.3616523734719
 21
248.6276884373878
 31
0.0
  0
LINE
  5
1AA10
330
18
100
AcDbEntity
  8
0
100
AcDbLine
 10
576.0402587275145
 20
253.099824392388
 30
0.0
 11
582.0402587275146
 21
253.099824392388
 31
0.0
  0
LINE
  5
1AA11
330
18
100
AcDbEntity
  8
0
100
AcDbLine
 10
576.0402587275145
 20
254.6188617958403
 30
0.0
 11
582.0402587275146
 21
254.6188617958403
 31
0.0
  0
LINE
  5
1AA12
330
18
100
AcDbEntity
  8
0
100
AcDbLine
 10
576.0402587275145
 20
259.1276884373881
 30
0.0
 11
582.0402587275146
 21
259.1276884373881
 31
0.0
  0
LINE
  5
1AA13
330
18
100
AcDbEntity
  8
0
100
AcDbLine
 10
582.0402587275146
 20
244.1555524823887
 30
0.0
 11
576.0402587275145
 21
244.1555524823887
 31
0.0
  0
LINE
  5
1AA14
330
18
100
AcDbEntity
  8
0
100
AcDbLine
 10
582.0402587275146
 20
242.6365150789363
 30
0.0
 11
576.0402587275145
 21
242.6365150789363
 31
0.0
  0
LINE
  5
1AA15
330
18
100
AcDbEntity
  8
0
100
AcDbLine
 10
576.0402587275145
 20
238.1276884373881
 30
0.0
 11
582.0402587275141
 21
238.1276884373881
 31
0.0
  0
LINE
  5
1AA16
330
18
100
AcDbEntity
  8
0
100
AcDbLine
 10
571.0402587275146
 20
259.1276884373881
 30
0.0
 11
571.0402587275146
 21
238.1276884373881
 31
0.0
  0
LINE
  5
1AA17
330
18
100
AcDbEntity
  8
0
100
AcDbLine
 10
576.0402587275145
 20
259.1276884373881
 30
0.0
 11
576.0402587275145
 21
238.1276884373881
 31
0.0
  0
LINE
  5
1AA18
330
18
100
AcDbEntity
  8
0
100
AcDbLine
 10
573.0402587275145
 20
258.1276884373881
 30
0.0
 11
573.0402587275145
 21
239.1276884373881
 31
0.0
  0
LINE
  5
1AA19
330
18
100
AcDbEntity
  8
0
100
AcDbLine
 10
573.0402587275145
 20
239.1276884373881
 30
0.0
 11
576.0402587275145
 21
239.1276884373881
 31
0.0
  0
LINE
  5
1AA1A
330
18
100
AcDbEntity
  8
0
100
AcDbLine
 10
568.5402587275141
 20
238.1276884373881
 30
0.0
 11
571.0402587275146
 21
238.1276884373881
 31
0.0
  0
LINE
  5
1AA1B
330
18
100
AcDbEntity
  8
0
100
AcDbLine
 10
568.5402587275141
 20
253.099824392388
 30
0.0
 11
571.0402587275146
 21
253.099824392388
 31
0.0
  0
LINE
  5
1AA1C
330
18
100
AcDbEntity
  8
0
100
AcDbLine
 10
571.0402587275146
 20
242.6365150789363
 30
0.0
 11
568.5402587275141
 21
242.6365150789363
 31
0.0
  0
LINE
  5
1AA1D
330
18
100
AcDbEntity
  8
0
100
AcDbLine
 10
571.0402587275146
 20
241.2276884373876
 30
0.0
 11
573.0402587275145
 21
241.2276884373876
 31
0.0
  0
LINE
  5
1AA1E
330
18
100
AcDbEntity
  8
0
100
AcDbLine
 10
571.0402587275146
 20
244.1555524823887
 30
0.0
 11
568.5402587275141
 21
244.1555524823887
 31
0.0
  0
LINE
  5
1AA1F
330
18
100
AcDbEntity
  8
0
100
AcDbLine
 10
573.0402587275145
 20
258.1276884373881
 30
0.0
 11
576.0402587275145
 21
258.1276884373881
 31
0.0
  0
LINE
  5
1AA20
330
18
100
AcDbEntity
  8
0
100
AcDbLine
 10
568.5402587275141
 20
254.6188617958403
 30
0.0
 11
571.0402587275146
 21
254.6188617958403
 31
0.0
  0
LINE
  5
1AA21
330
18
100
AcDbEntity
  8
0
100
AcDbLine
 10
571.0402587275146
 20
256.0276884373877
 30
0.0
 11
573.0402587275145
 21
256.0276884373877
 31
0.0
  0
LINE
  5
1AA22
330
18
100
AcDbEntity
  8
0
100
AcDbLine
 10
568.5402587275141
 20
259.1276884373881
 30
0.0
 11
571.0402587275146
 21
259.1276884373881
 31
0.0
  0
LINE
  5
1AA23
330
18
100
AcDbEntity
  8
0
100
AcDbLine
 10
583.0402587275141
 20
257.9562598659593
 30
0.0
 11
583.0402587275146
 21
239.2991170088169
 31
0.0
  0
LINE
  5
1AA24
330
18
100
AcDbEntity
  8
0
100
AcDbLine
 10
582.0402587275141
 20
238.1276884373881
 30
0.0
 11
586.5402587275146
 21
243.3991170088159
 31
0.0
  0
ARC
  5
1AA25
330
18
100
AcDbEntity
  8
0
100
AcDbCircle
 10
574.0664622099452
 20
238.428773250798
 30
0.0
 40
9.015903847971634
100
AcDbArc
 50
5.539633318506666
 51
27.82043885584001
  0
LINE
  5
1AA26
330
18
100
AcDbEntity
  8
0
100
AcDbLine
 10
586.540258727515
 20
246.5276884373874
 30
0.0
 11
616.9170067121643
 21
246.5276884373882
 31
0.0
  0
LINE
  5
1AA27
330
18
100
AcDbEntity
  8
0
100
AcDbLine
 10
586.5402587275146
 20
250.7276884373873
 30
0.0
 11
616.9170067121642
 21
250.727688437388
 31
0.0
  0
LINE
  5
1AA28
330
18
100
AcDbEntity
  8
0
100
AcDbLine
 10
582.0402587275146
 20
254.6188617958403
 30
0.0
 11
582.0402587275146
 21
253.099824392388
 31
0.0
  0
LINE
  5
1AA29
330
18
100
AcDbEntity
  8
0
100
AcDbLine
 10
586.5402587275146
 20
253.8562598659603
 30
0.0
 11
586.5402587275146
 21
243.3991170088159
 31
0.0
  0
LINE
  5
1AA2A
330
18
100
AcDbEntity
  8
0
100
AcDbLine
 10
582.0402587275146
 20
244.1555524823887
 30
0.0
 11
582.0402587275146
 21
242.6365150789363
 31
0.0
  0
ARC
  5
1AA2B
330
18
100
AcDbEntity
  8
0
100
AcDbCircle
 10
572.5402587275143
 20
248.6276884373881
 30
0.0
 40
10.50000000000042
100
AcDbArc
 50
334.791234703239
 51
25.20876529676096
  0
LINE
  5
1AA2C
330
18
100
AcDbEntity
  8
0
100
AcDbLine
 10
582.0402587275141
 20
259.1276884373881
 30
0.0
 11
586.5402587275146
 21
253.8562598659603
 31
0.0
  0
ARC
  5
1AA2D
330
18
100
AcDbEntity
  8
0
100
AcDbCircle
 10
574.0664622099452
 20
258.8266036239782
 30
0.0
 40
9.015903847971634
100
AcDbArc
 50
332.1795611441596
 51
354.4603666814933
  0
ARC
  5
1AD97
330
18
100
AcDbEntity
  8
0
100
AcDbCircle
 10
616.9170067121648
 20
228.6276884373886
 30
0.0
 40
17.9
100
AcDbArc
 50
0.0
 51
90.00000000000049
  0
ARC
  5
1AD98
330
18
100
AcDbEntity
  8
0
100
AcDbCircle
 10
616.9170067121648
 20
228.6276884373886
 30
0.0
 40
22.1
100
AcDbArc
 50
0.0
 51
90.00000000000049
  0
CIRCLE
  5
1AEB0
330
18
100
AcDbEntity
  8
0
100
AcDbCircle
 10
126.3226647907831
 20
312.2672888680394
 30
0.0
 40
202.4999999999999
  0
CIRCLE
  5
1AEB1
330
18
100
AcDbEntity
  8
0
100
AcDbCircle
 10
858.9862125977891
 20
312.267288868039
 30
0.0
 40
203.2
  0
LWPOLYLINE
  5
1AEC8
330
18
100
AcDbEntity
  8
細線
 48
5.0
100
AcDbPolyline
 90
        6
 70
     1
 43
0.0
 10
908.3605910450792
 20
502.3305327778047
 10
910.0336236509976
 20
502.7788205134707
 10
911.2583685212495
 20
501.5540756432194
 10
910.810080785583
 20
499.8810430373001
 10
909.1370481796644
 20
499.4327553016335
 10
907.9123033094122
 20
500.657500171885
  0
CIRCLE
  5
1AEC9
330
18
100
AcDbEntity
  8
0
100
AcDbCircle
 10
909.5853359153306
 20
501.1057879075518
 30
0.0
 40
4.0
  0
CIRCLE
  5
1AECA
330
18
100
AcDbEntity
  8
細線
 48
5.0
100
AcDbCircle
 10
909.5853359153306
 20
501.1057879075518
 30
0.0
 40
3.5
  0
CIRCLE
  5
1AECC
330
18
100
AcDbEntity
  8
細線
 48
5.0
100
AcDbCircle
 10
808.3870892802451
 20
501.1057879075512
 30
0.0
 40
3.5
  0
CIRCLE
  5
1AECD
330
18
100
AcDbEntity
  8
0
100
AcDbCircle
 10
808.3870892802451
 20
501.1057879075512
 30
0.0
 40
4.0
  0
LWPOLYLINE
  5
1AECE
330
18
100
AcDbEntity
  8
細線
 48
5.0
100
AcDbPolyline
 90
        6
 70
     1
 43
0.0
 10
806.7140566743264
 20
501.5540756432192
 10
807.9388015445783
 20
502.7788205134702
 10
809.6118341504967
 20
502.3305327778039
 10
810.0601218861642
 20
500.6575001718847
 10
808.8353770159123
 20
499.4327553016332
 10
807.1623444099936
 20
499.8810430372996
  0
CIRCLE
  5
1AECF
330
18
100
AcDbEntity
  8
細線
 48
5.0
100
AcDbCircle
 10
720.7468368758186
 20
450.5066645900078
 30
0.0
 40
3.5
  0
CIRCLE
  5
1AED0
330
18
100
AcDbEntity
  8
0
100
AcDbCircle
 10
720.7468368758186
 20
450.5066645900078
 30
0.0
 40
4.0
  0
LWPOLYLINE
  5
1AED1
330
18
100
AcDbEntity
  8
細線
 48
5.0
100
AcDbPolyline
 90
        6
 70
     1
 43
0.0
 10
719.0738042698991
 20
450.058376854342
 10
719.5220920055666
 20
451.7314094602601
 10
721.1951246114847
 20
452.1796971959271
 10
722.4198694817373
 20
450.9549523256752
 10
721.9715817460703
 20
449.2819197197569
 10
720.2985491401518
 20
448.8336319840895
  0
CIRCLE
  5
1AED2
330
18
100
AcDbEntity
  8
細線
 48
5.0
100
AcDbCircle
 10
670.1477135582763
 20
362.8664121855805
 30
0.0
 40
3.5
  0
CIRCLE
  5
1AED3
330
18
100
AcDbEntity
  8
0
100
AcDbCircle
 10
670.1477135582763
 20
362.8664121855805
 30
0.0
 40
4.0
  0
LWPOLYLINE
  5
1AED4
330
18
100
AcDbEntity
  8
細線
 48
5.0
100
AcDbPolyline
 90
        6
 70
     1
 43
0.0
 10
668.9229686880233
 20
361.641667315329
 10
668.4746809523574
 20
363.3146999212475
 10
669.6994258226086
 20
364.5394447914993
 10
671.372458428528
 20
364.0911570558328
 10
671.8207461641945
 20
362.4181244499143
 10
670.5960012939431
 20
361.193379579662
  0
CIRCLE
  5
1AED5
330
18
100
AcDbEntity
  8
細線
 48
5.0
100
AcDbCircle
 10
670.1477135582774
 20
261.6681655504951
 30
0.0
 40
3.5
  0
CIRCLE
  5
1AED6
330
18
100
AcDbEntity
  8
0
100
AcDbCircle
 10
670.1477135582774
 20
261.6681655504951
 30
0.0
 40
4.0
  0
LWPOLYLINE
  5
1AED7
330
18
100
AcDbEntity
  8
細線
 48
5.0
100
AcDbPolyline
 90
        6
 70
     1
 43
0.0
 10
669.6994258226093
 20
259.9951329445762
 10
668.4746809523582
 20
261.2198778148283
 10
668.9229686880246
 20
262.8929104207467
 10
670.5960012939438
 20
263.341198156414
 10
671.8207461641952
 20
262.1164532861623
 10
671.3724584285289
 20
260.4434206802435
  0
CIRCLE
  5
1AED8
330
18
100
AcDbEntity
  8
細線
 48
5.0
100
AcDbCircle
 10
720.7468368758203
 20
174.0279131460684
 30
0.0
 40
3.5
  0
CIRCLE
  5
1AED9
330
18
100
AcDbEntity
  8
0
100
AcDbCircle
 10
720.7468368758203
 20
174.0279131460684
 30
0.0
 40
4.0
  0
LWPOLYLINE
  5
1AEDA
330
18
100
AcDbEntity
  8
細線
 48
5.0
100
AcDbPolyline
 90
        6
 70
     1
 43
0.0
 10
721.195124611486
 20
172.354880540149
 10
719.5220920055681
 20
172.8031682758164
 10
719.0738042699011
 20
174.4762008817346
 10
720.298549140153
 20
175.7009457519871
 10
721.9715817460712
 20
175.2526580163202
 10
722.4198694817387
 20
173.5796254104016
  0
CIRCLE
  5
1AEDB
330
18
100
AcDbEntity
  8
細線
 48
5.0
100
AcDbCircle
 10
808.3870892802476
 20
123.4287898285263
 30
0.0
 40
3.5
  0
CIRCLE
  5
1AEDC
330
18
100
AcDbEntity
  8
0
100
AcDbCircle
 10
808.3870892802476
 20
123.4287898285263
 30
0.0
 40
4.0
  0
LWPOLYLINE
  5
1AEDD
330
18
100
AcDbEntity
  8
細線
 48
5.0
100
AcDbPolyline
 90
        6
 70
     1
 43
0.0
 10
809.6118341504991
 20
122.2040449582733
 10
807.9388015445806
 20
121.7557572226073
 10
806.7140566743288
 20
122.9805020928586
 10
807.1623444099953
 20
124.6535346987779
 10
808.8353770159139
 20
125.1018224344446
 10
810.0601218861662
 20
123.877077564193
  0
CIRCLE
  5
1AEDE
330
18
100
AcDbEntity
  8
細線
 48
5.0
100
AcDbCircle
 10
909.5853359153332
 20
123.428789828527
 30
0.0
 40
3.5
  0
CIRCLE
  5
1AEDF
330
18
100
AcDbEntity
  8
0
100
AcDbCircle
 10
909.5853359153332
 20
123.428789828527
 30
0.0
 40
4.0
  0
LWPOLYLINE
  5
1AEE0
330
18
100
AcDbEntity
  8
細線
 48
5.0
100
AcDbPolyline
 90
        6
 70
     1
 43
0.0
 10
911.258368521252
 20
122.9805020928589
 10
910.0336236509999
 20
121.7557572226079
 10
908.3605910450815
 20
122.2040449582743
 10
907.9123033094141
 20
123.8770775641934
 10
909.1370481796658
 20
125.101822434445
 10
910.8100807855846
 20
124.6535346987786
  0
CIRCLE
  5
1AEE1
330
18
100
AcDbEntity
  8
細線
 48
5.0
100
AcDbCircle
 10
997.2255883197599
 20
174.0279131460703
 30
0.0
 40
3.5
  0
CIRCLE
  5
1AEE2
330
18
100
AcDbEntity
  8
0
100
AcDbCircle
 10
997.2255883197599
 20
174.0279131460703
 30
0.0
 40
4.0
  0
LWPOLYLINE
  5
1AEE3
330
18
100
AcDbEntity
  8
細線
 48
5.0
100
AcDbPolyline
 90
        6
 70
     1
 43
0.0
 10
998.8986209256793
 20
174.476200881736
 10
998.4503331900118
 20
172.8031682758178
 10
996.7773005840935
 20
172.3548805401508
 10
995.5525557138411
 20
173.5796254104027
 10
996.000843449508
 20
175.2526580163209
 10
997.6738760554265
 20
175.7009457519884
  0
CIRCLE
  5
1AEE4
330
18
100
AcDbEntity
  8
細線
 48
5.0
100
AcDbCircle
 10
1047.824711637301
 20
261.6681655504975
 30
0.0
 40
3.5
  0
CIRCLE
  5
1AEE5
330
18
100
AcDbEntity
  8
0
100
AcDbCircle
 10
1047.824711637301
 20
261.6681655504975
 30
0.0
 40
4.0
  0
LWPOLYLINE
  5
1AEE6
330
18
100
AcDbEntity
  8
細線
 48
5.0
100
AcDbPolyline
 90
        6
 70
     1
 43
0.0
 10
1049.049456507554
 20
262.892910420749
 10
1049.497744243221
 20
261.2198778148305
 10
1048.272999372969
 20
259.9951329445786
 10
1046.59996676705
 20
260.4434206802452
 10
1046.151679031383
 20
262.1164532861637
 10
1047.376423901635
 20
263.3411981564159
  0
CIRCLE
  5
1AEE7
330
18
100
AcDbEntity
  8
細線
 48
5.0
100
AcDbCircle
 10
1047.824711637301
 20
362.866412185583
 30
0.0
 40
3.5
  0
CIRCLE
  5
1AEE8
330
18
100
AcDbEntity
  8
0
100
AcDbCircle
 10
1047.824711637301
 20
362.866412185583
 30
0.0
 40
4.0
  0
LWPOLYLINE
  5
1AEE9
330
18
100
AcDbEntity
  8
細線
 48
5.0
100
AcDbPolyline
 90
        6
 70
     1
 43
0.0
 10
1048.272999372969
 20
364.5394447915018
 10
1049.49774424322
 20
363.3146999212498
 10
1049.049456507553
 20
361.6416673153313
 10
1047.376423901635
 20
361.1933795796641
 10
1046.151679031383
 20
362.4181244499158
 10
1046.599966767049
 20
364.0911570558347
  0
CIRCLE
  5
1AEEA
330
18
100
AcDbEntity
  8
細線
 48
5.0
100
AcDbCircle
 10
997.2255883197579
 20
450.5066645900098
 30
0.0
 40
3.5
  0
CIRCLE
  5
1AEEB
330
18
100
AcDbEntity
  8
0
100
AcDbCircle
 10
997.2255883197579
 20
450.5066645900098
 30
0.0
 40
4.0
  0
LWPOLYLINE
  5
1AEEC
330
18
100
AcDbEntity
  8
細線
 48
5.0
100
AcDbPolyline
 90
        6
 70
     1
 43
0.0
 10
996.7773005840919
 20
452.179697195929
 10
998.45033319001
 20
451.7314094602617
 10
998.8986209256772
 20
450.0583768543434
 10
997.6738760554253
 20
448.8336319840909
 10
996.0008434495069
 20
449.2819197197579
 10
995.5525557138397
 20
450.9549523256764
  0
CIRCLE
  5
1AEFD
330
18
100
AcDbEntity
  8
0
100
AcDbCircle
 10
858.9862125977891
 20
312.267288868039
 30
0.0
 40
34.39999999999999
  0
LINE
  5
1AF25
330
18
100
AcDbEntity
  8
0
100
AcDbLine
 10
536.5402552046059
 20
515.4672888680389
 30
0.0
 11
536.5402552046057
 21
312.2672888680391
 31
0.0
  0
LINE
  5
1AF26
330
18
100
AcDbEntity
  8
0
100
AcDbLine
 10
533.240255204606
 20
514.767288868039
 30
0.0
 11
533.2402552046057
 21
312.2672888680391
 31
0.0
  0
LINE
  5
1AF27
330
18
100
AcDbEntity
  8
0
100
AcDbLine
 10
536.540255204606
 20
109.0672888680392
 30
0.0
 11
536.5402552046057
 21
312.2672888680389
 31
0.0
  0
LINE
  5
1AF28
330
18
100
AcDbEntity
  8
0
100
AcDbLine
 10
533.2402552046061
 20
109.7672888680392
 30
0.0
 11
533.2402552046057
 21
312.2672888680389
 31
0.0
  0
LINE
  5
1AF29
330
18
100
AcDbEntity
  8
0
100
AcDbLine
 10
536.540255204606
 20
109.0672888680392
 30
0.0
 11
565.0402552046061
 21
109.067288868039
 31
0.0
  0
LINE
  5
1AF2A
330
18
100
AcDbEntity
  8
0
100
AcDbLine
 10
536.540255204606
 20
515.4672888680389
 30
0.0
 11
565.0402552046058
 21
515.4672888680389
 31
0.0
  0
LINE
  5
1AF2B
330
18
100
AcDbEntity
  8
0
100
AcDbLine
 10
533.2402552046058
 20
512.267288868039
 30
0.0
 11
536.5402552046059
 21
512.267288868039
 31
0.0
  0
LINE
  5
1AF2C
330
18
100
AcDbEntity
  8
0
100
AcDbLine
 10
533.2402552046058
 20
112.267288868039
 30
0.0
 11
536.5402552046059
 21
112.2672888680389
 31
0.0
  0
ARC
  5
1AF51
330
18
100
AcDbEntity
  8
細線
100
AcDbCircle
 10
125.3873573546975
 20
508.3072888680393
 30
0.0
 40
0.5
100
AcDbArc
 50
282.346387662824
 51
17.65361233717588
  0
ARC
  5
1AF52
330
18
100
AcDbEntity
  8
細線
100
AcDbCircle
 10
125.3873573546975
 20
507.2272888680392
 30
0.0
 40
0.5
100
AcDbArc
 50
342.346387662824
 51
77.65361233717587
  0
CIRCLE
  5
1AF53
330
18
100
AcDbEntity
  8
細線
100
AcDbCircle
 10
126.3226647907847
 20
507.7672888680393
 30
0.0
 40
3.5
  0
CIRCLE
  5
1AF54
330
18
100
AcDbEntity
  8
細線
100
AcDbCircle
 10
126.3226647907847
 20
507.7672888680393
 30
0.0
 40
0.8299999999999998
  0
ARC
  5
1AF55
330
18
100
AcDbEntity
  8
細線
100
AcDbCircle
 10
126.3226647907847
 20
506.6872888680392
 30
0.0
 40
0.5
100
AcDbArc
 50
42.34638766282407
 51
137.6536123371759
  0
ARC
  5
1AF56
330
18
100
AcDbEntity
  8
細線
100
AcDbCircle
 10
126.3226647907847
 20
508.8472888680394
 30
0.0
 40
0.5
100
AcDbArc
 50
222.346387662824
 51
317.6536123371758
  0
ARC
  5
1AF57
330
18
100
AcDbEntity
  8
細線
100
AcDbCircle
 10
127.2579722268719
 20
507.2272888680394
 30
0.0
 40
0.5
100
AcDbArc
 50
102.3463876628241
 51
197.6536123371758
  0
ARC
  5
1AF58
330
18
100
AcDbEntity
  8
細線
100
AcDbCircle
 10
127.2579722268719
 20
508.3072888680392
 30
0.0
 40
0.5
100
AcDbArc
 50
162.346387662824
 51
257.6536123371758
  0
CIRCLE
  5
1AF59
330
18
100
AcDbEntity
  8
細線
100
AcDbCircle
 10
-11.91671093118475
 20
450.5066645900109
 30
0.0
 40
3.5
  0
ARC
  5
1AF5A
330
18
100
AcDbEntity
  8
細線
100
AcDbCircle
 10
-11.63718636247404
 20
451.5498644824031
 30
0.0
 40
0.5
100
AcDbArc
 50
207.346387662824
 51
302.6536123371758
  0
ARC
  5
1AF5B
330
18
100
AcDbEntity
  8
細線
100
AcDbCircle
 10
-10.87351103879257
 20
450.7861891587217
 30
0.0
 40
0.5
100
AcDbArc
 50
147.3463876628241
 51
242.6536123371759
  0
ARC
  5
1AF5C
330
18
100
AcDbEntity
  8
細線
100
AcDbCircle
 10
-12.68038625486633
 20
451.2703399136925
 30
0.0
 40
0.5
100
AcDbArc
 50
267.346387662824
 51
2.653612337175879
  0
ARC
  5
1AF5D
330
18
100
AcDbEntity
  8
細線
100
AcDbCircle
 10
-11.15303560750328
 20
449.7429892663294
 30
0.0
 40
0.5
100
AcDbArc
 50
87.34638766282406
 51
182.6536123371758
  0
CIRCLE
  5
1AF5E
330
18
100
AcDbEntity
  8
細線
100
AcDbCircle
 10
-11.91671093118475
 20
450.5066645900109
 30
0.0
 40
0.8299999999999998
  0
ARC
  5
1AF5F
330
18
100
AcDbEntity
  8
細線
100
AcDbCircle
 10
-12.19623549989546
 20
449.4634646976186
 30
0.0
 40
0.5
100
AcDbArc
 50
27.34638766282401
 51
122.6536123371758
  0
ARC
  5
1AF60
330
18
100
AcDbEntity
  8
細線
100
AcDbCircle
 10
-12.95991082357704
 20
450.2271400213002
 30
0.0
 40
0.5
100
AcDbArc
 50
327.346387662824
 51
62.65361233717588
  0
CIRCLE
  5
1AF61
330
18
100
AcDbEntity
  8
細線
100
AcDbCircle
 10
-69.17733520921547
 20
312.2672888680423
 30
0.0
 40
3.5
  0
ARC
  5
1AF62
330
18
100
AcDbEntity
  8
細線
100
AcDbCircle
 10
-69.71733520921543
 20
313.2025963041295
 30
0.0
 40
0.5
100
AcDbArc
 50
252.346387662824
 51
347.6536123371758
  0
ARC
  5
1AF63
330
18
100
AcDbEntity
  8
細線
100
AcDbCircle
 10
-68.63733520921551
 20
313.2025963041296
 30
0.0
 40
0.5
100
AcDbArc
 50
192.3463876628241
 51
287.6536123371758
  0
ARC
  5
1AF64
330
18
100
AcDbEntity
  8
細線
100
AcDbCircle
 10
-70.25733520921551
 20
312.2672888680423
 30
0.0
 40
0.5
100
AcDbArc
 50
312.346387662824
 51
47.65361233717587
  0
ARC
  5
1AF65
330
18
100
AcDbEntity
  8
細線
100
AcDbCircle
 10
-68.09733520921543
 20
312.2672888680423
 30
0.0
 40
0.5
100
AcDbArc
 50
132.346387662824
 51
227.6536123371759
  0
CIRCLE
  5
1AF66
330
18
100
AcDbEntity
  8
細線
100
AcDbCircle
 10
-69.17733520921547
 20
312.2672888680423
 30
0.0
 40
0.8299999999999998
  0
ARC
  5
1AF67
330
18
100
AcDbEntity
  8
細線
100
AcDbCircle
 10
-68.63733520921539
 20
311.3319814319551
 30
0.0
 40
0.5
100
AcDbArc
 50
72.34638766282401
 51
167.6536123371758
  0
ARC
  5
1AF68
330
18
100
AcDbEntity
  8
細線
100
AcDbCircle
 10
-69.71733520921555
 20
311.3319814319551
 30
0.0
 40
0.5
100
AcDbArc
 50
12.34638766282406
 51
107.6536123371758
  0
CIRCLE
  5
1AF69
330
18
100
AcDbEntity
  8
細線
100
AcDbCircle
 10
-11.91671093118702
 20
174.0279131460728
 30
0.0
 40
3.5
  0
ARC
  5
1AF6A
330
18
100
AcDbEntity
  8
細線
100
AcDbCircle
 10
-12.95991082357909
 20
174.3074377147836
 30
0.0
 40
0.5
100
AcDbArc
 50
297.346387662824
 51
32.65361233717585
  0
ARC
  5
1AF6B
330
18
100
AcDbEntity
  8
細線
100
AcDbCircle
 10
-12.19623549989774
 20
175.0711130384651
 30
0.0
 40
0.5
100
AcDbArc
 50
237.346387662824
 51
332.6536123371758
  0
ARC
  5
1AF6C
330
18
100
AcDbEntity
  8
細線
100
AcDbCircle
 10
-12.68038625486849
 20
173.2642378223913
 30
0.0
 40
0.5
100
AcDbArc
 50
357.346387662824
 51
92.65361233717587
  0
ARC
  5
1AF6D
330
18
100
AcDbEntity
  8
細線
100
AcDbCircle
 10
-11.15303560750544
 20
174.7915884697543
 30
0.0
 40
0.5
100
AcDbArc
 50
177.346387662824
 51
272.6536123371758
  0
CIRCLE
  5
1AF6E
330
18
100
AcDbEntity
  8
細線
100
AcDbCircle
 10
-11.91671093118702
 20
174.0279131460728
 30
0.0
 40
0.8299999999999998
  0
ARC
  5
1AF6F
330
18
100
AcDbEntity
  8
細線
100
AcDbCircle
 10
-10.87351103879473
 20
173.7483885773622
 30
0.0
 40
0.5
100
AcDbArc
 50
117.346387662824
 51
212.6536123371758
  0
ARC
  5
1AF70
330
18
100
AcDbEntity
  8
細線
100
AcDbCircle
 10
-11.63718636247631
 20
172.9847132536806
 30
0.0
 40
0.5
100
AcDbArc
 50
57.34638766282407
 51
152.6536123371758
  0
CIRCLE
  5
1AF71
330
18
100
AcDbEntity
  8
細線
100
AcDbCircle
 10
126.3226647907814
 20
116.7672888680422
 30
0.0
 40
3.5
  0
ARC
  5
1AF72
330
18
100
AcDbEntity
  8
細線
100
AcDbCircle
 10
125.3873573546943
 20
116.2272888680422
 30
0.0
 40
0.5
100
AcDbArc
 50
342.346387662824
 51
77.65361233717577
  0
ARC
  5
1AF73
330
18
100
AcDbEntity
  8
細線
100
AcDbCircle
 10
125.3873573546942
 20
117.3072888680421
 30
0.0
 40
0.5
100
AcDbArc
 50
282.346387662824
 51
17.65361233717582
  0
ARC
  5
1AF74
330
18
100
AcDbEntity
  8
細線
100
AcDbCircle
 10
126.3226647907814
 20
115.6872888680421
 30
0.0
 40
0.5
100
AcDbArc
 50
42.34638766282396
 51
137.6536123371757
  0
ARC
  5
1AF75
330
18
100
AcDbEntity
  8
細線
100
AcDbCircle
 10
126.3226647907814
 20
117.8472888680422
 30
0.0
 40
0.5
100
AcDbArc
 50
222.346387662824
 51
317.6536123371758
  0
CIRCLE
  5
1AF76
330
18
100
AcDbEntity
  8
細線
100
AcDbCircle
 10
126.3226647907814
 20
116.7672888680422
 30
0.0
 40
0.8299999999999998
  0
ARC
  5
1AF77
330
18
100
AcDbEntity
  8
細線
100
AcDbCircle
 10
127.2579722268686
 20
117.3072888680422
 30
0.0
 40
0.5
100
AcDbArc
 50
162.346387662824
 51
257.6536123371758
  0
ARC
  5
1AF78
330
18
100
AcDbEntity
  8
細線
100
AcDbCircle
 10
127.2579722268686
 20
116.2272888680421
 30
0.0
 40
0.5
100
AcDbArc
 50
102.3463876628239
 51
197.6536123371758
  0
CIRCLE
  5
1AF79
330
18
100
AcDbEntity
  8
細線
100
AcDbCircle
 10
264.562040512751
 20
174.0279131460705
 30
0.0
 40
3.5
  0
ARC
  5
1AF7A
330
18
100
AcDbEntity
  8
細線
100
AcDbCircle
 10
264.2825159440403
 20
172.9847132536783
 30
0.0
 40
0.5
100
AcDbArc
 50
27.34638766282404
 51
122.6536123371757
  0
ARC
  5
1AF7B
330
18
100
AcDbEntity
  8
細線
100
AcDbCircle
 10
263.5188406203588
 20
173.7483885773597
 30
0.0
 40
0.5
100
AcDbArc
 50
327.346387662824
 51
62.65361233717584
  0
ARC
  5
1AF7C
330
18
100
AcDbEntity
  8
細線
100
AcDbCircle
 10
265.3257158364325
 20
173.2642378223889
 30
0.0
 40
0.5
100
AcDbArc
 50
87.34638766282401
 51
182.6536123371758
  0
ARC
  5
1AF7D
330
18
100
AcDbEntity
  8
細線
100
AcDbCircle
 10
263.7983651890695
 20
174.791588469752
 30
0.0
 40
0.5
100
AcDbArc
 50
267.346387662824
 51
2.653612337175863
  0
CIRCLE
  5
1AF7E
330
18
100
AcDbEntity
  8
細線
100
AcDbCircle
 10
264.562040512751
 20
174.0279131460705
 30
0.0
 40
0.8299999999999998
  0
ARC
  5
1AF7F
330
18
100
AcDbEntity
  8
細線
100
AcDbCircle
 10
264.8415650814617
 20
175.0711130384627
 30
0.0
 40
0.5
100
AcDbArc
 50
207.346387662824
 51
302.6536123371758
  0
ARC
  5
1AF80
330
18
100
AcDbEntity
  8
細線
100
AcDbCircle
 10
265.6052404051432
 20
174.3074377147811
 30
0.0
 40
0.5
100
AcDbArc
 50
147.346387662824
 51
242.6536123371758
  0
CIRCLE
  5
1AF81
330
18
100
AcDbEntity
  8
細線
100
AcDbCircle
 10
321.8226647907817
 20
312.267288868039
 30
0.0
 40
3.5
  0
ARC
  5
1AF82
330
18
100
AcDbEntity
  8
細線
100
AcDbCircle
 10
322.3626647907817
 20
311.3319814319518
 30
0.0
 40
0.5
100
AcDbArc
 50
72.34638766282401
 51
167.6536123371757
  0
ARC
  5
1AF83
330
18
100
AcDbEntity
  8
細線
100
AcDbCircle
 10
321.2826647907817
 20
311.3319814319517
 30
0.0
 40
0.5
100
AcDbArc
 50
12.34638766282404
 51
107.6536123371758
  0
ARC
  5
1AF84
330
18
100
AcDbEntity
  8
細線
100
AcDbCircle
 10
322.9026647907818
 20
312.2672888680389
 30
0.0
 40
0.5
100
AcDbArc
 50
132.3463876628239
 51
227.6536123371757
  0
ARC
  5
1AF85
330
18
100
AcDbEntity
  8
細線
100
AcDbCircle
 10
320.7426647907817
 20
312.2672888680389
 30
0.0
 40
0.5
100
AcDbArc
 50
312.3463876628239
 51
47.65361233717582
  0
CIRCLE
  5
1AF86
330
18
100
AcDbEntity
  8
細線
100
AcDbCircle
 10
321.8226647907817
 20
312.267288868039
 30
0.0
 40
0.8299999999999998
  0
ARC
  5
1AF87
330
18
100
AcDbEntity
  8
細線
100
AcDbCircle
 10
321.2826647907816
 20
313.2025963041261
 30
0.0
 40
0.5
100
AcDbArc
 50
252.3463876628239
 51
347.6536123371757
  0
ARC
  5
1AF88
330
18
100
AcDbEntity
  8
細線
100
AcDbCircle
 10
322.3626647907818
 20
313.2025963041261
 30
0.0
 40
0.5
100
AcDbArc
 50
192.346387662824
 51
287.6536123371758
  0
CIRCLE
  5
1AF89
102
{ACAD_REACTORS
330
1B720
102
}
330
18
100
AcDbEntity
  8
細線
100
AcDbCircle
 10
264.5620405127534
 20
450.5066645900085
 30
0.0
 40
3.5
  0
ARC
  5
1AF8A
102
{ACAD_REACTORS
330
1B720
102
}
330
18
100
AcDbEntity
  8
細線
100
AcDbCircle
 10
265.6052404051456
 20
450.2271400212977
 30
0.0
 40
0.5
100
AcDbArc
 50
117.3463876628239
 51
212.6536123371757
  0
ARC
  5
1AF8B
102
{ACAD_REACTORS
330
1B720
102
}
330
18
100
AcDbEntity
  8
細線
100
AcDbCircle
 10
264.8415650814642
 20
449.4634646976162
 30
0.0
 40
0.5
100
AcDbArc
 50
57.34638766282404
 51
152.6536123371757
  0
ARC
  5
1AF8C
102
{ACAD_REACTORS
330
1B720
102
}
330
18
100
AcDbEntity
  8
細線
100
AcDbCircle
 10
265.325715836435
 20
451.27033991369
 30
0.0
 40
0.5
100
AcDbArc
 50
177.3463876628239
 51
272.6536123371757
  0
ARC
  5
1AF8D
102
{ACAD_REACTORS
330
1B720
102
}
330
18
100
AcDbEntity
  8
細線
100
AcDbCircle
 10
263.7983651890719
 20
449.7429892663269
 30
0.0
 40
0.5
100
AcDbArc
 50
357.346387662824
 51
92.65361233717582
  0
CIRCLE
  5
1AF8E
102
{ACAD_REACTORS
330
1B720
102
}
330
18
100
AcDbEntity
  8
細線
100
AcDbCircle
 10
264.5620405127534
 20
450.5066645900085
 30
0.0
 40
0.8299999999999998
  0
ARC
  5
1AF8F
102
{ACAD_REACTORS
330
1B720
102
}
330
18
100
AcDbEntity
  8
細線
100
AcDbCircle
 10
263.5188406203612
 20
450.7861891587191
 30
0.0
 40
0.5
100
AcDbArc
 50
297.3463876628239
 51
32.6536123371758
  0
ARC
  5
1AF90
102
{ACAD_REACTORS
330
1B720
102
}
330
18
100
AcDbEntity
  8
細線
100
AcDbCircle
 10
264.2825159440428
 20
451.5498644824007
 30
0.0
 40
0.5
100
AcDbArc
 50
237.346387662824
 51
332.6536123371758
  0
CIRCLE
  5
1AF93
330
18
100
AcDbEntity
  8
0
100
AcDbCircle
 10
126.3226647907836
 20
450.7672888680401
 30
0.0
 40
5.588235294117647
  0
CIRCLE
  5
1AF94
330
18
100
AcDbEntity
  8
細線
 48
5.0
100
AcDbCircle
 10
126.3226647907836
 20
450.7672888680401
 30
0.0
 40
5.0
  0
LWPOLYLINE
  5
1AF95
330
18
100
AcDbEntity
  8
細線
 48
5.0
100
AcDbPolyline
 90
        6
 70
     1
 43
0.0
 10
128.6763449628848
 20
452.126186748989
 10
126.3226647907841
 20
453.4850846299372
 10
123.9689846186827
 20
452.1261867489885
 10
123.9689846186828
 20
449.4083909870904
 10
126.3226647907843
 20
448.0494931061429
 10
128.6763449628848
 20
449.4083909870918
  0
CIRCLE
  5
1AF96
330
18
100
AcDbEntity
  8
細線
 48
5.0
100
AcDbCircle
 10
57.07266479078384
 20
432.2118072921852
 30
0.0
 40
5.0
  0
CIRCLE
  5
1AF97
330
18
100
AcDbEntity
  8
0
100
AcDbCircle
 10
57.07266479078384
 20
432.2118072921852
 30
0.0
 40
5.588235294117647
  0
LWPOLYLINE
  5
1AF98
330
18
100
AcDbEntity
  8
細線
 48
5.0
100
AcDbPolyline
 90
        6
 70
     1
 43
0.0
 10
58.43156267173281
 20
434.5654874642863
 10
55.71376690983576
 20
434.565487464286
 10
54.35486902888654
 20
432.2118072921849
 10
55.71376690983571
 20
429.8581271200835
 10
58.43156267173306
 20
429.8581271200849
 10
59.79046055268134
 20
432.2118072921857
  0
CIRCLE
  5
1AF99
330
18
100
AcDbEntity
  8
細線
 48
5.0
100
AcDbCircle
 10
6.378146366639157
 20
381.5172888680407
 30
0.0
 40
5.0
  0
CIRCLE
  5
1AF9A
330
18
100
AcDbEntity
  8
0
100
AcDbCircle
 10
6.378146366639157
 20
381.5172888680407
 30
0.0
 40
5.588235294117647
  0
LWPOLYLINE
  5
1AF9B
330
18
100
AcDbEntity
  8
細線
 48
5.0
100
AcDbPolyline
 90
        6
 70
     1
 43
0.0
 10
6.378146366639157
 20
384.2350846299386
 10
4.024466194538831
 20
382.8761867489898
 10
4.024466194538547
 20
380.1583909870919
 10
6.378146366640066
 20
378.799493106143
 10
8.731826538740165
 20
380.1583909870928
 10
8.731826538739824
 20
382.87618674899
  0
CIRCLE
  5
1AF9C
330
18
100
AcDbEntity
  8
細線
 48
5.0
100
AcDbCircle
 10
-12.17733520921615
 20
312.2672888680412
 30
0.0
 40
5.0
  0
CIRCLE
  5
1AF9D
330
18
100
AcDbEntity
  8
0
100
AcDbCircle
 10
-12.17733520921615
 20
312.2672888680412
 30
0.0
 40
5.588235294117647
  0
LWPOLYLINE
  5
1AF9E
330
18
100
AcDbEntity
  8
細線
 48
5.0
100
AcDbPolyline
 90
        6
 70
     1
 43
0.0
 10
-13.53623309016512
 20
314.6209690401424
 10
-14.89513097111336
 20
312.2672888680417
 10
-13.53623309016461
 20
309.9136086959402
 10
-10.81843732826655
 20
309.9136086959404
 10
-9.459539447319059
 20
312.2672888680419
 10
-10.81843732826797
 20
314.6209690401424
  0
CIRCLE
  5
1AF9F
330
18
100
AcDbEntity
  8
細線
 48
5.0
100
AcDbCircle
 10
6.378146366638702
 20
243.0172888680415
 30
0.0
 40
5.0
  0
CIRCLE
  5
1AFA0
330
18
100
AcDbEntity
  8
0
100
AcDbCircle
 10
6.378146366638702
 20
243.0172888680415
 30
0.0
 40
5.588235294117647
  0
LWPOLYLINE
  5
1AFA1
330
18
100
AcDbEntity
  8
細線
 48
5.0
100
AcDbPolyline
 90
        6
 70
     1
 43
0.0
 10
4.024466194537467
 20
244.3761867489904
 10
4.024466194537808
 20
241.6583909870934
 10
6.378146366638986
 20
240.2994931061441
 10
8.731826538740278
 20
241.6583909870933
 10
8.731826538738914
 20
244.3761867489906
 10
6.378146366638134
 20
245.7350846299389
  0
CIRCLE
  5
1AFA2
330
18
100
AcDbEntity
  8
細線
 48
5.0
100
AcDbCircle
 10
57.07266479078317
 20
192.3227704438968
 30
0.0
 40
5.0
  0
CIRCLE
  5
1AFA3
330
18
100
AcDbEntity
  8
0
100
AcDbCircle
 10
57.07266479078317
 20
192.3227704438968
 30
0.0
 40
5.588235294117647
  0
LWPOLYLINE
  5
1AFA4
330
18
100
AcDbEntity
  8
細線
 48
5.0
100
AcDbPolyline
 90
        6
 70
     1
 43
0.0
 10
54.35486902888522
 20
192.3227704438967
 10
55.71376690983402
 20
189.9690902717964
 10
58.43156267173196
 20
189.9690902717961
 10
59.79046055268089
 20
192.3227704438976
 10
58.431562671731
 20
194.6764506159977
 10
55.71376690983385
 20
194.6764506159973
  0
CIRCLE
  5
1AFA5
330
18
100
AcDbEntity
  8
細線
 48
5.0
100
AcDbCircle
 10
126.3226647907827
 20
173.7672888680414
 30
0.0
 40
5.0
  0
CIRCLE
  5
1AFA6
330
18
100
AcDbEntity
  8
0
100
AcDbCircle
 10
126.3226647907827
 20
173.7672888680414
 30
0.0
 40
5.588235294117647
  0
LWPOLYLINE
  5
1AFA7
330
18
100
AcDbEntity
  8
細線
 48
5.0
100
AcDbPolyline
 90
        6
 70
     1
 43
0.0
 10
123.9689846186813
 20
172.4083909870925
 10
126.322664790782
 20
171.0494931061442
 10
128.6763449628835
 20
172.408390987093
 10
128.6763449628833
 20
175.126186748991
 10
126.3226647907819
 20
176.4850846299385
 10
123.9689846186814
 20
175.1261867489896
  0
CIRCLE
  5
1AFA8
330
18
100
AcDbEntity
  8
細線
 48
5.0
100
AcDbCircle
 10
195.5726647907823
 20
192.3227704438962
 30
0.0
 40
5.0
  0
CIRCLE
  5
1AFA9
330
18
100
AcDbEntity
  8
0
100
AcDbCircle
 10
195.5726647907823
 20
192.3227704438962
 30
0.0
 40
5.588235294117647
  0
LWPOLYLINE
  5
1AFAA
330
18
100
AcDbEntity
  8
細線
 48
5.0
100
AcDbPolyline
 90
        6
 70
     1
 43
0.0
 10
194.2137669098334
 20
189.969090271795
 10
196.9315626717304
 20
189.9690902717953
 10
198.2904605526796
 20
192.3227704438966
 10
196.9315626717305
 20
194.6764506159979
 10
194.2137669098332
 20
194.6764506159965
 10
192.8548690288849
 20
192.3227704438957
  0
CIRCLE
  5
1AFAB
330
18
100
AcDbEntity
  8
細線
 48
5.0
100
AcDbCircle
 10
246.2671832149271
 20
243.0172888680405
 30
0.0
 40
5.0
  0
CIRCLE
  5
1AFAC
330
18
100
AcDbEntity
  8
0
100
AcDbCircle
 10
246.2671832149271
 20
243.0172888680405
 30
0.0
 40
5.588235294117647
  0
LWPOLYLINE
  5
1AFAD
330
18
100
AcDbEntity
  8
細線
 48
5.0
100
AcDbPolyline
 90
        6
 70
     1
 43
0.0
 10
246.2671832149271
 20
240.2994931061426
 10
248.6208633870274
 20
241.6583909870914
 10
248.6208633870277
 20
244.3761867489894
 10
246.2671832149262
 20
245.7350846299383
 10
243.9135030428261
 20
244.3761867489885
 10
243.9135030428265
 20
241.6583909870912
  0
CIRCLE
  5
1AFAE
330
18
100
AcDbEntity
  8
細線
 48
5.0
100
AcDbCircle
 10
264.8226647907825
 20
312.2672888680402
 30
0.0
 40
5.0
  0
CIRCLE
  5
1AFAF
330
18
100
AcDbEntity
  8
0
100
AcDbCircle
 10
264.8226647907825
 20
312.2672888680402
 30
0.0
 40
5.588235294117647
  0
LWPOLYLINE
  5
1AFB0
330
18
100
AcDbEntity
  8
細線
 48
5.0
100
AcDbPolyline
 90
        6
 70
     1
 43
0.0
 10
266.1815626717314
 20
309.913608695939
 10
267.5404605526797
 20
312.2672888680397
 10
266.1815626717309
 20
314.6209690401411
 10
263.4637669098328
 20
314.620969040141
 10
262.1048690288854
 20
312.2672888680395
 10
263.4637669098343
 20
309.913608695939
  0
CIRCLE
  5
1AFB1
330
18
100
AcDbEntity
  8
細線
 48
5.0
100
AcDbCircle
 10
246.2671832149276
 20
381.51728886804
 30
0.0
 40
5.0
  0
CIRCLE
  5
1AFB2
330
18
100
AcDbEntity
  8
0
100
AcDbCircle
 10
246.2671832149276
 20
381.51728886804
 30
0.0
 40
5.588235294117647
  0
LWPOLYLINE
  5
1AFB3
330
18
100
AcDbEntity
  8
細線
 48
5.0
100
AcDbPolyline
 90
        6
 70
     1
 43
0.0
 10
248.6208633870288
 20
380.1583909870911
 10
248.6208633870285
 20
382.8761867489881
 10
246.2671832149273
 20
384.2350846299374
 10
243.913503042826
 20
382.8761867489882
 10
243.9135030428274
 20
380.1583909870909
 10
246.2671832149282
 20
378.7994931061426
  0
CIRCLE
  5
1AFB4
330
18
100
AcDbEntity
  8
細線
 48
5.0
100
AcDbCircle
 10
195.5726647907831
 20
432.2118072921846
 30
0.0
 40
5.0
  0
CIRCLE
  5
1AFB5
330
18
100
AcDbEntity
  8
0
100
AcDbCircle
 10
195.5726647907831
 20
432.2118072921846
 30
0.0
 40
5.588235294117647
  0
LWPOLYLINE
  5
1AFB6
330
18
100
AcDbEntity
  8
細線
 48
5.0
100
AcDbPolyline
 90
        6
 70
     1
 43
0.0
 10
198.290460552681
 20
432.2118072921846
 10
196.9315626717322
 20
434.5654874642851
 10
194.2137669098342
 20
434.5654874642852
 10
192.8548690288853
 20
432.2118072921838
 10
194.2137669098352
 20
429.8581271200837
 10
196.9315626717324
 20
429.858127120084
  0
CIRCLE
  5
1B721
102
{ACAD_REACTORS
330
1B729
102
}
330
18
100
AcDbEntity
  8
細線
100
AcDbCircle
 10
763.7234181814992
 20
367.2672888680389
 30
0.0
 40
3.5
  0
ARC
  5
1B722
102
{ACAD_REACTORS
330
1B729
102
}
330
18
100
AcDbEntity
  8
細線
100
AcDbCircle
 10
763.4438936127886
 20
368.3104887604311
 30
0.0
 40
0.5
100
AcDbArc
 50
237.346387662824
 51
332.6536123371758
  0
ARC
  5
1B723
102
{ACAD_REACTORS
330
1B729
102
}
330
18
100
AcDbEntity
  8
細線
100
AcDbCircle
 10
762.6802182891069
 20
367.5468134367495
 30
0.0
 40
0.5
100
AcDbArc
 50
297.3463876628239
 51
32.6536123371758
  0
CIRCLE
  5
1B724
102
{ACAD_REACTORS
330
1B729
102
}
330
18
100
AcDbEntity
  8
細線
100
AcDbCircle
 10
763.7234181814992
 20
367.2672888680389
 30
0.0
 40
0.8299999999999998
  0
ARC
  5
1B725
102
{ACAD_REACTORS
330
1B729
102
}
330
18
100
AcDbEntity
  8
細線
100
AcDbCircle
 10
762.9597428578176
 20
366.5036135443573
 30
0.0
 40
0.5
100
AcDbArc
 50
357.346387662824
 51
92.65361233717582
  0
ARC
  5
1B726
102
{ACAD_REACTORS
330
1B729
102
}
330
18
100
AcDbEntity
  8
細線
100
AcDbCircle
 10
764.4870935051808
 20
368.0309641917204
 30
0.0
 40
0.5
100
AcDbArc
 50
177.3463876628239
 51
272.6536123371757
  0
ARC
  5
1B727
102
{ACAD_REACTORS
330
1B729
102
}
330
18
100
AcDbEntity
  8
細線
100
AcDbCircle
 10
764.0029427502099
 20
366.2240889756466
 30
0.0
 40
0.5
100
AcDbArc
 50
57.34638766282404
 51
152.6536123371757
  0
ARC
  5
1B728
102
{ACAD_REACTORS
330
1B729
102
}
330
18
100
AcDbEntity
  8
細線
100
AcDbCircle
 10
764.7666180738913
 20
366.9877642993281
 30
0.0
 40
0.5
100
AcDbArc
 50
117.3463876628239
 51
212.6536123371757
  0
CIRCLE
  5
1B72A
102
{ACAD_REACTORS
330
1B732
102
}
330
18
100
AcDbEntity
  8
細線
100
AcDbCircle
 10
763.7234181814992
 20
257.2672888680389
 30
0.0
 40
3.5
  0
ARC
  5
1B72B
102
{ACAD_REACTORS
330
1B732
102
}
330
18
100
AcDbEntity
  8
細線
100
AcDbCircle
 10
763.4438936127886
 20
258.3104887604311
 30
0.0
 40
0.5
100
AcDbArc
 50
237.346387662824
 51
332.6536123371758
  0
ARC
  5
1B72C
102
{ACAD_REACTORS
330
1B732
102
}
330
18
100
AcDbEntity
  8
細線
100
AcDbCircle
 10
762.6802182891069
 20
257.5468134367495
 30
0.0
 40
0.5
100
AcDbArc
 50
297.3463876628239
 51
32.6536123371758
  0
CIRCLE
  5
1B72D
102
{ACAD_REACTORS
330
1B732
102
}
330
18
100
AcDbEntity
  8
細線
100
AcDbCircle
 10
763.7234181814992
 20
257.2672888680389
 30
0.0
 40
0.8299999999999998
  0
ARC
  5
1B72E
102
{ACAD_REACTORS
330
1B732
102
}
330
18
100
AcDbEntity
  8
細線
100
AcDbCircle
 10
762.9597428578176
 20
256.5036135443573
 30
0.0
 40
0.5
100
AcDbArc
 50
357.346387662824
 51
92.65361233717582
  0
ARC
  5
1B72F
102
{ACAD_REACTORS
330
1B732
102
}
330
18
100
AcDbEntity
  8
細線
100
AcDbCircle
 10
764.4870935051808
 20
258.0309641917204
 30
0.0
 40
0.5
100
AcDbArc
 50
177.3463876628239
 51
272.6536123371757
  0
ARC
  5
1B730
102
{ACAD_REACTORS
330
1B732
102
}
330
18
100
AcDbEntity
  8
細線
100
AcDbCircle
 10
764.0029427502099
 20
256.2240889756466
 30
0.0
 40
0.5
100
AcDbArc
 50
57.34638766282404
 51
152.6536123371757
  0
ARC
  5
1B731
102
{ACAD_REACTORS
330
1B732
102
}
330
18
100
AcDbEntity
  8
細線
100
AcDbCircle
 10
764.7666180738913
 20
256.9877642993281
 30
0.0
 40
0.5
100
AcDbArc
 50
117.3463876628239
 51
212.6536123371757
  0
CIRCLE
  5
1B733
102
{ACAD_REACTORS
330
1B73B
102
}
330
18
100
AcDbEntity
  8
細線
100
AcDbCircle
 10
858.9862125977875
 20
202.2672888680389
 30
0.0
 40
3.5
  0
ARC
  5
1B734
102
{ACAD_REACTORS
330
1B73B
102
}
330
18
100
AcDbEntity
  8
細線
100
AcDbCircle
 10
858.7066880290768
 20
203.3104887604311
 30
0.0
 40
0.5
100
AcDbArc
 50
237.346387662824
 51
332.6536123371758
  0
ARC
  5
1B735
102
{ACAD_REACTORS
330
1B73B
102
}
330
18
100
AcDbEntity
  8
細線
100
AcDbCircle
 10
857.9430127053951
 20
202.5468134367495
 30
0.0
 40
0.5
100
AcDbArc
 50
297.3463876628239
 51
32.6536123371758
  0
CIRCLE
  5
1B736
102
{ACAD_REACTORS
330
1B73B
102
}
330
18
100
AcDbEntity
  8
細線
100
AcDbCircle
 10
858.9862125977875
 20
202.2672888680389
 30
0.0
 40
0.8299999999999998
  0
ARC
  5
1B737
102
{ACAD_REACTORS
330
1B73B
102
}
330
18
100
AcDbEntity
  8
細線
100
AcDbCircle
 10
858.2225372741058
 20
201.5036135443573
 30
0.0
 40
0.5
100
AcDbArc
 50
357.346387662824
 51
92.65361233717582
  0
ARC
  5
1B738
102
{ACAD_REACTORS
330
1B73B
102
}
330
18
100
AcDbEntity
  8
細線
100
AcDbCircle
 10
859.749887921469
 20
203.0309641917203
 30
0.0
 40
0.5
100
AcDbArc
 50
177.3463876628239
 51
272.6536123371757
  0
ARC
  5
1B739
102
{ACAD_REACTORS
330
1B73B
102
}
330
18
100
AcDbEntity
  8
細線
100
AcDbCircle
 10
859.2657371664982
 20
201.2240889756466
 30
0.0
 40
0.5
100
AcDbArc
 50
57.34638766282404
 51
152.6536123371757
  0
ARC
  5
1B73A
102
{ACAD_REACTORS
330
1B73B
102
}
330
18
100
AcDbEntity
  8
細線
100
AcDbCircle
 10
860.0294124901795
 20
201.9877642993281
 30
0.0
 40
0.5
100
AcDbArc
 50
117.3463876628239
 51
212.6536123371757
  0
CIRCLE
  5
1B73C
102
{ACAD_REACTORS
330
1B744
102
}
330
18
100
AcDbEntity
  8
細線
100
AcDbCircle
 10
954.2490070140756
 20
257.2672888680389
 30
0.0
 40
3.5
  0
ARC
  5
1B73D
102
{ACAD_REACTORS
330
1B744
102
}
330
18
100
AcDbEntity
  8
細線
100
AcDbCircle
 10
953.9694824453651
 20
258.3104887604311
 30
0.0
 40
0.5
100
AcDbArc
 50
237.346387662824
 51
332.6536123371758
  0
ARC
  5
1B73E
102
{ACAD_REACTORS
330
1B744
102
}
330
18
100
AcDbEntity
  8
細線
100
AcDbCircle
 10
953.2058071216834
 20
257.5468134367495
 30
0.0
 40
0.5
100
AcDbArc
 50
297.3463876628239
 51
32.6536123371758
  0
CIRCLE
  5
1B73F
102
{ACAD_REACTORS
330
1B744
102
}
330
18
100
AcDbEntity
  8
細線
100
AcDbCircle
 10
954.2490070140756
 20
257.2672888680389
 30
0.0
 40
0.8299999999999998
  0
ARC
  5
1B740
102
{ACAD_REACTORS
330
1B744
102
}
330
18
100
AcDbEntity
  8
細線
100
AcDbCircle
 10
953.4853316903941
 20
256.5036135443573
 30
0.0
 40
0.5
100
AcDbArc
 50
357.346387662824
 51
92.65361233717582
  0
ARC
  5
1B741
102
{ACAD_REACTORS
330
1B744
102
}
330
18
100
AcDbEntity
  8
細線
100
AcDbCircle
 10
955.0126823377572
 20
258.0309641917204
 30
0.0
 40
0.5
100
AcDbArc
 50
177.3463876628239
 51
272.6536123371757
  0
ARC
  5
1B742
102
{ACAD_REACTORS
330
1B744
102
}
330
18
100
AcDbEntity
  8
細線
100
AcDbCircle
 10
954.5285315827864
 20
256.2240889756466
 30
0.0
 40
0.5
100
AcDbArc
 50
57.34638766282404
 51
152.6536123371757
  0
ARC
  5
1B743
102
{ACAD_REACTORS
330
1B744
102
}
330
18
100
AcDbEntity
  8
細線
100
AcDbCircle
 10
955.2922069064678
 20
256.9877642993281
 30
0.0
 40
0.5
100
AcDbArc
 50
117.3463876628239
 51
212.6536123371757
  0
CIRCLE
  5
1B745
102
{ACAD_REACTORS
330
1B74D
102
}
330
18
100
AcDbEntity
  8
細線
100
AcDbCircle
 10
954.2490070140756
 20
367.2672888680389
 30
0.0
 40
3.5
  0
ARC
  5
1B746
102
{ACAD_REACTORS
330
1B74D
102
}
330
18
100
AcDbEntity
  8
細線
100
AcDbCircle
 10
953.9694824453651
 20
368.3104887604311
 30
0.0
 40
0.5
100
AcDbArc
 50
237.346387662824
 51
332.6536123371758
  0
ARC
  5
1B747
102
{ACAD_REACTORS
330
1B74D
102
}
330
18
100
AcDbEntity
  8
細線
100
AcDbCircle
 10
953.2058071216834
 20
367.5468134367495
 30
0.0
 40
0.5
100
AcDbArc
 50
297.3463876628239
 51
32.6536123371758
  0
CIRCLE
  5
1B748
102
{ACAD_REACTORS
330
1B74D
102
}
330
18
100
AcDbEntity
  8
細線
100
AcDbCircle
 10
954.2490070140756
 20
367.2672888680389
 30
0.0
 40
0.8299999999999998
  0
ARC
  5
1B749
102
{ACAD_REACTORS
330
1B74D
102
}
330
18
100
AcDbEntity
  8
細線
100
AcDbCircle
 10
953.4853316903941
 20
366.5036135443573
 30
0.0
 40
0.5
100
AcDbArc
 50
357.346387662824
 51
92.65361233717582
  0
ARC
  5
1B74A
102
{ACAD_REACTORS
330
1B74D
102
}
330
18
100
AcDbEntity
  8
細線
100
AcDbCircle
 10
955.0126823377572
 20
368.0309641917204
 30
0.0
 40
0.5
100
AcDbArc
 50
177.3463876628239
 51
272.6536123371757
  0
ARC
  5
1B74B
102
{ACAD_REACTORS
330
1B74D
102
}
330
18
100
AcDbEntity
  8
細線
100
AcDbCircle
 10
954.5285315827864
 20
366.2240889756466
 30
0.0
 40
0.5
100
AcDbArc
 50
57.34638766282404
 51
152.6536123371757
  0
ARC
  5
1B74C
102
{ACAD_REACTORS
330
1B74D
102
}
330
18
100
AcDbEntity
  8
細線
100
AcDbCircle
 10
955.2922069064678
 20
366.9877642993281
 30
0.0
 40
0.5
100
AcDbArc
 50
117.3463876628239
 51
212.6536123371757
  0
CIRCLE
  5
1B74E
102
{ACAD_REACTORS
330
1B756
102
}
330
18
100
AcDbEntity
  8
細線
100
AcDbCircle
 10
858.9862125977875
 20
422.2672888680389
 30
0.0
 40
3.5
  0
ARC
  5
1B74F
102
{ACAD_REACTORS
330
1B756
102
}
330
18
100
AcDbEntity
  8
細線
100
AcDbCircle
 10
858.7066880290768
 20
423.310488760431
 30
0.0
 40
0.5
100
AcDbArc
 50
237.346387662824
 51
332.6536123371758
  0
ARC
  5
1B750
102
{ACAD_REACTORS
330
1B756
102
}
330
18
100
AcDbEntity
  8
細線
100
AcDbCircle
 10
857.9430127053951
 20
422.5468134367495
 30
0.0
 40
0.5
100
AcDbArc
 50
297.3463876628239
 51
32.6536123371758
  0
CIRCLE
  5
1B751
102
{ACAD_REACTORS
330
1B756
102
}
330
18
100
AcDbEntity
  8
細線
100
AcDbCircle
 10
858.9862125977875
 20
422.2672888680389
 30
0.0
 40
0.8299999999999998
  0
ARC
  5
1B752
102
{ACAD_REACTORS
330
1B756
102
}
330
18
100
AcDbEntity
  8
細線
100
AcDbCircle
 10
858.2225372741058
 20
421.5036135443573
 30
0.0
 40
0.5
100
AcDbArc
 50
357.346387662824
 51
92.65361233717582
  0
ARC
  5
1B753
102
{ACAD_REACTORS
330
1B756
102
}
330
18
100
AcDbEntity
  8
細線
100
AcDbCircle
 10
859.749887921469
 20
423.0309641917203
 30
0.0
 40
0.5
100
AcDbArc
 50
177.3463876628239
 51
272.6536123371757
  0
ARC
  5
1B754
102
{ACAD_REACTORS
330
1B756
102
}
330
18
100
AcDbEntity
  8
細線
100
AcDbCircle
 10
859.2657371664982
 20
421.2240889756466
 30
0.0
 40
0.5
100
AcDbArc
 50
57.34638766282404
 51
152.6536123371757
  0
ARC
  5
1B755
102
{ACAD_REACTORS
330
1B756
102
}
330
18
100
AcDbEntity
  8
細線
100
AcDbCircle
 10
860.0294124901795
 20
421.9877642993281
 30
0.0
 40
0.5
100
AcDbArc
 50
117.3463876628239
 51
212.6536123371757
  0
LINE
  5
1B7D5
330
18
100
AcDbEntity
  8
0
100
AcDbLine
 10
624.6615686994182
 20
129.0055980022231
 30
0.0
 11
620.8770938135735
 21
106.6055980022235
 31
0.0
  0
LINE
  5
1B7D6
330
18
100
AcDbEntity
  8
0
100
AcDbLine
 10
625.9527787450801
 20
106.6055980022235
 30
0.0
 11
625.9527787450801
 21
129.0055980022231
 31
0.0
  0
LINE
  5
1B7D7
330
18
100
AcDbEntity
  8
0
100
AcDbLine
 10
627.2439887907421
 20
129.0055980022231
 30
0.0
 11
631.0284636765868
 21
106.6055980022235
 31
0.0
  0
LINE
  5
1B7D8
330
18
100
AcDbEntity
  8
0
100
AcDbLine
 10
620.1277847981232
 20
82.90555290074797
 30
0.0
 11
620.1277847981232
 21
92.40555290074842
 31
0.0
  0
LINE
  5
1B7D9
330
18
100
AcDbEntity
  8
0
100
AcDbLine
 10
628.3277847981231
 20
82.90555290074797
 30
0.0
 11
628.3277847981231
 21
92.40555290074842
 31
0.0
  0
LINE
  5
1B7DA
330
18
100
AcDbEntity
  8
0
100
AcDbLine
 10
627.6777847981234
 20
82.90555290074797
 30
0.0
 11
627.6777847981229
 21
92.40555290074842
 31
0.0
  0
LINE
  5
1B7DB
330
18
100
AcDbEntity
  8
0
100
AcDbLine
 10
624.2277847981231
 20
82.90555290074797
 30
0.0
 11
624.2277847981231
 21
92.40555290074842
 31
0.0
  0
LINE
  5
1B7DC
330
18
100
AcDbEntity
  8
0
100
AcDbLine
 10
623.5777847981235
 20
82.90555290074797
 30
0.0
 11
623.5777847981235
 21
92.40555290074842
 31
0.0
  0
LINE
  5
1B7DD
330
18
100
AcDbEntity
  8
0
100
AcDbLine
 10
631.7777847981233
 20
82.90555290074797
 30
0.0
 11
631.7777847981233
 21
92.40555290074842
 31
0.0
  0
LINE
  5
1B7DE
330
18
100
AcDbEntity
  8
0
100
AcDbLine
 10
631.7777847981233
 20
82.90555290074843
 30
0.0
 11
628.3277847981225
 21
82.90555290074797
 31
0.0
  0
LINE
  5
1B7DF
330
18
100
AcDbEntity
  8
0
100
AcDbLine
 10
623.5777847981235
 20
82.90555290074797
 30
0.0
 11
620.1277847981232
 21
82.90555290074797
 31
0.0
  0
LINE
  5
1B7E0
330
18
100
AcDbEntity
  8
0
100
AcDbLine
 10
627.6777847981234
 20
82.90555290074797
 30
0.0
 11
624.2277847981231
 21
82.90555290074797
 31
0.0
  0
LINE
  5
1B7E1
330
18
100
AcDbEntity
  8
0
100
AcDbLine
 10
632.7527847981228
 20
92.40555290074842
 30
0.0
 11
619.1527847981233
 21
92.40555290074842
 31
0.0
  0
LINE
  5
1B7E2
330
18
100
AcDbEntity
  8
0
100
AcDbLine
 10
633.7527787450803
 20
106.605598002223
 30
0.0
 11
618.15277874508
 21
106.6055980022239
 31
0.0
  0
LINE
  5
1B7E3
330
18
100
AcDbEntity
  8
0
100
AcDbLine
 10
617.6880268177542
 20
94.41949521445275
 30
0.0
 11
616.7242133695517
 21
99.88555290074891
 31
0.0
  0
LINE
  5
1B7E4
330
18
100
AcDbEntity
  8
0
100
AcDbLine
 10
619.1527847981233
 20
105.5055980022245
 30
0.0
 11
619.1527847981233
 21
92.40555290074842
 31
0.0
  0
LINE
  5
1B7E5
330
18
100
AcDbEntity
  8
0
100
AcDbLine
 10
615.3350705124089
 20
89.52041004360552
 30
0.0
 11
615.3350705124089
 21
99.88555290074799
 31
0.0
  0
LINE
  5
1B7E6
330
18
100
AcDbEntity
  8
0
100
AcDbLine
 10
615.7527847981228
 20
98.91412432931993
 30
0.0
 11
615.3350705124089
 21
98.91412432931993
 31
0.0
  0
LINE
  5
1B7E7
330
18
100
AcDbEntity
  8
0
100
AcDbLine
 10
619.1527847981233
 20
92.40555290074842
 30
0.0
 11
615.3350705124089
 21
92.40555290074842
 31
0.0
  0
ARC
  5
1B7E8
330
18
100
AcDbEntity
  8
0
100
AcDbCircle
 10
618.6670705124092
 20
94.5038386150342
 30
0.0
 40
0.4857142857142857
100
AcDbArc
 50
270.000000000013
 51
0.0
  0
ARC
  5
1B7E9
330
18
100
AcDbEntity
  8
0
100
AcDbCircle
 10
618.1663620120744
 20
94.50383861503373
 30
0.0
 40
0.4857142857142857
100
AcDbArc
 50
190.0000000000042
 51
270.000000000013
  0
LINE
  5
1B7EA
330
18
100
AcDbEntity
  8
0
100
AcDbLine
 10
618.6670705124092
 20
94.01812432932018
 30
0.0
 11
618.1663620120748
 21
94.01812432931974
 31
0.0
  0
LINE
  5
1B7EB
330
18
100
AcDbEntity
  8
0
100
AcDbLine
 10
617.9870705124089
 20
86.67412432931968
 30
0.0
 11
616.7242133695517
 21
86.67412432931968
 31
0.0
  0
LINE
  5
1B7EC
330
18
100
AcDbEntity
  8
0
100
AcDbLine
 10
615.7527847981232
 20
89.10269575789124
 30
0.0
 11
615.3350705124089
 21
89.52041004360552
 31
0.0
  0
LINE
  5
1B7ED
330
18
100
AcDbEntity
  8
0
100
AcDbLine
 10
616.7242133695517
 20
89.10269575789124
 30
0.0
 11
615.7527847981232
 21
89.10269575789124
 31
0.0
  0
LINE
  5
1B7EE
330
18
100
AcDbEntity
  8
0
100
AcDbLine
 10
615.7527847981232
 20
87.64555290074822
 30
0.0
 11
616.7242133695517
 21
86.67412432931968
 31
0.0
  0
LINE
  5
1B7EF
330
18
100
AcDbEntity
  8
0
100
AcDbLine
 10
618.9584990838375
 20
87.64555290074822
 30
0.0
 11
618.9584990838375
 21
89.10269575789078
 31
0.0
  0
LINE
  5
1B7F0
330
18
100
AcDbEntity
  8
0
100
AcDbLine
 10
618.9584990838375
 20
89.10269575789124
 30
0.0
 11
617.8899276552661
 21
89.00555290074789
 31
0.0
  0
LINE
  5
1B7F1
330
18
100
AcDbEntity
  8
0
100
AcDbLine
 10
617.9870705124089
 20
86.67412432931968
 30
0.0
 11
618.9584990838375
 21
87.64555290074822
 31
0.0
  0
LINE
  5
1B7F2
330
18
100
AcDbEntity
  8
0
100
AcDbLine
 10
616.7242133695517
 20
89.10269575789124
 30
0.0
 11
616.7242133695517
 21
92.40555290074842
 31
0.0
  0
LINE
  5
1B7F3
330
18
100
AcDbEntity
  8
0
100
AcDbLine
 10
617.8899276552661
 20
89.00555290074789
 30
0.0
 11
617.8899276552661
 21
92.40555290074842
 31
0.0
  0
LINE
  5
1B7F4
330
18
100
AcDbEntity
  8
0
100
AcDbLine
 10
615.7527847981232
 20
87.64555290074822
 30
0.0
 11
615.7527847981228
 21
98.91412432931993
 31
0.0
  0
LINE
  5
1B7F5
330
18
100
AcDbEntity
  8
0
100
AcDbLine
 10
618.15277874508
 20
106.6055980022239
 30
0.0
 11
618.15277874508
 21
105.5055980022245
 31
0.0
  0
LINE
  5
1B7F6
330
18
100
AcDbEntity
  8
0
100
AcDbLine
 10
619.1527847981233
 20
105.5055980022245
 30
0.0
 11
618.15277874508
 21
105.5055980022245
 31
0.0
  0
LINE
  5
1B7F7
330
18
100
AcDbEntity
  8
0
100
AcDbLine
 10
616.7242133695517
 20
99.88555290074891
 30
0.0
 11
615.3350705124089
 21
99.88555290074845
 31
0.0
  0
LINE
  5
1B7F8
330
18
100
AcDbEntity
  8
0
100
AcDbLine
 10
632.7527847981228
 20
105.5055980022231
 30
0.0
 11
632.7527847981228
 21
92.40555290074842
 31
0.0
  0
LINE
  5
1B7F9
330
18
100
AcDbEntity
  8
0
100
AcDbLine
 10
633.7527787450803
 20
105.5055980022236
 30
0.0
 11
632.7527847981228
 21
105.5055980022231
 31
0.0
  0
LINE
  5
1B7FA
330
18
100
AcDbEntity
  8
0
100
AcDbLine
 10
633.7527787450803
 20
106.6055980022239
 30
0.0
 11
633.7527787450803
 21
105.5055980022245
 31
0.0
  0
ARC
  5
1B7FB
330
18
100
AcDbEntity
  8
0
100
AcDbCircle
 10
624.8170067121643
 20
169.9137045913772
 30
0.0
 40
10.0
100
AcDbArc
 50
325.6173623158453
 51
0.0
  0
ARC
  5
1B7FC
330
18
100
AcDbEntity
  8
0
100
AcDbCircle
 10
629.0170067121648
 20
169.9110760993127
 30
0.0
 40
10.0
100
AcDbArc
 50
325.6448534167714
 51
0.0
  0
ARC
  5
1B7FD
330
18
100
AcDbEntity
  8
0
100
AcDbCircle
 10
626.9061185496293
 20
170.1036545307406
 30
0.0
 40
10.0
100
AcDbArc
 50
180.0
 51
214.3605280011006
  0
ARC
  5
1B7FE
330
18
100
AcDbEntity
  8
0
100
AcDbCircle
 10
622.9061185496266
 20
169.7632246103618
 30
0.0
 40
10.0
100
AcDbArc
 50
180.0
 51
214.4230669294486
  0
LINE
  5
1B7FF
330
18
100
AcDbEntity
  8
0
100
AcDbLine
 10
629.7727724786458
 20
153.2962857939614
 30
0.0
 11
637.2725619527702
 21
164.2678671124585
 31
0.0
  0
LINE
  5
1B800
330
18
100
AcDbEntity
  8
0
100
AcDbLine
 10
625.5641600911246
 20
153.2976177519889
 30
0.0
 11
633.0698533332045
 21
164.2665351544305
 31
0.0
  0
LINE
  5
1B801
330
18
100
AcDbEntity
  8
0
100
AcDbLine
 10
622.0658665038223
 20
153.2995734986647
 30
0.0
 11
614.657258757969
 21
164.1102331777152
 31
0.0
  0
LINE
  5
1B802
330
18
100
AcDbEntity
  8
0
100
AcDbLine
 10
625.9235390798055
 20
153.8228188647807
 30
0.0
 11
618.6510933751525
 21
164.459670178463
 31
0.0
  0
ARC
  5
1B803
330
18
100
AcDbEntity
  8
0
100
AcDbCircle
 10
638.0283277192512
 20
147.6530768071071
 30
0.0
 40
10.0
100
AcDbArc
 50
145.6448534167714
 51
180.0
  0
ARC
  5
1B804
330
18
100
AcDbEntity
  8
0
100
AcDbCircle
 10
613.8170067121648
 20
147.646582066018
 30
0.0
 40
10.0
100
AcDbArc
 50
0.0
 51
34.42306692944868
  0
ARC
  5
1B805
330
18
100
AcDbEntity
  8
0
100
AcDbCircle
 10
633.8170067121648
 20
147.650448315042
 30
0.0
 40
10.0
100
AcDbArc
 50
145.6173623158446
 51
180.0
  0
LINE
  5
1B806
330
18
100
AcDbEntity
  8
0
100
AcDbLine
 10
623.8170067121646
 20
142.7672888680387
 30
0.0
 11
623.8170067121648
 21
147.6504483150421
 31
0.0
  0
LINE
  5
1B807
330
18
100
AcDbEntity
  8
0
100
AcDbLine
 10
623.8170067121646
 20
142.7672888680387
 30
0.0
 11
623.8170067121648
 21
147.6465820660178
 31
0.0
  0
LINE
  5
1B808
330
18
100
AcDbEntity
  8
0
100
AcDbLine
 10
628.0283277192512
 20
142.7672888680387
 30
0.0
 11
628.0283277192512
 21
147.6530768071073
 31
0.0
  0
LINE
  5
1B809
330
18
100
AcDbEntity
  8
0
100
AcDbLine
 10
639.0170067121649
 20
169.9110760993127
 30
0.0
 11
639.0170067121649
 21
228.6276884373886
 31
0.0
  0
LINE
  5
1B80A
330
18
100
AcDbEntity
  8
0
100
AcDbLine
 10
612.9061185496266
 20
169.7632246103618
 30
0.0
 11
612.9061185496265
 21
202.2672888680387
 31
0.0
  0
LINE
  5
1B80B
330
18
100
AcDbEntity
  8
0
100
AcDbLine
 10
634.8170067121648
 20
228.6276884373886
 30
0.0
 11
634.8170067121643
 21
169.9137045913772
 31
0.0
  0
LINE
  5
1B80C
330
18
100
AcDbEntity
  8
0
100
AcDbLine
 10
617.1061185496263
 20
202.2672888680387
 30
0.0
 11
616.9061185496294
 21
170.1036545307406
 31
0.0
  0
LINE
  5
1BC42
330
18
100
AcDbEntity
  8
0
100
AcDbLine
 10
553.3402552046068
 20
112.0492205613248
 30
0.0
 11
553.3402552046068
 21
109.067288868039
 31
0.0
  0
LINE
  5
1BC43
330
18
100
AcDbEntity
  8
0
100
AcDbLine
 10
560.5402552046067
 20
112.0492205613248
 30
0.0
 11
560.5402552046066
 21
109.067288868039
 31
0.0
  0
LINE
  5
1BC44
330
18
100
AcDbEntity
  8
0
100
AcDbLine
 10
553.3402552046068
 20
112.0492205613248
 30
0.0
 11
560.5402552046067
 21
112.0492205613248
 31
0.0
  0
CIRCLE
  5
1C157
330
18
100
AcDbEntity
  8
細線
100
AcDbCircle
 10
126.3226647907831
 20
312.2672888680407
 30
0.0
 40
201.0
  0
LINE
  5
1C230
330
18
100
AcDbEntity
  8
0
100
AcDbLine
 10
454.8402552046058
 20
513.7672888680388
 30
0.0
 11
455.8402552046059
 21
514.7672888680387
 31
0.0
  0
LINE
  5
1C23A
330
18
100
AcDbEntity
  8
0
100
AcDbLine
 10
454.8402552046058
 20
110.7672888680395
 30
0.0
 11
455.8402552046059
 21
109.7672888680395
 31
0.0
  0
MTEXT
  5
1C2E3
330
18
100
AcDbEntity
  8
文字
100
AcDbMText
 10
597.4578529306947
 20
-205.0241036809437
 30
0.0
 40
18.0
 41
473.9899984107039
 71
     1
 72
     5
  1
{\fＭＳ ゴシック|b0|i0|c128|p49;τDISCﾓｰﾀ D400-100-LP NMR-FUFBA2C-252AP}
1001
ACAD
1000
MTEXTBEGIN
1070
    73
1070
     1
1070
    44
1040
1.0
1070
    74
1070
     0
1000
MTEXTEND
1000
MTEXTBEGIN
1070
    73
1070
     1
1070
    44
1040
1.0
1070
    74
1070
     0
1000
MTEXTEND
  0
CIRCLE
  5
1C2EB
330
18
100
AcDbEntity
  8
0
100
AcDbCircle
 10
126.3226647907831
 20
312.2672888680397
 30
0.0
 40
32.49999999999856
  0
CIRCLE
  5
1C2EC
330
18
100
AcDbEntity
  8
0
100
AcDbCircle
 10
126.3226647907831
 20
312.2672888680397
 30
0.0
 40
75.0000000000007
  0
VIEWPORT
  5
23
330
15
100
AcDbEntity
 67
     1
  8
0
100
AcDbViewport
 10
200.0525594173034
 20
143.9731673106199
 30
0.0
 40
434.0998984574337
 41
284.1118936747988
 68
     1
 69
     1
1001
ACAD
1000
MVIEW
1002
{
1070
    16
1010
0.0
1020
0.0
1030
0.0
1010
0.0
1020
0.0
1030
1.0
1040
0.0
1040
284.1118936747988
1040
200.0525594173034
1040
143.9731673106199
1040
50.0
1040
0.0
1040
0.0
1070
     0
1070
   100
1070
     1
1070
     0
1070
     0
1070
     0
1070
     0
1070
     0
1040
0.0
1040
0.0
1040
0.0
1040
10.0
1040
10.0
1040
10.0
1040
10.0
1070
     0
1002
{
1002
}
1002
}
  0
VIEWPORT
  5
2E
330
15
100
AcDbEntity
 67
     1
  8
M_VIEW
100
AcDbViewport
 10
200.0605176585786
 20
143.9722582232328
 30
0.0
 40
399.8789646828427
 41
281.9260340525218
 68
     2
 69
     2
1001
ACAD
1000
MVIEW
1002
{
1070
    16
1010
0.0
1020
0.0
1030
0.0
1010
0.0
1020
0.0
1030
1.0
1040
0.0
1040
845.7781094129236
1040
489.9704975484025
1040
142.2048361999068
1040
50.0
1040
0.0
1040
0.0
1070
     0
1070
   100
1070
     1
1070
     0
1070
     0
1070
     0
1070
     0
1070
     0
1040
0.0
1040
0.0
1040
0.0
1040
10.0
1040
10.0
1040
10.0
1040
10.0
1070
     0
1002
{
1002
}
1002
}
  0
INSERT
  5
115F
330
15
100
AcDbEntity
 67
     1
  8
FRAME025
100
AcDbBlockReference
  2
機械A4横_LBP
 10
82.74908858651452
 20
152.030959079227
 30
0.0
  0
TEXT
  5
AA6A
330
15
100
AcDbEntity
 67
     1
  8
文字
  6
BYBLOCK
 62
     0
100
AcDbText
 10
32.81885892396519
 20
73.01882819621747
 30
0.0
 40
3.2
  1

 50
90.0
 41
0.625
  7
MSｺ_ｼｯｸ
100
AcDbText
  0
TEXT
  5
AA6C
330
15
100
AcDbEntity
 67
     1
  8
文字
  6
BYBLOCK
 62
     0
100
AcDbText
 10
37.25020936743055
 20
73.01882819621747
 30
0.0
 40
3.2
  1

 50
90.0
 41
0.625
  7
MSｺ_ｼｯｸ
100
AcDbText
  0
TEXT
  5
FCA5
330
15
100
AcDbEntity
 67
     1
  8
FRAME020
  6
CONTINUOUS
100
AcDbText
 10
126.6213117262079
 20
29.63926951973459
 30
0.0
 40
2.5
  1

 41
0.625
  7
MSｺ_ｼｯｸ
100
AcDbText
  0
TEXT
  5
12229
330
15
100
AcDbEntity
 67
     1
  8
文字
100
AcDbText
 10
312.5264728536702
 20
9.56362889550644
 30
0.0
 40
7.0
  1
ＳＥ－４２１６１Ａ
 41
0.95
  7
MSｺ_ｼｯｸ
100
AcDbText
  0
ENDSEC
  0
SECTION
  2
OBJECTS
  0
DICTIONARY
  5
C
330
0
100
AcDbDictionary
  3
ACAD_GROUP
350
D
  3
ACAD_LAYOUT
350
DB2
  3
ACAD_MLINESTYLE
350
1B
  3
ACAD_PLOTSETTINGS
350
DB3
  3
ACAD_PLOTSTYLENAME
350
FB5B
  3
ACADDIM
350
1B534
  3
ACDBHEADERROUNDTRIPXREC
350
1C2EE
  3
ACDBVARIABLEDICTIONARY
350
106A6
  3
ASE_INDEX_DICTIONARY
350
1A99F
  3
DWGPROPS
350
15EC9
1001
ACAD
1000
TREAT_AS_HARD
1070
     0
  0
DICTIONARY
  5
1BC29
330
2
100
AcDbDictionary
280
     1
  3
ACAD_LAYERFILTERS
360
1BC2A
  3
ACAD_LAYERSTATES
360
1BC36
  0
DICTIONARY
  5
EFC6
330
18
100
AcDbDictionary
280
     1
  3
ACAD_LAYOUTSELFREF
360
1C310
  0
DICTIONARY
  5
EFC4
330
15
100
AcDbDictionary
280
     1
  3
ACAD_LAYOUTSELFREF
360
1C30F
  0
DICTIONARY
  5
D
102
{ACAD_REACTORS
330
C
102
}
330
C
100
AcDbDictionary
  3
*A1
350
AC8A
  3
*A10
350
ACA2
  3
*A11
350
106B3
  3
*A12
350
169DA
  3
*A13
350
1A691
  3
*A14
350
19AA4
  3
*A15
350
16068
  3
*A16
350
18F20
  3
*A17
350
1A09A
  3
*A18
350
1B73B
  3
*A19
350
1606A
  3
*A2
350
173BF
  3
*A20
350
1A695
  3
*A21
350
19F87
  3
*A22
350
106C6
  3
*A23
350
18FA7
  3
*A24
350
ACAB
  3
*A25
350
1B74D
  3
*A26
350
18F21
  3
*A27
350
FC9B
  3
*A28
350
19FAB
  3
*A29
350
1738B
  3
*A3
350
196C2
  3
*A30
350
16059
  3
*A31
350
1B756
  3
*A32
350
18FA8
  3
*A33
350
19787
  3
*A34
350
FCB8
  3
*A35
350
FB6B
  3
*A36
350
AC9A
  3
*A37
350
19259
  3
*A38
350
173BE
  3
*A39
350
198F1
  3
*A4
350
FC95
  3
*A40
350
1B732
  3
*A41
350
19F55
  3
*A42
350
1A692
  3
*A43
350
19729
  3
*A44
350
1738A
  3
*A45
350
1B744
  3
*A46
350
19F99
  3
*A47
350
19794
  3
*A48
350
19861
  3
*A49
350
19881
  3
*A5
350
106A5
  3
*A50
350
19786
  3
*A51
350
FB6C
  3
*A52
350
173BD
  3
*A53
350
17389
  3
*A54
350
16069
  3
*A55
350
19988
  3
*A56
350
1AA94
  3
*A57
350
1998A
  3
*A58
350
19A86
  3
*A59
350
19A51
  3
*A6
350
ACB4
  3
*A60
350
19A5A
  3
*A61
350
19F67
  3
*A62
350
106C7
  3
*A63
350
19255
  3
*A64
350
19989
  3
*A65
350
17B11
  3
*A66
350
ACBD
  3
*A67
350
19A52
  3
*A68
350
18F22
  3
*A69
350
17901
  3
*A7
350
1606B
  3
*A70
350
FC91
  3
*A71
350
ACA1
  3
*A72
350
FC9A
  3
*A73
350
17BFF
  3
*A74
350
18F1F
  3
*A75
350
1C1BC
  3
*A76
350
19256
  3
*A77
350
1C1BD
  3
*A78
350
1B720
  3
*A79
350
1C1BE
  3
*A8
350
16058
  3
*A80
350
1C1BF
  3
*A81
350
18F23
  3
*A82
350
18FA6
  3
*A83
350
1B729
  3
*A9
350
FBFF
1001
ACAD
1000
TREAT_AS_HARD
1070
     0
  0
DICTIONARY
  5
DB2
102
{ACAD_REACTORS
330
C
102
}
330
C
100
AcDbDictionary
1001
ACAD
1000
TREAT_AS_HARD
1070
     0
  0
DICTIONARY
  5
1B
102
{ACAD_REACTORS
330
C
102
}
330
C
100
AcDbDictionary
  3
STANDARD
350
1C
1001
ACAD
1000
TREAT_AS_HARD
1070
     0
  0
DICTIONARY
  5
DB3
102
{ACAD_REACTORS
330
C
102
}
330
C
100
AcDbDictionary
1001
ACAD
1000
TREAT_AS_HARD
1070
     0
  0
ACDBDICTIONARYWDFLT
  5
FB5B
102
{ACAD_REACTORS
330
C
102
}
330
C
100
AcDbDictionary
281
     1
  3
Normal
350
FB5C
100
AcDbDictionaryWithDefault
340
FB5C
  0
XRECORD
  5
1B534
102
{ACAD_REACTORS
330
C
102
}
330
C
100
AcDbXrecord
 90
   990106
  3

 60
     0
 61
     0
 62
     4
 63
     4
 64
     1
 65
     0
 66
     0
 67
     3
 68
     1
 69
     0
 70
     0
 71
     0
 72
     0
 40
0.0
170
     2
340
1B53A
  0
DICTIONARY
  5
1C2EE
102
{ACAD_REACTORS
330
C
102
}
330
C
100
AcDbDictionary
  3
CEPSNTYPE
350
1C2F8
  3
DIMSTYLEDATA
350
1C2FC
  3
FINGERPRINTGUID
350
1C2F9
  3
HYPERLINKBASE
350
1C2F1
  3
INSUNITS
350
1C2F7
  3
LAYOUTDICT
350
1C2F3
  3
LWETCUNION
350
1C2F6
  3
PLOTSETDICT
350
1C2F4
  3
PLOTSTYLNAMDICT
350
1C2F5
  3
PSVPSCALE
350
1C2FB
  3
PUCSBASE
350
1C2FF
  3
PUCSORGBACK
350
1C305
  3
PUCSORGBOTTOM
350
1C301
  3
PUCSORGFRONT
350
1C304
  3
PUCSORGLEFT
350
1C302
  3
PUCSORGRIGHT
350
1C303
  3
PUCSORGTOP
350
1C300
  3
PUCSORTHOREF
350
1C2FD
  3
PUCSORTHOVIEW
350
1C2FE
  3
STYLESHEET
350
1C2F2
  3
TSTACKALIGN
350
1C2EF
  3
TSTACKSIZE
350
1C2F0
  3
UCSBASE
350
1C308
  3
UCSORGBACK
350
1C30E
  3
UCSORGBOTTOM
350
1C30A
  3
UCSORGFRONT
350
1C30D
  3
UCSORGLEFT
350
1C30B
  3
UCSORGRIGHT
350
1C30C
  3
UCSORGTOP
350
1C309
  3
UCSORTHOREF
350
1C306
  3
UCSORTHOVIEW
350
1C307
  3
VERSIONGUID
350
1C2FA
  0
DICTIONARY
  5
106A6
102
{ACAD_REACTORS
330
C
102
}
330
C
100
AcDbDictionary
  3
SORTENTS
350
106A7
  0
DICTIONARY
  5
1A99F
102
{ACAD_REACTORS
330
C
102
}
330
C
100
AcDbDictionary
  3
ASEBLOCKHIERARCHYINDEXRECORD
350
1A9A1
1001
DCO15
1040
1464612067.17
  0
XRECORD
  5
15EC9
102
{ACAD_REACTORS
330
C
102
}
330
C
100
AcDbXrecord
  1
DWGPROPS COOKIE
  2

  3

  4

  6

  7

  8

  9

300
=
301
=
302
=
303
=
304
=
305
=
306
=
307
=
308
=
309
=
 40
12.65185717592592
 41
2451224.660162384
 42
2452395.660827315
  1

 90
        0
  0
DICTIONARY
  5
1BC2A
102
{ACAD_REACTORS
330
1BC29
102
}
330
1BC29
100
AcDbDictionary
280
     1
  3
0
360
1BC2B
  3
11
360
1BC2C
  3
150_
360
1BC2D
  3
160_
360
1BC2E
  3
170_
360
1BC2F
  3
171_
360
1BC30
  3
350_
360
1BC31
  3
4
360
1BC32
  3
5
360
1BC33
  3
7
360
1BC34
  3
KISEKI
360
1BC35
  0
DICTIONARY
  5
1BC36
102
{ACAD_REACTORS
330
1BC29
102
}
330
1BC29
100
AcDbDictionary
  0
XRECORD
  5
1C310
102
{ACAD_REACTORS
330
EFC6
102
}
330
EFC6
100
AcDbXrecord
340
18
  0
XRECORD
  5
1C30F
102
{ACAD_REACTORS
330
EFC4
102
}
330
EFC4
100
AcDbXrecord
340
15
  0
GROUP
  5
AC8A
102
{ACAD_REACTORS
330
D
102
}
330
D
100
AcDbGroup
300

 70
     1
 71
     1
  0
GROUP
  5
ACA2
102
{ACAD_REACTORS
330
D
102
}
330
D
100
AcDbGroup
300

 70
     1
 71
     1
  0
GROUP
  5
106B3
102
{ACAD_REACTORS
330
D
102
}
330
D
100
AcDbGroup
300

 70
     1
 71
     1
  0
GROUP
  5
169DA
102
{ACAD_REACTORS
330
D
102
}
330
D
100
AcDbGroup
300

 70
     1
 71
     1
  0
GROUP
  5
1A691
102
{ACAD_REACTORS
330
D
102
}
330
D
100
AcDbGroup
300

 70
     1
 71
     1
340
1A62A
340
1A61F
340
1A668
340
1A667
340
1A615
340
1A616
340
1A61E
340
1A618
340
1A617
340
1A61D
340
1A61C
340
1A61B
340
1A61A
340
1A627
340
1A626
340
1A623
340
1A622
340
1A619
340
1A62D
340
1A614
340
1A612
340
1A625
340
1A624
340
1A621
340
1A620
340
1A613
340
1A62F
340
1A62E
340
1A62C
340
1A62B
  0
GROUP
  5
19AA4
102
{ACAD_REACTORS
330
D
102
}
330
D
100
AcDbGroup
300

 70
     1
 71
     1
  0
GROUP
  5
16068
102
{ACAD_REACTORS
330
D
102
}
330
D
100
AcDbGroup
300

 70
     1
 71
     1
  0
GROUP
  5
18F20
102
{ACAD_REACTORS
330
D
102
}
330
D
100
AcDbGroup
300

 70
     1
 71
     1
  0
GROUP
  5
1A09A
102
{ACAD_REACTORS
330
D
102
}
330
D
100
AcDbGroup
300

 70
     1
 71
     1
  0
GROUP
  5
1B73B
102
{ACAD_REACTORS
330
D
102
}
330
D
100
AcDbGroup
300

 70
     1
 71
     1
340
1B733
340
1B734
340
1B735
340
1B736
340
1B737
340
1B738
340
1B739
340
1B73A
  0
GROUP
  5
1606A
102
{ACAD_REACTORS
330
D
102
}
330
D
100
AcDbGroup
300

 70
     1
 71
     1
  0
GROUP
  5
173BF
102
{ACAD_REACTORS
330
D
102
}
330
D
100
AcDbGroup
300

 70
     1
 71
     1
  0
GROUP
  5
1A695
102
{ACAD_REACTORS
330
D
102
}
330
D
100
AcDbGroup
300

 70
     1
 71
     1
  0
GROUP
  5
19F87
102
{ACAD_REACTORS
330
D
102
}
330
D
100
AcDbGroup
300

 70
     1
 71
     1
  0
GROUP
  5
106C6
102
{ACAD_REACTORS
330
D
102
}
330
D
100
AcDbGroup
300

 70
     1
 71
     1
  0
GROUP
  5
18FA7
102
{ACAD_REACTORS
330
D
102
}
330
D
100
AcDbGroup
300

 70
     1
 71
     1
  0
GROUP
  5
ACAB
102
{ACAD_REACTORS
330
D
102
}
330
D
100
AcDbGroup
300

 70
     1
 71
     1
  0
GROUP
  5
1B74D
102
{ACAD_REACTORS
330
D
102
}
330
D
100
AcDbGroup
300

 70
     1
 71
     1
340
1B745
340
1B746
340
1B747
340
1B748
340
1B749
340
1B74A
340
1B74B
340
1B74C
  0
GROUP
  5
18F21
102
{ACAD_REACTORS
330
D
102
}
330
D
100
AcDbGroup
300

 70
     1
 71
     1
  0
GROUP
  5
FC9B
102
{ACAD_REACTORS
330
D
102
}
330
D
100
AcDbGroup
300

 70
     1
 71
     1
  0
GROUP
  5
19FAB
102
{ACAD_REACTORS
330
D
102
}
330
D
100
AcDbGroup
300

 70
     1
 71
     1
  0
GROUP
  5
1738B
102
{ACAD_REACTORS
330
D
102
}
330
D
100
AcDbGroup
300

 70
     1
 71
     1
  0
GROUP
  5
196C2
102
{ACAD_REACTORS
330
D
102
}
330
D
100
AcDbGroup
300

 70
     1
 71
     1
  0
GROUP
  5
16059
102
{ACAD_REACTORS
330
D
102
}
330
D
100
AcDbGroup
300

 70
     1
 71
     1
  0
GROUP
  5
1B756
102
{ACAD_REACTORS
330
D
102
}
330
D
100
AcDbGroup
300

 70
     1
 71
     1
340
1B74E
340
1B74F
340
1B750
340
1B751
340
1B752
340
1B753
340
1B754
340
1B755
  0
GROUP
  5
18FA8
102
{ACAD_REACTORS
330
D
102
}
330
D
100
AcDbGroup
300

 70
     1
 71
     1
  0
GROUP
  5
19787
102
{ACAD_REACTORS
330
D
102
}
330
D
100
AcDbGroup
300

 70
     1
 71
     1
  0
GROUP
  5
FCB8
102
{ACAD_REACTORS
330
D
102
}
330
D
100
AcDbGroup
300

 70
     1
 71
     1
  0
GROUP
  5
FB6B
102
{ACAD_REACTORS
330
D
102
}
330
D
100
AcDbGroup
300

 70
     1
 71
     1
  0
GROUP
  5
AC9A
102
{ACAD_REACTORS
330
D
102
}
330
D
100
AcDbGroup
300

 70
     1
 71
     1
  0
GROUP
  5
19259
102
{ACAD_REACTORS
330
D
102
}
330
D
100
AcDbGroup
300

 70
     1
 71
     1
  0
GROUP
  5
173BE
102
{ACAD_REACTORS
330
D
102
}
330
D
100
AcDbGroup
300

 70
     1
 71
     1
  0
GROUP
  5
198F1
102
{ACAD_REACTORS
330
D
102
}
330
D
100
AcDbGroup
300

 70
     1
 71
     1
  0
GROUP
  5
FC95
102
{ACAD_REACTORS
330
D
102
}
330
D
100
AcDbGroup
300

 70
     1
 71
     1
  0
GROUP
  5
1B732
102
{ACAD_REACTORS
330
D
102
}
330
D
100
AcDbGroup
300

 70
     1
 71
     1
340
1B72A
340
1B72B
340
1B72C
340
1B72D
340
1B72E
340
1B72F
340
1B730
340
1B731
  0
GROUP
  5
19F55
102
{ACAD_REACTORS
330
D
102
}
330
D
100
AcDbGroup
300

 70
     1
 71
     1
  0
GROUP
  5
1A692
102
{ACAD_REACTORS
330
D
102
}
330
D
100
AcDbGroup
300

 70
     1
 71
     1
340
1A5A3
340
1A591
340
1A590
340
1A58F
340
1A597
340
1A594
340
1A592
340
1A59A
340
1A599
340
1A598
340
1A596
340
1A595
340
1A5A2
340
1A5A1
340
1A593
340
1A59E
340
1A59D
340
1A5A5
340
1A58E
340
1A58C
340
1A5A0
340
1A59F
340
1A58D
340
1A59C
340
1A59B
340
1A5A7
340
1A5A6
340
1A5A4
340
1A5A8
340
1A5A9
  0
GROUP
  5
19729
102
{ACAD_REACTORS
330
D
102
}
330
D
100
AcDbGroup
300

 70
     1
 71
     1
  0
GROUP
  5
1738A
102
{ACAD_REACTORS
330
D
102
}
330
D
100
AcDbGroup
300

 70
     1
 71
     1
  0
GROUP
  5
1B744
102
{ACAD_REACTORS
330
D
102
}
330
D
100
AcDbGroup
300

 70
     1
 71
     1
340
1B73C
340
1B73D
340
1B73E
340
1B73F
340
1B740
340
1B741
340
1B742
340
1B743
  0
GROUP
  5
19F99
102
{ACAD_REACTORS
330
D
102
}
330
D
100
AcDbGroup
300

 70
     1
 71
     1
  0
GROUP
  5
19794
102
{ACAD_REACTORS
330
D
102
}
330
D
100
AcDbGroup
300

 70
     1
 71
     1
  0
GROUP
  5
19861
102
{ACAD_REACTORS
330
D
102
}
330
D
100
AcDbGroup
300

 70
     1
 71
     1
  0
GROUP
  5
19881
102
{ACAD_REACTORS
330
D
102
}
330
D
100
AcDbGroup
300

 70
     1
 71
     1
  0
GROUP
  5
106A5
102
{ACAD_REACTORS
330
D
102
}
330
D
100
AcDbGroup
300

 70
     1
 71
     1
  0
GROUP
  5
19786
102
{ACAD_REACTORS
330
D
102
}
330
D
100
AcDbGroup
300

 70
     1
 71
     1
  0
GROUP
  5
FB6C
102
{ACAD_REACTORS
330
D
102
}
330
D
100
AcDbGroup
300

 70
     1
 71
     1
  0
GROUP
  5
173BD
102
{ACAD_REACTORS
330
D
102
}
330
D
100
AcDbGroup
300

 70
     1
 71
     1
  0
GROUP
  5
17389
102
{ACAD_REACTORS
330
D
102
}
330
D
100
AcDbGroup
300

 70
     1
 71
     1
  0
GROUP
  5
16069
102
{ACAD_REACTORS
330
D
102
}
330
D
100
AcDbGroup
300

 70
     1
 71
     1
  0
GROUP
  5
19988
102
{ACAD_REACTORS
330
D
102
}
330
D
100
AcDbGroup
300

 70
     1
 71
     1
340
19973
340
19972
340
19971
340
19970
340
1996F
340
19979
340
19978
340
19977
340
19974
340
19976
340
1996E
340
1996D
340
19975
  0
GROUP
  5
1AA94
102
{ACAD_REACTORS
330
D
102
}
330
D
100
AcDbGroup
300

 70
     1
 71
     1
  0
GROUP
  5
1998A
102
{ACAD_REACTORS
330
D
102
}
330
D
100
AcDbGroup
300

 70
     1
 71
     1
  0
GROUP
  5
19A86
102
{ACAD_REACTORS
330
D
102
}
330
D
100
AcDbGroup
300

 70
     1
 71
     1
  0
GROUP
  5
19A51
102
{ACAD_REACTORS
330
D
102
}
330
D
100
AcDbGroup
300

 70
     1
 71
     1
  0
GROUP
  5
ACB4
102
{ACAD_REACTORS
330
D
102
}
330
D
100
AcDbGroup
300

 70
     1
 71
     1
  0
GROUP
  5
19A5A
102
{ACAD_REACTORS
330
D
102
}
330
D
100
AcDbGroup
300

 70
     1
 71
     1
  0
GROUP
  5
19F67
102
{ACAD_REACTORS
330
D
102
}
330
D
100
AcDbGroup
300

 70
     1
 71
     1
  0
GROUP
  5
106C7
102
{ACAD_REACTORS
330
D
102
}
330
D
100
AcDbGroup
300

 70
     1
 71
     1
  0
GROUP
  5
19255
102
{ACAD_REACTORS
330
D
102
}
330
D
100
AcDbGroup
300

 70
     1
 71
     1
  0
GROUP
  5
19989
102
{ACAD_REACTORS
330
D
102
}
330
D
100
AcDbGroup
300

 70
     1
 71
     1
340
19941
340
19943
340
19942
340
19940
340
19948
340
19947
340
19946
340
19945
340
19944
340
1994A
340
19949
340
1994B
340
19951
340
19950
340
1994F
340
1994E
340
19956
340
19954
340
19953
340
19952
340
1995A
340
19959
340
19958
340
19957
340
1994D
340
1994C
340
1995D
340
19955
340
1995E
340
1995C
340
1995B
340
1993F
  0
GROUP
  5
17B11
102
{ACAD_REACTORS
330
D
102
}
330
D
100
AcDbGroup
300

 70
     1
 71
     1
  0
GROUP
  5
ACBD
102
{ACAD_REACTORS
330
D
102
}
330
D
100
AcDbGroup
300

 70
     1
 71
     1
  0
GROUP
  5
19A52
102
{ACAD_REACTORS
330
D
102
}
330
D
100
AcDbGroup
300

 70
     1
 71
     1
  0
GROUP
  5
18F22
102
{ACAD_REACTORS
330
D
102
}
330
D
100
AcDbGroup
300

 70
     1
 71
     1
  0
GROUP
  5
17901
102
{ACAD_REACTORS
330
D
102
}
330
D
100
AcDbGroup
300

 70
     1
 71
     1
  0
GROUP
  5
1606B
102
{ACAD_REACTORS
330
D
102
}
330
D
100
AcDbGroup
300

 70
     1
 71
     1
  0
GROUP
  5
FC91
102
{ACAD_REACTORS
330
D
102
}
330
D
100
AcDbGroup
300

 70
     1
 71
     1
  0
GROUP
  5
ACA1
102
{ACAD_REACTORS
330
D
102
}
330
D
100
AcDbGroup
300

 70
     1
 71
     1
  0
GROUP
  5
FC9A
102
{ACAD_REACTORS
330
D
102
}
330
D
100
AcDbGroup
300

 70
     1
 71
     1
  0
GROUP
  5
17BFF
102
{ACAD_REACTORS
330
D
102
}
330
D
100
AcDbGroup
300

 70
     1
 71
     1
  0
GROUP
  5
18F1F
102
{ACAD_REACTORS
330
D
102
}
330
D
100
AcDbGroup
300

 70
     1
 71
     1
  0
GROUP
  5
1C1BC
102
{ACAD_REACTORS
330
D
102
}
330
D
100
AcDbGroup
300

 70
     1
 71
     1
  0
GROUP
  5
19256
102
{ACAD_REACTORS
330
D
102
}
330
D
100
AcDbGroup
300

 70
     1
 71
     1
  0
GROUP
  5
1C1BD
102
{ACAD_REACTORS
330
D
102
}
330
D
100
AcDbGroup
300

 70
     1
 71
     1
  0
GROUP
  5
1B720
102
{ACAD_REACTORS
330
D
102
}
330
D
100
AcDbGroup
300

 70
     1
 71
     1
340
1AF89
340
1AF90
340
1AF8F
340
1AF8E
340
1AF8D
340
1AF8C
340
1AF8B
340
1AF8A
  0
GROUP
  5
1C1BE
102
{ACAD_REACTORS
330
D
102
}
330
D
100
AcDbGroup
300

 70
     1
 71
     1
  0
GROUP
  5
16058
102
{ACAD_REACTORS
330
D
102
}
330
D
100
AcDbGroup
300

 70
     1
 71
     1
  0
GROUP
  5
1C1BF
102
{ACAD_REACTORS
330
D
102
}
330
D
100
AcDbGroup
300

 70
     1
 71
     1
  0
GROUP
  5
18F23
102
{ACAD_REACTORS
330
D
102
}
330
D
100
AcDbGroup
300

 70
     1
 71
     1
  0
GROUP
  5
18FA6
102
{ACAD_REACTORS
330
D
102
}
330
D
100
AcDbGroup
300

 70
     1
 71
     1
  0
GROUP
  5
1B729
102
{ACAD_REACTORS
330
D
102
}
330
D
100
AcDbGroup
300

 70
     1
 71
     1
340
1B721
340
1B722
340
1B723
340
1B724
340
1B725
340
1B726
340
1B727
340
1B728
  0
GROUP
  5
FBFF
102
{ACAD_REACTORS
330
D
102
}
330
D
100
AcDbGroup
300

 70
     1
 71
     1
  0
MLINESTYLE
  5
1C
102
{ACAD_REACTORS
330
1B
102
}
330
1B
100
AcDbMlineStyle
  2
STANDARD
 70
     0
  3

 62
   256
 51
90.0
 52
90.0
 71
     2
 49
0.5
 62
   256
  6
BYLAYER
 49
-0.5
 62
   256
  6
BYLAYER
  0
ACDBPLACEHOLDER
  5
FB5C
102
{ACAD_REACTORS
330
FB5B
102
}
330
FB5B
100
AcDbPlaceHolder
280
     0
  0
XRECORD
  5
1C2F8
102
{ACAD_REACTORS
330
1C2EE
102
}
330
1C2EE
100
AcDbXrecord
 90
        0
  0
XRECORD
  5
1C2FC
102
{ACAD_REACTORS
330
1C2EE
102
}
330
1C2EE
100
AcDbXrecord
1000
DSTYLE
1002
{
1070
    79
 70
     2
1070
   179
 70
     2
1070
   341
340
1215D
1070
   342
340
1215D
1070
   371
 70
    13
1070
   372
 70
    13
1002
}
  0
XRECORD
  5
1C2F9
102
{ACAD_REACTORS
330
1C2EE
102
}
330
1C2EE
100
AcDbXrecord
  1
{D14EE3FF-941A-415A-9907-344E0A80D794}
  0
XRECORD
  5
1C2F1
102
{ACAD_REACTORS
330
1C2EE
102
}
330
1C2EE
100
AcDbXrecord
  1

  0
XRECORD
  5
1C2F7
102
{ACAD_REACTORS
330
1C2EE
102
}
330
1C2EE
100
AcDbXrecord
 90
        0
  0
XRECORD
  5
1C2F3
102
{ACAD_REACTORS
330
1C2EE
102
}
330
1C2EE
100
AcDbXrecord
340
DB2
  0
XRECORD
  5
1C2F6
102
{ACAD_REACTORS
330
1C2EE
102
}
330
1C2EE
100
AcDbXrecord
 90
    10269
  0
XRECORD
  5
1C2F4
102
{ACAD_REACTORS
330
1C2EE
102
}
330
1C2EE
100
AcDbXrecord
340
DB3
  0
XRECORD
  5
1C2F5
102
{ACAD_REACTORS
330
1C2EE
102
}
330
1C2EE
100
AcDbXrecord
340
FB5B
  0
XRECORD
  5
1C2FB
102
{ACAD_REACTORS
330
1C2EE
102
}
330
1C2EE
100
AcDbXrecord
 40
0.01
  0
XRECORD
  5
1C2FF
102
{ACAD_REACTORS
330
1C2EE
102
}
330
1C2EE
100
AcDbXrecord
340
0
  0
XRECORD
  5
1C305
102
{ACAD_REACTORS
330
1C2EE
102
}
330
1C2EE
100
AcDbXrecord
 10
0.0
 20
0.0
 30
0.0
  0
XRECORD
  5
1C301
102
{ACAD_REACTORS
330
1C2EE
102
}
330
1C2EE
100
AcDbXrecord
 10
0.0
 20
0.0
 30
0.0
  0
XRECORD
  5
1C304
102
{ACAD_REACTORS
330
1C2EE
102
}
330
1C2EE
100
AcDbXrecord
 10
0.0
 20
0.0
 30
0.0
  0
XRECORD
  5
1C302
102
{ACAD_REACTORS
330
1C2EE
102
}
330
1C2EE
100
AcDbXrecord
 10
0.0
 20
0.0
 30
0.0
  0
XRECORD
  5
1C303
102
{ACAD_REACTORS
330
1C2EE
102
}
330
1C2EE
100
AcDbXrecord
 10
0.0
 20
0.0
 30
0.0
  0
XRECORD
  5
1C300
102
{ACAD_REACTORS
330
1C2EE
102
}
330
1C2EE
100
AcDbXrecord
 10
0.0
 20
0.0
 30
0.0
  0
XRECORD
  5
1C2FD
102
{ACAD_REACTORS
330
1C2EE
102
}
330
1C2EE
100
AcDbXrecord
340
0
  0
XRECORD
  5
1C2FE
102
{ACAD_REACTORS
330
1C2EE
102
}
330
1C2EE
100
AcDbXrecord
 70
     0
  0
XRECORD
  5
1C2F2
102
{ACAD_REACTORS
330
1C2EE
102
}
330
1C2EE
100
AcDbXrecord
  1
monochrome.ctb
  0
XRECORD
  5
1C2EF
102
{ACAD_REACTORS
330
1C2EE
102
}
330
1C2EE
100
AcDbXrecord
 90
        1
  0
XRECORD
  5
1C2F0
102
{ACAD_REACTORS
330
1C2EE
102
}
330
1C2EE
100
AcDbXrecord
 90
       70
  0
XRECORD
  5
1C308
102
{ACAD_REACTORS
330
1C2EE
102
}
330
1C2EE
100
AcDbXrecord
340
0
  0
XRECORD
  5
1C30E
102
{ACAD_REACTORS
330
1C2EE
102
}
330
1C2EE
100
AcDbXrecord
 10
0.0
 20
0.0
 30
0.0
  0
XRECORD
  5
1C30A
102
{ACAD_REACTORS
330
1C2EE
102
}
330
1C2EE
100
AcDbXrecord
 10
0.0
 20
0.0
 30
0.0
  0
XRECORD
  5
1C30D
102
{ACAD_REACTORS
330
1C2EE
102
}
330
1C2EE
100
AcDbXrecord
 10
0.0
 20
0.0
 30
0.0
  0
XRECORD
  5
1C30B
102
{ACAD_REACTORS
330
1C2EE
102
}
330
1C2EE
100
AcDbXrecord
 10
0.0
 20
0.0
 30
0.0
  0
XRECORD
  5
1C30C
102
{ACAD_REACTORS
330
1C2EE
102
}
330
1C2EE
100
AcDbXrecord
 10
0.0
 20
0.0
 30
0.0
  0
XRECORD
  5
1C309
102
{ACAD_REACTORS
330
1C2EE
102
}
330
1C2EE
100
AcDbXrecord
 10
0.0
 20
0.0
 30
0.0
  0
XRECORD
  5
1C306
102
{ACAD_REACTORS
330
1C2EE
102
}
330
1C2EE
100
AcDbXrecord
340
0
  0
XRECORD
  5
1C307
102
{ACAD_REACTORS
330
1C2EE
102
}
330
1C2EE
100
AcDbXrecord
 70
     0
  0
XRECORD
  5
1C2FA
102
{ACAD_REACTORS
330
1C2EE
102
}
330
1C2EE
100
AcDbXrecord
  1
{1F2CE28C-78AB-4376-9EAD-F98DA373486B}
  0
DICTIONARYVAR
  5
106A7
102
{ACAD_REACTORS
330
106A6
102
}
330
106A6
100
DictionaryVariables
280
     0
  1
96
  0
XRECORD
  5
1A9A1
102
{ACAD_REACTORS
330
1A99F
102
}
330
1A99F
100
AcDbXrecord
330
187D7
330
0
330
19007
330
0
330
0
330
0
330
0
330
19216
330
0
330
19248
330
0
330
115F
330
0
330
0
330
0
330
0
330
0
330
0
330
0
330
0
330
0
330
0
330
0
330
0
330
0
330
0
330
0
330
0
330
0
330
0
330
0
330
0
330
0
330
0
330
0
330
0
330
0
330
0
330
0
330
0
330
0
330
0
330
0
330
0
  0
XRECORD
  5
1BC2B
102
{ACAD_REACTORS
330
1BC2A
102
}
330
1BC2A
100
AcDbXrecord
  1
0
  1
*0
  1
*
  1
*
 70
     0
  1
*
  1
*
  0
XRECORD
  5
1BC2C
102
{ACAD_REACTORS
330
1BC2A
102
}
330
1BC2A
100
AcDbXrecord
  1
11
  1
*11
  1
*
  1
*
 70
     0
  1
*
  1
*
  0
XRECORD
  5
1BC2D
102
{ACAD_REACTORS
330
1BC2A
102
}
330
1BC2A
100
AcDbXrecord
  1
150_
  1
150_*
  1
*
  1
*
 70
     0
  1
*
  1
*
  0
XRECORD
  5
1BC2E
102
{ACAD_REACTORS
330
1BC2A
102
}
330
1BC2A
100
AcDbXrecord
  1
160_
  1
160_*
  1
*
  1
*
 70
     0
  1
*
  1
*
  0
XRECORD
  5
1BC2F
102
{ACAD_REACTORS
330
1BC2A
102
}
330
1BC2A
100
AcDbXrecord
  1
170_
  1
170_*
  1
*
  1
*
 70
     0
  1
*
  1
*
  0
XRECORD
  5
1BC30
102
{ACAD_REACTORS
330
1BC2A
102
}
330
1BC2A
100
AcDbXrecord
  1
171_
  1
171_*
  1
*
  1
*
 70
     0
  1
*
  1
*
  0
XRECORD
  5
1BC31
102
{ACAD_REACTORS
330
1BC2A
102
}
330
1BC2A
100
AcDbXrecord
  1
350_
  1
350_*
  1
*
  1
*
 70
     0
  1
*
  1
*
  0
XRECORD
  5
1BC32
102
{ACAD_REACTORS
330
1BC2A
102
}
330
1BC2A
100
AcDbXrecord
  1
4
  1
*4
  1
*
  1
*
 70
     0
  1
*
  1
*
  0
XRECORD
  5
1BC33
102
{ACAD_REACTORS
330
1BC2A
102
}
330
1BC2A
100
AcDbXrecord
  1
5
  1
*5
  1
*
  1
*
 70
     0
  1
*
  1
*
  0
XRECORD
  5
1BC34
102
{ACAD_REACTORS
330
1BC2A
102
}
330
1BC2A
100
AcDbXrecord
  1
7
  1
*7
  1
*
  1
*
 70
     0
  1
*
  1
*
  0
XRECORD
  5
1BC35
102
{ACAD_REACTORS
330
1BC2A
102
}
330
1BC2A
100
AcDbXrecord
  1
kiseki
  1
kiseki*
  1
*
  1
*
 70
     0
  1
*
  1
*
  0
ENDSEC
  0
EOF
