  0
SECTION
  2
HEADER
  9
$ACADVER
  1
AC1014
  9
$ACADMAINTVER
 70
     9
  9
$DWGCODEPAGE
  3
ANSI_932
  9
$INSBASE
 10
0.0
 20
0.0
 30
0.0
  9
$EXTMIN
 10
43.9539318083049
 20
110.9910635207061
 30
0.0
  9
$EXTMAX
 10
833.074057704054
 20
538.9287994879976
 30
0.0
  9
$LIMMIN
 10
0.0
 20
0.0
  9
$LIMMAX
 10
420.0
 20
297.0
  9
$ORTHOMODE
 70
     1
  9
$REGENMODE
 70
     1
  9
$FILLMODE
 70
     1
  9
$QTEXTMODE
 70
     0
  9
$MIRRTEXT
 70
     0
  9
$DRAGMODE
 70
     2
  9
$LTSCALE
 40
20.0
  9
$OSMODE
 70
    37
  9
$ATTMODE
 70
     1
  9
$TEXTSIZE
 40
2.5
  9
$TRACEWID
 40
1.0
  9
$TEXTSTYLE
  7
STANDARD
  9
$CLAYER
  8
0
  9
$CELTYPE
  6
BYLAYER
  9
$CECOLOR
 62
   256
  9
$CELTSCALE
 40
1.0
  9
$DELOBJ
 70
     1
  9
$DISPSILH
 70
     0
  9
$DIMSCALE
 40
2.5
  9
$DIMASZ
 40
2.0
  9
$DIMEXO
 40
0.75
  9
$DIMDLI
 40
5.0
  9
$DIMRND
 40
0.0005
  9
$DIMDLE
 40
0.0
  9
$DIMEXE
 40
1.0
  9
$DIMTP
 40
0.0
  9
$DIMTM
 40
0.000000001
  9
$DIMTXT
 40
3.2
  9
$DIMCEN
 40
0.0
  9
$DIMTSZ
 40
0.0
  9
$DIMTOL
 70
     0
  9
$DIMLIM
 70
     0
  9
$DIMTIH
 70
     0
  9
$DIMTOH
 70
     0
  9
$DIMSE1
 70
     0
  9
$DIMSE2
 70
     0
  9
$DIMTAD
 70
     1
  9
$DIMZIN
 70
     9
  9
$DIMBLK
  1
OPEN30
  9
$DIMASO
 70
     1
  9
$DIMSHO
 70
     1
  9
$DIMPOST
  1

  9
$DIMAPOST
  1

  9
$DIMALT
 70
     0
  9
$DIMALTD
 70
     4
  9
$DIMALTF
 40
0.0394
  9
$DIMLFAC
 40
1.0
  9
$DIMTOFL
 70
     1
  9
$DIMTVP
 40
0.0
  9
$DIMTIX
 70
     0
  9
$DIMSOXD
 70
     0
  9
$DIMSAH
 70
     0
  9
$DIMBLK1
  1

  9
$DIMBLK2
  1

  9
$DIMSTYLE
  2
STANDARD
  9
$DIMCLRD
 70
     4
  9
$DIMCLRE
 70
     4
  9
$DIMCLRT
 70
     2
  9
$DIMTFAC
 40
1.0
  9
$DIMGAP
 40
0.75
  9
$DIMJUST
 70
     0
  9
$DIMSD1
 70
     0
  9
$DIMSD2
 70
     0
  9
$DIMTOLJ
 70
     1
  9
$DIMTZIN
 70
     9
  9
$DIMALTZ
 70
     0
  9
$DIMALTTZ
 70
     0
  9
$DIMFIT
 70
     5
  9
$DIMUPT
 70
     0
  9
$DIMUNIT
 70
     2
  9
$DIMDEC
 70
     2
  9
$DIMTDEC
 70
     2
  9
$DIMALTU
 70
     8
  9
$DIMALTTD
 70
     4
  9
$DIMTXSTY
  7
STANDARD
  9
$DIMAUNIT
 70
     0
  9
$LUNITS
 70
     2
  9
$LUPREC
 70
     4
  9
$SKETCHINC
 40
1.0
  9
$FILLETRAD
 40
0.0
  9
$AUNITS
 70
     0
  9
$AUPREC
 70
     0
  9
$MENU
  1
.
  9
$ELEVATION
 40
0.0
  9
$PELEVATION
 40
0.0
  9
$THICKNESS
 40
0.0
  9
$LIMCHECK
 70
     0
  9
$BLIPMODE
 70
     0
  9
$CHAMFERA
 40
0.5
  9
$CHAMFERB
 40
0.5
  9
$CHAMFERC
 40
20.0
  9
$CHAMFERD
 40
0.0
  9
$SKPOLY
 70
     0
  9
$TDCREATE
 40
2451224.660162384
  9
$TDUPDATE
 40
2455573.780951423
  9
$TDINDWG
 40
14.1340275347
  9
$TDUSRTIMER
 40
14.1340270023
  9
$USRTIMER
 70
     1
  9
$ANGBASE
 50
0.0
  9
$ANGDIR
 70
     0
  9
$PDMODE
 70
     0
  9
$PDSIZE
 40
0.0
  9
$PLINEWID
 40
0.0
  9
$COORDS
 70
     0
  9
$SPLFRAME
 70
     0
  9
$SPLINETYPE
 70
     6
  9
$SPLINESEGS
 70
     8
  9
$ATTDIA
 70
     0
  9
$ATTREQ
 70
     1
  9
$HANDLING
 70
-16383
  9
$HANDSEED
  5
1B46C
  9
$SURFTAB1
 70
     6
  9
$SURFTAB2
 70
     6
  9
$SURFTYPE
 70
     6
  9
$SURFU
 70
     6
  9
$SURFV
 70
     6
  9
$UCSNAME
  2

  9
$UCSORG
 10
0.0
 20
0.0
 30
0.0
  9
$UCSXDIR
 10
1.0
 20
0.0
 30
0.0
  9
$UCSYDIR
 10
0.0
 20
1.0
 30
0.0
  9
$PUCSNAME
  2

  9
$PUCSORG
 10
0.0
 20
0.0
 30
0.0
  9
$PUCSXDIR
 10
1.0
 20
0.0
 30
0.0
  9
$PUCSYDIR
 10
0.0
 20
1.0
 30
0.0
  9
$USERI1
 70
     0
  9
$USERI2
 70
     0
  9
$USERI3
 70
     0
  9
$USERI4
 70
     0
  9
$USERI5
 70
     0
  9
$USERR1
 40
0.0
  9
$USERR2
 40
0.0
  9
$USERR3
 40
0.0
  9
$USERR4
 40
0.0
  9
$USERR5
 40
0.0
  9
$WORLDVIEW
 70
     1
  9
$SHADEDGE
 70
     3
  9
$SHADEDIF
 70
    70
  9
$TILEMODE
 70
     0
  9
$MAXACTVP
 70
    48
  9
$PINSBASE
 10
0.0
 20
0.0
 30
0.0
  9
$PLIMCHECK
 70
     0
  9
$PEXTMIN
 10
0.0
 20
0.0
 30
0.0
  9
$PEXTMAX
 10
400.0
 20
288.0
 30
0.0
  9
$PLIMMIN
 10
-7.911978840512253
 20
-4.330274938213984
  9
$PLIMMAX
 10
418.1620025958543
 20
296.9280854722003
  9
$UNITMODE
 70
     0
  9
$VISRETAIN
 70
     1
  9
$PLINEGEN
 70
     0
  9
$PSLTSCALE
 70
     0
  9
$TREEDEPTH
 70
  3020
  9
$PICKSTYLE
 70
     0
  9
$CMLSTYLE
  2
STANDARD
  9
$CMLJUST
 70
     0
  9
$CMLSCALE
 40
20.0
  9
$PROXYGRAPHICS
 70
     1
  9
$MEASUREMENT
 70
     0
  0
ENDSEC
  0
SECTION
  2
CLASSES
  0
CLASS
  1
HATCH
  2
AcDbHatch
  3
AutoCAD 2000
 90
        0
280
     0
281
     1
  0
CLASS
  1
LWPOLYLINE
  2
AcDbPolyline
  3
AutoCAD 2000
 90
        0
280
     0
281
     1
  0
CLASS
  1
ACDBDICTIONARYWDFLT
  2
AcDbDictionaryWithDefault
  3
AutoCAD 2000
 90
        0
280
     0
281
     0
  0
CLASS
  1
ACDBPLACEHOLDER
  2
AcDbPlaceHolder
  3
AutoCAD 2000
 90
        0
280
     0
281
     0
  0
CLASS
  1
LAYOUT
  2
AcDbLayout
  3
AutoCAD 2000
 90
        0
280
     0
281
     0
  0
CLASS
  1
LONG_TRANSACTION
  2
AcDbLongTransaction
  3
AutoCAD 2000
 90
        0
280
     0
281
     0
  0
CLASS
  1
LWPOLYLINE
  2
AcDbPolyline
  3
AutoCAD 2000
 90
        0
280
     0
281
     1
  0
CLASS
  1
HATCH
  2
AcDbHatch
  3
AutoCAD 2000
 90
        0
280
     0
281
     1
  0
CLASS
  1
XRECORD
  2
AcDbXrecord
  3
AutoCAD 2000
 90
        0
280
     0
281
     0
  0
CLASS
  1
DICTIONARYVAR
  2
AcDbDictionaryVar
  3
AutoCAD 2000
 90
        0
280
     0
281
     0
  0
CLASS
  1
LONG_TRANSACTION
  2
AcDbLongTransaction
  3
AutoCAD 2000
 90
        0
280
     0
281
     0
  0
CLASS
  1
LWPOLYLINE
  2
AcDbPolyline
  3
AutoCAD 2000
 90
        0
280
     0
281
     1
  0
CLASS
  1
HATCH
  2
AcDbHatch
  3
AutoCAD 2000
 90
        0
280
     0
281
     1
  0
CLASS
  1
XRECORD
  2
AcDbXrecord
  3
AutoCAD 2000
 90
        0
280
     0
281
     0
  0
ENDSEC
  0
SECTION
  2
TABLES
  0
TABLE
  2
VPORT
  5
8
330
0
100
AcDbSymbolTable
 70
     4
  0
VPORT
  5
1B402
330
8
100
AcDbSymbolTableRecord
100
AcDbViewportTableRecord
  2
*ACTIVE
 70
     0
 10
0.0
 20
0.0
 11
1.0
 21
1.0
 12
430.7851316837846
 22
324.9539093052084
 13
0.0
 23
0.0
 14
10.0
 24
10.0
 15
10.0
 25
10.0
 16
0.0
 26
0.0
 36
1.0
 17
0.0
 27
0.0
 37
0.0
 40
529.2555665783988
 41
1.527918781725888
 42
50.0
 43
0.0
 44
0.0
 50
0.0
 51
0.0
 71
     0
 72
   100
 73
     1
 74
     0
 75
     0
 76
     0
 77
     0
 78
     0
  0
ENDTAB
  0
TABLE
  2
LTYPE
  5
5
330
0
100
AcDbSymbolTable
 70
     7
  0
LTYPE
  5
12
330
5
100
AcDbSymbolTableRecord
100
AcDbLinetypeTableRecord
  2
BYBLOCK
 70
     0
  3

 72
    65
 73
     0
 40
0.0
  0
LTYPE
  5
13
330
5
100
AcDbSymbolTableRecord
100
AcDbLinetypeTableRecord
  2
BYLAYER
 70
     0
  3

 72
    65
 73
     0
 40
0.0
  0
LTYPE
  5
14
330
5
100
AcDbSymbolTableRecord
100
AcDbLinetypeTableRecord
  2
CONTINUOUS
 70
     0
  3
Solid line
 72
    65
 73
     0
 40
0.0
  0
LTYPE
  5
126C
330
5
100
AcDbSymbolTableRecord
100
AcDbLinetypeTableRecord
  2
CENTER
 70
     0
  3
____ _ ____ _ ____ _ ____ _ ____ _ ____ _ ____
 72
    65
 73
     4
 40
2.0
 49
1.25
 74
     0
 49
-0.25
 74
     0
 49
0.25
 74
     0
 49
-0.25
 74
     0
  0
LTYPE
  5
126E
330
5
100
AcDbSymbolTableRecord
100
AcDbLinetypeTableRecord
  2
DASHDOT
 70
     0
  3
__ . __ . __ . __ . __ . __ . __ . __ . __ . __
 72
    65
 73
     4
 40
1.0
 49
0.5
 74
     0
 49
-0.25
 74
     0
 49
0.0
 74
     0
 49
-0.25
 74
     0
  0
LTYPE
  5
15420
330
5
100
AcDbSymbolTableRecord
100
AcDbLinetypeTableRecord
  2
CENTER2
 70
     0
  3
Center (.5x) ___ _ ___ _ ___ _ ___ _ ___ _ ___
 72
    65
 73
     4
 40
1.125
 49
0.75
 74
     0
 49
-0.125
 74
     0
 49
0.125
 74
     0
 49
-0.125
 74
     0
  0
LTYPE
  5
15421
330
5
100
AcDbSymbolTableRecord
100
AcDbLinetypeTableRecord
  2
PHANTOM2
 70
     0
  3
Phantom (.5x) ___ _ _ ___ _ _ ___ _ _ ___ _ _
 72
    65
 73
     6
 40
1.25
 49
0.625
 74
     0
 49
-0.125
 74
     0
 49
0.125
 74
     0
 49
-0.125
 74
     0
 49
0.125
 74
     0
 49
-0.125
 74
     0
  0
LTYPE
  5
17303
330
5
100
AcDbSymbolTableRecord
100
AcDbLinetypeTableRecord
  2
HIDDEN2
 70
     0
  3
Hidden (.5x) _ _ _ _ _ _ _ _ _ _ _ _ _ _ _ _ _
 72
    65
 73
     2
 40
0.1875
 49
0.125
 74
     0
 49
-0.0625
 74
     0
  0
LTYPE
  5
19C54
330
5
100
AcDbSymbolTableRecord
100
AcDbLinetypeTableRecord
  2
PHANTOM
 70
     0
  3
Phantom ______  __  __  ______  __  __  ______
 72
    65
 73
     6
 40
2.5
 49
1.25
 74
     0
 49
-0.25
 74
     0
 49
0.25
 74
     0
 49
-0.25
 74
     0
 49
0.25
 74
     0
 49
-0.25
 74
     0
  0
ENDTAB
  0
TABLE
  2
LAYER
  5
2
102
{ACAD_XDICTIONARY
360
1B2F8
102
}
330
0
100
AcDbSymbolTable
 70
    18
  0
LAYER
  5
E
330
2
100
AcDbSymbolTableRecord
100
AcDbLayerTableRecord
  2
0
 70
     2
 62
     7
  6
CONTINUOUS
  0
LAYER
  5
2C
330
2
100
AcDbSymbolTableRecord
100
AcDbLayerTableRecord
  2
M_VIEW
 70
     4
 62
    -1
  6
CONTINUOUS
  0
LAYER
  5
30
330
2
100
AcDbSymbolTableRecord
100
AcDbLayerTableRecord
  2
FRAME025
 70
     0
 62
     7
  6
CONTINUOUS
  0
LAYER
  5
12B
330
2
100
AcDbSymbolTableRecord
100
AcDbLayerTableRecord
  2
DEFPOINTS
 70
     4
 62
    -7
  6
CONTINUOUS
  0
LAYER
  5
651
330
2
100
AcDbSymbolTableRecord
100
AcDbLayerTableRecord
  2
FRAME020
 70
     0
 62
     7
  6
CONTINUOUS
  0
LAYER
  5
1271
330
2
100
AcDbSymbolTableRecord
100
AcDbLayerTableRecord
  2
A
 70
     0
 62
     7
  6
CONTINUOUS
  0
LAYER
  5
A9BB
330
2
100
AcDbSymbolTableRecord
100
AcDbLayerTableRecord
  2
文字
 70
     0
 62
     7
  6
CONTINUOUS
  0
LAYER
  5
15422
330
2
100
AcDbSymbolTableRecord
100
AcDbLayerTableRecord
  2
細線
 70
     0
 62
     7
  6
CONTINUOUS
  0
LAYER
  5
15423
330
2
100
AcDbSymbolTableRecord
100
AcDbLayerTableRecord
  2
CENTER
 70
     0
 62
     7
  6
CENTER
  0
LAYER
  5
15425
330
2
100
AcDbSymbolTableRecord
100
AcDbLayerTableRecord
  2
中心線
 70
     0
 62
     7
  6
CENTER2
  0
LAYER
  5
15426
330
2
100
AcDbSymbolTableRecord
100
AcDbLayerTableRecord
  2
仮想線
 70
     0
 62
     7
  6
PHANTOM2
  0
LAYER
  5
17304
330
2
100
AcDbSymbolTableRecord
100
AcDbLayerTableRecord
  2
破線
 70
     0
 62
     7
  6
HIDDEN2
  0
LAYER
  5
199DC
330
2
100
AcDbSymbolTableRecord
100
AcDbLayerTableRecord
  2
ﾍ__ｽ
 70
     0
 62
     7
  6
CONTINUOUS
  0
LAYER
  5
19C55
330
2
100
AcDbSymbolTableRecord
100
AcDbLayerTableRecord
  2
２点鎖線
 70
     0
 62
     7
  6
PHANTOM
  0
LAYER
  5
1A772
330
2
100
AcDbSymbolTableRecord
100
AcDbLayerTableRecord
  2
ｷｬｯﾌ_ﾎ_ﾙﾄ
 70
     0
 62
     7
  6
CONTINUOUS
  0
ENDTAB
  0
TABLE
  2
STYLE
  5
3
330
0
100
AcDbSymbolTable
 70
     4
  0
STYLE
  5
F
330
3
100
AcDbSymbolTableRecord
100
AcDbTextStyleTableRecord
  2
STANDARD
 70
     0
 40
0.0
 41
1.0
 50
0.0
 71
     0
 42
2.5
  3
isocp.shx
  4
bigfont.shx
  0
STYLE
  5
35
330
3
100
AcDbSymbolTableRecord
100
AcDbTextStyleTableRecord
  2
MSｺ_ｼｯｸ
 70
     0
 40
0.0
 41
1.0
 50
0.0
 71
     0
 42
5.0
  3
MS Gothic.ttf
  4

1001
ACAD
1000
MS Gothic
1071
    32817
  0
STYLE
  5
1275
330
3
100
AcDbSymbolTableRecord
100
AcDbTextStyleTableRecord
  2
BIGFONT
 70
     0
 40
2.0
 41
1.0
 50
0.0
 71
     0
 42
2.0
  3
txt.shx
  4
bigfont.shx
  0
ENDTAB
  0
TABLE
  2
VIEW
  5
6
330
0
100
AcDbSymbolTable
 70
     0
  0
ENDTAB
  0
TABLE
  2
UCS
  5
7
330
0
100
AcDbSymbolTable
 70
     0
  0
ENDTAB
  0
TABLE
  2
APPID
  5
9
330
0
100
AcDbSymbolTable
 70
     3
  0
APPID
  5
10
330
9
100
AcDbSymbolTableRecord
100
AcDbRegAppTableRecord
  2
ACAD
 70
     0
  0
APPID
  5
F013
330
9
100
AcDbSymbolTableRecord
100
AcDbRegAppTableRecord
  2
CONTENTBLOCKDESCRIPTION
 70
     0
  0
APPID
  5
F014
330
9
100
AcDbSymbolTableRecord
100
AcDbRegAppTableRecord
  2
CONTENTBLOCKICON
 70
     0
  0
ENDTAB
  0
TABLE
  2
DIMSTYLE
  5
A
330
0
100
AcDbSymbolTable
 70
     2
  0
DIMSTYLE
105
1D
330
A
100
AcDbSymbolTableRecord
100
AcDbDimStyleTableRecord
  2
STANDARD
 70
     0
  3

  4

  5

  6

  7

 40
1.0
 41
0.18
 42
0.0625
 43
0.38
 44
0.18
 45
0.0
 46
0.0
 47
0.0
 48
0.0
140
0.18
141
0.09
142
0.0
143
25.4
144
1.0
145
0.0
146
1.0
147
0.09
 71
     0
 72
     0
 73
     1
 74
     1
 75
     0
 76
     0
 77
     0
 78
     0
170
     0
171
     2
172
     0
173
     0
174
     0
175
     0
176
     0
177
     0
178
     0
270
     2
271
     4
272
     4
273
     2
274
     2
340
F
275
     0
280
     0
281
     0
282
     0
283
     1
284
     0
285
     0
286
     0
287
     3
288
     0
  0
ENDTAB
  0
TABLE
  2
BLOCK_RECORD
  5
1
330
0
100
AcDbSymbolTable
 70
    37
  0
BLOCK_RECORD
  5
18
102
{ACAD_XDICTIONARY
360
EFC6
102
}
330
1
100
AcDbSymbolTableRecord
100
AcDbBlockTableRecord
  2
*MODEL_SPACE
  0
BLOCK_RECORD
  5
15
102
{ACAD_XDICTIONARY
360
EFC4
102
}
330
1
100
AcDbSymbolTableRecord
100
AcDbBlockTableRecord
  2
*PAPER_SPACE
  0
BLOCK_RECORD
  5
115C
330
1
100
AcDbSymbolTableRecord
100
AcDbBlockTableRecord
  2
機械A4横_LBP
  0
BLOCK_RECORD
  5
1215D
330
1
100
AcDbSymbolTableRecord
100
AcDbBlockTableRecord
  2
_OPEN30
  0
ENDTAB
  0
ENDSEC
  0
SECTION
  2
BLOCKS
  0
BLOCK
  5
19
330
18
100
AcDbEntity
  8
0
100
AcDbBlockBegin
  2
*MODEL_SPACE
 70
     0
 10
0.0
 20
0.0
 30
0.0
  3
*MODEL_SPACE
  1

  0
ENDBLK
  5
1A
330
18
100
AcDbEntity
  8
0
100
AcDbBlockEnd
  0
BLOCK
  5
16
330
15
100
AcDbEntity
 67
     1
  8
0
100
AcDbBlockBegin
  2
*PAPER_SPACE
 70
     0
 10
0.0
 20
0.0
 30
0.0
  3
*PAPER_SPACE
  1

  0
ENDBLK
  5
17
330
15
100
AcDbEntity
 67
     1
  8
0
100
AcDbBlockEnd
  0
BLOCK
  5
115D
330
115C
100
AcDbEntity
  8
0
100
AcDbBlockBegin
  2
機械A4横_LBP
 70
     0
 10
0.0
 20
0.0
 30
0.0
  3
機械A4横_LBP
  1

  0
ENDBLK
  5
115E
330
115C
100
AcDbEntity
  8
0
100
AcDbBlockEnd
  0
BLOCK
  5
12161
330
1215D
100
AcDbEntity
  8
0
100
AcDbBlockBegin
  2
_OPEN30
 70
     0
 10
0.0
 20
0.0
 30
0.0
  3
_OPEN30
  1

  0
LINE
  5
1215E
330
1215D
100
AcDbEntity
  8
0
  6
BYBLOCK
 62
     0
100
AcDbLine
 10
-1.0
 20
0.26794919
 30
0.0
 11
0.0
 21
0.0
 31
0.0
  0
LINE
  5
1215F
330
1215D
100
AcDbEntity
  8
0
  6
BYBLOCK
 62
     0
100
AcDbLine
 10
0.0
 20
0.0
 30
0.0
 11
-1.0
 21
-0.26794919
 31
0.0
  0
LINE
  5
12160
330
1215D
100
AcDbEntity
  8
0
  6
BYBLOCK
 62
     0
100
AcDbLine
 10
0.0
 20
0.0
 30
0.0
 11
-1.0
 21
0.0
 31
0.0
  0
ENDBLK
  5
12162
330
1215D
100
AcDbEntity
  8
0
100
AcDbBlockEnd
  0
ENDSEC
  0
SECTION
  2
ENTITIES
  0
INSERT
  5
1160
330
18
100
AcDbEntity
  8
FRAME025
100
AcDbBlockReference
  2
機械A4横_LBP
 10
66.00059629174575
 20
114.4379043572399
 30
0.0
  0
MTEXT
  5
1405
330
18
100
AcDbEntity
  8
0
  6
DASHDOT
100
AcDbMText
 10
163.682726410024
 20
430.5785054452221
 30
0.0
 40
1.0
 41
2.0
 71
     1
 72
     5
  1

  7
BIGFONT
1001
ACAD
1000
MTEXTBEGIN
1070
    73
1070
     1
1070
    44
1040
1.0
1070
    74
1070
     0
1000
MTEXTEND
1000
MTEXTBEGIN
1070
    73
1070
     1
1070
    44
1040
1.0
1070
    74
1070
     0
1000
MTEXTEND
  0
MTEXT
  5
1406
330
18
100
AcDbEntity
  8
0
  6
CENTER
100
AcDbMText
 10
401.3606673541956
 20
323.7890106174461
 30
0.0
 40
2.0
 41
15.6417
 71
     1
 72
     5
  1

  7
BIGFONT
1001
ACAD
1000
MTEXTBEGIN
1070
    73
1070
     1
1070
    44
1040
1.0
1070
    74
1070
     0
1000
MTEXTEND
1000
MTEXTBEGIN
1070
    73
1070
     1
1070
    44
1040
1.0
1070
    74
1070
     0
1000
MTEXTEND
  0
MTEXT
  5
1407
330
18
100
AcDbEntity
  8
0
100
AcDbMText
 10
75.77239017043272
 20
222.8564838730205
 30
0.0
 40
2.0
 41
0.0
 71
     1
 72
     5
  1

1001
ACAD
1000
MTEXTBEGIN
1070
    73
1070
     1
1070
    44
1040
1.0
1070
    74
1070
     0
1000
MTEXTEND
1000
MTEXTBEGIN
1070
    73
1070
     1
1070
    44
1040
1.0
1070
    74
1070
     0
1000
MTEXTEND
  0
MTEXT
  5
1408
330
18
100
AcDbEntity
  8
0
100
AcDbMText
 10
120.1718819235825
 20
254.48796746601
 30
0.0
 40
2.0
 41
10.1453
 71
     1
 72
     5
  1

 11
-0.0000000000000002
 21
-1.0
 31
0.0
1001
ACAD
1000
MTEXTBEGIN
1070
    73
1070
     1
1070
    44
1040
1.0
1070
    74
1070
     0
1000
MTEXTEND
1000
MTEXTBEGIN
1070
    73
1070
     1
1070
    44
1040
1.0
1070
    74
1070
     0
1000
MTEXTEND
  0
MTEXT
  5
142F
330
18
100
AcDbEntity
  8
0
  6
BYBLOCK
100
AcDbMText
 10
155.9513799082503
 20
329.2674780082993
 30
0.0
 40
2.0
 41
0.0
 71
     7
 72
     5
  1

 11
0.0000000000000001
 21
1.0
 31
0.0
1001
ACAD
1000
MTEXTBEGIN
1070
    73
1070
     1
1070
    44
1040
1.0
1070
    74
1070
     0
1000
MTEXTEND
1000
MTEXTBEGIN
1070
    73
1070
     1
1070
    44
1040
1.0
1070
    74
1070
     0
1000
MTEXTEND
  0
MTEXT
  5
1430
330
18
100
AcDbEntity
  8
0
  6
BYBLOCK
100
AcDbMText
 10
120.4859915450975
 20
340.0607863667167
 30
0.0
 40
2.0
 41
0.0
 71
     4
 72
     5
  1

 11
-0.0000000000000002
 21
-1.0
 31
0.0
1001
ACAD
1000
MTEXTBEGIN
1070
    73
1070
     1
1070
    44
1040
1.0
1070
    74
1070
     0
1000
MTEXTEND
1000
MTEXTBEGIN
1070
    73
1070
     1
1070
    44
1040
1.0
1070
    74
1070
     0
1000
MTEXTEND
  0
MTEXT
  5
1532
330
18
100
AcDbEntity
  8
0
  6
DASHDOT
100
AcDbMText
 10
163.6828134149741
 20
430.5785054452221
 30
0.0
 40
1.0
 41
2.0
 71
     1
 72
     5
  1

  7
BIGFONT
1001
ACAD
1000
MTEXTBEGIN
1070
    73
1070
     1
1070
    44
1040
1.0
1070
    74
1070
     0
1000
MTEXTEND
1000
MTEXTBEGIN
1070
    73
1070
     1
1070
    44
1040
1.0
1070
    74
1070
     0
1000
MTEXTEND
  0
MTEXT
  5
1533
330
18
100
AcDbEntity
  8
0
  6
CENTER
100
AcDbMText
 10
401.360754359146
 20
323.7890106174461
 30
0.0
 40
2.0
 41
15.6417
 71
     1
 72
     5
  1

  7
BIGFONT
1001
ACAD
1000
MTEXTBEGIN
1070
    73
1070
     1
1070
    44
1040
1.0
1070
    74
1070
     0
1000
MTEXTEND
1000
MTEXTBEGIN
1070
    73
1070
     1
1070
    44
1040
1.0
1070
    74
1070
     0
1000
MTEXTEND
  0
MTEXT
  5
1534
330
18
100
AcDbEntity
  8
0
100
AcDbMText
 10
75.77247717538298
 20
222.8564838730205
 30
0.0
 40
2.0
 41
0.0
 71
     1
 72
     5
  1

1001
ACAD
1000
MTEXTBEGIN
1070
    73
1070
     1
1070
    44
1040
1.0
1070
    74
1070
     0
1000
MTEXTEND
1000
MTEXTBEGIN
1070
    73
1070
     1
1070
    44
1040
1.0
1070
    74
1070
     0
1000
MTEXTEND
  0
MTEXT
  5
1535
330
18
100
AcDbEntity
  8
0
100
AcDbMText
 10
120.1719689285329
 20
254.48796746601
 30
0.0
 40
2.0
 41
10.1453
 71
     1
 72
     5
  1

 11
-0.0000000000000002
 21
-1.0
 31
0.0
1001
ACAD
1000
MTEXTBEGIN
1070
    73
1070
     1
1070
    44
1040
1.0
1070
    74
1070
     0
1000
MTEXTEND
1000
MTEXTBEGIN
1070
    73
1070
     1
1070
    44
1040
1.0
1070
    74
1070
     0
1000
MTEXTEND
  0
MTEXT
  5
155C
330
18
100
AcDbEntity
  8
0
  6
BYBLOCK
100
AcDbMText
 10
155.9514669132003
 20
329.2674780082993
 30
0.0
 40
2.0
 41
0.0
 71
     7
 72
     5
  1

 11
0.0000000000000001
 21
1.0
 31
0.0
1001
ACAD
1000
MTEXTBEGIN
1070
    73
1070
     1
1070
    44
1040
1.0
1070
    74
1070
     0
1000
MTEXTEND
1000
MTEXTBEGIN
1070
    73
1070
     1
1070
    44
1040
1.0
1070
    74
1070
     0
1000
MTEXTEND
  0
MTEXT
  5
155D
330
18
100
AcDbEntity
  8
0
  6
BYBLOCK
100
AcDbMText
 10
120.4860785500478
 20
340.0607863667167
 30
0.0
 40
2.0
 41
0.0
 71
     4
 72
     5
  1

 11
-0.0000000000000002
 21
-1.0
 31
0.0
1001
ACAD
1000
MTEXTBEGIN
1070
    73
1070
     1
1070
    44
1040
1.0
1070
    74
1070
     0
1000
MTEXTEND
1000
MTEXTBEGIN
1070
    73
1070
     1
1070
    44
1040
1.0
1070
    74
1070
     0
1000
MTEXTEND
  0
TEXT
  5
2279
330
18
100
AcDbEntity
  8
A
100
AcDbText
 10
-37.81881037320381
 20
322.0637567728283
 30
0.0
 40
3.524999999999999
  1
�    
100
AcDbText
  0
TEXT
  5
2283
330
18
100
AcDbEntity
  8
A
100
AcDbText
 10
-185.7439103235753
 20
-107.9032633455339
 30
0.0
 40
2.5
  1

 41
0.5
  7
MSｺ_ｼｯｸ
100
AcDbText
  0
TEXT
  5
2293
330
18
100
AcDbEntity
  8
A
100
AcDbText
 10
-177.9189103235753
 20
-107.9032633455339
 30
0.0
 40
2.5
  1

  7
MSｺ_ｼｯｸ
100
AcDbText
  0
LINE
  5
15869
330
18
100
AcDbEntity
  8
0
100
AcDbLine
 10
369.7560831073638
 20
439.8438627962954
 30
0.0
 11
370.2560831073636
 21
439.8438627962953
 31
0.0
  0
LINE
  5
1586A
330
18
100
AcDbEntity
  8
破線
100
AcDbLine
 10
367.4562163617585
 20
280.352799487997
 30
0.0
 11
480.9562162443371
 21
280.3527994879971
 31
0.0
  0
LINE
  5
1586B
330
18
100
AcDbEntity
  8
破線
100
AcDbLine
 10
367.4562163617585
 20
345.3527994879972
 30
0.0
 11
480.9562162443371
 21
345.3527994879966
 31
0.0
  0
LINE
  5
1586C
330
18
100
AcDbEntity
  8
0
100
AcDbLine
 10
370.7471464156617
 20
185.852799487997
 30
0.0
 11
448.6562162443371
 21
185.8527994879968
 31
0.0
  0
LINE
  5
15873
330
18
100
AcDbEntity
  8
0
100
AcDbLine
 10
369.7560831073638
 20
185.8438627962955
 30
0.0
 11
369.7560831073638
 21
439.8438627962953
 31
0.0
  0
LINE
  5
15874
330
18
100
AcDbEntity
  8
0
100
AcDbLine
 10
370.2560831073636
 20
185.8438627962955
 30
0.0
 11
370.2560831073636
 21
439.8438627962953
 31
0.0
  0
LINE
  5
15875
330
18
100
AcDbEntity
  8
0
100
AcDbLine
 10
368.4562163617544
 20
220.3527994879971
 30
0.0
 11
368.4562163617562
 21
405.3527994879972
 31
0.0
  0
LINE
  5
15876
330
18
100
AcDbEntity
  8
0
100
AcDbLine
 10
365.4562163617585
 20
232.3527994879973
 30
0.0
 11
365.4562163617585
 21
393.3527994879955
 31
0.0
  0
LINE
  5
15967
330
18
100
AcDbEntity
  8
0
100
AcDbLine
 10
368.4562163617544
 20
220.3527994879971
 30
0.0
 11
369.7560831073638
 21
220.3527994879971
 31
0.0
  0
LINE
  5
15968
330
18
100
AcDbEntity
  8
0
100
AcDbLine
 10
365.9562163617586
 20
231.8527994879969
 30
0.0
 11
368.4562163617545
 21
231.8527994879969
 31
0.0
  0
LINE
  5
1596A
330
18
100
AcDbEntity
  8
0
100
AcDbLine
 10
365.9562163617586
 20
231.8527994879969
 30
0.0
 11
365.4562163617586
 21
232.352799487997
 31
0.0
  0
LINE
  5
15A78
330
18
100
AcDbEntity
  8
0
100
AcDbLine
 10
365.9562163617601
 20
393.8527994879972
 30
0.0
 11
368.456216361756
 21
393.8527994879972
 31
0.0
  0
LINE
  5
15A7A
330
18
100
AcDbEntity
  8
0
100
AcDbLine
 10
365.9562163617601
 20
393.8527994879972
 30
0.0
 11
365.4562163617601
 21
393.3527994879972
 31
0.0
  0
LINE
  5
15A7C
330
18
100
AcDbEntity
  8
0
100
AcDbLine
 10
368.4562163617562
 20
405.3527994879972
 30
0.0
 11
369.7560831073638
 21
405.3527994879972
 31
0.0
  0
LINE
  5
15AA7
330
18
100
AcDbEntity
  8
0
100
AcDbLine
 10
483.9562162443358
 20
390.3524994879956
 30
0.0
 11
483.9562162443358
 21
235.3530994879958
 31
0.0
  0
LINE
  5
15AA9
330
18
100
AcDbEntity
  8
0
100
AcDbLine
 10
480.9562162443371
 20
186.3527994879966
 30
0.0
 11
480.9562162443373
 21
439.1027994879961
 31
0.0
  0
LINE
  5
15AF1
330
18
100
AcDbEntity
  8
0
100
AcDbLine
 10
480.9562162443371
 20
186.3527994879966
 30
0.0
 11
480.4562162443371
 21
185.8527994879964
 31
0.0
  0
LINE
  5
15B1A
330
18
100
AcDbEntity
  8
0
100
AcDbLine
 10
483.4562162443358
 20
234.8530994879959
 30
0.0
 11
480.9562162443373
 21
234.8530994879959
 31
0.0
  0
LINE
  5
15B1B
330
18
100
AcDbEntity
  8
0
100
AcDbLine
 10
497.4562162443373
 20
260.8527994879971
 30
0.0
 11
501.9562162443376
 21
255.5813709165693
 31
0.0
  0
ARC
  5
15B1C
330
18
100
AcDbEntity
  8
0
100
AcDbCircle
 10
489.4824197267683
 20
260.5517146745873
 30
0.0
 40
9.015903847971632
100
AcDbArc
 50
332.1795611441597
 51
354.4603666814933
  0
LINE
  5
15B1D
330
18
100
AcDbEntity
  8
0
100
AcDbLine
 10
497.4562162443373
 20
239.852799487997
 30
0.0
 11
501.9562162443376
 21
245.124228059425
 31
0.0
  0
ARC
  5
15B1E
330
18
100
AcDbEntity
  8
0
100
AcDbCircle
 10
489.4824197267683
 20
240.153884301407
 30
0.0
 40
9.015903847971632
100
AcDbArc
 50
5.539633318506646
 51
27.82043885584017
  0
LINE
  5
15B20
330
18
100
AcDbEntity
  8
0
100
AcDbLine
 10
498.4562162443372
 20
259.6813709165684
 30
0.0
 11
498.4562162443376
 21
241.024228059426
 31
0.0
  0
LINE
  5
15B21
330
18
100
AcDbEntity
  8
0
100
AcDbLine
 10
486.4562162443376
 20
260.8527994879971
 30
0.0
 11
486.4562162443376
 21
239.852799487997
 31
0.0
  0
LINE
  5
15B22
330
18
100
AcDbEntity
  8
0
100
AcDbLine
 10
491.4562162443377
 20
260.8527994879971
 30
0.0
 11
491.4562162443377
 21
239.852799487997
 31
0.0
  0
LINE
  5
15B23
330
18
100
AcDbEntity
  8
0
100
AcDbLine
 10
488.4562162443374
 20
259.8527994879971
 30
0.0
 11
488.4562162443374
 21
240.8527994879971
 31
0.0
  0
LINE
  5
15B24
330
18
100
AcDbEntity
  8
0
100
AcDbLine
 10
488.4562162443374
 20
240.8527994879971
 30
0.0
 11
491.4562162443377
 21
240.8527994879971
 31
0.0
  0
LINE
  5
15B25
330
18
100
AcDbEntity
  8
0
100
AcDbLine
 10
486.4562162443376
 20
242.9527994879967
 30
0.0
 11
488.4562162443374
 21
242.9527994879967
 31
0.0
  0
LINE
  5
15B26
330
18
100
AcDbEntity
  8
0
100
AcDbLine
 10
483.9562162443371
 20
239.852799487997
 30
0.0
 11
486.4562162443376
 21
239.852799487997
 31
0.0
  0
LINE
  5
15B27
330
18
100
AcDbEntity
  8
0
100
AcDbLine
 10
491.4562162443377
 20
239.852799487997
 30
0.0
 11
497.4562162443373
 21
239.852799487997
 31
0.0
  0
ARC
  5
15B28
330
18
100
AcDbEntity
  8
0
100
AcDbCircle
 10
487.9562162443374
 20
250.352799487997
 30
0.0
 40
10.50000000000042
100
AcDbArc
 50
334.7912347032388
 51
25.20876529676096
  0
LINE
  5
15B29
330
18
100
AcDbEntity
  8
0
100
AcDbLine
 10
486.4562162443376
 20
244.3616261295454
 30
0.0
 11
483.9562162443371
 21
244.3616261295454
 31
0.0
  0
LINE
  5
15B2A
330
18
100
AcDbEntity
  8
0
100
AcDbLine
 10
486.4562162443376
 20
245.8806635329978
 30
0.0
 11
483.9562162443371
 21
245.8806635329978
 31
0.0
  0
LINE
  5
15B2B
330
18
100
AcDbEntity
  8
0
100
AcDbLine
 10
497.4562162443374
 20
245.8806635329978
 30
0.0
 11
497.4562162443374
 21
244.3616261295454
 31
0.0
  0
LINE
  5
15B2C
330
18
100
AcDbEntity
  8
0
100
AcDbLine
 10
497.4562162443374
 20
245.8806635329978
 30
0.0
 11
491.4562162443377
 21
245.8806635329978
 31
0.0
  0
LINE
  5
15B2D
330
18
100
AcDbEntity
  8
0
100
AcDbLine
 10
497.4562162443374
 20
244.3616261295454
 30
0.0
 11
491.4562162443377
 21
244.3616261295454
 31
0.0
  0
LINE
  5
15B2E
330
18
100
AcDbEntity
  8
0
100
AcDbLine
 10
488.4562162443374
 20
259.8527994879971
 30
0.0
 11
491.4562162443377
 21
259.8527994879971
 31
0.0
  0
LINE
  5
15B2F
330
18
100
AcDbEntity
  8
0
100
AcDbLine
 10
483.9562162443371
 20
254.824935442997
 30
0.0
 11
486.4562162443376
 21
254.824935442997
 31
0.0
  0
LINE
  5
15B30
330
18
100
AcDbEntity
  8
0
100
AcDbLine
 10
483.9562162443371
 20
256.3439728464493
 30
0.0
 11
486.4562162443376
 21
256.3439728464493
 31
0.0
  0
LINE
  5
15B31
330
18
100
AcDbEntity
  8
0
100
AcDbLine
 10
486.4562162443376
 20
257.7527994879968
 30
0.0
 11
488.4562162443374
 21
257.7527994879968
 31
0.0
  0
LINE
  5
15B32
330
18
100
AcDbEntity
  8
0
100
AcDbLine
 10
483.9562162443371
 20
260.8527994879971
 30
0.0
 11
486.4562162443376
 21
260.8527994879971
 31
0.0
  0
LINE
  5
15B33
330
18
100
AcDbEntity
  8
0
100
AcDbLine
 10
497.4562162443374
 20
256.3439728464493
 30
0.0
 11
497.4562162443374
 21
254.824935442997
 31
0.0
  0
LINE
  5
15B34
330
18
100
AcDbEntity
  8
0
100
AcDbLine
 10
491.4562162443377
 20
254.824935442997
 30
0.0
 11
497.4562162443374
 21
254.824935442997
 31
0.0
  0
LINE
  5
15B35
330
18
100
AcDbEntity
  8
0
100
AcDbLine
 10
491.4562162443377
 20
256.3439728464493
 30
0.0
 11
497.4562162443374
 21
256.3439728464493
 31
0.0
  0
LINE
  5
15B36
330
18
100
AcDbEntity
  8
0
100
AcDbLine
 10
491.4562162443377
 20
260.8527994879971
 30
0.0
 11
497.4562162443374
 21
260.8527994879971
 31
0.0
  0
LINE
  5
15B39
330
18
100
AcDbEntity
  8
0
100
AcDbLine
 10
501.9562162443376
 20
255.5813709165693
 30
0.0
 11
501.9562162443376
 21
245.124228059425
 31
0.0
  0
ARC
  5
15BA1
330
18
100
AcDbEntity
  8
0
100
AcDbCircle
 10
487.9562162443384
 20
375.3527994879973
 30
0.0
 40
10.50000000000042
100
AcDbArc
 50
334.7912347032388
 51
25.20876529676096
  0
LINE
  5
15BA2
330
18
100
AcDbEntity
  8
0
100
AcDbLine
 10
501.9562162443381
 20
370.1242280594247
 30
0.0
 11
501.9562162443386
 21
380.5813709165689
 31
0.0
  0
LINE
  5
15BA3
330
18
100
AcDbEntity
  8
0
100
AcDbLine
 10
491.4562162443381
 20
364.8527994879973
 30
0.0
 11
491.4562162443386
 21
385.8527994879973
 31
0.0
  0
LINE
  5
15BA4
330
18
100
AcDbEntity
  8
0
100
AcDbLine
 10
498.456216244338
 20
366.024228059426
 30
0.0
 11
498.4562162443386
 21
384.6813709165685
 31
0.0
  0
LINE
  5
15BA5
330
18
100
AcDbEntity
  8
0
100
AcDbLine
 10
488.4562162443381
 20
365.8527994879972
 30
0.0
 11
488.4562162443386
 21
384.8527994879972
 31
0.0
  0
LINE
  5
15BA6
330
18
100
AcDbEntity
  8
0
100
AcDbLine
 10
486.4562162443381
 20
364.8527994879973
 30
0.0
 11
486.4562162443386
 21
385.8527994879973
 31
0.0
  0
ARC
  5
15BAA
330
18
100
AcDbEntity
  8
0
100
AcDbCircle
 10
489.4824197267688
 20
365.1538843014073
 30
0.0
 40
9.015903847971632
100
AcDbArc
 50
5.539633318506646
 51
27.82043885584017
  0
LINE
  5
15BAB
330
18
100
AcDbEntity
  8
0
100
AcDbLine
 10
497.4562162443374
 20
364.8527994879973
 30
0.0
 11
501.9562162443381
 21
370.1242280594247
 31
0.0
  0
LINE
  5
15BAF
330
18
100
AcDbEntity
  8
0
100
AcDbLine
 10
483.9562162443371
 20
364.8527994879973
 30
0.0
 11
486.4562162443381
 21
364.8527994879973
 31
0.0
  0
LINE
  5
15BB0
330
18
100
AcDbEntity
  8
0
100
AcDbLine
 10
491.4562162443381
 20
364.8527994879973
 30
0.0
 11
497.4562162443381
 21
364.8527994879973
 31
0.0
  0
LINE
  5
15BB1
330
18
100
AcDbEntity
  8
0
100
AcDbLine
 10
488.4562162443381
 20
365.8527994879972
 30
0.0
 11
491.4562162443381
 21
365.8527994879972
 31
0.0
  0
LINE
  5
15BB2
330
18
100
AcDbEntity
  8
0
100
AcDbLine
 10
483.9562162443371
 20
370.8806635329973
 30
0.0
 11
486.4562162443381
 21
370.8806635329973
 31
0.0
  0
LINE
  5
15BB3
330
18
100
AcDbEntity
  8
0
100
AcDbLine
 10
486.4562162443381
 20
367.9527994879975
 30
0.0
 11
488.4562162443381
 21
367.9527994879975
 31
0.0
  0
LINE
  5
15BB4
330
18
100
AcDbEntity
  8
0
100
AcDbLine
 10
483.9562162443371
 20
369.3616261295451
 30
0.0
 11
486.4562162443381
 21
369.3616261295451
 31
0.0
  0
LINE
  5
15BB5
330
18
100
AcDbEntity
  8
0
100
AcDbLine
 10
497.4562162443381
 20
369.3616261295446
 30
0.0
 11
497.4562162443381
 21
370.8806635329973
 31
0.0
  0
LINE
  5
15BB6
330
18
100
AcDbEntity
  8
0
100
AcDbLine
 10
491.4562162443381
 20
369.3616261295451
 30
0.0
 11
497.4562162443381
 21
369.3616261295446
 31
0.0
  0
LINE
  5
15BB7
330
18
100
AcDbEntity
  8
0
100
AcDbLine
 10
491.4562162443381
 20
370.8806635329973
 30
0.0
 11
497.4562162443381
 21
370.8806635329973
 31
0.0
  0
ARC
  5
15BBB
330
18
100
AcDbEntity
  8
0
100
AcDbCircle
 10
489.4824197267693
 20
385.5517146745873
 30
0.0
 40
9.015903847971632
100
AcDbArc
 50
332.1795611441597
 51
354.4603666814933
  0
LINE
  5
15BBC
330
18
100
AcDbEntity
  8
0
100
AcDbLine
 10
497.4562162443381
 20
385.8527994879973
 30
0.0
 11
501.9562162443386
 21
380.5813709165689
 31
0.0
  0
LINE
  5
15BBD
330
18
100
AcDbEntity
  8
0
100
AcDbLine
 10
488.4562162443386
 20
384.8527994879972
 30
0.0
 11
491.4562162443386
 21
384.8527994879972
 31
0.0
  0
LINE
  5
15BBE
330
18
100
AcDbEntity
  8
0
100
AcDbLine
 10
486.4562162443386
 20
382.7527994879979
 30
0.0
 11
488.4562162443386
 21
382.7527994879979
 31
0.0
  0
LINE
  5
15BBF
330
18
100
AcDbEntity
  8
0
100
AcDbLine
 10
486.4562162443386
 20
381.3439728464491
 30
0.0
 11
483.9562162443371
 21
381.3439728464491
 31
0.0
  0
LINE
  5
15BC0
330
18
100
AcDbEntity
  8
0
100
AcDbLine
 10
486.4562162443386
 20
379.8249354429966
 30
0.0
 11
483.9562162443371
 21
379.8249354429966
 31
0.0
  0
LINE
  5
15BC1
330
18
100
AcDbEntity
  8
0
100
AcDbLine
 10
497.4562162443386
 20
379.8249354429966
 30
0.0
 11
497.4562162443386
 21
381.3439728464491
 31
0.0
  0
LINE
  5
15BC2
330
18
100
AcDbEntity
  8
0
100
AcDbLine
 10
497.4562162443386
 20
381.3439728464491
 30
0.0
 11
491.4562162443386
 21
381.3439728464491
 31
0.0
  0
LINE
  5
15BC3
330
18
100
AcDbEntity
  8
0
100
AcDbLine
 10
497.4562162443386
 20
379.8249354429966
 30
0.0
 11
491.4562162443386
 21
379.8249354429966
 31
0.0
  0
LINE
  5
15BC4
330
18
100
AcDbEntity
  8
0
100
AcDbLine
 10
483.9562162443371
 20
385.8527994879973
 30
0.0
 11
486.4562162443386
 21
385.8527994879973
 31
0.0
  0
LINE
  5
15BC5
330
18
100
AcDbEntity
  8
0
100
AcDbLine
 10
491.4562162443386
 20
385.8527994879973
 30
0.0
 11
497.4562162443381
 21
385.8527994879973
 31
0.0
  0
LINE
  5
15BC6
330
18
100
AcDbEntity
  8
0
100
AcDbLine
 10
483.4562162443358
 20
390.8524994879956
 30
0.0
 11
480.9562162443376
 21
390.8524994879956
 31
0.0
  0
LINE
  5
15BCB
330
18
100
AcDbEntity
  8
0
100
AcDbLine
 10
480.9562162443373
 20
439.3527994879963
 30
0.0
 11
480.4562162443373
 21
439.8527994879962
 31
0.0
  0
LINE
  5
16B87
330
18
100
AcDbEntity
  8
0
100
AcDbLine
 10
483.4562162443358
 20
234.8530994879959
 30
0.0
 11
483.9562162443358
 21
235.3530994879958
 31
0.0
  0
LINE
  5
16B88
330
18
100
AcDbEntity
  8
0
100
AcDbLine
 10
483.4562162443358
 20
390.8524994879956
 30
0.0
 11
483.9562162443358
 21
390.3524994879956
 31
0.0
  0
TEXT
  5
17C7B
330
18
100
AcDbEntity
  8
A
100
AcDbText
 10
44.01850172702464
 20
644.310732626116
 30
0.0
 40
2.5
  1

  7
MSｺ_ｼｯｸ
100
AcDbText
  0
TEXT
  5
17C7C
330
18
100
AcDbEntity
  8
A
100
AcDbText
 10
36.19350172702461
 20
644.310732626116
 30
0.0
 40
2.5
  1

 41
0.5
  7
MSｺ_ｼｯｸ
100
AcDbText
  0
TEXT
  5
17C7D
330
18
100
AcDbEntity
  8
A
100
AcDbText
 10
184.1186016773961
 20
1074.277752744478
 30
0.0
 40
3.524999999999999
  1
�    
100
AcDbText
  0
MTEXT
  5
17C7E
330
18
100
AcDbEntity
  8
0
  6
BYBLOCK
100
AcDbMText
 10
342.4234906006477
 20
1092.274782338366
 30
0.0
 40
2.0
 41
0.0
 71
     4
 72
     5
  1

 11
-0.0000000000000002
 21
-1.0
 31
0.0
1001
ACAD
1000
MTEXTBEGIN
1070
    73
1070
     1
1070
    44
1040
1.0
1070
    74
1070
     0
1000
MTEXTEND
1000
MTEXTBEGIN
1070
    73
1070
     1
1070
    44
1040
1.0
1070
    74
1070
     0
1000
MTEXTEND
  0
MTEXT
  5
17C7F
330
18
100
AcDbEntity
  8
0
  6
BYBLOCK
100
AcDbMText
 10
377.8888789638005
 20
1081.481473979948
 30
0.0
 40
2.0
 41
0.0
 71
     7
 72
     5
  1

 11
0.0000000000000001
 21
1.0
 31
0.0
1001
ACAD
1000
MTEXTBEGIN
1070
    73
1070
     1
1070
    44
1040
1.0
1070
    74
1070
     0
1000
MTEXTEND
1000
MTEXTBEGIN
1070
    73
1070
     1
1070
    44
1040
1.0
1070
    74
1070
     0
1000
MTEXTEND
  0
MTEXT
  5
17C80
330
18
100
AcDbEntity
  8
0
100
AcDbMText
 10
342.1093809791329
 20
1006.701963437659
 30
0.0
 40
2.0
 41
10.1453
 71
     1
 72
     5
  1

 11
-0.0000000000000002
 21
-1.0
 31
0.0
1001
ACAD
1000
MTEXTBEGIN
1070
    73
1070
     1
1070
    44
1040
1.0
1070
    74
1070
     0
1000
MTEXTEND
1000
MTEXTBEGIN
1070
    73
1070
     1
1070
    44
1040
1.0
1070
    74
1070
     0
1000
MTEXTEND
  0
MTEXT
  5
17C81
330
18
100
AcDbEntity
  8
0
100
AcDbMText
 10
297.7098892259828
 20
975.0704798446705
 30
0.0
 40
2.0
 41
0.0
 71
     1
 72
     5
  1

1001
ACAD
1000
MTEXTBEGIN
1070
    73
1070
     1
1070
    44
1040
1.0
1070
    74
1070
     0
1000
MTEXTEND
1000
MTEXTBEGIN
1070
    73
1070
     1
1070
    44
1040
1.0
1070
    74
1070
     0
1000
MTEXTEND
  0
MTEXT
  5
17C82
330
18
100
AcDbEntity
  8
0
  6
CENTER
100
AcDbMText
 10
623.2981664097457
 20
1076.003006589096
 30
0.0
 40
2.0
 41
15.6417
 71
     1
 72
     5
  1

  7
BIGFONT
1001
ACAD
1000
MTEXTBEGIN
1070
    73
1070
     1
1070
    44
1040
1.0
1070
    74
1070
     0
1000
MTEXTEND
1000
MTEXTBEGIN
1070
    73
1070
     1
1070
    44
1040
1.0
1070
    74
1070
     0
1000
MTEXTEND
  0
MTEXT
  5
17C83
330
18
100
AcDbEntity
  8
0
  6
DASHDOT
100
AcDbMText
 10
385.6202254655741
 20
1182.792501416872
 30
0.0
 40
1.0
 41
2.0
 71
     1
 72
     5
  1

  7
BIGFONT
1001
ACAD
1000
MTEXTBEGIN
1070
    73
1070
     1
1070
    44
1040
1.0
1070
    74
1070
     0
1000
MTEXTEND
1000
MTEXTBEGIN
1070
    73
1070
     1
1070
    44
1040
1.0
1070
    74
1070
     0
1000
MTEXTEND
  0
MTEXT
  5
17C84
330
18
100
AcDbEntity
  8
0
  6
BYBLOCK
100
AcDbMText
 10
342.4234035956974
 20
1092.274782338366
 30
0.0
 40
2.0
 41
0.0
 71
     4
 72
     5
  1

 11
-0.0000000000000002
 21
-1.0
 31
0.0
1001
ACAD
1000
MTEXTBEGIN
1070
    73
1070
     1
1070
    44
1040
1.0
1070
    74
1070
     0
1000
MTEXTEND
1000
MTEXTBEGIN
1070
    73
1070
     1
1070
    44
1040
1.0
1070
    74
1070
     0
1000
MTEXTEND
  0
MTEXT
  5
17C85
330
18
100
AcDbEntity
  8
0
  6
BYBLOCK
100
AcDbMText
 10
377.8887919588503
 20
1081.481473979948
 30
0.0
 40
2.0
 41
0.0
 71
     7
 72
     5
  1

 11
0.0000000000000001
 21
1.0
 31
0.0
1001
ACAD
1000
MTEXTBEGIN
1070
    73
1070
     1
1070
    44
1040
1.0
1070
    74
1070
     0
1000
MTEXTEND
1000
MTEXTBEGIN
1070
    73
1070
     1
1070
    44
1040
1.0
1070
    74
1070
     0
1000
MTEXTEND
  0
MTEXT
  5
17C86
330
18
100
AcDbEntity
  8
0
100
AcDbMText
 10
342.1092939741825
 20
1006.701963437659
 30
0.0
 40
2.0
 41
10.1453
 71
     1
 72
     5
  1

 11
-0.0000000000000002
 21
-1.0
 31
0.0
1001
ACAD
1000
MTEXTBEGIN
1070
    73
1070
     1
1070
    44
1040
1.0
1070
    74
1070
     0
1000
MTEXTEND
1000
MTEXTBEGIN
1070
    73
1070
     1
1070
    44
1040
1.0
1070
    74
1070
     0
1000
MTEXTEND
  0
MTEXT
  5
17C87
330
18
100
AcDbEntity
  8
0
100
AcDbMText
 10
297.7098022210326
 20
975.0704798446705
 30
0.0
 40
2.0
 41
0.0
 71
     1
 72
     5
  1

1001
ACAD
1000
MTEXTBEGIN
1070
    73
1070
     1
1070
    44
1040
1.0
1070
    74
1070
     0
1000
MTEXTEND
1000
MTEXTBEGIN
1070
    73
1070
     1
1070
    44
1040
1.0
1070
    74
1070
     0
1000
MTEXTEND
  0
MTEXT
  5
17C88
330
18
100
AcDbEntity
  8
0
  6
CENTER
100
AcDbMText
 10
623.2980794047955
 20
1076.003006589096
 30
0.0
 40
2.0
 41
15.6417
 71
     1
 72
     5
  1

  7
BIGFONT
1001
ACAD
1000
MTEXTBEGIN
1070
    73
1070
     1
1070
    44
1040
1.0
1070
    74
1070
     0
1000
MTEXTEND
1000
MTEXTBEGIN
1070
    73
1070
     1
1070
    44
1040
1.0
1070
    74
1070
     0
1000
MTEXTEND
  0
MTEXT
  5
17C89
330
18
100
AcDbEntity
  8
0
  6
DASHDOT
100
AcDbMText
 10
385.6201384606237
 20
1182.792501416872
 30
0.0
 40
1.0
 41
2.0
 71
     1
 72
     5
  1

  7
BIGFONT
1001
ACAD
1000
MTEXTBEGIN
1070
    73
1070
     1
1070
    44
1040
1.0
1070
    74
1070
     0
1000
MTEXTEND
1000
MTEXTBEGIN
1070
    73
1070
     1
1070
    44
1040
1.0
1070
    74
1070
     0
1000
MTEXTEND
  0
INSERT
  5
17C8A
330
18
100
AcDbEntity
  8
FRAME025
100
AcDbBlockReference
  2
機械A4横_LBP
 10
287.9380083423457
 20
866.6519003288902
 30
0.0
  0
LINE
  5
1856B
330
18
100
AcDbEntity
  8
0
100
AcDbLine
 10
552.1568828137405
 20
170.8527994879968
 30
0.0
 11
558.0368828137401
 21
170.8527994879968
 31
0.0
  0
LINE
  5
1856C
330
18
100
AcDbEntity
  8
0
100
AcDbLine
 10
558.0368828137401
 20
157.0911086221813
 30
0.0
 11
552.1568828137405
 21
157.0911086221813
 31
0.0
  0
LINE
  5
1856D
330
18
100
AcDbEntity
  8
0
100
AcDbLine
 10
552.1568828137405
 20
157.0911086221813
 30
0.0
 11
552.1568828137405
 21
170.8527994879968
 31
0.0
  0
LINE
  5
1856E
330
18
100
AcDbEntity
  8
0
100
AcDbLine
 10
558.0368828137401
 20
157.0911086221813
 30
0.0
 11
558.0368828137401
 21
170.8527994879968
 31
0.0
  0
ARC
  5
18571
330
18
100
AcDbEntity
  8
0
100
AcDbCircle
 10
524.1502226182871
 20
230.3527994879968
 30
0.0
 40
17.89999999999969
100
AcDbArc
 50
0.0
 51
90.0
  0
ARC
  5
18572
330
18
100
AcDbEntity
  8
0
100
AcDbCircle
 10
524.1502226182871
 20
230.3527994879968
 30
0.0
 40
22.09999999999948
100
AcDbArc
 50
0.0
 51
90.0
  0
LINE
  5
1859E
330
18
100
AcDbEntity
  8
0
100
AcDbLine
 10
501.9562162443378
 20
248.2527994879964
 30
0.0
 11
524.1502226182865
 21
248.2527994879971
 31
0.0
  0
LINE
  5
1859F
330
18
100
AcDbEntity
  8
0
100
AcDbLine
 10
501.9562162443373
 20
252.4527994879964
 30
0.0
 11
524.1502226182865
 21
252.4527994879969
 31
0.0
  0
LINE
  5
185A0
330
18
100
AcDbEntity
  8
中心線
100
AcDbLine
 10
508.9222861348813
 20
250.352799487997
 30
0.0
 11
472.7776098902948
 21
250.3527994879969
 31
0.0
  0
LINE
  5
185BB
330
18
100
AcDbEntity
  8
0
100
AcDbLine
 10
558.8289967954831
 20
395.3527994879968
 30
0.0
 11
558.8289967954831
 21
470.0287994879975
 31
0.0
  0
LINE
  5
185BD
330
18
100
AcDbEntity
  8
0
100
AcDbLine
 10
551.328996799083
 20
395.3527994879968
 30
0.0
 11
551.328996799083
 21
470.0287994879975
 31
0.0
  0
LINE
  5
185C5
330
18
100
AcDbEntity
  8
0
100
AcDbLine
 10
557.4789967972828
 20
470.0287994879975
 30
0.0
 11
553.7789967972828
 21
491.9287994879976
 31
0.0
  0
LINE
  5
185C6
330
18
100
AcDbEntity
  8
0
100
AcDbLine
 10
555.0789967972827
 20
470.0287994879975
 30
0.0
 11
551.3789967972829
 21
491.9287994879976
 31
0.0
  0
LINE
  5
185C7
330
18
100
AcDbEntity
  8
0
100
AcDbLine
 10
555.4789967972826
 20
470.0287994879975
 30
0.0
 11
551.7789967972828
 21
491.9287994879976
 31
0.0
  0
LINE
  5
185C9
330
18
100
AcDbEntity
  8
0
100
AcDbLine
 10
551.328996799083
 20
470.0287994879975
 30
0.0
 11
558.8289967954831
 21
470.0287994879975
 31
0.0
  0
LINE
  5
185CA
330
18
100
AcDbEntity
  8
0
100
AcDbLine
 10
553.0789967972826
 20
470.0287994879975
 30
0.0
 11
549.3789967972827
 21
491.9287994879976
 31
0.0
  0
LINE
  5
185CB
330
18
100
AcDbEntity
  8
0
100
AcDbLine
 10
552.8289967972831
 20
470.0287994879975
 30
0.0
 11
552.9548357234574
 21
470.7636988168562
 31
0.0
  0
LINE
  5
185CD
330
18
100
AcDbEntity
  8
0
100
AcDbLine
 10
557.3789967972827
 20
470.6206913798888
 30
0.0
 11
560.9789967972828
 21
491.9287994879976
 31
0.0
  0
LINE
  5
185CE
330
18
100
AcDbEntity
  8
0
100
AcDbLine
 10
554.9789967972826
 20
470.6206913798888
 30
0.0
 11
555.178996797283
 21
471.8044751636731
 31
0.0
  0
LINE
  5
185CF
330
18
100
AcDbEntity
  8
0
100
AcDbLine
 10
555.2289967972828
 20
470.0287994879975
 30
0.0
 11
555.3548357234575
 21
470.7636988168562
 31
0.0
  0
LINE
  5
185D0
330
18
100
AcDbEntity
  8
0
100
AcDbLine
 10
553.9615471328533
 20
476.6428934477286
 30
0.0
 11
554.1628894147322
 21
477.8187323739031
 31
0.0
  0
LINE
  5
185D1
330
18
100
AcDbEntity
  8
0
100
AcDbLine
 10
556.178996797283
 20
477.7233940825923
 30
0.0
 11
558.5789967972831
 21
491.9287994879976
 31
0.0
  0
LINE
  5
185D2
330
18
100
AcDbEntity
  8
0
100
AcDbLine
 10
556.3615471328533
 20
476.6428934477286
 30
0.0
 11
558.9789967972826
 21
491.9287994879976
 31
0.0
  0
LINE
  5
185D3
330
18
100
AcDbEntity
  8
0
100
AcDbLine
 10
555.1696008241286
 20
483.6979270047756
 30
0.0
 11
556.5789967972831
 21
491.9287994879976
 31
0.0
  0
ARC
  5
1860C
330
18
100
AcDbEntity
  8
0
100
AcDbCircle
 10
535.0789967972834
 20
395.3527994879968
 30
0.0
 40
16.25000000180011
100
AcDbArc
 50
270.0
 51
0.0
  0
ARC
  5
1860D
330
18
100
AcDbEntity
  8
0
100
AcDbCircle
 10
535.0789967972834
 20
395.3527994879968
 30
0.0
 40
23.7499999982003
100
AcDbArc
 50
270.0
 51
0.0
  0
LINE
  5
1860E
330
18
100
AcDbEntity
  8
0
100
AcDbLine
 10
535.0789967972834
 20
371.6027994897966
 30
0.0
 11
501.9562162443384
 21
371.6027994897966
 31
0.0
  0
LINE
  5
1860F
330
18
100
AcDbEntity
  8
0
100
AcDbLine
 10
535.0789967972834
 20
379.102799486197
 30
0.0
 11
501.9562162443384
 21
379.102799486197
 31
0.0
  0
LINE
  5
18610
330
18
100
AcDbEntity
  8
中心線
100
AcDbLine
 10
510.1873031505402
 20
375.3527994879969
 30
0.0
 11
472.7776098902952
 21
375.3527994879969
 31
0.0
  0
LINE
  5
18869
330
18
100
AcDbEntity
  8
0
100
AcDbLine
 10
370.2560831073636
 20
186.3438627962953
 30
0.0
 11
370.7560831073636
 21
185.8438627962953
 31
0.0
  0
LINE
  5
1886A
330
18
100
AcDbEntity
  8
0
100
AcDbLine
 10
369.7560831073638
 20
185.8438627962955
 30
0.0
 11
370.2560831073635
 21
185.8438627962955
 31
0.0
  0
LINE
  5
1886C
330
18
100
AcDbEntity
  8
0
100
AcDbLine
 10
480.9562162443371
 20
439.3527994879977
 30
0.0
 11
480.4562162443371
 21
439.8527994879977
 31
0.0
  0
LINE
  5
18870
330
18
100
AcDbEntity
  8
0
100
AcDbLine
 10
370.2560831073636
 20
439.3438627962954
 30
0.0
 11
370.7560831073636
 21
439.8438627962954
 31
0.0
  0
LINE
  5
18871
330
18
100
AcDbEntity
  8
0
100
AcDbLine
 10
370.7650197990655
 20
439.8527994879972
 30
0.0
 11
448.6562162443373
 21
439.8527994879962
 31
0.0
  0
LWPOLYLINE
  5
18E9C
102
{ACAD_REACTORS
330
18EC9
102
}
330
18
100
AcDbEntity
  8
0
100
AcDbPolyline
 90
        4
 70
     1
 43
0.0
 10
571.9289967972827
 20
533.9287994879976
 10
571.9289967972827
 20
529.9287994879976
 10
538.2289967972828
 20
529.9287994879976
 10
538.2289967972828
 20
533.9287994879976
  0
LWPOLYLINE
  5
18E9D
102
{ACAD_REACTORS
330
18EC9
102
}
330
18
100
AcDbEntity
  8
0
100
AcDbPolyline
 90
        4
 70
     1
 43
0.0
 10
569.8289967972827
 20
538.9287994879976
 10
569.8289967972827
 20
533.9287994879976
 10
540.3289967972827
 20
533.9287994879976
 10
540.3289967972827
 20
538.9287994879976
  0
LINE
  5
18E9E
102
{ACAD_REACTORS
330
18EC9
102
}
330
18
100
AcDbEntity
  8
0
100
AcDbLine
 10
569.8289967972827
 20
516.9287994879976
 30
0.0
 11
565.5789967972826
 21
516.9287994879976
 31
0.0
  0
LINE
  5
18E9F
102
{ACAD_REACTORS
330
18EC9
102
}
330
18
100
AcDbEntity
  8
0
100
AcDbLine
 10
569.8289967972827
 20
516.9287994879976
 30
0.0
 11
566.0789967972826
 21
515.9287994879973
 31
0.0
  0
LINE
  5
18EA0
102
{ACAD_REACTORS
330
18EC9
102
}
330
18
100
AcDbEntity
  8
0
100
AcDbLine
 10
566.0789967972829
 20
515.9287994879973
 30
0.0
 11
566.0789967972826
 21
491.9287994879976
 31
0.0
  0
LINE
  5
18EA1
102
{ACAD_REACTORS
330
18EC9
102
}
330
18
100
AcDbEntity
  8
0
100
AcDbLine
 10
544.0789967972826
 20
515.9287994879973
 30
0.0
 11
544.0789967972826
 21
491.9287994879976
 31
0.0
  0
LINE
  5
18EA2
102
{ACAD_REACTORS
330
18EC9
102
}
330
18
100
AcDbEntity
  8
0
100
AcDbLine
 10
550.5789967972827
 20
516.9287994879976
 30
0.0
 11
547.5789967972827
 21
516.9287994879976
 31
0.0
  0
LINE
  5
18EA3
102
{ACAD_REACTORS
330
18EC9
102
}
330
18
100
AcDbEntity
  8
0
100
AcDbLine
 10
540.3289967972827
 20
529.9287994879976
 30
0.0
 11
540.3289967972827
 21
516.9287994879976
 31
0.0
  0
LINE
  5
18EA4
102
{ACAD_REACTORS
330
18EC9
102
}
330
18
100
AcDbEntity
  8
0
100
AcDbLine
 10
547.5789967972827
 20
516.9287994879976
 30
0.0
 11
547.5789967972827
 21
529.9287994879976
 31
0.0
  0
LINE
  5
18EA5
102
{ACAD_REACTORS
330
18EC9
102
}
330
18
100
AcDbEntity
  8
0
100
AcDbLine
 10
544.5789967972826
 20
516.9287994879976
 30
0.0
 11
544.5789967972826
 21
529.9287994879976
 31
0.0
  0
LINE
  5
18EA6
102
{ACAD_REACTORS
330
18EC9
102
}
330
18
100
AcDbEntity
  8
0
100
AcDbLine
 10
544.0789967972826
 20
515.9287994879973
 30
0.0
 11
544.5789967972826
 21
516.9287994879976
 31
0.0
  0
LINE
  5
18EA7
102
{ACAD_REACTORS
330
18EC9
102
}
330
18
100
AcDbEntity
  8
0
100
AcDbLine
 10
544.5789967972826
 20
516.9287994879976
 30
0.0
 11
540.3289967972827
 21
516.9287994879976
 31
0.0
  0
LINE
  5
18EA8
102
{ACAD_REACTORS
330
18EC9
102
}
330
18
100
AcDbEntity
  8
0
100
AcDbLine
 10
540.3289967972827
 20
516.9287994879976
 30
0.0
 11
544.0789967972826
 21
515.9287994879973
 31
0.0
  0
LINE
  5
18EA9
102
{ACAD_REACTORS
330
18EC9
102
}
330
18
100
AcDbEntity
  8
0
100
AcDbLine
 10
550.5789967972827
 20
516.9287994879976
 30
0.0
 11
550.5789967972827
 21
529.9287994879976
 31
0.0
  0
LINE
  5
18EAA
102
{ACAD_REACTORS
330
18EC9
102
}
330
18
100
AcDbEntity
  8
0
100
AcDbLine
 10
553.5789967972826
 20
516.9287994879976
 30
0.0
 11
553.5789967972826
 21
529.9287994879976
 31
0.0
  0
LINE
  5
18EAB
102
{ACAD_REACTORS
330
18EC9
102
}
330
18
100
AcDbEntity
  8
0
100
AcDbLine
 10
559.5789967972827
 20
516.9287994879976
 30
0.0
 11
559.5789967972827
 21
529.9287994879976
 31
0.0
  0
LINE
  5
18EAC
102
{ACAD_REACTORS
330
18EC9
102
}
330
18
100
AcDbEntity
  8
0
100
AcDbLine
 10
562.5789967972827
 20
516.9287994879976
 30
0.0
 11
562.5789967972827
 21
529.9287994879976
 31
0.0
  0
LINE
  5
18EAD
102
{ACAD_REACTORS
330
18EC9
102
}
330
18
100
AcDbEntity
  8
0
100
AcDbLine
 10
556.5789967972826
 20
516.9287994879976
 30
0.0
 11
556.5789967972826
 21
529.9287994879976
 31
0.0
  0
LINE
  5
18EAE
102
{ACAD_REACTORS
330
18EC9
102
}
330
18
100
AcDbEntity
  8
0
100
AcDbLine
 10
565.5789967972826
 20
516.9287994879976
 30
0.0
 11
565.5789967972826
 21
529.9287994879976
 31
0.0
  0
LINE
  5
18EAF
102
{ACAD_REACTORS
330
18EC9
102
}
330
18
100
AcDbEntity
  8
0
100
AcDbLine
 10
556.5789967972826
 20
516.9287994879976
 30
0.0
 11
553.5789967972826
 21
516.9287994879976
 31
0.0
  0
LINE
  5
18EB0
102
{ACAD_REACTORS
330
18EC9
102
}
330
18
100
AcDbEntity
  8
0
100
AcDbLine
 10
562.5789967972827
 20
516.9287994879976
 30
0.0
 11
559.5789967972827
 21
516.9287994879976
 31
0.0
  0
LINE
  5
18EB1
102
{ACAD_REACTORS
330
18EC9
102
}
330
18
100
AcDbEntity
  8
0
100
AcDbLine
 10
566.0789967972826
 20
515.9287994879973
 30
0.0
 11
565.5789967972826
 21
516.9287994879976
 31
0.0
  0
LINE
  5
18EB2
102
{ACAD_REACTORS
330
18EC9
102
}
330
18
100
AcDbEntity
  8
0
100
AcDbLine
 10
562.4539967972826
 20
491.9287994879976
 30
0.0
 11
547.7039967972826
 21
491.9287994879976
 31
0.0
  0
LWPOLYLINE
  5
18EB3
102
{ACAD_REACTORS
330
18EC9
102
}
330
18
100
AcDbEntity
  8
0
100
AcDbPolyline
 90
        4
 70
     1
 43
0.0
 10
547.3289967972826
 20
496.4287994879976
 10
547.3289967972826
 20
491.9287994879976
 10
551.8289967972826
 20
491.9287994879976
 10
551.8289967972826
 20
496.4287994879976
  0
LWPOLYLINE
  5
18EB4
102
{ACAD_REACTORS
330
18EC9
102
}
330
18
100
AcDbEntity
  8
0
100
AcDbPolyline
 90
        4
 70
     1
 43
0.0
 10
546.3289967972826
 20
509.5507738651128
 10
546.3289967972826
 20
499.5507738651128
 10
563.8289967972826
 20
499.5507738651128
 10
563.8289967972826
 20
509.5507738651128
  0
TEXT
  5
18EB5
102
{ACAD_REACTORS
330
18EC9
102
}
330
18
100
AcDbEntity
  8
FRAME020
  6
CONTINUOUS
100
AcDbText
 10
548.6453424491601
 20
503.8073172689251
 30
0.0
 40
4.0
  1
ＡＭＰ
100
AcDbText
  0
TEXT
  5
18EB6
102
{ACAD_REACTORS
330
18EC9
102
}
330
18
100
AcDbEntity
  8
FRAME020
  6
CONTINUOUS
100
AcDbText
 10
547.3623940643562
 20
492.4268719251291
 30
0.0
 40
3.0
  1
B2
100
AcDbText
  0
LINE
  5
18EB7
102
{ACAD_REACTORS
330
18EC9
102
}
330
18
100
AcDbEntity
  8
0
100
AcDbLine
 10
566.0789967972826
 20
491.9287994879976
 30
0.0
 11
544.0789967972826
 21
491.9287994879976
 31
0.0
  0
LWPOLYLINE
  5
18EB8
102
{ACAD_REACTORS
330
18EC9
102
}
330
18
100
AcDbEntity
  8
0
100
AcDbPolyline
 90
        4
 70
     1
 43
0.0
 10
558.3289967972826
 20
496.4287994879976
 10
558.3289967972826
 20
491.9287994879976
 10
562.8289967972826
 20
491.9287994879976
 10
562.8289967972826
 20
496.4287994879976
  0
TEXT
  5
18EB9
102
{ACAD_REACTORS
330
18EC9
102
}
330
18
100
AcDbEntity
  8
FRAME020
  6
CONTINUOUS
100
AcDbText
 10
558.3623940643564
 20
492.4268719251291
 30
0.0
 40
3.0
  1
B1
100
AcDbText
  0
TEXT
  5
18EBA
102
{ACAD_REACTORS
330
18EC9
102
}
330
18
100
AcDbEntity
  8
FRAME020
  6
CONTINUOUS
100
AcDbText
 10
549.4538326259678
 20
500.2348531209865
 30
0.0
 40
2.799999999999998
  1
0-5200
100
AcDbText
  0
LINE
  5
18EBB
102
{ACAD_REACTORS
330
18EC9
102
}
330
18
100
AcDbEntity
  8
0
100
AcDbLine
 10
569.8289967972827
 20
516.9287994879976
 30
0.0
 11
569.8289967972827
 21
529.9287994879976
 31
0.0
  0
LINE
  5
18F11
330
18
100
AcDbEntity
  8
中心線
100
AcDbLine
 10
337.6109158252607
 20
312.8527994879965
 30
0.0
 11
494.5084920185673
 21
312.8527994879965
 31
0.0
  0
LINE
  5
19AA9
330
18
100
AcDbEntity
  8
中心線
100
AcDbLine
 10
701.8126257079537
 20
444.1027989900856
 30
0.0
 11
701.8354906959778
 21
181.6027999859095
 31
0.0
  0
CIRCLE
  5
19AAE
330
18
100
AcDbEntity
  8
中心線
100
AcDbCircle
 10
701.8240582019663
 20
312.8527994879977
 30
0.0
 40
118.0
  0
CIRCLE
  5
19AB1
330
18
100
AcDbEntity
  8
細線
 48
5.0
100
AcDbCircle
 10
669.9893156543561
 20
194.0439228544421
 30
0.0
 40
3.5
  0
LWPOLYLINE
  5
19AB3
330
18
100
AcDbEntity
  8
細線
 48
5.0
100
AcDbPolyline
 90
        6
 70
     1
 43
0.0
 10
671.2140605246071
 20
192.8191779841894
 10
669.5410279186888
 20
192.3708902485229
 10
668.3162830484368
 20
193.5956351187744
 10
668.7645707841032
 20
195.2686677246936
 10
670.4376033900221
 20
195.7169554603604
 10
671.6623482602738
 20
194.4922105901089
  0
LINE
  5
19AB7
330
18
100
AcDbEntity
  8
中心線
100
AcDbLine
 10
646.824058201966
 20
217.590005071709
 30
0.0
 11
638.824058201966
 21
203.7335986111583
 31
0.0
  0
CIRCLE
  5
19AB8
330
18
100
AcDbEntity
  8
細線
100
AcDbCircle
 10
642.8240582019663
 20
210.6618018414335
 30
0.0
 40
4.0
  0
CIRCLE
  5
19AB9
330
18
100
AcDbEntity
  8
ﾍ__ｽ
 62
     0
100
AcDbCircle
 10
642.8240582019663
 20
210.6618018414335
 30
0.0
 40
3.3235
  0
CIRCLE
  5
19AD1
330
18
100
AcDbEntity
  8
細線
 48
5.0
100
AcDbCircle
 10
733.6588007495763
 20
194.0439228544421
 30
0.0
 40
3.5
  0
LWPOLYLINE
  5
19ADA
330
18
100
AcDbEntity
  8
細線
 48
5.0
100
AcDbPolyline
 90
        6
 70
     1
 43
0.0
 10
735.3318333554946
 20
193.5956351187741
 10
734.1070884852427
 20
192.3708902485229
 10
732.4340558793241
 20
192.8191779841894
 10
731.9857681436568
 20
194.4922105901085
 10
733.2105130139083
 20
195.71695546036
 10
734.8835456198274
 20
195.2686677246936
  0
CIRCLE
  5
19AE0
330
18
100
AcDbEntity
  8
細線
 48
5.0
100
AcDbCircle
 10
788.7981922879113
 20
225.8786654020519
 30
0.0
 40
3.5
  0
LINE
  5
19AE3
330
18
100
AcDbEntity
  8
中心線
100
AcDbLine
 10
756.8240582019661
 20
217.590005071709
 30
0.0
 11
764.824058201966
 21
203.7335986111583
 31
0.0
  0
CIRCLE
  5
19AE4
330
18
100
AcDbEntity
  8
ﾍ__ｽ
 62
     0
100
AcDbCircle
 10
760.8240582019663
 20
210.6618018414335
 30
0.0
 40
3.3235
  0
CIRCLE
  5
19AE5
330
18
100
AcDbEntity
  8
細線
100
AcDbCircle
 10
760.8240582019663
 20
210.6618018414335
 30
0.0
 40
4.0
  0
LWPOLYLINE
  5
19AEA
330
18
100
AcDbEntity
  8
細線
 48
5.0
100
AcDbPolyline
 90
        6
 70
     1
 43
0.0
 10
790.47122489383
 20
226.326953137718
 10
790.0229371581633
 20
224.6539205317998
 10
788.349904552245
 20
224.2056327961325
 10
787.1251596819924
 20
225.4303776663845
 10
787.573447417659
 20
227.1034102723032
 10
789.2464800235777
 20
227.5516980079704
  0
CIRCLE
  5
19AF4
330
18
100
AcDbEntity
  8
細線
 48
5.0
100
AcDbCircle
 10
669.9893156543563
 20
431.6616761215526
 30
0.0
 40
3.5
  0
LWPOLYLINE
  5
19AF8
330
18
100
AcDbEntity
  8
細線
 48
5.0
100
AcDbPolyline
 90
        6
 70
     1
 43
0.0
 10
668.3162830484373
 20
432.1099638572203
 10
669.5410279186892
 20
433.3347087274717
 10
671.2140605246079
 20
432.8864209918052
 10
671.6623482602751
 20
431.2133883858858
 10
670.4376033900234
 20
429.9886435156349
 10
668.7645707841045
 20
430.4369312513006
  0
LINE
  5
19AF9
330
18
100
AcDbEntity
  8
中心線
100
AcDbLine
 10
833.074057704054
 20
312.8642319820095
 30
0.0
 11
570.574058699878
 21
312.8413669939853
 31
0.0
  0
HATCH
  5
19AFC
330
18
100
AcDbEntity
  8
0
100
AcDbHatch
 10
0.0
 20
0.0
 30
0.0
210
0.0
220
0.0
230
1.0
  2
SOLID
 70
     1
 71
     0
 91
        2
 92
        7
 72
     1
 73
     1
 93
        3
 10
699.3289312521477
 20
256.8527999149281
 42
0.0
 10
701.8289312521474
 20
256.8527997000209
 42
0.0
 10
701.82893103724
 20
254.3527997000201
 42
-0.4142135623730919
 97
        0
 92
        7
 72
     1
 73
     1
 93
        3
 10
701.8289312521477
 20
256.8527997000201
 42
0.0
 10
701.8289314670554
 20
259.3527997000204
 42
-0.4142135623730951
 10
704.3289312521478
 20
256.8527994851131
 42
0.0
 97
        0
 75
     0
 76
     1
 47
0.0576142688807724
 98
        2
 10
700.9994626127137
 20
255.4708337104126
 10
702.6702767010974
 20
257.199992276337
  0
CIRCLE
  5
19AFD
330
18
100
AcDbEntity
  8
0
100
AcDbCircle
 10
701.8289312521477
 20
256.8527997000206
 30
0.0
 40
4.5
  0
CIRCLE
  5
19AFE
330
18
100
AcDbEntity
  8
0
100
AcDbCircle
 10
701.8289312521477
 20
256.8527997000206
 30
0.0
 40
2.5
  0
LWPOLYLINE
  5
19AFF
330
18
100
AcDbEntity
  8
0
100
AcDbPolyline
 90
       12
 70
   129
 43
0.0
 10
711.3289308677088
 20
252.3806629283714
 42
-0.0418357922730061
 10
710.4519140833359
 20
250.8616256003104
 10
702.7059470064823
 20
246.3894903111776
 42
-0.041835792273005
 10
700.9519136988973
 20
246.3894904619595
 10
693.2059473909206
 20
250.8616270828257
 42
-0.0418357922730106
 10
692.3289308677095
 20
252.3806645616695
 10
692.3289316365863
 20
261.3249364716685
 42
-0.0418357922730243
 10
693.20594842096
 20
262.8439737997306
 10
700.9519154978131
 20
267.3161090888632
 42
-0.041835792273011
 10
702.7059488053977
 20
267.316108938081
 10
710.4519151133748
 20
262.8439723172149
 42
-0.0418357922730047
 10
711.3289316365859
 20
261.3249348383714
  0
CIRCLE
  5
19B00
330
18
100
AcDbEntity
  8
0
100
AcDbCircle
 10
701.8289312521477
 20
256.8527997000206
 30
0.0
 40
5.2
  0
CIRCLE
  5
19B01
330
18
100
AcDbEntity
  8
0
100
AcDbCircle
 10
701.8289312521477
 20
256.8527997000206
 30
0.0
 40
9.5
  0
ARC
  5
19B02
330
18
100
AcDbEntity
  8
中心線
100
AcDbCircle
 10
701.8240582019671
 20
312.8527994879973
 30
0.0
 40
56.0
100
AcDbArc
 50
238.4046152107025
 51
284.3961616623666
  0
LINE
  5
19B15
330
18
100
AcDbEntity
  8
中心線
100
AcDbLine
 10
646.824058201966
 20
408.1155939042853
 30
0.0
 11
638.824058201966
 21
421.9720003648361
 31
0.0
  0
CIRCLE
  5
19B16
330
18
100
AcDbEntity
  8
細線
100
AcDbCircle
 10
642.824058201966
 20
415.0437971345606
 30
0.0
 40
4.0
  0
CIRCLE
  5
19B17
330
18
100
AcDbEntity
  8
ﾍ__ｽ
 62
     0
100
AcDbCircle
 10
642.824058201966
 20
415.0437971345606
 30
0.0
 40
3.3235
  0
LWPOLYLINE
  5
19B1A
330
18
100
AcDbEntity
  8
0
100
AcDbPolyline
 90
       12
 70
   129
 43
0.0
 10
711.319185536223
 20
373.3249344143254
 42
0.0418357922730061
 10
710.4421690130118
 20
374.8439718931685
 10
702.6962027050346
 20
379.3161085140353
 42
0.041835792273005
 10
700.9421693974501
 20
379.3161086648172
 10
693.1962023205969
 20
374.8439733756846
 42
0.0418357922730106
 10
692.3191855362229
 20
373.324936047623
 10
692.3191847673464
 20
364.3806641376239
 42
0.0418357922730243
 10
693.1962012905579
 20
362.8616266587797
 10
700.9421675985342
 20
358.3894900379131
 42
0.041835792273011
 10
702.696200906119
 20
358.3894898871316
 10
710.4421679829727
 20
362.861625176264
 42
0.0418357922730047
 10
711.3191847673459
 20
364.3806625043254
  0
CIRCLE
  5
19B1B
330
18
100
AcDbEntity
  8
0
100
AcDbCircle
 10
701.819185151785
 20
368.8527992759738
 30
0.0
 40
9.5
  0
ARC
  5
19B1C
330
18
100
AcDbEntity
  8
中心線
100
AcDbCircle
 10
701.824058201966
 20
312.8527994879975
 30
0.0
 40
56.0
100
AcDbArc
 50
57.79588442501758
 51
103.7395454799914
  0
CIRCLE
  5
19B1D
330
18
100
AcDbEntity
  8
ﾍ__ｽ
 62
     0
100
AcDbCircle
 10
819.8240582019662
 20
312.8527994879977
 30
0.0
 40
3.3235
  0
CIRCLE
  5
19B1E
330
18
100
AcDbEntity
  8
細線
100
AcDbCircle
 10
819.8240582019662
 20
312.8527994879977
 30
0.0
 40
4.0
  0
CIRCLE
  5
19B1F
330
18
100
AcDbEntity
  8
0
100
AcDbCircle
 10
701.819185151785
 20
368.8527992759738
 30
0.0
 40
2.5
  0
HATCH
  5
19B20
330
18
100
AcDbEntity
  8
0
100
AcDbHatch
 10
0.0
 20
0.0
 30
0.0
210
0.0
220
0.0
230
1.0
  2
SOLID
 70
     1
 71
     0
 91
        2
 92
        7
 72
     1
 73
     1
 93
        3
 10
699.3191851517845
 20
368.852799490882
 42
0.0
 10
701.8191851517847
 20
368.8527992759741
 42
0.0
 10
701.8191853666922
 20
371.3527992759743
 42
0.4142135623730919
 97
        0
 92
        7
 72
     1
 73
     1
 93
        3
 10
701.8191851517847
 20
368.8527992759743
 42
0.0
 10
701.8191849368768
 20
366.3527992759743
 42
0.4142135623730951
 10
704.3191851517844
 20
368.8527990610666
 42
0.0
 97
        0
 75
     0
 76
     1
 47
0.0576142688807724
 98
        2
 10
700.9897167499465
 20
370.2347654081898
 10
702.6605305410432
 20
368.5056065550083
  0
CIRCLE
  5
19B21
330
18
100
AcDbEntity
  8
0
100
AcDbCircle
 10
701.819185151785
 20
368.8527992759738
 30
0.0
 40
4.5
  0
CIRCLE
  5
19B22
330
18
100
AcDbEntity
  8
0
100
AcDbCircle
 10
701.819185151785
 20
368.8527992759738
 30
0.0
 40
5.2
  0
CIRCLE
  5
19B23
330
18
100
AcDbEntity
  8
細線
 48
5.0
100
AcDbCircle
 10
820.6329348355215
 20
281.0180569403872
 30
0.0
 40
3.5
  0
LWPOLYLINE
  5
19B27
330
18
100
AcDbEntity
  8
細線
 48
5.0
100
AcDbPolyline
 90
        6
 70
     1
 43
0.0
 10
821.8576797057739
 20
282.2428018106382
 10
822.3059674414402
 20
280.5697692047205
 10
821.0812225711887
 20
279.3450243344679
 10
819.4081899652696
 20
279.7933120701348
 10
818.9599022296027
 20
281.4663446760531
 10
820.1846470998541
 20
282.6910895463053
  0
LWPOLYLINE
  5
19B2C
330
18
100
AcDbEntity
  8
細線
 48
5.0
100
AcDbPolyline
 90
        6
 70
     1
 43
0.0
 10
821.0812225711892
 20
346.3605746415258
 10
822.3059674414406
 20
345.1358297712739
 10
821.8576797057739
 20
343.4627971653552
 10
820.1846470998546
 20
343.014509429688
 10
818.9599022296032
 20
344.2392542999395
 10
819.4081899652696
 20
345.9122869058585
  0
CIRCLE
  5
19B2D
330
18
100
AcDbEntity
  8
細線
 48
5.0
100
AcDbCircle
 10
820.6329348355215
 20
344.6875420356072
 30
0.0
 40
3.5
  0
CIRCLE
  5
19B3D
330
18
100
AcDbEntity
  8
細線
 48
5.0
100
AcDbCircle
 10
733.6588007495763
 20
431.6616761215526
 30
0.0
 40
3.5
  0
LWPOLYLINE
  5
19B41
330
18
100
AcDbEntity
  8
細線
 48
5.0
100
AcDbPolyline
 90
        6
 70
     1
 43
0.0
 10
732.434055879325
 20
432.8864209918052
 10
734.1070884852432
 20
433.3347087274713
 10
735.331833355495
 20
432.1099638572203
 10
734.8835456198283
 20
430.4369312513006
 10
733.2105130139101
 20
429.9886435156338
 10
731.9857681436578
 20
431.2133883858858
  0
CIRCLE
  5
19B43
330
18
100
AcDbEntity
  8
細線
 48
5.0
100
AcDbCircle
 10
788.7981922879113
 20
399.8269335739426
 30
0.0
 40
3.5
  0
CIRCLE
  5
19B4F
330
18
100
AcDbEntity
  8
細線
100
AcDbCircle
 10
760.8240582019663
 20
415.0437971345611
 30
0.0
 40
4.0
  0
LINE
  5
19B50
330
18
100
AcDbEntity
  8
中心線
100
AcDbLine
 10
756.8240582019661
 20
408.1155939042853
 30
0.0
 11
764.824058201966
 21
421.9720003648361
 31
0.0
  0
CIRCLE
  5
19B51
330
18
100
AcDbEntity
  8
ﾍ__ｽ
 62
     0
100
AcDbCircle
 10
760.8240582019663
 20
415.0437971345611
 30
0.0
 40
3.3235
  0
LWPOLYLINE
  5
19B52
330
18
100
AcDbEntity
  8
細線
 48
5.0
100
AcDbPolyline
 90
        6
 70
     1
 43
0.0
 10
788.3499045522456
 20
401.4999661798619
 10
790.0229371581633
 20
401.0516784441946
 10
790.4712248938306
 20
399.3786458382759
 10
789.2464800235786
 20
398.1539009680235
 10
787.5734474176604
 20
398.6021887036903
 10
787.1251596819932
 20
400.275221309609
  0
LWPOLYLINE
  5
19B55
330
18
100
AcDbEntity
  8
細線
 48
5.0
100
AcDbPolyline
 90
        6
 70
     1
 43
0.0
 10
615.2982118516863
 20
224.205632796133
 10
613.6251792457686
 20
224.6539205318
 10
613.1768915101014
 20
226.3269531377185
 10
614.4016363803533
 20
227.5516980079709
 10
616.0746689862714
 20
227.103410272304
 10
616.5229567219386
 20
225.4303776663854
  0
CIRCLE
  5
19B57
330
18
100
AcDbEntity
  8
細線
 48
5.0
100
AcDbCircle
 10
614.8499241160209
 20
225.8786654020519
 30
0.0
 40
3.5
  0
CIRCLE
  5
19B5C
330
18
100
AcDbEntity
  8
ﾍ__ｽ
 62
     0
100
AcDbCircle
 10
583.8240582019665
 20
312.8527994879977
 30
0.0
 40
3.3235
  0
CIRCLE
  5
19B5D
330
18
100
AcDbEntity
  8
細線
100
AcDbCircle
 10
583.8240582019665
 20
312.8527994879977
 30
0.0
 40
4.0
  0
CIRCLE
  5
19B5E
330
18
100
AcDbEntity
  8
細線
 48
5.0
100
AcDbCircle
 10
583.0151815684111
 20
281.0180569403872
 30
0.0
 40
3.5
  0
LWPOLYLINE
  5
19B62
330
18
100
AcDbEntity
  8
細線
 48
5.0
100
AcDbPolyline
 90
        6
 70
     1
 43
0.0
 10
582.5668938327428
 20
279.3450243344685
 10
581.3421489624913
 20
280.5697692047205
 10
581.7904366981582
 20
282.2428018106392
 10
583.4634693040768
 20
282.6910895463063
 10
584.6882141743289
 20
281.4663446760549
 10
584.2399264386623
 20
279.7933120701362
  0
LWPOLYLINE
  5
19B63
330
18
100
AcDbEntity
  8
細線
 48
5.0
100
AcDbPolyline
 90
        6
 70
     1
 43
0.0
 10
581.7904366981577
 20
343.4627971653561
 10
581.3421489624913
 20
345.1358297712743
 10
582.5668938327428
 20
346.3605746415263
 10
584.2399264386623
 20
345.9122869058599
 10
584.6882141743293
 20
344.2392542999413
 10
583.4634693040774
 20
343.0145094296893
  0
CIRCLE
  5
19B64
330
18
100
AcDbEntity
  8
細線
 48
5.0
100
AcDbCircle
 10
583.0151815684111
 20
344.6875420356075
 30
0.0
 40
3.5
  0
CIRCLE
  5
19B69
330
18
100
AcDbEntity
  8
細線
 48
5.0
100
AcDbCircle
 10
614.8499241160209
 20
399.8269335739426
 30
0.0
 40
3.5
  0
LWPOLYLINE
  5
19B6C
330
18
100
AcDbEntity
  8
細線
 48
5.0
100
AcDbPolyline
 90
        6
 70
     1
 43
0.0
 10
613.1768915101014
 20
399.3786458382762
 10
613.6251792457686
 20
401.0516784441946
 10
615.2982118516874
 20
401.4999661798619
 10
616.5229567219397
 20
400.2752213096099
 10
616.074668986273
 20
398.6021887036916
 10
614.4016363803542
 20
398.1539009680242
  0
ARC
  5
1A0FC
330
18
100
AcDbEntity
  8
中心線
100
AcDbCircle
 10
185.2617902246829
 20
312.8527994879977
 30
0.0
 40
75.00000000000074
100
AcDbArc
 50
274.7561075864719
 51
261.6815610424044
  0
CIRCLE
  5
1A0FE
330
18
100
AcDbEntity
  8
0
100
AcDbCircle
 10
185.2617902246829
 20
312.8527994879977
 30
0.0
 40
80.99999999999964
  0
CIRCLE
  5
1A0FF
330
18
100
AcDbEntity
  8
0
100
AcDbCircle
 10
185.2617902246829
 20
312.8527994879977
 30
0.0
 40
92.34999999999994
  0
LINE
  5
1A102
330
18
100
AcDbEntity
  8
中心線
100
AcDbLine
 10
54.08382192416707
 20
312.8527994879977
 30
0.0
 11
316.5165165475946
 21
312.8527994879971
 31
0.0
  0
LINE
  5
1A105
102
{ACAD_REACTORS
330
1A294
102
}
330
18
100
AcDbEntity
  8
仮想線
 48
0.5
100
AcDbLine
 10
46.71179553218019
 20
298.8235151876883
 30
0.0
 11
47.01179553218037
 21
298.5235151876882
 31
0.0
  0
LINE
  5
1A106
102
{ACAD_REACTORS
330
1A294
102
}
330
18
100
AcDbEntity
  8
仮想線
 48
0.5
100
AcDbLine
 10
51.71179553218019
 20
298.2529048029688
 30
0.0
 11
51.71179553218019
 21
307.4529048029686
 31
0.0
  0
LINE
  5
1A107
102
{ACAD_REACTORS
330
1A294
102
}
330
18
100
AcDbEntity
  8
仮想線
 48
0.5
100
AcDbLine
 10
53.01179553218037
 20
297.8529048029686
 30
0.0
 11
53.01179553217934
 21
302.8529048029686
 31
0.0
  0
LINE
  5
1A108
102
{ACAD_REACTORS
330
1A294
102
}
330
18
100
AcDbEntity
  8
仮想線
  6
BYBLOCK
 48
0.5
100
AcDbLine
 10
58.51180079792925
 20
292.7735151876877
 30
0.0
 11
58.51177973493509
 21
332.7735151876876
 31
0.0
  0
LINE
  5
1A109
102
{ACAD_REACTORS
330
1A294
102
}
330
18
100
AcDbEntity
  8
仮想線
 48
0.5
100
AcDbLine
 10
54.01180079792846
 20
292.7735151876876
 30
0.0
 11
54.01177973493464
 21
332.7735151876883
 31
0.0
  0
LINE
  5
1A10A
330
18
100
AcDbEntity
  8
中心線
100
AcDbLine
 10
185.2617902246828
 20
454.661426263098
 30
0.0
 11
185.2617902246828
 21
170.5195861638
 31
0.0
  0
LINE
  5
1A143
102
{ACAD_REACTORS
330
1A294
102
}
330
18
100
AcDbEntity
  8
仮想線
 48
0.5
100
AcDbLine
 10
58.51180079792914
 20
292.7735151876877
 30
0.0
 11
54.01180079792846
 21
292.7735151876876
 31
0.0
  0
LINE
  5
1A144
102
{ACAD_REACTORS
330
1A294
102
}
330
18
100
AcDbEntity
  8
仮想線
 48
0.5
100
AcDbLine
 10
51.71179553218019
 20
298.5235151876882
 30
0.0
 11
47.01179553218037
 21
298.5235151876882
 31
0.0
  0
LINE
  5
1A145
102
{ACAD_REACTORS
330
1A294
102
}
330
18
100
AcDbEntity
  8
仮想線
 48
0.5
100
AcDbLine
 10
53.01179553217991
 20
298.2529048029688
 30
0.0
 11
51.71179553218019
 21
298.2529048029688
 31
0.0
  0
LINE
  5
1A146
102
{ACAD_REACTORS
330
1A294
102
}
330
18
100
AcDbEntity
  8
仮想線
 48
0.5
100
AcDbLine
 10
54.01179553218037
 20
297.8529048029688
 30
0.0
 11
53.01179553218037
 21
297.8529048029686
 31
0.0
  0
CIRCLE
  5
1A147
330
18
100
AcDbEntity
  8
0
100
AcDbCircle
 10
124.3512731450597
 20
252.0587245564701
 30
0.0
 40
4.75
  0
CIRCLE
  5
1A148
330
18
100
AcDbEntity
  8
細線
100
AcDbCircle
 10
124.3512731450597
 20
252.0587245564701
 30
0.0
 40
4.25
  0
LWPOLYLINE
  5
1A149
330
18
100
AcDbEntity
  8
細線
100
AcDbPolyline
 90
        6
 70
     1
 43
0.0
 10
122.1209085911114
 20
252.6577379254184
 10
122.7173259239581
 20
250.426680276383
 10
124.9476871917537
 20
249.8276640133679
 10
126.5816311267023
 20
251.4597053993878
 10
125.9852137938562
 20
253.6907630484229
 10
123.7548525260605
 20
254.2897793114381
  0
CIRCLE
  5
1A14A
330
18
100
AcDbEntity
  8
細線
100
AcDbCircle
 10
162.8910942887696
 20
229.7779163702438
 30
0.0
 40
4.25
  0
CIRCLE
  5
1A14B
330
18
100
AcDbEntity
  8
0
100
AcDbCircle
 10
162.8910942887696
 20
229.7779163702438
 30
0.0
 40
4.75
  0
LWPOLYLINE
  5
1A14C
330
18
100
AcDbEntity
  8
細線
100
AcDbPolyline
 90
        6
 70
     1
 43
0.0
 10
160.660035240876
 20
229.1814948879852
 10
162.2920766268963
 20
227.5475509530362
 10
164.5231342759317
 20
228.1439682858829
 10
165.1221505389471
 20
230.374329553678
 10
163.4901091529269
 20
232.0082734886272
 10
161.2590515038919
 20
231.4118561557806
  0
LINE
  5
1A14D
330
18
100
AcDbEntity
  8
中心線
100
AcDbLine
 10
150.4846593610864
 20
252.4325030592164
 30
0.0
 11
144.5930497807439
 21
242.3704653121148
 31
0.0
  0
CIRCLE
  5
1A14E
330
18
100
AcDbEntity
  8
0
100
AcDbCircle
 10
147.7713221271893
 20
247.8954006148986
 30
0.0
 40
3.0
  0
CIRCLE
  5
1A14F
330
18
100
AcDbEntity
  8
細線
100
AcDbCircle
 10
147.7713221271893
 20
247.8954006148986
 30
0.0
 40
4.0
  0
CIRCLE
  5
1A151
330
18
100
AcDbEntity
  8
細線
100
AcDbCircle
 10
207.4079625496444
 20
229.7520810359783
 30
0.0
 40
4.25
  0
CIRCLE
  5
1A152
330
18
100
AcDbEntity
  8
0
100
AcDbCircle
 10
207.4079625496444
 20
229.7520810359783
 30
0.0
 40
4.75
  0
LWPOLYLINE
  5
1A153
330
18
100
AcDbEntity
  8
細線
100
AcDbPolyline
 90
        6
 70
     1
 43
0.0
 10
205.7740194779544
 20
228.1200353570329
 10
208.0043807457502
 20
227.5210190940176
 10
209.638324680699
 20
229.1530604800378
 10
209.0419073478525
 20
231.3841181290729
 10
206.8115460800569
 20
231.9831343920887
 10
205.1776021451082
 20
230.3510930060681
  0
LINE
  5
1A162
330
18
100
AcDbEntity
  8
中心線
100
AcDbLine
 10
150.4846593610864
 20
373.2730959167783
 30
0.0
 11
144.5930497807439
 21
383.3351336638802
 31
0.0
  0
LINE
  5
1A165
102
{ACAD_REACTORS
330
1A294
102
}
330
18
100
AcDbEntity
  8
仮想線
 48
0.5
100
AcDbLine
 10
46.71179553218019
 20
326.8822944182486
 30
0.0
 11
46.71179553218019
 21
318.9822944182491
 31
0.0
  0
LINE
  5
1A166
102
{ACAD_REACTORS
330
1A294
102
}
330
18
100
AcDbEntity
  8
仮想線
 48
0.5
100
AcDbLine
 10
51.71179553218019
 20
327.4529048029683
 30
0.0
 11
51.71179553218019
 21
318.2529048029686
 31
0.0
  0
LINE
  5
1A167
102
{ACAD_REACTORS
330
1A294
102
}
330
18
100
AcDbEntity
  8
仮想線
 48
0.5
100
AcDbLine
 10
53.01179553217934
 20
322.8529048029686
 30
0.0
 11
53.01179553218037
 21
317.8529048029685
 31
0.0
  0
LINE
  5
1A168
102
{ACAD_REACTORS
330
1A294
102
}
330
18
100
AcDbEntity
  8
中心線
 48
0.5
100
AcDbLine
 10
69.04479485047693
 20
302.8529048029688
 30
0.0
 11
43.9539318083049
 21
302.8529048029686
 31
0.0
  0
LINE
  5
1A169
102
{ACAD_REACTORS
330
1A294
102
}
330
18
100
AcDbEntity
  8
仮想線
 48
0.5
100
AcDbLine
 10
51.71179553218019
 20
307.0235151876882
 30
0.0
 11
47.01179553217992
 21
307.0235151876882
 31
0.0
  0
LINE
  5
1A16A
102
{ACAD_REACTORS
330
1A294
102
}
330
18
100
AcDbEntity
  8
仮想線
 48
0.5
100
AcDbLine
 10
47.01179553217992
 20
307.0235151876882
 30
0.0
 11
46.71179553218019
 21
306.7235151876881
 31
0.0
  0
LINE
  5
1A16B
102
{ACAD_REACTORS
330
1A294
102
}
330
18
100
AcDbEntity
  8
仮想線
 48
0.5
100
AcDbLine
 10
46.71179553218019
 20
298.8235151876883
 30
0.0
 11
46.71179553218019
 21
306.7235151876881
 31
0.0
  0
LINE
  5
1A16C
102
{ACAD_REACTORS
330
1A294
102
}
330
18
100
AcDbEntity
  8
仮想線
 48
0.5
100
AcDbLine
 10
53.01179553217991
 20
307.4529048029686
 30
0.0
 11
51.71179553218019
 21
307.4529048029686
 31
0.0
  0
LINE
  5
1A16D
102
{ACAD_REACTORS
330
1A294
102
}
330
18
100
AcDbEntity
  8
仮想線
 48
0.5
100
AcDbLine
 10
53.01179553217934
 20
302.8529048029686
 30
0.0
 11
53.01179553218037
 21
307.8529048029686
 31
0.0
  0
LINE
  5
1A16E
102
{ACAD_REACTORS
330
1A294
102
}
330
18
100
AcDbEntity
  8
仮想線
 48
0.5
100
AcDbLine
 10
54.01179553218037
 20
307.8529048029686
 30
0.0
 11
53.01179553218037
 21
307.8529048029686
 31
0.0
  0
LINE
  5
1A16F
102
{ACAD_REACTORS
330
1A294
102
}
330
18
100
AcDbEntity
  8
仮想線
 48
0.5
100
AcDbLine
 10
51.71179553218019
 20
318.6822944182488
 30
0.0
 11
47.01179553217992
 21
318.6822944182488
 31
0.0
  0
LINE
  5
1A170
102
{ACAD_REACTORS
330
1A294
102
}
330
18
100
AcDbEntity
  8
仮想線
 48
0.5
100
AcDbLine
 10
47.01179553217992
 20
318.6822944182488
 30
0.0
 11
46.71179553218019
 21
318.9822944182491
 31
0.0
  0
LINE
  5
1A171
102
{ACAD_REACTORS
330
1A294
102
}
330
18
100
AcDbEntity
  8
仮想線
 48
0.5
100
AcDbLine
 10
53.01179553217991
 20
318.2529048029686
 30
0.0
 11
51.71179553218019
 21
318.2529048029686
 31
0.0
  0
LINE
  5
1A172
102
{ACAD_REACTORS
330
1A294
102
}
330
18
100
AcDbEntity
  8
仮想線
 48
0.5
100
AcDbLine
 10
54.01179553218037
 20
317.8529048029685
 30
0.0
 11
53.01179553218037
 21
317.8529048029685
 31
0.0
  0
LINE
  5
1A184
102
{ACAD_REACTORS
330
1A294
102
}
330
18
100
AcDbEntity
  8
仮想線
  6
BYBLOCK
 48
0.5
100
AcDbLine
 10
54.01177973493464
 20
332.7735151876883
 30
0.0
 11
58.51177973493509
 21
332.7735151876876
 31
0.0
  0
LINE
  5
1A185
102
{ACAD_REACTORS
330
1A294
102
}
330
18
100
AcDbEntity
  8
中心線
 48
0.5
100
AcDbLine
 10
69.04479485047693
 20
322.8529048029685
 30
0.0
 11
43.9539318083049
 21
322.8529048029685
 31
0.0
  0
LINE
  5
1A186
102
{ACAD_REACTORS
330
1A294
102
}
330
18
100
AcDbEntity
  8
仮想線
 48
0.5
100
AcDbLine
 10
51.71179553218019
 20
327.1822944182488
 30
0.0
 11
47.01179553218037
 21
327.1822944182488
 31
0.0
  0
LINE
  5
1A187
102
{ACAD_REACTORS
330
1A294
102
}
330
18
100
AcDbEntity
  8
仮想線
 48
0.5
100
AcDbLine
 10
46.71179553218019
 20
326.8822944182486
 30
0.0
 11
47.01179553218037
 21
327.1822944182488
 31
0.0
  0
LINE
  5
1A188
102
{ACAD_REACTORS
330
1A294
102
}
330
18
100
AcDbEntity
  8
仮想線
 48
0.5
100
AcDbLine
 10
53.01179553218037
 20
327.8529048029685
 30
0.0
 11
53.01179553217946
 21
322.8529048029686
 31
0.0
  0
LINE
  5
1A189
102
{ACAD_REACTORS
330
1A294
102
}
330
18
100
AcDbEntity
  8
仮想線
 48
0.5
100
AcDbLine
 10
53.01179553217991
 20
327.4529048029683
 30
0.0
 11
51.71179553218019
 21
327.4529048029683
 31
0.0
  0
LINE
  5
1A18A
102
{ACAD_REACTORS
330
1A294
102
}
330
18
100
AcDbEntity
  8
仮想線
 48
0.5
100
AcDbLine
 10
54.01179553218037
 20
327.8529048029681
 30
0.0
 11
53.01179553218037
 21
327.8529048029685
 31
0.0
  0
SOLID
  5
1A18C
330
18
100
AcDbEntity
  8
0
  6
BYBLOCK
 62
     0
100
AcDbTrace
 10
97.26179022468308
 20
315.1622005679976
 30
0.0
 11
93.26179022468304
 21
312.8527994879975
 31
0.0
 12
97.26179022468308
 22
310.5433984079975
 32
0.0
 13
97.26179022468308
 23
310.5433984079975
 33
0.0
  0
SOLID
  5
1A18D
330
18
100
AcDbEntity
  8
0
  6
BYBLOCK
 62
     0
100
AcDbTrace
 10
88.26179022468307
 20
315.1622005679976
 30
0.0
 11
92.26179022468304
 21
312.8527994879975
 31
0.0
 12
88.26179022468307
 22
310.5433984079975
 32
0.0
 13
88.26179022468307
 23
310.5433984079975
 33
0.0
  0
CIRCLE
  5
1A18E
330
18
100
AcDbEntity
  8
細線
100
AcDbCircle
 10
110.2617902246821
 20
312.8527994879977
 30
0.0
 40
4.0
  0
CIRCLE
  5
1A18F
330
18
100
AcDbEntity
  8
0
100
AcDbCircle
 10
110.2617902246821
 20
312.8527994879977
 30
0.0
 40
3.0
  0
CIRCLE
  5
1A190
330
18
100
AcDbEntity
  8
細線
100
AcDbCircle
 10
102.1410484046768
 20
290.5279622543367
 30
0.0
 40
4.25
  0
CIRCLE
  5
1A191
330
18
100
AcDbEntity
  8
0
100
AcDbCircle
 10
102.1410484046768
 20
290.5279622543367
 30
0.0
 40
4.75
  0
LWPOLYLINE
  5
1A192
330
18
100
AcDbEntity
  8
細線
100
AcDbPolyline
 90
        6
 70
     1
 43
0.0
 10
101.5446269224182
 20
288.2969032064431
 10
99.9106829874694
 20
289.9289445924633
 10
100.507100320316
 20
292.1600022414986
 10
102.7374615881112
 20
292.7590185045136
 10
104.3714055230602
 20
291.1269771184941
 10
103.7749881902136
 20
288.8959194694582
  0
CIRCLE
  5
1A1A9
330
18
100
AcDbEntity
  8
細線
100
AcDbCircle
 10
205.3929368619569
 20
347.4586750038273
 30
0.0
 40
5.5
  0
CIRCLE
  5
1A1AA
330
18
100
AcDbEntity
  8
細線
100
AcDbCircle
 10
205.3929368619605
 20
347.4586750038282
 30
0.0
 40
2.25
  0
CIRCLE
  5
1A1AB
330
18
100
AcDbEntity
  8
細線
100
AcDbCircle
 10
205.3929368619605
 20
347.4586750038282
 30
0.0
 40
3.0
  0
CIRCLE
  5
1A1AC
330
18
100
AcDbEntity
  8
細線
100
AcDbCircle
 10
102.1281167484023
 20
335.0930436536456
 30
0.0
 40
4.25
  0
CIRCLE
  5
1A1AD
330
18
100
AcDbEntity
  8
0
100
AcDbCircle
 10
102.1281167484023
 20
335.0930436536456
 30
0.0
 40
4.75
  0
LWPOLYLINE
  5
1A1AE
330
18
100
AcDbEntity
  8
細線
100
AcDbPolyline
 90
        6
 70
     1
 43
0.0
 10
100.4951230867053
 20
333.4600480135583
 10
99.89740131299519
 20
335.690756544378
 10
101.5303906822684
 20
337.3237530502156
 10
103.761101825252
 20
336.726041025234
 10
104.3588235989622
 20
334.4953324944143
 10
102.7258342296885
 20
332.8623359885765
  0
CIRCLE
  5
1A1AF
330
18
100
AcDbEntity
  8
0
100
AcDbCircle
 10
147.7713221271893
 20
377.8101983610956
 30
0.0
 40
3.0
  0
CIRCLE
  5
1A1B0
330
18
100
AcDbEntity
  8
細線
100
AcDbCircle
 10
147.7713221271893
 20
377.8101983610956
 30
0.0
 40
4.0
  0
CIRCLE
  5
1A1C7
330
18
100
AcDbEntity
  8
細線
100
AcDbCircle
 10
124.3512731450596
 20
373.6104869931867
 30
0.0
 40
4.25
  0
CIRCLE
  5
1A1C8
330
18
100
AcDbEntity
  8
0
100
AcDbCircle
 10
124.3512731450596
 20
373.6104869931867
 30
0.0
 40
4.75
  0
LWPOLYLINE
  5
1A1C9
330
18
100
AcDbEntity
  8
細線
100
AcDbPolyline
 90
        6
 70
     1
 43
0.0
 10
122.1209085911115
 20
373.0114736242382
 10
122.7173259239581
 20
375.2425312732737
 10
124.9476871917537
 20
375.8415475362888
 10
126.5816311267023
 20
374.2095061502688
 10
125.9852137938561
 20
371.9784485012335
 10
123.7548525260605
 20
371.3794322382184
  0
LINE
  5
1A1DB
102
{ACAD_REACTORS
330
1A295
102
}
330
18
100
AcDbEntity
  8
仮想線
 48
0.5
100
AcDbLine
 10
323.8117849171858
 20
298.8233045577463
 30
0.0
 11
323.5117849171857
 21
298.5233045577463
 31
0.0
  0
LINE
  5
1A1DC
102
{ACAD_REACTORS
330
1A295
102
}
330
18
100
AcDbEntity
  8
仮想線
 48
0.5
100
AcDbLine
 10
318.8117849171858
 20
298.2526941730266
 30
0.0
 11
318.8117849171858
 21
307.4526941730263
 31
0.0
  0
LINE
  5
1A1DD
102
{ACAD_REACTORS
330
1A295
102
}
330
18
100
AcDbEntity
  8
仮想線
 48
0.5
100
AcDbLine
 10
317.5117849171857
 20
297.8526941730267
 30
0.0
 11
317.5117849171865
 21
302.8526941730265
 31
0.0
  0
LINE
  5
1A1DE
102
{ACAD_REACTORS
330
1A295
102
}
330
18
100
AcDbEntity
  8
仮想線
 48
0.5
100
AcDbLine
 10
316.5117796514375
 20
332.9320837883076
 30
0.0
 11
316.5118007144315
 21
292.9320837883068
 31
0.0
  0
LINE
  5
1A1DF
102
{ACAD_REACTORS
330
1A295
102
}
330
18
100
AcDbEntity
  8
仮想線
  6
BYBLOCK
 48
0.5
100
AcDbLine
 10
312.0117796514368
 20
332.9320837883073
 30
0.0
 11
312.0118007144309
 21
292.9320837883071
 31
0.0
  0
LWPOLYLINE
  5
1A1F5
330
18
100
AcDbEntity
  8
細線
100
AcDbPolyline
 90
        6
 70
     1
 43
0.0
 10
268.8508486961047
 20
337.3723083432139
 10
270.4847926310533
 20
335.7402669571937
 10
269.8883752982069
 20
333.5092093081581
 10
267.6580140304117
 20
332.9101930451432
 10
266.0240700954624
 20
334.5422344311628
 10
266.6204874283095
 20
336.7732920801983
  0
CIRCLE
  5
1A1F6
330
18
100
AcDbEntity
  8
細線
100
AcDbCircle
 10
268.2544272138463
 20
335.1412492953203
 30
0.0
 40
4.25
  0
CIRCLE
  5
1A1F7
330
18
100
AcDbEntity
  8
0
100
AcDbCircle
 10
268.2544272138463
 20
335.1412492953203
 30
0.0
 40
4.75
  0
CIRCLE
  5
1A1F9
330
18
100
AcDbEntity
  8
0
100
AcDbCircle
 10
246.0442024734635
 20
252.0587245564701
 30
0.0
 40
4.75
  0
CIRCLE
  5
1A1FA
330
18
100
AcDbEntity
  8
細線
100
AcDbCircle
 10
246.0442024734635
 20
252.0587245564701
 30
0.0
 40
4.25
  0
LWPOLYLINE
  5
1A1FB
330
18
100
AcDbEntity
  8
細線
100
AcDbPolyline
 90
        6
 70
     1
 43
0.0
 10
248.2745670274116
 20
252.6577379254184
 10
247.6781496945649
 20
250.426680276383
 10
245.4477884267693
 20
249.8276640133678
 10
243.8138444918208
 20
251.4597053993877
 10
244.4102618246667
 20
253.6907630484234
 10
246.6406230924626
 20
254.2897793114381
  0
CIRCLE
  5
1A1FD
330
18
100
AcDbEntity
  8
細線
100
AcDbCircle
 10
222.7098496572688
 20
247.8709339812759
 30
0.0
 40
4.0
  0
LINE
  5
1A1FE
330
18
100
AcDbEntity
  8
中心線
100
AcDbLine
 10
219.9965124233718
 20
252.4080364255936
 30
0.0
 11
225.888122003714
 21
242.3459986784918
 31
0.0
  0
CIRCLE
  5
1A1FF
330
18
100
AcDbEntity
  8
0
100
AcDbCircle
 10
222.7098496572688
 20
247.8709339812759
 30
0.0
 40
3.0
  0
CIRCLE
  5
1A200
330
18
100
AcDbEntity
  8
細線
100
AcDbCircle
 10
268.2673588701213
 20
290.5761678960116
 30
0.0
 40
4.25
  0
CIRCLE
  5
1A201
330
18
100
AcDbEntity
  8
0
100
AcDbCircle
 10
268.2673588701213
 20
290.5761678960116
 30
0.0
 40
4.75
  0
LWPOLYLINE
  5
1A202
330
18
100
AcDbEntity
  8
細線
100
AcDbPolyline
 90
        6
 70
     1
 43
0.0
 10
269.9003525318179
 20
292.209163536099
 10
270.4980743055281
 20
289.9784550052793
 10
268.8650849362544
 20
288.3454584994412
 10
266.6343737932713
 20
288.9431705244231
 10
266.0366520195609
 20
291.1738790552428
 10
267.6696413888344
 20
292.8068755610805
  0
LINE
  5
1A21D
102
{ACAD_REACTORS
330
1A295
102
}
330
18
100
AcDbEntity
  8
仮想線
  6
BYBLOCK
 48
0.5
100
AcDbLine
 10
316.5118007144315
 20
292.9320837883068
 30
0.0
 11
312.0118007144309
 21
292.9320837883071
 31
0.0
  0
LINE
  5
1A21E
102
{ACAD_REACTORS
330
1A295
102
}
330
18
100
AcDbEntity
  8
仮想線
 48
0.5
100
AcDbLine
 10
318.8117849171858
 20
298.5233045577463
 30
0.0
 11
323.5117849171857
 21
298.5233045577463
 31
0.0
  0
LINE
  5
1A21F
102
{ACAD_REACTORS
330
1A295
102
}
330
18
100
AcDbEntity
  8
仮想線
 48
0.5
100
AcDbLine
 10
317.5117849171862
 20
298.2526941730266
 30
0.0
 11
318.8117849171858
 21
298.2526941730266
 31
0.0
  0
LINE
  5
1A220
102
{ACAD_REACTORS
330
1A295
102
}
330
18
100
AcDbEntity
  8
仮想線
 48
0.5
100
AcDbLine
 10
316.5117849171855
 20
297.8526941730267
 30
0.0
 11
317.5117849171857
 21
297.8526941730267
 31
0.0
  0
LINE
  5
1A222
330
18
100
AcDbEntity
  8
中心線
100
AcDbLine
 10
219.9965124233718
 20
373.2975625504008
 30
0.0
 11
225.888122003714
 21
383.3596002975031
 31
0.0
  0
LWPOLYLINE
  5
1A223
330
18
100
AcDbEntity
  8
細線
100
AcDbPolyline
 90
        6
 70
     1
 43
0.0
 10
248.2745670274116
 20
373.0114736242386
 10
247.6781496945649
 20
375.2425312732738
 10
245.447788426769
 20
375.8415475362892
 10
243.8138444918205
 20
374.209506150269
 10
244.4102618246667
 20
371.9784485012339
 10
246.6406230924623
 20
371.3794322382188
  0
CIRCLE
  5
1A224
330
18
100
AcDbEntity
  8
0
100
AcDbCircle
 10
246.0442024734634
 20
373.6104869931867
 30
0.0
 40
4.75
  0
CIRCLE
  5
1A225
330
18
100
AcDbEntity
  8
細線
100
AcDbCircle
 10
246.0442024734634
 20
373.6104869931867
 30
0.0
 40
4.25
  0
CIRCLE
  5
1A22B
330
18
100
AcDbEntity
  8
細線
100
AcDbCircle
 10
260.2617902246839
 20
312.8527994879977
 30
0.0
 40
4.0
  0
CIRCLE
  5
1A22C
330
18
100
AcDbEntity
  8
0
100
AcDbCircle
 10
260.2617902246839
 20
312.8527994879977
 30
0.0
 40
3.0
  0
CIRCLE
  5
1A230
330
18
100
AcDbEntity
  8
細線
100
AcDbCircle
 10
222.7098496572688
 20
377.8346649947187
 30
0.0
 40
4.0
  0
CIRCLE
  5
1A231
330
18
100
AcDbEntity
  8
0
100
AcDbCircle
 10
222.7098496572688
 20
377.8346649947187
 30
0.0
 40
3.0
  0
CIRCLE
  5
1A234
330
18
100
AcDbEntity
  8
細線
100
AcDbCircle
 10
207.4561756880783
 20
395.904226835688
 30
0.0
 40
4.25
  0
CIRCLE
  5
1A235
330
18
100
AcDbEntity
  8
0
100
AcDbCircle
 10
207.4561756880783
 20
395.904226835688
 30
0.0
 40
4.75
  0
LWPOLYLINE
  5
1A236
330
18
100
AcDbEntity
  8
細線
100
AcDbPolyline
 90
        6
 70
     1
 43
0.0
 10
209.6868882275114
 20
396.501943010893
 10
208.0538988582379
 20
398.1349395167306
 10
205.8231877152542
 20
397.5372274917491
 10
205.2254659415443
 20
395.3065189609294
 10
206.858455310818
 20
393.6735224550914
 10
209.0891664538012
 20
394.271234480073
  0
LINE
  5
1A237
102
{ACAD_REACTORS
330
1A295
102
}
330
18
100
AcDbEntity
  8
中心線
 48
0.5
100
AcDbLine
 10
301.4787855988892
 20
322.8526941730263
 30
0.0
 11
326.569648641061
 21
322.8526941730265
 31
0.0
  0
LINE
  5
1A238
102
{ACAD_REACTORS
330
1A295
102
}
330
18
100
AcDbEntity
  8
中心線
 48
0.5
100
AcDbLine
 10
301.4787855988892
 20
302.8526941730266
 30
0.0
 11
326.569648641061
 21
302.8526941730266
 31
0.0
  0
LINE
  5
1A23A
102
{ACAD_REACTORS
330
1A295
102
}
330
18
100
AcDbEntity
  8
仮想線
 48
0.5
100
AcDbLine
 10
323.8117849171858
 20
326.8820837883067
 30
0.0
 11
323.8117849171858
 21
318.9820837883071
 31
0.0
  0
LINE
  5
1A23B
102
{ACAD_REACTORS
330
1A295
102
}
330
18
100
AcDbEntity
  8
仮想線
 48
0.5
100
AcDbLine
 10
318.8117849171858
 20
327.4526941730263
 30
0.0
 11
318.8117849171858
 21
318.2526941730266
 31
0.0
  0
LINE
  5
1A23C
102
{ACAD_REACTORS
330
1A295
102
}
330
18
100
AcDbEntity
  8
仮想線
 48
0.5
100
AcDbLine
 10
317.5117849171868
 20
322.8526941730265
 30
0.0
 11
317.5117849171857
 21
317.8526941730265
 31
0.0
  0
LINE
  5
1A23D
102
{ACAD_REACTORS
330
1A295
102
}
330
18
100
AcDbEntity
  8
仮想線
 48
0.5
100
AcDbLine
 10
317.5117849171868
 20
302.8526941730265
 30
0.0
 11
317.5117849171857
 21
307.8526941730267
 31
0.0
  0
LINE
  5
1A23E
102
{ACAD_REACTORS
330
1A295
102
}
330
18
100
AcDbEntity
  8
仮想線
 48
0.5
100
AcDbLine
 10
318.8117849171858
 20
307.0233045577463
 30
0.0
 11
323.5117849171862
 21
307.0233045577463
 31
0.0
  0
LINE
  5
1A23F
102
{ACAD_REACTORS
330
1A295
102
}
330
18
100
AcDbEntity
  8
仮想線
 48
0.5
100
AcDbLine
 10
323.5117849171862
 20
307.0233045577463
 30
0.0
 11
323.8117849171858
 21
306.7233045577461
 31
0.0
  0
LINE
  5
1A240
102
{ACAD_REACTORS
330
1A295
102
}
330
18
100
AcDbEntity
  8
仮想線
 48
0.5
100
AcDbLine
 10
317.5117849171862
 20
307.4526941730263
 30
0.0
 11
318.8117849171858
 21
307.4526941730263
 31
0.0
  0
LINE
  5
1A241
102
{ACAD_REACTORS
330
1A295
102
}
330
18
100
AcDbEntity
  8
仮想線
 48
0.5
100
AcDbLine
 10
316.5117849171855
 20
307.8526941730267
 30
0.0
 11
317.5117849171857
 21
307.8526941730267
 31
0.0
  0
LINE
  5
1A242
102
{ACAD_REACTORS
330
1A295
102
}
330
18
100
AcDbEntity
  8
仮想線
 48
0.5
100
AcDbLine
 10
323.8117849171858
 20
298.8233045577463
 30
0.0
 11
323.8117849171858
 21
306.7233045577461
 31
0.0
  0
LINE
  5
1A253
102
{ACAD_REACTORS
330
1A295
102
}
330
18
100
AcDbEntity
  8
仮想線
 48
0.5
100
AcDbLine
 10
318.8117849171858
 20
318.6820837883069
 30
0.0
 11
323.5117849171862
 21
318.6820837883069
 31
0.0
  0
LINE
  5
1A254
102
{ACAD_REACTORS
330
1A295
102
}
330
18
100
AcDbEntity
  8
仮想線
 48
0.5
100
AcDbLine
 10
317.5117849171862
 20
318.2526941730266
 30
0.0
 11
318.8117849171858
 21
318.2526941730266
 31
0.0
  0
LINE
  5
1A255
102
{ACAD_REACTORS
330
1A295
102
}
330
18
100
AcDbEntity
  8
仮想線
 48
0.5
100
AcDbLine
 10
316.5117849171855
 20
317.8526941730265
 30
0.0
 11
317.5117849171857
 21
317.8526941730265
 31
0.0
  0
LINE
  5
1A256
102
{ACAD_REACTORS
330
1A295
102
}
330
18
100
AcDbEntity
  8
仮想線
 48
0.5
100
AcDbLine
 10
323.5117849171862
 20
318.6820837883069
 30
0.0
 11
323.8117849171858
 21
318.9820837883071
 31
0.0
  0
LINE
  5
1A257
102
{ACAD_REACTORS
330
1A295
102
}
330
18
100
AcDbEntity
  8
仮想線
 48
0.5
100
AcDbLine
 10
317.5117849171857
 20
327.8526941730265
 30
0.0
 11
317.5117849171868
 21
322.8526941730265
 31
0.0
  0
LINE
  5
1A258
102
{ACAD_REACTORS
330
1A295
102
}
330
18
100
AcDbEntity
  8
仮想線
 48
0.5
100
AcDbLine
 10
318.8117849171858
 20
327.1820837883069
 30
0.0
 11
323.5117849171857
 21
327.1820837883069
 31
0.0
  0
LINE
  5
1A259
102
{ACAD_REACTORS
330
1A295
102
}
330
18
100
AcDbEntity
  8
仮想線
 48
0.5
100
AcDbLine
 10
323.8117849171858
 20
326.8820837883067
 30
0.0
 11
323.5117849171857
 21
327.1820837883069
 31
0.0
  0
LINE
  5
1A25A
102
{ACAD_REACTORS
330
1A295
102
}
330
18
100
AcDbEntity
  8
仮想線
 48
0.5
100
AcDbLine
 10
317.5117849171862
 20
327.4526941730263
 30
0.0
 11
318.8117849171858
 21
327.4526941730263
 31
0.0
  0
LINE
  5
1A25B
102
{ACAD_REACTORS
330
1A295
102
}
330
18
100
AcDbEntity
  8
仮想線
 48
0.5
100
AcDbLine
 10
316.5117849171855
 20
327.8526941730262
 30
0.0
 11
317.5117849171857
 21
327.8526941730265
 31
0.0
  0
LINE
  5
1A25C
102
{ACAD_REACTORS
330
1A295
102
}
330
18
100
AcDbEntity
  8
仮想線
 48
0.5
100
AcDbLine
 10
312.011779651437
 20
332.9320837883073
 30
0.0
 11
316.5117796514375
 21
332.9320837883076
 31
0.0
  0
CIRCLE
  5
1A26F
330
18
100
AcDbEntity
  8
細線
100
AcDbCircle
 10
162.9875130688787
 20
395.9171305136789
 30
0.0
 40
4.25
  0
CIRCLE
  5
1A270
330
18
100
AcDbEntity
  8
0
100
AcDbCircle
 10
162.9875130688787
 20
395.9171305136789
 30
0.0
 40
4.75
  0
CIRCLE
  5
1A271
330
18
100
AcDbEntity
  8
細線
100
AcDbCircle
 10
204.6732186073722
 20
385.2972364596785
 30
0.0
 40
2.5
  0
CIRCLE
  5
1A272
330
18
100
AcDbEntity
  8
細線
100
AcDbCircle
 10
204.6732186073722
 20
385.2972364596785
 30
0.0
 40
2.0
  0
LWPOLYLINE
  5
1A273
330
18
100
AcDbEntity
  8
細線
100
AcDbPolyline
 90
        6
 70
     1
 43
0.0
 10
164.6214561405687
 20
397.5491761926237
 10
162.3910948727731
 20
398.148192455639
 10
160.7571509378241
 20
396.5161510696186
 10
161.3535682706706
 20
394.2850934205837
 10
163.5839295384658
 20
393.6860771575684
 10
165.2178734734148
 20
395.3181185435886
  0
CIRCLE
  5
1A2E9
330
18
100
AcDbEntity
  8
２点鎖線
 48
0.5
100
AcDbCircle
 10
354.2862200032315
 20
312.8288768239928
 30
0.0
 40
10.0
  0
LINE
  5
1A2EA
330
18
100
AcDbEntity
  8
２点鎖線
 48
0.5
100
AcDbLine
 10
384.4562163617581
 20
329.8288768239133
 30
0.0
 11
384.4562163617581
 21
295.828876823913
 31
0.0
  0
LINE
  5
1A2EB
330
18
100
AcDbEntity
  8
CENTER
 48
0.5
100
AcDbLine
 10
377.4562163617576
 20
328.8085861906342
 30
0.0
 11
377.4562163617576
 21
296.0148145173929
 31
0.0
  0
LINE
  5
1A2EC
330
18
100
AcDbEntity
  8
CENTER
100
AcDbLine
 10
354.2862200032312
 20
336.9473301602678
 30
0.0
 11
354.2862200032312
 21
288.8649137367733
 31
0.0
  0
LINE
  5
1A2ED
330
18
100
AcDbEntity
  8
２点鎖線
 48
0.5
100
AcDbLine
 10
334.286220003231
 20
302.8288768239132
 30
0.0
 11
334.286220003231
 21
322.8288768239132
 31
0.0
  0
LINE
  5
1A2EE
330
18
100
AcDbEntity
  8
２点鎖線
 48
0.5
100
AcDbLine
 10
381.456216361758
 20
292.8288768239131
 30
0.0
 11
344.286220003231
 21
292.8288768239132
 31
0.0
  0
LINE
  5
1A2EF
330
18
100
AcDbEntity
  8
中心線
 48
0.5
100
AcDbLine
 10
371.3757311606578
 20
302.8527994879963
 30
0.0
 11
383.4038443597183
 21
302.8527994879963
 31
0.0
  0
CIRCLE
  5
1A2F0
330
18
100
AcDbEntity
  8
２点鎖線
 48
0.5
100
AcDbCircle
 10
377.4562163617576
 20
302.8527994879963
 30
0.0
 40
4.25
  0
LINE
  5
1A2F1
330
18
100
AcDbEntity
  8
２点鎖線
 48
0.5
100
AcDbLine
 10
384.4562163617581
 20
295.828876823913
 30
0.0
 11
381.456216361758
 21
292.8288768239131
 31
0.0
  0
LINE
  5
1A2F2
330
18
100
AcDbEntity
  8
２点鎖線
 48
0.5
100
AcDbLine
 10
334.286220003231
 20
302.8288768239132
 30
0.0
 11
344.286220003231
 21
292.8288768239132
 31
0.0
  0
LINE
  5
1A2F3
330
18
100
AcDbEntity
  8
２点鎖線
 48
0.5
100
AcDbLine
 10
344.286220003231
 20
332.8288768239132
 30
0.0
 11
381.456216361758
 21
332.8288768239133
 31
0.0
  0
CIRCLE
  5
1A2F4
330
18
100
AcDbEntity
  8
２点鎖線
 48
0.5
100
AcDbCircle
 10
377.4562163617576
 20
322.8527994879963
 30
0.0
 40
4.25
  0
LINE
  5
1A2F5
330
18
100
AcDbEntity
  8
中心線
 48
0.5
100
AcDbLine
 10
371.3757311606578
 20
322.8527994879963
 30
0.0
 11
383.4038443597183
 21
322.8527994879963
 31
0.0
  0
LINE
  5
1A2F6
330
18
100
AcDbEntity
  8
２点鎖線
 48
0.5
100
AcDbLine
 10
384.4562163617581
 20
329.8288768239133
 30
0.0
 11
381.456216361758
 21
332.8288768239133
 31
0.0
  0
LINE
  5
1A2F7
330
18
100
AcDbEntity
  8
２点鎖線
 48
0.5
100
AcDbLine
 10
344.286220003231
 20
332.8288768239132
 30
0.0
 11
334.286220003231
 21
322.8288768239132
 31
0.0
  0
LINE
  5
1A346
330
18
100
AcDbEntity
  8
細線
100
AcDbLine
 10
206.1400830509895
 20
344.6702874656763
 30
0.0
 11
203.3516953131048
 21
345.4174339117733
 31
0.0
  0
CIRCLE
  5
1A347
330
18
100
AcDbEntity
  8
細線
100
AcDbCircle
 10
205.3929368619569
 20
347.4586750038273
 30
0.0
 40
5.0
  0
CIRCLE
  5
1A348
330
18
100
AcDbEntity
  8
0
100
AcDbCircle
 10
205.3929368619569
 20
347.4586750038273
 30
0.0
 40
5.5
  0
LINE
  5
1A349
330
18
100
AcDbEntity
  8
細線
100
AcDbLine
 10
202.6045491758361
 20
348.2058212567391
 30
0.0
 11
203.3516954166324
 21
345.4174335254029
 31
0.0
  0
LINE
  5
1A34A
330
18
100
AcDbEntity
  8
細線
100
AcDbLine
 10
207.4341783072815
 20
349.4999164822516
 30
0.0
 11
208.1813245480776
 21
346.7115287509155
 31
0.0
  0
LINE
  5
1A34B
330
18
100
AcDbEntity
  8
細線
100
AcDbLine
 10
204.6457905435147
 20
350.2470630249411
 30
0.0
 11
207.4341782813994
 21
349.4999165788442
 31
0.0
  0
LINE
  5
1A34C
330
18
100
AcDbEntity
  8
細線
100
AcDbLine
 10
204.6457906729244
 20
350.2470625419783
 30
0.0
 11
202.6045492793636
 21
348.2058208703686
 31
0.0
  0
LINE
  5
1A34D
330
18
100
AcDbEntity
  8
細線
100
AcDbLine
 10
208.1813245739597
 20
346.7115286543228
 30
0.0
 11
206.140083180399
 21
344.6702869827134
 31
0.0
  0
LINE
  5
1A38A
330
18
100
AcDbEntity
  8
0
100
AcDbLine
 10
454.9562162443371
 20
185.8527994879968
 30
0.0
 11
454.9562162443374
 21
439.8527994879962
 31
0.0
  0
LINE
  5
1A38B
330
18
100
AcDbEntity
  8
0
100
AcDbLine
 10
448.6562162443371
 20
185.8527994879968
 30
0.0
 11
448.6562162443373
 21
439.8527994879962
 31
0.0
  0
LINE
  5
1A38E
330
18
100
AcDbEntity
  8
0
100
AcDbLine
 10
448.6562162443371
 20
439.1027994879961
 30
0.0
 11
454.9562162443371
 21
439.1027994879961
 31
0.0
  0
LINE
  5
1A38F
330
18
100
AcDbEntity
  8
0
100
AcDbLine
 10
454.9562162443374
 20
439.8527994879962
 30
0.0
 11
480.4562162443374
 21
439.8527994879962
 31
0.0
  0
LINE
  5
1A390
330
18
100
AcDbEntity
  8
0
100
AcDbLine
 10
448.6562162443371
 20
186.6027994879964
 30
0.0
 11
454.9562162443371
 21
186.6027994879966
 31
0.0
  0
LINE
  5
1A391
330
18
100
AcDbEntity
  8
0
100
AcDbLine
 10
454.9562162443371
 20
185.8527994879968
 30
0.0
 11
480.4562162443371
 21
185.8527994879968
 31
0.0
  0
CIRCLE
  5
1A570
330
18
100
AcDbEntity
  8
0
100
AcDbCircle
 10
701.8240582019658
 20
312.8527994879966
 30
0.0
 40
127.0
  0
CIRCLE
  5
1A599
330
18
100
AcDbEntity
  8
0
100
AcDbCircle
 10
750.3239171553671
 20
284.8570197792601
 30
0.0
 40
2.5
  0
HATCH
  5
1A59A
330
18
100
AcDbEntity
  8
0
100
AcDbHatch
 10
0.0
 20
0.0
 30
0.0
210
0.0
220
0.0
230
1.0
  2
SOLID
 70
     1
 71
     0
 91
        2
 92
        7
 72
     1
 73
     1
 93
        3
 10
749.073916969252
 20
282.6919563772526
 42
0.0
 10
750.3239171553667
 20
284.8570197792601
 42
0.0
 10
752.4889805573747
 20
283.6070195931446
 42
-0.4142135623730919
 97
        0
 92
        7
 72
     1
 73
     1
 93
        3
 10
750.3239171553673
 20
284.85701977926
 42
0.0
 10
748.1588537533601
 20
286.1070199653756
 42
-0.4142135623730951
 10
751.5739173414828
 20
287.0220831812678
 42
0.0
 97
        0
 75
     0
 76
     1
 47
0.0576142688807724
 98
        2
 10
751.1060004898167
 20
283.4476958710638
 10
750.4439122887466
 20
285.7592425995671
  0
CIRCLE
  5
1A59B
330
18
100
AcDbEntity
  8
0
100
AcDbCircle
 10
750.3239171553671
 20
284.8570197792601
 30
0.0
 40
9.5
  0
LWPOLYLINE
  5
1A59C
330
18
100
AcDbEntity
  8
0
100
AcDbPolyline
 90
       12
 70
   129
 43
0.0
 10
758.9469010165948
 20
290.8481923964541
 42
-0.0418357922730061
 10
759.8239175398057
 20
289.3291549176112
 10
759.8239167709286
 20
280.3848830076115
 42
-0.041835792273005
 10
758.9468999865554
 20
278.86584567955
 10
751.200932909702
 20
274.3937103904169
 42
-0.0418357922730106
 10
749.4468996021169
 20
274.3937105411989
 10
741.7009332941408
 20
278.8658471620655
 42
-0.0418357922730243
 10
740.8239167709291
 20
280.3848846409095
 10
740.8239175398058
 20
289.3291565509087
 42
-0.041835792273011
 10
741.7009343241793
 20
290.8481938789701
 10
749.4469014010328
 20
295.3203291681031
 42
-0.0418357922730047
 10
751.2009347086175
 20
295.320329017321
  0
CIRCLE
  5
1A59D
330
18
100
AcDbEntity
  8
0
100
AcDbCircle
 10
750.3239171553671
 20
284.8570197792601
 30
0.0
 40
4.5
  0
CIRCLE
  5
1A59E
330
18
100
AcDbEntity
  8
0
100
AcDbCircle
 10
750.3239171553671
 20
284.8570197792601
 30
0.0
 40
5.2
  0
ARC
  5
1A59F
330
18
100
AcDbEntity
  8
中心線
100
AcDbCircle
 10
701.8240582019658
 20
312.8527994879982
 30
0.0
 40
56.0
100
AcDbArc
 50
298.4046152107024
 51
344.3961616623663
  0
LINE
  5
1A5A0
330
18
100
AcDbEntity
  8
中心線
100
AcDbLine
 10
701.8240582019658
 20
312.8527994879966
 30
0.0
 11
759.4176407091302
 21
279.607811083872
 31
0.0
  0
ARC
  5
1A641
330
18
100
AcDbEntity
  8
0
100
AcDbCircle
 10
546.0611107808245
 20
264.8570197792603
 30
0.0
 40
17.9
100
AcDbArc
 50
0.0
 51
90.0
  0
ARC
  5
1A642
330
18
100
AcDbEntity
  8
0
100
AcDbCircle
 10
546.0611107808245
 20
264.8570197792603
 30
0.0
 40
22.1
100
AcDbArc
 50
0.0
 51
90.0
  0
LINE
  5
1A643
330
18
100
AcDbEntity
  8
0
100
AcDbLine
 10
501.9562162443362
 20
286.9570197792593
 30
0.0
 11
546.0611107808232
 21
286.9570197792603
 31
0.0
  0
LINE
  5
1A644
330
18
100
AcDbEntity
  8
0
100
AcDbLine
 10
501.9562162443366
 20
282.7570197792595
 30
0.0
 11
546.0611107808237
 21
282.7570197792602
 31
0.0
  0
ARC
  5
1A645
330
18
100
AcDbEntity
  8
0
100
AcDbCircle
 10
487.956216244336
 20
284.8570197792601
 30
0.0
 40
10.50000000000042
100
AcDbArc
 50
334.7912347032373
 51
25.20876529676261
  0
LINE
  5
1A646
330
18
100
AcDbEntity
  8
0
100
AcDbLine
 10
498.4562162443357
 20
294.1855912078314
 30
0.0
 11
498.4562162443362
 21
275.528448350689
 31
0.0
  0
LINE
  5
1A647
330
18
100
AcDbEntity
  8
0
100
AcDbLine
 10
488.4562162443359
 20
294.3570197792601
 30
0.0
 11
488.4562162443359
 21
275.3570197792601
 31
0.0
  0
LINE
  5
1A648
330
18
100
AcDbEntity
  8
0
100
AcDbLine
 10
491.4562162443361
 20
295.3570197792601
 30
0.0
 11
491.4562162443361
 21
274.3570197792601
 31
0.0
  0
LINE
  5
1A649
330
18
100
AcDbEntity
  8
0
100
AcDbLine
 10
486.4562162443362
 20
295.3570197792601
 30
0.0
 11
486.4562162443362
 21
274.3570197792601
 31
0.0
  0
LINE
  5
1A64A
330
18
100
AcDbEntity
  8
0
100
AcDbLine
 10
501.9562162443362
 20
290.0855912078323
 30
0.0
 11
501.9562162443362
 21
279.628448350688
 31
0.0
  0
LINE
  5
1A64B
330
18
100
AcDbEntity
  8
0
100
AcDbLine
 10
483.9562162443358
 20
295.3570197792601
 30
0.0
 11
483.9562162443358
 21
274.3570197792601
 31
0.0
  0
LINE
  5
1A64D
330
18
100
AcDbEntity
  8
0
100
AcDbLine
 10
491.4562162443361
 20
274.3570197792601
 30
0.0
 11
497.4562162443358
 21
274.3570197792601
 31
0.0
  0
LINE
  5
1A64E
330
18
100
AcDbEntity
  8
0
100
AcDbLine
 10
497.456216244336
 20
278.8658464208081
 30
0.0
 11
491.4562162443361
 21
278.8658464208081
 31
0.0
  0
LINE
  5
1A64F
330
18
100
AcDbEntity
  8
0
100
AcDbLine
 10
497.456216244336
 20
280.3848838242606
 30
0.0
 11
491.4562162443361
 21
280.3848838242606
 31
0.0
  0
LINE
  5
1A650
330
18
100
AcDbEntity
  8
0
100
AcDbLine
 10
488.4562162443359
 20
275.3570197792601
 30
0.0
 11
491.4562162443361
 21
275.3570197792601
 31
0.0
  0
LINE
  5
1A651
330
18
100
AcDbEntity
  8
0
100
AcDbLine
 10
486.4562162443362
 20
277.4570197792596
 30
0.0
 11
488.4562162443359
 21
277.4570197792596
 31
0.0
  0
LINE
  5
1A652
330
18
100
AcDbEntity
  8
0
100
AcDbLine
 10
483.9562162443358
 20
274.3570197792601
 30
0.0
 11
486.4562162443362
 21
274.3570197792601
 31
0.0
  0
LINE
  5
1A653
330
18
100
AcDbEntity
  8
0
100
AcDbLine
 10
486.4562162443362
 20
278.8658464208081
 30
0.0
 11
483.9562162443358
 21
278.8658464208081
 31
0.0
  0
LINE
  5
1A654
330
18
100
AcDbEntity
  8
0
100
AcDbLine
 10
486.4562162443362
 20
280.3848838242606
 30
0.0
 11
483.9562162443358
 21
280.3848838242606
 31
0.0
  0
ARC
  5
1A655
330
18
100
AcDbEntity
  8
0
100
AcDbCircle
 10
489.4824197267666
 20
274.6581045926701
 30
0.0
 40
9.015903847971632
100
AcDbArc
 50
5.539633318506221
 51
27.82043885583854
  0
LINE
  5
1A656
330
18
100
AcDbEntity
  8
0
100
AcDbLine
 10
497.4562162443358
 20
274.3570197792601
 30
0.0
 11
501.9562162443362
 21
279.628448350688
 31
0.0
  0
LINE
  5
1A657
330
18
100
AcDbEntity
  8
0
100
AcDbLine
 10
497.456216244336
 20
280.3848838242606
 30
0.0
 11
497.456216244336
 21
278.8658464208081
 31
0.0
  0
LINE
  5
1A658
330
18
100
AcDbEntity
  8
0
100
AcDbLine
 10
491.4562162443361
 20
290.8481931377123
 30
0.0
 11
497.456216244336
 21
290.8481931377123
 31
0.0
  0
LINE
  5
1A659
330
18
100
AcDbEntity
  8
0
100
AcDbLine
 10
491.4562162443361
 20
295.3570197792601
 30
0.0
 11
497.456216244336
 21
295.3570197792601
 31
0.0
  0
LINE
  5
1A65A
330
18
100
AcDbEntity
  8
0
100
AcDbLine
 10
491.4562162443361
 20
289.3291557342601
 30
0.0
 11
497.456216244336
 21
289.3291557342601
 31
0.0
  0
LINE
  5
1A65B
330
18
100
AcDbEntity
  8
0
100
AcDbLine
 10
488.4562162443359
 20
294.3570197792601
 30
0.0
 11
491.4562162443361
 21
294.3570197792601
 31
0.0
  0
LINE
  5
1A65C
330
18
100
AcDbEntity
  8
0
100
AcDbLine
 10
486.4562162443362
 20
292.2570197792598
 30
0.0
 11
488.4562162443359
 21
292.2570197792598
 31
0.0
  0
LINE
  5
1A65D
330
18
100
AcDbEntity
  8
0
100
AcDbLine
 10
483.9562162443358
 20
290.8481931377123
 30
0.0
 11
486.4562162443362
 21
290.8481931377123
 31
0.0
  0
LINE
  5
1A65E
330
18
100
AcDbEntity
  8
0
100
AcDbLine
 10
483.9562162443358
 20
295.3570197792601
 30
0.0
 11
486.4562162443362
 21
295.3570197792601
 31
0.0
  0
LINE
  5
1A65F
330
18
100
AcDbEntity
  8
0
100
AcDbLine
 10
483.9562162443358
 20
289.3291557342601
 30
0.0
 11
486.4562162443362
 21
289.3291557342601
 31
0.0
  0
ARC
  5
1A660
330
18
100
AcDbEntity
  8
0
100
AcDbCircle
 10
489.4824197267666
 20
295.0559349658501
 30
0.0
 40
9.015903847971632
100
AcDbArc
 50
332.1795611441613
 51
354.4603666814936
  0
LINE
  5
1A661
330
18
100
AcDbEntity
  8
0
100
AcDbLine
 10
497.4562162443358
 20
295.3570197792601
 30
0.0
 11
501.9562162443362
 21
290.0855912078323
 31
0.0
  0
LINE
  5
1A662
330
18
100
AcDbEntity
  8
0
100
AcDbLine
 10
497.456216244336
 20
290.8481931377123
 30
0.0
 11
497.456216244336
 21
289.3291557342601
 31
0.0
  0
LINE
  5
1A6C0
330
18
100
AcDbEntity
  8
CENTER
100
AcDbLine
 10
472.7729348820226
 20
284.8570197792601
 30
0.0
 11
508.7367657764011
 21
284.8570197792603
 31
0.0
  0
CIRCLE
  5
1A731
330
18
100
AcDbEntity
  8
0
100
AcDbCircle
 10
185.2617902246828
 20
312.8527994879973
 30
0.0
 40
127.0
  0
CIRCLE
  5
1A76A
330
18
100
AcDbEntity
  8
細線
100
AcDbCircle
 10
185.2617902246828
 20
189.8527994879975
 30
0.0
 40
3.5
  0
ARC
  5
1A76B
330
18
100
AcDbEntity
  8
細線
100
AcDbCircle
 10
185.2617902246828
 20
190.9327994879975
 30
0.0
 40
0.5
100
AcDbArc
 50
222.3463876628239
 51
317.6536123371758
  0
ARC
  5
1A76C
330
18
100
AcDbEntity
  8
細線
100
AcDbCircle
 10
185.2617902246828
 20
188.7727994879974
 30
0.0
 40
0.5
100
AcDbArc
 50
42.3463876628241
 51
137.6536123371759
  0
ARC
  5
1A76D
330
18
100
AcDbEntity
  8
細線
100
AcDbCircle
 10
186.1970976607698
 20
189.3127994879975
 30
0.0
 40
0.5
100
AcDbArc
 50
102.3463876628252
 51
197.653612337176
  0
ARC
  5
1A76E
330
18
100
AcDbEntity
  8
細線
100
AcDbCircle
 10
186.1970976607698
 20
190.3927994879975
 30
0.0
 40
0.5
100
AcDbArc
 50
162.3463876628238
 51
257.6536123371762
  0
CIRCLE
  5
1A76F
330
18
100
AcDbEntity
  8
細線
100
AcDbCircle
 10
185.2617902246828
 20
189.8527994879975
 30
0.0
 40
0.8299999999999998
  0
ARC
  5
1A770
330
18
100
AcDbEntity
  8
細線
100
AcDbCircle
 10
184.3264827885956
 20
190.3927994879975
 30
0.0
 40
0.5
100
AcDbArc
 50
282.3463876628252
 51
17.65361233717626
  0
ARC
  5
1A771
330
18
100
AcDbEntity
  8
細線
100
AcDbCircle
 10
184.3264827885956
 20
189.3127994879975
 30
0.0
 40
0.5
100
AcDbArc
 50
342.3463876628237
 51
77.65361233717634
  0
LINE
  5
1A789
330
18
100
AcDbEntity
  8
中心線
100
AcDbLine
 10
365.6930890608901
 20
189.8438627962945
 30
0.0
 11
377.5219559981883
 21
189.8438627962945
 31
0.0
  0
LINE
  5
1A78A
330
18
100
AcDbEntity
  8
ｷｬｯﾌ_ﾎ_ﾙﾄ
100
AcDbLine
 10
369.2560831073642
 20
193.3438627962945
 30
0.0
 11
369.7560831073638
 21
193.3438627962945
 31
0.0
  0
LINE
  5
1A78B
330
18
100
AcDbEntity
  8
ｷｬｯﾌ_ﾎ_ﾙﾄ
100
AcDbLine
 10
368.9560831073638
 20
192.2938627962944
 30
0.0
 11
368.9560831073638
 21
187.3938627962948
 31
0.0
  0
LINE
  5
1A78C
330
18
100
AcDbEntity
  8
ｷｬｯﾌ_ﾎ_ﾙﾄ
100
AcDbLine
 10
369.2560831073642
 20
186.3438627962946
 30
0.0
 11
369.7560831073638
 21
186.3438627962946
 31
0.0
  0
LINE
  5
1A78D
330
18
100
AcDbEntity
  8
ｷｬｯﾌ_ﾎ_ﾙﾄ
100
AcDbLine
 10
369.2560831073642
 20
186.3438627962946
 30
0.0
 11
368.9560831073638
 21
187.3938627962948
 31
0.0
  0
LINE
  5
1A78E
330
18
100
AcDbEntity
  8
ｷｬｯﾌ_ﾎ_ﾙﾄ
100
AcDbLine
 10
369.2560831073642
 20
193.3438627962945
 30
0.0
 11
369.2560831073642
 21
186.3438627962946
 31
0.0
  0
LINE
  5
1A78F
330
18
100
AcDbEntity
  8
ｷｬｯﾌ_ﾎ_ﾙﾄ
100
AcDbLine
 10
369.7560831073638
 20
193.3438627962945
 30
0.0
 11
369.7560831073638
 21
186.3438627962946
 31
0.0
  0
LINE
  5
1A790
330
18
100
AcDbEntity
  8
ｷｬｯﾌ_ﾎ_ﾙﾄ
100
AcDbLine
 10
369.2560831073642
 20
193.3438627962945
 30
0.0
 11
368.9560831073638
 21
192.2938627962944
 31
0.0
  0
LINE
  5
1A791
330
18
100
AcDbEntity
  8
中心線
100
AcDbLine
 10
365.6930890608902
 20
435.8438627962946
 30
0.0
 11
377.5219559981883
 21
435.8438627962946
 31
0.0
  0
LINE
  5
1A792
330
18
100
AcDbEntity
  8
ｷｬｯﾌ_ﾎ_ﾙﾄ
100
AcDbLine
 10
369.2560831073643
 20
439.3438627962946
 30
0.0
 11
369.7560831073638
 21
439.3438627962946
 31
0.0
  0
LINE
  5
1A793
330
18
100
AcDbEntity
  8
ｷｬｯﾌ_ﾎ_ﾙﾄ
100
AcDbLine
 10
368.9560831073641
 20
438.2938627962944
 30
0.0
 11
368.9560831073641
 21
433.3938627962948
 31
0.0
  0
LINE
  5
1A794
330
18
100
AcDbEntity
  8
ｷｬｯﾌ_ﾎ_ﾙﾄ
100
AcDbLine
 10
369.2560831073643
 20
432.3438627962945
 30
0.0
 11
369.7560831073638
 21
432.3438627962945
 31
0.0
  0
LINE
  5
1A795
330
18
100
AcDbEntity
  8
ｷｬｯﾌ_ﾎ_ﾙﾄ
100
AcDbLine
 10
369.2560831073643
 20
432.3438627962945
 30
0.0
 11
368.9560831073641
 21
433.3938627962948
 31
0.0
  0
LINE
  5
1A796
330
18
100
AcDbEntity
  8
ｷｬｯﾌ_ﾎ_ﾙﾄ
100
AcDbLine
 10
369.2560831073643
 20
439.3438627962946
 30
0.0
 11
369.2560831073643
 21
432.3438627962945
 31
0.0
  0
LINE
  5
1A797
330
18
100
AcDbEntity
  8
ｷｬｯﾌ_ﾎ_ﾙﾄ
100
AcDbLine
 10
369.7560831073638
 20
439.3438627962946
 30
0.0
 11
369.7560831073638
 21
432.3438627962945
 31
0.0
  0
LINE
  5
1A798
330
18
100
AcDbEntity
  8
ｷｬｯﾌ_ﾎ_ﾙﾄ
100
AcDbLine
 10
369.2560831073643
 20
439.3438627962946
 30
0.0
 11
368.9560831073641
 21
438.2938627962944
 31
0.0
  0
CIRCLE
  5
1A7C4
330
18
100
AcDbEntity
  8
細線
100
AcDbCircle
 10
272.2359243106279
 20
225.878665402052
 30
0.0
 40
3.5
  0
ARC
  5
1A7C5
330
18
100
AcDbEntity
  8
細線
100
AcDbCircle
 10
271.4722489869464
 20
226.6423407257336
 30
0.0
 40
0.5
100
AcDbArc
 50
267.3463876628241
 51
2.653612337175879
  0
ARC
  5
1A7C6
330
18
100
AcDbEntity
  8
細線
100
AcDbCircle
 10
272.5154488793385
 20
226.9218652944442
 30
0.0
 40
0.5
100
AcDbArc
 50
207.346387662824
 51
302.6536123371763
  0
ARC
  5
1A7C7
330
18
100
AcDbEntity
  8
細線
100
AcDbCircle
 10
271.1927244182358
 20
225.5991408333414
 30
0.0
 40
0.5
100
AcDbArc
 50
327.3463876628251
 51
62.65361233717627
  0
ARC
  5
1A7C8
330
18
100
AcDbEntity
  8
細線
100
AcDbCircle
 10
272.9995996343094
 20
225.1149900783707
 30
0.0
 40
0.5
100
AcDbArc
 50
87.3463876628241
 51
182.6536123371757
  0
ARC
  5
1A7C9
330
18
100
AcDbEntity
  8
細線
100
AcDbCircle
 10
273.27912420302
 20
226.1581899707628
 30
0.0
 40
0.5
100
AcDbArc
 50
147.3463876628251
 51
242.6536123371759
  0
CIRCLE
  5
1A7CA
330
18
100
AcDbEntity
  8
細線
100
AcDbCircle
 10
272.2359243106279
 20
225.878665402052
 30
0.0
 40
0.8299999999999998
  0
ARC
  5
1A7CB
330
18
100
AcDbEntity
  8
細線
100
AcDbCircle
 10
271.9563997419173
 20
224.83546550966
 30
0.0
 40
0.5
100
AcDbArc
 50
27.34638766282377
 51
122.6536123371763
  0
CIRCLE
  5
1A7CC
330
18
100
AcDbEntity
  8
細線
100
AcDbCircle
 10
308.2617902246826
 20
312.8527994879973
 30
0.0
 40
3.5
  0
ARC
  5
1A7CD
330
18
100
AcDbEntity
  8
細線
100
AcDbCircle
 10
307.1817902246825
 20
312.8527994879973
 30
0.0
 40
0.5
100
AcDbArc
 50
312.3463876628242
 51
47.65361233717587
  0
ARC
  5
1A7CE
330
18
100
AcDbEntity
  8
細線
100
AcDbCircle
 10
307.7217902246827
 20
313.7881069240846
 30
0.0
 40
0.5
100
AcDbArc
 50
252.3463876628238
 51
347.6536123371761
  0
ARC
  5
1A7CF
330
18
100
AcDbEntity
  8
細線
100
AcDbCircle
 10
307.7217902246827
 20
311.9174920519101
 30
0.0
 40
0.5
100
AcDbArc
 50
12.34638766282526
 51
107.6536123371762
  0
ARC
  5
1A7D0
330
18
100
AcDbEntity
  8
細線
100
AcDbCircle
 10
309.3417902246827
 20
312.8527994879973
 30
0.0
 40
0.5
100
AcDbArc
 50
132.346387662824
 51
227.6536123371759
  0
ARC
  5
1A7D1
330
18
100
AcDbEntity
  8
細線
100
AcDbCircle
 10
308.8017902246825
 20
313.7881069240845
 30
0.0
 40
0.5
100
AcDbArc
 50
192.3463876628252
 51
287.653612337176
  0
CIRCLE
  5
1A7D2
330
18
100
AcDbEntity
  8
細線
100
AcDbCircle
 10
308.2617902246826
 20
312.8527994879973
 30
0.0
 40
0.8299999999999998
  0
ARC
  5
1A7D3
330
18
100
AcDbEntity
  8
細線
100
AcDbCircle
 10
308.8017902246825
 20
311.9174920519101
 30
0.0
 40
0.5
100
AcDbArc
 50
72.34638766282376
 51
167.6536123371763
  0
CIRCLE
  5
1A7D4
330
18
100
AcDbEntity
  8
細線
100
AcDbCircle
 10
272.2359243106283
 20
399.8269335739426
 30
0.0
 40
3.5
  0
ARC
  5
1A7D5
330
18
100
AcDbEntity
  8
細線
100
AcDbCircle
 10
271.4722489869468
 20
399.0632582502611
 30
0.0
 40
0.5
100
AcDbArc
 50
357.346387662824
 51
92.65361233717589
  0
ARC
  5
1A7D6
330
18
100
AcDbEntity
  8
細線
100
AcDbCircle
 10
271.1927244182359
 20
400.1064581426532
 30
0.0
 40
0.5
100
AcDbArc
 50
297.3463876628238
 51
32.65361233717632
  0
ARC
  5
1A7D7
330
18
100
AcDbEntity
  8
細線
100
AcDbCircle
 10
272.5154488793389
 20
398.7837336815502
 30
0.0
 40
0.5
100
AcDbArc
 50
57.34638766282518
 51
152.6536123371759
  0
ARC
  5
1A7D8
330
18
100
AcDbEntity
  8
細線
100
AcDbCircle
 10
272.9995996343097
 20
400.5906088976241
 30
0.0
 40
0.5
100
AcDbArc
 50
177.3463876628239
 51
272.6536123371758
  0
ARC
  5
1A7D9
330
18
100
AcDbEntity
  8
細線
100
AcDbCircle
 10
271.9563997419173
 20
400.8701334663347
 30
0.0
 40
0.5
100
AcDbArc
 50
237.3463876628252
 51
332.653612337176
  0
CIRCLE
  5
1A7DA
330
18
100
AcDbEntity
  8
細線
100
AcDbCircle
 10
272.2359243106283
 20
399.8269335739426
 30
0.0
 40
0.8299999999999998
  0
ARC
  5
1A7DB
330
18
100
AcDbEntity
  8
細線
100
AcDbCircle
 10
273.2791242030204
 20
399.5474090052319
 30
0.0
 40
0.5
100
AcDbArc
 50
117.3463876628235
 51
212.6536123371763
  0
CIRCLE
  5
1A7DC
102
{ACAD_REACTORS
330
1AE47
102
}
330
18
100
AcDbEntity
  8
細線
100
AcDbCircle
 10
185.2617902246829
 20
435.8527994879972
 30
0.0
 40
3.5
  0
ARC
  5
1A7DD
102
{ACAD_REACTORS
330
1AE47
102
}
330
18
100
AcDbEntity
  8
細線
100
AcDbCircle
 10
185.2617902246829
 20
434.7727994879972
 30
0.0
 40
0.5
100
AcDbArc
 50
42.34638766282411
 51
137.6536123371759
  0
ARC
  5
1A7DE
102
{ACAD_REACTORS
330
1AE47
102
}
330
18
100
AcDbEntity
  8
細線
100
AcDbCircle
 10
184.3264827885956
 20
435.3127994879971
 30
0.0
 40
0.5
100
AcDbArc
 50
342.3463876628238
 51
77.65361233717626
  0
ARC
  5
1A7DF
102
{ACAD_REACTORS
330
1AE47
102
}
330
18
100
AcDbEntity
  8
細線
100
AcDbCircle
 10
186.1970976607702
 20
435.3127994879971
 30
0.0
 40
0.5
100
AcDbArc
 50
102.3463876628252
 51
197.6536123371761
  0
ARC
  5
1A7E0
102
{ACAD_REACTORS
330
1AE47
102
}
330
18
100
AcDbEntity
  8
細線
100
AcDbCircle
 10
185.2617902246829
 20
436.9327994879973
 30
0.0
 40
0.5
100
AcDbArc
 50
222.3463876628239
 51
317.6536123371758
  0
ARC
  5
1A7E1
102
{ACAD_REACTORS
330
1AE47
102
}
330
18
100
AcDbEntity
  8
細線
100
AcDbCircle
 10
184.3264827885958
 20
436.3927994879973
 30
0.0
 40
0.5
100
AcDbArc
 50
282.3463876628252
 51
17.65361233717596
  0
CIRCLE
  5
1A7E2
102
{ACAD_REACTORS
330
1AE47
102
}
330
18
100
AcDbEntity
  8
細線
100
AcDbCircle
 10
185.2617902246829
 20
435.8527994879972
 30
0.0
 40
0.8299999999999998
  0
ARC
  5
1A7E3
102
{ACAD_REACTORS
330
1AE47
102
}
330
18
100
AcDbEntity
  8
細線
100
AcDbCircle
 10
186.1970976607702
 20
436.3927994879973
 30
0.0
 40
0.5
100
AcDbArc
 50
162.3463876628234
 51
257.6536123371762
  0
CIRCLE
  5
1A7E4
330
18
100
AcDbEntity
  8
細線
100
AcDbCircle
 10
98.28765613873782
 20
399.8269335739426
 30
0.0
 40
3.5
  0
ARC
  5
1A7E5
330
18
100
AcDbEntity
  8
細線
100
AcDbCircle
 10
99.05133146241929
 20
399.0632582502611
 30
0.0
 40
0.5
100
AcDbArc
 50
87.34638766282406
 51
182.6536123371757
  0
ARC
  5
1A7E6
330
18
100
AcDbEntity
  8
細線
100
AcDbCircle
 10
98.00813157002711
 20
398.7837336815502
 30
0.0
 40
0.5
100
AcDbArc
 50
27.34638766282395
 51
122.6536123371763
  0
ARC
  5
1A7E7
330
18
100
AcDbEntity
  8
細線
100
AcDbCircle
 10
99.33085603112999
 20
400.1064581426532
 30
0.0
 40
0.5
100
AcDbArc
 50
147.3463876628251
 51
242.6536123371759
  0
ARC
  5
1A7E8
330
18
100
AcDbEntity
  8
細線
100
AcDbCircle
 10
97.52398081505635
 20
400.5906088976241
 30
0.0
 40
0.5
100
AcDbArc
 50
267.3463876628241
 51
2.653612337175863
  0
ARC
  5
1A7E9
330
18
100
AcDbEntity
  8
細線
100
AcDbCircle
 10
97.24445624634563
 20
399.5474090052319
 30
0.0
 40
0.5
100
AcDbArc
 50
327.3463876628251
 51
62.653612337176
  0
CIRCLE
  5
1A7EA
330
18
100
AcDbEntity
  8
細線
100
AcDbCircle
 10
98.28765613873782
 20
399.8269335739426
 30
0.0
 40
0.8299999999999998
  0
ARC
  5
1A7EB
330
18
100
AcDbEntity
  8
細線
100
AcDbCircle
 10
98.56718070744854
 20
400.8701334663347
 30
0.0
 40
0.5
100
AcDbArc
 50
207.3463876628235
 51
302.6536123371763
  0
CIRCLE
  5
1A7EC
330
18
100
AcDbEntity
  8
細線
100
AcDbCircle
 10
62.26179022468318
 20
312.8527994879975
 30
0.0
 40
3.5
  0
ARC
  5
1A7ED
330
18
100
AcDbEntity
  8
細線
100
AcDbCircle
 10
63.34179022468322
 20
312.8527994879975
 30
0.0
 40
0.5
100
AcDbArc
 50
132.346387662824
 51
227.6536123371759
  0
ARC
  5
1A7EE
330
18
100
AcDbEntity
  8
細線
100
AcDbCircle
 10
62.80179022468314
 20
311.9174920519103
 30
0.0
 40
0.5
100
AcDbArc
 50
72.3463876628239
 51
167.6536123371763
  0
ARC
  5
1A7EF
330
18
100
AcDbEntity
  8
細線
100
AcDbCircle
 10
62.80179022468314
 20
313.7881069240847
 30
0.0
 40
0.5
100
AcDbArc
 50
192.3463876628251
 51
287.6536123371761
  0
ARC
  5
1A7F0
330
18
100
AcDbEntity
  8
細線
100
AcDbCircle
 10
61.18179022468314
 20
312.8527994879975
 30
0.0
 40
0.5
100
AcDbArc
 50
312.3463876628238
 51
47.65361233717579
  0
ARC
  5
1A7F1
330
18
100
AcDbEntity
  8
細線
100
AcDbCircle
 10
61.72179022468322
 20
311.9174920519103
 30
0.0
 40
0.5
100
AcDbArc
 50
12.34638766282518
 51
107.6536123371757
  0
CIRCLE
  5
1A7F2
330
18
100
AcDbEntity
  8
細線
100
AcDbCircle
 10
62.26179022468318
 20
312.8527994879975
 30
0.0
 40
0.8299999999999998
  0
ARC
  5
1A7F3
330
18
100
AcDbEntity
  8
細線
100
AcDbCircle
 10
61.72179022468322
 20
313.7881069240847
 30
0.0
 40
0.5
100
AcDbArc
 50
252.3463876628237
 51
347.6536123371761
  0
CIRCLE
  5
1A7F4
330
18
100
AcDbEntity
  8
細線
100
AcDbCircle
 10
98.28765613873759
 20
225.8786654020524
 30
0.0
 40
3.5
  0
ARC
  5
1A7F5
330
18
100
AcDbEntity
  8
細線
100
AcDbCircle
 10
99.05133146241906
 20
226.6423407257339
 30
0.0
 40
0.5
100
AcDbArc
 50
177.3463876628239
 51
272.6536123371758
  0
ARC
  5
1A7F6
330
18
100
AcDbEntity
  8
細線
100
AcDbCircle
 10
99.33085603112978
 20
225.5991408333416
 30
0.0
 40
0.5
100
AcDbArc
 50
117.3463876628239
 51
212.6536123371763
  0
ARC
  5
1A7F7
330
18
100
AcDbEntity
  8
細線
100
AcDbCircle
 10
98.00813157002687
 20
226.9218652944446
 30
0.0
 40
0.5
100
AcDbArc
 50
237.346387662825
 51
332.6536123371762
  0
ARC
  5
1A7F8
330
18
100
AcDbEntity
  8
細線
100
AcDbCircle
 10
97.52398081505612
 20
225.1149900783709
 30
0.0
 40
0.5
100
AcDbArc
 50
357.346387662824
 51
92.65361233717577
  0
ARC
  5
1A7F9
330
18
100
AcDbEntity
  8
細線
100
AcDbCircle
 10
98.56718070744831
 20
224.8354655096601
 30
0.0
 40
0.5
100
AcDbArc
 50
57.34638766282518
 51
152.6536123371759
  0
CIRCLE
  5
1A7FA
330
18
100
AcDbEntity
  8
細線
100
AcDbCircle
 10
98.28765613873759
 20
225.8786654020524
 30
0.0
 40
0.8299999999999998
  0
ARC
  5
1A7FB
330
18
100
AcDbEntity
  8
細線
100
AcDbCircle
 10
97.2444562463454
 20
226.1581899707631
 30
0.0
 40
0.5
100
AcDbArc
 50
297.3463876628236
 51
32.65361233717626
  0
CIRCLE
  5
1A7FE
330
18
100
AcDbEntity
  8
0
100
AcDbCircle
 10
185.2617902246828
 20
312.8527994879973
 30
0.0
 40
55.0
  0
CIRCLE
  5
1A801
330
18
100
AcDbEntity
  8
細線
100
AcDbCircle
 10
165.392936861957
 20
347.4586750038273
 30
0.0
 40
5.5
  0
CIRCLE
  5
1A802
330
18
100
AcDbEntity
  8
0
100
AcDbCircle
 10
165.392936861957
 20
347.4586750038273
 30
0.0
 40
5.5
  0
CIRCLE
  5
1A803
330
18
100
AcDbEntity
  8
細線
100
AcDbCircle
 10
165.392936861957
 20
347.4586750038273
 30
0.0
 40
5.0
  0
LINE
  5
1A804
330
18
100
AcDbEntity
  8
細線
100
AcDbLine
 10
167.4341784369739
 20
349.4999164232698
 30
0.0
 11
168.1813248830709
 21
346.7115286853853
 31
0.0
  0
LINE
  5
1A805
330
18
100
AcDbEntity
  8
細線
100
AcDbLine
 10
164.6457906090452
 20
350.247062689948
 30
0.0
 11
167.4341783403814
 21
349.4999164491516
 31
0.0
  0
CIRCLE
  5
1A806
330
18
100
AcDbEntity
  8
細線
100
AcDbCircle
 10
165.392936861958
 20
347.458675003831
 30
0.0
 40
3.0
  0
LINE
  5
1A807
330
18
100
AcDbEntity
  8
細線
100
AcDbLine
 10
162.6045488408431
 20
348.2058213222693
 30
0.0
 11
164.6457905124527
 21
350.2470627158301
 31
0.0
  0
LINE
  5
1A808
330
18
100
AcDbEntity
  8
細線
100
AcDbLine
 10
168.181324400108
 20
346.7115288147948
 30
0.0
 11
166.1400827284984
 21
344.670287421234
 31
0.0
  0
CIRCLE
  5
1A809
330
18
100
AcDbEntity
  8
細線
100
AcDbCircle
 10
165.392936861958
 20
347.458675003831
 30
0.0
 40
2.25
  0
LINE
  5
1A80A
330
18
100
AcDbEntity
  8
細線
100
AcDbLine
 10
163.3516953835326
 20
345.4174335585028
 30
0.0
 11
166.1400831148688
 21
344.6702873177063
 31
0.0
  0
LINE
  5
1A80B
330
18
100
AcDbEntity
  8
細線
100
AcDbLine
 10
162.6045493238061
 20
348.2058211928598
 30
0.0
 11
163.351695769903
 21
345.4174334549751
 31
0.0
  0
CIRCLE
  5
1A80C
330
18
100
AcDbEntity
  8
細線
100
AcDbCircle
 10
145.3929368619571
 20
312.8176588524498
 30
0.0
 40
5.5
  0
CIRCLE
  5
1A80D
330
18
100
AcDbEntity
  8
0
100
AcDbCircle
 10
145.3929368619571
 20
312.8176588524498
 30
0.0
 40
5.5
  0
CIRCLE
  5
1A80E
330
18
100
AcDbEntity
  8
細線
100
AcDbCircle
 10
145.3929368619571
 20
312.8176588524498
 30
0.0
 40
5.0
  0
LINE
  5
1A80F
330
18
100
AcDbEntity
  8
細線
100
AcDbLine
 10
144.6457907249713
 20
315.6060466213966
 30
0.0
 11
147.4341785646288
 21
314.8589005551216
 31
0.0
  0
LINE
  5
1A810
330
18
100
AcDbEntity
  8
細線
100
AcDbLine
 10
142.6045491637209
 20
313.5648050601461
 30
0.0
 11
144.6457906542607
 21
315.606046550686
 31
0.0
  0
CIRCLE
  5
1A811
330
18
100
AcDbEntity
  8
細線
100
AcDbCircle
 10
145.3929368619545
 20
312.8176588524524
 30
0.0
 40
3.0
  0
LINE
  5
1A812
330
18
100
AcDbEntity
  8
細線
100
AcDbLine
 10
143.3516951592852
 20
310.7764171497781
 30
0.0
 11
142.6045490930101
 21
313.5648049894356
 31
0.0
  0
LINE
  5
1A813
330
18
100
AcDbEntity
  8
細線
100
AcDbLine
 10
147.4341782110756
 20
314.8589002015683
 30
0.0
 11
148.1813242773506
 21
312.0705123619105
 31
0.0
  0
CIRCLE
  5
1A814
330
18
100
AcDbEntity
  8
細線
100
AcDbCircle
 10
145.3929368619545
 20
312.8176588524524
 30
0.0
 40
2.25
  0
LINE
  5
1A815
330
18
100
AcDbEntity
  8
細線
100
AcDbLine
 10
146.1400830696535
 20
310.0292711542132
 30
0.0
 11
148.1813245601933
 21
312.0705126447532
 31
0.0
  0
LINE
  5
1A816
330
18
100
AcDbEntity
  8
細線
100
AcDbLine
 10
143.3516955128386
 20
310.7764175033313
 30
0.0
 11
146.1400833524963
 21
310.0292714370563
 31
0.0
  0
CIRCLE
  5
1A817
330
18
100
AcDbEntity
  8
細線
100
AcDbCircle
 10
165.392936861957
 20
278.1766427010722
 30
0.0
 40
5.5
  0
CIRCLE
  5
1A818
330
18
100
AcDbEntity
  8
0
100
AcDbCircle
 10
165.392936861957
 20
278.1766427010722
 30
0.0
 40
5.5
  0
CIRCLE
  5
1A819
330
18
100
AcDbEntity
  8
細線
100
AcDbCircle
 10
165.392936861957
 20
278.1766427010722
 30
0.0
 40
5.0
  0
LINE
  5
1A81A
330
18
100
AcDbEntity
  8
細線
100
AcDbLine
 10
162.6045491499544
 20
278.9237890505765
 30
0.0
 11
164.6457905435149
 21
280.9650307221861
 31
0.0
  0
LINE
  5
1A81B
330
18
100
AcDbEntity
  8
細線
100
AcDbLine
 10
163.3516954166326
 20
276.1354012226478
 30
0.0
 11
162.6045491758362
 21
278.9237889539839
 31
0.0
  0
CIRCLE
  5
1A81C
330
18
100
AcDbEntity
  8
細線
100
AcDbCircle
 10
165.3929368619533
 20
278.1766427010712
 30
0.0
 40
3.0
  0
LINE
  5
1A81D
330
18
100
AcDbEntity
  8
細線
100
AcDbLine
 10
166.1400831803991
 20
275.3882546799583
 30
0.0
 11
163.3516954425145
 21
276.1354011260551
 31
0.0
  0
LINE
  5
1A81E
330
18
100
AcDbEntity
  8
細線
100
AcDbLine
 10
164.6457906729246
 20
280.9650302392231
 30
0.0
 11
167.4341784108092
 21
280.2178837931261
 31
0.0
  0
CIRCLE
  5
1A81F
330
18
100
AcDbEntity
  8
細線
100
AcDbCircle
 10
165.3929368619533
 20
278.1766427010712
 30
0.0
 40
2.25
  0
LINE
  5
1A820
330
18
100
AcDbEntity
  8
細線
100
AcDbLine
 10
168.181324548078
 20
277.4294964481604
 30
0.0
 11
167.4341783072816
 21
280.2178841794964
 31
0.0
  0
LINE
  5
1A821
330
18
100
AcDbEntity
  8
細線
100
AcDbLine
 10
166.1400830509897
 20
275.3882551629211
 30
0.0
 11
168.1813244445503
 21
277.4294968345308
 31
0.0
  0
CIRCLE
  5
1A822
330
18
100
AcDbEntity
  8
細線
100
AcDbCircle
 10
205.3929368619569
 20
278.1766427010722
 30
0.0
 40
5.5
  0
CIRCLE
  5
1A823
330
18
100
AcDbEntity
  8
0
100
AcDbCircle
 10
205.3929368619569
 20
278.1766427010722
 30
0.0
 40
5.5
  0
CIRCLE
  5
1A824
330
18
100
AcDbEntity
  8
細線
100
AcDbCircle
 10
205.3929368619569
 20
278.1766427010722
 30
0.0
 40
5.0
  0
LINE
  5
1A825
330
18
100
AcDbEntity
  8
細線
100
AcDbLine
 10
203.3516952869401
 20
276.1354012816297
 30
0.0
 11
202.6045488408432
 21
278.9237890195144
 31
0.0
  0
LINE
  5
1A826
330
18
100
AcDbEntity
  8
細線
100
AcDbLine
 10
206.1400831148689
 20
275.3882550149514
 30
0.0
 11
203.3516953835325
 21
276.1354012557479
 31
0.0
  0
CIRCLE
  5
1A827
330
18
100
AcDbEntity
  8
細線
100
AcDbCircle
 10
205.392936861956
 20
278.1766427010686
 30
0.0
 40
3.0
  0
LINE
  5
1A828
330
18
100
AcDbEntity
  8
細線
100
AcDbLine
 10
208.1813248830709
 20
277.4294963826302
 30
0.0
 11
206.1400832114614
 21
275.3882549890696
 31
0.0
  0
LINE
  5
1A829
330
18
100
AcDbEntity
  8
細線
100
AcDbLine
 10
202.604549323806
 20
278.9237888901049
 30
0.0
 11
204.6457909954156
 21
280.9650302836653
 31
0.0
  0
CIRCLE
  5
1A82A
330
18
100
AcDbEntity
  8
細線
100
AcDbCircle
 10
205.392936861956
 20
278.1766427010686
 30
0.0
 40
2.25
  0
LINE
  5
1A82B
330
18
100
AcDbEntity
  8
細線
100
AcDbLine
 10
207.4341783403815
 20
280.2178841463969
 30
0.0
 11
204.6457906090452
 21
280.9650303871931
 31
0.0
  0
LINE
  5
1A82C
330
18
100
AcDbEntity
  8
細線
100
AcDbLine
 10
208.1813244001079
 20
277.4294965120394
 30
0.0
 11
207.4341779540109
 21
280.2178842499245
 31
0.0
  0
CIRCLE
  5
1A82D
330
18
100
AcDbEntity
  8
細線
100
AcDbCircle
 10
225.3929368619568
 20
312.8176588524498
 30
0.0
 40
5.5
  0
CIRCLE
  5
1A82E
330
18
100
AcDbEntity
  8
0
100
AcDbCircle
 10
225.3929368619568
 20
312.8176588524498
 30
0.0
 40
5.5
  0
CIRCLE
  5
1A82F
330
18
100
AcDbEntity
  8
細線
100
AcDbCircle
 10
225.3929368619568
 20
312.8176588524498
 30
0.0
 40
5.0
  0
LINE
  5
1A830
330
18
100
AcDbEntity
  8
細線
100
AcDbLine
 10
226.1400829989428
 20
310.0292710835028
 30
0.0
 11
223.3516951592853
 21
310.776417149778
 31
0.0
  0
LINE
  5
1A831
330
18
100
AcDbEntity
  8
細線
100
AcDbLine
 10
228.1813245601932
 20
312.0705126447532
 30
0.0
 11
226.1400830696533
 21
310.0292711542132
 31
0.0
  0
CIRCLE
  5
1A832
330
18
100
AcDbEntity
  8
細線
100
AcDbCircle
 10
225.3929368619597
 20
312.817658852447
 30
0.0
 40
3.0
  0
LINE
  5
1A833
330
18
100
AcDbEntity
  8
細線
100
AcDbLine
 10
227.4341785646289
 20
314.8589005551215
 30
0.0
 11
228.1813246309038
 21
312.0705127154638
 31
0.0
  0
LINE
  5
1A834
330
18
100
AcDbEntity
  8
細線
100
AcDbLine
 10
223.3516955128385
 20
310.7764175033313
 30
0.0
 11
222.6045494465633
 21
313.564805342989
 31
0.0
  0
CIRCLE
  5
1A835
330
18
100
AcDbEntity
  8
細線
100
AcDbCircle
 10
225.3929368619597
 20
312.817658852447
 30
0.0
 40
2.25
  0
LINE
  5
1A836
330
18
100
AcDbEntity
  8
細線
100
AcDbLine
 10
224.6457906542604
 20
315.606046550686
 30
0.0
 11
222.6045491637204
 21
313.5648050601461
 31
0.0
  0
LINE
  5
1A837
330
18
100
AcDbEntity
  8
細線
100
AcDbLine
 10
227.4341782110754
 20
314.8589002015682
 30
0.0
 11
224.6457903714175
 21
315.6060462678433
 31
0.0
  0
CIRCLE
  5
1A840
330
18
100
AcDbEntity
  8
細線
100
AcDbCircle
 10
165.8503618419936
 20
385.2972364596785
 30
0.0
 40
2.5
  0
CIRCLE
  5
1A841
330
18
100
AcDbEntity
  8
細線
100
AcDbCircle
 10
165.8503618419936
 20
385.2972364596785
 30
0.0
 40
2.0
  0
CIRCLE
  5
1A842
330
18
100
AcDbEntity
  8
細線
100
AcDbCircle
 10
132.2287816356911
 20
365.8858080769892
 30
0.0
 40
2.5
  0
CIRCLE
  5
1A843
330
18
100
AcDbEntity
  8
細線
100
AcDbCircle
 10
132.2287816356911
 20
365.8858080769892
 30
0.0
 40
2.0
  0
CIRCLE
  5
1A844
330
18
100
AcDbEntity
  8
細線
100
AcDbCircle
 10
112.8173532530019
 20
332.2642278706867
 30
0.0
 40
2.5
  0
CIRCLE
  5
1A845
330
18
100
AcDbEntity
  8
細線
100
AcDbCircle
 10
112.8173532530019
 20
332.2642278706867
 30
0.0
 40
2.0
  0
CIRCLE
  5
1A846
330
18
100
AcDbEntity
  8
細線
100
AcDbCircle
 10
112.817353253002
 20
293.4413711053081
 30
0.0
 40
2.5
  0
CIRCLE
  5
1A847
330
18
100
AcDbEntity
  8
細線
100
AcDbCircle
 10
112.817353253002
 20
293.4413711053081
 30
0.0
 40
2.0
  0
CIRCLE
  5
1A848
330
18
100
AcDbEntity
  8
細線
100
AcDbCircle
 10
132.2287816356912
 20
259.8197908990055
 30
0.0
 40
2.5
  0
CIRCLE
  5
1A849
330
18
100
AcDbEntity
  8
細線
100
AcDbCircle
 10
132.2287816356912
 20
259.8197908990055
 30
0.0
 40
2.0
  0
CIRCLE
  5
1A84A
330
18
100
AcDbEntity
  8
細線
100
AcDbCircle
 10
165.8503618419936
 20
240.4083625163161
 30
0.0
 40
2.5
  0
CIRCLE
  5
1A84B
330
18
100
AcDbEntity
  8
細線
100
AcDbCircle
 10
165.8503618419936
 20
240.4083625163161
 30
0.0
 40
2.0
  0
CIRCLE
  5
1A84C
330
18
100
AcDbEntity
  8
細線
100
AcDbCircle
 10
204.6732186073722
 20
240.4083625163161
 30
0.0
 40
2.5
  0
CIRCLE
  5
1A84D
330
18
100
AcDbEntity
  8
細線
100
AcDbCircle
 10
204.6732186073722
 20
240.4083625163161
 30
0.0
 40
2.0
  0
CIRCLE
  5
1A84E
330
18
100
AcDbEntity
  8
細線
100
AcDbCircle
 10
238.2947988136748
 20
259.8197908990055
 30
0.0
 40
2.5
  0
CIRCLE
  5
1A84F
330
18
100
AcDbEntity
  8
細線
100
AcDbCircle
 10
238.2947988136748
 20
259.8197908990055
 30
0.0
 40
2.0
  0
CIRCLE
  5
1A850
330
18
100
AcDbEntity
  8
細線
100
AcDbCircle
 10
257.706227196364
 20
293.4413711053081
 30
0.0
 40
2.5
  0
CIRCLE
  5
1A851
330
18
100
AcDbEntity
  8
細線
100
AcDbCircle
 10
257.706227196364
 20
293.4413711053081
 30
0.0
 40
2.0
  0
CIRCLE
  5
1A852
330
18
100
AcDbEntity
  8
細線
100
AcDbCircle
 10
257.706227196364
 20
332.2642278706867
 30
0.0
 40
2.5
  0
CIRCLE
  5
1A853
330
18
100
AcDbEntity
  8
細線
100
AcDbCircle
 10
257.706227196364
 20
332.2642278706867
 30
0.0
 40
2.0
  0
CIRCLE
  5
1A854
330
18
100
AcDbEntity
  8
細線
100
AcDbCircle
 10
238.2947988136748
 20
365.8858080769892
 30
0.0
 40
2.5
  0
CIRCLE
  5
1A855
330
18
100
AcDbEntity
  8
細線
100
AcDbCircle
 10
238.2947988136748
 20
365.8858080769892
 30
0.0
 40
2.0
  0
CIRCLE
  5
1AE48
102
{ACAD_REACTORS
330
1AE50
102
}
330
18
100
AcDbEntity
  8
細線
100
AcDbCircle
 10
651.9730301283142
 20
362.703827561648
 30
0.0
 40
3.5
  0
ARC
  5
1AE49
102
{ACAD_REACTORS
330
1AE50
102
}
330
18
100
AcDbEntity
  8
細線
100
AcDbCircle
 10
652.9083375644013
 20
363.2438275616481
 30
0.0
 40
0.5
100
AcDbArc
 50
162.3463876628234
 51
257.6536123371762
  0
CIRCLE
  5
1AE4A
102
{ACAD_REACTORS
330
1AE50
102
}
330
18
100
AcDbEntity
  8
細線
100
AcDbCircle
 10
651.9730301283142
 20
362.703827561648
 30
0.0
 40
0.8299999999999998
  0
ARC
  5
1AE4B
102
{ACAD_REACTORS
330
1AE50
102
}
330
18
100
AcDbEntity
  8
細線
100
AcDbCircle
 10
651.0377226922271
 20
363.2438275616481
 30
0.0
 40
0.5
100
AcDbArc
 50
282.3463876628252
 51
17.65361233717596
  0
ARC
  5
1AE4C
102
{ACAD_REACTORS
330
1AE50
102
}
330
18
100
AcDbEntity
  8
細線
100
AcDbCircle
 10
651.9730301283142
 20
363.7838275616481
 30
0.0
 40
0.5
100
AcDbArc
 50
222.3463876628239
 51
317.6536123371758
  0
ARC
  5
1AE4D
102
{ACAD_REACTORS
330
1AE50
102
}
330
18
100
AcDbEntity
  8
細線
100
AcDbCircle
 10
652.9083375644013
 20
362.163827561648
 30
0.0
 40
0.5
100
AcDbArc
 50
102.3463876628252
 51
197.6536123371761
  0
ARC
  5
1AE4E
102
{ACAD_REACTORS
330
1AE50
102
}
330
18
100
AcDbEntity
  8
細線
100
AcDbCircle
 10
651.0377226922269
 20
362.163827561648
 30
0.0
 40
0.5
100
AcDbArc
 50
342.3463876628238
 51
77.65361233717626
  0
ARC
  5
1AE4F
102
{ACAD_REACTORS
330
1AE50
102
}
330
18
100
AcDbEntity
  8
細線
100
AcDbCircle
 10
651.9730301283142
 20
361.6238275616481
 30
0.0
 40
0.5
100
AcDbArc
 50
42.34638766282411
 51
137.6536123371759
  0
CIRCLE
  5
1AE51
102
{ACAD_REACTORS
330
1AE59
102
}
330
18
100
AcDbEntity
  8
細線
100
AcDbCircle
 10
651.9730301283154
 20
263.0017714143448
 30
0.0
 40
3.5
  0
ARC
  5
1AE52
102
{ACAD_REACTORS
330
1AE59
102
}
330
18
100
AcDbEntity
  8
細線
100
AcDbCircle
 10
652.9083375644026
 20
263.5417714143449
 30
0.0
 40
0.5
100
AcDbArc
 50
162.3463876628234
 51
257.6536123371762
  0
CIRCLE
  5
1AE53
102
{ACAD_REACTORS
330
1AE59
102
}
330
18
100
AcDbEntity
  8
細線
100
AcDbCircle
 10
651.9730301283154
 20
263.0017714143448
 30
0.0
 40
0.8299999999999998
  0
ARC
  5
1AE54
102
{ACAD_REACTORS
330
1AE59
102
}
330
18
100
AcDbEntity
  8
細線
100
AcDbCircle
 10
651.0377226922282
 20
263.5417714143449
 30
0.0
 40
0.5
100
AcDbArc
 50
282.3463876628252
 51
17.65361233717596
  0
ARC
  5
1AE55
102
{ACAD_REACTORS
330
1AE59
102
}
330
18
100
AcDbEntity
  8
細線
100
AcDbCircle
 10
651.9730301283154
 20
264.0817714143449
 30
0.0
 40
0.5
100
AcDbArc
 50
222.3463876628239
 51
317.6536123371758
  0
ARC
  5
1AE56
102
{ACAD_REACTORS
330
1AE59
102
}
330
18
100
AcDbEntity
  8
細線
100
AcDbCircle
 10
652.9083375644026
 20
262.4617714143449
 30
0.0
 40
0.5
100
AcDbArc
 50
102.3463876628252
 51
197.6536123371761
  0
ARC
  5
1AE57
102
{ACAD_REACTORS
330
1AE59
102
}
330
18
100
AcDbEntity
  8
細線
100
AcDbCircle
 10
651.0377226922282
 20
262.4617714143449
 30
0.0
 40
0.5
100
AcDbArc
 50
342.3463876628238
 51
77.65361233717626
  0
ARC
  5
1AE58
102
{ACAD_REACTORS
330
1AE59
102
}
330
18
100
AcDbEntity
  8
細線
100
AcDbCircle
 10
651.9730301283154
 20
261.9217714143449
 30
0.0
 40
0.5
100
AcDbArc
 50
42.34638766282411
 51
137.6536123371759
  0
CIRCLE
  5
1AE5A
102
{ACAD_REACTORS
330
1AE62
102
}
330
18
100
AcDbEntity
  8
細線
100
AcDbCircle
 10
751.6750862756169
 20
362.7038275616494
 30
0.0
 40
3.5
  0
ARC
  5
1AE5B
102
{ACAD_REACTORS
330
1AE62
102
}
330
18
100
AcDbEntity
  8
細線
100
AcDbCircle
 10
752.6103937117042
 20
363.2438275616495
 30
0.0
 40
0.5
100
AcDbArc
 50
162.3463876628234
 51
257.6536123371762
  0
CIRCLE
  5
1AE5C
102
{ACAD_REACTORS
330
1AE62
102
}
330
18
100
AcDbEntity
  8
細線
100
AcDbCircle
 10
751.6750862756169
 20
362.7038275616494
 30
0.0
 40
0.8299999999999998
  0
ARC
  5
1AE5D
102
{ACAD_REACTORS
330
1AE62
102
}
330
18
100
AcDbEntity
  8
細線
100
AcDbCircle
 10
750.7397788395297
 20
363.2438275616495
 30
0.0
 40
0.5
100
AcDbArc
 50
282.3463876628252
 51
17.65361233717596
  0
ARC
  5
1AE5E
102
{ACAD_REACTORS
330
1AE62
102
}
330
18
100
AcDbEntity
  8
細線
100
AcDbCircle
 10
751.6750862756169
 20
363.7838275616495
 30
0.0
 40
0.5
100
AcDbArc
 50
222.3463876628239
 51
317.6536123371758
  0
ARC
  5
1AE5F
102
{ACAD_REACTORS
330
1AE62
102
}
330
18
100
AcDbEntity
  8
細線
100
AcDbCircle
 10
752.6103937117042
 20
362.1638275616493
 30
0.0
 40
0.5
100
AcDbArc
 50
102.3463876628252
 51
197.6536123371761
  0
ARC
  5
1AE60
102
{ACAD_REACTORS
330
1AE62
102
}
330
18
100
AcDbEntity
  8
細線
100
AcDbCircle
 10
750.7397788395297
 20
362.1638275616493
 30
0.0
 40
0.5
100
AcDbArc
 50
342.3463876628238
 51
77.65361233717626
  0
ARC
  5
1AE61
102
{ACAD_REACTORS
330
1AE62
102
}
330
18
100
AcDbEntity
  8
細線
100
AcDbCircle
 10
751.6750862756169
 20
361.6238275616495
 30
0.0
 40
0.5
100
AcDbArc
 50
42.34638766282411
 51
137.6536123371759
  0
CIRCLE
  5
1AE63
102
{ACAD_REACTORS
330
1AE6B
102
}
330
18
100
AcDbEntity
  8
細線
100
AcDbCircle
 10
751.6750862756188
 20
263.0017714143467
 30
0.0
 40
3.5
  0
ARC
  5
1AE64
102
{ACAD_REACTORS
330
1AE6B
102
}
330
18
100
AcDbEntity
  8
細線
100
AcDbCircle
 10
752.610393711706
 20
263.5417714143465
 30
0.0
 40
0.5
100
AcDbArc
 50
162.3463876628234
 51
257.6536123371762
  0
CIRCLE
  5
1AE65
102
{ACAD_REACTORS
330
1AE6B
102
}
330
18
100
AcDbEntity
  8
細線
100
AcDbCircle
 10
751.6750862756188
 20
263.0017714143467
 30
0.0
 40
0.8299999999999998
  0
ARC
  5
1AE66
102
{ACAD_REACTORS
330
1AE6B
102
}
330
18
100
AcDbEntity
  8
細線
100
AcDbCircle
 10
750.7397788395316
 20
263.5417714143465
 30
0.0
 40
0.5
100
AcDbArc
 50
282.3463876628252
 51
17.65361233717596
  0
ARC
  5
1AE67
102
{ACAD_REACTORS
330
1AE6B
102
}
330
18
100
AcDbEntity
  8
細線
100
AcDbCircle
 10
751.6750862756188
 20
264.0817714143468
 30
0.0
 40
0.5
100
AcDbArc
 50
222.3463876628239
 51
317.6536123371758
  0
ARC
  5
1AE68
102
{ACAD_REACTORS
330
1AE6B
102
}
330
18
100
AcDbEntity
  8
細線
100
AcDbCircle
 10
752.610393711706
 20
262.4617714143468
 30
0.0
 40
0.5
100
AcDbArc
 50
102.3463876628252
 51
197.6536123371761
  0
ARC
  5
1AE69
102
{ACAD_REACTORS
330
1AE6B
102
}
330
18
100
AcDbEntity
  8
細線
100
AcDbCircle
 10
750.7397788395316
 20
262.4617714143468
 30
0.0
 40
0.5
100
AcDbArc
 50
342.3463876628238
 51
77.65361233717626
  0
ARC
  5
1AE6A
102
{ACAD_REACTORS
330
1AE6B
102
}
330
18
100
AcDbEntity
  8
細線
100
AcDbCircle
 10
751.6750862756188
 20
261.9217714143467
 30
0.0
 40
0.5
100
AcDbArc
 50
42.34638766282411
 51
137.6536123371759
  0
LINE
  5
1AEEE
330
18
100
AcDbEntity
  8
0
100
AcDbLine
 10
556.388092859402
 20
157.0911086221813
 30
0.0
 11
560.1725677452466
 21
134.6911086221814
 31
0.0
  0
LINE
  5
1AEEF
330
18
100
AcDbEntity
  8
0
100
AcDbLine
 10
555.0968828137397
 20
134.6911086221814
 30
0.0
 11
555.0968828137397
 21
157.0911086221813
 31
0.0
  0
LINE
  5
1AEF0
330
18
100
AcDbEntity
  8
0
100
AcDbLine
 10
553.8056727680781
 20
157.0911086221813
 30
0.0
 11
550.0211978822333
 21
134.6911086221814
 31
0.0
  0
LINE
  5
1AEF1
330
18
100
AcDbEntity
  8
0
100
AcDbLine
 10
545.8683174382116
 20
117.1882063778494
 30
0.0
 11
545.8683174382116
 21
120.4910635207065
 31
0.0
  0
LINE
  5
1AEF2
330
18
100
AcDbEntity
  8
0
100
AcDbLine
 10
547.0340317239259
 20
117.0910635207059
 30
0.0
 11
547.0340317239259
 21
120.4910635207065
 31
0.0
  0
LINE
  5
1AEF3
330
18
100
AcDbEntity
  8
0
100
AcDbLine
 10
544.4791745810688
 20
117.6059206635637
 30
0.0
 11
544.4791745810688
 21
127.9710635207061
 31
0.0
  0
LINE
  5
1AEF4
330
18
100
AcDbEntity
  8
0
100
AcDbLine
 10
544.8968888667831
 20
115.7310635207064
 30
0.0
 11
544.8968888667827
 21
126.9996349492778
 31
0.0
  0
LINE
  5
1AEF5
330
18
100
AcDbEntity
  8
0
100
AcDbLine
 10
549.2718888667829
 20
110.9910635207061
 30
0.0
 11
549.2718888667829
 21
120.4910635207065
 31
0.0
  0
LINE
  5
1AEF6
330
18
100
AcDbEntity
  8
0
100
AcDbLine
 10
557.4718888667828
 20
110.9910635207061
 30
0.0
 11
557.4718888667828
 21
120.4910635207065
 31
0.0
  0
LINE
  5
1AEF7
330
18
100
AcDbEntity
  8
0
100
AcDbLine
 10
556.8218888667833
 20
110.9910635207061
 30
0.0
 11
556.8218888667828
 21
120.4910635207065
 31
0.0
  0
LINE
  5
1AEF8
330
18
100
AcDbEntity
  8
0
100
AcDbLine
 10
553.371888866783
 20
110.9910635207061
 30
0.0
 11
553.371888866783
 21
120.4910635207065
 31
0.0
  0
LINE
  5
1AEF9
330
18
100
AcDbEntity
  8
0
100
AcDbLine
 10
552.7218888667833
 20
110.9910635207061
 30
0.0
 11
552.7218888667833
 21
120.4910635207065
 31
0.0
  0
LINE
  5
1AEFA
330
18
100
AcDbEntity
  8
0
100
AcDbLine
 10
560.9218888667832
 20
110.9910635207061
 30
0.0
 11
560.9218888667832
 21
120.4910635207065
 31
0.0
  0
LINE
  5
1AEFB
330
18
100
AcDbEntity
  8
0
100
AcDbLine
 10
560.9218888667832
 20
110.9910635207066
 30
0.0
 11
557.4718888667821
 21
110.9910635207061
 31
0.0
  0
LINE
  5
1AEFC
330
18
100
AcDbEntity
  8
0
100
AcDbLine
 10
552.7218888667833
 20
110.9910635207061
 30
0.0
 11
549.2718888667829
 21
110.9910635207061
 31
0.0
  0
LINE
  5
1AEFD
330
18
100
AcDbEntity
  8
0
100
AcDbLine
 10
547.1311745810687
 20
114.7596349492777
 30
0.0
 11
545.8683174382116
 21
114.7596349492777
 31
0.0
  0
LINE
  5
1AEFE
330
18
100
AcDbEntity
  8
0
100
AcDbLine
 10
544.8968888667831
 20
117.1882063778494
 30
0.0
 11
544.4791745810688
 21
117.6059206635637
 31
0.0
  0
LINE
  5
1AEFF
330
18
100
AcDbEntity
  8
0
100
AcDbLine
 10
545.8683174382116
 20
117.1882063778494
 30
0.0
 11
544.8968888667831
 21
117.1882063778494
 31
0.0
  0
LINE
  5
1AF00
330
18
100
AcDbEntity
  8
0
100
AcDbLine
 10
544.8968888667831
 20
115.7310635207064
 30
0.0
 11
545.8683174382116
 21
114.7596349492777
 31
0.0
  0
LINE
  5
1AF01
330
18
100
AcDbEntity
  8
0
100
AcDbLine
 10
548.1026031524974
 20
115.7310635207064
 30
0.0
 11
548.1026031524974
 21
117.1882063778489
 31
0.0
  0
LINE
  5
1AF02
330
18
100
AcDbEntity
  8
0
100
AcDbLine
 10
548.1026031524974
 20
117.1882063778494
 30
0.0
 11
547.0340317239259
 21
117.0910635207059
 31
0.0
  0
LINE
  5
1AF03
330
18
100
AcDbEntity
  8
0
100
AcDbLine
 10
547.1311745810687
 20
114.7596349492777
 30
0.0
 11
548.1026031524974
 21
115.7310635207064
 31
0.0
  0
LINE
  5
1AF04
330
18
100
AcDbEntity
  8
0
100
AcDbLine
 10
556.8218888667833
 20
110.9910635207061
 30
0.0
 11
553.371888866783
 21
110.9910635207061
 31
0.0
  0
LINE
  5
1AF05
330
18
100
AcDbEntity
  8
0
100
AcDbLine
 10
561.8968888667827
 20
120.4910635207065
 30
0.0
 11
548.2968888667832
 21
120.4910635207065
 31
0.0
  0
LINE
  5
1AF06
330
18
100
AcDbEntity
  8
0
100
AcDbLine
 10
562.8968828137401
 20
134.6911086221812
 30
0.0
 11
547.2968828137399
 21
134.691108622182
 31
0.0
  0
LINE
  5
1AF07
330
18
100
AcDbEntity
  8
0
100
AcDbLine
 10
548.2968888667832
 20
133.5911086221827
 30
0.0
 11
548.2968888667832
 21
120.4910635207065
 31
0.0
  0
LINE
  5
1AF08
330
18
100
AcDbEntity
  8
0
100
AcDbLine
 10
544.8968888667827
 20
126.9996349492778
 30
0.0
 11
544.4791745810688
 21
126.9996349492778
 31
0.0
  0
LINE
  5
1AF09
330
18
100
AcDbEntity
  8
0
100
AcDbLine
 10
545.8683174382116
 20
127.9710635207069
 30
0.0
 11
544.4791745810688
 21
127.9710635207065
 31
0.0
  0
LINE
  5
1AF0A
330
18
100
AcDbEntity
  8
0
100
AcDbLine
 10
548.2968888667832
 20
120.4910635207065
 30
0.0
 11
544.4791745810688
 21
120.4910635207065
 31
0.0
  0
ARC
  5
1AF0B
330
18
100
AcDbEntity
  8
0
100
AcDbCircle
 10
547.811174581069
 20
122.5893492349924
 30
0.0
 40
0.4857142857142857
100
AcDbArc
 50
270.000000000013
 51
0.0
  0
ARC
  5
1AF0C
330
18
100
AcDbEntity
  8
0
100
AcDbCircle
 10
547.3104660807343
 20
122.5893492349919
 30
0.0
 40
0.4857142857142857
100
AcDbArc
 50
190.0000000000042
 51
270.000000000013
  0
LINE
  5
1AF0D
330
18
100
AcDbEntity
  8
0
100
AcDbLine
 10
547.811174581069
 20
122.1036349492782
 30
0.0
 11
547.3104660807347
 21
122.1036349492779
 31
0.0
  0
LINE
  5
1AF0E
330
18
100
AcDbEntity
  8
0
100
AcDbLine
 10
546.832130886414
 20
122.5050058344109
 30
0.0
 11
545.8683174382116
 21
127.9710635207069
 31
0.0
  0
LINE
  5
1AF0F
330
18
100
AcDbEntity
  8
0
100
AcDbLine
 10
547.2968828137399
 20
134.691108622182
 30
0.0
 11
547.2968828137399
 21
133.5911086221827
 31
0.0
  0
LINE
  5
1AF10
330
18
100
AcDbEntity
  8
0
100
AcDbLine
 10
548.2968888667832
 20
133.5911086221827
 30
0.0
 11
547.2968828137399
 21
133.5911086221827
 31
0.0
  0
LINE
  5
1AF11
330
18
100
AcDbEntity
  8
0
100
AcDbLine
 10
561.8968888667827
 20
133.5911086221813
 30
0.0
 11
561.8968888667827
 21
120.4910635207065
 31
0.0
  0
LINE
  5
1AF12
330
18
100
AcDbEntity
  8
0
100
AcDbLine
 10
562.8968828137401
 20
133.5911086221817
 30
0.0
 11
561.8968888667827
 21
133.5911086221813
 31
0.0
  0
LINE
  5
1AF13
330
18
100
AcDbEntity
  8
0
100
AcDbLine
 10
562.8968828137401
 20
134.691108622182
 30
0.0
 11
562.8968828137401
 21
133.5911086221827
 31
0.0
  0
LINE
  5
1AF14
330
18
100
AcDbEntity
  8
0
100
AcDbLine
 10
551.2099705724822
 20
181.3850841186228
 30
0.0
 11
543.8013628266287
 21
192.1957437976734
 31
0.0
  0
LINE
  5
1AF15
330
18
100
AcDbEntity
  8
0
100
AcDbLine
 10
558.9168765473057
 20
181.3817964139196
 30
0.0
 11
566.4166660214301
 21
192.3533777324166
 31
0.0
  0
LINE
  5
1AF16
330
18
100
AcDbEntity
  8
0
100
AcDbLine
 10
554.7082641597844
 20
181.3831283719471
 30
0.0
 11
562.2139574018643
 21
192.3520457743887
 31
0.0
  0
LINE
  5
1AF17
330
18
100
AcDbEntity
  8
0
100
AcDbLine
 10
555.0676431484653
 20
181.908329484739
 30
0.0
 11
547.7951974438123
 21
192.5451807984209
 31
0.0
  0
ARC
  5
1AF18
330
18
100
AcDbEntity
  8
0
100
AcDbCircle
 10
567.1724317879111
 20
175.7385874270653
 30
0.0
 40
10.0
100
AcDbArc
 50
145.6448534167714
 51
180.0
  0
ARC
  5
1AF19
330
18
100
AcDbEntity
  8
0
100
AcDbCircle
 10
542.9611107808247
 20
175.7320926859761
 30
0.0
 40
10.0
100
AcDbArc
 50
0.0
 51
34.42306692944868
  0
ARC
  5
1AF1A
330
18
100
AcDbEntity
  8
0
100
AcDbCircle
 10
562.9611107808247
 20
175.735958935
 30
0.0
 40
10.0
100
AcDbArc
 50
145.6173623158439
 51
180.0
  0
LINE
  5
1AF1B
330
18
100
AcDbEntity
  8
0
100
AcDbLine
 10
552.9611107808245
 20
170.8527994879968
 30
0.0
 11
552.9611107808246
 21
175.735958935
 31
0.0
  0
LINE
  5
1AF1C
330
18
100
AcDbEntity
  8
0
100
AcDbLine
 10
552.9611107808245
 20
170.8527994879968
 30
0.0
 11
552.9611107808246
 21
175.732092685976
 31
0.0
  0
LINE
  5
1AF1D
330
18
100
AcDbEntity
  8
0
100
AcDbLine
 10
557.1724317879111
 20
170.8527994879968
 30
0.0
 11
557.1724317879111
 21
175.7385874270655
 31
0.0
  0
ARC
  5
1AF1E
330
18
100
AcDbEntity
  8
0
100
AcDbCircle
 10
556.0502226182892
 20
198.1891651506988
 30
0.0
 40
10.0
100
AcDbArc
 50
180.0
 51
214.3605280011013
  0
ARC
  5
1AF1F
330
18
100
AcDbEntity
  8
0
100
AcDbCircle
 10
552.0502226182864
 20
197.8487352303199
 30
0.0
 40
10.0
100
AcDbArc
 50
180.0
 51
214.4230669294485
  0
ARC
  5
1AF20
330
18
100
AcDbEntity
  8
0
100
AcDbCircle
 10
558.1611107808246
 20
197.9965867192709
 30
0.0
 40
10.0
100
AcDbArc
 50
325.6448534167714
 51
0.0
  0
ARC
  5
1AF21
330
18
100
AcDbEntity
  8
0
100
AcDbCircle
 10
553.9611107808242
 20
197.9992152113354
 30
0.0
 40
10.0
100
AcDbArc
 50
325.6173623158439
 51
0.0
  0
LINE
  5
1AF30
330
18
100
AcDbEntity
  8
0
100
AcDbLine
 10
568.1611107808247
 20
197.9965867192709
 30
0.0
 11
568.1611107808247
 21
264.8570197792603
 31
0.0
  0
LINE
  5
1AF31
330
18
100
AcDbEntity
  8
0
100
AcDbLine
 10
542.0502226182865
 20
197.8487352303199
 30
0.0
 11
542.0502226182865
 21
230.3527994879968
 31
0.0
  0
LINE
  5
1AF32
330
18
100
AcDbEntity
  8
0
100
AcDbLine
 10
563.9611107808242
 20
197.9992152113354
 30
0.0
 11
563.9611107808247
 21
264.8570197792603
 31
0.0
  0
LINE
  5
1AF33
330
18
100
AcDbEntity
  8
0
100
AcDbLine
 10
546.2502226182865
 20
230.3527994879968
 30
0.0
 11
546.0502226182892
 21
198.1891651506988
 31
0.0
  0
ARC
  5
1B33F
330
18
100
AcDbEntity
  8
0
100
AcDbCircle
 10
669.9893156543563
 20
431.6616761215526
 30
0.0
 40
4.0
100
AcDbArc
 50
195.9316797492554
 51
14.06832025074503
  0
LINE
  5
1B341
330
18
100
AcDbEntity
  8
0
100
AcDbLine
 10
672.8340503862971
 20
436.4997947885193
 30
0.0
 11
673.8698571716248
 21
432.6341112388513
 31
0.0
  0
LINE
  5
1B342
330
18
100
AcDbEntity
  8
0
100
AcDbLine
 10
665.1066437759847
 20
434.4292424276992
 30
0.0
 11
666.1424505613123
 21
430.5635588780313
 31
0.0
  0
LINE
  5
1B344
330
18
100
AcDbEntity
  8
0
100
AcDbLine
 10
614.8944773274262
 20
405.4392346120308
 30
0.0
 11
617.7243540917661
 21
402.6093578476906
 31
0.0
  0
ARC
  5
1B345
330
18
100
AcDbEntity
  8
0
100
AcDbCircle
 10
614.8499241160209
 20
399.8269335739436
 30
0.0
 40
4.0
100
AcDbArc
 50
225.9316797492555
 51
44.06832025074503
  0
LINE
  5
1B346
330
18
100
AcDbEntity
  8
0
100
AcDbLine
 10
609.2376230779339
 20
399.7823803625383
 30
0.0
 11
612.0674998422737
 21
396.9525035981984
 31
0.0
  0
LINE
  5
1B347
330
18
100
AcDbEntity
  8
0
100
AcDbLine
 10
580.2476152622638
 20
349.570213913981
 30
0.0
 11
584.1132988119316
 21
348.5344071286531
 31
0.0
  0
ARC
  5
1B348
330
18
100
AcDbEntity
  8
0
100
AcDbCircle
 10
583.0151815684103
 20
344.6875420356092
 30
0.0
 40
4.0
100
AcDbArc
 50
255.9316797492555
 51
74.06832025074503
  0
LINE
  5
1B349
330
18
100
AcDbEntity
  8
0
100
AcDbLine
 10
578.1770629014434
 20
341.8428073036685
 30
0.0
 11
582.0427464511115
 21
340.8070005183406
 31
0.0
  0
LINE
  5
1B34A
330
18
100
AcDbEntity
  8
0
100
AcDbLine
 10
578.1770629014427
 20
283.86279167233
 30
0.0
 11
582.0427464511103
 21
284.8985984576577
 31
0.0
  0
ARC
  5
1B34B
330
18
100
AcDbEntity
  8
0
100
AcDbCircle
 10
583.0151815684092
 20
281.0180569403893
 30
0.0
 40
4.0
100
AcDbArc
 50
285.9316797492553
 51
104.0683202507449
  0
LINE
  5
1B34C
330
18
100
AcDbEntity
  8
0
100
AcDbLine
 10
580.2476152622626
 20
276.1353850620175
 30
0.0
 11
584.1132988119303
 21
277.1711918473452
 31
0.0
  0
LINE
  5
1B34D
330
18
100
AcDbEntity
  8
0
100
AcDbLine
 10
609.2376230779311
 20
225.923218613459
 30
0.0
 11
612.0674998422709
 21
228.7530953777991
 31
0.0
  0
ARC
  5
1B34E
330
18
100
AcDbEntity
  8
0
100
AcDbCircle
 10
614.8499241160185
 20
225.8786654020541
 30
0.0
 40
4.0
100
AcDbArc
 50
315.9316797492552
 51
134.0683202507449
  0
LINE
  5
1B34F
330
18
100
AcDbEntity
  8
0
100
AcDbLine
 10
614.8944773274234
 20
220.2663643639666
 30
0.0
 11
617.7243540917634
 21
223.0962411283067
 31
0.0
  0
LINE
  5
1B350
330
18
100
AcDbEntity
  8
0
100
AcDbLine
 10
665.1066437759809
 20
191.2763565482965
 30
0.0
 11
666.1424505613088
 21
195.1420400979644
 31
0.0
  0
ARC
  5
1B351
330
18
100
AcDbEntity
  8
0
100
AcDbCircle
 10
669.9893156543528
 20
194.043922854443
 30
0.0
 40
4.0
100
AcDbArc
 50
345.9316797492553
 51
164.068320250745
  0
LINE
  5
1B352
330
18
100
AcDbEntity
  8
0
100
AcDbLine
 10
672.8340503862933
 20
189.2058041874764
 30
0.0
 11
673.8698571716213
 21
193.0714877371442
 31
0.0
  0
LINE
  5
1B353
330
18
100
AcDbEntity
  8
0
100
AcDbLine
 10
730.8140660176319
 20
189.2058041874753
 30
0.0
 11
729.7782592323043
 21
193.0714877371429
 31
0.0
  0
ARC
  5
1B354
330
18
100
AcDbEntity
  8
0
100
AcDbCircle
 10
733.6588007495723
 20
194.0439228544421
 30
0.0
 40
4.0
100
AcDbArc
 50
15.9316797492554
 51
194.0683202507449
  0
LINE
  5
1B355
330
18
100
AcDbEntity
  8
0
100
AcDbLine
 10
738.5414726279443
 20
191.2763565482955
 30
0.0
 11
737.5056658426168
 21
195.1420400979634
 31
0.0
  0
LINE
  5
1B356
330
18
100
AcDbEntity
  8
0
100
AcDbLine
 10
788.7536390765029
 20
220.266364363964
 30
0.0
 11
785.9237623121627
 21
223.0962411283039
 31
0.0
  0
ARC
  5
1B357
330
18
100
AcDbEntity
  8
0
100
AcDbCircle
 10
788.7981922879081
 20
225.8786654020513
 30
0.0
 40
4.0
100
AcDbArc
 50
45.93167974925545
 51
224.068320250745
  0
LINE
  5
1B358
330
18
100
AcDbEntity
  8
0
100
AcDbLine
 10
794.4104933259953
 20
225.9232186134564
 30
0.0
 11
791.5806165616552
 21
228.7530953777965
 31
0.0
  0
LINE
  5
1B359
330
18
100
AcDbEntity
  8
0
100
AcDbLine
 10
823.4005011416654
 20
276.1353850620138
 30
0.0
 11
819.5348175919976
 21
277.1711918473418
 31
0.0
  0
ARC
  5
1B35A
330
18
100
AcDbEntity
  8
0
100
AcDbCircle
 10
820.6329348355188
 20
281.0180569403858
 30
0.0
 40
4.0
100
AcDbArc
 50
75.93167974925549
 51
254.068320250745
  0
LINE
  5
1B35B
330
18
100
AcDbEntity
  8
0
100
AcDbLine
 10
825.4710535024853
 20
283.8627916723264
 30
0.0
 11
821.6053699528178
 21
284.8985984576543
 31
0.0
  0
LINE
  5
1B35C
330
18
100
AcDbEntity
  8
0
100
AcDbLine
 10
825.4710535024864
 20
341.8428073036648
 30
0.0
 11
821.6053699528186
 21
340.8070005183371
 31
0.0
  0
ARC
  5
1B35D
330
18
100
AcDbEntity
  8
0
100
AcDbCircle
 10
820.6329348355199
 20
344.6875420356054
 30
0.0
 40
4.0
100
AcDbArc
 50
105.9316797492555
 51
284.0683202507448
  0
LINE
  5
1B35E
330
18
100
AcDbEntity
  8
0
100
AcDbLine
 10
823.4005011416664
 20
349.5702139139773
 30
0.0
 11
819.5348175919985
 21
348.5344071286496
 31
0.0
  0
LINE
  5
1B35F
330
18
100
AcDbEntity
  8
0
100
AcDbLine
 10
794.4104933259979
 20
399.7823803625357
 30
0.0
 11
791.5806165616579
 21
396.9525035981957
 31
0.0
  0
ARC
  5
1B360
330
18
100
AcDbEntity
  8
0
100
AcDbCircle
 10
788.7981922879109
 20
399.8269335739408
 30
0.0
 40
4.0
100
AcDbArc
 50
135.9316797492555
 51
314.068320250745
  0
LINE
  5
1B361
330
18
100
AcDbEntity
  8
0
100
AcDbLine
 10
788.7536390765057
 20
405.4392346120281
 30
0.0
 11
785.9237623121654
 21
402.6093578476881
 31
0.0
  0
LINE
  5
1B362
330
18
100
AcDbEntity
  8
0
100
AcDbLine
 10
738.5414726279482
 20
434.4292424276982
 30
0.0
 11
737.5056658426203
 21
430.5635588780304
 31
0.0
  0
ARC
  5
1B363
330
18
100
AcDbEntity
  8
0
100
AcDbCircle
 10
733.6588007495763
 20
431.6616761215517
 30
0.0
 40
4.0
100
AcDbArc
 50
165.9316797492554
 51
344.0683202507447
  0
LINE
  5
1B364
330
18
100
AcDbEntity
  8
0
100
AcDbLine
 10
730.8140660176356
 20
436.4997947885184
 30
0.0
 11
729.7782592323078
 21
432.6341112388504
 31
0.0
  0
LINE
  5
1B379
330
18
100
AcDbEntity
  8
0
100
AcDbLine
 10
468.7562162443405
 20
192.0848992488743
 30
0.0
 11
475.9562162443402
 21
192.0848992488743
 31
0.0
  0
LINE
  5
1B37A
330
18
100
AcDbEntity
  8
0
100
AcDbLine
 10
468.7562162443405
 20
186.4705612689991
 30
0.0
 11
475.9562162443402
 21
186.4705612689991
 31
0.0
  0
LINE
  5
1B37B
330
18
100
AcDbEntity
  8
0
100
AcDbLine
 10
468.7562162443405
 20
192.0848992488743
 30
0.0
 11
468.7562162443405
 21
186.4705612689991
 31
0.0
  0
LINE
  5
1B37C
330
18
100
AcDbEntity
  8
0
100
AcDbLine
 10
475.9562162443402
 20
192.0848992488743
 30
0.0
 11
475.9562162443402
 21
186.4705612689991
 31
0.0
  0
CIRCLE
  5
1B3F9
330
18
100
AcDbEntity
  8
0
100
AcDbCircle
 10
185.2617902246829
 20
312.8527994879977
 30
0.0
 40
32.49999999999999
  0
LINE
  5
1B3FA
330
18
100
AcDbEntity
  8
破線
100
AcDbLine
 10
367.4562163617585
 20
367.8527994879973
 30
0.0
 11
365.4562163617585
 21
367.8527994879973
 31
0.0
  0
LINE
  5
1B3FB
330
18
100
AcDbEntity
  8
破線
100
AcDbLine
 10
367.4562163617585
 20
257.8527994879973
 30
0.0
 11
365.4562163617585
 21
257.8527994879973
 31
0.0
  0
LINE
  5
1B3FC
330
18
100
AcDbEntity
  8
破線
100
AcDbLine
 10
367.4562163617585
 20
257.8527994879973
 30
0.0
 11
367.4562163617585
 21
367.8527994879973
 31
0.0
  0
CIRCLE
  5
1B3FD
330
18
100
AcDbEntity
  8
0
100
AcDbCircle
 10
701.8240582019663
 20
312.8527994879977
 30
0.0
 40
32.49999999999997
  0
CIRCLE
  5
1B3FE
330
18
100
AcDbEntity
  8
0
100
AcDbCircle
 10
701.8240582019663
 20
312.8527994879977
 30
0.0
 40
34.39999999999997
  0
CIRCLE
  5
1B3FF
330
18
100
AcDbEntity
  8
0
100
AcDbCircle
 10
701.8240582019663
 20
312.8527994879977
 30
0.0
 40
74.19999999999993
  0
CIRCLE
  5
1B400
330
18
100
AcDbEntity
  8
0
100
AcDbCircle
 10
701.8240582019663
 20
312.8527994879977
 30
0.0
 40
77.99996316897041
  0
VIEWPORT
  5
23
330
15
100
AcDbEntity
 67
     1
  8
0
100
AcDbViewport
 10
199.9889281875944
 20
144.0004870783306
 30
0.0
 40
443.6724801469767
 41
290.3770052789183
 68
     1
 69
     1
1001
ACAD
1000
MVIEW
1002
{
1070
    16
1010
0.0
1020
0.0
1030
0.0
1010
0.0
1020
0.0
1030
1.0
1040
0.0
1040
290.3770052789183
1040
199.9889281875944
1040
144.0004870783306
1040
50.0
1040
0.0
1040
0.0
1070
     0
1070
   100
1070
     1
1070
     0
1070
     0
1070
     0
1070
     0
1070
     0
1040
0.0
1040
0.0
1040
0.0
1040
10.0
1040
10.0
1040
10.0
1040
10.0
1070
     0
1002
{
1002
}
1002
}
  0
VIEWPORT
  5
2E
330
15
100
AcDbEntity
 67
     1
  8
M_VIEW
100
AcDbViewport
 10
200.0
 20
144.0
 30
0.0
 40
400.0
 41
288.0
 68
     2
 69
     2
1001
ACAD
1000
MVIEW
1002
{
1070
    16
1010
0.0
1020
0.0
1030
0.0
1010
0.0
1020
0.0
1030
1.0
1040
0.0
1040
575.999998701908
1040
439.2304626672541
1040
279.817190765897
1040
50.0
1040
0.0
1040
0.0
1070
     0
1070
   100
1070
     1
1070
     0
1070
     0
1070
     0
1070
     0
1070
     0
1040
0.0
1040
0.0
1040
0.0
1040
10.0
1040
10.0
1040
10.0
1040
10.0
1070
     0
1002
{
1002
}
1002
}
  0
INSERT
  5
115F
330
15
100
AcDbEntity
 67
     1
  8
FRAME025
100
AcDbBlockReference
  2
機械A4横_LBP
 10
82.74908858651452
 20
152.030959079227
 30
0.0
  0
TEXT
  5
AA6A
330
15
100
AcDbEntity
 67
     1
  8
文字
  6
BYBLOCK
 62
     0
100
AcDbText
 10
32.81885892396519
 20
73.01882819621747
 30
0.0
 40
3.2
  1

 50
90.0
 41
0.625
  7
MSｺ_ｼｯｸ
100
AcDbText
  0
TEXT
  5
AA6C
330
15
100
AcDbEntity
 67
     1
  8
文字
  6
BYBLOCK
 62
     0
100
AcDbText
 10
37.25020936743055
 20
73.01882819621747
 30
0.0
 40
3.2
  1

 50
90.0
 41
0.625
  7
MSｺ_ｼｯｸ
100
AcDbText
  0
TEXT
  5
FCA5
330
15
100
AcDbEntity
 67
     1
  8
FRAME020
  6
CONTINUOUS
100
AcDbText
 10
126.6213117262079
 20
29.63926951973459
 30
0.0
 40
2.5
  1

 41
0.625
  7
MSｺ_ｼｯｸ
100
AcDbText
  0
TEXT
  5
12229
330
15
100
AcDbEntity
 67
     1
  8
0
100
AcDbText
 10
324.703280378293
 20
10.63168299257869
 30
0.0
 40
6.0
  1
ＳＥ－４２１４１
 41
1.1
100
AcDbText
  0
MTEXT
  5
1B3D6
330
15
100
AcDbEntity
 67
     1
  8
0
100
AcDbMText
 10
223.473418572605
 20
26.12805528203319
 30
0.0
 40
6.0
 41
169.6833960740089
 71
     1
 72
     5
  1
{\Fisocp.shx,extfont.shx;τDISCﾓｰﾀ D250-100-LP NMR-FTFBA2C-122AP}
1001
ACAD
1000
MTEXTBEGIN
1070
    73
1070
     1
1070
    44
1040
1.0
1070
    74
1070
     0
1000
MTEXTEND
  0
ENDSEC
  0
SECTION
  2
OBJECTS
  0
DICTIONARY
  5
C
330
0
100
AcDbDictionary
  3
ACAD_GROUP
350
D
  3
ACAD_LAYOUT
350
DB2
  3
ACAD_MLINESTYLE
350
1B
  3
ACAD_PLOTSETTINGS
350
DB3
  3
ACAD_PLOTSTYLENAME
350
FB5B
  3
ACADDIM
350
1B381
  3
ACDBHEADERROUNDTRIPXREC
350
1B449
  3
ACDBVARIABLEDICTIONARY
350
106A6
  3
DWGPROPS
350
15EC9
1001
ACAD
1000
TREAT_AS_HARD
1070
     0
  0
DICTIONARY
  5
1B2F8
330
2
100
AcDbDictionary
280
     1
  3
ACAD_LAYERFILTERS
360
1B2F9
  3
ACAD_LAYERSTATES
360
1B305
  0
DICTIONARY
  5
EFC6
330
18
100
AcDbDictionary
280
     1
  3
ACAD_LAYOUTSELFREF
360
1B46B
  0
DICTIONARY
  5
EFC4
330
15
100
AcDbDictionary
280
     1
  3
ACAD_LAYOUTSELFREF
360
1B46A
  0
DICTIONARY
  5
D
102
{ACAD_REACTORS
330
C
102
}
330
C
100
AcDbDictionary
  3
*A1
350
AC8A
  3
*A10
350
1A2D3
  3
*A11
350
16058
  3
*A12
350
18122
  3
*A13
350
1A0FB
  3
*A14
350
18121
  3
*A15
350
16F49
  3
*A16
350
1621E
  3
*A17
350
1AE6D
  3
*A18
350
185B2
  3
*A19
350
18CB7
  3
*A2
350
185B3
  3
*A20
350
FC9A
  3
*A21
350
FC95
  3
*A22
350
171B1
  3
*A23
350
1A0F8
  3
*A24
350
1AE6E
  3
*A25
350
18B6E
  3
*A26
350
1606A
  3
*A27
350
FB6C
  3
*A28
350
FBFF
  3
*A29
350
18D1A
  3
*A3
350
1A295
  3
*A30
350
1AE6F
  3
*A31
350
18B8D
  3
*A32
350
16B69
  3
*A33
350
ACBD
  3
*A34
350
16068
  3
*A35
350
18EC8
  3
*A36
350
1943F
  3
*A37
350
1629A
  3
*A38
350
16B68
  3
*A39
350
18B75
  3
*A4
350
106B3
  3
*A40
350
ACAB
  3
*A41
350
ACA2
  3
*A42
350
18D1B
  3
*A43
350
ACA1
  3
*A44
350
1606B
  3
*A45
350
18518
  3
*A46
350
18EF6
  3
*A47
350
18EC9
  3
*A48
350
AC9A
  3
*A49
350
18E0B
  3
*A5
350
18C1A
  3
*A50
350
18ECA
  3
*A51
350
FCB8
  3
*A52
350
ACB4
  3
*A53
350
160D1
  3
*A54
350
FC9B
  3
*A55
350
1943E
  3
*A56
350
18B72
  3
*A57
350
18515
  3
*A58
350
170B6
  3
*A59
350
16F4A
  3
*A6
350
106A5
  3
*A60
350
16069
  3
*A61
350
19862
  3
*A62
350
1629C
  3
*A63
350
106C7
  3
*A64
350
16059
  3
*A65
350
FC91
  3
*A66
350
18516
  3
*A67
350
FB6B
  3
*A68
350
199B8
  3
*A69
350
18624
  3
*A7
350
18B71
  3
*A70
350
18517
  3
*A71
350
106C6
  3
*A72
350
18625
  3
*A73
350
18125
  3
*A74
350
18B74
  3
*A75
350
1A0F7
  3
*A76
350
1AE47
  3
*A77
350
1A294
  3
*A78
350
1AE59
  3
*A79
350
1A2D2
  3
*A8
350
1AE6B
  3
*A80
350
1AE50
  3
*A81
350
1AE62
  3
*A9
350
1AE6C
1001
ACAD
1000
TREAT_AS_HARD
1070
     0
  0
DICTIONARY
  5
DB2
102
{ACAD_REACTORS
330
C
102
}
330
C
100
AcDbDictionary
1001
ACAD
1000
TREAT_AS_HARD
1070
     0
  0
DICTIONARY
  5
1B
102
{ACAD_REACTORS
330
C
102
}
330
C
100
AcDbDictionary
  3
STANDARD
350
1C
1001
ACAD
1000
TREAT_AS_HARD
1070
     0
  0
DICTIONARY
  5
DB3
102
{ACAD_REACTORS
330
C
102
}
330
C
100
AcDbDictionary
1001
ACAD
1000
TREAT_AS_HARD
1070
     0
  0
ACDBDICTIONARYWDFLT
  5
FB5B
102
{ACAD_REACTORS
330
C
102
}
330
C
100
AcDbDictionary
281
     1
  3
Normal
350
FB5C
100
AcDbDictionaryWithDefault
340
FB5C
  0
XRECORD
  5
1B381
102
{ACAD_REACTORS
330
C
102
}
330
C
100
AcDbXrecord
 90
   990106
  3

 60
     0
 61
     0
 62
     4
 63
     4
 64
     1
 65
     0
 66
     0
 67
     3
 68
     1
 69
     0
 70
     0
 71
     0
 72
     0
 40
0.0
170
     2
340
1B383
  0
DICTIONARY
  5
1B449
102
{ACAD_REACTORS
330
C
102
}
330
C
100
AcDbDictionary
  3
CEPSNTYPE
350
1B453
  3
DIMSTYLEDATA
350
1B457
  3
FINGERPRINTGUID
350
1B454
  3
HYPERLINKBASE
350
1B44C
  3
INSUNITS
350
1B452
  3
LAYOUTDICT
350
1B44E
  3
LWETCUNION
350
1B451
  3
PLOTSETDICT
350
1B44F
  3
PLOTSTYLNAMDICT
350
1B450
  3
PSVPSCALE
350
1B456
  3
PUCSBASE
350
1B45A
  3
PUCSORGBACK
350
1B460
  3
PUCSORGBOTTOM
350
1B45C
  3
PUCSORGFRONT
350
1B45F
  3
PUCSORGLEFT
350
1B45D
  3
PUCSORGRIGHT
350
1B45E
  3
PUCSORGTOP
350
1B45B
  3
PUCSORTHOREF
350
1B458
  3
PUCSORTHOVIEW
350
1B459
  3
STYLESHEET
350
1B44D
  3
TSTACKALIGN
350
1B44A
  3
TSTACKSIZE
350
1B44B
  3
UCSBASE
350
1B463
  3
UCSORGBACK
350
1B469
  3
UCSORGBOTTOM
350
1B465
  3
UCSORGFRONT
350
1B468
  3
UCSORGLEFT
350
1B466
  3
UCSORGRIGHT
350
1B467
  3
UCSORGTOP
350
1B464
  3
UCSORTHOREF
350
1B461
  3
UCSORTHOVIEW
350
1B462
  3
VERSIONGUID
350
1B455
  0
DICTIONARY
  5
106A6
102
{ACAD_REACTORS
330
C
102
}
330
C
100
AcDbDictionary
  3
SORTENTS
350
106A7
  0
XRECORD
  5
15EC9
102
{ACAD_REACTORS
330
C
102
}
330
C
100
AcDbXrecord
  1
DWGPROPS COOKIE
  2

  3

  4

  6

  7

  8

  9

300
=
301
=
302
=
303
=
304
=
305
=
306
=
307
=
308
=
309
=
 40
12.65185717592592
 41
2451224.660162384
 42
2452395.660827315
  1

 90
        0
  0
DICTIONARY
  5
1B2F9
102
{ACAD_REACTORS
330
1B2F8
102
}
330
1B2F8
100
AcDbDictionary
280
     1
  3
0
360
1B2FA
  3
11
360
1B2FB
  3
150_
360
1B2FC
  3
160_
360
1B2FD
  3
170_
360
1B2FE
  3
171_
360
1B2FF
  3
350_
360
1B300
  3
4
360
1B301
  3
5
360
1B302
  3
7
360
1B303
  3
KISEKI
360
1B304
  0
DICTIONARY
  5
1B305
102
{ACAD_REACTORS
330
1B2F8
102
}
330
1B2F8
100
AcDbDictionary
  0
XRECORD
  5
1B46B
102
{ACAD_REACTORS
330
EFC6
102
}
330
EFC6
100
AcDbXrecord
340
18
  0
XRECORD
  5
1B46A
102
{ACAD_REACTORS
330
EFC4
102
}
330
EFC4
100
AcDbXrecord
340
15
  0
GROUP
  5
AC8A
102
{ACAD_REACTORS
330
D
102
}
330
D
100
AcDbGroup
300

 70
     1
 71
     1
  0
GROUP
  5
1A2D3
102
{ACAD_REACTORS
330
D
102
}
330
D
100
AcDbGroup
300

 70
     1
 71
     1
  0
GROUP
  5
16058
102
{ACAD_REACTORS
330
D
102
}
330
D
100
AcDbGroup
300

 70
     1
 71
     1
  0
GROUP
  5
18122
102
{ACAD_REACTORS
330
D
102
}
330
D
100
AcDbGroup
300

 70
     1
 71
     1
  0
GROUP
  5
1A0FB
102
{ACAD_REACTORS
330
D
102
}
330
D
100
AcDbGroup
300

 70
     1
 71
     1
  0
GROUP
  5
18121
102
{ACAD_REACTORS
330
D
102
}
330
D
100
AcDbGroup
300

 70
     1
 71
     1
  0
GROUP
  5
16F49
102
{ACAD_REACTORS
330
D
102
}
330
D
100
AcDbGroup
300

 70
     1
 71
     1
  0
GROUP
  5
1621E
102
{ACAD_REACTORS
330
D
102
}
330
D
100
AcDbGroup
300

 70
     1
 71
     1
  0
GROUP
  5
1AE6D
102
{ACAD_REACTORS
330
D
102
}
330
D
100
AcDbGroup
300

 70
     1
 71
     1
  0
GROUP
  5
185B2
102
{ACAD_REACTORS
330
D
102
}
330
D
100
AcDbGroup
300

 70
     1
 71
     1
  0
GROUP
  5
18CB7
102
{ACAD_REACTORS
330
D
102
}
330
D
100
AcDbGroup
300

 70
     1
 71
     1
  0
GROUP
  5
185B3
102
{ACAD_REACTORS
330
D
102
}
330
D
100
AcDbGroup
300

 70
     1
 71
     1
  0
GROUP
  5
FC9A
102
{ACAD_REACTORS
330
D
102
}
330
D
100
AcDbGroup
300

 70
     1
 71
     1
  0
GROUP
  5
FC95
102
{ACAD_REACTORS
330
D
102
}
330
D
100
AcDbGroup
300

 70
     1
 71
     1
  0
GROUP
  5
171B1
102
{ACAD_REACTORS
330
D
102
}
330
D
100
AcDbGroup
300

 70
     1
 71
     1
  0
GROUP
  5
1A0F8
102
{ACAD_REACTORS
330
D
102
}
330
D
100
AcDbGroup
300

 70
     1
 71
     1
  0
GROUP
  5
1AE6E
102
{ACAD_REACTORS
330
D
102
}
330
D
100
AcDbGroup
300

 70
     1
 71
     1
  0
GROUP
  5
18B6E
102
{ACAD_REACTORS
330
D
102
}
330
D
100
AcDbGroup
300

 70
     1
 71
     1
  0
GROUP
  5
1606A
102
{ACAD_REACTORS
330
D
102
}
330
D
100
AcDbGroup
300

 70
     1
 71
     1
  0
GROUP
  5
FB6C
102
{ACAD_REACTORS
330
D
102
}
330
D
100
AcDbGroup
300

 70
     1
 71
     1
  0
GROUP
  5
FBFF
102
{ACAD_REACTORS
330
D
102
}
330
D
100
AcDbGroup
300

 70
     1
 71
     1
  0
GROUP
  5
18D1A
102
{ACAD_REACTORS
330
D
102
}
330
D
100
AcDbGroup
300

 70
     1
 71
     1
  0
GROUP
  5
1A295
102
{ACAD_REACTORS
330
D
102
}
330
D
100
AcDbGroup
300

 70
     1
 71
     1
340
1A23C
340
1A256
340
1A23B
340
1A1DF
340
1A1DE
340
1A238
340
1A1DD
340
1A242
340
1A1DC
340
1A21D
340
1A220
340
1A21F
340
1A1DB
340
1A21E
340
1A241
340
1A240
340
1A23F
340
1A23E
340
1A23D
340
1A255
340
1A254
340
1A253
340
1A237
340
1A25C
340
1A25B
340
1A25A
340
1A259
340
1A258
340
1A257
340
1A23A
  0
GROUP
  5
1AE6F
102
{ACAD_REACTORS
330
D
102
}
330
D
100
AcDbGroup
300

 70
     1
 71
     1
  0
GROUP
  5
18B8D
102
{ACAD_REACTORS
330
D
102
}
330
D
100
AcDbGroup
300

 70
     1
 71
     1
  0
GROUP
  5
16B69
102
{ACAD_REACTORS
330
D
102
}
330
D
100
AcDbGroup
300

 70
     1
 71
     1
  0
GROUP
  5
ACBD
102
{ACAD_REACTORS
330
D
102
}
330
D
100
AcDbGroup
300

 70
     1
 71
     1
  0
GROUP
  5
16068
102
{ACAD_REACTORS
330
D
102
}
330
D
100
AcDbGroup
300

 70
     1
 71
     1
  0
GROUP
  5
18EC8
102
{ACAD_REACTORS
330
D
102
}
330
D
100
AcDbGroup
300

 70
     1
 71
     1
  0
GROUP
  5
1943F
102
{ACAD_REACTORS
330
D
102
}
330
D
100
AcDbGroup
300

 70
     1
 71
     1
  0
GROUP
  5
1629A
102
{ACAD_REACTORS
330
D
102
}
330
D
100
AcDbGroup
300

 70
     1
 71
     1
  0
GROUP
  5
16B68
102
{ACAD_REACTORS
330
D
102
}
330
D
100
AcDbGroup
300

 70
     1
 71
     1
  0
GROUP
  5
18B75
102
{ACAD_REACTORS
330
D
102
}
330
D
100
AcDbGroup
300

 70
     1
 71
     1
  0
GROUP
  5
106B3
102
{ACAD_REACTORS
330
D
102
}
330
D
100
AcDbGroup
300

 70
     1
 71
     1
  0
GROUP
  5
ACAB
102
{ACAD_REACTORS
330
D
102
}
330
D
100
AcDbGroup
300

 70
     1
 71
     1
  0
GROUP
  5
ACA2
102
{ACAD_REACTORS
330
D
102
}
330
D
100
AcDbGroup
300

 70
     1
 71
     1
  0
GROUP
  5
18D1B
102
{ACAD_REACTORS
330
D
102
}
330
D
100
AcDbGroup
300

 70
     1
 71
     1
  0
GROUP
  5
ACA1
102
{ACAD_REACTORS
330
D
102
}
330
D
100
AcDbGroup
300

 70
     1
 71
     1
  0
GROUP
  5
1606B
102
{ACAD_REACTORS
330
D
102
}
330
D
100
AcDbGroup
300

 70
     1
 71
     1
  0
GROUP
  5
18518
102
{ACAD_REACTORS
330
D
102
}
330
D
100
AcDbGroup
300

 70
     1
 71
     1
  0
GROUP
  5
18EF6
102
{ACAD_REACTORS
330
D
102
}
330
D
100
AcDbGroup
300

 70
     1
 71
     1
  0
GROUP
  5
18EC9
102
{ACAD_REACTORS
330
D
102
}
330
D
100
AcDbGroup
300

 70
     1
 71
     1
340
18EB8
340
18EB3
340
18EA1
340
18EA0
340
18EB7
340
18EB2
340
18EB6
340
18EB9
340
18E9D
340
18E9C
340
18EB1
340
18EA8
340
18EA6
340
18E9F
340
18EBA
340
18EB5
340
18EB4
340
18EAD
340
18EAA
340
18EA9
340
18EA5
340
18EA4
340
18EA3
340
18EA2
340
18EA7
340
18EAF
340
18EBB
340
18EAE
340
18EAC
340
18EAB
340
18E9E
340
18EB0
  0
GROUP
  5
AC9A
102
{ACAD_REACTORS
330
D
102
}
330
D
100
AcDbGroup
300

 70
     1
 71
     1
  0
GROUP
  5
18E0B
102
{ACAD_REACTORS
330
D
102
}
330
D
100
AcDbGroup
300

 70
     1
 71
     1
  0
GROUP
  5
18C1A
102
{ACAD_REACTORS
330
D
102
}
330
D
100
AcDbGroup
300

 70
     1
 71
     1
  0
GROUP
  5
18ECA
102
{ACAD_REACTORS
330
D
102
}
330
D
100
AcDbGroup
300

 70
     1
 71
     1
  0
GROUP
  5
FCB8
102
{ACAD_REACTORS
330
D
102
}
330
D
100
AcDbGroup
300

 70
     1
 71
     1
  0
GROUP
  5
ACB4
102
{ACAD_REACTORS
330
D
102
}
330
D
100
AcDbGroup
300

 70
     1
 71
     1
  0
GROUP
  5
160D1
102
{ACAD_REACTORS
330
D
102
}
330
D
100
AcDbGroup
300

 70
     1
 71
     1
  0
GROUP
  5
FC9B
102
{ACAD_REACTORS
330
D
102
}
330
D
100
AcDbGroup
300

 70
     1
 71
     1
  0
GROUP
  5
1943E
102
{ACAD_REACTORS
330
D
102
}
330
D
100
AcDbGroup
300

 70
     1
 71
     1
  0
GROUP
  5
18B72
102
{ACAD_REACTORS
330
D
102
}
330
D
100
AcDbGroup
300

 70
     1
 71
     1
  0
GROUP
  5
18515
102
{ACAD_REACTORS
330
D
102
}
330
D
100
AcDbGroup
300

 70
     1
 71
     1
  0
GROUP
  5
170B6
102
{ACAD_REACTORS
330
D
102
}
330
D
100
AcDbGroup
300

 70
     1
 71
     1
  0
GROUP
  5
16F4A
102
{ACAD_REACTORS
330
D
102
}
330
D
100
AcDbGroup
300

 70
     1
 71
     1
  0
GROUP
  5
106A5
102
{ACAD_REACTORS
330
D
102
}
330
D
100
AcDbGroup
300

 70
     1
 71
     1
  0
GROUP
  5
16069
102
{ACAD_REACTORS
330
D
102
}
330
D
100
AcDbGroup
300

 70
     1
 71
     1
  0
GROUP
  5
19862
102
{ACAD_REACTORS
330
D
102
}
330
D
100
AcDbGroup
300

 70
     1
 71
     1
  0
GROUP
  5
1629C
102
{ACAD_REACTORS
330
D
102
}
330
D
100
AcDbGroup
300

 70
     1
 71
     1
  0
GROUP
  5
106C7
102
{ACAD_REACTORS
330
D
102
}
330
D
100
AcDbGroup
300

 70
     1
 71
     1
  0
GROUP
  5
16059
102
{ACAD_REACTORS
330
D
102
}
330
D
100
AcDbGroup
300

 70
     1
 71
     1
  0
GROUP
  5
FC91
102
{ACAD_REACTORS
330
D
102
}
330
D
100
AcDbGroup
300

 70
     1
 71
     1
  0
GROUP
  5
18516
102
{ACAD_REACTORS
330
D
102
}
330
D
100
AcDbGroup
300

 70
     1
 71
     1
  0
GROUP
  5
FB6B
102
{ACAD_REACTORS
330
D
102
}
330
D
100
AcDbGroup
300

 70
     1
 71
     1
  0
GROUP
  5
199B8
102
{ACAD_REACTORS
330
D
102
}
330
D
100
AcDbGroup
300

 70
     1
 71
     1
  0
GROUP
  5
18624
102
{ACAD_REACTORS
330
D
102
}
330
D
100
AcDbGroup
300

 70
     1
 71
     1
  0
GROUP
  5
18B71
102
{ACAD_REACTORS
330
D
102
}
330
D
100
AcDbGroup
300

 70
     1
 71
     1
  0
GROUP
  5
18517
102
{ACAD_REACTORS
330
D
102
}
330
D
100
AcDbGroup
300

 70
     1
 71
     1
  0
GROUP
  5
106C6
102
{ACAD_REACTORS
330
D
102
}
330
D
100
AcDbGroup
300

 70
     1
 71
     1
  0
GROUP
  5
18625
102
{ACAD_REACTORS
330
D
102
}
330
D
100
AcDbGroup
300

 70
     1
 71
     1
  0
GROUP
  5
18125
102
{ACAD_REACTORS
330
D
102
}
330
D
100
AcDbGroup
300

 70
     1
 71
     1
  0
GROUP
  5
18B74
102
{ACAD_REACTORS
330
D
102
}
330
D
100
AcDbGroup
300

 70
     1
 71
     1
  0
GROUP
  5
1A0F7
102
{ACAD_REACTORS
330
D
102
}
330
D
100
AcDbGroup
300

 70
     1
 71
     1
  0
GROUP
  5
1AE47
102
{ACAD_REACTORS
330
D
102
}
330
D
100
AcDbGroup
300

 70
     1
 71
     1
340
1A7DC
340
1A7E3
340
1A7E2
340
1A7E1
340
1A7E0
340
1A7DF
340
1A7DE
340
1A7DD
  0
GROUP
  5
1A294
102
{ACAD_REACTORS
330
D
102
}
330
D
100
AcDbGroup
300

 70
     1
 71
     1
340
1A109
340
1A108
340
1A167
340
1A170
340
1A166
340
1A146
340
1A168
340
1A172
340
1A16E
340
1A143
340
1A16B
340
1A107
340
1A106
340
1A105
340
1A144
340
1A145
340
1A169
340
1A16A
340
1A16D
340
1A16C
340
1A16F
340
1A171
340
1A18A
340
1A185
340
1A184
340
1A186
340
1A187
340
1A189
340
1A165
340
1A188
  0
GROUP
  5
1AE59
102
{ACAD_REACTORS
330
D
102
}
330
D
100
AcDbGroup
300

 70
     1
 71
     1
340
1AE51
340
1AE52
340
1AE53
340
1AE54
340
1AE55
340
1AE56
340
1AE57
340
1AE58
  0
GROUP
  5
1A2D2
102
{ACAD_REACTORS
330
D
102
}
330
D
100
AcDbGroup
300

 70
     1
 71
     1
  0
GROUP
  5
1AE6B
102
{ACAD_REACTORS
330
D
102
}
330
D
100
AcDbGroup
300

 70
     1
 71
     1
340
1AE63
340
1AE64
340
1AE65
340
1AE66
340
1AE67
340
1AE68
340
1AE69
340
1AE6A
  0
GROUP
  5
1AE50
102
{ACAD_REACTORS
330
D
102
}
330
D
100
AcDbGroup
300

 70
     1
 71
     1
340
1AE48
340
1AE49
340
1AE4A
340
1AE4B
340
1AE4C
340
1AE4D
340
1AE4E
340
1AE4F
  0
GROUP
  5
1AE62
102
{ACAD_REACTORS
330
D
102
}
330
D
100
AcDbGroup
300

 70
     1
 71
     1
340
1AE5A
340
1AE5B
340
1AE5C
340
1AE5D
340
1AE5E
340
1AE5F
340
1AE60
340
1AE61
  0
GROUP
  5
1AE6C
102
{ACAD_REACTORS
330
D
102
}
330
D
100
AcDbGroup
300

 70
     1
 71
     1
  0
MLINESTYLE
  5
1C
102
{ACAD_REACTORS
330
1B
102
}
330
1B
100
AcDbMlineStyle
  2
STANDARD
 70
     0
  3

 62
   256
 51
90.0
 52
90.0
 71
     2
 49
0.5
 62
   256
  6
BYLAYER
 49
-0.5
 62
   256
  6
BYLAYER
  0
ACDBPLACEHOLDER
  5
FB5C
102
{ACAD_REACTORS
330
FB5B
102
}
330
FB5B
100
AcDbPlaceHolder
280
     0
  0
XRECORD
  5
1B453
102
{ACAD_REACTORS
330
1B449
102
}
330
1B449
100
AcDbXrecord
 90
        0
  0
XRECORD
  5
1B457
102
{ACAD_REACTORS
330
1B449
102
}
330
1B449
100
AcDbXrecord
1000
DSTYLE
1002
{
1070
    79
 70
     2
1070
   179
 70
     2
1070
   279
 70
     2
1070
   341
340
1215D
1070
   342
340
1215D
1002
}
  0
XRECORD
  5
1B454
102
{ACAD_REACTORS
330
1B449
102
}
330
1B449
100
AcDbXrecord
  1
{D14EE3FF-941A-415A-9907-344E0A80D794}
  0
XRECORD
  5
1B44C
102
{ACAD_REACTORS
330
1B449
102
}
330
1B449
100
AcDbXrecord
  1

  0
XRECORD
  5
1B452
102
{ACAD_REACTORS
330
1B449
102
}
330
1B449
100
AcDbXrecord
 90
        0
  0
XRECORD
  5
1B44E
102
{ACAD_REACTORS
330
1B449
102
}
330
1B449
100
AcDbXrecord
340
DB2
  0
XRECORD
  5
1B451
102
{ACAD_REACTORS
330
1B449
102
}
330
1B449
100
AcDbXrecord
 90
    10269
  0
XRECORD
  5
1B44F
102
{ACAD_REACTORS
330
1B449
102
}
330
1B449
100
AcDbXrecord
340
DB3
  0
XRECORD
  5
1B450
102
{ACAD_REACTORS
330
1B449
102
}
330
1B449
100
AcDbXrecord
340
FB5B
  0
XRECORD
  5
1B456
102
{ACAD_REACTORS
330
1B449
102
}
330
1B449
100
AcDbXrecord
 40
0.0
  0
XRECORD
  5
1B45A
102
{ACAD_REACTORS
330
1B449
102
}
330
1B449
100
AcDbXrecord
340
0
  0
XRECORD
  5
1B460
102
{ACAD_REACTORS
330
1B449
102
}
330
1B449
100
AcDbXrecord
 10
0.0
 20
0.0
 30
0.0
  0
XRECORD
  5
1B45C
102
{ACAD_REACTORS
330
1B449
102
}
330
1B449
100
AcDbXrecord
 10
0.0
 20
0.0
 30
0.0
  0
XRECORD
  5
1B45F
102
{ACAD_REACTORS
330
1B449
102
}
330
1B449
100
AcDbXrecord
 10
0.0
 20
0.0
 30
0.0
  0
XRECORD
  5
1B45D
102
{ACAD_REACTORS
330
1B449
102
}
330
1B449
100
AcDbXrecord
 10
0.0
 20
0.0
 30
0.0
  0
XRECORD
  5
1B45E
102
{ACAD_REACTORS
330
1B449
102
}
330
1B449
100
AcDbXrecord
 10
0.0
 20
0.0
 30
0.0
  0
XRECORD
  5
1B45B
102
{ACAD_REACTORS
330
1B449
102
}
330
1B449
100
AcDbXrecord
 10
0.0
 20
0.0
 30
0.0
  0
XRECORD
  5
1B458
102
{ACAD_REACTORS
330
1B449
102
}
330
1B449
100
AcDbXrecord
340
0
  0
XRECORD
  5
1B459
102
{ACAD_REACTORS
330
1B449
102
}
330
1B449
100
AcDbXrecord
 70
     0
  0
XRECORD
  5
1B44D
102
{ACAD_REACTORS
330
1B449
102
}
330
1B449
100
AcDbXrecord
  1

  0
XRECORD
  5
1B44A
102
{ACAD_REACTORS
330
1B449
102
}
330
1B449
100
AcDbXrecord
 90
        1
  0
XRECORD
  5
1B44B
102
{ACAD_REACTORS
330
1B449
102
}
330
1B449
100
AcDbXrecord
 90
       70
  0
XRECORD
  5
1B463
102
{ACAD_REACTORS
330
1B449
102
}
330
1B449
100
AcDbXrecord
340
0
  0
XRECORD
  5
1B469
102
{ACAD_REACTORS
330
1B449
102
}
330
1B449
100
AcDbXrecord
 10
0.0
 20
0.0
 30
0.0
  0
XRECORD
  5
1B465
102
{ACAD_REACTORS
330
1B449
102
}
330
1B449
100
AcDbXrecord
 10
0.0
 20
0.0
 30
0.0
  0
XRECORD
  5
1B468
102
{ACAD_REACTORS
330
1B449
102
}
330
1B449
100
AcDbXrecord
 10
0.0
 20
0.0
 30
0.0
  0
XRECORD
  5
1B466
102
{ACAD_REACTORS
330
1B449
102
}
330
1B449
100
AcDbXrecord
 10
0.0
 20
0.0
 30
0.0
  0
XRECORD
  5
1B467
102
{ACAD_REACTORS
330
1B449
102
}
330
1B449
100
AcDbXrecord
 10
0.0
 20
0.0
 30
0.0
  0
XRECORD
  5
1B464
102
{ACAD_REACTORS
330
1B449
102
}
330
1B449
100
AcDbXrecord
 10
0.0
 20
0.0
 30
0.0
  0
XRECORD
  5
1B461
102
{ACAD_REACTORS
330
1B449
102
}
330
1B449
100
AcDbXrecord
340
0
  0
XRECORD
  5
1B462
102
{ACAD_REACTORS
330
1B449
102
}
330
1B449
100
AcDbXrecord
 70
     0
  0
XRECORD
  5
1B455
102
{ACAD_REACTORS
330
1B449
102
}
330
1B449
100
AcDbXrecord
  1
{BF614399-957C-4B96-AC39-92CB751F7C23}
  0
DICTIONARYVAR
  5
106A7
102
{ACAD_REACTORS
330
106A6
102
}
330
106A6
100
DictionaryVariables
280
     0
  1
96
  0
XRECORD
  5
1B2FA
102
{ACAD_REACTORS
330
1B2F9
102
}
330
1B2F9
100
AcDbXrecord
  1
0
  1
*0
  1
*
  1
*
 70
     0
  1
*
  1
*
  0
XRECORD
  5
1B2FB
102
{ACAD_REACTORS
330
1B2F9
102
}
330
1B2F9
100
AcDbXrecord
  1
11
  1
*11
  1
*
  1
*
 70
     0
  1
*
  1
*
  0
XRECORD
  5
1B2FC
102
{ACAD_REACTORS
330
1B2F9
102
}
330
1B2F9
100
AcDbXrecord
  1
150_
  1
150_*
  1
*
  1
*
 70
     0
  1
*
  1
*
  0
XRECORD
  5
1B2FD
102
{ACAD_REACTORS
330
1B2F9
102
}
330
1B2F9
100
AcDbXrecord
  1
160_
  1
160_*
  1
*
  1
*
 70
     0
  1
*
  1
*
  0
XRECORD
  5
1B2FE
102
{ACAD_REACTORS
330
1B2F9
102
}
330
1B2F9
100
AcDbXrecord
  1
170_
  1
170_*
  1
*
  1
*
 70
     0
  1
*
  1
*
  0
XRECORD
  5
1B2FF
102
{ACAD_REACTORS
330
1B2F9
102
}
330
1B2F9
100
AcDbXrecord
  1
171_
  1
171_*
  1
*
  1
*
 70
     0
  1
*
  1
*
  0
XRECORD
  5
1B300
102
{ACAD_REACTORS
330
1B2F9
102
}
330
1B2F9
100
AcDbXrecord
  1
350_
  1
350_*
  1
*
  1
*
 70
     0
  1
*
  1
*
  0
XRECORD
  5
1B301
102
{ACAD_REACTORS
330
1B2F9
102
}
330
1B2F9
100
AcDbXrecord
  1
4
  1
*4
  1
*
  1
*
 70
     0
  1
*
  1
*
  0
XRECORD
  5
1B302
102
{ACAD_REACTORS
330
1B2F9
102
}
330
1B2F9
100
AcDbXrecord
  1
5
  1
*5
  1
*
  1
*
 70
     0
  1
*
  1
*
  0
XRECORD
  5
1B303
102
{ACAD_REACTORS
330
1B2F9
102
}
330
1B2F9
100
AcDbXrecord
  1
7
  1
*7
  1
*
  1
*
 70
     0
  1
*
  1
*
  0
XRECORD
  5
1B304
102
{ACAD_REACTORS
330
1B2F9
102
}
330
1B2F9
100
AcDbXrecord
  1
kiseki
  1
kiseki*
  1
*
  1
*
 70
     0
  1
*
  1
*
  0
ENDSEC
  0
EOF
