  0
SECTION
  2
HEADER
  9
$ACADVER
  1
AC1015
  9
$ACADMAINTVER
 70
    10
  9
$DWGCODEPAGE
  3
ANSI_932
  9
$INSBASE
 10
0.0
 20
0.0
 30
0.0
  9
$EXTMIN
 10
-3065.539689507407
 20
-433.286782545898
 30
0.0
  9
$EXTMAX
 10
-2794.164502353632
 20
-272.8814921155998
 30
0.0
  9
$LIMMIN
 10
0.0
 20
0.0
  9
$LIMMAX
 10
420.0
 20
297.0
  9
$ORTHOMODE
 70
     1
  9
$REGENMODE
 70
     1
  9
$FILLMODE
 70
     1
  9
$QTEXTMODE
 70
     0
  9
$MIRRTEXT
 70
     0
  9
$LTSCALE
 40
20.0
  9
$ATTMODE
 70
     2
  9
$TEXTSIZE
 40
10.0
  9
$TRACEWID
 40
1.0
  9
$TEXTSTYLE
  7
ｽﾀｲﾙ3
  9
$CLAYER
  8
文字
  9
$CELTYPE
  6
BYLAYER
  9
$CECOLOR
 62
   256
  9
$CELTSCALE
 40
1.0
  9
$DISPSILH
 70
     0
  9
$DIMSCALE
 40
1.0
  9
$DIMASZ
 40
2.5
  9
$DIMEXO
 40
0.8
  9
$DIMDLI
 40
0.38
  9
$DIMRND
 40
0.0
  9
$DIMDLE
 40
0.0
  9
$DIMEXE
 40
0.18
  9
$DIMTP
 40
0.0
  9
$DIMTM
 40
0.0
  9
$DIMTXT
 40
3.0
  9
$DIMCEN
 40
0.0
  9
$DIMTSZ
 40
0.0
  9
$DIMTOL
 70
     0
  9
$DIMLIM
 70
     0
  9
$DIMTIH
 70
     0
  9
$DIMTOH
 70
     0
  9
$DIMSE1
 70
     0
  9
$DIMSE2
 70
     0
  9
$DIMTAD
 70
     3
  9
$DIMZIN
 70
     8
  9
$DIMBLK
  1
OPEN30
  9
$DIMASO
 70
     1
  9
$DIMSHO
 70
     1
  9
$DIMPOST
  1

  9
$DIMAPOST
  1

  9
$DIMALT
 70
     0
  9
$DIMALTD
 70
     2
  9
$DIMALTF
 40
25.4
  9
$DIMLFAC
 40
1.0
  9
$DIMTOFL
 70
     0
  9
$DIMTVP
 40
0.0
  9
$DIMTIX
 70
     0
  9
$DIMSOXD
 70
     0
  9
$DIMSAH
 70
     0
  9
$DIMBLK1
  1

  9
$DIMBLK2
  1

  9
$DIMSTYLE
  2
まこ
  9
$DIMCLRD
 70
     4
  9
$DIMCLRE
 70
     4
  9
$DIMCLRT
 70
     7
  9
$DIMTFAC
 40
1.0
  9
$DIMGAP
 40
0.5
  9
$DIMJUST
 70
     0
  9
$DIMSD1
 70
     0
  9
$DIMSD2
 70
     0
  9
$DIMTOLJ
 70
     1
  9
$DIMTZIN
 70
     0
  9
$DIMALTZ
 70
     0
  9
$DIMALTTZ
 70
     0
  9
$DIMUPT
 70
     0
  9
$DIMDEC
 70
     2
  9
$DIMTDEC
 70
     2
  9
$DIMALTU
 70
     2
  9
$DIMALTTD
 70
     2
  9
$DIMTXSTY
  7
まこ
  9
$DIMAUNIT
 70
     0
  9
$DIMADEC
 70
     0
  9
$DIMALTRND
 40
0.0
  9
$DIMAZIN
 70
     0
  9
$DIMDSEP
 70
    46
  9
$DIMATFIT
 70
     3
  9
$DIMFRAC
 70
     0
  9
$DIMLDRBLK
  1
OPEN30
  9
$DIMLUNIT
 70
     2
  9
$DIMLWD
 70
    13
  9
$DIMLWE
 70
    13
  9
$DIMTMOVE
 70
     0
  9
$LUNITS
 70
     2
  9
$LUPREC
 70
     4
  9
$SKETCHINC
 40
1.0
  9
$FILLETRAD
 40
2.0
  9
$AUNITS
 70
     0
  9
$AUPREC
 70
     0
  9
$MENU
  1
.
  9
$ELEVATION
 40
0.0
  9
$PELEVATION
 40
0.0
  9
$THICKNESS
 40
0.0
  9
$LIMCHECK
 70
     0
  9
$CHAMFERA
 40
0.5
  9
$CHAMFERB
 40
0.5
  9
$CHAMFERC
 40
20.0
  9
$CHAMFERD
 40
0.0
  9
$SKPOLY
 70
     0
  9
$TDCREATE
 40
2451224.660162384
  9
$TDUCREATE
 40
2451224.285162384
  9
$TDUPDATE
 40
2456938.411708622
  9
$TDUUPDATE
 40
2456938.036708622
  9
$TDINDWG
 40
16.5516937269
  9
$TDUSRTIMER
 40
16.5516926389
  9
$USRTIMER
 70
     1
  9
$ANGBASE
 50
0.0
  9
$ANGDIR
 70
     0
  9
$PDMODE
 70
     0
  9
$PDSIZE
 40
0.0
  9
$PLINEWID
 40
0.0
  9
$SPLFRAME
 70
     0
  9
$SPLINETYPE
 70
     6
  9
$SPLINESEGS
 70
     8
  9
$HANDSEED
  5
247E8
  9
$SURFTAB1
 70
     6
  9
$SURFTAB2
 70
     6
  9
$SURFTYPE
 70
     6
  9
$SURFU
 70
     6
  9
$SURFV
 70
     6
  9
$UCSBASE
  2

  9
$UCSNAME
  2

  9
$UCSORG
 10
0.0
 20
0.0
 30
0.0
  9
$UCSXDIR
 10
1.0
 20
0.0
 30
0.0
  9
$UCSYDIR
 10
0.0
 20
1.0
 30
0.0
  9
$UCSORTHOREF
  2

  9
$UCSORTHOVIEW
 70
     0
  9
$UCSORGTOP
 10
0.0
 20
0.0
 30
0.0
  9
$UCSORGBOTTOM
 10
0.0
 20
0.0
 30
0.0
  9
$UCSORGLEFT
 10
0.0
 20
0.0
 30
0.0
  9
$UCSORGRIGHT
 10
0.0
 20
0.0
 30
0.0
  9
$UCSORGFRONT
 10
0.0
 20
0.0
 30
0.0
  9
$UCSORGBACK
 10
0.0
 20
0.0
 30
0.0
  9
$PUCSBASE
  2

  9
$PUCSNAME
  2

  9
$PUCSORG
 10
0.0
 20
0.0
 30
0.0
  9
$PUCSXDIR
 10
1.0
 20
0.0
 30
0.0
  9
$PUCSYDIR
 10
0.0
 20
1.0
 30
0.0
  9
$PUCSORTHOREF
  2

  9
$PUCSORTHOVIEW
 70
     0
  9
$PUCSORGTOP
 10
0.0
 20
0.0
 30
0.0
  9
$PUCSORGBOTTOM
 10
0.0
 20
0.0
 30
0.0
  9
$PUCSORGLEFT
 10
0.0
 20
0.0
 30
0.0
  9
$PUCSORGRIGHT
 10
0.0
 20
0.0
 30
0.0
  9
$PUCSORGFRONT
 10
0.0
 20
0.0
 30
0.0
  9
$PUCSORGBACK
 10
0.0
 20
0.0
 30
0.0
  9
$USERI1
 70
     0
  9
$USERI2
 70
     0
  9
$USERI3
 70
     0
  9
$USERI4
 70
     0
  9
$USERI5
 70
     0
  9
$USERR1
 40
245.9999999999999
  9
$USERR2
 40
0.0
  9
$USERR3
 40
0.0
  9
$USERR4
 40
0.0
  9
$USERR5
 40
0.0
  9
$WORLDVIEW
 70
     1
  9
$SHADEDGE
 70
     3
  9
$SHADEDIF
 70
    70
  9
$TILEMODE
 70
     0
  9
$MAXACTVP
 70
    48
  9
$PINSBASE
 10
0.0
 20
0.0
 30
0.0
  9
$PLIMCHECK
 70
     0
  9
$PEXTMIN
 10
0.0
 20
0.0
 30
0.0
  9
$PEXTMAX
 10
400.0
 20
288.0
 30
0.0
  9
$PLIMMIN
 10
-8.547672731737309
 20
-8.555108999668973
  9
$PLIMMAX
 10
422.8835880991041
 20
296.5345734374953
  9
$UNITMODE
 70
     0
  9
$VISRETAIN
 70
     1
  9
$PLINEGEN
 70
     0
  9
$PSLTSCALE
 70
     0
  9
$TREEDEPTH
 70
  3020
  9
$CMLSTYLE
  2
STANDARD
  9
$CMLJUST
 70
     0
  9
$CMLSCALE
 40
20.0
  9
$PROXYGRAPHICS
 70
     1
  9
$MEASUREMENT
 70
     0
  9
$CELWEIGHT
370
    -1
  9
$ENDCAPS
280
     0
  9
$JOINSTYLE
280
     0
  9
$LWDISPLAY
290
     0
  9
$INSUNITS
 70
     0
  9
$HYPERLINKBASE
  1

  9
$STYLESHEET
  1
monochrome.ctb
  9
$XEDIT
290
     1
  9
$CEPSNTYPE
380
     0
  9
$PSTYLEMODE
290
     1
  9
$FINGERPRINTGUID
  2
{D14EE3FF-941A-415A-9907-344E0A80D794}
  9
$VERSIONGUID
  2
{20096BB7-3C74-4A05-A0D0-64B6FEACA340}
  9
$EXTNAMES
290
     1
  9
$PSVPSCALE
 40
0.0
  9
$OLESTARTUP
290
     0
  0
ENDSEC
  0
SECTION
  2
CLASSES
  0
CLASS
  1
HATCH
  2
AcDbHatch
  3
AutoCAD 2000
 90
    32768
280
     0
281
     1
  0
CLASS
  1
LWPOLYLINE
  2
AcDbPolyline
  3
AutoCAD 2000
 90
    32768
280
     0
281
     1
  0
CLASS
  1
ACDBDICTIONARYWDFLT
  2
AcDbDictionaryWithDefault
  3
AutoCAD 2000
 90
        0
280
     0
281
     0
  0
CLASS
  1
ACDBPLACEHOLDER
  2
AcDbPlaceHolder
  3
AutoCAD 2000
 90
        0
280
     0
281
     0
  0
CLASS
  1
LAYOUT
  2
AcDbLayout
  3
AutoCAD 2000
 90
        0
280
     0
281
     0
  0
CLASS
  1
LONG_TRANSACTION
  2
AcDbLongTransaction
  3
AutoCAD 2000
 90
    32768
280
     0
281
     0
  0
CLASS
  1
LWPOLYLINE
  2
AcDbPolyline
  3
AutoCAD 2000
 90
    32768
280
     0
281
     1
  0
CLASS
  1
HATCH
  2
AcDbHatch
  3
AutoCAD 2000
 90
    32768
280
     0
281
     1
  0
CLASS
  1
XRECORD
  2
AcDbXrecord
  3
AutoCAD 2000
 90
    32768
280
     0
281
     0
  0
CLASS
  1
DICTIONARYVAR
  2
AcDbDictionaryVar
  3
AutoCAD 2000
 90
        0
280
     0
281
     0
  0
CLASS
  1
LONG_TRANSACTION
  2
AcDbLongTransaction
  3
AutoCAD 2000
 90
    32768
280
     0
281
     0
  0
CLASS
  1
LWPOLYLINE
  2
AcDbPolyline
  3
AutoCAD 2000
 90
    32768
280
     0
281
     1
  0
CLASS
  1
HATCH
  2
AcDbHatch
  3
AutoCAD 2000
 90
    32768
280
     0
281
     1
  0
CLASS
  1
XRECORD
  2
AcDbXrecord
  3
AutoCAD 2000
 90
    32768
280
     0
281
     0
  0
CLASS
  1
LONG_TRANSACTION
  2
AcDbLongTransaction
  3
AutoCAD 2000
 90
    32768
280
     0
281
     0
  0
CLASS
  1
LWPOLYLINE
  2
AcDbPolyline
  3
AutoCAD 2000
 90
    32768
280
     0
281
     1
  0
CLASS
  1
HATCH
  2
AcDbHatch
  3
AutoCAD 2000
 90
    32768
280
     0
281
     1
  0
CLASS
  1
XRECORD
  2
AcDbXrecord
  3
AutoCAD 2000
 90
    32768
280
     0
281
     0
  0
ENDSEC
  0
SECTION
  2
TABLES
  0
TABLE
  2
VPORT
  5
8
330
0
100
AcDbSymbolTable
 70
     1
  0
VPORT
  5
24786
330
8
100
AcDbSymbolTableRecord
100
AcDbViewportTableRecord
  2
*ACTIVE
 70
     0
 10
0.0
 20
0.0
 11
1.0
 21
1.0
 12
-2929.837842747939
 22
-353.1029107950081
 13
0.0
 23
0.0
 14
10.0
 24
10.0
 15
10.0
 25
10.0
 16
0.0
 26
0.0
 36
1.0
 17
0.0
 27
0.0
 37
0.0
 40
178.595004094683
 41
1.527918781725888
 42
50.0
 43
0.0
 44
0.0
 50
0.0
 51
0.0
 71
     0
 72
   100
 73
     1
 74
     0
 75
     0
 76
     0
 77
     0
 78
     0
281
     0
 65
     1
110
0.0
120
0.0
130
0.0
111
1.0
121
0.0
131
0.0
112
0.0
122
1.0
132
0.0
 79
     0
146
0.0
  0
ENDTAB
  0
TABLE
  2
LTYPE
  5
5
330
0
100
AcDbSymbolTable
 70
     6
  0
LTYPE
  5
12
330
5
100
AcDbSymbolTableRecord
100
AcDbLinetypeTableRecord
  2
BYBLOCK
 70
     0
  3

 72
    65
 73
     0
 40
0.0
  0
LTYPE
  5
13
330
5
100
AcDbSymbolTableRecord
100
AcDbLinetypeTableRecord
  2
BYLAYER
 70
     0
  3

 72
    65
 73
     0
 40
0.0
  0
LTYPE
  5
14
330
5
100
AcDbSymbolTableRecord
100
AcDbLinetypeTableRecord
  2
CONTINUOUS
 70
     0
  3
Solid line
 72
    65
 73
     0
 40
0.0
  0
LTYPE
  5
126C
330
5
100
AcDbSymbolTableRecord
100
AcDbLinetypeTableRecord
  2
CENTER
 70
     0
  3
____ _ ____ _ ____ _ ____ _ ____ _ ____ _ ____
 72
    65
 73
     4
 40
2.0
 49
1.25
 74
     0
 49
-0.25
 74
     0
 49
0.25
 74
     0
 49
-0.25
 74
     0
  0
LTYPE
  5
126E
330
5
100
AcDbSymbolTableRecord
100
AcDbLinetypeTableRecord
  2
DASHDOT
 70
     0
  3
__ . __ . __ . __ . __ . __ . __ . __ . __ . __
 72
    65
 73
     4
 40
1.0
 49
0.5
 74
     0
 49
-0.25
 74
     0
 49
0.0
 74
     0
 49
-0.25
 74
     0
  0
LTYPE
  5
1541F
330
5
100
AcDbSymbolTableRecord
100
AcDbLinetypeTableRecord
  2
HIDDEN
 70
     0
  3
_ _ _ _ _ _ _ _ _ _ _ _ _ _ _ _ _ _ _ _ _ _ _
 72
    65
 73
     2
 40
0.375
 49
0.25
 74
     0
 49
-0.125
 74
     0
  0
LTYPE
  5
15420
330
5
100
AcDbSymbolTableRecord
100
AcDbLinetypeTableRecord
  2
CENTER2
 70
     0
  3
Center (.5x) ___ _ ___ _ ___ _ ___ _ ___ _ ___
 72
    65
 73
     4
 40
1.125
 49
0.75
 74
     0
 49
-0.125
 74
     0
 49
0.125
 74
     0
 49
-0.125
 74
     0
  0
LTYPE
  5
1615D
330
5
100
AcDbSymbolTableRecord
100
AcDbLinetypeTableRecord
  2
PHANTOM
 70
     0
  3
Phantom ______  __  __  ______  __  __  ______
 72
    65
 73
     6
 40
2.5
 49
1.25
 74
     0
 49
-0.25
 74
     0
 49
0.25
 74
     0
 49
-0.25
 74
     0
 49
0.25
 74
     0
 49
-0.25
 74
     0
  0
ENDTAB
  0
TABLE
  2
LAYER
  5
2
102
{ACAD_XDICTIONARY
360
24278
102
}
330
0
100
AcDbSymbolTable
 70
    12
  0
LAYER
  5
E
330
2
100
AcDbSymbolTableRecord
100
AcDbLayerTableRecord
  2
0
 70
     2
 62
     7
  6
CONTINUOUS
370
    -3
390
FB5C
  0
LAYER
  5
2C
330
2
100
AcDbSymbolTableRecord
100
AcDbLayerTableRecord
  2
M_VIEW
 70
     4
 62
    -1
  6
CONTINUOUS
370
    -3
390
FB5C
  0
LAYER
  5
30
330
2
100
AcDbSymbolTableRecord
100
AcDbLayerTableRecord
  2
FRAME025
 70
     0
 62
     7
  6
CONTINUOUS
370
    -3
390
FB5C
  0
LAYER
  5
12B
330
2
100
AcDbSymbolTableRecord
100
AcDbLayerTableRecord
  2
DEFPOINTS
 70
     4
 62
    -7
  6
CONTINUOUS
290
     0
370
    -3
390
FB5C
  0
LAYER
  5
651
330
2
100
AcDbSymbolTableRecord
100
AcDbLayerTableRecord
  2
FRAME020
 70
     0
 62
     7
  6
CONTINUOUS
370
    -3
390
FB5C
  0
LAYER
  5
1271
330
2
100
AcDbSymbolTableRecord
100
AcDbLayerTableRecord
  2
A
 70
     0
 62
     7
  6
CONTINUOUS
370
    -3
390
FB5C
  0
LAYER
  5
A9BB
330
2
100
AcDbSymbolTableRecord
100
AcDbLayerTableRecord
  2
文字
 70
     0
 62
     7
  6
CONTINUOUS
370
    -3
390
FB5C
  0
LAYER
  5
122DE
330
2
100
AcDbSymbolTableRecord
100
AcDbLayerTableRecord
  2
DIMENSION
 70
     0
 62
     7
  6
CONTINUOUS
370
    -3
390
FB5C
  0
LAYER
  5
15422
330
2
100
AcDbSymbolTableRecord
100
AcDbLayerTableRecord
  2
細線
 70
     0
 62
     7
  6
CONTINUOUS
370
    -3
390
FB5C
  0
LAYER
  5
15425
330
2
100
AcDbSymbolTableRecord
100
AcDbLayerTableRecord
  2
中心線
 70
     0
 62
     7
  6
CENTER2
370
    -3
390
FB5C
  0
LAYER
  5
1615E
330
2
100
AcDbSymbolTableRecord
100
AcDbLayerTableRecord
  2
２点鎖線
 70
     0
 62
     7
  6
PHANTOM
370
    -3
390
FB5C
  0
LAYER
  5
1A846
330
2
100
AcDbSymbolTableRecord
100
AcDbLayerTableRecord
  2
実線
 70
     0
 62
     7
  6
CONTINUOUS
370
    -3
390
FB5C
  0
ENDTAB
  0
TABLE
  2
STYLE
  5
3
330
0
100
AcDbSymbolTable
 70
     5
  0
STYLE
  5
F
330
3
100
AcDbSymbolTableRecord
100
AcDbTextStyleTableRecord
  2
STANDARD
 70
     0
 40
0.0
 41
1.0
 50
0.0
 71
     0
 42
2.5
  3
isocp.shx
  4
bigfont.shx
  0
STYLE
  5
35
330
3
100
AcDbSymbolTableRecord
100
AcDbTextStyleTableRecord
  2
MSｺ_ｼｯｸ
 70
     0
 40
0.0
 41
1.0
 50
0.0
 71
     0
 42
5.0
  3
MS Gothic.ttf
  4

1001
ACAD
1000
MS Gothic
1071
    32817
  0
STYLE
  5
1275
330
3
100
AcDbSymbolTableRecord
100
AcDbTextStyleTableRecord
  2
BIGFONT
 70
     0
 40
2.0
 41
1.0
 50
0.0
 71
     0
 42
2.0
  3
txt.shx
  4
bigfont.shx
  0
STYLE
  5
1A849
330
3
100
AcDbSymbolTableRecord
100
AcDbTextStyleTableRecord
  2
まこ
 70
     0
 40
0.0
 41
1.0
 50
0.0
 71
     0
 42
2.5
  3
simplex.shx
  4
bigfont.shx
  0
STYLE
  5
1A84A
330
3
100
AcDbSymbolTableRecord
100
AcDbTextStyleTableRecord
  2
ｽﾀｲﾙ3
 70
     0
 40
10.0
 41
1.0
 50
0.0
 71
     0
 42
10.0
  3
isocp.shx
  4
extfont.shx
  0
ENDTAB
  0
TABLE
  2
VIEW
  5
6
330
0
100
AcDbSymbolTable
 70
     0
  0
ENDTAB
  0
TABLE
  2
UCS
  5
7
330
0
100
AcDbSymbolTable
 70
     0
  0
ENDTAB
  0
TABLE
  2
APPID
  5
9
330
0
100
AcDbSymbolTable
 70
     4
  0
APPID
  5
10
330
9
100
AcDbSymbolTableRecord
100
AcDbRegAppTableRecord
  2
ACAD
 70
     0
  0
APPID
  5
F013
330
9
100
AcDbSymbolTableRecord
100
AcDbRegAppTableRecord
  2
CONTENTBLOCKDESCRIPTION
 70
     0
  0
APPID
  5
F014
330
9
100
AcDbSymbolTableRecord
100
AcDbRegAppTableRecord
  2
CONTENTBLOCKICON
 70
     0
  0
APPID
  5
1A9A0
330
9
100
AcDbSymbolTableRecord
100
AcDbRegAppTableRecord
  2
DCO15
 70
     0
  0
ENDTAB
  0
TABLE
  2
DIMSTYLE
  5
A
330
0
100
AcDbSymbolTable
 70
     2
100
AcDbDimStyleTable
 71
     0
  0
DIMSTYLE
105
1D
330
A
100
AcDbSymbolTableRecord
100
AcDbDimStyleTableRecord
  2
STANDARD
 70
     0
340
F
  0
DIMSTYLE
105
1A84D
330
A
100
AcDbSymbolTableRecord
100
AcDbDimStyleTableRecord
  2
まこ
 70
     0
 41
2.5
 42
0.8
 73
     0
 74
     0
 77
     3
 78
     8
140
3.0
141
0.0
147
0.5
176
     4
177
     4
178
     7
271
     2
272
     2
340
1A849
341
1215D
342
1215D
  0
ENDTAB
  0
TABLE
  2
BLOCK_RECORD
  5
1
330
0
100
AcDbSymbolTable
 70
     2
  0
BLOCK_RECORD
  5
18
102
{ACAD_XDICTIONARY
360
EFC6
102
}
330
1
100
AcDbSymbolTableRecord
100
AcDbBlockTableRecord
  2
*MODEL_SPACE
340
247D5
  0
BLOCK_RECORD
  5
15
102
{ACAD_XDICTIONARY
360
EFC4
102
}
330
1
100
AcDbSymbolTableRecord
100
AcDbBlockTableRecord
  2
*PAPER_SPACE
340
247D6
  0
BLOCK_RECORD
  5
115C
330
1
100
AcDbSymbolTableRecord
100
AcDbBlockTableRecord
  2
機械A4横_LBP
340
0
102
{BLKREFS
331
187D7
331
115F
102
}
  0
BLOCK_RECORD
  5
1215D
330
1
100
AcDbSymbolTableRecord
100
AcDbBlockTableRecord
  2
_OPEN30
340
0
  0
ENDTAB
  0
ENDSEC
  0
SECTION
  2
BLOCKS
  0
BLOCK
  5
19
330
18
100
AcDbEntity
  8
0
100
AcDbBlockBegin
  2
*MODEL_SPACE
 70
     0
 10
0.0
 20
0.0
 30
0.0
  3
*MODEL_SPACE
  1

  0
ENDBLK
  5
1A
330
18
100
AcDbEntity
  8
0
100
AcDbBlockEnd
  0
BLOCK
  5
16
330
15
100
AcDbEntity
 67
     1
  8
0
100
AcDbBlockBegin
  2
*PAPER_SPACE
 70
     0
 10
0.0
 20
0.0
 30
0.0
  3
*PAPER_SPACE
  1

  0
ENDBLK
  5
17
330
15
100
AcDbEntity
 67
     1
  8
0
100
AcDbBlockEnd
  0
BLOCK
  5
115D
330
115C
100
AcDbEntity
  8
0
100
AcDbBlockBegin
  2
機械A4横_LBP
 70
     0
 10
0.0
 20
0.0
 30
0.0
  3
機械A4横_LBP
  1

  0
ENDBLK
  5
115E
330
115C
100
AcDbEntity
  8
0
100
AcDbBlockEnd
  0
BLOCK
  5
12161
330
1215D
100
AcDbEntity
  8
0
100
AcDbBlockBegin
  2
_OPEN30
 70
     0
 10
0.0
 20
0.0
 30
0.0
  3
_OPEN30
  1

  0
LINE
  5
1215E
330
1215D
100
AcDbEntity
  8
0
  6
ByBlock
 62
     0
100
AcDbLine
 10
-1.0
 20
0.26794919
 30
0.0
 11
0.0
 21
0.0
 31
0.0
  0
LINE
  5
1215F
330
1215D
100
AcDbEntity
  8
0
  6
ByBlock
 62
     0
100
AcDbLine
 10
0.0
 20
0.0
 30
0.0
 11
-1.0
 21
-0.26794919
 31
0.0
  0
LINE
  5
12160
330
1215D
100
AcDbEntity
  8
0
  6
ByBlock
 62
     0
100
AcDbLine
 10
0.0
 20
0.0
 30
0.0
 11
-1.0
 21
0.0
 31
0.0
  0
ENDBLK
  5
12162
330
1215D
100
AcDbEntity
  8
0
100
AcDbBlockEnd
  0
ENDSEC
  0
SECTION
  2
ENTITIES
  0
MTEXT
  5
176FC
330
18
100
AcDbEntity
  8
DIMENSION
 62
     2
100
AcDbMText
 10
-100.7823601383244
 20
171.6213144128388
 30
0.0
 40
8.0
 41
0.0
 71
     4
 72
     1
  1

 73
     1
 44
1.0
1001
ACAD
1000
MTEXTBEGIN
1070
    73
1070
     1
1070
    44
1040
1.0
1070
    74
1070
     0
1000
MTEXTEND
1000
MTEXTBEGIN
1070
    73
1070
     1
1070
    44
1040
1.0
1070
    74
1070
     0
1000
MTEXTEND
  0
TEXT
  5
187C8
330
18
100
AcDbEntity
  8
A
100
AcDbText
 10
27.08248755054501
 20
1784.547672862094
 30
0.0
 40
2.5
  1

  7
MSｺ_ｼｯｸ
100
AcDbText
  0
TEXT
  5
187C9
330
18
100
AcDbEntity
  8
A
100
AcDbText
 10
19.25748755054502
 20
1784.547672862094
 30
0.0
 40
2.5
  1

 41
0.5
  7
MSｺ_ｼｯｸ
100
AcDbText
  0
TEXT
  5
187CA
330
18
100
AcDbEntity
  8
A
100
AcDbText
 10
167.1825875009164
 20
2214.514692980458
 30
0.0
 40
3.524999999999999
  1
�    
100
AcDbText
  0
MTEXT
  5
187CB
330
18
100
AcDbEntity
  8
0
  6
ByBlock
100
AcDbMText
 10
325.4874764241681
 20
2232.511722574347
 30
0.0
 40
2.0
 41
0.0
 71
     4
 72
     5
  1

 11
-0.0000000000000002
 21
-1.0
 31
0.0
 73
     1
 44
1.0
1001
ACAD
1000
MTEXTBEGIN
1070
    73
1070
     1
1070
    44
1040
1.0
1070
    74
1070
     0
1000
MTEXTEND
1000
MTEXTBEGIN
1070
    73
1070
     1
1070
    44
1040
1.0
1070
    74
1070
     0
1000
MTEXTEND
1000
MTEXTBEGIN
1070
    73
1070
     1
1070
    44
1040
1.0
1070
    74
1070
     0
1000
MTEXTEND
  0
MTEXT
  5
187CC
330
18
100
AcDbEntity
  8
0
  6
ByBlock
100
AcDbMText
 10
360.9528647873208
 20
2221.718414215929
 30
0.0
 40
2.0
 41
0.0
 71
     7
 72
     5
  1

 11
0.0000000000000001
 21
1.0
 31
0.0
 73
     1
 44
1.0
1001
ACAD
1000
MTEXTBEGIN
1070
    73
1070
     1
1070
    44
1040
1.0
1070
    74
1070
     0
1000
MTEXTEND
1000
MTEXTBEGIN
1070
    73
1070
     1
1070
    44
1040
1.0
1070
    74
1070
     0
1000
MTEXTEND
1000
MTEXTBEGIN
1070
    73
1070
     1
1070
    44
1040
1.0
1070
    74
1070
     0
1000
MTEXTEND
  0
MTEXT
  5
187CD
330
18
100
AcDbEntity
  8
0
100
AcDbMText
 10
325.1733668026532
 20
2146.938903673639
 30
0.0
 40
2.0
 41
10.1453
 71
     1
 72
     5
  1

 11
-0.0000000000000002
 21
-1.0
 31
0.0
 73
     1
 44
1.0
1001
ACAD
1000
MTEXTBEGIN
1070
    73
1070
     1
1070
    44
1040
1.0
1070
    74
1070
     0
1000
MTEXTEND
1000
MTEXTBEGIN
1070
    73
1070
     1
1070
    44
1040
1.0
1070
    74
1070
     0
1000
MTEXTEND
1000
MTEXTBEGIN
1070
    73
1070
     1
1070
    44
1040
1.0
1070
    74
1070
     0
1000
MTEXTEND
  0
MTEXT
  5
187CE
330
18
100
AcDbEntity
  8
0
100
AcDbMText
 10
280.7738750495033
 20
2115.30742008065
 30
0.0
 40
2.0
 41
0.0
 71
     1
 72
     5
  1

 73
     1
 44
1.0
1001
ACAD
1000
MTEXTBEGIN
1070
    73
1070
     1
1070
    44
1040
1.0
1070
    74
1070
     0
1000
MTEXTEND
1000
MTEXTBEGIN
1070
    73
1070
     1
1070
    44
1040
1.0
1070
    74
1070
     0
1000
MTEXTEND
1000
MTEXTBEGIN
1070
    73
1070
     1
1070
    44
1040
1.0
1070
    74
1070
     0
1000
MTEXTEND
  0
MTEXT
  5
187CF
330
18
100
AcDbEntity
  8
0
  6
CENTER
100
AcDbMText
 10
606.3621522332661
 20
2216.239946825076
 30
0.0
 40
2.0
 41
15.6417
 71
     1
 72
     5
  1

  7
BIGFONT
 73
     1
 44
1.0
1001
ACAD
1000
MTEXTBEGIN
1070
    73
1070
     1
1070
    44
1040
1.0
1070
    74
1070
     0
1000
MTEXTEND
1000
MTEXTBEGIN
1070
    73
1070
     1
1070
    44
1040
1.0
1070
    74
1070
     0
1000
MTEXTEND
1000
MTEXTBEGIN
1070
    73
1070
     1
1070
    44
1040
1.0
1070
    74
1070
     0
1000
MTEXTEND
  0
MTEXT
  5
187D0
330
18
100
AcDbEntity
  8
0
  6
DASHDOT
100
AcDbMText
 10
368.6842112890943
 20
2323.029441652852
 30
0.0
 40
1.0
 41
2.0
 71
     1
 72
     5
  1

  7
BIGFONT
 73
     1
 44
1.0
1001
ACAD
1000
MTEXTBEGIN
1070
    73
1070
     1
1070
    44
1040
1.0
1070
    74
1070
     0
1000
MTEXTEND
1000
MTEXTBEGIN
1070
    73
1070
     1
1070
    44
1040
1.0
1070
    74
1070
     0
1000
MTEXTEND
1000
MTEXTBEGIN
1070
    73
1070
     1
1070
    44
1040
1.0
1070
    74
1070
     0
1000
MTEXTEND
  0
MTEXT
  5
187D1
330
18
100
AcDbEntity
  8
0
  6
ByBlock
100
AcDbMText
 10
325.4873894192176
 20
2232.511722574347
 30
0.0
 40
2.0
 41
0.0
 71
     4
 72
     5
  1

 11
-0.0000000000000002
 21
-1.0
 31
0.0
 73
     1
 44
1.0
1001
ACAD
1000
MTEXTBEGIN
1070
    73
1070
     1
1070
    44
1040
1.0
1070
    74
1070
     0
1000
MTEXTEND
1000
MTEXTBEGIN
1070
    73
1070
     1
1070
    44
1040
1.0
1070
    74
1070
     0
1000
MTEXTEND
1000
MTEXTBEGIN
1070
    73
1070
     1
1070
    44
1040
1.0
1070
    74
1070
     0
1000
MTEXTEND
  0
MTEXT
  5
187D2
330
18
100
AcDbEntity
  8
0
  6
ByBlock
100
AcDbMText
 10
360.9527777823706
 20
2221.718414215929
 30
0.0
 40
2.0
 41
0.0
 71
     7
 72
     5
  1

 11
0.0000000000000001
 21
1.0
 31
0.0
 73
     1
 44
1.0
1001
ACAD
1000
MTEXTBEGIN
1070
    73
1070
     1
1070
    44
1040
1.0
1070
    74
1070
     0
1000
MTEXTEND
1000
MTEXTBEGIN
1070
    73
1070
     1
1070
    44
1040
1.0
1070
    74
1070
     0
1000
MTEXTEND
1000
MTEXTBEGIN
1070
    73
1070
     1
1070
    44
1040
1.0
1070
    74
1070
     0
1000
MTEXTEND
  0
MTEXT
  5
187D3
330
18
100
AcDbEntity
  8
0
100
AcDbMText
 10
325.1732797977028
 20
2146.938903673639
 30
0.0
 40
2.0
 41
10.1453
 71
     1
 72
     5
  1

 11
-0.0000000000000002
 21
-1.0
 31
0.0
 73
     1
 44
1.0
1001
ACAD
1000
MTEXTBEGIN
1070
    73
1070
     1
1070
    44
1040
1.0
1070
    74
1070
     0
1000
MTEXTEND
1000
MTEXTBEGIN
1070
    73
1070
     1
1070
    44
1040
1.0
1070
    74
1070
     0
1000
MTEXTEND
1000
MTEXTBEGIN
1070
    73
1070
     1
1070
    44
1040
1.0
1070
    74
1070
     0
1000
MTEXTEND
  0
MTEXT
  5
187D4
330
18
100
AcDbEntity
  8
0
100
AcDbMText
 10
280.7737880445529
 20
2115.30742008065
 30
0.0
 40
2.0
 41
0.0
 71
     1
 72
     5
  1

 73
     1
 44
1.0
1001
ACAD
1000
MTEXTBEGIN
1070
    73
1070
     1
1070
    44
1040
1.0
1070
    74
1070
     0
1000
MTEXTEND
1000
MTEXTBEGIN
1070
    73
1070
     1
1070
    44
1040
1.0
1070
    74
1070
     0
1000
MTEXTEND
1000
MTEXTBEGIN
1070
    73
1070
     1
1070
    44
1040
1.0
1070
    74
1070
     0
1000
MTEXTEND
  0
MTEXT
  5
187D5
330
18
100
AcDbEntity
  8
0
  6
CENTER
100
AcDbMText
 10
606.3620652283159
 20
2216.239946825076
 30
0.0
 40
2.0
 41
15.6417
 71
     1
 72
     5
  1

  7
BIGFONT
 73
     1
 44
1.0
1001
ACAD
1000
MTEXTBEGIN
1070
    73
1070
     1
1070
    44
1040
1.0
1070
    74
1070
     0
1000
MTEXTEND
1000
MTEXTBEGIN
1070
    73
1070
     1
1070
    44
1040
1.0
1070
    74
1070
     0
1000
MTEXTEND
1000
MTEXTBEGIN
1070
    73
1070
     1
1070
    44
1040
1.0
1070
    74
1070
     0
1000
MTEXTEND
  0
MTEXT
  5
187D6
330
18
100
AcDbEntity
  8
0
  6
DASHDOT
100
AcDbMText
 10
368.6841242841442
 20
2323.029441652852
 30
0.0
 40
1.0
 41
2.0
 71
     1
 72
     5
  1

  7
BIGFONT
 73
     1
 44
1.0
1001
ACAD
1000
MTEXTBEGIN
1070
    73
1070
     1
1070
    44
1040
1.0
1070
    74
1070
     0
1000
MTEXTEND
1000
MTEXTBEGIN
1070
    73
1070
     1
1070
    44
1040
1.0
1070
    74
1070
     0
1000
MTEXTEND
1000
MTEXTBEGIN
1070
    73
1070
     1
1070
    44
1040
1.0
1070
    74
1070
     0
1000
MTEXTEND
  0
INSERT
  5
187D7
330
18
100
AcDbEntity
  8
FRAME025
100
AcDbBlockReference
  2
機械A4横_LBP
 10
271.0019941658661
 20
2006.88884056487
 30
0.0
  0
LINE
  5
2321C
330
18
100
AcDbEntity
  8
実線
100
AcDbLine
 10
-2876.410772918582
 20
-427.5867825458986
 30
0.0
 11
-2900.083798198711
 21
-427.5867825458986
 31
0.0
  0
LINE
  5
2321D
330
18
100
AcDbEntity
  8
実線
100
AcDbLine
 10
-2896.998266622603
 20
-421.2867825458983
 30
0.0
 11
-2876.410772918582
 21
-421.2867825458983
 31
0.0
  0
LINE
  5
23258
330
18
100
AcDbEntity
  8
実線
100
AcDbLine
 10
-2937.539689507407
 20
-420.5440307457936
 30
0.0
 11
-2937.539689507407
 21
-325.544030745793
 31
0.0
  0
LINE
  5
2325A
330
18
100
AcDbEntity
  8
中心線
100
AcDbLine
 10
-3063.662474850397
 20
-370.5440307457952
 30
0.0
 11
-2919.984368763867
 21
-370.544030745795
 31
0.0
  0
LINE
  5
2325B
330
18
100
AcDbEntity
  8
実線
100
AcDbLine
 10
-3062.539689507407
 20
-395.5440307457931
 30
0.0
 11
-2969.21047875006
 21
-395.5440307457933
 31
0.0
  0
LINE
  5
2325C
330
18
100
AcDbEntity
  8
実線
100
AcDbLine
 10
-3065.539689507407
 20
-420.5440307457936
 30
0.0
 11
-2972.204382864179
 21
-420.5440307457823
 31
0.0
  0
LINE
  5
2325F
330
18
100
AcDbEntity
  8
中心線
 48
3.0
100
AcDbLine
 10
-3001.539689507407
 20
-415.0440307457936
 30
0.0
 11
-3001.539689507407
 21
-406.0440307457936
 31
0.0
  0
CIRCLE
  5
23260
330
18
100
AcDbEntity
  8
実線
100
AcDbCircle
 10
-3001.539689507407
 20
-410.5440307457936
 30
0.0
 40
2.1
  0
CIRCLE
  5
23261
330
18
100
AcDbEntity
  8
細線
100
AcDbCircle
 10
-3001.539689507406
 20
-410.5440307457926
 30
0.0
 40
2.5
  0
LINE
  5
23262
330
18
100
AcDbEntity
  8
中心線
 48
3.0
100
AcDbLine
 10
-3006.039689507407
 20
-410.5440307457928
 30
0.0
 11
-2997.039689507408
 21
-410.5440307457931
 31
0.0
  0
LINE
  5
23263
102
{ACAD_REACTORS
330
2342E
102
}
330
18
100
AcDbEntity
  8
実線
100
AcDbLine
 10
-2916.03340505339
 20
-418.6982157860661
 30
0.0
 11
-2917.539689507407
 21
-418.6982157860661
 31
0.0
  0
LINE
  5
23264
102
{ACAD_REACTORS
330
2342E
102
}
330
18
100
AcDbEntity
  8
実線
100
AcDbLine
 10
-2917.539689507407
 20
-412.3982157860663
 30
0.0
 11
-2914.922545074927
 21
-412.3982157860662
 31
0.0
  0
LINE
  5
23265
330
18
100
AcDbEntity
  8
中心線
 48
3.0
100
AcDbLine
 10
-2961.539689507407
 20
-415.0440307457936
 30
0.0
 11
-2961.539689507407
 21
-406.0440307457936
 31
0.0
  0
CIRCLE
  5
23266
330
18
100
AcDbEntity
  8
実線
100
AcDbCircle
 10
-2961.539689507407
 20
-410.5440307457936
 30
0.0
 40
2.1
  0
CIRCLE
  5
23267
330
18
100
AcDbEntity
  8
細線
100
AcDbCircle
 10
-2961.539689507407
 20
-410.5440307457926
 30
0.0
 40
2.5
  0
LINE
  5
23268
330
18
100
AcDbEntity
  8
中心線
 48
3.0
100
AcDbLine
 10
-2966.039689507407
 20
-410.5440307457928
 30
0.0
 11
-2957.039689507407
 21
-410.5440307457931
 31
0.0
  0
LINE
  5
23269
330
18
100
AcDbEntity
  8
実線
100
AcDbLine
 10
-2972.204382864179
 20
-420.5440307457823
 30
0.0
 11
-2937.539689507407
 21
-420.544030745774
 31
0.0
  0
ARC
  5
2326A
330
18
100
AcDbEntity
  8
実線
100
AcDbCircle
 10
-2896.998266622603
 20
-418.2867825458982
 30
0.0
 40
3.0
100
AcDbArc
 50
179.9999999999934
 51
270.0
  0
ARC
  5
2326B
330
18
100
AcDbEntity
  8
実線
100
AcDbCircle
 10
-2908.083798198711
 20
-421.6982157860661
 30
0.0
 40
3.0
100
AcDbArc
 50
0.0
 51
90.0
  0
LINE
  5
2326C
330
18
100
AcDbEntity
  8
実線
100
AcDbLine
 10
-2905.083798198711
 20
-422.5867825458985
 30
0.0
 11
-2905.083798198711
 21
-421.6982157860661
 31
0.0
  0
ARC
  5
2326D
330
18
100
AcDbEntity
  8
実線
100
AcDbCircle
 10
-2900.083798198711
 20
-422.5867825458985
 30
0.0
 40
5.0
100
AcDbArc
 50
180.0
 51
270.0
  0
ARC
  5
2326E
330
18
100
AcDbEntity
  8
実線
100
AcDbCircle
 10
-2904.998266622603
 20
-417.3982157860661
 30
0.0
 40
5.0
100
AcDbArc
 50
0.0
 51
90.0
  0
LINE
  5
2326F
102
{ACAD_REACTORS
330
2342E
102
}
330
18
100
AcDbEntity
  8
中心線
 48
0.4
100
AcDbLine
 10
-2916.21928631865
 20
-419.7524008263376
 30
0.0
 11
-2914.736663809668
 21
-411.3440307457945
 31
0.0
  0
LINE
  5
23270
330
18
100
AcDbEntity
  8
中心線
 48
0.4
100
AcDbLine
 10
-2914.21928631865
 20
-419.7524008263376
 30
0.0
 11
-2912.736663809667
 21
-411.3440307457945
 31
0.0
  0
LINE
  5
23271
330
18
100
AcDbEntity
  8
実線
100
AcDbLine
 10
-2908.083798198711
 20
-418.6982157860661
 30
0.0
 11
-2914.033405053391
 21
-418.6982157860661
 31
0.0
  0
LINE
  5
23272
330
18
100
AcDbEntity
  8
実線
100
AcDbLine
 10
-2899.998266622603
 20
-418.2867825458981
 30
0.0
 11
-2899.998266622603
 21
-417.3982157860661
 31
0.0
  0
LINE
  5
23273
330
18
100
AcDbEntity
  8
実線
100
AcDbLine
 10
-2912.922545074928
 20
-412.3982157860659
 30
0.0
 11
-2904.998266622603
 21
-412.3982157860661
 31
0.0
  0
LINE
  5
23274
330
18
100
AcDbEntity
  8
実線
100
AcDbLine
 10
-2969.21047875006
 20
-395.5440307457933
 30
0.0
 11
-2937.539689507407
 21
-395.5440307457934
 31
0.0
  0
LINE
  5
23275
330
18
100
AcDbEntity
  8
実線
100
AcDbLine
 10
-3065.539689507407
 20
-325.544030745793
 30
0.0
 11
-2960.82754723052
 21
-325.5440307457929
 31
0.0
  0
LINE
  5
23276
330
18
100
AcDbEntity
  8
実線
100
AcDbLine
 10
-3062.539689507407
 20
-345.5440307457938
 30
0.0
 11
-2963.222670521818
 21
-345.5440307457941
 31
0.0
  0
CIRCLE
  5
23277
330
18
100
AcDbEntity
  8
細線
100
AcDbCircle
 10
-3001.539689507406
 20
-330.5440307457926
 30
0.0
 40
2.5
  0
LINE
  5
23278
330
18
100
AcDbEntity
  8
中心線
 48
3.0
100
AcDbLine
 10
-3001.539689507407
 20
-335.0440307457936
 30
0.0
 11
-3001.539689507407
 21
-326.0440307457936
 31
0.0
  0
CIRCLE
  5
23279
330
18
100
AcDbEntity
  8
実線
100
AcDbCircle
 10
-3001.539689507407
 20
-330.5440307457936
 30
0.0
 40
2.1
  0
LINE
  5
2327A
330
18
100
AcDbEntity
  8
中心線
 48
3.0
100
AcDbLine
 10
-3006.039689507407
 20
-330.544030745793
 30
0.0
 11
-2997.039689507408
 21
-330.5440307457931
 31
0.0
  0
LINE
  5
2327B
330
18
100
AcDbEntity
  8
中心線
 48
3.0
100
AcDbLine
 10
-2961.539689507407
 20
-335.0440307457936
 30
0.0
 11
-2961.539689507407
 21
-326.0440307457936
 31
0.0
  0
CIRCLE
  5
2327C
330
18
100
AcDbEntity
  8
実線
100
AcDbCircle
 10
-2961.539689507407
 20
-330.5440307457936
 30
0.0
 40
2.1
  0
LINE
  5
2327D
330
18
100
AcDbEntity
  8
中心線
 48
3.0
100
AcDbLine
 10
-2966.039689507407
 20
-330.544030745793
 30
0.0
 11
-2957.039689507407
 21
-330.5440307457931
 31
0.0
  0
CIRCLE
  5
2327E
330
18
100
AcDbEntity
  8
細線
100
AcDbCircle
 10
-2961.539689507407
 20
-330.5440307457926
 30
0.0
 40
2.5
  0
LINE
  5
2327F
330
18
100
AcDbEntity
  8
実線
100
AcDbLine
 10
-2963.222670521818
 20
-345.5440307457941
 30
0.0
 11
-2937.539689507407
 21
-345.5440307457941
 31
0.0
  0
LINE
  5
23280
330
18
100
AcDbEntity
  8
実線
100
AcDbLine
 10
-2960.82754723052
 20
-325.5440307457929
 30
0.0
 11
-2937.539689507407
 21
-325.5440307457935
 31
0.0
  0
LINE
  5
23290
330
18
100
AcDbEntity
  8
実線
100
AcDbLine
 10
-2861.210772918582
 20
-419.586782545898
 30
0.0
 11
-2861.210772918582
 21
-424.4867825458983
 31
0.0
  0
LINE
  5
23291
330
18
100
AcDbEntity
  8
実線
100
AcDbLine
 10
-2874.41077291858
 20
-418.5867825458982
 30
0.0
 11
-2874.41077291858
 21
-424.4867825458983
 31
0.0
  0
LINE
  5
23292
330
18
100
AcDbEntity
  8
実線
100
AcDbLine
 10
-2876.410772918582
 20
-421.2867825458983
 30
0.0
 11
-2876.410772918582
 21
-427.5867825458986
 31
0.0
  0
LINE
  5
23293
330
18
100
AcDbEntity
  8
実線
100
AcDbLine
 10
-2874.41077291858
 20
-427.0867825458985
 30
0.0
 11
-2874.41077291858
 21
-421.7867825458985
 31
0.0
  0
LINE
  5
23294
330
18
100
AcDbEntity
  8
実線
100
AcDbLine
 10
-2850.71077291858
 20
-420.4867825458978
 30
0.0
 11
-2850.71077291858
 21
-423.9267825458981
 31
0.0
  0
LINE
  5
23295
330
18
100
AcDbEntity
  8
実線
100
AcDbLine
 10
-2856.710772918582
 20
-431.6867825458981
 30
0.0
 11
-2857.710772918581
 21
-432.6867825458979
 31
0.0
  0
LINE
  5
23296
330
18
100
AcDbEntity
  8
実線
100
AcDbLine
 10
-2858.710772918581
 20
-431.6867825458981
 30
0.0
 11
-2858.710772918581
 21
-432.6867825458979
 31
0.0
  0
LINE
  5
23297
330
18
100
AcDbEntity
  8
実線
100
AcDbLine
 10
-2862.210772918581
 20
-431.6867825458981
 30
0.0
 11
-2862.210772918581
 21
-432.6867825458979
 31
0.0
  0
LINE
  5
23298
330
18
100
AcDbEntity
  8
実線
100
AcDbLine
 10
-2868.710772918582
 20
-431.286782545898
 30
0.0
 11
-2868.710772918582
 21
-433.286782545898
 31
0.0
  0
LINE
  5
23299
330
18
100
AcDbEntity
  8
実線
100
AcDbLine
 10
-2857.710772918581
 20
-432.6867825458979
 30
0.0
 11
-2858.710772918581
 21
-432.6867825458979
 31
0.0
  0
LINE
  5
2329A
330
18
100
AcDbEntity
  8
実線
100
AcDbLine
 10
-2859.110772918581
 20
-432.6867825458979
 30
0.0
 11
-2859.710772918582
 21
-433.286782545898
 31
0.0
  0
LINE
  5
2329B
330
18
100
AcDbEntity
  8
実線
100
AcDbLine
 10
-2858.710772918581
 20
-432.6867825458979
 30
0.0
 11
-2859.110772918581
 21
-432.6867825458979
 31
0.0
  0
LINE
  5
2329C
330
18
100
AcDbEntity
  8
実線
100
AcDbLine
 10
-2859.110772918581
 20
-432.6867825458979
 30
0.0
 11
-2862.210772918581
 21
-432.6867825458979
 31
0.0
  0
LINE
  5
2329D
330
18
100
AcDbEntity
  8
実線
100
AcDbLine
 10
-2867.91077291858
 20
-433.286782545898
 30
0.0
 11
-2868.710772918582
 21
-433.286782545898
 31
0.0
  0
LINE
  5
2329E
330
18
100
AcDbEntity
  8
実線
100
AcDbLine
 10
-2867.91077291858
 20
-432.6867825458979
 30
0.0
 11
-2867.91077291858
 21
-433.286782545898
 31
0.0
  0
LINE
  5
2329F
330
18
100
AcDbEntity
  8
実線
100
AcDbLine
 10
-2862.210772918581
 20
-432.6867825458979
 30
0.0
 11
-2867.91077291858
 21
-432.6867825458979
 31
0.0
  0
LINE
  5
232A0
330
18
100
AcDbEntity
  8
実線
100
AcDbLine
 10
-2859.710772918582
 20
-433.286782545898
 30
0.0
 11
-2867.91077291858
 21
-433.286782545898
 31
0.0
  0
LINE
  5
232A1
330
18
100
AcDbEntity
  8
実線
100
AcDbLine
 10
-2850.71077291858
 20
-428.4867825458983
 30
0.0
 11
-2861.210772918582
 21
-428.4867825458983
 31
0.0
  0
LINE
  5
232A2
330
18
100
AcDbEntity
  8
実線
100
AcDbLine
 10
-2861.210772918582
 20
-425.0467825458978
 30
0.0
 11
-2850.71077291858
 21
-425.0467825458978
 31
0.0
  0
LINE
  5
232A3
330
18
100
AcDbEntity
  8
実線
100
AcDbLine
 10
-2850.71077291858
 20
-423.9267825458981
 30
0.0
 11
-2861.210772918582
 21
-423.9267825458981
 31
0.0
  0
LINE
  5
232A4
330
18
100
AcDbEntity
  8
実線
100
AcDbLine
 10
-2856.710772918582
 20
-430.8867825458979
 30
0.0
 11
-2856.710772918582
 21
-431.6867825458981
 31
0.0
  0
LINE
  5
232A5
330
18
100
AcDbEntity
  8
実線
100
AcDbLine
 10
-2857.710772918581
 20
-429.8867825458978
 30
0.0
 11
-2856.710772918582
 21
-430.8867825458979
 31
0.0
  0
LINE
  5
232A6
330
18
100
AcDbEntity
  8
実線
100
AcDbLine
 10
-2858.710772918581
 20
-429.8867825458978
 30
0.0
 11
-2857.710772918581
 21
-429.8867825458978
 31
0.0
  0
LINE
  5
232A7
330
18
100
AcDbEntity
  8
実線
100
AcDbLine
 10
-2861.210772918582
 20
-424.4867825458983
 30
0.0
 11
-2861.210772918582
 21
-429.3867825458979
 31
0.0
  0
LINE
  5
232A8
330
18
100
AcDbEntity
  8
実線
100
AcDbLine
 10
-2858.710772918581
 20
-430.8867825458979
 30
0.0
 11
-2858.710772918581
 21
-429.8867825458978
 31
0.0
  0
LINE
  5
232A9
330
18
100
AcDbEntity
  8
実線
100
AcDbLine
 10
-2862.210772918581
 20
-430.8867825458979
 30
0.0
 11
-2862.210772918581
 21
-431.6867825458981
 31
0.0
  0
LINE
  5
232AA
330
18
100
AcDbEntity
  8
実線
100
AcDbLine
 10
-2860.803985127274
 20
-430.8867825458979
 30
0.0
 11
-2860.803985127274
 21
-431.6867825458981
 31
0.0
  0
ARC
  5
232AB
330
18
100
AcDbEntity
  8
実線
100
AcDbCircle
 10
-2864.256251405977
 20
-429.9322610332941
 30
0.0
 40
0.545478487396098
100
AcDbArc
 50
280.1852278629175
 51
90.0
  0
LINE
  5
232AC
330
18
100
AcDbEntity
  8
実線
100
AcDbLine
 10
-2860.803985127274
 20
-430.8867825458979
 30
0.0
 11
-2862.210772918581
 21
-430.8867825458979
 31
0.0
  0
LINE
  5
232AD
330
18
100
AcDbEntity
  8
実線
100
AcDbLine
 10
-2862.210772918581
 20
-430.4838191768011
 30
0.0
 11
-2862.210772918581
 21
-430.8867825458979
 31
0.0
  0
LINE
  5
232AE
330
18
100
AcDbEntity
  8
実線
100
AcDbLine
 10
-2861.210772918582
 20
-429.3867825458979
 30
0.0
 11
-2862.123147379475
 21
-430.2760506901651
 31
0.0
  0
ARC
  5
232AF
330
18
100
AcDbEntity
  8
実線
100
AcDbCircle
 10
-2861.92064072846
 20
-430.4838191768011
 30
0.0
 40
0.2901321901215654
100
AcDbArc
 50
134.2652139555196
 51
180.0
  0
LINE
  5
232B0
330
18
100
AcDbEntity
  8
実線
100
AcDbLine
 10
-2862.210772918581
 20
-431.6867825458981
 30
0.0
 11
-2860.803985127274
 21
-431.6867825458981
 31
0.0
  0
LINE
  5
232B1
330
18
100
AcDbEntity
  8
実線
100
AcDbLine
 10
-2858.710772918581
 20
-430.8867825458979
 30
0.0
 11
-2860.803985127274
 21
-430.8867825458979
 31
0.0
  0
LINE
  5
232B2
330
18
100
AcDbEntity
  8
実線
100
AcDbLine
 10
-2860.803985127274
 20
-431.6867825458981
 30
0.0
 11
-2858.710772918581
 21
-431.6867825458981
 31
0.0
  0
LINE
  5
232B3
330
18
100
AcDbEntity
  8
実線
100
AcDbLine
 10
-2874.41077291858
 20
-424.4867825458983
 30
0.0
 11
-2874.41077291858
 21
-430.3867825458977
 31
0.0
  0
LINE
  5
232B4
330
18
100
AcDbEntity
  8
実線
100
AcDbLine
 10
-2873.910772918581
 20
-430.3867825458977
 30
0.0
 11
-2874.41077291858
 21
-430.3867825458977
 31
0.0
  0
LINE
  5
232B5
330
18
100
AcDbEntity
  8
実線
100
AcDbLine
 10
-2873.41077291858
 20
-429.3867825458979
 30
0.0
 11
-2873.41077291858
 21
-429.8867825458978
 31
0.0
  0
ARC
  5
232B6
330
18
100
AcDbEntity
  8
実線
100
AcDbCircle
 10
-2873.910772918581
 20
-429.8867825458978
 30
0.0
 40
0.5
100
AcDbArc
 50
270.0
 51
0.0
  0
LINE
  5
232B7
330
18
100
AcDbEntity
  8
実線
100
AcDbLine
 10
-2874.41077291858
 20
-424.4867825458983
 30
0.0
 11
-2876.410772918582
 21
-424.4867825458983
 31
0.0
  0
LINE
  5
232B8
330
18
100
AcDbEntity
  8
実線
100
AcDbLine
 10
-2874.41077291858
 20
-423.0867825458982
 30
0.0
 11
-2876.410772918582
 21
-423.0867825458982
 31
0.0
  0
LINE
  5
232B9
330
18
100
AcDbEntity
  8
実線
100
AcDbLine
 10
-2874.41077291858
 20
-425.7867825458985
 30
0.0
 11
-2876.410772918582
 21
-425.7867825458985
 31
0.0
  0
LINE
  5
232BA
330
18
100
AcDbEntity
  8
実線
100
AcDbLine
 10
-2874.41077291858
 20
-427.0867825458985
 30
0.0
 11
-2876.410772918582
 21
-427.0867825458985
 31
0.0
  0
LINE
  5
232BB
330
18
100
AcDbEntity
  8
実線
100
AcDbLine
 10
-2864.256251405977
 20
-429.3867825458979
 30
0.0
 11
-2873.41077291858
 21
-429.3867825458979
 31
0.0
  0
LINE
  5
232BC
330
18
100
AcDbEntity
  8
実線
100
AcDbLine
 10
-2864.159793906809
 20
-430.4691434515815
 30
0.0
 11
-2868.710772918582
 21
-431.286782545898
 31
0.0
  0
LINE
  5
232BD
330
18
100
AcDbEntity
  8
実線
100
AcDbLine
 10
-2850.71077291858
 20
-425.0467825458978
 30
0.0
 11
-2850.71077291858
 21
-428.4867825458983
 31
0.0
  0
LINE
  5
232BE
330
18
100
AcDbEntity
  8
実線
100
AcDbLine
 10
-2861.210772918582
 20
-420.4867825458983
 30
0.0
 11
-2850.71077291858
 21
-420.4867825458978
 31
0.0
  0
LINE
  5
232BF
330
18
100
AcDbEntity
  8
実線
100
AcDbLine
 10
-2876.410772918582
 20
-421.7867825458985
 30
0.0
 11
-2874.41077291858
 21
-421.7867825458985
 31
0.0
  0
LINE
  5
232C0
330
18
100
AcDbEntity
  8
実線
100
AcDbLine
 10
-2874.41077291858
 20
-418.5867825458982
 30
0.0
 11
-2873.910772918581
 21
-418.5867825458982
 31
0.0
  0
LINE
  5
232C1
330
18
100
AcDbEntity
  8
実線
100
AcDbLine
 10
-2873.41077291858
 20
-419.0867825458981
 30
0.0
 11
-2873.41077291858
 21
-419.586782545898
 31
0.0
  0
ARC
  5
232C2
330
18
100
AcDbEntity
  8
実線
100
AcDbCircle
 10
-2873.910772918581
 20
-419.0867825458981
 30
0.0
 40
0.5
100
AcDbArc
 50
0.0
 51
90.0
  0
LINE
  5
232C3
330
18
100
AcDbEntity
  8
実線
100
AcDbLine
 10
-2873.41077291858
 20
-419.586782545898
 30
0.0
 11
-2861.210772918582
 21
-419.586782545898
 31
0.0
  0
LINE
  5
23433
330
18
100
AcDbEntity
  8
実線
100
AcDbLine
 10
-3065.539689507407
 20
-420.5440307457936
 30
0.0
 11
-3065.539689507407
 21
-325.544030745793
 31
0.0
  0
LINE
  5
23461
330
18
100
AcDbEntity
  8
中心線
 48
3.0
100
AcDbLine
 10
-3046.039689507407
 20
-330.544030745793
 30
0.0
 11
-3037.039689507407
 21
-330.5440307457931
 31
0.0
  0
CIRCLE
  5
23462
330
18
100
AcDbEntity
  8
実線
100
AcDbCircle
 10
-3041.539689507407
 20
-330.5440307457936
 30
0.0
 40
2.1
  0
LINE
  5
23463
330
18
100
AcDbEntity
  8
中心線
 48
3.0
100
AcDbLine
 10
-3041.539689507407
 20
-335.0440307457936
 30
0.0
 11
-3041.539689507407
 21
-326.0440307457936
 31
0.0
  0
CIRCLE
  5
23464
330
18
100
AcDbEntity
  8
細線
100
AcDbCircle
 10
-3041.539689507407
 20
-330.5440307457926
 30
0.0
 40
2.5
  0
LINE
  5
23465
330
18
100
AcDbEntity
  8
中心線
 48
3.0
100
AcDbLine
 10
-3046.039689507407
 20
-410.5440307457928
 30
0.0
 11
-3037.039689507407
 21
-410.5440307457931
 31
0.0
  0
CIRCLE
  5
23466
330
18
100
AcDbEntity
  8
細線
100
AcDbCircle
 10
-3041.539689507407
 20
-410.5440307457926
 30
0.0
 40
2.5
  0
CIRCLE
  5
23467
330
18
100
AcDbEntity
  8
実線
100
AcDbCircle
 10
-3041.539689507407
 20
-410.5440307457936
 30
0.0
 40
2.1
  0
LINE
  5
23468
330
18
100
AcDbEntity
  8
中心線
 48
3.0
100
AcDbLine
 10
-3041.539689507407
 20
-415.0440307457936
 30
0.0
 11
-3041.539689507407
 21
-406.0440307457936
 31
0.0
  0
LINE
  5
24109
330
18
100
AcDbEntity
  8
実線
100
AcDbLine
 10
-2937.539689507407
 20
-275.7367976331857
 30
0.0
 11
-3002.782896285606
 21
-275.7367976331857
 31
0.0
  0
LINE
  5
2410A
330
18
100
AcDbEntity
  8
実線
100
AcDbLine
 10
-2937.539689507407
 20
-292.7367976331856
 30
0.0
 11
-3004.746243825485
 21
-292.7367976331856
 31
0.0
  0
LINE
  5
2410C
330
18
100
AcDbEntity
  8
0
100
AcDbLine
 10
-2997.035637898536
 20
-291.2406827020792
 30
0.0
 11
-2963.035637898537
 21
-291.2406827020792
 31
0.0
  0
LINE
  5
2410E
330
18
100
AcDbEntity
  8
0
100
AcDbLine
 10
-2963.035637898537
 20
-279.2406827020792
 30
0.0
 11
-2997.035637898536
 21
-279.2406827020792
 31
0.0
  0
SPLINE
  5
24110
330
18
100
AcDbEntity
  8
実線
100
AcDbSpline
210
0.0
220
0.0
230
1.0
 70
     8
 71
     3
 72
    12
 73
     8
 74
     6
 42
0.0000000001
 43
0.0000000001
 44
0.0000000001
 40
0.0
 40
0.0
 40
0.0
 40
0.0
 40
3.393404858668809
 40
9.239086133661611
 40
13.23455097091478
 40
17.2737224909701
 40
24.76338539145983
 40
24.76338539145983
 40
24.76338539145983
 40
24.76338539145983
 10
-3000.61232574943
 20
-272.8814921155998
 30
0.0
 10
-3001.340726667851
 20
-273.7314934280918
 30
0.0
 10
-3003.323914382084
 20
-276.0457576161027
 30
0.0
 10
-3004.937019279308
 20
-280.8393418927156
 30
0.0
 10
-3002.090221432879
 20
-284.8676065201869
 30
0.0
 10
-3002.650763227921
 20
-290.3744578933259
 30
0.0
 10
-3005.178761516253
 20
-293.376245712069
 30
0.0
 10
-3006.821065872612
 20
-295.326345612985
 30
0.0
 11
-3000.61232574943
 21
-272.8814921155998
 31
0.0
 11
-3002.681908915031
 21
-275.5707340265288
 31
0.0
 11
-3004.027136097946
 21
-281.2595259365171
 31
0.0
 11
-3002.578424132577
 21
-284.9830958508764
 31
0.0
 11
-3002.785384323861
 21
-289.0169617444888
 31
0.0
 11
-3006.821065872612
 21
-295.326345612985
 31
0.0
  0
LINE
  5
24111
330
18
100
AcDbEntity
  8
0
100
AcDbLine
 10
-2997.535637898535
 20
-279.7406827020791
 30
0.0
 11
-2997.535637898535
 21
-290.7406827020792
 31
0.0
  0
ARC
  5
24112
330
18
100
AcDbEntity
  8
0
100
AcDbCircle
 10
-2997.035637898536
 20
-290.7406827020792
 30
0.0
 40
0.5
100
AcDbArc
 50
180.0
 51
270.0
  0
ARC
  5
24113
330
18
100
AcDbEntity
  8
0
100
AcDbCircle
 10
-2997.035637898536
 20
-279.7406827020791
 30
0.0
 40
0.5
100
AcDbArc
 50
90.0
 51
180.0
  0
LWPOLYLINE
  5
24116
330
18
100
AcDbEntity
  8
0
100
AcDbPolyline
 90
        8
 70
     1
 43
0.0
 10
-2943.035637898535
 20
-280.2406827020792
 10
-2957.035637898536
 20
-280.2406827020788
 42
0.4142135623730951
 10
-2957.535637898535
 20
-280.7406827020788
 10
-2957.535637898535
 20
-289.7406827020788
 42
0.4142135623730951
 10
-2957.035637898536
 20
-290.2406827020787
 10
-2943.035637898535
 20
-290.2406827020787
 42
0.4142135623730996
 10
-2942.535637898537
 20
-289.7406827020788
 10
-2942.535637898537
 20
-280.7406827020792
 42
0.4142135623730904
  0
LINE
  5
2411F
330
18
100
AcDbEntity
  8
0
100
AcDbLine
 10
-2962.535637898536
 20
-290.7406827020792
 30
0.0
 11
-2962.535637898536
 21
-279.7406827020791
 31
0.0
  0
ARC
  5
24121
330
18
100
AcDbEntity
  8
0
100
AcDbCircle
 10
-2963.035637898537
 20
-290.7406827020792
 30
0.0
 40
0.5
100
AcDbArc
 50
270.0
 51
0.0
  0
ARC
  5
24122
330
18
100
AcDbEntity
  8
0
100
AcDbCircle
 10
-2963.035637898537
 20
-279.7406827020791
 30
0.0
 40
0.5
100
AcDbArc
 50
0.0
 51
90.0
  0
LINE
  5
24136
330
18
100
AcDbEntity
  8
実線
100
AcDbLine
 10
-2937.539689507407
 20
-275.7367976331861
 30
0.0
 11
-2937.539689507407
 21
-292.7367976331856
 31
0.0
  0
LINE
  5
24274
330
18
100
AcDbEntity
  8
実線
100
AcDbLine
 10
-2937.539689507407
 20
-419.0482157860661
 30
0.0
 11
-2917.539689507407
 21
-419.0482157860661
 31
0.0
  0
LINE
  5
24275
330
18
100
AcDbEntity
  8
実線
100
AcDbLine
 10
-2917.539689507407
 20
-419.0482157860661
 30
0.0
 11
-2917.539689507407
 21
-412.0482157860663
 31
0.0
  0
LINE
  5
24276
330
18
100
AcDbEntity
  8
実線
100
AcDbLine
 10
-2917.539689507407
 20
-412.0482157860663
 30
0.0
 11
-2937.539689507407
 21
-412.0482157860663
 31
0.0
  0
LINE
  5
243AE
330
18
100
AcDbEntity
  8
実線
100
AcDbLine
 10
-2822.736184485362
 20
-345.5440307457946
 30
0.0
 11
-2822.736184485363
 21
-334.544030745795
 31
0.0
  0
LINE
  5
243B1
330
18
100
AcDbEntity
  8
実線
100
AcDbLine
 10
-2826.736184485362
 20
-345.544030745795
 30
0.0
 11
-2826.736184485364
 21
-326.044030745794
 31
0.0
  0
LINE
  5
243B2
330
18
100
AcDbEntity
  8
２点鎖線
 48
0.3
100
AcDbLine
 10
-2800.736184485364
 20
-330.5440307457946
 30
0.0
 11
-2800.736184485364
 21
-410.5440307457945
 31
0.0
  0
LINE
  5
243B3
330
18
100
AcDbEntity
  8
２点鎖線
 48
0.3
100
AcDbLine
 10
-2796.736184485364
 20
-330.5440307457946
 30
0.0
 11
-2796.736184485364
 21
-410.5440307457945
 31
0.0
  0
LINE
  5
243B4
330
18
100
AcDbEntity
  8
実線
100
AcDbLine
 10
-2811.336184485362
 20
-340.5440307457926
 30
0.0
 11
-2811.336184485355
 21
-400.5440307457921
 31
0.0
  0
LINE
  5
243B5
330
18
100
AcDbEntity
  8
２点鎖線
 48
0.5
100
AcDbLine
 10
-2840.987253909849
 20
-368.8370382054613
 30
0.0
 11
-2840.987253909856
 21
-316.3028538705781
 31
0.0
  0
LINE
  5
243B7
330
18
100
AcDbEntity
  8
実線
100
AcDbLine
 10
-2822.736184485355
 20
-406.5440307457948
 30
0.0
 11
-2822.736184485355
 21
-395.544030745795
 31
0.0
  0
LINE
  5
243B8
330
18
100
AcDbEntity
  8
実線
100
AcDbLine
 10
-2826.736184485352
 20
-420.044030745795
 30
0.0
 11
-2826.736184485357
 21
-395.544030745795
 31
0.0
  0
LINE
  5
243B9
330
18
100
AcDbEntity
  8
２点鎖線
 48
0.5
100
AcDbLine
 10
-2840.987253909843
 20
-424.7852076210161
 30
0.0
 11
-2840.987253909849
 21
-368.8370382054628
 31
0.0
  0
LINE
  5
243BB
330
18
100
AcDbEntity
  8
中心線
 48
0.5
100
AcDbLine
 10
-2813.247736775532
 20
-410.5440307457931
 30
0.0
 11
-2828.736184485356
 21
-410.5440307457945
 31
0.0
  0
LINE
  5
243BC
330
18
100
AcDbEntity
  8
実線
100
AcDbLine
 10
-2823.736184485353
 20
-420.544030745795
 30
0.0
 11
-2826.236184485354
 21
-420.544030745795
 31
0.0
  0
LINE
  5
243E1
330
18
100
AcDbEntity
  8
２点鎖線
100
AcDbLine
 10
-2826.736184485352
 20
-420.044030745795
 30
0.0
 11
-2826.736184485352
 21
-424.7852076210119
 31
0.0
  0
LINE
  5
243E2
330
18
100
AcDbEntity
  8
実線
100
AcDbLine
 10
-2826.236184485354
 20
-420.544030745795
 30
0.0
 11
-2826.736184485352
 21
-420.044030745795
 31
0.0
  0
LINE
  5
243E3
330
18
100
AcDbEntity
  8
２点鎖線
 48
0.5
100
AcDbLine
 10
-2840.987253909843
 20
-424.7852076210149
 30
0.0
 11
-2826.736184485355
 21
-424.7852076210119
 31
0.0
  0
LINE
  5
243E7
330
18
100
AcDbEntity
  8
中心線
 48
0.2
100
AcDbLine
 10
-2821.036184485355
 20
-411.9377538921821
 30
0.0
 11
-2821.036184485355
 21
-406.8121760359701
 31
0.0
  0
LINE
  5
243E8
330
18
100
AcDbEntity
  8
実線
100
AcDbLine
 10
-2818.736184485354
 20
-420.5440307457942
 30
0.0
 11
-2818.736184485356
 21
-411.0440307457943
 31
0.0
  0
LINE
  5
243EA
330
18
100
AcDbEntity
  8
実線
100
AcDbLine
 10
-2806.736184485354
 20
-420.5440307457926
 30
0.0
 11
-2806.736184485355
 21
-400.5440307457917
 31
0.0
  0
LINE
  5
243EB
330
18
100
AcDbEntity
  8
実線
  6
HIDDEN
 48
5.0
100
AcDbLine
 10
-2806.736184485354
 20
-420.0440307457941
 30
0.0
 11
-2806.736184485354
 21
-411.0440307457938
 31
0.0
  0
LINE
  5
243EC
330
18
100
AcDbEntity
  8
中心線
  6
CENTER
 48
3.0
100
AcDbLine
 10
-2811.236184485354
 20
-420.0164967358245
 30
0.0
 11
-2811.236184485355
 21
-411.0715647557633
 31
0.0
  0
LINE
  5
243ED
330
18
100
AcDbEntity
  8
中心線
 48
0.2
100
AcDbLine
 10
-2821.036184485354
 20
-418.6010014725938
 30
0.0
 11
-2821.036184485355
 21
-413.3405428564786
 31
0.0
  0
LINE
  5
243EE
330
18
100
AcDbEntity
  8
中心線
  6
CENTER
 48
0.2
100
AcDbLine
 10
-2822.923300156668
 20
-416.0440307457945
 30
0.0
 11
-2818.087797670072
 21
-416.0440307457945
 31
0.0
  0
CIRCLE
  5
243EF
330
18
100
AcDbEntity
  8
実線
 48
0.1
100
AcDbCircle
 10
-2821.036184485354
 20
-416.0440307457945
 30
0.0
 40
1.25
  0
CIRCLE
  5
243F0
330
18
100
AcDbEntity
  8
細線
100
AcDbCircle
 10
-2821.036184485354
 20
-416.0440307457945
 30
0.0
 40
1.5
  0
LINE
  5
243F1
330
18
100
AcDbEntity
  8
中心線
  6
CENTER
 48
3.0
100
AcDbLine
 10
-2815.708650475384
 20
-415.5440307457955
 30
0.0
 11
-2806.763718495322
 21
-415.5440307457941
 31
0.0
  0
LINE
  5
243F2
330
18
100
AcDbEntity
  8
実線
100
AcDbLine
 10
-2823.736184485353
 20
-420.544030745795
 30
0.0
 11
-2806.736184485354
 21
-420.5440307457926
 31
0.0
  0
CIRCLE
  5
243F3
330
18
100
AcDbEntity
  8
実線
100
AcDbCircle
 10
-2811.236184485354
 20
-415.5440307457938
 30
0.0
 40
3.5
  0
LINE
  5
243F4
330
18
100
AcDbEntity
  8
中心線
  6
CENTER
 48
0.2
100
AcDbLine
 10
-2822.92330015667
 20
-409.0440307457946
 30
0.0
 11
-2818.087797670072
 21
-409.0440307457945
 31
0.0
  0
CIRCLE
  5
243F5
330
18
100
AcDbEntity
  8
細線
100
AcDbCircle
 10
-2821.036184485355
 20
-409.0440307457946
 30
0.0
 40
1.5
  0
CIRCLE
  5
243F6
330
18
100
AcDbEntity
  8
実線
 48
0.1
100
AcDbCircle
 10
-2821.036184485355
 20
-409.0440307457946
 30
0.0
 40
1.25
  0
LINE
  5
243F7
330
18
100
AcDbEntity
  8
実線
100
AcDbLine
 10
-2822.736184485355
 20
-406.5440307457948
 30
0.0
 11
-2811.736184485355
 21
-406.5440307457934
 31
0.0
  0
LINE
  5
243F8
330
18
100
AcDbEntity
  8
実線
100
AcDbLine
 10
-2811.736184485354
 20
-411.0440307457933
 30
0.0
 11
-2811.736184485355
 21
-406.5440307457931
 31
0.0
  0
LINE
  5
243F9
330
18
100
AcDbEntity
  8
実線
100
AcDbLine
 10
-2818.736184485356
 20
-411.0440307457944
 30
0.0
 11
-2811.736184485354
 21
-411.0440307457934
 31
0.0
  0
LINE
  5
243FA
330
18
100
AcDbEntity
  8
２点鎖線
 48
0.3
100
AcDbLine
 10
-2802.736184485363
 20
-404.5440307457946
 30
0.0
 11
-2794.736184485364
 21
-404.5440307457946
 31
0.0
  0
LINE
  5
243FB
330
18
100
AcDbEntity
  8
２点鎖線
 48
0.3
100
AcDbLine
 10
-2800.736184485364
 20
-407.0440307457945
 30
0.0
 11
-2796.736184485364
 21
-407.0440307457945
 31
0.0
  0
LINE
  5
243FC
330
18
100
AcDbEntity
  8
２点鎖線
 48
0.3
100
AcDbLine
 10
-2800.736184485364
 20
-410.5440307457945
 30
0.0
 11
-2796.736184485364
 21
-410.5440307457945
 31
0.0
  0
LINE
  5
243FD
330
18
100
AcDbEntity
  8
２点鎖線
 48
0.3
100
AcDbLine
 10
-2800.736184485364
 20
-402.0440307457946
 30
0.0
 11
-2796.736184485364
 21
-402.0440307457946
 31
0.0
  0
LINE
  5
243FE
330
18
100
AcDbEntity
  8
実線
 48
4.0
100
AcDbLine
 10
-2806.736184485355
 20
-400.5440307457917
 30
0.0
 11
-2811.336184485355
 21
-400.5440307457921
 31
0.0
  0
ARC
  5
243FF
330
18
100
AcDbEntity
  8
実線
100
AcDbCircle
 10
-2825.736184485355
 20
-394.3842277710073
 30
0.0
 40
1.0
100
AcDbArc
 50
99.92624550665277
 51
179.9999999999739
  0
ARC
  5
24400
330
18
100
AcDbEntity
  8
実線
 48
0.5
100
AcDbCircle
 10
-2825.736184485355
 20
-346.7038337205825
 30
0.0
 40
1.0
100
AcDbArc
 50
180.0
 51
260.0737544933472
  0
LINE
  5
24401
330
18
100
AcDbEntity
  8
実線
100
AcDbLine
 10
-2822.736184485357
 20
-395.544030745795
 30
0.0
 11
-2826.736184485355
 21
-395.544030745795
 31
0.0
  0
LINE
  5
24402
330
18
100
AcDbEntity
  8
実線
100
AcDbLine
 10
-2822.736184485362
 20
-345.5440307457946
 30
0.0
 11
-2826.736184485362
 21
-345.5440307457938
 31
0.0
  0
LINE
  5
24404
330
18
100
AcDbEntity
  8
中心線
100
AcDbLine
 10
-2794.164502353632
 20
-370.5440307457923
 30
0.0
 11
-2830.394975253449
 21
-370.5440307457952
 31
0.0
  0
LINE
  5
24407
330
18
100
AcDbEntity
  8
２点鎖線
100
AcDbLine
 10
-2826.736184485357
 20
-346.7038337205825
 30
0.0
 11
-2826.736184485355
 21
-394.3842277710064
 31
0.0
  0
LINE
  5
24408
330
18
100
AcDbEntity
  8
実線
100
AcDbLine
 10
-2826.736184485355
 20
-394.3842277710066
 30
0.0
 11
-2826.736184485357
 21
-395.544030745795
 31
0.0
  0
LINE
  5
24409
330
18
100
AcDbEntity
  8
実線
100
AcDbLine
 10
-2826.736184485357
 20
-345.5440307457938
 30
0.0
 11
-2826.736184485357
 21
-346.7038337205825
 31
0.0
  0
LINE
  5
2440A
330
18
100
AcDbEntity
  8
実線
100
AcDbLine
 10
-2818.736184485356
 20
-391.3038337205826
 30
0.0
 11
-2818.736184485359
 21
-349.784227771007
 31
0.0
  0
LINE
  5
2440B
330
18
100
AcDbEntity
  8
２点鎖線
 48
0.3
100
AcDbLine
 10
-2810.836184485363
 20
-345.3440307457944
 30
0.0
 11
-2810.836184485363
 21
-395.7440307457945
 31
0.0
  0
LINE
  5
2440C
330
18
100
AcDbEntity
  8
実線
100
AcDbLine
 10
-2819.563804153604
 20
-392.2888641877383
 30
0.0
 11
-2825.908564817108
 21
-393.3991973038516
 31
0.0
  0
ARC
  5
2440D
330
18
100
AcDbEntity
  8
実線
100
AcDbCircle
 10
-2819.736184485356
 20
-391.3038337205826
 30
0.0
 40
1.0
100
AcDbArc
 50
279.9262455066525
 51
0.0000000000032569
  0
LINE
  5
2440E
330
18
100
AcDbEntity
  8
２点鎖線
 48
0.3
100
AcDbLine
 10
-2810.836184485363
 20
-395.7440307457945
 30
0.0
 11
-2800.736184485364
 21
-395.7440307457945
 31
0.0
  0
LINE
  5
24410
330
18
100
AcDbEntity
  8
実線
100
AcDbLine
 10
-2819.563804153607
 20
-348.7991973038513
 30
0.0
 11
-2825.908564817109
 21
-347.6888641877382
 31
0.0
  0
ARC
  5
24411
330
18
100
AcDbEntity
  8
実線
100
AcDbCircle
 10
-2819.736184485359
 20
-349.7842277710071
 30
0.0
 40
1.0
100
AcDbArc
 50
0.0000000000065138
 51
80.07375449334725
  0
LINE
  5
24412
330
18
100
AcDbEntity
  8
２点鎖線
 48
0.3
100
AcDbLine
 10
-2810.836184485363
 20
-345.3440307457944
 30
0.0
 11
-2800.736184485364
 21
-345.3440307457944
 31
0.0
  0
LINE
  5
24413
330
18
100
AcDbEntity
  8
中心線
  6
CENTER
 48
0.3
100
AcDbLine
 10
-2813.069875597474
 20
-330.5440307457935
 30
0.0
 11
-2828.736184485357
 21
-330.5440307457946
 31
0.0
  0
LINE
  5
24414
330
18
100
AcDbEntity
  8
実線
100
AcDbLine
 10
-2823.736184485364
 20
-325.5440307457943
 30
0.0
 11
-2826.236184485363
 21
-325.5440307457938
 31
0.0
  0
LINE
  5
24417
330
18
100
AcDbEntity
  8
２点鎖線
100
AcDbLine
 10
-2826.736184485357
 20
-316.3028538705781
 30
0.0
 11
-2826.736184485364
 21
-326.044030745794
 31
0.0
  0
LINE
  5
24418
330
18
100
AcDbEntity
  8
実線
100
AcDbLine
 10
-2826.736184485364
 20
-326.044030745794
 30
0.0
 11
-2826.236184485363
 21
-325.5440307457938
 31
0.0
  0
LINE
  5
24419
330
18
100
AcDbEntity
  8
２点鎖線
 48
0.5
100
AcDbLine
 10
-2840.987253909856
 20
-316.3028538705781
 30
0.0
 11
-2826.736184485357
 21
-316.3028538705781
 31
0.0
  0
LINE
  5
2441B
330
18
100
AcDbEntity
  8
実線
100
AcDbLine
 10
-2811.747542056774
 20
-334.5440307457942
 30
0.0
 11
-2811.747542056775
 21
-325.5440307457941
 31
0.0
  0
LINE
  5
2441D
330
18
100
AcDbEntity
  8
実線
100
AcDbLine
 10
-2809.736184485362
 20
-334.5440307457938
 30
0.0
 11
-2809.736184485364
 21
-325.5440307457938
 31
0.0
  0
LINE
  5
2441E
330
18
100
AcDbEntity
  8
実線
100
AcDbLine
 10
-2809.736184485362
 20
-340.5440307457932
 30
0.0
 11
-2809.736184485364
 21
-325.5440307457931
 31
0.0
  0
LINE
  5
2441F
330
18
100
AcDbEntity
  8
実線
100
AcDbLine
 10
-2811.747542056774
 20
-334.5440307457942
 30
0.0
 11
-2822.736184485363
 21
-334.5440307457948
 31
0.0
  0
LINE
  5
24420
330
18
100
AcDbEntity
  8
２点鎖線
 48
0.3
100
AcDbLine
 10
-2800.736184485364
 20
-334.0440307457946
 30
0.0
 11
-2796.736184485364
 21
-334.0440307457946
 31
0.0
  0
LINE
  5
24421
330
18
100
AcDbEntity
  8
２点鎖線
 48
0.3
100
AcDbLine
 10
-2800.736184485364
 20
-330.5440307457946
 30
0.0
 11
-2796.736184485364
 21
-330.5440307457946
 31
0.0
  0
LINE
  5
24422
330
18
100
AcDbEntity
  8
中心線
  6
CENTER
 48
3.0
100
AcDbLine
 10
-2802.736184485363
 20
-336.5440307457943
 30
0.0
 11
-2794.736184485364
 21
-336.5440307457943
 31
0.0
  0
LINE
  5
24423
330
18
100
AcDbEntity
  8
２点鎖線
 48
0.3
100
AcDbLine
 10
-2800.736184485364
 20
-339.0440307457946
 30
0.0
 11
-2796.736184485364
 21
-339.0440307457946
 31
0.0
  0
LINE
  5
24424
330
18
100
AcDbEntity
  8
実線
 48
4.0
100
AcDbLine
 10
-2809.736184485362
 20
-340.5440307457932
 30
0.0
 11
-2811.336184485363
 21
-340.5440307457932
 31
0.0
  0
LINE
  5
24425
330
18
100
AcDbEntity
  8
実線
100
AcDbLine
 10
-2809.736184485364
 20
-325.5440307457938
 30
0.0
 11
-2823.736184485364
 21
-325.5440307457948
 31
0.0
  0
LINE
  5
24535
330
18
100
AcDbEntity
  8
実線
100
AcDbLine
 10
-2917.539689507407
 20
-283.6867976331853
 30
0.0
 11
-2937.539689507407
 21
-283.6867976331853
 31
0.0
  0
LINE
  5
24536
330
18
100
AcDbEntity
  8
実線
100
AcDbLine
 10
-2937.539689507407
 20
-276.6867976331852
 30
0.0
 11
-2917.539689507407
 21
-276.6867976331852
 31
0.0
  0
LINE
  5
24537
330
18
100
AcDbEntity
  8
中心線
 48
0.4
100
AcDbLine
 10
-2912.903090445319
 20
-284.3909826734569
 30
0.0
 11
-2911.420467936337
 21
-275.9826125929138
 31
0.0
  0
LINE
  5
24538
330
18
100
AcDbEntity
  8
実線
100
AcDbLine
 10
-2912.71720918006
 20
-283.3367976331853
 30
0.0
 11
-2917.539689507407
 21
-283.3367976331853
 31
0.0
  0
LINE
  5
24539
330
18
100
AcDbEntity
  8
実線
100
AcDbLine
 10
-2917.539689507407
 20
-277.0367976331852
 30
0.0
 11
-2911.606349201596
 21
-277.0367976331852
 31
0.0
  0
LINE
  5
2453A
330
18
100
AcDbEntity
  8
実線
100
AcDbLine
 10
-2917.539689507407
 20
-276.6867976331852
 30
0.0
 11
-2917.539689507407
 21
-283.6867976331855
 31
0.0
  0
LINE
  5
2453B
330
18
100
AcDbEntity
  8
実線
100
AcDbLine
 10
-2937.539689507407
 20
-277.736797633185
 30
0.0
 11
-3003.721370926822
 21
-277.736797633185
 31
0.0
  0
LINE
  5
24659
330
18
100
AcDbEntity
  8
実線
100
AcDbLine
 10
-3062.539689507407
 20
-420.5440307457936
 30
0.0
 11
-3062.539689507407
 21
-395.544030745793
 31
0.0
  0
LINE
  5
2465A
330
18
100
AcDbEntity
  8
実線
100
AcDbLine
 10
-3062.539689507407
 20
-345.5440307457938
 30
0.0
 11
-3062.539689507407
 21
-325.544030745793
 31
0.0
  0
LINE
  5
2465B
330
18
100
AcDbEntity
  8
実線
100
AcDbLine
 10
-3065.539689507406
 20
-393.5440307457931
 30
0.0
 11
-2937.539689507407
 21
-393.5440307457934
 31
0.0
  0
LINE
  5
2465D
330
18
100
AcDbEntity
  8
実線
100
AcDbLine
 10
-3065.539689507406
 20
-392.1440307457931
 30
0.0
 11
-2937.539689507407
 21
-392.1440307457933
 31
0.0
  0
LINE
  5
2465F
330
18
100
AcDbEntity
  8
実線
100
AcDbLine
 10
-3065.539689507406
 20
-347.5440307457938
 30
0.0
 11
-2937.539689507407
 21
-347.5440307457941
 31
0.0
  0
LINE
  5
24660
330
18
100
AcDbEntity
  8
実線
100
AcDbLine
 10
-3065.539689507406
 20
-348.9440307457938
 30
0.0
 11
-2937.539689507407
 21
-348.9440307457941
 31
0.0
  0
VIEWPORT
  5
23
330
15
100
AcDbEntity
 67
     1
  8
0
100
AcDbViewport
 10
199.9983580683301
 20
144.2180274368714
 30
0.0
 40
373.8238489134009
 41
290.710470740232
 68
     1
 69
     1
 12
199.9983580683301
 22
144.2180274368714
 13
0.0
 23
0.0
 14
10.0
 24
10.0
 15
10.0
 25
10.0
 16
0.0
 26
0.0
 36
1.0
 17
0.0
 27
0.0
 37
0.0
 42
50.0
 43
0.0
 44
0.0
 45
290.710470740232
 50
0.0
 51
0.0
 72
   100
 90
    32768
  1

281
     0
 71
     1
 74
     0
110
0.0
120
0.0
130
0.0
111
1.0
121
0.0
131
0.0
112
0.0
122
1.0
132
0.0
 79
     0
146
0.0
  0
VIEWPORT
  5
2E
330
15
100
AcDbEntity
 67
     1
  8
M_VIEW
100
AcDbViewport
 10
200.0
 20
144.0
 30
0.0
 40
400.0
 41
288.0
 68
     2
 69
     2
 12
-2930.432875055071
 22
-402.4467569403026
 13
0.0
 23
0.0
 14
10.0
 24
10.0
 15
10.0
 25
10.0
 16
0.0
 26
0.0
 36
1.0
 17
0.0
 27
0.0
 37
0.0
 42
50.0
 43
0.0
 44
0.0
 45
288.0000043719163
 50
0.0
 51
0.0
 72
   100
 90
    32768
  1

281
     0
 71
     1
 74
     0
110
0.0
120
0.0
130
0.0
111
1.0
121
0.0
131
0.0
112
0.0
122
1.0
132
0.0
 79
     0
146
0.0
  0
INSERT
  5
115F
330
15
100
AcDbEntity
 67
     1
  8
FRAME025
100
AcDbBlockReference
  2
機械A4横_LBP
 10
82.74908858651452
 20
152.030959079227
 30
0.0
  0
TEXT
  5
AA6A
330
15
100
AcDbEntity
 67
     1
  8
文字
  6
ByBlock
 62
     0
100
AcDbText
 10
32.81885892396519
 20
73.01882819621747
 30
0.0
 40
3.2
  1

 50
90.0
 41
0.625
  7
MSｺ_ｼｯｸ
100
AcDbText
  0
TEXT
  5
AA6C
330
15
100
AcDbEntity
 67
     1
  8
文字
  6
ByBlock
 62
     0
100
AcDbText
 10
37.25020936743055
 20
73.01882819621747
 30
0.0
 40
3.2
  1

 50
90.0
 41
0.625
  7
MSｺ_ｼｯｸ
100
AcDbText
  0
TEXT
  5
FCA5
330
15
100
AcDbEntity
 67
     1
  8
FRAME020
  6
Continuous
100
AcDbText
 10
126.6213117262079
 20
29.63926951973459
 30
0.0
 40
2.5
  1

 41
0.625
  7
MSｺ_ｼｯｸ
100
AcDbText
  0
TEXT
  5
12229
330
15
100
AcDbEntity
 67
     1
  8
0
100
AcDbText
 10
324.703280378293
 20
10.63168299257869
 30
0.0
 40
6.0
  1
ＳＥ－３７０１１B
 41
1.1
100
AcDbText
  0
MTEXT
  5
21047
330
15
100
AcDbEntity
 67
     1
  8
0
 48
10.0
100
AcDbMText
 10
327.7719738752167
 20
55.46212977036839
 30
0.0
 40
6.0
 41
50.05040000000001
 71
     1
 72
     5
  1
{\fＭＳ ゴシック|b0|i0|c128|p49;\L質量：0.48kg}
 73
     1
 44
1.0
1001
ACAD
1000
MTEXTBEGIN
1070
    73
1070
     1
1070
    44
1040
1.0
1070
    74
1070
     0
1000
MTEXTEND
1000
MTEXTBEGIN
1070
    73
1070
     1
1070
    44
1040
1.0
1070
    74
1070
     0
1000
MTEXTEND
  0
MTEXT
  5
24743
330
15
100
AcDbEntity
 67
     1
  8
実線
100
AcDbMText
 10
208.0872042734303
 20
25.86635058273326
 30
0.0
 40
6.0
 41
189.0774
 71
     1
 72
     5
  1
{\fＭＳ ゴシック|b0|i0|c128|p49;τﾘﾆｱﾓｰﾀ ｺｱﾚｽﾌﾗｯﾄ NVA-AM CLﾕﾆｯﾄ CLV-AMB30A2B 45N}
  7
ｽﾀｲﾙ3
 73
     1
 44
1.0
1001
ACAD
1000
MTEXTBEGIN
1070
    73
1070
     1
1070
    44
1040
1.0
1070
    74
1070
     0
1000
MTEXTEND
1000
MTEXTBEGIN
1070
    73
1070
     1
1070
    44
1040
1.0
1070
    74
1070
     0
1000
MTEXTEND
1000
MTEXTBEGIN
1070
    73
1070
     1
1070
    44
1040
1.0
1070
    74
1070
     0
1000
MTEXTEND
  0
ENDSEC
  0
SECTION
  2
OBJECTS
  0
DICTIONARY
  5
C
330
0
100
AcDbDictionary
281
     1
  3
ACAD_GROUP
350
D
  3
ACAD_LAYOUT
350
DB2
  3
ACAD_MLINESTYLE
350
1B
  3
ACAD_PLOTSETTINGS
350
DB3
  3
ACAD_PLOTSTYLENAME
350
FB5B
  3
ACADDIM
350
1B534
  3
ACDBVARIABLEDICTIONARY
350
106A6
  3
ASE_INDEX_DICTIONARY
350
1A99F
  3
DWGPROPS
350
15EC9
1001
ACAD
1000
TREAT_AS_HARD
1070
     0
  0
DICTIONARY
  5
24278
330
2
100
AcDbDictionary
280
     1
281
     1
  3
ACAD_LAYERFILTERS
360
24279
  3
ACAD_LAYERSTATES
360
24285
  0
DICTIONARY
  5
EFC6
330
18
100
AcDbDictionary
280
     1
281
     1
  3
ACAD_LAYOUTSELFREF
360
247CC
  0
DICTIONARY
  5
EFC4
330
15
100
AcDbDictionary
280
     1
281
     1
  3
ACAD_LAYOUTSELFREF
360
247CB
  0
DICTIONARY
  5
D
102
{ACAD_REACTORS
330
C
102
}
330
C
100
AcDbDictionary
281
     1
  3
*A1
350
AC8A
  3
*A10
350
1F909
  3
*A100
350
2242F
  3
*A101
350
AC9A
  3
*A102
350
17389
  3
*A103
350
173BF
  3
*A104
350
1D698
  3
*A105
350
23430
  3
*A106
350
19794
  3
*A107
350
21E50
  3
*A108
350
106B3
  3
*A109
350
19F55
  3
*A11
350
2242E
  3
*A110
350
1F8F5
  3
*A111
350
23F0C
  3
*A112
350
1AA94
  3
*A113
350
22017
  3
*A114
350
22639
  3
*A115
350
19AA4
  3
*A116
350
173BE
  3
*A117
350
1B744
  3
*A118
350
23432
  3
*A119
350
19787
  3
*A12
350
22230
  3
*A120
350
20CA2
  3
*A121
350
1F8F0
  3
*A122
350
18F20
  3
*A123
350
23C27
  3
*A124
350
20236
  3
*A125
350
2284D
  3
*A126
350
106C7
  3
*A127
350
1D710
  3
*A128
350
1D67A
  3
*A129
350
23788
  3
*A13
350
1B729
  3
*A130
350
1D6A2
  3
*A131
350
ACA2
  3
*A132
350
23F0F
  3
*A133
350
23C26
  3
*A134
350
106A5
  3
*A135
350
1606A
  3
*A136
350
173BD
  3
*A137
350
20025
  3
*A138
350
23789
  3
*A139
350
1B756
  3
*A14
350
1EB7C
  3
*A140
350
23F0E
  3
*A141
350
23C25
  3
*A142
350
22CA0
  3
*A143
350
19255
  3
*A144
350
20227
  3
*A145
350
2378A
  3
*A146
350
1F904
  3
*A147
350
18F1F
  3
*A148
350
23C24
  3
*A149
350
22CA3
  3
*A15
350
19F99
  3
*A150
350
FC9B
  3
*A151
350
17B11
  3
*A152
350
20231
  3
*A153
350
23C23
  3
*A154
350
231F5
  3
*A155
350
19729
  3
*A156
350
20022
  3
*A157
350
23F10
  3
*A158
350
2378C
  3
*A159
350
19786
  3
*A16
350
17BFF
  3
*A160
350
2020E
  3
*A161
350
2378B
  3
*A162
350
23216
  3
*A163
350
1D670
  3
*A164
350
1738A
  3
*A165
350
2342E
  3
*A166
350
FB6B
  3
*A167
350
17901
  3
*A168
350
2342F
  3
*A169
350
1606B
  3
*A17
350
2022C
  3
*A170
350
1F91D
  3
*A171
350
22014
  3
*A172
350
22232
  3
*A173
350
2263A
  3
*A174
350
19A5A
  3
*A175
350
1EB7E
  3
*A176
350
21D4E
  3
*A177
350
169DA
  3
*A178
350
22430
  3
*A179
350
1D6D4
  3
*A18
350
1D6F2
  3
*A180
350
18FA7
  3
*A181
350
1EB7F
  3
*A182
350
1D6FC
  3
*A183
350
1B720
  3
*A184
350
20213
  3
*A185
350
19F87
  3
*A186
350
FB6C
  3
*A187
350
20028
  3
*A188
350
20CA6
  3
*A189
350
18F21
  3
*A19
350
20209
  3
*A2
350
16059
  3
*A20
350
1D6C0
  3
*A21
350
1D6CA
  3
*A22
350
19A52
  3
*A23
350
FC9A
  3
*A24
350
18F23
  3
*A25
350
2263B
  3
*A26
350
1EB7D
  3
*A27
350
19F67
  3
*A28
350
1998A
  3
*A29
350
1D6B6
  3
*A3
350
18FA6
  3
*A30
350
18FA8
  3
*A31
350
2284E
  3
*A32
350
ACB4
  3
*A33
350
FC95
  3
*A34
350
FCB8
  3
*A35
350
22016
  3
*A36
350
2284F
  3
*A37
350
2284C
  3
*A38
350
1B73B
  3
*A39
350
1EB80
  3
*A4
350
2242D
  3
*A40
350
198F1
  3
*A41
350
22A72
  3
*A42
350
1738B
  3
*A43
350
20019
  3
*A44
350
2002B
  3
*A45
350
1F8FA
  3
*A46
350
22A71
  3
*A47
350
16069
  3
*A48
350
19259
  3
*A49
350
1D68E
  3
*A5
350
19881
  3
*A50
350
1D6DE
  3
*A51
350
20016
  3
*A52
350
16068
  3
*A53
350
22CA1
  3
*A54
350
19A86
  3
*A55
350
106C6
  3
*A56
350
ACAB
  3
*A57
350
23F0D
  3
*A58
350
22015
  3
*A59
350
1A691
  3
*A6
350
231AD
  3
*A60
350
21D4D
  3
*A61
350
196C2
  3
*A62
350
20013
  3
*A63
350
FBFF
  3
*A64
350
1D706
  3
*A65
350
2222F
  3
*A66
350
20218
  3
*A67
350
1D6AC
  3
*A68
350
19861
  3
*A69
350
1B74D
  3
*A7
350
2001C
  3
*A70
350
16058
  3
*A71
350
FC91
  3
*A72
350
1B732
  3
*A73
350
1F8FF
  3
*A74
350
19988
  3
*A75
350
1A695
  3
*A76
350
19FAB
  3
*A77
350
ACBD
  3
*A78
350
20222
  3
*A79
350
2021D
  3
*A8
350
ACA1
  3
*A80
350
19989
  3
*A81
350
20010
  3
*A82
350
1A692
  3
*A83
350
19256
  3
*A84
350
1A09A
  3
*A85
350
1F918
  3
*A86
350
1F913
  3
*A87
350
19A51
  3
*A88
350
1D684
  3
*A89
350
18F22
  3
*A9
350
2001F
  3
*A90
350
22231
  3
*A91
350
21E86
  3
*A92
350
1D6E8
  3
*A93
350
1F90E
  3
*A94
350
231F9
  3
*A95
350
231AE
  3
*A96
350
22CA2
  3
*A97
350
22A73
  3
*A98
350
22A70
  3
*A99
350
2263C
1001
ACAD
1000
TREAT_AS_HARD
1070
     0
  0
DICTIONARY
  5
DB2
102
{ACAD_REACTORS
330
C
102
}
330
C
100
AcDbDictionary
281
     1
  3
Model
350
247D5
  3
ﾚｲｱｳﾄ1
350
247D6
1001
ACAD
1000
TREAT_AS_HARD
1070
     0
  0
DICTIONARY
  5
1B
102
{ACAD_REACTORS
330
C
102
}
330
C
100
AcDbDictionary
281
     1
  3
STANDARD
350
1C
1001
ACAD
1000
TREAT_AS_HARD
1070
     0
  0
DICTIONARY
  5
DB3
102
{ACAD_REACTORS
330
C
102
}
330
C
100
AcDbDictionary
281
     1
1001
ACAD
1000
TREAT_AS_HARD
1070
     0
  0
ACDBDICTIONARYWDFLT
  5
FB5B
102
{ACAD_REACTORS
330
C
102
}
330
C
100
AcDbDictionary
281
     1
  3
Normal
350
FB5C
100
AcDbDictionaryWithDefault
340
FB5C
  0
XRECORD
  5
1B534
102
{ACAD_REACTORS
330
C
102
}
330
C
100
AcDbXrecord
280
     1
 90
   990106
  3

 60
     0
 61
     0
 62
     4
 63
     4
 64
     1
 65
     0
 66
     0
 67
     3
 68
     1
 69
     0
 70
     0
 71
     0
 72
     0
 40
0.0
170
     2
340
0
  0
DICTIONARY
  5
106A6
102
{ACAD_REACTORS
330
C
102
}
330
C
100
AcDbDictionary
281
     1
  3
SORTENTS
350
106A7
  0
DICTIONARY
  5
1A99F
102
{ACAD_REACTORS
330
C
102
}
330
C
100
AcDbDictionary
281
     1
  3
ASEBLOCKHIERARCHYINDEXRECORD
350
1A9A1
1001
DCO15
1040
1464612067.17
  0
XRECORD
  5
15EC9
102
{ACAD_REACTORS
330
C
102
}
330
C
100
AcDbXrecord
280
     1
  1
DWGPROPS COOKIE
  2

  3

  4

  6

  7

  8

  9

300
=
301
=
302
=
303
=
304
=
305
=
306
=
307
=
308
=
309
=
 40
12.65185717592592
 41
2451224.660162384
 42
2452395.660827315
  1

 90
        0
  0
DICTIONARY
  5
24279
102
{ACAD_REACTORS
330
24278
102
}
330
24278
100
AcDbDictionary
280
     1
281
     1
  3
0
360
2427A
  3
11
360
2427B
  3
150_
360
2427C
  3
160_
360
2427D
  3
170_
360
2427E
  3
171_
360
2427F
  3
350_
360
24280
  3
4
360
24281
  3
5
360
24282
  3
7
360
24283
  3
KISEKI
360
24284
  0
DICTIONARY
  5
24285
102
{ACAD_REACTORS
330
24278
102
}
330
24278
100
AcDbDictionary
281
     1
  0
XRECORD
  5
247CC
102
{ACAD_REACTORS
330
EFC6
102
}
330
EFC6
100
AcDbXrecord
280
     1
340
18
  0
XRECORD
  5
247CB
102
{ACAD_REACTORS
330
EFC4
102
}
330
EFC4
100
AcDbXrecord
280
     1
340
15
  0
GROUP
  5
AC8A
102
{ACAD_REACTORS
330
D
102
}
330
D
100
AcDbGroup
300

 70
     1
 71
     1
  0
GROUP
  5
1F909
102
{ACAD_REACTORS
330
D
102
}
330
D
100
AcDbGroup
300

 70
     1
 71
     1
  0
GROUP
  5
2242F
102
{ACAD_REACTORS
330
D
102
}
330
D
100
AcDbGroup
300

 70
     1
 71
     1
  0
GROUP
  5
AC9A
102
{ACAD_REACTORS
330
D
102
}
330
D
100
AcDbGroup
300

 70
     1
 71
     1
  0
GROUP
  5
17389
102
{ACAD_REACTORS
330
D
102
}
330
D
100
AcDbGroup
300

 70
     1
 71
     1
  0
GROUP
  5
173BF
102
{ACAD_REACTORS
330
D
102
}
330
D
100
AcDbGroup
300

 70
     1
 71
     1
  0
GROUP
  5
1D698
102
{ACAD_REACTORS
330
D
102
}
330
D
100
AcDbGroup
300

 70
     1
 71
     1
  0
GROUP
  5
23430
102
{ACAD_REACTORS
330
D
102
}
330
D
100
AcDbGroup
300

 70
     1
 71
     1
  0
GROUP
  5
19794
102
{ACAD_REACTORS
330
D
102
}
330
D
100
AcDbGroup
300

 70
     1
 71
     1
  0
GROUP
  5
21E50
102
{ACAD_REACTORS
330
D
102
}
330
D
100
AcDbGroup
300

 70
     1
 71
     1
  0
GROUP
  5
106B3
102
{ACAD_REACTORS
330
D
102
}
330
D
100
AcDbGroup
300

 70
     1
 71
     1
  0
GROUP
  5
19F55
102
{ACAD_REACTORS
330
D
102
}
330
D
100
AcDbGroup
300

 70
     1
 71
     1
  0
GROUP
  5
2242E
102
{ACAD_REACTORS
330
D
102
}
330
D
100
AcDbGroup
300

 70
     1
 71
     1
  0
GROUP
  5
1F8F5
102
{ACAD_REACTORS
330
D
102
}
330
D
100
AcDbGroup
300

 70
     1
 71
     1
  0
GROUP
  5
23F0C
102
{ACAD_REACTORS
330
D
102
}
330
D
100
AcDbGroup
300

 70
     1
 71
     1
  0
GROUP
  5
1AA94
102
{ACAD_REACTORS
330
D
102
}
330
D
100
AcDbGroup
300

 70
     1
 71
     1
  0
GROUP
  5
22017
102
{ACAD_REACTORS
330
D
102
}
330
D
100
AcDbGroup
300

 70
     1
 71
     1
  0
GROUP
  5
22639
102
{ACAD_REACTORS
330
D
102
}
330
D
100
AcDbGroup
300

 70
     1
 71
     1
  0
GROUP
  5
19AA4
102
{ACAD_REACTORS
330
D
102
}
330
D
100
AcDbGroup
300

 70
     1
 71
     1
  0
GROUP
  5
173BE
102
{ACAD_REACTORS
330
D
102
}
330
D
100
AcDbGroup
300

 70
     1
 71
     1
  0
GROUP
  5
1B744
102
{ACAD_REACTORS
330
D
102
}
330
D
100
AcDbGroup
300

 70
     1
 71
     1
  0
GROUP
  5
23432
102
{ACAD_REACTORS
330
D
102
}
330
D
100
AcDbGroup
300

 70
     1
 71
     1
  0
GROUP
  5
19787
102
{ACAD_REACTORS
330
D
102
}
330
D
100
AcDbGroup
300

 70
     1
 71
     1
  0
GROUP
  5
22230
102
{ACAD_REACTORS
330
D
102
}
330
D
100
AcDbGroup
300

 70
     1
 71
     1
  0
GROUP
  5
20CA2
102
{ACAD_REACTORS
330
D
102
}
330
D
100
AcDbGroup
300

 70
     1
 71
     1
  0
GROUP
  5
1F8F0
102
{ACAD_REACTORS
330
D
102
}
330
D
100
AcDbGroup
300

 70
     1
 71
     1
  0
GROUP
  5
18F20
102
{ACAD_REACTORS
330
D
102
}
330
D
100
AcDbGroup
300

 70
     1
 71
     1
  0
GROUP
  5
23C27
102
{ACAD_REACTORS
330
D
102
}
330
D
100
AcDbGroup
300

 70
     1
 71
     1
  0
GROUP
  5
20236
102
{ACAD_REACTORS
330
D
102
}
330
D
100
AcDbGroup
300

 70
     1
 71
     1
  0
GROUP
  5
2284D
102
{ACAD_REACTORS
330
D
102
}
330
D
100
AcDbGroup
300

 70
     1
 71
     1
  0
GROUP
  5
106C7
102
{ACAD_REACTORS
330
D
102
}
330
D
100
AcDbGroup
300

 70
     1
 71
     1
  0
GROUP
  5
1D710
102
{ACAD_REACTORS
330
D
102
}
330
D
100
AcDbGroup
300

 70
     1
 71
     1
  0
GROUP
  5
1D67A
102
{ACAD_REACTORS
330
D
102
}
330
D
100
AcDbGroup
300

 70
     1
 71
     1
  0
GROUP
  5
23788
102
{ACAD_REACTORS
330
D
102
}
330
D
100
AcDbGroup
300

 70
     1
 71
     1
  0
GROUP
  5
1B729
102
{ACAD_REACTORS
330
D
102
}
330
D
100
AcDbGroup
300

 70
     1
 71
     1
  0
GROUP
  5
1D6A2
102
{ACAD_REACTORS
330
D
102
}
330
D
100
AcDbGroup
300

 70
     1
 71
     1
  0
GROUP
  5
ACA2
102
{ACAD_REACTORS
330
D
102
}
330
D
100
AcDbGroup
300

 70
     1
 71
     1
  0
GROUP
  5
23F0F
102
{ACAD_REACTORS
330
D
102
}
330
D
100
AcDbGroup
300

 70
     1
 71
     1
  0
GROUP
  5
23C26
102
{ACAD_REACTORS
330
D
102
}
330
D
100
AcDbGroup
300

 70
     1
 71
     1
  0
GROUP
  5
106A5
102
{ACAD_REACTORS
330
D
102
}
330
D
100
AcDbGroup
300

 70
     1
 71
     1
  0
GROUP
  5
1606A
102
{ACAD_REACTORS
330
D
102
}
330
D
100
AcDbGroup
300

 70
     1
 71
     1
  0
GROUP
  5
173BD
102
{ACAD_REACTORS
330
D
102
}
330
D
100
AcDbGroup
300

 70
     1
 71
     1
  0
GROUP
  5
20025
102
{ACAD_REACTORS
330
D
102
}
330
D
100
AcDbGroup
300

 70
     1
 71
     1
  0
GROUP
  5
23789
102
{ACAD_REACTORS
330
D
102
}
330
D
100
AcDbGroup
300

 70
     1
 71
     1
  0
GROUP
  5
1B756
102
{ACAD_REACTORS
330
D
102
}
330
D
100
AcDbGroup
300

 70
     1
 71
     1
  0
GROUP
  5
1EB7C
102
{ACAD_REACTORS
330
D
102
}
330
D
100
AcDbGroup
300

 70
     1
 71
     1
  0
GROUP
  5
23F0E
102
{ACAD_REACTORS
330
D
102
}
330
D
100
AcDbGroup
300

 70
     1
 71
     1
  0
GROUP
  5
23C25
102
{ACAD_REACTORS
330
D
102
}
330
D
100
AcDbGroup
300

 70
     1
 71
     1
  0
GROUP
  5
22CA0
102
{ACAD_REACTORS
330
D
102
}
330
D
100
AcDbGroup
300

 70
     1
 71
     1
  0
GROUP
  5
19255
102
{ACAD_REACTORS
330
D
102
}
330
D
100
AcDbGroup
300

 70
     1
 71
     1
  0
GROUP
  5
20227
102
{ACAD_REACTORS
330
D
102
}
330
D
100
AcDbGroup
300

 70
     1
 71
     1
  0
GROUP
  5
2378A
102
{ACAD_REACTORS
330
D
102
}
330
D
100
AcDbGroup
300

 70
     1
 71
     1
  0
GROUP
  5
1F904
102
{ACAD_REACTORS
330
D
102
}
330
D
100
AcDbGroup
300

 70
     1
 71
     1
  0
GROUP
  5
18F1F
102
{ACAD_REACTORS
330
D
102
}
330
D
100
AcDbGroup
300

 70
     1
 71
     1
  0
GROUP
  5
23C24
102
{ACAD_REACTORS
330
D
102
}
330
D
100
AcDbGroup
300

 70
     1
 71
     1
  0
GROUP
  5
22CA3
102
{ACAD_REACTORS
330
D
102
}
330
D
100
AcDbGroup
300

 70
     1
 71
     1
  0
GROUP
  5
19F99
102
{ACAD_REACTORS
330
D
102
}
330
D
100
AcDbGroup
300

 70
     1
 71
     1
  0
GROUP
  5
FC9B
102
{ACAD_REACTORS
330
D
102
}
330
D
100
AcDbGroup
300

 70
     1
 71
     1
  0
GROUP
  5
17B11
102
{ACAD_REACTORS
330
D
102
}
330
D
100
AcDbGroup
300

 70
     1
 71
     1
  0
GROUP
  5
20231
102
{ACAD_REACTORS
330
D
102
}
330
D
100
AcDbGroup
300

 70
     1
 71
     1
  0
GROUP
  5
23C23
102
{ACAD_REACTORS
330
D
102
}
330
D
100
AcDbGroup
300

 70
     1
 71
     1
  0
GROUP
  5
231F5
102
{ACAD_REACTORS
330
D
102
}
330
D
100
AcDbGroup
300

 70
     1
 71
     1
  0
GROUP
  5
19729
102
{ACAD_REACTORS
330
D
102
}
330
D
100
AcDbGroup
300

 70
     1
 71
     1
  0
GROUP
  5
20022
102
{ACAD_REACTORS
330
D
102
}
330
D
100
AcDbGroup
300

 70
     1
 71
     1
  0
GROUP
  5
23F10
102
{ACAD_REACTORS
330
D
102
}
330
D
100
AcDbGroup
300

 70
     1
 71
     1
  0
GROUP
  5
2378C
102
{ACAD_REACTORS
330
D
102
}
330
D
100
AcDbGroup
300

 70
     1
 71
     1
  0
GROUP
  5
19786
102
{ACAD_REACTORS
330
D
102
}
330
D
100
AcDbGroup
300

 70
     1
 71
     1
  0
GROUP
  5
17BFF
102
{ACAD_REACTORS
330
D
102
}
330
D
100
AcDbGroup
300

 70
     1
 71
     1
  0
GROUP
  5
2020E
102
{ACAD_REACTORS
330
D
102
}
330
D
100
AcDbGroup
300

 70
     1
 71
     1
  0
GROUP
  5
2378B
102
{ACAD_REACTORS
330
D
102
}
330
D
100
AcDbGroup
300

 70
     1
 71
     1
  0
GROUP
  5
23216
102
{ACAD_REACTORS
330
D
102
}
330
D
100
AcDbGroup
300

 70
     1
 71
     1
  0
GROUP
  5
1D670
102
{ACAD_REACTORS
330
D
102
}
330
D
100
AcDbGroup
300

 70
     1
 71
     1
  0
GROUP
  5
1738A
102
{ACAD_REACTORS
330
D
102
}
330
D
100
AcDbGroup
300

 70
     1
 71
     1
  0
GROUP
  5
2342E
102
{ACAD_REACTORS
330
D
102
}
330
D
100
AcDbGroup
300

 70
     1
 71
     1
340
23264
340
23263
340
2326F
  0
GROUP
  5
FB6B
102
{ACAD_REACTORS
330
D
102
}
330
D
100
AcDbGroup
300

 70
     1
 71
     1
  0
GROUP
  5
17901
102
{ACAD_REACTORS
330
D
102
}
330
D
100
AcDbGroup
300

 70
     1
 71
     1
  0
GROUP
  5
2342F
102
{ACAD_REACTORS
330
D
102
}
330
D
100
AcDbGroup
300

 70
     1
 71
     1
  0
GROUP
  5
1606B
102
{ACAD_REACTORS
330
D
102
}
330
D
100
AcDbGroup
300

 70
     1
 71
     1
  0
GROUP
  5
2022C
102
{ACAD_REACTORS
330
D
102
}
330
D
100
AcDbGroup
300

 70
     1
 71
     1
  0
GROUP
  5
1F91D
102
{ACAD_REACTORS
330
D
102
}
330
D
100
AcDbGroup
300

 70
     1
 71
     1
  0
GROUP
  5
22014
102
{ACAD_REACTORS
330
D
102
}
330
D
100
AcDbGroup
300

 70
     1
 71
     1
  0
GROUP
  5
22232
102
{ACAD_REACTORS
330
D
102
}
330
D
100
AcDbGroup
300

 70
     1
 71
     1
  0
GROUP
  5
2263A
102
{ACAD_REACTORS
330
D
102
}
330
D
100
AcDbGroup
300

 70
     1
 71
     1
  0
GROUP
  5
19A5A
102
{ACAD_REACTORS
330
D
102
}
330
D
100
AcDbGroup
300

 70
     1
 71
     1
  0
GROUP
  5
1EB7E
102
{ACAD_REACTORS
330
D
102
}
330
D
100
AcDbGroup
300

 70
     1
 71
     1
  0
GROUP
  5
21D4E
102
{ACAD_REACTORS
330
D
102
}
330
D
100
AcDbGroup
300

 70
     1
 71
     1
  0
GROUP
  5
169DA
102
{ACAD_REACTORS
330
D
102
}
330
D
100
AcDbGroup
300

 70
     1
 71
     1
  0
GROUP
  5
22430
102
{ACAD_REACTORS
330
D
102
}
330
D
100
AcDbGroup
300

 70
     1
 71
     1
  0
GROUP
  5
1D6D4
102
{ACAD_REACTORS
330
D
102
}
330
D
100
AcDbGroup
300

 70
     1
 71
     1
  0
GROUP
  5
1D6F2
102
{ACAD_REACTORS
330
D
102
}
330
D
100
AcDbGroup
300

 70
     1
 71
     1
  0
GROUP
  5
18FA7
102
{ACAD_REACTORS
330
D
102
}
330
D
100
AcDbGroup
300

 70
     1
 71
     1
  0
GROUP
  5
1EB7F
102
{ACAD_REACTORS
330
D
102
}
330
D
100
AcDbGroup
300

 70
     1
 71
     1
  0
GROUP
  5
1D6FC
102
{ACAD_REACTORS
330
D
102
}
330
D
100
AcDbGroup
300

 70
     1
 71
     1
  0
GROUP
  5
1B720
102
{ACAD_REACTORS
330
D
102
}
330
D
100
AcDbGroup
300

 70
     1
 71
     1
  0
GROUP
  5
20213
102
{ACAD_REACTORS
330
D
102
}
330
D
100
AcDbGroup
300

 70
     1
 71
     1
  0
GROUP
  5
19F87
102
{ACAD_REACTORS
330
D
102
}
330
D
100
AcDbGroup
300

 70
     1
 71
     1
  0
GROUP
  5
FB6C
102
{ACAD_REACTORS
330
D
102
}
330
D
100
AcDbGroup
300

 70
     1
 71
     1
  0
GROUP
  5
20028
102
{ACAD_REACTORS
330
D
102
}
330
D
100
AcDbGroup
300

 70
     1
 71
     1
  0
GROUP
  5
20CA6
102
{ACAD_REACTORS
330
D
102
}
330
D
100
AcDbGroup
300

 70
     1
 71
     1
  0
GROUP
  5
18F21
102
{ACAD_REACTORS
330
D
102
}
330
D
100
AcDbGroup
300

 70
     1
 71
     1
  0
GROUP
  5
20209
102
{ACAD_REACTORS
330
D
102
}
330
D
100
AcDbGroup
300

 70
     1
 71
     1
  0
GROUP
  5
16059
102
{ACAD_REACTORS
330
D
102
}
330
D
100
AcDbGroup
300

 70
     1
 71
     1
  0
GROUP
  5
1D6C0
102
{ACAD_REACTORS
330
D
102
}
330
D
100
AcDbGroup
300

 70
     1
 71
     1
  0
GROUP
  5
1D6CA
102
{ACAD_REACTORS
330
D
102
}
330
D
100
AcDbGroup
300

 70
     1
 71
     1
  0
GROUP
  5
19A52
102
{ACAD_REACTORS
330
D
102
}
330
D
100
AcDbGroup
300

 70
     1
 71
     1
  0
GROUP
  5
FC9A
102
{ACAD_REACTORS
330
D
102
}
330
D
100
AcDbGroup
300

 70
     1
 71
     1
  0
GROUP
  5
18F23
102
{ACAD_REACTORS
330
D
102
}
330
D
100
AcDbGroup
300

 70
     1
 71
     1
  0
GROUP
  5
2263B
102
{ACAD_REACTORS
330
D
102
}
330
D
100
AcDbGroup
300

 70
     1
 71
     1
  0
GROUP
  5
1EB7D
102
{ACAD_REACTORS
330
D
102
}
330
D
100
AcDbGroup
300

 70
     1
 71
     1
  0
GROUP
  5
19F67
102
{ACAD_REACTORS
330
D
102
}
330
D
100
AcDbGroup
300

 70
     1
 71
     1
  0
GROUP
  5
1998A
102
{ACAD_REACTORS
330
D
102
}
330
D
100
AcDbGroup
300

 70
     1
 71
     1
  0
GROUP
  5
1D6B6
102
{ACAD_REACTORS
330
D
102
}
330
D
100
AcDbGroup
300

 70
     1
 71
     1
  0
GROUP
  5
18FA6
102
{ACAD_REACTORS
330
D
102
}
330
D
100
AcDbGroup
300

 70
     1
 71
     1
  0
GROUP
  5
18FA8
102
{ACAD_REACTORS
330
D
102
}
330
D
100
AcDbGroup
300

 70
     1
 71
     1
  0
GROUP
  5
2284E
102
{ACAD_REACTORS
330
D
102
}
330
D
100
AcDbGroup
300

 70
     1
 71
     1
  0
GROUP
  5
ACB4
102
{ACAD_REACTORS
330
D
102
}
330
D
100
AcDbGroup
300

 70
     1
 71
     1
  0
GROUP
  5
FC95
102
{ACAD_REACTORS
330
D
102
}
330
D
100
AcDbGroup
300

 70
     1
 71
     1
  0
GROUP
  5
FCB8
102
{ACAD_REACTORS
330
D
102
}
330
D
100
AcDbGroup
300

 70
     1
 71
     1
  0
GROUP
  5
22016
102
{ACAD_REACTORS
330
D
102
}
330
D
100
AcDbGroup
300

 70
     1
 71
     1
  0
GROUP
  5
2284F
102
{ACAD_REACTORS
330
D
102
}
330
D
100
AcDbGroup
300

 70
     1
 71
     1
  0
GROUP
  5
2284C
102
{ACAD_REACTORS
330
D
102
}
330
D
100
AcDbGroup
300

 70
     1
 71
     1
  0
GROUP
  5
1B73B
102
{ACAD_REACTORS
330
D
102
}
330
D
100
AcDbGroup
300

 70
     1
 71
     1
  0
GROUP
  5
1EB80
102
{ACAD_REACTORS
330
D
102
}
330
D
100
AcDbGroup
300

 70
     1
 71
     1
  0
GROUP
  5
2242D
102
{ACAD_REACTORS
330
D
102
}
330
D
100
AcDbGroup
300

 70
     1
 71
     1
  0
GROUP
  5
198F1
102
{ACAD_REACTORS
330
D
102
}
330
D
100
AcDbGroup
300

 70
     1
 71
     1
  0
GROUP
  5
22A72
102
{ACAD_REACTORS
330
D
102
}
330
D
100
AcDbGroup
300

 70
     1
 71
     1
  0
GROUP
  5
1738B
102
{ACAD_REACTORS
330
D
102
}
330
D
100
AcDbGroup
300

 70
     1
 71
     1
  0
GROUP
  5
20019
102
{ACAD_REACTORS
330
D
102
}
330
D
100
AcDbGroup
300

 70
     1
 71
     1
  0
GROUP
  5
2002B
102
{ACAD_REACTORS
330
D
102
}
330
D
100
AcDbGroup
300

 70
     1
 71
     1
  0
GROUP
  5
1F8FA
102
{ACAD_REACTORS
330
D
102
}
330
D
100
AcDbGroup
300

 70
     1
 71
     1
  0
GROUP
  5
22A71
102
{ACAD_REACTORS
330
D
102
}
330
D
100
AcDbGroup
300

 70
     1
 71
     1
  0
GROUP
  5
16069
102
{ACAD_REACTORS
330
D
102
}
330
D
100
AcDbGroup
300

 70
     1
 71
     1
  0
GROUP
  5
19259
102
{ACAD_REACTORS
330
D
102
}
330
D
100
AcDbGroup
300

 70
     1
 71
     1
  0
GROUP
  5
1D68E
102
{ACAD_REACTORS
330
D
102
}
330
D
100
AcDbGroup
300

 70
     1
 71
     1
  0
GROUP
  5
19881
102
{ACAD_REACTORS
330
D
102
}
330
D
100
AcDbGroup
300

 70
     1
 71
     1
  0
GROUP
  5
1D6DE
102
{ACAD_REACTORS
330
D
102
}
330
D
100
AcDbGroup
300

 70
     1
 71
     1
  0
GROUP
  5
20016
102
{ACAD_REACTORS
330
D
102
}
330
D
100
AcDbGroup
300

 70
     1
 71
     1
  0
GROUP
  5
16068
102
{ACAD_REACTORS
330
D
102
}
330
D
100
AcDbGroup
300

 70
     1
 71
     1
  0
GROUP
  5
22CA1
102
{ACAD_REACTORS
330
D
102
}
330
D
100
AcDbGroup
300

 70
     1
 71
     1
  0
GROUP
  5
19A86
102
{ACAD_REACTORS
330
D
102
}
330
D
100
AcDbGroup
300

 70
     1
 71
     1
  0
GROUP
  5
106C6
102
{ACAD_REACTORS
330
D
102
}
330
D
100
AcDbGroup
300

 70
     1
 71
     1
  0
GROUP
  5
ACAB
102
{ACAD_REACTORS
330
D
102
}
330
D
100
AcDbGroup
300

 70
     1
 71
     1
  0
GROUP
  5
23F0D
102
{ACAD_REACTORS
330
D
102
}
330
D
100
AcDbGroup
300

 70
     1
 71
     1
  0
GROUP
  5
22015
102
{ACAD_REACTORS
330
D
102
}
330
D
100
AcDbGroup
300

 70
     1
 71
     1
  0
GROUP
  5
1A691
102
{ACAD_REACTORS
330
D
102
}
330
D
100
AcDbGroup
300

 70
     1
 71
     1
  0
GROUP
  5
231AD
102
{ACAD_REACTORS
330
D
102
}
330
D
100
AcDbGroup
300

 70
     1
 71
     1
  0
GROUP
  5
21D4D
102
{ACAD_REACTORS
330
D
102
}
330
D
100
AcDbGroup
300

 70
     1
 71
     1
  0
GROUP
  5
196C2
102
{ACAD_REACTORS
330
D
102
}
330
D
100
AcDbGroup
300

 70
     1
 71
     1
  0
GROUP
  5
20013
102
{ACAD_REACTORS
330
D
102
}
330
D
100
AcDbGroup
300

 70
     1
 71
     1
  0
GROUP
  5
FBFF
102
{ACAD_REACTORS
330
D
102
}
330
D
100
AcDbGroup
300

 70
     1
 71
     1
  0
GROUP
  5
1D706
102
{ACAD_REACTORS
330
D
102
}
330
D
100
AcDbGroup
300

 70
     1
 71
     1
  0
GROUP
  5
2222F
102
{ACAD_REACTORS
330
D
102
}
330
D
100
AcDbGroup
300

 70
     1
 71
     1
  0
GROUP
  5
20218
102
{ACAD_REACTORS
330
D
102
}
330
D
100
AcDbGroup
300

 70
     1
 71
     1
  0
GROUP
  5
1D6AC
102
{ACAD_REACTORS
330
D
102
}
330
D
100
AcDbGroup
300

 70
     1
 71
     1
  0
GROUP
  5
19861
102
{ACAD_REACTORS
330
D
102
}
330
D
100
AcDbGroup
300

 70
     1
 71
     1
  0
GROUP
  5
1B74D
102
{ACAD_REACTORS
330
D
102
}
330
D
100
AcDbGroup
300

 70
     1
 71
     1
  0
GROUP
  5
2001C
102
{ACAD_REACTORS
330
D
102
}
330
D
100
AcDbGroup
300

 70
     1
 71
     1
  0
GROUP
  5
16058
102
{ACAD_REACTORS
330
D
102
}
330
D
100
AcDbGroup
300

 70
     1
 71
     1
  0
GROUP
  5
FC91
102
{ACAD_REACTORS
330
D
102
}
330
D
100
AcDbGroup
300

 70
     1
 71
     1
  0
GROUP
  5
1B732
102
{ACAD_REACTORS
330
D
102
}
330
D
100
AcDbGroup
300

 70
     1
 71
     1
  0
GROUP
  5
1F8FF
102
{ACAD_REACTORS
330
D
102
}
330
D
100
AcDbGroup
300

 70
     1
 71
     1
  0
GROUP
  5
19988
102
{ACAD_REACTORS
330
D
102
}
330
D
100
AcDbGroup
300

 70
     1
 71
     1
  0
GROUP
  5
1A695
102
{ACAD_REACTORS
330
D
102
}
330
D
100
AcDbGroup
300

 70
     1
 71
     1
  0
GROUP
  5
19FAB
102
{ACAD_REACTORS
330
D
102
}
330
D
100
AcDbGroup
300

 70
     1
 71
     1
  0
GROUP
  5
ACBD
102
{ACAD_REACTORS
330
D
102
}
330
D
100
AcDbGroup
300

 70
     1
 71
     1
  0
GROUP
  5
20222
102
{ACAD_REACTORS
330
D
102
}
330
D
100
AcDbGroup
300

 70
     1
 71
     1
  0
GROUP
  5
2021D
102
{ACAD_REACTORS
330
D
102
}
330
D
100
AcDbGroup
300

 70
     1
 71
     1
  0
GROUP
  5
ACA1
102
{ACAD_REACTORS
330
D
102
}
330
D
100
AcDbGroup
300

 70
     1
 71
     1
  0
GROUP
  5
19989
102
{ACAD_REACTORS
330
D
102
}
330
D
100
AcDbGroup
300

 70
     1
 71
     1
  0
GROUP
  5
20010
102
{ACAD_REACTORS
330
D
102
}
330
D
100
AcDbGroup
300

 70
     1
 71
     1
  0
GROUP
  5
1A692
102
{ACAD_REACTORS
330
D
102
}
330
D
100
AcDbGroup
300

 70
     1
 71
     1
  0
GROUP
  5
19256
102
{ACAD_REACTORS
330
D
102
}
330
D
100
AcDbGroup
300

 70
     1
 71
     1
  0
GROUP
  5
1A09A
102
{ACAD_REACTORS
330
D
102
}
330
D
100
AcDbGroup
300

 70
     1
 71
     1
  0
GROUP
  5
1F918
102
{ACAD_REACTORS
330
D
102
}
330
D
100
AcDbGroup
300

 70
     1
 71
     1
  0
GROUP
  5
1F913
102
{ACAD_REACTORS
330
D
102
}
330
D
100
AcDbGroup
300

 70
     1
 71
     1
  0
GROUP
  5
19A51
102
{ACAD_REACTORS
330
D
102
}
330
D
100
AcDbGroup
300

 70
     1
 71
     1
  0
GROUP
  5
1D684
102
{ACAD_REACTORS
330
D
102
}
330
D
100
AcDbGroup
300

 70
     1
 71
     1
  0
GROUP
  5
18F22
102
{ACAD_REACTORS
330
D
102
}
330
D
100
AcDbGroup
300

 70
     1
 71
     1
  0
GROUP
  5
2001F
102
{ACAD_REACTORS
330
D
102
}
330
D
100
AcDbGroup
300

 70
     1
 71
     1
  0
GROUP
  5
22231
102
{ACAD_REACTORS
330
D
102
}
330
D
100
AcDbGroup
300

 70
     1
 71
     1
  0
GROUP
  5
21E86
102
{ACAD_REACTORS
330
D
102
}
330
D
100
AcDbGroup
300

 70
     1
 71
     1
  0
GROUP
  5
1D6E8
102
{ACAD_REACTORS
330
D
102
}
330
D
100
AcDbGroup
300

 70
     1
 71
     1
  0
GROUP
  5
1F90E
102
{ACAD_REACTORS
330
D
102
}
330
D
100
AcDbGroup
300

 70
     1
 71
     1
  0
GROUP
  5
231F9
102
{ACAD_REACTORS
330
D
102
}
330
D
100
AcDbGroup
300

 70
     1
 71
     1
  0
GROUP
  5
231AE
102
{ACAD_REACTORS
330
D
102
}
330
D
100
AcDbGroup
300

 70
     1
 71
     1
  0
GROUP
  5
22CA2
102
{ACAD_REACTORS
330
D
102
}
330
D
100
AcDbGroup
300

 70
     1
 71
     1
  0
GROUP
  5
22A73
102
{ACAD_REACTORS
330
D
102
}
330
D
100
AcDbGroup
300

 70
     1
 71
     1
  0
GROUP
  5
22A70
102
{ACAD_REACTORS
330
D
102
}
330
D
100
AcDbGroup
300

 70
     1
 71
     1
  0
GROUP
  5
2263C
102
{ACAD_REACTORS
330
D
102
}
330
D
100
AcDbGroup
300

 70
     1
 71
     1
  0
LAYOUT
  5
247D5
102
{ACAD_REACTORS
330
DB2
102
}
330
DB2
100
AcDbPlotSettings
  1

  2
iR C2550
  4

  6

 40
0.0
 41
0.0
 42
0.0
 43
0.0
 44
0.0
 45
0.0
 46
0.0
 47
0.0
 48
0.0
 49
0.0
140
0.0
141
0.0
142
1.0
143
1.0
 70
  1712
 72
     0
 73
     0
 74
     0
  7

 75
     0
147
1.0
148
0.0
149
0.0
100
AcDbLayout
  1
Model
 70
     1
 71
     0
 10
0.0
 20
0.0
 11
12.0
 21
9.0
 12
0.0
 22
0.0
 32
0.0
 14
0.0
 24
0.0
 34
0.0
 15
0.0
 25
0.0
 35
0.0
146
0.0
 13
0.0
 23
0.0
 33
0.0
 16
1.0
 26
0.0
 36
0.0
 17
0.0
 27
1.0
 37
0.0
 76
     0
330
18
  0
LAYOUT
  5
247D6
102
{ACAD_REACTORS
330
DB2
102
}
330
DB2
100
AcDbPlotSettings
  1

  2
iR C2550
  4
A4
  6

 40
5.873749732971191
 41
5.873747825622558
 42
5.873748779296875
 43
5.873748779296875
 44
209.9733276367187
 45
296.9259948730469
 46
0.0
 47
0.0
 48
0.0
 49
0.0
140
0.0
141
0.0
142
1.0
143
36.90601097350437
 70
   688
 72
     0
 73
     1
 74
     1
  7

 75
     0
147
0.027095857114385
148
0.3342504817892177
149
0.5230964909387467
100
AcDbLayout
  1
ﾚｲｱｳﾄ1
 70
     0
 71
     1
 10
-8.547672731737309
 20
-8.555108999668973
 11
422.8835880991041
 21
296.5345734374953
 12
0.0
 22
0.0
 32
0.0
 14
0.0
 24
0.0
 34
0.0
 15
400.0
 25
288.0
 35
0.0
146
0.0
 13
0.0
 23
0.0
 33
0.0
 16
1.0
 26
0.0
 36
0.0
 17
0.0
 27
1.0
 37
0.0
 76
     0
330
15
331
23
  0
MLINESTYLE
  5
1C
102
{ACAD_REACTORS
330
1B
102
}
330
1B
100
AcDbMlineStyle
  2
STANDARD
 70
     0
  3

 62
   256
 51
90.0
 52
90.0
 71
     2
 49
0.5
 62
   256
  6
BYLAYER
 49
-0.5
 62
   256
  6
BYLAYER
  0
ACDBPLACEHOLDER
  5
FB5C
102
{ACAD_REACTORS
330
FB5B
102
}
330
FB5B
  0
DICTIONARYVAR
  5
106A7
102
{ACAD_REACTORS
330
106A6
102
}
330
106A6
100
DictionaryVariables
280
     0
  1
96
  0
XRECORD
  5
1A9A1
102
{ACAD_REACTORS
330
1A99F
102
}
330
1A99F
100
AcDbXrecord
280
     1
330
187D7
330
0
330
0
330
0
330
0
330
0
330
0
330
0
330
0
330
0
330
0
330
115F
330
0
330
0
330
0
330
0
330
0
330
0
330
0
330
0
330
0
330
0
330
0
330
0
330
0
330
0
330
0
330
0
330
0
330
0
330
0
330
0
330
0
330
0
330
0
330
0
330
0
330
0
330
0
330
0
330
0
330
0
330
0
330
0
  0
XRECORD
  5
2427A
102
{ACAD_REACTORS
330
24279
102
}
330
24279
100
AcDbXrecord
280
     1
  1
0
  1
*0
  1
*
  1
*
 70
     0
  1
*
  1
*
  0
XRECORD
  5
2427B
102
{ACAD_REACTORS
330
24279
102
}
330
24279
100
AcDbXrecord
280
     1
  1
11
  1
*11
  1
*
  1
*
 70
     0
  1
*
  1
*
  0
XRECORD
  5
2427C
102
{ACAD_REACTORS
330
24279
102
}
330
24279
100
AcDbXrecord
280
     1
  1
150_
  1
150_*
  1
*
  1
*
 70
     0
  1
*
  1
*
  0
XRECORD
  5
2427D
102
{ACAD_REACTORS
330
24279
102
}
330
24279
100
AcDbXrecord
280
     1
  1
160_
  1
160_*
  1
*
  1
*
 70
     0
  1
*
  1
*
  0
XRECORD
  5
2427E
102
{ACAD_REACTORS
330
24279
102
}
330
24279
100
AcDbXrecord
280
     1
  1
170_
  1
170_*
  1
*
  1
*
 70
     0
  1
*
  1
*
  0
XRECORD
  5
2427F
102
{ACAD_REACTORS
330
24279
102
}
330
24279
100
AcDbXrecord
280
     1
  1
171_
  1
171_*
  1
*
  1
*
 70
     0
  1
*
  1
*
  0
XRECORD
  5
24280
102
{ACAD_REACTORS
330
24279
102
}
330
24279
100
AcDbXrecord
280
     1
  1
350_
  1
350_*
  1
*
  1
*
 70
     0
  1
*
  1
*
  0
XRECORD
  5
24281
102
{ACAD_REACTORS
330
24279
102
}
330
24279
100
AcDbXrecord
280
     1
  1
4
  1
*4
  1
*
  1
*
 70
     0
  1
*
  1
*
  0
XRECORD
  5
24282
102
{ACAD_REACTORS
330
24279
102
}
330
24279
100
AcDbXrecord
280
     1
  1
5
  1
*5
  1
*
  1
*
 70
     0
  1
*
  1
*
  0
XRECORD
  5
24283
102
{ACAD_REACTORS
330
24279
102
}
330
24279
100
AcDbXrecord
280
     1
  1
7
  1
*7
  1
*
  1
*
 70
     0
  1
*
  1
*
  0
XRECORD
  5
24284
102
{ACAD_REACTORS
330
24279
102
}
330
24279
100
AcDbXrecord
280
     1
  1
kiseki
  1
kiseki*
  1
*
  1
*
 70
     0
  1
*
  1
*
  0
ENDSEC
  0
EOF
