  0
SECTION
  2
HEADER
  9
$ACADVER
  1
AC1015
  9
$ACADMAINTVER
 70
    20
  9
$DWGCODEPAGE
  3
ANSI_932
  9
$INSBASE
 10
0.0
 20
0.0
 30
0.0
  9
$EXTMIN
 10
437.8477423594165
 20
-2485.967122351275
 30
0.0
  9
$EXTMAX
 10
951.7982967588645
 20
-2225.691602833293
 30
137.5
  9
$LIMMIN
 10
0.0
 20
0.0
  9
$LIMMAX
 10
420.0
 20
297.0
  9
$ORTHOMODE
 70
     0
  9
$REGENMODE
 70
     1
  9
$FILLMODE
 70
     1
  9
$QTEXTMODE
 70
     0
  9
$MIRRTEXT
 70
     0
  9
$LTSCALE
 40
20.0
  9
$ATTMODE
 70
     2
  9
$TEXTSIZE
 40
10.0
  9
$TRACEWID
 40
1.0
  9
$TEXTSTYLE
  7
\U+FF7D\U+FF80\U+FF72\U+FF993
  9
$CLAYER
  8
中心線
  9
$CELTYPE
  6
BYLAYER
  9
$CECOLOR
 62
   256
  9
$CELTSCALE
 40
1.0
  9
$DISPSILH
 70
     0
  9
$DIMSCALE
 40
1.5
  9
$DIMASZ
 40
2.5
  9
$DIMEXO
 40
0.8
  9
$DIMDLI
 40
10.0
  9
$DIMRND
 40
0.0
  9
$DIMDLE
 40
0.0
  9
$DIMEXE
 40
0.18
  9
$DIMTP
 40
0.0
  9
$DIMTM
 40
0.0
  9
$DIMTXT
 40
3.0
  9
$DIMCEN
 40
0.0
  9
$DIMTSZ
 40
0.0
  9
$DIMTOL
 70
     0
  9
$DIMLIM
 70
     0
  9
$DIMTIH
 70
     0
  9
$DIMTOH
 70
     0
  9
$DIMSE1
 70
     0
  9
$DIMSE2
 70
     0
  9
$DIMTAD
 70
     3
  9
$DIMZIN
 70
     8
  9
$DIMBLK
  1
Open30
  9
$DIMASO
 70
     1
  9
$DIMSHO
 70
     1
  9
$DIMPOST
  1

  9
$DIMAPOST
  1

  9
$DIMALT
 70
     0
  9
$DIMALTD
 70
     2
  9
$DIMALTF
 40
25.4
  9
$DIMLFAC
 40
1.0
  9
$DIMTOFL
 70
     0
  9
$DIMTVP
 40
0.0
  9
$DIMTIX
 70
     0
  9
$DIMSOXD
 70
     0
  9
$DIMSAH
 70
     0
  9
$DIMBLK1
  1

  9
$DIMBLK2
  1

  9
$DIMSTYLE
  2
まこ
  9
$DIMCLRD
 70
     4
  9
$DIMCLRE
 70
     4
  9
$DIMCLRT
 70
   256
  9
$DIMTFAC
 40
1.0
  9
$DIMGAP
 40
0.5
  9
$DIMJUST
 70
     0
  9
$DIMSD1
 70
     0
  9
$DIMSD2
 70
     0
  9
$DIMTOLJ
 70
     1
  9
$DIMTZIN
 70
     0
  9
$DIMALTZ
 70
     0
  9
$DIMALTTZ
 70
     0
  9
$DIMUPT
 70
     0
  9
$DIMDEC
 70
     8
  9
$DIMTDEC
 70
     8
  9
$DIMALTU
 70
     2
  9
$DIMALTTD
 70
     2
  9
$DIMTXSTY
  7
まこ
  9
$DIMAUNIT
 70
     0
  9
$DIMADEC
 70
     0
  9
$DIMALTRND
 40
0.0
  9
$DIMAZIN
 70
     0
  9
$DIMDSEP
 70
    46
  9
$DIMATFIT
 70
     1
  9
$DIMFRAC
 70
     0
  9
$DIMLDRBLK
  1
Open30
  9
$DIMLUNIT
 70
     2
  9
$DIMLWD
 70
    13
  9
$DIMLWE
 70
    13
  9
$DIMTMOVE
 70
     0
  9
$LUNITS
 70
     2
  9
$LUPREC
 70
     4
  9
$SKETCHINC
 40
1.0
  9
$FILLETRAD
 40
18.0
  9
$AUNITS
 70
     0
  9
$AUPREC
 70
     0
  9
$MENU
  1
.
  9
$ELEVATION
 40
0.0
  9
$PELEVATION
 40
0.0
  9
$THICKNESS
 40
0.0
  9
$LIMCHECK
 70
     0
  9
$CHAMFERA
 40
0.5
  9
$CHAMFERB
 40
0.5
  9
$CHAMFERC
 40
20.0
  9
$CHAMFERD
 40
0.0
  9
$SKPOLY
 70
     0
  9
$TDCREATE
 40
2451224.660162037
  9
$TDUCREATE
 40
2451224.285162384
  9
$TDUPDATE
 40
2458549.470057870
  9
$TDUUPDATE
 40
2458549.095057871
  9
$TDINDWG
 40
0.0896457060
  9
$TDUSRTIMER
 40
2458228.124158773
  9
$USRTIMER
 70
     1
  9
$ANGBASE
 50
0.0
  9
$ANGDIR
 70
     0
  9
$PDMODE
 70
     0
  9
$PDSIZE
 40
0.0
  9
$PLINEWID
 40
0.0
  9
$SPLFRAME
 70
     0
  9
$SPLINETYPE
 70
     6
  9
$SPLINESEGS
 70
     8
  9
$HANDSEED
  5
2D6C2
  9
$SURFTAB1
 70
     6
  9
$SURFTAB2
 70
     6
  9
$SURFTYPE
 70
     6
  9
$SURFU
 70
     6
  9
$SURFV
 70
     6
  9
$UCSBASE
  2

  9
$UCSNAME
  2

  9
$UCSORG
 10
0.0
 20
0.0
 30
0.0
  9
$UCSXDIR
 10
1.0
 20
0.0
 30
0.0
  9
$UCSYDIR
 10
0.0
 20
1.0
 30
0.0
  9
$UCSORTHOREF
  2

  9
$UCSORTHOVIEW
 70
     0
  9
$UCSORGTOP
 10
0.0
 20
0.0
 30
0.0
  9
$UCSORGBOTTOM
 10
0.0
 20
0.0
 30
0.0
  9
$UCSORGLEFT
 10
0.0
 20
0.0
 30
0.0
  9
$UCSORGRIGHT
 10
0.0
 20
0.0
 30
0.0
  9
$UCSORGFRONT
 10
0.0
 20
0.0
 30
0.0
  9
$UCSORGBACK
 10
0.0
 20
0.0
 30
0.0
  9
$PUCSBASE
  2

  9
$PUCSNAME
  2

  9
$PUCSORG
 10
0.0
 20
0.0
 30
0.0
  9
$PUCSXDIR
 10
1.0
 20
0.0
 30
0.0
  9
$PUCSYDIR
 10
0.0
 20
1.0
 30
0.0
  9
$PUCSORTHOREF
  2

  9
$PUCSORTHOVIEW
 70
     0
  9
$PUCSORGTOP
 10
0.0
 20
0.0
 30
0.0
  9
$PUCSORGBOTTOM
 10
0.0
 20
0.0
 30
0.0
  9
$PUCSORGLEFT
 10
0.0
 20
0.0
 30
0.0
  9
$PUCSORGRIGHT
 10
0.0
 20
0.0
 30
0.0
  9
$PUCSORGFRONT
 10
0.0
 20
0.0
 30
0.0
  9
$PUCSORGBACK
 10
0.0
 20
0.0
 30
0.0
  9
$USERI1
 70
     0
  9
$USERI2
 70
     0
  9
$USERI3
 70
     0
  9
$USERI4
 70
     0
  9
$USERI5
 70
     0
  9
$USERR1
 40
245.9999999999999
  9
$USERR2
 40
0.0
  9
$USERR3
 40
0.0
  9
$USERR4
 40
0.0
  9
$USERR5
 40
0.0
  9
$WORLDVIEW
 70
     1
  9
$SHADEDGE
 70
     3
  9
$SHADEDIF
 70
    70
  9
$TILEMODE
 70
     0
  9
$MAXACTVP
 70
    48
  9
$PINSBASE
 10
0.0
 20
0.0
 30
0.0
  9
$PLIMCHECK
 70
     0
  9
$PEXTMIN
 10
1.049999999999999
 20
0.6999999999999998
 30
0.0
  9
$PEXTMAX
 10
9.449999999999999
 20
6.3
 30
0.0
  9
$PLIMMIN
 10
0.0
 20
0.0
  9
$PLIMMAX
 10
0.0
 20
0.0
  9
$UNITMODE
 70
     0
  9
$VISRETAIN
 70
     1
  9
$PLINEGEN
 70
     0
  9
$PSLTSCALE
 70
     1
  9
$TREEDEPTH
 70
  3020
  9
$CMLSTYLE
  2
STANDARD
  9
$CMLJUST
 70
     0
  9
$CMLSCALE
 40
20.0
  9
$PROXYGRAPHICS
 70
     1
  9
$MEASUREMENT
 70
     0
  9
$CELWEIGHT
370
    -1
  9
$ENDCAPS
280
     0
  9
$JOINSTYLE
280
     0
  9
$LWDISPLAY
290
     1
  9
$INSUNITS
 70
     0
  9
$HYPERLINKBASE
  1

  9
$STYLESHEET
  1
monochrome.ctb
  9
$XEDIT
290
     1
  9
$CEPSNTYPE
380
     0
  9
$PSTYLEMODE
290
     1
  9
$FINGERPRINTGUID
  2
{D14EE3FF-941A-415A-9907-344E0A80D794}
  9
$VERSIONGUID
  2
{DE1FAACC-4F4D-4A07-B68E-06D5E6FC960D}
  9
$EXTNAMES
290
     1
  9
$PSVPSCALE
 40
0.0
  9
$OLESTARTUP
290
     0
  0
ENDSEC
  0
SECTION
  2
CLASSES
  0
CLASS
  1
ACDBDICTIONARYWDFLT
  2
AcDbDictionaryWithDefault
  3
ObjectDBX Classes
 90
        0
280
     0
281
     0
  0
CLASS
  1
ACDBPLACEHOLDER
  2
AcDbPlaceHolder
  3
ObjectDBX Classes
 90
        0
280
     0
281
     0
  0
CLASS
  1
LAYOUT
  2
AcDbLayout
  3
ObjectDBX Classes
 90
        0
280
     0
281
     0
  0
CLASS
  1
DICTIONARYVAR
  2
AcDbDictionaryVar
  3
ObjectDBX Classes
 90
        0
280
     0
281
     0
  0
CLASS
  1
VISUALSTYLE
  2
AcDbVisualStyle
  3
ObjectDBX Classes
 90
     4095
280
     0
281
     0
  0
CLASS
  1
SCALE
  2
AcDbScale
  3
ObjectDBX Classes
 90
     1153
280
     0
281
     0
  0
CLASS
  1
MATERIAL
  2
AcDbMaterial
  3
ObjectDBX Classes
 90
     1153
280
     0
281
     0
  0
CLASS
  1
TABLESTYLE
  2
AcDbTableStyle
  3
ObjectDBX Classes
 90
     4095
280
     0
281
     0
  0
CLASS
  1
MLEADERSTYLE
  2
AcDbMLeaderStyle
  3
ACDB_MLEADERSTYLE_CLASS
 90
     4095
280
     0
281
     0
  0
CLASS
  1
SUN
  2
AcDbSun
  3
SCENEOE
 90
     1153
280
     0
281
     0
  0
CLASS
  1
RASTERVARIABLES
  2
AcDbRasterVariables
  3
ISM
 90
        0
280
     0
281
     0
  0
CLASS
  1
DIMASSOC
  2
AcDbDimAssoc
  3
"AcDbDimAssoc|Product Desc:     AcDim ARX App For Dimension|Company:          Autodesk, Inc.|WEB Address:      www.autodesk.com"
 90
    32768
280
     0
281
     0
  0
CLASS
  1
SORTENTSTABLE
  2
AcDbSortentsTable
  3
ObjectDBX Classes
 90
        0
280
     0
281
     0
  0
CLASS
  1
ACDBSECTIONVIEWSTYLE
  2
AcDbSectionViewStyle
  3
ObjectDBX Classes
 90
     1025
280
     0
281
     0
  0
CLASS
  1
ACDBDETAILVIEWSTYLE
  2
AcDbDetailViewStyle
  3
ObjectDBX Classes
 90
     1025
280
     0
281
     0
  0
CLASS
  1
CELLSTYLEMAP
  2
AcDbCellStyleMap
  3
ObjectDBX Classes
 90
     1152
280
     0
281
     0
  0
ENDSEC
  0
SECTION
  2
TABLES
  0
TABLE
  2
VPORT
  5
8
102
{ACAD_XDICTIONARY
360
2D620
102
}
330
0
100
AcDbSymbolTable
 70
     1
  0
VPORT
  5
2839E
330
8
100
AcDbSymbolTableRecord
100
AcDbViewportTableRecord
  2
*Active
 70
     0
 10
0.0
 20
0.0
 11
1.0
 21
1.0
 12
845.5333391305998
 22
-2429.168260256102
 13
0.0
 23
0.0
 14
10.0
 24
10.0
 15
10.0
 25
10.0
 16
0.0
 26
0.0
 36
1.0
 17
0.0
 27
0.0
 37
0.0
 40
228.5029381176661
 41
1.305479452054794
 42
50.0
 43
0.0
 44
0.0
 50
0.0
 51
0.0
 71
    16
 72
   100
 73
     1
 74
     0
 75
     0
 76
     0
 77
     0
 78
     0
281
     0
 65
     1
110
0.0
120
0.0
130
0.0
111
1.0
121
0.0
131
0.0
112
0.0
122
1.0
132
0.0
 79
     0
146
0.0
  0
ENDTAB
  0
TABLE
  2
LTYPE
  5
5
330
0
100
AcDbSymbolTable
 70
     5
  0
LTYPE
  5
12
330
5
100
AcDbSymbolTableRecord
100
AcDbLinetypeTableRecord
  2
BYBLOCK
 70
     0
  3

 72
    65
 73
     0
 40
0.0
  0
LTYPE
  5
13
330
5
100
AcDbSymbolTableRecord
100
AcDbLinetypeTableRecord
  2
BYLAYER
 70
     0
  3

 72
    65
 73
     0
 40
0.0
  0
LTYPE
  5
14
330
5
100
AcDbSymbolTableRecord
100
AcDbLinetypeTableRecord
  2
CONTINUOUS
 70
     0
  3
Solid line
 72
    65
 73
     0
 40
0.0
  0
LTYPE
  5
126C
330
5
100
AcDbSymbolTableRecord
100
AcDbLinetypeTableRecord
  2
CENTER
 70
     0
  3
____ _ ____ _ ____ _ ____ _ ____ _ ____ _ ____
 72
    65
 73
     4
 40
2.0
 49
1.25
 74
     0
 49
-0.25
 74
     0
 49
0.25
 74
     0
 49
-0.25
 74
     0
  0
LTYPE
  5
126E
330
5
100
AcDbSymbolTableRecord
100
AcDbLinetypeTableRecord
  2
DASHDOT
 70
     0
  3
__ . __ . __ . __ . __ . __ . __ . __ . __ . __
 72
    65
 73
     4
 40
1.0
 49
0.5
 74
     0
 49
-0.25
 74
     0
 49
0.0
 74
     0
 49
-0.25
 74
     0
  0
LTYPE
  5
15420
330
5
100
AcDbSymbolTableRecord
100
AcDbLinetypeTableRecord
  2
CENTER2
 70
     0
  3
Center (.5x) ___ _ ___ _ ___ _ ___ _ ___ _ ___
 72
    65
 73
     4
 40
1.125
 49
0.75
 74
     0
 49
-0.125
 74
     0
 49
0.125
 74
     0
 49
-0.125
 74
     0
  0
LTYPE
  5
299A9
330
5
100
AcDbSymbolTableRecord
100
AcDbLinetypeTableRecord
  2
HIDDEN2
 70
     0
  3
Hidden (.5x) _ _ _ _ _ _ _ _ _ _ _ _ _ _ _ _ _
 72
    65
 73
     2
 40
4.762499999999999
 49
3.174999999999999
 74
     0
 49
-1.587499999999999
 74
     0
  0
ENDTAB
  0
TABLE
  2
LAYER
  5
2
102
{ACAD_XDICTIONARY
360
254EC
102
}
330
0
100
AcDbSymbolTable
 70
     9
  0
LAYER
  5
E
330
2
100
AcDbSymbolTableRecord
100
AcDbLayerTableRecord
  2
0
 70
     2
 62
     7
  6
CONTINUOUS
370
    35
390
FB5C
  0
LAYER
  5
30
330
2
100
AcDbSymbolTableRecord
100
AcDbLayerTableRecord
  2
FRAME025
 70
     0
 62
     7
  6
CONTINUOUS
370
    -3
390
FB5C
  0
LAYER
  5
651
330
2
100
AcDbSymbolTableRecord
100
AcDbLayerTableRecord
  2
FRAME020
 70
     0
 62
     7
  6
CONTINUOUS
370
    -3
390
FB5C
  0
LAYER
  5
1271
330
2
100
AcDbSymbolTableRecord
100
AcDbLayerTableRecord
  2
A
 70
     0
 62
     7
  6
CONTINUOUS
370
    -3
390
FB5C
  0
LAYER
  5
122DE
330
2
100
AcDbSymbolTableRecord
100
AcDbLayerTableRecord
  2
dimension
 70
     0
 62
     7
  6
CONTINUOUS
370
    13
390
FB5C
  0
LAYER
  5
15422
330
2
100
AcDbSymbolTableRecord
100
AcDbLayerTableRecord
  2
細線
 70
     0
 62
     7
  6
CONTINUOUS
370
    13
390
FB5C
  0
LAYER
  5
15425
330
2
100
AcDbSymbolTableRecord
100
AcDbLayerTableRecord
  2
中心線
 70
     0
 62
     7
  6
CENTER2
370
    13
390
FB5C
  0
LAYER
  5
1A846
330
2
100
AcDbSymbolTableRecord
100
AcDbLayerTableRecord
  2
実線
 70
     0
 62
     7
  6
CONTINUOUS
370
    40
390
FB5C
  0
LAYER
  5
299A6
102
{ACAD_XDICTIONARY
360
299A7
102
}
330
2
100
AcDbSymbolTableRecord
100
AcDbLayerTableRecord
  2
破線
 70
     0
 62
     7
  6
HIDDEN2
370
    13
390
FB5C
  0
ENDTAB
  0
TABLE
  2
STYLE
  5
3
330
0
100
AcDbSymbolTable
 70
     7
  0
STYLE
  5
F
330
3
100
AcDbSymbolTableRecord
100
AcDbTextStyleTableRecord
  2
STANDARD
 70
     0
 40
0.0
 41
1.0
 50
0.0
 71
     0
 42
2.5
  3
isocp.shx
  4
bigfont.shx
  0
STYLE
  5
34
330
3
100
AcDbSymbolTableRecord
100
AcDbTextStyleTableRecord
  2
TIMESNR
 70
     0
 40
0.0
 41
1.0
 50
0.0
 71
     0
 42
2.0
  3
times.ttf
  4

1001
ACAD
1000
Times New Roman
1071
       18
  0
STYLE
  5
35
330
3
100
AcDbSymbolTableRecord
100
AcDbTextStyleTableRecord
  2
MS\U+FF7A\U+FF9E\U+FF7C\U+FF6F\U+FF78
 70
     0
 40
0.0
 41
1.0
 50
0.0
 71
     0
 42
5.0
  3

  4

1001
ACAD
1000
MS Gothic
1071
    32817
  0
STYLE
  5
1275
330
3
100
AcDbSymbolTableRecord
100
AcDbTextStyleTableRecord
  2
BIGFONT
 70
     0
 40
2.0
 41
1.0
 50
0.0
 71
     0
 42
2.0
  3
txt.shx
  4
bigfont.shx
  0
STYLE
  5
1A849
330
3
100
AcDbSymbolTableRecord
100
AcDbTextStyleTableRecord
  2
まこ
 70
     0
 40
0.0
 41
1.0
 50
0.0
 71
     0
 42
2.5
  3
simplex.shx
  4
bigfont.shx
  0
STYLE
  5
1A84A
330
3
100
AcDbSymbolTableRecord
100
AcDbTextStyleTableRecord
  2
\U+FF7D\U+FF80\U+FF72\U+FF993
 70
     0
 40
10.0
 41
1.0
 50
0.0
 71
     0
 42
10.0
  3
isocp.shx
  4
extfont.shx
  0
STYLE
  5
1F8B3
330
3
100
AcDbSymbolTableRecord
100
AcDbTextStyleTableRecord
  2
MS\U+FF7A\U+FF9E\U+FF7C\U+FF6F\U+FF78N
 70
     0
 40
0.0
 41
1.0
 50
0.0
 71
     0
 42
5.0
  3

  4

1001
ACAD
1000
MS Gothic
1071
    32817
  0
ENDTAB
  0
TABLE
  2
VIEW
  5
6
330
0
100
AcDbSymbolTable
 70
     0
  0
ENDTAB
  0
TABLE
  2
UCS
  5
7
330
0
100
AcDbSymbolTable
 70
     0
  0
ENDTAB
  0
TABLE
  2
APPID
  5
9
330
0
100
AcDbSymbolTable
 70
    19
  0
APPID
  5
10
330
9
100
AcDbSymbolTableRecord
100
AcDbRegAppTableRecord
  2
ACAD
 70
     0
  0
APPID
  5
F013
330
9
100
AcDbSymbolTableRecord
100
AcDbRegAppTableRecord
  2
CONTENTBLOCKDESCRIPTION
 70
     0
  0
APPID
  5
F014
330
9
100
AcDbSymbolTableRecord
100
AcDbRegAppTableRecord
  2
CONTENTBLOCKICON
 70
     0
  0
APPID
  5
1A9A0
330
9
100
AcDbSymbolTableRecord
100
AcDbRegAppTableRecord
  2
DCO15
 70
     0
  0
APPID
  5
28407
330
9
100
AcDbSymbolTableRecord
100
AcDbRegAppTableRecord
  2
PE_CLOUD
 70
     0
  0
APPID
  5
2895F
330
9
100
AcDbSymbolTableRecord
100
AcDbRegAppTableRecord
  2
PLOTTRANSPARENCY
 70
     0
  0
APPID
  5
29548
330
9
100
AcDbSymbolTableRecord
100
AcDbRegAppTableRecord
  2
ACAD_NAV_VCDISPLAY
 70
     0
  0
APPID
  5
29549
330
9
100
AcDbSymbolTableRecord
100
AcDbRegAppTableRecord
  2
ACAD_PSEXT
 70
     0
  0
APPID
  5
299BA
330
9
100
AcDbSymbolTableRecord
100
AcDbRegAppTableRecord
  2
ACAD_DSTYLE_DIMJAG
 70
     0
  0
APPID
  5
299BB
330
9
100
AcDbSymbolTableRecord
100
AcDbRegAppTableRecord
  2
ACAD_DSTYLE_DIMTALN
 70
     0
  0
APPID
  5
299C7
330
9
100
AcDbSymbolTableRecord
100
AcDbRegAppTableRecord
  2
GradientColor1ACI
 70
     0
  0
APPID
  5
299C8
330
9
100
AcDbSymbolTableRecord
100
AcDbRegAppTableRecord
  2
GradientColor2ACI
 70
     0
  0
APPID
  5
299C9
330
9
100
AcDbSymbolTableRecord
100
AcDbRegAppTableRecord
  2
ACAD_DSTYLE_DIMRADIAL_EXTENSION
 70
     0
  0
APPID
  5
2C31B
330
9
100
AcDbSymbolTableRecord
100
AcDbRegAppTableRecord
  2
ACAD_DIMASSOC_DIMLFAC
 70
     0
  0
APPID
  5
2C31C
330
9
100
AcDbSymbolTableRecord
100
AcDbRegAppTableRecord
  2
ACAD_DIMASSOC_CALC_DIMLFAC
 70
     0
  0
APPID
  5
2C31D
330
9
100
AcDbSymbolTableRecord
100
AcDbRegAppTableRecord
  2
ACAD_DIMASSOC_OVERRIDDEN_DIMLFAC
 70
     0
  0
APPID
  5
2C385
330
9
100
AcDbSymbolTableRecord
100
AcDbRegAppTableRecord
  2
ACAD_DSTYLE_DIMFLIPARROW_SYMBOL
 70
     0
  0
APPID
  5
2C386
330
9
100
AcDbSymbolTableRecord
100
AcDbRegAppTableRecord
  2
ACAD_DSTYLE_DIMFLIPARROW_WHICH_SYMBOL
 70
     0
  0
APPID
  5
2D659
330
9
100
AcDbSymbolTableRecord
100
AcDbRegAppTableRecord
  2
ACAD_MLEADERVER
 70
     0
  0
ENDTAB
  0
TABLE
  2
DIMSTYLE
  5
A
330
0
100
AcDbSymbolTable
 70
     2
100
AcDbDimStyleTable
 71
     0
  0
DIMSTYLE
105
1D
330
A
100
AcDbSymbolTableRecord
100
AcDbDimStyleTableRecord
  2
STANDARD
 70
     0
340
F
  0
DIMSTYLE
105
1A84D
330
A
100
AcDbSymbolTableRecord
100
AcDbDimStyleTableRecord
  2
まこ
 70
     0
 40
1.5
 41
2.5
 42
0.8
 43
10.0
 73
     0
 74
     0
 77
     3
 78
     8
140
3.0
141
0.0
147
0.5
176
     4
177
     4
178
   256
271
     8
272
     8
289
     1
340
1A849
341
1215D
342
1215D
371
    13
372
    13
  0
ENDTAB
  0
TABLE
  2
BLOCK_RECORD
  5
1
330
0
100
AcDbSymbolTable
 70
     2
  0
BLOCK_RECORD
  5
18
102
{ACAD_XDICTIONARY
360
2B855
102
}
330
1
100
AcDbSymbolTableRecord
100
AcDbBlockTableRecord
  2
*MODEL_SPACE
340
FB5D
  0
BLOCK_RECORD
  5
2D5C1
330
1
100
AcDbSymbolTableRecord
100
AcDbBlockTableRecord
  2
*Paper_Space
340
2D5C2
  0
BLOCK_RECORD
  5
115C
330
1
100
AcDbSymbolTableRecord
100
AcDbBlockTableRecord
  2
機械A4横_LBP
340
0
102
{BLKREFS
331
187D7
102
}
  0
BLOCK_RECORD
  5
1215D
330
1
100
AcDbSymbolTableRecord
100
AcDbBlockTableRecord
  2
_Open30
340
0
  0
ENDTAB
  0
ENDSEC
  0
SECTION
  2
BLOCKS
  0
BLOCK
  5
19
330
18
100
AcDbEntity
  8
0
100
AcDbBlockBegin
  2
*MODEL_SPACE
 70
     0
 10
0.0
 20
0.0
 30
0.0
  3
*MODEL_SPACE
  1

  0
ENDBLK
  5
1A
330
18
100
AcDbEntity
  8
0
100
AcDbBlockEnd
  0
BLOCK
  5
2D5C3
330
2D5C1
100
AcDbEntity
 67
     1
  8
0
100
AcDbBlockBegin
  2
*Paper_Space
 70
     0
 10
0.0
 20
0.0
 30
0.0
  3
*Paper_Space
  1

  0
ENDBLK
  5
2D5C4
330
2D5C1
100
AcDbEntity
 67
     1
  8
0
100
AcDbBlockEnd
  0
BLOCK
  5
115D
330
115C
100
AcDbEntity
  8
0
100
AcDbBlockBegin
  2
機械A4横_LBP
 70
     0
 10
0.0
 20
0.0
 30
0.0
  3
機械A4横_LBP
  1

  0
ENDBLK
  5
115E
330
115C
100
AcDbEntity
  8
0
100
AcDbBlockEnd
  0
BLOCK
  5
12161
330
1215D
100
AcDbEntity
  8
0
100
AcDbBlockBegin
  2
_Open30
 70
     0
 10
0.0
 20
0.0
 30
0.0
  3
_Open30
  1

  0
LINE
  5
1215E
330
1215D
100
AcDbEntity
  8
0
  6
ByBlock
 62
     0
370
    -2
100
AcDbLine
 10
-1.0
 20
0.26794919
 30
0.0
 11
0.0
 21
0.0
 31
0.0
  0
LINE
  5
1215F
330
1215D
100
AcDbEntity
  8
0
  6
ByBlock
 62
     0
370
    -2
100
AcDbLine
 10
0.0
 20
0.0
 30
0.0
 11
-1.0
 21
-0.26794919
 31
0.0
  0
LINE
  5
12160
330
1215D
100
AcDbEntity
  8
0
  6
ByBlock
 62
     0
370
    -2
100
AcDbLine
 10
0.0
 20
0.0
 30
0.0
 11
-1.0
 21
0.0
 31
0.0
  0
ENDBLK
  5
12162
330
1215D
100
AcDbEntity
  8
0
100
AcDbBlockEnd
  0
ENDSEC
  0
SECTION
  2
ENTITIES
  0
MTEXT
  5
176FC
330
18
100
AcDbEntity
  8
dimension
 62
     2
100
AcDbMText
 10
-100.7823601383244
 20
171.621314412839
 30
0.0
 40
8.0
 41
0.0
 71
     4
 72
     1
  1

 73
     1
 44
1.0
1001
ACAD
1000
MTEXTBEGIN
1070
    73
1070
     1
1070
    44
1040
1.0
1070
    74
1070
     0
1000
MTEXTEND
  0
TEXT
  5
187C8
330
18
100
AcDbEntity
  8
A
100
AcDbText
 10
27.08248755054501
 20
1784.547672862096
 30
0.0
 40
2.5
  1

  7
MS\U+FF7A\U+FF9E\U+FF7C\U+FF6F\U+FF78
100
AcDbText
  0
TEXT
  5
187C9
330
18
100
AcDbEntity
  8
A
100
AcDbText
 10
19.25748755054502
 20
1784.547672862096
 30
0.0
 40
2.5
  1

 41
0.5
  7
MS\U+FF7A\U+FF9E\U+FF7C\U+FF6F\U+FF78
100
AcDbText
  0
MTEXT
  5
187CB
330
18
100
AcDbEntity
  8
0
  6
ByBlock
100
AcDbMText
 10
325.4874764241681
 20
2232.511722574347
 30
0.0
 40
2.0
 41
0.0
 71
     4
 72
     5
  1

 11
-0.0000000000000002
 21
-1.0
 31
0.0
 73
     1
 44
1.0
1001
ACAD
1000
MTEXTBEGIN
1070
    73
1070
     1
1070
    44
1040
1.0
1070
    74
1070
     0
1000
MTEXTEND
  0
MTEXT
  5
187CC
330
18
100
AcDbEntity
  8
0
  6
ByBlock
100
AcDbMText
 10
360.9528647873209
 20
2221.71841421593
 30
0.0
 40
2.0
 41
0.0
 71
     7
 72
     5
  1

 11
0.0000000000000001
 21
1.0
 31
0.0
 73
     1
 44
1.0
1001
ACAD
1000
MTEXTBEGIN
1070
    73
1070
     1
1070
    44
1040
1.0
1070
    74
1070
     0
1000
MTEXTEND
  0
MTEXT
  5
187CD
330
18
100
AcDbEntity
  8
0
100
AcDbMText
 10
325.1733668026533
 20
2146.93890367364
 30
0.0
 40
2.0
 41
10.1453
 71
     1
 72
     5
  1

 11
-0.0000000000000002
 21
-1.0
 31
0.0
 73
     1
 44
1.0
1001
ACAD
1000
MTEXTBEGIN
1070
    73
1070
     1
1070
    44
1040
1.0
1070
    74
1070
     0
1000
MTEXTEND
  0
MTEXT
  5
187CE
330
18
100
AcDbEntity
  8
0
100
AcDbMText
 10
280.7738750495033
 20
2115.30742008065
 30
0.0
 40
2.0
 41
0.0
 71
     1
 72
     5
  1

 73
     1
 44
1.0
1001
ACAD
1000
MTEXTBEGIN
1070
    73
1070
     1
1070
    44
1040
1.0
1070
    74
1070
     0
1000
MTEXTEND
  0
MTEXT
  5
187CF
330
18
100
AcDbEntity
  8
0
  6
CENTER
100
AcDbMText
 10
606.3621522332663
 20
2216.239946825076
 30
0.0
 40
2.0
 41
15.6417
 71
     1
 72
     5
  1

  7
BIGFONT
 73
     1
 44
1.0
1001
ACAD
1000
MTEXTBEGIN
1070
    73
1070
     1
1070
    44
1040
1.0
1070
    74
1070
     0
1000
MTEXTEND
  0
MTEXT
  5
187D0
330
18
100
AcDbEntity
  8
0
  6
DASHDOT
100
AcDbMText
 10
368.6842112890945
 20
2323.029441652852
 30
0.0
 40
1.0
 41
2.0
 71
     1
 72
     5
  1

  7
BIGFONT
 73
     1
 44
1.0
1001
ACAD
1000
MTEXTBEGIN
1070
    73
1070
     1
1070
    44
1040
1.0
1070
    74
1070
     0
1000
MTEXTEND
  0
MTEXT
  5
187D1
330
18
100
AcDbEntity
  8
0
  6
ByBlock
100
AcDbMText
 10
325.4873894192178
 20
2232.511722574347
 30
0.0
 40
2.0
 41
0.0
 71
     4
 72
     5
  1

 11
-0.0000000000000002
 21
-1.0
 31
0.0
 73
     1
 44
1.0
1001
ACAD
1000
MTEXTBEGIN
1070
    73
1070
     1
1070
    44
1040
1.0
1070
    74
1070
     0
1000
MTEXTEND
  0
MTEXT
  5
187D2
330
18
100
AcDbEntity
  8
0
  6
ByBlock
100
AcDbMText
 10
360.9527777823708
 20
2221.71841421593
 30
0.0
 40
2.0
 41
0.0
 71
     7
 72
     5
  1

 11
0.0000000000000001
 21
1.0
 31
0.0
 73
     1
 44
1.0
1001
ACAD
1000
MTEXTBEGIN
1070
    73
1070
     1
1070
    44
1040
1.0
1070
    74
1070
     0
1000
MTEXTEND
  0
MTEXT
  5
187D3
330
18
100
AcDbEntity
  8
0
100
AcDbMText
 10
325.1732797977029
 20
2146.93890367364
 30
0.0
 40
2.0
 41
10.1453
 71
     1
 72
     5
  1

 11
-0.0000000000000002
 21
-1.0
 31
0.0
 73
     1
 44
1.0
1001
ACAD
1000
MTEXTBEGIN
1070
    73
1070
     1
1070
    44
1040
1.0
1070
    74
1070
     0
1000
MTEXTEND
  0
MTEXT
  5
187D4
330
18
100
AcDbEntity
  8
0
100
AcDbMText
 10
280.7737880445531
 20
2115.30742008065
 30
0.0
 40
2.0
 41
0.0
 71
     1
 72
     5
  1

 73
     1
 44
1.0
1001
ACAD
1000
MTEXTBEGIN
1070
    73
1070
     1
1070
    44
1040
1.0
1070
    74
1070
     0
1000
MTEXTEND
  0
MTEXT
  5
187D5
330
18
100
AcDbEntity
  8
0
  6
CENTER
100
AcDbMText
 10
606.3620652283159
 20
2216.239946825076
 30
0.0
 40
2.0
 41
15.6417
 71
     1
 72
     5
  1

  7
BIGFONT
 73
     1
 44
1.0
1001
ACAD
1000
MTEXTBEGIN
1070
    73
1070
     1
1070
    44
1040
1.0
1070
    74
1070
     0
1000
MTEXTEND
  0
MTEXT
  5
187D6
330
18
100
AcDbEntity
  8
0
  6
DASHDOT
100
AcDbMText
 10
368.6841242841443
 20
2323.029441652852
 30
0.0
 40
1.0
 41
2.0
 71
     1
 72
     5
  1

  7
BIGFONT
 73
     1
 44
1.0
1001
ACAD
1000
MTEXTBEGIN
1070
    73
1070
     1
1070
    44
1040
1.0
1070
    74
1070
     0
1000
MTEXTEND
  0
INSERT
  5
187D7
330
18
100
AcDbEntity
  8
FRAME025
100
AcDbBlockReference
  2
機械A4横_LBP
 10
271.0019941658661
 20
2006.888840564871
 30
0.0
  0
TEXT
  5
216E7
330
18
100
AcDbEntity
  8
FRAME020
  6
Continuous
100
AcDbText
 10
1272.84444499335
 20
-2736.187561819854
 30
0.0
 40
3.0
  1

 50
270.0
100
AcDbText
  0
MTEXT
  5
21ACC
330
18
100
AcDbEntity
  8
0
100
AcDbMText
 10
62.91095225984048
 20
-1280.130762802907
 30
0.0
 40
2.5
 41
0.625
 71
     9
 72
     1
  1

 73
     1
 44
1.0
1001
ACAD
1000
MTEXTBEGIN
1070
    73
1070
     1
1070
    44
1040
1.0
1070
    74
1070
     0
1000
MTEXTEND
  0
LINE
  5
27C69
330
18
100
AcDbEntity
  8
中心線
 48
0.5
100
AcDbLine
 10
585.4317019242829
 20
-2233.191602833294
 30
0.0
 11
570.4317019242829
 21
-2233.191602833294
 31
0.0
  0
LINE
  5
27C6A
330
18
100
AcDbEntity
  8
中心線
 48
0.5
100
AcDbLine
 10
570.4317019242829
 20
-2298.191602833294
 30
0.0
 11
585.4317019242829
 21
-2298.191602833294
 31
0.0
  0
LINE
  5
27C6C
330
18
100
AcDbEntity
  8
実線
100
AcDbLine
 10
562.1317019242836
 20
-2305.691602833293
 30
0.0
 11
721.7317019242821
 21
-2305.691602833293
 31
0.0
  0
LINE
  5
27C6D
330
18
100
AcDbEntity
  8
実線
100
AcDbLine
 10
562.1317019242836
 20
-2287.691602833294
 30
0.0
 11
721.7317019242821
 21
-2287.691602833294
 31
0.0
  0
LINE
  5
27C6E
330
18
100
AcDbEntity
  8
実線
100
AcDbLine
 10
721.7317019242821
 20
-2225.691602833293
 30
0.0
 11
562.1317019242836
 21
-2225.691602833293
 31
0.0
  0
LINE
  5
27C6F
330
18
100
AcDbEntity
  8
実線
100
AcDbLine
 10
721.7317019242821
 20
-2243.691602833294
 30
0.0
 11
562.1317019242836
 21
-2243.691602833294
 31
0.0
  0
LINE
  5
27C75
330
18
100
AcDbEntity
  8
実線
100
AcDbLine
 10
473.8477423594164
 20
-2231.691602833294
 30
0.0
 11
461.8477423594164
 21
-2231.691602833294
 31
0.0
  0
LINE
  5
27C76
330
18
100
AcDbEntity
  8
実線
100
AcDbLine
 10
473.8477423594164
 20
-2299.691602833294
 30
0.0
 11
461.8477423594164
 21
-2299.691602833294
 31
0.0
  0
LWPOLYLINE
  5
27C77
330
18
100
AcDbEntity
  8
実線
100
AcDbPolyline
 90
        4
 70
     1
 43
0.0
 10
473.8477423594164
 20
-2290.691602833294
 10
473.8477423594164
 20
-2240.691602833294
 10
447.8477423594164
 20
-2240.691602833294
 10
447.8477423594164
 20
-2290.691602833294
  0
LINE
  5
27C79
330
18
100
AcDbEntity
  8
中心線
 48
0.5
100
AcDbLine
 10
437.8477423594165
 20
-2265.691602833294
 30
0.0
 11
495.8477423594165
 21
-2265.691602833294
 31
0.0
  0
LINE
  5
27C7A
330
18
100
AcDbEntity
  8
実線
100
AcDbLine
 10
487.8477423594165
 20
-2305.691602833295
 30
0.0
 11
461.8477423594174
 21
-2305.691602833295
 31
0.0
  0
LINE
  5
27C7B
330
18
100
AcDbEntity
  8
実線
100
AcDbLine
 10
487.8477423594165
 20
-2225.691602833293
 30
0.0
 11
461.8477423594174
 21
-2225.691602833293
 31
0.0
  0
LINE
  5
27C7D
330
18
100
AcDbEntity
  8
実線
100
AcDbLine
 10
447.8477423594164
 20
-2240.691602833294
 30
0.0
 11
447.8477423594164
 21
-2225.691602833293
 31
0.0
  0
LINE
  5
27C83
330
18
100
AcDbEntity
  8
実線
100
AcDbLine
 10
461.8477423594164
 20
-2305.691602833295
 30
0.0
 11
447.8477423594164
 21
-2305.691602833295
 31
0.0
  0
LINE
  5
27C84
330
18
100
AcDbEntity
  8
実線
100
AcDbLine
 10
447.8477423594164
 20
-2290.691602833294
 30
0.0
 11
447.8477423594164
 21
-2305.691602833295
 31
0.0
  0
LINE
  5
27C8E
330
18
100
AcDbEntity
  8
実線
100
AcDbLine
 10
461.8477423594164
 20
-2305.691602833295
 30
0.0
 11
461.8477423594155
 21
-2299.691602833294
 31
0.0
  0
LINE
  5
27CC9
330
18
100
AcDbEntity
  8
実線
100
AcDbLine
 10
461.8477423594164
 20
-2225.691602833293
 30
0.0
 11
447.8477423594164
 21
-2225.691602833293
 31
0.0
  0
LINE
  5
27CCA
330
18
100
AcDbEntity
  8
実線
100
AcDbLine
 10
461.8477423594164
 20
-2225.691602833293
 30
0.0
 11
461.8477423594155
 21
-2231.691602833294
 31
0.0
  0
LINE
  5
27CCD
330
18
100
AcDbEntity
  8
実線
100
AcDbLine
 10
487.8477423594165
 20
-2225.691602833293
 30
0.0
 11
487.8477423594165
 21
-2243.691602833294
 31
0.0
  0
CIRCLE
  5
27CCE
330
18
100
AcDbEntity
  8
0
  6
Continuous
100
AcDbCircle
 10
480.3477423594164
 20
-2235.691602833294
 30
0.0
 40
3.749999999999991
  0
CIRCLE
  5
27CCF
330
18
100
AcDbEntity
  8
0
  6
Continuous
100
AcDbCircle
 10
480.3477423594164
 20
-2235.691602833294
 30
0.0
 40
4.25
  0
CIRCLE
  5
27CD0
330
18
100
AcDbEntity
  8
実線
100
AcDbCircle
 10
480.3477423594164
 20
-2235.691602833294
 30
0.0
 40
4.75
  0
LWPOLYLINE
  5
27CD1
330
18
100
AcDbEntity
  8
実線
100
AcDbPolyline
 90
        4
 70
     1
 43
0.0
 10
485.8477423594164
 20
-2229.691602833294
 10
473.8477423594164
 20
-2229.691602833294
 10
473.8477423594164
 20
-2301.691602833294
 10
485.8477423594164
 20
-2301.691602833294
  0
CIRCLE
  5
27CD2
330
18
100
AcDbEntity
  8
0
  6
Continuous
100
AcDbCircle
 10
480.3477423594164
 20
-2295.691602833294
 30
0.0
 40
4.25
  0
CIRCLE
  5
27CD3
330
18
100
AcDbEntity
  8
実線
100
AcDbCircle
 10
480.3477423594164
 20
-2295.691602833294
 30
0.0
 40
4.75
  0
LINE
  5
27CD4
330
18
100
AcDbEntity
  8
0
  6
Continuous
100
AcDbLine
 10
480.3477423594164
 20
-2293.382201833294
 30
0.0
 11
482.347743359424
 21
-2294.536902633293
 31
0.0
  0
LINE
  5
27CD5
330
18
100
AcDbEntity
  8
0
  6
Continuous
100
AcDbLine
 10
480.3477423594164
 20
-2293.382201333293
 30
0.0
 11
478.3477423594163
 21
-2294.536902233294
 31
0.0
  0
LINE
  5
27CD6
330
18
100
AcDbEntity
  8
0
  6
Continuous
100
AcDbLine
 10
480.3477423594164
 20
-2298.001003833295
 30
0.0
 11
482.347743359424
 21
-2296.846303033293
 31
0.0
  0
LINE
  5
27CD7
330
18
100
AcDbEntity
  8
0
  6
Continuous
100
AcDbLine
 10
478.3477423594163
 20
-2296.846303433294
 30
0.0
 11
480.3477423594164
 21
-2298.001004333295
 31
0.0
  0
LINE
  5
27CD8
330
18
100
AcDbEntity
  8
0
  6
Continuous
100
AcDbLine
 10
478.3477423594163
 20
-2294.536902333293
 30
0.0
 11
478.3477423594163
 21
-2296.846303333293
 31
0.0
  0
LINE
  5
27CD9
330
18
100
AcDbEntity
  8
0
  6
Continuous
100
AcDbLine
 10
482.3477423594163
 20
-2294.536902333293
 30
0.0
 11
482.3477423594163
 21
-2296.846303333293
 31
0.0
  0
CIRCLE
  5
27CDA
330
18
100
AcDbEntity
  8
0
  6
Continuous
100
AcDbCircle
 10
480.3477423594164
 20
-2295.691602833294
 30
0.0
 40
3.749999999999991
  0
LINE
  5
27CDB
330
18
100
AcDbEntity
  8
0
  6
Continuous
100
AcDbLine
 10
480.3477423594164
 20
-2233.382201833293
 30
0.0
 11
482.347743359424
 21
-2234.536902633293
 31
0.0
  0
LINE
  5
27CDC
330
18
100
AcDbEntity
  8
0
  6
Continuous
100
AcDbLine
 10
480.3477423594164
 20
-2233.382201333293
 30
0.0
 11
478.3477423594163
 21
-2234.536902233294
 31
0.0
  0
LINE
  5
27CDD
330
18
100
AcDbEntity
  8
0
  6
Continuous
100
AcDbLine
 10
478.3477423594163
 20
-2234.536902333293
 30
0.0
 11
478.3477423594163
 21
-2236.846303333293
 31
0.0
  0
LINE
  5
27CDE
330
18
100
AcDbEntity
  8
0
  6
Continuous
100
AcDbLine
 10
482.3477423594163
 20
-2234.536902333293
 30
0.0
 11
482.3477423594163
 21
-2236.846303333293
 31
0.0
  0
LINE
  5
27CDF
330
18
100
AcDbEntity
  8
0
  6
Continuous
100
AcDbLine
 10
480.3477423594164
 20
-2238.001003833295
 30
0.0
 11
482.347743359424
 21
-2236.846303033293
 31
0.0
  0
LINE
  5
27CE0
330
18
100
AcDbEntity
  8
0
  6
Continuous
100
AcDbLine
 10
478.3477423594163
 20
-2236.846303433294
 30
0.0
 11
480.3477423594164
 21
-2238.001004333295
 31
0.0
  0
LINE
  5
27CE1
330
18
100
AcDbEntity
  8
実線
100
AcDbLine
 10
487.4477423594164
 20
-2243.691602833294
 30
0.0
 11
487.4477423594164
 21
-2287.691602833294
 31
0.0
  0
LINE
  5
27CE2
330
18
100
AcDbEntity
  8
実線
100
AcDbLine
 10
487.8477423594165
 20
-2287.691602833294
 30
0.0
 11
485.8477423594164
 21
-2287.691602833294
 31
0.0
  0
LINE
  5
27CE3
330
18
100
AcDbEntity
  8
実線
100
AcDbLine
 10
487.8477423594165
 20
-2305.691602833295
 30
0.0
 11
487.8477423594165
 21
-2287.691602833294
 31
0.0
  0
LINE
  5
27CE4
330
18
100
AcDbEntity
  8
実線
100
AcDbLine
 10
487.8477423594165
 20
-2243.691602833294
 30
0.0
 11
485.8477423594164
 21
-2243.691602833294
 31
0.0
  0
LINE
  5
27CE7
330
18
100
AcDbEntity
  8
中心線
 48
0.5
100
AcDbLine
 10
577.9317019242829
 20
-2240.691602833294
 30
0.0
 11
577.9317019242829
 21
-2225.691602833293
 31
0.0
  0
CIRCLE
  5
27CE8
330
18
100
AcDbEntity
  8
細線
100
AcDbCircle
 10
577.9317019242829
 20
-2233.191602833294
 30
0.0
 40
2.5
  0
CIRCLE
  5
27CE9
330
18
100
AcDbEntity
  8
実線
100
AcDbCircle
 10
577.9317019242829
 20
-2233.191602833294
 30
0.0
 40
2.1
  0
LINE
  5
27CEA
330
18
100
AcDbEntity
  8
実線
100
AcDbLine
 10
562.1317019242836
 20
-2243.691602833294
 30
0.0
 11
562.1317019242836
 21
-2225.691602833293
 31
0.0
  0
LINE
  5
27CEB
330
18
100
AcDbEntity
  8
実線
100
AcDbLine
 10
561.9317019242835
 20
-2301.691602833294
 30
0.0
 11
561.9317019242835
 21
-2229.691602833293
 31
0.0
  0
LINE
  5
27CEC
330
18
100
AcDbEntity
  8
実線
100
AcDbLine
 10
547.9317019242834
 20
-2229.691602833293
 30
0.0
 11
547.9317019242834
 21
-2301.691602833294
 31
0.0
  0
LINE
  5
27CF8
330
18
100
AcDbEntity
  8
実線
100
AcDbLine
 10
547.9317019242834
 20
-2301.691602833294
 30
0.0
 11
561.9317019242835
 21
-2301.691602833294
 31
0.0
  0
LINE
  5
27CF9
330
18
100
AcDbEntity
  8
実線
100
AcDbLine
 10
562.1317019242836
 20
-2287.691602833294
 30
0.0
 11
562.1317019242836
 21
-2305.691602833293
 31
0.0
  0
LINE
  5
27CFA
330
18
100
AcDbEntity
  8
中心線
 48
0.5
100
AcDbLine
 10
577.9317019242829
 20
-2290.691602833294
 30
0.0
 11
577.9317019242829
 21
-2305.691602833293
 31
0.0
  0
CIRCLE
  5
27CFB
330
18
100
AcDbEntity
  8
実線
100
AcDbCircle
 10
577.9317019242829
 20
-2298.191602833294
 30
0.0
 40
2.1
  0
CIRCLE
  5
27CFC
330
18
100
AcDbEntity
  8
細線
100
AcDbCircle
 10
577.9317019242829
 20
-2298.191602833294
 30
0.0
 40
2.5
  0
LINE
  5
27CFD
330
18
100
AcDbEntity
  8
実線
100
AcDbLine
 10
561.9317019242835
 20
-2229.691602833293
 30
0.0
 11
547.9317019242834
 21
-2229.691602833293
 31
0.0
  0
LINE
  5
27D02
330
18
100
AcDbEntity
  8
中心線
 48
0.5
100
AcDbLine
 10
948.4966756383188
 20
-2265.691602833294
 30
0.0
 11
890.4966756383188
 21
-2265.691602833294
 31
0.0
  0
LWPOLYLINE
  5
27D03
330
18
100
AcDbEntity
  8
実線
100
AcDbPolyline
 90
        4
 70
     1
 43
0.0
 10
912.4966756383187
 20
-2290.691602833294
 10
912.4966756383187
 20
-2240.691602833294
 10
938.4966756383189
 20
-2240.691602833294
 10
938.4966756383189
 20
-2290.691602833294
  0
LINE
  5
27D04
330
18
100
AcDbEntity
  8
実線
100
AcDbLine
 10
912.4966756383187
 20
-2299.691602833294
 30
0.0
 11
924.4966756383188
 21
-2299.691602833294
 31
0.0
  0
LINE
  5
27D05
330
18
100
AcDbEntity
  8
実線
100
AcDbLine
 10
898.4966756383188
 20
-2305.691602833295
 30
0.0
 11
924.4966756383179
 21
-2305.691602833295
 31
0.0
  0
LINE
  5
27D06
330
18
100
AcDbEntity
  8
実線
100
AcDbLine
 10
898.4966756383188
 20
-2225.691602833293
 30
0.0
 11
924.4966756383179
 21
-2225.691602833293
 31
0.0
  0
LINE
  5
27D07
330
18
100
AcDbEntity
  8
実線
100
AcDbLine
 10
912.4966756383187
 20
-2231.691602833294
 30
0.0
 11
924.4966756383188
 21
-2231.691602833294
 31
0.0
  0
LINE
  5
27D08
102
{ACAD_REACTORS
330
27D0A
102
}
330
18
100
AcDbEntity
  8
中心線
 48
0.5
100
AcDbLine
 10
935.9966756383188
 20
-2299.691602833294
 30
0.0
 11
921.9966756383188
 21
-2299.691602833294
 31
0.0
  0
CIRCLE
  5
27D09
102
{ACAD_REACTORS
330
27D0A
102
}
330
18
100
AcDbEntity
  8
実線
 48
0.2
100
AcDbCircle
 10
928.9966756383188
 20
-2299.691602833294
 30
0.0
 40
4.0
  0
HATCH
  5
27D0A
330
18
100
AcDbEntity
  8
0
100
AcDbHatch
 10
0.0
 20
0.0
 30
0.0
210
0.0
220
0.0
230
1.0
  2
ANSI31
 70
     0
 71
     1
 91
        2
 92
        7
 72
     1
 73
     1
 93
        3
 10
932.9966756383187
 20
-2299.691602833294
 42
0.4142135623731065
 10
928.9966756383188
 20
-2295.691602833294
 42
0.0
 10
928.9966756383188
 20
-2299.691602833294
 42
0.0
 97
        3
330
27D09
330
27E04
330
27D08
 92
        7
 72
     1
 73
     1
 93
        3
 10
928.9966756383188
 20
-2303.691602833294
 42
0.0
 10
928.9966756383188
 20
-2299.691602833294
 42
0.0
 10
924.9966756383187
 20
-2299.691602833294
 42
0.4142135623731065
 97
        3
330
27E04
330
27D08
330
27D09
 75
     0
 76
     1
 52
0.0
 41
5.0
 77
     0
 78
     1
 53
45.0
 43
46.07454917962309
 44
-5.24174566782176
 45
-0.4419417382415922
 46
0.4419417382415923
 79
     0
 47
0.0648433176565354
 98
        2
 10
931.8786265845663
 20
-2298.220571519687
 10
927.6618867801786
 20
-2301.397894195675
  0
LWPOLYLINE
  5
27D0D
330
18
100
AcDbEntity
  8
実線
100
AcDbPolyline
 90
        4
 70
     1
 43
0.0
 10
735.9317019242821
 20
-2229.691602833293
 10
721.9317019242821
 20
-2229.691602833293
 10
721.9317019242821
 20
-2301.691602833294
 10
735.9317019242821
 20
-2301.691602833294
  0
LINE
  5
27D13
330
18
100
AcDbEntity
  8
中心線
 48
0.5
100
AcDbLine
 10
740.9317019242821
 20
-2264.691602833293
 30
0.0
 11
716.9317019242821
 21
-2264.691602833293
 31
0.0
  0
LINE
  5
27D14
330
18
100
AcDbEntity
  8
中心線
 48
0.5
100
AcDbLine
 10
740.9317019242821
 20
-2288.691602833293
 30
0.0
 11
716.9317019242821
 21
-2288.691602833293
 31
0.0
  0
CIRCLE
  5
27D1A
330
18
100
AcDbEntity
  8
細線
100
AcDbCircle
 10
641.9317019242829
 20
-2233.191602833294
 30
0.0
 40
2.5
  0
LINE
  5
27D1B
330
18
100
AcDbEntity
  8
中心線
 48
0.5
100
AcDbLine
 10
641.9317019242827
 20
-2240.691602833294
 30
0.0
 11
641.9317019242829
 21
-2225.691602833293
 31
0.0
  0
CIRCLE
  5
27D1C
330
18
100
AcDbEntity
  8
実線
100
AcDbCircle
 10
641.9317019242829
 20
-2233.191602833294
 30
0.0
 40
2.1
  0
LINE
  5
27D34
330
18
100
AcDbEntity
  8
中心線
 48
0.5
100
AcDbLine
 10
649.4317019242829
 20
-2233.191602833294
 30
0.0
 11
634.4317019242829
 21
-2233.191602833294
 31
0.0
  0
LINE
  5
27D35
330
18
100
AcDbEntity
  8
中心線
 48
0.5
100
AcDbLine
 10
634.4317019242829
 20
-2298.191602833294
 30
0.0
 11
649.4317019242829
 21
-2298.191602833294
 31
0.0
  0
CIRCLE
  5
27D37
330
18
100
AcDbEntity
  8
実線
100
AcDbCircle
 10
641.9317019242829
 20
-2298.191602833294
 30
0.0
 40
2.1
  0
CIRCLE
  5
27D38
330
18
100
AcDbEntity
  8
細線
100
AcDbCircle
 10
641.9317019242829
 20
-2298.191602833294
 30
0.0
 40
2.5
  0
LINE
  5
27D39
330
18
100
AcDbEntity
  8
中心線
 48
0.5
100
AcDbLine
 10
641.9317019242829
 20
-2290.691602833294
 30
0.0
 11
641.9317019242829
 21
-2305.691602833293
 31
0.0
  0
LINE
  5
27D3A
330
18
100
AcDbEntity
  8
中心線
 48
0.5
100
AcDbLine
 10
705.9317019242829
 20
-2240.691602833294
 30
0.0
 11
705.9317019242829
 21
-2225.691602833293
 31
0.0
  0
CIRCLE
  5
27D3B
330
18
100
AcDbEntity
  8
実線
100
AcDbCircle
 10
705.9317019242829
 20
-2233.191602833294
 30
0.0
 40
2.1
  0
CIRCLE
  5
27D3C
330
18
100
AcDbEntity
  8
細線
100
AcDbCircle
 10
705.9317019242829
 20
-2233.191602833294
 30
0.0
 40
2.5
  0
LINE
  5
27D3D
330
18
100
AcDbEntity
  8
実線
100
AcDbLine
 10
721.7317019242821
 20
-2243.691602833294
 30
0.0
 11
721.7317019242821
 21
-2225.691602833293
 31
0.0
  0
LINE
  5
27D55
330
18
100
AcDbEntity
  8
中心線
 48
0.5
100
AcDbLine
 10
713.4317019242829
 20
-2233.191602833294
 30
0.0
 11
698.4317019242829
 21
-2233.191602833294
 31
0.0
  0
LINE
  5
27D56
330
18
100
AcDbEntity
  8
中心線
 48
0.5
100
AcDbLine
 10
698.4317019242829
 20
-2298.191602833294
 30
0.0
 11
713.4317019242829
 21
-2298.191602833294
 31
0.0
  0
CIRCLE
  5
27D57
330
18
100
AcDbEntity
  8
実線
100
AcDbCircle
 10
705.9317019242829
 20
-2298.191602833294
 30
0.0
 40
2.1
  0
CIRCLE
  5
27D58
330
18
100
AcDbEntity
  8
細線
100
AcDbCircle
 10
705.9317019242829
 20
-2298.191602833294
 30
0.0
 40
2.5
  0
LINE
  5
27D59
330
18
100
AcDbEntity
  8
中心線
 48
0.5
100
AcDbLine
 10
705.9317019242829
 20
-2290.691602833294
 30
0.0
 11
705.9317019242829
 21
-2305.691602833293
 31
0.0
  0
LINE
  5
27D5A
330
18
100
AcDbEntity
  8
実線
100
AcDbLine
 10
721.7317019242821
 20
-2287.691602833294
 30
0.0
 11
721.7317019242821
 21
-2305.691602833293
 31
0.0
  0
LINE
  5
27D5B
330
18
100
AcDbEntity
  8
実線
100
AcDbLine
 10
805.9317019242818
 20
-2294.741602833294
 30
0.0
 11
818.131701924282
 21
-2294.741602833294
 31
0.0
  0
LINE
  5
27D5C
330
18
100
AcDbEntity
  8
実線
100
AcDbLine
 10
817.131701924282
 20
-2298.241602833296
 30
0.0
 11
811.4317019242818
 21
-2298.241602833296
 31
0.0
  0
LINE
  5
27D5D
330
18
100
AcDbEntity
  8
実線
100
AcDbLine
 10
818.131701924282
 20
-2304.541602833295
 30
0.0
 11
805.9317019242818
 21
-2304.541602833295
 31
0.0
  0
LINE
  5
27D5E
330
18
100
AcDbEntity
  8
実線
100
AcDbLine
 10
817.131701924282
 20
-2301.041602833295
 30
0.0
 11
811.4317019242818
 21
-2301.041602833295
 31
0.0
  0
LINE
  5
27D64
330
18
100
AcDbEntity
  8
中心線
 48
0.5
100
AcDbLine
 10
790.4680971106658
 20
-2307.817694659442
 30
0.0
 11
793.2103666974984
 21
-2292.265511007148
 31
0.0
  0
LINE
  5
27D69
330
18
100
AcDbEntity
  8
実線
100
AcDbLine
 10
735.9317019242821
 20
-2296.191602833294
 30
0.0
 11
792.5180907798098
 21
-2296.191602833294
 31
0.0
  0
LINE
  5
27D6A
330
18
100
AcDbEntity
  8
実線
100
AcDbLine
 10
802.9317019242821
 20
-2303.191602833294
 30
0.0
 11
793.2838019148504
 21
-2303.191602833294
 31
0.0
  0
LINE
  5
27D87
330
18
100
AcDbEntity
  8
中心線
 48
0.5
100
AcDbLine
 10
792.4680971106657
 20
-2307.817694659442
 30
0.0
 11
795.2103666974984
 21
-2292.265511007148
 31
0.0
  0
LINE
  5
27D88
330
18
100
AcDbEntity
  8
実線
 48
0.5
100
AcDbLine
 10
804.9317019242817
 20
-2297.041602833294
 30
0.0
 11
802.9317019242817
 21
-2297.041602833294
 31
0.0
  0
LINE
  5
27D89
330
18
100
AcDbEntity
  8
実線
 48
0.5
100
AcDbLine
 10
804.9317019242817
 20
-2298.341602833295
 30
0.0
 11
802.9317019242817
 21
-2298.341602833295
 31
0.0
  0
LINE
  5
27D8A
330
18
100
AcDbEntity
  8
実線
 48
0.5
100
AcDbLine
 10
804.9317019242817
 20
-2299.641602833295
 30
0.0
 11
802.9317019242817
 21
-2299.641602833295
 31
0.0
  0
LINE
  5
27D8B
330
18
100
AcDbEntity
  8
実線
 48
0.5
100
AcDbLine
 10
804.9317019242817
 20
-2301.041602833295
 30
0.0
 11
802.9317019242817
 21
-2301.041602833295
 31
0.0
  0
LINE
  5
27D8C
330
18
100
AcDbEntity
  8
実線
 48
0.5
100
AcDbLine
 10
802.9317019242817
 20
-2302.341602833295
 30
0.0
 11
804.9317019242817
 21
-2302.341602833295
 31
0.0
  0
LINE
  5
27D8D
330
18
100
AcDbEntity
  8
実線
100
AcDbLine
 10
802.9317019242816
 20
-2296.191602833294
 30
0.0
 11
802.9317019242821
 21
-2303.191602833294
 31
0.0
  0
LINE
  5
27D8E
330
18
100
AcDbEntity
  8
実線
100
AcDbLine
 10
804.9317019242817
 20
-2293.741602833295
 30
0.0
 11
805.4317019242818
 21
-2293.741602833295
 31
0.0
  0
LINE
  5
27D8F
330
18
100
AcDbEntity
  8
実線
100
AcDbLine
 10
805.9317019242818
 20
-2294.241602833295
 30
0.0
 11
805.9317019242818
 21
-2294.741602833294
 31
0.0
  0
ARC
  5
27D90
330
18
100
AcDbEntity
  8
実線
100
AcDbCircle
 10
805.4317019242818
 20
-2294.241602833295
 30
0.0
 40
0.5
100
AcDbArc
 50
0.0
 51
90.0
  0
LINE
  5
27D91
330
18
100
AcDbEntity
  8
実線
100
AcDbLine
 10
811.4317019242818
 20
-2298.241602833296
 30
0.0
 11
811.4317019242818
 21
-2297.641602833295
 31
0.0
  0
LINE
  5
27D92
330
18
100
AcDbEntity
  8
実線
100
AcDbLine
 10
810.6317019242821
 20
-2299.641602833295
 30
0.0
 11
810.6317019242821
 21
-2297.641602833295
 31
0.0
  0
LINE
  5
27D93
330
18
100
AcDbEntity
  8
実線
100
AcDbLine
 10
811.4317019242818
 20
-2297.641602833295
 30
0.0
 11
810.6317019242821
 21
-2297.641602833295
 31
0.0
  0
LINE
  5
27D94
330
18
100
AcDbEntity
  8
実線
100
AcDbLine
 10
805.4317019242818
 20
-2305.541602833295
 30
0.0
 11
804.9317019242817
 21
-2305.541602833295
 31
0.0
  0
LINE
  5
27D95
330
18
100
AcDbEntity
  8
実線
100
AcDbLine
 10
805.9317019242818
 20
-2304.541602833295
 30
0.0
 11
805.9317019242818
 21
-2305.041602833295
 31
0.0
  0
ARC
  5
27D96
330
18
100
AcDbEntity
  8
実線
100
AcDbCircle
 10
805.4317019242818
 20
-2305.041602833295
 30
0.0
 40
0.5
100
AcDbArc
 50
270.0
 51
0.0
  0
LINE
  5
27D97
330
18
100
AcDbEntity
  8
実線
100
AcDbLine
 10
811.4317019242818
 20
-2301.041602833295
 30
0.0
 11
811.4317019242818
 21
-2301.641602833295
 31
0.0
  0
LINE
  5
27D98
330
18
100
AcDbEntity
  8
実線
100
AcDbLine
 10
811.4317019242818
 20
-2301.641602833295
 30
0.0
 11
810.6317019242821
 21
-2301.641602833295
 31
0.0
  0
LINE
  5
27D99
330
18
100
AcDbEntity
  8
実線
100
AcDbLine
 10
804.9317019242817
 20
-2293.741602833295
 30
0.0
 11
804.9317019242817
 21
-2305.541602833295
 31
0.0
  0
LINE
  5
27D9A
330
18
100
AcDbEntity
  8
実線
100
AcDbLine
 10
810.6317019242821
 20
-2299.641602833295
 30
0.0
 11
810.6317019242821
 21
-2301.641602833295
 31
0.0
  0
CIRCLE
  5
27D9B
330
18
100
AcDbEntity
  8
実線
100
AcDbCircle
 10
905.996675638319
 20
-2235.691602833294
 30
0.0
 40
4.75
  0
CIRCLE
  5
27D9C
330
18
100
AcDbEntity
  8
0
  6
Continuous
100
AcDbCircle
 10
905.996675638319
 20
-2235.691602833294
 30
0.0
 40
4.25
  0
CIRCLE
  5
27D9D
330
18
100
AcDbEntity
  8
0
  6
Continuous
100
AcDbCircle
 10
905.996675638319
 20
-2235.691602833294
 30
0.0
 40
3.749999999999991
  0
LWPOLYLINE
  5
27D9E
330
18
100
AcDbEntity
  8
実線
100
AcDbPolyline
 90
        4
 70
     1
 43
0.0
 10
900.4966756383188
 20
-2229.691602833294
 10
912.4966756383187
 20
-2229.691602833294
 10
912.4966756383187
 20
-2301.691602833294
 10
900.4966756383188
 20
-2301.691602833294
  0
LINE
  5
27D9F
330
18
100
AcDbEntity
  8
実線
100
AcDbLine
 10
898.4966756383188
 20
-2225.691602833293
 30
0.0
 11
898.4966756383188
 21
-2243.691602833294
 31
0.0
  0
LINE
  5
27DC3
330
18
100
AcDbEntity
  8
実線
100
AcDbLine
 10
818.131701924282
 20
-2295.641602833295
 30
0.0
 11
828.6317019242821
 21
-2295.641602833295
 31
0.0
  0
LINE
  5
27DC4
330
18
100
AcDbEntity
  8
実線
100
AcDbLine
 10
828.6317019242821
 20
-2303.641602833295
 30
0.0
 11
818.131701924282
 21
-2303.641602833295
 31
0.0
  0
LINE
  5
27DC5
330
18
100
AcDbEntity
  8
実線
100
AcDbLine
 10
822.631701924282
 20
-2299.241602833296
 30
0.0
 11
821.631701924282
 21
-2298.241602833296
 31
0.0
  0
LINE
  5
27DC6
330
18
100
AcDbEntity
  8
実線
100
AcDbLine
 10
821.631701924282
 20
-2301.041602833295
 30
0.0
 11
822.631701924282
 21
-2300.041602833295
 31
0.0
  0
LINE
  5
27DC7
330
18
100
AcDbEntity
  8
実線
100
AcDbLine
 10
822.631701924282
 20
-2300.041602833295
 30
0.0
 11
821.631701924282
 21
-2301.041602833295
 31
0.0
  0
LINE
  5
27DC8
330
18
100
AcDbEntity
  8
実線
100
AcDbLine
 10
820.2317019242819
 20
-2298.241602833296
 30
0.0
 11
817.131701924282
 21
-2298.241602833296
 31
0.0
  0
LINE
  5
27DC9
330
18
100
AcDbEntity
  8
実線
100
AcDbLine
 10
818.131701924282
 20
-2294.741602833294
 30
0.0
 11
818.131701924282
 21
-2298.241602833296
 31
0.0
  0
LINE
  5
27DCA
330
18
100
AcDbEntity
  8
実線
100
AcDbLine
 10
818.5384897155897
 20
-2300.041602833295
 30
0.0
 11
818.5384897155897
 21
-2299.241602833296
 31
0.0
  0
LINE
  5
27DCB
330
18
100
AcDbEntity
  8
実線
100
AcDbLine
 10
818.5384897155897
 20
-2300.041602833295
 30
0.0
 11
817.131701924282
 21
-2300.041602833295
 31
0.0
  0
LINE
  5
27DCC
330
18
100
AcDbEntity
  8
実線
100
AcDbLine
 10
817.131701924282
 20
-2299.241602833296
 30
0.0
 11
817.131701924282
 21
-2298.241602833296
 31
0.0
  0
LINE
  5
27DCD
330
18
100
AcDbEntity
  8
実線
100
AcDbLine
 10
817.131701924282
 20
-2299.241602833296
 30
0.0
 11
818.5384897155897
 21
-2299.241602833296
 31
0.0
  0
LINE
  5
27DCE
330
18
100
AcDbEntity
  8
実線
100
AcDbLine
 10
817.131701924282
 20
-2300.041602833295
 30
0.0
 11
818.5384897155897
 21
-2300.041602833295
 31
0.0
  0
LINE
  5
27DCF
330
18
100
AcDbEntity
  8
実線
100
AcDbLine
 10
820.2317019242819
 20
-2301.041602833295
 30
0.0
 11
817.131701924282
 21
-2301.041602833295
 31
0.0
  0
LINE
  5
27DD0
330
18
100
AcDbEntity
  8
実線
100
AcDbLine
 10
818.131701924282
 20
-2301.041602833295
 30
0.0
 11
818.131701924282
 21
-2304.541602833295
 31
0.0
  0
LINE
  5
27DD1
330
18
100
AcDbEntity
  8
実線
100
AcDbLine
 10
817.131701924282
 20
-2301.041602833295
 30
0.0
 11
817.131701924282
 21
-2299.241602833296
 31
0.0
  0
LINE
  5
27DD2
330
18
100
AcDbEntity
  8
実線
100
AcDbLine
 10
820.631701924282
 20
-2300.041602833295
 30
0.0
 11
818.5384897155897
 21
-2300.041602833295
 31
0.0
  0
LINE
  5
27DD3
330
18
100
AcDbEntity
  8
実線
100
AcDbLine
 10
818.5384897155897
 20
-2299.241602833296
 30
0.0
 11
820.631701924282
 21
-2299.241602833296
 31
0.0
  0
LINE
  5
27DD4
330
18
100
AcDbEntity
  8
実線
100
AcDbLine
 10
818.5384897155897
 20
-2300.041602833295
 30
0.0
 11
820.631701924282
 21
-2300.041602833295
 31
0.0
  0
LINE
  5
27DD5
330
18
100
AcDbEntity
  8
実線
100
AcDbLine
 10
820.631701924282
 20
-2301.041602833295
 30
0.0
 11
820.2317019242819
 21
-2301.041602833295
 31
0.0
  0
LINE
  5
27DD6
330
18
100
AcDbEntity
  8
実線
100
AcDbLine
 10
820.631701924282
 20
-2298.241602833296
 30
0.0
 11
820.2317019242819
 21
-2298.241602833296
 31
0.0
  0
LINE
  5
27DD7
330
18
100
AcDbEntity
  8
実線
100
AcDbLine
 10
820.631701924282
 20
-2299.241602833296
 30
0.0
 11
820.631701924282
 21
-2298.241602833296
 31
0.0
  0
LINE
  5
27DD8
330
18
100
AcDbEntity
  8
実線
100
AcDbLine
 10
821.631701924282
 20
-2298.241602833296
 30
0.0
 11
820.631701924282
 21
-2298.241602833296
 31
0.0
  0
LINE
  5
27DD9
330
18
100
AcDbEntity
  8
実線
100
AcDbLine
 10
820.631701924282
 20
-2301.041602833295
 30
0.0
 11
821.631701924282
 21
-2301.041602833295
 31
0.0
  0
LINE
  5
27DDA
330
18
100
AcDbEntity
  8
実線
100
AcDbLine
 10
821.631701924282
 20
-2301.041602833295
 30
0.0
 11
820.631701924282
 21
-2301.041602833295
 31
0.0
  0
LINE
  5
27DDB
330
18
100
AcDbEntity
  8
実線
100
AcDbLine
 10
820.631701924282
 20
-2300.041602833295
 30
0.0
 11
820.631701924282
 21
-2301.041602833295
 31
0.0
  0
LINE
  5
27DDC
330
18
100
AcDbEntity
  8
実線
100
AcDbLine
 10
820.631701924282
 20
-2300.041602833295
 30
0.0
 11
820.631701924282
 21
-2301.041602833295
 31
0.0
  0
LINE
  5
27DDD
330
18
100
AcDbEntity
  8
実線
100
AcDbLine
 10
828.6317019242821
 20
-2295.641602833295
 30
0.0
 11
828.6317019242821
 21
-2299.081602833295
 31
0.0
  0
LINE
  5
27DDE
330
18
100
AcDbEntity
  8
実線
100
AcDbLine
 10
822.631701924282
 20
-2300.041602833295
 30
0.0
 11
822.631701924282
 21
-2299.241602833296
 31
0.0
  0
LINE
  5
27DDF
330
18
100
AcDbEntity
  8
実線
100
AcDbLine
 10
822.4717019242822
 20
-2300.201602833295
 30
0.0
 11
828.6317019242821
 21
-2300.201602833295
 31
0.0
  0
LINE
  5
27DE0
330
18
100
AcDbEntity
  8
実線
100
AcDbLine
 10
828.6317019242821
 20
-2299.081602833295
 30
0.0
 11
822.4717019242813
 21
-2299.081602833295
 31
0.0
  0
LINE
  5
27DE1
330
18
100
AcDbEntity
  8
実線
100
AcDbLine
 10
828.6317019242821
 20
-2300.201602833295
 30
0.0
 11
828.6317019242821
 21
-2303.641602833295
 31
0.0
  0
LINE
  5
27DE3
330
18
100
AcDbEntity
  8
中心線
 48
0.5
100
AcDbLine
 10
893.4966756383188
 20
-2233.191602833294
 30
0.0
 11
908.4966756383188
 21
-2233.191602833293
 31
0.0
  0
LINE
  5
27DE4
330
18
100
AcDbEntity
  8
中心線
 48
0.5
100
AcDbLine
 10
893.4966756383188
 20
-2298.191602833294
 30
0.0
 11
908.4966756383188
 21
-2298.191602833294
 31
0.0
  0
LINE
  5
27DE7
330
18
100
AcDbEntity
  8
中心線
 48
0.5
100
AcDbLine
 10
906.4966756383189
 20
-2292.457602233294
 30
0.0
 11
906.4966756383189
 21
-2260.925603433293
 31
0.0
  0
LINE
  5
27DE8
330
18
100
AcDbEntity
  8
実線
100
AcDbLine
 10
898.8966756383188
 20
-2243.691602833294
 30
0.0
 11
898.8966756383188
 21
-2287.691602833294
 31
0.0
  0
CIRCLE
  5
27DE9
330
18
100
AcDbEntity
  8
細線
 48
2.0
100
AcDbCircle
 10
906.4966756383189
 20
-2288.691602833294
 30
0.0
 40
2.0
  0
CIRCLE
  5
27DEA
330
18
100
AcDbEntity
  8
実線
100
AcDbCircle
 10
906.4966756383189
 20
-2288.691602833294
 30
0.0
 40
1.75
  0
LINE
  5
27DEB
330
18
100
AcDbEntity
  8
0
  6
Continuous
100
AcDbLine
 10
905.996675638319
 20
-2293.382201333293
 30
0.0
 11
907.9966756383189
 21
-2294.536902233294
 31
0.0
  0
LINE
  5
27DEC
330
18
100
AcDbEntity
  8
0
  6
Continuous
100
AcDbLine
 10
907.9966756383189
 20
-2296.846303433294
 30
0.0
 11
905.996675638319
 21
-2298.001004333295
 31
0.0
  0
CIRCLE
  5
27DED
330
18
100
AcDbEntity
  8
実線
100
AcDbCircle
 10
905.996675638319
 20
-2295.691602833294
 30
0.0
 40
4.75
  0
LINE
  5
27DEE
330
18
100
AcDbEntity
  8
中心線
 48
0.2
100
AcDbLine
 10
902.7306756383191
 20
-2288.691602833294
 30
0.0
 11
910.2626750383192
 21
-2288.691602833294
 31
0.0
  0
CIRCLE
  5
27DEF
330
18
100
AcDbEntity
  8
0
  6
Continuous
100
AcDbCircle
 10
905.996675638319
 20
-2295.691602833294
 30
0.0
 40
4.25
  0
CIRCLE
  5
27DF0
330
18
100
AcDbEntity
  8
0
  6
Continuous
100
AcDbCircle
 10
905.996675638319
 20
-2295.691602833294
 30
0.0
 40
3.749999999999991
  0
LINE
  5
27DF1
330
18
100
AcDbEntity
  8
0
  6
Continuous
100
AcDbLine
 10
905.996675638319
 20
-2293.382201833294
 30
0.0
 11
903.9966746383113
 21
-2294.536902633293
 31
0.0
  0
LINE
  5
27DF2
330
18
100
AcDbEntity
  8
0
  6
Continuous
100
AcDbLine
 10
905.996675638319
 20
-2298.001003833295
 30
0.0
 11
903.9966746383113
 21
-2296.846303033293
 31
0.0
  0
LINE
  5
27DF3
330
18
100
AcDbEntity
  8
0
  6
Continuous
100
AcDbLine
 10
903.996675638319
 20
-2294.536902333293
 30
0.0
 11
903.996675638319
 21
-2296.846303333293
 31
0.0
  0
LINE
  5
27DF4
330
18
100
AcDbEntity
  8
実線
100
AcDbLine
 10
898.4966756383188
 20
-2287.691602833294
 30
0.0
 11
900.4966756383188
 21
-2287.691602833294
 31
0.0
  0
LINE
  5
27DF5
330
18
100
AcDbEntity
  8
実線
100
AcDbLine
 10
898.4966756383188
 20
-2305.691602833295
 30
0.0
 11
898.4966756383188
 21
-2287.691602833294
 31
0.0
  0
LINE
  5
27DF6
330
18
100
AcDbEntity
  8
0
  6
Continuous
100
AcDbLine
 10
907.9966756383189
 20
-2294.536902333293
 30
0.0
 11
907.9966756383189
 21
-2296.846303333293
 31
0.0
  0
LINE
  5
27DF7
330
18
100
AcDbEntity
  8
0
  6
Continuous
100
AcDbLine
 10
907.9966756383189
 20
-2236.846303433294
 30
0.0
 11
905.996675638319
 21
-2238.001004333295
 31
0.0
  0
LINE
  5
27DF8
330
18
100
AcDbEntity
  8
0
  6
Continuous
100
AcDbLine
 10
905.996675638319
 20
-2233.382201333293
 30
0.0
 11
907.9966756383189
 21
-2234.536902233294
 31
0.0
  0
CIRCLE
  5
27DF9
330
18
100
AcDbEntity
  8
実線
100
AcDbCircle
 10
906.4966756383189
 20
-2264.691602833294
 30
0.0
 40
1.75
  0
CIRCLE
  5
27DFA
330
18
100
AcDbEntity
  8
細線
 48
2.0
100
AcDbCircle
 10
906.4966756383189
 20
-2264.691602833294
 30
0.0
 40
2.0
  0
LINE
  5
27DFB
330
18
100
AcDbEntity
  8
中心線
 48
0.2
100
AcDbLine
 10
902.7306756383191
 20
-2264.691602833294
 30
0.0
 11
910.2626750383192
 21
-2264.691602833294
 31
0.0
  0
LINE
  5
27DFC
330
18
100
AcDbEntity
  8
0
  6
Continuous
100
AcDbLine
 10
905.996675638319
 20
-2233.382201833293
 30
0.0
 11
903.9966746383113
 21
-2234.536902633293
 31
0.0
  0
LINE
  5
27DFD
330
18
100
AcDbEntity
  8
0
  6
Continuous
100
AcDbLine
 10
905.996675638319
 20
-2238.001003833295
 30
0.0
 11
903.9966746383113
 21
-2236.846303033293
 31
0.0
  0
LINE
  5
27DFE
330
18
100
AcDbEntity
  8
0
  6
Continuous
100
AcDbLine
 10
903.996675638319
 20
-2234.536902333293
 30
0.0
 11
903.996675638319
 21
-2236.846303333293
 31
0.0
  0
LINE
  5
27DFF
330
18
100
AcDbEntity
  8
実線
100
AcDbLine
 10
898.4966756383188
 20
-2243.691602833294
 30
0.0
 11
900.4966756383188
 21
-2243.691602833294
 31
0.0
  0
LINE
  5
27E00
330
18
100
AcDbEntity
  8
0
  6
Continuous
100
AcDbLine
 10
907.9966756383189
 20
-2234.536902333293
 30
0.0
 11
907.9966756383189
 21
-2236.846303333293
 31
0.0
  0
LINE
  5
27E02
330
18
100
AcDbEntity
  8
実線
100
AcDbLine
 10
938.4966756383189
 20
-2240.691602833294
 30
0.0
 11
938.4966756383189
 21
-2225.691602833293
 31
0.0
  0
LINE
  5
27E03
330
18
100
AcDbEntity
  8
実線
100
AcDbLine
 10
924.4966756383188
 20
-2305.691602833295
 30
0.0
 11
938.4966756383189
 21
-2305.691602833295
 31
0.0
  0
LINE
  5
27E04
102
{ACAD_REACTORS
330
27D0A
102
}
330
18
100
AcDbEntity
  8
中心線
 48
0.5
100
AcDbLine
 10
928.9966756383188
 20
-2292.691602833294
 30
0.0
 11
928.9966756383188
 21
-2306.691602833295
 31
0.0
  0
LINE
  5
27E05
330
18
100
AcDbEntity
  8
実線
100
AcDbLine
 10
924.4966756383188
 20
-2305.691602833295
 30
0.0
 11
924.4966756383197
 21
-2299.691602833294
 31
0.0
  0
LINE
  5
27E06
330
18
100
AcDbEntity
  8
実線
100
AcDbLine
 10
938.4966756383189
 20
-2290.691602833294
 30
0.0
 11
938.4966756383189
 21
-2305.691602833295
 31
0.0
  0
LINE
  5
27E07
330
18
100
AcDbEntity
  8
実線
100
AcDbLine
 10
924.4966756383188
 20
-2225.691602833293
 30
0.0
 11
938.4966756383189
 21
-2225.691602833293
 31
0.0
  0
LINE
  5
27E08
330
18
100
AcDbEntity
  8
実線
100
AcDbLine
 10
924.4966756383188
 20
-2225.691602833293
 30
0.0
 11
924.4966756383197
 21
-2231.691602833294
 31
0.0
  0
TEXT
  5
28C33
330
18
100
AcDbEntity
  8
0
100
AcDbText
 10
459.4064826751609
 20
-2256.488446291349
 30
0.0
 40
2.0
  1
SER No.******
 50
270.0
 41
1.199999999999999
  7
MS\U+FF7A\U+FF9E\U+FF7C\U+FF6F\U+FF78N
 11
459.041138925161
 21
-2256.488446291349
 31
0.0
100
AcDbText
 73
     1
  0
TEXT
  5
28C34
330
18
100
AcDbEntity
  8
0
100
AcDbText
 10
462.2304744785416
 20
-2256.51557286416
 30
0.0
 40
2.6
  1
MODEL:CLM250M
 50
270.0
 41
1.199999999999999
  7
MS\U+FF7A\U+FF9E\U+FF7C\U+FF6F\U+FF78N
 11
461.7555276035416
 21
-2256.51557286416
 31
0.0
100
AcDbText
 73
     1
  0
HATCH
  5
28C35
330
18
100
AcDbEntity
  8
0
100
AcDbHatch
 10
0.0
 20
0.0
 30
0.0
210
0.0
220
0.0
230
1.0
  2
SOLID
 70
     1
 71
     1
 91
        2
 92
       17
 93
        1
 72
     2
 10
456.1030157774181
 20
-2259.640649334373
 40
0.6007500000000002
 50
0.0
 51
360.0
 73
     1
 97
        1
330
28C3C
 92
        1
 93
        8
 72
     2
 10
456.1048785681157
 20
-2259.641580729722
 40
1.00311322310025
 50
23.58977727260604
 51
179.9468005913668
 73
     1
 72
     2
 10
455.9027657774183
 20
-2259.640649334373
 40
0.8009999999999999
 50
180.0
 51
360.0
 73
     1
 72
     1
 10
456.7037657774187
 20
-2259.640649334373
 11
456.7037657774187
 21
-2261.883449334373
 72
     1
 10
456.7037657774187
 20
-2261.883449334373
 11
454.7012657774182
 21
-2261.643149334374
 72
     1
 10
454.7012657774182
 20
-2261.643149334374
 11
454.7012657774182
 21
-2257.237649334373
 72
     1
 10
454.7012657774182
 20
-2257.237649334373
 11
457.9052657774179
 21
-2257.638149334372
 72
     1
 10
457.9052657774179
 20
-2257.638149334372
 11
457.9052657774179
 21
-2262.043649334373
 72
     1
 10
457.9052657774179
 20
-2262.043649334373
 11
457.0241657774182
 21
-2259.240149334373
 97
        8
330
28C42
330
28C3D
330
28C41
330
28C3F
330
28C37
330
28C47
330
28C36
330
28C40
 75
     0
 76
     1
 98
        1
 10
458.5824905931783
 20
-2058.162939240137
  0
LINE
  5
28C36
102
{ACAD_REACTORS
330
28C35
102
}
330
18
100
AcDbEntity
  8
0
100
AcDbLine
 10
457.9052657774179
 20
-2257.638149334372
 30
0.0
 11
457.9052657774179
 21
-2262.043649334373
 31
0.0
  0
LINE
  5
28C37
102
{ACAD_REACTORS
330
28C35
102
}
330
18
100
AcDbEntity
  8
0
100
AcDbLine
 10
454.7012657774182
 20
-2257.237649334373
 30
0.0
 11
454.7012657774182
 21
-2261.643149334374
 31
0.0
  0
LINE
  5
28C38
330
18
100
AcDbEntity
  8
0
100
AcDbLine
 10
465.8477423594164
 20
-2289.191602833295
 30
0.0
 11
465.8477423594164
 21
-2255.191602833294
 31
0.0
  0
LINE
  5
28C39
330
18
100
AcDbEntity
  8
0
100
AcDbLine
 10
458.8477423594165
 20
-2254.691602833295
 30
0.0
 11
458.8477423594165
 21
-2289.691602833295
 31
0.0
  0
LINE
  5
28C3A
330
18
100
AcDbEntity
  8
0
100
AcDbLine
 10
453.8477423594165
 20
-2255.191602833294
 30
0.0
 11
453.8477423594165
 21
-2289.191602833295
 31
0.0
  0
TEXT
  5
28C3B
330
18
100
AcDbEntity
  8
0
100
AcDbText
 10
454.7489999160021
 20
-2262.85974855876
 30
0.0
 40
1.44
  1
DENSO
 50
270.0
 41
1.3
  7
TIMESNR
100
AcDbText
  0
CIRCLE
  5
28C3C
102
{ACAD_REACTORS
330
28C35
102
}
330
18
100
AcDbEntity
  8
0
100
AcDbCircle
 10
456.1030157774181
 20
-2259.640649334373
 30
0.0
 40
0.6007500000000002
  0
ARC
  5
28C3D
102
{ACAD_REACTORS
330
28C35
102
}
330
18
100
AcDbEntity
  8
0
100
AcDbCircle
 10
455.9027657774183
 20
-2259.640649334373
 30
0.0
 40
0.8009999999999999
100
AcDbArc
 50
180.0
 51
0.0
  0
TEXT
  5
28C3E
330
18
100
AcDbEntity
  8
0
100
AcDbText
 10
456.4457623249879
 20
-2262.9811616689
 30
0.0
 40
1.44
  1
NIKKI
 50
270.0
 41
1.25
  7
TIMESNR
100
AcDbText
  0
LINE
  5
28C3F
102
{ACAD_REACTORS
330
28C35
102
}
330
18
100
AcDbEntity
  8
0
100
AcDbLine
 10
454.7012657774182
 20
-2261.643149334374
 30
0.0
 11
456.7037657774187
 21
-2261.883449334373
 31
0.0
  0
LINE
  5
28C40
102
{ACAD_REACTORS
330
28C35
102
}
330
18
100
AcDbEntity
  8
0
100
AcDbLine
 10
457.9052657774179
 20
-2262.043649334373
 30
0.0
 11
457.0241657774182
 21
-2259.240149334373
 31
0.0
  0
LINE
  5
28C41
102
{ACAD_REACTORS
330
28C35
102
}
330
18
100
AcDbEntity
  8
0
100
AcDbLine
 10
456.7037657774187
 20
-2259.640649334373
 30
0.0
 11
456.7037657774187
 21
-2261.883449334373
 31
0.0
  0
ARC
  5
28C42
102
{ACAD_REACTORS
330
28C35
102
}
330
18
100
AcDbEntity
  8
0
100
AcDbCircle
 10
456.1048785681157
 20
-2259.641580729722
 30
0.0
 40
1.00311322310025
100
AcDbArc
 50
23.58977727260604
 51
179.9468005913668
  0
LINE
  5
28C43
330
18
100
AcDbEntity
  8
0
100
AcDbLine
 10
454.3477423594165
 20
-2289.691602833295
 30
0.0
 11
465.3477423594164
 21
-2289.691602833295
 31
0.0
  0
ARC
  5
28C44
330
18
100
AcDbEntity
  8
0
100
AcDbCircle
 10
465.3477423594164
 20
-2289.191602833295
 30
0.0
 40
0.5
100
AcDbArc
 50
270.0
 51
0.0
  0
ARC
  5
28C45
330
18
100
AcDbEntity
  8
0
100
AcDbCircle
 10
454.3477423594165
 20
-2289.191602833295
 30
0.0
 40
0.5
100
AcDbArc
 50
180.0
 51
270.0
  0
LINE
  5
28C46
330
18
100
AcDbEntity
  8
0
100
AcDbLine
 10
465.3477423594164
 20
-2254.691602833295
 30
0.0
 11
454.3477423594165
 21
-2254.691602833295
 31
0.0
  0
LINE
  5
28C47
102
{ACAD_REACTORS
330
28C35
102
}
330
18
100
AcDbEntity
  8
0
100
AcDbLine
 10
454.7012657774182
 20
-2257.237649334373
 30
0.0
 11
457.9052657774179
 21
-2257.638149334372
 31
0.0
  0
ARC
  5
28C48
330
18
100
AcDbEntity
  8
0
100
AcDbCircle
 10
465.3477423594164
 20
-2255.191602833294
 30
0.0
 40
0.5
100
AcDbArc
 50
0.0
 51
90.0
  0
ARC
  5
28C49
330
18
100
AcDbEntity
  8
0
100
AcDbCircle
 10
454.3477423594165
 20
-2255.191602833294
 30
0.0
 40
0.5
100
AcDbArc
 50
90.0
 51
180.0
  0
TEXT
  5
28C4A
330
18
100
AcDbEntity
  8
0
100
AcDbText
 10
456.3522337732273
 20
-2274.313263227847
 30
137.5
 40
1.5
  1
SN-16140
 50
270.0
  7
MS\U+FF7A\U+FF9E\U+FF7C\U+FF6F\U+FF78N
 11
456.0782259607274
 21
-2274.313263227847
 31
137.5
100
AcDbText
 73
     1
  0
TEXT
  5
28C4B
330
18
100
AcDbEntity
  8
0
100
AcDbText
 10
454.4824477228411
 20
-2274.313263227847
 30
137.5
 40
1.5
  1
MADE IN JAPAN
 50
270.0
  7
MS\U+FF7A\U+FF9E\U+FF7C\U+FF6F\U+FF78N
 11
454.2084399103411
 21
-2274.313263227847
 31
137.5
100
AcDbText
 73
     1
  0
HATCH
  5
28C4C
330
18
100
AcDbEntity
  8
細線
100
AcDbHatch
 10
0.0
 20
0.0
 30
0.4990022692370815
210
0.0
220
0.0
230
1.0
  2
ANSI31
 70
     0
 71
     0
 91
        2
 92
        7
 72
     1
 73
     1
 93
        8
 10
455.0615923632856
 20
-2252.409984346082
 42
0.8256926312273156
 10
453.8724346613377
 20
-2246.239142048029
 42
0.0
 10
453.8724346613377
 20
-2245.705808714696
 42
0.0
 10
452.8057679946711
 20
-2246.772475381363
 42
0.0
 10
453.8724346613377
 20
-2247.839142048029
 42
0.0
 10
453.8724346613377
 20
-2247.305808714695
 42
-0.8235057969380607
 10
454.6755081782227
 20
-2251.415548898247
 42
0.0
 10
455.3657679946716
 20
-2252.105808714696
 42
0.0
 97
        0
 92
        7
 72
     1
 73
     1
 93
        8
 10
452.6832769593908
 20
-2246.468299749977
 42
0.8256926312273465
 10
453.8724346613377
 20
-2252.63914204803
 42
0.0
 10
453.8724346613377
 20
-2253.172475381362
 42
0.0
 10
454.9391013280043
 20
-2252.105808714696
 42
0.0
 10
453.8724346613377
 20
-2251.039142048029
 42
0.0
 10
453.8724346613377
 20
-2251.572475381363
 42
-0.8235057969380607
 10
453.0693611444528
 20
-2247.462735197811
 42
0.0
 10
452.3791013280049
 20
-2246.772475381363
 42
0.0
 97
        0
 75
     0
 76
     1
 52
270.0
 41
0.0106666666666667
 77
     0
 78
     1
 53
314.9999999999999
 43
343.353311600287
 44
-1867.300582835764
 45
0.0239473496561844
 46
0.0239473496561844
 79
     0
 47
0.0
 98
        2
 10
456.1512078120001
 20
-2250.772036011633
 10
453.1897582253174
 20
-2252.081907944203
1001
ACAD
1010
0.0
1020
0.0
1030
0.0
  0
LINE
  5
28C4D
102
{ACAD_REACTORS
330
28C4C
102
}
330
18
100
AcDbEntity
  8
細線
100
AcDbLine
 10
453.8724346613377
 20
-2251.039142048029
 30
0.4990022692370815
 11
453.8724346613377
 21
-2251.572475381363
 31
0.4990022692370815
  0
LINE
  5
28C4E
102
{ACAD_REACTORS
330
28C4C
102
}
330
18
100
AcDbEntity
  8
細線
100
AcDbLine
 10
454.9391013280043
 20
-2252.105808714696
 30
0.4990022692370815
 11
453.8724346613377
 21
-2251.039142048029
 31
0.4990022692370815
  0
LINE
  5
28C4F
102
{ACAD_REACTORS
330
28C4C
102
}
330
18
100
AcDbEntity
  8
細線
100
AcDbLine
 10
454.9391013280043
 20
-2252.105808714696
 30
0.4990022692370815
 11
453.8724346613377
 21
-2253.172475381362
 31
0.4990022692370815
  0
LINE
  5
28C50
102
{ACAD_REACTORS
330
28C4C
102
}
330
18
100
AcDbEntity
  8
細線
100
AcDbLine
 10
453.8724346613377
 20
-2247.839142048029
 30
0.4990022692370815
 11
453.8724346613377
 21
-2247.305808714695
 31
0.4990022692370815
  0
LINE
  5
28C51
102
{ACAD_REACTORS
330
28C4C
102
}
330
18
100
AcDbEntity
  8
細線
100
AcDbLine
 10
452.8057679946711
 20
-2246.772475381363
 30
0.4990022692370815
 11
453.8724346613377
 21
-2247.839142048029
 31
0.4990022692370815
  0
LINE
  5
28C52
102
{ACAD_REACTORS
330
28C4C
102
}
330
18
100
AcDbEntity
  8
細線
100
AcDbLine
 10
452.8057679946711
 20
-2246.772475381363
 30
0.4990022692370815
 11
453.8724346613377
 21
-2245.705808714696
 31
0.4990022692370815
  0
MTEXT
  5
28C53
330
18
100
AcDbEntity
  8
細線
100
AcDbMText
 10
455.3263806850624
 20
-2247.696734302974
 30
0.4990022692370815
 40
2.933333333333333
 41
4.005499725684842
 71
     1
 72
     5
  1
{\fImpact|b0|i0|c128|p49;15}
  7
MS\U+FF7A\U+FF9E\U+FF7C\U+FF6F\U+FF78
 11
-0.0000000000000002
 21
-1.0
 31
0.0
 73
     1
 44
1.0
1001
ACAD
1000
MTEXTBEGIN
1070
    73
1070
     1
1070
    44
1040
1.0
1070
    74
1070
     0
1000
MTEXTEND
1000
ACAD_MTEXT_DEFINED_HEIGHT_BEGIN
1070
    46
1040
224.1841841841842
1000
ACAD_MTEXT_DEFINED_HEIGHT_END
  0
ARC
  5
28C54
102
{ACAD_REACTORS
330
28C4C
102
}
330
18
100
AcDbEntity
  8
細線
100
AcDbCircle
 10
453.8724346613377
 20
-2249.439142048029
 30
0.4990022692370815
 40
2.133333333333333
100
AcDbArc
 50
112.1133855977474
 51
270.0
  0
ARC
  5
28C55
102
{ACAD_REACTORS
330
28C4C
102
}
330
18
100
AcDbEntity
  8
細線
100
AcDbCircle
 10
453.8724346613377
 20
-2249.439142048029
 30
0.4990022692370815
 40
3.2
100
AcDbArc
 50
111.8150544339211
 51
270.0
  0
LINE
  5
28C56
102
{ACAD_REACTORS
330
28C4C
102
}
330
18
100
AcDbEntity
  8
細線
100
AcDbLine
 10
452.3791013280049
 20
-2246.772475381363
 30
0.4990022692370815
 11
453.0693611444528
 21
-2247.462735197811
 31
0.4990022692370815
  0
LINE
  5
28C57
102
{ACAD_REACTORS
330
28C4C
102
}
330
18
100
AcDbEntity
  8
細線
100
AcDbLine
 10
452.3791013280049
 20
-2246.772475381363
 30
0.4990022692370815
 11
452.6832769593908
 21
-2246.468299749977
 31
0.4990022692370815
  0
LINE
  5
28C58
102
{ACAD_REACTORS
330
28C4C
102
}
330
18
100
AcDbEntity
  8
細線
100
AcDbLine
 10
455.3657679946716
 20
-2252.105808714696
 30
0.4990022692370815
 11
454.6755081782227
 21
-2251.415548898247
 31
0.4990022692370815
  0
LINE
  5
28C59
102
{ACAD_REACTORS
330
28C4C
102
}
330
18
100
AcDbEntity
  8
細線
100
AcDbLine
 10
455.3657679946716
 20
-2252.105808714696
 30
0.4990022692370815
 11
455.0615923632856
 21
-2252.409984346082
 31
0.4990022692370815
  0
ARC
  5
28C5A
102
{ACAD_REACTORS
330
28C4C
102
}
330
18
100
AcDbEntity
  8
細線
100
AcDbCircle
 10
453.8724346613377
 20
-2249.439142048029
 30
0.4990022692370815
 40
2.133333333333333
100
AcDbArc
 50
292.1133855977474
 51
90.0
  0
ARC
  5
28C5B
102
{ACAD_REACTORS
330
28C4C
102
}
330
18
100
AcDbEntity
  8
細線
100
AcDbCircle
 10
453.8724346613377
 20
-2249.439142048029
 30
0.4990022692370815
 40
3.2
100
AcDbArc
 50
291.8150544339212
 51
90.0
  0
LINE
  5
28C5C
102
{ACAD_REACTORS
330
28C4C
102
}
330
18
100
AcDbEntity
  8
細線
100
AcDbLine
 10
453.8724346613377
 20
-2246.239142048029
 30
0.4990022692370815
 11
453.8724346613377
 21
-2245.705808714696
 31
0.4990022692370815
  0
LINE
  5
28C5D
102
{ACAD_REACTORS
330
28C4C
102
}
330
18
100
AcDbEntity
  8
細線
100
AcDbLine
 10
453.8724346613377
 20
-2252.63914204803
 30
0.4990022692370815
 11
453.8724346613377
 21
-2253.172475381362
 31
0.4990022692370815
  0
CIRCLE
  5
28C5E
330
18
100
AcDbEntity
  8
細線
100
AcDbCircle
 10
453.8724346613377
 20
-2249.439142048029
 30
0.4990022692370815
 40
4.0
  0
LINE
  5
28C5F
102
{ACAD_REACTORS
330
28C76
102
}
330
18
100
AcDbEntity
  8
細線
100
AcDbLine
 10
457.8477423594164
 20
-2242.191602833294
 30
0.0
 11
457.8477423594164
 21
-2254.191602833294
 31
0.0
  0
LINE
  5
28C60
102
{ACAD_REACTORS
330
28C76
102
}
330
18
100
AcDbEntity
  8
細線
100
AcDbLine
 10
462.3477423594165
 20
-2241.691602833295
 30
0.0
 11
462.3477423594165
 21
-2254.691602833295
 31
0.0
  0
LINE
  5
28C61
330
18
100
AcDbEntity
  8
細線
100
AcDbLine
 10
465.8477423594164
 20
-2254.191602833294
 30
0.0
 11
465.8477423594164
 21
-2242.191602833294
 31
0.0
  0
LINE
  5
28C62
102
{ACAD_REACTORS
330
28C76
102
}
330
18
100
AcDbEntity
  8
細線
100
AcDbLine
 10
465.3477423594164
 20
-2241.691602833295
 30
0.0
 11
458.3477423594165
 21
-2241.691602833295
 31
0.0
  0
LINE
  5
28C63
102
{ACAD_REACTORS
330
28C76
102
}
330
18
100
AcDbEntity
  8
細線
100
AcDbLine
 10
458.3477423594165
 20
-2254.691602833295
 30
0.0
 11
465.3477423594164
 21
-2254.691602833295
 31
0.0
  0
TEXT
  5
28C64
102
{ACAD_REACTORS
330
28C76
102
}
330
18
100
AcDbEntity
  8
細線
100
AcDbText
 10
460.622202539798
 20
-2246.79153993843
 30
0.0
 40
1.08
  1
NIKKI
 50
270.0
 41
1.354166666666666
  7
TIMESNR
100
AcDbText
  0
LINE
  5
28C65
102
{ACAD_REACTORS
330
28C76
102
}
330
18
100
AcDbEntity
  8
細線
100
AcDbLine
 10
461.716830129121
 20
-2246.029811166627
 30
0.0
 11
461.056005129121
 21
-2243.751967416627
 31
0.0
  0
LINE
  5
28C66
102
{ACAD_REACTORS
330
28C76
102
}
330
18
100
AcDbEntity
  8
細線
100
AcDbLine
 10
459.3138301291207
 20
-2242.124936166627
 30
0.0
 11
461.716830129121
 21
-2242.450342416628
 31
0.0
  0
TEXT
  5
28C67
102
{ACAD_REACTORS
330
28C76
102
}
330
18
100
AcDbEntity
  8
細線
100
AcDbText
 10
459.3496307330585
 20
-2246.692891786443
 30
0.0
 40
1.08
  1
DENSO
 50
270.0
 41
1.408333333333333
  7
TIMESNR
100
AcDbText
  0
LINE
  5
28C68
102
{ACAD_REACTORS
330
28C76
102
}
330
18
100
AcDbEntity
  8
細線
100
AcDbLine
 10
460.8157051291207
 20
-2244.077373666627
 30
0.0
 11
460.8157051291207
 21
-2245.899648666628
 31
0.0
  0
LINE
  5
28C69
102
{ACAD_REACTORS
330
28C76
102
}
330
18
100
AcDbEntity
  8
細線
100
AcDbLine
 10
459.3138301291207
 20
-2242.124936166627
 30
0.0
 11
459.3138301291207
 21
-2245.704404916627
 31
0.0
  0
ELLIPSE
  5
28C6A
102
{ACAD_REACTORS
330
28C76
102
}
330
18
100
AcDbEntity
  8
細線
100
AcDbEllipse
 10
460.3651426291205
 20
-2244.077373666627
 30
0.0
 11
-0.0000000000000001
 21
-0.488109375
 31
0.0
210
0.0
220
0.0
230
1.0
 40
0.9230769230769231
 41
0.0
 42
6.283185307179586
  0
ELLIPSE
  5
28C6B
102
{ACAD_REACTORS
330
28C76
102
}
330
18
100
AcDbEntity
  8
細線
100
AcDbEllipse
 10
460.3665397221436
 20
-2244.078130425349
 30
0.0
 11
-0.0000000000000001
 21
-0.8150294937689535
 31
0.0
210
0.0
220
0.0
230
1.0
 40
0.9230769230769231
 41
1.982515610014399
 42
4.711460475544681
  0
ELLIPSE
  5
28C6C
102
{ACAD_REACTORS
330
28C76
102
}
330
18
100
AcDbEntity
  8
細線
100
AcDbEllipse
 10
460.214955129121
 20
-2244.077373666627
 30
0.0
 11
-0.0000000000000001
 21
-0.6508125000000002
 31
0.0
210
0.0
220
0.0
230
1.0
 40
0.9230769230769231
 41
4.712388980384689
 42
7.853981633974482
  0
LINE
  5
28C6D
102
{ACAD_REACTORS
330
28C76
102
}
330
18
100
AcDbEntity
  8
細線
100
AcDbLine
 10
459.3138301291207
 20
-2245.704404916627
 30
0.0
 11
460.8157051291207
 21
-2245.899648666628
 31
0.0
  0
LINE
  5
28C6E
102
{ACAD_REACTORS
330
28C76
102
}
330
18
100
AcDbEntity
  8
細線
100
AcDbLine
 10
461.716830129121
 20
-2242.450342416628
 30
0.0
 11
461.716830129121
 21
-2246.029811166627
 31
0.0
  0
TEXT
  5
28C6F
330
18
100
AcDbEntity
  8
細線
100
AcDbText
 10
463.1133324576873
 20
-2242.588180396943
 30
0.0
 40
2.0
  1
Certificate
 50
270.0
 41
0.8
  7
MS\U+FF7A\U+FF9E\U+FF7C\U+FF6F\U+FF78
100
AcDbText
  0
TEXT
  5
28C70
102
{ACAD_REACTORS
330
28C76
102
}
330
18
100
AcDbEntity
  8
細線
100
AcDbText
 10
458.271384095057
 20
-2249.026422248385
 30
0.0
 40
0.8
  1
S20-0010A
 50
270.0
100
AcDbText
  0
LINE
  5
28C71
102
{ACAD_REACTORS
330
28C76
102
}
330
18
100
AcDbEntity
  8
細線
100
AcDbLine
 10
460.8571120701223
 20
-2243.460206171242
 30
0.0
 11
460.9369313413195
 21
-2243.546677048372
 31
0.0
  0
ARC
  5
28C72
102
{ACAD_REACTORS
330
28C76
102
}
330
18
100
AcDbEntity
  8
細線
100
AcDbCircle
 10
458.3477423594165
 20
-2242.191602833294
 30
0.0
 40
0.5
100
AcDbArc
 50
90.0
 51
180.0
  0
ARC
  5
28C73
102
{ACAD_REACTORS
330
28C76
102
}
330
18
100
AcDbEntity
  8
細線
100
AcDbCircle
 10
458.3477423594165
 20
-2254.191602833294
 30
0.0
 40
0.5
100
AcDbArc
 50
180.0
 51
270.0
  0
ARC
  5
28C74
330
18
100
AcDbEntity
  8
細線
100
AcDbCircle
 10
465.3477423594164
 20
-2254.191602833294
 30
0.0
 40
0.4999999999999999
100
AcDbArc
 50
270.0
 51
0.0
  0
ARC
  5
28C75
330
18
100
AcDbEntity
  8
細線
100
AcDbCircle
 10
465.3477423594164
 20
-2242.191602833294
 30
0.0
 40
0.5
100
AcDbArc
 50
0.0
 51
90.0
  0
HATCH
  5
28C76
330
18
100
AcDbEntity
  8
細線
100
AcDbHatch
 10
0.0
 20
0.0
 30
0.0
210
0.0
220
0.0
230
1.0
  2
ANSI31
 70
     0
 71
     1
 91
        5
 92
        1
 93
        6
 72
     1
 10
458.3477423594165
 20
-2254.691602833295
 11
465.3477423594164
 21
-2254.691602833295
 72
     1
 10
462.3477423594165
 20
-2241.691602833295
 11
462.3477423594165
 21
-2254.691602833295
 72
     1
 10
465.3477423594164
 20
-2241.691602833295
 11
458.3477423594165
 21
-2241.691602833295
 72
     2
 10
458.3477423594165
 20
-2242.191602833294
 40
0.5
 50
90.0
 51
180.0
 73
     1
 72
     1
 10
457.8477423594164
 20
-2242.191602833294
 11
457.8477423594164
 21
-2254.191602833294
 72
     2
 10
458.3477423594165
 20
-2254.191602833294
 40
0.5
 50
180.0
 51
270.0
 73
     1
 97
        6
330
28C63
330
28C60
330
28C62
330
28C72
330
28C5F
330
28C73
 92
        9
 93
        4
 72
     1
 10
458.0463840950567
 20
-2248.876422248385
 11
459.2963840950567
 21
-2248.876422248385
 72
     1
 10
459.2963840950567
 20
-2248.876422248385
 11
459.2963840950567
 21
-2254.293088915051
 72
     1
 10
459.2963840950567
 20
-2254.293088915051
 11
458.0463840950566
 21
-2254.293088915051
 72
     1
 10
458.0463840950567
 20
-2254.293088915051
 11
458.0463840950567
 21
-2248.876422248385
 97
        1
330
28C70
 92
       16
 93
       10
 72
     1
 10
459.3138301291207
 20
-2242.124936166627
 11
461.716830129121
 21
-2242.450342416628
 72
     1
 10
461.716830129121
 20
-2242.450342416628
 11
461.716830129121
 21
-2246.029811166627
 72
     1
 10
461.716830129121
 20
-2246.029811166627
 11
461.056005129121
 21
-2243.751967416627
 72
     3
 10
460.3665397221436
 20
-2244.078130425349
 11
-0.0000000000000001
 21
-0.8150294937689535
 40
0.9230769230769231
 50
115.3172642090603
 51
269.9423673102363
 73
     1
 72
     1
 10
460.8571120701223
 20
-2243.460206171242
 11
460.9369313413195
 21
-2243.546677048372
 72
     3
 10
460.214955129121
 20
-2244.077373666627
 11
-0.0000000000000001
 21
-0.6508125000000002
 40
0.9230769230769231
 50
270.0
 51
450.0
 73
     1
 72
     3
 10
460.3651426291205
 20
-2244.077373666627
 11
-0.0000000000000001
 21
-0.488109375
 40
0.9230769230769231
 50
0.0
 51
360.0
 73
     1
 72
     1
 10
460.8157051291207
 20
-2244.077373666627
 11
460.8157051291207
 21
-2245.899648666628
 72
     1
 10
459.3138301291207
 20
-2245.704404916627
 11
460.8157051291207
 21
-2245.899648666628
 72
     1
 10
459.3138301291207
 20
-2242.124936166627
 11
459.3138301291207
 21
-2245.704404916627
 97
       10
330
28C66
330
28C6E
330
28C65
330
28C6B
330
28C71
330
28C6C
330
28C6A
330
28C68
330
28C6D
330
28C69
 92
       24
 93
        4
 72
     1
 10
460.2449052425005
 20
-2246.403724623115
 11
462.0384187560143
 21
-2246.403724623115
 72
     1
 10
462.0384187560143
 20
-2246.403724623115
 11
462.0384187560143
 21
-2253.219670569061
 72
     1
 10
462.0384187560143
 20
-2253.219670569061
 11
460.2449052425005
 21
-2253.219670569061
 72
     1
 10
460.2449052425005
 20
-2253.219670569061
 11
460.2449052425005
 21
-2246.403724623115
 97
        1
330
28C64
 92
       24
 93
        4
 72
     1
 10
458.9658469492743
 20
-2246.372477372028
 11
460.7896307330583
 21
-2246.372477372028
 72
     1
 10
460.7896307330583
 20
-2246.372477372028
 11
460.7896307330583
 21
-2254.458441335992
 72
     1
 10
460.7896307330583
 20
-2254.458441335992
 11
458.9658469492743
 21
-2254.458441335992
 72
     1
 10
458.9658469492743
 20
-2254.458441335992
 11
458.9658469492743
 21
-2246.372477372029
 97
        1
330
28C67
 75
     0
 76
     1
 52
270.0
 41
5.0
 77
     0
 78
     1
 53
314.9999999999999
 43
286.5291329428616
 44
-2332.726121865318
 45
0.4419417382415923
 46
0.4419417382415922
 79
     0
 98
        2
 10
461.8930210720624
 20
-2245.239779994736
 10
461.8930210720624
 20
-2245.239779994736
1001
ACAD
1010
0.0
1020
0.0
1030
0.0
  0
LINE
  5
292C2
330
18
100
AcDbEntity
  8
実線
100
AcDbLine
 10
721.7317019242821
 20
-2303.691602833294
 30
0.0
 11
734.9317019242824
 21
-2303.691602833294
 31
0.0
  0
LINE
  5
292C3
330
18
100
AcDbEntity
  8
実線
100
AcDbLine
 10
734.9317019242824
 20
-2303.691602833294
 30
0.0
 11
734.9317019242824
 21
-2301.691602833294
 31
0.0
  0
LINE
  5
2A72F
330
18
100
AcDbEntity
  8
中心線
100
AcDbLine
 10
748.8405193796912
 20
-2265.691602833294
 30
0.0
 11
541.517141881485
 21
-2265.691602833294
 31
0.0
  0
LINE
  5
2BD12
330
18
100
AcDbEntity
  8
破線
 48
0.03
100
AcDbLine
 10
735.9317019242824
 20
-2286.941602833294
 30
0.0
 11
723.9317019242824
 21
-2286.941602833294
 31
0.0
  0
LINE
  5
2BD13
330
18
100
AcDbEntity
  8
破線
 48
0.03
100
AcDbLine
 10
735.9317019242824
 20
-2286.691602833293
 30
0.0
 11
725.9317019242825
 21
-2286.691602833293
 31
0.0
  0
LINE
  5
2BD14
330
18
100
AcDbEntity
  8
破線
 48
0.03
100
AcDbLine
 10
722.9213389531959
 20
-2288.691602833293
 30
0.0
 11
723.9317019242824
 21
-2286.941602833294
 31
0.0
  0
LINE
  5
2BD15
330
18
100
AcDbEntity
  8
破線
 48
0.03
100
AcDbLine
 10
723.9317019242824
 20
-2290.441602833293
 30
0.0
 11
723.9317019242824
 21
-2286.941602833294
 31
0.0
  0
LINE
  5
2BD16
330
18
100
AcDbEntity
  8
破線
 48
0.03
100
AcDbLine
 10
725.9317019242825
 20
-2286.691602833293
 30
0.0
 11
725.4986892223841
 21
-2286.941602833294
 31
0.0
  0
LINE
  5
2BD17
330
18
100
AcDbEntity
  8
破線
 48
0.03
100
AcDbLine
 10
725.9317019242825
 20
-2290.691602833294
 30
0.0
 11
725.9317019242825
 21
-2286.691602833293
 31
0.0
  0
LINE
  5
2BD18
330
18
100
AcDbEntity
  8
破線
 48
0.03
100
AcDbLine
 10
722.9213389531959
 20
-2288.691602833293
 30
0.0
 11
723.9317019242824
 21
-2290.441602833293
 31
0.0
  0
LINE
  5
2BD19
330
18
100
AcDbEntity
  8
破線
 48
0.03
100
AcDbLine
 10
735.9317019242824
 20
-2290.691602833294
 30
0.0
 11
725.9317019242825
 21
-2290.691602833294
 31
0.0
  0
LINE
  5
2BD1A
330
18
100
AcDbEntity
  8
破線
 48
0.03
100
AcDbLine
 10
735.9317019242824
 20
-2290.441602833293
 30
0.0
 11
723.9317019242824
 21
-2290.441602833293
 31
0.0
  0
LINE
  5
2BD1B
330
18
100
AcDbEntity
  8
破線
 48
0.03
100
AcDbLine
 10
725.9317019242825
 20
-2290.691602833294
 30
0.0
 11
725.4986892223841
 21
-2290.441602833293
 31
0.0
  0
LINE
  5
2BD1C
330
18
100
AcDbEntity
  8
破線
 48
0.03
100
AcDbLine
 10
735.9317019242824
 20
-2262.941602833294
 30
0.0
 11
723.9317019242824
 21
-2262.941602833294
 31
0.0
  0
LINE
  5
2BD1D
330
18
100
AcDbEntity
  8
破線
 48
0.03
100
AcDbLine
 10
735.9317019242824
 20
-2262.691602833294
 30
0.0
 11
725.9317019242825
 21
-2262.691602833294
 31
0.0
  0
LINE
  5
2BD1E
330
18
100
AcDbEntity
  8
破線
 48
0.03
100
AcDbLine
 10
722.9213389531959
 20
-2264.691602833293
 30
0.0
 11
723.9317019242824
 21
-2262.941602833294
 31
0.0
  0
LINE
  5
2BD1F
330
18
100
AcDbEntity
  8
破線
 48
0.03
100
AcDbLine
 10
723.9317019242824
 20
-2266.441602833293
 30
0.0
 11
723.9317019242824
 21
-2262.941602833294
 31
0.0
  0
LINE
  5
2BD20
330
18
100
AcDbEntity
  8
破線
 48
0.03
100
AcDbLine
 10
725.9317019242825
 20
-2262.691602833294
 30
0.0
 11
725.4986892223841
 21
-2262.941602833294
 31
0.0
  0
LINE
  5
2BD21
330
18
100
AcDbEntity
  8
破線
 48
0.03
100
AcDbLine
 10
725.9317019242825
 20
-2266.691602833294
 30
0.0
 11
725.9317019242825
 21
-2262.691602833294
 31
0.0
  0
LINE
  5
2BD22
330
18
100
AcDbEntity
  8
破線
 48
0.03
100
AcDbLine
 10
722.9213389531959
 20
-2264.691602833293
 30
0.0
 11
723.9317019242824
 21
-2266.441602833293
 31
0.0
  0
LINE
  5
2BD23
330
18
100
AcDbEntity
  8
破線
 48
0.03
100
AcDbLine
 10
735.9317019242824
 20
-2266.691602833294
 30
0.0
 11
725.9317019242825
 21
-2266.691602833294
 31
0.0
  0
LINE
  5
2BD24
330
18
100
AcDbEntity
  8
破線
 48
0.03
100
AcDbLine
 10
735.9317019242824
 20
-2266.441602833293
 30
0.0
 11
723.9317019242824
 21
-2266.441602833293
 31
0.0
  0
LINE
  5
2BD25
330
18
100
AcDbEntity
  8
破線
 48
0.03
100
AcDbLine
 10
725.9317019242825
 20
-2266.691602833294
 30
0.0
 11
725.4986892223841
 21
-2266.441602833293
 31
0.0
  0
LINE
  5
2C5B2
330
18
100
AcDbEntity
  8
実線
100
AcDbLine
 10
791.2838019148503
 20
-2303.191602833294
 30
0.0
 11
734.9317019242824
 21
-2303.191602833294
 31
0.0
  0
LINE
  5
2C5B3
330
18
100
AcDbEntity
  8
実線
100
AcDbLine
 10
794.5180907798097
 20
-2296.191602833294
 30
0.0
 11
802.9317019242816
 21
-2296.191602833294
 31
0.0
  0
LINE
  5
2D36B
330
18
100
AcDbEntity
  8
実線
100
AcDbLine
 10
793.2220874716024
 20
-2420.518921698447
 30
0.0
 11
802.931701924283
 21
-2420.518921698447
 31
0.0
  0
LINE
  5
2D36C
330
18
100
AcDbEntity
  8
実線
100
AcDbLine
 10
562.1317019242834
 20
-2433.518921698448
 30
0.0
 11
721.731701924282
 21
-2433.518921698448
 31
0.0
  0
LINE
  5
2D36D
330
18
100
AcDbEntity
  8
実線
100
AcDbLine
 10
562.1317019242834
 20
-2459.518921698447
 30
0.0
 11
721.731701924282
 21
-2459.518921698447
 31
0.0
  0
LINE
  5
2D36E
330
18
100
AcDbEntity
  8
実線
100
AcDbLine
 10
561.9317019242834
 20
-2473.518921698446
 30
0.0
 11
721.931701924282
 21
-2473.518921698448
 31
0.0
  0
LINE
  5
2D36F
330
18
100
AcDbEntity
  8
実線
100
AcDbLine
 10
547.9317019242833
 20
-2447.518921698446
 30
0.0
 11
561.9317019242834
 21
-2447.518921698446
 31
0.0
  0
LINE
  5
2D370
330
18
100
AcDbEntity
  8
実線
100
AcDbLine
 10
561.9317019242834
 20
-2473.518921698446
 30
0.0
 11
547.9317019242833
 21
-2473.518921698446
 31
0.0
  0
LINE
  5
2D371
330
18
100
AcDbEntity
  8
実線
100
AcDbLine
 10
547.9317019242833
 20
-2435.518921698446
 30
0.0
 11
561.9317019242834
 21
-2435.518921698446
 31
0.0
  0
LINE
  5
2D372
330
18
100
AcDbEntity
  8
実線
100
AcDbLine
 10
547.9317019242833
 20
-2473.518921698446
 30
0.0
 11
547.9317019242833
 21
-2435.518921698446
 31
0.0
  0
LINE
  5
2D373
330
18
100
AcDbEntity
  8
実線
100
AcDbLine
 10
561.9317019242834
 20
-2435.518921698447
 30
0.0
 11
561.9317019242834
 21
-2473.518921698446
 31
0.0
  0
LINE
  5
2D374
330
18
100
AcDbEntity
  8
実線
100
AcDbLine
 10
562.1317019242834
 20
-2433.518921698447
 30
0.0
 11
562.1317019242834
 21
-2459.518921698446
 31
0.0
  0
LINE
  5
2D375
330
18
100
AcDbEntity
  8
実線
100
AcDbLine
 10
721.931701924282
 20
-2435.518921698447
 30
0.0
 11
735.9317019242835
 21
-2435.518921698447
 31
0.0
  0
LINE
  5
2D376
330
18
100
AcDbEntity
  8
実線
100
AcDbLine
 10
735.931701924282
 20
-2473.518921698448
 30
0.0
 11
721.931701924282
 21
-2473.518921698448
 31
0.0
  0
LINE
  5
2D377
330
18
100
AcDbEntity
  8
実線
100
AcDbLine
 10
721.931701924282
 20
-2447.518921698447
 30
0.0
 11
735.931701924282
 21
-2447.518921698447
 31
0.0
  0
LINE
  5
2D378
330
18
100
AcDbEntity
  8
実線
100
AcDbLine
 10
734.9317019242825
 20
-2460.018921698447
 30
0.0
 11
721.931701924282
 21
-2460.018921698447
 31
0.0
  0
LINE
  5
2D379
330
18
100
AcDbEntity
  8
実線
100
AcDbLine
 10
734.931701924282
 20
-2468.018921698447
 30
0.0
 11
721.9317019242825
 21
-2468.018921698447
 31
0.0
  0
LINE
  5
2D37A
330
18
100
AcDbEntity
  8
実線
100
AcDbLine
 10
721.731701924282
 20
-2433.518921698448
 30
0.0
 11
721.731701924282
 21
-2459.518921698447
 31
0.0
  0
LINE
  5
2D37B
330
18
100
AcDbEntity
  8
実線
100
AcDbLine
 10
721.931701924282
 20
-2473.518921698448
 30
0.0
 11
721.931701924282
 21
-2435.518921698447
 31
0.0
  0
LINE
  5
2D37C
330
18
100
AcDbEntity
  8
実線
100
AcDbLine
 10
735.9317019242835
 20
-2435.518921698447
 30
0.0
 11
735.9317019242824
 21
-2460.518921698447
 31
0.0
  0
LINE
  5
2D37D
330
18
100
AcDbEntity
  8
実線
 48
10.0
100
AcDbLine
 10
734.9317019242825
 20
-2460.018921698447
 30
0.0
 11
734.931701924282
 21
-2468.018921698447
 31
0.0
  0
LINE
  5
2D37E
330
18
100
AcDbEntity
  8
実線
100
AcDbLine
 10
735.9317019242823
 20
-2467.518921698447
 30
0.0
 11
735.931701924282
 21
-2473.518921698448
 31
0.0
  0
LINE
  5
2D37F
330
18
100
AcDbEntity
  8
破線
 48
0.03
100
AcDbLine
 10
735.9317019242836
 20
-2439.768921698448
 30
0.0
 11
723.9317019242836
 21
-2439.768921698448
 31
0.0
  0
LINE
  5
2D380
330
18
100
AcDbEntity
  8
破線
 48
0.03
100
AcDbLine
 10
735.9317019242836
 20
-2439.518921698447
 30
0.0
 11
725.9317019242836
 21
-2439.518921698447
 31
0.0
  0
LINE
  5
2D381
330
18
100
AcDbEntity
  8
破線
 48
0.03
100
AcDbLine
 10
722.921338953197
 20
-2441.518921698448
 30
0.0
 11
723.9317019242836
 21
-2439.768921698448
 31
0.0
  0
LINE
  5
2D382
330
18
100
AcDbEntity
  8
破線
 48
0.03
100
AcDbLine
 10
723.9317019242836
 20
-2443.268921698447
 30
0.0
 11
723.9317019242836
 21
-2439.768921698448
 31
0.0
  0
LINE
  5
2D383
330
18
100
AcDbEntity
  8
破線
 48
0.03
100
AcDbLine
 10
725.9317019242836
 20
-2439.518921698447
 30
0.0
 11
725.4986892223852
 21
-2439.768921698448
 31
0.0
  0
LINE
  5
2D384
330
18
100
AcDbEntity
  8
破線
 48
0.03
100
AcDbLine
 10
725.9317019242836
 20
-2443.518921698447
 30
0.0
 11
725.9317019242836
 21
-2439.518921698447
 31
0.0
  0
LINE
  5
2D385
330
18
100
AcDbEntity
  8
破線
 48
0.03
100
AcDbLine
 10
722.921338953197
 20
-2441.518921698448
 30
0.0
 11
723.9317019242836
 21
-2443.268921698447
 31
0.0
  0
LINE
  5
2D386
330
18
100
AcDbEntity
  8
破線
 48
0.03
100
AcDbLine
 10
735.9317019242836
 20
-2443.518921698447
 30
0.0
 11
725.9317019242836
 21
-2443.518921698447
 31
0.0
  0
LINE
  5
2D387
330
18
100
AcDbEntity
  8
破線
 48
0.03
100
AcDbLine
 10
735.9317019242836
 20
-2443.268921698447
 30
0.0
 11
723.9317019242836
 21
-2443.268921698447
 31
0.0
  0
LINE
  5
2D388
330
18
100
AcDbEntity
  8
破線
 48
0.03
100
AcDbLine
 10
725.9317019242836
 20
-2443.518921698447
 30
0.0
 11
725.4986892223852
 21
-2443.268921698447
 31
0.0
  0
LINE
  5
2D389
330
18
100
AcDbEntity
  8
中心線
 48
0.5
100
AcDbLine
 10
740.9317019242836
 20
-2441.518921698448
 30
0.0
 11
716.9317019242836
 21
-2441.518921698448
 31
0.0
  0
LINE
  5
2D38A
330
18
100
AcDbEntity
  8
中心線
100
AcDbLine
 10
755.9317019242829
 20
-2464.018921698447
 30
0.0
 11
713.1156428010999
 21
-2464.018921698447
 31
0.0
  0
LINE
  5
2D38B
330
18
100
AcDbEntity
  8
実線
100
AcDbLine
 10
819.6317019242819
 20
-2408.21024636888
 30
0.0
 11
811.4317019242822
 21
-2408.21024636888
 31
0.0
  0
LINE
  5
2D38C
330
18
100
AcDbEntity
  8
実線
100
AcDbLine
 10
805.9317019242822
 20
-2421.910246368879
 30
0.0
 11
818.131701924282
 21
-2421.910246368879
 31
0.0
  0
LINE
  5
2D38D
330
18
100
AcDbEntity
  8
実線
100
AcDbLine
 10
815.1826809360546
 20
-2411.027885463197
 30
0.0
 11
810.6317019242819
 21
-2410.21024636888
 31
0.0
  0
LINE
  5
2D38E
330
18
100
AcDbEntity
  8
実線
100
AcDbLine
 10
815.0862234368865
 20
-2412.11024636888
 30
0.0
 11
805.9317019242822
 21
-2412.11024636888
 31
0.0
  0
LINE
  5
2D38F
330
18
100
AcDbEntity
  8
実線
100
AcDbLine
 10
817.1317019242819
 20
-2408.81024636888
 30
0.0
 11
811.4317019242822
 21
-2408.81024636888
 31
0.0
  0
LINE
  5
2D390
330
18
100
AcDbEntity
  8
中心線
 48
0.5
100
AcDbLine
 10
790.4680971106657
 20
-2424.795013524594
 30
0.0
 11
793.2103666974983
 21
-2409.2428298723
 31
0.0
  0
LINE
  5
2D391
330
18
100
AcDbEntity
  8
中心線
 48
0.5
100
AcDbLine
 10
792.4680971106656
 20
-2424.795013524594
 30
0.0
 11
795.2103666974983
 21
-2409.2428298723
 31
0.0
  0
LINE
  5
2D392
330
18
100
AcDbEntity
  8
実線
100
AcDbLine
 10
804.9317019242826
 20
-2417.018921698447
 30
0.0
 11
802.9317019242826
 21
-2417.018921698447
 31
0.0
  0
LINE
  5
2D393
330
18
100
AcDbEntity
  8
実線
100
AcDbLine
 10
804.9317019242826
 20
-2419.618921698447
 30
0.0
 11
802.9317019242826
 21
-2419.618921698447
 31
0.0
  0
LINE
  5
2D394
330
18
100
AcDbEntity
  8
実線
100
AcDbLine
 10
804.9317019242826
 20
-2418.318921698447
 30
0.0
 11
802.9317019242826
 21
-2418.318921698447
 31
0.0
  0
LINE
  5
2D395
330
18
100
AcDbEntity
  8
実線
100
AcDbLine
 10
804.9317019242826
 20
-2415.618921698448
 30
0.0
 11
802.9317019242826
 21
-2415.618921698448
 31
0.0
  0
LINE
  5
2D396
330
18
100
AcDbEntity
  8
実線
100
AcDbLine
 10
802.9317019242826
 20
-2414.318921698447
 30
0.0
 11
804.9317019242826
 21
-2414.318921698447
 31
0.0
  0
LINE
  5
2D397
330
18
100
AcDbEntity
  8
実線
100
AcDbLine
 10
802.9317019242823
 20
-2413.518921698447
 30
0.0
 11
802.931701924283
 21
-2420.518921698447
 31
0.0
  0
LINE
  5
2D398
330
18
100
AcDbEntity
  8
実線
100
AcDbLine
 10
804.9317019242826
 20
-2414.368921698447
 30
0.0
 11
804.9317019242826
 21
-2419.668921698447
 31
0.0
  0
LINE
  5
2D399
330
18
100
AcDbEntity
  8
実線
100
AcDbLine
 10
804.931701924282
 20
-2417.01024636888
 30
0.0
 11
804.931701924282
 21
-2411.11024636888
 31
0.0
  0
LINE
  5
2D39A
330
18
100
AcDbEntity
  8
実線
100
AcDbLine
 10
805.9317019242822
 20
-2422.41024636888
 30
0.0
 11
805.9317019242822
 21
-2421.910246368879
 31
0.0
  0
LINE
  5
2D39B
330
18
100
AcDbEntity
  8
実線
100
AcDbLine
 10
804.931701924282
 20
-2422.91024636888
 30
0.0
 11
804.931701924282
 21
-2417.01024636888
 31
0.0
  0
LINE
  5
2D39C
330
18
100
AcDbEntity
  8
実線
100
AcDbLine
 10
804.931701924282
 20
-2422.91024636888
 30
0.0
 11
805.4317019242821
 21
-2422.91024636888
 31
0.0
  0
ARC
  5
2D39D
330
18
100
AcDbEntity
  8
実線
100
AcDbCircle
 10
805.4317019242821
 20
-2422.41024636888
 30
0.0
 40
0.5
100
AcDbArc
 50
270.0
 51
0.0
  0
LINE
  5
2D39E
330
18
100
AcDbEntity
  8
実線
100
AcDbLine
 10
811.4317019242822
 20
-2408.81024636888
 30
0.0
 11
811.4317019242822
 21
-2408.21024636888
 31
0.0
  0
LINE
  5
2D39F
330
18
100
AcDbEntity
  8
実線
100
AcDbLine
 10
805.9317019242822
 20
-2412.11024636888
 30
0.0
 11
805.9317019242822
 21
-2411.61024636888
 31
0.0
  0
LINE
  5
2D3A0
330
18
100
AcDbEntity
  8
実線
100
AcDbLine
 10
810.6317019242819
 20
-2410.21024636888
 30
0.0
 11
810.6317019242819
 21
-2408.21024636888
 31
0.0
  0
LINE
  5
2D3A1
330
18
100
AcDbEntity
  8
実線
100
AcDbLine
 10
811.4317019242822
 20
-2408.21024636888
 30
0.0
 11
810.6317019242819
 21
-2408.21024636888
 31
0.0
  0
LINE
  5
2D3A2
330
18
100
AcDbEntity
  8
実線
100
AcDbLine
 10
805.4317019242821
 20
-2411.11024636888
 30
0.0
 11
804.931701924282
 21
-2411.11024636888
 31
0.0
  0
ARC
  5
2D3A3
330
18
100
AcDbEntity
  8
実線
100
AcDbCircle
 10
805.4317019242821
 20
-2411.61024636888
 30
0.0
 40
0.5
100
AcDbArc
 50
0.0
 51
90.0
  0
LINE
  5
2D3A4
330
18
100
AcDbEntity
  8
実線
100
AcDbLine
 10
822.631701924282
 20
-2409.81024636888
 30
0.0
 11
821.6317019242818
 21
-2408.81024636888
 31
0.0
  0
LINE
  5
2D3A5
330
18
100
AcDbEntity
  8
実線
100
AcDbLine
 10
821.6317019242818
 20
-2411.61024636888
 30
0.0
 11
822.631701924282
 21
-2410.61024636888
 31
0.0
  0
LINE
  5
2D3A6
330
18
100
AcDbEntity
  8
実線
100
AcDbLine
 10
818.131701924282
 20
-2416.45024636888
 30
0.0
 11
828.6317019242819
 21
-2416.45024636888
 31
0.0
  0
LINE
  5
2D3A7
330
18
100
AcDbEntity
  8
実線
100
AcDbLine
 10
828.6317019242819
 20
-2413.01024636888
 30
0.0
 11
818.131701924282
 21
-2413.01024636888
 31
0.0
  0
LINE
  5
2D3A8
330
18
100
AcDbEntity
  8
実線
100
AcDbLine
 10
818.131701924282
 20
-2421.01024636888
 30
0.0
 11
828.6317019242819
 21
-2421.01024636888
 31
0.0
  0
LINE
  5
2D3A9
330
18
100
AcDbEntity
  8
実線
100
AcDbLine
 10
828.6317019242819
 20
-2417.570246368879
 30
0.0
 11
818.131701924282
 21
-2417.570246368879
 31
0.0
  0
LINE
  5
2D3AA
330
18
100
AcDbEntity
  8
実線
100
AcDbLine
 10
820.6317019242819
 20
-2409.81024636888
 30
0.0
 11
820.6317019242819
 21
-2408.81024636888
 31
0.0
  0
LINE
  5
2D3AB
330
18
100
AcDbEntity
  8
実線
100
AcDbLine
 10
820.6317019242819
 20
-2410.61024636888
 30
0.0
 11
820.6317019242819
 21
-2411.61024636888
 31
0.0
  0
LINE
  5
2D3AC
330
18
100
AcDbEntity
  8
実線
100
AcDbLine
 10
821.6317019242818
 20
-2408.81024636888
 30
0.0
 11
820.6317019242819
 21
-2408.81024636888
 31
0.0
  0
LINE
  5
2D3AD
330
18
100
AcDbEntity
  8
実線
100
AcDbLine
 10
820.6317019242819
 20
-2411.61024636888
 30
0.0
 11
821.6317019242818
 21
-2411.61024636888
 31
0.0
  0
LINE
  5
2D3AE
330
18
100
AcDbEntity
  8
実線
100
AcDbLine
 10
820.2317019242823
 20
-2408.81024636888
 30
0.0
 11
817.1317019242819
 21
-2408.81024636888
 31
0.0
  0
LINE
  5
2D3AF
330
18
100
AcDbEntity
  8
実線
100
AcDbLine
 10
818.131701924282
 20
-2417.01024636888
 30
0.0
 11
818.131701924282
 21
-2412.11024636888
 31
0.0
  0
LINE
  5
2D3B0
330
18
100
AcDbEntity
  8
実線
100
AcDbLine
 10
818.131701924282
 20
-2421.910246368879
 30
0.0
 11
818.131701924282
 21
-2417.01024636888
 31
0.0
  0
LINE
  5
2D3B1
330
18
100
AcDbEntity
  8
実線
100
AcDbLine
 10
817.1317019242819
 20
-2409.81024636888
 30
0.0
 11
818.5384897155895
 21
-2409.81024636888
 31
0.0
  0
LINE
  5
2D3B2
330
18
100
AcDbEntity
  8
実線
100
AcDbLine
 10
817.1317019242819
 20
-2409.81024636888
 30
0.0
 11
817.1317019242819
 21
-2408.81024636888
 31
0.0
  0
ARC
  5
2D3B3
330
18
100
AcDbEntity
  8
実線
100
AcDbCircle
 10
817.4218341144037
 20
-2411.013209737977
 30
0.0
 40
0.2901321901215654
100
AcDbArc
 50
180.0
 51
225.734786044511
  0
LINE
  5
2D3B4
330
18
100
AcDbEntity
  8
実線
100
AcDbLine
 10
818.131701924282
 20
-2412.11024636888
 30
0.0
 11
817.2193274633878
 21
-2411.220978224613
 31
0.0
  0
LINE
  5
2D3B5
330
18
100
AcDbEntity
  8
実線
100
AcDbLine
 10
817.1317019242819
 20
-2411.013209737977
 30
0.0
 11
817.1317019242819
 21
-2410.61024636888
 31
0.0
  0
LINE
  5
2D3B6
330
18
100
AcDbEntity
  8
実線
100
AcDbLine
 10
818.5384897155895
 20
-2410.61024636888
 30
0.0
 11
817.1317019242819
 21
-2410.61024636888
 31
0.0
  0
LINE
  5
2D3B7
330
18
100
AcDbEntity
  8
実線
100
AcDbLine
 10
818.5384897155895
 20
-2410.61024636888
 30
0.0
 11
818.5384897155895
 21
-2409.81024636888
 31
0.0
  0
LINE
  5
2D3B8
330
18
100
AcDbEntity
  8
実線
100
AcDbLine
 10
817.1317019242819
 20
-2410.61024636888
 30
0.0
 11
817.1317019242819
 21
-2409.81024636888
 31
0.0
  0
ARC
  5
2D3B9
330
18
100
AcDbEntity
  8
実線
100
AcDbCircle
 10
815.0862234368865
 20
-2411.564767881484
 30
0.0
 40
0.545478487396098
100
AcDbArc
 50
270.0
 51
79.81477213708737
  0
LINE
  5
2D3BA
330
18
100
AcDbEntity
  8
実線
100
AcDbLine
 10
820.2317019242823
 20
-2408.81024636888
 30
0.0
 11
819.6317019242819
 21
-2408.21024636888
 31
0.0
  0
LINE
  5
2D3BB
330
18
100
AcDbEntity
  8
実線
100
AcDbLine
 10
818.5384897155895
 20
-2409.81024636888
 30
0.0
 11
820.6317019242819
 21
-2409.81024636888
 31
0.0
  0
LINE
  5
2D3BC
330
18
100
AcDbEntity
  8
実線
100
AcDbLine
 10
820.6317019242819
 20
-2410.61024636888
 30
0.0
 11
818.5384897155895
 21
-2410.61024636888
 31
0.0
  0
LINE
  5
2D3BD
330
18
100
AcDbEntity
  8
実線
100
AcDbLine
 10
820.6317019242819
 20
-2408.81024636888
 30
0.0
 11
820.2317019242823
 21
-2408.81024636888
 31
0.0
  0
LINE
  5
2D3BE
330
18
100
AcDbEntity
  8
実線
100
AcDbLine
 10
828.6317019242819
 20
-2421.01024636888
 30
0.0
 11
828.6317019242819
 21
-2417.570246368879
 31
0.0
  0
LINE
  5
2D3BF
330
18
100
AcDbEntity
  8
実線
100
AcDbLine
 10
828.6317019242819
 20
-2416.45024636888
 30
0.0
 11
828.6317019242819
 21
-2413.01024636888
 31
0.0
  0
LINE
  5
2D3C0
330
18
100
AcDbEntity
  8
実線
100
AcDbLine
 10
822.631701924282
 20
-2410.61024636888
 30
0.0
 11
822.631701924282
 21
-2409.81024636888
 31
0.0
  0
LINE
  5
2D3C4
330
18
100
AcDbEntity
  8
中心線
100
AcDbLine
 10
799.4317019242829
 20
-2417.018921698447
 30
0.0
 11
827.7317019242836
 21
-2417.018921698447
 31
0.0
  0
LINE
  5
2D3C5
330
18
100
AcDbEntity
  8
実線
100
AcDbLine
 10
755.9317019242829
 20
-2460.518921698447
 30
0.0
 11
734.9317019242825
 21
-2460.518921698447
 31
0.0
  0
LINE
  5
2D3C6
330
18
100
AcDbEntity
  8
実線
100
AcDbLine
 10
755.9317019242829
 20
-2467.518921698447
 30
0.0
 11
734.931701924282
 21
-2467.518921698447
 31
0.0
  0
ARC
  5
2D3C7
330
18
100
AcDbEntity
  8
実線
100
AcDbCircle
 10
755.9317019242829
 20
-2450.518921698447
 30
0.0
 40
10.0
100
AcDbArc
 50
270.0
 51
0.0
  0
LINE
  5
2D3C8
330
18
100
AcDbEntity
  8
実線
100
AcDbLine
 10
765.9317019242829
 20
-2430.518921698447
 30
0.0
 11
765.9317019242829
 21
-2450.518921698447
 31
0.0
  0
LINE
  5
2D3C9
330
18
100
AcDbEntity
  8
中心線
100
AcDbLine
 10
769.4317019242829
 20
-2430.518921698447
 30
0.0
 11
769.4317019242829
 21
-2450.518921698447
 31
0.0
  0
LINE
  5
2D3CA
330
18
100
AcDbEntity
  8
実線
100
AcDbLine
 10
772.9317019242829
 20
-2430.518921698447
 30
0.0
 11
772.9317019242829
 21
-2450.518921698447
 31
0.0
  0
ARC
  5
2D3CB
330
18
100
AcDbEntity
  8
実線
100
AcDbCircle
 10
782.931701924283
 20
-2430.518921698447
 30
0.0
 40
10.0
100
AcDbArc
 50
90.0
 51
180.0
  0
ARC
  5
2D3CC
330
18
100
AcDbEntity
  8
実線
100
AcDbCircle
 10
782.931701924283
 20
-2430.518921698447
 30
0.0
 40
17.0
100
AcDbArc
 50
90.0
 51
180.0
  0
LINE
  5
2D3CD
330
18
100
AcDbEntity
  8
中心線
100
AcDbLine
 10
831.6596658939456
 20
-2417.018921698447
 30
0.0
 11
782.931701924283
 21
-2417.018921698447
 31
0.0
  0
LINE
  5
2D3CE
330
18
100
AcDbEntity
  8
実線
100
AcDbLine
 10
782.931701924283
 20
-2413.518921698447
 30
0.0
 11
792.4563763365616
 21
-2413.518921698447
 31
0.0
  0
LINE
  5
2D3CF
330
18
100
AcDbEntity
  8
実線
100
AcDbLine
 10
799.2881983251786
 20
-2413.518921698447
 30
0.0
 11
799.2881983251786
 21
-2413.518921698447
 31
0.0
  0
LINE
  5
2D3D0
330
18
100
AcDbEntity
  8
実線
100
AcDbLine
 10
782.931701924283
 20
-2420.518921698447
 30
0.0
 11
791.2220874716024
 21
-2420.518921698447
 31
0.0
  0
ARC
  5
2D3D1
330
18
100
AcDbEntity
  8
実線
100
AcDbCircle
 10
755.9317019242829
 20
-2450.518921698447
 30
0.0
 40
17.0
100
AcDbArc
 50
270.0
 51
0.0
  0
ARC
  5
2D3D2
330
18
100
AcDbEntity
  8
中心線
100
AcDbCircle
 10
755.9317019242829
 20
-2450.518921698447
 30
0.0
 40
13.5
100
AcDbArc
 50
270.0
 51
0.0
  0
ARC
  5
2D3D3
330
18
100
AcDbEntity
  8
中心線
100
AcDbCircle
 10
782.931701924283
 20
-2430.518921698447
 30
0.0
 40
13.5
100
AcDbArc
 50
90.0
 51
180.0
  0
LINE
  5
2D3D5
330
18
100
AcDbEntity
  8
実線
100
AcDbLine
 10
802.931701924283
 20
-2420.518921698447
 30
0.0
 11
802.931701924283
 21
-2413.518921698447
 31
0.0
  0
LINE
  5
2D3D6
330
18
100
AcDbEntity
  8
実線
100
AcDbLine
 10
794.4563763365616
 20
-2413.518921698447
 30
0.0
 11
802.931701924283
 21
-2413.518921698447
 31
0.0
  0
LINE
  5
2D3D7
330
18
100
AcDbEntity
  8
破線
 48
0.03
100
AcDbLine
 10
575.8317019242825
 20
-2446.518921698447
 30
0.0
 11
580.0317019242831
 21
-2446.518921698447
 31
0.0
  0
LINE
  5
2D3D8
330
18
100
AcDbEntity
  8
破線
 48
0.03
100
AcDbLine
 10
580.431701924281
 20
-2443.518921698447
 30
0.0
 11
575.4317019242828
 21
-2443.518921698447
 31
0.0
  0
LINE
  5
2D3D9
330
18
100
AcDbEntity
  8
破線
 48
0.03
100
AcDbLine
 10
580.4317019242828
 20
-2443.518921698447
 30
0.0
 11
580.0317019242831
 21
-2444.211742021482
 31
0.0
  0
LINE
  5
2D3DA
330
18
100
AcDbEntity
  8
破線
 48
0.03
100
AcDbLine
 10
580.0317019242831
 20
-2433.518921698448
 30
0.0
 11
580.0317019242831
 21
-2446.518921698447
 31
0.0
  0
LINE
  5
2D3DB
330
18
100
AcDbEntity
  8
破線
 48
0.03
100
AcDbLine
 10
580.4317019242828
 20
-2433.518921698448
 30
0.0
 11
580.4317019242828
 21
-2443.518921698447
 31
0.0
  0
LINE
  5
2D3DC
330
18
100
AcDbEntity
  8
破線
 48
0.03
100
AcDbLine
 10
575.4317019242828
 20
-2443.518921698447
 30
0.0
 11
575.8317019242825
 21
-2444.211742021482
 31
0.0
  0
LINE
  5
2D3DD
330
18
100
AcDbEntity
  8
破線
 48
0.03
100
AcDbLine
 10
575.8317019242825
 20
-2433.518921698448
 30
0.0
 11
575.8317019242825
 21
-2446.518921698447
 31
0.0
  0
LINE
  5
2D3DE
330
18
100
AcDbEntity
  8
中心線
 48
0.5
100
AcDbLine
 10
577.9317019242828
 20
-2431.49518207808
 30
0.0
 11
577.9317019242828
 21
-2449.316805499224
 31
0.0
  0
LINE
  5
2D3DF
330
18
100
AcDbEntity
  8
破線
 48
0.03
100
AcDbLine
 10
575.4317019242828
 20
-2433.518921698448
 30
0.0
 11
575.4317019242828
 21
-2443.518921698447
 31
0.0
  0
LINE
  5
2D3E0
330
18
100
AcDbEntity
  8
破線
 48
0.03
100
AcDbLine
 10
580.4317019242828
 20
-2433.518921698448
 30
0.0
 11
575.4317019242828
 21
-2433.518921698448
 31
0.0
  0
LINE
  5
2D3E1
330
18
100
AcDbEntity
  8
破線
 48
0.03
100
AcDbLine
 10
577.9317019242828
 20
-2447.731357263754
 30
0.0
 11
580.0317019242831
 21
-2446.518921698447
 31
0.0
  0
LINE
  5
2D3E2
330
18
100
AcDbEntity
  8
破線
 48
0.03
100
AcDbLine
 10
577.9317019242828
 20
-2447.731357263754
 30
0.0
 11
575.8317019242825
 21
-2446.518921698447
 31
0.0
  0
LINE
  5
2D3E3
330
18
100
AcDbEntity
  8
破線
 48
0.03
100
AcDbLine
 10
639.8317019242824
 20
-2446.518921698447
 30
0.0
 11
644.0317019242832
 21
-2446.518921698447
 31
0.0
  0
LINE
  5
2D3E4
330
18
100
AcDbEntity
  8
破線
 48
0.03
100
AcDbLine
 10
644.4317019242809
 20
-2443.518921698447
 30
0.0
 11
639.4317019242828
 21
-2443.518921698447
 31
0.0
  0
LINE
  5
2D3E5
330
18
100
AcDbEntity
  8
破線
 48
0.03
100
AcDbLine
 10
644.4317019242828
 20
-2443.518921698447
 30
0.0
 11
644.0317019242832
 21
-2444.211742021482
 31
0.0
  0
LINE
  5
2D3E6
330
18
100
AcDbEntity
  8
破線
 48
0.03
100
AcDbLine
 10
644.0317019242832
 20
-2433.518921698448
 30
0.0
 11
644.0317019242832
 21
-2446.518921698447
 31
0.0
  0
LINE
  5
2D3E7
330
18
100
AcDbEntity
  8
破線
 48
0.03
100
AcDbLine
 10
644.4317019242828
 20
-2433.518921698448
 30
0.0
 11
644.4317019242828
 21
-2443.518921698447
 31
0.0
  0
LINE
  5
2D3E8
330
18
100
AcDbEntity
  8
破線
 48
0.03
100
AcDbLine
 10
639.4317019242828
 20
-2443.518921698447
 30
0.0
 11
639.8317019242824
 21
-2444.211742021482
 31
0.0
  0
LINE
  5
2D3E9
330
18
100
AcDbEntity
  8
破線
 48
0.03
100
AcDbLine
 10
639.8317019242824
 20
-2433.518921698448
 30
0.0
 11
639.8317019242824
 21
-2446.518921698447
 31
0.0
  0
LINE
  5
2D3EA
330
18
100
AcDbEntity
  8
中心線
 48
0.5
100
AcDbLine
 10
641.9317019242828
 20
-2431.49518207808
 30
0.0
 11
641.9317019242828
 21
-2449.316805499224
 31
0.0
  0
LINE
  5
2D3EB
330
18
100
AcDbEntity
  8
破線
 48
0.03
100
AcDbLine
 10
639.4317019242828
 20
-2433.518921698448
 30
0.0
 11
639.4317019242828
 21
-2443.518921698447
 31
0.0
  0
LINE
  5
2D3EC
330
18
100
AcDbEntity
  8
破線
 48
0.03
100
AcDbLine
 10
644.4317019242828
 20
-2433.518921698448
 30
0.0
 11
639.4317019242828
 21
-2433.518921698448
 31
0.0
  0
LINE
  5
2D3ED
330
18
100
AcDbEntity
  8
破線
 48
0.03
100
AcDbLine
 10
641.9317019242828
 20
-2447.731357263754
 30
0.0
 11
644.0317019242832
 21
-2446.518921698447
 31
0.0
  0
LINE
  5
2D3EE
330
18
100
AcDbEntity
  8
破線
 48
0.03
100
AcDbLine
 10
641.9317019242828
 20
-2447.731357263754
 30
0.0
 11
639.8317019242824
 21
-2446.518921698447
 31
0.0
  0
LINE
  5
2D3EF
330
18
100
AcDbEntity
  8
破線
 48
0.03
100
AcDbLine
 10
703.8317019242825
 20
-2446.518921698447
 30
0.0
 11
708.0317019242832
 21
-2446.518921698447
 31
0.0
  0
LINE
  5
2D3F0
330
18
100
AcDbEntity
  8
破線
 48
0.03
100
AcDbLine
 10
708.431701924281
 20
-2443.518921698447
 30
0.0
 11
703.4317019242828
 21
-2443.518921698447
 31
0.0
  0
LINE
  5
2D3F1
330
18
100
AcDbEntity
  8
破線
 48
0.03
100
AcDbLine
 10
708.4317019242828
 20
-2443.518921698447
 30
0.0
 11
708.0317019242832
 21
-2444.211742021482
 31
0.0
  0
LINE
  5
2D3F2
330
18
100
AcDbEntity
  8
破線
 48
0.03
100
AcDbLine
 10
708.0317019242832
 20
-2433.518921698448
 30
0.0
 11
708.0317019242832
 21
-2446.518921698447
 31
0.0
  0
LINE
  5
2D3F3
330
18
100
AcDbEntity
  8
破線
 48
0.03
100
AcDbLine
 10
708.4317019242828
 20
-2433.518921698448
 30
0.0
 11
708.4317019242828
 21
-2443.518921698447
 31
0.0
  0
LINE
  5
2D3F4
330
18
100
AcDbEntity
  8
破線
 48
0.03
100
AcDbLine
 10
703.4317019242828
 20
-2443.518921698447
 30
0.0
 11
703.8317019242825
 21
-2444.211742021482
 31
0.0
  0
LINE
  5
2D3F5
330
18
100
AcDbEntity
  8
破線
 48
0.03
100
AcDbLine
 10
703.8317019242825
 20
-2433.518921698448
 30
0.0
 11
703.8317019242825
 21
-2446.518921698447
 31
0.0
  0
LINE
  5
2D3F6
330
18
100
AcDbEntity
  8
中心線
 48
0.5
100
AcDbLine
 10
705.9317019242828
 20
-2431.49518207808
 30
0.0
 11
705.9317019242828
 21
-2449.316805499224
 31
0.0
  0
LINE
  5
2D3F7
330
18
100
AcDbEntity
  8
破線
 48
0.03
100
AcDbLine
 10
703.4317019242828
 20
-2433.518921698448
 30
0.0
 11
703.4317019242828
 21
-2443.518921698447
 31
0.0
  0
LINE
  5
2D3F8
330
18
100
AcDbEntity
  8
破線
 48
0.03
100
AcDbLine
 10
708.4317019242828
 20
-2433.518921698448
 30
0.0
 11
703.4317019242828
 21
-2433.518921698448
 31
0.0
  0
LINE
  5
2D3F9
330
18
100
AcDbEntity
  8
破線
 48
0.03
100
AcDbLine
 10
705.9317019242828
 20
-2447.731357263754
 30
0.0
 11
708.0317019242832
 21
-2446.518921698447
 31
0.0
  0
LINE
  5
2D3FA
330
18
100
AcDbEntity
  8
破線
 48
0.03
100
AcDbLine
 10
705.9317019242828
 20
-2447.731357263754
 30
0.0
 11
703.8317019242825
 21
-2446.518921698447
 31
0.0
  0
TEXT
  5
2D5BE
330
18
100
AcDbEntity
  8
細線
  6
Continuous
100
AcDbText
 10
887.886915410804
 20
-2464.072235834488
 30
0.0
 40
3.2
  1
CLMA250MA
100
AcDbText
  0
TEXT
  5
2D5BF
330
18
100
AcDbEntity
  8
細線
100
AcDbText
 10
883.2482967588644
 20
-2474.621474837603
 30
0.0
 40
5.0
  1
外形図_コイルユニット単体
 41
0.9
100
AcDbText
  0
TEXT
  5
2D5C0
330
18
100
AcDbEntity
  8
細線
100
AcDbText
 10
883.361856977042
 20
-2486.367122351273
 30
0.0
 40
6.0
  1
ＳＥ－８７２９０
 41
1.1
100
AcDbText
  0
VIEWPORT
  5
2D5C5
102
{ACAD_XDICTIONARY
360
2D6B9
102
}
330
2D5C1
100
AcDbEntity
 67
     1
  8
0
100
AcDbViewport
 10
6.63812881097561
 20
3.5
 30
0.0
 40
14.32625762195122
 41
9.183498475609757
 68
     1
 69
     1
 12
6.63812881097561
 22
3.5
 13
0.0
 23
0.0
 14
0.5
 24
0.5
 15
0.0
 25
0.0
 16
0.0
 26
0.0
 36
1.0
 17
0.0
 27
0.0
 37
0.0
 42
50.0
 43
0.0
 44
0.0
 45
9.183498475609757
 50
0.0
 51
0.0
 72
   100
 90
   557152
  1

281
     0
 71
     1
 74
     0
110
0.0
120
0.0
130
0.0
111
1.0
121
0.0
131
0.0
112
0.0
122
1.0
132
0.0
 79
     0
146
0.0
  0
VIEWPORT
  5
2D5C6
102
{ACAD_XDICTIONARY
360
2D5C7
102
}
330
2D5C1
100
AcDbEntity
 67
     1
  8
0
100
AcDbViewport
 10
5.25
 20
3.5
 30
0.0
 40
8.4
 41
5.6
 68
     2
 69
     2
 12
671.1995720632851
 22
-2344.500480078215
 13
0.0
 23
0.0
 14
0.5
 24
0.5
 15
0.0
 25
0.0
 16
0.0
 26
0.0
 36
1.0
 17
0.0
 27
0.0
 37
0.0
 42
50.0
 43
0.0
 44
0.0
 45
386.5033741627761
 50
0.0
 51
0.0
 72
   100
341
E
 90
   557152
  1

281
     0
 71
     1
 74
     0
110
0.0
120
0.0
130
0.0
111
1.0
121
0.0
131
0.0
112
0.0
122
1.0
132
0.0
 79
     0
146
0.0
  0
ENDSEC
  0
SECTION
  2
OBJECTS
  0
DICTIONARY
  5
C
330
0
100
AcDbDictionary
281
     1
  3
ACAD_2007HEADERVARS_RT
350
2D67E
  3
ACAD_CIP_PREVIOUS_PRODUCT_INFO
350
2D610
  3
ACAD_COLOR
350
2D600
  3
ACAD_DETAILVIEWSTYLE
350
28920
  3
ACAD_GROUP
350
D
  3
ACAD_IMAGE_VARS
350
283ED
  3
ACAD_LAYOUT
350
DB2
  3
ACAD_MATERIAL
350
2D57A
  3
ACAD_MLEADERSTYLE
350
2D580
  3
ACAD_MLINESTYLE
350
1B
  3
ACAD_PLOTSETTINGS
350
DB3
  3
ACAD_PLOTSTYLENAME
350
FB5B
  3
ACAD_SCALELIST
350
283C1
  3
ACAD_SECTIONVIEWSTYLE
350
28921
  3
ACAD_TABLESTYLE
350
2D57E
  3
ACAD_VISUALSTYLE
350
2D561
  3
AcadDim
350
264CA
  3
ACDB_RECOMPOSE_DATA
350
2D67C
  3
AcDbVariableDictionary
350
106A6
  3
APPDATA
350
283EB
  3
ASE_INDEX_DICTIONARY
350
1A99F
  3
DWGPROPS
350
2D67D
  3
FX_DICT_DIMENSION_PALETTE
350
28918
  3
FX_DICT_DIMENSION_PALETTE_RECENTLIST
350
28919
  0
DICTIONARY
  5
2D620
330
8
100
AcDbDictionary
280
     1
281
     1
  0
DICTIONARY
  5
254EC
330
2
100
AcDbDictionary
280
     1
281
     1
  3
ACAD_LAYERSTATES
360
254F9
  3
ACLYDICTIONARY
360
2D5F2
  0
DICTIONARY
  5
299A7
330
299A6
100
AcDbDictionary
280
     1
281
     1
  3
ADSK_XREC_LAYER_RECONCILED
360
299A8
  0
DICTIONARY
  5
2B855
330
18
100
AcDbDictionary
280
     1
281
     1
  3
ACAD_SORTENTS
360
2B856
  0
DICTIONARY
  5
2D6B9
330
2D5C5
100
AcDbDictionary
280
     1
281
     1
  3
ACAD_XREC_ROUNDTRIP
360
2D6BA
  0
DICTIONARY
  5
2D5C7
330
2D5C6
100
AcDbDictionary
280
     1
281
     1
  3
ACAD_XREC_ROUNDTRIP
360
2D6BB
  3
ASDK_XREC_ANNOTATION_SCALE_INFO
360
2D5C8
  0
DICTIONARY
  5
2D67E
102
{ACAD_REACTORS
330
C
102
}
330
C
100
AcDbDictionary
281
     1
  3
INTERFERECOLOR
350
2D67F
  0
XRECORD
  5
2D610
102
{ACAD_REACTORS
330
C
102
}
330
C
100
AcDbXrecord
280
     1
300
ACDLT
300
2019
300
87085ACDLT_2019_0F
  0
DICTIONARY
  5
2D600
102
{ACAD_REACTORS
330
C
102
}
330
C
100
AcDbDictionary
281
     1
  0
DICTIONARY
  5
28920
102
{ACAD_REACTORS
330
C
102
}
330
C
100
AcDbDictionary
281
     1
  3
Imperial24
350
2D602
  0
DICTIONARY
  5
D
102
{ACAD_REACTORS
330
C
102
}
330
C
100
AcDbDictionary
281
     1
  0
RASTERVARIABLES
  5
283ED
102
{ACAD_REACTORS
330
C
102
}
330
C
100
AcDbRasterVariables
 90
        0
 70
     1
 71
     1
 72
     0
  0
DICTIONARY
  5
DB2
102
{ACAD_REACTORS
330
C
102
}
330
C
100
AcDbDictionary
281
     1
  3
Model
350
FB5D
  3
Sheet1
350
2D5C2
  0
DICTIONARY
  5
2D57A
102
{ACAD_REACTORS
330
C
102
}
330
C
100
AcDbDictionary
281
     1
  3
ByBlock
350
2D5FE
  3
ByLayer
350
2D57B
  3
Global
350
2D57D
  0
DICTIONARY
  5
2D580
102
{ACAD_REACTORS
330
C
102
}
330
C
100
AcDbDictionary
281
     1
  3
Standard
350
2D581
  0
DICTIONARY
  5
1B
102
{ACAD_REACTORS
330
C
102
}
330
C
100
AcDbDictionary
281
     1
  3
STANDARD
350
1C
  0
DICTIONARY
  5
DB3
102
{ACAD_REACTORS
330
C
102
}
330
C
100
AcDbDictionary
281
     1
  0
ACDBDICTIONARYWDFLT
  5
FB5B
102
{ACAD_REACTORS
330
C
102
}
330
C
100
AcDbDictionary
281
     1
  3
Normal
350
FB5C
100
AcDbDictionaryWithDefault
340
FB5C
  0
DICTIONARY
  5
283C1
102
{ACAD_REACTORS
330
C
102
}
330
C
100
AcDbDictionary
281
     1
  3
A0
350
283C2
  3
A1
350
283C3
  3
A2
350
283C4
  3
A3
350
283C5
  3
A4
350
283C6
  3
A5
350
283C7
  3
A6
350
283C8
  3
A7
350
283C9
  3
A8
350
283CA
  3
A9
350
283CB
  3
B0
350
283CC
  3
B1
350
283CD
  3
B2
350
283CE
  3
B3
350
283CF
  3
B4
350
283D0
  3
B5
350
283D1
  3
B6
350
283D2
  3
B7
350
283D3
  3
B8
350
283D4
  3
B9
350
283D5
  3
C0
350
283D6
  3
C1
350
283D7
  3
C2
350
283D8
  3
C3
350
283D9
  3
C4
350
283DA
  3
C5
350
283DB
  3
C6
350
283DC
  3
C7
350
283DD
  3
C8
350
283DE
  3
C9
350
283DF
  3
D0
350
283E0
  3
D1
350
283E1
  3
D2
350
283E2
  0
DICTIONARY
  5
28921
102
{ACAD_REACTORS
330
C
102
}
330
C
100
AcDbDictionary
281
     1
  3
Imperial24
350
2D601
  0
DICTIONARY
  5
2D57E
102
{ACAD_REACTORS
330
C
102
}
330
C
100
AcDbDictionary
281
     1
  3
Standard
350
2D57F
  0
DICTIONARY
  5
2D561
102
{ACAD_REACTORS
330
C
102
}
330
C
100
AcDbDictionary
281
     1
  3
2dWireframe
350
2D566
  3
Basic
350
2D569
  3
Brighten
350
2D56D
  3
ColorChange
350
2D571
  3
Conceptual
350
2D56B
  3
Dim
350
2D56C
  3
EdgeColorOff
350
2D574
  3
Facepattern
350
2D570
  3
Flat
350
2D562
  3
FlatWithEdges
350
2D563
  3
Gouraud
350
2D564
  3
GouraudWithEdges
350
2D565
  3
Hidden
350
2D568
  3
JitterOff
350
2D572
  3
Linepattern
350
2D56F
  3
OverhangOff
350
2D573
  3
Realistic
350
2D56A
  3
Shaded
350
2D579
  3
Shaded with edges
350
2D578
  3
Shades of Gray
350
2D575
  3
Sketchy
350
2D576
  3
Thicken
350
2D56E
  3
Wireframe
350
2D567
  3
X-Ray
350
2D577
  0
XRECORD
  5
264CA
102
{ACAD_REACTORS
330
C
102
}
330
C
100
AcDbXrecord
280
     1
 90
   990106
  3

 60
     0
 61
     0
 62
     4
 63
     4
 64
     1
 65
     0
 66
     0
 67
     3
 68
     1
 69
     0
 70
     0
 71
     0
 72
     0
 40
0.0
170
     2
340
0
  0
XRECORD
  5
2D67C
102
{ACAD_REACTORS
330
C
102
}
330
C
100
AcDbXrecord
280
     1
 90
        1
330
2D57F
  0
DICTIONARY
  5
106A6
102
{ACAD_REACTORS
330
C
102
}
330
C
100
AcDbDictionary
281
     1
  3
CANNOSCALE
350
2D583
  3
CMLEADERSTYLE
350
2D585
  3
CTABLESTYLE
350
2D584
  3
CVIEWDETAILSTYLE
350
2D665
  3
CVIEWSECTIONSTYLE
350
2D666
  3
DGNFRAME
350
2D66D
  3
DIMASSOC
350
2D66C
  3
HIDETEXT
350
2D66B
  3
INDEXCTL
350
2D66A
  3
LAYEREVAL
350
2D668
  3
LAYERNOTIFY
350
2D669
  3
LIGHTINGUNITS
350
2D667
  3
MSLTSCALE
350
2D586
  3
SORTENTS
350
106A7
  3
XCLIPFRAME
350
2D67A
  0
DICTIONARY
  5
283EB
102
{ACAD_REACTORS
330
C
102
}
330
C
100
AcDbDictionary
281
     1
  0
DICTIONARY
  5
1A99F
102
{ACAD_REACTORS
330
C
102
}
330
C
100
AcDbDictionary
281
     1
  3
ASEBlockHierarchyIndexRecord
350
1A9A1
1001
DCO15
1040
1464612067.17
  0
XRECORD
  5
2D67D
102
{ACAD_REACTORS
330
C
102
}
330
C
100
AcDbXrecord
280
     1
  1
DWGPROPS COOKIE
  2

  3

  4

  6

  7

  8
NI0949
  9

300
=
301
=
302
=
303
=
304
=
305
=
306
=
307
=
308
=
309
=
 40
0.0896457060185185
 41
2451224.660162037
 42
2458549.47005787
  1

 90
        0
  0
DICTIONARY
  5
28918
102
{ACAD_REACTORS
330
C
102
}
330
C
100
AcDbDictionary
281
     1
  0
DICTIONARY
  5
28919
102
{ACAD_REACTORS
330
C
102
}
330
C
100
AcDbDictionary
281
     1
  3
10
350
2BA23
  3
11
350
2BA24
  3
12
350
2BA57
  3
13
350
2C318
  3
14
350
2C5A7
  3
15
350
2C5AA
  3
16
350
2CAB2
  3
17
350
2D07C
  3
18
350
2D07D
  3
19
350
2D1EF
  0
DICTIONARY
  5
254F9
102
{ACAD_REACTORS
330
254EC
102
}
330
254EC
100
AcDbDictionary
281
     1
  0
DICTIONARY
  5
2D5F2
102
{ACAD_REACTORS
330
254EC
102
}
330
254EC
100
AcDbDictionary
281
     1
  3
*A1
350
2D5F3
  3
*A10
350
2D5FA
  3
*A11
350
2D5FB
  3
*A2
350
2D5FC
  3
*A3
350
2D5FD
  3
*A4
350
2D5F4
  3
*A5
350
2D5F5
  3
*A6
350
2D5F6
  3
*A7
350
2D5F7
  3
*A8
350
2D5F8
  3
*A9
350
2D5F9
1001
ACAD
1000
<All
  0
XRECORD
  5
299A8
102
{ACAD_REACTORS
330
299A7
102
}
330
299A7
100
AcDbXrecord
280
     1
290
     1
  0
SORTENTSTABLE
  5
2B856
102
{ACAD_REACTORS
330
2B855
102
}
330
2B855
100
AcDbSortentsTable
330
18
331
176FC
  5
27C6A
331
187C8
  5
27C6B
331
187C9
  5
27C6C
331
187CB
  5
27C6D
331
187CC
  5
27C6E
331
187CD
  5
27C6F
331
187CE
  5
27C70
331
187CF
  5
27C71
331
187D0
  5
27C72
331
187D1
  5
27C73
331
187D2
  5
27C74
331
187D3
  5
27C75
331
187D4
  5
27C76
331
187D5
  5
27C77
331
187D6
  5
27C79
331
187D7
  5
27C7A
331
216E7
  5
27C7B
331
21ACC
  5
27C7D
331
27C69
  5
27C7F
331
27C6A
  5
27C80
331
27C6C
  5
27C81
331
27C6D
  5
27C83
331
27C6E
  5
27C84
331
27C6F
  5
27C8E
331
27C75
  5
27CCF
331
27C76
  5
27CD0
331
27C77
  5
27CD1
331
27C79
  5
27CD2
331
27C7A
  5
27CD3
331
27C7B
  5
27CD4
331
27C7D
  5
27CD5
331
27C83
  5
27CDA
331
27C84
  5
27CDB
331
27C8E
  5
27CDC
331
27CC9
  5
27CDD
331
27CCA
  5
27CDE
331
27CCD
  5
27CE0
331
27CCE
  5
27CE1
331
27CCF
  5
27CE2
331
27CD0
  5
27CE3
331
27CD1
  5
27CE4
331
27CD2
  5
27CE7
331
27CD3
  5
27CE8
331
27CD4
  5
27CE9
331
27CD5
  5
27CEA
331
27CD6
  5
27CEB
331
27CD7
  5
27CEC
331
27CD8
  5
27CED
331
27CD9
  5
27CEE
331
27CDA
  5
27CEF
331
27CDB
  5
27CF0
331
27CDC
  5
27CF1
331
27CDD
  5
27CF2
331
27CDE
  5
27CF3
331
27CDF
  5
27CF4
331
27CE0
  5
27CF5
331
27CE1
  5
27CF6
331
27CE2
  5
27CF7
331
27CE3
  5
27CF8
331
27CE4
  5
27CF9
331
27CE7
  5
27CFA
331
27CE8
  5
27CFB
331
27CE9
  5
27CFC
331
27CEA
  5
27CFD
331
27CEB
  5
27D02
331
27CEC
  5
27D03
331
27CF8
  5
27D0F
331
27CF9
  5
27D10
331
27CFA
  5
27D11
331
27CFB
  5
27D12
331
27CFC
  5
27D13
331
27CFD
  5
27D14
331
27D02
  5
27D15
331
27D03
  5
27D16
331
27D04
  5
27D18
331
27D05
  5
27D19
331
27D06
  5
27D1A
331
27D07
  5
27D1B
331
27D08
  5
27D1C
331
27D09
  5
27D1E
331
27D0A
  5
27D1F
331
27D0D
  5
27D22
331
27D13
  5
27D28
331
27D14
  5
27D29
331
27D1A
  5
27D2E
331
27D1B
  5
27D46
331
27D1C
  5
27D47
331
27D34
  5
27D48
331
27D35
  5
27D49
331
27D37
  5
27D4A
331
27D38
  5
27D4B
331
27D39
  5
27D4C
331
27D3A
  5
27D4D
331
27D3B
  5
27D4E
331
27D3C
  5
27D64
331
27D3D
  5
27D65
331
27D55
  5
27D69
331
27D56
  5
27D71
331
27D57
  5
27D75
331
27D58
  5
27D76
331
27D59
  5
27D77
331
27D5A
  5
27D78
331
27D5B
  5
27D79
331
27D5C
  5
27D8F
331
27D5D
  5
27D90
331
27D5E
  5
27D91
331
27D64
  5
27D92
331
27D69
  5
27D95
331
27D6A
  5
27D96
331
27D87
  5
27D9A
331
27D88
  5
27D9B
331
27D89
  5
27D9C
331
27D8A
  5
27D9D
331
27D8B
  5
27D9E
331
27D8C
  5
27D9F
331
27D8D
  5
27DA0
331
27D8E
  5
27DA1
331
27D8F
  5
27DA2
331
27D90
  5
27DA3
331
27D91
  5
27DA4
331
27D92
  5
27DA5
331
27D93
  5
27DA6
331
27D94
  5
27DA7
331
27D95
  5
27DA8
331
27D96
  5
27DA9
331
27D97
  5
27DAA
331
27D98
  5
27DAB
331
27D99
  5
27DAC
331
27D9A
  5
27DAD
331
27D9B
  5
27DAE
331
27D9C
  5
27DCD
331
27D9D
  5
27DCE
331
27D9E
  5
27DCF
331
27D9F
  5
27DD0
331
27DC3
  5
27DD6
331
27DC4
  5
27DD7
331
27DC5
  5
27DD8
331
27DC6
  5
27DD9
331
27DC7
  5
27DDA
331
27DC8
  5
27DDB
331
27DC9
  5
27DDC
331
27DCA
  5
27DDD
331
27DCB
  5
27DDE
331
27DCC
  5
27DDF
331
27DCD
  5
27DE0
331
27DCE
  5
27DE1
331
27DCF
  5
27DE2
331
27DD0
  5
27DE3
331
27DD1
  5
27DE4
331
27DD2
  5
27DE5
331
27DD3
  5
27DE6
331
27DD4
  5
27DE7
331
27DD5
  5
27DE8
331
27DD6
  5
27DE9
331
27DD7
  5
27DEA
331
27DD8
  5
27DEB
331
27DD9
  5
27DEC
331
27DDA
  5
27DED
331
27DDB
  5
27DEE
331
27DDC
  5
27DEF
331
27DDD
  5
27DF0
331
27DDE
  5
27DF1
331
27DDF
  5
27DF2
331
27DE0
  5
27DF3
331
27DE1
  5
27DF4
331
27DE3
  5
27DF6
331
27DE4
  5
27DF7
331
27DE7
  5
27DFA
331
27DE8
  5
27DFB
331
27DE9
  5
27DFC
331
27DEA
  5
27DFD
331
27DEB
  5
27DFE
331
27DEC
  5
27DFF
331
27DED
  5
27E00
331
27DEE
  5
27E02
331
27DEF
  5
27E03
331
27DF0
  5
27E04
331
27DF1
  5
27E05
331
27DF2
  5
27E06
331
27DF3
  5
27E07
331
27DF4
  5
27E08
331
27DF5
  5
27FE0
331
27DF6
  5
27FE1
331
27DF7
  5
28C33
331
27DF8
  5
28C34
331
27DF9
  5
28C35
331
27DFA
  5
28C36
331
27DFB
  5
28C37
331
27DFC
  5
28C38
331
27DFD
  5
28C39
331
27DFE
  5
28C3A
331
27DFF
  5
28C3B
331
27E00
  5
28C3C
331
27E02
  5
28C3D
331
27E03
  5
28C3E
331
27E04
  5
28C3F
331
27E05
  5
28C40
331
27E06
  5
28C41
331
27E07
  5
28C42
331
27E08
  5
28C43
331
28C33
  5
28C46
331
28C34
  5
28C47
331
28C35
  5
28C48
331
28C36
  5
28C49
331
28C37
  5
28C4A
331
28C38
  5
28C4B
331
28C39
  5
28C4C
331
28C3A
  5
28C4D
331
28C3B
  5
28C4E
331
28C3C
  5
28C4F
331
28C3D
  5
28C50
331
28C3E
  5
28C51
331
28C3F
  5
28C52
331
28C40
  5
28C53
331
28C41
  5
28C54
331
28C42
  5
28C55
331
28C43
  5
28C56
331
28C44
  5
28C57
331
28C45
  5
28C58
331
28C46
  5
28C59
331
28C47
  5
28C5A
331
28C48
  5
28C5B
331
28C49
  5
28C5C
331
28C4A
  5
28C5D
331
28C4B
  5
28C5E
331
28C4C
  5
28C5F
331
28C4D
  5
28C60
331
28C4E
  5
28C61
331
28C4F
  5
28C62
331
28C50
  5
28C63
331
28C51
  5
28C64
331
28C52
  5
28C65
331
28C53
  5
28C66
331
28C54
  5
28C67
331
28C55
  5
28C68
331
28C56
  5
28C69
331
28C57
  5
28C6A
331
28C58
  5
28C6B
331
28C59
  5
28C6C
331
28C5A
  5
28C6D
331
28C5B
  5
28C6E
331
28C5C
  5
28C6F
331
28C5D
  5
28C70
331
28C5E
  5
28C71
331
28C5F
  5
28C72
331
28C60
  5
28C73
331
28C61
  5
28C74
331
28C62
  5
28C75
331
28C63
  5
28C76
331
28C64
  5
28CF1
331
28C65
  5
28CF2
331
28C66
  5
28D84
331
28C67
  5
292C2
331
28C68
  5
292C3
331
28C69
  5
2984C
331
28C6A
  5
2984D
331
28C6B
  5
2984F
331
28C6C
  5
29850
331
28C6D
  5
29851
331
28C6E
  5
29852
331
28C6F
  5
29853
331
28C70
  5
29854
331
28C71
  5
29855
331
28C72
  5
29856
331
28C73
  5
29858
331
28C74
  5
29859
331
28C75
  5
2985A
331
28C76
  5
2985B
331
292C2
  5
2ABC7
331
292C3
  5
2BBDE
331
2A72F
  5
2BBDF
331
2BD12
  5
2BD1E
331
2BD13
  5
2BD1F
331
2BD14
  5
2BD20
331
2BD15
  5
2BD21
331
2BD16
  5
2BD22
331
2BD17
  5
2BD23
331
2BD18
  5
2BD24
331
2BD19
  5
2BD25
331
2BD1A
  5
2BD99
331
2BD1B
  5
2BD9A
331
2BD1C
  5
2BD9B
331
2BD1D
  5
2BE4F
331
2BD1E
  5
2BE50
331
2BD1F
  5
2BE51
331
2BD20
  5
2BE52
331
2BD21
  5
2BEFE
331
2BD22
  5
2BF02
331
2BD23
  5
2BF03
331
2BD24
  5
2BF06
331
2BD25
  5
2BF07
331
2C5B2
  5
2C97D
331
2C5B3
  5
2C97E
331
2D36B
  5
2D36D
331
2D36C
  5
2D36E
331
2D36D
  5
2D36F
331
2D36E
  5
2D370
331
2D36F
  5
2D371
331
2D370
  5
2D372
331
2D371
  5
2D373
331
2D372
  5
2D374
331
2D373
  5
2D375
331
2D374
  5
2D376
331
2D375
  5
2D377
331
2D376
  5
2D378
331
2D377
  5
2D379
331
2D378
  5
2D37A
331
2D379
  5
2D37B
331
2D37A
  5
2D37C
331
2D37B
  5
2D37D
331
2D37C
  5
2D37E
331
2D37D
  5
2D37F
331
2D37E
  5
2D380
331
2D37F
  5
2D381
331
2D380
  5
2D382
331
2D381
  5
2D383
331
2D382
  5
2D384
331
2D383
  5
2D385
331
2D384
  5
2D386
331
2D385
  5
2D387
331
2D386
  5
2D388
331
2D387
  5
2D389
331
2D388
  5
2D38A
331
2D389
  5
2D38B
331
2D38A
  5
2D38C
331
2D38B
  5
2D38D
331
2D38C
  5
2D38E
331
2D38D
  5
2D38F
331
2D38E
  5
2D390
331
2D38F
  5
2D391
331
2D390
  5
2D392
331
2D391
  5
2D393
331
2D392
  5
2D394
331
2D393
  5
2D395
331
2D394
  5
2D396
331
2D395
  5
2D397
331
2D396
  5
2D398
331
2D397
  5
2D399
331
2D398
  5
2D39A
331
2D399
  5
2D39B
331
2D39A
  5
2D39C
331
2D39B
  5
2D39D
331
2D39C
  5
2D39E
331
2D39D
  5
2D39F
331
2D39E
  5
2D3A0
331
2D39F
  5
2D3A1
331
2D3A0
  5
2D3A2
331
2D3A1
  5
2D3A3
331
2D3A2
  5
2D3A4
331
2D3A3
  5
2D3A5
331
2D3A4
  5
2D3A6
331
2D3A5
  5
2D3A7
331
2D3A6
  5
2D3A8
331
2D3A7
  5
2D3A9
331
2D3A8
  5
2D3AA
331
2D3A9
  5
2D3AB
331
2D3AA
  5
2D3AC
331
2D3AB
  5
2D3AD
331
2D3AC
  5
2D3AE
331
2D3AD
  5
2D3AF
331
2D3AE
  5
2D3B0
331
2D3AF
  5
2D3B1
331
2D3B0
  5
2D3B2
331
2D3B1
  5
2D3B3
331
2D3B2
  5
2D3B4
331
2D3B3
  5
2D3B5
331
2D3B4
  5
2D3B6
331
2D3B5
  5
2D3B7
331
2D3B6
  5
2D3B8
331
2D3B7
  5
2D3B9
331
2D3B8
  5
2D3BA
331
2D3B9
  5
2D3BB
331
2D3BA
  5
2D3BC
331
2D3BB
  5
2D3BD
331
2D3BC
  5
2D3BE
331
2D3BD
  5
2D3BF
331
2D3BE
  5
2D3C0
331
2D3BF
  5
2D3C1
331
2D3C0
  5
2D3C2
331
2D3C4
  5
2D3C6
331
2D3C5
  5
2D3C7
331
2D3C6
  5
2D3C8
331
2D3C7
  5
2D3C9
331
2D3C8
  5
2D3CA
331
2D3C9
  5
2D3CB
331
2D3CA
  5
2D3CC
331
2D3CB
  5
2D3CD
331
2D3CC
  5
2D3CE
331
2D3CD
  5
2D3CF
331
2D3CE
  5
2D3D0
331
2D3CF
  5
2D3D1
331
2D3D0
  5
2D3D2
331
2D3D1
  5
2D3D3
331
2D3D2
  5
2D3D4
331
2D3D3
  5
2D3D5
331
2D3D5
  5
2D3D7
331
2D3D6
  5
2D3D8
331
2D3D7
  5
2D3D9
331
2D3D8
  5
2D3DA
331
2D3D9
  5
2D3DB
331
2D3DA
  5
2D3DC
331
2D3DB
  5
2D3DD
331
2D3DC
  5
2D3DE
331
2D3DD
  5
2D3DF
331
2D3DE
  5
2D3E0
331
2D3DF
  5
2D3E1
331
2D3E0
  5
2D3E2
331
2D3E1
  5
2D3E3
331
2D3E2
  5
2D3E4
331
2D3E3
  5
2D3E5
331
2D3E4
  5
2D3E6
331
2D3E5
  5
2D3E7
331
2D3E6
  5
2D3E8
331
2D3E7
  5
2D3E9
331
2D3E8
  5
2D3EA
331
2D3E9
  5
2D3EB
331
2D3EA
  5
2D3EC
331
2D3EB
  5
2D3ED
331
2D3EC
  5
2D3EE
331
2D3ED
  5
2D3EF
331
2D3EE
  5
2D3F0
331
2D3EF
  5
2D3F1
331
2D3F0
  5
2D3F2
331
2D3F1
  5
2D3F3
331
2D3F2
  5
2D3F4
331
2D3F3
  5
2D3F5
331
2D3F4
  5
2D3F6
331
2D3F5
  5
2D3F7
331
2D3F6
  5
2D3F8
331
2D3F7
  5
2D3F9
331
2D3F8
  5
2D3FA
331
2D3F9
  5
2D3FB
331
2D3FA
  5
2D425
  0
XRECORD
  5
2D6BA
102
{ACAD_REACTORS
330
2D6B9
102
}
330
2D6B9
100
AcDbXrecord
280
     1
102
SHADEPLOT
 70
     0
  0
XRECORD
  5
2D6BB
102
{ACAD_REACTORS
330
2D5C7
102
}
330
2D5C7
100
AcDbXrecord
280
     1
102
SHADEPLOT
 70
     0
  0
XRECORD
  5
2D5C8
102
{ACAD_REACTORS
330
2D5C7
102
}
330
2D5C7
100
AcDbXrecord
280
     1
 90
        1
340
283C2
  0
XRECORD
  5
2D67F
102
{ACAD_REACTORS
330
2D67E
102
}
330
2D67E
100
AcDbXrecord
280
     1
1004
1800000001000000000000C0000000000000000000000000
  0
ACDBDETAILVIEWSTYLE
  5
2D602
102
{ACAD_XDICTIONARY
360
2D6C0
102
}
102
{ACAD_REACTORS
330
28920
102
}
330
28920
100
AcDbModelDocViewStyle
 70
     0
  3
Imperial24
290
     0
100
AcDbDetailViewStyle
 70
     0
 71
     0
 90
        3
 71
     1
340
F
 40
0.24
340
0
 40
0.24
300

 40
0.36
280
     3
 71
     2
340
14
 90
       25
 71
     3
340
F
 40
0.24
 90
        1
 40
0.75
 90
        1
300
%<\AcVar ViewType \f "%tc1">% %<\AcVar ViewDetailId>%\PSCALE %<\AcVar ViewScale \f "%sn">%
 71
     4
340
14
 90
       25
340
14
 90
       25
280
     0
  0
LAYOUT
  5
FB5D
102
{ACAD_XDICTIONARY
360
2D680
102
}
102
{ACAD_REACTORS
330
DB2
102
}
330
DB2
100
AcDbPlotSettings
  1

  2
\\HONAMI\LBP-910
  4
A3
  6

 40
5.873749732971191
 41
5.873747825622558
 42
5.873748779296875
 43
5.873748779296875
 44
296.9259948730469
 45
419.9466552734374
 46
0.0
 47
0.0
 48
-134.0496161171158
 49
-116.2294073187233
140
1105.745250909008
141
633.2284101676227
142
1.0
143
2.866823569012708
 70
 11952
 72
     1
 73
     1
 74
     1
  7
monochrome.ctb
 75
     0
147
0.3488181173089717
148
98.7130430422485
149
74.96499340265336
100
AcDbLayout
  1
Model
 70
     1
 71
     0
 10
0.0
 20
0.0
 11
12.0
 21
9.0
 12
0.0
 22
0.0
 32
0.0
 14
437.8477423594165
 24
-2485.567122351274
 34
0.0
 15
951.4982967588645
 25
-2225.691602833293
 35
137.5
146
0.0
 13
0.0
 23
0.0
 33
0.0
 16
1.0
 26
0.0
 36
0.0
 17
0.0
 27
1.0
 37
0.0
 76
     0
330
18
  0
LAYOUT
  5
2D5C2
102
{ACAD_XDICTIONARY
360
2D6B7
102
}
102
{ACAD_REACTORS
330
DB2
102
}
330
DB2
100
AcDbPlotSettings
  1

  2
none_device
  4
ANSI_A_(11.00_x_8.50_Inches)
  6

 40
6.349999999999999
 41
19.05
 42
6.349999999999999
 43
19.05
 44
279.4
 45
215.9
 46
0.0
 47
0.0
 48
0.0
 49
0.0
140
0.0
141
0.0
142
1.0
143
1.0
 70
   688
 72
     0
 73
     0
 74
     5
  7

 75
    16
147
1.0
148
0.0
149
0.0
100
AcDbLayout
  1
Sheet1
 70
     1
 71
     1
 10
0.0
 20
0.0
 11
0.0
 21
0.0
 12
0.0
 22
0.0
 32
0.0
 14
1.049999999999999
 24
0.6999999999999998
 34
0.0
 15
9.449999999999999
 25
6.3
 35
0.0
146
0.0
 13
0.0
 23
0.0
 33
0.0
 16
1.0
 26
0.0
 36
0.0
 17
0.0
 27
1.0
 37
0.0
 76
     0
330
2D5C1
331
2D5C5
  0
MATERIAL
  5
2D5FE
102
{ACAD_XDICTIONARY
360
2D6BC
102
}
102
{ACAD_REACTORS
330
2D57A
102
}
330
2D57A
100
AcDbMaterial
  1
ByBlock
 73
     1
 78
     1
172
     1
176
     1
270
     1
274
     1
  0
MATERIAL
  5
2D57B
102
{ACAD_XDICTIONARY
360
2D6B2
102
}
102
{ACAD_REACTORS
330
2D57A
102
}
330
2D57A
100
AcDbMaterial
  1
ByLayer
 73
     1
 78
     1
172
     1
176
     1
270
     1
274
     1
  0
MATERIAL
  5
2D57D
102
{ACAD_XDICTIONARY
360
2D6B4
102
}
102
{ACAD_REACTORS
330
2D57A
102
}
330
2D57A
100
AcDbMaterial
  1
Global
 73
     1
 78
     1
172
     1
176
     1
270
     1
274
     1
  0
MLEADERSTYLE
  5
2D581
102
{ACAD_REACTORS
330
2D580
102
}
330
2D580
100
AcDbMLeaderStyle
170
     2
171
     1
172
     0
 90
        2
 40
0.0
 41
0.0
173
     1
 91
-1056964608
340
12
 92
       -2
290
     1
 42
0.09
291
     1
 43
0.36
  3
Standard
 44
0.18
300

342
F
174
     1
178
     6
175
     1
176
     0
 93
-1056964608
 45
0.18
292
     0
297
     0
 46
0.18
 94
-1056964608
 47
1.0
 49
1.0
140
1.0
293
     1
141
0.0
294
     1
177
     0
142
1.0
295
     0
296
     0
143
0.125
1001
ACAD_MLEADERVER
1070
     2
  0
MLINESTYLE
  5
1C
102
{ACAD_REACTORS
330
1B
102
}
330
1B
100
AcDbMlineStyle
  2
STANDARD
 70
     0
  3

 62
   256
 51
90.0
 52
90.0
 71
     2
 49
0.5
 62
   256
  6
BYLAYER
 49
-0.5
 62
   256
  6
BYLAYER
  0
ACDBPLACEHOLDER
  5
FB5C
102
{ACAD_REACTORS
330
FB5B
102
}
330
FB5B
  0
SCALE
  5
283C2
102
{ACAD_REACTORS
330
283C1
102
}
330
283C1
100
AcDbScale
 70
     0
300
1:1
140
1.0
141
1.0
290
     1
  0
SCALE
  5
283C3
102
{ACAD_REACTORS
330
283C1
102
}
330
283C1
100
AcDbScale
 70
     0
300
1:2
140
1.0
141
2.0
290
     0
  0
SCALE
  5
283C4
102
{ACAD_REACTORS
330
283C1
102
}
330
283C1
100
AcDbScale
 70
     0
300
1:4
140
1.0
141
4.0
290
     0
  0
SCALE
  5
283C5
102
{ACAD_REACTORS
330
283C1
102
}
330
283C1
100
AcDbScale
 70
     0
300
1:5
140
1.0
141
5.0
290
     0
  0
SCALE
  5
283C6
102
{ACAD_REACTORS
330
283C1
102
}
330
283C1
100
AcDbScale
 70
     0
300
1:8
140
1.0
141
8.0
290
     0
  0
SCALE
  5
283C7
102
{ACAD_REACTORS
330
283C1
102
}
330
283C1
100
AcDbScale
 70
     0
300
1:10
140
1.0
141
10.0
290
     0
  0
SCALE
  5
283C8
102
{ACAD_REACTORS
330
283C1
102
}
330
283C1
100
AcDbScale
 70
     0
300
1:16
140
1.0
141
16.0
290
     0
  0
SCALE
  5
283C9
102
{ACAD_REACTORS
330
283C1
102
}
330
283C1
100
AcDbScale
 70
     0
300
1:20
140
1.0
141
20.0
290
     0
  0
SCALE
  5
283CA
102
{ACAD_REACTORS
330
283C1
102
}
330
283C1
100
AcDbScale
 70
     0
300
1:30
140
1.0
141
30.0
290
     0
  0
SCALE
  5
283CB
102
{ACAD_REACTORS
330
283C1
102
}
330
283C1
100
AcDbScale
 70
     0
300
1:40
140
1.0
141
40.0
290
     0
  0
SCALE
  5
283CC
102
{ACAD_REACTORS
330
283C1
102
}
330
283C1
100
AcDbScale
 70
     0
300
1:50
140
1.0
141
50.0
290
     0
  0
SCALE
  5
283CD
102
{ACAD_REACTORS
330
283C1
102
}
330
283C1
100
AcDbScale
 70
     0
300
1:100
140
1.0
141
100.0
290
     0
  0
SCALE
  5
283CE
102
{ACAD_REACTORS
330
283C1
102
}
330
283C1
100
AcDbScale
 70
     0
300
2:1
140
2.0
141
1.0
290
     0
  0
SCALE
  5
283CF
102
{ACAD_REACTORS
330
283C1
102
}
330
283C1
100
AcDbScale
 70
     0
300
4:1
140
4.0
141
1.0
290
     0
  0
SCALE
  5
283D0
102
{ACAD_REACTORS
330
283C1
102
}
330
283C1
100
AcDbScale
 70
     0
300
8:1
140
8.0
141
1.0
290
     0
  0
SCALE
  5
283D1
102
{ACAD_REACTORS
330
283C1
102
}
330
283C1
100
AcDbScale
 70
     0
300
10:1
140
10.0
141
1.0
290
     0
  0
SCALE
  5
283D2
102
{ACAD_REACTORS
330
283C1
102
}
330
283C1
100
AcDbScale
 70
     0
300
100:1
140
100.0
141
1.0
290
     0
  0
SCALE
  5
283D3
102
{ACAD_REACTORS
330
283C1
102
}
330
283C1
100
AcDbScale
 70
     0
300
1/128" = 1'-0"
140
0.0078125
141
12.0
290
     0
  0
SCALE
  5
283D4
102
{ACAD_REACTORS
330
283C1
102
}
330
283C1
100
AcDbScale
 70
     0
300
1/64" = 1'-0"
140
0.015625
141
12.0
290
     0
  0
SCALE
  5
283D5
102
{ACAD_REACTORS
330
283C1
102
}
330
283C1
100
AcDbScale
 70
     0
300
1/32" = 1'-0"
140
0.03125
141
12.0
290
     0
  0
SCALE
  5
283D6
102
{ACAD_REACTORS
330
283C1
102
}
330
283C1
100
AcDbScale
 70
     0
300
1/16" = 1'-0"
140
0.0625
141
12.0
290
     0
  0
SCALE
  5
283D7
102
{ACAD_REACTORS
330
283C1
102
}
330
283C1
100
AcDbScale
 70
     0
300
3/32" = 1'-0"
140
0.09375
141
12.0
290
     0
  0
SCALE
  5
283D8
102
{ACAD_REACTORS
330
283C1
102
}
330
283C1
100
AcDbScale
 70
     0
300
1/8" = 1'-0"
140
0.125
141
12.0
290
     0
  0
SCALE
  5
283D9
102
{ACAD_REACTORS
330
283C1
102
}
330
283C1
100
AcDbScale
 70
     0
300
3/16" = 1'-0"
140
0.1875
141
12.0
290
     0
  0
SCALE
  5
283DA
102
{ACAD_REACTORS
330
283C1
102
}
330
283C1
100
AcDbScale
 70
     0
300
1/4" = 1'-0"
140
0.25
141
12.0
290
     0
  0
SCALE
  5
283DB
102
{ACAD_REACTORS
330
283C1
102
}
330
283C1
100
AcDbScale
 70
     0
300
3/8" = 1'-0"
140
0.375
141
12.0
290
     0
  0
SCALE
  5
283DC
102
{ACAD_REACTORS
330
283C1
102
}
330
283C1
100
AcDbScale
 70
     0
300
1/2" = 1'-0"
140
0.5
141
12.0
290
     0
  0
SCALE
  5
283DD
102
{ACAD_REACTORS
330
283C1
102
}
330
283C1
100
AcDbScale
 70
     0
300
3/4" = 1'-0"
140
0.75
141
12.0
290
     0
  0
SCALE
  5
283DE
102
{ACAD_REACTORS
330
283C1
102
}
330
283C1
100
AcDbScale
 70
     0
300
1" = 1'-0"
140
1.0
141
12.0
290
     0
  0
SCALE
  5
283DF
102
{ACAD_REACTORS
330
283C1
102
}
330
283C1
100
AcDbScale
 70
     0
300
1-1/2" = 1'-0"
140
1.5
141
12.0
290
     0
  0
SCALE
  5
283E0
102
{ACAD_REACTORS
330
283C1
102
}
330
283C1
100
AcDbScale
 70
     0
300
3" = 1'-0"
140
3.0
141
12.0
290
     0
  0
SCALE
  5
283E1
102
{ACAD_REACTORS
330
283C1
102
}
330
283C1
100
AcDbScale
 70
     0
300
6" = 1'-0"
140
6.0
141
12.0
290
     0
  0
SCALE
  5
283E2
102
{ACAD_REACTORS
330
283C1
102
}
330
283C1
100
AcDbScale
 70
     0
300
1'-0" = 1'-0"
140
12.0
141
12.0
290
     0
  0
ACDBSECTIONVIEWSTYLE
  5
2D601
102
{ACAD_XDICTIONARY
360
2D6BE
102
}
102
{ACAD_REACTORS
330
28921
102
}
330
28921
100
AcDbModelDocViewStyle
 70
     0
  3
Imperial24
290
     0
100
AcDbSectionViewStyle
 70
     0
 71
     0
 90
       78
 71
     1
340
F
 40
0.24
340
0
340
0
 40
0.24
300
I, O, Q, S, X, Z
 40
0.48
 90
        3
 40
0.18
 90
        1
 71
     2
340
14
 90
       25
340
14
 90
       50
 40
0.24
 40
0.0
 40
0.24
 71
     3
340
F
 40
0.24
 90
        1
 40
0.75
 90
        1
300
%<\AcVar ViewType \f "%tc1">% %<\AcVar ViewSectionStartId>%-%<\AcVar ViewSectionEndId>%\PSCALE %<\AcVar ViewScale \f "%sn">%
 71
     4
300
ANSI31
 40
1.0
 90
        0
290
     0
290
     0
 90
        6
 40
0.0
 40
1.570796326794896
 40
0.2617993877991494
 40
1.308996938995747
 40
-0.2617993877991494
 40
1.832595714594046
  0
TABLESTYLE
  5
2D57F
102
{ACAD_XDICTIONARY
360
2D611
102
}
102
{ACAD_REACTORS
330
2D57E
102
}
330
2D57E
100
AcDbTableStyle
  3
Standard
 70
     0
 71
     0
 40
0.06
 41
0.06
280
     0
281
     0
  7
STANDARD
140
0.18
170
     2
 62
     0
 63
     7
283
     0
274
    -2
284
     1
 64
     0
275
    -2
285
     1
 65
     0
276
    -2
286
     1
 66
     0
277
    -2
287
     1
 67
     0
278
    -2
288
     1
 68
     0
279
    -2
289
     1
 69
     0
  7
STANDARD
140
0.25
170
     5
 62
     0
 63
     7
283
     0
274
    -2
284
     1
 64
     0
275
    -2
285
     1
 65
     0
276
    -2
286
     1
 66
     0
277
    -2
287
     1
 67
     0
278
    -2
288
     1
 68
     0
279
    -2
289
     1
 69
     0
  7
STANDARD
140
0.18
170
     5
 62
     0
 63
     7
283
     0
274
    -2
284
     1
 64
     0
275
    -2
285
     1
 65
     0
276
    -2
286
     1
 66
     0
277
    -2
287
     1
 67
     0
278
    -2
288
     1
 68
     0
279
    -2
289
     1
 69
     0
  0
VISUALSTYLE
  5
2D566
102
{ACAD_XDICTIONARY
360
2D68A
102
}
102
{ACAD_REACTORS
330
2D561
102
}
330
2D561
100
AcDbVisualStyle
  2
2dWireframe
 70
     4
 71
     0
 72
     2
 73
     0
 90
        0
 40
-0.6
 41
-30.0
 62
     5
 63
     7
 74
     1
 91
        4
 64
     7
 65
   257
 75
     1
175
     1
 42
1.0
 92
        0
 66
   257
 43
1.0
 76
     1
 77
     6
 78
     2
 67
     7
 79
     5
170
     0
171
     0
290
     0
174
     0
 93
        1
 44
0.0
173
     0
291
     0
 45
0.0
1001
ACAD
1000
AcDbSavedByObjectVersion
1070
     0
  0
VISUALSTYLE
  5
2D569
102
{ACAD_XDICTIONARY
360
2D690
102
}
102
{ACAD_REACTORS
330
2D561
102
}
330
2D561
100
AcDbVisualStyle
  2
Basic
 70
     7
 71
     1
 72
     0
 73
     1
 90
        0
 40
-0.6
 41
-30.0
 62
     5
 63
     7
 74
     0
 91
        4
 64
     7
 65
   257
 75
     1
175
     1
 42
1.0
 92
        8
 66
     7
 43
1.0
 76
     1
 77
     6
 78
     2
 67
     7
 79
     5
170
     0
171
     0
290
     0
174
     0
 93
        1
 44
0.0
173
     0
291
     1
 45
0.0
1001
ACAD
1000
AcDbSavedByObjectVersion
1070
     0
  0
VISUALSTYLE
  5
2D56D
102
{ACAD_XDICTIONARY
360
2D698
102
}
102
{ACAD_REACTORS
330
2D561
102
}
330
2D561
100
AcDbVisualStyle
  2
Brighten
 70
    12
 71
     2
 72
     2
 73
     0
 90
        0
 40
-0.6
 41
-30.0
 62
     5
 63
     7
 74
     1
 91
        4
 64
     7
 65
   257
 75
     1
175
     1
 42
1.0
 92
        8
 66
     7
 43
1.0
 76
     1
 77
     6
 78
     2
 67
     7
 79
     5
170
     0
171
     0
290
     0
174
     0
 93
        1
 44
50.0
173
     0
291
     1
 45
0.0
1001
ACAD
1000
AcDbSavedByObjectVersion
1070
     0
  0
VISUALSTYLE
  5
2D571
102
{ACAD_XDICTIONARY
360
2D6A0
102
}
102
{ACAD_REACTORS
330
2D561
102
}
330
2D561
100
AcDbVisualStyle
  2
ColorChange
 70
    16
 71
     2
 72
     2
 73
     3
 90
        0
 40
-0.6
 41
-30.0
 62
     5
 63
     8
 74
     1
 91
        4
 64
     7
 65
   257
 75
     1
175
     1
 42
1.0
 92
        8
 66
     8
 43
1.0
 76
     1
 77
     6
 78
     2
 67
     7
 79
     5
170
     0
171
     0
290
     0
174
     0
 93
        1
 44
0.0
173
     0
291
     1
 45
0.0
1001
ACAD
1000
AcDbSavedByObjectVersion
1070
     0
  0
VISUALSTYLE
  5
2D56B
102
{ACAD_XDICTIONARY
360
2D694
102
}
102
{ACAD_REACTORS
330
2D561
102
}
330
2D561
100
AcDbVisualStyle
  2
Conceptual
 70
     9
 71
     3
 72
     2
 73
     0
 90
        0
 40
-0.6
 41
-30.0
 62
     5
 63
     7
 74
     2
 91
        2
 64
     7
 65
   257
 75
     1
175
     1
 42
179.0
 92
        8
 66
     7
 43
1.0
 76
     1
 77
     6
 78
     2
 67
     7
 79
     3
170
     0
171
     0
290
     0
174
     0
 93
        1
 44
0.0
173
     0
291
     0
 45
0.0
1001
ACAD
1000
AcDbSavedByObjectVersion
1070
     0
  0
VISUALSTYLE
  5
2D56C
102
{ACAD_XDICTIONARY
360
2D696
102
}
102
{ACAD_REACTORS
330
2D561
102
}
330
2D561
100
AcDbVisualStyle
  2
Dim
 70
    11
 71
     2
 72
     2
 73
     0
 90
        0
 40
-0.6
 41
-30.0
 62
     5
 63
     7
 74
     1
 91
        4
 64
     7
 65
   257
 75
     1
175
     1
 42
1.0
 92
        8
 66
     7
 43
1.0
 76
     1
 77
     6
 78
     2
 67
     7
 79
     5
170
     0
171
     0
290
     0
174
     0
 93
        1
 44
-50.0
173
     0
291
     1
 45
0.0
1001
ACAD
1000
AcDbSavedByObjectVersion
1070
     0
  0
VISUALSTYLE
  5
2D574
102
{ACAD_XDICTIONARY
360
2D6A6
102
}
102
{ACAD_REACTORS
330
2D561
102
}
330
2D561
100
AcDbVisualStyle
  2
EdgeColorOff
 70
    22
 71
     2
 72
     2
 73
     0
 90
        0
 40
-0.6
 41
-30.0
 62
     5
 63
     7
 74
     1
 91
        4
 64
     7
 65
   257
 75
     1
175
     1
 42
1.0
 92
        8
 66
     7
 43
1.0
 76
     1
 77
     6
 78
     2
 67
     7
 79
     5
170
     0
171
     0
290
     0
174
     0
 93
        1
 44
0.0
173
     0
291
     1
 45
0.0
1001
ACAD
1000
AcDbSavedByObjectVersion
1070
     0
  0
VISUALSTYLE
  5
2D570
102
{ACAD_XDICTIONARY
360
2D69E
102
}
102
{ACAD_REACTORS
330
2D561
102
}
330
2D561
100
AcDbVisualStyle
  2
Facepattern
 70
    15
 71
     2
 72
     2
 73
     0
 90
        0
 40
-0.6
 41
-30.0
 62
     5
 63
     7
 74
     1
 91
        4
 64
     7
 65
   257
 75
     1
175
     1
 42
1.0
 92
        8
 66
     7
 43
1.0
 76
     1
 77
     6
 78
     2
 67
     7
 79
     5
170
     0
171
     0
290
     0
174
     0
 93
        1
 44
0.0
173
     0
291
     1
 45
0.0
1001
ACAD
1000
AcDbSavedByObjectVersion
1070
     0
  0
VISUALSTYLE
  5
2D562
102
{ACAD_XDICTIONARY
360
2D682
102
}
102
{ACAD_REACTORS
330
2D561
102
}
330
2D561
100
AcDbVisualStyle
  2
Flat
 70
     0
 71
     2
 72
     1
 73
     1
 90
        2
 40
-0.6
 41
30.0
 62
     5
 63
     7
 74
     0
 91
        0
 64
     7
 65
   257
 75
     1
175
     1
 42
1.0
 92
        8
 66
     7
 43
1.0
 76
     1
 77
     6
 78
     2
 67
     7
 79
     5
170
     0
171
     0
290
     0
174
     0
 93
       13
 44
0.0
173
     0
291
     1
 45
0.0
1001
ACAD
1000
AcDbSavedByObjectVersion
1070
     0
  0
VISUALSTYLE
  5
2D563
102
{ACAD_XDICTIONARY
360
2D684
102
}
102
{ACAD_REACTORS
330
2D561
102
}
330
2D561
100
AcDbVisualStyle
  2
FlatWithEdges
 70
     1
 71
     2
 72
     1
 73
     1
 90
        2
 40
-0.6
 41
30.0
 62
     5
 63
     7
 74
     1
 91
        0
 64
     7
 65
   257
 75
     1
175
     1
 42
1.0
 92
        0
 66
   257
 43
1.0
 76
     1
 77
     6
 78
     2
 67
     7
 79
     5
170
     0
171
     0
290
     0
174
     0
 93
       13
 44
0.0
173
     0
291
     1
 45
0.0
1001
ACAD
1000
AcDbSavedByObjectVersion
1070
     0
  0
VISUALSTYLE
  5
2D564
102
{ACAD_XDICTIONARY
360
2D686
102
}
102
{ACAD_REACTORS
330
2D561
102
}
330
2D561
100
AcDbVisualStyle
  2
Gouraud
 70
     2
 71
     2
 72
     2
 73
     1
 90
        2
 40
-0.6
 41
30.0
 62
     5
 63
     7
 74
     0
 91
        0
 64
     7
 65
   257
 75
     1
175
     1
 42
1.0
 92
        0
 66
     7
 43
1.0
 76
     1
 77
     6
 78
     2
 67
     7
 79
     5
170
     0
171
     0
290
     0
174
     0
 93
       13
 44
0.0
173
     0
291
     1
 45
0.0
1001
ACAD
1000
AcDbSavedByObjectVersion
1070
     0
  0
VISUALSTYLE
  5
2D565
102
{ACAD_XDICTIONARY
360
2D688
102
}
102
{ACAD_REACTORS
330
2D561
102
}
330
2D561
100
AcDbVisualStyle
  2
GouraudWithEdges
 70
     3
 71
     2
 72
     2
 73
     1
 90
        2
 40
-0.6
 41
30.0
 62
     5
 63
     7
 74
     1
 91
        0
 64
     7
 65
   257
 75
     1
175
     1
 42
1.0
 92
        0
 66
   257
 43
1.0
 76
     1
 77
     6
 78
     2
 67
     7
 79
     5
170
     0
171
     0
290
     0
174
     0
 93
       13
 44
0.0
173
     0
291
     1
 45
0.0
1001
ACAD
1000
AcDbSavedByObjectVersion
1070
     0
  0
VISUALSTYLE
  5
2D568
102
{ACAD_XDICTIONARY
360
2D68E
102
}
102
{ACAD_REACTORS
330
2D561
102
}
330
2D561
100
AcDbVisualStyle
  2
Hidden
 70
     6
 71
     1
 72
     2
 73
     2
 90
        0
 40
-0.6
 41
-30.0
 62
     5
 63
     7
 74
     2
 91
        2
 64
     7
 65
   257
 75
     2
175
     1
 42
40.0
 92
        0
 66
   257
 43
1.0
 76
     1
 77
     6
 78
     2
 67
     7
 79
     3
170
     0
171
     0
290
     0
174
     0
 93
        1
 44
0.0
173
     0
291
     0
 45
0.0
1001
ACAD
1000
AcDbSavedByObjectVersion
1070
     0
  0
VISUALSTYLE
  5
2D572
102
{ACAD_XDICTIONARY
360
2D6A2
102
}
102
{ACAD_REACTORS
330
2D561
102
}
330
2D561
100
AcDbVisualStyle
  2
JitterOff
 70
    20
 71
     2
 72
     2
 73
     0
 90
        0
 40
-0.6
 41
-30.0
 62
     5
 63
     7
 74
     1
 91
        4
 64
     7
 65
   257
 75
     1
175
     1
 42
1.0
 92
       10
 66
     7
 43
1.0
 76
     1
 77
     6
 78
     2
 67
     7
 79
     5
170
     0
171
     0
290
     0
174
     0
 93
        1
 44
0.0
173
     0
291
     1
 45
0.0
1001
ACAD
1000
AcDbSavedByObjectVersion
1070
     0
  0
VISUALSTYLE
  5
2D56F
102
{ACAD_XDICTIONARY
360
2D69C
102
}
102
{ACAD_REACTORS
330
2D561
102
}
330
2D561
100
AcDbVisualStyle
  2
Linepattern
 70
    14
 71
     2
 72
     2
 73
     0
 90
        0
 40
-0.6
 41
-30.0
 62
     5
 63
     7
 74
     1
 91
        4
 64
     7
 65
   257
 75
     7
175
     7
 42
1.0
 92
        8
 66
     7
 43
1.0
 76
     1
 77
     6
 78
     2
 67
     7
 79
     5
170
     0
171
     0
290
     0
174
     0
 93
        1
 44
0.0
173
     0
291
     1
 45
0.0
1001
ACAD
1000
AcDbSavedByObjectVersion
1070
     0
  0
VISUALSTYLE
  5
2D573
102
{ACAD_XDICTIONARY
360
2D6A4
102
}
102
{ACAD_REACTORS
330
2D561
102
}
330
2D561
100
AcDbVisualStyle
  2
OverhangOff
 70
    21
 71
     2
 72
     2
 73
     0
 90
        0
 40
-0.6
 41
-30.0
 62
     5
 63
     7
 74
     1
 91
        4
 64
     7
 65
   257
 75
     1
175
     1
 42
1.0
 92
        9
 66
     7
 43
1.0
 76
     1
 77
     6
 78
     2
 67
     7
 79
     5
170
     0
171
     0
290
     0
174
     0
 93
        1
 44
0.0
173
     0
291
     1
 45
0.0
1001
ACAD
1000
AcDbSavedByObjectVersion
1070
     0
  0
VISUALSTYLE
  5
2D56A
102
{ACAD_XDICTIONARY
360
2D692
102
}
102
{ACAD_REACTORS
330
2D561
102
}
330
2D561
100
AcDbVisualStyle
  2
Realistic
 70
     8
 71
     2
 72
     2
 73
     0
 90
        2
 40
-0.6
 41
30.0
 62
     5
 63
     7
 74
     0
 91
        0
 64
     7
 65
   257
 75
     1
175
     1
 42
1.0
 92
        8
 66
   257
 43
1.0
 76
     1
 77
     6
 78
     2
 67
     7
 79
     3
170
     0
171
     0
290
     0
174
     0
 93
       13
 44
0.0
173
     0
291
     0
 45
0.0
1001
ACAD
1000
AcDbSavedByObjectVersion
1070
     0
  0
VISUALSTYLE
  5
2D579
102
{ACAD_XDICTIONARY
360
2D6B0
102
}
102
{ACAD_REACTORS
330
2D561
102
}
330
2D561
100
AcDbVisualStyle
  2
Shaded
 70
    27
 71
     2
 72
     2
 73
     1
 90
        2
 40
-0.6
 41
30.0
 62
     5
 63
     7
 74
     0
 91
        4
 64
     7
 65
   257
 75
     1
175
     1
 42
1.0
 92
        8
 66
   257
 43
1.0
 76
     1
 77
     6
 78
     2
 67
     8
 79
     3
170
     0
171
     0
290
     0
174
     0
 93
        5
 44
0.0
173
     0
291
     0
 45
0.0
1001
ACAD
1000
AcDbSavedByObjectVersion
1070
     0
  0
VISUALSTYLE
  5
2D578
102
{ACAD_XDICTIONARY
360
2D6AE
102
}
102
{ACAD_REACTORS
330
2D561
102
}
330
2D561
100
AcDbVisualStyle
  2
Shaded with edges
 70
    26
 71
     2
 72
     2
 73
     1
 90
        2
 40
-0.6
 41
30.0
 62
     5
 63
     7
 74
     1
 91
        2
 64
     7
 65
   257
 75
     2
175
     1
 42
1.0
 92
        8
 66
   257
 43
1.0
 76
     1
 77
     6
 78
     2
 67
     7
 79
     3
170
     0
171
     0
290
     0
174
     0
 93
        5
 44
0.0
173
     0
291
     0
 45
0.0
1001
ACAD
1000
AcDbSavedByObjectVersion
1070
     0
  0
VISUALSTYLE
  5
2D575
102
{ACAD_XDICTIONARY
360
2D6A8
102
}
102
{ACAD_REACTORS
330
2D561
102
}
330
2D561
100
AcDbVisualStyle
  2
Shades of Gray
 70
    23
 71
     2
 72
     2
 73
     3
 90
        0
 40
-0.6
 41
-30.0
 62
     5
 63
     7
 74
     2
 91
        2
 64
     7
 65
     7
 75
     1
175
     1
 42
40.0
 92
        8
 66
     7
 43
1.0
 76
     1
 77
     6
 78
     2
 67
     7
 79
     3
170
     0
171
     0
290
     0
174
     0
 93
        1
 44
0.0
173
     0
291
     0
 45
0.0
1001
ACAD
1000
AcDbSavedByObjectVersion
1070
     0
  0
VISUALSTYLE
  5
2D576
102
{ACAD_XDICTIONARY
360
2D6AA
102
}
102
{ACAD_REACTORS
330
2D561
102
}
330
2D561
100
AcDbVisualStyle
  2
Sketchy
 70
    24
 71
     1
 72
     2
 73
     2
 90
        0
 40
-0.6
 41
-30.0
 62
     5
 63
     7
 74
     2
 91
        2
 64
     7
 65
     7
 75
     1
175
     1
 42
40.0
 92
       11
 66
     7
 43
1.0
 76
     1
 77
     6
 78
     2
 67
     7
 79
     6
170
     0
171
     0
290
     0
174
     0
 93
        1
 44
0.0
173
     0
291
     0
 45
0.0
1001
ACAD
1000
AcDbSavedByObjectVersion
1070
     0
  0
VISUALSTYLE
  5
2D56E
102
{ACAD_XDICTIONARY
360
2D69A
102
}
102
{ACAD_REACTORS
330
2D561
102
}
330
2D561
100
AcDbVisualStyle
  2
Thicken
 70
    13
 71
     2
 72
     2
 73
     0
 90
        0
 40
-0.6
 41
-30.0
 62
     5
 63
     7
 74
     1
 91
        4
 64
     7
 65
   257
 75
     1
175
     1
 42
1.0
 92
       12
 66
     7
 43
1.0
 76
     1
 77
     6
 78
     2
 67
     7
 79
     5
170
     0
171
     0
290
     0
174
     0
 93
        1
 44
0.0
173
     0
291
     1
 45
0.0
1001
ACAD
1000
AcDbSavedByObjectVersion
1070
     0
  0
VISUALSTYLE
  5
2D567
102
{ACAD_XDICTIONARY
360
2D68C
102
}
102
{ACAD_REACTORS
330
2D561
102
}
330
2D561
100
AcDbVisualStyle
  2
Wireframe
 70
     5
 71
     0
 72
     2
 73
     0
 90
        0
 40
-0.6
 41
-30.0
 62
     5
 63
     7
 74
     1
 91
        4
 64
     7
 65
   257
 75
     1
175
     1
 42
1.0
 92
        0
 66
   257
 43
1.0
 76
     1
 77
     6
 78
     2
 67
     7
 79
     3
170
     0
171
     0
290
     0
174
     0
 93
        1
 44
0.0
173
     0
291
     0
 45
0.0
1001
ACAD
1000
AcDbSavedByObjectVersion
1070
     0
  0
VISUALSTYLE
  5
2D577
102
{ACAD_XDICTIONARY
360
2D6AC
102
}
102
{ACAD_REACTORS
330
2D561
102
}
330
2D561
100
AcDbVisualStyle
  2
X-Ray
 70
    25
 71
     2
 72
     2
 73
     1
 90
        1
 40
0.5
 41
-30.0
 62
     5
 63
     7
 74
     1
 91
        0
 64
     7
 65
   257
 75
     1
175
     1
 42
1.0
 92
        8
 66
     7
 43
1.0
 76
     1
 77
     6
 78
     2
 67
     7
 79
     3
170
     0
171
     0
290
     0
174
     0
 93
       13
 44
0.0
173
     0
291
     0
 45
0.0
1001
ACAD
1000
AcDbSavedByObjectVersion
1070
     0
  0
DICTIONARYVAR
  5
2D583
102
{ACAD_REACTORS
330
106A6
102
}
330
106A6
100
DictionaryVariables
280
     0
  1
1:1
  0
DICTIONARYVAR
  5
2D585
102
{ACAD_REACTORS
330
106A6
102
}
330
106A6
100
DictionaryVariables
280
     0
  1
STANDARD
  0
DICTIONARYVAR
  5
2D584
102
{ACAD_REACTORS
330
106A6
102
}
330
106A6
100
DictionaryVariables
280
     0
  1
STANDARD
  0
DICTIONARYVAR
  5
2D665
102
{ACAD_REACTORS
330
106A6
102
}
330
106A6
100
DictionaryVariables
280
     0
  1
Imperial24
  0
DICTIONARYVAR
  5
2D666
102
{ACAD_REACTORS
330
106A6
102
}
330
106A6
100
DictionaryVariables
280
     0
  1
Imperial24
  0
DICTIONARYVAR
  5
2D66D
102
{ACAD_REACTORS
330
106A6
102
}
330
106A6
100
DictionaryVariables
280
     0
  1
2
  0
DICTIONARYVAR
  5
2D66C
102
{ACAD_REACTORS
330
106A6
102
}
330
106A6
100
DictionaryVariables
280
     0
  1
2
  0
DICTIONARYVAR
  5
2D66B
102
{ACAD_REACTORS
330
106A6
102
}
330
106A6
100
DictionaryVariables
280
     0
  1
1
  0
DICTIONARYVAR
  5
2D66A
102
{ACAD_REACTORS
330
106A6
102
}
330
106A6
100
DictionaryVariables
280
     0
  1
0
  0
DICTIONARYVAR
  5
2D668
102
{ACAD_REACTORS
330
106A6
102
}
330
106A6
100
DictionaryVariables
280
     0
  1
0
  0
DICTIONARYVAR
  5
2D669
102
{ACAD_REACTORS
330
106A6
102
}
330
106A6
100
DictionaryVariables
280
     0
  1
0
  0
DICTIONARYVAR
  5
2D667
102
{ACAD_REACTORS
330
106A6
102
}
330
106A6
100
DictionaryVariables
280
     0
  1
2
  0
DICTIONARYVAR
  5
2D586
102
{ACAD_REACTORS
330
106A6
102
}
330
106A6
100
DictionaryVariables
280
     0
  1
0
  0
DICTIONARYVAR
  5
106A7
102
{ACAD_REACTORS
330
106A6
102
}
330
106A6
100
DictionaryVariables
280
     0
  1
96
  0
DICTIONARYVAR
  5
2D67A
102
{ACAD_REACTORS
330
106A6
102
}
330
106A6
100
DictionaryVariables
280
     0
  1
2
  0
XRECORD
  5
1A9A1
102
{ACAD_REACTORS
330
1A99F
102
}
330
1A99F
100
AcDbXrecord
280
     1
330
187D7
330
0
330
0
330
0
330
0
330
0
330
0
330
0
330
0
330
0
330
0
330
0
330
0
330
0
330
0
330
0
330
0
330
0
330
0
330
0
330
0
330
0
330
0
330
0
330
0
330
0
330
0
330
0
330
0
330
0
330
0
330
0
330
0
330
0
330
0
330
0
330
0
330
0
330
0
330
0
330
0
330
0
330
0
330
0
  0
XRECORD
  5
2BA23
102
{ACAD_REACTORS
330
28919
102
}
330
28919
100
AcDbXrecord
280
     1
290
     1
290
     1
  0
XRECORD
  5
2BA24
102
{ACAD_REACTORS
330
28919
102
}
330
28919
100
AcDbXrecord
280
     1
290
     1
290
     1
  0
XRECORD
  5
2BA57
102
{ACAD_REACTORS
330
28919
102
}
330
28919
100
AcDbXrecord
280
     1
290
     1
290
     0
  0
XRECORD
  5
2C318
102
{ACAD_REACTORS
330
28919
102
}
330
28919
100
AcDbXrecord
280
     1
290
     1
290
     0
  0
XRECORD
  5
2C5A7
102
{ACAD_REACTORS
330
28919
102
}
330
28919
100
AcDbXrecord
280
     1
290
     1
290
     1
  0
XRECORD
  5
2C5AA
102
{ACAD_REACTORS
330
28919
102
}
330
28919
100
AcDbXrecord
280
     1
290
     0
290
     0
  0
XRECORD
  5
2CAB2
102
{ACAD_REACTORS
330
28919
102
}
330
28919
100
AcDbXrecord
280
     1
290
     0
290
     1
  0
XRECORD
  5
2D07C
102
{ACAD_REACTORS
330
28919
102
}
330
28919
100
AcDbXrecord
280
     1
290
     0
290
     0
  0
XRECORD
  5
2D07D
102
{ACAD_REACTORS
330
28919
102
}
330
28919
100
AcDbXrecord
280
     1
290
     0
290
     0
  0
XRECORD
  5
2D1EF
102
{ACAD_REACTORS
330
28919
102
}
330
28919
100
AcDbXrecord
280
     1
290
     1
290
     1
  0
XRECORD
  5
2D5F3
102
{ACAD_REACTORS
330
2D5F2
102
}
330
2D5F2
100
AcDbXrecord
280
     1
  1
AcLyLayerFilter
 90
        1
300
0
301
NAME=="*0"
  0
XRECORD
  5
2D5FA
102
{ACAD_REACTORS
330
2D5F2
102
}
330
2D5F2
100
AcDbXrecord
280
     1
  1
AcLyLayerFilter
 90
        1
300
4
301
NAME=="*4"
  0
XRECORD
  5
2D5FB
102
{ACAD_REACTORS
330
2D5F2
102
}
330
2D5F2
100
AcDbXrecord
280
     1
  1
AcLyLayerFilter
 90
        1
300
5
301
NAME=="*5"
  0
XRECORD
  5
2D5FC
102
{ACAD_REACTORS
330
2D5F2
102
}
330
2D5F2
100
AcDbXrecord
280
     1
  1
AcLyLayerFilter
 90
        1
300
7
301
NAME=="*7"
  0
XRECORD
  5
2D5FD
102
{ACAD_REACTORS
330
2D5F2
102
}
330
2D5F2
100
AcDbXrecord
280
     1
  1
AcLyLayerFilter
 90
        1
300
kiseki
301
NAME=="kiseki*"
  0
XRECORD
  5
2D5F4
102
{ACAD_REACTORS
330
2D5F2
102
}
330
2D5F2
100
AcDbXrecord
280
     1
  1
AcLyLayerFilter
 90
        1
300
11
301
NAME=="*11"
  0
XRECORD
  5
2D5F5
102
{ACAD_REACTORS
330
2D5F2
102
}
330
2D5F2
100
AcDbXrecord
280
     1
  1
AcLyLayerFilter
 90
        1
300
150_
301
NAME=="150_*"
  0
XRECORD
  5
2D5F6
102
{ACAD_REACTORS
330
2D5F2
102
}
330
2D5F2
100
AcDbXrecord
280
     1
  1
AcLyLayerFilter
 90
        1
300
160_
301
NAME=="160_*"
  0
XRECORD
  5
2D5F7
102
{ACAD_REACTORS
330
2D5F2
102
}
330
2D5F2
100
AcDbXrecord
280
     1
  1
AcLyLayerFilter
 90
        1
300
170_
301
NAME=="170_*"
  0
XRECORD
  5
2D5F8
102
{ACAD_REACTORS
330
2D5F2
102
}
330
2D5F2
100
AcDbXrecord
280
     1
  1
AcLyLayerFilter
 90
        1
300
171_
301
NAME=="171_*"
  0
XRECORD
  5
2D5F9
102
{ACAD_REACTORS
330
2D5F2
102
}
330
2D5F2
100
AcDbXrecord
280
     1
  1
AcLyLayerFilter
 90
        1
300
350_
301
NAME=="350_*"
  0
DICTIONARY
  5
2D6C0
330
2D602
100
AcDbDictionary
280
     1
281
     1
  3
ACAD_XREC_ROUNDTRIP
360
2D6C1
  0
DICTIONARY
  5
2D680
330
FB5D
100
AcDbDictionary
280
     1
281
     1
  3
ACAD_XREC_ROUNDTRIP
360
2D681
  0
DICTIONARY
  5
2D6B7
330
2D5C2
100
AcDbDictionary
280
     1
281
     1
  3
ACAD_XREC_ROUNDTRIP
360
2D6B8
  0
DICTIONARY
  5
2D6BC
330
2D5FE
100
AcDbDictionary
280
     1
281
     1
  3
ACAD_XREC_ROUNDTRIP
360
2D6BD
  0
DICTIONARY
  5
2D6B2
330
2D57B
100
AcDbDictionary
280
     1
281
     1
  3
ACAD_XREC_ROUNDTRIP
360
2D6B3
  0
DICTIONARY
  5
2D6B4
330
2D57D
100
AcDbDictionary
280
     1
281
     1
  3
ACAD_XREC_ROUNDTRIP
360
2D6B5
  0
DICTIONARY
  5
2D6BE
330
2D601
100
AcDbDictionary
280
     1
281
     1
  3
ACAD_XREC_ROUNDTRIP
360
2D6BF
  0
DICTIONARY
  5
2D611
330
2D57F
100
AcDbDictionary
280
     1
281
     1
  3
ACAD_ROUNDTRIP_2008_TABLESTYLE_CELLSTYLEMAP
360
2D67B
  3
ACAD_XREC_ROUNDTRIP
360
2D6B6
  0
DICTIONARY
  5
2D68A
330
2D566
100
AcDbDictionary
280
     1
281
     1
  3
ACAD_XREC_ROUNDTRIP
360
2D68B
  0
DICTIONARY
  5
2D690
330
2D569
100
AcDbDictionary
280
     1
281
     1
  3
ACAD_XREC_ROUNDTRIP
360
2D691
  0
DICTIONARY
  5
2D698
330
2D56D
100
AcDbDictionary
280
     1
281
     1
  3
ACAD_XREC_ROUNDTRIP
360
2D699
  0
DICTIONARY
  5
2D6A0
330
2D571
100
AcDbDictionary
280
     1
281
     1
  3
ACAD_XREC_ROUNDTRIP
360
2D6A1
  0
DICTIONARY
  5
2D694
330
2D56B
100
AcDbDictionary
280
     1
281
     1
  3
ACAD_XREC_ROUNDTRIP
360
2D695
  0
DICTIONARY
  5
2D696
330
2D56C
100
AcDbDictionary
280
     1
281
     1
  3
ACAD_XREC_ROUNDTRIP
360
2D697
  0
DICTIONARY
  5
2D6A6
330
2D574
100
AcDbDictionary
280
     1
281
     1
  3
ACAD_XREC_ROUNDTRIP
360
2D6A7
  0
DICTIONARY
  5
2D69E
330
2D570
100
AcDbDictionary
280
     1
281
     1
  3
ACAD_XREC_ROUNDTRIP
360
2D69F
  0
DICTIONARY
  5
2D682
330
2D562
100
AcDbDictionary
280
     1
281
     1
  3
ACAD_XREC_ROUNDTRIP
360
2D683
  0
DICTIONARY
  5
2D684
330
2D563
100
AcDbDictionary
280
     1
281
     1
  3
ACAD_XREC_ROUNDTRIP
360
2D685
  0
DICTIONARY
  5
2D686
330
2D564
100
AcDbDictionary
280
     1
281
     1
  3
ACAD_XREC_ROUNDTRIP
360
2D687
  0
DICTIONARY
  5
2D688
330
2D565
100
AcDbDictionary
280
     1
281
     1
  3
ACAD_XREC_ROUNDTRIP
360
2D689
  0
DICTIONARY
  5
2D68E
330
2D568
100
AcDbDictionary
280
     1
281
     1
  3
ACAD_XREC_ROUNDTRIP
360
2D68F
  0
DICTIONARY
  5
2D6A2
330
2D572
100
AcDbDictionary
280
     1
281
     1
  3
ACAD_XREC_ROUNDTRIP
360
2D6A3
  0
DICTIONARY
  5
2D69C
330
2D56F
100
AcDbDictionary
280
     1
281
     1
  3
ACAD_XREC_ROUNDTRIP
360
2D69D
  0
DICTIONARY
  5
2D6A4
330
2D573
100
AcDbDictionary
280
     1
281
     1
  3
ACAD_XREC_ROUNDTRIP
360
2D6A5
  0
DICTIONARY
  5
2D692
330
2D56A
100
AcDbDictionary
280
     1
281
     1
  3
ACAD_XREC_ROUNDTRIP
360
2D693
  0
DICTIONARY
  5
2D6B0
330
2D579
100
AcDbDictionary
280
     1
281
     1
  3
ACAD_XREC_ROUNDTRIP
360
2D6B1
  0
DICTIONARY
  5
2D6AE
330
2D578
100
AcDbDictionary
280
     1
281
     1
  3
ACAD_XREC_ROUNDTRIP
360
2D6AF
  0
DICTIONARY
  5
2D6A8
330
2D575
100
AcDbDictionary
280
     1
281
     1
  3
ACAD_XREC_ROUNDTRIP
360
2D6A9
  0
DICTIONARY
  5
2D6AA
330
2D576
100
AcDbDictionary
280
     1
281
     1
  3
ACAD_XREC_ROUNDTRIP
360
2D6AB
  0
DICTIONARY
  5
2D69A
330
2D56E
100
AcDbDictionary
280
     1
281
     1
  3
ACAD_XREC_ROUNDTRIP
360
2D69B
  0
DICTIONARY
  5
2D68C
330
2D567
100
AcDbDictionary
280
     1
281
     1
  3
ACAD_XREC_ROUNDTRIP
360
2D68D
  0
DICTIONARY
  5
2D6AC
330
2D577
100
AcDbDictionary
280
     1
281
     1
  3
ACAD_XREC_ROUNDTRIP
360
2D6AD
  0
XRECORD
  5
2D6C1
102
{ACAD_REACTORS
330
2D6C0
102
}
330
2D6C0
100
AcDbXrecord
280
     1
102
DISPLAYNAME
  1
Imperial24
102
FLAGS
 90
        0
  0
XRECORD
  5
2D681
102
{ACAD_REACTORS
330
2D680
102
}
330
2D680
100
AcDbXrecord
280
     1
102
SHADEPLOT
 70
     0
102
SHADEPLOTRESLEVEL
 70
     2
102
SHADEPLOTCUSTOMDPI
 70
   300
  0
XRECORD
  5
2D6B8
102
{ACAD_REACTORS
330
2D6B7
102
}
330
2D6B7
100
AcDbXrecord
280
     1
102
SHADEPLOT
 70
     0
102
SHADEPLOTRESLEVEL
 70
     2
102
SHADEPLOTCUSTOMDPI
 70
   300
  0
XRECORD
  5
2D6BD
102
{ACAD_REACTORS
330
2D6BC
102
}
330
2D6BC
100
AcDbXrecord
280
     1
102
MATERIAL
148
0.0
149
0.0
149
0.0
 93
        0
 94
      127
282
     0
 72
     1
 77
     1
171
     1
175
     1
179
     1
273
     0
  0
XRECORD
  5
2D6B3
102
{ACAD_REACTORS
330
2D6B2
102
}
330
2D6B2
100
AcDbXrecord
280
     1
102
MATERIAL
148
0.0
149
0.0
149
0.0
 93
        0
 94
      127
282
     0
 72
     1
 77
     1
171
     1
175
     1
179
     1
273
     0
  0
XRECORD
  5
2D6B5
102
{ACAD_REACTORS
330
2D6B4
102
}
330
2D6B4
100
AcDbXrecord
280
     1
102
MATERIAL
148
0.0
149
0.0
149
0.0
 93
        0
 94
      127
282
     0
 72
     1
 77
     1
171
     1
175
     1
179
     1
273
     0
  0
XRECORD
  5
2D6BF
102
{ACAD_REACTORS
330
2D6BE
102
}
330
2D6BE
100
AcDbXrecord
280
     1
102
DISPLAYNAME
  1
Imperial24
102
FLAGS
 90
        0
  0
CELLSTYLEMAP
  5
2D67B
102
{ACAD_REACTORS
330
2D611
102
}
330
2D611
100
AcDbCellStyleMap
 90
        3
300
CELLSTYLE
  1
TABLEFORMAT_BEGIN
 90
        5
170
     1
 91
        0
 92
    32768
 62
   257
 93
        1
300
CONTENTFORMAT
  1
CONTENTFORMAT_BEGIN
 90
        0
 91
        0
 92
        4
 93
        0
300

 40
0.0
140
1.0
 94
        5
 62
     0
340
F
144
0.25
309
CONTENTFORMAT_END
171
     1
301
MARGIN
  1
CELLMARGIN_BEGIN
 40
0.06
 40
0.06
 40
0.06
 40
0.06
 40
0.06
 40
0.06
309
CELLMARGIN_END
 94
        6
 95
        1
302
GRIDFORMAT
  1
GRIDFORMAT_BEGIN
 90
        0
 91
        1
 62
     0
 92
       -2
340
12
 93
        0
 40
0.045
309
GRIDFORMAT_END
 95
        2
302
GRIDFORMAT
  1
GRIDFORMAT_BEGIN
 90
        0
 91
        1
 62
     0
 92
       -2
340
12
 93
        0
 40
0.045
309
GRIDFORMAT_END
 95
        4
302
GRIDFORMAT
  1
GRIDFORMAT_BEGIN
 90
        0
 91
        1
 62
     0
 92
       -2
340
12
 93
        0
 40
0.045
309
GRIDFORMAT_END
 95
        8
302
GRIDFORMAT
  1
GRIDFORMAT_BEGIN
 90
        0
 91
        1
 62
     0
 92
       -2
340
12
 93
        0
 40
0.045
309
GRIDFORMAT_END
 95
       16
302
GRIDFORMAT
  1
GRIDFORMAT_BEGIN
 90
        0
 91
        1
 62
     0
 92
       -2
340
12
 93
        0
 40
0.045
309
GRIDFORMAT_END
 95
       32
302
GRIDFORMAT
  1
GRIDFORMAT_BEGIN
 90
        0
 91
        1
 62
     0
 92
       -2
340
12
 93
        0
 40
0.045
309
GRIDFORMAT_END
309
TABLEFORMAT_END
  1
CELLSTYLE_BEGIN
 90
        1
 91
        1
300
_TITLE
309
CELLSTYLE_END
300
CELLSTYLE
  1
TABLEFORMAT_BEGIN
 90
        5
170
     1
 91
        0
 92
        0
 62
   257
 93
        1
300
CONTENTFORMAT
  1
CONTENTFORMAT_BEGIN
 90
        0
 91
        0
 92
        4
 93
        0
300

 40
0.0
140
1.0
 94
        5
 62
     0
340
F
144
0.18
309
CONTENTFORMAT_END
171
     1
301
MARGIN
  1
CELLMARGIN_BEGIN
 40
0.06
 40
0.06
 40
0.06
 40
0.06
 40
0.06
 40
0.06
309
CELLMARGIN_END
 94
        6
 95
        1
302
GRIDFORMAT
  1
GRIDFORMAT_BEGIN
 90
        0
 91
        1
 62
     0
 92
       -2
340
12
 93
        0
 40
0.045
309
GRIDFORMAT_END
 95
        2
302
GRIDFORMAT
  1
GRIDFORMAT_BEGIN
 90
        0
 91
        1
 62
     0
 92
       -2
340
12
 93
        0
 40
0.045
309
GRIDFORMAT_END
 95
        4
302
GRIDFORMAT
  1
GRIDFORMAT_BEGIN
 90
        0
 91
        1
 62
     0
 92
       -2
340
12
 93
        0
 40
0.045
309
GRIDFORMAT_END
 95
        8
302
GRIDFORMAT
  1
GRIDFORMAT_BEGIN
 90
        0
 91
        1
 62
     0
 92
       -2
340
12
 93
        0
 40
0.045
309
GRIDFORMAT_END
 95
       16
302
GRIDFORMAT
  1
GRIDFORMAT_BEGIN
 90
        0
 91
        1
 62
     0
 92
       -2
340
12
 93
        0
 40
0.045
309
GRIDFORMAT_END
 95
       32
302
GRIDFORMAT
  1
GRIDFORMAT_BEGIN
 90
        0
 91
        1
 62
     0
 92
       -2
340
12
 93
        0
 40
0.045
309
GRIDFORMAT_END
309
TABLEFORMAT_END
  1
CELLSTYLE_BEGIN
 90
        2
 91
        1
300
_HEADER
309
CELLSTYLE_END
300
CELLSTYLE
  1
TABLEFORMAT_BEGIN
 90
        5
170
     1
 91
        0
 92
        0
 62
   257
 93
        1
300
CONTENTFORMAT
  1
CONTENTFORMAT_BEGIN
 90
        0
 91
        0
 92
        4
 93
        0
300

 40
0.0
140
1.0
 94
        2
 62
     0
340
F
144
0.18
309
CONTENTFORMAT_END
171
     1
301
MARGIN
  1
CELLMARGIN_BEGIN
 40
0.06
 40
0.06
 40
0.06
 40
0.06
 40
0.06
 40
0.06
309
CELLMARGIN_END
 94
        6
 95
        1
302
GRIDFORMAT
  1
GRIDFORMAT_BEGIN
 90
        0
 91
        1
 62
     0
 92
       -2
340
12
 93
        0
 40
0.045
309
GRIDFORMAT_END
 95
        2
302
GRIDFORMAT
  1
GRIDFORMAT_BEGIN
 90
        0
 91
        1
 62
     0
 92
       -2
340
12
 93
        0
 40
0.045
309
GRIDFORMAT_END
 95
        4
302
GRIDFORMAT
  1
GRIDFORMAT_BEGIN
 90
        0
 91
        1
 62
     0
 92
       -2
340
12
 93
        0
 40
0.045
309
GRIDFORMAT_END
 95
        8
302
GRIDFORMAT
  1
GRIDFORMAT_BEGIN
 90
        0
 91
        1
 62
     0
 92
       -2
340
12
 93
        0
 40
0.045
309
GRIDFORMAT_END
 95
       16
302
GRIDFORMAT
  1
GRIDFORMAT_BEGIN
 90
        0
 91
        1
 62
     0
 92
       -2
340
12
 93
        0
 40
0.045
309
GRIDFORMAT_END
 95
       32
302
GRIDFORMAT
  1
GRIDFORMAT_BEGIN
 90
        0
 91
        1
 62
     0
 92
       -2
340
12
 93
        0
 40
0.045
309
GRIDFORMAT_END
309
TABLEFORMAT_END
  1
CELLSTYLE_BEGIN
 90
        3
 91
        2
300
_DATA
309
CELLSTYLE_END
  0
XRECORD
  5
2D6B6
102
{ACAD_REACTORS
330
2D611
102
}
330
2D611
100
AcDbXrecord
280
     1
102
ACAD_ROUNDTRIP_PRE2007_TABLESTYLE
 90
        4
 91
        0
  1

 92
        4
 93
        0
  2

 94
        4
 95
        0
  3

  0
XRECORD
  5
2D68B
102
{ACAD_REACTORS
330
2D68A
102
}
330
2D68A
100
AcDbXrecord
280
     1
102
RTVSPost2010Prop28
280
     1
102
RTVSPost2010PropOp28
 70
     1
102
RTVSPost2010Prop29
280
     1
102
RTVSPost2010PropOp29
 70
     1
102
RTVSPost2010Prop30
280
     0
102
RTVSPost2010PropOp30
 70
     1
102
RTVSPost2010Prop31
280
     0
102
RTVSPost2010PropOp31
 70
     1
102
RTVSPost2010Prop32
280
     0
102
RTVSPost2010PropOp32
 70
     1
102
RTVSPost2010Prop33
280
     0
102
RTVSPost2010PropOp33
 70
     1
102
RTVSPost2010Prop34
280
     0
102
RTVSPost2010PropOp34
 70
     1
102
RTVSPost2010Prop35
280
     0
102
RTVSPost2010PropOp35
 70
     1
102
RTVSPost2010Prop36
280
     0
102
RTVSPost2010PropOp36
 70
     1
102
RTVSPost2010Prop37
 90
       50
102
RTVSPost2010PropOp37
 70
     1
102
RTVSPost2010Prop38
140
0.0
102
RTVSPost2010PropOp38
 70
     1
102
RTVSPost2010Prop39
140
1.0
102
RTVSPost2010PropOp39
 70
     1
102
RTVSPost2010Prop40
 90
        0
102
RTVSPost2010PropOp40
 70
     1
102
RTVSPost2010Prop41ColorIndex
 90
       18
102
RTVSPost2010Prop41ColorRGB
 90
        0
102
RTVSPost2010PropOp41
 70
     1
102
RTVSPost2010Prop42
 90
       50
102
RTVSPost2010PropOp42
 70
     1
102
RTVSPost2010Prop43
 90
        3
102
RTVSPost2010PropOp43
 70
     1
102
RTVSPost2010Prop44ColorIndex
 90
        5
102
RTVSPost2010Prop44ColorRGB
 90
      255
102
RTVSPost2010PropOp44
 70
     1
102
RTVSPost2010Prop45
280
     0
102
RTVSPost2010PropOp45
 70
     1
102
RTVSPost2010Prop46
 90
       50
102
RTVSPost2010PropOp46
 70
     1
102
RTVSPost2010Prop47
 90
       50
102
RTVSPost2010PropOp47
 70
     1
102
RTVSPost2010Prop48
 90
       50
102
RTVSPost2010PropOp48
 70
     1
102
RTVSPost2010Prop49
280
     0
102
RTVSPost2010PropOp49
 70
     1
102
RTVSPost2010Prop50
 90
       50
102
RTVSPost2010PropOp50
 70
     1
102
RTVSPost2010Prop51ColorIndex
 90
      256
102
RTVSPost2010Prop51ColorRGB
 90
-16777216
102
RTVSPost2010PropOp51
 70
     0
102
RTVSPost2010Prop52
140
1.0
102
RTVSPost2010PropOp52
 70
     0
102
RTVSPost2010Prop53
 90
        2
102
RTVSPost2010PropOp53
 70
     1
102
RTVSPost2010Prop54
  1
strokes_ogs.tif
102
RTVSPost2010PropOp54
 70
     1
102
RTVSPost2010Prop55
280
     0
102
RTVSPost2010PropOp55
 70
     1
102
RTVSPost2010Prop56
140
1.0
102
RTVSPost2010PropOp56
 70
     1
102
RTVSPost2010Prop57
140
1.0
102
RTVSPost2010PropOp57
 70
     1
102
RTVSPropertyOp0
 70
     1
102
RTVSPropertyOp1
 70
     1
102
RTVSPropertyOp2
 70
     1
102
RTVSPropertyOp3
 70
     1
102
RTVSPropertyOp4
 70
     1
102
RTVSPropertyOp5
 70
     1
102
RTVSPropertyOp6
 70
     1
102
RTVSPropertyOp7
 70
     1
102
RTVSPropertyOp8
 70
     1
102
RTVSPropertyOp9
 70
     1
102
RTVSPropertyOp10
 70
     1
102
RTVSPropertyOp11
 70
     1
102
RTVSPropertyOp12
 70
     1
102
RTVSPropertyOp13
 70
     1
102
RTVSPropertyOp14
 70
     1
102
RTVSPropertyOp15
 70
     1
102
RTVSPropertyOp16
 70
     1
102
RTVSPropertyOp17
 70
     1
102
RTVSPropertyOp18
 70
     1
102
RTVSPropertyOp19
 70
     1
102
RTVSPropertyOp20
 70
     1
102
RTVSPropertyOp21
 70
     1
102
RTVSPropertyOp22
 70
     1
102
RTVSPropertyOp23
 70
     1
102
RTVSPropertyOp24
 70
     1
102
RTVSPropertyOp25
 70
     1
102
RTVSPropertyOp26
 70
     1
102
RTVSPropertyOp27
 70
     1
102
RTVSPropertyOp28
 70
     1
102
RTVSPropertyOp29
 70
     1
102
RTVSPropertyOp30
 70
     1
102
RTVSPropertyOp31
 70
     1
102
RTVSPropertyOp32
 70
     1
102
RTVSPropertyOp33
 70
     1
102
RTVSPropertyOp34
 70
     1
102
RTVSPropertyOp35
 70
     1
102
RTVSPropertyOp36
 70
     1
102
RTVSPropertyOp37
 70
     1
102
RTVSPropertyOp38
 70
     1
102
RTVSPropertyOp39
 70
     1
102
RTVSPropertyOp40
 70
     1
102
RTVSPropertyOp41
 70
     1
102
RTVSPropertyOp42
 70
     1
102
RTVSPropertyOp43
 70
     1
102
RTVSPropertyOp44
 70
     1
102
RTVSPropertyOp45
 70
     1
102
RTVSPropertyOp46
 70
     1
102
RTVSPropertyOp47
 70
     1
102
RTVSPropertyOp48
 70
     1
102
RTVSPropertyOp49
 70
     1
102
RTVSPropertyOp50
 70
     1
102
RTVSPropertyOp51
 70
     0
102
RTVSPropertyOp52
 70
     0
102
RTVSPropertyOp53
 70
     1
102
RTVSPropertyOp54
 70
     1
102
RTVSPropertyOp55
 70
     1
102
RTVSPropertyOp56
 70
     1
102
RTVSPropertyOp57
 70
     1
102
RTVSPropertyOp58
 70
     1
102
RTVSPropertyOp59
 70
     1
102
RTVSPropertyOp60
 70
     1
102
RTVSPropertyOp61
 70
     1
102
RTVSPropertyOp62
 70
     1
  0
XRECORD
  5
2D691
102
{ACAD_REACTORS
330
2D690
102
}
330
2D690
100
AcDbXrecord
280
     1
102
RTVSPost2010Prop28
280
     0
102
RTVSPost2010PropOp28
 70
     1
102
RTVSPost2010Prop29
280
     1
102
RTVSPost2010PropOp29
 70
     1
102
RTVSPost2010Prop30
280
     1
102
RTVSPost2010PropOp30
 70
     1
102
RTVSPost2010Prop31
280
     0
102
RTVSPost2010PropOp31
 70
     1
102
RTVSPost2010Prop32
280
     0
102
RTVSPost2010PropOp32
 70
     1
102
RTVSPost2010Prop33
280
     0
102
RTVSPost2010PropOp33
 70
     1
102
RTVSPost2010Prop34
280
     0
102
RTVSPost2010PropOp34
 70
     1
102
RTVSPost2010Prop35
280
     0
102
RTVSPost2010PropOp35
 70
     1
102
RTVSPost2010Prop36
280
     0
102
RTVSPost2010PropOp36
 70
     1
102
RTVSPost2010Prop37
 90
       50
102
RTVSPost2010PropOp37
 70
     1
102
RTVSPost2010Prop38
140
0.0
102
RTVSPost2010PropOp38
 70
     1
102
RTVSPost2010Prop39
140
1.0
102
RTVSPost2010PropOp39
 70
     1
102
RTVSPost2010Prop40
 90
        0
102
RTVSPost2010PropOp40
 70
     1
102
RTVSPost2010Prop41ColorIndex
 90
       18
102
RTVSPost2010Prop41ColorRGB
 90
        0
102
RTVSPost2010PropOp41
 70
     1
102
RTVSPost2010Prop42
 90
       50
102
RTVSPost2010PropOp42
 70
     1
102
RTVSPost2010Prop43
 90
        3
102
RTVSPost2010PropOp43
 70
     1
102
RTVSPost2010Prop44ColorIndex
 90
        5
102
RTVSPost2010Prop44ColorRGB
 90
      255
102
RTVSPost2010PropOp44
 70
     1
102
RTVSPost2010Prop45
280
     0
102
RTVSPost2010PropOp45
 70
     1
102
RTVSPost2010Prop46
 90
       50
102
RTVSPost2010PropOp46
 70
     1
102
RTVSPost2010Prop47
 90
       50
102
RTVSPost2010PropOp47
 70
     1
102
RTVSPost2010Prop48
 90
       50
102
RTVSPost2010PropOp48
 70
     1
102
RTVSPost2010Prop49
280
     0
102
RTVSPost2010PropOp49
 70
     1
102
RTVSPost2010Prop50
 90
       50
102
RTVSPost2010PropOp50
 70
     1
102
RTVSPost2010Prop51ColorIndex
 90
      256
102
RTVSPost2010Prop51ColorRGB
 90
-16777216
102
RTVSPost2010PropOp51
 70
     0
102
RTVSPost2010Prop52
140
1.0
102
RTVSPost2010PropOp52
 70
     0
102
RTVSPost2010Prop53
 90
        2
102
RTVSPost2010PropOp53
 70
     1
102
RTVSPost2010Prop54
  1
strokes_ogs.tif
102
RTVSPost2010PropOp54
 70
     1
102
RTVSPost2010Prop55
280
     0
102
RTVSPost2010PropOp55
 70
     1
102
RTVSPost2010Prop56
140
1.0
102
RTVSPost2010PropOp56
 70
     1
102
RTVSPost2010Prop57
140
1.0
102
RTVSPost2010PropOp57
 70
     1
102
RTVSPropertyOp0
 70
     1
102
RTVSPropertyOp1
 70
     1
102
RTVSPropertyOp2
 70
     1
102
RTVSPropertyOp3
 70
     1
102
RTVSPropertyOp4
 70
     1
102
RTVSPropertyOp5
 70
     1
102
RTVSPropertyOp6
 70
     1
102
RTVSPropertyOp7
 70
     1
102
RTVSPropertyOp8
 70
     1
102
RTVSPropertyOp9
 70
     1
102
RTVSPropertyOp10
 70
     1
102
RTVSPropertyOp11
 70
     1
102
RTVSPropertyOp12
 70
     1
102
RTVSPropertyOp13
 70
     1
102
RTVSPropertyOp14
 70
     1
102
RTVSPropertyOp15
 70
     1
102
RTVSPropertyOp16
 70
     1
102
RTVSPropertyOp17
 70
     1
102
RTVSPropertyOp18
 70
     1
102
RTVSPropertyOp19
 70
     1
102
RTVSPropertyOp20
 70
     1
102
RTVSPropertyOp21
 70
     1
102
RTVSPropertyOp22
 70
     1
102
RTVSPropertyOp23
 70
     1
102
RTVSPropertyOp24
 70
     1
102
RTVSPropertyOp25
 70
     1
102
RTVSPropertyOp26
 70
     1
102
RTVSPropertyOp27
 70
     1
102
RTVSPropertyOp28
 70
     1
102
RTVSPropertyOp29
 70
     1
102
RTVSPropertyOp30
 70
     1
102
RTVSPropertyOp31
 70
     1
102
RTVSPropertyOp32
 70
     1
102
RTVSPropertyOp33
 70
     1
102
RTVSPropertyOp34
 70
     1
102
RTVSPropertyOp35
 70
     1
102
RTVSPropertyOp36
 70
     1
102
RTVSPropertyOp37
 70
     1
102
RTVSPropertyOp38
 70
     1
102
RTVSPropertyOp39
 70
     1
102
RTVSPropertyOp40
 70
     1
102
RTVSPropertyOp41
 70
     1
102
RTVSPropertyOp42
 70
     1
102
RTVSPropertyOp43
 70
     1
102
RTVSPropertyOp44
 70
     1
102
RTVSPropertyOp45
 70
     1
102
RTVSPropertyOp46
 70
     1
102
RTVSPropertyOp47
 70
     1
102
RTVSPropertyOp48
 70
     1
102
RTVSPropertyOp49
 70
     1
102
RTVSPropertyOp50
 70
     1
102
RTVSPropertyOp51
 70
     0
102
RTVSPropertyOp52
 70
     0
102
RTVSPropertyOp53
 70
     1
102
RTVSPropertyOp54
 70
     1
102
RTVSPropertyOp55
 70
     1
102
RTVSPropertyOp56
 70
     1
102
RTVSPropertyOp57
 70
     1
102
RTVSPropertyOp58
 70
     1
102
RTVSPropertyOp59
 70
     1
102
RTVSPropertyOp60
 70
     1
102
RTVSPropertyOp61
 70
     1
102
RTVSPropertyOp62
 70
     1
  0
XRECORD
  5
2D699
102
{ACAD_REACTORS
330
2D698
102
}
330
2D698
100
AcDbXrecord
280
     1
102
RTVSPost2010Prop28
280
     0
102
RTVSPost2010PropOp28
 70
     1
102
RTVSPost2010Prop29
280
     1
102
RTVSPost2010PropOp29
 70
     1
102
RTVSPost2010Prop30
280
     1
102
RTVSPost2010PropOp30
 70
     1
102
RTVSPost2010Prop31
280
     0
102
RTVSPost2010PropOp31
 70
     1
102
RTVSPost2010Prop32
280
     0
102
RTVSPost2010PropOp32
 70
     1
102
RTVSPost2010Prop33
280
     0
102
RTVSPost2010PropOp33
 70
     1
102
RTVSPost2010Prop34
280
     0
102
RTVSPost2010PropOp34
 70
     1
102
RTVSPost2010Prop35
280
     0
102
RTVSPost2010PropOp35
 70
     1
102
RTVSPost2010Prop36
280
     0
102
RTVSPost2010PropOp36
 70
     1
102
RTVSPost2010Prop37
 90
       50
102
RTVSPost2010PropOp37
 70
     1
102
RTVSPost2010Prop38
140
0.0
102
RTVSPost2010PropOp38
 70
     1
102
RTVSPost2010Prop39
140
1.0
102
RTVSPost2010PropOp39
 70
     1
102
RTVSPost2010Prop40
 90
        0
102
RTVSPost2010PropOp40
 70
     1
102
RTVSPost2010Prop41ColorIndex
 90
       18
102
RTVSPost2010Prop41ColorRGB
 90
        0
102
RTVSPost2010PropOp41
 70
     1
102
RTVSPost2010Prop42
 90
       50
102
RTVSPost2010PropOp42
 70
     1
102
RTVSPost2010Prop43
 90
        3
102
RTVSPost2010PropOp43
 70
     1
102
RTVSPost2010Prop44ColorIndex
 90
        5
102
RTVSPost2010Prop44ColorRGB
 90
      255
102
RTVSPost2010PropOp44
 70
     1
102
RTVSPost2010Prop45
280
     0
102
RTVSPost2010PropOp45
 70
     1
102
RTVSPost2010Prop46
 90
       50
102
RTVSPost2010PropOp46
 70
     1
102
RTVSPost2010Prop47
 90
       50
102
RTVSPost2010PropOp47
 70
     1
102
RTVSPost2010Prop48
 90
       50
102
RTVSPost2010PropOp48
 70
     1
102
RTVSPost2010Prop49
280
     0
102
RTVSPost2010PropOp49
 70
     1
102
RTVSPost2010Prop50
 90
       50
102
RTVSPost2010PropOp50
 70
     1
102
RTVSPost2010Prop51ColorIndex
 90
      256
102
RTVSPost2010Prop51ColorRGB
 90
-16777216
102
RTVSPost2010PropOp51
 70
     0
102
RTVSPost2010Prop52
140
1.0
102
RTVSPost2010PropOp52
 70
     0
102
RTVSPost2010Prop53
 90
        2
102
RTVSPost2010PropOp53
 70
     1
102
RTVSPost2010Prop54
  1
strokes_ogs.tif
102
RTVSPost2010PropOp54
 70
     1
102
RTVSPost2010Prop55
280
     0
102
RTVSPost2010PropOp55
 70
     1
102
RTVSPost2010Prop56
140
1.0
102
RTVSPost2010PropOp56
 70
     1
102
RTVSPost2010Prop57
140
1.0
102
RTVSPost2010PropOp57
 70
     1
102
RTVSPropertyOp0
 70
     1
102
RTVSPropertyOp1
 70
     1
102
RTVSPropertyOp2
 70
     1
102
RTVSPropertyOp3
 70
     1
102
RTVSPropertyOp4
 70
     1
102
RTVSPropertyOp5
 70
     1
102
RTVSPropertyOp6
 70
     1
102
RTVSPropertyOp7
 70
     1
102
RTVSPropertyOp8
 70
     1
102
RTVSPropertyOp9
 70
     1
102
RTVSPropertyOp10
 70
     1
102
RTVSPropertyOp11
 70
     1
102
RTVSPropertyOp12
 70
     1
102
RTVSPropertyOp13
 70
     1
102
RTVSPropertyOp14
 70
     1
102
RTVSPropertyOp15
 70
     1
102
RTVSPropertyOp16
 70
     1
102
RTVSPropertyOp17
 70
     1
102
RTVSPropertyOp18
 70
     1
102
RTVSPropertyOp19
 70
     1
102
RTVSPropertyOp20
 70
     1
102
RTVSPropertyOp21
 70
     1
102
RTVSPropertyOp22
 70
     1
102
RTVSPropertyOp23
 70
     1
102
RTVSPropertyOp24
 70
     1
102
RTVSPropertyOp25
 70
     1
102
RTVSPropertyOp26
 70
     1
102
RTVSPropertyOp27
 70
     1
102
RTVSPropertyOp28
 70
     1
102
RTVSPropertyOp29
 70
     1
102
RTVSPropertyOp30
 70
     1
102
RTVSPropertyOp31
 70
     1
102
RTVSPropertyOp32
 70
     1
102
RTVSPropertyOp33
 70
     1
102
RTVSPropertyOp34
 70
     1
102
RTVSPropertyOp35
 70
     1
102
RTVSPropertyOp36
 70
     1
102
RTVSPropertyOp37
 70
     1
102
RTVSPropertyOp38
 70
     1
102
RTVSPropertyOp39
 70
     1
102
RTVSPropertyOp40
 70
     1
102
RTVSPropertyOp41
 70
     1
102
RTVSPropertyOp42
 70
     1
102
RTVSPropertyOp43
 70
     1
102
RTVSPropertyOp44
 70
     1
102
RTVSPropertyOp45
 70
     1
102
RTVSPropertyOp46
 70
     1
102
RTVSPropertyOp47
 70
     1
102
RTVSPropertyOp48
 70
     1
102
RTVSPropertyOp49
 70
     1
102
RTVSPropertyOp50
 70
     1
102
RTVSPropertyOp51
 70
     0
102
RTVSPropertyOp52
 70
     0
102
RTVSPropertyOp53
 70
     1
102
RTVSPropertyOp54
 70
     1
102
RTVSPropertyOp55
 70
     1
102
RTVSPropertyOp56
 70
     1
102
RTVSPropertyOp57
 70
     1
102
RTVSPropertyOp58
 70
     1
102
RTVSPropertyOp59
 70
     1
102
RTVSPropertyOp60
 70
     1
102
RTVSPropertyOp61
 70
     1
102
RTVSPropertyOp62
 70
     1
  0
XRECORD
  5
2D6A1
102
{ACAD_REACTORS
330
2D6A0
102
}
330
2D6A0
100
AcDbXrecord
280
     1
102
RTVSPost2010Prop28
280
     0
102
RTVSPost2010PropOp28
 70
     1
102
RTVSPost2010Prop29
280
     1
102
RTVSPost2010PropOp29
 70
     1
102
RTVSPost2010Prop30
280
     1
102
RTVSPost2010PropOp30
 70
     1
102
RTVSPost2010Prop31
280
     0
102
RTVSPost2010PropOp31
 70
     1
102
RTVSPost2010Prop32
280
     0
102
RTVSPost2010PropOp32
 70
     1
102
RTVSPost2010Prop33
280
     0
102
RTVSPost2010PropOp33
 70
     1
102
RTVSPost2010Prop34
280
     0
102
RTVSPost2010PropOp34
 70
     1
102
RTVSPost2010Prop35
280
     0
102
RTVSPost2010PropOp35
 70
     1
102
RTVSPost2010Prop36
280
     0
102
RTVSPost2010PropOp36
 70
     1
102
RTVSPost2010Prop37
 90
       50
102
RTVSPost2010PropOp37
 70
     1
102
RTVSPost2010Prop38
140
0.0
102
RTVSPost2010PropOp38
 70
     1
102
RTVSPost2010Prop39
140
1.0
102
RTVSPost2010PropOp39
 70
     1
102
RTVSPost2010Prop40
 90
        0
102
RTVSPost2010PropOp40
 70
     1
102
RTVSPost2010Prop41ColorIndex
 90
       18
102
RTVSPost2010Prop41ColorRGB
 90
        0
102
RTVSPost2010PropOp41
 70
     1
102
RTVSPost2010Prop42
 90
       50
102
RTVSPost2010PropOp42
 70
     1
102
RTVSPost2010Prop43
 90
        3
102
RTVSPost2010PropOp43
 70
     1
102
RTVSPost2010Prop44ColorIndex
 90
        5
102
RTVSPost2010Prop44ColorRGB
 90
      255
102
RTVSPost2010PropOp44
 70
     1
102
RTVSPost2010Prop45
280
     0
102
RTVSPost2010PropOp45
 70
     1
102
RTVSPost2010Prop46
 90
       50
102
RTVSPost2010PropOp46
 70
     1
102
RTVSPost2010Prop47
 90
       50
102
RTVSPost2010PropOp47
 70
     1
102
RTVSPost2010Prop48
 90
       50
102
RTVSPost2010PropOp48
 70
     1
102
RTVSPost2010Prop49
280
     0
102
RTVSPost2010PropOp49
 70
     1
102
RTVSPost2010Prop50
 90
       50
102
RTVSPost2010PropOp50
 70
     1
102
RTVSPost2010Prop51ColorIndex
 90
      256
102
RTVSPost2010Prop51ColorRGB
 90
-16777216
102
RTVSPost2010PropOp51
 70
     0
102
RTVSPost2010Prop52
140
1.0
102
RTVSPost2010PropOp52
 70
     0
102
RTVSPost2010Prop53
 90
        2
102
RTVSPost2010PropOp53
 70
     1
102
RTVSPost2010Prop54
  1
strokes_ogs.tif
102
RTVSPost2010PropOp54
 70
     1
102
RTVSPost2010Prop55
280
     0
102
RTVSPost2010PropOp55
 70
     1
102
RTVSPost2010Prop56
140
1.0
102
RTVSPost2010PropOp56
 70
     1
102
RTVSPost2010Prop57
140
1.0
102
RTVSPost2010PropOp57
 70
     1
102
RTVSPropertyOp0
 70
     1
102
RTVSPropertyOp1
 70
     1
102
RTVSPropertyOp2
 70
     1
102
RTVSPropertyOp3
 70
     1
102
RTVSPropertyOp4
 70
     1
102
RTVSPropertyOp5
 70
     1
102
RTVSPropertyOp6
 70
     1
102
RTVSPropertyOp7
 70
     1
102
RTVSPropertyOp8
 70
     1
102
RTVSPropertyOp9
 70
     1
102
RTVSPropertyOp10
 70
     1
102
RTVSPropertyOp11
 70
     1
102
RTVSPropertyOp12
 70
     1
102
RTVSPropertyOp13
 70
     1
102
RTVSPropertyOp14
 70
     1
102
RTVSPropertyOp15
 70
     1
102
RTVSPropertyOp16
 70
     1
102
RTVSPropertyOp17
 70
     1
102
RTVSPropertyOp18
 70
     1
102
RTVSPropertyOp19
 70
     1
102
RTVSPropertyOp20
 70
     1
102
RTVSPropertyOp21
 70
     1
102
RTVSPropertyOp22
 70
     1
102
RTVSPropertyOp23
 70
     1
102
RTVSPropertyOp24
 70
     1
102
RTVSPropertyOp25
 70
     1
102
RTVSPropertyOp26
 70
     1
102
RTVSPropertyOp27
 70
     1
102
RTVSPropertyOp28
 70
     1
102
RTVSPropertyOp29
 70
     1
102
RTVSPropertyOp30
 70
     1
102
RTVSPropertyOp31
 70
     1
102
RTVSPropertyOp32
 70
     1
102
RTVSPropertyOp33
 70
     1
102
RTVSPropertyOp34
 70
     1
102
RTVSPropertyOp35
 70
     1
102
RTVSPropertyOp36
 70
     1
102
RTVSPropertyOp37
 70
     1
102
RTVSPropertyOp38
 70
     1
102
RTVSPropertyOp39
 70
     1
102
RTVSPropertyOp40
 70
     1
102
RTVSPropertyOp41
 70
     1
102
RTVSPropertyOp42
 70
     1
102
RTVSPropertyOp43
 70
     1
102
RTVSPropertyOp44
 70
     1
102
RTVSPropertyOp45
 70
     1
102
RTVSPropertyOp46
 70
     1
102
RTVSPropertyOp47
 70
     1
102
RTVSPropertyOp48
 70
     1
102
RTVSPropertyOp49
 70
     1
102
RTVSPropertyOp50
 70
     1
102
RTVSPropertyOp51
 70
     0
102
RTVSPropertyOp52
 70
     0
102
RTVSPropertyOp53
 70
     1
102
RTVSPropertyOp54
 70
     1
102
RTVSPropertyOp55
 70
     1
102
RTVSPropertyOp56
 70
     1
102
RTVSPropertyOp57
 70
     1
102
RTVSPropertyOp58
 70
     1
102
RTVSPropertyOp59
 70
     1
102
RTVSPropertyOp60
 70
     1
102
RTVSPropertyOp61
 70
     1
102
RTVSPropertyOp62
 70
     1
  0
XRECORD
  5
2D695
102
{ACAD_REACTORS
330
2D694
102
}
330
2D694
100
AcDbXrecord
280
     1
102
RTVSPost2010Prop28
280
     0
102
RTVSPost2010PropOp28
 70
     1
102
RTVSPost2010Prop29
280
     1
102
RTVSPost2010PropOp29
 70
     1
102
RTVSPost2010Prop30
280
     1
102
RTVSPost2010PropOp30
 70
     1
102
RTVSPost2010Prop31
280
     0
102
RTVSPost2010PropOp31
 70
     1
102
RTVSPost2010Prop32
280
     0
102
RTVSPost2010PropOp32
 70
     1
102
RTVSPost2010Prop33
280
     0
102
RTVSPost2010PropOp33
 70
     1
102
RTVSPost2010Prop34
280
     0
102
RTVSPost2010PropOp34
 70
     1
102
RTVSPost2010Prop35
280
     0
102
RTVSPost2010PropOp35
 70
     1
102
RTVSPost2010Prop36
280
     0
102
RTVSPost2010PropOp36
 70
     1
102
RTVSPost2010Prop37
 90
       50
102
RTVSPost2010PropOp37
 70
     1
102
RTVSPost2010Prop38
140
0.0
102
RTVSPost2010PropOp38
 70
     1
102
RTVSPost2010Prop39
140
1.0
102
RTVSPost2010PropOp39
 70
     1
102
RTVSPost2010Prop40
 90
        0
102
RTVSPost2010PropOp40
 70
     1
102
RTVSPost2010Prop41ColorIndex
 90
       18
102
RTVSPost2010Prop41ColorRGB
 90
        0
102
RTVSPost2010PropOp41
 70
     1
102
RTVSPost2010Prop42
 90
       50
102
RTVSPost2010PropOp42
 70
     1
102
RTVSPost2010Prop43
 90
        3
102
RTVSPost2010PropOp43
 70
     1
102
RTVSPost2010Prop44ColorIndex
 90
        5
102
RTVSPost2010Prop44ColorRGB
 90
      255
102
RTVSPost2010PropOp44
 70
     1
102
RTVSPost2010Prop45
280
     0
102
RTVSPost2010PropOp45
 70
     1
102
RTVSPost2010Prop46
 90
       50
102
RTVSPost2010PropOp46
 70
     1
102
RTVSPost2010Prop47
 90
       50
102
RTVSPost2010PropOp47
 70
     1
102
RTVSPost2010Prop48
 90
       50
102
RTVSPost2010PropOp48
 70
     1
102
RTVSPost2010Prop49
280
     0
102
RTVSPost2010PropOp49
 70
     1
102
RTVSPost2010Prop50
 90
       50
102
RTVSPost2010PropOp50
 70
     1
102
RTVSPost2010Prop51ColorIndex
 90
      256
102
RTVSPost2010Prop51ColorRGB
 90
-16777216
102
RTVSPost2010PropOp51
 70
     0
102
RTVSPost2010Prop52
140
1.0
102
RTVSPost2010PropOp52
 70
     0
102
RTVSPost2010Prop53
 90
        2
102
RTVSPost2010PropOp53
 70
     1
102
RTVSPost2010Prop54
  1
strokes_ogs.tif
102
RTVSPost2010PropOp54
 70
     1
102
RTVSPost2010Prop55
280
     0
102
RTVSPost2010PropOp55
 70
     1
102
RTVSPost2010Prop56
140
1.0
102
RTVSPost2010PropOp56
 70
     1
102
RTVSPost2010Prop57
140
1.0
102
RTVSPost2010PropOp57
 70
     1
102
RTVSPropertyOp0
 70
     1
102
RTVSPropertyOp1
 70
     1
102
RTVSPropertyOp2
 70
     1
102
RTVSPropertyOp3
 70
     1
102
RTVSPropertyOp4
 70
     1
102
RTVSPropertyOp5
 70
     1
102
RTVSPropertyOp6
 70
     1
102
RTVSPropertyOp7
 70
     1
102
RTVSPropertyOp8
 70
     1
102
RTVSPropertyOp9
 70
     1
102
RTVSPropertyOp10
 70
     1
102
RTVSPropertyOp11
 70
     1
102
RTVSPropertyOp12
 70
     1
102
RTVSPropertyOp13
 70
     1
102
RTVSPropertyOp14
 70
     1
102
RTVSPropertyOp15
 70
     1
102
RTVSPropertyOp16
 70
     1
102
RTVSPropertyOp17
 70
     1
102
RTVSPropertyOp18
 70
     1
102
RTVSPropertyOp19
 70
     1
102
RTVSPropertyOp20
 70
     1
102
RTVSPropertyOp21
 70
     1
102
RTVSPropertyOp22
 70
     1
102
RTVSPropertyOp23
 70
     1
102
RTVSPropertyOp24
 70
     1
102
RTVSPropertyOp25
 70
     1
102
RTVSPropertyOp26
 70
     1
102
RTVSPropertyOp27
 70
     1
102
RTVSPropertyOp28
 70
     1
102
RTVSPropertyOp29
 70
     1
102
RTVSPropertyOp30
 70
     1
102
RTVSPropertyOp31
 70
     1
102
RTVSPropertyOp32
 70
     1
102
RTVSPropertyOp33
 70
     1
102
RTVSPropertyOp34
 70
     1
102
RTVSPropertyOp35
 70
     1
102
RTVSPropertyOp36
 70
     1
102
RTVSPropertyOp37
 70
     1
102
RTVSPropertyOp38
 70
     1
102
RTVSPropertyOp39
 70
     1
102
RTVSPropertyOp40
 70
     1
102
RTVSPropertyOp41
 70
     1
102
RTVSPropertyOp42
 70
     1
102
RTVSPropertyOp43
 70
     1
102
RTVSPropertyOp44
 70
     1
102
RTVSPropertyOp45
 70
     1
102
RTVSPropertyOp46
 70
     1
102
RTVSPropertyOp47
 70
     1
102
RTVSPropertyOp48
 70
     1
102
RTVSPropertyOp49
 70
     1
102
RTVSPropertyOp50
 70
     1
102
RTVSPropertyOp51
 70
     0
102
RTVSPropertyOp52
 70
     0
102
RTVSPropertyOp53
 70
     1
102
RTVSPropertyOp54
 70
     1
102
RTVSPropertyOp55
 70
     1
102
RTVSPropertyOp56
 70
     1
102
RTVSPropertyOp57
 70
     1
102
RTVSPropertyOp58
 70
     1
102
RTVSPropertyOp59
 70
     1
102
RTVSPropertyOp60
 70
     1
102
RTVSPropertyOp61
 70
     1
102
RTVSPropertyOp62
 70
     1
  0
XRECORD
  5
2D697
102
{ACAD_REACTORS
330
2D696
102
}
330
2D696
100
AcDbXrecord
280
     1
102
RTVSPost2010Prop28
280
     0
102
RTVSPost2010PropOp28
 70
     1
102
RTVSPost2010Prop29
280
     1
102
RTVSPost2010PropOp29
 70
     1
102
RTVSPost2010Prop30
280
     1
102
RTVSPost2010PropOp30
 70
     1
102
RTVSPost2010Prop31
280
     0
102
RTVSPost2010PropOp31
 70
     1
102
RTVSPost2010Prop32
280
     0
102
RTVSPost2010PropOp32
 70
     1
102
RTVSPost2010Prop33
280
     0
102
RTVSPost2010PropOp33
 70
     1
102
RTVSPost2010Prop34
280
     0
102
RTVSPost2010PropOp34
 70
     1
102
RTVSPost2010Prop35
280
     0
102
RTVSPost2010PropOp35
 70
     1
102
RTVSPost2010Prop36
280
     0
102
RTVSPost2010PropOp36
 70
     1
102
RTVSPost2010Prop37
 90
       50
102
RTVSPost2010PropOp37
 70
     1
102
RTVSPost2010Prop38
140
0.0
102
RTVSPost2010PropOp38
 70
     1
102
RTVSPost2010Prop39
140
1.0
102
RTVSPost2010PropOp39
 70
     1
102
RTVSPost2010Prop40
 90
        0
102
RTVSPost2010PropOp40
 70
     1
102
RTVSPost2010Prop41ColorIndex
 90
       18
102
RTVSPost2010Prop41ColorRGB
 90
        0
102
RTVSPost2010PropOp41
 70
     1
102
RTVSPost2010Prop42
 90
       50
102
RTVSPost2010PropOp42
 70
     1
102
RTVSPost2010Prop43
 90
        3
102
RTVSPost2010PropOp43
 70
     1
102
RTVSPost2010Prop44ColorIndex
 90
        5
102
RTVSPost2010Prop44ColorRGB
 90
      255
102
RTVSPost2010PropOp44
 70
     1
102
RTVSPost2010Prop45
280
     0
102
RTVSPost2010PropOp45
 70
     1
102
RTVSPost2010Prop46
 90
       50
102
RTVSPost2010PropOp46
 70
     1
102
RTVSPost2010Prop47
 90
       50
102
RTVSPost2010PropOp47
 70
     1
102
RTVSPost2010Prop48
 90
       50
102
RTVSPost2010PropOp48
 70
     1
102
RTVSPost2010Prop49
280
     0
102
RTVSPost2010PropOp49
 70
     1
102
RTVSPost2010Prop50
 90
       50
102
RTVSPost2010PropOp50
 70
     1
102
RTVSPost2010Prop51ColorIndex
 90
      256
102
RTVSPost2010Prop51ColorRGB
 90
-16777216
102
RTVSPost2010PropOp51
 70
     0
102
RTVSPost2010Prop52
140
1.0
102
RTVSPost2010PropOp52
 70
     0
102
RTVSPost2010Prop53
 90
        2
102
RTVSPost2010PropOp53
 70
     1
102
RTVSPost2010Prop54
  1
strokes_ogs.tif
102
RTVSPost2010PropOp54
 70
     1
102
RTVSPost2010Prop55
280
     0
102
RTVSPost2010PropOp55
 70
     1
102
RTVSPost2010Prop56
140
1.0
102
RTVSPost2010PropOp56
 70
     1
102
RTVSPost2010Prop57
140
1.0
102
RTVSPost2010PropOp57
 70
     1
102
RTVSPropertyOp0
 70
     1
102
RTVSPropertyOp1
 70
     1
102
RTVSPropertyOp2
 70
     1
102
RTVSPropertyOp3
 70
     1
102
RTVSPropertyOp4
 70
     1
102
RTVSPropertyOp5
 70
     1
102
RTVSPropertyOp6
 70
     1
102
RTVSPropertyOp7
 70
     1
102
RTVSPropertyOp8
 70
     1
102
RTVSPropertyOp9
 70
     1
102
RTVSPropertyOp10
 70
     1
102
RTVSPropertyOp11
 70
     1
102
RTVSPropertyOp12
 70
     1
102
RTVSPropertyOp13
 70
     1
102
RTVSPropertyOp14
 70
     1
102
RTVSPropertyOp15
 70
     1
102
RTVSPropertyOp16
 70
     1
102
RTVSPropertyOp17
 70
     1
102
RTVSPropertyOp18
 70
     1
102
RTVSPropertyOp19
 70
     1
102
RTVSPropertyOp20
 70
     1
102
RTVSPropertyOp21
 70
     1
102
RTVSPropertyOp22
 70
     1
102
RTVSPropertyOp23
 70
     1
102
RTVSPropertyOp24
 70
     1
102
RTVSPropertyOp25
 70
     1
102
RTVSPropertyOp26
 70
     1
102
RTVSPropertyOp27
 70
     1
102
RTVSPropertyOp28
 70
     1
102
RTVSPropertyOp29
 70
     1
102
RTVSPropertyOp30
 70
     1
102
RTVSPropertyOp31
 70
     1
102
RTVSPropertyOp32
 70
     1
102
RTVSPropertyOp33
 70
     1
102
RTVSPropertyOp34
 70
     1
102
RTVSPropertyOp35
 70
     1
102
RTVSPropertyOp36
 70
     1
102
RTVSPropertyOp37
 70
     1
102
RTVSPropertyOp38
 70
     1
102
RTVSPropertyOp39
 70
     1
102
RTVSPropertyOp40
 70
     1
102
RTVSPropertyOp41
 70
     1
102
RTVSPropertyOp42
 70
     1
102
RTVSPropertyOp43
 70
     1
102
RTVSPropertyOp44
 70
     1
102
RTVSPropertyOp45
 70
     1
102
RTVSPropertyOp46
 70
     1
102
RTVSPropertyOp47
 70
     1
102
RTVSPropertyOp48
 70
     1
102
RTVSPropertyOp49
 70
     1
102
RTVSPropertyOp50
 70
     1
102
RTVSPropertyOp51
 70
     0
102
RTVSPropertyOp52
 70
     0
102
RTVSPropertyOp53
 70
     1
102
RTVSPropertyOp54
 70
     1
102
RTVSPropertyOp55
 70
     1
102
RTVSPropertyOp56
 70
     1
102
RTVSPropertyOp57
 70
     1
102
RTVSPropertyOp58
 70
     1
102
RTVSPropertyOp59
 70
     1
102
RTVSPropertyOp60
 70
     1
102
RTVSPropertyOp61
 70
     1
102
RTVSPropertyOp62
 70
     1
  0
XRECORD
  5
2D6A7
102
{ACAD_REACTORS
330
2D6A6
102
}
330
2D6A6
100
AcDbXrecord
280
     1
102
RTVSPost2010Prop28
280
     0
102
RTVSPost2010PropOp28
 70
     0
102
RTVSPost2010Prop29
280
     1
102
RTVSPost2010PropOp29
 70
     0
102
RTVSPost2010Prop30
280
     1
102
RTVSPost2010PropOp30
 70
     0
102
RTVSPost2010Prop31
280
     0
102
RTVSPost2010PropOp31
 70
     0
102
RTVSPost2010Prop32
280
     0
102
RTVSPost2010PropOp32
 70
     0
102
RTVSPost2010Prop33
280
     0
102
RTVSPost2010PropOp33
 70
     0
102
RTVSPost2010Prop34
280
     0
102
RTVSPost2010PropOp34
 70
     0
102
RTVSPost2010Prop35
280
     0
102
RTVSPost2010PropOp35
 70
     0
102
RTVSPost2010Prop36
280
     0
102
RTVSPost2010PropOp36
 70
     0
102
RTVSPost2010Prop37
 90
       50
102
RTVSPost2010PropOp37
 70
     0
102
RTVSPost2010Prop38
140
0.0
102
RTVSPost2010PropOp38
 70
     0
102
RTVSPost2010Prop39
140
1.0
102
RTVSPost2010PropOp39
 70
     0
102
RTVSPost2010Prop40
 90
        0
102
RTVSPost2010PropOp40
 70
     0
102
RTVSPost2010Prop41ColorIndex
 90
       18
102
RTVSPost2010Prop41ColorRGB
 90
        0
102
RTVSPost2010PropOp41
 70
     0
102
RTVSPost2010Prop42
 90
       50
102
RTVSPost2010PropOp42
 70
     0
102
RTVSPost2010Prop43
 90
        3
102
RTVSPost2010PropOp43
 70
     0
102
RTVSPost2010Prop44ColorIndex
 90
        5
102
RTVSPost2010Prop44ColorRGB
 90
      255
102
RTVSPost2010PropOp44
 70
     0
102
RTVSPost2010Prop45
280
     0
102
RTVSPost2010PropOp45
 70
     0
102
RTVSPost2010Prop46
 90
       50
102
RTVSPost2010PropOp46
 70
     0
102
RTVSPost2010Prop47
 90
       50
102
RTVSPost2010PropOp47
 70
     0
102
RTVSPost2010Prop48
 90
       50
102
RTVSPost2010PropOp48
 70
     0
102
RTVSPost2010Prop49
280
     0
102
RTVSPost2010PropOp49
 70
     0
102
RTVSPost2010Prop50
 90
       50
102
RTVSPost2010PropOp50
 70
     0
102
RTVSPost2010Prop51ColorIndex
 90
      256
102
RTVSPost2010Prop51ColorRGB
 90
-16777216
102
RTVSPost2010PropOp51
 70
     0
102
RTVSPost2010Prop52
140
1.0
102
RTVSPost2010PropOp52
 70
     0
102
RTVSPost2010Prop53
 90
        2
102
RTVSPost2010PropOp53
 70
     0
102
RTVSPost2010Prop54
  1
strokes_ogs.tif
102
RTVSPost2010PropOp54
 70
     0
102
RTVSPost2010Prop55
280
     0
102
RTVSPost2010PropOp55
 70
     0
102
RTVSPost2010Prop56
140
1.0
102
RTVSPost2010PropOp56
 70
     0
102
RTVSPost2010Prop57
140
1.0
102
RTVSPost2010PropOp57
 70
     0
102
RTVSPropertyOp0
 70
     0
102
RTVSPropertyOp1
 70
     0
102
RTVSPropertyOp2
 70
     0
102
RTVSPropertyOp3
 70
     0
102
RTVSPropertyOp4
 70
     0
102
RTVSPropertyOp5
 70
     0
102
RTVSPropertyOp6
 70
     0
102
RTVSPropertyOp7
 70
     0
102
RTVSPropertyOp8
 70
     0
102
RTVSPropertyOp9
 70
     0
102
RTVSPropertyOp10
 70
     0
102
RTVSPropertyOp11
 70
     0
102
RTVSPropertyOp12
 70
     0
102
RTVSPropertyOp13
 70
     0
102
RTVSPropertyOp14
 70
     2
102
RTVSPropertyOp15
 70
     0
102
RTVSPropertyOp16
 70
     0
102
RTVSPropertyOp17
 70
     0
102
RTVSPropertyOp18
 70
     0
102
RTVSPropertyOp19
 70
     0
102
RTVSPropertyOp20
 70
     0
102
RTVSPropertyOp21
 70
     0
102
RTVSPropertyOp22
 70
     0
102
RTVSPropertyOp23
 70
     0
102
RTVSPropertyOp24
 70
     0
102
RTVSPropertyOp25
 70
     0
102
RTVSPropertyOp26
 70
     0
102
RTVSPropertyOp27
 70
     0
102
RTVSPropertyOp28
 70
     0
102
RTVSPropertyOp29
 70
     0
102
RTVSPropertyOp30
 70
     0
102
RTVSPropertyOp31
 70
     0
102
RTVSPropertyOp32
 70
     0
102
RTVSPropertyOp33
 70
     0
102
RTVSPropertyOp34
 70
     0
102
RTVSPropertyOp35
 70
     0
102
RTVSPropertyOp36
 70
     0
102
RTVSPropertyOp37
 70
     0
102
RTVSPropertyOp38
 70
     0
102
RTVSPropertyOp39
 70
     0
102
RTVSPropertyOp40
 70
     0
102
RTVSPropertyOp41
 70
     0
102
RTVSPropertyOp42
 70
     0
102
RTVSPropertyOp43
 70
     0
102
RTVSPropertyOp44
 70
     0
102
RTVSPropertyOp45
 70
     0
102
RTVSPropertyOp46
 70
     0
102
RTVSPropertyOp47
 70
     0
102
RTVSPropertyOp48
 70
     0
102
RTVSPropertyOp49
 70
     0
102
RTVSPropertyOp50
 70
     0
102
RTVSPropertyOp51
 70
     0
102
RTVSPropertyOp52
 70
     0
102
RTVSPropertyOp53
 70
     0
102
RTVSPropertyOp54
 70
     0
102
RTVSPropertyOp55
 70
     0
102
RTVSPropertyOp56
 70
     0
102
RTVSPropertyOp57
 70
     0
102
RTVSPropertyOp58
 70
     1
102
RTVSPropertyOp59
 70
     1
102
RTVSPropertyOp60
 70
     1
102
RTVSPropertyOp61
 70
     1
102
RTVSPropertyOp62
 70
     1
  0
XRECORD
  5
2D69F
102
{ACAD_REACTORS
330
2D69E
102
}
330
2D69E
100
AcDbXrecord
280
     1
102
RTVSPost2010Prop28
280
     0
102
RTVSPost2010PropOp28
 70
     1
102
RTVSPost2010Prop29
280
     1
102
RTVSPost2010PropOp29
 70
     1
102
RTVSPost2010Prop30
280
     1
102
RTVSPost2010PropOp30
 70
     1
102
RTVSPost2010Prop31
280
     0
102
RTVSPost2010PropOp31
 70
     1
102
RTVSPost2010Prop32
280
     0
102
RTVSPost2010PropOp32
 70
     1
102
RTVSPost2010Prop33
280
     0
102
RTVSPost2010PropOp33
 70
     1
102
RTVSPost2010Prop34
280
     0
102
RTVSPost2010PropOp34
 70
     1
102
RTVSPost2010Prop35
280
     0
102
RTVSPost2010PropOp35
 70
     1
102
RTVSPost2010Prop36
280
     0
102
RTVSPost2010PropOp36
 70
     1
102
RTVSPost2010Prop37
 90
       50
102
RTVSPost2010PropOp37
 70
     1
102
RTVSPost2010Prop38
140
0.0
102
RTVSPost2010PropOp38
 70
     1
102
RTVSPost2010Prop39
140
1.0
102
RTVSPost2010PropOp39
 70
     1
102
RTVSPost2010Prop40
 90
        0
102
RTVSPost2010PropOp40
 70
     1
102
RTVSPost2010Prop41ColorIndex
 90
       18
102
RTVSPost2010Prop41ColorRGB
 90
        0
102
RTVSPost2010PropOp41
 70
     1
102
RTVSPost2010Prop42
 90
       50
102
RTVSPost2010PropOp42
 70
     1
102
RTVSPost2010Prop43
 90
        3
102
RTVSPost2010PropOp43
 70
     1
102
RTVSPost2010Prop44ColorIndex
 90
        5
102
RTVSPost2010Prop44ColorRGB
 90
      255
102
RTVSPost2010PropOp44
 70
     1
102
RTVSPost2010Prop45
280
     0
102
RTVSPost2010PropOp45
 70
     1
102
RTVSPost2010Prop46
 90
       50
102
RTVSPost2010PropOp46
 70
     1
102
RTVSPost2010Prop47
 90
       50
102
RTVSPost2010PropOp47
 70
     1
102
RTVSPost2010Prop48
 90
       50
102
RTVSPost2010PropOp48
 70
     1
102
RTVSPost2010Prop49
280
     0
102
RTVSPost2010PropOp49
 70
     1
102
RTVSPost2010Prop50
 90
       50
102
RTVSPost2010PropOp50
 70
     1
102
RTVSPost2010Prop51ColorIndex
 90
      256
102
RTVSPost2010Prop51ColorRGB
 90
-16777216
102
RTVSPost2010PropOp51
 70
     0
102
RTVSPost2010Prop52
140
1.0
102
RTVSPost2010PropOp52
 70
     0
102
RTVSPost2010Prop53
 90
        2
102
RTVSPost2010PropOp53
 70
     1
102
RTVSPost2010Prop54
  1
strokes_ogs.tif
102
RTVSPost2010PropOp54
 70
     1
102
RTVSPost2010Prop55
280
     0
102
RTVSPost2010PropOp55
 70
     1
102
RTVSPost2010Prop56
140
1.0
102
RTVSPost2010PropOp56
 70
     1
102
RTVSPost2010Prop57
140
1.0
102
RTVSPost2010PropOp57
 70
     1
102
RTVSPropertyOp0
 70
     1
102
RTVSPropertyOp1
 70
     1
102
RTVSPropertyOp2
 70
     1
102
RTVSPropertyOp3
 70
     1
102
RTVSPropertyOp4
 70
     1
102
RTVSPropertyOp5
 70
     1
102
RTVSPropertyOp6
 70
     1
102
RTVSPropertyOp7
 70
     1
102
RTVSPropertyOp8
 70
     1
102
RTVSPropertyOp9
 70
     1
102
RTVSPropertyOp10
 70
     1
102
RTVSPropertyOp11
 70
     1
102
RTVSPropertyOp12
 70
     1
102
RTVSPropertyOp13
 70
     1
102
RTVSPropertyOp14
 70
     1
102
RTVSPropertyOp15
 70
     1
102
RTVSPropertyOp16
 70
     1
102
RTVSPropertyOp17
 70
     1
102
RTVSPropertyOp18
 70
     1
102
RTVSPropertyOp19
 70
     1
102
RTVSPropertyOp20
 70
     1
102
RTVSPropertyOp21
 70
     1
102
RTVSPropertyOp22
 70
     1
102
RTVSPropertyOp23
 70
     1
102
RTVSPropertyOp24
 70
     1
102
RTVSPropertyOp25
 70
     1
102
RTVSPropertyOp26
 70
     1
102
RTVSPropertyOp27
 70
     1
102
RTVSPropertyOp28
 70
     1
102
RTVSPropertyOp29
 70
     1
102
RTVSPropertyOp30
 70
     1
102
RTVSPropertyOp31
 70
     1
102
RTVSPropertyOp32
 70
     1
102
RTVSPropertyOp33
 70
     1
102
RTVSPropertyOp34
 70
     1
102
RTVSPropertyOp35
 70
     1
102
RTVSPropertyOp36
 70
     1
102
RTVSPropertyOp37
 70
     1
102
RTVSPropertyOp38
 70
     1
102
RTVSPropertyOp39
 70
     1
102
RTVSPropertyOp40
 70
     1
102
RTVSPropertyOp41
 70
     1
102
RTVSPropertyOp42
 70
     1
102
RTVSPropertyOp43
 70
     1
102
RTVSPropertyOp44
 70
     1
102
RTVSPropertyOp45
 70
     1
102
RTVSPropertyOp46
 70
     1
102
RTVSPropertyOp47
 70
     1
102
RTVSPropertyOp48
 70
     1
102
RTVSPropertyOp49
 70
     1
102
RTVSPropertyOp50
 70
     1
102
RTVSPropertyOp51
 70
     0
102
RTVSPropertyOp52
 70
     0
102
RTVSPropertyOp53
 70
     1
102
RTVSPropertyOp54
 70
     1
102
RTVSPropertyOp55
 70
     1
102
RTVSPropertyOp56
 70
     1
102
RTVSPropertyOp57
 70
     1
102
RTVSPropertyOp58
 70
     1
102
RTVSPropertyOp59
 70
     1
102
RTVSPropertyOp60
 70
     1
102
RTVSPropertyOp61
 70
     1
102
RTVSPropertyOp62
 70
     1
  0
XRECORD
  5
2D683
102
{ACAD_REACTORS
330
2D682
102
}
330
2D682
100
AcDbXrecord
280
     1
102
RTVSPost2010Prop28
280
     0
102
RTVSPost2010PropOp28
 70
     1
102
RTVSPost2010Prop29
280
     1
102
RTVSPost2010PropOp29
 70
     1
102
RTVSPost2010Prop30
280
     1
102
RTVSPost2010PropOp30
 70
     1
102
RTVSPost2010Prop31
280
     0
102
RTVSPost2010PropOp31
 70
     1
102
RTVSPost2010Prop32
280
     0
102
RTVSPost2010PropOp32
 70
     1
102
RTVSPost2010Prop33
280
     0
102
RTVSPost2010PropOp33
 70
     1
102
RTVSPost2010Prop34
280
     0
102
RTVSPost2010PropOp34
 70
     1
102
RTVSPost2010Prop35
280
     0
102
RTVSPost2010PropOp35
 70
     1
102
RTVSPost2010Prop36
280
     0
102
RTVSPost2010PropOp36
 70
     1
102
RTVSPost2010Prop37
 90
       50
102
RTVSPost2010PropOp37
 70
     1
102
RTVSPost2010Prop38
140
0.0
102
RTVSPost2010PropOp38
 70
     1
102
RTVSPost2010Prop39
140
1.0
102
RTVSPost2010PropOp39
 70
     1
102
RTVSPost2010Prop40
 90
        0
102
RTVSPost2010PropOp40
 70
     1
102
RTVSPost2010Prop41ColorIndex
 90
       18
102
RTVSPost2010Prop41ColorRGB
 90
        0
102
RTVSPost2010PropOp41
 70
     1
102
RTVSPost2010Prop42
 90
       50
102
RTVSPost2010PropOp42
 70
     1
102
RTVSPost2010Prop43
 90
        3
102
RTVSPost2010PropOp43
 70
     1
102
RTVSPost2010Prop44ColorIndex
 90
        5
102
RTVSPost2010Prop44ColorRGB
 90
      255
102
RTVSPost2010PropOp44
 70
     1
102
RTVSPost2010Prop45
280
     0
102
RTVSPost2010PropOp45
 70
     1
102
RTVSPost2010Prop46
 90
       50
102
RTVSPost2010PropOp46
 70
     1
102
RTVSPost2010Prop47
 90
       50
102
RTVSPost2010PropOp47
 70
     1
102
RTVSPost2010Prop48
 90
       50
102
RTVSPost2010PropOp48
 70
     1
102
RTVSPost2010Prop49
280
     0
102
RTVSPost2010PropOp49
 70
     1
102
RTVSPost2010Prop50
 90
       50
102
RTVSPost2010PropOp50
 70
     1
102
RTVSPost2010Prop51ColorIndex
 90
      256
102
RTVSPost2010Prop51ColorRGB
 90
-16777216
102
RTVSPost2010PropOp51
 70
     0
102
RTVSPost2010Prop52
140
1.0
102
RTVSPost2010PropOp52
 70
     0
102
RTVSPost2010Prop53
 90
        2
102
RTVSPost2010PropOp53
 70
     1
102
RTVSPost2010Prop54
  1
strokes_ogs.tif
102
RTVSPost2010PropOp54
 70
     1
102
RTVSPost2010Prop55
280
     0
102
RTVSPost2010PropOp55
 70
     1
102
RTVSPost2010Prop56
140
1.0
102
RTVSPost2010PropOp56
 70
     1
102
RTVSPost2010Prop57
140
1.0
102
RTVSPost2010PropOp57
 70
     1
102
RTVSPropertyOp0
 70
     1
102
RTVSPropertyOp1
 70
     1
102
RTVSPropertyOp2
 70
     1
102
RTVSPropertyOp3
 70
     1
102
RTVSPropertyOp4
 70
     1
102
RTVSPropertyOp5
 70
     1
102
RTVSPropertyOp6
 70
     1
102
RTVSPropertyOp7
 70
     1
102
RTVSPropertyOp8
 70
     1
102
RTVSPropertyOp9
 70
     1
102
RTVSPropertyOp10
 70
     1
102
RTVSPropertyOp11
 70
     1
102
RTVSPropertyOp12
 70
     1
102
RTVSPropertyOp13
 70
     1
102
RTVSPropertyOp14
 70
     1
102
RTVSPropertyOp15
 70
     1
102
RTVSPropertyOp16
 70
     1
102
RTVSPropertyOp17
 70
     1
102
RTVSPropertyOp18
 70
     1
102
RTVSPropertyOp19
 70
     1
102
RTVSPropertyOp20
 70
     1
102
RTVSPropertyOp21
 70
     1
102
RTVSPropertyOp22
 70
     1
102
RTVSPropertyOp23
 70
     1
102
RTVSPropertyOp24
 70
     1
102
RTVSPropertyOp25
 70
     1
102
RTVSPropertyOp26
 70
     1
102
RTVSPropertyOp27
 70
     1
102
RTVSPropertyOp28
 70
     1
102
RTVSPropertyOp29
 70
     1
102
RTVSPropertyOp30
 70
     1
102
RTVSPropertyOp31
 70
     1
102
RTVSPropertyOp32
 70
     1
102
RTVSPropertyOp33
 70
     1
102
RTVSPropertyOp34
 70
     1
102
RTVSPropertyOp35
 70
     1
102
RTVSPropertyOp36
 70
     1
102
RTVSPropertyOp37
 70
     1
102
RTVSPropertyOp38
 70
     1
102
RTVSPropertyOp39
 70
     1
102
RTVSPropertyOp40
 70
     1
102
RTVSPropertyOp41
 70
     1
102
RTVSPropertyOp42
 70
     1
102
RTVSPropertyOp43
 70
     1
102
RTVSPropertyOp44
 70
     1
102
RTVSPropertyOp45
 70
     1
102
RTVSPropertyOp46
 70
     1
102
RTVSPropertyOp47
 70
     1
102
RTVSPropertyOp48
 70
     1
102
RTVSPropertyOp49
 70
     1
102
RTVSPropertyOp50
 70
     1
102
RTVSPropertyOp51
 70
     0
102
RTVSPropertyOp52
 70
     0
102
RTVSPropertyOp53
 70
     1
102
RTVSPropertyOp54
 70
     1
102
RTVSPropertyOp55
 70
     1
102
RTVSPropertyOp56
 70
     1
102
RTVSPropertyOp57
 70
     1
102
RTVSPropertyOp58
 70
     1
102
RTVSPropertyOp59
 70
     1
102
RTVSPropertyOp60
 70
     1
102
RTVSPropertyOp61
 70
     1
102
RTVSPropertyOp62
 70
     1
  0
XRECORD
  5
2D685
102
{ACAD_REACTORS
330
2D684
102
}
330
2D684
100
AcDbXrecord
280
     1
102
RTVSPost2010Prop28
280
     0
102
RTVSPost2010PropOp28
 70
     1
102
RTVSPost2010Prop29
280
     1
102
RTVSPost2010PropOp29
 70
     1
102
RTVSPost2010Prop30
280
     1
102
RTVSPost2010PropOp30
 70
     1
102
RTVSPost2010Prop31
280
     0
102
RTVSPost2010PropOp31
 70
     1
102
RTVSPost2010Prop32
280
     0
102
RTVSPost2010PropOp32
 70
     1
102
RTVSPost2010Prop33
280
     0
102
RTVSPost2010PropOp33
 70
     1
102
RTVSPost2010Prop34
280
     0
102
RTVSPost2010PropOp34
 70
     1
102
RTVSPost2010Prop35
280
     0
102
RTVSPost2010PropOp35
 70
     1
102
RTVSPost2010Prop36
280
     0
102
RTVSPost2010PropOp36
 70
     1
102
RTVSPost2010Prop37
 90
       50
102
RTVSPost2010PropOp37
 70
     1
102
RTVSPost2010Prop38
140
0.0
102
RTVSPost2010PropOp38
 70
     1
102
RTVSPost2010Prop39
140
1.0
102
RTVSPost2010PropOp39
 70
     1
102
RTVSPost2010Prop40
 90
        0
102
RTVSPost2010PropOp40
 70
     1
102
RTVSPost2010Prop41ColorIndex
 90
       18
102
RTVSPost2010Prop41ColorRGB
 90
        0
102
RTVSPost2010PropOp41
 70
     1
102
RTVSPost2010Prop42
 90
       50
102
RTVSPost2010PropOp42
 70
     1
102
RTVSPost2010Prop43
 90
        3
102
RTVSPost2010PropOp43
 70
     1
102
RTVSPost2010Prop44ColorIndex
 90
        5
102
RTVSPost2010Prop44ColorRGB
 90
      255
102
RTVSPost2010PropOp44
 70
     1
102
RTVSPost2010Prop45
280
     0
102
RTVSPost2010PropOp45
 70
     1
102
RTVSPost2010Prop46
 90
       50
102
RTVSPost2010PropOp46
 70
     1
102
RTVSPost2010Prop47
 90
       50
102
RTVSPost2010PropOp47
 70
     1
102
RTVSPost2010Prop48
 90
       50
102
RTVSPost2010PropOp48
 70
     1
102
RTVSPost2010Prop49
280
     0
102
RTVSPost2010PropOp49
 70
     1
102
RTVSPost2010Prop50
 90
       50
102
RTVSPost2010PropOp50
 70
     1
102
RTVSPost2010Prop51ColorIndex
 90
      256
102
RTVSPost2010Prop51ColorRGB
 90
-16777216
102
RTVSPost2010PropOp51
 70
     0
102
RTVSPost2010Prop52
140
1.0
102
RTVSPost2010PropOp52
 70
     0
102
RTVSPost2010Prop53
 90
        2
102
RTVSPost2010PropOp53
 70
     1
102
RTVSPost2010Prop54
  1
strokes_ogs.tif
102
RTVSPost2010PropOp54
 70
     1
102
RTVSPost2010Prop55
280
     0
102
RTVSPost2010PropOp55
 70
     1
102
RTVSPost2010Prop56
140
1.0
102
RTVSPost2010PropOp56
 70
     1
102
RTVSPost2010Prop57
140
1.0
102
RTVSPost2010PropOp57
 70
     1
102
RTVSPropertyOp0
 70
     1
102
RTVSPropertyOp1
 70
     1
102
RTVSPropertyOp2
 70
     1
102
RTVSPropertyOp3
 70
     1
102
RTVSPropertyOp4
 70
     1
102
RTVSPropertyOp5
 70
     1
102
RTVSPropertyOp6
 70
     1
102
RTVSPropertyOp7
 70
     1
102
RTVSPropertyOp8
 70
     1
102
RTVSPropertyOp9
 70
     1
102
RTVSPropertyOp10
 70
     1
102
RTVSPropertyOp11
 70
     1
102
RTVSPropertyOp12
 70
     1
102
RTVSPropertyOp13
 70
     1
102
RTVSPropertyOp14
 70
     1
102
RTVSPropertyOp15
 70
     1
102
RTVSPropertyOp16
 70
     1
102
RTVSPropertyOp17
 70
     1
102
RTVSPropertyOp18
 70
     1
102
RTVSPropertyOp19
 70
     1
102
RTVSPropertyOp20
 70
     1
102
RTVSPropertyOp21
 70
     1
102
RTVSPropertyOp22
 70
     1
102
RTVSPropertyOp23
 70
     1
102
RTVSPropertyOp24
 70
     1
102
RTVSPropertyOp25
 70
     1
102
RTVSPropertyOp26
 70
     1
102
RTVSPropertyOp27
 70
     1
102
RTVSPropertyOp28
 70
     1
102
RTVSPropertyOp29
 70
     1
102
RTVSPropertyOp30
 70
     1
102
RTVSPropertyOp31
 70
     1
102
RTVSPropertyOp32
 70
     1
102
RTVSPropertyOp33
 70
     1
102
RTVSPropertyOp34
 70
     1
102
RTVSPropertyOp35
 70
     1
102
RTVSPropertyOp36
 70
     1
102
RTVSPropertyOp37
 70
     1
102
RTVSPropertyOp38
 70
     1
102
RTVSPropertyOp39
 70
     1
102
RTVSPropertyOp40
 70
     1
102
RTVSPropertyOp41
 70
     1
102
RTVSPropertyOp42
 70
     1
102
RTVSPropertyOp43
 70
     1
102
RTVSPropertyOp44
 70
     1
102
RTVSPropertyOp45
 70
     1
102
RTVSPropertyOp46
 70
     1
102
RTVSPropertyOp47
 70
     1
102
RTVSPropertyOp48
 70
     1
102
RTVSPropertyOp49
 70
     1
102
RTVSPropertyOp50
 70
     1
102
RTVSPropertyOp51
 70
     0
102
RTVSPropertyOp52
 70
     0
102
RTVSPropertyOp53
 70
     1
102
RTVSPropertyOp54
 70
     1
102
RTVSPropertyOp55
 70
     1
102
RTVSPropertyOp56
 70
     1
102
RTVSPropertyOp57
 70
     1
102
RTVSPropertyOp58
 70
     1
102
RTVSPropertyOp59
 70
     1
102
RTVSPropertyOp60
 70
     1
102
RTVSPropertyOp61
 70
     1
102
RTVSPropertyOp62
 70
     1
  0
XRECORD
  5
2D687
102
{ACAD_REACTORS
330
2D686
102
}
330
2D686
100
AcDbXrecord
280
     1
102
RTVSPost2010Prop28
280
     0
102
RTVSPost2010PropOp28
 70
     1
102
RTVSPost2010Prop29
280
     1
102
RTVSPost2010PropOp29
 70
     1
102
RTVSPost2010Prop30
280
     1
102
RTVSPost2010PropOp30
 70
     1
102
RTVSPost2010Prop31
280
     0
102
RTVSPost2010PropOp31
 70
     1
102
RTVSPost2010Prop32
280
     0
102
RTVSPost2010PropOp32
 70
     1
102
RTVSPost2010Prop33
280
     0
102
RTVSPost2010PropOp33
 70
     1
102
RTVSPost2010Prop34
280
     0
102
RTVSPost2010PropOp34
 70
     1
102
RTVSPost2010Prop35
280
     0
102
RTVSPost2010PropOp35
 70
     1
102
RTVSPost2010Prop36
280
     0
102
RTVSPost2010PropOp36
 70
     1
102
RTVSPost2010Prop37
 90
       50
102
RTVSPost2010PropOp37
 70
     1
102
RTVSPost2010Prop38
140
0.0
102
RTVSPost2010PropOp38
 70
     1
102
RTVSPost2010Prop39
140
1.0
102
RTVSPost2010PropOp39
 70
     1
102
RTVSPost2010Prop40
 90
        0
102
RTVSPost2010PropOp40
 70
     1
102
RTVSPost2010Prop41ColorIndex
 90
       18
102
RTVSPost2010Prop41ColorRGB
 90
        0
102
RTVSPost2010PropOp41
 70
     1
102
RTVSPost2010Prop42
 90
       50
102
RTVSPost2010PropOp42
 70
     1
102
RTVSPost2010Prop43
 90
        3
102
RTVSPost2010PropOp43
 70
     1
102
RTVSPost2010Prop44ColorIndex
 90
        5
102
RTVSPost2010Prop44ColorRGB
 90
      255
102
RTVSPost2010PropOp44
 70
     1
102
RTVSPost2010Prop45
280
     0
102
RTVSPost2010PropOp45
 70
     1
102
RTVSPost2010Prop46
 90
       50
102
RTVSPost2010PropOp46
 70
     1
102
RTVSPost2010Prop47
 90
       50
102
RTVSPost2010PropOp47
 70
     1
102
RTVSPost2010Prop48
 90
       50
102
RTVSPost2010PropOp48
 70
     1
102
RTVSPost2010Prop49
280
     0
102
RTVSPost2010PropOp49
 70
     1
102
RTVSPost2010Prop50
 90
       50
102
RTVSPost2010PropOp50
 70
     1
102
RTVSPost2010Prop51ColorIndex
 90
      256
102
RTVSPost2010Prop51ColorRGB
 90
-16777216
102
RTVSPost2010PropOp51
 70
     0
102
RTVSPost2010Prop52
140
1.0
102
RTVSPost2010PropOp52
 70
     0
102
RTVSPost2010Prop53
 90
        2
102
RTVSPost2010PropOp53
 70
     1
102
RTVSPost2010Prop54
  1
strokes_ogs.tif
102
RTVSPost2010PropOp54
 70
     1
102
RTVSPost2010Prop55
280
     0
102
RTVSPost2010PropOp55
 70
     1
102
RTVSPost2010Prop56
140
1.0
102
RTVSPost2010PropOp56
 70
     1
102
RTVSPost2010Prop57
140
1.0
102
RTVSPost2010PropOp57
 70
     1
102
RTVSPropertyOp0
 70
     1
102
RTVSPropertyOp1
 70
     1
102
RTVSPropertyOp2
 70
     1
102
RTVSPropertyOp3
 70
     1
102
RTVSPropertyOp4
 70
     1
102
RTVSPropertyOp5
 70
     1
102
RTVSPropertyOp6
 70
     1
102
RTVSPropertyOp7
 70
     1
102
RTVSPropertyOp8
 70
     1
102
RTVSPropertyOp9
 70
     1
102
RTVSPropertyOp10
 70
     1
102
RTVSPropertyOp11
 70
     1
102
RTVSPropertyOp12
 70
     1
102
RTVSPropertyOp13
 70
     1
102
RTVSPropertyOp14
 70
     1
102
RTVSPropertyOp15
 70
     1
102
RTVSPropertyOp16
 70
     1
102
RTVSPropertyOp17
 70
     1
102
RTVSPropertyOp18
 70
     1
102
RTVSPropertyOp19
 70
     1
102
RTVSPropertyOp20
 70
     1
102
RTVSPropertyOp21
 70
     1
102
RTVSPropertyOp22
 70
     1
102
RTVSPropertyOp23
 70
     1
102
RTVSPropertyOp24
 70
     1
102
RTVSPropertyOp25
 70
     1
102
RTVSPropertyOp26
 70
     1
102
RTVSPropertyOp27
 70
     1
102
RTVSPropertyOp28
 70
     1
102
RTVSPropertyOp29
 70
     1
102
RTVSPropertyOp30
 70
     1
102
RTVSPropertyOp31
 70
     1
102
RTVSPropertyOp32
 70
     1
102
RTVSPropertyOp33
 70
     1
102
RTVSPropertyOp34
 70
     1
102
RTVSPropertyOp35
 70
     1
102
RTVSPropertyOp36
 70
     1
102
RTVSPropertyOp37
 70
     1
102
RTVSPropertyOp38
 70
     1
102
RTVSPropertyOp39
 70
     1
102
RTVSPropertyOp40
 70
     1
102
RTVSPropertyOp41
 70
     1
102
RTVSPropertyOp42
 70
     1
102
RTVSPropertyOp43
 70
     1
102
RTVSPropertyOp44
 70
     1
102
RTVSPropertyOp45
 70
     1
102
RTVSPropertyOp46
 70
     1
102
RTVSPropertyOp47
 70
     1
102
RTVSPropertyOp48
 70
     1
102
RTVSPropertyOp49
 70
     1
102
RTVSPropertyOp50
 70
     1
102
RTVSPropertyOp51
 70
     0
102
RTVSPropertyOp52
 70
     0
102
RTVSPropertyOp53
 70
     1
102
RTVSPropertyOp54
 70
     1
102
RTVSPropertyOp55
 70
     1
102
RTVSPropertyOp56
 70
     1
102
RTVSPropertyOp57
 70
     1
102
RTVSPropertyOp58
 70
     1
102
RTVSPropertyOp59
 70
     1
102
RTVSPropertyOp60
 70
     1
102
RTVSPropertyOp61
 70
     1
102
RTVSPropertyOp62
 70
     1
  0
XRECORD
  5
2D689
102
{ACAD_REACTORS
330
2D688
102
}
330
2D688
100
AcDbXrecord
280
     1
102
RTVSPost2010Prop28
280
     0
102
RTVSPost2010PropOp28
 70
     1
102
RTVSPost2010Prop29
280
     1
102
RTVSPost2010PropOp29
 70
     1
102
RTVSPost2010Prop30
280
     1
102
RTVSPost2010PropOp30
 70
     1
102
RTVSPost2010Prop31
280
     0
102
RTVSPost2010PropOp31
 70
     1
102
RTVSPost2010Prop32
280
     0
102
RTVSPost2010PropOp32
 70
     1
102
RTVSPost2010Prop33
280
     0
102
RTVSPost2010PropOp33
 70
     1
102
RTVSPost2010Prop34
280
     0
102
RTVSPost2010PropOp34
 70
     1
102
RTVSPost2010Prop35
280
     0
102
RTVSPost2010PropOp35
 70
     1
102
RTVSPost2010Prop36
280
     0
102
RTVSPost2010PropOp36
 70
     1
102
RTVSPost2010Prop37
 90
       50
102
RTVSPost2010PropOp37
 70
     1
102
RTVSPost2010Prop38
140
0.0
102
RTVSPost2010PropOp38
 70
     1
102
RTVSPost2010Prop39
140
1.0
102
RTVSPost2010PropOp39
 70
     1
102
RTVSPost2010Prop40
 90
        0
102
RTVSPost2010PropOp40
 70
     1
102
RTVSPost2010Prop41ColorIndex
 90
       18
102
RTVSPost2010Prop41ColorRGB
 90
        0
102
RTVSPost2010PropOp41
 70
     1
102
RTVSPost2010Prop42
 90
       50
102
RTVSPost2010PropOp42
 70
     1
102
RTVSPost2010Prop43
 90
        3
102
RTVSPost2010PropOp43
 70
     1
102
RTVSPost2010Prop44ColorIndex
 90
        5
102
RTVSPost2010Prop44ColorRGB
 90
      255
102
RTVSPost2010PropOp44
 70
     1
102
RTVSPost2010Prop45
280
     0
102
RTVSPost2010PropOp45
 70
     1
102
RTVSPost2010Prop46
 90
       50
102
RTVSPost2010PropOp46
 70
     1
102
RTVSPost2010Prop47
 90
       50
102
RTVSPost2010PropOp47
 70
     1
102
RTVSPost2010Prop48
 90
       50
102
RTVSPost2010PropOp48
 70
     1
102
RTVSPost2010Prop49
280
     0
102
RTVSPost2010PropOp49
 70
     1
102
RTVSPost2010Prop50
 90
       50
102
RTVSPost2010PropOp50
 70
     1
102
RTVSPost2010Prop51ColorIndex
 90
      256
102
RTVSPost2010Prop51ColorRGB
 90
-16777216
102
RTVSPost2010PropOp51
 70
     0
102
RTVSPost2010Prop52
140
1.0
102
RTVSPost2010PropOp52
 70
     0
102
RTVSPost2010Prop53
 90
        2
102
RTVSPost2010PropOp53
 70
     1
102
RTVSPost2010Prop54
  1
strokes_ogs.tif
102
RTVSPost2010PropOp54
 70
     1
102
RTVSPost2010Prop55
280
     0
102
RTVSPost2010PropOp55
 70
     1
102
RTVSPost2010Prop56
140
1.0
102
RTVSPost2010PropOp56
 70
     1
102
RTVSPost2010Prop57
140
1.0
102
RTVSPost2010PropOp57
 70
     1
102
RTVSPropertyOp0
 70
     1
102
RTVSPropertyOp1
 70
     1
102
RTVSPropertyOp2
 70
     1
102
RTVSPropertyOp3
 70
     1
102
RTVSPropertyOp4
 70
     1
102
RTVSPropertyOp5
 70
     1
102
RTVSPropertyOp6
 70
     1
102
RTVSPropertyOp7
 70
     1
102
RTVSPropertyOp8
 70
     1
102
RTVSPropertyOp9
 70
     1
102
RTVSPropertyOp10
 70
     1
102
RTVSPropertyOp11
 70
     1
102
RTVSPropertyOp12
 70
     1
102
RTVSPropertyOp13
 70
     1
102
RTVSPropertyOp14
 70
     1
102
RTVSPropertyOp15
 70
     1
102
RTVSPropertyOp16
 70
     1
102
RTVSPropertyOp17
 70
     1
102
RTVSPropertyOp18
 70
     1
102
RTVSPropertyOp19
 70
     1
102
RTVSPropertyOp20
 70
     1
102
RTVSPropertyOp21
 70
     1
102
RTVSPropertyOp22
 70
     1
102
RTVSPropertyOp23
 70
     1
102
RTVSPropertyOp24
 70
     1
102
RTVSPropertyOp25
 70
     1
102
RTVSPropertyOp26
 70
     1
102
RTVSPropertyOp27
 70
     1
102
RTVSPropertyOp28
 70
     1
102
RTVSPropertyOp29
 70
     1
102
RTVSPropertyOp30
 70
     1
102
RTVSPropertyOp31
 70
     1
102
RTVSPropertyOp32
 70
     1
102
RTVSPropertyOp33
 70
     1
102
RTVSPropertyOp34
 70
     1
102
RTVSPropertyOp35
 70
     1
102
RTVSPropertyOp36
 70
     1
102
RTVSPropertyOp37
 70
     1
102
RTVSPropertyOp38
 70
     1
102
RTVSPropertyOp39
 70
     1
102
RTVSPropertyOp40
 70
     1
102
RTVSPropertyOp41
 70
     1
102
RTVSPropertyOp42
 70
     1
102
RTVSPropertyOp43
 70
     1
102
RTVSPropertyOp44
 70
     1
102
RTVSPropertyOp45
 70
     1
102
RTVSPropertyOp46
 70
     1
102
RTVSPropertyOp47
 70
     1
102
RTVSPropertyOp48
 70
     1
102
RTVSPropertyOp49
 70
     1
102
RTVSPropertyOp50
 70
     1
102
RTVSPropertyOp51
 70
     0
102
RTVSPropertyOp52
 70
     0
102
RTVSPropertyOp53
 70
     1
102
RTVSPropertyOp54
 70
     1
102
RTVSPropertyOp55
 70
     1
102
RTVSPropertyOp56
 70
     1
102
RTVSPropertyOp57
 70
     1
102
RTVSPropertyOp58
 70
     1
102
RTVSPropertyOp59
 70
     1
102
RTVSPropertyOp60
 70
     1
102
RTVSPropertyOp61
 70
     1
102
RTVSPropertyOp62
 70
     1
  0
XRECORD
  5
2D68F
102
{ACAD_REACTORS
330
2D68E
102
}
330
2D68E
100
AcDbXrecord
280
     1
102
RTVSPost2010Prop28
280
     0
102
RTVSPost2010PropOp28
 70
     1
102
RTVSPost2010Prop29
280
     1
102
RTVSPost2010PropOp29
 70
     1
102
RTVSPost2010Prop30
280
     1
102
RTVSPost2010PropOp30
 70
     1
102
RTVSPost2010Prop31
280
     0
102
RTVSPost2010PropOp31
 70
     1
102
RTVSPost2010Prop32
280
     0
102
RTVSPost2010PropOp32
 70
     1
102
RTVSPost2010Prop33
280
     0
102
RTVSPost2010PropOp33
 70
     1
102
RTVSPost2010Prop34
280
     0
102
RTVSPost2010PropOp34
 70
     1
102
RTVSPost2010Prop35
280
     0
102
RTVSPost2010PropOp35
 70
     1
102
RTVSPost2010Prop36
280
     0
102
RTVSPost2010PropOp36
 70
     1
102
RTVSPost2010Prop37
 90
       50
102
RTVSPost2010PropOp37
 70
     1
102
RTVSPost2010Prop38
140
0.0
102
RTVSPost2010PropOp38
 70
     1
102
RTVSPost2010Prop39
140
1.0
102
RTVSPost2010PropOp39
 70
     1
102
RTVSPost2010Prop40
 90
        0
102
RTVSPost2010PropOp40
 70
     1
102
RTVSPost2010Prop41ColorIndex
 90
       18
102
RTVSPost2010Prop41ColorRGB
 90
        0
102
RTVSPost2010PropOp41
 70
     1
102
RTVSPost2010Prop42
 90
       50
102
RTVSPost2010PropOp42
 70
     1
102
RTVSPost2010Prop43
 90
        3
102
RTVSPost2010PropOp43
 70
     1
102
RTVSPost2010Prop44ColorIndex
 90
        5
102
RTVSPost2010Prop44ColorRGB
 90
      255
102
RTVSPost2010PropOp44
 70
     1
102
RTVSPost2010Prop45
280
     0
102
RTVSPost2010PropOp45
 70
     1
102
RTVSPost2010Prop46
 90
       50
102
RTVSPost2010PropOp46
 70
     1
102
RTVSPost2010Prop47
 90
       50
102
RTVSPost2010PropOp47
 70
     1
102
RTVSPost2010Prop48
 90
       50
102
RTVSPost2010PropOp48
 70
     1
102
RTVSPost2010Prop49
280
     0
102
RTVSPost2010PropOp49
 70
     1
102
RTVSPost2010Prop50
 90
       50
102
RTVSPost2010PropOp50
 70
     1
102
RTVSPost2010Prop51ColorIndex
 90
      256
102
RTVSPost2010Prop51ColorRGB
 90
-16777216
102
RTVSPost2010PropOp51
 70
     0
102
RTVSPost2010Prop52
140
1.0
102
RTVSPost2010PropOp52
 70
     0
102
RTVSPost2010Prop53
 90
        2
102
RTVSPost2010PropOp53
 70
     1
102
RTVSPost2010Prop54
  1
strokes_ogs.tif
102
RTVSPost2010PropOp54
 70
     1
102
RTVSPost2010Prop55
280
     0
102
RTVSPost2010PropOp55
 70
     1
102
RTVSPost2010Prop56
140
1.0
102
RTVSPost2010PropOp56
 70
     1
102
RTVSPost2010Prop57
140
1.0
102
RTVSPost2010PropOp57
 70
     1
102
RTVSPropertyOp0
 70
     1
102
RTVSPropertyOp1
 70
     1
102
RTVSPropertyOp2
 70
     1
102
RTVSPropertyOp3
 70
     1
102
RTVSPropertyOp4
 70
     1
102
RTVSPropertyOp5
 70
     1
102
RTVSPropertyOp6
 70
     1
102
RTVSPropertyOp7
 70
     1
102
RTVSPropertyOp8
 70
     1
102
RTVSPropertyOp9
 70
     1
102
RTVSPropertyOp10
 70
     1
102
RTVSPropertyOp11
 70
     1
102
RTVSPropertyOp12
 70
     1
102
RTVSPropertyOp13
 70
     1
102
RTVSPropertyOp14
 70
     1
102
RTVSPropertyOp15
 70
     1
102
RTVSPropertyOp16
 70
     1
102
RTVSPropertyOp17
 70
     1
102
RTVSPropertyOp18
 70
     1
102
RTVSPropertyOp19
 70
     1
102
RTVSPropertyOp20
 70
     1
102
RTVSPropertyOp21
 70
     1
102
RTVSPropertyOp22
 70
     1
102
RTVSPropertyOp23
 70
     1
102
RTVSPropertyOp24
 70
     1
102
RTVSPropertyOp25
 70
     1
102
RTVSPropertyOp26
 70
     1
102
RTVSPropertyOp27
 70
     1
102
RTVSPropertyOp28
 70
     1
102
RTVSPropertyOp29
 70
     1
102
RTVSPropertyOp30
 70
     1
102
RTVSPropertyOp31
 70
     1
102
RTVSPropertyOp32
 70
     1
102
RTVSPropertyOp33
 70
     1
102
RTVSPropertyOp34
 70
     1
102
RTVSPropertyOp35
 70
     1
102
RTVSPropertyOp36
 70
     1
102
RTVSPropertyOp37
 70
     1
102
RTVSPropertyOp38
 70
     1
102
RTVSPropertyOp39
 70
     1
102
RTVSPropertyOp40
 70
     1
102
RTVSPropertyOp41
 70
     1
102
RTVSPropertyOp42
 70
     1
102
RTVSPropertyOp43
 70
     1
102
RTVSPropertyOp44
 70
     1
102
RTVSPropertyOp45
 70
     1
102
RTVSPropertyOp46
 70
     1
102
RTVSPropertyOp47
 70
     1
102
RTVSPropertyOp48
 70
     1
102
RTVSPropertyOp49
 70
     1
102
RTVSPropertyOp50
 70
     1
102
RTVSPropertyOp51
 70
     0
102
RTVSPropertyOp52
 70
     0
102
RTVSPropertyOp53
 70
     1
102
RTVSPropertyOp54
 70
     1
102
RTVSPropertyOp55
 70
     1
102
RTVSPropertyOp56
 70
     1
102
RTVSPropertyOp57
 70
     1
102
RTVSPropertyOp58
 70
     1
102
RTVSPropertyOp59
 70
     1
102
RTVSPropertyOp60
 70
     1
102
RTVSPropertyOp61
 70
     1
102
RTVSPropertyOp62
 70
     1
  0
XRECORD
  5
2D6A3
102
{ACAD_REACTORS
330
2D6A2
102
}
330
2D6A2
100
AcDbXrecord
280
     1
102
RTVSPost2010Prop28
280
     0
102
RTVSPost2010PropOp28
 70
     0
102
RTVSPost2010Prop29
280
     1
102
RTVSPost2010PropOp29
 70
     0
102
RTVSPost2010Prop30
280
     1
102
RTVSPost2010PropOp30
 70
     0
102
RTVSPost2010Prop31
280
     0
102
RTVSPost2010PropOp31
 70
     0
102
RTVSPost2010Prop32
280
     0
102
RTVSPost2010PropOp32
 70
     0
102
RTVSPost2010Prop33
280
     0
102
RTVSPost2010PropOp33
 70
     0
102
RTVSPost2010Prop34
280
     0
102
RTVSPost2010PropOp34
 70
     0
102
RTVSPost2010Prop35
280
     0
102
RTVSPost2010PropOp35
 70
     0
102
RTVSPost2010Prop36
280
     0
102
RTVSPost2010PropOp36
 70
     0
102
RTVSPost2010Prop37
 90
       50
102
RTVSPost2010PropOp37
 70
     0
102
RTVSPost2010Prop38
140
0.0
102
RTVSPost2010PropOp38
 70
     0
102
RTVSPost2010Prop39
140
1.0
102
RTVSPost2010PropOp39
 70
     0
102
RTVSPost2010Prop40
 90
        0
102
RTVSPost2010PropOp40
 70
     0
102
RTVSPost2010Prop41ColorIndex
 90
       18
102
RTVSPost2010Prop41ColorRGB
 90
        0
102
RTVSPost2010PropOp41
 70
     0
102
RTVSPost2010Prop42
 90
       50
102
RTVSPost2010PropOp42
 70
     0
102
RTVSPost2010Prop43
 90
        3
102
RTVSPost2010PropOp43
 70
     0
102
RTVSPost2010Prop44ColorIndex
 90
        5
102
RTVSPost2010Prop44ColorRGB
 90
      255
102
RTVSPost2010PropOp44
 70
     0
102
RTVSPost2010Prop45
280
     0
102
RTVSPost2010PropOp45
 70
     0
102
RTVSPost2010Prop46
 90
       50
102
RTVSPost2010PropOp46
 70
     0
102
RTVSPost2010Prop47
 90
       50
102
RTVSPost2010PropOp47
 70
     0
102
RTVSPost2010Prop48
 90
       50
102
RTVSPost2010PropOp48
 70
     0
102
RTVSPost2010Prop49
280
     0
102
RTVSPost2010PropOp49
 70
     0
102
RTVSPost2010Prop50
 90
       50
102
RTVSPost2010PropOp50
 70
     0
102
RTVSPost2010Prop51ColorIndex
 90
      256
102
RTVSPost2010Prop51ColorRGB
 90
-16777216
102
RTVSPost2010PropOp51
 70
     0
102
RTVSPost2010Prop52
140
1.0
102
RTVSPost2010PropOp52
 70
     0
102
RTVSPost2010Prop53
 90
        2
102
RTVSPost2010PropOp53
 70
     0
102
RTVSPost2010Prop54
  1
strokes_ogs.tif
102
RTVSPost2010PropOp54
 70
     0
102
RTVSPost2010Prop55
280
     0
102
RTVSPost2010PropOp55
 70
     0
102
RTVSPost2010Prop56
140
1.0
102
RTVSPost2010PropOp56
 70
     0
102
RTVSPost2010Prop57
140
1.0
102
RTVSPost2010PropOp57
 70
     0
102
RTVSPropertyOp0
 70
     0
102
RTVSPropertyOp1
 70
     0
102
RTVSPropertyOp2
 70
     0
102
RTVSPropertyOp3
 70
     0
102
RTVSPropertyOp4
 70
     0
102
RTVSPropertyOp5
 70
     0
102
RTVSPropertyOp6
 70
     0
102
RTVSPropertyOp7
 70
     0
102
RTVSPropertyOp8
 70
     0
102
RTVSPropertyOp9
 70
     0
102
RTVSPropertyOp10
 70
     0
102
RTVSPropertyOp11
 70
     0
102
RTVSPropertyOp12
 70
     0
102
RTVSPropertyOp13
 70
     0
102
RTVSPropertyOp14
 70
     2
102
RTVSPropertyOp15
 70
     0
102
RTVSPropertyOp16
 70
     0
102
RTVSPropertyOp17
 70
     0
102
RTVSPropertyOp18
 70
     0
102
RTVSPropertyOp19
 70
     0
102
RTVSPropertyOp20
 70
     0
102
RTVSPropertyOp21
 70
     0
102
RTVSPropertyOp22
 70
     0
102
RTVSPropertyOp23
 70
     0
102
RTVSPropertyOp24
 70
     0
102
RTVSPropertyOp25
 70
     0
102
RTVSPropertyOp26
 70
     0
102
RTVSPropertyOp27
 70
     0
102
RTVSPropertyOp28
 70
     0
102
RTVSPropertyOp29
 70
     0
102
RTVSPropertyOp30
 70
     0
102
RTVSPropertyOp31
 70
     0
102
RTVSPropertyOp32
 70
     0
102
RTVSPropertyOp33
 70
     0
102
RTVSPropertyOp34
 70
     0
102
RTVSPropertyOp35
 70
     0
102
RTVSPropertyOp36
 70
     0
102
RTVSPropertyOp37
 70
     0
102
RTVSPropertyOp38
 70
     0
102
RTVSPropertyOp39
 70
     0
102
RTVSPropertyOp40
 70
     0
102
RTVSPropertyOp41
 70
     0
102
RTVSPropertyOp42
 70
     0
102
RTVSPropertyOp43
 70
     0
102
RTVSPropertyOp44
 70
     0
102
RTVSPropertyOp45
 70
     0
102
RTVSPropertyOp46
 70
     0
102
RTVSPropertyOp47
 70
     0
102
RTVSPropertyOp48
 70
     0
102
RTVSPropertyOp49
 70
     0
102
RTVSPropertyOp50
 70
     0
102
RTVSPropertyOp51
 70
     0
102
RTVSPropertyOp52
 70
     0
102
RTVSPropertyOp53
 70
     0
102
RTVSPropertyOp54
 70
     0
102
RTVSPropertyOp55
 70
     0
102
RTVSPropertyOp56
 70
     0
102
RTVSPropertyOp57
 70
     0
102
RTVSPropertyOp58
 70
     1
102
RTVSPropertyOp59
 70
     1
102
RTVSPropertyOp60
 70
     1
102
RTVSPropertyOp61
 70
     1
102
RTVSPropertyOp62
 70
     1
  0
XRECORD
  5
2D69D
102
{ACAD_REACTORS
330
2D69C
102
}
330
2D69C
100
AcDbXrecord
280
     1
102
RTVSPost2010Prop28
280
     0
102
RTVSPost2010PropOp28
 70
     1
102
RTVSPost2010Prop29
280
     1
102
RTVSPost2010PropOp29
 70
     1
102
RTVSPost2010Prop30
280
     1
102
RTVSPost2010PropOp30
 70
     1
102
RTVSPost2010Prop31
280
     0
102
RTVSPost2010PropOp31
 70
     1
102
RTVSPost2010Prop32
280
     0
102
RTVSPost2010PropOp32
 70
     1
102
RTVSPost2010Prop33
280
     0
102
RTVSPost2010PropOp33
 70
     1
102
RTVSPost2010Prop34
280
     0
102
RTVSPost2010PropOp34
 70
     1
102
RTVSPost2010Prop35
280
     0
102
RTVSPost2010PropOp35
 70
     1
102
RTVSPost2010Prop36
280
     0
102
RTVSPost2010PropOp36
 70
     1
102
RTVSPost2010Prop37
 90
       50
102
RTVSPost2010PropOp37
 70
     1
102
RTVSPost2010Prop38
140
0.0
102
RTVSPost2010PropOp38
 70
     1
102
RTVSPost2010Prop39
140
1.0
102
RTVSPost2010PropOp39
 70
     1
102
RTVSPost2010Prop40
 90
        0
102
RTVSPost2010PropOp40
 70
     1
102
RTVSPost2010Prop41ColorIndex
 90
       18
102
RTVSPost2010Prop41ColorRGB
 90
        0
102
RTVSPost2010PropOp41
 70
     1
102
RTVSPost2010Prop42
 90
       50
102
RTVSPost2010PropOp42
 70
     1
102
RTVSPost2010Prop43
 90
        3
102
RTVSPost2010PropOp43
 70
     1
102
RTVSPost2010Prop44ColorIndex
 90
        5
102
RTVSPost2010Prop44ColorRGB
 90
      255
102
RTVSPost2010PropOp44
 70
     1
102
RTVSPost2010Prop45
280
     0
102
RTVSPost2010PropOp45
 70
     1
102
RTVSPost2010Prop46
 90
       50
102
RTVSPost2010PropOp46
 70
     1
102
RTVSPost2010Prop47
 90
       50
102
RTVSPost2010PropOp47
 70
     1
102
RTVSPost2010Prop48
 90
       50
102
RTVSPost2010PropOp48
 70
     1
102
RTVSPost2010Prop49
280
     0
102
RTVSPost2010PropOp49
 70
     1
102
RTVSPost2010Prop50
 90
       50
102
RTVSPost2010PropOp50
 70
     1
102
RTVSPost2010Prop51ColorIndex
 90
      256
102
RTVSPost2010Prop51ColorRGB
 90
-16777216
102
RTVSPost2010PropOp51
 70
     0
102
RTVSPost2010Prop52
140
1.0
102
RTVSPost2010PropOp52
 70
     0
102
RTVSPost2010Prop53
 90
        2
102
RTVSPost2010PropOp53
 70
     1
102
RTVSPost2010Prop54
  1
strokes_ogs.tif
102
RTVSPost2010PropOp54
 70
     1
102
RTVSPost2010Prop55
280
     0
102
RTVSPost2010PropOp55
 70
     1
102
RTVSPost2010Prop56
140
1.0
102
RTVSPost2010PropOp56
 70
     1
102
RTVSPost2010Prop57
140
1.0
102
RTVSPost2010PropOp57
 70
     1
102
RTVSPropertyOp0
 70
     1
102
RTVSPropertyOp1
 70
     1
102
RTVSPropertyOp2
 70
     1
102
RTVSPropertyOp3
 70
     1
102
RTVSPropertyOp4
 70
     1
102
RTVSPropertyOp5
 70
     1
102
RTVSPropertyOp6
 70
     1
102
RTVSPropertyOp7
 70
     1
102
RTVSPropertyOp8
 70
     1
102
RTVSPropertyOp9
 70
     1
102
RTVSPropertyOp10
 70
     1
102
RTVSPropertyOp11
 70
     1
102
RTVSPropertyOp12
 70
     1
102
RTVSPropertyOp13
 70
     1
102
RTVSPropertyOp14
 70
     1
102
RTVSPropertyOp15
 70
     1
102
RTVSPropertyOp16
 70
     1
102
RTVSPropertyOp17
 70
     1
102
RTVSPropertyOp18
 70
     1
102
RTVSPropertyOp19
 70
     1
102
RTVSPropertyOp20
 70
     1
102
RTVSPropertyOp21
 70
     1
102
RTVSPropertyOp22
 70
     1
102
RTVSPropertyOp23
 70
     1
102
RTVSPropertyOp24
 70
     1
102
RTVSPropertyOp25
 70
     1
102
RTVSPropertyOp26
 70
     1
102
RTVSPropertyOp27
 70
     1
102
RTVSPropertyOp28
 70
     1
102
RTVSPropertyOp29
 70
     1
102
RTVSPropertyOp30
 70
     1
102
RTVSPropertyOp31
 70
     1
102
RTVSPropertyOp32
 70
     1
102
RTVSPropertyOp33
 70
     1
102
RTVSPropertyOp34
 70
     1
102
RTVSPropertyOp35
 70
     1
102
RTVSPropertyOp36
 70
     1
102
RTVSPropertyOp37
 70
     1
102
RTVSPropertyOp38
 70
     1
102
RTVSPropertyOp39
 70
     1
102
RTVSPropertyOp40
 70
     1
102
RTVSPropertyOp41
 70
     1
102
RTVSPropertyOp42
 70
     1
102
RTVSPropertyOp43
 70
     1
102
RTVSPropertyOp44
 70
     1
102
RTVSPropertyOp45
 70
     1
102
RTVSPropertyOp46
 70
     1
102
RTVSPropertyOp47
 70
     1
102
RTVSPropertyOp48
 70
     1
102
RTVSPropertyOp49
 70
     1
102
RTVSPropertyOp50
 70
     1
102
RTVSPropertyOp51
 70
     0
102
RTVSPropertyOp52
 70
     0
102
RTVSPropertyOp53
 70
     1
102
RTVSPropertyOp54
 70
     1
102
RTVSPropertyOp55
 70
     1
102
RTVSPropertyOp56
 70
     1
102
RTVSPropertyOp57
 70
     1
102
RTVSPropertyOp58
 70
     1
102
RTVSPropertyOp59
 70
     1
102
RTVSPropertyOp60
 70
     1
102
RTVSPropertyOp61
 70
     1
102
RTVSPropertyOp62
 70
     1
  0
XRECORD
  5
2D6A5
102
{ACAD_REACTORS
330
2D6A4
102
}
330
2D6A4
100
AcDbXrecord
280
     1
102
RTVSPost2010Prop28
280
     0
102
RTVSPost2010PropOp28
 70
     0
102
RTVSPost2010Prop29
280
     1
102
RTVSPost2010PropOp29
 70
     0
102
RTVSPost2010Prop30
280
     1
102
RTVSPost2010PropOp30
 70
     0
102
RTVSPost2010Prop31
280
     0
102
RTVSPost2010PropOp31
 70
     0
102
RTVSPost2010Prop32
280
     0
102
RTVSPost2010PropOp32
 70
     0
102
RTVSPost2010Prop33
280
     0
102
RTVSPost2010PropOp33
 70
     0
102
RTVSPost2010Prop34
280
     0
102
RTVSPost2010PropOp34
 70
     0
102
RTVSPost2010Prop35
280
     0
102
RTVSPost2010PropOp35
 70
     0
102
RTVSPost2010Prop36
280
     0
102
RTVSPost2010PropOp36
 70
     0
102
RTVSPost2010Prop37
 90
       50
102
RTVSPost2010PropOp37
 70
     0
102
RTVSPost2010Prop38
140
0.0
102
RTVSPost2010PropOp38
 70
     0
102
RTVSPost2010Prop39
140
1.0
102
RTVSPost2010PropOp39
 70
     0
102
RTVSPost2010Prop40
 90
        0
102
RTVSPost2010PropOp40
 70
     0
102
RTVSPost2010Prop41ColorIndex
 90
       18
102
RTVSPost2010Prop41ColorRGB
 90
        0
102
RTVSPost2010PropOp41
 70
     0
102
RTVSPost2010Prop42
 90
       50
102
RTVSPost2010PropOp42
 70
     0
102
RTVSPost2010Prop43
 90
        3
102
RTVSPost2010PropOp43
 70
     0
102
RTVSPost2010Prop44ColorIndex
 90
        5
102
RTVSPost2010Prop44ColorRGB
 90
      255
102
RTVSPost2010PropOp44
 70
     0
102
RTVSPost2010Prop45
280
     0
102
RTVSPost2010PropOp45
 70
     0
102
RTVSPost2010Prop46
 90
       50
102
RTVSPost2010PropOp46
 70
     0
102
RTVSPost2010Prop47
 90
       50
102
RTVSPost2010PropOp47
 70
     0
102
RTVSPost2010Prop48
 90
       50
102
RTVSPost2010PropOp48
 70
     0
102
RTVSPost2010Prop49
280
     0
102
RTVSPost2010PropOp49
 70
     0
102
RTVSPost2010Prop50
 90
       50
102
RTVSPost2010PropOp50
 70
     0
102
RTVSPost2010Prop51ColorIndex
 90
      256
102
RTVSPost2010Prop51ColorRGB
 90
-16777216
102
RTVSPost2010PropOp51
 70
     0
102
RTVSPost2010Prop52
140
1.0
102
RTVSPost2010PropOp52
 70
     0
102
RTVSPost2010Prop53
 90
        2
102
RTVSPost2010PropOp53
 70
     0
102
RTVSPost2010Prop54
  1
strokes_ogs.tif
102
RTVSPost2010PropOp54
 70
     0
102
RTVSPost2010Prop55
280
     0
102
RTVSPost2010PropOp55
 70
     0
102
RTVSPost2010Prop56
140
1.0
102
RTVSPost2010PropOp56
 70
     0
102
RTVSPost2010Prop57
140
1.0
102
RTVSPost2010PropOp57
 70
     0
102
RTVSPropertyOp0
 70
     0
102
RTVSPropertyOp1
 70
     0
102
RTVSPropertyOp2
 70
     0
102
RTVSPropertyOp3
 70
     0
102
RTVSPropertyOp4
 70
     0
102
RTVSPropertyOp5
 70
     0
102
RTVSPropertyOp6
 70
     0
102
RTVSPropertyOp7
 70
     0
102
RTVSPropertyOp8
 70
     0
102
RTVSPropertyOp9
 70
     0
102
RTVSPropertyOp10
 70
     0
102
RTVSPropertyOp11
 70
     0
102
RTVSPropertyOp12
 70
     0
102
RTVSPropertyOp13
 70
     0
102
RTVSPropertyOp14
 70
     2
102
RTVSPropertyOp15
 70
     0
102
RTVSPropertyOp16
 70
     0
102
RTVSPropertyOp17
 70
     0
102
RTVSPropertyOp18
 70
     0
102
RTVSPropertyOp19
 70
     0
102
RTVSPropertyOp20
 70
     0
102
RTVSPropertyOp21
 70
     0
102
RTVSPropertyOp22
 70
     0
102
RTVSPropertyOp23
 70
     0
102
RTVSPropertyOp24
 70
     0
102
RTVSPropertyOp25
 70
     0
102
RTVSPropertyOp26
 70
     0
102
RTVSPropertyOp27
 70
     0
102
RTVSPropertyOp28
 70
     0
102
RTVSPropertyOp29
 70
     0
102
RTVSPropertyOp30
 70
     0
102
RTVSPropertyOp31
 70
     0
102
RTVSPropertyOp32
 70
     0
102
RTVSPropertyOp33
 70
     0
102
RTVSPropertyOp34
 70
     0
102
RTVSPropertyOp35
 70
     0
102
RTVSPropertyOp36
 70
     0
102
RTVSPropertyOp37
 70
     0
102
RTVSPropertyOp38
 70
     0
102
RTVSPropertyOp39
 70
     0
102
RTVSPropertyOp40
 70
     0
102
RTVSPropertyOp41
 70
     0
102
RTVSPropertyOp42
 70
     0
102
RTVSPropertyOp43
 70
     0
102
RTVSPropertyOp44
 70
     0
102
RTVSPropertyOp45
 70
     0
102
RTVSPropertyOp46
 70
     0
102
RTVSPropertyOp47
 70
     0
102
RTVSPropertyOp48
 70
     0
102
RTVSPropertyOp49
 70
     0
102
RTVSPropertyOp50
 70
     0
102
RTVSPropertyOp51
 70
     0
102
RTVSPropertyOp52
 70
     0
102
RTVSPropertyOp53
 70
     0
102
RTVSPropertyOp54
 70
     0
102
RTVSPropertyOp55
 70
     0
102
RTVSPropertyOp56
 70
     0
102
RTVSPropertyOp57
 70
     0
102
RTVSPropertyOp58
 70
     1
102
RTVSPropertyOp59
 70
     1
102
RTVSPropertyOp60
 70
     1
102
RTVSPropertyOp61
 70
     1
102
RTVSPropertyOp62
 70
     1
  0
XRECORD
  5
2D693
102
{ACAD_REACTORS
330
2D692
102
}
330
2D692
100
AcDbXrecord
280
     1
102
RTVSPost2010Prop28
280
     0
102
RTVSPost2010PropOp28
 70
     1
102
RTVSPost2010Prop29
280
     1
102
RTVSPost2010PropOp29
 70
     1
102
RTVSPost2010Prop30
280
     1
102
RTVSPost2010PropOp30
 70
     1
102
RTVSPost2010Prop31
280
     0
102
RTVSPost2010PropOp31
 70
     1
102
RTVSPost2010Prop32
280
     0
102
RTVSPost2010PropOp32
 70
     1
102
RTVSPost2010Prop33
280
     0
102
RTVSPost2010PropOp33
 70
     1
102
RTVSPost2010Prop34
280
     0
102
RTVSPost2010PropOp34
 70
     1
102
RTVSPost2010Prop35
280
     0
102
RTVSPost2010PropOp35
 70
     1
102
RTVSPost2010Prop36
280
     0
102
RTVSPost2010PropOp36
 70
     1
102
RTVSPost2010Prop37
 90
       50
102
RTVSPost2010PropOp37
 70
     1
102
RTVSPost2010Prop38
140
0.0
102
RTVSPost2010PropOp38
 70
     1
102
RTVSPost2010Prop39
140
1.0
102
RTVSPost2010PropOp39
 70
     1
102
RTVSPost2010Prop40
 90
        0
102
RTVSPost2010PropOp40
 70
     1
102
RTVSPost2010Prop41ColorIndex
 90
       18
102
RTVSPost2010Prop41ColorRGB
 90
        0
102
RTVSPost2010PropOp41
 70
     1
102
RTVSPost2010Prop42
 90
       50
102
RTVSPost2010PropOp42
 70
     1
102
RTVSPost2010Prop43
 90
        3
102
RTVSPost2010PropOp43
 70
     1
102
RTVSPost2010Prop44ColorIndex
 90
        5
102
RTVSPost2010Prop44ColorRGB
 90
      255
102
RTVSPost2010PropOp44
 70
     1
102
RTVSPost2010Prop45
280
     0
102
RTVSPost2010PropOp45
 70
     1
102
RTVSPost2010Prop46
 90
       50
102
RTVSPost2010PropOp46
 70
     1
102
RTVSPost2010Prop47
 90
       50
102
RTVSPost2010PropOp47
 70
     1
102
RTVSPost2010Prop48
 90
       50
102
RTVSPost2010PropOp48
 70
     1
102
RTVSPost2010Prop49
280
     0
102
RTVSPost2010PropOp49
 70
     1
102
RTVSPost2010Prop50
 90
       50
102
RTVSPost2010PropOp50
 70
     1
102
RTVSPost2010Prop51ColorIndex
 90
      256
102
RTVSPost2010Prop51ColorRGB
 90
-16777216
102
RTVSPost2010PropOp51
 70
     0
102
RTVSPost2010Prop52
140
1.0
102
RTVSPost2010PropOp52
 70
     0
102
RTVSPost2010Prop53
 90
        2
102
RTVSPost2010PropOp53
 70
     1
102
RTVSPost2010Prop54
  1
strokes_ogs.tif
102
RTVSPost2010PropOp54
 70
     1
102
RTVSPost2010Prop55
280
     0
102
RTVSPost2010PropOp55
 70
     1
102
RTVSPost2010Prop56
140
1.0
102
RTVSPost2010PropOp56
 70
     1
102
RTVSPost2010Prop57
140
1.0
102
RTVSPost2010PropOp57
 70
     1
102
RTVSPropertyOp0
 70
     1
102
RTVSPropertyOp1
 70
     1
102
RTVSPropertyOp2
 70
     1
102
RTVSPropertyOp3
 70
     1
102
RTVSPropertyOp4
 70
     1
102
RTVSPropertyOp5
 70
     1
102
RTVSPropertyOp6
 70
     1
102
RTVSPropertyOp7
 70
     1
102
RTVSPropertyOp8
 70
     1
102
RTVSPropertyOp9
 70
     1
102
RTVSPropertyOp10
 70
     1
102
RTVSPropertyOp11
 70
     1
102
RTVSPropertyOp12
 70
     1
102
RTVSPropertyOp13
 70
     1
102
RTVSPropertyOp14
 70
     1
102
RTVSPropertyOp15
 70
     1
102
RTVSPropertyOp16
 70
     1
102
RTVSPropertyOp17
 70
     1
102
RTVSPropertyOp18
 70
     1
102
RTVSPropertyOp19
 70
     1
102
RTVSPropertyOp20
 70
     1
102
RTVSPropertyOp21
 70
     1
102
RTVSPropertyOp22
 70
     1
102
RTVSPropertyOp23
 70
     1
102
RTVSPropertyOp24
 70
     1
102
RTVSPropertyOp25
 70
     1
102
RTVSPropertyOp26
 70
     1
102
RTVSPropertyOp27
 70
     1
102
RTVSPropertyOp28
 70
     1
102
RTVSPropertyOp29
 70
     1
102
RTVSPropertyOp30
 70
     1
102
RTVSPropertyOp31
 70
     1
102
RTVSPropertyOp32
 70
     1
102
RTVSPropertyOp33
 70
     1
102
RTVSPropertyOp34
 70
     1
102
RTVSPropertyOp35
 70
     1
102
RTVSPropertyOp36
 70
     1
102
RTVSPropertyOp37
 70
     1
102
RTVSPropertyOp38
 70
     1
102
RTVSPropertyOp39
 70
     1
102
RTVSPropertyOp40
 70
     1
102
RTVSPropertyOp41
 70
     1
102
RTVSPropertyOp42
 70
     1
102
RTVSPropertyOp43
 70
     1
102
RTVSPropertyOp44
 70
     1
102
RTVSPropertyOp45
 70
     1
102
RTVSPropertyOp46
 70
     1
102
RTVSPropertyOp47
 70
     1
102
RTVSPropertyOp48
 70
     1
102
RTVSPropertyOp49
 70
     1
102
RTVSPropertyOp50
 70
     1
102
RTVSPropertyOp51
 70
     0
102
RTVSPropertyOp52
 70
     0
102
RTVSPropertyOp53
 70
     1
102
RTVSPropertyOp54
 70
     1
102
RTVSPropertyOp55
 70
     1
102
RTVSPropertyOp56
 70
     1
102
RTVSPropertyOp57
 70
     1
102
RTVSPropertyOp58
 70
     1
102
RTVSPropertyOp59
 70
     1
102
RTVSPropertyOp60
 70
     1
102
RTVSPropertyOp61
 70
     1
102
RTVSPropertyOp62
 70
     1
  0
XRECORD
  5
2D6B1
102
{ACAD_REACTORS
330
2D6B0
102
}
330
2D6B0
100
AcDbXrecord
280
     1
102
RTVSPost2010Prop28
280
     0
102
RTVSPost2010PropOp28
 70
     1
102
RTVSPost2010Prop29
280
     1
102
RTVSPost2010PropOp29
 70
     1
102
RTVSPost2010Prop30
280
     1
102
RTVSPost2010PropOp30
 70
     1
102
RTVSPost2010Prop31
280
     0
102
RTVSPost2010PropOp31
 70
     1
102
RTVSPost2010Prop32
280
     0
102
RTVSPost2010PropOp32
 70
     1
102
RTVSPost2010Prop33
280
     0
102
RTVSPost2010PropOp33
 70
     1
102
RTVSPost2010Prop34
280
     0
102
RTVSPost2010PropOp34
 70
     1
102
RTVSPost2010Prop35
280
     0
102
RTVSPost2010PropOp35
 70
     1
102
RTVSPost2010Prop36
280
     0
102
RTVSPost2010PropOp36
 70
     1
102
RTVSPost2010Prop37
 90
       50
102
RTVSPost2010PropOp37
 70
     1
102
RTVSPost2010Prop38
140
0.0
102
RTVSPost2010PropOp38
 70
     1
102
RTVSPost2010Prop39
140
1.0
102
RTVSPost2010PropOp39
 70
     1
102
RTVSPost2010Prop40
 90
        0
102
RTVSPost2010PropOp40
 70
     1
102
RTVSPost2010Prop41ColorIndex
 90
       18
102
RTVSPost2010Prop41ColorRGB
 90
        0
102
RTVSPost2010PropOp41
 70
     1
102
RTVSPost2010Prop42
 90
       50
102
RTVSPost2010PropOp42
 70
     1
102
RTVSPost2010Prop43
 90
        3
102
RTVSPost2010PropOp43
 70
     1
102
RTVSPost2010Prop44ColorIndex
 90
        5
102
RTVSPost2010Prop44ColorRGB
 90
      255
102
RTVSPost2010PropOp44
 70
     1
102
RTVSPost2010Prop45
280
     0
102
RTVSPost2010PropOp45
 70
     1
102
RTVSPost2010Prop46
 90
       50
102
RTVSPost2010PropOp46
 70
     1
102
RTVSPost2010Prop47
 90
       50
102
RTVSPost2010PropOp47
 70
     1
102
RTVSPost2010Prop48
 90
       50
102
RTVSPost2010PropOp48
 70
     1
102
RTVSPost2010Prop49
280
     0
102
RTVSPost2010PropOp49
 70
     1
102
RTVSPost2010Prop50
 90
       50
102
RTVSPost2010PropOp50
 70
     1
102
RTVSPost2010Prop51ColorIndex
 90
      256
102
RTVSPost2010Prop51ColorRGB
 90
-16777216
102
RTVSPost2010PropOp51
 70
     0
102
RTVSPost2010Prop52
140
1.0
102
RTVSPost2010PropOp52
 70
     0
102
RTVSPost2010Prop53
 90
        2
102
RTVSPost2010PropOp53
 70
     1
102
RTVSPost2010Prop54
  1
strokes_ogs.tif
102
RTVSPost2010PropOp54
 70
     1
102
RTVSPost2010Prop55
280
     0
102
RTVSPost2010PropOp55
 70
     1
102
RTVSPost2010Prop56
140
1.0
102
RTVSPost2010PropOp56
 70
     1
102
RTVSPost2010Prop57
140
1.0
102
RTVSPost2010PropOp57
 70
     1
102
RTVSPropertyOp0
 70
     1
102
RTVSPropertyOp1
 70
     1
102
RTVSPropertyOp2
 70
     1
102
RTVSPropertyOp3
 70
     1
102
RTVSPropertyOp4
 70
     1
102
RTVSPropertyOp5
 70
     1
102
RTVSPropertyOp6
 70
     1
102
RTVSPropertyOp7
 70
     1
102
RTVSPropertyOp8
 70
     1
102
RTVSPropertyOp9
 70
     1
102
RTVSPropertyOp10
 70
     1
102
RTVSPropertyOp11
 70
     1
102
RTVSPropertyOp12
 70
     1
102
RTVSPropertyOp13
 70
     1
102
RTVSPropertyOp14
 70
     1
102
RTVSPropertyOp15
 70
     1
102
RTVSPropertyOp16
 70
     1
102
RTVSPropertyOp17
 70
     1
102
RTVSPropertyOp18
 70
     1
102
RTVSPropertyOp19
 70
     1
102
RTVSPropertyOp20
 70
     1
102
RTVSPropertyOp21
 70
     1
102
RTVSPropertyOp22
 70
     1
102
RTVSPropertyOp23
 70
     1
102
RTVSPropertyOp24
 70
     1
102
RTVSPropertyOp25
 70
     1
102
RTVSPropertyOp26
 70
     1
102
RTVSPropertyOp27
 70
     1
102
RTVSPropertyOp28
 70
     1
102
RTVSPropertyOp29
 70
     1
102
RTVSPropertyOp30
 70
     1
102
RTVSPropertyOp31
 70
     1
102
RTVSPropertyOp32
 70
     1
102
RTVSPropertyOp33
 70
     1
102
RTVSPropertyOp34
 70
     1
102
RTVSPropertyOp35
 70
     1
102
RTVSPropertyOp36
 70
     1
102
RTVSPropertyOp37
 70
     1
102
RTVSPropertyOp38
 70
     1
102
RTVSPropertyOp39
 70
     1
102
RTVSPropertyOp40
 70
     1
102
RTVSPropertyOp41
 70
     1
102
RTVSPropertyOp42
 70
     1
102
RTVSPropertyOp43
 70
     1
102
RTVSPropertyOp44
 70
     1
102
RTVSPropertyOp45
 70
     1
102
RTVSPropertyOp46
 70
     1
102
RTVSPropertyOp47
 70
     1
102
RTVSPropertyOp48
 70
     1
102
RTVSPropertyOp49
 70
     1
102
RTVSPropertyOp50
 70
     1
102
RTVSPropertyOp51
 70
     0
102
RTVSPropertyOp52
 70
     0
102
RTVSPropertyOp53
 70
     1
102
RTVSPropertyOp54
 70
     1
102
RTVSPropertyOp55
 70
     1
102
RTVSPropertyOp56
 70
     1
102
RTVSPropertyOp57
 70
     1
102
RTVSPropertyOp58
 70
     1
102
RTVSPropertyOp59
 70
     1
102
RTVSPropertyOp60
 70
     1
102
RTVSPropertyOp61
 70
     1
102
RTVSPropertyOp62
 70
     1
  0
XRECORD
  5
2D6AF
102
{ACAD_REACTORS
330
2D6AE
102
}
330
2D6AE
100
AcDbXrecord
280
     1
102
RTVSPost2010Prop28
280
     0
102
RTVSPost2010PropOp28
 70
     1
102
RTVSPost2010Prop29
280
     1
102
RTVSPost2010PropOp29
 70
     1
102
RTVSPost2010Prop30
280
     1
102
RTVSPost2010PropOp30
 70
     1
102
RTVSPost2010Prop31
280
     0
102
RTVSPost2010PropOp31
 70
     1
102
RTVSPost2010Prop32
280
     0
102
RTVSPost2010PropOp32
 70
     1
102
RTVSPost2010Prop33
280
     0
102
RTVSPost2010PropOp33
 70
     1
102
RTVSPost2010Prop34
280
     0
102
RTVSPost2010PropOp34
 70
     1
102
RTVSPost2010Prop35
280
     0
102
RTVSPost2010PropOp35
 70
     1
102
RTVSPost2010Prop36
280
     0
102
RTVSPost2010PropOp36
 70
     1
102
RTVSPost2010Prop37
 90
       50
102
RTVSPost2010PropOp37
 70
     1
102
RTVSPost2010Prop38
140
0.0
102
RTVSPost2010PropOp38
 70
     1
102
RTVSPost2010Prop39
140
1.0
102
RTVSPost2010PropOp39
 70
     1
102
RTVSPost2010Prop40
 90
        0
102
RTVSPost2010PropOp40
 70
     1
102
RTVSPost2010Prop41ColorIndex
 90
       18
102
RTVSPost2010Prop41ColorRGB
 90
        0
102
RTVSPost2010PropOp41
 70
     1
102
RTVSPost2010Prop42
 90
       50
102
RTVSPost2010PropOp42
 70
     1
102
RTVSPost2010Prop43
 90
        3
102
RTVSPost2010PropOp43
 70
     1
102
RTVSPost2010Prop44ColorIndex
 90
        5
102
RTVSPost2010Prop44ColorRGB
 90
      255
102
RTVSPost2010PropOp44
 70
     1
102
RTVSPost2010Prop45
280
     0
102
RTVSPost2010PropOp45
 70
     1
102
RTVSPost2010Prop46
 90
       50
102
RTVSPost2010PropOp46
 70
     1
102
RTVSPost2010Prop47
 90
       50
102
RTVSPost2010PropOp47
 70
     1
102
RTVSPost2010Prop48
 90
       50
102
RTVSPost2010PropOp48
 70
     1
102
RTVSPost2010Prop49
280
     0
102
RTVSPost2010PropOp49
 70
     1
102
RTVSPost2010Prop50
 90
       50
102
RTVSPost2010PropOp50
 70
     1
102
RTVSPost2010Prop51ColorIndex
 90
      256
102
RTVSPost2010Prop51ColorRGB
 90
-16777216
102
RTVSPost2010PropOp51
 70
     0
102
RTVSPost2010Prop52
140
1.0
102
RTVSPost2010PropOp52
 70
     0
102
RTVSPost2010Prop53
 90
        2
102
RTVSPost2010PropOp53
 70
     1
102
RTVSPost2010Prop54
  1
strokes_ogs.tif
102
RTVSPost2010PropOp54
 70
     1
102
RTVSPost2010Prop55
280
     0
102
RTVSPost2010PropOp55
 70
     1
102
RTVSPost2010Prop56
140
1.0
102
RTVSPost2010PropOp56
 70
     1
102
RTVSPost2010Prop57
140
1.0
102
RTVSPost2010PropOp57
 70
     1
102
RTVSPropertyOp0
 70
     1
102
RTVSPropertyOp1
 70
     1
102
RTVSPropertyOp2
 70
     1
102
RTVSPropertyOp3
 70
     1
102
RTVSPropertyOp4
 70
     1
102
RTVSPropertyOp5
 70
     1
102
RTVSPropertyOp6
 70
     1
102
RTVSPropertyOp7
 70
     1
102
RTVSPropertyOp8
 70
     1
102
RTVSPropertyOp9
 70
     1
102
RTVSPropertyOp10
 70
     1
102
RTVSPropertyOp11
 70
     1
102
RTVSPropertyOp12
 70
     1
102
RTVSPropertyOp13
 70
     1
102
RTVSPropertyOp14
 70
     1
102
RTVSPropertyOp15
 70
     1
102
RTVSPropertyOp16
 70
     1
102
RTVSPropertyOp17
 70
     1
102
RTVSPropertyOp18
 70
     1
102
RTVSPropertyOp19
 70
     1
102
RTVSPropertyOp20
 70
     1
102
RTVSPropertyOp21
 70
     1
102
RTVSPropertyOp22
 70
     1
102
RTVSPropertyOp23
 70
     1
102
RTVSPropertyOp24
 70
     1
102
RTVSPropertyOp25
 70
     1
102
RTVSPropertyOp26
 70
     1
102
RTVSPropertyOp27
 70
     1
102
RTVSPropertyOp28
 70
     1
102
RTVSPropertyOp29
 70
     1
102
RTVSPropertyOp30
 70
     1
102
RTVSPropertyOp31
 70
     1
102
RTVSPropertyOp32
 70
     1
102
RTVSPropertyOp33
 70
     1
102
RTVSPropertyOp34
 70
     1
102
RTVSPropertyOp35
 70
     1
102
RTVSPropertyOp36
 70
     1
102
RTVSPropertyOp37
 70
     1
102
RTVSPropertyOp38
 70
     1
102
RTVSPropertyOp39
 70
     1
102
RTVSPropertyOp40
 70
     1
102
RTVSPropertyOp41
 70
     1
102
RTVSPropertyOp42
 70
     1
102
RTVSPropertyOp43
 70
     1
102
RTVSPropertyOp44
 70
     1
102
RTVSPropertyOp45
 70
     1
102
RTVSPropertyOp46
 70
     1
102
RTVSPropertyOp47
 70
     1
102
RTVSPropertyOp48
 70
     1
102
RTVSPropertyOp49
 70
     1
102
RTVSPropertyOp50
 70
     1
102
RTVSPropertyOp51
 70
     0
102
RTVSPropertyOp52
 70
     0
102
RTVSPropertyOp53
 70
     1
102
RTVSPropertyOp54
 70
     1
102
RTVSPropertyOp55
 70
     1
102
RTVSPropertyOp56
 70
     1
102
RTVSPropertyOp57
 70
     1
102
RTVSPropertyOp58
 70
     1
102
RTVSPropertyOp59
 70
     1
102
RTVSPropertyOp60
 70
     1
102
RTVSPropertyOp61
 70
     1
102
RTVSPropertyOp62
 70
     1
  0
XRECORD
  5
2D6A9
102
{ACAD_REACTORS
330
2D6A8
102
}
330
2D6A8
100
AcDbXrecord
280
     1
102
RTVSPost2010Prop28
280
     0
102
RTVSPost2010PropOp28
 70
     1
102
RTVSPost2010Prop29
280
     1
102
RTVSPost2010PropOp29
 70
     1
102
RTVSPost2010Prop30
280
     1
102
RTVSPost2010PropOp30
 70
     1
102
RTVSPost2010Prop31
280
     0
102
RTVSPost2010PropOp31
 70
     1
102
RTVSPost2010Prop32
280
     0
102
RTVSPost2010PropOp32
 70
     1
102
RTVSPost2010Prop33
280
     0
102
RTVSPost2010PropOp33
 70
     1
102
RTVSPost2010Prop34
280
     0
102
RTVSPost2010PropOp34
 70
     1
102
RTVSPost2010Prop35
280
     0
102
RTVSPost2010PropOp35
 70
     1
102
RTVSPost2010Prop36
280
     0
102
RTVSPost2010PropOp36
 70
     1
102
RTVSPost2010Prop37
 90
       50
102
RTVSPost2010PropOp37
 70
     1
102
RTVSPost2010Prop38
140
0.0
102
RTVSPost2010PropOp38
 70
     1
102
RTVSPost2010Prop39
140
1.0
102
RTVSPost2010PropOp39
 70
     1
102
RTVSPost2010Prop40
 90
        0
102
RTVSPost2010PropOp40
 70
     1
102
RTVSPost2010Prop41ColorIndex
 90
       18
102
RTVSPost2010Prop41ColorRGB
 90
        0
102
RTVSPost2010PropOp41
 70
     1
102
RTVSPost2010Prop42
 90
       50
102
RTVSPost2010PropOp42
 70
     1
102
RTVSPost2010Prop43
 90
        3
102
RTVSPost2010PropOp43
 70
     1
102
RTVSPost2010Prop44ColorIndex
 90
        5
102
RTVSPost2010Prop44ColorRGB
 90
      255
102
RTVSPost2010PropOp44
 70
     1
102
RTVSPost2010Prop45
280
     0
102
RTVSPost2010PropOp45
 70
     1
102
RTVSPost2010Prop46
 90
       50
102
RTVSPost2010PropOp46
 70
     1
102
RTVSPost2010Prop47
 90
       50
102
RTVSPost2010PropOp47
 70
     1
102
RTVSPost2010Prop48
 90
       50
102
RTVSPost2010PropOp48
 70
     1
102
RTVSPost2010Prop49
280
     0
102
RTVSPost2010PropOp49
 70
     1
102
RTVSPost2010Prop50
 90
       50
102
RTVSPost2010PropOp50
 70
     1
102
RTVSPost2010Prop51ColorIndex
 90
      256
102
RTVSPost2010Prop51ColorRGB
 90
-16777216
102
RTVSPost2010PropOp51
 70
     0
102
RTVSPost2010Prop52
140
1.0
102
RTVSPost2010PropOp52
 70
     0
102
RTVSPost2010Prop53
 90
        2
102
RTVSPost2010PropOp53
 70
     1
102
RTVSPost2010Prop54
  1
strokes_ogs.tif
102
RTVSPost2010PropOp54
 70
     1
102
RTVSPost2010Prop55
280
     0
102
RTVSPost2010PropOp55
 70
     1
102
RTVSPost2010Prop56
140
1.0
102
RTVSPost2010PropOp56
 70
     1
102
RTVSPost2010Prop57
140
1.0
102
RTVSPost2010PropOp57
 70
     1
102
RTVSPropertyOp0
 70
     1
102
RTVSPropertyOp1
 70
     1
102
RTVSPropertyOp2
 70
     1
102
RTVSPropertyOp3
 70
     1
102
RTVSPropertyOp4
 70
     1
102
RTVSPropertyOp5
 70
     1
102
RTVSPropertyOp6
 70
     1
102
RTVSPropertyOp7
 70
     1
102
RTVSPropertyOp8
 70
     1
102
RTVSPropertyOp9
 70
     1
102
RTVSPropertyOp10
 70
     1
102
RTVSPropertyOp11
 70
     1
102
RTVSPropertyOp12
 70
     1
102
RTVSPropertyOp13
 70
     1
102
RTVSPropertyOp14
 70
     1
102
RTVSPropertyOp15
 70
     1
102
RTVSPropertyOp16
 70
     1
102
RTVSPropertyOp17
 70
     1
102
RTVSPropertyOp18
 70
     1
102
RTVSPropertyOp19
 70
     1
102
RTVSPropertyOp20
 70
     1
102
RTVSPropertyOp21
 70
     1
102
RTVSPropertyOp22
 70
     1
102
RTVSPropertyOp23
 70
     1
102
RTVSPropertyOp24
 70
     1
102
RTVSPropertyOp25
 70
     1
102
RTVSPropertyOp26
 70
     1
102
RTVSPropertyOp27
 70
     1
102
RTVSPropertyOp28
 70
     1
102
RTVSPropertyOp29
 70
     1
102
RTVSPropertyOp30
 70
     1
102
RTVSPropertyOp31
 70
     1
102
RTVSPropertyOp32
 70
     1
102
RTVSPropertyOp33
 70
     1
102
RTVSPropertyOp34
 70
     1
102
RTVSPropertyOp35
 70
     1
102
RTVSPropertyOp36
 70
     1
102
RTVSPropertyOp37
 70
     1
102
RTVSPropertyOp38
 70
     1
102
RTVSPropertyOp39
 70
     1
102
RTVSPropertyOp40
 70
     1
102
RTVSPropertyOp41
 70
     1
102
RTVSPropertyOp42
 70
     1
102
RTVSPropertyOp43
 70
     1
102
RTVSPropertyOp44
 70
     1
102
RTVSPropertyOp45
 70
     1
102
RTVSPropertyOp46
 70
     1
102
RTVSPropertyOp47
 70
     1
102
RTVSPropertyOp48
 70
     1
102
RTVSPropertyOp49
 70
     1
102
RTVSPropertyOp50
 70
     1
102
RTVSPropertyOp51
 70
     0
102
RTVSPropertyOp52
 70
     0
102
RTVSPropertyOp53
 70
     1
102
RTVSPropertyOp54
 70
     1
102
RTVSPropertyOp55
 70
     1
102
RTVSPropertyOp56
 70
     1
102
RTVSPropertyOp57
 70
     1
102
RTVSPropertyOp58
 70
     1
102
RTVSPropertyOp59
 70
     1
102
RTVSPropertyOp60
 70
     1
102
RTVSPropertyOp61
 70
     1
102
RTVSPropertyOp62
 70
     1
  0
XRECORD
  5
2D6AB
102
{ACAD_REACTORS
330
2D6AA
102
}
330
2D6AA
100
AcDbXrecord
280
     1
102
RTVSPost2010Prop28
280
     0
102
RTVSPost2010PropOp28
 70
     1
102
RTVSPost2010Prop29
280
     1
102
RTVSPost2010PropOp29
 70
     1
102
RTVSPost2010Prop30
280
     1
102
RTVSPost2010PropOp30
 70
     1
102
RTVSPost2010Prop31
280
     0
102
RTVSPost2010PropOp31
 70
     1
102
RTVSPost2010Prop32
280
     0
102
RTVSPost2010PropOp32
 70
     1
102
RTVSPost2010Prop33
280
     0
102
RTVSPost2010PropOp33
 70
     1
102
RTVSPost2010Prop34
280
     0
102
RTVSPost2010PropOp34
 70
     1
102
RTVSPost2010Prop35
280
     0
102
RTVSPost2010PropOp35
 70
     1
102
RTVSPost2010Prop36
280
     0
102
RTVSPost2010PropOp36
 70
     1
102
RTVSPost2010Prop37
 90
       50
102
RTVSPost2010PropOp37
 70
     1
102
RTVSPost2010Prop38
140
0.0
102
RTVSPost2010PropOp38
 70
     1
102
RTVSPost2010Prop39
140
1.0
102
RTVSPost2010PropOp39
 70
     1
102
RTVSPost2010Prop40
 90
        0
102
RTVSPost2010PropOp40
 70
     1
102
RTVSPost2010Prop41ColorIndex
 90
       18
102
RTVSPost2010Prop41ColorRGB
 90
        0
102
RTVSPost2010PropOp41
 70
     1
102
RTVSPost2010Prop42
 90
       50
102
RTVSPost2010PropOp42
 70
     1
102
RTVSPost2010Prop43
 90
        3
102
RTVSPost2010PropOp43
 70
     1
102
RTVSPost2010Prop44ColorIndex
 90
        5
102
RTVSPost2010Prop44ColorRGB
 90
      255
102
RTVSPost2010PropOp44
 70
     1
102
RTVSPost2010Prop45
280
     0
102
RTVSPost2010PropOp45
 70
     1
102
RTVSPost2010Prop46
 90
       50
102
RTVSPost2010PropOp46
 70
     1
102
RTVSPost2010Prop47
 90
       50
102
RTVSPost2010PropOp47
 70
     1
102
RTVSPost2010Prop48
 90
       50
102
RTVSPost2010PropOp48
 70
     1
102
RTVSPost2010Prop49
280
     0
102
RTVSPost2010PropOp49
 70
     1
102
RTVSPost2010Prop50
 90
       50
102
RTVSPost2010PropOp50
 70
     1
102
RTVSPost2010Prop51ColorIndex
 90
      256
102
RTVSPost2010Prop51ColorRGB
 90
-16777216
102
RTVSPost2010PropOp51
 70
     0
102
RTVSPost2010Prop52
140
1.0
102
RTVSPost2010PropOp52
 70
     0
102
RTVSPost2010Prop53
 90
        2
102
RTVSPost2010PropOp53
 70
     1
102
RTVSPost2010Prop54
  1
strokes_ogs.tif
102
RTVSPost2010PropOp54
 70
     1
102
RTVSPost2010Prop55
280
     0
102
RTVSPost2010PropOp55
 70
     1
102
RTVSPost2010Prop56
140
1.0
102
RTVSPost2010PropOp56
 70
     1
102
RTVSPost2010Prop57
140
1.0
102
RTVSPost2010PropOp57
 70
     1
102
RTVSPropertyOp0
 70
     1
102
RTVSPropertyOp1
 70
     1
102
RTVSPropertyOp2
 70
     1
102
RTVSPropertyOp3
 70
     1
102
RTVSPropertyOp4
 70
     1
102
RTVSPropertyOp5
 70
     1
102
RTVSPropertyOp6
 70
     1
102
RTVSPropertyOp7
 70
     1
102
RTVSPropertyOp8
 70
     1
102
RTVSPropertyOp9
 70
     1
102
RTVSPropertyOp10
 70
     1
102
RTVSPropertyOp11
 70
     1
102
RTVSPropertyOp12
 70
     1
102
RTVSPropertyOp13
 70
     1
102
RTVSPropertyOp14
 70
     1
102
RTVSPropertyOp15
 70
     1
102
RTVSPropertyOp16
 70
     1
102
RTVSPropertyOp17
 70
     1
102
RTVSPropertyOp18
 70
     1
102
RTVSPropertyOp19
 70
     1
102
RTVSPropertyOp20
 70
     1
102
RTVSPropertyOp21
 70
     1
102
RTVSPropertyOp22
 70
     1
102
RTVSPropertyOp23
 70
     1
102
RTVSPropertyOp24
 70
     1
102
RTVSPropertyOp25
 70
     1
102
RTVSPropertyOp26
 70
     1
102
RTVSPropertyOp27
 70
     1
102
RTVSPropertyOp28
 70
     1
102
RTVSPropertyOp29
 70
     1
102
RTVSPropertyOp30
 70
     1
102
RTVSPropertyOp31
 70
     1
102
RTVSPropertyOp32
 70
     1
102
RTVSPropertyOp33
 70
     1
102
RTVSPropertyOp34
 70
     1
102
RTVSPropertyOp35
 70
     1
102
RTVSPropertyOp36
 70
     1
102
RTVSPropertyOp37
 70
     1
102
RTVSPropertyOp38
 70
     1
102
RTVSPropertyOp39
 70
     1
102
RTVSPropertyOp40
 70
     1
102
RTVSPropertyOp41
 70
     1
102
RTVSPropertyOp42
 70
     1
102
RTVSPropertyOp43
 70
     1
102
RTVSPropertyOp44
 70
     1
102
RTVSPropertyOp45
 70
     1
102
RTVSPropertyOp46
 70
     1
102
RTVSPropertyOp47
 70
     1
102
RTVSPropertyOp48
 70
     1
102
RTVSPropertyOp49
 70
     1
102
RTVSPropertyOp50
 70
     1
102
RTVSPropertyOp51
 70
     0
102
RTVSPropertyOp52
 70
     0
102
RTVSPropertyOp53
 70
     1
102
RTVSPropertyOp54
 70
     1
102
RTVSPropertyOp55
 70
     1
102
RTVSPropertyOp56
 70
     1
102
RTVSPropertyOp57
 70
     1
102
RTVSPropertyOp58
 70
     1
102
RTVSPropertyOp59
 70
     1
102
RTVSPropertyOp60
 70
     1
102
RTVSPropertyOp61
 70
     1
102
RTVSPropertyOp62
 70
     1
  0
XRECORD
  5
2D69B
102
{ACAD_REACTORS
330
2D69A
102
}
330
2D69A
100
AcDbXrecord
280
     1
102
RTVSPost2010Prop28
280
     0
102
RTVSPost2010PropOp28
 70
     1
102
RTVSPost2010Prop29
280
     1
102
RTVSPost2010PropOp29
 70
     1
102
RTVSPost2010Prop30
280
     1
102
RTVSPost2010PropOp30
 70
     1
102
RTVSPost2010Prop31
280
     0
102
RTVSPost2010PropOp31
 70
     1
102
RTVSPost2010Prop32
280
     0
102
RTVSPost2010PropOp32
 70
     1
102
RTVSPost2010Prop33
280
     0
102
RTVSPost2010PropOp33
 70
     1
102
RTVSPost2010Prop34
280
     0
102
RTVSPost2010PropOp34
 70
     1
102
RTVSPost2010Prop35
280
     0
102
RTVSPost2010PropOp35
 70
     1
102
RTVSPost2010Prop36
280
     0
102
RTVSPost2010PropOp36
 70
     1
102
RTVSPost2010Prop37
 90
       50
102
RTVSPost2010PropOp37
 70
     1
102
RTVSPost2010Prop38
140
0.0
102
RTVSPost2010PropOp38
 70
     1
102
RTVSPost2010Prop39
140
1.0
102
RTVSPost2010PropOp39
 70
     1
102
RTVSPost2010Prop40
 90
        0
102
RTVSPost2010PropOp40
 70
     1
102
RTVSPost2010Prop41ColorIndex
 90
       18
102
RTVSPost2010Prop41ColorRGB
 90
        0
102
RTVSPost2010PropOp41
 70
     1
102
RTVSPost2010Prop42
 90
       50
102
RTVSPost2010PropOp42
 70
     1
102
RTVSPost2010Prop43
 90
        3
102
RTVSPost2010PropOp43
 70
     1
102
RTVSPost2010Prop44ColorIndex
 90
        5
102
RTVSPost2010Prop44ColorRGB
 90
      255
102
RTVSPost2010PropOp44
 70
     1
102
RTVSPost2010Prop45
280
     0
102
RTVSPost2010PropOp45
 70
     1
102
RTVSPost2010Prop46
 90
       50
102
RTVSPost2010PropOp46
 70
     1
102
RTVSPost2010Prop47
 90
       50
102
RTVSPost2010PropOp47
 70
     1
102
RTVSPost2010Prop48
 90
       50
102
RTVSPost2010PropOp48
 70
     1
102
RTVSPost2010Prop49
280
     0
102
RTVSPost2010PropOp49
 70
     1
102
RTVSPost2010Prop50
 90
       50
102
RTVSPost2010PropOp50
 70
     1
102
RTVSPost2010Prop51ColorIndex
 90
      256
102
RTVSPost2010Prop51ColorRGB
 90
-16777216
102
RTVSPost2010PropOp51
 70
     0
102
RTVSPost2010Prop52
140
1.0
102
RTVSPost2010PropOp52
 70
     0
102
RTVSPost2010Prop53
 90
        2
102
RTVSPost2010PropOp53
 70
     1
102
RTVSPost2010Prop54
  1
strokes_ogs.tif
102
RTVSPost2010PropOp54
 70
     1
102
RTVSPost2010Prop55
280
     0
102
RTVSPost2010PropOp55
 70
     1
102
RTVSPost2010Prop56
140
1.0
102
RTVSPost2010PropOp56
 70
     1
102
RTVSPost2010Prop57
140
1.0
102
RTVSPost2010PropOp57
 70
     1
102
RTVSPropertyOp0
 70
     1
102
RTVSPropertyOp1
 70
     1
102
RTVSPropertyOp2
 70
     1
102
RTVSPropertyOp3
 70
     1
102
RTVSPropertyOp4
 70
     1
102
RTVSPropertyOp5
 70
     1
102
RTVSPropertyOp6
 70
     1
102
RTVSPropertyOp7
 70
     1
102
RTVSPropertyOp8
 70
     1
102
RTVSPropertyOp9
 70
     1
102
RTVSPropertyOp10
 70
     1
102
RTVSPropertyOp11
 70
     1
102
RTVSPropertyOp12
 70
     1
102
RTVSPropertyOp13
 70
     1
102
RTVSPropertyOp14
 70
     1
102
RTVSPropertyOp15
 70
     1
102
RTVSPropertyOp16
 70
     1
102
RTVSPropertyOp17
 70
     1
102
RTVSPropertyOp18
 70
     1
102
RTVSPropertyOp19
 70
     1
102
RTVSPropertyOp20
 70
     1
102
RTVSPropertyOp21
 70
     1
102
RTVSPropertyOp22
 70
     1
102
RTVSPropertyOp23
 70
     1
102
RTVSPropertyOp24
 70
     1
102
RTVSPropertyOp25
 70
     1
102
RTVSPropertyOp26
 70
     1
102
RTVSPropertyOp27
 70
     1
102
RTVSPropertyOp28
 70
     1
102
RTVSPropertyOp29
 70
     1
102
RTVSPropertyOp30
 70
     1
102
RTVSPropertyOp31
 70
     1
102
RTVSPropertyOp32
 70
     1
102
RTVSPropertyOp33
 70
     1
102
RTVSPropertyOp34
 70
     1
102
RTVSPropertyOp35
 70
     1
102
RTVSPropertyOp36
 70
     1
102
RTVSPropertyOp37
 70
     1
102
RTVSPropertyOp38
 70
     1
102
RTVSPropertyOp39
 70
     1
102
RTVSPropertyOp40
 70
     1
102
RTVSPropertyOp41
 70
     1
102
RTVSPropertyOp42
 70
     1
102
RTVSPropertyOp43
 70
     1
102
RTVSPropertyOp44
 70
     1
102
RTVSPropertyOp45
 70
     1
102
RTVSPropertyOp46
 70
     1
102
RTVSPropertyOp47
 70
     1
102
RTVSPropertyOp48
 70
     1
102
RTVSPropertyOp49
 70
     1
102
RTVSPropertyOp50
 70
     1
102
RTVSPropertyOp51
 70
     0
102
RTVSPropertyOp52
 70
     0
102
RTVSPropertyOp53
 70
     1
102
RTVSPropertyOp54
 70
     1
102
RTVSPropertyOp55
 70
     1
102
RTVSPropertyOp56
 70
     1
102
RTVSPropertyOp57
 70
     1
102
RTVSPropertyOp58
 70
     1
102
RTVSPropertyOp59
 70
     1
102
RTVSPropertyOp60
 70
     1
102
RTVSPropertyOp61
 70
     1
102
RTVSPropertyOp62
 70
     1
  0
XRECORD
  5
2D68D
102
{ACAD_REACTORS
330
2D68C
102
}
330
2D68C
100
AcDbXrecord
280
     1
102
RTVSPost2010Prop28
280
     0
102
RTVSPost2010PropOp28
 70
     1
102
RTVSPost2010Prop29
280
     1
102
RTVSPost2010PropOp29
 70
     1
102
RTVSPost2010Prop30
280
     1
102
RTVSPost2010PropOp30
 70
     1
102
RTVSPost2010Prop31
280
     0
102
RTVSPost2010PropOp31
 70
     1
102
RTVSPost2010Prop32
280
     0
102
RTVSPost2010PropOp32
 70
     1
102
RTVSPost2010Prop33
280
     0
102
RTVSPost2010PropOp33
 70
     1
102
RTVSPost2010Prop34
280
     0
102
RTVSPost2010PropOp34
 70
     1
102
RTVSPost2010Prop35
280
     0
102
RTVSPost2010PropOp35
 70
     1
102
RTVSPost2010Prop36
280
     0
102
RTVSPost2010PropOp36
 70
     1
102
RTVSPost2010Prop37
 90
       50
102
RTVSPost2010PropOp37
 70
     1
102
RTVSPost2010Prop38
140
0.0
102
RTVSPost2010PropOp38
 70
     1
102
RTVSPost2010Prop39
140
1.0
102
RTVSPost2010PropOp39
 70
     1
102
RTVSPost2010Prop40
 90
        0
102
RTVSPost2010PropOp40
 70
     1
102
RTVSPost2010Prop41ColorIndex
 90
       18
102
RTVSPost2010Prop41ColorRGB
 90
        0
102
RTVSPost2010PropOp41
 70
     1
102
RTVSPost2010Prop42
 90
       50
102
RTVSPost2010PropOp42
 70
     1
102
RTVSPost2010Prop43
 90
        3
102
RTVSPost2010PropOp43
 70
     1
102
RTVSPost2010Prop44ColorIndex
 90
        5
102
RTVSPost2010Prop44ColorRGB
 90
      255
102
RTVSPost2010PropOp44
 70
     1
102
RTVSPost2010Prop45
280
     0
102
RTVSPost2010PropOp45
 70
     1
102
RTVSPost2010Prop46
 90
       50
102
RTVSPost2010PropOp46
 70
     1
102
RTVSPost2010Prop47
 90
       50
102
RTVSPost2010PropOp47
 70
     1
102
RTVSPost2010Prop48
 90
       50
102
RTVSPost2010PropOp48
 70
     1
102
RTVSPost2010Prop49
280
     0
102
RTVSPost2010PropOp49
 70
     1
102
RTVSPost2010Prop50
 90
       50
102
RTVSPost2010PropOp50
 70
     1
102
RTVSPost2010Prop51ColorIndex
 90
      256
102
RTVSPost2010Prop51ColorRGB
 90
-16777216
102
RTVSPost2010PropOp51
 70
     0
102
RTVSPost2010Prop52
140
1.0
102
RTVSPost2010PropOp52
 70
     0
102
RTVSPost2010Prop53
 90
        2
102
RTVSPost2010PropOp53
 70
     1
102
RTVSPost2010Prop54
  1
strokes_ogs.tif
102
RTVSPost2010PropOp54
 70
     1
102
RTVSPost2010Prop55
280
     0
102
RTVSPost2010PropOp55
 70
     1
102
RTVSPost2010Prop56
140
1.0
102
RTVSPost2010PropOp56
 70
     1
102
RTVSPost2010Prop57
140
1.0
102
RTVSPost2010PropOp57
 70
     1
102
RTVSPropertyOp0
 70
     1
102
RTVSPropertyOp1
 70
     1
102
RTVSPropertyOp2
 70
     1
102
RTVSPropertyOp3
 70
     1
102
RTVSPropertyOp4
 70
     1
102
RTVSPropertyOp5
 70
     1
102
RTVSPropertyOp6
 70
     1
102
RTVSPropertyOp7
 70
     1
102
RTVSPropertyOp8
 70
     1
102
RTVSPropertyOp9
 70
     1
102
RTVSPropertyOp10
 70
     1
102
RTVSPropertyOp11
 70
     1
102
RTVSPropertyOp12
 70
     1
102
RTVSPropertyOp13
 70
     1
102
RTVSPropertyOp14
 70
     1
102
RTVSPropertyOp15
 70
     1
102
RTVSPropertyOp16
 70
     1
102
RTVSPropertyOp17
 70
     1
102
RTVSPropertyOp18
 70
     1
102
RTVSPropertyOp19
 70
     1
102
RTVSPropertyOp20
 70
     1
102
RTVSPropertyOp21
 70
     1
102
RTVSPropertyOp22
 70
     1
102
RTVSPropertyOp23
 70
     1
102
RTVSPropertyOp24
 70
     1
102
RTVSPropertyOp25
 70
     1
102
RTVSPropertyOp26
 70
     1
102
RTVSPropertyOp27
 70
     1
102
RTVSPropertyOp28
 70
     1
102
RTVSPropertyOp29
 70
     1
102
RTVSPropertyOp30
 70
     1
102
RTVSPropertyOp31
 70
     1
102
RTVSPropertyOp32
 70
     1
102
RTVSPropertyOp33
 70
     1
102
RTVSPropertyOp34
 70
     1
102
RTVSPropertyOp35
 70
     1
102
RTVSPropertyOp36
 70
     1
102
RTVSPropertyOp37
 70
     1
102
RTVSPropertyOp38
 70
     1
102
RTVSPropertyOp39
 70
     1
102
RTVSPropertyOp40
 70
     1
102
RTVSPropertyOp41
 70
     1
102
RTVSPropertyOp42
 70
     1
102
RTVSPropertyOp43
 70
     1
102
RTVSPropertyOp44
 70
     1
102
RTVSPropertyOp45
 70
     1
102
RTVSPropertyOp46
 70
     1
102
RTVSPropertyOp47
 70
     1
102
RTVSPropertyOp48
 70
     1
102
RTVSPropertyOp49
 70
     1
102
RTVSPropertyOp50
 70
     1
102
RTVSPropertyOp51
 70
     0
102
RTVSPropertyOp52
 70
     0
102
RTVSPropertyOp53
 70
     1
102
RTVSPropertyOp54
 70
     1
102
RTVSPropertyOp55
 70
     1
102
RTVSPropertyOp56
 70
     1
102
RTVSPropertyOp57
 70
     1
102
RTVSPropertyOp58
 70
     1
102
RTVSPropertyOp59
 70
     1
102
RTVSPropertyOp60
 70
     1
102
RTVSPropertyOp61
 70
     1
102
RTVSPropertyOp62
 70
     1
  0
XRECORD
  5
2D6AD
102
{ACAD_REACTORS
330
2D6AC
102
}
330
2D6AC
100
AcDbXrecord
280
     1
102
RTVSPost2010Prop28
280
     0
102
RTVSPost2010PropOp28
 70
     1
102
RTVSPost2010Prop29
280
     1
102
RTVSPost2010PropOp29
 70
     1
102
RTVSPost2010Prop30
280
     1
102
RTVSPost2010PropOp30
 70
     1
102
RTVSPost2010Prop31
280
     0
102
RTVSPost2010PropOp31
 70
     1
102
RTVSPost2010Prop32
280
     0
102
RTVSPost2010PropOp32
 70
     1
102
RTVSPost2010Prop33
280
     0
102
RTVSPost2010PropOp33
 70
     1
102
RTVSPost2010Prop34
280
     0
102
RTVSPost2010PropOp34
 70
     1
102
RTVSPost2010Prop35
280
     0
102
RTVSPost2010PropOp35
 70
     1
102
RTVSPost2010Prop36
280
     0
102
RTVSPost2010PropOp36
 70
     1
102
RTVSPost2010Prop37
 90
       50
102
RTVSPost2010PropOp37
 70
     1
102
RTVSPost2010Prop38
140
0.0
102
RTVSPost2010PropOp38
 70
     1
102
RTVSPost2010Prop39
140
1.0
102
RTVSPost2010PropOp39
 70
     1
102
RTVSPost2010Prop40
 90
        0
102
RTVSPost2010PropOp40
 70
     1
102
RTVSPost2010Prop41ColorIndex
 90
       18
102
RTVSPost2010Prop41ColorRGB
 90
        0
102
RTVSPost2010PropOp41
 70
     1
102
RTVSPost2010Prop42
 90
       50
102
RTVSPost2010PropOp42
 70
     1
102
RTVSPost2010Prop43
 90
        3
102
RTVSPost2010PropOp43
 70
     1
102
RTVSPost2010Prop44ColorIndex
 90
        5
102
RTVSPost2010Prop44ColorRGB
 90
      255
102
RTVSPost2010PropOp44
 70
     1
102
RTVSPost2010Prop45
280
     0
102
RTVSPost2010PropOp45
 70
     1
102
RTVSPost2010Prop46
 90
       50
102
RTVSPost2010PropOp46
 70
     1
102
RTVSPost2010Prop47
 90
       50
102
RTVSPost2010PropOp47
 70
     1
102
RTVSPost2010Prop48
 90
       50
102
RTVSPost2010PropOp48
 70
     1
102
RTVSPost2010Prop49
280
     0
102
RTVSPost2010PropOp49
 70
     1
102
RTVSPost2010Prop50
 90
       50
102
RTVSPost2010PropOp50
 70
     1
102
RTVSPost2010Prop51ColorIndex
 90
      256
102
RTVSPost2010Prop51ColorRGB
 90
-16777216
102
RTVSPost2010PropOp51
 70
     0
102
RTVSPost2010Prop52
140
1.0
102
RTVSPost2010PropOp52
 70
     0
102
RTVSPost2010Prop53
 90
        2
102
RTVSPost2010PropOp53
 70
     1
102
RTVSPost2010Prop54
  1
strokes_ogs.tif
102
RTVSPost2010PropOp54
 70
     1
102
RTVSPost2010Prop55
280
     0
102
RTVSPost2010PropOp55
 70
     1
102
RTVSPost2010Prop56
140
1.0
102
RTVSPost2010PropOp56
 70
     1
102
RTVSPost2010Prop57
140
1.0
102
RTVSPost2010PropOp57
 70
     1
102
RTVSPropertyOp0
 70
     1
102
RTVSPropertyOp1
 70
     1
102
RTVSPropertyOp2
 70
     1
102
RTVSPropertyOp3
 70
     1
102
RTVSPropertyOp4
 70
     1
102
RTVSPropertyOp5
 70
     1
102
RTVSPropertyOp6
 70
     1
102
RTVSPropertyOp7
 70
     1
102
RTVSPropertyOp8
 70
     1
102
RTVSPropertyOp9
 70
     1
102
RTVSPropertyOp10
 70
     1
102
RTVSPropertyOp11
 70
     1
102
RTVSPropertyOp12
 70
     1
102
RTVSPropertyOp13
 70
     1
102
RTVSPropertyOp14
 70
     1
102
RTVSPropertyOp15
 70
     1
102
RTVSPropertyOp16
 70
     1
102
RTVSPropertyOp17
 70
     1
102
RTVSPropertyOp18
 70
     1
102
RTVSPropertyOp19
 70
     1
102
RTVSPropertyOp20
 70
     1
102
RTVSPropertyOp21
 70
     1
102
RTVSPropertyOp22
 70
     1
102
RTVSPropertyOp23
 70
     1
102
RTVSPropertyOp24
 70
     1
102
RTVSPropertyOp25
 70
     1
102
RTVSPropertyOp26
 70
     1
102
RTVSPropertyOp27
 70
     1
102
RTVSPropertyOp28
 70
     1
102
RTVSPropertyOp29
 70
     1
102
RTVSPropertyOp30
 70
     1
102
RTVSPropertyOp31
 70
     1
102
RTVSPropertyOp32
 70
     1
102
RTVSPropertyOp33
 70
     1
102
RTVSPropertyOp34
 70
     1
102
RTVSPropertyOp35
 70
     1
102
RTVSPropertyOp36
 70
     1
102
RTVSPropertyOp37
 70
     1
102
RTVSPropertyOp38
 70
     1
102
RTVSPropertyOp39
 70
     1
102
RTVSPropertyOp40
 70
     1
102
RTVSPropertyOp41
 70
     1
102
RTVSPropertyOp42
 70
     1
102
RTVSPropertyOp43
 70
     1
102
RTVSPropertyOp44
 70
     1
102
RTVSPropertyOp45
 70
     1
102
RTVSPropertyOp46
 70
     1
102
RTVSPropertyOp47
 70
     1
102
RTVSPropertyOp48
 70
     1
102
RTVSPropertyOp49
 70
     1
102
RTVSPropertyOp50
 70
     1
102
RTVSPropertyOp51
 70
     0
102
RTVSPropertyOp52
 70
     0
102
RTVSPropertyOp53
 70
     1
102
RTVSPropertyOp54
 70
     1
102
RTVSPropertyOp55
 70
     1
102
RTVSPropertyOp56
 70
     1
102
RTVSPropertyOp57
 70
     1
102
RTVSPropertyOp58
 70
     1
102
RTVSPropertyOp59
 70
     1
102
RTVSPropertyOp60
 70
     1
102
RTVSPropertyOp61
 70
     1
102
RTVSPropertyOp62
 70
     1
  0
ENDSEC
  0
EOF
