  0
SECTION
  2
HEADER
  9
$ACADVER
  1
AC1009
  9
$INSBASE
 10
0.0
 20
0.0
 30
0.0
  9
$EXTMIN
 10
1227.121501592439
 20
-529.96288078888199
 30
0.0
  9
$EXTMAX
 10
1495.684933276493
 20
-374.9869186819343
 30
0.0
  9
$LIMMIN
 10
0.0
 20
0.0
  9
$LIMMAX
 10
420.0
 20
297.0
  9
$ORTHOMODE
 70
     1
  9
$REGENMODE
 70
     1
  9
$FILLMODE
 70
     1
  9
$QTEXTMODE
 70
     0
  9
$MIRRTEXT
 70
     0
  9
$DRAGMODE
 70
     2
  9
$LTSCALE
 40
1.0
  9
$OSMODE
 70
   959
  9
$ATTMODE
 70
     1
  9
$TEXTSIZE
 40
2.5
  9
$TRACEWID
 40
1.0
  9
$TEXTSTYLE
  7
STANDARD
  9
$CLAYER
  8
寸法
  9
$CELTYPE
  6
BYLAYER
  9
$CECOLOR
 62
   256
  9
$DIMSCALE
 40
1.0
  9
$DIMASZ
 40
3.0
  9
$DIMEXO
 40
1.0
  9
$DIMDLI
 40
6.5
  9
$DIMRND
 40
0.0
  9
$DIMDLE
 40
0.0
  9
$DIMEXE
 40
1.0
  9
$DIMTP
 40
0.0
  9
$DIMTM
 40
0.000000001
  9
$DIMTXT
 40
3.0
  9
$DIMCEN
 40
2.5
  9
$DIMTSZ
 40
0.0
  9
$DIMTOL
 70
     0
  9
$DIMLIM
 70
     0
  9
$DIMTIH
 70
     0
  9
$DIMTOH
 70
     0
  9
$DIMSE1
 70
     0
  9
$DIMSE2
 70
     0
  9
$DIMTAD
 70
     1
  9
$DIMZIN
 70
     9
  9
$DIMBLK
  1

  9
$DIMASO
 70
     1
  9
$DIMSHO
 70
     1
  9
$DIMPOST
  1

  9
$DIMAPOST
  1

  9
$DIMALT
 70
     0
  9
$DIMALTD
 70
     4
  9
$DIMALTF
 40
0.0394
  9
$DIMLFAC
 40
1.0
  9
$DIMTOFL
 70
     1
  9
$DIMTVP
 40
0.0
  9
$DIMTIX
 70
     0
  9
$DIMSOXD
 70
     0
  9
$DIMSAH
 70
     1
  9
$DIMBLK1
  1
OPEN
  9
$DIMBLK2
  1
OPEN
  9
$DIMSTYLE
  2
STD-I1
  9
$DIMCLRD
 70
     4
  9
$DIMCLRE
 70
     4
  9
$DIMCLRT
 70
   256
  9
$DIMTFAC
 40
0.8
  9
$DIMGAP
 40
0.75
  9
$LUNITS
 70
     2
  9
$LUPREC
 70
     4
  9
$SKETCHINC
 40
1.0
  9
$FILLETRAD
 40
0.0
  9
$AUNITS
 70
     0
  9
$AUPREC
 70
     3
  9
$MENU
  1
.
  9
$ELEVATION
 40
0.0
  9
$PELEVATION
 40
0.0
  9
$THICKNESS
 40
0.0
  9
$LIMCHECK
 70
     0
  9
$BLIPMODE
 70
     0
  9
$CHAMFERA
 40
0.0
  9
$CHAMFERB
 40
0.0
  9
$SKPOLY
 70
     0
  9
$TDCREATE
 40
2452479.723123183
  9
$TDUPDATE
 40
2455600.3874715972
  9
$TDINDWG
 40
6.4234988889000002
  9
$TDUSRTIMER
 40
6.4234961805999999
  9
$USRTIMER
 70
     1
  9
$ANGBASE
 50
0.0
  9
$ANGDIR
 70
     0
  9
$PDMODE
 70
     0
  9
$PDSIZE
 40
0.0
  9
$PLINEWID
 40
0.0
  9
$COORDS
 70
     1
  9
$SPLFRAME
 70
     0
  9
$SPLINETYPE
 70
     6
  9
$SPLINESEGS
 70
     8
  9
$ATTDIA
 70
     0
  9
$ATTREQ
 70
     1
  9
$HANDLING
 70
-16383
  9
$HANDSEED
  5
1795B
  9
$SURFTAB1
 70
     6
  9
$SURFTAB2
 70
     6
  9
$SURFTYPE
 70
     6
  9
$SURFU
 70
     6
  9
$SURFV
 70
     6
  9
$UCSNAME
  2

  9
$UCSORG
 10
0.0
 20
0.0
 30
0.0
  9
$UCSXDIR
 10
1.0
 20
0.0
 30
0.0
  9
$UCSYDIR
 10
0.0
 20
1.0
 30
0.0
  9
$PUCSNAME
  2

  9
$PUCSORG
 10
0.0
 20
0.0
 30
0.0
  9
$PUCSXDIR
 10
1.0
 20
0.0
 30
0.0
  9
$PUCSYDIR
 10
0.0
 20
1.0
 30
0.0
  9
$USERI1
 70
     0
  9
$USERI2
 70
     0
  9
$USERI3
 70
     0
  9
$USERI4
 70
     0
  9
$USERI5
 70
     0
  9
$USERR1
 40
0.0
  9
$USERR2
 40
0.0
  9
$USERR3
 40
0.0
  9
$USERR4
 40
0.0
  9
$USERR5
 40
0.0
  9
$WORLDVIEW
 70
     1
  9
$SHADEDGE
 70
     3
  9
$SHADEDIF
 70
    70
  9
$TILEMODE
 70
     0
  9
$MAXACTVP
 70
    48
  9
$PLIMCHECK
 70
     0
  9
$PEXTMIN
 10
-0.0238256946270212
 20
-0.0178674196019983
 30
-0.0015258207003583
  9
$PEXTMAX
 10
400.01996199658902
 20
288.0007101785182
 30
0.0000000349246037
  9
$PLIMMIN
 10
-10.455851134303989
 20
-3.995850043210555
  9
$PLIMMAX
 10
409.49080386569602
 20
292.93014495678932
  9
$UNITMODE
 70
     0
  9
$VISRETAIN
 70
     1
  9
$PLINEGEN
 70
     0
  9
$PSLTSCALE
 70
     0
  0
ENDSEC
  0
SECTION
  2
TABLES
  0
TABLE
  2
VPORT
 70
     2
  0
VPORT
  2
*ACTIVE
 70
     0
 10
0.0
 20
0.0
 11
1.0
 21
1.0
 12
1361.1654101287879
 22
-452.48176581615309
 13
0.0
 23
0.0
 14
10.0
 24
10.0
 15
10.0
 25
10.0
 16
0.0
 26
0.0
 36
1.0
 17
0.0
 27
0.0
 37
0.0
 40
156.18903496810981
 41
2.1848341232227479
 42
50.0
 43
0.0
 44
0.0
 50
0.0
 51
0.0
 71
     0
 72
   100
 73
     1
 74
     0
 75
     0
 76
     0
 77
     0
 78
     2
  0
ENDTAB
  0
TABLE
  2
LTYPE
 70
     3
  0
LTYPE
  2
CONTINUOUS
 70
     0
  3
Solid line
 72
    65
 73
     0
 40
0.0
  0
LTYPE
  2
CENTER
 70
     0
  3
Center ____ _ ____ _ ____ _ ____ _ ____ _ ____
 72
    65
 73
     4
 40
2.0
 49
1.25
 49
-0.25
 49
0.25
 49
-0.25
  0
LTYPE
  2
HIDDEN
 70
     0
  3
Hidden __ __ __ __ __ __ __ __ __ __ __ __ __ _
 72
    65
 73
     2
 40
0.375
 49
0.25
 49
-0.125
  0
ENDTAB
  0
TABLE
  2
LAYER
 70
    10
  0
LAYER
  2
0
 70
     2
 62
     7
  6
CONTINUOUS
  0
LAYER
  2
M_VIEW
 70
     0
 62
    -1
  6
CONTINUOUS
  0
LAYER
  2
DEFPOINTS
 70
     0
 62
    -7
  6
CONTINUOUS
  0
LAYER
  2
文字
 70
     0
 62
     7
  6
CONTINUOUS
  0
LAYER
  2
中心線
 70
     0
 62
     7
  6
CENTER
  0
LAYER
  2
実線
 70
     0
 62
     7
  6
CONTINUOUS
  0
LAYER
  2
破線
 70
     0
 62
     7
  6
HIDDEN
  0
LAYER
  2
ﾏｸ_ﾈｯﾄ
 70
     0
 62
     7
  6
CONTINUOUS
  0
LAYER
  2
寸法
 70
     0
 62
     7
  6
CONTINUOUS
  0
ENDTAB
  0
TABLE
  2
STYLE
 70
     5
  0
STYLE
  2
STANDARD
 70
     0
 40
0.0
 41
1.0
 50
0.0
 71
     0
 42
2.5
  3
isocp.shx
  4
bigfont.shx
  0
STYLE
  2
MSｺ_ｼｯｸ-0
 70
     0
 40
0.0
 41
1.0
 50
0.0
 71
     0
 42
4.0
  3
simplex.shx
  4
bigfont.shx
  0
STYLE
  2
まこ
 70
     0
 40
0.0
 41
1.0
 50
0.0
 71
     0
 42
2.5
  3
simplex.shx
  4
bigfont.shx
  0
ENDTAB
  0
TABLE
  2
VIEW
 70
     0
  0
ENDTAB
  0
TABLE
  2
UCS
 70
     0
  0
ENDTAB
  0
TABLE
  2
APPID
 70
     1
  0
APPID
  2
ACAD
 70
     0
  0
ENDTAB
  0
TABLE
  2
DIMSTYLE
 70
     2
  0
DIMSTYLE
  2
STANDARD
 70
     0
  3

  4

  5
OPEN30
  6

  7

 40
1.0
 41
3.0
 42
0.8
 43
0.38
 44
0.8
 45
0.0
 46
0.0
 47
0.0
 48
0.0
140
3.0
141
0.0
142
0.0
143
25.399999999999999
144
1.0
145
0.0
146
1.0
147
0.5
 71
     0
 72
     0
 73
     0
 74
     0
 75
     0
 76
     0
 77
     3
 78
     8
170
     0
171
     2
172
     0
173
     0
174
     0
175
     0
176
     4
177
     4
178
   256
  0
DIMSTYLE
  2
STD-I1
 70
     0
  3

  4

  5

  6
OPEN
  7
OPEN
 40
1.0
 41
3.0
 42
1.0
 43
6.5
 44
1.0
 45
0.0
 46
0.0
 47
0.0
 48
0.000000001
140
3.0
141
2.5
142
0.0
143
0.0394
144
1.0
145
0.0
146
0.8
147
0.75
 71
     0
 72
     0
 73
     0
 74
     0
 75
     0
 76
     0
 77
     1
 78
     9
170
     0
171
     4
172
     1
173
     1
174
     0
175
     0
176
     4
177
     4
178
   256
  0
ENDTAB
  0
ENDSEC
  0
SECTION
  2
BLOCKS
  0
BLOCK
  8
0
  2
$MODEL_SPACE
 70
     0
 10
0.0
 20
0.0
 30
0.0
  3
$MODEL_SPACE
  1

  0
ENDBLK
  5
1A
  8
0
  0
BLOCK
 67
     1
  8
0
  2
$PAPER_SPACE
 70
     0
 10
0.0
 20
0.0
 30
0.0
  3
$PAPER_SPACE
  1

  0
ENDBLK
  5
17
 67
     1
  8
0
  0
BLOCK
  8
0
  2
_OPEN30
 70
     0
 10
0.0
 20
0.0
 30
0.0
  3
_OPEN30
  1

  0
LINE
  5
89F
  8
0
  6
BYBLOCK
 62
     0
 10
-1.0
 20
0.26794919
 30
0.0
 11
0.0
 21
0.0
 31
0.0
  0
LINE
  5
8A0
  8
0
  6
BYBLOCK
 62
     0
 10
0.0
 20
0.0
 30
0.0
 11
-1.0
 21
-0.26794919
 31
0.0
  0
LINE
  5
8A1
  8
0
  6
BYBLOCK
 62
     0
 10
0.0
 20
0.0
 30
0.0
 11
-1.0
 21
0.0
 31
0.0
  0
ENDBLK
  5
8A3
  8
0
  0
BLOCK
  8
0
  2
_OPEN
 70
     0
 10
0.0
 20
0.0
 30
0.0
  3
_OPEN
  1

  0
LINE
  5
FFCC
  8
0
  6
BYBLOCK
 62
     0
 10
-1.0
 20
0.1666666666666666
 30
0.0
 11
0.0
 21
0.0
 31
0.0
  0
LINE
  5
FFCD
  8
0
  6
BYBLOCK
 62
     0
 10
0.0
 20
0.0
 30
0.0
 11
-1.0
 21
-0.1666666666666666
 31
0.0
  0
LINE
  5
FFCE
  8
0
  6
BYBLOCK
 62
     0
 10
0.0
 20
0.0
 30
0.0
 11
-1.0
 21
0.0
 31
0.0
  0
ENDBLK
  5
FFD0
  8
0
  0
BLOCK
  8
0
  2
*U24
 70
     1
 10
0.0
 20
0.0
 30
0.0
  3
*U24
  1

  0
TEXT
  5
17952
  8
寸法
 10
1378.2532833292919
 20
-375.1244488711792
 30
0.0
 40
3.0
  1
R750
 50
84.89482049538816
  0
TEXT
  5
17953
  8
寸法
 10
1378.728637162521
 20
-366.4322662492346
 30
0.0
 40
2.399999999999999
  1
±0.05
 50
84.89482049538816
  0
ENDBLK
  5
17955
  8
0
  0
BLOCK
  8
0
  2
*U25
 70
     1
 10
0.0
 20
0.0
 30
0.0
  3
*U25
  1

  0
TEXT
  5
17957
  8
寸法
 10
1241.2709245814731
 20
-551.24932641159796
 30
0.0
 40
3.0
  1
34.4
  0
TEXT
  5
17958
  8
寸法
 10
1249.070924581473
 20
-550.94932641159812
 30
0.0
 40
2.399999999999999
  1
±0.1
  0
ENDBLK
  5
1795A
  8
0
  0
ENDSEC
  0
SECTION
  2
ENTITIES
  0
ARC
  5
16B6A
  8
実線
 10
1444.333197298736
 20
356.10284425268668
 30
0.0
 40
749.99999999999181
 50
266.93944502206477
 51
273.06055497792192
  0
ARC
  5
16B6C
  8
中心線
 10
1444.333197298736
 20
356.10284425268571
 30
0.0
 40
770.0
 50
267.75912748349413
 51
272.24087251650582
  0
ARC
  5
16B6D
  8
実線
 10
1444.3331972987351
 20
356.10284425268668
 30
0.0
 40
850.50000000000216
 50
266.69505205083641
 51
273.30494794916319
  0
LINE
  5
16B71
  8
中心線
 10
1421.431634428013
 20
-406.55338132872117
 30
0.0
 11
1421.011422265246
 21
-420.54707354122519
 31
0.0
  0
LINE
  5
16B73
  8
中心線
 10
1444.3331972987239
 20
-374.9869186819343
 30
0.0
 11
1444.333197298736
 21
-507.66552299604848
 31
0.0
  0
LINE
  5
16B74
  8
実線
 10
1399.0317279797259
 20
-397.52025576318078
 30
0.0
 11
1393.420570980295
 21
-490.86595947113727
 31
0.0
  0
LINE
  5
16B78
  8
0
 10
1478.8331972987301
 20
-431.89715574730508
 30
0.0
 11
1444.833197298731
 21
-431.89715574730508
 31
0.0
  0
LINE
  5
16B7B
  8
0
 10
1444.3331972987301
 20
-438.89715574730479
 30
0.0
 11
1479.333197298731
 21
-438.89715574730479
 31
0.0
  0
LINE
  5
16B7C
  8
0
 10
1444.833197298731
 20
-443.89715574730508
 30
0.0
 11
1478.8331972987301
 21
-443.89715574730508
 31
0.0
  0
ARC
  5
16B7E
  8
実線
 10
1395.4169673423009
 20
-490.98596599500883
 30
0.0
 40
2.0
 50
176.55999999999739
 51
266.69505205083641
  0
LINE
  5
16B86
  8
0
 10
1444.3331972987301
 20
-432.39715574730508
 30
0.0
 11
1444.3331972987301
 21
-443.39715574730479
 31
0.0
  0
ARC
  5
16B87
  8
0
 10
1444.833197298731
 20
-443.39715574730479
 30
0.0
 40
0.5
 50
180.0
 51
270.0
  0
ARC
  5
16B8A
  8
0
 10
1444.833197298731
 20
-432.39715574730508
 30
0.0
 40
0.5
 50
90.0
 51
180.0
  0
CIRCLE
  5
16B8E
  8
実線
 10
1444.3331972987301
 20
-422.8971557473061
 30
0.0
 40
5.0
  0
CIRCLE
  5
16B8F
  8
実線
 10
1444.3331972987301
 20
-422.8971557473061
 30
0.0
 40
5.5
  0
LINE
  5
16B90
  8
中心線
 10
1437.833197298738
 20
-422.89715574731491
 30
0.0
 11
1450.833197298733
 21
-422.89715574731417
 31
0.0
  0
LINE
  5
16B91
  8
0
 10
1479.333197298731
 20
-443.39715574730479
 30
0.0
 11
1479.333197298731
 21
-432.39715574730508
 31
0.0
  0
ARC
  5
16B92
  8
0
 10
1478.8331972987301
 20
-443.39715574730479
 30
0.0
 40
0.5
 50
270.0
 51
0.0
  0
ARC
  5
16B93
  8
0
 10
1478.8331972987301
 20
-432.39715574730508
 30
0.0
 40
0.5
 50
0.0
 51
90.0
  0
LINE
  5
16B94
  8
中心線
 10
1444.3331972987301
 20
-429.39715574731179
 30
0.0
 11
1444.3331972987301
 21
-416.39715574731048
 31
0.0
  0
LINE
  5
16B95
  8
実線
 10
1445.833197298731
 20
-423.76318113730622
 30
0.0
 11
1445.833197298731
 21
-422.03113035730621
 31
0.0
  0
LINE
  5
16B96
  8
実線
 10
1444.3331973256529
 20
-424.62920654730618
 30
0.0
 11
1445.833197298731
 21
-423.76318113730622
 31
0.0
  0
LINE
  5
16B97
  8
実線
 10
1445.833197298731
 20
-422.03113035730621
 30
0.0
 11
1444.3331973256529
 21
-421.16510494730608
 31
0.0
  0
LINE
  5
16B98
  8
実線
 10
1444.3331972718081
 20
-421.16510494730608
 30
0.0
 11
1442.833197298731
 21
-422.03113035730621
 31
0.0
  0
LINE
  5
16B99
  8
実線
 10
1442.833197298731
 20
-423.76318113730622
 30
0.0
 11
1444.3331972718081
 21
-424.62920654730618
 31
0.0
  0
LINE
  5
16B9A
  8
実線
 10
1442.833197298731
 20
-422.03113035730621
 30
0.0
 11
1442.833197298731
 21
-423.76318113730622
 31
0.0
  0
LINE
  5
16B9C
  8
中心線
 10
1414.8331972987351
 20
-401.89715574731559
 30
0.0
 11
1401.8331972987351
 21
-401.89715574731559
 31
0.0
  0
CIRCLE
  5
16B9D
  8
実線
 10
1408.333197298716
 20
-401.89715574730133
 30
0.0
 40
5.5
  0
CIRCLE
  5
16B9E
  8
実線
 10
1408.333197298716
 20
-401.89715574730133
 30
0.0
 40
5.0
  0
ARC
  5
16B9F
  8
実線
 10
1404.0227188847391
 20
-397.82027207285881
 30
0.0
 40
5.0
 50
86.939445022064888
 51
176.55999999999739
  0
LINE
  5
16BA0
  8
実線
 10
1409.833197298716
 20
-402.76318113730127
 30
0.0
 11
1409.833197298716
 21
-401.03113035730132
 31
0.0
  0
LINE
  5
16BA1
  8
実線
 10
1408.333197325639
 20
-403.62920654730152
 30
0.0
 11
1409.833197298716
 21
-402.76318113730127
 31
0.0
  0
LINE
  5
16BA2
  8
実線
 10
1409.833197298716
 20
-401.03113035730132
 30
0.0
 11
1408.333197325639
 21
-400.1651049473013
 31
0.0
  0
LINE
  5
16BA3
  8
実線
 10
1408.333197271794
 20
-400.1651049473013
 30
0.0
 11
1406.833197298716
 21
-401.03113035730132
 31
0.0
  0
LINE
  5
16BA4
  8
実線
 10
1406.833197298716
 20
-402.76318113730127
 30
0.0
 11
1408.333197271794
 21
-403.62920654730152
 31
0.0
  0
LINE
  5
16BA5
  8
実線
 10
1406.833197298716
 20
-401.03113035730132
 30
0.0
 11
1406.833197298716
 21
-402.76318113730127
 31
0.0
  0
LINE
  5
16BA6
  8
中心線
 10
1408.333197298728
 20
-408.39715574731048
 30
0.0
 11
1408.333197298728
 21
-395.39715574730911
 31
0.0
  0
CIRCLE
  5
16BA7
  8
実線
 10
1444.3331972987171
 20
-401.89715574730712
 30
0.0
 40
5.0
  0
CIRCLE
  5
16BA8
  8
実線
 10
1444.3331972987171
 20
-401.89715574730712
 30
0.0
 40
5.5
  0
LINE
  5
16BA9
  8
中心線
 10
1450.8331972987301
 20
-401.89715574731559
 30
0.0
 11
1437.8331972987171
 21
-401.89715574731559
 31
0.0
  0
LINE
  5
16BAA
  8
実線
 10
1444.333197325639
 20
-403.6292065473076
 30
0.0
 11
1445.8331972987171
 21
-402.76318113730741
 31
0.0
  0
LINE
  5
16BAB
  8
実線
 10
1445.8331972987171
 20
-401.03113035730729
 30
0.0
 11
1444.333197325639
 21
-400.16510494730721
 31
0.0
  0
LINE
  5
16BAC
  8
実線
 10
1444.333197271794
 20
-400.16510494730721
 30
0.0
 11
1442.833197298716
 21
-401.03113035730729
 31
0.0
  0
LINE
  5
16BAD
  8
実線
 10
1442.833197298716
 20
-402.76318113730741
 30
0.0
 11
1444.333197271794
 21
-403.6292065473076
 31
0.0
  0
LINE
  5
16BAE
  8
実線
 10
1445.8331972987171
 20
-402.76318113730741
 30
0.0
 11
1445.8331972987171
 21
-401.03113035730729
 31
0.0
  0
LINE
  5
16BAF
  8
実線
 10
1442.833197298716
 20
-401.03113035730729
 30
0.0
 11
1442.833197298716
 21
-402.76318113730741
 31
0.0
  0
LINE
  5
16BB0
  8
中心線
 10
1444.333197298728
 20
-408.39715574731048
 30
0.0
 11
1444.333197298728
 21
-395.39715574730911
 31
0.0
  0
LINE
  5
16BB2
  8
中心線
 10
1467.234760169461
 20
-406.55338132872117
 30
0.0
 11
1467.654972332226
 21
-420.54707354122519
 31
0.0
  0
LINE
  5
16BB3
  8
実線
 10
1489.634666617749
 20
-397.52025576317919
 30
0.0
 11
1495.2458236171799
 21
-490.86595947113727
 31
0.0
  0
LINE
  5
16BBC
  8
0
 10
1424.3331972987301
 20
-437.89715574730462
 30
0.0
 11
1439.333197298731
 21
-437.89715574730462
 31
0.0
  0
POLYLINE
  5
16BC0
  8
0
 66
     1
 10
0.0
 20
0.0
 30
0.0
 70
     1
  0
VERTEX
  5
17948
  8
0
 10
1424.833197298731
 20
-443.89715574730451
 30
0.0
  0
VERTEX
  5
17949
  8
0
 10
1438.8331972987301
 20
-443.89715574730508
 30
0.0
 42
0.4142135623730951
  0
VERTEX
  5
1794A
  8
0
 10
1439.333197298731
 20
-443.39715574730479
 30
0.0
  0
VERTEX
  5
1794B
  8
0
 10
1439.333197298731
 20
-434.39715574730479
 30
0.0
 42
0.4142135623730951
  0
VERTEX
  5
1794C
  8
0
 10
1438.8331972987301
 20
-433.89715574730479
 30
0.0
  0
VERTEX
  5
1794D
  8
0
 10
1424.833197298731
 20
-433.89715574730479
 30
0.0
 42
0.4142135623730996
  0
VERTEX
  5
1794E
  8
0
 10
1424.3331972987301
 20
-434.39715574730479
 30
0.0
  0
VERTEX
  5
1794F
  8
0
 10
1424.3331972987301
 20
-443.39715574730462
 30
0.0
 42
0.4142135623730904
  0
SEQEND
  5
17950
  8
0
  0
ARC
  5
16BCB
  8
実線
 10
1493.249427255176
 20
-490.98596599500831
 30
0.0
 40
2.0
 50
273.30494794916319
 51
3.4400000000025881
  0
ARC
  5
16BCC
  8
実線
 10
1484.643675712736
 20
-397.82027207285722
 30
0.0
 40
5.0
 50
3.4400000000025881
 51
93.060554977922081
  0
CIRCLE
  5
16BCD
  8
実線
 10
1480.333197298721
 20
-401.89715574730712
 30
0.0
 40
5.5
  0
LINE
  5
16BCE
  8
実線
 10
1480.3331972717981
 20
-400.16510494730721
 30
0.0
 11
1478.833197298721
 21
-401.03113035730729
 31
0.0
  0
LINE
  5
16BCF
  8
実線
 10
1478.833197298721
 20
-402.76318113730741
 30
0.0
 11
1480.3331972717981
 21
-403.6292065473076
 31
0.0
  0
CIRCLE
  5
16BD0
  8
実線
 10
1480.333197298721
 20
-401.89715574730712
 30
0.0
 40
5.0
  0
LINE
  5
16BD1
  8
中心線
 10
1486.8331972987301
 20
-401.89715574731559
 30
0.0
 11
1473.833197298721
 21
-401.89715574731559
 31
0.0
  0
LINE
  5
16BD2
  8
実線
 10
1478.833197298721
 20
-401.03113035730729
 30
0.0
 11
1478.833197298721
 21
-402.76318113730741
 31
0.0
  0
LINE
  5
16BD3
  8
実線
 10
1480.3331973256429
 20
-403.6292065473076
 30
0.0
 11
1481.833197298721
 21
-402.76318113730741
 31
0.0
  0
LINE
  5
16BD4
  8
実線
 10
1481.833197298721
 20
-402.76318113730741
 30
0.0
 11
1481.833197298721
 21
-401.03113035730729
 31
0.0
  0
LINE
  5
16BD5
  8
実線
 10
1481.833197298721
 20
-401.03113035730729
 30
0.0
 11
1480.3331973256429
 21
-400.16510494730721
 31
0.0
  0
LINE
  5
16BD6
  8
中心線
 10
1480.333197298728
 20
-408.39715574731048
 30
0.0
 11
1480.333197298728
 21
-395.39715574730911
 31
0.0
  0
CIRCLE
  5
16D73
  8
実線
 10
1467.4448662508439
 20
-413.55022743497523
 30
0.0
 40
5.5
  0
CIRCLE
  5
16D74
  8
実線
 10
1467.4448662508439
 20
-413.55022743497409
 30
0.0
 40
3.299999999999998
  0
CIRCLE
  5
16D75
  8
実線
 10
1421.221528346628
 20
-413.55022743497352
 30
0.0
 40
5.5
  0
CIRCLE
  5
16D76
  8
実線
 10
1421.221528346628
 20
-413.5502274349725
 30
0.0
 40
3.299999999999998
  0
LINE
  5
16E6A
  8
破線
 10
1265.6559245814719
 20
-525.39715574730485
 30
0.0
 11
1265.6559245814719
 21
-496.89715574730599
 31
0.0
  0
LINE
  5
16E6B
  8
破線
 10
1235.6559245814731
 20
-496.89715574730599
 30
0.0
 11
1235.6559245814731
 21
-525.39715574730485
 31
0.0
  0
LINE
  5
16E6E
  8
中心線
 10
1250.655924581471
 20
-387.63510143035268
 30
0.0
 11
1250.655924581471
 21
-529.96288078888199
 31
0.0
  0
LINE
  5
16E75
  8
破線
 10
1236.155924581471
 20
-525.89715574730485
 30
0.0
 11
1265.1559245814719
 21
-525.89715574730485
 31
0.0
  0
LINE
  5
16E77
  8
破線
 10
1235.6559245814731
 20
-525.39715574730485
 30
0.0
 11
1236.155924581471
 21
-525.89715574730485
 31
0.0
  0
LINE
  5
16E7F
  8
破線
 10
1265.1559245814719
 20
-525.89715574730485
 30
0.0
 11
1265.6559245814719
 21
-525.39715574730485
 31
0.0
  0
LINE
  5
16E83
  8
破線
 10
1270.0559245814741
 20
-393.89715574730479
 30
0.0
 11
1270.0559245814741
 21
-381.76407893167908
 31
0.0
  0
LINE
  5
16E84
  8
破線
 10
1264.155924581474
 20
-393.89715574730479
 30
0.0
 11
1264.155924581474
 21
-381.76407893167931
 31
0.0
  0
LINE
  5
16E85
  8
破線
 10
1237.1559245814719
 20
-393.89715574730479
 30
0.0
 11
1237.1559245814719
 21
-381.76407893167931
 31
0.0
  0
LINE
  5
16E86
  8
破線
 10
1231.2559245814739
 20
-393.89715574730479
 30
0.0
 11
1231.2559245814739
 21
-381.76407893167931
 31
0.0
  0
LINE
  5
16E88
  8
ﾏｸ_ﾈｯﾄ
 10
1247.2559245814739
 20
-443.9872822251948
 30
0.0
 11
1247.255924581475
 21
-493.98151836700799
 31
0.0
  0
LINE
  5
16E89
  8
ﾏｸ_ﾈｯﾄ
 10
1254.0559245814741
 20
-443.98728222519452
 30
0.0
 11
1254.0559245814729
 21
-493.98151836700799
 31
0.0
  0
LINE
  5
16E8A
  8
破線
 10
1247.9559245814719
 20
-494.59715574730581
 30
0.0
 11
1247.955924581473
 21
-433.89715574730639
 31
0.0
  0
LINE
  5
16E8B
  8
破線
 10
1253.355924581472
 20
-494.59715574730581
 30
0.0
 11
1253.3559245814699
 21
-433.89715574730548
 31
0.0
  0
LINE
  5
16E8C
  8
ﾏｸ_ﾈｯﾄ
 10
1264.155924581474
 20
-443.98728222519452
 30
0.0
 11
1264.155924581474
 21
-494.3872822251941
 31
0.0
  0
LINE
  5
16E8D
  8
ﾏｸ_ﾈｯﾄ
 10
1237.155924581474
 20
-443.98728222519458
 30
0.0
 11
1237.155924581474
 21
-494.38728222519433
 31
0.0
  0
LINE
  5
16E8E
  8
実線
 10
1264.155924581474
 20
-393.89715574730479
 30
0.0
 11
1264.155924581474
 21
-494.39715574731548
 31
0.0
  0
LINE
  5
16E8F
  8
実線
 10
1270.0559245814741
 20
-494.39715574731548
 30
0.0
 11
1270.0559245814741
 21
-393.89715574730479
 31
0.0
  0
LINE
  5
16E90
  8
実線
 10
1231.2559245814739
 20
-494.39715574731542
 30
0.0
 11
1231.2559245814739
 21
-393.89715574730479
 31
0.0
  0
LINE
  5
16E91
  8
実線
 10
1237.155924581474
 20
-393.89715574730479
 30
0.0
 11
1237.155924581474
 21
-494.39715574731542
 31
0.0
  0
LINE
  5
16E92
  8
ﾏｸ_ﾈｯﾄ
 10
1247.255924581475
 20
-493.98728222519429
 30
0.0
 11
1237.155924581474
 21
-493.98728222519429
 31
0.0
  0
LINE
  5
16E93
  8
破線
 10
1246.155924581471
 20
-496.39715574730559
 30
0.0
 11
1236.155924581471
 21
-496.39715574730587
 31
0.0
  0
LINE
  5
16E94
  8
破線
 10
1236.155924581471
 20
-496.39715574730587
 30
0.0
 11
1235.6559245814731
 21
-496.89715574730599
 31
0.0
  0
LINE
  5
16E95
  8
実線
 10
1237.155924581474
 20
-494.39715574731542
 30
0.0
 11
1231.2559245814739
 21
-494.39715574731542
 31
0.0
  0
LINE
  5
16E97
  8
実線
 10
1270.0559245814741
 20
-494.39715574731548
 30
0.0
 11
1264.155924581474
 21
-494.39715574731548
 31
0.0
  0
LINE
  5
16E98
  8
破線
 10
1265.1559245814719
 20
-496.39715574730587
 30
0.0
 11
1265.6559245814719
 21
-496.89715574730599
 31
0.0
  0
LINE
  5
16E99
  8
破線
 10
1265.1559245814719
 20
-496.39715574730587
 30
0.0
 11
1255.1559245814719
 21
-496.39715574730587
 31
0.0
  0
LINE
  5
16E9A
  8
破線
 10
1246.155924581471
 20
-496.39715574730587
 30
0.0
 11
1247.9559245814719
 21
-494.59715574730581
 31
0.0
  0
LINE
  5
16E9B
  8
破線
 10
1255.1559245814719
 20
-496.39715574730587
 30
0.0
 11
1253.355924581472
 21
-494.59715574730581
 31
0.0
  0
LINE
  5
16E9C
  8
ﾏｸ_ﾈｯﾄ
 10
1254.0559245814729
 20
-493.98728222519401
 30
0.0
 11
1264.155924581474
 21
-493.98728222519401
 31
0.0
  0
LINE
  5
16E9E
  8
ﾏｸ_ﾈｯﾄ
 10
1247.2559245814739
 20
-443.9872822251948
 30
0.0
 11
1237.155924581474
 21
-443.98728222519458
 31
0.0
  0
LINE
  5
16E9F
  8
実線
 10
1270.0559245814741
 20
-393.89715574730479
 30
0.0
 11
1231.2559245814739
 21
-393.89715574730479
 31
0.0
  0
LINE
  5
16EA0
  8
中心線
 10
1274.190347570506
 20
-413.89715574731531
 30
0.0
 11
1227.121501592439
 21
-413.89715574731531
 31
0.0
  0
LINE
  5
16EA1
  8
実線
 10
1264.155924581474
 20
-430.89715574730928
 30
0.0
 11
1237.155924581474
 21
-430.89715574730928
 31
0.0
  0
LINE
  5
16EA2
  8
破線
 10
1264.155924581474
 20
-417.19715574731532
 30
0.0
 11
1237.155924581474
 21
-417.19715574731532
 31
0.0
  0
LINE
  5
16EA3
  8
破線
 10
1264.082563654757
 20
-410.5971557473153
 30
0.0
 11
1237.082563654757
 21
-410.59715574731553
 31
0.0
  0
LINE
  5
16EA4
  8
実線
 10
1237.1559245814719
 20
-393.89715574730479
 30
0.0
 11
1237.155924581474
 21
-430.89715574730928
 31
0.0
  0
LINE
  5
16EA5
  8
破線
 10
1237.155924581474
 20
-408.3971557473152
 30
0.0
 11
1231.2559245814739
 21
-408.3971557473152
 31
0.0
  0
LINE
  5
16EA6
  8
破線
 10
1237.155924581474
 20
-419.39715574731531
 30
0.0
 11
1231.2559245814739
 21
-419.39715574731531
 31
0.0
  0
LINE
  5
16EA7
  8
実線
 10
1264.1559245814731
 20
-393.89715574730479
 30
0.0
 11
1264.155924581474
 21
-430.89715574730928
 31
0.0
  0
ARC
  5
16EA8
  8
破線
 10
1252.3559245814711
 20
-433.89715574730548
 30
0.0
 40
1.0
 50
0.0
 51
90.0
  0
ARC
  5
16EA9
  8
破線
 10
1248.9559245814739
 20
-433.89715574730639
 30
0.0
 40
1.0
 50
90.0
 51
180.0
  0
LINE
  5
16EAA
  8
破線
 10
1252.3559245814711
 20
-432.89715574730548
 30
0.0
 11
1248.9559245814739
 21
-432.89715574730639
 31
0.0
  0
LINE
  5
16EAB
  8
ﾏｸ_ﾈｯﾄ
 10
1254.0559245814741
 20
-443.98728222519452
 30
0.0
 11
1264.155924581474
 21
-443.98728222519452
 31
0.0
  0
LINE
  5
16EAC
  8
破線
 10
1264.155924581474
 20
-408.3971557473152
 30
0.0
 11
1270.0559245814741
 21
-408.3971557473152
 31
0.0
  0
LINE
  5
16EAD
  8
破線
 10
1264.155924581474
 20
-419.39715574731531
 30
0.0
 11
1270.0559245814741
 21
-419.39715574731531
 31
0.0
  0
LINE
  5
16EB0
  8
破線
 10
1237.1559245814719
 20
-381.76407893167931
 30
0.0
 11
1231.2559245814739
 21
-381.76407893167931
 31
0.0
  0
LINE
  5
16EB1
  8
破線
 10
1264.155924581474
 20
-381.76407893167931
 30
0.0
 11
1270.0559245814741
 21
-381.76407893167908
 31
0.0
  0
LINE
  5
17843
  8
0
 10
1478.8331972987301
 20
-448.89715574730508
 30
0.0
 11
1444.833197298731
 21
-448.89715574730508
 31
0.0
  0
LINE
  5
17844
  8
0
 10
1444.833197298731
 20
-460.89715574730508
 30
0.0
 11
1478.8331972987301
 21
-460.89715574730508
 31
0.0
  0
LINE
  5
17846
  8
0
 10
1479.333197298731
 20
-453.89715574730502
 30
0.0
 11
1444.333197298728
 21
-453.89715574730502
 31
0.0
  0
LINE
  5
17848
  8
0
 10
1444.3331972987301
 20
-449.39715574730502
 30
0.0
 11
1444.3331972987301
 21
-460.39715574730508
 31
0.0
  0
ARC
  5
17849
  8
0
 10
1444.833197298731
 20
-460.39715574730411
 30
0.0
 40
0.5
 50
180.0
 51
270.0
  0
ARC
  5
1784A
  8
0
 10
1444.833197298731
 20
-449.39715574730423
 30
0.0
 40
0.5
 50
90.0
 51
180.0
  0
LINE
  5
1784B
  8
0
 10
1479.333197298731
 20
-460.39715574730508
 30
0.0
 11
1479.333197298731
 21
-449.39715574730502
 31
0.0
  0
ARC
  5
1784C
  8
0
 10
1478.8331972987301
 20
-460.39715574730411
 30
0.0
 40
0.5
 50
270.0
 51
0.0
  0
ARC
  5
1784D
  8
0
 10
1478.8331972987301
 20
-449.39715574730423
 30
0.0
 40
0.5
 50
0.0
 51
90.0
  0
VIEWPORT
  5
23
 67
     1
  8
0
 10
199.51747636569601
 20
144.46714745678929
 30
0.0
 40
653.34044154039623
 41
299.03434526035483
 68
     1
 69
     1
1001
ACAD
1000
MVIEW
1002
{
1070
    16
1010
0.0
1020
0.0
1030
0.0
1010
0.0
1020
0.0
1030
1.0
1040
0.0
1040
299.03434526035483
1040
199.51747636569601
1040
144.46714745678929
1040
50.0
1040
0.0
1040
0.0
1070
     0
1070
 10000
1070
     1
1070
     0
1070
     0
1070
     0
1070
     0
1070
     1
1040
0.0
1040
0.0
1040
0.0
1040
10.0
1040
10.0
1040
10.0
1040
10.0
1070
     0
1002
{
1002
}
1002
}
  0
VIEWPORT
  5
2E
 67
     1
  8
M_VIEW
 10
200.0
 20
144.0
 30
0.0
 40
400.0
 41
288.0
 68
     2
 69
     2
1001
ACAD
1000
MVIEW
1002
{
1070
    16
1010
0.0
1020
0.0
1030
0.0
1010
0.0
1020
0.0
1030
1.0
1040
0.0
1040
288.00000214572481
1040
1363.9216485830759
1040
-473.3566375799191
1040
50.0
1040
0.0
1040
0.0
1070
     0
1070
   100
1070
     1
1070
     0
1070
     0
1070
     0
1070
     0
1070
     0
1040
0.0
1040
0.0
1040
0.0
1040
10.0
1040
10.0
1040
10.0
1040
10.0
1070
     0
1002
{
1002
}
1002
}
  0
TEXT
  5
2442
 67
     1
  8
文字
 10
324.11641382338382
 20
6.7061618837676624
 30
0.0
 40
6.5
  1
ＳＥ－４２２４２
  7
まこ
  0
TEXT
  5
B6F4
 67
     1
  8
実線
 10
292.92474077856269
 20
50.22828969396096
 30
0.0
 40
2.5
  1
%%
  0
TEXT
  5
17928
 67
     1
  8
寸法
 10
217.3587832309415
 20
16.151210502308398
 30
0.0
 40
6.0
  1
τｻｰﾎﾞｺﾝﾊﾟｽ R850 MGﾍﾞｰｽ MBV-CMA850B (6.88°)
  0
ENDSEC
  0
EOF
