  0
SECTION
  2
HEADER
  9
$ACADVER
  1
AC1014
  9
$ACADMAINTVER
 70
     9
  9
$DWGCODEPAGE
  3
ANSI_932
  9
$INSBASE
 10
0.0
 20
0.0
 30
0.0
  9
$EXTMIN
 10
548.3703916349671
 20
-512.4563579635031
 30
0.0
  9
$EXTMAX
 10
843.4361288721746
 20
-370.1285786049739
 30
0.0
  9
$LIMMIN
 10
0.0
 20
0.0
  9
$LIMMAX
 10
420.0
 20
297.0
  9
$ORTHOMODE
 70
     1
  9
$REGENMODE
 70
     1
  9
$FILLMODE
 70
     1
  9
$QTEXTMODE
 70
     0
  9
$MIRRTEXT
 70
     0
  9
$DRAGMODE
 70
     2
  9
$LTSCALE
 40
1.0
  9
$OSMODE
 70
   959
  9
$ATTMODE
 70
     1
  9
$TEXTSIZE
 40
2.5
  9
$TRACEWID
 40
1.0
  9
$TEXTSTYLE
  7
STANDARD
  9
$CLAYER
  8
寸法
  9
$CELTYPE
  6
BYLAYER
  9
$CECOLOR
 62
   256
  9
$CELTSCALE
 40
10.0
  9
$DELOBJ
 70
     1
  9
$DISPSILH
 70
     0
  9
$DIMSCALE
 40
1.0
  9
$DIMASZ
 40
3.0
  9
$DIMEXO
 40
1.0
  9
$DIMDLI
 40
6.5
  9
$DIMRND
 40
0.0
  9
$DIMDLE
 40
0.0
  9
$DIMEXE
 40
1.0
  9
$DIMTP
 40
0.0
  9
$DIMTM
 40
0.000000001
  9
$DIMTXT
 40
3.0
  9
$DIMCEN
 40
2.5
  9
$DIMTSZ
 40
0.0
  9
$DIMTOL
 70
     0
  9
$DIMLIM
 70
     0
  9
$DIMTIH
 70
     0
  9
$DIMTOH
 70
     0
  9
$DIMSE1
 70
     0
  9
$DIMSE2
 70
     0
  9
$DIMTAD
 70
     1
  9
$DIMZIN
 70
     9
  9
$DIMBLK
  1

  9
$DIMASO
 70
     1
  9
$DIMSHO
 70
     1
  9
$DIMPOST
  1

  9
$DIMAPOST
  1

  9
$DIMALT
 70
     0
  9
$DIMALTD
 70
     4
  9
$DIMALTF
 40
0.0394
  9
$DIMLFAC
 40
1.0
  9
$DIMTOFL
 70
     1
  9
$DIMTVP
 40
0.0
  9
$DIMTIX
 70
     0
  9
$DIMSOXD
 70
     0
  9
$DIMSAH
 70
     1
  9
$DIMBLK1
  1
OPEN
  9
$DIMBLK2
  1
OPEN
  9
$DIMSTYLE
  2
STD-I1
  9
$DIMCLRD
 70
     4
  9
$DIMCLRE
 70
     4
  9
$DIMCLRT
 70
   256
  9
$DIMTFAC
 40
0.8
  9
$DIMGAP
 40
0.75
  9
$DIMJUST
 70
     0
  9
$DIMSD1
 70
     0
  9
$DIMSD2
 70
     0
  9
$DIMTOLJ
 70
     1
  9
$DIMTZIN
 70
     9
  9
$DIMALTZ
 70
     0
  9
$DIMALTTZ
 70
     0
  9
$DIMFIT
 70
     0
  9
$DIMUPT
 70
     0
  9
$DIMUNIT
 70
     2
  9
$DIMDEC
 70
     8
  9
$DIMTDEC
 70
     8
  9
$DIMALTU
 70
     8
  9
$DIMALTTD
 70
     4
  9
$DIMTXSTY
  7
STANDARD
  9
$DIMAUNIT
 70
     0
  9
$LUNITS
 70
     2
  9
$LUPREC
 70
     4
  9
$SKETCHINC
 40
1.0
  9
$FILLETRAD
 40
0.0
  9
$AUNITS
 70
     0
  9
$AUPREC
 70
     3
  9
$MENU
  1
.
  9
$ELEVATION
 40
0.0
  9
$PELEVATION
 40
0.0
  9
$THICKNESS
 40
0.0
  9
$LIMCHECK
 70
     0
  9
$BLIPMODE
 70
     0
  9
$CHAMFERA
 40
0.0
  9
$CHAMFERB
 40
0.0
  9
$CHAMFERC
 40
20.0
  9
$CHAMFERD
 40
0.0
  9
$SKPOLY
 70
     0
  9
$TDCREATE
 40
2452479.723123183
  9
$TDUPDATE
 40
2455600.390347754
  9
$TDINDWG
 40
6.7784586343
  9
$TDUSRTIMER
 40
6.7784562731
  9
$USRTIMER
 70
     1
  9
$ANGBASE
 50
0.0
  9
$ANGDIR
 70
     0
  9
$PDMODE
 70
     0
  9
$PDSIZE
 40
0.0
  9
$PLINEWID
 40
0.0
  9
$COORDS
 70
     1
  9
$SPLFRAME
 70
     0
  9
$SPLINETYPE
 70
     6
  9
$SPLINESEGS
 70
     8
  9
$ATTDIA
 70
     0
  9
$ATTREQ
 70
     1
  9
$HANDLING
 70
-16383
  9
$HANDSEED
  5
18433
  9
$SURFTAB1
 70
     6
  9
$SURFTAB2
 70
     6
  9
$SURFTYPE
 70
     6
  9
$SURFU
 70
     6
  9
$SURFV
 70
     6
  9
$UCSNAME
  2

  9
$UCSORG
 10
0.0
 20
0.0
 30
0.0
  9
$UCSXDIR
 10
1.0
 20
0.0
 30
0.0
  9
$UCSYDIR
 10
0.0
 20
1.0
 30
0.0
  9
$PUCSNAME
  2

  9
$PUCSORG
 10
0.0
 20
0.0
 30
0.0
  9
$PUCSXDIR
 10
1.0
 20
0.0
 30
0.0
  9
$PUCSYDIR
 10
0.0
 20
1.0
 30
0.0
  9
$USERI1
 70
     0
  9
$USERI2
 70
     0
  9
$USERI3
 70
     0
  9
$USERI4
 70
     0
  9
$USERI5
 70
     0
  9
$USERR1
 40
0.0
  9
$USERR2
 40
0.0
  9
$USERR3
 40
0.0
  9
$USERR4
 40
0.0
  9
$USERR5
 40
0.0
  9
$WORLDVIEW
 70
     1
  9
$SHADEDGE
 70
     3
  9
$SHADEDIF
 70
    70
  9
$TILEMODE
 70
     0
  9
$MAXACTVP
 70
    48
  9
$PINSBASE
 10
0.0
 20
0.0
 30
0.0
  9
$PLIMCHECK
 70
     0
  9
$PEXTMIN
 10
-0.0257016732446118
 20
-0.0016341223803238
 30
-0.0015258207003583
  9
$PEXTMAX
 10
400.0181849750081
 20
288.0062844450995
 30
0.0000000349246037
  9
$PLIMMIN
 10
-3.156701790696943
 20
-3.158808782295013
  9
$PLIMMAX
 10
413.0566043946264
 20
291.1634577344693
  9
$UNITMODE
 70
     0
  9
$VISRETAIN
 70
     1
  9
$PLINEGEN
 70
     0
  9
$PSLTSCALE
 70
     0
  9
$TREEDEPTH
 70
  3020
  9
$PICKSTYLE
 70
     1
  9
$CMLSTYLE
  2
STANDARD
  9
$CMLJUST
 70
     0
  9
$CMLSCALE
 40
20.0
  9
$PROXYGRAPHICS
 70
     1
  9
$MEASUREMENT
 70
     0
  0
ENDSEC
  0
SECTION
  2
CLASSES
  0
CLASS
  1
HATCH
  2
AcDbHatch
  3
AutoCAD 2000
 90
        0
280
     0
281
     1
  0
CLASS
  1
LWPOLYLINE
  2
AcDbPolyline
  3
AutoCAD 2000
 90
        0
280
     0
281
     1
  0
CLASS
  1
ACDBDICTIONARYWDFLT
  2
AcDbDictionaryWithDefault
  3
AutoCAD 2000
 90
        0
280
     0
281
     0
  0
CLASS
  1
ACDBPLACEHOLDER
  2
AcDbPlaceHolder
  3
AutoCAD 2000
 90
        0
280
     0
281
     0
  0
CLASS
  1
LAYOUT
  2
AcDbLayout
  3
AutoCAD 2000
 90
        0
280
     0
281
     0
  0
CLASS
  1
DICTIONARYVAR
  2
AcDbDictionaryVar
  3
AutoCAD 2000
 90
        0
280
     0
281
     0
  0
CLASS
  1
LONG_TRANSACTION
  2
AcDbLongTransaction
  3
AutoCAD 2000
 90
        0
280
     0
281
     0
  0
CLASS
  1
LWPOLYLINE
  2
AcDbPolyline
  3
AutoCAD 2000
 90
        0
280
     0
281
     1
  0
CLASS
  1
HATCH
  2
AcDbHatch
  3
AutoCAD 2000
 90
        0
280
     0
281
     1
  0
CLASS
  1
XRECORD
  2
AcDbXrecord
  3
AutoCAD 2000
 90
        0
280
     0
281
     0
  0
ENDSEC
  0
SECTION
  2
TABLES
  0
TABLE
  2
VPORT
  5
8
330
0
100
AcDbSymbolTable
 70
     2
  0
VPORT
  5
1840D
330
8
100
AcDbSymbolTableRecord
100
AcDbViewportTableRecord
  2
*ACTIVE
 70
     0
 10
0.0
 20
0.0
 11
1.0
 21
1.0
 12
695.6875055349364
 22
-441.2840721124943
 13
0.0
 23
0.0
 14
10.0
 24
10.0
 15
10.0
 25
10.0
 16
0.0
 26
0.0
 36
1.0
 17
0.0
 27
0.0
 37
0.0
 40
143.4235943990411
 41
2.184834123222748
 42
50.0
 43
0.0
 44
0.0
 50
0.0
 51
0.0
 71
     0
 72
 10000
 73
     1
 74
     0
 75
     0
 76
     0
 77
     0
 78
     2
  0
ENDTAB
  0
TABLE
  2
LTYPE
  5
5
330
0
100
AcDbSymbolTable
 70
     3
  0
LTYPE
  5
12
330
5
100
AcDbSymbolTableRecord
100
AcDbLinetypeTableRecord
  2
BYBLOCK
 70
     0
  3

 72
    65
 73
     0
 40
0.0
  0
LTYPE
  5
13
330
5
100
AcDbSymbolTableRecord
100
AcDbLinetypeTableRecord
  2
BYLAYER
 70
     0
  3

 72
    65
 73
     0
 40
0.0
  0
LTYPE
  5
14
330
5
100
AcDbSymbolTableRecord
100
AcDbLinetypeTableRecord
  2
CONTINUOUS
 70
     0
  3
Solid line
 72
    65
 73
     0
 40
0.0
  0
LTYPE
  5
3306
330
5
100
AcDbSymbolTableRecord
100
AcDbLinetypeTableRecord
  2
CENTER
 70
     0
  3
Center ____ _ ____ _ ____ _ ____ _ ____ _ ____
 72
    65
 73
     4
 40
2.0
 49
1.25
 74
     0
 49
-0.25
 74
     0
 49
0.25
 74
     0
 49
-0.25
 74
     0
  0
LTYPE
  5
B567
330
5
100
AcDbSymbolTableRecord
100
AcDbLinetypeTableRecord
  2
HIDDEN
 70
     0
  3
Hidden __ __ __ __ __ __ __ __ __ __ __ __ __ _
 72
    65
 73
     2
 40
0.375
 49
0.25
 74
     0
 49
-0.125
 74
     0
  0
ENDTAB
  0
TABLE
  2
LAYER
  5
2
102
{ACAD_XDICTIONARY
360
16FA5
102
}
330
0
100
AcDbSymbolTable
 70
    11
  0
LAYER
  5
E
330
2
100
AcDbSymbolTableRecord
100
AcDbLayerTableRecord
  2
0
 70
     2
 62
     7
  6
CONTINUOUS
  0
LAYER
  5
2C
330
2
100
AcDbSymbolTableRecord
100
AcDbLayerTableRecord
  2
M_VIEW
 70
     0
 62
    -1
  6
CONTINUOUS
  0
LAYER
  5
12B
330
2
100
AcDbSymbolTableRecord
100
AcDbLayerTableRecord
  2
DEFPOINTS
 70
     0
 62
    -7
  6
CONTINUOUS
  0
LAYER
  5
8C6
330
2
100
AcDbSymbolTableRecord
100
AcDbLayerTableRecord
  2
文字
 70
     0
 62
     7
  6
CONTINUOUS
  0
LAYER
  5
A51A
330
2
100
AcDbSymbolTableRecord
100
AcDbLayerTableRecord
  2
中心線
 70
     0
 62
     7
  6
CENTER
  0
LAYER
  5
B010
330
2
100
AcDbSymbolTableRecord
100
AcDbLayerTableRecord
  2
実線
 70
     0
 62
     7
  6
CONTINUOUS
  0
LAYER
  5
B570
330
2
100
AcDbSymbolTableRecord
100
AcDbLayerTableRecord
  2
破線
 70
     0
 62
     7
  6
HIDDEN
  0
LAYER
  5
FFDD
330
2
100
AcDbSymbolTableRecord
100
AcDbLayerTableRecord
  2
寸法
 70
     0
 62
     7
  6
CONTINUOUS
  0
ENDTAB
  0
TABLE
  2
STYLE
  5
3
330
0
100
AcDbSymbolTable
 70
     5
  0
STYLE
  5
F
330
3
100
AcDbSymbolTableRecord
100
AcDbTextStyleTableRecord
  2
STANDARD
 70
     0
 40
0.0
 41
1.0
 50
0.0
 71
     0
 42
2.5
  3
isocp.shx
  4
bigfont.shx
  0
STYLE
  5
8D7
330
3
100
AcDbSymbolTableRecord
100
AcDbTextStyleTableRecord
  2
MSｺ_ｼｯｸ-0
 70
     0
 40
0.0
 41
1.0
 50
0.0
 71
     0
 42
4.0
  3
simplex.shx
  4
bigfont.shx
  0
STYLE
  5
1529
330
3
100
AcDbSymbolTableRecord
100
AcDbTextStyleTableRecord
  2
まこ
 70
     0
 40
0.0
 41
1.0
 50
0.0
 71
     0
 42
2.5
  3
simplex.shx
  4
bigfont.shx
  0
ENDTAB
  0
TABLE
  2
VIEW
  5
6
330
0
100
AcDbSymbolTable
 70
     0
  0
ENDTAB
  0
TABLE
  2
UCS
  5
7
330
0
100
AcDbSymbolTable
 70
     0
  0
ENDTAB
  0
TABLE
  2
APPID
  5
9
330
0
100
AcDbSymbolTable
 70
     1
  0
APPID
  5
10
330
9
100
AcDbSymbolTableRecord
100
AcDbRegAppTableRecord
  2
ACAD
 70
     0
  0
ENDTAB
  0
TABLE
  2
DIMSTYLE
  5
A
330
0
100
AcDbSymbolTable
 70
     2
  0
DIMSTYLE
105
1D
330
A
100
AcDbSymbolTableRecord
100
AcDbDimStyleTableRecord
  2
STANDARD
 70
     0
  3

  4

  5
OPEN30
  6

  7

 40
1.0
 41
3.0
 42
0.8
 43
0.38
 44
0.8
 45
0.0
 46
0.0
 47
0.0
 48
0.0
140
3.0
141
0.0
142
0.0
143
25.4
144
1.0
145
0.0
146
1.0
147
0.5
 71
     0
 72
     0
 73
     0
 74
     0
 75
     0
 76
     0
 77
     3
 78
     8
170
     0
171
     2
172
     0
173
     0
174
     0
175
     0
176
     4
177
     4
178
   256
270
     2
271
     4
272
     4
273
     2
274
     2
340
8D7
275
     0
280
     0
281
     0
282
     0
283
     1
284
     0
285
     0
286
     0
287
     3
288
     0
  0
DIMSTYLE
105
FFDE
330
A
100
AcDbSymbolTableRecord
100
AcDbDimStyleTableRecord
  2
STD-I1
 70
     0
  3

  4

  5

  6
OPEN
  7
OPEN
 40
1.0
 41
3.0
 42
1.0
 43
6.5
 44
1.0
 45
0.0
 46
0.0
 47
0.0
 48
0.000000001
140
3.0
141
2.5
142
0.0
143
0.0394
144
1.0
145
0.0
146
0.8
147
0.75
 71
     0
 72
     0
 73
     0
 74
     0
 75
     0
 76
     0
 77
     1
 78
     9
170
     0
171
     4
172
     1
173
     1
174
     0
175
     0
176
     4
177
     4
178
   256
270
     2
271
     8
272
     8
273
     8
274
     4
340
F
275
     0
280
     0
281
     0
282
     0
283
     1
284
     9
285
     0
286
     0
287
     0
288
     0
  0
ENDTAB
  0
TABLE
  2
BLOCK_RECORD
  5
1
330
0
100
AcDbSymbolTable
 70
    21
  0
BLOCK_RECORD
  5
18
102
{ACAD_XDICTIONARY
360
18431
102
}
330
1
100
AcDbSymbolTableRecord
100
AcDbBlockTableRecord
  2
*MODEL_SPACE
  0
BLOCK_RECORD
  5
15
102
{ACAD_XDICTIONARY
360
1842F
102
}
330
1
100
AcDbSymbolTableRecord
100
AcDbBlockTableRecord
  2
*PAPER_SPACE
  0
BLOCK_RECORD
  5
89E
330
1
100
AcDbSymbolTableRecord
100
AcDbBlockTableRecord
  2
_OPEN30
  0
BLOCK_RECORD
  5
FFCB
330
1
100
AcDbSymbolTableRecord
100
AcDbBlockTableRecord
  2
_OPEN
  0
ENDTAB
  0
ENDSEC
  0
SECTION
  2
BLOCKS
  0
BLOCK
  5
19
330
18
100
AcDbEntity
  8
0
100
AcDbBlockBegin
  2
*MODEL_SPACE
 70
     0
 10
0.0
 20
0.0
 30
0.0
  3
*MODEL_SPACE
  1

  0
ENDBLK
  5
1A
330
18
100
AcDbEntity
  8
0
100
AcDbBlockEnd
  0
BLOCK
  5
16
330
15
100
AcDbEntity
 67
     1
  8
0
100
AcDbBlockBegin
  2
*PAPER_SPACE
 70
     0
 10
0.0
 20
0.0
 30
0.0
  3
*PAPER_SPACE
  1

  0
ENDBLK
  5
17
330
15
100
AcDbEntity
 67
     1
  8
0
100
AcDbBlockEnd
  0
BLOCK
  5
8A2
330
89E
100
AcDbEntity
  8
0
100
AcDbBlockBegin
  2
_OPEN30
 70
     0
 10
0.0
 20
0.0
 30
0.0
  3
_OPEN30
  1

  0
LINE
  5
89F
330
89E
100
AcDbEntity
  8
0
  6
BYBLOCK
 62
     0
100
AcDbLine
 10
-1.0
 20
0.26794919
 30
0.0
 11
0.0
 21
0.0
 31
0.0
  0
LINE
  5
8A0
330
89E
100
AcDbEntity
  8
0
  6
BYBLOCK
 62
     0
100
AcDbLine
 10
0.0
 20
0.0
 30
0.0
 11
-1.0
 21
-0.26794919
 31
0.0
  0
LINE
  5
8A1
330
89E
100
AcDbEntity
  8
0
  6
BYBLOCK
 62
     0
100
AcDbLine
 10
0.0
 20
0.0
 30
0.0
 11
-1.0
 21
0.0
 31
0.0
  0
ENDBLK
  5
8A3
330
89E
100
AcDbEntity
  8
0
100
AcDbBlockEnd
  0
BLOCK
  5
FFCF
330
FFCB
100
AcDbEntity
  8
0
100
AcDbBlockBegin
  2
_OPEN
 70
     0
 10
0.0
 20
0.0
 30
0.0
  3
_OPEN
  1

  0
LINE
  5
FFCC
330
FFCB
100
AcDbEntity
  8
0
  6
BYBLOCK
 62
     0
100
AcDbLine
 10
-1.0
 20
0.1666666666666666
 30
0.0
 11
0.0
 21
0.0
 31
0.0
  0
LINE
  5
FFCD
330
FFCB
100
AcDbEntity
  8
0
  6
BYBLOCK
 62
     0
100
AcDbLine
 10
0.0
 20
0.0
 30
0.0
 11
-1.0
 21
-0.1666666666666666
 31
0.0
  0
LINE
  5
FFCE
330
FFCB
100
AcDbEntity
  8
0
  6
BYBLOCK
 62
     0
100
AcDbLine
 10
0.0
 20
0.0
 30
0.0
 11
-1.0
 21
0.0
 31
0.0
  0
ENDBLK
  5
FFD0
330
FFCB
100
AcDbEntity
  8
0
100
AcDbBlockEnd
  0
ENDSEC
  0
SECTION
  2
ENTITIES
  0
MTEXT
  5
1702E
330
18
100
AcDbEntity
  8
寸法
 48
10.0
100
AcDbMText
 10
353.5067219664551
 20
-534.7272911867112
 30
0.0
 40
3.0
 41
0.0
 71
     7
 72
     1
  1

1001
ACAD
1000
MTEXTBEGIN
1070
    73
1070
     1
1070
    44
1040
1.0
1070
    74
1070
     0
1000
MTEXTEND
  0
MTEXT
  5
17032
330
18
100
AcDbEntity
  8
寸法
 48
10.0
100
AcDbMText
 10
366.4028134566423
 20
-534.7272911867112
 30
0.0
 40
3.0
 41
0.0
 71
     7
 72
     1
  1

1001
ACAD
1000
MTEXTBEGIN
1070
    73
1070
     1
1070
    44
1040
1.0
1070
    74
1070
     0
1000
MTEXTEND
  0
LINE
  5
17D9B
102
{ACAD_REACTORS
330
17FD4
330
17FD5
102
}
330
18
100
AcDbEntity
  8
0
100
AcDbLine
 10
706.673917223795
 20
-420.3906329219256
 30
0.0
 11
721.673917223795
 21
-420.3906329219256
 31
0.0
  0
LWPOLYLINE
  5
17D9D
102
{ACAD_REACTORS
330
17FD4
330
17FD5
102
}
330
18
100
AcDbEntity
  8
0
100
AcDbPolyline
 90
        8
 70
     1
 43
0.0
 10
707.173917223795
 20
-426.3906329219256
 10
721.1739172237947
 20
-426.3906329219262
 42
0.4142135623730951
 10
721.673917223795
 20
-425.8906329219262
 10
721.673917223795
 20
-416.8906329219261
 42
0.4142135623730951
 10
721.1739172237947
 20
-416.3906329219261
 10
707.173917223795
 20
-416.3906329219261
 42
0.4142135623730996
 10
706.673917223795
 20
-416.8906329219261
 10
706.673917223795
 20
-425.8906329219256
 42
0.4142135623730904
  0
CIRCLE
  5
17D9F
102
{ACAD_REACTORS
330
17FCC
102
}
330
18
100
AcDbEntity
  8
実線
 48
10.0
100
AcDbCircle
 10
706.6739172237539
 20
-384.3906329219261
 30
0.0
 40
5.0
  0
CIRCLE
  5
17DA0
102
{ACAD_REACTORS
330
17FCB
102
}
330
18
100
AcDbEntity
  8
実線
 48
10.0
100
AcDbCircle
 10
706.6739172237539
 20
-401.3906329219262
 30
0.0
 40
5.0
  0
CIRCLE
  5
17DA1
330
18
100
AcDbEntity
  8
実線
 48
10.0
100
AcDbCircle
 10
706.6739172237539
 20
-401.3906329219262
 30
0.0
 40
5.5
  0
CIRCLE
  5
17DA2
330
18
100
AcDbEntity
  8
実線
 48
10.0
100
AcDbCircle
 10
706.6739172237539
 20
-384.3906329219261
 30
0.0
 40
5.5
  0
ARC
  5
17DA3
330
18
100
AcDbEntity
  8
中心線
 48
8.0
100
AcDbCircle
 10
766.6739172237097
 20
373.6093670780646
 30
0.0
 40
770.0
100
AcDbArc
 50
263.075851268872
 51
273.9608725165015
  0
ARC
  5
17DA4
330
18
100
AcDbEntity
  8
実線
100
AcDbCircle
 10
766.6739172237097
 20
373.6093670780653
 30
0.0
 40
749.9999999999918
100
AcDbArc
 50
265.2194450220671
 51
274.7805549779458
  0
ARC
  5
17DA5
330
18
100
AcDbEntity
  8
実線
100
AcDbCircle
 10
766.673917223708
 20
373.6093670780658
 30
0.0
 40
850.5000000000022
100
AcDbArc
 50
264.9750520508372
 51
275.0249479491626
  0
LINE
  5
17DA7
330
18
100
AcDbEntity
  8
実線
100
AcDbLine
 10
591.3048146240022
 20
-376.3906329219261
 30
0.0
 11
552.5048146240021
 21
-376.3906329219261
 31
0.0
  0
LINE
  5
17DAB
330
18
100
AcDbEntity
  8
中心線
 48
10.0
100
AcDbLine
 10
595.4392376130339
 20
-396.3906329219365
 30
0.0
 11
548.3703916349671
 21
-396.3906329219365
 31
0.0
  0
LINE
  5
17DAD
330
18
100
AcDbEntity
  8
実線
100
AcDbLine
 10
575.3048146240026
 20
-426.4807593998155
 30
0.0
 11
585.4048146240025
 21
-426.4807593998155
 31
0.0
  0
LINE
  5
17DAE
330
18
100
AcDbEntity
  8
実線
100
AcDbLine
 10
585.4048146240024
 20
-413.3906329219303
 30
0.0
 11
558.4048146240021
 21
-413.3906329219303
 31
0.0
  0
LINE
  5
17DAF
330
18
100
AcDbEntity
  8
破線
 48
10.0
100
AcDbLine
 10
585.4048146240024
 20
-399.8906329219363
 30
0.0
 11
558.4048146240021
 21
-399.8906329219363
 31
0.0
  0
LINE
  5
17DB0
330
18
100
AcDbEntity
  8
破線
 48
10.0
100
AcDbLine
 10
585.3314536972861
 20
-392.8906329219365
 30
0.0
 11
558.3314536972858
 21
-392.8906329219366
 31
0.0
  0
LINE
  5
17DB2
330
18
100
AcDbEntity
  8
破線
 48
10.0
100
AcDbLine
 10
557.4048146240004
 20
-508.3906329219261
 30
0.0
 11
586.4048146240004
 21
-508.3906329219261
 31
0.0
  0
LINE
  5
17DB3
330
18
100
AcDbEntity
  8
実線
100
AcDbLine
 10
575.3048146240018
 20
-476.4807593998154
 30
0.0
 11
585.4048146240025
 21
-476.4807593998154
 31
0.0
  0
LINE
  5
17DB4
330
18
100
AcDbEntity
  8
破線
 48
10.0
100
AcDbLine
 10
586.4048146240004
 20
-478.8906329219271
 30
0.0
 11
576.4048146240004
 21
-478.8906329219271
 31
0.0
  0
LINE
  5
17DBA
330
18
100
AcDbEntity
  8
実線
 48
10.0
100
AcDbLine
 10
552.5048146240021
 20
-476.8906329219363
 30
0.0
 11
552.5048146240021
 21
-376.3906329219261
 31
0.0
  0
LINE
  5
17DBB
330
18
100
AcDbEntity
  8
実線
100
AcDbLine
 10
558.4048146240013
 20
-376.3906329219261
 30
0.0
 11
558.4048146240021
 21
-413.3906329219303
 31
0.0
  0
LINE
  5
17DBC
330
18
100
AcDbEntity
  8
実線
 48
10.0
100
AcDbLine
 10
558.4048146240021
 20
-376.3906329219261
 30
0.0
 11
558.4048146240021
 21
-476.8906329219363
 31
0.0
  0
LINE
  5
17DBD
330
18
100
AcDbEntity
  8
中心線
 48
5.0
100
AcDbLine
 10
571.9048146240004
 20
-370.1285786049739
 30
0.0
 11
571.9048146240004
 21
-512.4563579635031
 31
0.0
  0
LINE
  5
17DC1
330
18
100
AcDbEntity
  8
実線
100
AcDbLine
 10
568.5048146240022
 20
-426.4807593998159
 30
0.0
 11
568.5048146240027
 21
-476.4749955416291
 31
0.0
  0
LINE
  5
17DC2
330
18
100
AcDbEntity
  8
実線
100
AcDbLine
 10
575.3048146240026
 20
-426.4807593998155
 30
0.0
 11
575.3048146240018
 21
-476.4749955416291
 31
0.0
  0
LINE
  5
17DC3
330
18
100
AcDbEntity
  8
破線
 48
10.0
100
AcDbLine
 10
569.2048146239998
 20
-477.0906329219267
 30
0.0
 11
569.2048146240016
 21
-416.3906329219273
 31
0.0
  0
LINE
  5
17DC4
330
18
100
AcDbEntity
  8
破線
 48
10.0
100
AcDbLine
 10
574.6048146240013
 20
-477.0906329219267
 30
0.0
 11
574.6048146239994
 21
-416.3906329219265
 31
0.0
  0
LINE
  5
17DC5
330
18
100
AcDbEntity
  8
実線
100
AcDbLine
 10
558.4048146240021
 20
-426.4807593998158
 30
0.0
 11
558.4048146240021
 21
-476.8807593998153
 31
0.0
  0
LINE
  5
17DC6
330
18
100
AcDbEntity
  8
実線
100
AcDbLine
 10
568.5048146240031
 20
-476.4807593998154
 30
0.0
 11
558.4048146240021
 21
-476.4807593998154
 31
0.0
  0
LINE
  5
17DC7
330
18
100
AcDbEntity
  8
破線
 48
10.0
100
AcDbLine
 10
567.4048146240004
 20
-478.890632921927
 30
0.0
 11
557.4048146240004
 21
-478.8906329219271
 31
0.0
  0
LINE
  5
17DC8
330
18
100
AcDbEntity
  8
破線
 48
10.0
100
AcDbLine
 10
556.9048146240004
 20
-479.3906329219271
 30
0.0
 11
556.9048146240004
 21
-507.8906329219261
 31
0.0
  0
LINE
  5
17DC9
330
18
100
AcDbEntity
  8
破線
 48
10.0
100
AcDbLine
 10
556.9048146240004
 20
-507.8906329219261
 30
0.0
 11
557.4048146240004
 21
-508.3906329219261
 31
0.0
  0
LINE
  5
17DCA
330
18
100
AcDbEntity
  8
実線
 48
10.0
100
AcDbLine
 10
558.4048146240021
 20
-476.8906329219363
 30
0.0
 11
552.5048146240021
 21
-476.8906329219363
 31
0.0
  0
LINE
  5
17DCB
330
18
100
AcDbEntity
  8
破線
 48
10.0
100
AcDbLine
 10
557.4048146240004
 20
-478.8906329219271
 30
0.0
 11
556.9048146240004
 21
-479.3906329219271
 31
0.0
  0
LINE
  5
17DCC
330
18
100
AcDbEntity
  8
破線
 48
10.0
100
AcDbLine
 10
567.4048146240004
 20
-478.8906329219271
 30
0.0
 11
569.2048146239998
 21
-477.0906329219267
 31
0.0
  0
LINE
  5
17DCD
330
18
100
AcDbEntity
  8
破線
 48
10.0
100
AcDbLine
 10
576.4048146240004
 20
-478.8906329219271
 30
0.0
 11
574.6048146240013
 21
-477.0906329219267
 31
0.0
  0
LINE
  5
17DCE
330
18
100
AcDbEntity
  8
実線
100
AcDbLine
 10
568.5048146240022
 20
-426.4807593998159
 30
0.0
 11
558.4048146240021
 21
-426.4807593998158
 31
0.0
  0
LINE
  5
17DCF
330
18
100
AcDbEntity
  8
破線
 48
10.0
100
AcDbLine
 10
558.4048146240021
 20
-390.6406329219365
 30
0.0
 11
552.5048146240021
 21
-390.6406329219365
 31
0.0
  0
LINE
  5
17DD0
330
18
100
AcDbEntity
  8
破線
 48
10.0
100
AcDbLine
 10
558.404814624002
 20
-402.1406329219363
 30
0.0
 11
552.504814624002
 21
-402.1406329219363
 31
0.0
  0
LINE
  5
17DD1
330
18
100
AcDbEntity
  8
破線
 48
10.0
100
AcDbLine
 10
573.6048146239994
 20
-415.3906329219266
 30
0.0
 11
570.2048146240016
 21
-415.3906329219275
 31
0.0
  0
ARC
  5
17DD2
330
18
100
AcDbEntity
  8
破線
 48
10.0
100
AcDbCircle
 10
570.2048146240016
 20
-416.3906329219273
 30
0.0
 40
1.0
100
AcDbArc
 50
90.0
 51
180.0
  0
ARC
  5
17DD3
330
18
100
AcDbEntity
  8
破線
 48
10.0
100
AcDbCircle
 10
573.6048146239994
 20
-416.3906329219265
 30
0.0
 40
1.0
100
AcDbArc
 50
0.0
 51
90.0
  0
LINE
  5
17DD4
330
18
100
AcDbEntity
  8
破線
 48
10.0
100
AcDbLine
 10
558.4048146240013
 20
-373.7641392386647
 30
0.0
 11
552.5048146240021
 21
-373.7641392386647
 31
0.0
  0
LINE
  5
17DD5
330
18
100
AcDbEntity
  8
破線
 48
10.0
100
AcDbLine
 10
552.5048146240021
 20
-376.3906329219261
 30
0.0
 11
552.5048146240021
 21
-373.7641392386647
 31
0.0
  0
LINE
  5
17DD6
330
18
100
AcDbEntity
  8
破線
 48
10.0
100
AcDbLine
 10
558.4048146240013
 20
-376.3906329219261
 30
0.0
 11
558.4048146240013
 21
-373.7641392386647
 31
0.0
  0
LINE
  5
17DD7
330
18
100
AcDbEntity
  8
実線
100
AcDbLine
 10
585.4048146240012
 20
-376.3906329219261
 30
0.0
 11
585.4048146240024
 21
-413.3906329219303
 31
0.0
  0
LINE
  5
17DD8
330
18
100
AcDbEntity
  8
実線
 48
10.0
100
AcDbLine
 10
585.4048146240024
 20
-376.3906329219261
 30
0.0
 11
585.4048146240025
 21
-476.8906329219366
 31
0.0
  0
LINE
  5
17DD9
330
18
100
AcDbEntity
  8
実線
 48
10.0
100
AcDbLine
 10
591.3048146240022
 20
-476.8906329219366
 30
0.0
 11
591.3048146240022
 21
-376.3906329219261
 31
0.0
  0
LINE
  5
17DDA
330
18
100
AcDbEntity
  8
実線
100
AcDbLine
 10
690.362330420973
 20
-471.4496792137611
 30
0.0
 11
698.7727449956927
 21
-378.3144527401716
 31
0.0
  0
LINE
  5
17DDD
330
18
100
AcDbEntity
  8
実線
100
AcDbLine
 10
585.4048146240025
 20
-426.4807593998155
 30
0.0
 11
585.4048146240025
 21
-476.8807593998153
 31
0.0
  0
LINE
  5
17DE1
330
18
100
AcDbEntity
  8
破線
 48
10.0
100
AcDbLine
 10
586.9048146240004
 20
-507.8906329219261
 30
0.0
 11
586.9048146240004
 21
-479.3906329219271
 31
0.0
  0
LINE
  5
17DE3
330
18
100
AcDbEntity
  8
破線
 48
10.0
100
AcDbLine
 10
586.4048146240004
 20
-508.3906329219261
 30
0.0
 11
586.9048146240004
 21
-507.8906329219261
 31
0.0
  0
LINE
  5
17DE5
330
18
100
AcDbEntity
  8
実線
 48
10.0
100
AcDbLine
 10
591.3048146240022
 20
-476.8906329219368
 30
0.0
 11
585.4048146240025
 21
-476.8906329219366
 31
0.0
  0
LINE
  5
17DE6
330
18
100
AcDbEntity
  8
破線
 48
10.0
100
AcDbLine
 10
586.4048146240004
 20
-478.8906329219271
 30
0.0
 11
586.9048146240004
 21
-479.3906329219271
 31
0.0
  0
LINE
  5
17DE8
330
18
100
AcDbEntity
  8
破線
 48
10.0
100
AcDbLine
 10
585.4048146240024
 20
-390.6406329219365
 30
0.0
 11
591.3048146240022
 21
-390.6406329219365
 31
0.0
  0
LINE
  5
17DE9
330
18
100
AcDbEntity
  8
破線
 48
10.0
100
AcDbLine
 10
585.4048146240024
 20
-402.1406329219363
 30
0.0
 11
591.3048146240022
 21
-402.1406329219363
 31
0.0
  0
ARC
  5
17DEE
330
18
100
AcDbEntity
  8
実線
100
AcDbCircle
 10
692.3542252797743
 20
-471.6295538131592
 30
0.0
 40
2.0
100
AcDbArc
 50
174.8400000000058
 51
264.9750520508372
  0
LINE
  5
17DF0
102
{ACAD_REACTORS
330
17FCB
102
}
330
18
100
AcDbEntity
  8
実線
 48
10.0
100
AcDbLine
 10
706.6739171968317
 20
-399.6585821219261
 30
0.0
 11
705.1739172237541
 21
-400.5246075319261
 31
0.0
  0
LINE
  5
17DF1
102
{ACAD_REACTORS
330
17FCB
102
}
330
18
100
AcDbEntity
  8
実線
 48
10.0
100
AcDbLine
 10
705.1739172237541
 20
-402.2566583119261
 30
0.0
 11
706.6739171968317
 21
-403.1226837219263
 31
0.0
  0
LINE
  5
17DF2
102
{ACAD_REACTORS
330
17FCB
102
}
330
18
100
AcDbEntity
  8
実線
 48
10.0
100
AcDbLine
 10
705.1739172237541
 20
-400.5246075319261
 30
0.0
 11
705.1739172237541
 21
-402.2566583119261
 31
0.0
  0
LINE
  5
17DF3
102
{ACAD_REACTORS
330
17FCB
102
}
330
18
100
AcDbEntity
  8
実線
 48
10.0
100
AcDbLine
 10
708.1739172237538
 20
-402.2566583119261
 30
0.0
 11
708.1739172237538
 21
-400.5246075319261
 31
0.0
  0
LINE
  5
17DF4
102
{ACAD_REACTORS
330
17FCB
102
}
330
18
100
AcDbEntity
  8
実線
 48
10.0
100
AcDbLine
 10
708.1739172237538
 20
-400.5246075319261
 30
0.0
 11
706.6739172506762
 21
-399.6585821219261
 31
0.0
  0
LINE
  5
17DF5
102
{ACAD_REACTORS
330
17FCB
102
}
330
18
100
AcDbEntity
  8
実線
 48
10.0
100
AcDbLine
 10
706.6739172506762
 20
-403.1226837219263
 30
0.0
 11
708.1739172237538
 21
-402.2566583119261
 31
0.0
  0
LINE
  5
17DF6
330
18
100
AcDbEntity
  8
破線
 48
10.0
100
AcDbLine
 10
585.4048146240024
 20
-373.7641392386647
 30
0.0
 11
591.3048146240022
 21
-373.7641392386647
 31
0.0
  0
LINE
  5
17DF7
330
18
100
AcDbEntity
  8
破線
 48
10.0
100
AcDbLine
 10
585.4048146240024
 20
-376.3906329219261
 30
0.0
 11
585.4048146240024
 21
-373.7641392386647
 31
0.0
  0
LINE
  5
17DF8
330
18
100
AcDbEntity
  8
破線
 48
10.0
100
AcDbLine
 10
591.3048146240022
 20
-376.3906329219261
 30
0.0
 11
591.3048146240022
 21
-373.7641392386647
 31
0.0
  0
ARC
  5
17DFA
330
18
100
AcDbEntity
  8
実線
100
AcDbCircle
 10
703.7524821426786
 20
-378.7641392386646
 30
0.0
 40
5.0
100
AcDbArc
 50
85.21944502206713
 51
174.8399999999992
  0
LINE
  5
17DFB
102
{ACAD_REACTORS
330
17FCC
102
}
330
18
100
AcDbEntity
  8
実線
 48
10.0
100
AcDbLine
 10
706.6739171968317
 20
-382.6585821219261
 30
0.0
 11
705.1739172237541
 21
-383.5246075319261
 31
0.0
  0
LINE
  5
17DFC
102
{ACAD_REACTORS
330
17FCC
102
}
330
18
100
AcDbEntity
  8
実線
 48
10.0
100
AcDbLine
 10
705.1739172237541
 20
-385.2566583119261
 30
0.0
 11
706.6739171968317
 21
-386.1226837219262
 31
0.0
  0
LINE
  5
17DFD
102
{ACAD_REACTORS
330
17FCC
102
}
330
18
100
AcDbEntity
  8
実線
 48
10.0
100
AcDbLine
 10
705.1739172237541
 20
-383.5246075319261
 30
0.0
 11
705.1739172237541
 21
-385.2566583119261
 31
0.0
  0
LINE
  5
17DFE
102
{ACAD_REACTORS
330
17FCC
102
}
330
18
100
AcDbEntity
  8
実線
 48
10.0
100
AcDbLine
 10
708.1739172237543
 20
-385.2566583119261
 30
0.0
 11
708.1739172237543
 21
-383.5246075319261
 31
0.0
  0
LINE
  5
17DFF
102
{ACAD_REACTORS
330
17FCC
102
}
330
18
100
AcDbEntity
  8
実線
 48
10.0
100
AcDbLine
 10
708.1739172237543
 20
-383.5246075319261
 30
0.0
 11
706.6739172506762
 21
-382.6585821219261
 31
0.0
  0
LINE
  5
17E00
102
{ACAD_REACTORS
330
17FCC
102
}
330
18
100
AcDbEntity
  8
実線
 48
10.0
100
AcDbLine
 10
706.6739172506762
 20
-386.1226837219262
 30
0.0
 11
708.1739172237543
 21
-385.2566583119261
 31
0.0
  0
ARC
  5
17E03
330
18
100
AcDbEntity
  8
実線
100
AcDbCircle
 10
840.9936091676414
 20
-471.6295538131616
 30
0.0
 40
2.0
100
AcDbArc
 50
275.024947949176
 51
5.159999999983284
  0
LINE
  5
17E04
330
18
100
AcDbEntity
  8
実線
100
AcDbLine
 10
842.9855040264342
 20
-471.4496792137643
 30
0.0
 11
834.5750894517195
 21
-378.3144527401713
 31
0.0
  0
CIRCLE
  5
17E07
102
{ACAD_REACTORS
330
17FD2
102
}
330
18
100
AcDbEntity
  8
実線
 48
10.0
100
AcDbCircle
 10
786.6739172237003
 20
-384.3906329217963
 30
0.0
 40
5.0
  0
CIRCLE
  5
17E08
102
{ACAD_REACTORS
330
17FD1
102
}
330
18
100
AcDbEntity
  8
実線
 48
10.0
100
AcDbCircle
 10
826.6739172237002
 20
-384.3906329215366
 30
0.0
 40
5.0
  0
CIRCLE
  5
17E09
102
{ACAD_REACTORS
330
17FCE
102
}
330
18
100
AcDbEntity
  8
実線
 48
10.0
100
AcDbCircle
 10
746.6739172237538
 20
-384.3906329219261
 30
0.0
 40
5.0
  0
CIRCLE
  5
17E0A
330
18
100
AcDbEntity
  8
実線
 48
10.0
100
AcDbCircle
 10
746.6739172237538
 20
-384.3906329219261
 30
0.0
 40
5.5
  0
LINE
  5
17E0B
330
18
100
AcDbEntity
  8
中心線
 48
8.0
100
AcDbLine
 10
766.6739172236847
 20
-371.3906329219261
 30
0.0
 11
766.6739172240286
 21
-484.2326958757601
 31
0.0
  0
CIRCLE
  5
17E0C
330
18
100
AcDbEntity
  8
実線
 48
10.0
100
AcDbCircle
 10
786.6739172237538
 20
-384.3906329219261
 30
0.0
 40
5.5
  0
CIRCLE
  5
17E0D
330
18
100
AcDbEntity
  8
実線
 48
10.0
100
AcDbCircle
 10
826.6739172237539
 20
-384.3906329219261
 30
0.0
 40
5.5
  0
LINE
  5
17E10
330
18
100
AcDbEntity
  8
0
100
AcDbLine
 10
761.673917223795
 20
-436.390632921926
 30
0.0
 11
726.6739172237931
 21
-436.390632921926
 31
0.0
  0
LINE
  5
17E12
330
18
100
AcDbEntity
  8
0
100
AcDbLine
 10
727.173917223795
 20
-443.3906329219261
 30
0.0
 11
761.173917223795
 21
-443.3906329219261
 31
0.0
  0
LINE
  5
17E13
330
18
100
AcDbEntity
  8
0
100
AcDbLine
 10
761.173917223795
 20
-431.390632921926
 30
0.0
 11
727.173917223795
 21
-431.390632921926
 31
0.0
  0
LINE
  5
17E17
102
{ACAD_REACTORS
330
17FD3
330
17FD4
102
}
330
18
100
AcDbEntity
  8
0
100
AcDbLine
 10
761.173917223795
 20
-414.3906329219261
 30
0.0
 11
727.173917223795
 21
-414.3906329219261
 31
0.0
  0
LINE
  5
17E18
102
{ACAD_REACTORS
330
17FD3
330
17FD4
102
}
330
18
100
AcDbEntity
  8
0
100
AcDbLine
 10
726.673917223795
 20
-421.3906329219261
 30
0.0
 11
761.673917223795
 21
-421.3906329219261
 31
0.0
  0
LINE
  5
17E19
102
{ACAD_REACTORS
330
17FD3
330
17FD4
102
}
330
18
100
AcDbEntity
  8
0
100
AcDbLine
 10
727.173917223795
 20
-426.3906329219262
 30
0.0
 11
761.173917223795
 21
-426.3906329219262
 31
0.0
  0
CIRCLE
  5
17E1A
102
{ACAD_REACTORS
330
17FCD
102
}
330
18
100
AcDbEntity
  8
実線
 48
10.0
100
AcDbCircle
 10
746.6739172237578
 20
-403.3906329218163
 30
0.0
 40
5.0
  0
CIRCLE
  5
17E1B
330
18
100
AcDbEntity
  8
実線
 48
10.0
100
AcDbCircle
 10
746.6739172237578
 20
-403.3906329218163
 30
0.0
 40
5.5
  0
LINE
  5
17E29
102
{ACAD_REACTORS
330
17FD3
330
17FD4
102
}
330
18
100
AcDbEntity
  8
0
100
AcDbLine
 10
726.673917223795
 20
-414.890632921926
 30
0.0
 11
726.673917223795
 21
-425.8906329219262
 31
0.0
  0
LINE
  5
17E2B
330
18
100
AcDbEntity
  8
0
100
AcDbLine
 10
726.673917223795
 20
-431.890632921926
 30
0.0
 11
726.673917223795
 21
-442.8906329219262
 31
0.0
  0
ARC
  5
17E2C
330
18
100
AcDbEntity
  8
0
100
AcDbCircle
 10
727.173917223795
 20
-442.8906329219252
 30
0.0
 40
0.5
100
AcDbArc
 50
180.0
 51
270.0
  0
ARC
  5
17E2E
330
18
100
AcDbEntity
  8
0
100
AcDbCircle
 10
727.173917223795
 20
-431.8906329219251
 30
0.0
 40
0.5
100
AcDbArc
 50
90.0
 51
180.0
  0
ARC
  5
17E2F
102
{ACAD_REACTORS
330
17FD3
330
17FD4
102
}
330
18
100
AcDbEntity
  8
0
100
AcDbCircle
 10
727.173917223795
 20
-425.8906329219262
 30
0.0
 40
0.5
100
AcDbArc
 50
180.0
 51
270.0
  0
ARC
  5
17E31
102
{ACAD_REACTORS
330
17FD3
330
17FD4
102
}
330
18
100
AcDbEntity
  8
0
100
AcDbCircle
 10
727.173917223795
 20
-414.890632921926
 30
0.0
 40
0.5
100
AcDbArc
 50
90.0
 51
180.0
  0
LINE
  5
17E38
102
{ACAD_REACTORS
330
17FCD
102
}
330
18
100
AcDbEntity
  8
実線
 48
10.0
100
AcDbLine
 10
748.1739172237578
 20
-402.5246075318163
 30
0.0
 11
746.6739172506802
 21
-401.6585821218161
 31
0.0
  0
LINE
  5
17E39
102
{ACAD_REACTORS
330
17FCD
102
}
330
18
100
AcDbEntity
  8
実線
 48
10.0
100
AcDbLine
 10
746.6739172506802
 20
-405.1226837218164
 30
0.0
 11
748.1739172237578
 21
-404.2566583118164
 31
0.0
  0
LINE
  5
17E3A
102
{ACAD_REACTORS
330
17FCD
102
}
330
18
100
AcDbEntity
  8
実線
 48
10.0
100
AcDbLine
 10
745.1739172237578
 20
-402.5246075318163
 30
0.0
 11
745.1739172237578
 21
-404.2566583118164
 31
0.0
  0
LINE
  5
17E3B
102
{ACAD_REACTORS
330
17FCD
102
}
330
18
100
AcDbEntity
  8
実線
 48
10.0
100
AcDbLine
 10
746.6739171968356
 20
-401.6585821218161
 30
0.0
 11
745.1739172237578
 21
-402.5246075318163
 31
0.0
  0
LINE
  5
17E3C
102
{ACAD_REACTORS
330
17FCD
102
}
330
18
100
AcDbEntity
  8
実線
 48
10.0
100
AcDbLine
 10
745.1739172237578
 20
-404.2566583118164
 30
0.0
 11
746.6739171968356
 21
-405.1226837218164
 31
0.0
  0
LINE
  5
17E3D
102
{ACAD_REACTORS
330
17FCD
102
}
330
18
100
AcDbEntity
  8
実線
 48
10.0
100
AcDbLine
 10
748.1739172237578
 20
-404.2566583118164
 30
0.0
 11
748.1739172237578
 21
-402.5246075318163
 31
0.0
  0
LINE
  5
17E3E
102
{ACAD_REACTORS
330
17FD3
330
17FD4
102
}
330
18
100
AcDbEntity
  8
0
100
AcDbLine
 10
761.673917223795
 20
-425.8906329219262
 30
0.0
 11
761.673917223795
 21
-414.890632921926
 31
0.0
  0
LINE
  5
17E3F
330
18
100
AcDbEntity
  8
0
100
AcDbLine
 10
761.673917223795
 20
-442.8906329219262
 30
0.0
 11
761.673917223795
 21
-431.890632921926
 31
0.0
  0
ARC
  5
17E40
330
18
100
AcDbEntity
  8
0
100
AcDbCircle
 10
761.173917223795
 20
-442.8906329219252
 30
0.0
 40
0.5
100
AcDbArc
 50
270.0
 51
0.0
  0
ARC
  5
17E41
330
18
100
AcDbEntity
  8
0
100
AcDbCircle
 10
761.173917223795
 20
-431.8906329219251
 30
0.0
 40
0.5
100
AcDbArc
 50
0.0
 51
90.0
  0
ARC
  5
17E42
102
{ACAD_REACTORS
330
17FD3
330
17FD4
102
}
330
18
100
AcDbEntity
  8
0
100
AcDbCircle
 10
761.173917223795
 20
-425.8906329219262
 30
0.0
 40
0.5
100
AcDbArc
 50
270.0
 51
0.0
  0
ARC
  5
17E45
102
{ACAD_REACTORS
330
17FD3
330
17FD4
102
}
330
18
100
AcDbEntity
  8
0
100
AcDbCircle
 10
761.173917223795
 20
-414.890632921926
 30
0.0
 40
0.5
100
AcDbArc
 50
0.0
 51
90.0
  0
CIRCLE
  5
17E47
330
18
100
AcDbEntity
  8
実線
 48
10.0
100
AcDbCircle
 10
786.6739172237579
 20
-403.3906329218162
 30
0.0
 40
5.5
  0
CIRCLE
  5
17E48
102
{ACAD_REACTORS
330
17FCF
102
}
330
18
100
AcDbEntity
  8
実線
 48
10.0
100
AcDbCircle
 10
786.6739172238257
 20
-403.3906329216802
 30
0.0
 40
5.0
  0
LINE
  5
17E49
102
{ACAD_REACTORS
330
17FCF
102
}
330
18
100
AcDbEntity
  8
実線
 48
10.0
100
AcDbLine
 10
786.6739172507367
 20
-401.6585821216801
 30
0.0
 11
788.1739172238202
 21
-402.5246075316704
 31
0.0
  0
LINE
  5
17E4A
102
{ACAD_REACTORS
330
17FCF
102
}
330
18
100
AcDbEntity
  8
実線
 48
10.0
100
AcDbLine
 10
788.1739172238312
 20
-404.2566583116705
 30
0.0
 11
786.6739172507593
 21
-405.1226837216803
 31
0.0
  0
LINE
  5
17E4B
102
{ACAD_REACTORS
330
17FCF
102
}
330
18
100
AcDbEntity
  8
実線
 48
10.0
100
AcDbLine
 10
785.1739172238315
 20
-404.2566583116899
 30
0.0
 11
785.1739172238202
 21
-402.5246075316898
 31
0.0
  0
LINE
  5
17E4C
102
{ACAD_REACTORS
330
17FCF
102
}
330
18
100
AcDbEntity
  8
実線
 48
10.0
100
AcDbLine
 10
785.1739172238202
 20
-402.5246075316898
 30
0.0
 11
786.6739171968922
 21
-401.6585821216801
 31
0.0
  0
LINE
  5
17E4D
102
{ACAD_REACTORS
330
17FCF
102
}
330
18
100
AcDbEntity
  8
実線
 48
10.0
100
AcDbLine
 10
786.6739171969148
 20
-405.1226837216803
 30
0.0
 11
785.1739172238315
 21
-404.2566583116899
 31
0.0
  0
LINE
  5
17E4E
102
{ACAD_REACTORS
330
17FCF
102
}
330
18
100
AcDbEntity
  8
実線
 48
10.0
100
AcDbLine
 10
788.1739172238202
 20
-402.5246075316704
 30
0.0
 11
788.1739172238312
 21
-404.2566583116705
 31
0.0
  0
CIRCLE
  5
17E4F
102
{ACAD_REACTORS
330
17FD0
102
}
330
18
100
AcDbEntity
  8
実線
 48
10.0
100
AcDbCircle
 10
826.6739172238104
 20
-401.3906329215366
 30
0.0
 40
5.0
  0
CIRCLE
  5
17E50
330
18
100
AcDbEntity
  8
実線
 48
10.0
100
AcDbCircle
 10
826.6739172237539
 20
-401.3906329219262
 30
0.0
 40
5.5
  0
LINE
  5
17E52
102
{ACAD_REACTORS
330
17FF1
102
}
330
18
100
AcDbEntity
  8
中心線
 48
5.0
100
AcDbLine
 10
766.6739172237453
 20
-389.3906329218157
 30
0.0
 11
766.6739172237855
 21
-403.3906329218166
 31
0.0
  0
LINE
  5
17E53
102
{ACAD_REACTORS
330
17FD0
102
}
330
18
100
AcDbEntity
  8
実線
 48
10.0
100
AcDbLine
 10
825.173917223816
 20
-402.2566583115463
 30
0.0
 11
825.1739172238048
 21
-400.5246075315463
 31
0.0
  0
LINE
  5
17E54
102
{ACAD_REACTORS
330
17FD0
102
}
330
18
100
AcDbEntity
  8
実線
 48
10.0
100
AcDbLine
 10
828.1739172238047
 20
-400.5246075315269
 30
0.0
 11
828.1739172238159
 21
-402.256658311527
 31
0.0
  0
LINE
  5
17E55
102
{ACAD_REACTORS
330
17FD0
102
}
330
18
100
AcDbEntity
  8
実線
 48
10.0
100
AcDbLine
 10
825.1739172238048
 20
-400.5246075315463
 30
0.0
 11
826.6739171968767
 21
-399.6585821215365
 31
0.0
  0
LINE
  5
17E56
102
{ACAD_REACTORS
330
17FD0
102
}
330
18
100
AcDbEntity
  8
実線
 48
10.0
100
AcDbLine
 10
826.6739172507213
 20
-399.6585821215365
 30
0.0
 11
828.1739172238047
 21
-400.5246075315269
 31
0.0
  0
LINE
  5
17E57
102
{ACAD_REACTORS
330
17FD0
102
}
330
18
100
AcDbEntity
  8
実線
 48
10.0
100
AcDbLine
 10
826.6739171968994
 20
-403.1226837215367
 30
0.0
 11
825.173917223816
 21
-402.2566583115463
 31
0.0
  0
LINE
  5
17E58
102
{ACAD_REACTORS
330
17FD0
102
}
330
18
100
AcDbEntity
  8
実線
 48
10.0
100
AcDbLine
 10
828.1739172238159
 20
-402.256658311527
 30
0.0
 11
826.673917250744
 21
-403.1226837215367
 31
0.0
  0
LINE
  5
17E5C
102
{ACAD_REACTORS
330
17FCE
102
}
330
18
100
AcDbEntity
  8
実線
 48
10.0
100
AcDbLine
 10
748.1739172237539
 20
-383.5246075319261
 30
0.0
 11
746.6739172506763
 21
-382.6585821219261
 31
0.0
  0
LINE
  5
17E5D
102
{ACAD_REACTORS
330
17FCE
102
}
330
18
100
AcDbEntity
  8
実線
 48
10.0
100
AcDbLine
 10
746.6739172506763
 20
-386.1226837219262
 30
0.0
 11
748.1739172237539
 21
-385.2566583119261
 31
0.0
  0
LINE
  5
17E5E
102
{ACAD_REACTORS
330
17FCE
102
}
330
18
100
AcDbEntity
  8
実線
 48
10.0
100
AcDbLine
 10
745.1739172237543
 20
-383.5246075319261
 30
0.0
 11
745.1739172237543
 21
-385.2566583119261
 31
0.0
  0
LINE
  5
17E5F
102
{ACAD_REACTORS
330
17FCE
102
}
330
18
100
AcDbEntity
  8
実線
 48
10.0
100
AcDbLine
 10
746.6739171968318
 20
-382.6585821219261
 30
0.0
 11
745.1739172237543
 21
-383.5246075319261
 31
0.0
  0
LINE
  5
17E60
102
{ACAD_REACTORS
330
17FCE
102
}
330
18
100
AcDbEntity
  8
実線
 48
10.0
100
AcDbLine
 10
745.1739172237543
 20
-385.2566583119261
 30
0.0
 11
746.6739171968318
 21
-386.1226837219262
 31
0.0
  0
LINE
  5
17E61
102
{ACAD_REACTORS
330
17FCE
102
}
330
18
100
AcDbEntity
  8
実線
 48
10.0
100
AcDbLine
 10
748.1739172237539
 20
-385.2566583119261
 30
0.0
 11
748.1739172237539
 21
-383.5246075319261
 31
0.0
  0
LINE
  5
17E63
102
{ACAD_REACTORS
330
17FD2
102
}
330
18
100
AcDbEntity
  8
実線
 48
10.0
100
AcDbLine
 10
786.6739172506112
 20
-382.6585821217963
 30
0.0
 11
788.1739172236945
 21
-383.5246075317866
 31
0.0
  0
LINE
  5
17E64
102
{ACAD_REACTORS
330
17FD2
102
}
330
18
100
AcDbEntity
  8
実線
 48
10.0
100
AcDbLine
 10
788.1739172237057
 20
-385.2566583117866
 30
0.0
 11
786.6739172506337
 21
-386.1226837217963
 31
0.0
  0
LINE
  5
17E65
102
{ACAD_REACTORS
330
17FD2
102
}
330
18
100
AcDbEntity
  8
実線
 48
10.0
100
AcDbLine
 10
785.1739172237057
 20
-385.2566583118061
 30
0.0
 11
785.1739172236943
 21
-383.524607531806
 31
0.0
  0
LINE
  5
17E66
102
{ACAD_REACTORS
330
17FD2
102
}
330
18
100
AcDbEntity
  8
実線
 48
10.0
100
AcDbLine
 10
785.1739172236943
 20
-383.524607531806
 30
0.0
 11
786.6739171967666
 21
-382.6585821217963
 31
0.0
  0
LINE
  5
17E67
102
{ACAD_REACTORS
330
17FD2
102
}
330
18
100
AcDbEntity
  8
実線
 48
10.0
100
AcDbLine
 10
786.6739171967891
 20
-386.1226837217963
 30
0.0
 11
785.1739172237057
 21
-385.2566583118061
 31
0.0
  0
LINE
  5
17E68
102
{ACAD_REACTORS
330
17FD2
102
}
330
18
100
AcDbEntity
  8
実線
 48
10.0
100
AcDbLine
 10
788.1739172236945
 20
-383.5246075317866
 30
0.0
 11
788.1739172237057
 21
-385.2566583117866
 31
0.0
  0
ARC
  5
17E69
330
18
100
AcDbEntity
  8
実線
100
AcDbCircle
 10
829.5953523047337
 20
-378.7641392386638
 30
0.0
 40
5.0
100
AcDbArc
 50
5.159999999983284
 51
94.7805549779459
  0
LINE
  5
17E6A
102
{ACAD_REACTORS
330
17FD1
102
}
330
18
100
AcDbEntity
  8
実線
 48
10.0
100
AcDbLine
 10
825.1739172237057
 20
-385.2566583115464
 30
0.0
 11
825.1739172236945
 21
-383.5246075315463
 31
0.0
  0
LINE
  5
17E6B
102
{ACAD_REACTORS
330
17FD1
102
}
330
18
100
AcDbEntity
  8
実線
 48
10.0
100
AcDbLine
 10
828.1739172236942
 20
-383.5246075315268
 30
0.0
 11
828.1739172237058
 21
-385.256658311527
 31
0.0
  0
LINE
  5
17E6C
102
{ACAD_REACTORS
330
17FD1
102
}
330
18
100
AcDbEntity
  8
実線
 48
10.0
100
AcDbLine
 10
825.1739172236945
 20
-383.5246075315463
 30
0.0
 11
826.6739171967666
 21
-382.6585821215364
 31
0.0
  0
LINE
  5
17E6D
102
{ACAD_REACTORS
330
17FD1
102
}
330
18
100
AcDbEntity
  8
実線
 48
10.0
100
AcDbLine
 10
826.6739172506111
 20
-382.6585821215364
 30
0.0
 11
828.1739172236942
 21
-383.5246075315268
 31
0.0
  0
LINE
  5
17E6E
102
{ACAD_REACTORS
330
17FD1
102
}
330
18
100
AcDbEntity
  8
実線
 48
10.0
100
AcDbLine
 10
826.6739171967891
 20
-386.1226837215367
 30
0.0
 11
825.1739172237057
 21
-385.2566583115464
 31
0.0
  0
LINE
  5
17E6F
102
{ACAD_REACTORS
330
17FD1
102
}
330
18
100
AcDbEntity
  8
実線
 48
10.0
100
AcDbLine
 10
828.1739172237058
 20
-385.256658311527
 30
0.0
 11
826.6739172506337
 21
-386.1226837215367
 31
0.0
  0
ARC
  5
17FD9
102
{ACAD_REACTORS
330
17FE2
330
17FF1
102
}
330
18
100
AcDbEntity
  8
実線
 48
10.0
100
AcDbCircle
 10
768.6897702070772
 20
-396.3879941749244
 30
0.0
 40
3.5
100
AcDbArc
 50
270.1500000000025
 51
90.15000000000263
  0
ARC
  5
17FDA
102
{ACAD_REACTORS
330
17FE2
330
17FF1
102
}
330
18
100
AcDbEntity
  8
実線
 48
10.0
100
AcDbCircle
 10
768.6897702070772
 20
-396.3879941749244
 30
0.0
 40
5.75
100
AcDbArc
 50
270.1500000000033
 51
90.15000000000354
  0
ARC
  5
17FDB
102
{ACAD_REACTORS
330
17FE2
330
17FF1
102
}
330
18
100
AcDbEntity
  8
実線
 48
10.0
100
AcDbCircle
 10
764.6580642404542
 20
-396.3879941749244
 30
0.0
 40
3.5
100
AcDbArc
 50
89.85000000000479
 51
269.8500000000048
  0
ARC
  5
17FDC
102
{ACAD_REACTORS
330
17FE2
330
17FF1
102
}
330
18
100
AcDbEntity
  8
実線
 48
10.0
100
AcDbCircle
 10
764.6580642404542
 20
-396.3879941749244
 30
0.0
 40
5.75
100
AcDbArc
 50
89.85000000000438
 51
269.8500000000044
  0
ARC
  5
17FDD
102
{ACAD_REACTORS
330
17FE2
330
17FF1
102
}
330
18
100
AcDbEntity
  8
実線
 48
10.0
100
AcDbCircle
 10
766.6739172237097
 20
373.6093670780646
 30
0.0
 40
764.2499999998809
100
AcDbArc
 50
269.850000000004
 51
270.150000000004
  0
ARC
  5
17FDE
102
{ACAD_REACTORS
330
17FE2
330
17FF1
102
}
330
18
100
AcDbEntity
  8
実線
 48
10.0
100
AcDbCircle
 10
766.6739172237097
 20
373.6093670780646
 30
0.0
 40
775.749999999881
100
AcDbArc
 50
269.850000000004
 51
270.150000000004
  0
ARC
  5
17FE0
102
{ACAD_REACTORS
330
17FE2
330
17FF1
102
}
330
18
100
AcDbEntity
  8
実線
 48
10.0
100
AcDbCircle
 10
766.6739172237097
 20
373.6093670780646
 30
0.0
 40
766.4999999998806
100
AcDbArc
 50
269.850000000004
 51
270.150000000004
  0
ARC
  5
17FE1
102
{ACAD_REACTORS
330
17FE2
330
17FF1
102
}
330
18
100
AcDbEntity
  8
実線
 48
10.0
100
AcDbCircle
 10
766.6739172237097
 20
373.6093670780646
 30
0.0
 40
773.499999999881
100
AcDbArc
 50
269.850000000004
 51
270.150000000004
  0
LINE
  5
17FEF
102
{ACAD_REACTORS
330
17FF1
102
}
330
18
100
AcDbEntity
  8
中心線
 48
8.0
100
AcDbLine
 10
768.670181107745
 20
-388.9055264967627
 30
0.0
 11
768.7093593064007
 21
-403.8704618533238
 31
0.0
  0
LINE
  5
17FF0
102
{ACAD_REACTORS
330
17FF1
102
}
330
18
100
AcDbEntity
  8
中心線
 48
8.0
100
AcDbLine
 10
764.6776533397772
 20
-388.9055264967627
 30
0.0
 11
764.6384751411212
 21
-403.8704618533238
 31
0.0
  0
ARC
  5
17FF2
102
{ACAD_REACTORS
330
17FFD
330
17FFE
102
}
330
18
100
AcDbEntity
  8
実線
 48
10.0
100
AcDbCircle
 10
814.8884913618759
 20
-394.8796405469577
 30
0.0
 40
5.75
100
AcDbArc
 50
273.5900000000035
 51
93.59000000000351
  0
ARC
  5
17FF3
102
{ACAD_REACTORS
330
17FFD
330
17FFE
102
}
330
18
100
AcDbEntity
  8
実線
 48
10.0
100
AcDbCircle
 10
766.6739172237097
 20
373.6093670780646
 30
0.0
 40
773.499999999881
100
AcDbArc
 50
273.2900000000039
 51
273.5900000000039
  0
ARC
  5
17FF4
102
{ACAD_REACTORS
330
17FFD
330
17FFE
102
}
330
18
100
AcDbEntity
  8
実線
 48
10.0
100
AcDbCircle
 10
766.6739172237097
 20
373.6093670780646
 30
0.0
 40
766.4999999998806
100
AcDbArc
 50
273.2900000000039
 51
273.5900000000039
  0
ARC
  5
17FF5
102
{ACAD_REACTORS
330
17FFD
330
17FFE
102
}
330
18
100
AcDbEntity
  8
実線
 48
10.0
100
AcDbCircle
 10
766.6739172237097
 20
373.6093670780646
 30
0.0
 40
775.749999999881
100
AcDbArc
 50
273.2900000000039
 51
273.5900000000039
  0
ARC
  5
17FF6
102
{ACAD_REACTORS
330
17FFD
330
17FFE
102
}
330
18
100
AcDbEntity
  8
実線
 48
10.0
100
AcDbCircle
 10
766.6739172237097
 20
373.6093670780646
 30
0.0
 40
764.2499999998809
100
AcDbArc
 50
273.2900000000039
 51
273.5900000000039
  0
ARC
  5
17FF7
102
{ACAD_REACTORS
330
17FFD
330
17FFE
102
}
330
18
100
AcDbEntity
  8
実線
 48
10.0
100
AcDbCircle
 10
810.8640497996553
 20
-395.1215560561205
 30
0.0
 40
3.5
100
AcDbArc
 50
93.29000000000478
 51
273.2900000000046
  0
ARC
  5
17FF8
102
{ACAD_REACTORS
330
17FFD
330
17FFE
102
}
330
18
100
AcDbEntity
  8
実線
 48
10.0
100
AcDbCircle
 10
810.8640497996553
 20
-395.1215560561205
 30
0.0
 40
5.75
100
AcDbArc
 50
93.29000000000441
 51
273.2900000000041
  0
ARC
  5
17FF9
102
{ACAD_REACTORS
330
17FFD
330
17FFE
102
}
330
18
100
AcDbEntity
  8
実線
 48
10.0
100
AcDbCircle
 10
814.8884913618759
 20
-394.8796405469577
 30
0.0
 40
3.5
100
AcDbArc
 50
273.5900000000025
 51
93.59000000000262
  0
LINE
  5
17FFA
102
{ACAD_REACTORS
330
17FFD
102
}
330
18
100
AcDbEntity
  8
中心線
 48
5.0
100
AcDbLine
 10
812.2490363231253
 20
-384.5660973292365
 30
0.0
 11
813.5038215052613
 21
-405.440367258775
 31
0.0
  0
LINE
  5
17FFB
102
{ACAD_REACTORS
330
17FFD
102
}
330
18
100
AcDbEntity
  8
中心線
 48
8.0
100
AcDbLine
 10
810.4346311349491
 20
-387.6513950205103
 30
0.0
 11
811.2934684643652
 21
-402.5917170919687
 31
0.0
  0
LINE
  5
17FFC
102
{ACAD_REACTORS
330
17FFD
102
}
330
18
100
AcDbEntity
  8
中心線
 48
8.0
100
AcDbLine
 10
814.4199650905374
 20
-387.4118303310638
 30
0.0
 11
815.35701763322
 21
-402.3474507630899
 31
0.0
  0
ARC
  5
18018
102
{ACAD_REACTORS
330
18023
330
18024
102
}
330
18
100
AcDbEntity
  8
実線
 48
10.0
100
AcDbCircle
 10
766.6739172236598
 20
373.6093670780646
 30
0.0
 40
775.749999999881
100
AcDbArc
 50
266.4099999999958
 51
266.7099999999958
  0
LINE
  5
18019
102
{ACAD_REACTORS
330
18023
102
}
330
18
100
AcDbEntity
  8
中心線
 48
5.0
100
AcDbLine
 10
721.0987981242446
 20
-384.5660973292365
 30
0.0
 11
719.8440129421086
 21
-405.440367258775
 31
0.0
  0
ARC
  5
1801A
102
{ACAD_REACTORS
330
18023
330
18024
102
}
330
18
100
AcDbEntity
  8
実線
 48
10.0
100
AcDbCircle
 10
766.6739172236598
 20
373.6093670780646
 30
0.0
 40
773.499999999881
100
AcDbArc
 50
266.4099999999958
 51
266.7099999999958
  0
ARC
  5
1801B
102
{ACAD_REACTORS
330
18023
330
18024
102
}
330
18
100
AcDbEntity
  8
実線
 48
10.0
100
AcDbCircle
 10
766.6739172236598
 20
373.6093670780646
 30
0.0
 40
766.4999999998806
100
AcDbArc
 50
266.4099999999958
 51
266.7099999999958
  0
ARC
  5
1801C
102
{ACAD_REACTORS
330
18023
330
18024
102
}
330
18
100
AcDbEntity
  8
実線
 48
10.0
100
AcDbCircle
 10
766.6739172236598
 20
373.6093670780646
 30
0.0
 40
764.2499999998809
100
AcDbArc
 50
266.4099999999958
 51
266.7099999999958
  0
ARC
  5
1801D
102
{ACAD_REACTORS
330
18023
330
18024
102
}
330
18
100
AcDbEntity
  8
実線
 48
10.0
100
AcDbCircle
 10
722.4837846477147
 20
-395.1215560561205
 30
0.0
 40
3.5
100
AcDbArc
 50
266.7099999999951
 51
86.70999999999523
  0
LINE
  5
1801E
102
{ACAD_REACTORS
330
18023
102
}
330
18
100
AcDbEntity
  8
中心線
 48
8.0
100
AcDbLine
 10
722.9132033124208
 20
-387.6513950205103
 30
0.0
 11
722.0543659830043
 21
-402.5917170919687
 31
0.0
  0
ARC
  5
1801F
102
{ACAD_REACTORS
330
18023
330
18024
102
}
330
18
100
AcDbEntity
  8
実線
 48
10.0
100
AcDbCircle
 10
718.4593430854939
 20
-394.8796405469577
 30
0.0
 40
3.5
100
AcDbArc
 50
86.40999999999737
 51
266.4099999999973
  0
ARC
  5
18020
102
{ACAD_REACTORS
330
18023
330
18024
102
}
330
18
100
AcDbEntity
  8
実線
 48
10.0
100
AcDbCircle
 10
718.4593430854939
 20
-394.8796405469577
 30
0.0
 40
5.75
100
AcDbArc
 50
86.40999999999648
 51
266.4099999999962
  0
LINE
  5
18021
102
{ACAD_REACTORS
330
18023
102
}
330
18
100
AcDbEntity
  8
中心線
 48
8.0
100
AcDbLine
 10
718.9278693568324
 20
-387.4118303310638
 30
0.0
 11
717.99081681415
 21
-402.3474507630899
 31
0.0
  0
ARC
  5
18022
102
{ACAD_REACTORS
330
18023
330
18024
102
}
330
18
100
AcDbEntity
  8
実線
 48
10.0
100
AcDbCircle
 10
722.4837846477147
 20
-395.1215560561205
 30
0.0
 40
5.75
100
AcDbArc
 50
266.7099999999956
 51
86.70999999999564
  0
VIEWPORT
  5
23
330
15
100
AcDbEntity
 67
     1
  8
0
100
AcDbViewport
 10
204.9499513019647
 20
144.0023244760871
 30
0.0
 40
647.6113334611644
 41
296.4121287642205
 68
     1
 69
     1
1001
ACAD
1000
MVIEW
1002
{
1070
    16
1010
0.0
1020
0.0
1030
0.0
1010
0.0
1020
0.0
1030
1.0
1040
0.0
1040
296.4121287642205
1040
204.9499513019647
1040
144.0023244760871
1040
50.0
1040
0.0
1040
0.0
1070
     0
1070
   100
1070
     1
1070
     0
1070
     0
1070
     0
1070
     0
1070
     1
1040
0.0
1040
0.0
1040
0.0
1040
10.0
1040
10.0
1040
10.0
1040
10.0
1070
     0
1002
{
1002
}
1002
}
  0
VIEWPORT
  5
2E
330
15
100
AcDbEntity
 67
     1
  8
M_VIEW
100
AcDbViewport
 10
200.0
 20
144.0
 30
0.0
 40
400.0
 41
288.0
 68
     2
 69
     2
1001
ACAD
1000
MVIEW
1002
{
1070
    16
1010
0.0
1020
0.0
1030
0.0
1010
0.0
1020
0.0
1030
1.0
1040
0.0
1040
288.0000017372871
1040
702.9771975927872
1040
-450.4038869504178
1040
50.0
1040
0.0
1040
0.0
1070
     0
1070
   100
1070
     1
1070
     0
1070
     0
1070
     0
1070
     0
1070
     0
1040
0.0
1040
0.0
1040
0.0
1040
10.0
1040
10.0
1040
10.0
1040
10.0
1070
     0
1002
{
1002
}
1002
}
  0
TEXT
  5
2442
330
15
100
AcDbEntity
 67
     1
  8
文字
100
AcDbText
 10
324.1164138233838
 20
6.706161883767662
 30
0.0
 40
6.5
  1
ＳＥ－５３４１０Ａ
  7
まこ
100
AcDbText
  0
TEXT
  5
B6F4
330
15
100
AcDbEntity
 67
     1
  8
実線
100
AcDbText
 10
292.9247407785627
 20
50.22828969396096
 30
0.0
 40
2.5
  1
%%
100
AcDbText
  0
MTEXT
  5
183F5
330
15
100
AcDbEntity
 67
     1
  8
寸法
 48
10.0
100
AcDbMText
 10
222.4474873823468
 20
24.08892494551094
 30
0.0
 40
6.0
 41
173.3311999999999
 71
     1
 72
     5
  1
τｻｰﾎﾞｺﾝﾊﾟｽ R850 MGﾍﾞｰｽ MBV-CMB850A (10.32°)
1001
ACAD
1000
MTEXTBEGIN
1070
    73
1070
     1
1070
    44
1040
1.0
1070
    74
1070
     0
1000
MTEXTEND
  0
ENDSEC
  0
SECTION
  2
OBJECTS
  0
DICTIONARY
  5
C
330
0
100
AcDbDictionary
  3
ACAD_GROUP
350
D
  3
ACAD_LAYOUT
350
73F
  3
ACAD_MLINESTYLE
350
1B
  3
ACAD_PLOTSETTINGS
350
740
  3
ACAD_PLOTSTYLENAME
350
73D
  3
ACADDIM
350
17030
  3
ACDBHEADERROUNDTRIPXREC
350
1840E
  3
ACDBVARIABLEDICTIONARY
350
11AC
  0
DICTIONARY
  5
16FA5
330
2
100
AcDbDictionary
280
     1
  3
ACAD_LAYERFILTERS
360
16FA6
  3
ACAD_LAYERSTATES
360
16FB9
  0
DICTIONARY
  5
18431
330
18
100
AcDbDictionary
280
     1
  3
ACAD_LAYOUTSELFREF
360
18432
  0
DICTIONARY
  5
1842F
330
15
100
AcDbDictionary
280
     1
  3
ACAD_LAYOUTSELFREF
360
18430
  0
DICTIONARY
  5
D
102
{ACAD_REACTORS
330
C
102
}
330
C
100
AcDbDictionary
  3
*A1
350
DCF
  3
*A10
350
112B
  3
*A100
350
2FF7
  3
*A101
350
57BB
  3
*A102
350
E684
  3
*A103
350
42D2
  3
*A104
350
10D11
  3
*A105
350
17029
  3
*A106
350
7C29
  3
*A107
350
9650
  3
*A108
350
B340
  3
*A109
350
7AE5
  3
*A11
350
8809
  3
*A110
350
42D1
  3
*A111
350
137A4
  3
*A112
350
A3CD
  3
*A113
350
17028
  3
*A114
350
17481
  3
*A115
350
A383
  3
*A116
350
3398
  3
*A117
350
B34C
  3
*A118
350
A623
  3
*A119
350
512A
  3
*A12
350
328C
  3
*A120
350
A37F
  3
*A121
350
174AC
  3
*A122
350
147F8
  3
*A123
350
A38F
  3
*A124
350
806F
  3
*A125
350
8804
  3
*A126
350
49C4
  3
*A127
350
10678
  3
*A128
350
A636
  3
*A129
350
5E1D
  3
*A13
350
E31F
  3
*A130
350
A9D2
  3
*A131
350
2FE3
  3
*A132
350
10FB0
  3
*A133
350
10DCE
  3
*A134
350
81A9
  3
*A135
350
BCEC
  3
*A136
350
4992
  3
*A137
350
A3C1
  3
*A138
350
339E
  3
*A139
350
10AB6
  3
*A14
350
2FF1
  3
*A140
350
E1FE
  3
*A141
350
1158
  3
*A142
350
137AD
  3
*A143
350
4A10
  3
*A144
350
141E6
  3
*A145
350
10EAE
  3
*A146
350
49E1
  3
*A147
350
81E6
  3
*A148
350
880A
  3
*A149
350
A3EA
  3
*A15
350
8222
  3
*A150
350
6400
  3
*A151
350
14783
  3
*A152
350
33B9
  3
*A153
350
8189
  3
*A154
350
8065
  3
*A155
350
5CA6
  3
*A156
350
57BC
  3
*A157
350
8226
  3
*A158
350
A628
  3
*A159
350
A9D3
  3
*A16
350
2CA5
  3
*A160
350
2C9A
  3
*A161
350
4AAE
  3
*A162
350
5DF8
  3
*A163
350
5E29
  3
*A164
350
42BF
  3
*A165
350
E318
  3
*A166
350
1089
  3
*A167
350
1122
  3
*A168
350
57BA
  3
*A169
350
2A28
  3
*A17
350
6F77
  3
*A170
350
106D4
  3
*A171
350
3305
  3
*A172
350
317C
  3
*A173
350
965C
  3
*A174
350
10689
  3
*A175
350
E102
  3
*A176
350
1739D
  3
*A177
350
64A9
  3
*A178
350
137B6
  3
*A179
350
141EA
  3
*A18
350
9808
  3
*A180
350
5E55
  3
*A181
350
141E7
  3
*A182
350
820E
  3
*A183
350
4ABD
  3
*A184
350
10FAE
  3
*A185
350
7AF2
  3
*A186
350
174AE
  3
*A187
350
10DA
  3
*A188
350
106E0
  3
*A189
350
2FE9
  3
*A19
350
10E2E
  3
*A190
350
4F1E
  3
*A191
350
4A96
  3
*A192
350
1415D
  3
*A193
350
17D5B
  3
*A194
350
8187
  3
*A195
350
10E38
  3
*A196
350
4AB4
  3
*A197
350
4980
  3
*A198
350
81B8
  3
*A199
350
106DC
  3
*A2
350
1457D
  3
*A20
350
818B
  3
*A200
350
E101
  3
*A201
350
4998
  3
*A202
350
105A3
  3
*A203
350
109B
  3
*A204
350
10EC
  3
*A205
350
6062
  3
*A206
350
10E39
  3
*A207
350
57BD
  3
*A208
350
10EAD
  3
*A209
350
964C
  3
*A21
350
1092
  3
*A210
350
8822
  3
*A211
350
13789
  3
*A212
350
49CA
  3
*A213
350
E31E
  3
*A214
350
106E
  3
*A215
350
10AD
  3
*A216
350
E1FD
  3
*A217
350
64A1
  3
*A218
350
141E8
  3
*A219
350
8818
  3
*A22
350
3286
  3
*A220
350
4989
  3
*A221
350
137C8
  3
*A222
350
1379B
  3
*A223
350
81E1
  3
*A224
350
1080
  3
*A225
350
DCC3
  3
*A226
350
1064E
  3
*A227
350
880F
  3
*A228
350
77D2
  3
*A229
350
9656
  3
*A23
350
E1FC
  3
*A230
350
1065
  3
*A231
350
881D
  3
*A232
350
7AD2
  3
*A233
350
E1FB
  3
*A234
350
821D
  3
*A235
350
1161
  3
*A236
350
E2AF
  3
*A237
350
1134
  3
*A238
350
3487
  3
*A239
350
B307
  3
*A24
350
8819
  3
*A240
350
5E04
  3
*A241
350
980D
  3
*A242
350
605A
  3
*A243
350
4ABC
  3
*A244
350
77C8
  3
*A245
350
13777
  3
*A246
350
5C9F
  3
*A247
350
141E9
  3
*A248
350
A397
  3
*A249
350
4995
  3
*A25
350
5F9B
  3
*A250
350
2C9E
  3
*A251
350
1067D
  3
*A252
350
2FE2
  3
*A253
350
E685
  3
*A254
350
8213
  3
*A255
350
7556
  3
*A256
350
10FE
  3
*A257
350
4A14
  3
*A258
350
1107
  3
*A259
350
42C0
  3
*A26
350
5F9C
  3
*A260
350
33BA
  3
*A261
350
E319
  3
*A262
350
5129
  3
*A263
350
17395
  3
*A264
350
1119
  3
*A265
350
10684
  3
*A266
350
7AC6
  3
*A267
350
10636
  3
*A268
350
1077
  3
*A269
350
10D1
  3
*A27
350
17FCB
  3
*A270
350
619C
  3
*A271
350
B346
  3
*A272
350
10C8
  3
*A273
350
14860
  3
*A274
350
10F24
  3
*A275
350
141EE
  3
*A276
350
17562
  3
*A277
350
57B9
  3
*A278
350
5E68
  3
*A279
350
DF9B
  3
*A28
350
17FCC
  3
*A280
350
5E6E
  3
*A281
350
818C
  3
*A282
350
5DE0
  3
*A283
350
A3D1
  3
*A284
350
820D
  3
*A285
350
106C1
  3
*A286
350
10D0F
  3
*A287
350
1412D
  3
*A288
350
A3C5
  3
*A289
350
5D44
  3
*A29
350
E31C
  3
*A290
350
10F23
  3
*A291
350
DF9C
  3
*A292
350
14890
  3
*A293
350
5E6B
  3
*A294
350
B358
  3
*A295
350
113D
  3
*A296
350
173AD
  3
*A297
350
8043
  3
*A298
350
317D
  3
*A299
350
5E34
  3
*A3
350
64A5
  3
*A30
350
E2B0
  3
*A300
350
B352
  3
*A301
350
2CA6
  3
*A302
350
5E4A
  3
*A303
350
499E
  3
*A304
350
116A
  3
*A305
350
5D38
  3
*A306
350
33A2
  3
*A307
350
10D15
  3
*A308
350
8062
  3
*A309
350
822B
  3
*A31
350
A393
  3
*A310
350
A387
  3
*A311
350
174AD
  3
*A312
350
DCBE
  3
*A313
350
339B
  3
*A314
350
57BF
  3
*A315
350
10EAF
  3
*A316
350
14827
  3
*A317
350
141EC
  3
*A318
350
5134
  3
*A319
350
B349
  3
*A32
350
A3B5
  3
*A320
350
33BD
  3
*A321
350
E1F9
  3
*A322
350
A3BD
  3
*A323
350
606A
  3
*A324
350
7C28
  3
*A325
350
49DB
  3
*A326
350
10FAF
  3
*A327
350
B343
  3
*A328
350
8805
  3
*A329
350
141ED
  3
*A33
350
7C2A
  3
*A330
350
137D1
  3
*A331
350
8072
  3
*A332
350
81E4
  3
*A333
350
7AE6
  3
*A334
350
5E3F
  3
*A335
350
49DE
  3
*A336
350
64AD
  3
*A337
350
B355
  3
*A338
350
12454
  3
*A339
350
10F5
  3
*A34
350
17FCD
  3
*A340
350
A3EB
  3
*A341
350
173B5
  3
*A342
350
2FF6
  3
*A343
350
DE0C
  3
*A344
350
77B9
  3
*A345
350
2FE8
  3
*A346
350
A61E
  3
*A347
350
141EB
  3
*A348
350
3289
  3
*A349
350
8375
  3
*A35
350
A9A1
  3
*A350
350
106E8
  3
*A351
350
106A1
  3
*A352
350
10B6
  3
*A353
350
818A
  3
*A354
350
10D47
  3
*A355
350
A635
  3
*A356
350
B34F
  3
*A357
350
A37B
  3
*A358
350
498F
  3
*A359
350
10586
  3
*A36
350
17FCE
  3
*A360
350
3183
  3
*A361
350
173D2
  3
*A362
350
4F1D
  3
*A363
350
805E
  3
*A364
350
10BF
  3
*A365
350
16E67
  3
*A366
350
173D3
  3
*A367
350
8814
  3
*A368
350
980E
  3
*A369
350
9807
  3
*A37
350
A637
  3
*A370
350
49A1
  3
*A371
350
512B
  3
*A372
350
880E
  3
*A373
350
106D5
  3
*A374
350
10F22
  3
*A375
350
498C
  3
*A376
350
173D4
  3
*A377
350
170EB
  3
*A378
350
E31B
  3
*A379
350
E1FA
  3
*A38
350
17FCF
  3
*A380
350
13780
  3
*A381
350
DCB9
  3
*A382
350
173D5
  3
*A383
350
1747F
  3
*A384
350
10DCF
  3
*A385
350
17480
  3
*A386
350
49E4
  3
*A387
350
4AB1
  3
*A388
350
1835B
  3
*A389
350
1835C
  3
*A39
350
114F
  3
*A390
350
6F78
  3
*A391
350
9655
  3
*A392
350
5E5F
  3
*A393
350
1836B
  3
*A394
350
1836C
  3
*A395
350
49C7
  3
*A396
350
10A4
  3
*A397
350
18392
  3
*A398
350
18393
  3
*A399
350
5DEC
  3
*A4
350
17C3E
  3
*A40
350
17FD0
  3
*A400
350
A3C9
  3
*A401
350
5E65
  3
*A41
350
822C
  3
*A42
350
17FD1
  3
*A43
350
141E5
  3
*A44
350
17FD2
  3
*A45
350
137BF
  3
*A46
350
173A5
  3
*A47
350
7555
  3
*A48
350
4A97
  3
*A49
350
DC69
  3
*A5
350
5DC8
  3
*A50
350
17FD3
  3
*A51
350
17FD4
  3
*A52
350
17FD5
  3
*A53
350
65A8
  3
*A54
350
1248D
  3
*A55
350
17FD6
  3
*A56
350
17FE2
  3
*A57
350
821C
  3
*A58
350
17FF1
  3
*A59
350
8813
  3
*A6
350
31CE
  3
*A60
350
E31D
  3
*A61
350
A3B9
  3
*A62
350
8218
  3
*A63
350
E31A
  3
*A64
350
10E3
  3
*A65
350
4AA4
  3
*A66
350
17FFD
  3
*A67
350
17FFE
  3
*A68
350
8227
  3
*A69
350
18023
  3
*A7
350
57BE
  3
*A70
350
18024
  3
*A71
350
18129
  3
*A72
350
1815B
  3
*A73
350
4983
  3
*A74
350
4214
  3
*A75
350
13792
  3
*A76
350
8212
  3
*A77
350
8221
  3
*A78
350
BA00
  3
*A79
350
5128
  3
*A8
350
1069F
  3
*A80
350
83DB
  3
*A81
350
499B
  3
*A82
350
8217
  3
*A83
350
6221
  3
*A84
350
83B2
  3
*A85
350
8823
  3
*A86
350
5133
  3
*A87
350
49C1
  3
*A88
350
3522
  3
*A89
350
1146
  3
*A9
350
1110
  3
*A90
350
E1F7
  3
*A91
350
A99C
  3
*A92
350
5E62
  3
*A93
350
83B1
  3
*A94
350
8051
  3
*A95
350
E1F8
  3
*A96
350
4986
  3
*A97
350
5DD4
  3
*A98
350
A38B
  3
*A99
350
881E
  0
DICTIONARY
  5
73F
102
{ACAD_REACTORS
330
C
102
}
330
C
100
AcDbDictionary
  0
DICTIONARY
  5
1B
102
{ACAD_REACTORS
330
C
102
}
330
C
100
AcDbDictionary
  3
STANDARD
350
1C
  0
DICTIONARY
  5
740
102
{ACAD_REACTORS
330
C
102
}
330
C
100
AcDbDictionary
  0
ACDBDICTIONARYWDFLT
  5
73D
102
{ACAD_REACTORS
330
C
102
}
330
C
100
AcDbDictionary
281
     1
  3
Normal
350
73E
100
AcDbDictionaryWithDefault
340
73E
  0
XRECORD
  5
17030
102
{ACAD_REACTORS
330
C
102
}
330
C
100
AcDbXrecord
 90
   990106
  3
OPEN
 60
     0
 61
     0
 62
     4
 63
     4
 64
     1
 65
     0
 66
     1
 67
     3
 68
     0
 69
     1
 70
     0
 71
     0
 72
     0
 40
0.0
170
     0
340
17032
  0
DICTIONARY
  5
1840E
102
{ACAD_REACTORS
330
C
102
}
330
C
100
AcDbDictionary
  3
CEPSNTYPE
350
18418
  3
DIMSTYLEDATA
350
1841C
  3
FINGERPRINTGUID
350
18419
  3
HYPERLINKBASE
350
18411
  3
INSUNITS
350
18417
  3
LAYOUTDICT
350
18413
  3
LWETCUNION
350
18416
  3
PLOTSETDICT
350
18414
  3
PLOTSTYLNAMDICT
350
18415
  3
PSVPSCALE
350
1841B
  3
PUCSBASE
350
1841F
  3
PUCSORGBACK
350
18425
  3
PUCSORGBOTTOM
350
18421
  3
PUCSORGFRONT
350
18424
  3
PUCSORGLEFT
350
18422
  3
PUCSORGRIGHT
350
18423
  3
PUCSORGTOP
350
18420
  3
PUCSORTHOREF
350
1841D
  3
PUCSORTHOVIEW
350
1841E
  3
STYLESHEET
350
18412
  3
TSTACKALIGN
350
1840F
  3
TSTACKSIZE
350
18410
  3
UCSBASE
350
18428
  3
UCSORGBACK
350
1842E
  3
UCSORGBOTTOM
350
1842A
  3
UCSORGFRONT
350
1842D
  3
UCSORGLEFT
350
1842B
  3
UCSORGRIGHT
350
1842C
  3
UCSORGTOP
350
18429
  3
UCSORTHOREF
350
18426
  3
UCSORTHOVIEW
350
18427
  3
VERSIONGUID
350
1841A
  0
DICTIONARY
  5
11AC
102
{ACAD_REACTORS
330
C
102
}
330
C
100
AcDbDictionary
  3
DIMASSOC
350
11AD
  3
SORTENTS
350
B4C6
  0
DICTIONARY
  5
16FA6
102
{ACAD_REACTORS
330
16FA5
102
}
330
16FA5
100
AcDbDictionary
280
     1
  3
0
360
16FA7
  3
11
360
16FA8
  3
150_
360
16FA9
  3
160_
360
16FAA
  3
170_
360
16FAB
  3
171_
360
16FAC
  3
350_
360
16FAD
  3
4
360
16FAE
  3
5
360
16FAF
  3
7
360
16FB0
  3
KISEKI
360
16FB1
  0
DICTIONARY
  5
16FB9
102
{ACAD_REACTORS
330
16FA5
102
}
330
16FA5
100
AcDbDictionary
  0
XRECORD
  5
18432
102
{ACAD_REACTORS
330
18431
102
}
330
18431
100
AcDbXrecord
340
18
  0
XRECORD
  5
18430
102
{ACAD_REACTORS
330
1842F
102
}
330
1842F
100
AcDbXrecord
340
15
  0
GROUP
  5
DCF
102
{ACAD_REACTORS
330
D
102
}
330
D
100
AcDbGroup
300

 70
     1
 71
     1
  0
GROUP
  5
112B
102
{ACAD_REACTORS
330
D
102
}
330
D
100
AcDbGroup
300

 70
     1
 71
     1
  0
GROUP
  5
2FF7
102
{ACAD_REACTORS
330
D
102
}
330
D
100
AcDbGroup
300

 70
     1
 71
     1
  0
GROUP
  5
57BB
102
{ACAD_REACTORS
330
D
102
}
330
D
100
AcDbGroup
300

 70
     1
 71
     1
  0
GROUP
  5
E684
102
{ACAD_REACTORS
330
D
102
}
330
D
100
AcDbGroup
300

 70
     1
 71
     1
  0
GROUP
  5
42D2
102
{ACAD_REACTORS
330
D
102
}
330
D
100
AcDbGroup
300

 70
     1
 71
     1
  0
GROUP
  5
10D11
102
{ACAD_REACTORS
330
D
102
}
330
D
100
AcDbGroup
300

 70
     1
 71
     1
  0
GROUP
  5
17029
102
{ACAD_REACTORS
330
D
102
}
330
D
100
AcDbGroup
300

 70
     1
 71
     1
  0
GROUP
  5
7C29
102
{ACAD_REACTORS
330
D
102
}
330
D
100
AcDbGroup
300

 70
     1
 71
     1
  0
GROUP
  5
9650
102
{ACAD_REACTORS
330
D
102
}
330
D
100
AcDbGroup
300

 70
     1
 71
     1
  0
GROUP
  5
B340
102
{ACAD_REACTORS
330
D
102
}
330
D
100
AcDbGroup
300

 70
     1
 71
     1
  0
GROUP
  5
7AE5
102
{ACAD_REACTORS
330
D
102
}
330
D
100
AcDbGroup
300

 70
     1
 71
     1
  0
GROUP
  5
8809
102
{ACAD_REACTORS
330
D
102
}
330
D
100
AcDbGroup
300

 70
     1
 71
     1
  0
GROUP
  5
42D1
102
{ACAD_REACTORS
330
D
102
}
330
D
100
AcDbGroup
300

 70
     1
 71
     1
  0
GROUP
  5
137A4
102
{ACAD_REACTORS
330
D
102
}
330
D
100
AcDbGroup
300

 70
     1
 71
     1
  0
GROUP
  5
A3CD
102
{ACAD_REACTORS
330
D
102
}
330
D
100
AcDbGroup
300

 70
     1
 71
     1
  0
GROUP
  5
17028
102
{ACAD_REACTORS
330
D
102
}
330
D
100
AcDbGroup
300

 70
     1
 71
     1
  0
GROUP
  5
17481
102
{ACAD_REACTORS
330
D
102
}
330
D
100
AcDbGroup
300

 70
     1
 71
     1
  0
GROUP
  5
A383
102
{ACAD_REACTORS
330
D
102
}
330
D
100
AcDbGroup
300

 70
     1
 71
     1
  0
GROUP
  5
3398
102
{ACAD_REACTORS
330
D
102
}
330
D
100
AcDbGroup
300

 70
     1
 71
     1
  0
GROUP
  5
B34C
102
{ACAD_REACTORS
330
D
102
}
330
D
100
AcDbGroup
300

 70
     1
 71
     1
  0
GROUP
  5
A623
102
{ACAD_REACTORS
330
D
102
}
330
D
100
AcDbGroup
300

 70
     1
 71
     1
  0
GROUP
  5
512A
102
{ACAD_REACTORS
330
D
102
}
330
D
100
AcDbGroup
300

 70
     1
 71
     1
  0
GROUP
  5
328C
102
{ACAD_REACTORS
330
D
102
}
330
D
100
AcDbGroup
300

 70
     1
 71
     1
  0
GROUP
  5
A37F
102
{ACAD_REACTORS
330
D
102
}
330
D
100
AcDbGroup
300

 70
     1
 71
     1
  0
GROUP
  5
174AC
102
{ACAD_REACTORS
330
D
102
}
330
D
100
AcDbGroup
300

 70
     1
 71
     1
  0
GROUP
  5
147F8
102
{ACAD_REACTORS
330
D
102
}
330
D
100
AcDbGroup
300

 70
     1
 71
     1
  0
GROUP
  5
A38F
102
{ACAD_REACTORS
330
D
102
}
330
D
100
AcDbGroup
300

 70
     1
 71
     1
  0
GROUP
  5
806F
102
{ACAD_REACTORS
330
D
102
}
330
D
100
AcDbGroup
300

 70
     1
 71
     1
  0
GROUP
  5
8804
102
{ACAD_REACTORS
330
D
102
}
330
D
100
AcDbGroup
300

 70
     1
 71
     1
  0
GROUP
  5
49C4
102
{ACAD_REACTORS
330
D
102
}
330
D
100
AcDbGroup
300

 70
     1
 71
     1
  0
GROUP
  5
10678
102
{ACAD_REACTORS
330
D
102
}
330
D
100
AcDbGroup
300

 70
     1
 71
     1
  0
GROUP
  5
A636
102
{ACAD_REACTORS
330
D
102
}
330
D
100
AcDbGroup
300

 70
     1
 71
     1
  0
GROUP
  5
5E1D
102
{ACAD_REACTORS
330
D
102
}
330
D
100
AcDbGroup
300

 70
     1
 71
     1
  0
GROUP
  5
E31F
102
{ACAD_REACTORS
330
D
102
}
330
D
100
AcDbGroup
300

 70
     1
 71
     1
  0
GROUP
  5
A9D2
102
{ACAD_REACTORS
330
D
102
}
330
D
100
AcDbGroup
300

 70
     1
 71
     1
  0
GROUP
  5
2FE3
102
{ACAD_REACTORS
330
D
102
}
330
D
100
AcDbGroup
300

 70
     1
 71
     1
  0
GROUP
  5
10FB0
102
{ACAD_REACTORS
330
D
102
}
330
D
100
AcDbGroup
300

 70
     1
 71
     1
  0
GROUP
  5
10DCE
102
{ACAD_REACTORS
330
D
102
}
330
D
100
AcDbGroup
300

 70
     1
 71
     1
  0
GROUP
  5
81A9
102
{ACAD_REACTORS
330
D
102
}
330
D
100
AcDbGroup
300

 70
     1
 71
     1
  0
GROUP
  5
BCEC
102
{ACAD_REACTORS
330
D
102
}
330
D
100
AcDbGroup
300

 70
     1
 71
     1
  0
GROUP
  5
4992
102
{ACAD_REACTORS
330
D
102
}
330
D
100
AcDbGroup
300

 70
     1
 71
     1
  0
GROUP
  5
A3C1
102
{ACAD_REACTORS
330
D
102
}
330
D
100
AcDbGroup
300

 70
     1
 71
     1
  0
GROUP
  5
339E
102
{ACAD_REACTORS
330
D
102
}
330
D
100
AcDbGroup
300

 70
     1
 71
     1
  0
GROUP
  5
10AB6
102
{ACAD_REACTORS
330
D
102
}
330
D
100
AcDbGroup
300

 70
     1
 71
     1
  0
GROUP
  5
2FF1
102
{ACAD_REACTORS
330
D
102
}
330
D
100
AcDbGroup
300

 70
     1
 71
     1
  0
GROUP
  5
E1FE
102
{ACAD_REACTORS
330
D
102
}
330
D
100
AcDbGroup
300

 70
     1
 71
     1
  0
GROUP
  5
1158
102
{ACAD_REACTORS
330
D
102
}
330
D
100
AcDbGroup
300

 70
     1
 71
     1
  0
GROUP
  5
137AD
102
{ACAD_REACTORS
330
D
102
}
330
D
100
AcDbGroup
300

 70
     1
 71
     1
  0
GROUP
  5
4A10
102
{ACAD_REACTORS
330
D
102
}
330
D
100
AcDbGroup
300

 70
     1
 71
     1
  0
GROUP
  5
141E6
102
{ACAD_REACTORS
330
D
102
}
330
D
100
AcDbGroup
300

 70
     1
 71
     1
  0
GROUP
  5
10EAE
102
{ACAD_REACTORS
330
D
102
}
330
D
100
AcDbGroup
300

 70
     1
 71
     1
  0
GROUP
  5
49E1
102
{ACAD_REACTORS
330
D
102
}
330
D
100
AcDbGroup
300

 70
     1
 71
     1
  0
GROUP
  5
81E6
102
{ACAD_REACTORS
330
D
102
}
330
D
100
AcDbGroup
300

 70
     1
 71
     1
  0
GROUP
  5
880A
102
{ACAD_REACTORS
330
D
102
}
330
D
100
AcDbGroup
300

 70
     1
 71
     1
  0
GROUP
  5
A3EA
102
{ACAD_REACTORS
330
D
102
}
330
D
100
AcDbGroup
300

 70
     1
 71
     1
  0
GROUP
  5
8222
102
{ACAD_REACTORS
330
D
102
}
330
D
100
AcDbGroup
300

 70
     1
 71
     1
  0
GROUP
  5
6400
102
{ACAD_REACTORS
330
D
102
}
330
D
100
AcDbGroup
300

 70
     1
 71
     1
  0
GROUP
  5
14783
102
{ACAD_REACTORS
330
D
102
}
330
D
100
AcDbGroup
300

 70
     1
 71
     1
  0
GROUP
  5
33B9
102
{ACAD_REACTORS
330
D
102
}
330
D
100
AcDbGroup
300

 70
     1
 71
     1
  0
GROUP
  5
8189
102
{ACAD_REACTORS
330
D
102
}
330
D
100
AcDbGroup
300

 70
     1
 71
     1
  0
GROUP
  5
8065
102
{ACAD_REACTORS
330
D
102
}
330
D
100
AcDbGroup
300

 70
     1
 71
     1
  0
GROUP
  5
5CA6
102
{ACAD_REACTORS
330
D
102
}
330
D
100
AcDbGroup
300

 70
     1
 71
     1
  0
GROUP
  5
57BC
102
{ACAD_REACTORS
330
D
102
}
330
D
100
AcDbGroup
300

 70
     1
 71
     1
  0
GROUP
  5
8226
102
{ACAD_REACTORS
330
D
102
}
330
D
100
AcDbGroup
300

 70
     1
 71
     1
  0
GROUP
  5
A628
102
{ACAD_REACTORS
330
D
102
}
330
D
100
AcDbGroup
300

 70
     1
 71
     1
  0
GROUP
  5
A9D3
102
{ACAD_REACTORS
330
D
102
}
330
D
100
AcDbGroup
300

 70
     1
 71
     1
  0
GROUP
  5
2CA5
102
{ACAD_REACTORS
330
D
102
}
330
D
100
AcDbGroup
300

 70
     1
 71
     1
  0
GROUP
  5
2C9A
102
{ACAD_REACTORS
330
D
102
}
330
D
100
AcDbGroup
300

 70
     1
 71
     1
  0
GROUP
  5
4AAE
102
{ACAD_REACTORS
330
D
102
}
330
D
100
AcDbGroup
300

 70
     1
 71
     1
  0
GROUP
  5
5DF8
102
{ACAD_REACTORS
330
D
102
}
330
D
100
AcDbGroup
300

 70
     1
 71
     1
  0
GROUP
  5
5E29
102
{ACAD_REACTORS
330
D
102
}
330
D
100
AcDbGroup
300

 70
     1
 71
     1
  0
GROUP
  5
42BF
102
{ACAD_REACTORS
330
D
102
}
330
D
100
AcDbGroup
300

 70
     1
 71
     1
  0
GROUP
  5
E318
102
{ACAD_REACTORS
330
D
102
}
330
D
100
AcDbGroup
300

 70
     1
 71
     1
  0
GROUP
  5
1089
102
{ACAD_REACTORS
330
D
102
}
330
D
100
AcDbGroup
300

 70
     1
 71
     1
  0
GROUP
  5
1122
102
{ACAD_REACTORS
330
D
102
}
330
D
100
AcDbGroup
300

 70
     1
 71
     1
  0
GROUP
  5
57BA
102
{ACAD_REACTORS
330
D
102
}
330
D
100
AcDbGroup
300

 70
     1
 71
     1
  0
GROUP
  5
2A28
102
{ACAD_REACTORS
330
D
102
}
330
D
100
AcDbGroup
300

 70
     1
 71
     1
  0
GROUP
  5
6F77
102
{ACAD_REACTORS
330
D
102
}
330
D
100
AcDbGroup
300

 70
     1
 71
     1
  0
GROUP
  5
106D4
102
{ACAD_REACTORS
330
D
102
}
330
D
100
AcDbGroup
300

 70
     1
 71
     1
  0
GROUP
  5
3305
102
{ACAD_REACTORS
330
D
102
}
330
D
100
AcDbGroup
300

 70
     1
 71
     1
  0
GROUP
  5
317C
102
{ACAD_REACTORS
330
D
102
}
330
D
100
AcDbGroup
300

 70
     1
 71
     1
  0
GROUP
  5
965C
102
{ACAD_REACTORS
330
D
102
}
330
D
100
AcDbGroup
300

 70
     1
 71
     1
  0
GROUP
  5
10689
102
{ACAD_REACTORS
330
D
102
}
330
D
100
AcDbGroup
300

 70
     1
 71
     1
  0
GROUP
  5
E102
102
{ACAD_REACTORS
330
D
102
}
330
D
100
AcDbGroup
300

 70
     1
 71
     1
  0
GROUP
  5
1739D
102
{ACAD_REACTORS
330
D
102
}
330
D
100
AcDbGroup
300

 70
     1
 71
     1
  0
GROUP
  5
64A9
102
{ACAD_REACTORS
330
D
102
}
330
D
100
AcDbGroup
300

 70
     1
 71
     1
  0
GROUP
  5
137B6
102
{ACAD_REACTORS
330
D
102
}
330
D
100
AcDbGroup
300

 70
     1
 71
     1
  0
GROUP
  5
141EA
102
{ACAD_REACTORS
330
D
102
}
330
D
100
AcDbGroup
300

 70
     1
 71
     1
  0
GROUP
  5
9808
102
{ACAD_REACTORS
330
D
102
}
330
D
100
AcDbGroup
300

 70
     1
 71
     1
  0
GROUP
  5
5E55
102
{ACAD_REACTORS
330
D
102
}
330
D
100
AcDbGroup
300

 70
     1
 71
     1
  0
GROUP
  5
141E7
102
{ACAD_REACTORS
330
D
102
}
330
D
100
AcDbGroup
300

 70
     1
 71
     1
  0
GROUP
  5
820E
102
{ACAD_REACTORS
330
D
102
}
330
D
100
AcDbGroup
300

 70
     1
 71
     1
  0
GROUP
  5
4ABD
102
{ACAD_REACTORS
330
D
102
}
330
D
100
AcDbGroup
300

 70
     1
 71
     1
  0
GROUP
  5
10FAE
102
{ACAD_REACTORS
330
D
102
}
330
D
100
AcDbGroup
300

 70
     1
 71
     1
  0
GROUP
  5
7AF2
102
{ACAD_REACTORS
330
D
102
}
330
D
100
AcDbGroup
300

 70
     1
 71
     1
  0
GROUP
  5
174AE
102
{ACAD_REACTORS
330
D
102
}
330
D
100
AcDbGroup
300

 70
     1
 71
     1
  0
GROUP
  5
10DA
102
{ACAD_REACTORS
330
D
102
}
330
D
100
AcDbGroup
300

 70
     1
 71
     1
  0
GROUP
  5
106E0
102
{ACAD_REACTORS
330
D
102
}
330
D
100
AcDbGroup
300

 70
     1
 71
     1
  0
GROUP
  5
2FE9
102
{ACAD_REACTORS
330
D
102
}
330
D
100
AcDbGroup
300

 70
     1
 71
     1
  0
GROUP
  5
10E2E
102
{ACAD_REACTORS
330
D
102
}
330
D
100
AcDbGroup
300

 70
     1
 71
     1
  0
GROUP
  5
4F1E
102
{ACAD_REACTORS
330
D
102
}
330
D
100
AcDbGroup
300

 70
     1
 71
     1
  0
GROUP
  5
4A96
102
{ACAD_REACTORS
330
D
102
}
330
D
100
AcDbGroup
300

 70
     1
 71
     1
  0
GROUP
  5
1415D
102
{ACAD_REACTORS
330
D
102
}
330
D
100
AcDbGroup
300

 70
     1
 71
     1
  0
GROUP
  5
17D5B
102
{ACAD_REACTORS
330
D
102
}
330
D
100
AcDbGroup
300

 70
     1
 71
     1
  0
GROUP
  5
8187
102
{ACAD_REACTORS
330
D
102
}
330
D
100
AcDbGroup
300

 70
     1
 71
     1
  0
GROUP
  5
10E38
102
{ACAD_REACTORS
330
D
102
}
330
D
100
AcDbGroup
300

 70
     1
 71
     1
  0
GROUP
  5
4AB4
102
{ACAD_REACTORS
330
D
102
}
330
D
100
AcDbGroup
300

 70
     1
 71
     1
  0
GROUP
  5
4980
102
{ACAD_REACTORS
330
D
102
}
330
D
100
AcDbGroup
300

 70
     1
 71
     1
  0
GROUP
  5
81B8
102
{ACAD_REACTORS
330
D
102
}
330
D
100
AcDbGroup
300

 70
     1
 71
     1
  0
GROUP
  5
106DC
102
{ACAD_REACTORS
330
D
102
}
330
D
100
AcDbGroup
300

 70
     1
 71
     1
  0
GROUP
  5
1457D
102
{ACAD_REACTORS
330
D
102
}
330
D
100
AcDbGroup
300

 70
     1
 71
     1
  0
GROUP
  5
818B
102
{ACAD_REACTORS
330
D
102
}
330
D
100
AcDbGroup
300

 70
     1
 71
     1
  0
GROUP
  5
E101
102
{ACAD_REACTORS
330
D
102
}
330
D
100
AcDbGroup
300

 70
     1
 71
     1
  0
GROUP
  5
4998
102
{ACAD_REACTORS
330
D
102
}
330
D
100
AcDbGroup
300

 70
     1
 71
     1
  0
GROUP
  5
105A3
102
{ACAD_REACTORS
330
D
102
}
330
D
100
AcDbGroup
300

 70
     1
 71
     1
  0
GROUP
  5
109B
102
{ACAD_REACTORS
330
D
102
}
330
D
100
AcDbGroup
300

 70
     1
 71
     1
  0
GROUP
  5
10EC
102
{ACAD_REACTORS
330
D
102
}
330
D
100
AcDbGroup
300

 70
     1
 71
     1
  0
GROUP
  5
6062
102
{ACAD_REACTORS
330
D
102
}
330
D
100
AcDbGroup
300

 70
     1
 71
     1
  0
GROUP
  5
10E39
102
{ACAD_REACTORS
330
D
102
}
330
D
100
AcDbGroup
300

 70
     1
 71
     1
  0
GROUP
  5
57BD
102
{ACAD_REACTORS
330
D
102
}
330
D
100
AcDbGroup
300

 70
     1
 71
     1
  0
GROUP
  5
10EAD
102
{ACAD_REACTORS
330
D
102
}
330
D
100
AcDbGroup
300

 70
     1
 71
     1
  0
GROUP
  5
964C
102
{ACAD_REACTORS
330
D
102
}
330
D
100
AcDbGroup
300

 70
     1
 71
     1
  0
GROUP
  5
1092
102
{ACAD_REACTORS
330
D
102
}
330
D
100
AcDbGroup
300

 70
     1
 71
     1
  0
GROUP
  5
8822
102
{ACAD_REACTORS
330
D
102
}
330
D
100
AcDbGroup
300

 70
     1
 71
     1
  0
GROUP
  5
13789
102
{ACAD_REACTORS
330
D
102
}
330
D
100
AcDbGroup
300

 70
     1
 71
     1
  0
GROUP
  5
49CA
102
{ACAD_REACTORS
330
D
102
}
330
D
100
AcDbGroup
300

 70
     1
 71
     1
  0
GROUP
  5
E31E
102
{ACAD_REACTORS
330
D
102
}
330
D
100
AcDbGroup
300

 70
     1
 71
     1
  0
GROUP
  5
106E
102
{ACAD_REACTORS
330
D
102
}
330
D
100
AcDbGroup
300

 70
     1
 71
     1
  0
GROUP
  5
10AD
102
{ACAD_REACTORS
330
D
102
}
330
D
100
AcDbGroup
300

 70
     1
 71
     1
  0
GROUP
  5
E1FD
102
{ACAD_REACTORS
330
D
102
}
330
D
100
AcDbGroup
300

 70
     1
 71
     1
  0
GROUP
  5
64A1
102
{ACAD_REACTORS
330
D
102
}
330
D
100
AcDbGroup
300

 70
     1
 71
     1
  0
GROUP
  5
141E8
102
{ACAD_REACTORS
330
D
102
}
330
D
100
AcDbGroup
300

 70
     1
 71
     1
  0
GROUP
  5
8818
102
{ACAD_REACTORS
330
D
102
}
330
D
100
AcDbGroup
300

 70
     1
 71
     1
  0
GROUP
  5
3286
102
{ACAD_REACTORS
330
D
102
}
330
D
100
AcDbGroup
300

 70
     1
 71
     1
  0
GROUP
  5
4989
102
{ACAD_REACTORS
330
D
102
}
330
D
100
AcDbGroup
300

 70
     1
 71
     1
  0
GROUP
  5
137C8
102
{ACAD_REACTORS
330
D
102
}
330
D
100
AcDbGroup
300

 70
     1
 71
     1
  0
GROUP
  5
1379B
102
{ACAD_REACTORS
330
D
102
}
330
D
100
AcDbGroup
300

 70
     1
 71
     1
  0
GROUP
  5
81E1
102
{ACAD_REACTORS
330
D
102
}
330
D
100
AcDbGroup
300

 70
     1
 71
     1
  0
GROUP
  5
1080
102
{ACAD_REACTORS
330
D
102
}
330
D
100
AcDbGroup
300

 70
     1
 71
     1
  0
GROUP
  5
DCC3
102
{ACAD_REACTORS
330
D
102
}
330
D
100
AcDbGroup
300

 70
     1
 71
     1
  0
GROUP
  5
1064E
102
{ACAD_REACTORS
330
D
102
}
330
D
100
AcDbGroup
300

 70
     1
 71
     1
  0
GROUP
  5
880F
102
{ACAD_REACTORS
330
D
102
}
330
D
100
AcDbGroup
300

 70
     1
 71
     1
  0
GROUP
  5
77D2
102
{ACAD_REACTORS
330
D
102
}
330
D
100
AcDbGroup
300

 70
     1
 71
     1
  0
GROUP
  5
9656
102
{ACAD_REACTORS
330
D
102
}
330
D
100
AcDbGroup
300

 70
     1
 71
     1
  0
GROUP
  5
E1FC
102
{ACAD_REACTORS
330
D
102
}
330
D
100
AcDbGroup
300

 70
     1
 71
     1
  0
GROUP
  5
1065
102
{ACAD_REACTORS
330
D
102
}
330
D
100
AcDbGroup
300

 70
     1
 71
     1
  0
GROUP
  5
881D
102
{ACAD_REACTORS
330
D
102
}
330
D
100
AcDbGroup
300

 70
     1
 71
     1
  0
GROUP
  5
7AD2
102
{ACAD_REACTORS
330
D
102
}
330
D
100
AcDbGroup
300

 70
     1
 71
     1
  0
GROUP
  5
E1FB
102
{ACAD_REACTORS
330
D
102
}
330
D
100
AcDbGroup
300

 70
     1
 71
     1
  0
GROUP
  5
821D
102
{ACAD_REACTORS
330
D
102
}
330
D
100
AcDbGroup
300

 70
     1
 71
     1
  0
GROUP
  5
1161
102
{ACAD_REACTORS
330
D
102
}
330
D
100
AcDbGroup
300

 70
     1
 71
     1
  0
GROUP
  5
E2AF
102
{ACAD_REACTORS
330
D
102
}
330
D
100
AcDbGroup
300

 70
     1
 71
     1
  0
GROUP
  5
1134
102
{ACAD_REACTORS
330
D
102
}
330
D
100
AcDbGroup
300

 70
     1
 71
     1
  0
GROUP
  5
3487
102
{ACAD_REACTORS
330
D
102
}
330
D
100
AcDbGroup
300

 70
     1
 71
     1
  0
GROUP
  5
B307
102
{ACAD_REACTORS
330
D
102
}
330
D
100
AcDbGroup
300

 70
     1
 71
     1
  0
GROUP
  5
8819
102
{ACAD_REACTORS
330
D
102
}
330
D
100
AcDbGroup
300

 70
     1
 71
     1
  0
GROUP
  5
5E04
102
{ACAD_REACTORS
330
D
102
}
330
D
100
AcDbGroup
300

 70
     1
 71
     1
  0
GROUP
  5
980D
102
{ACAD_REACTORS
330
D
102
}
330
D
100
AcDbGroup
300

 70
     1
 71
     1
  0
GROUP
  5
605A
102
{ACAD_REACTORS
330
D
102
}
330
D
100
AcDbGroup
300

 70
     1
 71
     1
  0
GROUP
  5
4ABC
102
{ACAD_REACTORS
330
D
102
}
330
D
100
AcDbGroup
300

 70
     1
 71
     1
  0
GROUP
  5
77C8
102
{ACAD_REACTORS
330
D
102
}
330
D
100
AcDbGroup
300

 70
     1
 71
     1
  0
GROUP
  5
13777
102
{ACAD_REACTORS
330
D
102
}
330
D
100
AcDbGroup
300

 70
     1
 71
     1
  0
GROUP
  5
5C9F
102
{ACAD_REACTORS
330
D
102
}
330
D
100
AcDbGroup
300

 70
     1
 71
     1
  0
GROUP
  5
141E9
102
{ACAD_REACTORS
330
D
102
}
330
D
100
AcDbGroup
300

 70
     1
 71
     1
  0
GROUP
  5
A397
102
{ACAD_REACTORS
330
D
102
}
330
D
100
AcDbGroup
300

 70
     1
 71
     1
  0
GROUP
  5
4995
102
{ACAD_REACTORS
330
D
102
}
330
D
100
AcDbGroup
300

 70
     1
 71
     1
  0
GROUP
  5
5F9B
102
{ACAD_REACTORS
330
D
102
}
330
D
100
AcDbGroup
300

 70
     1
 71
     1
  0
GROUP
  5
2C9E
102
{ACAD_REACTORS
330
D
102
}
330
D
100
AcDbGroup
300

 70
     1
 71
     1
  0
GROUP
  5
1067D
102
{ACAD_REACTORS
330
D
102
}
330
D
100
AcDbGroup
300

 70
     1
 71
     1
  0
GROUP
  5
2FE2
102
{ACAD_REACTORS
330
D
102
}
330
D
100
AcDbGroup
300

 70
     1
 71
     1
  0
GROUP
  5
E685
102
{ACAD_REACTORS
330
D
102
}
330
D
100
AcDbGroup
300

 70
     1
 71
     1
  0
GROUP
  5
8213
102
{ACAD_REACTORS
330
D
102
}
330
D
100
AcDbGroup
300

 70
     1
 71
     1
  0
GROUP
  5
7556
102
{ACAD_REACTORS
330
D
102
}
330
D
100
AcDbGroup
300

 70
     1
 71
     1
  0
GROUP
  5
10FE
102
{ACAD_REACTORS
330
D
102
}
330
D
100
AcDbGroup
300

 70
     1
 71
     1
  0
GROUP
  5
4A14
102
{ACAD_REACTORS
330
D
102
}
330
D
100
AcDbGroup
300

 70
     1
 71
     1
  0
GROUP
  5
1107
102
{ACAD_REACTORS
330
D
102
}
330
D
100
AcDbGroup
300

 70
     1
 71
     1
  0
GROUP
  5
42C0
102
{ACAD_REACTORS
330
D
102
}
330
D
100
AcDbGroup
300

 70
     1
 71
     1
  0
GROUP
  5
5F9C
102
{ACAD_REACTORS
330
D
102
}
330
D
100
AcDbGroup
300

 70
     1
 71
     1
  0
GROUP
  5
33BA
102
{ACAD_REACTORS
330
D
102
}
330
D
100
AcDbGroup
300

 70
     1
 71
     1
  0
GROUP
  5
E319
102
{ACAD_REACTORS
330
D
102
}
330
D
100
AcDbGroup
300

 70
     1
 71
     1
  0
GROUP
  5
5129
102
{ACAD_REACTORS
330
D
102
}
330
D
100
AcDbGroup
300

 70
     1
 71
     1
  0
GROUP
  5
17395
102
{ACAD_REACTORS
330
D
102
}
330
D
100
AcDbGroup
300

 70
     1
 71
     1
  0
GROUP
  5
1119
102
{ACAD_REACTORS
330
D
102
}
330
D
100
AcDbGroup
300

 70
     1
 71
     1
  0
GROUP
  5
10684
102
{ACAD_REACTORS
330
D
102
}
330
D
100
AcDbGroup
300

 70
     1
 71
     1
  0
GROUP
  5
7AC6
102
{ACAD_REACTORS
330
D
102
}
330
D
100
AcDbGroup
300

 70
     1
 71
     1
  0
GROUP
  5
10636
102
{ACAD_REACTORS
330
D
102
}
330
D
100
AcDbGroup
300

 70
     1
 71
     1
  0
GROUP
  5
1077
102
{ACAD_REACTORS
330
D
102
}
330
D
100
AcDbGroup
300

 70
     1
 71
     1
  0
GROUP
  5
10D1
102
{ACAD_REACTORS
330
D
102
}
330
D
100
AcDbGroup
300

 70
     1
 71
     1
  0
GROUP
  5
17FCB
102
{ACAD_REACTORS
330
D
102
}
330
D
100
AcDbGroup
300

 70
     1
 71
     1
340
17DA0
340
17DF1
340
17DF5
340
17DF0
340
17DF4
340
17DF2
340
17DF3
  0
GROUP
  5
619C
102
{ACAD_REACTORS
330
D
102
}
330
D
100
AcDbGroup
300

 70
     1
 71
     1
  0
GROUP
  5
B346
102
{ACAD_REACTORS
330
D
102
}
330
D
100
AcDbGroup
300

 70
     1
 71
     1
  0
GROUP
  5
10C8
102
{ACAD_REACTORS
330
D
102
}
330
D
100
AcDbGroup
300

 70
     1
 71
     1
  0
GROUP
  5
14860
102
{ACAD_REACTORS
330
D
102
}
330
D
100
AcDbGroup
300

 70
     1
 71
     1
  0
GROUP
  5
10F24
102
{ACAD_REACTORS
330
D
102
}
330
D
100
AcDbGroup
300

 70
     1
 71
     1
  0
GROUP
  5
141EE
102
{ACAD_REACTORS
330
D
102
}
330
D
100
AcDbGroup
300

 70
     1
 71
     1
  0
GROUP
  5
17562
102
{ACAD_REACTORS
330
D
102
}
330
D
100
AcDbGroup
300

 70
     1
 71
     1
  0
GROUP
  5
57B9
102
{ACAD_REACTORS
330
D
102
}
330
D
100
AcDbGroup
300

 70
     1
 71
     1
  0
GROUP
  5
5E68
102
{ACAD_REACTORS
330
D
102
}
330
D
100
AcDbGroup
300

 70
     1
 71
     1
  0
GROUP
  5
DF9B
102
{ACAD_REACTORS
330
D
102
}
330
D
100
AcDbGroup
300

 70
     1
 71
     1
  0
GROUP
  5
17FCC
102
{ACAD_REACTORS
330
D
102
}
330
D
100
AcDbGroup
300

 70
     1
 71
     1
340
17D9F
340
17DFC
340
17E00
340
17DFB
340
17DFF
340
17DFD
340
17DFE
  0
GROUP
  5
5E6E
102
{ACAD_REACTORS
330
D
102
}
330
D
100
AcDbGroup
300

 70
     1
 71
     1
  0
GROUP
  5
818C
102
{ACAD_REACTORS
330
D
102
}
330
D
100
AcDbGroup
300

 70
     1
 71
     1
  0
GROUP
  5
5DE0
102
{ACAD_REACTORS
330
D
102
}
330
D
100
AcDbGroup
300

 70
     1
 71
     1
  0
GROUP
  5
A3D1
102
{ACAD_REACTORS
330
D
102
}
330
D
100
AcDbGroup
300

 70
     1
 71
     1
  0
GROUP
  5
820D
102
{ACAD_REACTORS
330
D
102
}
330
D
100
AcDbGroup
300

 70
     1
 71
     1
  0
GROUP
  5
106C1
102
{ACAD_REACTORS
330
D
102
}
330
D
100
AcDbGroup
300

 70
     1
 71
     1
  0
GROUP
  5
10D0F
102
{ACAD_REACTORS
330
D
102
}
330
D
100
AcDbGroup
300

 70
     1
 71
     1
  0
GROUP
  5
1412D
102
{ACAD_REACTORS
330
D
102
}
330
D
100
AcDbGroup
300

 70
     1
 71
     1
  0
GROUP
  5
A3C5
102
{ACAD_REACTORS
330
D
102
}
330
D
100
AcDbGroup
300

 70
     1
 71
     1
  0
GROUP
  5
5D44
102
{ACAD_REACTORS
330
D
102
}
330
D
100
AcDbGroup
300

 70
     1
 71
     1
  0
GROUP
  5
E31C
102
{ACAD_REACTORS
330
D
102
}
330
D
100
AcDbGroup
300

 70
     1
 71
     1
  0
GROUP
  5
10F23
102
{ACAD_REACTORS
330
D
102
}
330
D
100
AcDbGroup
300

 70
     1
 71
     1
  0
GROUP
  5
DF9C
102
{ACAD_REACTORS
330
D
102
}
330
D
100
AcDbGroup
300

 70
     1
 71
     1
  0
GROUP
  5
14890
102
{ACAD_REACTORS
330
D
102
}
330
D
100
AcDbGroup
300

 70
     1
 71
     1
  0
GROUP
  5
5E6B
102
{ACAD_REACTORS
330
D
102
}
330
D
100
AcDbGroup
300

 70
     1
 71
     1
  0
GROUP
  5
B358
102
{ACAD_REACTORS
330
D
102
}
330
D
100
AcDbGroup
300

 70
     1
 71
     1
  0
GROUP
  5
113D
102
{ACAD_REACTORS
330
D
102
}
330
D
100
AcDbGroup
300

 70
     1
 71
     1
  0
GROUP
  5
173AD
102
{ACAD_REACTORS
330
D
102
}
330
D
100
AcDbGroup
300

 70
     1
 71
     1
  0
GROUP
  5
8043
102
{ACAD_REACTORS
330
D
102
}
330
D
100
AcDbGroup
300

 70
     1
 71
     1
  0
GROUP
  5
317D
102
{ACAD_REACTORS
330
D
102
}
330
D
100
AcDbGroup
300

 70
     1
 71
     1
  0
GROUP
  5
5E34
102
{ACAD_REACTORS
330
D
102
}
330
D
100
AcDbGroup
300

 70
     1
 71
     1
  0
GROUP
  5
64A5
102
{ACAD_REACTORS
330
D
102
}
330
D
100
AcDbGroup
300

 70
     1
 71
     1
  0
GROUP
  5
E2B0
102
{ACAD_REACTORS
330
D
102
}
330
D
100
AcDbGroup
300

 70
     1
 71
     1
  0
GROUP
  5
B352
102
{ACAD_REACTORS
330
D
102
}
330
D
100
AcDbGroup
300

 70
     1
 71
     1
  0
GROUP
  5
2CA6
102
{ACAD_REACTORS
330
D
102
}
330
D
100
AcDbGroup
300

 70
     1
 71
     1
  0
GROUP
  5
5E4A
102
{ACAD_REACTORS
330
D
102
}
330
D
100
AcDbGroup
300

 70
     1
 71
     1
  0
GROUP
  5
499E
102
{ACAD_REACTORS
330
D
102
}
330
D
100
AcDbGroup
300

 70
     1
 71
     1
  0
GROUP
  5
116A
102
{ACAD_REACTORS
330
D
102
}
330
D
100
AcDbGroup
300

 70
     1
 71
     1
  0
GROUP
  5
5D38
102
{ACAD_REACTORS
330
D
102
}
330
D
100
AcDbGroup
300

 70
     1
 71
     1
  0
GROUP
  5
33A2
102
{ACAD_REACTORS
330
D
102
}
330
D
100
AcDbGroup
300

 70
     1
 71
     1
  0
GROUP
  5
10D15
102
{ACAD_REACTORS
330
D
102
}
330
D
100
AcDbGroup
300

 70
     1
 71
     1
  0
GROUP
  5
8062
102
{ACAD_REACTORS
330
D
102
}
330
D
100
AcDbGroup
300

 70
     1
 71
     1
  0
GROUP
  5
822B
102
{ACAD_REACTORS
330
D
102
}
330
D
100
AcDbGroup
300

 70
     1
 71
     1
  0
GROUP
  5
A393
102
{ACAD_REACTORS
330
D
102
}
330
D
100
AcDbGroup
300

 70
     1
 71
     1
  0
GROUP
  5
A387
102
{ACAD_REACTORS
330
D
102
}
330
D
100
AcDbGroup
300

 70
     1
 71
     1
  0
GROUP
  5
174AD
102
{ACAD_REACTORS
330
D
102
}
330
D
100
AcDbGroup
300

 70
     1
 71
     1
  0
GROUP
  5
DCBE
102
{ACAD_REACTORS
330
D
102
}
330
D
100
AcDbGroup
300

 70
     1
 71
     1
  0
GROUP
  5
339B
102
{ACAD_REACTORS
330
D
102
}
330
D
100
AcDbGroup
300

 70
     1
 71
     1
  0
GROUP
  5
57BF
102
{ACAD_REACTORS
330
D
102
}
330
D
100
AcDbGroup
300

 70
     1
 71
     1
  0
GROUP
  5
10EAF
102
{ACAD_REACTORS
330
D
102
}
330
D
100
AcDbGroup
300

 70
     1
 71
     1
  0
GROUP
  5
14827
102
{ACAD_REACTORS
330
D
102
}
330
D
100
AcDbGroup
300

 70
     1
 71
     1
  0
GROUP
  5
141EC
102
{ACAD_REACTORS
330
D
102
}
330
D
100
AcDbGroup
300

 70
     1
 71
     1
  0
GROUP
  5
5134
102
{ACAD_REACTORS
330
D
102
}
330
D
100
AcDbGroup
300

 70
     1
 71
     1
  0
GROUP
  5
B349
102
{ACAD_REACTORS
330
D
102
}
330
D
100
AcDbGroup
300

 70
     1
 71
     1
  0
GROUP
  5
A3B5
102
{ACAD_REACTORS
330
D
102
}
330
D
100
AcDbGroup
300

 70
     1
 71
     1
  0
GROUP
  5
33BD
102
{ACAD_REACTORS
330
D
102
}
330
D
100
AcDbGroup
300

 70
     1
 71
     1
  0
GROUP
  5
E1F9
102
{ACAD_REACTORS
330
D
102
}
330
D
100
AcDbGroup
300

 70
     1
 71
     1
  0
GROUP
  5
A3BD
102
{ACAD_REACTORS
330
D
102
}
330
D
100
AcDbGroup
300

 70
     1
 71
     1
  0
GROUP
  5
606A
102
{ACAD_REACTORS
330
D
102
}
330
D
100
AcDbGroup
300

 70
     1
 71
     1
  0
GROUP
  5
7C28
102
{ACAD_REACTORS
330
D
102
}
330
D
100
AcDbGroup
300

 70
     1
 71
     1
  0
GROUP
  5
49DB
102
{ACAD_REACTORS
330
D
102
}
330
D
100
AcDbGroup
300

 70
     1
 71
     1
  0
GROUP
  5
10FAF
102
{ACAD_REACTORS
330
D
102
}
330
D
100
AcDbGroup
300

 70
     1
 71
     1
  0
GROUP
  5
B343
102
{ACAD_REACTORS
330
D
102
}
330
D
100
AcDbGroup
300

 70
     1
 71
     1
  0
GROUP
  5
8805
102
{ACAD_REACTORS
330
D
102
}
330
D
100
AcDbGroup
300

 70
     1
 71
     1
  0
GROUP
  5
141ED
102
{ACAD_REACTORS
330
D
102
}
330
D
100
AcDbGroup
300

 70
     1
 71
     1
  0
GROUP
  5
7C2A
102
{ACAD_REACTORS
330
D
102
}
330
D
100
AcDbGroup
300

 70
     1
 71
     1
  0
GROUP
  5
137D1
102
{ACAD_REACTORS
330
D
102
}
330
D
100
AcDbGroup
300

 70
     1
 71
     1
  0
GROUP
  5
8072
102
{ACAD_REACTORS
330
D
102
}
330
D
100
AcDbGroup
300

 70
     1
 71
     1
  0
GROUP
  5
81E4
102
{ACAD_REACTORS
330
D
102
}
330
D
100
AcDbGroup
300

 70
     1
 71
     1
  0
GROUP
  5
7AE6
102
{ACAD_REACTORS
330
D
102
}
330
D
100
AcDbGroup
300

 70
     1
 71
     1
  0
GROUP
  5
5E3F
102
{ACAD_REACTORS
330
D
102
}
330
D
100
AcDbGroup
300

 70
     1
 71
     1
  0
GROUP
  5
49DE
102
{ACAD_REACTORS
330
D
102
}
330
D
100
AcDbGroup
300

 70
     1
 71
     1
  0
GROUP
  5
64AD
102
{ACAD_REACTORS
330
D
102
}
330
D
100
AcDbGroup
300

 70
     1
 71
     1
  0
GROUP
  5
B355
102
{ACAD_REACTORS
330
D
102
}
330
D
100
AcDbGroup
300

 70
     1
 71
     1
  0
GROUP
  5
12454
102
{ACAD_REACTORS
330
D
102
}
330
D
100
AcDbGroup
300

 70
     1
 71
     1
  0
GROUP
  5
10F5
102
{ACAD_REACTORS
330
D
102
}
330
D
100
AcDbGroup
300

 70
     1
 71
     1
  0
GROUP
  5
17FCD
102
{ACAD_REACTORS
330
D
102
}
330
D
100
AcDbGroup
300

 70
     1
 71
     1
340
17E1A
340
17E3C
340
17E39
340
17E3B
340
17E38
340
17E3A
340
17E3D
  0
GROUP
  5
A3EB
102
{ACAD_REACTORS
330
D
102
}
330
D
100
AcDbGroup
300

 70
     1
 71
     1
  0
GROUP
  5
173B5
102
{ACAD_REACTORS
330
D
102
}
330
D
100
AcDbGroup
300

 70
     1
 71
     1
  0
GROUP
  5
2FF6
102
{ACAD_REACTORS
330
D
102
}
330
D
100
AcDbGroup
300

 70
     1
 71
     1
  0
GROUP
  5
DE0C
102
{ACAD_REACTORS
330
D
102
}
330
D
100
AcDbGroup
300

 70
     1
 71
     1
  0
GROUP
  5
77B9
102
{ACAD_REACTORS
330
D
102
}
330
D
100
AcDbGroup
300

 70
     1
 71
     1
  0
GROUP
  5
2FE8
102
{ACAD_REACTORS
330
D
102
}
330
D
100
AcDbGroup
300

 70
     1
 71
     1
  0
GROUP
  5
A61E
102
{ACAD_REACTORS
330
D
102
}
330
D
100
AcDbGroup
300

 70
     1
 71
     1
  0
GROUP
  5
141EB
102
{ACAD_REACTORS
330
D
102
}
330
D
100
AcDbGroup
300

 70
     1
 71
     1
  0
GROUP
  5
3289
102
{ACAD_REACTORS
330
D
102
}
330
D
100
AcDbGroup
300

 70
     1
 71
     1
  0
GROUP
  5
8375
102
{ACAD_REACTORS
330
D
102
}
330
D
100
AcDbGroup
300

 70
     1
 71
     1
  0
GROUP
  5
A9A1
102
{ACAD_REACTORS
330
D
102
}
330
D
100
AcDbGroup
300

 70
     1
 71
     1
  0
GROUP
  5
106E8
102
{ACAD_REACTORS
330
D
102
}
330
D
100
AcDbGroup
300

 70
     1
 71
     1
  0
GROUP
  5
106A1
102
{ACAD_REACTORS
330
D
102
}
330
D
100
AcDbGroup
300

 70
     1
 71
     1
  0
GROUP
  5
10B6
102
{ACAD_REACTORS
330
D
102
}
330
D
100
AcDbGroup
300

 70
     1
 71
     1
  0
GROUP
  5
818A
102
{ACAD_REACTORS
330
D
102
}
330
D
100
AcDbGroup
300

 70
     1
 71
     1
  0
GROUP
  5
10D47
102
{ACAD_REACTORS
330
D
102
}
330
D
100
AcDbGroup
300

 70
     1
 71
     1
  0
GROUP
  5
A635
102
{ACAD_REACTORS
330
D
102
}
330
D
100
AcDbGroup
300

 70
     1
 71
     1
  0
GROUP
  5
B34F
102
{ACAD_REACTORS
330
D
102
}
330
D
100
AcDbGroup
300

 70
     1
 71
     1
  0
GROUP
  5
A37B
102
{ACAD_REACTORS
330
D
102
}
330
D
100
AcDbGroup
300

 70
     1
 71
     1
  0
GROUP
  5
498F
102
{ACAD_REACTORS
330
D
102
}
330
D
100
AcDbGroup
300

 70
     1
 71
     1
  0
GROUP
  5
10586
102
{ACAD_REACTORS
330
D
102
}
330
D
100
AcDbGroup
300

 70
     1
 71
     1
  0
GROUP
  5
17FCE
102
{ACAD_REACTORS
330
D
102
}
330
D
100
AcDbGroup
300

 70
     1
 71
     1
340
17E09
340
17E60
340
17E5D
340
17E5F
340
17E5C
340
17E5E
340
17E61
  0
GROUP
  5
3183
102
{ACAD_REACTORS
330
D
102
}
330
D
100
AcDbGroup
300

 70
     1
 71
     1
  0
GROUP
  5
173D2
102
{ACAD_REACTORS
330
D
102
}
330
D
100
AcDbGroup
300

 70
     1
 71
     1
  0
GROUP
  5
4F1D
102
{ACAD_REACTORS
330
D
102
}
330
D
100
AcDbGroup
300

 70
     1
 71
     1
  0
GROUP
  5
805E
102
{ACAD_REACTORS
330
D
102
}
330
D
100
AcDbGroup
300

 70
     1
 71
     1
  0
GROUP
  5
10BF
102
{ACAD_REACTORS
330
D
102
}
330
D
100
AcDbGroup
300

 70
     1
 71
     1
  0
GROUP
  5
16E67
102
{ACAD_REACTORS
330
D
102
}
330
D
100
AcDbGroup
300

 70
     1
 71
     1
  0
GROUP
  5
173D3
102
{ACAD_REACTORS
330
D
102
}
330
D
100
AcDbGroup
300

 70
     1
 71
     1
  0
GROUP
  5
8814
102
{ACAD_REACTORS
330
D
102
}
330
D
100
AcDbGroup
300

 70
     1
 71
     1
  0
GROUP
  5
980E
102
{ACAD_REACTORS
330
D
102
}
330
D
100
AcDbGroup
300

 70
     1
 71
     1
  0
GROUP
  5
9807
102
{ACAD_REACTORS
330
D
102
}
330
D
100
AcDbGroup
300

 70
     1
 71
     1
  0
GROUP
  5
A637
102
{ACAD_REACTORS
330
D
102
}
330
D
100
AcDbGroup
300

 70
     1
 71
     1
  0
GROUP
  5
49A1
102
{ACAD_REACTORS
330
D
102
}
330
D
100
AcDbGroup
300

 70
     1
 71
     1
  0
GROUP
  5
512B
102
{ACAD_REACTORS
330
D
102
}
330
D
100
AcDbGroup
300

 70
     1
 71
     1
  0
GROUP
  5
880E
102
{ACAD_REACTORS
330
D
102
}
330
D
100
AcDbGroup
300

 70
     1
 71
     1
  0
GROUP
  5
106D5
102
{ACAD_REACTORS
330
D
102
}
330
D
100
AcDbGroup
300

 70
     1
 71
     1
  0
GROUP
  5
10F22
102
{ACAD_REACTORS
330
D
102
}
330
D
100
AcDbGroup
300

 70
     1
 71
     1
  0
GROUP
  5
498C
102
{ACAD_REACTORS
330
D
102
}
330
D
100
AcDbGroup
300

 70
     1
 71
     1
  0
GROUP
  5
173D4
102
{ACAD_REACTORS
330
D
102
}
330
D
100
AcDbGroup
300

 70
     1
 71
     1
  0
GROUP
  5
170EB
102
{ACAD_REACTORS
330
D
102
}
330
D
100
AcDbGroup
300

 70
     1
 71
     1
  0
GROUP
  5
E31B
102
{ACAD_REACTORS
330
D
102
}
330
D
100
AcDbGroup
300

 70
     1
 71
     1
  0
GROUP
  5
E1FA
102
{ACAD_REACTORS
330
D
102
}
330
D
100
AcDbGroup
300

 70
     1
 71
     1
  0
GROUP
  5
17FCF
102
{ACAD_REACTORS
330
D
102
}
330
D
100
AcDbGroup
300

 70
     1
 71
     1
340
17E48
340
17E4A
340
17E4D
340
17E49
340
17E4C
340
17E4E
340
17E4B
  0
GROUP
  5
13780
102
{ACAD_REACTORS
330
D
102
}
330
D
100
AcDbGroup
300

 70
     1
 71
     1
  0
GROUP
  5
DCB9
102
{ACAD_REACTORS
330
D
102
}
330
D
100
AcDbGroup
300

 70
     1
 71
     1
  0
GROUP
  5
173D5
102
{ACAD_REACTORS
330
D
102
}
330
D
100
AcDbGroup
300

 70
     1
 71
     1
  0
GROUP
  5
1747F
102
{ACAD_REACTORS
330
D
102
}
330
D
100
AcDbGroup
300

 70
     1
 71
     1
  0
GROUP
  5
10DCF
102
{ACAD_REACTORS
330
D
102
}
330
D
100
AcDbGroup
300

 70
     1
 71
     1
  0
GROUP
  5
17480
102
{ACAD_REACTORS
330
D
102
}
330
D
100
AcDbGroup
300

 70
     1
 71
     1
  0
GROUP
  5
49E4
102
{ACAD_REACTORS
330
D
102
}
330
D
100
AcDbGroup
300

 70
     1
 71
     1
  0
GROUP
  5
4AB1
102
{ACAD_REACTORS
330
D
102
}
330
D
100
AcDbGroup
300

 70
     1
 71
     1
  0
GROUP
  5
1835B
102
{ACAD_REACTORS
330
D
102
}
330
D
100
AcDbGroup
300

 70
     1
 71
     1
  0
GROUP
  5
1835C
102
{ACAD_REACTORS
330
D
102
}
330
D
100
AcDbGroup
300

 70
     1
 71
     1
  0
GROUP
  5
114F
102
{ACAD_REACTORS
330
D
102
}
330
D
100
AcDbGroup
300

 70
     1
 71
     1
  0
GROUP
  5
6F78
102
{ACAD_REACTORS
330
D
102
}
330
D
100
AcDbGroup
300

 70
     1
 71
     1
  0
GROUP
  5
9655
102
{ACAD_REACTORS
330
D
102
}
330
D
100
AcDbGroup
300

 70
     1
 71
     1
  0
GROUP
  5
5E5F
102
{ACAD_REACTORS
330
D
102
}
330
D
100
AcDbGroup
300

 70
     1
 71
     1
  0
GROUP
  5
1836B
102
{ACAD_REACTORS
330
D
102
}
330
D
100
AcDbGroup
300

 70
     1
 71
     1
  0
GROUP
  5
1836C
102
{ACAD_REACTORS
330
D
102
}
330
D
100
AcDbGroup
300

 70
     1
 71
     1
  0
GROUP
  5
49C7
102
{ACAD_REACTORS
330
D
102
}
330
D
100
AcDbGroup
300

 70
     1
 71
     1
  0
GROUP
  5
10A4
102
{ACAD_REACTORS
330
D
102
}
330
D
100
AcDbGroup
300

 70
     1
 71
     1
  0
GROUP
  5
18392
102
{ACAD_REACTORS
330
D
102
}
330
D
100
AcDbGroup
300

 70
     1
 71
     1
  0
GROUP
  5
18393
102
{ACAD_REACTORS
330
D
102
}
330
D
100
AcDbGroup
300

 70
     1
 71
     1
  0
GROUP
  5
5DEC
102
{ACAD_REACTORS
330
D
102
}
330
D
100
AcDbGroup
300

 70
     1
 71
     1
  0
GROUP
  5
17C3E
102
{ACAD_REACTORS
330
D
102
}
330
D
100
AcDbGroup
300

 70
     1
 71
     1
  0
GROUP
  5
17FD0
102
{ACAD_REACTORS
330
D
102
}
330
D
100
AcDbGroup
300

 70
     1
 71
     1
340
17E4F
340
17E58
340
17E57
340
17E56
340
17E55
340
17E54
340
17E53
  0
GROUP
  5
A3C9
102
{ACAD_REACTORS
330
D
102
}
330
D
100
AcDbGroup
300

 70
     1
 71
     1
  0
GROUP
  5
5E65
102
{ACAD_REACTORS
330
D
102
}
330
D
100
AcDbGroup
300

 70
     1
 71
     1
  0
GROUP
  5
822C
102
{ACAD_REACTORS
330
D
102
}
330
D
100
AcDbGroup
300

 70
     1
 71
     1
  0
GROUP
  5
17FD1
102
{ACAD_REACTORS
330
D
102
}
330
D
100
AcDbGroup
300

 70
     1
 71
     1
340
17E08
340
17E6F
340
17E6E
340
17E6D
340
17E6C
340
17E6B
340
17E6A
  0
GROUP
  5
141E5
102
{ACAD_REACTORS
330
D
102
}
330
D
100
AcDbGroup
300

 70
     1
 71
     1
  0
GROUP
  5
17FD2
102
{ACAD_REACTORS
330
D
102
}
330
D
100
AcDbGroup
300

 70
     1
 71
     1
340
17E07
340
17E64
340
17E67
340
17E63
340
17E66
340
17E68
340
17E65
  0
GROUP
  5
137BF
102
{ACAD_REACTORS
330
D
102
}
330
D
100
AcDbGroup
300

 70
     1
 71
     1
  0
GROUP
  5
173A5
102
{ACAD_REACTORS
330
D
102
}
330
D
100
AcDbGroup
300

 70
     1
 71
     1
  0
GROUP
  5
7555
102
{ACAD_REACTORS
330
D
102
}
330
D
100
AcDbGroup
300

 70
     1
 71
     1
  0
GROUP
  5
4A97
102
{ACAD_REACTORS
330
D
102
}
330
D
100
AcDbGroup
300

 70
     1
 71
     1
  0
GROUP
  5
DC69
102
{ACAD_REACTORS
330
D
102
}
330
D
100
AcDbGroup
300

 70
     1
 71
     1
  0
GROUP
  5
5DC8
102
{ACAD_REACTORS
330
D
102
}
330
D
100
AcDbGroup
300

 70
     1
 71
     1
  0
GROUP
  5
17FD3
102
{ACAD_REACTORS
330
D
102
}
330
D
100
AcDbGroup
300

 70
     1
 71
     1
340
17E19
340
17E18
340
17E17
340
17E29
340
17E2F
340
17E31
340
17E3E
340
17E42
340
17E45
  0
GROUP
  5
17FD4
102
{ACAD_REACTORS
330
D
102
}
330
D
100
AcDbGroup
300

 70
     1
 71
     1
340
17E17
340
17E18
340
17E19
340
17E29
340
17D9D
340
17D9B
340
17E2F
340
17E31
340
17E3E
340
17E42
340
17E45
  0
GROUP
  5
17FD5
102
{ACAD_REACTORS
330
D
102
}
330
D
100
AcDbGroup
300

 70
     1
 71
     1
340
17D9B
340
17D9D
  0
GROUP
  5
65A8
102
{ACAD_REACTORS
330
D
102
}
330
D
100
AcDbGroup
300

 70
     1
 71
     1
  0
GROUP
  5
1248D
102
{ACAD_REACTORS
330
D
102
}
330
D
100
AcDbGroup
300

 70
     1
 71
     1
  0
GROUP
  5
17FD6
102
{ACAD_REACTORS
330
D
102
}
330
D
100
AcDbGroup
300

 70
     1
 71
     1
  0
GROUP
  5
17FE2
102
{ACAD_REACTORS
330
D
102
}
330
D
100
AcDbGroup
300

 70
     1
 71
     1
340
17FE1
340
17FE0
340
17FDE
340
17FDD
340
17FDB
340
17FDC
340
17FD9
340
17FDA
  0
GROUP
  5
821C
102
{ACAD_REACTORS
330
D
102
}
330
D
100
AcDbGroup
300

 70
     1
 71
     1
  0
GROUP
  5
17FF1
102
{ACAD_REACTORS
330
D
102
}
330
D
100
AcDbGroup
300

 70
     1
 71
     1
340
17E52
340
17FE1
340
17FE0
340
17FDE
340
17FDD
340
17FDB
340
17FF0
340
17FD9
340
17FDA
340
17FEF
340
17FDC
  0
GROUP
  5
8813
102
{ACAD_REACTORS
330
D
102
}
330
D
100
AcDbGroup
300

 70
     1
 71
     1
  0
GROUP
  5
31CE
102
{ACAD_REACTORS
330
D
102
}
330
D
100
AcDbGroup
300

 70
     1
 71
     1
  0
GROUP
  5
E31D
102
{ACAD_REACTORS
330
D
102
}
330
D
100
AcDbGroup
300

 70
     1
 71
     1
  0
GROUP
  5
A3B9
102
{ACAD_REACTORS
330
D
102
}
330
D
100
AcDbGroup
300

 70
     1
 71
     1
  0
GROUP
  5
8218
102
{ACAD_REACTORS
330
D
102
}
330
D
100
AcDbGroup
300

 70
     1
 71
     1
  0
GROUP
  5
E31A
102
{ACAD_REACTORS
330
D
102
}
330
D
100
AcDbGroup
300

 70
     1
 71
     1
  0
GROUP
  5
10E3
102
{ACAD_REACTORS
330
D
102
}
330
D
100
AcDbGroup
300

 70
     1
 71
     1
  0
GROUP
  5
4AA4
102
{ACAD_REACTORS
330
D
102
}
330
D
100
AcDbGroup
300

 70
     1
 71
     1
  0
GROUP
  5
17FFD
102
{ACAD_REACTORS
330
D
102
}
330
D
100
AcDbGroup
300

 70
     1
 71
     1
340
17FFA
340
17FF3
340
17FF4
340
17FF5
340
17FF6
340
17FF7
340
17FFB
340
17FF9
340
17FF2
340
17FFC
340
17FF8
  0
GROUP
  5
17FFE
102
{ACAD_REACTORS
330
D
102
}
330
D
100
AcDbGroup
300

 70
     1
 71
     1
340
17FF3
340
17FF4
340
17FF5
340
17FF6
340
17FF7
340
17FF8
340
17FF9
340
17FF2
  0
GROUP
  5
8227
102
{ACAD_REACTORS
330
D
102
}
330
D
100
AcDbGroup
300

 70
     1
 71
     1
  0
GROUP
  5
18023
102
{ACAD_REACTORS
330
D
102
}
330
D
100
AcDbGroup
300

 70
     1
 71
     1
340
18019
340
1801A
340
1801B
340
18018
340
1801C
340
1801D
340
1801E
340
1801F
340
18020
340
18021
340
18022
  0
GROUP
  5
57BE
102
{ACAD_REACTORS
330
D
102
}
330
D
100
AcDbGroup
300

 70
     1
 71
     1
  0
GROUP
  5
18024
102
{ACAD_REACTORS
330
D
102
}
330
D
100
AcDbGroup
300

 70
     1
 71
     1
340
1801A
340
1801B
340
18018
340
1801C
340
1801D
340
18022
340
1801F
340
18020
  0
GROUP
  5
18129
102
{ACAD_REACTORS
330
D
102
}
330
D
100
AcDbGroup
300

 70
     1
 71
     1
  0
GROUP
  5
1815B
102
{ACAD_REACTORS
330
D
102
}
330
D
100
AcDbGroup
300

 70
     1
 71
     1
  0
GROUP
  5
4983
102
{ACAD_REACTORS
330
D
102
}
330
D
100
AcDbGroup
300

 70
     1
 71
     1
  0
GROUP
  5
4214
102
{ACAD_REACTORS
330
D
102
}
330
D
100
AcDbGroup
300

 70
     1
 71
     1
  0
GROUP
  5
13792
102
{ACAD_REACTORS
330
D
102
}
330
D
100
AcDbGroup
300

 70
     1
 71
     1
  0
GROUP
  5
8212
102
{ACAD_REACTORS
330
D
102
}
330
D
100
AcDbGroup
300

 70
     1
 71
     1
  0
GROUP
  5
8221
102
{ACAD_REACTORS
330
D
102
}
330
D
100
AcDbGroup
300

 70
     1
 71
     1
  0
GROUP
  5
BA00
102
{ACAD_REACTORS
330
D
102
}
330
D
100
AcDbGroup
300

 70
     1
 71
     1
  0
GROUP
  5
5128
102
{ACAD_REACTORS
330
D
102
}
330
D
100
AcDbGroup
300

 70
     1
 71
     1
  0
GROUP
  5
1069F
102
{ACAD_REACTORS
330
D
102
}
330
D
100
AcDbGroup
300

 70
     1
 71
     1
  0
GROUP
  5
83DB
102
{ACAD_REACTORS
330
D
102
}
330
D
100
AcDbGroup
300

 70
     1
 71
     1
  0
GROUP
  5
499B
102
{ACAD_REACTORS
330
D
102
}
330
D
100
AcDbGroup
300

 70
     1
 71
     1
  0
GROUP
  5
8217
102
{ACAD_REACTORS
330
D
102
}
330
D
100
AcDbGroup
300

 70
     1
 71
     1
  0
GROUP
  5
6221
102
{ACAD_REACTORS
330
D
102
}
330
D
100
AcDbGroup
300

 70
     1
 71
     1
  0
GROUP
  5
83B2
102
{ACAD_REACTORS
330
D
102
}
330
D
100
AcDbGroup
300

 70
     1
 71
     1
  0
GROUP
  5
8823
102
{ACAD_REACTORS
330
D
102
}
330
D
100
AcDbGroup
300

 70
     1
 71
     1
  0
GROUP
  5
5133
102
{ACAD_REACTORS
330
D
102
}
330
D
100
AcDbGroup
300

 70
     1
 71
     1
  0
GROUP
  5
49C1
102
{ACAD_REACTORS
330
D
102
}
330
D
100
AcDbGroup
300

 70
     1
 71
     1
  0
GROUP
  5
3522
102
{ACAD_REACTORS
330
D
102
}
330
D
100
AcDbGroup
300

 70
     1
 71
     1
  0
GROUP
  5
1146
102
{ACAD_REACTORS
330
D
102
}
330
D
100
AcDbGroup
300

 70
     1
 71
     1
  0
GROUP
  5
1110
102
{ACAD_REACTORS
330
D
102
}
330
D
100
AcDbGroup
300

 70
     1
 71
     1
  0
GROUP
  5
E1F7
102
{ACAD_REACTORS
330
D
102
}
330
D
100
AcDbGroup
300

 70
     1
 71
     1
  0
GROUP
  5
A99C
102
{ACAD_REACTORS
330
D
102
}
330
D
100
AcDbGroup
300

 70
     1
 71
     1
  0
GROUP
  5
5E62
102
{ACAD_REACTORS
330
D
102
}
330
D
100
AcDbGroup
300

 70
     1
 71
     1
  0
GROUP
  5
83B1
102
{ACAD_REACTORS
330
D
102
}
330
D
100
AcDbGroup
300

 70
     1
 71
     1
  0
GROUP
  5
8051
102
{ACAD_REACTORS
330
D
102
}
330
D
100
AcDbGroup
300

 70
     1
 71
     1
  0
GROUP
  5
E1F8
102
{ACAD_REACTORS
330
D
102
}
330
D
100
AcDbGroup
300

 70
     1
 71
     1
  0
GROUP
  5
4986
102
{ACAD_REACTORS
330
D
102
}
330
D
100
AcDbGroup
300

 70
     1
 71
     1
  0
GROUP
  5
5DD4
102
{ACAD_REACTORS
330
D
102
}
330
D
100
AcDbGroup
300

 70
     1
 71
     1
  0
GROUP
  5
A38B
102
{ACAD_REACTORS
330
D
102
}
330
D
100
AcDbGroup
300

 70
     1
 71
     1
  0
GROUP
  5
881E
102
{ACAD_REACTORS
330
D
102
}
330
D
100
AcDbGroup
300

 70
     1
 71
     1
  0
MLINESTYLE
  5
1C
102
{ACAD_REACTORS
330
1B
102
}
330
1B
100
AcDbMlineStyle
  2
STANDARD
 70
     0
  3

 62
   256
 51
90.0
 52
90.0
 71
     2
 49
0.5
 62
   256
  6
BYLAYER
 49
-0.5
 62
   256
  6
BYLAYER
  0
ACDBPLACEHOLDER
  5
73E
102
{ACAD_REACTORS
330
73D
102
}
330
73D
100
AcDbPlaceHolder
280
     0
  0
XRECORD
  5
18418
102
{ACAD_REACTORS
330
1840E
102
}
330
1840E
100
AcDbXrecord
 90
        0
  0
XRECORD
  5
1841C
102
{ACAD_REACTORS
330
1840E
102
}
330
1840E
100
AcDbXrecord
1000
DSTYLE
1002
{
1070
    79
 70
     2
1070
   179
 70
     7
1070
   289
 70
     0
1070
   341
340
FFCB
1070
   343
340
FFCB
1070
   344
340
FFCB
1070
   371
 70
    15
1070
   372
 70
    15
1002
}
  0
XRECORD
  5
18419
102
{ACAD_REACTORS
330
1840E
102
}
330
1840E
100
AcDbXrecord
  1
{6B368F64-F7EB-11D4-BFBA-00004C030E53}
  0
XRECORD
  5
18411
102
{ACAD_REACTORS
330
1840E
102
}
330
1840E
100
AcDbXrecord
  1

  0
XRECORD
  5
18417
102
{ACAD_REACTORS
330
1840E
102
}
330
1840E
100
AcDbXrecord
 90
        0
  0
XRECORD
  5
18413
102
{ACAD_REACTORS
330
1840E
102
}
330
1840E
100
AcDbXrecord
340
73F
  0
XRECORD
  5
18416
102
{ACAD_REACTORS
330
1840E
102
}
330
1840E
100
AcDbXrecord
 90
    10781
  0
XRECORD
  5
18414
102
{ACAD_REACTORS
330
1840E
102
}
330
1840E
100
AcDbXrecord
340
740
  0
XRECORD
  5
18415
102
{ACAD_REACTORS
330
1840E
102
}
330
1840E
100
AcDbXrecord
340
73D
  0
XRECORD
  5
1841B
102
{ACAD_REACTORS
330
1840E
102
}
330
1840E
100
AcDbXrecord
 40
0.0
  0
XRECORD
  5
1841F
102
{ACAD_REACTORS
330
1840E
102
}
330
1840E
100
AcDbXrecord
340
0
  0
XRECORD
  5
18425
102
{ACAD_REACTORS
330
1840E
102
}
330
1840E
100
AcDbXrecord
 10
0.0
 20
0.0
 30
0.0
  0
XRECORD
  5
18421
102
{ACAD_REACTORS
330
1840E
102
}
330
1840E
100
AcDbXrecord
 10
0.0
 20
0.0
 30
0.0
  0
XRECORD
  5
18424
102
{ACAD_REACTORS
330
1840E
102
}
330
1840E
100
AcDbXrecord
 10
0.0
 20
0.0
 30
0.0
  0
XRECORD
  5
18422
102
{ACAD_REACTORS
330
1840E
102
}
330
1840E
100
AcDbXrecord
 10
0.0
 20
0.0
 30
0.0
  0
XRECORD
  5
18423
102
{ACAD_REACTORS
330
1840E
102
}
330
1840E
100
AcDbXrecord
 10
0.0
 20
0.0
 30
0.0
  0
XRECORD
  5
18420
102
{ACAD_REACTORS
330
1840E
102
}
330
1840E
100
AcDbXrecord
 10
0.0
 20
0.0
 30
0.0
  0
XRECORD
  5
1841D
102
{ACAD_REACTORS
330
1840E
102
}
330
1840E
100
AcDbXrecord
340
0
  0
XRECORD
  5
1841E
102
{ACAD_REACTORS
330
1840E
102
}
330
1840E
100
AcDbXrecord
 70
     0
  0
XRECORD
  5
18412
102
{ACAD_REACTORS
330
1840E
102
}
330
1840E
100
AcDbXrecord
  1
MONOCHROME.CTB
  0
XRECORD
  5
1840F
102
{ACAD_REACTORS
330
1840E
102
}
330
1840E
100
AcDbXrecord
 90
        1
  0
XRECORD
  5
18410
102
{ACAD_REACTORS
330
1840E
102
}
330
1840E
100
AcDbXrecord
 90
       70
  0
XRECORD
  5
18428
102
{ACAD_REACTORS
330
1840E
102
}
330
1840E
100
AcDbXrecord
340
0
  0
XRECORD
  5
1842E
102
{ACAD_REACTORS
330
1840E
102
}
330
1840E
100
AcDbXrecord
 10
0.0
 20
0.0
 30
0.0
  0
XRECORD
  5
1842A
102
{ACAD_REACTORS
330
1840E
102
}
330
1840E
100
AcDbXrecord
 10
0.0
 20
0.0
 30
0.0
  0
XRECORD
  5
1842D
102
{ACAD_REACTORS
330
1840E
102
}
330
1840E
100
AcDbXrecord
 10
0.0
 20
0.0
 30
0.0
  0
XRECORD
  5
1842B
102
{ACAD_REACTORS
330
1840E
102
}
330
1840E
100
AcDbXrecord
 10
0.0
 20
0.0
 30
0.0
  0
XRECORD
  5
1842C
102
{ACAD_REACTORS
330
1840E
102
}
330
1840E
100
AcDbXrecord
 10
0.0
 20
0.0
 30
0.0
  0
XRECORD
  5
18429
102
{ACAD_REACTORS
330
1840E
102
}
330
1840E
100
AcDbXrecord
 10
0.0
 20
0.0
 30
0.0
  0
XRECORD
  5
18426
102
{ACAD_REACTORS
330
1840E
102
}
330
1840E
100
AcDbXrecord
340
0
  0
XRECORD
  5
18427
102
{ACAD_REACTORS
330
1840E
102
}
330
1840E
100
AcDbXrecord
 70
     0
  0
XRECORD
  5
1841A
102
{ACAD_REACTORS
330
1840E
102
}
330
1840E
100
AcDbXrecord
  1
{DC833F1A-6E58-4017-A505-985C85EAA361}
  0
DICTIONARYVAR
  5
11AD
102
{ACAD_REACTORS
330
11AC
102
}
330
11AC
100
DictionaryVariables
280
     0
  1
1
  0
DICTIONARYVAR
  5
B4C6
102
{ACAD_REACTORS
330
11AC
102
}
330
11AC
100
DictionaryVariables
280
     0
  1
96
  0
XRECORD
  5
16FA7
102
{ACAD_REACTORS
330
16FA6
102
}
330
16FA6
100
AcDbXrecord
  1
0
  1
*0
  1
*
  1
*
 70
     0
  1
*
  1
*
  0
XRECORD
  5
16FA8
102
{ACAD_REACTORS
330
16FA6
102
}
330
16FA6
100
AcDbXrecord
  1
11
  1
*11
  1
*
  1
*
 70
     0
  1
*
  1
*
  0
XRECORD
  5
16FA9
102
{ACAD_REACTORS
330
16FA6
102
}
330
16FA6
100
AcDbXrecord
  1
150_
  1
150_*
  1
*
  1
*
 70
     0
  1
*
  1
*
  0
XRECORD
  5
16FAA
102
{ACAD_REACTORS
330
16FA6
102
}
330
16FA6
100
AcDbXrecord
  1
160_
  1
160_*
  1
*
  1
*
 70
     0
  1
*
  1
*
  0
XRECORD
  5
16FAB
102
{ACAD_REACTORS
330
16FA6
102
}
330
16FA6
100
AcDbXrecord
  1
170_
  1
170_*
  1
*
  1
*
 70
     0
  1
*
  1
*
  0
XRECORD
  5
16FAC
102
{ACAD_REACTORS
330
16FA6
102
}
330
16FA6
100
AcDbXrecord
  1
171_
  1
171_*
  1
*
  1
*
 70
     0
  1
*
  1
*
  0
XRECORD
  5
16FAD
102
{ACAD_REACTORS
330
16FA6
102
}
330
16FA6
100
AcDbXrecord
  1
350_
  1
350_*
  1
*
  1
*
 70
     0
  1
*
  1
*
  0
XRECORD
  5
16FAE
102
{ACAD_REACTORS
330
16FA6
102
}
330
16FA6
100
AcDbXrecord
  1
4
  1
*4
  1
*
  1
*
 70
     0
  1
*
  1
*
  0
XRECORD
  5
16FAF
102
{ACAD_REACTORS
330
16FA6
102
}
330
16FA6
100
AcDbXrecord
  1
5
  1
*5
  1
*
  1
*
 70
     0
  1
*
  1
*
  0
XRECORD
  5
16FB0
102
{ACAD_REACTORS
330
16FA6
102
}
330
16FA6
100
AcDbXrecord
  1
7
  1
*7
  1
*
  1
*
 70
     0
  1
*
  1
*
  0
XRECORD
  5
16FB1
102
{ACAD_REACTORS
330
16FA6
102
}
330
16FA6
100
AcDbXrecord
  1
kiseki
  1
kiseki*
  1
*
  1
*
 70
     0
  1
*
  1
*
  0
ENDSEC
  0
EOF
