  0
SECTION
  2
HEADER
  9
$ACADVER
  1
AC1014
  9
$ACADMAINTVER
 70
     9
  9
$DWGCODEPAGE
  3
ANSI_932
  9
$INSBASE
 10
0.0
 20
0.0
 30
0.0
  9
$EXTMIN
 10
628.2550339877584
 20
-3027.605209704529
 30
0.0
  9
$EXTMAX
 10
1022.349461721918
 20
-2896.605209704529
 30
0.0
  9
$LIMMIN
 10
0.0
 20
0.0
  9
$LIMMAX
 10
420.0
 20
297.0
  9
$ORTHOMODE
 70
     1
  9
$REGENMODE
 70
     1
  9
$FILLMODE
 70
     1
  9
$QTEXTMODE
 70
     0
  9
$MIRRTEXT
 70
     0
  9
$DRAGMODE
 70
     2
  9
$LTSCALE
 40
20.0
  9
$OSMODE
 70
   959
  9
$ATTMODE
 70
     2
  9
$TEXTSIZE
 40
10.0
  9
$TRACEWID
 40
1.0
  9
$TEXTSTYLE
  7
ｽﾀｲﾙ3
  9
$CLAYER
  8
A
  9
$CELTYPE
  6
BYLAYER
  9
$CECOLOR
 62
   256
  9
$CELTSCALE
 40
1.0
  9
$DELOBJ
 70
     1
  9
$DISPSILH
 70
     0
  9
$DIMSCALE
 40
1.5
  9
$DIMASZ
 40
2.5
  9
$DIMEXO
 40
0.8
  9
$DIMDLI
 40
0.38
  9
$DIMRND
 40
0.0
  9
$DIMDLE
 40
0.0
  9
$DIMEXE
 40
0.18
  9
$DIMTP
 40
0.0
  9
$DIMTM
 40
0.0
  9
$DIMTXT
 40
3.0
  9
$DIMCEN
 40
0.0
  9
$DIMTSZ
 40
0.0
  9
$DIMTOL
 70
     0
  9
$DIMLIM
 70
     0
  9
$DIMTIH
 70
     0
  9
$DIMTOH
 70
     0
  9
$DIMSE1
 70
     0
  9
$DIMSE2
 70
     0
  9
$DIMTAD
 70
     3
  9
$DIMZIN
 70
     8
  9
$DIMBLK
  1
OPEN30
  9
$DIMASO
 70
     1
  9
$DIMSHO
 70
     1
  9
$DIMPOST
  1

  9
$DIMAPOST
  1

  9
$DIMALT
 70
     0
  9
$DIMALTD
 70
     2
  9
$DIMALTF
 40
25.4
  9
$DIMLFAC
 40
1.0
  9
$DIMTOFL
 70
     0
  9
$DIMTVP
 40
0.0
  9
$DIMTIX
 70
     0
  9
$DIMSOXD
 70
     0
  9
$DIMSAH
 70
     0
  9
$DIMBLK1
  1

  9
$DIMBLK2
  1

  9
$DIMSTYLE
  2
まこ
  9
$DIMCLRD
 70
     4
  9
$DIMCLRE
 70
     4
  9
$DIMCLRT
 70
   256
  9
$DIMTFAC
 40
1.0
  9
$DIMGAP
 40
0.5
  9
$DIMJUST
 70
     0
  9
$DIMSD1
 70
     0
  9
$DIMSD2
 70
     0
  9
$DIMTOLJ
 70
     1
  9
$DIMTZIN
 70
     0
  9
$DIMALTZ
 70
     0
  9
$DIMALTTZ
 70
     0
  9
$DIMFIT
 70
     1
  9
$DIMUPT
 70
     0
  9
$DIMUNIT
 70
     2
  9
$DIMDEC
 70
     8
  9
$DIMTDEC
 70
     8
  9
$DIMALTU
 70
     2
  9
$DIMALTTD
 70
     2
  9
$DIMTXSTY
  7
まこ
  9
$DIMAUNIT
 70
     0
  9
$LUNITS
 70
     2
  9
$LUPREC
 70
     4
  9
$SKETCHINC
 40
1.0
  9
$FILLETRAD
 40
2.0
  9
$AUNITS
 70
     0
  9
$AUPREC
 70
     0
  9
$MENU
  1
.
  9
$ELEVATION
 40
0.0
  9
$PELEVATION
 40
0.0
  9
$THICKNESS
 40
0.0
  9
$LIMCHECK
 70
     0
  9
$BLIPMODE
 70
     0
  9
$CHAMFERA
 40
1.0
  9
$CHAMFERB
 40
1.0
  9
$CHAMFERC
 40
20.0
  9
$CHAMFERD
 40
0.0
  9
$SKPOLY
 70
     0
  9
$TDCREATE
 40
2451224.660162384
  9
$TDUPDATE
 40
2455601.652884653
  9
$TDINDWG
 40
17.5412187616
  9
$TDUSRTIMER
 40
17.5412187616
  9
$USRTIMER
 70
     1
  9
$ANGBASE
 50
0.0
  9
$ANGDIR
 70
     0
  9
$PDMODE
 70
     0
  9
$PDSIZE
 40
0.0
  9
$PLINEWID
 40
0.0
  9
$COORDS
 70
     1
  9
$SPLFRAME
 70
     0
  9
$SPLINETYPE
 70
     6
  9
$SPLINESEGS
 70
     8
  9
$ATTDIA
 70
     0
  9
$ATTREQ
 70
     1
  9
$HANDLING
 70
-16383
  9
$HANDSEED
  5
2BB95
  9
$SURFTAB1
 70
     6
  9
$SURFTAB2
 70
     6
  9
$SURFTYPE
 70
     6
  9
$SURFU
 70
     6
  9
$SURFV
 70
     6
  9
$UCSNAME
  2

  9
$UCSORG
 10
0.0
 20
0.0
 30
0.0
  9
$UCSXDIR
 10
1.0
 20
0.0
 30
0.0
  9
$UCSYDIR
 10
0.0
 20
1.0
 30
0.0
  9
$PUCSNAME
  2

  9
$PUCSORG
 10
0.0
 20
0.0
 30
0.0
  9
$PUCSXDIR
 10
1.0
 20
0.0
 30
0.0
  9
$PUCSYDIR
 10
0.0
 20
1.0
 30
0.0
  9
$USERI1
 70
     0
  9
$USERI2
 70
     0
  9
$USERI3
 70
     0
  9
$USERI4
 70
     0
  9
$USERI5
 70
     0
  9
$USERR1
 40
245.9999999999999
  9
$USERR2
 40
0.0
  9
$USERR3
 40
0.0
  9
$USERR4
 40
0.0
  9
$USERR5
 40
0.0
  9
$WORLDVIEW
 70
     1
  9
$SHADEDGE
 70
     3
  9
$SHADEDIF
 70
    70
  9
$TILEMODE
 70
     0
  9
$MAXACTVP
 70
    48
  9
$PINSBASE
 10
0.0
 20
0.0
 30
0.0
  9
$PLIMCHECK
 70
     0
  9
$PEXTMIN
 10
-0.0183230874209812
 20
-0.0046434767826895
 30
-0.0015258207003583
  9
$PEXTMAX
 10
400.0254648642733
 20
288.013933998193
 30
0.0000000349246037
  9
$PLIMMIN
 10
-7.791079397212115
 20
-6.021455106387161
  9
$PLIMMAX
 10
412.1555758762253
 20
290.9045397666596
  9
$UNITMODE
 70
     0
  9
$VISRETAIN
 70
     1
  9
$PLINEGEN
 70
     0
  9
$PSLTSCALE
 70
     0
  9
$TREEDEPTH
 70
  3020
  9
$PICKSTYLE
 70
     0
  9
$CMLSTYLE
  2
STANDARD
  9
$CMLJUST
 70
     0
  9
$CMLSCALE
 40
20.0
  9
$PROXYGRAPHICS
 70
     1
  9
$MEASUREMENT
 70
     0
  0
ENDSEC
  0
SECTION
  2
CLASSES
  0
CLASS
  1
HATCH
  2
AcDbHatch
  3
AutoCAD 2000
 90
        0
280
     0
281
     1
  0
CLASS
  1
LWPOLYLINE
  2
AcDbPolyline
  3
AutoCAD 2000
 90
        0
280
     0
281
     1
  0
CLASS
  1
ACDBDICTIONARYWDFLT
  2
AcDbDictionaryWithDefault
  3
AutoCAD 2000
 90
        0
280
     0
281
     0
  0
CLASS
  1
ACDBPLACEHOLDER
  2
AcDbPlaceHolder
  3
AutoCAD 2000
 90
        0
280
     0
281
     0
  0
CLASS
  1
LAYOUT
  2
AcDbLayout
  3
AutoCAD 2000
 90
        0
280
     0
281
     0
  0
CLASS
  1
LONG_TRANSACTION
  2
AcDbLongTransaction
  3
AutoCAD 2000
 90
        0
280
     0
281
     0
  0
CLASS
  1
LWPOLYLINE
  2
AcDbPolyline
  3
AutoCAD 2000
 90
        0
280
     0
281
     1
  0
CLASS
  1
HATCH
  2
AcDbHatch
  3
AutoCAD 2000
 90
        0
280
     0
281
     1
  0
CLASS
  1
XRECORD
  2
AcDbXrecord
  3
AutoCAD 2000
 90
        0
280
     0
281
     0
  0
CLASS
  1
DICTIONARYVAR
  2
AcDbDictionaryVar
  3
AutoCAD 2000
 90
        0
280
     0
281
     0
  0
CLASS
  1
LONG_TRANSACTION
  2
AcDbLongTransaction
  3
AutoCAD 2000
 90
        0
280
     0
281
     0
  0
CLASS
  1
LWPOLYLINE
  2
AcDbPolyline
  3
AutoCAD 2000
 90
        0
280
     0
281
     1
  0
CLASS
  1
HATCH
  2
AcDbHatch
  3
AutoCAD 2000
 90
        0
280
     0
281
     1
  0
CLASS
  1
XRECORD
  2
AcDbXrecord
  3
AutoCAD 2000
 90
        0
280
     0
281
     0
  0
ENDSEC
  0
SECTION
  2
TABLES
  0
TABLE
  2
VPORT
  5
8
330
0
100
AcDbSymbolTable
 70
     2
  0
VPORT
  5
2BB70
330
8
100
AcDbSymbolTableRecord
100
AcDbViewportTableRecord
  2
*ACTIVE
 70
     0
 10
0.0
 20
0.0
 11
1.0
 21
1.0
 12
825.3009145573637
 22
-2962.053180576249
 13
0.0
 23
0.0
 14
10.0
 24
10.0
 15
10.0
 25
10.0
 16
0.0
 26
0.0
 36
1.0
 17
0.0
 27
0.0
 37
0.0
 40
180.9933108521597
 41
2.184834123222748
 42
50.0
 43
0.0
 44
0.0
 50
0.0
 51
0.0
 71
     0
 72
   100
 73
     1
 74
     0
 75
     0
 76
     0
 77
     0
 78
     0
  0
ENDTAB
  0
TABLE
  2
LTYPE
  5
5
330
0
100
AcDbSymbolTable
 70
     6
  0
LTYPE
  5
12
330
5
100
AcDbSymbolTableRecord
100
AcDbLinetypeTableRecord
  2
BYBLOCK
 70
     0
  3

 72
    65
 73
     0
 40
0.0
  0
LTYPE
  5
13
330
5
100
AcDbSymbolTableRecord
100
AcDbLinetypeTableRecord
  2
BYLAYER
 70
     0
  3

 72
    65
 73
     0
 40
0.0
  0
LTYPE
  5
14
330
5
100
AcDbSymbolTableRecord
100
AcDbLinetypeTableRecord
  2
CONTINUOUS
 70
     0
  3
Solid line
 72
    65
 73
     0
 40
0.0
  0
LTYPE
  5
126C
330
5
100
AcDbSymbolTableRecord
100
AcDbLinetypeTableRecord
  2
CENTER
 70
     0
  3
____ _ ____ _ ____ _ ____ _ ____ _ ____ _ ____
 72
    65
 73
     4
 40
2.0
 49
1.25
 74
     0
 49
-0.25
 74
     0
 49
0.25
 74
     0
 49
-0.25
 74
     0
  0
LTYPE
  5
126E
330
5
100
AcDbSymbolTableRecord
100
AcDbLinetypeTableRecord
  2
DASHDOT
 70
     0
  3
__ . __ . __ . __ . __ . __ . __ . __ . __ . __
 72
    65
 73
     4
 40
1.0
 49
0.5
 74
     0
 49
-0.25
 74
     0
 49
0.0
 74
     0
 49
-0.25
 74
     0
  0
LTYPE
  5
1541F
330
5
100
AcDbSymbolTableRecord
100
AcDbLinetypeTableRecord
  2
HIDDEN
 70
     0
  3
_ _ _ _ _ _ _ _ _ _ _ _ _ _ _ _ _ _ _ _ _ _ _
 72
    65
 73
     2
 40
0.375
 49
0.25
 74
     0
 49
-0.125
 74
     0
  0
LTYPE
  5
15420
330
5
100
AcDbSymbolTableRecord
100
AcDbLinetypeTableRecord
  2
CENTER2
 70
     0
  3
Center (.5x) ___ _ ___ _ ___ _ ___ _ ___ _ ___
 72
    65
 73
     4
 40
1.125
 49
0.75
 74
     0
 49
-0.125
 74
     0
 49
0.125
 74
     0
 49
-0.125
 74
     0
  0
LTYPE
  5
15421
330
5
100
AcDbSymbolTableRecord
100
AcDbLinetypeTableRecord
  2
PHANTOM2
 70
     0
  3
Phantom (.5x) ___ _ _ ___ _ _ ___ _ _ ___ _ _
 72
    65
 73
     6
 40
1.25
 49
0.625
 74
     0
 49
-0.125
 74
     0
 49
0.125
 74
     0
 49
-0.125
 74
     0
 49
0.125
 74
     0
 49
-0.125
 74
     0
  0
ENDTAB
  0
TABLE
  2
LAYER
  5
2
102
{ACAD_XDICTIONARY
360
25084
102
}
330
0
100
AcDbSymbolTable
 70
    15
  0
LAYER
  5
E
330
2
100
AcDbSymbolTableRecord
100
AcDbLayerTableRecord
  2
0
 70
     2
 62
     7
  6
CONTINUOUS
  0
LAYER
  5
2C
330
2
100
AcDbSymbolTableRecord
100
AcDbLayerTableRecord
  2
M_VIEW
 70
     4
 62
    -1
  6
CONTINUOUS
  0
LAYER
  5
30
330
2
100
AcDbSymbolTableRecord
100
AcDbLayerTableRecord
  2
FRAME025
 70
     0
 62
     7
  6
CONTINUOUS
  0
LAYER
  5
12B
330
2
100
AcDbSymbolTableRecord
100
AcDbLayerTableRecord
  2
DEFPOINTS
 70
     4
 62
    -7
  6
CONTINUOUS
  0
LAYER
  5
651
330
2
100
AcDbSymbolTableRecord
100
AcDbLayerTableRecord
  2
FRAME020
 70
     0
 62
    -7
  6
CONTINUOUS
  0
LAYER
  5
1271
330
2
100
AcDbSymbolTableRecord
100
AcDbLayerTableRecord
  2
A
 70
     0
 62
     7
  6
CONTINUOUS
  0
LAYER
  5
A9BB
330
2
100
AcDbSymbolTableRecord
100
AcDbLayerTableRecord
  2
文字
 70
     0
 62
     7
  6
CONTINUOUS
  0
LAYER
  5
122DE
330
2
100
AcDbSymbolTableRecord
100
AcDbLayerTableRecord
  2
DIMENSION
 70
     0
 62
    -4
  6
CONTINUOUS
  0
LAYER
  5
15425
330
2
100
AcDbSymbolTableRecord
100
AcDbLayerTableRecord
  2
中心線
 70
     0
 62
     7
  6
CENTER2
  0
LAYER
  5
15426
330
2
100
AcDbSymbolTableRecord
100
AcDbLayerTableRecord
  2
仮想線
 70
     0
 62
     7
  6
PHANTOM2
  0
LAYER
  5
1A846
330
2
100
AcDbSymbolTableRecord
100
AcDbLayerTableRecord
  2
実線
 70
     0
 62
     7
  6
CONTINUOUS
  0
LAYER
  5
1BB55
330
2
100
AcDbSymbolTableRecord
100
AcDbLayerTableRecord
  2
ﾊｯﾁﾝｸ_
 70
     0
 62
     7
  6
CONTINUOUS
  0
LAYER
  5
25148
330
2
100
AcDbSymbolTableRecord
100
AcDbLayerTableRecord
  2
破線
 70
     0
 62
     7
  6
HIDDEN
  0
ENDTAB
  0
TABLE
  2
STYLE
  5
3
330
0
100
AcDbSymbolTable
 70
     9
  0
STYLE
  5
F
330
3
100
AcDbSymbolTableRecord
100
AcDbTextStyleTableRecord
  2
STANDARD
 70
     0
 40
0.0
 41
1.0
 50
0.0
 71
     0
 42
2.5
  3
isocp.shx
  4
bigfont.shx
  0
STYLE
  5
35
330
3
100
AcDbSymbolTableRecord
100
AcDbTextStyleTableRecord
  2
MSｺ_ｼｯｸ
 70
     0
 40
0.0
 41
1.0
 50
0.0
 71
     0
 42
5.0
  3
MS Gothic.ttf
  4

1001
ACAD
1000
MS Gothic
1071
    32817
  0
STYLE
  5
1275
330
3
100
AcDbSymbolTableRecord
100
AcDbTextStyleTableRecord
  2
BIGFONT
 70
     0
 40
2.0
 41
1.0
 50
0.0
 71
     0
 42
2.0
  3
txt.shx
  4
bigfont.shx
  0
STYLE
  5
1A849
330
3
100
AcDbSymbolTableRecord
100
AcDbTextStyleTableRecord
  2
まこ
 70
     0
 40
0.0
 41
1.0
 50
0.0
 71
     0
 42
2.5
  3
simplex.shx
  4
bigfont.shx
  0
STYLE
  5
1A84A
330
3
100
AcDbSymbolTableRecord
100
AcDbTextStyleTableRecord
  2
ｽﾀｲﾙ3
 70
     0
 40
10.0
 41
1.0
 50
0.0
 71
     0
 42
10.0
  3
isocp.shx
  4
extfont.shx
  0
ENDTAB
  0
TABLE
  2
VIEW
  5
6
330
0
100
AcDbSymbolTable
 70
     0
  0
ENDTAB
  0
TABLE
  2
UCS
  5
7
330
0
100
AcDbSymbolTable
 70
     0
  0
ENDTAB
  0
TABLE
  2
APPID
  5
9
330
0
100
AcDbSymbolTable
 70
     4
  0
APPID
  5
10
330
9
100
AcDbSymbolTableRecord
100
AcDbRegAppTableRecord
  2
ACAD
 70
     0
  0
APPID
  5
F013
330
9
100
AcDbSymbolTableRecord
100
AcDbRegAppTableRecord
  2
CONTENTBLOCKDESCRIPTION
 70
     0
  0
APPID
  5
F014
330
9
100
AcDbSymbolTableRecord
100
AcDbRegAppTableRecord
  2
CONTENTBLOCKICON
 70
     0
  0
APPID
  5
1A9A0
330
9
100
AcDbSymbolTableRecord
100
AcDbRegAppTableRecord
  2
DCO15
 70
     0
  0
ENDTAB
  0
TABLE
  2
DIMSTYLE
  5
A
330
0
100
AcDbSymbolTable
 70
     2
  0
DIMSTYLE
105
1D
330
A
100
AcDbSymbolTableRecord
100
AcDbDimStyleTableRecord
  2
STANDARD
 70
     0
  3

  4

  5

  6

  7

 40
1.0
 41
0.18
 42
0.0625
 43
0.38
 44
0.18
 45
0.0
 46
0.0
 47
0.0
 48
0.0
140
0.18
141
0.09
142
0.0
143
25.4
144
1.0
145
0.0
146
1.0
147
0.09
 71
     0
 72
     0
 73
     1
 74
     1
 75
     0
 76
     0
 77
     0
 78
     0
170
     0
171
     2
172
     0
173
     0
174
     0
175
     0
176
     0
177
     0
178
     0
270
     2
271
     4
272
     4
273
     2
274
     2
340
F
275
     0
280
     0
281
     0
282
     0
283
     1
284
     0
285
     0
286
     0
287
     3
288
     0
  0
DIMSTYLE
105
1A84D
330
A
100
AcDbSymbolTableRecord
100
AcDbDimStyleTableRecord
  2
まこ
 70
     0
  3

  4

  5
OPEN30
  6

  7

 40
1.5
 41
2.5
 42
0.8
 43
0.38
 44
0.18
 45
0.0
 46
0.0
 47
0.0
 48
0.0
140
3.0
141
0.0
142
0.0
143
25.4
144
1.0
145
0.0
146
1.0
147
0.5
 71
     0
 72
     0
 73
     0
 74
     0
 75
     0
 76
     0
 77
     3
 78
     8
170
     0
171
     2
172
     0
173
     0
174
     0
175
     0
176
     4
177
     4
178
   256
270
     2
271
     8
272
     8
273
     2
274
     2
340
1A849
275
     0
280
     0
281
     0
282
     0
283
     1
284
     0
285
     0
286
     0
287
     1
288
     0
  0
ENDTAB
  0
TABLE
  2
BLOCK_RECORD
  5
1
330
0
100
AcDbSymbolTable
 70
    17
  0
BLOCK_RECORD
  5
18
102
{ACAD_XDICTIONARY
360
EFC6
102
}
330
1
100
AcDbSymbolTableRecord
100
AcDbBlockTableRecord
  2
*MODEL_SPACE
  0
BLOCK_RECORD
  5
2AACE
102
{ACAD_XDICTIONARY
360
2ABBC
102
}
330
1
100
AcDbSymbolTableRecord
100
AcDbBlockTableRecord
  2
*PAPER_SPACE
  0
BLOCK_RECORD
  5
115C
330
1
100
AcDbSymbolTableRecord
100
AcDbBlockTableRecord
  2
機械A4横_LBP
  0
BLOCK_RECORD
  5
1215D
330
1
100
AcDbSymbolTableRecord
100
AcDbBlockTableRecord
  2
_OPEN30
  0
ENDTAB
  0
ENDSEC
  0
SECTION
  2
BLOCKS
  0
BLOCK
  5
19
330
18
100
AcDbEntity
  8
0
100
AcDbBlockBegin
  2
*MODEL_SPACE
 70
     0
 10
0.0
 20
0.0
 30
0.0
  3
*MODEL_SPACE
  1

  0
ENDBLK
  5
1A
330
18
100
AcDbEntity
  8
0
100
AcDbBlockEnd
  0
BLOCK
  5
2ABBD
330
2AACE
100
AcDbEntity
 67
     1
  8
0
100
AcDbBlockBegin
  2
*PAPER_SPACE
 70
     0
 10
0.0
 20
0.0
 30
0.0
  3
*PAPER_SPACE
  1

  0
ENDBLK
  5
2ABBE
330
2AACE
100
AcDbEntity
 67
     1
  8
0
100
AcDbBlockEnd
  0
BLOCK
  5
115D
330
115C
100
AcDbEntity
  8
0
100
AcDbBlockBegin
  2
機械A4横_LBP
 70
     0
 10
0.0
 20
0.0
 30
0.0
  3
機械A4横_LBP
  1

  0
ENDBLK
  5
115E
330
115C
100
AcDbEntity
  8
0
100
AcDbBlockEnd
  0
BLOCK
  5
12161
330
1215D
100
AcDbEntity
  8
0
100
AcDbBlockBegin
  2
_OPEN30
 70
     0
 10
0.0
 20
0.0
 30
0.0
  3
_OPEN30
  1

  0
LINE
  5
1215E
330
1215D
100
AcDbEntity
  8
0
  6
BYBLOCK
 62
     0
100
AcDbLine
 10
-1.0
 20
0.26794919
 30
0.0
 11
0.0
 21
0.0
 31
0.0
  0
LINE
  5
1215F
330
1215D
100
AcDbEntity
  8
0
  6
BYBLOCK
 62
     0
100
AcDbLine
 10
0.0
 20
0.0
 30
0.0
 11
-1.0
 21
-0.26794919
 31
0.0
  0
LINE
  5
12160
330
1215D
100
AcDbEntity
  8
0
  6
BYBLOCK
 62
     0
100
AcDbLine
 10
0.0
 20
0.0
 30
0.0
 11
-1.0
 21
0.0
 31
0.0
  0
ENDBLK
  5
12162
330
1215D
100
AcDbEntity
  8
0
100
AcDbBlockEnd
  0
ENDSEC
  0
SECTION
  2
ENTITIES
  0
MTEXT
  5
176FC
330
18
100
AcDbEntity
  8
DIMENSION
 62
     2
100
AcDbMText
 10
-100.7823601383244
 20
171.621314412839
 30
0.0
 40
8.0
 41
0.0
 71
     4
 72
     1
  1

1001
ACAD
1000
MTEXTBEGIN
1070
    73
1070
     1
1070
    44
1040
1.0
1070
    74
1070
     0
1000
MTEXTEND
  0
MTEXT
  5
187CB
330
18
100
AcDbEntity
  8
0
  6
BYBLOCK
100
AcDbMText
 10
325.4874764241681
 20
2232.511722574347
 30
0.0
 40
2.0
 41
0.0
 71
     4
 72
     5
  1

 11
-0.0000000000000002
 21
-1.0
 31
0.0
1001
ACAD
1000
MTEXTBEGIN
1070
    73
1070
     1
1070
    44
1040
1.0
1070
    74
1070
     0
1000
MTEXTEND
1000
MTEXTBEGIN
1070
    73
1070
     1
1070
    44
1040
1.0
1070
    74
1070
     0
1000
MTEXTEND
  0
MTEXT
  5
187CC
330
18
100
AcDbEntity
  8
0
  6
BYBLOCK
100
AcDbMText
 10
360.9528647873208
 20
2221.718414215929
 30
0.0
 40
2.0
 41
0.0
 71
     7
 72
     5
  1

 11
0.0000000000000001
 21
1.0
 31
0.0
1001
ACAD
1000
MTEXTBEGIN
1070
    73
1070
     1
1070
    44
1040
1.0
1070
    74
1070
     0
1000
MTEXTEND
1000
MTEXTBEGIN
1070
    73
1070
     1
1070
    44
1040
1.0
1070
    74
1070
     0
1000
MTEXTEND
  0
MTEXT
  5
187CD
330
18
100
AcDbEntity
  8
0
100
AcDbMText
 10
325.1733668026532
 20
2146.93890367364
 30
0.0
 40
2.0
 41
10.1453
 71
     1
 72
     5
  1

 11
-0.0000000000000002
 21
-1.0
 31
0.0
1001
ACAD
1000
MTEXTBEGIN
1070
    73
1070
     1
1070
    44
1040
1.0
1070
    74
1070
     0
1000
MTEXTEND
1000
MTEXTBEGIN
1070
    73
1070
     1
1070
    44
1040
1.0
1070
    74
1070
     0
1000
MTEXTEND
  0
MTEXT
  5
187CE
330
18
100
AcDbEntity
  8
0
100
AcDbMText
 10
280.7738750495033
 20
2115.30742008065
 30
0.0
 40
2.0
 41
0.0
 71
     1
 72
     5
  1

1001
ACAD
1000
MTEXTBEGIN
1070
    73
1070
     1
1070
    44
1040
1.0
1070
    74
1070
     0
1000
MTEXTEND
1000
MTEXTBEGIN
1070
    73
1070
     1
1070
    44
1040
1.0
1070
    74
1070
     0
1000
MTEXTEND
  0
MTEXT
  5
187CF
330
18
100
AcDbEntity
  8
0
  6
CENTER
100
AcDbMText
 10
606.3621522332663
 20
2216.239946825076
 30
0.0
 40
2.0
 41
15.6417
 71
     1
 72
     5
  1

  7
BIGFONT
1001
ACAD
1000
MTEXTBEGIN
1070
    73
1070
     1
1070
    44
1040
1.0
1070
    74
1070
     0
1000
MTEXTEND
1000
MTEXTBEGIN
1070
    73
1070
     1
1070
    44
1040
1.0
1070
    74
1070
     0
1000
MTEXTEND
  0
MTEXT
  5
187D0
330
18
100
AcDbEntity
  8
0
  6
DASHDOT
100
AcDbMText
 10
368.6842112890944
 20
2323.029441652852
 30
0.0
 40
1.0
 41
2.0
 71
     1
 72
     5
  1

  7
BIGFONT
1001
ACAD
1000
MTEXTBEGIN
1070
    73
1070
     1
1070
    44
1040
1.0
1070
    74
1070
     0
1000
MTEXTEND
1000
MTEXTBEGIN
1070
    73
1070
     1
1070
    44
1040
1.0
1070
    74
1070
     0
1000
MTEXTEND
  0
MTEXT
  5
187D1
330
18
100
AcDbEntity
  8
0
  6
BYBLOCK
100
AcDbMText
 10
325.4873894192178
 20
2232.511722574347
 30
0.0
 40
2.0
 41
0.0
 71
     4
 72
     5
  1

 11
-0.0000000000000002
 21
-1.0
 31
0.0
1001
ACAD
1000
MTEXTBEGIN
1070
    73
1070
     1
1070
    44
1040
1.0
1070
    74
1070
     0
1000
MTEXTEND
1000
MTEXTBEGIN
1070
    73
1070
     1
1070
    44
1040
1.0
1070
    74
1070
     0
1000
MTEXTEND
  0
MTEXT
  5
187D2
330
18
100
AcDbEntity
  8
0
  6
BYBLOCK
100
AcDbMText
 10
360.9527777823707
 20
2221.718414215929
 30
0.0
 40
2.0
 41
0.0
 71
     7
 72
     5
  1

 11
0.0000000000000001
 21
1.0
 31
0.0
1001
ACAD
1000
MTEXTBEGIN
1070
    73
1070
     1
1070
    44
1040
1.0
1070
    74
1070
     0
1000
MTEXTEND
1000
MTEXTBEGIN
1070
    73
1070
     1
1070
    44
1040
1.0
1070
    74
1070
     0
1000
MTEXTEND
  0
MTEXT
  5
187D3
330
18
100
AcDbEntity
  8
0
100
AcDbMText
 10
325.1732797977028
 20
2146.93890367364
 30
0.0
 40
2.0
 41
10.1453
 71
     1
 72
     5
  1

 11
-0.0000000000000002
 21
-1.0
 31
0.0
1001
ACAD
1000
MTEXTBEGIN
1070
    73
1070
     1
1070
    44
1040
1.0
1070
    74
1070
     0
1000
MTEXTEND
1000
MTEXTBEGIN
1070
    73
1070
     1
1070
    44
1040
1.0
1070
    74
1070
     0
1000
MTEXTEND
  0
MTEXT
  5
187D4
330
18
100
AcDbEntity
  8
0
100
AcDbMText
 10
280.773788044553
 20
2115.30742008065
 30
0.0
 40
2.0
 41
0.0
 71
     1
 72
     5
  1

1001
ACAD
1000
MTEXTBEGIN
1070
    73
1070
     1
1070
    44
1040
1.0
1070
    74
1070
     0
1000
MTEXTEND
1000
MTEXTBEGIN
1070
    73
1070
     1
1070
    44
1040
1.0
1070
    74
1070
     0
1000
MTEXTEND
  0
MTEXT
  5
187D5
330
18
100
AcDbEntity
  8
0
  6
CENTER
100
AcDbMText
 10
606.3620652283159
 20
2216.239946825076
 30
0.0
 40
2.0
 41
15.6417
 71
     1
 72
     5
  1

  7
BIGFONT
1001
ACAD
1000
MTEXTBEGIN
1070
    73
1070
     1
1070
    44
1040
1.0
1070
    74
1070
     0
1000
MTEXTEND
1000
MTEXTBEGIN
1070
    73
1070
     1
1070
    44
1040
1.0
1070
    74
1070
     0
1000
MTEXTEND
  0
MTEXT
  5
187D6
330
18
100
AcDbEntity
  8
0
  6
DASHDOT
100
AcDbMText
 10
368.6841242841443
 20
2323.029441652852
 30
0.0
 40
1.0
 41
2.0
 71
     1
 72
     5
  1

  7
BIGFONT
1001
ACAD
1000
MTEXTBEGIN
1070
    73
1070
     1
1070
    44
1040
1.0
1070
    74
1070
     0
1000
MTEXTEND
1000
MTEXTBEGIN
1070
    73
1070
     1
1070
    44
1040
1.0
1070
    74
1070
     0
1000
MTEXTEND
  0
INSERT
  5
187D7
330
18
100
AcDbEntity
  8
FRAME025
100
AcDbBlockReference
  2
機械A4横_LBP
 10
271.0019941658661
 20
2006.88884056487
 30
0.0
  0
TEXT
  5
216E7
330
18
100
AcDbEntity
  8
FRAME020
  6
CONTINUOUS
100
AcDbText
 10
1272.84444499335
 20
-2736.187561819853
 30
0.0
 40
3.0
  1

 50
270.0
100
AcDbText
  0
MTEXT
  5
21ACC
330
18
100
AcDbEntity
  8
0
100
AcDbMText
 10
62.91095225984048
 20
-1280.130762802907
 30
0.0
 40
2.5
 41
0.625
 71
     9
 72
     1
  1

1001
ACAD
1000
MTEXTBEGIN
1070
    73
1070
     1
1070
    44
1040
1.0
1070
    74
1070
     0
1000
MTEXTEND
1000
MTEXTBEGIN
1070
    73
1070
     1
1070
    44
1040
1.0
1070
    74
1070
     0
1000
MTEXTEND
1000
MTEXTBEGIN
1070
    73
1070
     1
1070
    44
1040
1.0
1070
    74
1070
     0
1000
MTEXTEND
1000
MTEXTBEGIN
1070
    73
1070
     1
1070
    44
1040
1.0
1070
    74
1070
     0
1000
MTEXTEND
1000
MTEXTBEGIN
1070
    73
1070
     1
1070
    44
1040
1.0
1070
    74
1070
     0
1000
MTEXTEND
1000
MTEXTBEGIN
1070
    73
1070
     1
1070
    44
1040
1.0
1070
    74
1070
     0
1000
MTEXTEND
1000
MTEXTBEGIN
1070
    73
1070
     1
1070
    44
1040
1.0
1070
    74
1070
     0
1000
MTEXTEND
  0
LINE
  5
28F1E
330
18
100
AcDbEntity
  8
中心線
 48
0.5
100
AcDbLine
 10
651.7550339877584
 20
-2904.605209704529
 30
0.0
 11
668.7550339877584
 21
-2904.605209704529
 31
0.0
  0
LINE
  5
28F1F
330
18
100
AcDbEntity
  8
中心線
 48
0.5
100
AcDbLine
 10
651.7550339877584
 20
-3019.605209704529
 30
0.0
 11
668.7550339877584
 21
-3019.605209704529
 31
0.0
  0
LINE
  5
28F20
330
18
100
AcDbEntity
  8
実線
100
AcDbLine
 10
629.2550339877585
 20
-2897.105209704529
 30
0.0
 11
883.2550339877585
 21
-2897.105209704529
 31
0.0
  0
LINE
  5
28F21
330
18
100
AcDbEntity
  8
実線
100
AcDbLine
 10
629.2550339877585
 20
-3027.105209704529
 30
0.0
 11
883.2550339877585
 21
-3027.105209704529
 31
0.0
  0
LINE
  5
28F27
330
18
100
AcDbEntity
  8
実線
100
AcDbLine
 10
628.2550339877584
 20
-2898.105209704528
 30
0.0
 11
628.2550339877584
 21
-3026.105209704529
 31
0.0
  0
LINE
  5
28F28
330
18
100
AcDbEntity
  8
実線
100
AcDbLine
 10
628.2550339877584
 20
-3026.105209704529
 30
0.0
 11
629.2550339877585
 21
-3027.105209704529
 31
0.0
  0
LINE
  5
28F29
330
18
100
AcDbEntity
  8
実線
100
AcDbLine
 10
659.7550339877584
 20
-3022.605209704529
 30
0.0
 11
660.7550339877584
 21
-3022.605209704529
 31
0.0
  0
LINE
  5
28F2A
330
18
100
AcDbEntity
  8
実線
100
AcDbLine
 10
659.7550339877584
 20
-3016.605209704529
 30
0.0
 11
660.7550339877584
 21
-3016.605209704529
 31
0.0
  0
ARC
  5
28F2B
330
18
100
AcDbEntity
  8
実線
100
AcDbCircle
 10
660.7550339877584
 20
-3019.605209704529
 30
0.0
 40
3.0
100
AcDbArc
 50
270.0
 51
90.0
  0
ARC
  5
28F2C
330
18
100
AcDbEntity
  8
実線
100
AcDbCircle
 10
659.7550339877584
 20
-3019.605209704529
 30
0.0
 40
3.0
100
AcDbArc
 50
90.0
 51
270.0
  0
LINE
  5
28F2D
330
18
100
AcDbEntity
  8
中心線
 48
0.5
100
AcDbLine
 10
660.255033987758
 20
-3011.605209704529
 30
0.0
 11
660.255033987758
 21
-3027.605209704529
 31
0.0
  0
LINE
  5
28F30
330
18
100
AcDbEntity
  8
実線
100
AcDbLine
 10
629.2550339877585
 20
-2897.105209704529
 30
0.0
 11
628.2550339877584
 21
-2898.105209704528
 31
0.0
  0
ARC
  5
28F31
330
18
100
AcDbEntity
  8
実線
100
AcDbCircle
 10
660.7550339877584
 20
-2904.605209704529
 30
0.0
 40
3.0
100
AcDbArc
 50
270.0
 51
90.0
  0
LINE
  5
28F32
330
18
100
AcDbEntity
  8
実線
100
AcDbLine
 10
659.7550339877584
 20
-2901.605209704529
 30
0.0
 11
660.7550339877584
 21
-2901.605209704529
 31
0.0
  0
LINE
  5
28F33
330
18
100
AcDbEntity
  8
実線
100
AcDbLine
 10
659.7550339877584
 20
-2907.605209704529
 30
0.0
 11
660.7550339877584
 21
-2907.605209704529
 31
0.0
  0
LINE
  5
28F34
330
18
100
AcDbEntity
  8
中心線
 48
0.5
100
AcDbLine
 10
660.255033987758
 20
-2896.605209704529
 30
0.0
 11
660.255033987758
 21
-2912.605209704528
 31
0.0
  0
ARC
  5
28F35
330
18
100
AcDbEntity
  8
実線
100
AcDbCircle
 10
659.7550339877584
 20
-2904.605209704529
 30
0.0
 40
3.0
100
AcDbArc
 50
90.0
 51
270.0
  0
LINE
  5
28F4A
330
18
100
AcDbEntity
  8
中心線
 48
0.5
100
AcDbLine
 10
779.7550339877584
 20
-2904.605209704529
 30
0.0
 11
796.7550339877585
 21
-2904.605209704529
 31
0.0
  0
ARC
  5
28F4B
330
18
100
AcDbEntity
  8
実線
100
AcDbCircle
 10
788.7550339877585
 20
-2904.605209704529
 30
0.0
 40
3.0
100
AcDbArc
 50
270.0
 51
90.0
  0
LINE
  5
28F4C
330
18
100
AcDbEntity
  8
中心線
 48
0.5
100
AcDbLine
 10
779.7550339877584
 20
-3019.605209704529
 30
0.0
 11
796.7550339877585
 21
-3019.605209704529
 31
0.0
  0
ARC
  5
28F4D
330
18
100
AcDbEntity
  8
実線
100
AcDbCircle
 10
788.7550339877585
 20
-3019.605209704529
 30
0.0
 40
3.0
100
AcDbArc
 50
270.0
 51
90.0
  0
ARC
  5
28F54
330
18
100
AcDbEntity
  8
実線
100
AcDbCircle
 10
724.7550339877584
 20
-3019.605209704529
 30
0.0
 40
3.0
100
AcDbArc
 50
270.0
 51
90.0
  0
LINE
  5
28F55
330
18
100
AcDbEntity
  8
中心線
 48
0.5
100
AcDbLine
 10
715.7550339877584
 20
-3019.605209704529
 30
0.0
 11
732.7550339877584
 21
-3019.605209704529
 31
0.0
  0
LINE
  5
28F58
102
{ACAD_REACTORS
330
29245
102
}
330
18
100
AcDbEntity
  8
0
100
AcDbLine
 10
675.2628350081304
 20
-3025.580565840274
 30
0.0
 11
709.2628350081304
 21
-3025.580565840274
 31
0.0
  0
LINE
  5
28F59
102
{ACAD_REACTORS
330
29245
102
}
330
18
100
AcDbEntity
  8
0
100
AcDbLine
 10
675.2628350081304
 20
-3025.580565840274
 30
0.0
 11
709.2628350081304
 21
-3025.580565840274
 31
0.0
  0
LINE
  5
28F5D
102
{ACAD_REACTORS
330
29245
102
}
330
18
100
AcDbEntity
  8
0
100
AcDbLine
 10
709.2628350081304
 20
-3013.580565840274
 30
0.0
 11
675.2628350081304
 21
-3013.580565840274
 31
0.0
  0
LINE
  5
28F5E
102
{ACAD_REACTORS
330
29245
102
}
330
18
100
AcDbEntity
  8
0
100
AcDbLine
 10
674.7628350081304
 20
-3020.580565840274
 30
0.0
 11
709.7628350081304
 21
-3020.580565840274
 31
0.0
  0
LINE
  5
28F5F
102
{ACAD_REACTORS
330
29245
102
}
330
18
100
AcDbEntity
  8
0
100
AcDbLine
 10
709.2628350081304
 20
-3013.580565840274
 30
0.0
 11
675.2628350081304
 21
-3013.580565840274
 31
0.0
  0
LINE
  5
28F60
102
{ACAD_REACTORS
330
29245
102
}
330
18
100
AcDbEntity
  8
0
100
AcDbLine
 10
674.7628350081304
 20
-3020.580565840274
 30
0.0
 11
709.7628350081304
 21
-3020.580565840274
 31
0.0
  0
LINE
  5
28F69
102
{ACAD_REACTORS
330
29245
102
}
330
18
100
AcDbEntity
  8
0
100
AcDbLine
 10
674.7628350081304
 20
-3014.080565840274
 30
0.0
 11
674.7628350081304
 21
-3025.080565840274
 31
0.0
  0
LINE
  5
28F6A
102
{ACAD_REACTORS
330
29245
102
}
330
18
100
AcDbEntity
  8
0
100
AcDbLine
 10
674.7628350081304
 20
-3014.080565840274
 30
0.0
 11
674.7628350081304
 21
-3025.080565840274
 31
0.0
  0
ARC
  5
28F71
102
{ACAD_REACTORS
330
29245
102
}
330
18
100
AcDbEntity
  8
0
100
AcDbCircle
 10
675.2628350081304
 20
-3025.080565840274
 30
0.0
 40
0.5
100
AcDbArc
 50
180.0
 51
270.0
  0
ARC
  5
28F72
102
{ACAD_REACTORS
330
29245
102
}
330
18
100
AcDbEntity
  8
0
100
AcDbCircle
 10
675.2628350081304
 20
-3025.080565840274
 30
0.0
 40
0.5
100
AcDbArc
 50
180.0
 51
270.0
  0
ARC
  5
28F73
102
{ACAD_REACTORS
330
29245
102
}
330
18
100
AcDbEntity
  8
0
100
AcDbCircle
 10
675.2628350081304
 20
-3014.080565840274
 30
0.0
 40
0.5
100
AcDbArc
 50
90.0
 51
180.0
  0
ARC
  5
28F74
102
{ACAD_REACTORS
330
29245
102
}
330
18
100
AcDbEntity
  8
0
100
AcDbCircle
 10
675.2628350081304
 20
-3014.080565840274
 30
0.0
 40
0.5
100
AcDbArc
 50
90.0
 51
180.0
  0
LINE
  5
28F80
102
{ACAD_REACTORS
330
29245
102
}
330
18
100
AcDbEntity
  8
0
100
AcDbLine
 10
709.7628350081304
 20
-3025.080565840274
 30
0.0
 11
709.7628350081304
 21
-3014.080565840274
 31
0.0
  0
LINE
  5
28F81
102
{ACAD_REACTORS
330
29245
102
}
330
18
100
AcDbEntity
  8
0
100
AcDbLine
 10
709.7628350081304
 20
-3025.080565840274
 30
0.0
 11
709.7628350081304
 21
-3014.080565840274
 31
0.0
  0
ARC
  5
28F82
102
{ACAD_REACTORS
330
29245
102
}
330
18
100
AcDbEntity
  8
0
100
AcDbCircle
 10
709.2628350081304
 20
-3025.080565840274
 30
0.0
 40
0.5
100
AcDbArc
 50
270.0
 51
0.0
  0
ARC
  5
28F83
102
{ACAD_REACTORS
330
29245
102
}
330
18
100
AcDbEntity
  8
0
100
AcDbCircle
 10
709.2628350081304
 20
-3025.080565840274
 30
0.0
 40
0.5
100
AcDbArc
 50
270.0
 51
0.0
  0
ARC
  5
28F84
102
{ACAD_REACTORS
330
29245
102
}
330
18
100
AcDbEntity
  8
0
100
AcDbCircle
 10
709.2628350081304
 20
-3014.080565840274
 30
0.0
 40
0.5
100
AcDbArc
 50
0.0
 51
90.0
  0
ARC
  5
28F85
102
{ACAD_REACTORS
330
29245
102
}
330
18
100
AcDbEntity
  8
0
100
AcDbCircle
 10
709.2628350081304
 20
-3014.080565840274
 30
0.0
 40
0.5
100
AcDbArc
 50
0.0
 51
90.0
  0
ARC
  5
28F86
330
18
100
AcDbEntity
  8
実線
100
AcDbCircle
 10
723.7550339877584
 20
-3019.605209704529
 30
0.0
 40
3.0
100
AcDbArc
 50
90.0
 51
270.0
  0
LINE
  5
28F87
330
18
100
AcDbEntity
  8
実線
100
AcDbLine
 10
723.7550339877584
 20
-3022.605209704529
 30
0.0
 11
724.7550339877584
 21
-3022.605209704529
 31
0.0
  0
LINE
  5
28F88
330
18
100
AcDbEntity
  8
実線
100
AcDbLine
 10
723.7550339877584
 20
-3016.605209704529
 30
0.0
 11
724.7550339877584
 21
-3016.605209704529
 31
0.0
  0
LINE
  5
28F89
330
18
100
AcDbEntity
  8
中心線
 48
0.5
100
AcDbLine
 10
724.2550339877579
 20
-3011.605209704529
 30
0.0
 11
724.2550339877579
 21
-3027.605209704529
 31
0.0
  0
ARC
  5
28F8F
330
18
100
AcDbEntity
  8
実線
100
AcDbCircle
 10
787.7550339877585
 20
-3019.605209704529
 30
0.0
 40
3.0
100
AcDbArc
 50
90.0
 51
270.0
  0
LINE
  5
28F90
330
18
100
AcDbEntity
  8
実線
100
AcDbLine
 10
787.7550339877585
 20
-3022.605209704529
 30
0.0
 11
788.7550339877585
 21
-3022.605209704529
 31
0.0
  0
LINE
  5
28F91
330
18
100
AcDbEntity
  8
実線
100
AcDbLine
 10
787.7550339877585
 20
-3016.605209704529
 30
0.0
 11
788.7550339877585
 21
-3016.605209704529
 31
0.0
  0
LINE
  5
28F92
330
18
100
AcDbEntity
  8
中心線
 48
0.5
100
AcDbLine
 10
788.2550339877582
 20
-3011.605209704529
 30
0.0
 11
788.2550339877582
 21
-3027.605209704529
 31
0.0
  0
ARC
  5
28F94
330
18
100
AcDbEntity
  8
実線
100
AcDbCircle
 10
724.7550339877584
 20
-2904.605209704529
 30
0.0
 40
3.0
100
AcDbArc
 50
270.0
 51
90.0
  0
LINE
  5
28F95
330
18
100
AcDbEntity
  8
中心線
 48
0.5
100
AcDbLine
 10
715.7550339877584
 20
-2904.605209704529
 30
0.0
 11
732.7550339877584
 21
-2904.605209704529
 31
0.0
  0
ARC
  5
28F99
330
18
100
AcDbEntity
  8
実線
100
AcDbCircle
 10
723.7550339877584
 20
-2904.605209704529
 30
0.0
 40
3.0
100
AcDbArc
 50
90.0
 51
270.0
  0
LINE
  5
28F9A
330
18
100
AcDbEntity
  8
中心線
 48
0.5
100
AcDbLine
 10
724.2550339877579
 20
-2896.605209704529
 30
0.0
 11
724.2550339877579
 21
-2912.605209704528
 31
0.0
  0
LINE
  5
28F9B
330
18
100
AcDbEntity
  8
実線
100
AcDbLine
 10
723.7550339877584
 20
-2907.605209704529
 30
0.0
 11
724.7550339877584
 21
-2907.605209704529
 31
0.0
  0
LINE
  5
28F9C
330
18
100
AcDbEntity
  8
実線
100
AcDbLine
 10
723.7550339877584
 20
-2901.605209704529
 30
0.0
 11
724.7550339877584
 21
-2901.605209704529
 31
0.0
  0
ARC
  5
28FA4
330
18
100
AcDbEntity
  8
実線
100
AcDbCircle
 10
787.7550339877585
 20
-2904.605209704529
 30
0.0
 40
3.0
100
AcDbArc
 50
90.0
 51
270.0
  0
LINE
  5
28FA5
330
18
100
AcDbEntity
  8
中心線
 48
0.5
100
AcDbLine
 10
788.2550339877582
 20
-2896.605209704529
 30
0.0
 11
788.2550339877582
 21
-2912.605209704528
 31
0.0
  0
LINE
  5
28FA6
330
18
100
AcDbEntity
  8
実線
100
AcDbLine
 10
787.7550339877585
 20
-2907.605209704529
 30
0.0
 11
788.7550339877585
 21
-2907.605209704529
 31
0.0
  0
LINE
  5
28FA7
330
18
100
AcDbEntity
  8
実線
100
AcDbLine
 10
787.7550339877585
 20
-2901.605209704529
 30
0.0
 11
788.7550339877585
 21
-2901.605209704529
 31
0.0
  0
LINE
  5
28FAB
330
18
100
AcDbEntity
  8
実線
100
AcDbLine
 10
884.2550339877584
 20
-2898.105209704528
 30
0.0
 11
884.2550339877584
 21
-3026.105209704529
 31
0.0
  0
ARC
  5
28FAC
330
18
100
AcDbEntity
  8
実線
100
AcDbCircle
 10
852.7550339877587
 20
-3019.605209704529
 30
0.0
 40
3.0
100
AcDbArc
 50
270.0
 51
90.0
  0
LINE
  5
28FAD
330
18
100
AcDbEntity
  8
中心線
 48
0.5
100
AcDbLine
 10
843.7550339877587
 20
-3019.605209704529
 30
0.0
 11
860.7550339877587
 21
-3019.605209704529
 31
0.0
  0
LINE
  5
28FB2
330
18
100
AcDbEntity
  8
実線
100
AcDbLine
 10
851.7550339877587
 20
-3022.605209704529
 30
0.0
 11
852.7550339877587
 21
-3022.605209704529
 31
0.0
  0
LINE
  5
28FB3
330
18
100
AcDbEntity
  8
実線
100
AcDbLine
 10
851.7550339877587
 20
-3016.605209704529
 30
0.0
 11
852.7550339877587
 21
-3016.605209704529
 31
0.0
  0
ARC
  5
28FB4
330
18
100
AcDbEntity
  8
実線
100
AcDbCircle
 10
851.7550339877587
 20
-3019.605209704529
 30
0.0
 40
3.0
100
AcDbArc
 50
90.0
 51
270.0
  0
LINE
  5
28FB5
330
18
100
AcDbEntity
  8
中心線
 48
0.5
100
AcDbLine
 10
852.2550339877582
 20
-3011.605209704529
 30
0.0
 11
852.2550339877582
 21
-3027.605209704529
 31
0.0
  0
LINE
  5
28FB7
330
18
100
AcDbEntity
  8
実線
100
AcDbLine
 10
884.2550339877584
 20
-3026.105209704529
 30
0.0
 11
883.2550339877585
 21
-3027.105209704529
 31
0.0
  0
ARC
  5
28FC1
330
18
100
AcDbEntity
  8
実線
100
AcDbCircle
 10
852.7550339877587
 20
-2904.605209704529
 30
0.0
 40
3.0
100
AcDbArc
 50
270.0
 51
90.0
  0
LINE
  5
28FC2
330
18
100
AcDbEntity
  8
中心線
 48
0.5
100
AcDbLine
 10
843.7550339877587
 20
-2904.605209704529
 30
0.0
 11
860.7550339877587
 21
-2904.605209704529
 31
0.0
  0
LINE
  5
28FC7
330
18
100
AcDbEntity
  8
中心線
 48
0.5
100
AcDbLine
 10
852.2550339877582
 20
-2896.605209704529
 30
0.0
 11
852.2550339877582
 21
-2912.605209704528
 31
0.0
  0
LINE
  5
28FC8
330
18
100
AcDbEntity
  8
実線
100
AcDbLine
 10
851.7550339877587
 20
-2907.605209704529
 30
0.0
 11
852.7550339877587
 21
-2907.605209704529
 31
0.0
  0
LINE
  5
28FC9
330
18
100
AcDbEntity
  8
実線
100
AcDbLine
 10
851.7550339877587
 20
-2901.605209704529
 30
0.0
 11
852.7550339877587
 21
-2901.605209704529
 31
0.0
  0
ARC
  5
28FCA
330
18
100
AcDbEntity
  8
実線
100
AcDbCircle
 10
851.7550339877587
 20
-2904.605209704529
 30
0.0
 40
3.0
100
AcDbArc
 50
90.0
 51
270.0
  0
LINE
  5
28FCC
330
18
100
AcDbEntity
  8
実線
100
AcDbLine
 10
883.2550339877585
 20
-2897.105209704529
 30
0.0
 11
884.2550339877584
 21
-2898.105209704528
 31
0.0
  0
LWPOLYLINE
  5
2900F
330
18
100
AcDbEntity
  8
実線
 48
0.3
100
AcDbPolyline
 90
        4
 70
     1
 43
0.0
 10
1004.549461721918
 20
-2911.990658101649
 10
1009.549461721918
 20
-2911.990658101649
 10
1009.549461721918
 20
-3012.219761307409
 10
1004.549461721918
 20
-3012.219761307409
  0
LINE
  5
29010
330
18
100
AcDbEntity
  8
仮想線
 48
0.8
100
AcDbLine
 10
1003.349461721918
 20
-2897.105253568783
 30
0.0
 11
1003.349461721918
 21
-3027.105253568783
 31
0.0
  0
CIRCLE
  5
29011
330
18
100
AcDbEntity
  8
仮想線
 48
0.8
100
AcDbCircle
 10
971.3493017784845
 20
-3010.105209684609
 30
0.0
 40
1.6
  0
CIRCLE
  5
29012
330
18
100
AcDbEntity
  8
仮想線
 48
0.8
100
AcDbCircle
 10
971.3493017784845
 20
-3010.105209684609
 30
0.0
 40
2.0
  0
LINE
  5
29013
330
18
100
AcDbEntity
  8
仮想線
 48
0.8
100
AcDbLine
 10
963.3494617219181
 20
-3027.105209704529
 30
0.0
 11
963.3487562591176
 21
-3009.105253568783
 31
0.0
  0
LINE
  5
29014
330
18
100
AcDbEntity
  8
中心線
 48
0.3
100
AcDbLine
 10
971.3494617157735
 20
-3027.104896164742
 30
0.0
 11
971.3487562529731
 21
-2972.44659170769
 31
0.0
  0
LINE
  5
29015
330
18
100
AcDbEntity
  8
仮想線
 48
0.8
100
AcDbLine
 10
977.348752937392
 20
-3023.031709704528
 30
0.0
 11
977.348752937392
 21
-2901.031709704529
 31
0.0
  0
LINE
  5
29016
330
18
100
AcDbEntity
  8
仮想線
 48
0.8
100
AcDbLine
 10
965.3487529373919
 20
-2901.031709704529
 30
0.0
 11
965.3487529373919
 21
-3023.031709704528
 31
0.0
  0
LINE
  5
29017
102
{ACAD_REACTORS
330
29241
102
}
330
18
100
AcDbEntity
  8
実線
100
AcDbLine
 10
1009.549461721918
 20
-2898.105209704528
 30
0.0
 11
1009.549461721918
 21
-3027.105209704529
 31
0.0
  0
LINE
  5
29018
102
{ACAD_REACTORS
330
29241
102
}
330
18
100
AcDbEntity
  8
実線
100
AcDbLine
 10
1017.349461721918
 20
-2898.105209704528
 30
0.0
 11
1017.349461721918
 21
-3027.105209704529
 31
0.0
  0
LINE
  5
29019
102
{ACAD_REACTORS
330
29241
102
}
330
18
100
AcDbEntity
  8
中心線
 48
0.3
100
AcDbLine
 10
1004.549461721918
 20
-3019.605209704529
 30
0.0
 11
1022.349461721918
 21
-3019.605209704529
 31
0.0
  0
LINE
  5
2901B
330
18
100
AcDbEntity
  8
ﾊｯﾁﾝｸ_
100
AcDbLine
 10
980.0147636646391
 20
-3018.17214080884
 30
0.0
 11
981.5816947689521
 21
-3016.605209704528
 31
0.0
  0
LINE
  5
2901C
330
18
100
AcDbEntity
  8
ﾊｯﾁﾝｸ_
100
AcDbLine
 10
980.3534041112445
 20
-3018.71738383872
 30
0.0
 11
982.465578245435
 21
-3016.605209704529
 31
0.0
  0
LINE
  5
2901D
330
18
100
AcDbEntity
  8
中心線
 48
0.3
100
AcDbLine
 10
977.610853733152
 20
-3016.605209704529
 30
0.0
 11
989.0880697106835
 21
-3016.605209704529
 31
0.0
  0
CIRCLE
  5
2901E
330
18
100
AcDbEntity
  8
仮想線
 48
0.8
100
AcDbCircle
 10
983.3494617219178
 20
-3016.478804201197
 30
0.0
 40
3.74
  0
LINE
  5
2901F
330
18
100
AcDbEntity
  8
仮想線
 48
0.8
100
AcDbLine
 10
1003.349461721918
 20
-3027.105209704529
 30
0.0
 11
963.3494617219181
 21
-3027.105209704529
 31
0.0
  0
LINE
  5
29022
330
18
100
AcDbEntity
  8
仮想線
 48
0.8
100
AcDbLine
 10
965.3487529373919
 20
-3023.031709704528
 30
0.0
 11
977.348752937392
 21
-3023.031709704528
 31
0.0
  0
CIRCLE
  5
29023
330
18
100
AcDbEntity
  8
仮想線
 48
0.8
100
AcDbCircle
 10
971.3483815312498
 20
-3017.015836743357
 30
0.0
 40
4.0
  0
LINE
  5
29024
330
18
100
AcDbEntity
  8
ﾊｯﾁﾝｸ_
100
AcDbLine
 10
986.884995627852
 20
-3016.605209704529
 30
0.0
 11
987.0886635771851
 21
-3016.401541755195
 31
0.0
  0
LINE
  5
29026
330
18
100
AcDbEntity
  8
ﾊｯﾁﾝｸ_
100
AcDbLine
 10
980.7688404604952
 20
-3019.185830965951
 30
0.0
 11
983.3494617219178
 21
-3016.605209704529
 31
0.0
  0
LINE
  5
29027
330
18
100
AcDbEntity
  8
ﾊｯﾁﾝｸ_
100
AcDbLine
 10
981.2587192643034
 20
-3019.579835638627
 30
0.0
 11
983.3494617219178
 21
-3017.489093181012
 31
0.0
  0
LINE
  5
29028
330
18
100
AcDbEntity
  8
ﾊｯﾁﾝｸ_
100
AcDbLine
 10
981.8273724446701
 20
-3019.895065934742
 30
0.0
 11
983.3494617219178
 21
-3018.372976657496
 31
0.0
  0
LINE
  5
29029
330
18
100
AcDbEntity
  8
ﾊｯﾁﾝｸ_
100
AcDbLine
 10
983.3494617219178
 20
-3013.069675798595
 30
0.0
 11
983.6668423476687
 21
-3012.752295172844
 31
0.0
  0
LINE
  5
2902A
330
18
100
AcDbEntity
  8
ﾊｯﾁﾝｸ_
100
AcDbLine
 10
983.3494617219178
 20
-3013.953559275079
 30
0.0
 11
984.4105398668927
 21
-3012.892481130104
 31
0.0
  0
LINE
  5
2902B
330
18
100
AcDbEntity
  8
ﾊｯﾁﾝｸ_
100
AcDbLine
 10
983.3494617219178
 20
-3014.837442751562
 30
0.0
 11
985.0427983295606
 21
-3013.144106143919
 31
0.0
  0
LINE
  5
2902C
330
18
100
AcDbEntity
  8
ﾊｯﾁﾝｸ_
100
AcDbLine
 10
983.3494617219178
 20
-3015.721326228046
 30
0.0
 11
985.5880413594398
 21
-3013.482746590524
 31
0.0
  0
LINE
  5
2902D
330
18
100
AcDbEntity
  8
ﾊｯﾁﾝｸ_
100
AcDbLine
 10
986.0011121513682
 20
-3016.605209704529
 30
0.0
 11
986.9889121616646
 21
-3015.617409694232
 31
0.0
  0
LINE
  5
2902E
330
18
100
AcDbEntity
  8
ﾊｯﾁﾝｸ_
100
AcDbLine
 10
985.1172286748845
 20
-3016.605209704529
 30
0.0
 11
986.7657234554629
 21
-3014.956714923949
 31
0.0
  0
LINE
  5
2902F
330
18
100
AcDbEntity
  8
ﾊｯﾁﾝｸ_
100
AcDbLine
 10
984.2333451984007
 20
-3016.605209704529
 30
0.0
 11
986.4504931593476
 21
-3014.388061743582
 31
0.0
  0
LINE
  5
29030
330
18
100
AcDbEntity
  8
ﾊｯﾁﾝｸ_
100
AcDbLine
 10
983.3494617219178
 20
-3016.605209704529
 30
0.0
 11
986.0564884866718
 21
-3013.898182939775
 31
0.0
  0
LINE
  5
29031
330
18
100
AcDbEntity
  8
中心線
 48
0.3
100
AcDbLine
 10
983.3494617219178
 20
-3010.738804201197
 30
0.0
 11
983.3494617219178
 21
-3022.218804201196
 31
0.0
  0
LINE
  5
29032
102
{ACAD_REACTORS
330
29241
102
}
330
18
100
AcDbEntity
  8
破線
 48
0.7
100
AcDbLine
 10
1009.549461721918
 20
-3022.605209704529
 30
0.0
 11
1017.349461721918
 21
-3022.605209704529
 31
0.0
  0
LINE
  5
29033
102
{ACAD_REACTORS
330
29241
102
}
330
18
100
AcDbEntity
  8
破線
 48
0.7
100
AcDbLine
 10
1009.549461721918
 20
-3016.605209704529
 30
0.0
 11
1017.349461721918
 21
-3016.605209704529
 31
0.0
  0
LINE
  5
29034
102
{ACAD_REACTORS
330
29241
102
}
330
18
100
AcDbEntity
  8
実線
100
AcDbLine
 10
1009.549461721918
 20
-3027.105209704529
 30
0.0
 11
1017.349461721918
 21
-3027.105209704529
 31
0.0
  0
LINE
  5
29037
102
{ACAD_REACTORS
330
29241
102
}
330
18
100
AcDbEntity
  8
中心線
 48
0.3
100
AcDbLine
 10
1004.549461721918
 20
-2904.605209704529
 30
0.0
 11
1022.349461721918
 21
-2904.605209704529
 31
0.0
  0
LINE
  5
29038
330
18
100
AcDbEntity
  8
仮想線
 48
0.8
100
AcDbLine
 10
963.849461721918
 20
-2915.105253568783
 30
0.0
 11
963.849461721918
 21
-3009.105209704529
 31
0.0
  0
CIRCLE
  5
29039
330
18
100
AcDbEntity
  8
仮想線
 48
0.8
100
AcDbCircle
 10
971.349300829836
 20
-2986.105209684609
 30
0.0
 40
1.6
  0
LINE
  5
2903A
330
18
100
AcDbEntity
  8
仮想線
 48
0.8
100
AcDbLine
 10
963.849461721918
 20
-3009.105209704529
 30
0.0
 11
963.3494617219181
 21
-3009.105209704529
 31
0.0
  0
LINE
  5
2903B
330
18
100
AcDbEntity
  8
中心線
 48
0.45
100
AcDbLine
 10
965.3487538860403
 20
-3010.105209704529
 30
0.0
 11
977.3487538860404
 21
-3010.105209704529
 31
0.0
  0
LINE
  5
2903C
330
18
100
AcDbEntity
  8
中心線
 48
0.45
100
AcDbLine
 10
965.3487529373919
 20
-2986.105209704529
 30
0.0
 11
977.348752937392
 21
-2986.105209704529
 31
0.0
  0
CIRCLE
  5
2903D
330
18
100
AcDbEntity
  8
仮想線
 48
0.8
100
AcDbCircle
 10
971.349300829836
 20
-2986.105209684609
 30
0.0
 40
2.0
  0
LINE
  5
2903E
330
18
100
AcDbEntity
  8
仮想線
 48
0.8
100
AcDbLine
 10
963.3494617219181
 20
-2897.105209704529
 30
0.0
 11
1003.349461721918
 21
-2897.105209704529
 31
0.0
  0
LINE
  5
2903F
330
18
100
AcDbEntity
  8
仮想線
 48
0.8
100
AcDbLine
 10
963.3494617219181
 20
-2915.105253568783
 30
0.0
 11
963.849461721918
 21
-2915.105253568783
 31
0.0
  0
LINE
  5
29040
330
18
100
AcDbEntity
  8
仮想線
 48
0.8
100
AcDbLine
 10
963.3494617219181
 20
-2915.105253568783
 30
0.0
 11
963.3494617219181
 21
-2897.105253568783
 31
0.0
  0
CIRCLE
  5
29041
330
18
100
AcDbEntity
  8
仮想線
 48
0.8
100
AcDbCircle
 10
971.3483815312487
 20
-2907.015836743357
 30
0.0
 40
4.0
  0
LINE
  5
29042
330
18
100
AcDbEntity
  8
仮想線
 48
0.8
100
AcDbLine
 10
977.348752937392
 20
-2901.031709704529
 30
0.0
 11
965.3487529373919
 21
-2901.031709704529
 31
0.0
  0
LINE
  5
29044
102
{ACAD_REACTORS
330
29241
102
}
330
18
100
AcDbEntity
  8
破線
 48
0.7
100
AcDbLine
 10
1009.549461721918
 20
-2907.605209704529
 30
0.0
 11
1017.349461721918
 21
-2907.605209704529
 31
0.0
  0
LINE
  5
29045
102
{ACAD_REACTORS
330
29241
102
}
330
18
100
AcDbEntity
  8
破線
 48
0.7
100
AcDbLine
 10
1009.549461721918
 20
-2901.605209704529
 30
0.0
 11
1017.349461721918
 21
-2901.605209704529
 31
0.0
  0
LINE
  5
29046
102
{ACAD_REACTORS
330
29241
102
}
330
18
100
AcDbEntity
  8
実線
100
AcDbLine
 10
1010.549461721918
 20
-2897.105209704529
 30
0.0
 11
1016.349461721918
 21
-2897.105209704529
 31
0.0
  0
LINE
  5
295BD
102
{ACAD_REACTORS
330
295C8
102
}
330
18
100
AcDbEntity
  8
0
 48
10.0
100
AcDbLine
 10
709.7628350081304
 20
-2903.782346421982
 30
0.0
 11
674.7628350081286
 21
-2903.782346421982
 31
0.0
  0
LINE
  5
295BF
102
{ACAD_REACTORS
330
295C8
102
}
330
18
100
AcDbEntity
  8
0
 48
10.0
100
AcDbLine
 10
675.2628350081304
 20
-2910.782346421981
 30
0.0
 11
709.2628350081304
 21
-2910.782346421981
 31
0.0
  0
LINE
  5
295C0
102
{ACAD_REACTORS
330
295C8
102
}
330
18
100
AcDbEntity
  8
0
 48
10.0
100
AcDbLine
 10
709.2628350081304
 20
-2898.782346421981
 30
0.0
 11
675.2628350081304
 21
-2898.782346421981
 31
0.0
  0
ARC
  5
295C2
102
{ACAD_REACTORS
330
295C8
102
}
330
18
100
AcDbEntity
  8
0
 48
10.0
100
AcDbCircle
 10
675.2628350081304
 20
-2899.282346421981
 30
0.0
 40
0.5
100
AcDbArc
 50
90.0
 51
180.0
  0
ARC
  5
295C3
102
{ACAD_REACTORS
330
295C8
102
}
330
18
100
AcDbEntity
  8
0
 48
10.0
100
AcDbCircle
 10
675.2628350081304
 20
-2910.282346421981
 30
0.0
 40
0.5
100
AcDbArc
 50
180.0
 51
270.0
  0
LINE
  5
295C4
102
{ACAD_REACTORS
330
295C8
102
}
330
18
100
AcDbEntity
  8
0
 48
10.0
100
AcDbLine
 10
674.7628350081304
 20
-2899.282346421982
 30
0.0
 11
674.7628350081304
 21
-2910.282346421982
 31
0.0
  0
ARC
  5
295C5
102
{ACAD_REACTORS
330
295C8
102
}
330
18
100
AcDbEntity
  8
0
 48
10.0
100
AcDbCircle
 10
709.2628350081304
 20
-2899.282346421981
 30
0.0
 40
0.5
100
AcDbArc
 50
0.0
 51
90.0
  0
ARC
  5
295C6
102
{ACAD_REACTORS
330
295C8
102
}
330
18
100
AcDbEntity
  8
0
 48
10.0
100
AcDbCircle
 10
709.2628350081304
 20
-2910.282346421981
 30
0.0
 40
0.5
100
AcDbArc
 50
270.0
 51
0.0
  0
LINE
  5
295C7
102
{ACAD_REACTORS
330
295C8
102
}
330
18
100
AcDbEntity
  8
0
 48
10.0
100
AcDbLine
 10
709.7628350081304
 20
-2910.282346421982
 30
0.0
 11
709.7628350081304
 21
-2899.282346421982
 31
0.0
  0
LINE
  5
295F4
102
{ACAD_REACTORS
330
29603
102
}
330
18
100
AcDbEntity
  8
0
 48
10.0
100
AcDbLine
 10
739.7628350081304
 20
-3018.952081598976
 30
0.0
 11
754.7628350081303
 21
-3018.952081598976
 31
0.0
  0
LWPOLYLINE
  5
29601
102
{ACAD_REACTORS
330
29603
102
}
330
18
100
AcDbEntity
  8
0
 48
10.0
100
AcDbPolyline
 90
        8
 70
     1
 43
0.0
 10
740.2628350081304
 20
-3024.952081598976
 10
754.2628350081304
 20
-3024.952081598977
 42
0.4142135623730951
 10
754.7628350081303
 20
-3024.452081598977
 10
754.7628350081303
 20
-3015.452081598977
 42
0.4142135623730951
 10
754.2628350081304
 20
-3014.952081598977
 10
740.2628350081304
 20
-3014.952081598977
 42
0.4142135623730996
 10
739.7628350081304
 20
-3015.452081598977
 10
739.7628350081304
 20
-3024.452081598976
 42
0.4142135623730904
  0
LINE
  5
2A12E
330
18
100
AcDbEntity
  8
実線
 48
10.0
100
AcDbLine
 10
868.1265881757163
 20
-2912.234991791771
 30
0.0
 11
867.2539678538523
 21
-2962.227376549591
 31
0.0
  0
LINE
  5
2A130
330
18
100
AcDbEntity
  8
実線
 48
10.0
100
AcDbLine
 10
853.2561001216627
 20
-2961.983042859469
 30
0.0
 11
854.1287204435276
 21
-2911.990658101649
 31
0.0
  0
LINE
  5
2A131
330
18
100
AcDbEntity
  8
実線
 48
10.0
100
AcDbLine
 10
854.1287204435276
 20
-2911.990658101649
 30
0.0
 11
868.1265881757163
 21
-2912.234991791771
 31
0.0
  0
LINE
  5
2A132
330
18
100
AcDbEntity
  8
実線
 48
10.0
100
AcDbLine
 10
867.2539678538523
 20
-2962.227376549591
 30
0.0
 11
866.3813475319875
 21
-3012.219761307409
 31
0.0
  0
LINE
  5
2A133
330
18
100
AcDbEntity
  8
実線
 48
10.0
100
AcDbLine
 10
866.3813475319875
 20
-3012.219761307409
 30
0.0
 11
852.3834797997979
 21
-3011.975427617288
 31
0.0
  0
LINE
  5
2A134
330
18
100
AcDbEntity
  8
実線
 48
10.0
100
AcDbLine
 10
852.3834797997979
 20
-3011.975427617288
 30
0.0
 11
853.2561001216627
 21
-2961.983042859469
 31
0.0
  0
LINE
  5
2A137
330
18
100
AcDbEntity
  8
実線
 48
10.0
100
AcDbLine
 10
869.2561001216628
 20
-2961.983042859469
 30
0.0
 11
870.1287204435274
 21
-2911.990658101649
 31
0.0
  0
LINE
  5
2A138
330
18
100
AcDbEntity
  8
実線
 48
10.0
100
AcDbLine
 10
870.1287204435274
 20
-2911.990658101649
 30
0.0
 11
884.1265881757163
 21
-2912.234991791771
 31
0.0
  0
LINE
  5
2A139
330
18
100
AcDbEntity
  8
実線
 48
10.0
100
AcDbLine
 10
884.1265881757163
 20
-2912.234991791771
 30
0.0
 11
883.2539678538523
 21
-2962.227376549591
 31
0.0
  0
LINE
  5
2A13B
330
18
100
AcDbEntity
  8
実線
 48
10.0
100
AcDbLine
 10
883.2539678538523
 20
-2962.227376549591
 30
0.0
 11
882.3813475319875
 21
-3012.219761307409
 31
0.0
  0
LINE
  5
2A13C
330
18
100
AcDbEntity
  8
実線
 48
10.0
100
AcDbLine
 10
882.3813475319875
 20
-3012.219761307409
 30
0.0
 11
868.3834797997979
 21
-3011.975427617288
 31
0.0
  0
LINE
  5
2A13D
330
18
100
AcDbEntity
  8
実線
 48
10.0
100
AcDbLine
 10
868.3834797997979
 20
-3011.975427617288
 30
0.0
 11
869.2561001216628
 21
-2961.983042859469
 31
0.0
  0
LINE
  5
2A13F
330
18
100
AcDbEntity
  8
実線
 48
10.0
100
AcDbLine
 10
852.1265881757162
 20
-2912.234991791771
 30
0.0
 11
851.2539678538523
 21
-2962.227376549591
 31
0.0
  0
LINE
  5
2A141
330
18
100
AcDbEntity
  8
実線
 48
10.0
100
AcDbLine
 10
837.2561001216627
 20
-2961.983042859469
 30
0.0
 11
838.1287204435276
 21
-2911.990658101649
 31
0.0
  0
LINE
  5
2A142
330
18
100
AcDbEntity
  8
実線
 48
10.0
100
AcDbLine
 10
838.1287204435276
 20
-2911.990658101649
 30
0.0
 11
852.1265881757162
 21
-2912.234991791771
 31
0.0
  0
LINE
  5
2A143
330
18
100
AcDbEntity
  8
実線
 48
10.0
100
AcDbLine
 10
851.2539678538523
 20
-2962.227376549591
 30
0.0
 11
850.3813475319875
 21
-3012.219761307409
 31
0.0
  0
LINE
  5
2A144
330
18
100
AcDbEntity
  8
実線
 48
10.0
100
AcDbLine
 10
850.3813475319875
 20
-3012.219761307409
 30
0.0
 11
836.3834797997979
 21
-3011.975427617288
 31
0.0
  0
LINE
  5
2A145
330
18
100
AcDbEntity
  8
実線
 48
10.0
100
AcDbLine
 10
836.3834797997979
 20
-3011.975427617288
 30
0.0
 11
837.2561001216627
 21
-2961.983042859469
 31
0.0
  0
LINE
  5
2A147
330
18
100
AcDbEntity
  8
実線
 48
10.0
100
AcDbLine
 10
836.1265881757162
 20
-2912.234991791771
 30
0.0
 11
835.2539678538523
 21
-2962.227376549591
 31
0.0
  0
LINE
  5
2A149
330
18
100
AcDbEntity
  8
実線
 48
10.0
100
AcDbLine
 10
821.2561001216627
 20
-2961.983042859469
 30
0.0
 11
822.1287204435276
 21
-2911.990658101649
 31
0.0
  0
LINE
  5
2A14A
330
18
100
AcDbEntity
  8
実線
 48
10.0
100
AcDbLine
 10
822.1287204435276
 20
-2911.990658101649
 30
0.0
 11
836.1265881757162
 21
-2912.234991791771
 31
0.0
  0
LINE
  5
2A14B
330
18
100
AcDbEntity
  8
実線
 48
10.0
100
AcDbLine
 10
835.2539678538523
 20
-2962.227376549591
 30
0.0
 11
834.3813475319874
 21
-3012.219761307409
 31
0.0
  0
LINE
  5
2A14C
330
18
100
AcDbEntity
  8
実線
 48
10.0
100
AcDbLine
 10
834.3813475319874
 20
-3012.219761307409
 30
0.0
 11
820.3834797997979
 21
-3011.975427617288
 31
0.0
  0
LINE
  5
2A14D
330
18
100
AcDbEntity
  8
実線
 48
10.0
100
AcDbLine
 10
820.3834797997979
 20
-3011.975427617288
 30
0.0
 11
821.2561001216627
 21
-2961.983042859469
 31
0.0
  0
LINE
  5
2A14F
330
18
100
AcDbEntity
  8
実線
 48
10.0
100
AcDbLine
 10
820.1265881757162
 20
-2912.234991791771
 30
0.0
 11
819.2539678538523
 21
-2962.227376549591
 31
0.0
  0
LINE
  5
2A151
330
18
100
AcDbEntity
  8
実線
 48
10.0
100
AcDbLine
 10
805.2561001216627
 20
-2961.983042859469
 30
0.0
 11
806.1287204435275
 21
-2911.990658101649
 31
0.0
  0
LINE
  5
2A152
330
18
100
AcDbEntity
  8
実線
 48
10.0
100
AcDbLine
 10
806.1287204435275
 20
-2911.990658101649
 30
0.0
 11
820.1265881757162
 21
-2912.234991791771
 31
0.0
  0
LINE
  5
2A153
330
18
100
AcDbEntity
  8
実線
 48
10.0
100
AcDbLine
 10
819.2539678538523
 20
-2962.227376549591
 30
0.0
 11
818.3813475319876
 21
-3012.219761307409
 31
0.0
  0
LINE
  5
2A154
330
18
100
AcDbEntity
  8
実線
 48
10.0
100
AcDbLine
 10
818.3813475319876
 20
-3012.219761307409
 30
0.0
 11
804.3834797997979
 21
-3011.975427617288
 31
0.0
  0
LINE
  5
2A155
330
18
100
AcDbEntity
  8
実線
 48
10.0
100
AcDbLine
 10
804.3834797997979
 20
-3011.975427617288
 30
0.0
 11
805.2561001216627
 21
-2961.983042859469
 31
0.0
  0
LINE
  5
2A157
330
18
100
AcDbEntity
  8
実線
 48
10.0
100
AcDbLine
 10
804.1265881757162
 20
-2912.234991791771
 30
0.0
 11
803.2539678538523
 21
-2962.227376549591
 31
0.0
  0
LINE
  5
2A159
330
18
100
AcDbEntity
  8
実線
 48
10.0
100
AcDbLine
 10
789.2561001216627
 20
-2961.983042859469
 30
0.0
 11
790.1287204435275
 21
-2911.990658101649
 31
0.0
  0
LINE
  5
2A15A
330
18
100
AcDbEntity
  8
実線
 48
10.0
100
AcDbLine
 10
790.1287204435275
 20
-2911.990658101649
 30
0.0
 11
804.1265881757162
 21
-2912.234991791771
 31
0.0
  0
LINE
  5
2A15B
330
18
100
AcDbEntity
  8
実線
 48
10.0
100
AcDbLine
 10
803.2539678538523
 20
-2962.227376549591
 30
0.0
 11
802.3813475319876
 21
-3012.219761307409
 31
0.0
  0
LINE
  5
2A15C
330
18
100
AcDbEntity
  8
実線
 48
10.0
100
AcDbLine
 10
802.3813475319876
 20
-3012.219761307409
 30
0.0
 11
788.3834797997979
 21
-3011.975427617288
 31
0.0
  0
LINE
  5
2A15D
330
18
100
AcDbEntity
  8
実線
 48
10.0
100
AcDbLine
 10
788.3834797997979
 20
-3011.975427617288
 30
0.0
 11
789.2561001216627
 21
-2961.983042859469
 31
0.0
  0
LINE
  5
2A15F
330
18
100
AcDbEntity
  8
実線
 48
10.0
100
AcDbLine
 10
787.2539678538523
 20
-2962.227376549591
 30
0.0
 11
786.3813475319875
 21
-3012.219761307409
 31
0.0
  0
LINE
  5
2A160
330
18
100
AcDbEntity
  8
実線
 48
10.0
100
AcDbLine
 10
786.3813475319875
 20
-3012.219761307409
 30
0.0
 11
772.3834797997978
 21
-3011.975427617288
 31
0.0
  0
LINE
  5
2A161
330
18
100
AcDbEntity
  8
実線
 48
10.0
100
AcDbLine
 10
772.3834797997978
 20
-3011.975427617288
 30
0.0
 11
773.2561001216627
 21
-2961.983042859469
 31
0.0
  0
LINE
  5
2A163
330
18
100
AcDbEntity
  8
実線
 48
10.0
100
AcDbLine
 10
788.1265881757163
 20
-2912.234991791771
 30
0.0
 11
787.2539678538523
 21
-2962.227376549591
 31
0.0
  0
LINE
  5
2A165
330
18
100
AcDbEntity
  8
実線
 48
10.0
100
AcDbLine
 10
773.2561001216627
 20
-2961.983042859469
 30
0.0
 11
774.1287204435275
 21
-2911.990658101649
 31
0.0
  0
LINE
  5
2A166
330
18
100
AcDbEntity
  8
実線
 48
10.0
100
AcDbLine
 10
774.1287204435275
 20
-2911.990658101649
 30
0.0
 11
788.1265881757163
 21
-2912.234991791771
 31
0.0
  0
LINE
  5
2A167
330
18
100
AcDbEntity
  8
実線
 48
10.0
100
AcDbLine
 10
772.1265881757163
 20
-2912.234991791771
 30
0.0
 11
771.2539678538523
 21
-2962.227376549591
 31
0.0
  0
LINE
  5
2A169
330
18
100
AcDbEntity
  8
実線
 48
10.0
100
AcDbLine
 10
757.2561001216627
 20
-2961.983042859469
 30
0.0
 11
758.1287204435275
 21
-2911.990658101649
 31
0.0
  0
LINE
  5
2A16A
330
18
100
AcDbEntity
  8
実線
 48
10.0
100
AcDbLine
 10
758.1287204435275
 20
-2911.990658101649
 30
0.0
 11
772.1265881757163
 21
-2912.234991791771
 31
0.0
  0
LINE
  5
2A16B
330
18
100
AcDbEntity
  8
実線
 48
10.0
100
AcDbLine
 10
771.2539678538523
 20
-2962.227376549591
 30
0.0
 11
770.3813475319876
 21
-3012.219761307409
 31
0.0
  0
LINE
  5
2A16C
330
18
100
AcDbEntity
  8
実線
 48
10.0
100
AcDbLine
 10
770.3813475319876
 20
-3012.219761307409
 30
0.0
 11
756.3834797997978
 21
-3011.975427617288
 31
0.0
  0
LINE
  5
2A16D
330
18
100
AcDbEntity
  8
実線
 48
10.0
100
AcDbLine
 10
756.3834797997978
 20
-3011.975427617288
 30
0.0
 11
757.2561001216627
 21
-2961.983042859469
 31
0.0
  0
LINE
  5
2A16F
330
18
100
AcDbEntity
  8
実線
 48
10.0
100
AcDbLine
 10
756.1265881757162
 20
-2912.234991791771
 30
0.0
 11
755.2539678538523
 21
-2962.227376549591
 31
0.0
  0
LINE
  5
2A171
330
18
100
AcDbEntity
  8
実線
 48
10.0
100
AcDbLine
 10
741.2561001216626
 20
-2961.983042859469
 30
0.0
 11
742.1287204435275
 21
-2911.990658101649
 31
0.0
  0
LINE
  5
2A172
330
18
100
AcDbEntity
  8
実線
 48
10.0
100
AcDbLine
 10
742.1287204435275
 20
-2911.990658101649
 30
0.0
 11
756.1265881757162
 21
-2912.234991791771
 31
0.0
  0
LINE
  5
2A173
330
18
100
AcDbEntity
  8
実線
 48
10.0
100
AcDbLine
 10
755.2539678538523
 20
-2962.227376549591
 30
0.0
 11
754.3813475319876
 21
-3012.219761307409
 31
0.0
  0
LINE
  5
2A174
330
18
100
AcDbEntity
  8
実線
 48
10.0
100
AcDbLine
 10
754.3813475319876
 20
-3012.219761307409
 30
0.0
 11
740.3834797997979
 21
-3011.975427617288
 31
0.0
  0
LINE
  5
2A175
330
18
100
AcDbEntity
  8
実線
 48
10.0
100
AcDbLine
 10
740.3834797997979
 20
-3011.975427617288
 30
0.0
 11
741.2561001216626
 21
-2961.983042859469
 31
0.0
  0
LINE
  5
2A177
330
18
100
AcDbEntity
  8
実線
 48
10.0
100
AcDbLine
 10
740.1265881757162
 20
-2912.234991791771
 30
0.0
 11
739.2539678538524
 21
-2962.227376549591
 31
0.0
  0
LINE
  5
2A179
330
18
100
AcDbEntity
  8
実線
 48
10.0
100
AcDbLine
 10
725.2561001216626
 20
-2961.983042859469
 30
0.0
 11
726.1287204435275
 21
-2911.990658101649
 31
0.0
  0
LINE
  5
2A17A
330
18
100
AcDbEntity
  8
実線
 48
10.0
100
AcDbLine
 10
726.1287204435275
 20
-2911.990658101649
 30
0.0
 11
740.1265881757162
 21
-2912.234991791771
 31
0.0
  0
LINE
  5
2A17B
330
18
100
AcDbEntity
  8
実線
 48
10.0
100
AcDbLine
 10
739.2539678538524
 20
-2962.227376549591
 30
0.0
 11
738.3813475319875
 21
-3012.219761307409
 31
0.0
  0
LINE
  5
2A17C
330
18
100
AcDbEntity
  8
実線
 48
10.0
100
AcDbLine
 10
738.3813475319875
 20
-3012.219761307409
 30
0.0
 11
724.3834797997979
 21
-3011.975427617288
 31
0.0
  0
LINE
  5
2A17D
330
18
100
AcDbEntity
  8
実線
 48
10.0
100
AcDbLine
 10
724.3834797997979
 20
-3011.975427617288
 30
0.0
 11
725.2561001216626
 21
-2961.983042859469
 31
0.0
  0
LINE
  5
2A17F
330
18
100
AcDbEntity
  8
実線
 48
10.0
100
AcDbLine
 10
724.1265881757162
 20
-2912.234991791771
 30
0.0
 11
723.2539678538524
 21
-2962.227376549591
 31
0.0
  0
LINE
  5
2A181
330
18
100
AcDbEntity
  8
実線
 48
10.0
100
AcDbLine
 10
709.2561001216627
 20
-2961.983042859469
 30
0.0
 11
710.1287204435275
 21
-2911.990658101649
 31
0.0
  0
LINE
  5
2A182
330
18
100
AcDbEntity
  8
実線
 48
10.0
100
AcDbLine
 10
710.1287204435275
 20
-2911.990658101649
 30
0.0
 11
724.1265881757162
 21
-2912.234991791771
 31
0.0
  0
LINE
  5
2A183
330
18
100
AcDbEntity
  8
実線
 48
10.0
100
AcDbLine
 10
723.2539678538524
 20
-2962.227376549591
 30
0.0
 11
722.3813475319875
 21
-3012.219761307409
 31
0.0
  0
LINE
  5
2A184
330
18
100
AcDbEntity
  8
実線
 48
10.0
100
AcDbLine
 10
722.3813475319875
 20
-3012.219761307409
 30
0.0
 11
708.3834797997979
 21
-3011.975427617288
 31
0.0
  0
LINE
  5
2A185
330
18
100
AcDbEntity
  8
実線
 48
10.0
100
AcDbLine
 10
708.3834797997979
 20
-3011.975427617288
 30
0.0
 11
709.2561001216627
 21
-2961.983042859469
 31
0.0
  0
LINE
  5
2A187
330
18
100
AcDbEntity
  8
実線
 48
10.0
100
AcDbLine
 10
708.1265881757162
 20
-2912.234991791771
 30
0.0
 11
707.2539678538523
 21
-2962.227376549591
 31
0.0
  0
LINE
  5
2A189
330
18
100
AcDbEntity
  8
実線
 48
10.0
100
AcDbLine
 10
693.2561001216627
 20
-2961.983042859469
 30
0.0
 11
694.1287204435275
 21
-2911.990658101649
 31
0.0
  0
LINE
  5
2A18A
330
18
100
AcDbEntity
  8
実線
 48
10.0
100
AcDbLine
 10
694.1287204435275
 20
-2911.990658101649
 30
0.0
 11
708.1265881757162
 21
-2912.234991791771
 31
0.0
  0
LINE
  5
2A18B
330
18
100
AcDbEntity
  8
実線
 48
10.0
100
AcDbLine
 10
707.2539678538523
 20
-2962.227376549591
 30
0.0
 11
706.3813475319875
 21
-3012.219761307409
 31
0.0
  0
LINE
  5
2A18C
330
18
100
AcDbEntity
  8
実線
 48
10.0
100
AcDbLine
 10
706.3813475319875
 20
-3012.219761307409
 30
0.0
 11
692.3834797997979
 21
-3011.975427617288
 31
0.0
  0
LINE
  5
2A18D
330
18
100
AcDbEntity
  8
実線
 48
10.0
100
AcDbLine
 10
692.3834797997979
 20
-3011.975427617288
 30
0.0
 11
693.2561001216627
 21
-2961.983042859469
 31
0.0
  0
LINE
  5
2A18F
330
18
100
AcDbEntity
  8
実線
 48
10.0
100
AcDbLine
 10
692.1265881757163
 20
-2912.234991791771
 30
0.0
 11
691.2539678538523
 21
-2962.227376549591
 31
0.0
  0
LINE
  5
2A191
330
18
100
AcDbEntity
  8
実線
 48
10.0
100
AcDbLine
 10
677.2561001216627
 20
-2961.983042859469
 30
0.0
 11
678.1287204435275
 21
-2911.990658101649
 31
0.0
  0
LINE
  5
2A192
330
18
100
AcDbEntity
  8
実線
 48
10.0
100
AcDbLine
 10
678.1287204435275
 20
-2911.990658101649
 30
0.0
 11
692.1265881757163
 21
-2912.234991791771
 31
0.0
  0
LINE
  5
2A193
330
18
100
AcDbEntity
  8
実線
 48
10.0
100
AcDbLine
 10
691.2539678538523
 20
-2962.227376549591
 30
0.0
 11
690.3813475319875
 21
-3012.219761307409
 31
0.0
  0
LINE
  5
2A194
330
18
100
AcDbEntity
  8
実線
 48
10.0
100
AcDbLine
 10
690.3813475319875
 20
-3012.219761307409
 30
0.0
 11
676.3834797997978
 21
-3011.975427617288
 31
0.0
  0
LINE
  5
2A195
330
18
100
AcDbEntity
  8
実線
 48
10.0
100
AcDbLine
 10
676.3834797997978
 20
-3011.975427617288
 30
0.0
 11
677.2561001216627
 21
-2961.983042859469
 31
0.0
  0
LINE
  5
2A197
330
18
100
AcDbEntity
  8
実線
 48
10.0
100
AcDbLine
 10
675.2539678538523
 20
-2962.227376549591
 30
0.0
 11
674.3813475319875
 21
-3012.219761307409
 31
0.0
  0
LINE
  5
2A198
330
18
100
AcDbEntity
  8
実線
 48
10.0
100
AcDbLine
 10
674.3813475319875
 20
-3012.219761307409
 30
0.0
 11
660.3834797997978
 21
-3011.975427617288
 31
0.0
  0
LINE
  5
2A199
330
18
100
AcDbEntity
  8
実線
 48
10.0
100
AcDbLine
 10
660.3834797997978
 20
-3011.975427617288
 30
0.0
 11
661.2561001216627
 21
-2961.983042859469
 31
0.0
  0
LINE
  5
2A19B
330
18
100
AcDbEntity
  8
実線
 48
10.0
100
AcDbLine
 10
676.1265881757163
 20
-2912.234991791771
 30
0.0
 11
675.2539678538523
 21
-2962.227376549591
 31
0.0
  0
LINE
  5
2A19D
330
18
100
AcDbEntity
  8
実線
 48
10.0
100
AcDbLine
 10
661.2561001216627
 20
-2961.983042859469
 30
0.0
 11
662.1287204435275
 21
-2911.990658101649
 31
0.0
  0
LINE
  5
2A19E
330
18
100
AcDbEntity
  8
実線
 48
10.0
100
AcDbLine
 10
662.1287204435275
 20
-2911.990658101649
 30
0.0
 11
676.1265881757163
 21
-2912.234991791771
 31
0.0
  0
LINE
  5
2A19F
330
18
100
AcDbEntity
  8
実線
 48
10.0
100
AcDbLine
 10
660.1265881757163
 20
-2912.234991791771
 30
0.0
 11
659.2539678538523
 21
-2962.227376549591
 31
0.0
  0
LINE
  5
2A1A1
330
18
100
AcDbEntity
  8
実線
 48
10.0
100
AcDbLine
 10
645.2561001216627
 20
-2961.983042859469
 30
0.0
 11
646.1287204435275
 21
-2911.990658101649
 31
0.0
  0
LINE
  5
2A1A2
330
18
100
AcDbEntity
  8
実線
 48
10.0
100
AcDbLine
 10
646.1287204435275
 20
-2911.990658101649
 30
0.0
 11
660.1265881757163
 21
-2912.234991791771
 31
0.0
  0
LINE
  5
2A1A3
330
18
100
AcDbEntity
  8
実線
 48
10.0
100
AcDbLine
 10
659.2539678538523
 20
-2962.227376549591
 30
0.0
 11
658.3813475319876
 21
-3012.219761307409
 31
0.0
  0
LINE
  5
2A1A4
330
18
100
AcDbEntity
  8
実線
 48
10.0
100
AcDbLine
 10
658.3813475319876
 20
-3012.219761307409
 30
0.0
 11
644.3834797997979
 21
-3011.975427617288
 31
0.0
  0
LINE
  5
2A1A5
330
18
100
AcDbEntity
  8
実線
 48
10.0
100
AcDbLine
 10
644.3834797997979
 20
-3011.975427617288
 30
0.0
 11
645.2561001216627
 21
-2961.983042859469
 31
0.0
  0
LINE
  5
2A1A7
330
18
100
AcDbEntity
  8
実線
 48
10.0
100
AcDbLine
 10
643.2539678538524
 20
-2962.227376549591
 30
0.0
 11
642.3813475319875
 21
-3012.219761307409
 31
0.0
  0
LINE
  5
2A1A8
330
18
100
AcDbEntity
  8
実線
 48
10.0
100
AcDbLine
 10
642.3813475319875
 20
-3012.219761307409
 30
0.0
 11
628.3834797997979
 21
-3011.975427617288
 31
0.0
  0
LINE
  5
2A1A9
330
18
100
AcDbEntity
  8
実線
 48
10.0
100
AcDbLine
 10
628.3834797997979
 20
-3011.975427617288
 30
0.0
 11
629.2561001216626
 21
-2961.983042859469
 31
0.0
  0
LINE
  5
2A1AB
330
18
100
AcDbEntity
  8
実線
 48
10.0
100
AcDbLine
 10
644.1265881757162
 20
-2912.234991791771
 30
0.0
 11
643.2539678538524
 21
-2962.227376549591
 31
0.0
  0
LINE
  5
2A1AD
330
18
100
AcDbEntity
  8
実線
 48
10.0
100
AcDbLine
 10
629.2561001216626
 20
-2961.983042859469
 30
0.0
 11
630.1287204435275
 21
-2911.990658101649
 31
0.0
  0
LINE
  5
2A1AE
330
18
100
AcDbEntity
  8
実線
 48
10.0
100
AcDbLine
 10
630.1287204435275
 20
-2911.990658101649
 30
0.0
 11
644.1265881757162
 21
-2912.234991791771
 31
0.0
  0
LINE
  5
2A25A
330
18
100
AcDbEntity
  8
実線
100
AcDbLine
 10
1009.549461721918
 20
-2898.105209704528
 30
0.0
 11
1010.549461721918
 21
-2897.105209704529
 31
0.0
  0
LINE
  5
2A25B
330
18
100
AcDbEntity
  8
実線
100
AcDbLine
 10
1016.349461721918
 20
-2897.105209704529
 30
0.0
 11
1017.349461721918
 21
-2898.105209704528
 31
0.0
  0
VIEWPORT
  5
2AACF
330
2AACE
100
AcDbEntity
 67
     1
  8
0
100
AcDbViewport
 10
202.1822482395066
 20
142.4415423301362
 30
0.0
 40
653.3404412610555
 41
299.0343451325004
 68
     1
 69
     1
1001
ACAD
1000
MVIEW
1002
{
1070
    16
1010
0.0
1020
0.0
1030
0.0
1010
0.0
1020
0.0
1030
1.0
1040
0.0
1040
299.0343451325004
1040
202.1822482395066
1040
142.4415423301362
1040
50.0
1040
0.0
1040
0.0
1070
     0
1070
   100
1070
     1
1070
     0
1070
     0
1070
     0
1070
     0
1070
     0
1040
0.0
1040
0.0
1040
0.0
1040
10.0
1040
10.0
1040
10.0
1040
10.0
1070
     0
1002
{
1002
}
1002
}
  0
VIEWPORT
  5
2AAD0
330
2AACE
100
AcDbEntity
 67
     1
  8
M_VIEW
100
AcDbViewport
 10
200.0
 20
144.0
 30
0.0
 40
400.0
 41
288.0
 68
     2
 69
     2
1001
ACAD
1000
MVIEW
1002
{
1070
    16
1010
0.0
1020
0.0
1030
0.0
1010
0.0
1020
0.0
1030
1.0
1040
0.0
1040
432.0000002396376
1040
822.0596644839925
1040
-2995.563720227778
1040
50.0
1040
0.0
1040
0.0
1070
     0
1070
   100
1070
     1
1070
     0
1070
     0
1070
     0
1070
     0
1070
     0
1040
0.0
1040
0.0
1040
0.0
1040
10.0
1040
10.0
1040
10.0
1040
10.0
1070
     0
1002
{
1002
}
1002
}
  0
TEXT
  5
2AB46
330
2AACE
100
AcDbEntity
 67
     1
  8
FRAME020
  6
CONTINUOUS
 62
     0
100
AcDbText
 10
235.0371299708803
 20
39.45424892526988
 30
0.0
 40
3.0
  1
File name／SE-37961.dwg
 41
0.8
100
AcDbText
  0
INSERT
  5
2AB75
330
2AACE
100
AcDbEntity
 67
     1
  8
FRAME025
100
AcDbBlockReference
  2
機械A4横_LBP
 10
82.74908858651452
 20
152.030959079227
 30
0.0
  0
TEXT
  5
2AB76
330
2AACE
100
AcDbEntity
 67
     1
  8
文字
  6
BYBLOCK
 62
     0
100
AcDbText
 10
32.81885892396519
 20
73.01882819621747
 30
0.0
 40
3.2
  1

 50
90.0
 41
0.625
  7
MSｺ_ｼｯｸ
100
AcDbText
  0
TEXT
  5
2AB77
330
2AACE
100
AcDbEntity
 67
     1
  8
文字
  6
BYBLOCK
 62
     0
100
AcDbText
 10
37.25020936743055
 20
73.01882819621747
 30
0.0
 40
3.2
  1

 50
90.0
 41
0.625
  7
MSｺ_ｼｯｸ
100
AcDbText
  0
TEXT
  5
2AB78
330
2AACE
100
AcDbEntity
 67
     1
  8
FRAME020
  6
CONTINUOUS
100
AcDbText
 10
126.6213117262079
 20
29.63926951973459
 30
0.0
 40
2.5
  1

 41
0.625
  7
MSｺ_ｼｯｸ
100
AcDbText
  0
TEXT
  5
2AB7A
330
2AACE
100
AcDbEntity
 67
     1
  8
0
100
AcDbText
 10
324.703280378293
 20
10.6316829925787
 30
0.0
 40
6.0
  1
ＳＥ－５５４００Ａ
 41
1.1
100
AcDbText
  0
MTEXT
  5
2BB61
330
2AACE
100
AcDbEntity
 67
     1
  8
A
100
AcDbMText
 10
204.4069376429871
 20
27.46029840537778
 30
0.0
 40
6.0
 41
193.7662322017208
 71
     1
 72
     5
  1
τﾘﾆｱﾓｰﾀ ｺｱ付N NLA-NA MGﾍﾞｰｽ MBNA256MA (256mm)
  7
ｽﾀｲﾙ3
1001
ACAD
1000
MTEXTBEGIN
1070
    73
1070
     1
1070
    44
1040
1.0
1070
    74
1070
     0
1000
MTEXTEND
  0
ENDSEC
  0
SECTION
  2
OBJECTS
  0
DICTIONARY
  5
C
330
0
100
AcDbDictionary
  3
ACAD_GROUP
350
D
  3
ACAD_LAYOUT
350
DB2
  3
ACAD_MLINESTYLE
350
1B
  3
ACAD_PLOTSETTINGS
350
DB3
  3
ACAD_PLOTSTYLENAME
350
FB5B
  3
ACADDIM
350
2A25C
  3
ACDBHEADERROUNDTRIPXREC
350
2BB72
  3
ACDBVARIABLEDICTIONARY
350
106A6
  3
ASE_INDEX_DICTIONARY
350
1A99F
  3
DWGPROPS
350
2BB71
1001
ACAD
1000
TREAT_AS_HARD
1070
     0
  0
DICTIONARY
  5
25084
330
2
100
AcDbDictionary
280
     1
  3
ACAD_LAYERFILTERS
360
25085
  3
ACAD_LAYERSTATES
360
25092
  0
DICTIONARY
  5
EFC6
330
18
100
AcDbDictionary
280
     1
  3
ACAD_LAYOUTSELFREF
360
2BB93
  0
DICTIONARY
  5
2ABBC
330
2AACE
100
AcDbDictionary
280
     1
  3
ACAD_LAYOUTSELFREF
360
2BB94
  0
DICTIONARY
  5
D
102
{ACAD_REACTORS
330
C
102
}
330
C
100
AcDbDictionary
  3
*A1
350
AC8A
  3
*A10
350
24723
  3
*A100
350
1738B
  3
*A101
350
24A4A
  3
*A102
350
29241
  3
*A103
350
24A62
  3
*A104
350
242AE
  3
*A105
350
1B729
  3
*A106
350
2956F
  3
*A107
350
18FA6
  3
*A108
350
240EF
  3
*A109
350
1A695
  3
*A11
350
1D710
  3
*A110
350
24AFE
  3
*A111
350
274AA
  3
*A112
350
1AA94
  3
*A113
350
29572
  3
*A114
350
2693F
  3
*A115
350
1D6FC
  3
*A116
350
173BE
  3
*A117
350
22498
  3
*A118
350
16068
  3
*A119
350
25E7E
  3
*A12
350
19A51
  3
*A120
350
28E19
  3
*A121
350
24B0A
  3
*A122
350
24A17
  3
*A123
350
25282
  3
*A124
350
23A77
  3
*A125
350
274AD
  3
*A126
350
1D6DE
  3
*A127
350
18F1F
  3
*A128
350
24722
  3
*A129
350
24A9E
  3
*A13
350
1EB7F
  3
*A130
350
1B73B
  3
*A131
350
25510
  3
*A132
350
2A803
  3
*A133
350
24A80
  3
*A134
350
2471D
  3
*A135
350
2022C
  3
*A136
350
2A89F
  3
*A137
350
24A86
  3
*A138
350
2A8A6
  3
*A139
350
224D1
  3
*A14
350
2698A
  3
*A140
350
252FF
  3
*A141
350
24724
  3
*A142
350
FCB8
  3
*A143
350
24913
  3
*A144
350
25E81
  3
*A145
350
FB6C
  3
*A146
350
2471E
  3
*A147
350
26989
  3
*A148
350
17B11
  3
*A149
350
1F8F5
  3
*A15
350
28101
  3
*A150
350
24721
  3
*A151
350
24A44
  3
*A152
350
24A49
  3
*A153
350
274FD
  3
*A154
350
29240
  3
*A155
350
29245
  3
*A156
350
17901
  3
*A157
350
24AF8
  3
*A158
350
2471F
  3
*A159
350
1B756
  3
*A16
350
ACBD
  3
*A160
350
2002B
  3
*A161
350
24B44
  3
*A162
350
1F8FA
  3
*A163
350
267CB
  3
*A164
350
2A738
  3
*A165
350
28E67
  3
*A166
350
24AE0
  3
*A167
350
1D6F2
  3
*A168
350
20222
  3
*A169
350
ACB4
  3
*A17
350
19F99
  3
*A170
350
1D6A2
  3
*A171
350
1D698
  3
*A172
350
198F1
  3
*A173
350
26FD6
  3
*A174
350
24AEC
  3
*A175
350
28AF1
  3
*A176
350
24A02
  3
*A177
350
19881
  3
*A178
350
1F8FF
  3
*A179
350
18F20
  3
*A18
350
24A10
  3
*A180
350
20227
  3
*A181
350
1F909
  3
*A182
350
16059
  3
*A183
350
24A6E
  3
*A184
350
2698B
  3
*A185
350
1A691
  3
*A186
350
242E0
  3
*A187
350
2472A
  3
*A188
350
224AC
  3
*A189
350
24A50
  3
*A19
350
24AA4
  3
*A190
350
232CA
  3
*A191
350
1F913
  3
*A192
350
1F904
  3
*A193
350
1B732
  3
*A194
350
23CC2
  3
*A195
350
24A43
  3
*A196
350
24AD4
  3
*A197
350
20209
  3
*A198
350
28E17
  3
*A199
350
242AF
  3
*A2
350
24A98
  3
*A20
350
106C7
  3
*A200
350
242D2
  3
*A201
350
23BB2
  3
*A202
350
20218
  3
*A203
350
28AEE
  3
*A204
350
19989
  3
*A205
350
25B65
  3
*A206
350
242C3
  3
*A207
350
26FD7
  3
*A208
350
24728
  3
*A209
350
252FE
  3
*A21
350
25346
  3
*A210
350
295C8
  3
*A211
350
28E13
  3
*A212
350
24AB0
  3
*A213
350
25E82
  3
*A214
350
2472D
  3
*A215
350
24ADA
  3
*A216
350
16058
  3
*A217
350
1B720
  3
*A218
350
24A7A
  3
*A219
350
1D6CA
  3
*A22
350
2A73C
  3
*A220
350
20010
  3
*A221
350
2A73E
  3
*A222
350
20231
  3
*A223
350
24A5C
  3
*A224
350
24A46
  3
*A225
350
2923F
  3
*A226
350
1606B
  3
*A227
350
19256
  3
*A228
350
240F2
  3
*A229
350
18FA7
  3
*A23
350
242A7
  3
*A230
350
227B2
  3
*A231
350
1D68E
  3
*A232
350
1EB80
  3
*A233
350
20019
  3
*A234
350
1EB7C
  3
*A235
350
227B1
  3
*A236
350
242A8
  3
*A237
350
240ED
  3
*A238
350
242D9
  3
*A239
350
24B32
  3
*A24
350
25388
  3
*A240
350
28AF3
  3
*A241
350
19861
  3
*A242
350
27F12
  3
*A243
350
24B56
  3
*A244
350
1F90E
  3
*A245
350
1EB7D
  3
*A246
350
249F2
  3
*A247
350
24A48
  3
*A248
350
24727
  3
*A249
350
25BC1
  3
*A25
350
26FD5
  3
*A250
350
1738A
  3
*A251
350
17BFF
  3
*A252
350
27F1A
  3
*A253
350
29573
  3
*A254
350
1B74D
  3
*A255
350
24729
  3
*A256
350
2471B
  3
*A257
350
24725
  3
*A258
350
274FB
  3
*A259
350
28AEF
  3
*A26
350
FBFF
  3
*A260
350
28AF4
  3
*A261
350
24B10
  3
*A262
350
251F4
  3
*A263
350
19988
  3
*A264
350
20016
  3
*A265
350
242CA
  3
*A266
350
24A4C
  3
*A267
350
274A8
  3
*A268
350
106A5
  3
*A269
350
18F23
  3
*A27
350
24A11
  3
*A270
350
1F91D
  3
*A271
350
240EE
  3
*A272
350
29571
  3
*A273
350
23BB3
  3
*A274
350
2694C
  3
*A275
350
24A4F
  3
*A276
350
24719
  3
*A277
350
24730
  3
*A278
350
25E83
  3
*A279
350
173BF
  3
*A28
350
242D1
  3
*A280
350
19729
  3
*A281
350
24AC2
  3
*A282
350
19AA4
  3
*A283
350
24A74
  3
*A284
350
23BB4
  3
*A285
350
28E1A
  3
*A286
350
26901
  3
*A287
350
249F3
  3
*A288
350
2020E
  3
*A289
350
274AB
  3
*A29
350
28E14
  3
*A290
350
19F87
  3
*A291
350
2472C
  3
*A292
350
25300
  3
*A293
350
27F1B
  3
*A294
350
20022
  3
*A295
350
27F13
  3
*A296
350
196C2
  3
*A297
350
19F55
  3
*A298
350
1EB7E
  3
*A299
350
24A92
  3
*A3
350
106C6
  3
*A30
350
16069
  3
*A300
350
24ABC
  3
*A301
350
27BB7
  3
*A302
350
24A8C
  3
*A303
350
2001F
  3
*A304
350
1A692
  3
*A305
350
19259
  3
*A306
350
19A52
  3
*A307
350
2A739
  3
*A308
350
1F8F0
  3
*A309
350
18F22
  3
*A31
350
242B6
  3
*A310
350
24A4B
  3
*A311
350
24A68
  3
*A312
350
20028
  3
*A313
350
242D8
  3
*A314
350
29244
  3
*A315
350
249FB
  3
*A316
350
242B5
  3
*A317
350
24B04
  3
*A318
350
25E84
  3
*A319
350
24AB6
  3
*A32
350
1A09A
  3
*A320
350
26964
  3
*A321
350
27F10
  3
*A322
350
240F0
  3
*A323
350
2471C
  3
*A324
350
19794
  3
*A325
350
2A73A
  3
*A326
350
274AC
  3
*A327
350
25F19
  3
*A328
350
27F14
  3
*A329
350
274FC
  3
*A33
350
215A2
  3
*A330
350
29603
  3
*A331
350
1B744
  3
*A332
350
19FAB
  3
*A333
350
ACA1
  3
*A334
350
24914
  3
*A335
350
1D6AC
  3
*A336
350
22AAC
  3
*A337
350
24A47
  3
*A338
350
24A03
  3
*A339
350
FC9A
  3
*A34
350
24A18
  3
*A340
350
20013
  3
*A341
350
240F1
  3
*A342
350
20CA2
  3
*A343
350
18FA8
  3
*A344
350
242DF
  3
*A345
350
24AF2
  3
*A346
350
20213
  3
*A347
350
24A0A
  3
*A348
350
1D670
  3
*A349
350
AC9A
  3
*A35
350
2471A
  3
*A350
350
FC91
  3
*A351
350
106B3
  3
*A352
350
249FA
  3
*A353
350
242BC
  3
*A354
350
242E7
  3
*A355
350
2472B
  3
*A356
350
27F0F
  3
*A357
350
173BD
  3
*A358
350
1D6D4
  3
*A359
350
24AC8
  3
*A36
350
20236
  3
*A360
350
27F19
  3
*A361
350
242CB
  3
*A362
350
2A73B
  3
*A363
350
2001C
  3
*A37
350
1D67A
  3
*A38
350
28E7F
  3
*A39
350
22E4B
  3
*A4
350
24A1E
  3
*A40
350
242BD
  3
*A41
350
29574
  3
*A42
350
24717
  3
*A43
350
19A5A
  3
*A44
350
FB6B
  3
*A45
350
19A86
  3
*A46
350
242C4
  3
*A47
350
26FD9
  3
*A48
350
23CC3
  3
*A49
350
FC9B
  3
*A5
350
20025
  3
*A50
350
1998A
  3
*A51
350
1D6C0
  3
*A52
350
19255
  3
*A53
350
28AF0
  3
*A54
350
1D6E8
  3
*A55
350
2A73F
  3
*A56
350
25E80
  3
*A57
350
19786
  3
*A58
350
2472F
  3
*A59
350
2A73D
  3
*A6
350
24718
  3
*A60
350
24A4D
  3
*A61
350
2812F
  3
*A62
350
20CA6
  3
*A63
350
270B1
  3
*A64
350
28E16
  3
*A65
350
29576
  3
*A66
350
26962
  3
*A67
350
24ACE
  3
*A68
350
19F67
  3
*A69
350
24726
  3
*A7
350
24A4E
  3
*A70
350
1D706
  3
*A71
350
2867F
  3
*A72
350
254C6
  3
*A73
350
24A45
  3
*A74
350
26FD8
  3
*A75
350
2A740
  3
*A76
350
28680
  3
*A77
350
1D6B6
  3
*A78
350
2244A
  3
*A79
350
25E7F
  3
*A8
350
1F918
  3
*A80
350
2472E
  3
*A81
350
1606A
  3
*A82
350
1D684
  3
*A83
350
ACA2
  3
*A84
350
18F21
  3
*A85
350
242E6
  3
*A86
350
2A815
  3
*A87
350
17389
  3
*A88
350
FC95
  3
*A89
350
2021D
  3
*A9
350
274A9
  3
*A90
350
24AE6
  3
*A91
350
23CC4
  3
*A92
350
ACAB
  3
*A93
350
24A1F
  3
*A94
350
27F11
  3
*A95
350
19787
  3
*A96
350
24A09
  3
*A97
350
24720
  3
*A98
350
169DA
  3
*A99
350
24AAA
1001
ACAD
1000
TREAT_AS_HARD
1070
     0
  0
DICTIONARY
  5
DB2
102
{ACAD_REACTORS
330
C
102
}
330
C
100
AcDbDictionary
1001
ACAD
1000
TREAT_AS_HARD
1070
     0
  0
DICTIONARY
  5
1B
102
{ACAD_REACTORS
330
C
102
}
330
C
100
AcDbDictionary
  3
STANDARD
350
1C
1001
ACAD
1000
TREAT_AS_HARD
1070
     0
  0
DICTIONARY
  5
DB3
102
{ACAD_REACTORS
330
C
102
}
330
C
100
AcDbDictionary
1001
ACAD
1000
TREAT_AS_HARD
1070
     0
  0
ACDBDICTIONARYWDFLT
  5
FB5B
102
{ACAD_REACTORS
330
C
102
}
330
C
100
AcDbDictionary
281
     1
  3
Normal
350
FB5C
100
AcDbDictionaryWithDefault
340
FB5C
  0
XRECORD
  5
2A25C
102
{ACAD_REACTORS
330
C
102
}
330
C
100
AcDbXrecord
 90
   990106
  3

 60
     0
 61
     0
 62
     4
 63
     4
 64
     1
 65
     0
 66
     0
 67
     3
 68
     1
 69
     0
 70
     0
 71
     0
 72
     0
 40
0.0
170
     2
340
0
  0
DICTIONARY
  5
2BB72
102
{ACAD_REACTORS
330
C
102
}
330
C
100
AcDbDictionary
  3
CEPSNTYPE
350
2BB7C
  3
DIMSTYLEDATA
350
2BB80
  3
FINGERPRINTGUID
350
2BB7D
  3
HYPERLINKBASE
350
2BB75
  3
INSUNITS
350
2BB7B
  3
LAYOUTDICT
350
2BB77
  3
LWETCUNION
350
2BB7A
  3
PLOTSETDICT
350
2BB78
  3
PLOTSTYLNAMDICT
350
2BB79
  3
PSVPSCALE
350
2BB7F
  3
PUCSBASE
350
2BB83
  3
PUCSORGBACK
350
2BB89
  3
PUCSORGBOTTOM
350
2BB85
  3
PUCSORGFRONT
350
2BB88
  3
PUCSORGLEFT
350
2BB86
  3
PUCSORGRIGHT
350
2BB87
  3
PUCSORGTOP
350
2BB84
  3
PUCSORTHOREF
350
2BB81
  3
PUCSORTHOVIEW
350
2BB82
  3
STYLESHEET
350
2BB76
  3
TSTACKALIGN
350
2BB73
  3
TSTACKSIZE
350
2BB74
  3
UCSBASE
350
2BB8C
  3
UCSORGBACK
350
2BB92
  3
UCSORGBOTTOM
350
2BB8E
  3
UCSORGFRONT
350
2BB91
  3
UCSORGLEFT
350
2BB8F
  3
UCSORGRIGHT
350
2BB90
  3
UCSORGTOP
350
2BB8D
  3
UCSORTHOREF
350
2BB8A
  3
UCSORTHOVIEW
350
2BB8B
  3
VERSIONGUID
350
2BB7E
  0
DICTIONARY
  5
106A6
102
{ACAD_REACTORS
330
C
102
}
330
C
100
AcDbDictionary
  3
SORTENTS
350
106A7
  0
DICTIONARY
  5
1A99F
102
{ACAD_REACTORS
330
C
102
}
330
C
100
AcDbDictionary
  3
ASEBLOCKHIERARCHYINDEXRECORD
350
1A9A1
1001
DCO15
1040
1464612067.17
  0
XRECORD
  5
2BB71
102
{ACAD_REACTORS
330
C
102
}
330
C
100
AcDbXrecord
  1
DWGPROPS COOKIE
  2

  3

  4

  6

  7

  8

  9

300
=
301
=
302
=
303
=
304
=
305
=
306
=
307
=
308
=
309
=
 40
17.54121857638889
 41
2451224.660162384
 42
2455601.652884653
  1

 90
        0
  0
DICTIONARY
  5
25085
102
{ACAD_REACTORS
330
25084
102
}
330
25084
100
AcDbDictionary
280
     1
  3
0
360
2BB1C
  3
11
360
2BB1D
  3
150_
360
2BB1E
  3
160_
360
2BB1F
  3
170_
360
2BB20
  3
171_
360
2BB21
  3
350_
360
2BB22
  3
4
360
2BB23
  3
5
360
2BB24
  3
7
360
2BB25
  3
KISEKI
360
2BB26
  0
DICTIONARY
  5
25092
102
{ACAD_REACTORS
330
25084
102
}
330
25084
100
AcDbDictionary
  0
XRECORD
  5
2BB93
102
{ACAD_REACTORS
330
EFC6
102
}
330
EFC6
100
AcDbXrecord
340
18
  0
XRECORD
  5
2BB94
102
{ACAD_REACTORS
330
2ABBC
102
}
330
2ABBC
100
AcDbXrecord
340
2AACE
  0
GROUP
  5
AC8A
102
{ACAD_REACTORS
330
D
102
}
330
D
100
AcDbGroup
300

 70
     1
 71
     1
  0
GROUP
  5
24723
102
{ACAD_REACTORS
330
D
102
}
330
D
100
AcDbGroup
300

 70
     1
 71
     1
  0
GROUP
  5
1738B
102
{ACAD_REACTORS
330
D
102
}
330
D
100
AcDbGroup
300

 70
     1
 71
     1
  0
GROUP
  5
24A4A
102
{ACAD_REACTORS
330
D
102
}
330
D
100
AcDbGroup
300

 70
     1
 71
     1
  0
GROUP
  5
29241
102
{ACAD_REACTORS
330
D
102
}
330
D
100
AcDbGroup
300

 70
     1
 71
     1
340
29046
340
29034
340
29045
340
29037
340
29044
340
29033
340
29032
340
29019
340
29017
340
29018
  0
GROUP
  5
24A62
102
{ACAD_REACTORS
330
D
102
}
330
D
100
AcDbGroup
300

 70
     1
 71
     1
  0
GROUP
  5
242AE
102
{ACAD_REACTORS
330
D
102
}
330
D
100
AcDbGroup
300

 70
     1
 71
     1
  0
GROUP
  5
1B729
102
{ACAD_REACTORS
330
D
102
}
330
D
100
AcDbGroup
300

 70
     1
 71
     1
  0
GROUP
  5
2956F
102
{ACAD_REACTORS
330
D
102
}
330
D
100
AcDbGroup
300

 70
     1
 71
     1
  0
GROUP
  5
18FA6
102
{ACAD_REACTORS
330
D
102
}
330
D
100
AcDbGroup
300

 70
     1
 71
     1
  0
GROUP
  5
240EF
102
{ACAD_REACTORS
330
D
102
}
330
D
100
AcDbGroup
300

 70
     1
 71
     1
  0
GROUP
  5
1A695
102
{ACAD_REACTORS
330
D
102
}
330
D
100
AcDbGroup
300

 70
     1
 71
     1
  0
GROUP
  5
1D710
102
{ACAD_REACTORS
330
D
102
}
330
D
100
AcDbGroup
300

 70
     1
 71
     1
  0
GROUP
  5
24AFE
102
{ACAD_REACTORS
330
D
102
}
330
D
100
AcDbGroup
300

 70
     1
 71
     1
  0
GROUP
  5
274AA
102
{ACAD_REACTORS
330
D
102
}
330
D
100
AcDbGroup
300

 70
     1
 71
     1
  0
GROUP
  5
1AA94
102
{ACAD_REACTORS
330
D
102
}
330
D
100
AcDbGroup
300

 70
     1
 71
     1
  0
GROUP
  5
29572
102
{ACAD_REACTORS
330
D
102
}
330
D
100
AcDbGroup
300

 70
     1
 71
     1
  0
GROUP
  5
2693F
102
{ACAD_REACTORS
330
D
102
}
330
D
100
AcDbGroup
300

 70
     1
 71
     1
  0
GROUP
  5
1D6FC
102
{ACAD_REACTORS
330
D
102
}
330
D
100
AcDbGroup
300

 70
     1
 71
     1
  0
GROUP
  5
173BE
102
{ACAD_REACTORS
330
D
102
}
330
D
100
AcDbGroup
300

 70
     1
 71
     1
  0
GROUP
  5
22498
102
{ACAD_REACTORS
330
D
102
}
330
D
100
AcDbGroup
300

 70
     1
 71
     1
  0
GROUP
  5
16068
102
{ACAD_REACTORS
330
D
102
}
330
D
100
AcDbGroup
300

 70
     1
 71
     1
  0
GROUP
  5
25E7E
102
{ACAD_REACTORS
330
D
102
}
330
D
100
AcDbGroup
300

 70
     1
 71
     1
  0
GROUP
  5
19A51
102
{ACAD_REACTORS
330
D
102
}
330
D
100
AcDbGroup
300

 70
     1
 71
     1
  0
GROUP
  5
28E19
102
{ACAD_REACTORS
330
D
102
}
330
D
100
AcDbGroup
300

 70
     1
 71
     1
  0
GROUP
  5
24B0A
102
{ACAD_REACTORS
330
D
102
}
330
D
100
AcDbGroup
300

 70
     1
 71
     1
  0
GROUP
  5
24A17
102
{ACAD_REACTORS
330
D
102
}
330
D
100
AcDbGroup
300

 70
     1
 71
     1
  0
GROUP
  5
25282
102
{ACAD_REACTORS
330
D
102
}
330
D
100
AcDbGroup
300

 70
     1
 71
     1
  0
GROUP
  5
23A77
102
{ACAD_REACTORS
330
D
102
}
330
D
100
AcDbGroup
300

 70
     1
 71
     1
  0
GROUP
  5
274AD
102
{ACAD_REACTORS
330
D
102
}
330
D
100
AcDbGroup
300

 70
     1
 71
     1
  0
GROUP
  5
1D6DE
102
{ACAD_REACTORS
330
D
102
}
330
D
100
AcDbGroup
300

 70
     1
 71
     1
  0
GROUP
  5
18F1F
102
{ACAD_REACTORS
330
D
102
}
330
D
100
AcDbGroup
300

 70
     1
 71
     1
  0
GROUP
  5
24722
102
{ACAD_REACTORS
330
D
102
}
330
D
100
AcDbGroup
300

 70
     1
 71
     1
  0
GROUP
  5
24A9E
102
{ACAD_REACTORS
330
D
102
}
330
D
100
AcDbGroup
300

 70
     1
 71
     1
  0
GROUP
  5
1EB7F
102
{ACAD_REACTORS
330
D
102
}
330
D
100
AcDbGroup
300

 70
     1
 71
     1
  0
GROUP
  5
1B73B
102
{ACAD_REACTORS
330
D
102
}
330
D
100
AcDbGroup
300

 70
     1
 71
     1
  0
GROUP
  5
25510
102
{ACAD_REACTORS
330
D
102
}
330
D
100
AcDbGroup
300

 70
     1
 71
     1
  0
GROUP
  5
2A803
102
{ACAD_REACTORS
330
D
102
}
330
D
100
AcDbGroup
300

 70
     1
 71
     1
  0
GROUP
  5
24A80
102
{ACAD_REACTORS
330
D
102
}
330
D
100
AcDbGroup
300

 70
     1
 71
     1
  0
GROUP
  5
2471D
102
{ACAD_REACTORS
330
D
102
}
330
D
100
AcDbGroup
300

 70
     1
 71
     1
  0
GROUP
  5
2022C
102
{ACAD_REACTORS
330
D
102
}
330
D
100
AcDbGroup
300

 70
     1
 71
     1
  0
GROUP
  5
2A89F
102
{ACAD_REACTORS
330
D
102
}
330
D
100
AcDbGroup
300

 70
     1
 71
     1
  0
GROUP
  5
24A86
102
{ACAD_REACTORS
330
D
102
}
330
D
100
AcDbGroup
300

 70
     1
 71
     1
  0
GROUP
  5
2A8A6
102
{ACAD_REACTORS
330
D
102
}
330
D
100
AcDbGroup
300

 70
     1
 71
     1
  0
GROUP
  5
224D1
102
{ACAD_REACTORS
330
D
102
}
330
D
100
AcDbGroup
300

 70
     1
 71
     1
  0
GROUP
  5
2698A
102
{ACAD_REACTORS
330
D
102
}
330
D
100
AcDbGroup
300

 70
     1
 71
     1
  0
GROUP
  5
252FF
102
{ACAD_REACTORS
330
D
102
}
330
D
100
AcDbGroup
300

 70
     1
 71
     1
  0
GROUP
  5
24724
102
{ACAD_REACTORS
330
D
102
}
330
D
100
AcDbGroup
300

 70
     1
 71
     1
  0
GROUP
  5
FCB8
102
{ACAD_REACTORS
330
D
102
}
330
D
100
AcDbGroup
300

 70
     1
 71
     1
  0
GROUP
  5
24913
102
{ACAD_REACTORS
330
D
102
}
330
D
100
AcDbGroup
300

 70
     1
 71
     1
  0
GROUP
  5
25E81
102
{ACAD_REACTORS
330
D
102
}
330
D
100
AcDbGroup
300

 70
     1
 71
     1
  0
GROUP
  5
FB6C
102
{ACAD_REACTORS
330
D
102
}
330
D
100
AcDbGroup
300

 70
     1
 71
     1
  0
GROUP
  5
2471E
102
{ACAD_REACTORS
330
D
102
}
330
D
100
AcDbGroup
300

 70
     1
 71
     1
  0
GROUP
  5
26989
102
{ACAD_REACTORS
330
D
102
}
330
D
100
AcDbGroup
300

 70
     1
 71
     1
  0
GROUP
  5
17B11
102
{ACAD_REACTORS
330
D
102
}
330
D
100
AcDbGroup
300

 70
     1
 71
     1
  0
GROUP
  5
1F8F5
102
{ACAD_REACTORS
330
D
102
}
330
D
100
AcDbGroup
300

 70
     1
 71
     1
  0
GROUP
  5
28101
102
{ACAD_REACTORS
330
D
102
}
330
D
100
AcDbGroup
300

 70
     1
 71
     1
  0
GROUP
  5
24721
102
{ACAD_REACTORS
330
D
102
}
330
D
100
AcDbGroup
300

 70
     1
 71
     1
  0
GROUP
  5
24A44
102
{ACAD_REACTORS
330
D
102
}
330
D
100
AcDbGroup
300

 70
     1
 71
     1
  0
GROUP
  5
24A49
102
{ACAD_REACTORS
330
D
102
}
330
D
100
AcDbGroup
300

 70
     1
 71
     1
  0
GROUP
  5
274FD
102
{ACAD_REACTORS
330
D
102
}
330
D
100
AcDbGroup
300

 70
     1
 71
     1
  0
GROUP
  5
29240
102
{ACAD_REACTORS
330
D
102
}
330
D
100
AcDbGroup
300

 70
     1
 71
     1
  0
GROUP
  5
29245
102
{ACAD_REACTORS
330
D
102
}
330
D
100
AcDbGroup
300

 70
     1
 71
     1
340
28F58
340
28F59
340
28F5D
340
28F5E
340
28F5F
340
28F60
340
28F69
340
28F6A
340
28F71
340
28F72
340
28F73
340
28F74
340
28F80
340
28F81
340
28F82
340
28F83
340
28F84
340
28F85
  0
GROUP
  5
17901
102
{ACAD_REACTORS
330
D
102
}
330
D
100
AcDbGroup
300

 70
     1
 71
     1
  0
GROUP
  5
24AF8
102
{ACAD_REACTORS
330
D
102
}
330
D
100
AcDbGroup
300

 70
     1
 71
     1
  0
GROUP
  5
2471F
102
{ACAD_REACTORS
330
D
102
}
330
D
100
AcDbGroup
300

 70
     1
 71
     1
  0
GROUP
  5
1B756
102
{ACAD_REACTORS
330
D
102
}
330
D
100
AcDbGroup
300

 70
     1
 71
     1
  0
GROUP
  5
ACBD
102
{ACAD_REACTORS
330
D
102
}
330
D
100
AcDbGroup
300

 70
     1
 71
     1
  0
GROUP
  5
2002B
102
{ACAD_REACTORS
330
D
102
}
330
D
100
AcDbGroup
300

 70
     1
 71
     1
  0
GROUP
  5
24B44
102
{ACAD_REACTORS
330
D
102
}
330
D
100
AcDbGroup
300

 70
     1
 71
     1
  0
GROUP
  5
1F8FA
102
{ACAD_REACTORS
330
D
102
}
330
D
100
AcDbGroup
300

 70
     1
 71
     1
  0
GROUP
  5
267CB
102
{ACAD_REACTORS
330
D
102
}
330
D
100
AcDbGroup
300

 70
     1
 71
     1
  0
GROUP
  5
2A738
102
{ACAD_REACTORS
330
D
102
}
330
D
100
AcDbGroup
300

 70
     1
 71
     1
  0
GROUP
  5
28E67
102
{ACAD_REACTORS
330
D
102
}
330
D
100
AcDbGroup
300

 70
     1
 71
     1
  0
GROUP
  5
24AE0
102
{ACAD_REACTORS
330
D
102
}
330
D
100
AcDbGroup
300

 70
     1
 71
     1
  0
GROUP
  5
1D6F2
102
{ACAD_REACTORS
330
D
102
}
330
D
100
AcDbGroup
300

 70
     1
 71
     1
  0
GROUP
  5
20222
102
{ACAD_REACTORS
330
D
102
}
330
D
100
AcDbGroup
300

 70
     1
 71
     1
  0
GROUP
  5
ACB4
102
{ACAD_REACTORS
330
D
102
}
330
D
100
AcDbGroup
300

 70
     1
 71
     1
  0
GROUP
  5
19F99
102
{ACAD_REACTORS
330
D
102
}
330
D
100
AcDbGroup
300

 70
     1
 71
     1
  0
GROUP
  5
1D6A2
102
{ACAD_REACTORS
330
D
102
}
330
D
100
AcDbGroup
300

 70
     1
 71
     1
  0
GROUP
  5
1D698
102
{ACAD_REACTORS
330
D
102
}
330
D
100
AcDbGroup
300

 70
     1
 71
     1
  0
GROUP
  5
198F1
102
{ACAD_REACTORS
330
D
102
}
330
D
100
AcDbGroup
300

 70
     1
 71
     1
  0
GROUP
  5
26FD6
102
{ACAD_REACTORS
330
D
102
}
330
D
100
AcDbGroup
300

 70
     1
 71
     1
  0
GROUP
  5
24AEC
102
{ACAD_REACTORS
330
D
102
}
330
D
100
AcDbGroup
300

 70
     1
 71
     1
  0
GROUP
  5
28AF1
102
{ACAD_REACTORS
330
D
102
}
330
D
100
AcDbGroup
300

 70
     1
 71
     1
  0
GROUP
  5
24A02
102
{ACAD_REACTORS
330
D
102
}
330
D
100
AcDbGroup
300

 70
     1
 71
     1
  0
GROUP
  5
19881
102
{ACAD_REACTORS
330
D
102
}
330
D
100
AcDbGroup
300

 70
     1
 71
     1
  0
GROUP
  5
1F8FF
102
{ACAD_REACTORS
330
D
102
}
330
D
100
AcDbGroup
300

 70
     1
 71
     1
  0
GROUP
  5
18F20
102
{ACAD_REACTORS
330
D
102
}
330
D
100
AcDbGroup
300

 70
     1
 71
     1
  0
GROUP
  5
24A10
102
{ACAD_REACTORS
330
D
102
}
330
D
100
AcDbGroup
300

 70
     1
 71
     1
  0
GROUP
  5
20227
102
{ACAD_REACTORS
330
D
102
}
330
D
100
AcDbGroup
300

 70
     1
 71
     1
  0
GROUP
  5
1F909
102
{ACAD_REACTORS
330
D
102
}
330
D
100
AcDbGroup
300

 70
     1
 71
     1
  0
GROUP
  5
16059
102
{ACAD_REACTORS
330
D
102
}
330
D
100
AcDbGroup
300

 70
     1
 71
     1
  0
GROUP
  5
24A6E
102
{ACAD_REACTORS
330
D
102
}
330
D
100
AcDbGroup
300

 70
     1
 71
     1
  0
GROUP
  5
2698B
102
{ACAD_REACTORS
330
D
102
}
330
D
100
AcDbGroup
300

 70
     1
 71
     1
  0
GROUP
  5
1A691
102
{ACAD_REACTORS
330
D
102
}
330
D
100
AcDbGroup
300

 70
     1
 71
     1
  0
GROUP
  5
242E0
102
{ACAD_REACTORS
330
D
102
}
330
D
100
AcDbGroup
300

 70
     1
 71
     1
  0
GROUP
  5
2472A
102
{ACAD_REACTORS
330
D
102
}
330
D
100
AcDbGroup
300

 70
     1
 71
     1
  0
GROUP
  5
224AC
102
{ACAD_REACTORS
330
D
102
}
330
D
100
AcDbGroup
300

 70
     1
 71
     1
  0
GROUP
  5
24A50
102
{ACAD_REACTORS
330
D
102
}
330
D
100
AcDbGroup
300

 70
     1
 71
     1
  0
GROUP
  5
24AA4
102
{ACAD_REACTORS
330
D
102
}
330
D
100
AcDbGroup
300

 70
     1
 71
     1
  0
GROUP
  5
232CA
102
{ACAD_REACTORS
330
D
102
}
330
D
100
AcDbGroup
300

 70
     1
 71
     1
  0
GROUP
  5
1F913
102
{ACAD_REACTORS
330
D
102
}
330
D
100
AcDbGroup
300

 70
     1
 71
     1
  0
GROUP
  5
1F904
102
{ACAD_REACTORS
330
D
102
}
330
D
100
AcDbGroup
300

 70
     1
 71
     1
  0
GROUP
  5
1B732
102
{ACAD_REACTORS
330
D
102
}
330
D
100
AcDbGroup
300

 70
     1
 71
     1
  0
GROUP
  5
23CC2
102
{ACAD_REACTORS
330
D
102
}
330
D
100
AcDbGroup
300

 70
     1
 71
     1
  0
GROUP
  5
24A43
102
{ACAD_REACTORS
330
D
102
}
330
D
100
AcDbGroup
300

 70
     1
 71
     1
  0
GROUP
  5
24AD4
102
{ACAD_REACTORS
330
D
102
}
330
D
100
AcDbGroup
300

 70
     1
 71
     1
  0
GROUP
  5
20209
102
{ACAD_REACTORS
330
D
102
}
330
D
100
AcDbGroup
300

 70
     1
 71
     1
  0
GROUP
  5
28E17
102
{ACAD_REACTORS
330
D
102
}
330
D
100
AcDbGroup
300

 70
     1
 71
     1
  0
GROUP
  5
242AF
102
{ACAD_REACTORS
330
D
102
}
330
D
100
AcDbGroup
300

 70
     1
 71
     1
  0
GROUP
  5
24A98
102
{ACAD_REACTORS
330
D
102
}
330
D
100
AcDbGroup
300

 70
     1
 71
     1
  0
GROUP
  5
106C7
102
{ACAD_REACTORS
330
D
102
}
330
D
100
AcDbGroup
300

 70
     1
 71
     1
  0
GROUP
  5
242D2
102
{ACAD_REACTORS
330
D
102
}
330
D
100
AcDbGroup
300

 70
     1
 71
     1
  0
GROUP
  5
23BB2
102
{ACAD_REACTORS
330
D
102
}
330
D
100
AcDbGroup
300

 70
     1
 71
     1
  0
GROUP
  5
20218
102
{ACAD_REACTORS
330
D
102
}
330
D
100
AcDbGroup
300

 70
     1
 71
     1
  0
GROUP
  5
28AEE
102
{ACAD_REACTORS
330
D
102
}
330
D
100
AcDbGroup
300

 70
     1
 71
     1
  0
GROUP
  5
19989
102
{ACAD_REACTORS
330
D
102
}
330
D
100
AcDbGroup
300

 70
     1
 71
     1
  0
GROUP
  5
25B65
102
{ACAD_REACTORS
330
D
102
}
330
D
100
AcDbGroup
300

 70
     1
 71
     1
  0
GROUP
  5
242C3
102
{ACAD_REACTORS
330
D
102
}
330
D
100
AcDbGroup
300

 70
     1
 71
     1
  0
GROUP
  5
26FD7
102
{ACAD_REACTORS
330
D
102
}
330
D
100
AcDbGroup
300

 70
     1
 71
     1
  0
GROUP
  5
24728
102
{ACAD_REACTORS
330
D
102
}
330
D
100
AcDbGroup
300

 70
     1
 71
     1
  0
GROUP
  5
252FE
102
{ACAD_REACTORS
330
D
102
}
330
D
100
AcDbGroup
300

 70
     1
 71
     1
  0
GROUP
  5
25346
102
{ACAD_REACTORS
330
D
102
}
330
D
100
AcDbGroup
300

 70
     1
 71
     1
  0
GROUP
  5
295C8
102
{ACAD_REACTORS
330
D
102
}
330
D
100
AcDbGroup
300

 70
     1
 71
     1
340
295C0
340
295BF
340
295BD
340
295C4
340
295C3
340
295C2
340
295C7
340
295C6
340
295C5
  0
GROUP
  5
28E13
102
{ACAD_REACTORS
330
D
102
}
330
D
100
AcDbGroup
300

 70
     1
 71
     1
  0
GROUP
  5
24AB0
102
{ACAD_REACTORS
330
D
102
}
330
D
100
AcDbGroup
300

 70
     1
 71
     1
  0
GROUP
  5
25E82
102
{ACAD_REACTORS
330
D
102
}
330
D
100
AcDbGroup
300

 70
     1
 71
     1
  0
GROUP
  5
2472D
102
{ACAD_REACTORS
330
D
102
}
330
D
100
AcDbGroup
300

 70
     1
 71
     1
  0
GROUP
  5
24ADA
102
{ACAD_REACTORS
330
D
102
}
330
D
100
AcDbGroup
300

 70
     1
 71
     1
  0
GROUP
  5
16058
102
{ACAD_REACTORS
330
D
102
}
330
D
100
AcDbGroup
300

 70
     1
 71
     1
  0
GROUP
  5
1B720
102
{ACAD_REACTORS
330
D
102
}
330
D
100
AcDbGroup
300

 70
     1
 71
     1
  0
GROUP
  5
24A7A
102
{ACAD_REACTORS
330
D
102
}
330
D
100
AcDbGroup
300

 70
     1
 71
     1
  0
GROUP
  5
1D6CA
102
{ACAD_REACTORS
330
D
102
}
330
D
100
AcDbGroup
300

 70
     1
 71
     1
  0
GROUP
  5
2A73C
102
{ACAD_REACTORS
330
D
102
}
330
D
100
AcDbGroup
300

 70
     1
 71
     1
  0
GROUP
  5
20010
102
{ACAD_REACTORS
330
D
102
}
330
D
100
AcDbGroup
300

 70
     1
 71
     1
  0
GROUP
  5
2A73E
102
{ACAD_REACTORS
330
D
102
}
330
D
100
AcDbGroup
300

 70
     1
 71
     1
  0
GROUP
  5
20231
102
{ACAD_REACTORS
330
D
102
}
330
D
100
AcDbGroup
300

 70
     1
 71
     1
  0
GROUP
  5
24A5C
102
{ACAD_REACTORS
330
D
102
}
330
D
100
AcDbGroup
300

 70
     1
 71
     1
  0
GROUP
  5
24A46
102
{ACAD_REACTORS
330
D
102
}
330
D
100
AcDbGroup
300

 70
     1
 71
     1
  0
GROUP
  5
2923F
102
{ACAD_REACTORS
330
D
102
}
330
D
100
AcDbGroup
300

 70
     1
 71
     1
  0
GROUP
  5
1606B
102
{ACAD_REACTORS
330
D
102
}
330
D
100
AcDbGroup
300

 70
     1
 71
     1
  0
GROUP
  5
19256
102
{ACAD_REACTORS
330
D
102
}
330
D
100
AcDbGroup
300

 70
     1
 71
     1
  0
GROUP
  5
240F2
102
{ACAD_REACTORS
330
D
102
}
330
D
100
AcDbGroup
300

 70
     1
 71
     1
  0
GROUP
  5
18FA7
102
{ACAD_REACTORS
330
D
102
}
330
D
100
AcDbGroup
300

 70
     1
 71
     1
  0
GROUP
  5
242A7
102
{ACAD_REACTORS
330
D
102
}
330
D
100
AcDbGroup
300

 70
     1
 71
     1
  0
GROUP
  5
227B2
102
{ACAD_REACTORS
330
D
102
}
330
D
100
AcDbGroup
300

 70
     1
 71
     1
  0
GROUP
  5
1D68E
102
{ACAD_REACTORS
330
D
102
}
330
D
100
AcDbGroup
300

 70
     1
 71
     1
  0
GROUP
  5
1EB80
102
{ACAD_REACTORS
330
D
102
}
330
D
100
AcDbGroup
300

 70
     1
 71
     1
  0
GROUP
  5
20019
102
{ACAD_REACTORS
330
D
102
}
330
D
100
AcDbGroup
300

 70
     1
 71
     1
  0
GROUP
  5
1EB7C
102
{ACAD_REACTORS
330
D
102
}
330
D
100
AcDbGroup
300

 70
     1
 71
     1
  0
GROUP
  5
227B1
102
{ACAD_REACTORS
330
D
102
}
330
D
100
AcDbGroup
300

 70
     1
 71
     1
  0
GROUP
  5
242A8
102
{ACAD_REACTORS
330
D
102
}
330
D
100
AcDbGroup
300

 70
     1
 71
     1
  0
GROUP
  5
240ED
102
{ACAD_REACTORS
330
D
102
}
330
D
100
AcDbGroup
300

 70
     1
 71
     1
  0
GROUP
  5
242D9
102
{ACAD_REACTORS
330
D
102
}
330
D
100
AcDbGroup
300

 70
     1
 71
     1
  0
GROUP
  5
24B32
102
{ACAD_REACTORS
330
D
102
}
330
D
100
AcDbGroup
300

 70
     1
 71
     1
  0
GROUP
  5
25388
102
{ACAD_REACTORS
330
D
102
}
330
D
100
AcDbGroup
300

 70
     1
 71
     1
  0
GROUP
  5
28AF3
102
{ACAD_REACTORS
330
D
102
}
330
D
100
AcDbGroup
300

 70
     1
 71
     1
  0
GROUP
  5
19861
102
{ACAD_REACTORS
330
D
102
}
330
D
100
AcDbGroup
300

 70
     1
 71
     1
  0
GROUP
  5
27F12
102
{ACAD_REACTORS
330
D
102
}
330
D
100
AcDbGroup
300

 70
     1
 71
     1
  0
GROUP
  5
24B56
102
{ACAD_REACTORS
330
D
102
}
330
D
100
AcDbGroup
300

 70
     1
 71
     1
  0
GROUP
  5
1F90E
102
{ACAD_REACTORS
330
D
102
}
330
D
100
AcDbGroup
300

 70
     1
 71
     1
  0
GROUP
  5
1EB7D
102
{ACAD_REACTORS
330
D
102
}
330
D
100
AcDbGroup
300

 70
     1
 71
     1
  0
GROUP
  5
249F2
102
{ACAD_REACTORS
330
D
102
}
330
D
100
AcDbGroup
300

 70
     1
 71
     1
  0
GROUP
  5
24A48
102
{ACAD_REACTORS
330
D
102
}
330
D
100
AcDbGroup
300

 70
     1
 71
     1
  0
GROUP
  5
24727
102
{ACAD_REACTORS
330
D
102
}
330
D
100
AcDbGroup
300

 70
     1
 71
     1
  0
GROUP
  5
25BC1
102
{ACAD_REACTORS
330
D
102
}
330
D
100
AcDbGroup
300

 70
     1
 71
     1
  0
GROUP
  5
26FD5
102
{ACAD_REACTORS
330
D
102
}
330
D
100
AcDbGroup
300

 70
     1
 71
     1
  0
GROUP
  5
1738A
102
{ACAD_REACTORS
330
D
102
}
330
D
100
AcDbGroup
300

 70
     1
 71
     1
  0
GROUP
  5
17BFF
102
{ACAD_REACTORS
330
D
102
}
330
D
100
AcDbGroup
300

 70
     1
 71
     1
  0
GROUP
  5
27F1A
102
{ACAD_REACTORS
330
D
102
}
330
D
100
AcDbGroup
300

 70
     1
 71
     1
  0
GROUP
  5
29573
102
{ACAD_REACTORS
330
D
102
}
330
D
100
AcDbGroup
300

 70
     1
 71
     1
  0
GROUP
  5
1B74D
102
{ACAD_REACTORS
330
D
102
}
330
D
100
AcDbGroup
300

 70
     1
 71
     1
  0
GROUP
  5
24729
102
{ACAD_REACTORS
330
D
102
}
330
D
100
AcDbGroup
300

 70
     1
 71
     1
  0
GROUP
  5
2471B
102
{ACAD_REACTORS
330
D
102
}
330
D
100
AcDbGroup
300

 70
     1
 71
     1
  0
GROUP
  5
24725
102
{ACAD_REACTORS
330
D
102
}
330
D
100
AcDbGroup
300

 70
     1
 71
     1
  0
GROUP
  5
274FB
102
{ACAD_REACTORS
330
D
102
}
330
D
100
AcDbGroup
300

 70
     1
 71
     1
  0
GROUP
  5
28AEF
102
{ACAD_REACTORS
330
D
102
}
330
D
100
AcDbGroup
300

 70
     1
 71
     1
  0
GROUP
  5
FBFF
102
{ACAD_REACTORS
330
D
102
}
330
D
100
AcDbGroup
300

 70
     1
 71
     1
  0
GROUP
  5
28AF4
102
{ACAD_REACTORS
330
D
102
}
330
D
100
AcDbGroup
300

 70
     1
 71
     1
  0
GROUP
  5
24B10
102
{ACAD_REACTORS
330
D
102
}
330
D
100
AcDbGroup
300

 70
     1
 71
     1
  0
GROUP
  5
251F4
102
{ACAD_REACTORS
330
D
102
}
330
D
100
AcDbGroup
300

 70
     1
 71
     1
  0
GROUP
  5
19988
102
{ACAD_REACTORS
330
D
102
}
330
D
100
AcDbGroup
300

 70
     1
 71
     1
  0
GROUP
  5
20016
102
{ACAD_REACTORS
330
D
102
}
330
D
100
AcDbGroup
300

 70
     1
 71
     1
  0
GROUP
  5
242CA
102
{ACAD_REACTORS
330
D
102
}
330
D
100
AcDbGroup
300

 70
     1
 71
     1
  0
GROUP
  5
24A4C
102
{ACAD_REACTORS
330
D
102
}
330
D
100
AcDbGroup
300

 70
     1
 71
     1
  0
GROUP
  5
274A8
102
{ACAD_REACTORS
330
D
102
}
330
D
100
AcDbGroup
300

 70
     1
 71
     1
  0
GROUP
  5
106A5
102
{ACAD_REACTORS
330
D
102
}
330
D
100
AcDbGroup
300

 70
     1
 71
     1
  0
GROUP
  5
18F23
102
{ACAD_REACTORS
330
D
102
}
330
D
100
AcDbGroup
300

 70
     1
 71
     1
  0
GROUP
  5
24A11
102
{ACAD_REACTORS
330
D
102
}
330
D
100
AcDbGroup
300

 70
     1
 71
     1
  0
GROUP
  5
1F91D
102
{ACAD_REACTORS
330
D
102
}
330
D
100
AcDbGroup
300

 70
     1
 71
     1
  0
GROUP
  5
240EE
102
{ACAD_REACTORS
330
D
102
}
330
D
100
AcDbGroup
300

 70
     1
 71
     1
  0
GROUP
  5
29571
102
{ACAD_REACTORS
330
D
102
}
330
D
100
AcDbGroup
300

 70
     1
 71
     1
  0
GROUP
  5
23BB3
102
{ACAD_REACTORS
330
D
102
}
330
D
100
AcDbGroup
300

 70
     1
 71
     1
  0
GROUP
  5
2694C
102
{ACAD_REACTORS
330
D
102
}
330
D
100
AcDbGroup
300

 70
     1
 71
     1
  0
GROUP
  5
24A4F
102
{ACAD_REACTORS
330
D
102
}
330
D
100
AcDbGroup
300

 70
     1
 71
     1
  0
GROUP
  5
24719
102
{ACAD_REACTORS
330
D
102
}
330
D
100
AcDbGroup
300

 70
     1
 71
     1
  0
GROUP
  5
24730
102
{ACAD_REACTORS
330
D
102
}
330
D
100
AcDbGroup
300

 70
     1
 71
     1
  0
GROUP
  5
25E83
102
{ACAD_REACTORS
330
D
102
}
330
D
100
AcDbGroup
300

 70
     1
 71
     1
  0
GROUP
  5
173BF
102
{ACAD_REACTORS
330
D
102
}
330
D
100
AcDbGroup
300

 70
     1
 71
     1
  0
GROUP
  5
242D1
102
{ACAD_REACTORS
330
D
102
}
330
D
100
AcDbGroup
300

 70
     1
 71
     1
  0
GROUP
  5
19729
102
{ACAD_REACTORS
330
D
102
}
330
D
100
AcDbGroup
300

 70
     1
 71
     1
  0
GROUP
  5
24AC2
102
{ACAD_REACTORS
330
D
102
}
330
D
100
AcDbGroup
300

 70
     1
 71
     1
  0
GROUP
  5
19AA4
102
{ACAD_REACTORS
330
D
102
}
330
D
100
AcDbGroup
300

 70
     1
 71
     1
  0
GROUP
  5
24A74
102
{ACAD_REACTORS
330
D
102
}
330
D
100
AcDbGroup
300

 70
     1
 71
     1
  0
GROUP
  5
23BB4
102
{ACAD_REACTORS
330
D
102
}
330
D
100
AcDbGroup
300

 70
     1
 71
     1
  0
GROUP
  5
28E1A
102
{ACAD_REACTORS
330
D
102
}
330
D
100
AcDbGroup
300

 70
     1
 71
     1
  0
GROUP
  5
26901
102
{ACAD_REACTORS
330
D
102
}
330
D
100
AcDbGroup
300

 70
     1
 71
     1
  0
GROUP
  5
249F3
102
{ACAD_REACTORS
330
D
102
}
330
D
100
AcDbGroup
300

 70
     1
 71
     1
  0
GROUP
  5
2020E
102
{ACAD_REACTORS
330
D
102
}
330
D
100
AcDbGroup
300

 70
     1
 71
     1
  0
GROUP
  5
274AB
102
{ACAD_REACTORS
330
D
102
}
330
D
100
AcDbGroup
300

 70
     1
 71
     1
  0
GROUP
  5
28E14
102
{ACAD_REACTORS
330
D
102
}
330
D
100
AcDbGroup
300

 70
     1
 71
     1
  0
GROUP
  5
19F87
102
{ACAD_REACTORS
330
D
102
}
330
D
100
AcDbGroup
300

 70
     1
 71
     1
  0
GROUP
  5
2472C
102
{ACAD_REACTORS
330
D
102
}
330
D
100
AcDbGroup
300

 70
     1
 71
     1
  0
GROUP
  5
25300
102
{ACAD_REACTORS
330
D
102
}
330
D
100
AcDbGroup
300

 70
     1
 71
     1
  0
GROUP
  5
27F1B
102
{ACAD_REACTORS
330
D
102
}
330
D
100
AcDbGroup
300

 70
     1
 71
     1
  0
GROUP
  5
20022
102
{ACAD_REACTORS
330
D
102
}
330
D
100
AcDbGroup
300

 70
     1
 71
     1
  0
GROUP
  5
27F13
102
{ACAD_REACTORS
330
D
102
}
330
D
100
AcDbGroup
300

 70
     1
 71
     1
  0
GROUP
  5
196C2
102
{ACAD_REACTORS
330
D
102
}
330
D
100
AcDbGroup
300

 70
     1
 71
     1
  0
GROUP
  5
19F55
102
{ACAD_REACTORS
330
D
102
}
330
D
100
AcDbGroup
300

 70
     1
 71
     1
  0
GROUP
  5
1EB7E
102
{ACAD_REACTORS
330
D
102
}
330
D
100
AcDbGroup
300

 70
     1
 71
     1
  0
GROUP
  5
24A92
102
{ACAD_REACTORS
330
D
102
}
330
D
100
AcDbGroup
300

 70
     1
 71
     1
  0
GROUP
  5
106C6
102
{ACAD_REACTORS
330
D
102
}
330
D
100
AcDbGroup
300

 70
     1
 71
     1
  0
GROUP
  5
16069
102
{ACAD_REACTORS
330
D
102
}
330
D
100
AcDbGroup
300

 70
     1
 71
     1
  0
GROUP
  5
24ABC
102
{ACAD_REACTORS
330
D
102
}
330
D
100
AcDbGroup
300

 70
     1
 71
     1
  0
GROUP
  5
27BB7
102
{ACAD_REACTORS
330
D
102
}
330
D
100
AcDbGroup
300

 70
     1
 71
     1
  0
GROUP
  5
24A8C
102
{ACAD_REACTORS
330
D
102
}
330
D
100
AcDbGroup
300

 70
     1
 71
     1
  0
GROUP
  5
2001F
102
{ACAD_REACTORS
330
D
102
}
330
D
100
AcDbGroup
300

 70
     1
 71
     1
  0
GROUP
  5
1A692
102
{ACAD_REACTORS
330
D
102
}
330
D
100
AcDbGroup
300

 70
     1
 71
     1
  0
GROUP
  5
19259
102
{ACAD_REACTORS
330
D
102
}
330
D
100
AcDbGroup
300

 70
     1
 71
     1
  0
GROUP
  5
19A52
102
{ACAD_REACTORS
330
D
102
}
330
D
100
AcDbGroup
300

 70
     1
 71
     1
  0
GROUP
  5
2A739
102
{ACAD_REACTORS
330
D
102
}
330
D
100
AcDbGroup
300

 70
     1
 71
     1
  0
GROUP
  5
1F8F0
102
{ACAD_REACTORS
330
D
102
}
330
D
100
AcDbGroup
300

 70
     1
 71
     1
  0
GROUP
  5
18F22
102
{ACAD_REACTORS
330
D
102
}
330
D
100
AcDbGroup
300

 70
     1
 71
     1
  0
GROUP
  5
242B6
102
{ACAD_REACTORS
330
D
102
}
330
D
100
AcDbGroup
300

 70
     1
 71
     1
  0
GROUP
  5
24A4B
102
{ACAD_REACTORS
330
D
102
}
330
D
100
AcDbGroup
300

 70
     1
 71
     1
  0
GROUP
  5
24A68
102
{ACAD_REACTORS
330
D
102
}
330
D
100
AcDbGroup
300

 70
     1
 71
     1
  0
GROUP
  5
20028
102
{ACAD_REACTORS
330
D
102
}
330
D
100
AcDbGroup
300

 70
     1
 71
     1
  0
GROUP
  5
242D8
102
{ACAD_REACTORS
330
D
102
}
330
D
100
AcDbGroup
300

 70
     1
 71
     1
  0
GROUP
  5
29244
102
{ACAD_REACTORS
330
D
102
}
330
D
100
AcDbGroup
300

 70
     1
 71
     1
  0
GROUP
  5
249FB
102
{ACAD_REACTORS
330
D
102
}
330
D
100
AcDbGroup
300

 70
     1
 71
     1
  0
GROUP
  5
242B5
102
{ACAD_REACTORS
330
D
102
}
330
D
100
AcDbGroup
300

 70
     1
 71
     1
  0
GROUP
  5
24B04
102
{ACAD_REACTORS
330
D
102
}
330
D
100
AcDbGroup
300

 70
     1
 71
     1
  0
GROUP
  5
25E84
102
{ACAD_REACTORS
330
D
102
}
330
D
100
AcDbGroup
300

 70
     1
 71
     1
  0
GROUP
  5
24AB6
102
{ACAD_REACTORS
330
D
102
}
330
D
100
AcDbGroup
300

 70
     1
 71
     1
  0
GROUP
  5
1A09A
102
{ACAD_REACTORS
330
D
102
}
330
D
100
AcDbGroup
300

 70
     1
 71
     1
  0
GROUP
  5
26964
102
{ACAD_REACTORS
330
D
102
}
330
D
100
AcDbGroup
300

 70
     1
 71
     1
  0
GROUP
  5
27F10
102
{ACAD_REACTORS
330
D
102
}
330
D
100
AcDbGroup
300

 70
     1
 71
     1
  0
GROUP
  5
240F0
102
{ACAD_REACTORS
330
D
102
}
330
D
100
AcDbGroup
300

 70
     1
 71
     1
  0
GROUP
  5
2471C
102
{ACAD_REACTORS
330
D
102
}
330
D
100
AcDbGroup
300

 70
     1
 71
     1
  0
GROUP
  5
19794
102
{ACAD_REACTORS
330
D
102
}
330
D
100
AcDbGroup
300

 70
     1
 71
     1
  0
GROUP
  5
2A73A
102
{ACAD_REACTORS
330
D
102
}
330
D
100
AcDbGroup
300

 70
     1
 71
     1
  0
GROUP
  5
274AC
102
{ACAD_REACTORS
330
D
102
}
330
D
100
AcDbGroup
300

 70
     1
 71
     1
  0
GROUP
  5
25F19
102
{ACAD_REACTORS
330
D
102
}
330
D
100
AcDbGroup
300

 70
     1
 71
     1
  0
GROUP
  5
27F14
102
{ACAD_REACTORS
330
D
102
}
330
D
100
AcDbGroup
300

 70
     1
 71
     1
  0
GROUP
  5
274FC
102
{ACAD_REACTORS
330
D
102
}
330
D
100
AcDbGroup
300

 70
     1
 71
     1
  0
GROUP
  5
215A2
102
{ACAD_REACTORS
330
D
102
}
330
D
100
AcDbGroup
300

 70
     1
 71
     1
  0
GROUP
  5
29603
102
{ACAD_REACTORS
330
D
102
}
330
D
100
AcDbGroup
300

 70
     1
 71
     1
340
29601
340
295F4
  0
GROUP
  5
1B744
102
{ACAD_REACTORS
330
D
102
}
330
D
100
AcDbGroup
300

 70
     1
 71
     1
  0
GROUP
  5
19FAB
102
{ACAD_REACTORS
330
D
102
}
330
D
100
AcDbGroup
300

 70
     1
 71
     1
  0
GROUP
  5
ACA1
102
{ACAD_REACTORS
330
D
102
}
330
D
100
AcDbGroup
300

 70
     1
 71
     1
  0
GROUP
  5
24914
102
{ACAD_REACTORS
330
D
102
}
330
D
100
AcDbGroup
300

 70
     1
 71
     1
  0
GROUP
  5
1D6AC
102
{ACAD_REACTORS
330
D
102
}
330
D
100
AcDbGroup
300

 70
     1
 71
     1
  0
GROUP
  5
22AAC
102
{ACAD_REACTORS
330
D
102
}
330
D
100
AcDbGroup
300

 70
     1
 71
     1
  0
GROUP
  5
24A47
102
{ACAD_REACTORS
330
D
102
}
330
D
100
AcDbGroup
300

 70
     1
 71
     1
  0
GROUP
  5
24A03
102
{ACAD_REACTORS
330
D
102
}
330
D
100
AcDbGroup
300

 70
     1
 71
     1
  0
GROUP
  5
FC9A
102
{ACAD_REACTORS
330
D
102
}
330
D
100
AcDbGroup
300

 70
     1
 71
     1
  0
GROUP
  5
24A18
102
{ACAD_REACTORS
330
D
102
}
330
D
100
AcDbGroup
300

 70
     1
 71
     1
  0
GROUP
  5
20013
102
{ACAD_REACTORS
330
D
102
}
330
D
100
AcDbGroup
300

 70
     1
 71
     1
  0
GROUP
  5
240F1
102
{ACAD_REACTORS
330
D
102
}
330
D
100
AcDbGroup
300

 70
     1
 71
     1
  0
GROUP
  5
20CA2
102
{ACAD_REACTORS
330
D
102
}
330
D
100
AcDbGroup
300

 70
     1
 71
     1
  0
GROUP
  5
18FA8
102
{ACAD_REACTORS
330
D
102
}
330
D
100
AcDbGroup
300

 70
     1
 71
     1
  0
GROUP
  5
242DF
102
{ACAD_REACTORS
330
D
102
}
330
D
100
AcDbGroup
300

 70
     1
 71
     1
  0
GROUP
  5
24AF2
102
{ACAD_REACTORS
330
D
102
}
330
D
100
AcDbGroup
300

 70
     1
 71
     1
  0
GROUP
  5
20213
102
{ACAD_REACTORS
330
D
102
}
330
D
100
AcDbGroup
300

 70
     1
 71
     1
  0
GROUP
  5
24A0A
102
{ACAD_REACTORS
330
D
102
}
330
D
100
AcDbGroup
300

 70
     1
 71
     1
  0
GROUP
  5
1D670
102
{ACAD_REACTORS
330
D
102
}
330
D
100
AcDbGroup
300

 70
     1
 71
     1
  0
GROUP
  5
AC9A
102
{ACAD_REACTORS
330
D
102
}
330
D
100
AcDbGroup
300

 70
     1
 71
     1
  0
GROUP
  5
2471A
102
{ACAD_REACTORS
330
D
102
}
330
D
100
AcDbGroup
300

 70
     1
 71
     1
  0
GROUP
  5
FC91
102
{ACAD_REACTORS
330
D
102
}
330
D
100
AcDbGroup
300

 70
     1
 71
     1
  0
GROUP
  5
106B3
102
{ACAD_REACTORS
330
D
102
}
330
D
100
AcDbGroup
300

 70
     1
 71
     1
  0
GROUP
  5
249FA
102
{ACAD_REACTORS
330
D
102
}
330
D
100
AcDbGroup
300

 70
     1
 71
     1
  0
GROUP
  5
242BC
102
{ACAD_REACTORS
330
D
102
}
330
D
100
AcDbGroup
300

 70
     1
 71
     1
  0
GROUP
  5
242E7
102
{ACAD_REACTORS
330
D
102
}
330
D
100
AcDbGroup
300

 70
     1
 71
     1
  0
GROUP
  5
2472B
102
{ACAD_REACTORS
330
D
102
}
330
D
100
AcDbGroup
300

 70
     1
 71
     1
  0
GROUP
  5
27F0F
102
{ACAD_REACTORS
330
D
102
}
330
D
100
AcDbGroup
300

 70
     1
 71
     1
  0
GROUP
  5
173BD
102
{ACAD_REACTORS
330
D
102
}
330
D
100
AcDbGroup
300

 70
     1
 71
     1
  0
GROUP
  5
1D6D4
102
{ACAD_REACTORS
330
D
102
}
330
D
100
AcDbGroup
300

 70
     1
 71
     1
  0
GROUP
  5
24AC8
102
{ACAD_REACTORS
330
D
102
}
330
D
100
AcDbGroup
300

 70
     1
 71
     1
  0
GROUP
  5
20236
102
{ACAD_REACTORS
330
D
102
}
330
D
100
AcDbGroup
300

 70
     1
 71
     1
  0
GROUP
  5
27F19
102
{ACAD_REACTORS
330
D
102
}
330
D
100
AcDbGroup
300

 70
     1
 71
     1
  0
GROUP
  5
242CB
102
{ACAD_REACTORS
330
D
102
}
330
D
100
AcDbGroup
300

 70
     1
 71
     1
  0
GROUP
  5
2A73B
102
{ACAD_REACTORS
330
D
102
}
330
D
100
AcDbGroup
300

 70
     1
 71
     1
  0
GROUP
  5
2001C
102
{ACAD_REACTORS
330
D
102
}
330
D
100
AcDbGroup
300

 70
     1
 71
     1
  0
GROUP
  5
1D67A
102
{ACAD_REACTORS
330
D
102
}
330
D
100
AcDbGroup
300

 70
     1
 71
     1
  0
GROUP
  5
28E7F
102
{ACAD_REACTORS
330
D
102
}
330
D
100
AcDbGroup
300

 70
     1
 71
     1
  0
GROUP
  5
22E4B
102
{ACAD_REACTORS
330
D
102
}
330
D
100
AcDbGroup
300

 70
     1
 71
     1
  0
GROUP
  5
24A1E
102
{ACAD_REACTORS
330
D
102
}
330
D
100
AcDbGroup
300

 70
     1
 71
     1
  0
GROUP
  5
242BD
102
{ACAD_REACTORS
330
D
102
}
330
D
100
AcDbGroup
300

 70
     1
 71
     1
  0
GROUP
  5
29574
102
{ACAD_REACTORS
330
D
102
}
330
D
100
AcDbGroup
300

 70
     1
 71
     1
  0
GROUP
  5
24717
102
{ACAD_REACTORS
330
D
102
}
330
D
100
AcDbGroup
300

 70
     1
 71
     1
  0
GROUP
  5
19A5A
102
{ACAD_REACTORS
330
D
102
}
330
D
100
AcDbGroup
300

 70
     1
 71
     1
  0
GROUP
  5
FB6B
102
{ACAD_REACTORS
330
D
102
}
330
D
100
AcDbGroup
300

 70
     1
 71
     1
  0
GROUP
  5
19A86
102
{ACAD_REACTORS
330
D
102
}
330
D
100
AcDbGroup
300

 70
     1
 71
     1
  0
GROUP
  5
242C4
102
{ACAD_REACTORS
330
D
102
}
330
D
100
AcDbGroup
300

 70
     1
 71
     1
  0
GROUP
  5
26FD9
102
{ACAD_REACTORS
330
D
102
}
330
D
100
AcDbGroup
300

 70
     1
 71
     1
  0
GROUP
  5
23CC3
102
{ACAD_REACTORS
330
D
102
}
330
D
100
AcDbGroup
300

 70
     1
 71
     1
  0
GROUP
  5
FC9B
102
{ACAD_REACTORS
330
D
102
}
330
D
100
AcDbGroup
300

 70
     1
 71
     1
  0
GROUP
  5
20025
102
{ACAD_REACTORS
330
D
102
}
330
D
100
AcDbGroup
300

 70
     1
 71
     1
  0
GROUP
  5
1998A
102
{ACAD_REACTORS
330
D
102
}
330
D
100
AcDbGroup
300

 70
     1
 71
     1
  0
GROUP
  5
1D6C0
102
{ACAD_REACTORS
330
D
102
}
330
D
100
AcDbGroup
300

 70
     1
 71
     1
  0
GROUP
  5
19255
102
{ACAD_REACTORS
330
D
102
}
330
D
100
AcDbGroup
300

 70
     1
 71
     1
  0
GROUP
  5
28AF0
102
{ACAD_REACTORS
330
D
102
}
330
D
100
AcDbGroup
300

 70
     1
 71
     1
  0
GROUP
  5
1D6E8
102
{ACAD_REACTORS
330
D
102
}
330
D
100
AcDbGroup
300

 70
     1
 71
     1
  0
GROUP
  5
2A73F
102
{ACAD_REACTORS
330
D
102
}
330
D
100
AcDbGroup
300

 70
     1
 71
     1
  0
GROUP
  5
25E80
102
{ACAD_REACTORS
330
D
102
}
330
D
100
AcDbGroup
300

 70
     1
 71
     1
  0
GROUP
  5
19786
102
{ACAD_REACTORS
330
D
102
}
330
D
100
AcDbGroup
300

 70
     1
 71
     1
  0
GROUP
  5
2472F
102
{ACAD_REACTORS
330
D
102
}
330
D
100
AcDbGroup
300

 70
     1
 71
     1
  0
GROUP
  5
2A73D
102
{ACAD_REACTORS
330
D
102
}
330
D
100
AcDbGroup
300

 70
     1
 71
     1
  0
GROUP
  5
24718
102
{ACAD_REACTORS
330
D
102
}
330
D
100
AcDbGroup
300

 70
     1
 71
     1
  0
GROUP
  5
24A4D
102
{ACAD_REACTORS
330
D
102
}
330
D
100
AcDbGroup
300

 70
     1
 71
     1
  0
GROUP
  5
2812F
102
{ACAD_REACTORS
330
D
102
}
330
D
100
AcDbGroup
300

 70
     1
 71
     1
  0
GROUP
  5
20CA6
102
{ACAD_REACTORS
330
D
102
}
330
D
100
AcDbGroup
300

 70
     1
 71
     1
  0
GROUP
  5
270B1
102
{ACAD_REACTORS
330
D
102
}
330
D
100
AcDbGroup
300

 70
     1
 71
     1
  0
GROUP
  5
28E16
102
{ACAD_REACTORS
330
D
102
}
330
D
100
AcDbGroup
300

 70
     1
 71
     1
  0
GROUP
  5
29576
102
{ACAD_REACTORS
330
D
102
}
330
D
100
AcDbGroup
300

 70
     1
 71
     1
  0
GROUP
  5
26962
102
{ACAD_REACTORS
330
D
102
}
330
D
100
AcDbGroup
300

 70
     1
 71
     1
  0
GROUP
  5
24ACE
102
{ACAD_REACTORS
330
D
102
}
330
D
100
AcDbGroup
300

 70
     1
 71
     1
  0
GROUP
  5
19F67
102
{ACAD_REACTORS
330
D
102
}
330
D
100
AcDbGroup
300

 70
     1
 71
     1
  0
GROUP
  5
24726
102
{ACAD_REACTORS
330
D
102
}
330
D
100
AcDbGroup
300

 70
     1
 71
     1
  0
GROUP
  5
24A4E
102
{ACAD_REACTORS
330
D
102
}
330
D
100
AcDbGroup
300

 70
     1
 71
     1
  0
GROUP
  5
1D706
102
{ACAD_REACTORS
330
D
102
}
330
D
100
AcDbGroup
300

 70
     1
 71
     1
  0
GROUP
  5
2867F
102
{ACAD_REACTORS
330
D
102
}
330
D
100
AcDbGroup
300

 70
     1
 71
     1
  0
GROUP
  5
254C6
102
{ACAD_REACTORS
330
D
102
}
330
D
100
AcDbGroup
300

 70
     1
 71
     1
  0
GROUP
  5
24A45
102
{ACAD_REACTORS
330
D
102
}
330
D
100
AcDbGroup
300

 70
     1
 71
     1
  0
GROUP
  5
26FD8
102
{ACAD_REACTORS
330
D
102
}
330
D
100
AcDbGroup
300

 70
     1
 71
     1
  0
GROUP
  5
2A740
102
{ACAD_REACTORS
330
D
102
}
330
D
100
AcDbGroup
300

 70
     1
 71
     1
  0
GROUP
  5
28680
102
{ACAD_REACTORS
330
D
102
}
330
D
100
AcDbGroup
300

 70
     1
 71
     1
  0
GROUP
  5
1D6B6
102
{ACAD_REACTORS
330
D
102
}
330
D
100
AcDbGroup
300

 70
     1
 71
     1
  0
GROUP
  5
2244A
102
{ACAD_REACTORS
330
D
102
}
330
D
100
AcDbGroup
300

 70
     1
 71
     1
  0
GROUP
  5
25E7F
102
{ACAD_REACTORS
330
D
102
}
330
D
100
AcDbGroup
300

 70
     1
 71
     1
  0
GROUP
  5
1F918
102
{ACAD_REACTORS
330
D
102
}
330
D
100
AcDbGroup
300

 70
     1
 71
     1
  0
GROUP
  5
2472E
102
{ACAD_REACTORS
330
D
102
}
330
D
100
AcDbGroup
300

 70
     1
 71
     1
  0
GROUP
  5
1606A
102
{ACAD_REACTORS
330
D
102
}
330
D
100
AcDbGroup
300

 70
     1
 71
     1
  0
GROUP
  5
1D684
102
{ACAD_REACTORS
330
D
102
}
330
D
100
AcDbGroup
300

 70
     1
 71
     1
  0
GROUP
  5
ACA2
102
{ACAD_REACTORS
330
D
102
}
330
D
100
AcDbGroup
300

 70
     1
 71
     1
  0
GROUP
  5
18F21
102
{ACAD_REACTORS
330
D
102
}
330
D
100
AcDbGroup
300

 70
     1
 71
     1
  0
GROUP
  5
242E6
102
{ACAD_REACTORS
330
D
102
}
330
D
100
AcDbGroup
300

 70
     1
 71
     1
  0
GROUP
  5
2A815
102
{ACAD_REACTORS
330
D
102
}
330
D
100
AcDbGroup
300

 70
     1
 71
     1
  0
GROUP
  5
17389
102
{ACAD_REACTORS
330
D
102
}
330
D
100
AcDbGroup
300

 70
     1
 71
     1
  0
GROUP
  5
FC95
102
{ACAD_REACTORS
330
D
102
}
330
D
100
AcDbGroup
300

 70
     1
 71
     1
  0
GROUP
  5
2021D
102
{ACAD_REACTORS
330
D
102
}
330
D
100
AcDbGroup
300

 70
     1
 71
     1
  0
GROUP
  5
274A9
102
{ACAD_REACTORS
330
D
102
}
330
D
100
AcDbGroup
300

 70
     1
 71
     1
  0
GROUP
  5
24AE6
102
{ACAD_REACTORS
330
D
102
}
330
D
100
AcDbGroup
300

 70
     1
 71
     1
  0
GROUP
  5
23CC4
102
{ACAD_REACTORS
330
D
102
}
330
D
100
AcDbGroup
300

 70
     1
 71
     1
  0
GROUP
  5
ACAB
102
{ACAD_REACTORS
330
D
102
}
330
D
100
AcDbGroup
300

 70
     1
 71
     1
  0
GROUP
  5
24A1F
102
{ACAD_REACTORS
330
D
102
}
330
D
100
AcDbGroup
300

 70
     1
 71
     1
  0
GROUP
  5
27F11
102
{ACAD_REACTORS
330
D
102
}
330
D
100
AcDbGroup
300

 70
     1
 71
     1
  0
GROUP
  5
19787
102
{ACAD_REACTORS
330
D
102
}
330
D
100
AcDbGroup
300

 70
     1
 71
     1
  0
GROUP
  5
24A09
102
{ACAD_REACTORS
330
D
102
}
330
D
100
AcDbGroup
300

 70
     1
 71
     1
  0
GROUP
  5
24720
102
{ACAD_REACTORS
330
D
102
}
330
D
100
AcDbGroup
300

 70
     1
 71
     1
  0
GROUP
  5
169DA
102
{ACAD_REACTORS
330
D
102
}
330
D
100
AcDbGroup
300

 70
     1
 71
     1
  0
GROUP
  5
24AAA
102
{ACAD_REACTORS
330
D
102
}
330
D
100
AcDbGroup
300

 70
     1
 71
     1
  0
MLINESTYLE
  5
1C
102
{ACAD_REACTORS
330
1B
102
}
330
1B
100
AcDbMlineStyle
  2
STANDARD
 70
     0
  3

 62
   256
 51
90.0
 52
90.0
 71
     2
 49
0.5
 62
   256
  6
BYLAYER
 49
-0.5
 62
   256
  6
BYLAYER
  0
ACDBPLACEHOLDER
  5
FB5C
102
{ACAD_REACTORS
330
FB5B
102
}
330
FB5B
100
AcDbPlaceHolder
280
     0
  0
XRECORD
  5
2BB7C
102
{ACAD_REACTORS
330
2BB72
102
}
330
2BB72
100
AcDbXrecord
 90
        0
  0
XRECORD
  5
2BB80
102
{ACAD_REACTORS
330
2BB72
102
}
330
2BB72
100
AcDbXrecord
1000
DSTYLE
1002
{
1070
   289
 70
     1
1070
   341
340
1215D
1070
   342
340
1215D
1070
   371
 70
    13
1070
   372
 70
    13
1002
}
  0
XRECORD
  5
2BB7D
102
{ACAD_REACTORS
330
2BB72
102
}
330
2BB72
100
AcDbXrecord
  1
{D14EE3FF-941A-415A-9907-344E0A80D794}
  0
XRECORD
  5
2BB75
102
{ACAD_REACTORS
330
2BB72
102
}
330
2BB72
100
AcDbXrecord
  1

  0
XRECORD
  5
2BB7B
102
{ACAD_REACTORS
330
2BB72
102
}
330
2BB72
100
AcDbXrecord
 90
        0
  0
XRECORD
  5
2BB77
102
{ACAD_REACTORS
330
2BB72
102
}
330
2BB72
100
AcDbXrecord
340
DB2
  0
XRECORD
  5
2BB7A
102
{ACAD_REACTORS
330
2BB72
102
}
330
2BB72
100
AcDbXrecord
 90
    10781
  0
XRECORD
  5
2BB78
102
{ACAD_REACTORS
330
2BB72
102
}
330
2BB72
100
AcDbXrecord
340
DB3
  0
XRECORD
  5
2BB79
102
{ACAD_REACTORS
330
2BB72
102
}
330
2BB72
100
AcDbXrecord
340
FB5B
  0
XRECORD
  5
2BB7F
102
{ACAD_REACTORS
330
2BB72
102
}
330
2BB72
100
AcDbXrecord
 40
0.0
  0
XRECORD
  5
2BB83
102
{ACAD_REACTORS
330
2BB72
102
}
330
2BB72
100
AcDbXrecord
340
0
  0
XRECORD
  5
2BB89
102
{ACAD_REACTORS
330
2BB72
102
}
330
2BB72
100
AcDbXrecord
 10
0.0
 20
0.0
 30
0.0
  0
XRECORD
  5
2BB85
102
{ACAD_REACTORS
330
2BB72
102
}
330
2BB72
100
AcDbXrecord
 10
0.0
 20
0.0
 30
0.0
  0
XRECORD
  5
2BB88
102
{ACAD_REACTORS
330
2BB72
102
}
330
2BB72
100
AcDbXrecord
 10
0.0
 20
0.0
 30
0.0
  0
XRECORD
  5
2BB86
102
{ACAD_REACTORS
330
2BB72
102
}
330
2BB72
100
AcDbXrecord
 10
0.0
 20
0.0
 30
0.0
  0
XRECORD
  5
2BB87
102
{ACAD_REACTORS
330
2BB72
102
}
330
2BB72
100
AcDbXrecord
 10
0.0
 20
0.0
 30
0.0
  0
XRECORD
  5
2BB84
102
{ACAD_REACTORS
330
2BB72
102
}
330
2BB72
100
AcDbXrecord
 10
0.0
 20
0.0
 30
0.0
  0
XRECORD
  5
2BB81
102
{ACAD_REACTORS
330
2BB72
102
}
330
2BB72
100
AcDbXrecord
340
0
  0
XRECORD
  5
2BB82
102
{ACAD_REACTORS
330
2BB72
102
}
330
2BB72
100
AcDbXrecord
 70
     0
  0
XRECORD
  5
2BB76
102
{ACAD_REACTORS
330
2BB72
102
}
330
2BB72
100
AcDbXrecord
  1
monochrome.ctb
  0
XRECORD
  5
2BB73
102
{ACAD_REACTORS
330
2BB72
102
}
330
2BB72
100
AcDbXrecord
 90
        1
  0
XRECORD
  5
2BB74
102
{ACAD_REACTORS
330
2BB72
102
}
330
2BB72
100
AcDbXrecord
 90
       70
  0
XRECORD
  5
2BB8C
102
{ACAD_REACTORS
330
2BB72
102
}
330
2BB72
100
AcDbXrecord
340
0
  0
XRECORD
  5
2BB92
102
{ACAD_REACTORS
330
2BB72
102
}
330
2BB72
100
AcDbXrecord
 10
0.0
 20
0.0
 30
0.0
  0
XRECORD
  5
2BB8E
102
{ACAD_REACTORS
330
2BB72
102
}
330
2BB72
100
AcDbXrecord
 10
0.0
 20
0.0
 30
0.0
  0
XRECORD
  5
2BB91
102
{ACAD_REACTORS
330
2BB72
102
}
330
2BB72
100
AcDbXrecord
 10
0.0
 20
0.0
 30
0.0
  0
XRECORD
  5
2BB8F
102
{ACAD_REACTORS
330
2BB72
102
}
330
2BB72
100
AcDbXrecord
 10
0.0
 20
0.0
 30
0.0
  0
XRECORD
  5
2BB90
102
{ACAD_REACTORS
330
2BB72
102
}
330
2BB72
100
AcDbXrecord
 10
0.0
 20
0.0
 30
0.0
  0
XRECORD
  5
2BB8D
102
{ACAD_REACTORS
330
2BB72
102
}
330
2BB72
100
AcDbXrecord
 10
0.0
 20
0.0
 30
0.0
  0
XRECORD
  5
2BB8A
102
{ACAD_REACTORS
330
2BB72
102
}
330
2BB72
100
AcDbXrecord
340
0
  0
XRECORD
  5
2BB8B
102
{ACAD_REACTORS
330
2BB72
102
}
330
2BB72
100
AcDbXrecord
 70
     0
  0
XRECORD
  5
2BB7E
102
{ACAD_REACTORS
330
2BB72
102
}
330
2BB72
100
AcDbXrecord
  1
{5148564C-236E-40B6-A918-B14F1E1F0DAE}
  0
DICTIONARYVAR
  5
106A7
102
{ACAD_REACTORS
330
106A6
102
}
330
106A6
100
DictionaryVariables
280
     0
  1
96
  0
XRECORD
  5
1A9A1
102
{ACAD_REACTORS
330
1A99F
102
}
330
1A99F
100
AcDbXrecord
330
187D7
330
0
330
0
330
0
330
0
330
0
330
0
330
0
330
0
330
0
330
0
330
0
330
0
330
0
330
0
330
0
330
0
330
0
330
0
330
0
330
0
330
0
330
0
330
0
330
0
330
0
330
0
330
0
330
0
330
0
330
0
330
0
330
0
330
0
330
0
330
0
330
0
330
0
330
0
330
0
330
0
330
0
330
0
330
0
  0
XRECORD
  5
2BB1C
102
{ACAD_REACTORS
330
25085
102
}
330
25085
100
AcDbXrecord
  1
0
  1
*0
  1
*
  1
*
 70
     0
  1
*
  1
*
  0
XRECORD
  5
2BB1D
102
{ACAD_REACTORS
330
25085
102
}
330
25085
100
AcDbXrecord
  1
11
  1
*11
  1
*
  1
*
 70
     0
  1
*
  1
*
  0
XRECORD
  5
2BB1E
102
{ACAD_REACTORS
330
25085
102
}
330
25085
100
AcDbXrecord
  1
150_
  1
150_*
  1
*
  1
*
 70
     0
  1
*
  1
*
  0
XRECORD
  5
2BB1F
102
{ACAD_REACTORS
330
25085
102
}
330
25085
100
AcDbXrecord
  1
160_
  1
160_*
  1
*
  1
*
 70
     0
  1
*
  1
*
  0
XRECORD
  5
2BB20
102
{ACAD_REACTORS
330
25085
102
}
330
25085
100
AcDbXrecord
  1
170_
  1
170_*
  1
*
  1
*
 70
     0
  1
*
  1
*
  0
XRECORD
  5
2BB21
102
{ACAD_REACTORS
330
25085
102
}
330
25085
100
AcDbXrecord
  1
171_
  1
171_*
  1
*
  1
*
 70
     0
  1
*
  1
*
  0
XRECORD
  5
2BB22
102
{ACAD_REACTORS
330
25085
102
}
330
25085
100
AcDbXrecord
  1
350_
  1
350_*
  1
*
  1
*
 70
     0
  1
*
  1
*
  0
XRECORD
  5
2BB23
102
{ACAD_REACTORS
330
25085
102
}
330
25085
100
AcDbXrecord
  1
4
  1
*4
  1
*
  1
*
 70
     0
  1
*
  1
*
  0
XRECORD
  5
2BB24
102
{ACAD_REACTORS
330
25085
102
}
330
25085
100
AcDbXrecord
  1
5
  1
*5
  1
*
  1
*
 70
     0
  1
*
  1
*
  0
XRECORD
  5
2BB25
102
{ACAD_REACTORS
330
25085
102
}
330
25085
100
AcDbXrecord
  1
7
  1
*7
  1
*
  1
*
 70
     0
  1
*
  1
*
  0
XRECORD
  5
2BB26
102
{ACAD_REACTORS
330
25085
102
}
330
25085
100
AcDbXrecord
  1
kiseki
  1
kiseki*
  1
*
  1
*
 70
     0
  1
*
  1
*
  0
ENDSEC
  0
EOF
