  0
SECTION
  2
HEADER
  9
$ACADVER
  1
AC1014
  9
$ACADMAINTVER
 70
     9
  9
$DWGCODEPAGE
  3
ANSI_932
  9
$INSBASE
 10
0.0
 20
0.0
 30
0.0
  9
$EXTMIN
 10
4272.672598077159
 20
-1305.429326277385
 30
0.0
  9
$EXTMAX
 10
4802.784107471815
 20
-1047.559911699456
 30
0.0
  9
$LIMMIN
 10
0.0
 20
0.0
  9
$LIMMAX
 10
420.0
 20
297.0
  9
$ORTHOMODE
 70
     0
  9
$REGENMODE
 70
     1
  9
$FILLMODE
 70
     1
  9
$QTEXTMODE
 70
     0
  9
$MIRRTEXT
 70
     0
  9
$DRAGMODE
 70
     2
  9
$LTSCALE
 40
20.0
  9
$OSMODE
 70
   959
  9
$ATTMODE
 70
     2
  9
$TEXTSIZE
 40
10.0
  9
$TRACEWID
 40
1.0
  9
$TEXTSTYLE
  7
ｽﾀｲﾙ3
  9
$CLAYER
  8
0
  9
$CELTYPE
  6
BYLAYER
  9
$CECOLOR
 62
   256
  9
$CELTSCALE
 40
1.0
  9
$DELOBJ
 70
     1
  9
$DISPSILH
 70
     0
  9
$DIMSCALE
 40
1.5
  9
$DIMASZ
 40
2.5
  9
$DIMEXO
 40
0.8
  9
$DIMDLI
 40
0.38
  9
$DIMRND
 40
0.0
  9
$DIMDLE
 40
0.0
  9
$DIMEXE
 40
0.18
  9
$DIMTP
 40
0.0
  9
$DIMTM
 40
0.0
  9
$DIMTXT
 40
3.0
  9
$DIMCEN
 40
0.0
  9
$DIMTSZ
 40
0.0
  9
$DIMTOL
 70
     0
  9
$DIMLIM
 70
     0
  9
$DIMTIH
 70
     0
  9
$DIMTOH
 70
     0
  9
$DIMSE1
 70
     0
  9
$DIMSE2
 70
     0
  9
$DIMTAD
 70
     3
  9
$DIMZIN
 70
     8
  9
$DIMBLK
  1
OPEN30
  9
$DIMASO
 70
     1
  9
$DIMSHO
 70
     1
  9
$DIMPOST
  1

  9
$DIMAPOST
  1

  9
$DIMALT
 70
     0
  9
$DIMALTD
 70
     2
  9
$DIMALTF
 40
25.4
  9
$DIMLFAC
 40
1.0
  9
$DIMTOFL
 70
     0
  9
$DIMTVP
 40
0.0
  9
$DIMTIX
 70
     0
  9
$DIMSOXD
 70
     0
  9
$DIMSAH
 70
     0
  9
$DIMBLK1
  1

  9
$DIMBLK2
  1

  9
$DIMSTYLE
  2
まこ
  9
$DIMCLRD
 70
     4
  9
$DIMCLRE
 70
     4
  9
$DIMCLRT
 70
   256
  9
$DIMTFAC
 40
1.0
  9
$DIMGAP
 40
0.5
  9
$DIMJUST
 70
     0
  9
$DIMSD1
 70
     0
  9
$DIMSD2
 70
     0
  9
$DIMTOLJ
 70
     1
  9
$DIMTZIN
 70
     0
  9
$DIMALTZ
 70
     0
  9
$DIMALTTZ
 70
     0
  9
$DIMFIT
 70
     1
  9
$DIMUPT
 70
     0
  9
$DIMUNIT
 70
     2
  9
$DIMDEC
 70
     8
  9
$DIMTDEC
 70
     8
  9
$DIMALTU
 70
     2
  9
$DIMALTTD
 70
     2
  9
$DIMTXSTY
  7
まこ
  9
$DIMAUNIT
 70
     0
  9
$LUNITS
 70
     2
  9
$LUPREC
 70
     4
  9
$SKETCHINC
 40
1.0
  9
$FILLETRAD
 40
2.0
  9
$AUNITS
 70
     0
  9
$AUPREC
 70
     0
  9
$MENU
  1
.
  9
$ELEVATION
 40
0.0
  9
$PELEVATION
 40
0.0
  9
$THICKNESS
 40
0.0
  9
$LIMCHECK
 70
     0
  9
$BLIPMODE
 70
     0
  9
$CHAMFERA
 40
0.5
  9
$CHAMFERB
 40
0.5
  9
$CHAMFERC
 40
20.0
  9
$CHAMFERD
 40
0.0
  9
$SKPOLY
 70
     0
  9
$TDCREATE
 40
2451224.660162384
  9
$TDUPDATE
 40
2455601.364085278
  9
$TDINDWG
 40
16.2827025926
  9
$TDUSRTIMER
 40
16.2827024190
  9
$USRTIMER
 70
     1
  9
$ANGBASE
 50
0.0
  9
$ANGDIR
 70
     0
  9
$PDMODE
 70
     0
  9
$PDSIZE
 40
0.0
  9
$PLINEWID
 40
0.0
  9
$COORDS
 70
     1
  9
$SPLFRAME
 70
     0
  9
$SPLINETYPE
 70
     6
  9
$SPLINESEGS
 70
     8
  9
$ATTDIA
 70
     0
  9
$ATTREQ
 70
     1
  9
$HANDLING
 70
-16383
  9
$HANDSEED
  5
28849
  9
$SURFTAB1
 70
     6
  9
$SURFTAB2
 70
     6
  9
$SURFTYPE
 70
     6
  9
$SURFU
 70
     6
  9
$SURFV
 70
     6
  9
$UCSNAME
  2

  9
$UCSORG
 10
0.0
 20
0.0
 30
0.0
  9
$UCSXDIR
 10
1.0
 20
0.0
 30
0.0
  9
$UCSYDIR
 10
0.0
 20
1.0
 30
0.0
  9
$PUCSNAME
  2

  9
$PUCSORG
 10
0.0
 20
0.0
 30
0.0
  9
$PUCSXDIR
 10
1.0
 20
0.0
 30
0.0
  9
$PUCSYDIR
 10
0.0
 20
1.0
 30
0.0
  9
$USERI1
 70
     0
  9
$USERI2
 70
     0
  9
$USERI3
 70
     0
  9
$USERI4
 70
     0
  9
$USERI5
 70
     0
  9
$USERR1
 40
245.9999999999999
  9
$USERR2
 40
0.0
  9
$USERR3
 40
0.0
  9
$USERR4
 40
0.0
  9
$USERR5
 40
0.0
  9
$WORLDVIEW
 70
     1
  9
$SHADEDGE
 70
     3
  9
$SHADEDIF
 70
    70
  9
$TILEMODE
 70
     0
  9
$MAXACTVP
 70
    48
  9
$PINSBASE
 10
0.0
 20
0.0
 30
0.0
  9
$PLIMCHECK
 70
     0
  9
$PEXTMIN
 10
-0.0086373881787267
 20
-0.0124707083366502
 30
-0.0015258207003583
  9
$PEXTMAX
 10
400.0141267972408
 20
288.0026947575057
 30
0.0000000349246037
  9
$PLIMMIN
 10
-5.139903539820831
 20
-1.889610854209538
  9
$PLIMMAX
 10
411.051426431432
 20
292.4171153397478
  9
$UNITMODE
 70
     0
  9
$VISRETAIN
 70
     1
  9
$PLINEGEN
 70
     0
  9
$PSLTSCALE
 70
     0
  9
$TREEDEPTH
 70
  3020
  9
$PICKSTYLE
 70
     0
  9
$CMLSTYLE
  2
STANDARD
  9
$CMLJUST
 70
     0
  9
$CMLSCALE
 40
20.0
  9
$PROXYGRAPHICS
 70
     1
  9
$MEASUREMENT
 70
     0
  0
ENDSEC
  0
SECTION
  2
CLASSES
  0
CLASS
  1
HATCH
  2
AcDbHatch
  3
AutoCAD 2000
 90
        0
280
     0
281
     1
  0
CLASS
  1
LWPOLYLINE
  2
AcDbPolyline
  3
AutoCAD 2000
 90
        0
280
     0
281
     1
  0
CLASS
  1
ACDBDICTIONARYWDFLT
  2
AcDbDictionaryWithDefault
  3
AutoCAD 2000
 90
        0
280
     0
281
     0
  0
CLASS
  1
ACDBPLACEHOLDER
  2
AcDbPlaceHolder
  3
AutoCAD 2000
 90
        0
280
     0
281
     0
  0
CLASS
  1
LAYOUT
  2
AcDbLayout
  3
AutoCAD 2000
 90
        0
280
     0
281
     0
  0
CLASS
  1
LONG_TRANSACTION
  2
AcDbLongTransaction
  3
AutoCAD 2000
 90
        0
280
     0
281
     0
  0
CLASS
  1
LWPOLYLINE
  2
AcDbPolyline
  3
AutoCAD 2000
 90
        0
280
     0
281
     1
  0
CLASS
  1
HATCH
  2
AcDbHatch
  3
AutoCAD 2000
 90
        0
280
     0
281
     1
  0
CLASS
  1
XRECORD
  2
AcDbXrecord
  3
AutoCAD 2000
 90
        0
280
     0
281
     0
  0
CLASS
  1
DICTIONARYVAR
  2
AcDbDictionaryVar
  3
AutoCAD 2000
 90
        0
280
     0
281
     0
  0
CLASS
  1
LONG_TRANSACTION
  2
AcDbLongTransaction
  3
AutoCAD 2000
 90
        0
280
     0
281
     0
  0
CLASS
  1
LWPOLYLINE
  2
AcDbPolyline
  3
AutoCAD 2000
 90
        0
280
     0
281
     1
  0
CLASS
  1
HATCH
  2
AcDbHatch
  3
AutoCAD 2000
 90
        0
280
     0
281
     1
  0
CLASS
  1
XRECORD
  2
AcDbXrecord
  3
AutoCAD 2000
 90
        0
280
     0
281
     0
  0
ENDSEC
  0
SECTION
  2
TABLES
  0
TABLE
  2
VPORT
  5
8
330
0
100
AcDbSymbolTable
 70
     2
  0
VPORT
  5
28825
330
8
100
AcDbSymbolTableRecord
100
AcDbViewportTableRecord
  2
*ACTIVE
 70
     0
 10
0.0
 20
0.0
 11
1.0
 21
1.0
 12
4537.798243134417
 22
-1176.54347333401
 13
0.0
 23
0.0
 14
10.0
 24
10.0
 15
10.0
 25
10.0
 16
0.0
 26
0.0
 36
1.0
 17
0.0
 27
0.0
 37
0.0
 40
259.7990234907592
 41
2.184834123222748
 42
50.0
 43
0.0
 44
0.0
 50
0.0
 51
0.0
 71
     0
 72
   100
 73
     1
 74
     0
 75
     0
 76
     0
 77
     0
 78
     0
  0
ENDTAB
  0
TABLE
  2
LTYPE
  5
5
330
0
100
AcDbSymbolTable
 70
     4
  0
LTYPE
  5
12
330
5
100
AcDbSymbolTableRecord
100
AcDbLinetypeTableRecord
  2
BYBLOCK
 70
     0
  3

 72
    65
 73
     0
 40
0.0
  0
LTYPE
  5
13
330
5
100
AcDbSymbolTableRecord
100
AcDbLinetypeTableRecord
  2
BYLAYER
 70
     0
  3

 72
    65
 73
     0
 40
0.0
  0
LTYPE
  5
14
330
5
100
AcDbSymbolTableRecord
100
AcDbLinetypeTableRecord
  2
CONTINUOUS
 70
     0
  3
Solid line
 72
    65
 73
     0
 40
0.0
  0
LTYPE
  5
126C
330
5
100
AcDbSymbolTableRecord
100
AcDbLinetypeTableRecord
  2
CENTER
 70
     0
  3
____ _ ____ _ ____ _ ____ _ ____ _ ____ _ ____
 72
    65
 73
     4
 40
2.0
 49
1.25
 74
     0
 49
-0.25
 74
     0
 49
0.25
 74
     0
 49
-0.25
 74
     0
  0
LTYPE
  5
1541F
330
5
100
AcDbSymbolTableRecord
100
AcDbLinetypeTableRecord
  2
HIDDEN
 70
     0
  3
_ _ _ _ _ _ _ _ _ _ _ _ _ _ _ _ _ _ _ _ _ _ _
 72
    65
 73
     2
 40
0.375
 49
0.25
 74
     0
 49
-0.125
 74
     0
  0
LTYPE
  5
1615D
330
5
100
AcDbSymbolTableRecord
100
AcDbLinetypeTableRecord
  2
PHANTOM
 70
     0
  3
Phantom ______  __  __  ______  __  __  ______
 72
    65
 73
     6
 40
2.5
 49
1.25
 74
     0
 49
-0.25
 74
     0
 49
0.25
 74
     0
 49
-0.25
 74
     0
 49
0.25
 74
     0
 49
-0.25
 74
     0
  0
ENDTAB
  0
TABLE
  2
LAYER
  5
2
102
{ACAD_XDICTIONARY
360
28669
102
}
330
0
100
AcDbSymbolTable
 70
     9
  0
LAYER
  5
E
330
2
100
AcDbSymbolTableRecord
100
AcDbLayerTableRecord
  2
0
 70
     2
 62
     7
  6
CONTINUOUS
  0
LAYER
  5
2C
330
2
100
AcDbSymbolTableRecord
100
AcDbLayerTableRecord
  2
M_VIEW
 70
     4
 62
    -1
  6
CONTINUOUS
  0
LAYER
  5
30
330
2
100
AcDbSymbolTableRecord
100
AcDbLayerTableRecord
  2
FRAME025
 70
     0
 62
     7
  6
CONTINUOUS
  0
LAYER
  5
12B
330
2
100
AcDbSymbolTableRecord
100
AcDbLayerTableRecord
  2
DEFPOINTS
 70
     4
 62
    -7
  6
CONTINUOUS
  0
LAYER
  5
651
330
2
100
AcDbSymbolTableRecord
100
AcDbLayerTableRecord
  2
FRAME020
 70
     0
 62
     7
  6
CONTINUOUS
  0
LAYER
  5
A9BB
330
2
100
AcDbSymbolTableRecord
100
AcDbLayerTableRecord
  2
文字
 70
     0
 62
     7
  6
CONTINUOUS
  0
LAYER
  5
15422
330
2
100
AcDbSymbolTableRecord
100
AcDbLayerTableRecord
  2
細線
 70
     0
 62
     7
  6
CONTINUOUS
  0
LAYER
  5
1A846
330
2
100
AcDbSymbolTableRecord
100
AcDbLayerTableRecord
  2
実線
 70
     0
 62
     7
  6
CONTINUOUS
  0
LAYER
  5
1BB4F
330
2
100
AcDbSymbolTableRecord
100
AcDbLayerTableRecord
  2
隠れ線
 70
     0
 62
     7
  6
HIDDEN
  0
ENDTAB
  0
TABLE
  2
STYLE
  5
3
330
0
100
AcDbSymbolTable
 70
     7
  0
STYLE
  5
F
330
3
100
AcDbSymbolTableRecord
100
AcDbTextStyleTableRecord
  2
STANDARD
 70
     0
 40
0.0
 41
1.0
 50
0.0
 71
     0
 42
2.5
  3
isocp.shx
  4
bigfont.shx
  0
STYLE
  5
35
330
3
100
AcDbSymbolTableRecord
100
AcDbTextStyleTableRecord
  2
MSｺ_ｼｯｸ
 70
     0
 40
0.0
 41
1.0
 50
0.0
 71
     0
 42
5.0
  3
MS Gothic.ttf
  4

1001
ACAD
1000
MS Gothic
1071
    32817
  0
STYLE
  5
1A849
330
3
100
AcDbSymbolTableRecord
100
AcDbTextStyleTableRecord
  2
まこ
 70
     0
 40
0.0
 41
1.0
 50
0.0
 71
     0
 42
2.5
  3
simplex.shx
  4
bigfont.shx
  0
STYLE
  5
1A84A
330
3
100
AcDbSymbolTableRecord
100
AcDbTextStyleTableRecord
  2
ｽﾀｲﾙ3
 70
     0
 40
10.0
 41
1.0
 50
0.0
 71
     0
 42
10.0
  3
isocp.shx
  4
extfont.shx
  0
ENDTAB
  0
TABLE
  2
VIEW
  5
6
330
0
100
AcDbSymbolTable
 70
     0
  0
ENDTAB
  0
TABLE
  2
UCS
  5
7
330
0
100
AcDbSymbolTable
 70
     0
  0
ENDTAB
  0
TABLE
  2
APPID
  5
9
330
0
100
AcDbSymbolTable
 70
     4
  0
APPID
  5
10
330
9
100
AcDbSymbolTableRecord
100
AcDbRegAppTableRecord
  2
ACAD
 70
     0
  0
APPID
  5
F013
330
9
100
AcDbSymbolTableRecord
100
AcDbRegAppTableRecord
  2
CONTENTBLOCKDESCRIPTION
 70
     0
  0
APPID
  5
F014
330
9
100
AcDbSymbolTableRecord
100
AcDbRegAppTableRecord
  2
CONTENTBLOCKICON
 70
     0
  0
APPID
  5
1A9A0
330
9
100
AcDbSymbolTableRecord
100
AcDbRegAppTableRecord
  2
DCO15
 70
     0
  0
ENDTAB
  0
TABLE
  2
DIMSTYLE
  5
A
330
0
100
AcDbSymbolTable
 70
     2
  0
DIMSTYLE
105
1D
330
A
100
AcDbSymbolTableRecord
100
AcDbDimStyleTableRecord
  2
STANDARD
 70
     0
  3

  4

  5

  6

  7

 40
1.0
 41
0.18
 42
0.0625
 43
0.38
 44
0.18
 45
0.0
 46
0.0
 47
0.0
 48
0.0
140
0.18
141
0.09
142
0.0
143
25.4
144
1.0
145
0.0
146
1.0
147
0.09
 71
     0
 72
     0
 73
     1
 74
     1
 75
     0
 76
     0
 77
     0
 78
     0
170
     0
171
     2
172
     0
173
     0
174
     0
175
     0
176
     0
177
     0
178
     0
270
     2
271
     4
272
     4
273
     2
274
     2
340
F
275
     0
280
     0
281
     0
282
     0
283
     1
284
     0
285
     0
286
     0
287
     3
288
     0
  0
DIMSTYLE
105
1A84D
102
{ACAD_REACTORS
330
26B72
330
26CFE
330
26EA8
330
26EAA
330
26F0F
102
}
330
A
100
AcDbSymbolTableRecord
100
AcDbDimStyleTableRecord
  2
まこ
 70
     0
  3

  4

  5
OPEN30
  6

  7

 40
1.5
 41
2.5
 42
0.8
 43
0.38
 44
0.18
 45
0.0
 46
0.0
 47
0.0
 48
0.0
140
3.0
141
0.0
142
0.0
143
25.4
144
1.0
145
0.0
146
1.0
147
0.5
 71
     0
 72
     0
 73
     0
 74
     0
 75
     0
 76
     0
 77
     3
 78
     8
170
     0
171
     2
172
     0
173
     0
174
     0
175
     0
176
     4
177
     4
178
   256
270
     2
271
     8
272
     8
273
     2
274
     2
340
1A849
275
     0
280
     0
281
     0
282
     0
283
     1
284
     0
285
     0
286
     0
287
     1
288
     0
  0
ENDTAB
  0
TABLE
  2
BLOCK_RECORD
  5
1
330
0
100
AcDbSymbolTable
 70
    24
  0
BLOCK_RECORD
  5
18
102
{ACAD_XDICTIONARY
360
EFC6
102
}
330
1
100
AcDbSymbolTableRecord
100
AcDbBlockTableRecord
  2
*MODEL_SPACE
  0
BLOCK_RECORD
  5
15
102
{ACAD_XDICTIONARY
360
EFC4
102
}
330
1
100
AcDbSymbolTableRecord
100
AcDbBlockTableRecord
  2
*PAPER_SPACE
  0
BLOCK_RECORD
  5
115C
330
1
100
AcDbSymbolTableRecord
100
AcDbBlockTableRecord
  2
機械A4横_LBP
  0
BLOCK_RECORD
  5
1215D
330
1
100
AcDbSymbolTableRecord
100
AcDbBlockTableRecord
  2
_OPEN30
  0
ENDTAB
  0
ENDSEC
  0
SECTION
  2
BLOCKS
  0
BLOCK
  5
19
330
18
100
AcDbEntity
  8
0
100
AcDbBlockBegin
  2
*MODEL_SPACE
 70
     0
 10
0.0
 20
0.0
 30
0.0
  3
*MODEL_SPACE
  1

  0
ENDBLK
  5
1A
330
18
100
AcDbEntity
  8
0
100
AcDbBlockEnd
  0
BLOCK
  5
16
330
15
100
AcDbEntity
 67
     1
  8
0
100
AcDbBlockBegin
  2
*PAPER_SPACE
 70
     0
 10
0.0
 20
0.0
 30
0.0
  3
*PAPER_SPACE
  1

  0
ENDBLK
  5
17
330
15
100
AcDbEntity
 67
     1
  8
0
100
AcDbBlockEnd
  0
BLOCK
  5
115D
330
115C
100
AcDbEntity
  8
0
100
AcDbBlockBegin
  2
機械A4横_LBP
 70
     0
 10
0.0
 20
0.0
 30
0.0
  3
機械A4横_LBP
  1

  0
ENDBLK
  5
115E
330
115C
100
AcDbEntity
  8
0
100
AcDbBlockEnd
  0
BLOCK
  5
12161
330
1215D
100
AcDbEntity
  8
0
100
AcDbBlockBegin
  2
_OPEN30
 70
     0
 10
0.0
 20
0.0
 30
0.0
  3
_OPEN30
  1

  0
LINE
  5
1215E
330
1215D
100
AcDbEntity
  8
0
  6
BYBLOCK
 62
     0
100
AcDbLine
 10
-1.0
 20
0.26794919
 30
0.0
 11
0.0
 21
0.0
 31
0.0
  0
LINE
  5
1215F
330
1215D
100
AcDbEntity
  8
0
  6
BYBLOCK
 62
     0
100
AcDbLine
 10
0.0
 20
0.0
 30
0.0
 11
-1.0
 21
-0.26794919
 31
0.0
  0
LINE
  5
12160
330
1215D
100
AcDbEntity
  8
0
  6
BYBLOCK
 62
     0
100
AcDbLine
 10
0.0
 20
0.0
 30
0.0
 11
-1.0
 21
0.0
 31
0.0
  0
ENDBLK
  5
12162
330
1215D
100
AcDbEntity
  8
0
100
AcDbBlockEnd
  0
ENDSEC
  0
SECTION
  2
ENTITIES
  0
LWPOLYLINE
  5
24A5E
330
18
100
AcDbEntity
  8
0
100
AcDbPolyline
 90
        2
 70
     0
 43
0.0
 10
4580.784120748199
 20
-1065.559472852431
 10
4420.784081367975
 20
-1065.559472852431
  0
LWPOLYLINE
  5
24A60
330
18
100
AcDbEntity
  8
0
100
AcDbPolyline
 90
        2
 70
     0
 43
0.0
 10
4580.784120748199
 20
-1159.565017196177
 10
4420.784081367975
 20
-1159.565017196177
  0
CIRCLE
  5
24A64
330
18
100
AcDbEntity
  8
0
100
AcDbCircle
 10
4436.761898348199
 20
-1170.062245024304
 30
0.0
 40
2.5
  0
CIRCLE
  5
24A65
330
18
100
AcDbEntity
  8
0
100
AcDbCircle
 10
4436.761898348199
 20
-1170.062245024304
 30
0.0
 40
2.0
  0
LINE
  5
24A68
330
18
100
AcDbEntity
  8
0
100
AcDbLine
 10
4421.784081367976
 20
-1159.565017196177
 30
0.0
 11
4421.784081367976
 21
-1177.562245024304
 31
0.0
  0
LINE
  5
24A6C
330
18
100
AcDbEntity
  8
0
100
AcDbLine
 10
4406.806303767978
 20
-1159.565017196177
 30
0.0
 11
4420.784081367975
 21
-1159.565017196177
 31
0.0
  0
CIRCLE
  5
24A6D
330
18
100
AcDbEntity
  8
0
100
AcDbCircle
 10
4436.761898348199
 20
-1055.062245024304
 30
0.0
 40
2.5
  0
CIRCLE
  5
24A6E
330
18
100
AcDbEntity
  8
0
100
AcDbCircle
 10
4436.761898348199
 20
-1055.062245024304
 30
0.0
 40
2.0
  0
LINE
  5
24A71
330
18
100
AcDbEntity
  8
0
100
AcDbLine
 10
4406.806303767978
 20
-1065.559472852431
 30
0.0
 11
4420.784081367975
 21
-1065.559472852431
 31
0.0
  0
LINE
  5
24A74
330
18
100
AcDbEntity
  8
0
100
AcDbLine
 10
4421.784081367976
 20
-1047.562245024304
 30
0.0
 11
4421.784081367976
 21
-1065.559472852431
 31
0.0
  0
CIRCLE
  5
24A75
330
18
100
AcDbEntity
  8
0
100
AcDbCircle
 10
4500.761898348199
 20
-1170.062245024304
 30
0.0
 40
2.5
  0
CIRCLE
  5
24A78
330
18
100
AcDbEntity
  8
0
100
AcDbCircle
 10
4500.761898348199
 20
-1170.062245024304
 30
0.0
 40
2.0
  0
CIRCLE
  5
24A7D
330
18
100
AcDbEntity
  8
0
100
AcDbCircle
 10
4500.761898348199
 20
-1055.062245024304
 30
0.0
 40
2.5
  0
CIRCLE
  5
24A7E
330
18
100
AcDbEntity
  8
0
100
AcDbCircle
 10
4500.761898348199
 20
-1055.062245024304
 30
0.0
 40
2.0
  0
LINE
  5
24A8D
330
18
100
AcDbEntity
  8
0
100
AcDbLine
 10
4579.804081367977
 20
-1159.565017196177
 30
0.0
 11
4579.784120748199
 21
-1177.562245024304
 31
0.0
  0
CIRCLE
  5
24A92
330
18
100
AcDbEntity
  8
0
100
AcDbCircle
 10
4564.761898348199
 20
-1170.062245024304
 30
0.0
 40
2.0
  0
CIRCLE
  5
24A93
330
18
100
AcDbEntity
  8
0
100
AcDbCircle
 10
4564.761898348199
 20
-1170.062245024304
 30
0.0
 40
2.5
  0
LINE
  5
24A96
330
18
100
AcDbEntity
  8
0
100
AcDbLine
 10
4580.804081367977
 20
-1159.565017196177
 30
0.0
 11
4594.761898348198
 21
-1159.565017196177
 31
0.0
  0
CIRCLE
  5
24A9E
330
18
100
AcDbEntity
  8
0
100
AcDbCircle
 10
4564.761898348199
 20
-1055.062245024304
 30
0.0
 40
2.5
  0
CIRCLE
  5
24A9F
330
18
100
AcDbEntity
  8
0
100
AcDbCircle
 10
4564.761898348199
 20
-1055.062245024304
 30
0.0
 40
2.0
  0
LINE
  5
24AA0
330
18
100
AcDbEntity
  8
0
100
AcDbLine
 10
4579.784120748199
 20
-1047.562245024304
 30
0.0
 11
4579.784120748199
 21
-1065.559472852431
 31
0.0
  0
LINE
  5
24AA1
330
18
100
AcDbEntity
  8
0
100
AcDbLine
 10
4580.784120748199
 20
-1065.559472852431
 30
0.0
 11
4594.761898348198
 21
-1065.559472852431
 31
0.0
  0
CIRCLE
  5
26788
330
18
100
AcDbEntity
  8
0
  6
HIDDEN
 48
0.45
100
AcDbCircle
 10
4518.544956366485
 20
-1272.929326277385
 30
0.0
 40
6.0
  0
LWPOLYLINE
  5
2678B
330
18
100
AcDbEntity
  8
0
100
AcDbPolyline
 90
        2
 70
     0
 43
0.0
 10
4524.487740774721
 20
-1291.429326277385
 10
4488.932185219179
 20
-1291.429326277385
  0
LWPOLYLINE
  5
2678E
330
18
100
AcDbEntity
  8
0
100
AcDbPolyline
 90
        2
 70
     0
 43
0.0
 10
4420.784081367975
 20
-1265.429326277385
 10
4580.784120748199
 20
-1265.429326277385
  0
LINE
  5
26791
330
18
100
AcDbEntity
  8
0
100
AcDbLine
 10
4406.761898348199
 20
-1265.429326277385
 30
0.0
 11
4594.761898348198
 21
-1265.429326277385
 31
0.0
  0
LINE
  5
26792
330
18
100
AcDbEntity
  8
0
100
AcDbLine
 10
4594.761898348198
 20
-1305.429326277385
 30
0.0
 11
4406.761898348199
 21
-1305.429326277385
 31
0.0
  0
LINE
  5
26795
330
18
100
AcDbEntity
  8
隠れ線
 48
0.45
100
AcDbLine
 10
4421.784081367976
 20
-1276.929326277385
 30
0.0
 11
4579.784120748199
 21
-1276.929326277385
 31
0.0
  0
LINE
  5
26796
330
18
100
AcDbEntity
  8
隠れ線
 48
0.45
100
AcDbLine
 10
4421.784081367976
 20
-1267.420733804245
 30
0.0
 11
4579.784120748199
 21
-1267.420733804245
 31
0.0
  0
LINE
  5
267F2
330
18
100
AcDbEntity
  8
0
100
AcDbLine
 10
4406.761898348199
 20
-1267.420733804245
 30
0.0
 11
4421.784081367976
 21
-1267.420733804245
 31
0.0
  0
LINE
  5
267F3
330
18
100
AcDbEntity
  8
0
100
AcDbLine
 10
4406.761898348199
 20
-1265.429326277385
 30
0.0
 11
4406.761898348199
 21
-1305.429326277385
 31
0.0
  0
LWPOLYLINE
  5
267F6
330
18
100
AcDbEntity
  8
0
100
AcDbPolyline
 90
        2
 70
     0
 43
0.0
 10
4488.932185219179
 20
-1291.429326277385
 10
4453.37662966364
 20
-1291.429326277385
  0
LINE
  5
267F7
330
18
100
AcDbEntity
  8
隠れ線
 48
0.45
100
AcDbLine
 10
4434.764220446627
 20
-1275.429326277385
 30
0.0
 11
4438.756742937434
 21
-1275.429326277385
 31
0.0
  0
LINE
  5
267F8
330
18
100
AcDbEntity
  8
隠れ線
 48
0.45
100
AcDbLine
 10
4434.764220446627
 20
-1265.429326277385
 30
0.0
 11
4434.764220446627
 21
-1275.429326277385
 31
0.0
  0
LINE
  5
267F9
330
18
100
AcDbEntity
  8
隠れ線
 48
0.45
100
AcDbLine
 10
4438.756742937434
 20
-1275.429326277385
 30
0.0
 11
4438.756742937434
 21
-1265.429326277385
 31
0.0
  0
LINE
  5
267FA
330
18
100
AcDbEntity
  8
隠れ線
 48
0.45
100
AcDbLine
 10
4434.764220446627
 20
-1275.429326277385
 30
0.0
 11
4435.264220446629
 21
-1276.118018931656
 31
0.0
  0
LINE
  5
267FB
330
18
100
AcDbEntity
  8
隠れ線
 48
0.45
100
AcDbLine
 10
4438.264220446629
 20
-1276.118018931656
 30
0.0
 11
4438.756742937434
 21
-1275.429326277385
 31
0.0
  0
LINE
  5
267FC
330
18
100
AcDbEntity
  8
0
  6
CENTER
 48
0.3
100
AcDbLine
 10
4436.764956366486
 20
-1279.196860246153
 30
0.0
 11
4436.764956366486
 21
-1263.679013575243
 31
0.0
  0
LINE
  5
267FD
330
18
100
AcDbEntity
  8
隠れ線
 48
0.45
100
AcDbLine
 10
4438.264220446629
 20
-1265.429326277385
 30
0.0
 11
4438.264220446629
 21
-1276.929326277385
 31
0.0
  0
LINE
  5
267FE
330
18
100
AcDbEntity
  8
隠れ線
 48
0.45
100
AcDbLine
 10
4435.264220446629
 20
-1265.429326277385
 30
0.0
 11
4435.264220446629
 21
-1276.929326277385
 31
0.0
  0
CIRCLE
  5
267FF
330
18
100
AcDbEntity
  8
0
  6
HIDDEN
 48
0.45
100
AcDbCircle
 10
4447.424956366487
 20
-1272.929326277385
 30
0.0
 40
6.0
  0
LINE
  5
26803
330
18
100
AcDbEntity
  8
0
100
AcDbLine
 10
4421.784081367976
 20
-1265.429326277385
 30
0.0
 11
4421.784081367976
 21
-1291.429326277385
 31
0.0
  0
LWPOLYLINE
  5
26804
330
18
100
AcDbEntity
  8
0
100
AcDbPolyline
 90
        2
 70
     0
 43
0.0
 10
4453.37662966364
 20
-1291.429326277385
 10
4421.784081367976
 20
-1291.429326277385
  0
LINE
  5
26806
330
18
100
AcDbEntity
  8
隠れ線
 48
0.45
100
AcDbLine
 10
4498.764220446627
 20
-1275.429326277385
 30
0.0
 11
4502.756742937434
 21
-1275.429326277385
 31
0.0
  0
LINE
  5
26807
330
18
100
AcDbEntity
  8
隠れ線
 48
0.45
100
AcDbLine
 10
4498.764220446627
 20
-1265.429326277385
 30
0.0
 11
4498.764220446627
 21
-1275.429326277385
 31
0.0
  0
LINE
  5
26808
330
18
100
AcDbEntity
  8
隠れ線
 48
0.45
100
AcDbLine
 10
4502.756742937434
 20
-1275.429326277385
 30
0.0
 11
4502.756742937434
 21
-1265.429326277385
 31
0.0
  0
LINE
  5
26809
330
18
100
AcDbEntity
  8
隠れ線
 48
0.45
100
AcDbLine
 10
4498.764220446627
 20
-1275.429326277385
 30
0.0
 11
4499.264220446629
 21
-1276.118018931656
 31
0.0
  0
LINE
  5
2680A
330
18
100
AcDbEntity
  8
隠れ線
 48
0.45
100
AcDbLine
 10
4502.264220446629
 20
-1276.118018931656
 30
0.0
 11
4502.756742937434
 21
-1275.429326277385
 31
0.0
  0
LINE
  5
2680B
330
18
100
AcDbEntity
  8
0
  6
CENTER
 48
0.3
100
AcDbLine
 10
4500.764956366486
 20
-1279.155043627372
 30
0.0
 11
4500.764956366486
 21
-1263.57008109647
 31
0.0
  0
LINE
  5
2680C
330
18
100
AcDbEntity
  8
隠れ線
 48
0.45
100
AcDbLine
 10
4499.264220446629
 20
-1265.429326277385
 30
0.0
 11
4499.264220446629
 21
-1276.929326277385
 31
0.0
  0
LINE
  5
2680D
330
18
100
AcDbEntity
  8
隠れ線
 48
0.45
100
AcDbLine
 10
4502.264220446629
 20
-1265.429326277385
 30
0.0
 11
4502.264220446629
 21
-1276.929326277385
 31
0.0
  0
CIRCLE
  5
2680E
330
18
100
AcDbEntity
  8
0
  6
HIDDEN
 48
0.45
100
AcDbCircle
 10
4482.984956366486
 20
-1272.929326277385
 30
0.0
 40
6.0
  0
LWPOLYLINE
  5
2685B
330
18
100
AcDbEntity
  8
0
100
AcDbPolyline
 90
        4
 70
     0
 43
0.0
 10
4638.206686467047
 20
-1286.328605628253
 10
4598.92415961946
 20
-1286.328605628253
 10
4598.92415961946
 20
-1278.851187879402
 10
4640.540530955873
 20
-1278.851187879402
  0
LINE
  5
2685C
330
18
100
AcDbEntity
  8
0
  6
CENTER
 48
0.45
100
AcDbLine
 10
4590.644126390578
 20
-1282.589896753828
 30
0.0
 11
4658.806036234055
 21
-1282.589896753828
 31
0.0
  0
LINE
  5
2685D
330
18
100
AcDbEntity
  8
0
100
AcDbLine
 10
4594.761898348198
 20
-1265.429326277385
 30
0.0
 11
4594.761898348198
 21
-1305.429326277385
 31
0.0
  0
LWPOLYLINE
  5
26860
330
18
100
AcDbEntity
  8
0
100
AcDbPolyline
 90
        2
 70
     0
 43
0.0
 10
4579.784120748199
 20
-1291.429326277385
 10
4560.043296330261
 20
-1291.429326277385
  0
LINE
  5
26861
102
{ACAD_REACTORS
330
26C43
102
}
330
18
100
AcDbEntity
  8
隠れ線
 48
0.45
100
AcDbLine
 10
4562.764220446627
 20
-1275.429326277385
 30
0.0
 11
4566.756742937434
 21
-1275.429326277385
 31
0.0
  0
LINE
  5
26862
102
{ACAD_REACTORS
330
26C43
102
}
330
18
100
AcDbEntity
  8
隠れ線
 48
0.45
100
AcDbLine
 10
4562.764220446627
 20
-1265.429326277385
 30
0.0
 11
4562.764220446627
 21
-1275.429326277385
 31
0.0
  0
LINE
  5
26863
102
{ACAD_REACTORS
330
26C43
102
}
330
18
100
AcDbEntity
  8
隠れ線
 48
0.45
100
AcDbLine
 10
4566.756742937434
 20
-1275.429326277385
 30
0.0
 11
4566.756742937434
 21
-1265.429326277385
 31
0.0
  0
LINE
  5
26864
102
{ACAD_REACTORS
330
26C43
102
}
330
18
100
AcDbEntity
  8
隠れ線
 48
0.45
100
AcDbLine
 10
4562.764220446627
 20
-1275.429326277385
 30
0.0
 11
4563.264220446629
 21
-1276.118018931656
 31
0.0
  0
LINE
  5
26865
102
{ACAD_REACTORS
330
26C43
102
}
330
18
100
AcDbEntity
  8
隠れ線
 48
0.45
100
AcDbLine
 10
4566.264220446629
 20
-1276.118018931656
 30
0.0
 11
4566.756742937434
 21
-1275.429326277385
 31
0.0
  0
LINE
  5
26866
330
18
100
AcDbEntity
  8
0
  6
CENTER
 48
0.3
100
AcDbLine
 10
4564.764956366486
 20
-1279.128596604592
 30
0.0
 11
4564.764956366486
 21
-1263.370644706274
 31
0.0
  0
LINE
  5
26867
102
{ACAD_REACTORS
330
26C43
102
}
330
18
100
AcDbEntity
  8
隠れ線
 48
0.45
100
AcDbLine
 10
4566.264220446629
 20
-1265.429326277385
 30
0.0
 11
4566.264220446629
 21
-1276.929326277385
 31
0.0
  0
LINE
  5
26868
102
{ACAD_REACTORS
330
26C43
102
}
330
18
100
AcDbEntity
  8
隠れ線
 48
0.45
100
AcDbLine
 10
4563.264220446629
 20
-1265.429326277385
 30
0.0
 11
4563.264220446629
 21
-1276.929326277385
 31
0.0
  0
CIRCLE
  5
26869
330
18
100
AcDbEntity
  8
0
  6
HIDDEN
 48
0.45
100
AcDbCircle
 10
4554.104956366486
 20
-1272.929326277385
 30
0.0
 40
6.0
  0
LWPOLYLINE
  5
2686B
330
18
100
AcDbEntity
  8
0
100
AcDbPolyline
 90
        2
 70
     0
 43
0.0
 10
4560.043296330261
 20
-1291.429326277385
 10
4524.487740774721
 20
-1291.429326277385
  0
LINE
  5
2686F
330
18
100
AcDbEntity
  8
0
100
AcDbLine
 10
4598.92415961946
 20
-1277.797679402666
 30
0.0
 11
4598.92415961946
 21
-1287.304718146424
 31
0.0
  0
LINE
  5
26870
330
18
100
AcDbEntity
  8
0
100
AcDbLine
 10
4579.784120748199
 20
-1267.420733804245
 30
0.0
 11
4594.761898348198
 21
-1267.420733804245
 31
0.0
  0
LINE
  5
26871
330
18
100
AcDbEntity
  8
0
100
AcDbLine
 10
4579.784120748199
 20
-1265.429326277385
 30
0.0
 11
4579.784120748199
 21
-1291.429326277385
 31
0.0
  0
LINE
  5
26872
330
18
100
AcDbEntity
  8
0
 48
10.0
100
AcDbLine
 10
4598.92415961946
 20
-1287.304718146424
 30
0.0
 11
4594.761898348198
 21
-1287.304718146424
 31
0.0
  0
LINE
  5
26873
330
18
100
AcDbEntity
  8
0
 48
10.0
100
AcDbLine
 10
4594.761898348198
 20
-1277.797679402666
 30
0.0
 11
4598.92415961946
 21
-1277.797679402666
 31
0.0
  0
LINE
  5
26874
330
18
100
AcDbEntity
  8
0
  6
CENTER
 48
0.45
100
AcDbLine
 10
4648.259991648727
 20
-1269.157329109391
 30
0.0
 11
4639.666285332032
 21
-1296.690754086339
 31
0.0
  0
LINE
  5
26875
330
18
100
AcDbEntity
  8
0
  6
CENTER
 48
0.45
100
AcDbLine
 10
4643.566168900107
 20
-1269.157329109391
 30
0.0
 11
4634.972462583411
 21
-1296.690754086339
 31
0.0
  0
LINE
  5
26876
330
18
100
AcDbEntity
  8
0
100
AcDbLine
 10
4663.961811873886
 20
-1277.395533493102
 30
0.0
 11
4674.811744342036
 21
-1277.395533493102
 31
0.0
  0
LINE
  5
26877
330
18
100
AcDbEntity
  8
0
100
AcDbLine
 10
4663.961811873886
 20
-1287.392620007123
 30
0.0
 11
4676.956107127188
 21
-1287.392620007123
 31
0.0
  0
LINE
  5
26878
330
18
100
AcDbEntity
  8
0
100
AcDbLine
 10
4663.961811873886
 20
-1276.395533493102
 30
0.0
 11
4663.961811873886
 21
-1277.395533493102
 31
0.0
  0
LWPOLYLINE
  5
26879
330
18
100
AcDbEntity
  8
0
100
AcDbPolyline
 90
        4
 70
     1
 43
0.0
 10
4657.921782250808
 20
-1279.75174177014
 10
4662.946384861593
 20
-1279.75174177014
 10
4662.946384861593
 20
-1285.043004975186
 10
4657.921782250808
 20
-1285.043004975186
  0
LINE
  5
2687A
330
18
100
AcDbEntity
  8
0
100
AcDbLine
 10
4657.935437808218
 20
-1281.066032956282
 30
0.0
 11
4662.956107127189
 21
-1281.066032956282
 31
0.0
  0
LINE
  5
2687B
330
18
100
AcDbEntity
  8
0
100
AcDbLine
 10
4657.935437808218
 20
-1282.337423737221
 30
0.0
 11
4662.946384861593
 21
-1282.337423737221
 31
0.0
  0
LINE
  5
2687C
330
18
100
AcDbEntity
  8
0
100
AcDbLine
 10
4657.935437808218
 20
-1283.654222009203
 30
0.0
 11
4662.956107127189
 21
-1283.654222009203
 31
0.0
  0
LINE
  5
2687D
330
18
100
AcDbEntity
  8
0
100
AcDbLine
 10
4663.961811873886
 20
-1288.395533493102
 30
0.0
 11
4663.961811873886
 21
-1287.392620007123
 31
0.0
  0
LWPOLYLINE
  5
2687E
330
18
100
AcDbEntity
  8
0
100
AcDbPolyline
 90
        4
 70
     0
 43
0.0
 10
4645.234353704494
 20
-1278.851187879402
 10
4657.935437808218
 20
-1278.851187879402
 10
4657.935437808218
 20
-1286.328605628253
 10
4642.90050921567
 20
-1286.328605628253
  0
LWPOLYLINE
  5
2687F
330
18
100
AcDbEntity
  8
0
100
AcDbPolyline
 90
        4
 70
     0
 43
0.0
 10
4663.961811873886
 20
-1288.395533493102
 10
4662.956107127189
 20
-1288.395533493102
 10
4662.956107127189
 20
-1276.395533493102
 10
4663.961811873886
 20
-1276.395533493102
  0
LINE
  5
26880
330
18
100
AcDbEntity
  8
0
100
AcDbLine
 10
4681.971015845657
 20
-1274.924575003812
 30
0.0
 11
4681.971015845657
 21
-1275.395533493102
 31
0.0
  0
LINE
  5
26881
330
18
100
AcDbEntity
  8
0
100
AcDbLine
 10
4674.811744342036
 20
-1277.395533493102
 30
0.0
 11
4676.711744191885
 21
-1277.395533493102
 31
0.0
  0
LINE
  5
26882
330
18
100
AcDbEntity
  8
0
100
AcDbLine
 10
4669.965918034557
 20
-1273.924575003811
 30
0.0
 11
4680.971015845656
 21
-1273.924575003811
 31
0.0
  0
LINE
  5
26883
330
18
100
AcDbEntity
  8
0
100
AcDbLine
 10
4669.965918034557
 20
-1273.416755797331
 30
0.0
 11
4678.767796209727
 21
-1273.416755797331
 31
0.0
  0
LINE
  5
26884
330
18
100
AcDbEntity
  8
0
100
AcDbLine
 10
4668.967907392461
 20
-1273.416755797331
 30
0.0
 11
4668.967907392461
 21
-1274.931991922819
 31
0.0
  0
LINE
  5
26885
330
18
100
AcDbEntity
  8
0
100
AcDbLine
 10
4668.967907392461
 20
-1273.416755797331
 30
0.0
 11
4669.965918034557
 21
-1273.416755797331
 31
0.0
  0
LINE
  5
26886
330
18
100
AcDbEntity
  8
0
100
AcDbLine
 10
4669.965918034557
 20
-1273.416755797331
 30
0.0
 11
4669.965918034557
 21
-1273.924575003811
 31
0.0
  0
LINE
  5
26887
330
18
100
AcDbEntity
  8
0
100
AcDbLine
 10
4675.011744342035
 20
-1275.90050835691
 30
0.0
 11
4675.011744342035
 21
-1276.395533493102
 31
0.0
  0
LINE
  5
26888
330
18
100
AcDbEntity
  8
0
100
AcDbLine
 10
4675.011744342035
 20
-1276.395533493102
 30
0.0
 11
4675.011744342035
 21
-1277.195533493101
 31
0.0
  0
LINE
  5
26889
330
18
100
AcDbEntity
  8
0
100
AcDbLine
 10
4675.011744342035
 20
-1277.195533493101
 30
0.0
 11
4674.811744342036
 21
-1277.395533493102
 31
0.0
  0
LINE
  5
2688A
330
18
100
AcDbEntity
  8
0
100
AcDbLine
 10
4668.967907392461
 20
-1274.931991922819
 30
0.0
 11
4675.011744342035
 21
-1275.90050835691
 31
0.0
  0
LINE
  5
2688B
330
18
100
AcDbEntity
  8
0
100
AcDbLine
 10
4678.967796209728
 20
-1273.616755797331
 30
0.0
 11
4678.967796209728
 21
-1273.924575003811
 31
0.0
  0
LINE
  5
2688C
330
18
100
AcDbEntity
  8
0
100
AcDbLine
 10
4678.767796209727
 20
-1273.416755797331
 30
0.0
 11
4678.967796209728
 21
-1273.616755797331
 31
0.0
  0
LINE
  5
2688D
330
18
100
AcDbEntity
  8
0
100
AcDbLine
 10
4678.967796209728
 20
-1274.667989137804
 30
0.0
 11
4678.967796209728
 21
-1273.924575003811
 31
0.0
  0
LINE
  5
2688E
330
18
100
AcDbEntity
  8
0
100
AcDbLine
 10
4680.971015845656
 20
-1276.395533493102
 30
0.0
 11
4678.967796209728
 21
-1276.395533493102
 31
0.0
  0
LINE
  5
2688F
330
18
100
AcDbEntity
  8
0
100
AcDbLine
 10
4678.967796209728
 20
-1276.395533493102
 30
0.0
 11
4678.967796209728
 21
-1275.90050835691
 31
0.0
  0
LINE
  5
26890
330
18
100
AcDbEntity
  8
0
100
AcDbLine
 10
4676.711744191885
 20
-1277.395533493102
 30
0.0
 11
4676.956107127188
 21
-1277.395533493102
 31
0.0
  0
LINE
  5
26891
330
18
100
AcDbEntity
  8
0
100
AcDbLine
 10
4676.511744191883
 20
-1275.90050835691
 30
0.0
 11
4676.511744191883
 21
-1277.195533493101
 31
0.0
  0
LINE
  5
26892
330
18
100
AcDbEntity
  8
0
100
AcDbLine
 10
4676.511744191883
 20
-1277.195533493101
 30
0.0
 11
4676.711744191885
 21
-1277.395533493102
 31
0.0
  0
LINE
  5
26893
330
18
100
AcDbEntity
  8
0
100
AcDbLine
 10
4676.511744191883
 20
-1275.90050835691
 30
0.0
 11
4676.511744191883
 21
-1274.667989137804
 31
0.0
  0
LINE
  5
26894
330
18
100
AcDbEntity
  8
0
100
AcDbLine
 10
4678.967796209728
 20
-1275.90050835691
 30
0.0
 11
4676.511744191883
 21
-1275.90050835691
 31
0.0
  0
LINE
  5
26895
330
18
100
AcDbEntity
  8
0
100
AcDbLine
 10
4676.511744191883
 20
-1274.667989137804
 30
0.0
 11
4678.967796209728
 21
-1274.667989137804
 31
0.0
  0
LINE
  5
26896
330
18
100
AcDbEntity
  8
0
100
AcDbLine
 10
4676.956107127188
 20
-1277.395533493102
 30
0.0
 11
4676.956107127188
 21
-1287.392620007123
 31
0.0
  0
LWPOLYLINE
  5
26897
330
18
100
AcDbEntity
  8
0
100
AcDbPolyline
 90
        4
 70
     1
 43
0.0
 10
4676.956107127188
 20
-1282.903612479723
 10
4685.956107127188
 20
-1282.903612479723
 10
4685.956107127188
 20
-1286.392620007124
 10
4676.956107127188
 20
-1286.392620007124
  0
LWPOLYLINE
  5
26898
330
18
100
AcDbEntity
  8
0
100
AcDbPolyline
 90
        4
 70
     1
 43
0.0
 10
4676.956107127188
 20
-1278.395533493102
 10
4685.956107127188
 20
-1278.395533493102
 10
4685.956107127188
 20
-1281.891637353322
 10
4676.956107127188
 20
-1281.891637353322
  0
LINE
  5
26899
330
18
100
AcDbEntity
  8
0
100
AcDbLine
 10
4680.971015845656
 20
-1273.924575003811
 30
0.0
 11
4681.971015845657
 21
-1274.924575003812
 31
0.0
  0
LINE
  5
2689A
330
18
100
AcDbEntity
  8
0
100
AcDbLine
 10
4680.971015845656
 20
-1276.395533493102
 30
0.0
 11
4681.971015845657
 21
-1275.395533493102
 31
0.0
  0
LINE
  5
26AE9
330
18
100
AcDbEntity
  8
0
100
AcDbLine
 10
4406.761898348199
 20
-1047.562245024304
 30
0.0
 11
4406.761898348199
 21
-1177.562245024304
 31
0.0
  0
LINE
  5
26AFD
330
18
100
AcDbEntity
  8
0
  6
CENTER
 48
0.45
100
AcDbLine
 10
4391.678877883276
 20
-1112.562245024304
 30
0.0
 11
4611.224359221479
 21
-1112.562245024304
 31
0.0
  0
LINE
  5
26AFE
330
18
100
AcDbEntity
  8
0
100
AcDbLine
 10
4406.761898348199
 20
-1047.562245024304
 30
0.0
 11
4594.761898348198
 21
-1047.562245024304
 31
0.0
  0
LINE
  5
26AFF
330
18
100
AcDbEntity
  8
0
100
AcDbLine
 10
4406.761898348199
 20
-1177.562245024304
 30
0.0
 11
4594.761898348198
 21
-1177.562245024304
 31
0.0
  0
LINE
  5
26B00
330
18
100
AcDbEntity
  8
0
100
AcDbLine
 10
4594.761898348198
 20
-1047.562245024304
 30
0.0
 11
4594.761898348198
 21
-1177.562245024304
 31
0.0
  0
LINE
  5
26B20
330
18
100
AcDbEntity
  8
0
  6
CENTER
 48
0.3
100
AcDbLine
 10
4436.761898348199
 20
-1175.119821873386
 30
0.0
 11
4436.761898348199
 21
-1164.981671559821
 31
0.0
  0
LINE
  5
26B21
330
18
100
AcDbEntity
  8
0
  6
CENTER
 48
0.3
100
AcDbLine
 10
4500.761898348199
 20
-1174.532458215211
 30
0.0
 11
4500.761898348199
 21
-1164.959958431387
 31
0.0
  0
LINE
  5
26B22
330
18
100
AcDbEntity
  8
0
  6
CENTER
 48
0.3
100
AcDbLine
 10
4564.761898348199
 20
-1174.46419457365
 30
0.0
 11
4564.761898348199
 21
-1164.979725763909
 31
0.0
  0
LINE
  5
26B23
330
18
100
AcDbEntity
  8
0
  6
CENTER
 48
0.3
100
AcDbLine
 10
4436.761898348199
 20
-1059.647711454098
 30
0.0
 11
4436.761898348199
 21
-1050.193854413093
 31
0.0
  0
LINE
  5
26B24
330
18
100
AcDbEntity
  8
0
  6
CENTER
 48
0.3
100
AcDbLine
 10
4500.761898348199
 20
-1059.781385190785
 30
0.0
 11
4500.761898348199
 21
-1049.852859785691
 31
0.0
  0
LINE
  5
26B25
330
18
100
AcDbEntity
  8
0
  6
CENTER
 48
0.3
100
AcDbLine
 10
4564.761898348199
 20
-1059.681758811841
 30
0.0
 11
4564.761898348199
 21
-1049.652564927906
 31
0.0
  0
LINE
  5
26B35
330
18
100
AcDbEntity
  8
0
  6
CENTER
 48
0.3
100
AcDbLine
 10
4431.676656963974
 20
-1055.062245024304
 30
0.0
 11
4441.644943001054
 21
-1055.062245024304
 31
0.0
  0
LINE
  5
26B36
330
18
100
AcDbEntity
  8
0
  6
CENTER
 48
0.3
100
AcDbLine
 10
4496.256001506552
 20
-1055.062245024304
 30
0.0
 11
4505.658225055468
 21
-1055.062245024304
 31
0.0
  0
LINE
  5
26B37
330
18
100
AcDbEntity
  8
0
  6
CENTER
 48
0.3
100
AcDbLine
 10
4560.153378550537
 20
-1055.062245024304
 30
0.0
 11
4569.978103829629
 21
-1055.062245024304
 31
0.0
  0
LINE
  5
26B38
330
18
100
AcDbEntity
  8
0
  6
CENTER
 48
0.3
100
AcDbLine
 10
4431.655600747343
 20
-1170.062245024304
 30
0.0
 11
4441.924003746949
 21
-1170.062245024304
 31
0.0
  0
LINE
  5
26B39
330
18
100
AcDbEntity
  8
0
  6
CENTER
 48
0.3
100
AcDbLine
 10
4495.785470522283
 20
-1170.062245024304
 30
0.0
 11
4506.025618905829
 21
-1170.062245024304
 31
0.0
  0
LINE
  5
26B3A
330
18
100
AcDbEntity
  8
0
  6
CENTER
 48
0.3
100
AcDbLine
 10
4559.81728156824
 20
-1170.062245024304
 30
0.0
 11
4570.241234673297
 21
-1170.062245024304
 31
0.0
  0
LINE
  5
26B3C
330
18
100
AcDbEntity
  8
0
  6
CENTER
 48
0.45
100
AcDbLine
 10
4590.657781947987
 20
-1169.788734940098
 30
0.0
 11
4658.819691791466
 21
-1169.788734940098
 31
0.0
  0
LWPOLYLINE
  5
26B3E
330
18
100
AcDbEntity
  8
0
100
AcDbPolyline
 90
        4
 70
     0
 43
0.0
 10
4645.300562192945
 20
-1166.050026065672
 10
4657.935437808218
 20
-1166.050026065672
 10
4657.935437808218
 20
-1173.527443814522
 10
4642.966717704121
 20
-1173.527443814522
  0
LINE
  5
26B3F
330
18
100
AcDbEntity
  8
0
 48
10.0
100
AcDbLine
 10
4594.761898348198
 20
-1164.996517588936
 30
0.0
 11
4598.92415961946
 21
-1164.996517588936
 31
0.0
  0
LINE
  5
26B40
330
18
100
AcDbEntity
  8
0
 48
10.0
100
AcDbLine
 10
4598.92415961946
 20
-1174.503556332693
 30
0.0
 11
4594.761898348198
 21
-1174.503556332693
 31
0.0
  0
LWPOLYLINE
  5
26B41
330
18
100
AcDbEntity
  8
0
100
AcDbPolyline
 90
        4
 70
     0
 43
0.0
 10
4638.272894955499
 20
-1173.527443814522
 10
4598.92415961946
 20
-1173.527443814522
 10
4598.92415961946
 20
-1166.050026065672
 10
4640.606739444321
 20
-1166.050026065672
  0
LINE
  5
26B42
330
18
100
AcDbEntity
  8
0
100
AcDbLine
 10
4598.92415961946
 20
-1164.996517588936
 30
0.0
 11
4598.92415961946
 21
-1174.503556332693
 31
0.0
  0
LINE
  5
26B43
330
18
100
AcDbEntity
  8
0
  6
CENTER
 48
0.45
100
AcDbLine
 10
4643.566168900107
 20
-1156.568293051696
 30
0.0
 11
4634.972462583411
 21
-1184.101718028644
 31
0.0
  0
LINE
  5
26B44
330
18
100
AcDbEntity
  8
0
  6
CENTER
 48
0.45
100
AcDbLine
 10
4648.259991648727
 20
-1156.568293051696
 30
0.0
 11
4639.666285332032
 21
-1184.101718028644
 31
0.0
  0
LWPOLYLINE
  5
26B45
330
18
100
AcDbEntity
  8
0
100
AcDbPolyline
 90
        4
 70
     1
 43
0.0
 10
4657.921782250808
 20
-1166.950579956409
 10
4662.946384861593
 20
-1166.950579956409
 10
4662.946384861593
 20
-1172.241843161456
 10
4657.921782250808
 20
-1172.241843161456
  0
LINE
  5
26B46
330
18
100
AcDbEntity
  8
0
100
AcDbLine
 10
4657.935437808218
 20
-1168.264871142552
 30
0.0
 11
4662.956107127189
 21
-1168.264871142552
 31
0.0
  0
LINE
  5
26B47
330
18
100
AcDbEntity
  8
0
100
AcDbLine
 10
4657.935437808218
 20
-1169.536261923491
 30
0.0
 11
4662.946384861593
 21
-1169.536261923491
 31
0.0
  0
LINE
  5
26B48
330
18
100
AcDbEntity
  8
0
100
AcDbLine
 10
4657.935437808218
 20
-1170.853060195473
 30
0.0
 11
4662.956107127189
 21
-1170.853060195473
 31
0.0
  0
LWPOLYLINE
  5
26B49
330
18
100
AcDbEntity
  8
0
100
AcDbPolyline
 90
        4
 70
     0
 43
0.0
 10
4663.961811873886
 20
-1175.594371679371
 10
4662.956107127189
 20
-1175.594371679371
 10
4662.956107127189
 20
-1163.594371679372
 10
4663.961811873886
 20
-1163.594371679372
  0
LINE
  5
26B4A
330
18
100
AcDbEntity
  8
0
100
AcDbLine
 10
4678.967796209728
 20
-1170.102450665994
 30
0.0
 11
4669.965918034557
 21
-1170.102450665994
 31
0.0
  0
LINE
  5
26B4B
330
18
100
AcDbEntity
  8
0
100
AcDbLine
 10
4669.965918034557
 20
-1169.090475539592
 30
0.0
 11
4678.967796209728
 21
-1169.090475539592
 31
0.0
  0
LINE
  5
26B4C
330
18
100
AcDbEntity
  8
0
100
AcDbLine
 10
4668.967907392461
 20
-1173.068647759915
 30
0.0
 11
4676.511744191883
 21
-1173.068647759915
 31
0.0
  0
LINE
  5
26B4D
330
18
100
AcDbEntity
  8
0
100
AcDbLine
 10
4676.511744191883
 20
-1166.088489743602
 30
0.0
 11
4668.967907392461
 21
-1166.088489743602
 31
0.0
  0
LINE
  5
26B4E
330
18
100
AcDbEntity
  8
0
100
AcDbLine
 10
4663.961811873886
 20
-1174.591458193394
 30
0.0
 11
4676.956107127188
 21
-1174.591458193394
 31
0.0
  0
LINE
  5
26B4F
330
18
100
AcDbEntity
  8
0
100
AcDbLine
 10
4663.961811873886
 20
-1164.594371679372
 30
0.0
 11
4674.811744342036
 21
-1164.594371679372
 31
0.0
  0
LINE
  5
26B50
330
18
100
AcDbEntity
  8
0
100
AcDbLine
 10
4669.965918034557
 20
-1170.102450665994
 30
0.0
 11
4669.965918034557
 21
-1173.068647759915
 31
0.0
  0
LINE
  5
26B51
330
18
100
AcDbEntity
  8
0
100
AcDbLine
 10
4668.967907392461
 20
-1166.088489743602
 30
0.0
 11
4668.967907392461
 21
-1173.068647759915
 31
0.0
  0
LINE
  5
26B52
330
18
100
AcDbEntity
  8
0
100
AcDbLine
 10
4669.965918034557
 20
-1166.088489743602
 30
0.0
 11
4669.965918034557
 21
-1169.090475539592
 31
0.0
  0
LINE
  5
26B53
330
18
100
AcDbEntity
  8
0
100
AcDbLine
 10
4663.961811873886
 20
-1175.594371679371
 30
0.0
 11
4663.961811873886
 21
-1174.591458193394
 31
0.0
  0
LINE
  5
26B54
330
18
100
AcDbEntity
  8
0
100
AcDbLine
 10
4663.961811873886
 20
-1163.594371679372
 30
0.0
 11
4663.961811873886
 21
-1164.594371679372
 31
0.0
  0
LINE
  5
26B55
330
18
100
AcDbEntity
  8
0
100
AcDbLine
 10
4678.967796209728
 20
-1171.123357799497
 30
0.0
 11
4681.971015845657
 21
-1171.123357799497
 31
0.0
  0
LINE
  5
26B56
330
18
100
AcDbEntity
  8
0
100
AcDbLine
 10
4681.971015845657
 20
-1167.976565428082
 30
0.0
 11
4678.967796209728
 21
-1167.976565428082
 31
0.0
  0
LWPOLYLINE
  5
26B57
330
18
100
AcDbEntity
  8
0
100
AcDbPolyline
 90
        5
 70
     0
 43
0.0
 10
4681.971015845657
 20
-1170.102450665994
 10
4685.956107127188
 20
-1170.102450665994
 10
4685.956107127188
 20
-1173.591458193393
 10
4676.956107127188
 20
-1173.591458193393
 10
4676.956107127188
 20
-1172.71669480837
  0
LWPOLYLINE
  5
26B58
330
18
100
AcDbEntity
  8
0
100
AcDbPolyline
 90
        5
 70
     0
 43
0.0
 10
4676.956107127188
 20
-1166.430091162111
 10
4676.956107127188
 20
-1165.594371679371
 10
4685.956107127188
 20
-1165.594371679371
 10
4685.956107127188
 20
-1169.090475539592
 10
4681.971015845657
 20
-1169.090475539592
  0
LINE
  5
26B59
330
18
100
AcDbEntity
  8
0
100
AcDbLine
 10
4676.956107127188
 20
-1164.594371679372
 30
0.0
 11
4676.956107127188
 21
-1166.430091162111
 31
0.0
  0
LWPOLYLINE
  5
26B5A
330
18
100
AcDbEntity
  8
0
100
AcDbPolyline
 90
        2
 70
     0
 43
0.0
 10
4676.956107127188
 20
-1170.102450665994
 10
4678.967796209728
 20
-1170.102450665994
  0
LWPOLYLINE
  5
26B5B
330
18
100
AcDbEntity
  8
0
100
AcDbPolyline
 90
        2
 70
     0
 43
0.0
 10
4678.967796209728
 20
-1169.090475539592
 10
4676.956107127188
 20
-1169.090475539592
  0
LINE
  5
26B5C
330
18
100
AcDbEntity
  8
0
100
AcDbLine
 10
4678.967796209728
 20
-1167.976565428082
 30
0.0
 11
4676.511744191883
 21
-1166.088489743602
 31
0.0
  0
LINE
  5
26B5D
330
18
100
AcDbEntity
  8
0
100
AcDbLine
 10
4676.511744191883
 20
-1173.068647759915
 30
0.0
 11
4678.967796209728
 21
-1171.123357799497
 31
0.0
  0
LINE
  5
26B5E
330
18
100
AcDbEntity
  8
0
100
AcDbLine
 10
4676.956107127188
 20
-1172.71669480837
 30
0.0
 11
4676.956107127188
 21
-1174.591458193394
 31
0.0
  0
LINE
  5
26B5F
330
18
100
AcDbEntity
  8
0
100
AcDbLine
 10
4678.967796209728
 20
-1169.090475539592
 30
0.0
 11
4678.967796209728
 21
-1170.102450665994
 31
0.0
  0
LINE
  5
26B60
330
18
100
AcDbEntity
  8
0
100
AcDbLine
 10
4674.811744342036
 20
-1164.594371679372
 30
0.0
 11
4676.956107127188
 21
-1164.594371679372
 31
0.0
  0
LINE
  5
26B61
330
18
100
AcDbEntity
  8
0
100
AcDbLine
 10
4681.971015845657
 20
-1171.123357799497
 30
0.0
 11
4681.971015845657
 21
-1167.976565428082
 31
0.0
  0
LINE
  5
26B69
330
18
100
AcDbEntity
  8
0
  6
PHANTOM
 48
0.45
100
AcDbLine
 10
4780.106876603704
 20
-1162.45995556371
 30
0.0
 11
4780.106876603704
 21
-1062.483500741361
 31
0.0
  0
LWPOLYLINE
  5
26B6B
102
{ACAD_REACTORS
330
2832B
102
}
330
18
100
AcDbEntity
  8
0
  6
PHANTOM
 48
0.45
100
AcDbPolyline
 90
        4
 70
     1
 43
0.0
 10
4785.106876603705
 20
-1047.559933425514
 10
4792.906876603704
 20
-1047.559933425514
 10
4792.906876603704
 20
-1177.559933425515
 10
4785.106876603705
 20
-1177.559933425515
  0
LINE
  5
26B6C
330
18
100
AcDbEntity
  8
0
 48
0.3
100
AcDbLine
 10
4739.406876603704
 20
-1065.559955563712
 30
0.0
 11
4739.406876603704
 21
-1159.559911699457
 31
0.0
  0
LWPOLYLINE
  5
26B6E
330
18
100
AcDbEntity
  8
0
  6
HIDDEN
 48
0.45
100
AcDbPolyline
 90
        2
 70
     0
 43
0.0
 10
4752.906167819179
 20
-1173.486411699456
 10
4752.906167819179
 20
-1171.594695901718
  0
CIRCLE
  5
26B70
330
18
100
AcDbEntity
  8
0
  6
HIDDEN
 48
0.45
100
AcDbCircle
 10
4746.905796413036
 20
-1167.470538738285
 30
0.0
 40
4.0
  0
LINE
  5
26B76
102
{ACAD_REACTORS
330
2832B
102
}
330
18
100
AcDbEntity
  8
0
  6
CENTER
 48
0.45
100
AcDbLine
 10
4802.784107471815
 20
-1169.959111699456
 30
0.0
 11
4775.823802002739
 21
-1169.959111699456
 31
0.0
  0
LINE
  5
26B77
330
18
100
AcDbEntity
  8
0
  6
PHANTOM
 48
0.45
100
AcDbLine
 10
4785.106826846736
 20
-1162.45995556371
 30
0.0
 11
4780.106876603704
 21
-1162.45995556371
 31
0.0
  0
LINE
  5
26B85
330
18
100
AcDbEntity
  8
0
  6
CENTER
 48
0.45
100
AcDbLine
 10
4729.576156980185
 20
-1112.559911699457
 30
0.0
 11
4800.484188161839
 21
-1112.559911699457
 31
0.0
  0
CIRCLE
  5
26B86
330
18
100
AcDbEntity
  8
0
  6
HIDDEN
 48
0.45
100
AcDbCircle
 10
4746.905796413035
 20
-1057.470538738285
 30
0.0
 40
4.0
  0
LINE
  5
26B87
330
18
100
AcDbEntity
  8
0
 48
0.3
100
AcDbLine
 10
4738.906876603704
 20
-1065.559955563712
 30
0.0
 11
4739.406876603704
 21
-1065.559955563712
 31
0.0
  0
LINE
  5
26B8A
102
{ACAD_REACTORS
330
2832B
102
}
330
18
100
AcDbEntity
  8
0
  6
CENTER
 48
0.45
100
AcDbLine
 10
4802.784107471815
 20
-1054.959111699456
 30
0.0
 11
4775.865946126532
 21
-1054.959111699456
 31
0.0
  0
LINE
  5
26B8B
330
18
100
AcDbEntity
  8
0
  6
PHANTOM
 48
0.45
100
AcDbLine
 10
4780.106876603704
 20
-1062.483500741361
 30
0.0
 11
4785.106826846736
 21
-1062.483500741361
 31
0.0
  0
LINE
  5
26C41
330
18
100
AcDbEntity
  8
0
  6
CENTER
 48
0.45
100
AcDbLine
 10
4735.941637113135
 20
-1055.059911699457
 30
0.0
 11
4751.322927882454
 21
-1055.059911699457
 31
0.0
  0
LINE
  5
26C42
330
18
100
AcDbEntity
  8
0
  6
CENTER
 48
0.45
100
AcDbLine
 10
4735.941637113135
 20
-1170.059911699457
 30
0.0
 11
4751.322927882454
 21
-1170.059911699457
 31
0.0
  0
LINE
  5
26C55
330
18
100
AcDbEntity
  8
0
 48
0.3
100
AcDbLine
 10
4738.906876603704
 20
-1065.559955563712
 30
0.0
 11
4738.906876603704
 21
-1047.559955563712
 31
0.0
  0
LINE
  5
26C56
330
18
100
AcDbEntity
  8
0
 48
0.3
100
AcDbLine
 10
4738.906876603704
 20
-1047.559911699456
 30
0.0
 11
4778.906876603705
 21
-1047.559911699456
 31
0.0
  0
LINE
  5
26C57
330
18
100
AcDbEntity
  8
0
 48
0.3
100
AcDbLine
 10
4778.906876603705
 20
-1047.559955563712
 30
0.0
 11
4778.906876603705
 21
-1177.559955563711
 31
0.0
  0
LINE
  5
26C58
330
18
100
AcDbEntity
  8
0
 48
0.3
100
AcDbLine
 10
4778.906876603705
 20
-1177.559911699457
 30
0.0
 11
4738.906876603704
 21
-1177.559911699457
 31
0.0
  0
LINE
  5
26C59
330
18
100
AcDbEntity
  8
0
 48
0.3
100
AcDbLine
 10
4738.906876603704
 20
-1177.559911699457
 30
0.0
 11
4738.906171140904
 21
-1159.559955563712
 31
0.0
  0
LINE
  5
26C76
330
18
100
AcDbEntity
  8
0
  6
CENTER
 48
0.3
100
AcDbLine
 10
4751.870024782909
 20
-1169.786401615251
 30
0.0
 11
4762.412002892904
 21
-1169.786401615251
 31
0.0
  0
LINE
  5
26C77
330
18
100
AcDbEntity
  8
0
  6
CENTER
 48
0.3
100
AcDbLine
 10
4756.106876603705
 20
-1163.901326593073
 30
0.0
 11
4756.106876603705
 21
-1175.504938035652
 31
0.0
  0
CIRCLE
  5
26C79
102
{ACAD_REACTORS
330
26C8B
102
}
330
18
100
AcDbEntity
  8
実線
100
AcDbCircle
 10
4756.106876603705
 20
-1169.659996111918
 30
0.0
 40
3.74
  0
LINE
  5
26C7A
102
{ACAD_REACTORS
330
26C8B
102
}
330
18
100
AcDbEntity
  8
細線
100
AcDbLine
 10
4756.106876603705
 20
-1166.250867709317
 30
0.0
 11
4756.424257229455
 21
-1165.933487083565
 31
0.0
  0
LINE
  5
26C7B
102
{ACAD_REACTORS
330
26C8B
102
}
330
18
100
AcDbEntity
  8
細線
100
AcDbLine
 10
4756.106876603705
 20
-1167.134751185801
 30
0.0
 11
4757.16795474868
 21
-1166.073673040825
 31
0.0
  0
LINE
  5
26C7C
102
{ACAD_REACTORS
330
26C8B
102
}
330
18
100
AcDbEntity
  8
細線
100
AcDbLine
 10
4759.642410509638
 20
-1169.786401615251
 30
0.0
 11
4759.846078458973
 21
-1169.582733665917
 31
0.0
  0
LINE
  5
26C7D
102
{ACAD_REACTORS
330
26C8B
102
}
330
18
100
AcDbEntity
  8
細線
100
AcDbLine
 10
4758.758527033154
 20
-1169.786401615251
 30
0.0
 11
4759.74632704345
 21
-1168.798601604954
 31
0.0
  0
LINE
  5
26C7E
102
{ACAD_REACTORS
330
26C8B
102
}
330
18
100
AcDbEntity
  8
細線
100
AcDbLine
 10
4757.874643556671
 20
-1169.786401615251
 30
0.0
 11
4759.523138337249
 21
-1168.13790683467
 31
0.0
  0
LINE
  5
26C7F
102
{ACAD_REACTORS
330
26C8B
102
}
330
18
100
AcDbEntity
  8
細線
100
AcDbLine
 10
4756.106876603705
 20
-1168.018634662282
 30
0.0
 11
4757.800213211345
 21
-1166.32529805464
 31
0.0
  0
LINE
  5
26C80
102
{ACAD_REACTORS
330
26C8B
102
}
330
18
100
AcDbEntity
  8
細線
100
AcDbLine
 10
4756.990760080187
 20
-1169.786401615251
 30
0.0
 11
4759.207908041132
 21
-1167.569253654304
 31
0.0
  0
LINE
  5
26C81
102
{ACAD_REACTORS
330
26C8B
102
}
330
18
100
AcDbEntity
  8
細線
100
AcDbLine
 10
4756.106876603705
 20
-1169.786401615251
 30
0.0
 11
4758.813903368458
 21
-1167.079374850496
 31
0.0
  0
LINE
  5
26C82
102
{ACAD_REACTORS
330
26C8B
102
}
330
18
100
AcDbEntity
  8
細線
100
AcDbLine
 10
4756.106876603705
 20
-1168.902518138768
 30
0.0
 11
4758.345456241226
 21
-1166.663938501246
 31
0.0
  0
LINE
  5
26C83
102
{ACAD_REACTORS
330
26C8B
102
}
330
18
100
AcDbEntity
  8
細線
100
AcDbLine
 10
4752.380367575351
 20
-1169.97737673767
 30
0.0
 11
4752.571342697772
 21
-1169.786401615247
 31
0.0
  0
LINE
  5
26C84
102
{ACAD_REACTORS
330
26C8B
102
}
330
18
100
AcDbEntity
  8
細線
100
AcDbLine
 10
4752.520553532609
 20
-1170.721074256894
 30
0.0
 11
4753.455226174255
 21
-1169.786401615249
 31
0.0
  0
LINE
  5
26C85
102
{ACAD_REACTORS
330
26C8B
102
}
330
18
100
AcDbEntity
  8
細線
100
AcDbLine
 10
4755.245482096738
 20
-1173.299446551665
 30
0.0
 11
4756.106876603705
 21
-1172.4380520447
 31
0.0
  0
LINE
  5
26C86
102
{ACAD_REACTORS
330
26C8B
102
}
330
18
100
AcDbEntity
  8
細線
100
AcDbLine
 10
4752.772178546425
 20
-1171.353332719562
 30
0.0
 11
4754.339109650739
 21
-1169.78640161525
 31
0.0
  0
LINE
  5
26C87
102
{ACAD_REACTORS
330
26C8B
102
}
330
18
100
AcDbEntity
  8
細線
100
AcDbLine
 10
4753.110818993031
 20
-1171.898575749441
 30
0.0
 11
4755.222993127222
 21
-1169.786401615251
 31
0.0
  0
LINE
  5
26C88
102
{ACAD_REACTORS
330
26C8B
102
}
330
18
100
AcDbEntity
  8
細線
100
AcDbLine
 10
4753.526255342282
 20
-1172.367022876673
 30
0.0
 11
4756.106876603705
 21
-1169.786401615251
 31
0.0
  0
LINE
  5
26C89
102
{ACAD_REACTORS
330
26C8B
102
}
330
18
100
AcDbEntity
  8
細線
100
AcDbLine
 10
4754.01613414609
 20
-1172.761027549348
 30
0.0
 11
4756.106876603705
 21
-1170.670285091734
 31
0.0
  0
LINE
  5
26C8A
102
{ACAD_REACTORS
330
26C8B
102
}
330
18
100
AcDbEntity
  8
細線
100
AcDbLine
 10
4754.584787326456
 20
-1173.076257845462
 30
0.0
 11
4756.106876603705
 21
-1171.554168568216
 31
0.0
  0
LWPOLYLINE
  5
26E27
330
18
100
AcDbEntity
  8
0
  6
HIDDEN
 48
0.45
100
AcDbPolyline
 90
        5
 70
     0
 43
0.0
 10
4322.550487972828
 20
-1173.488745024304
 10
4322.550487972828
 20
-1051.488745024304
 10
4334.550487972828
 20
-1051.488745024304
 10
4334.550487972828
 20
-1173.488745024304
 10
4322.550487972828
 20
-1173.488745024304
  0
LINE
  5
26E28
330
18
100
AcDbEntity
  8
0
  6
PHANTOM
 48
0.3
100
AcDbLine
 10
4295.349779188302
 20
-1162.462288888558
 30
0.0
 11
4295.349779188302
 21
-1062.485834066209
 31
0.0
  0
LWPOLYLINE
  5
26E29
330
18
100
AcDbEntity
  8
0
  6
PHANTOM
 48
0.3
100
AcDbPolyline
 90
        4
 70
     1
 43
0.0
 10
4290.349779188302
 20
-1047.562266750361
 10
4282.5497791883
 20
-1047.562266750361
 10
4282.5497791883
 20
-1177.562266750362
 10
4290.349779188302
 20
-1177.562266750362
  0
LINE
  5
26E2A
330
18
100
AcDbEntity
  8
0
 48
0.3
100
AcDbLine
 10
4296.549779188302
 20
-1047.562288888558
 30
0.0
 11
4296.549779188302
 21
-1177.562288888559
 31
0.0
  0
LINE
  5
26E2C
330
18
100
AcDbEntity
  8
0
 48
0.3
100
AcDbLine
 10
4336.049647531607
 20
-1065.562288888558
 30
0.0
 11
4336.049647531607
 21
-1159.562288888559
 31
0.0
  0
LINE
  5
26E2D
330
18
100
AcDbEntity
  8
0
 48
0.3
100
AcDbLine
 10
4296.549779188302
 20
-1177.562288888559
 30
0.0
 11
4336.549779188302
 21
-1177.562288888559
 31
0.0
  0
CIRCLE
  5
26E31
330
18
100
AcDbEntity
  8
0
  6
HIDDEN
 48
0.45
100
AcDbCircle
 10
4328.55085937897
 20
-1167.472872063131
 30
0.0
 40
4.0
  0
LINE
  5
26E35
330
18
100
AcDbEntity
  8
0
  6
CENTER
 48
0.45
100
AcDbLine
 10
4339.515018678869
 20
-1170.062245024304
 30
0.0
 11
4324.13372790955
 21
-1170.062245024304
 31
0.0
  0
LINE
  5
26E3E
330
18
100
AcDbEntity
  8
0
 48
0.3
100
AcDbLine
 10
4336.549779188302
 20
-1177.562288888559
 30
0.0
 11
4336.550484651102
 21
-1159.562288888559
 31
0.0
  0
LINE
  5
26E44
330
18
100
AcDbEntity
  8
0
  6
PHANTOM
 48
0.3
100
AcDbLine
 10
4290.349828945269
 20
-1162.462288888558
 30
0.0
 11
4295.349779188302
 21
-1162.462288888558
 31
0.0
  0
LINE
  5
26E45
330
18
100
AcDbEntity
  8
0
  6
CENTER
 48
0.45
100
AcDbLine
 10
4272.672598077159
 20
-1169.961445024304
 30
0.0
 11
4299.632903546235
 21
-1169.961445024304
 31
0.0
  0
LINE
  5
26E46
330
18
100
AcDbEntity
  8
0
 48
0.3
100
AcDbLine
 10
4336.549779188302
 20
-1047.562288888558
 30
0.0
 11
4296.549779188302
 21
-1047.562288888558
 31
0.0
  0
LINE
  5
26E47
330
18
100
AcDbEntity
  8
0
  6
CENTER
 48
0.45
100
AcDbLine
 10
4343.242861633707
 20
-1112.562245024304
 30
0.0
 11
4276.303331326955
 21
-1112.562245024304
 31
0.0
  0
CIRCLE
  5
26E4A
330
18
100
AcDbEntity
  8
0
  6
HIDDEN
 48
0.45
100
AcDbCircle
 10
4328.55085937897
 20
-1057.472872063133
 30
0.0
 40
4.0
  0
LINE
  5
26E4D
330
18
100
AcDbEntity
  8
0
  6
CENTER
 48
0.45
100
AcDbLine
 10
4339.515018678869
 20
-1055.062245024304
 30
0.0
 11
4324.13372790955
 21
-1055.062245024304
 31
0.0
  0
LINE
  5
26E55
330
18
100
AcDbEntity
  8
0
 48
0.3
100
AcDbLine
 10
4336.549779188302
 20
-1065.562288888558
 30
0.0
 11
4336.549779188302
 21
-1047.562288888558
 31
0.0
  0
LINE
  5
26E56
330
18
100
AcDbEntity
  8
0
 48
0.3
100
AcDbLine
 10
4336.550487972828
 20
-1065.562288888558
 30
0.0
 11
4336.049647531607
 21
-1065.562288888558
 31
0.0
  0
LINE
  5
26E5C
330
18
100
AcDbEntity
  8
0
  6
PHANTOM
 48
0.3
100
AcDbLine
 10
4295.349779188302
 20
-1062.485834066209
 30
0.0
 11
4290.349828945269
 21
-1062.485834066209
 31
0.0
  0
LINE
  5
26E5D
330
18
100
AcDbEntity
  8
0
  6
CENTER
 48
0.45
100
AcDbLine
 10
4272.672598077159
 20
-1054.961445024304
 30
0.0
 11
4299.590759422442
 21
-1054.961445024304
 31
0.0
  0
LINE
  5
26E63
330
18
100
AcDbEntity
  8
0
100
AcDbLine
 10
4306.5497791883
 20
-1095.062245024304
 30
0.0
 11
4306.5497791883
 21
-1130.062245024304
 31
0.0
  0
LINE
  5
26E65
330
18
100
AcDbEntity
  8
0
100
AcDbLine
 10
4301.549779188301
 20
-1095.562245024304
 30
0.0
 11
4301.549779188301
 21
-1129.562245024304
 31
0.0
  0
LINE
  5
26E67
330
18
100
AcDbEntity
  8
0
100
AcDbLine
 10
4313.549779188302
 20
-1129.562245024304
 30
0.0
 11
4313.549779188302
 21
-1095.562245024304
 31
0.0
  0
LINE
  5
26E68
330
18
100
AcDbEntity
  8
0
100
AcDbLine
 10
4301.549779188301
 20
-1095.562245024304
 30
0.0
 11
4301.549779188301
 21
-1129.562245024304
 31
0.0
  0
LINE
  5
26E6A
330
18
100
AcDbEntity
  8
0
100
AcDbLine
 10
4306.5497791883
 20
-1095.062245024304
 30
0.0
 11
4306.5497791883
 21
-1130.062245024304
 31
0.0
  0
LINE
  5
26E6B
330
18
100
AcDbEntity
  8
0
100
AcDbLine
 10
4313.549779188302
 20
-1129.562245024304
 30
0.0
 11
4313.549779188302
 21
-1095.562245024304
 31
0.0
  0
ARC
  5
26E6F
330
18
100
AcDbEntity
  8
0
100
AcDbCircle
 10
4302.0497791883
 20
-1129.562245024304
 30
0.0
 40
0.5
100
AcDbArc
 50
180.0
 51
270.0
  0
ARC
  5
26E70
330
18
100
AcDbEntity
  8
0
100
AcDbCircle
 10
4313.0497791883
 20
-1129.562245024304
 30
0.0
 40
0.5
100
AcDbArc
 50
270.0
 51
0.0
  0
LINE
  5
26E71
330
18
100
AcDbEntity
  8
0
100
AcDbLine
 10
4302.0497791883
 20
-1130.062245024304
 30
0.0
 11
4313.0497791883
 21
-1130.062245024304
 31
0.0
  0
ARC
  5
26E72
330
18
100
AcDbEntity
  8
0
100
AcDbCircle
 10
4313.0497791883
 20
-1129.562245024304
 30
0.0
 40
0.5
100
AcDbArc
 50
270.0
 51
0.0
  0
ARC
  5
26E73
330
18
100
AcDbEntity
  8
0
100
AcDbCircle
 10
4302.0497791883
 20
-1129.562245024304
 30
0.0
 40
0.5
100
AcDbArc
 50
180.0
 51
270.0
  0
LINE
  5
26E74
330
18
100
AcDbEntity
  8
0
100
AcDbLine
 10
4302.0497791883
 20
-1130.062245024304
 30
0.0
 11
4313.0497791883
 21
-1130.062245024304
 31
0.0
  0
ARC
  5
26E7A
330
18
100
AcDbEntity
  8
0
100
AcDbCircle
 10
4302.0497791883
 20
-1095.562245024304
 30
0.0
 40
0.5
100
AcDbArc
 50
90.0
 51
180.0
  0
ARC
  5
26E80
330
18
100
AcDbEntity
  8
0
100
AcDbCircle
 10
4313.0497791883
 20
-1095.562245024304
 30
0.0
 40
0.5
100
AcDbArc
 50
0.0
 51
90.0
  0
LINE
  5
26E81
330
18
100
AcDbEntity
  8
0
100
AcDbLine
 10
4313.0497791883
 20
-1095.062245024304
 30
0.0
 11
4302.0497791883
 21
-1095.062245024304
 31
0.0
  0
ARC
  5
26E82
330
18
100
AcDbEntity
  8
0
100
AcDbCircle
 10
4313.0497791883
 20
-1095.562245024304
 30
0.0
 40
0.5
100
AcDbArc
 50
0.0
 51
90.0
  0
ARC
  5
26E8B
330
18
100
AcDbEntity
  8
0
100
AcDbCircle
 10
4302.0497791883
 20
-1095.562245024304
 30
0.0
 40
0.5
100
AcDbArc
 50
90.0
 51
180.0
  0
LINE
  5
26E8E
330
18
100
AcDbEntity
  8
0
100
AcDbLine
 10
4313.0497791883
 20
-1095.062245024304
 30
0.0
 11
4302.0497791883
 21
-1095.062245024304
 31
0.0
  0
ARC
  5
26E91
330
18
100
AcDbEntity
  8
0
100
AcDbCircle
 10
4303.049779188302
 20
-1155.062245024302
 30
0.0
 40
0.5
100
AcDbArc
 50
180.0
 51
270.0
  0
LINE
  5
26E9A
330
18
100
AcDbEntity
  8
0
100
AcDbLine
 10
4303.049779188302
 20
-1155.562245024304
 30
0.0
 11
4312.049779188302
 21
-1155.562245024304
 31
0.0
  0
ARC
  5
26E9B
330
18
100
AcDbEntity
  8
0
100
AcDbCircle
 10
4312.049779188302
 20
-1141.062245024304
 30
0.0
 40
0.5
100
AcDbArc
 50
0.0
 51
90.0
  0
ARC
  5
26E9C
330
18
100
AcDbEntity
  8
0
100
AcDbCircle
 10
4303.049779188302
 20
-1141.062245024304
 30
0.0
 40
0.5
100
AcDbArc
 50
90.0
 51
180.0
  0
LINE
  5
26E9E
330
18
100
AcDbEntity
  8
0
100
AcDbLine
 10
4312.049779188302
 20
-1140.562245024304
 30
0.0
 11
4303.049779188302
 21
-1140.562245024304
 31
0.0
  0
LINE
  5
26EA0
330
18
100
AcDbEntity
  8
0
100
AcDbLine
 10
4308.549779188303
 20
-1140.562245024304
 30
0.0
 11
4308.549779188303
 21
-1155.562245024304
 31
0.0
  0
LINE
  5
26EA1
330
18
100
AcDbEntity
  8
0
100
AcDbLine
 10
4302.549779188303
 20
-1141.062245024304
 30
0.0
 11
4302.549779188302
 21
-1155.062245024302
 31
0.0
  0
LINE
  5
26EA5
330
18
100
AcDbEntity
  8
0
100
AcDbLine
 10
4312.549779188302
 20
-1155.062245024302
 30
0.0
 11
4312.549779188302
 21
-1141.062245024304
 31
0.0
  0
ARC
  5
26EA6
330
18
100
AcDbEntity
  8
0
100
AcDbCircle
 10
4312.049779188302
 20
-1155.062245024302
 30
0.0
 40
0.5
100
AcDbArc
 50
270.0
 51
0.0
  0
LINE
  5
280C3
330
18
100
AcDbEntity
  8
0
100
AcDbLine
 10
4738.906167819179
 20
-1083.962764455628
 30
0.0
 11
4739.407008260399
 21
-1083.962764455628
 31
0.0
  0
LINE
  5
280F7
330
18
100
AcDbEntity
  8
0
  6
HIDDEN
 48
0.45
100
AcDbLine
 10
4752.906167819179
 20
-1167.725296322116
 30
0.0
 11
4752.906167819179
 21
-1051.486411699457
 31
0.0
  0
LINE
  5
280F8
330
18
100
AcDbEntity
  8
0
  6
HIDDEN
 48
0.45
100
AcDbLine
 10
4752.906167819179
 20
-1051.486411699457
 30
0.0
 11
4740.906167819177
 21
-1051.486411699457
 31
0.0
  0
LINE
  5
280F9
330
18
100
AcDbEntity
  8
0
  6
HIDDEN
 48
0.45
100
AcDbLine
 10
4740.906167819177
 20
-1051.486411699457
 30
0.0
 11
4740.906167819177
 21
-1173.486411699456
 31
0.0
  0
LINE
  5
280FA
330
18
100
AcDbEntity
  8
0
  6
HIDDEN
 48
0.45
100
AcDbLine
 10
4740.906167819177
 20
-1173.486411699456
 30
0.0
 11
4752.906167819179
 21
-1173.486411699456
 31
0.0
  0
LINE
  5
280FB
330
18
100
AcDbEntity
  8
0
  6
CENTER
 48
0.45
100
AcDbLine
 10
4740.906168767827
 20
-1160.559911699457
 30
0.0
 11
4752.906168767827
 21
-1160.559911699457
 31
0.0
  0
LINE
  5
280FC
330
18
100
AcDbEntity
  8
0
  6
CENTER
 48
0.45
100
AcDbLine
 10
4740.906167819177
 20
-1136.559911699457
 30
0.0
 11
4752.906167819179
 21
-1136.559911699457
 31
0.0
  0
CIRCLE
  5
280FE
330
18
100
AcDbEntity
  8
0
100
AcDbCircle
 10
4746.906715711621
 20
-1136.559911679537
 30
0.0
 40
2.0
  0
CIRCLE
  5
280FF
330
18
100
AcDbEntity
  8
0
100
AcDbCircle
 10
4746.906715711621
 20
-1136.559911679537
 30
0.0
 40
1.6
  0
CIRCLE
  5
28100
330
18
100
AcDbEntity
  8
0
100
AcDbCircle
 10
4746.90671666027
 20
-1160.559911679537
 30
0.0
 40
1.6
  0
CIRCLE
  5
28101
330
18
100
AcDbEntity
  8
0
100
AcDbCircle
 10
4746.90671666027
 20
-1160.559911679537
 30
0.0
 40
2.0
  0
LINE
  5
2815C
330
18
100
AcDbEntity
  8
0
  6
CENTER
 48
0.45
100
AcDbLine
 10
4588.761898348199
 20
-1136.486411699457
 30
0.0
 11
4600.761898348198
 21
-1136.486411699457
 31
0.0
  0
LINE
  5
2815D
330
18
100
AcDbEntity
  8
0
  6
CENTER
 48
0.45
100
AcDbLine
 10
4588.761898348199
 20
-1160.486411699457
 30
0.0
 11
4600.761898348198
 21
-1160.486411699457
 31
0.0
  0
LINE
  5
28457
330
18
100
AcDbEntity
  8
0
 48
0.3
100
AcDbLine
 10
4739.406876603704
 20
-1159.559911699457
 30
0.0
 11
4738.906876603704
 21
-1159.559911699457
 31
0.0
  0
LINE
  5
284AC
330
18
100
AcDbEntity
  8
0
  6
CENTER
 48
0.3
100
AcDbLine
 10
4746.906876597559
 20
-1177.55959815967
 30
0.0
 11
4746.906171134758
 21
-1122.901293702619
 31
0.0
  0
LINE
  5
285C2
330
18
100
AcDbEntity
  8
0
 48
0.3
100
AcDbLine
 10
4336.550487972828
 20
-1159.562288888559
 30
0.0
 11
4336.049647531607
 21
-1159.562288888559
 31
0.0
  0
LINE
  5
286BB
330
18
100
AcDbEntity
  8
隠れ線
 48
0.45
100
AcDbLine
 10
4282.5497791883
 20
-1166.961445024304
 30
0.0
 11
4290.349779188302
 21
-1166.961445024304
 31
0.0
  0
LINE
  5
286BC
330
18
100
AcDbEntity
  8
隠れ線
 48
0.45
100
AcDbLine
 10
4282.5497791883
 20
-1172.961445024304
 30
0.0
 11
4290.349779188302
 21
-1172.961445024304
 31
0.0
  0
LINE
  5
286BD
330
18
100
AcDbEntity
  8
隠れ線
 48
0.45
100
AcDbLine
 10
4282.5497791883
 20
-1051.961445024304
 30
0.0
 11
4290.349779188302
 21
-1051.961445024304
 31
0.0
  0
LINE
  5
286BE
330
18
100
AcDbEntity
  8
隠れ線
 48
0.45
100
AcDbLine
 10
4282.5497791883
 20
-1057.961445024304
 30
0.0
 11
4290.349779188302
 21
-1057.961445024304
 31
0.0
  0
LINE
  5
286BF
330
18
100
AcDbEntity
  8
隠れ線
 48
0.45
100
AcDbLine
 10
4792.906876603704
 20
-1051.959111699457
 30
0.0
 11
4785.106876603705
 21
-1051.959111699457
 31
0.0
  0
LINE
  5
286C0
330
18
100
AcDbEntity
  8
隠れ線
 48
0.45
100
AcDbLine
 10
4792.906876603704
 20
-1057.959111699457
 30
0.0
 11
4785.106876603705
 21
-1057.959111699457
 31
0.0
  0
LINE
  5
286C1
330
18
100
AcDbEntity
  8
隠れ線
 48
0.45
100
AcDbLine
 10
4792.906876603704
 20
-1166.959111699457
 30
0.0
 11
4785.106876603705
 21
-1166.959111699457
 31
0.0
  0
LINE
  5
286C2
330
18
100
AcDbEntity
  8
隠れ線
 48
0.45
100
AcDbLine
 10
4792.906876603704
 20
-1172.959111699457
 30
0.0
 11
4785.106876603705
 21
-1172.959111699457
 31
0.0
  0
VIEWPORT
  5
23
330
15
100
AcDbEntity
 67
     1
  8
0
100
AcDbViewport
 10
202.9557614458056
 20
145.2637522427691
 30
0.0
 40
647.5771393470238
 41
296.3964780959262
 68
     1
 69
     1
1001
ACAD
1000
MVIEW
1002
{
1070
    16
1010
0.0
1020
0.0
1030
0.0
1010
0.0
1020
0.0
1030
1.0
1040
0.0
1040
296.3964780959262
1040
202.9557614458056
1040
145.2637522427691
1040
50.0
1040
0.0
1040
0.0
1070
     0
1070
   100
1070
     1
1070
     0
1070
     0
1070
     0
1070
     0
1070
     0
1040
0.0
1040
0.0
1040
0.0
1040
10.0
1040
10.0
1040
10.0
1040
10.0
1070
     0
1002
{
1002
}
1002
}
  0
VIEWPORT
  5
2E
330
15
100
AcDbEntity
 67
     1
  8
M_VIEW
100
AcDbViewport
 10
200.0
 20
144.0
 30
0.0
 40
400.0
 41
288.0
 68
     2
 69
     2
1001
ACAD
1000
MVIEW
1002
{
1070
    16
1010
0.0
1020
0.0
1030
0.0
1010
0.0
1020
0.0
1030
1.0
1040
0.0
1040
429.8507423677973
1040
4557.841325951676
1040
-1180.417131714581
1040
50.0
1040
0.0
1040
0.0
1070
     0
1070
   100
1070
     1
1070
     0
1070
     0
1070
     0
1070
     0
1070
     0
1040
0.0
1040
0.0
1040
0.0
1040
10.0
1040
10.0
1040
10.0
1040
10.0
1070
     0
1002
{
1002
}
1002
}
  0
INSERT
  5
115F
330
15
100
AcDbEntity
 67
     1
  8
FRAME025
100
AcDbBlockReference
  2
機械A4横_LBP
 10
82.74908858651452
 20
152.030959079227
 30
0.0
  0
TEXT
  5
AA6A
330
15
100
AcDbEntity
 67
     1
  8
文字
  6
BYBLOCK
 62
     0
100
AcDbText
 10
32.81885892396519
 20
73.01882819621747
 30
0.0
 40
3.2
  1

 50
90.0
 41
0.625
  7
MSｺ_ｼｯｸ
100
AcDbText
  0
TEXT
  5
AA6C
330
15
100
AcDbEntity
 67
     1
  8
文字
  6
BYBLOCK
 62
     0
100
AcDbText
 10
37.25020936743055
 20
73.01882819621747
 30
0.0
 40
3.2
  1

 50
90.0
 41
0.625
  7
MSｺ_ｼｯｸ
100
AcDbText
  0
TEXT
  5
FCA5
330
15
100
AcDbEntity
 67
     1
  8
FRAME020
  6
CONTINUOUS
100
AcDbText
 10
126.6213117262079
 20
29.63926951973459
 30
0.0
 40
2.5
  1

 41
0.625
  7
MSｺ_ｼｯｸ
100
AcDbText
  0
TEXT
  5
12229
330
15
100
AcDbEntity
 67
     1
  8
0
100
AcDbText
 10
324.703280378293
 20
10.63168299257869
 30
0.0
 40
6.0
  1
ＳＥ－３７９９０Ａ
 41
1.1
100
AcDbText
  0
MTEXT
  5
2880E
330
15
100
AcDbEntity
 67
     1
  8
0
100
AcDbMText
 10
217.6388274271927
 20
25.65092061125289
 30
0.0
 40
6.0
 41
177.9959295625386
 71
     1
 72
     5
  1
τﾘﾆｱﾓｰﾀ ｺｱ付N NLA-NA CLﾕﾆｯﾄ CLN500MA (500N)
  7
ｽﾀｲﾙ3
1001
ACAD
1000
MTEXTBEGIN
1070
    73
1070
     1
1070
    44
1040
1.0
1070
    74
1070
     0
1000
MTEXTEND
  0
ENDSEC
  0
SECTION
  2
OBJECTS
  0
DICTIONARY
  5
C
330
0
100
AcDbDictionary
  3
ACAD_GROUP
350
D
  3
ACAD_LAYOUT
350
DB2
  3
ACAD_MLINESTYLE
350
1B
  3
ACAD_PLOTSETTINGS
350
DB3
  3
ACAD_PLOTSTYLENAME
350
FB5B
  3
ACADDIM
350
1B534
  3
ACDBHEADERROUNDTRIPXREC
350
28826
  3
ACDBVARIABLEDICTIONARY
350
106A6
  3
ASE_INDEX_DICTIONARY
350
1A99F
  3
DWGPROPS
350
15EC9
1001
ACAD
1000
TREAT_AS_HARD
1070
     0
  0
DICTIONARY
  5
28669
330
2
100
AcDbDictionary
280
     1
  3
ACAD_LAYERFILTERS
360
2866A
  3
ACAD_LAYERSTATES
360
28676
  0
DICTIONARY
  5
EFC6
330
18
100
AcDbDictionary
280
     1
  3
ACAD_LAYOUTSELFREF
360
28848
  0
DICTIONARY
  5
EFC4
330
15
100
AcDbDictionary
280
     1
  3
ACAD_LAYOUTSELFREF
360
28847
  0
DICTIONARY
  5
D
102
{ACAD_REACTORS
330
C
102
}
330
C
100
AcDbDictionary
  3
*A1
350
AC8A
  3
*A10
350
198F1
  3
*A100
350
25596
  3
*A101
350
26090
  3
*A102
350
26E22
  3
*A103
350
25301
  3
*A104
350
1738A
  3
*A105
350
2559C
  3
*A106
350
262A0
  3
*A107
350
2559D
  3
*A108
350
26C06
  3
*A109
350
FC9A
  3
*A11
350
25337
  3
*A110
350
2786C
  3
*A111
350
26E23
  3
*A112
350
1F91D
  3
*A113
350
20025
  3
*A114
350
252FB
  3
*A115
350
1EB7F
  3
*A116
350
265C7
  3
*A117
350
26E24
  3
*A118
350
19786
  3
*A119
350
2531F
  3
*A12
350
19259
  3
*A120
350
1D6DE
  3
*A121
350
25D0D
  3
*A122
350
26E25
  3
*A123
350
1D6C0
  3
*A124
350
265C8
  3
*A125
350
1D67A
  3
*A126
350
265CF
  3
*A127
350
27802
  3
*A128
350
2832B
  3
*A129
350
1D6FC
  3
*A13
350
ACB4
  3
*A130
350
26E26
  3
*A131
350
26E5E
  3
*A132
350
26E5F
  3
*A133
350
26C07
  3
*A134
350
19F99
  3
*A135
350
25325
  3
*A136
350
17BFF
  3
*A137
350
252F5
  3
*A138
350
25E13
  3
*A139
350
26C78
  3
*A14
350
17B11
  3
*A140
350
1F918
  3
*A141
350
26E60
  3
*A142
350
2629D
  3
*A143
350
25307
  3
*A144
350
25D0A
  3
*A145
350
2533D
  3
*A146
350
2001C
  3
*A147
350
26E61
  3
*A148
350
1D6AC
  3
*A149
350
106A5
  3
*A15
350
16069
  3
*A150
350
AC9A
  3
*A151
350
ACA1
  3
*A152
350
2732E
  3
*A153
350
173BF
  3
*A154
350
2732F
  3
*A155
350
27330
  3
*A156
350
26094
  3
*A157
350
1F8F0
  3
*A158
350
20019
  3
*A159
350
1B744
  3
*A16
350
25313
  3
*A160
350
25E10
  3
*A161
350
27CB8
  3
*A162
350
27331
  3
*A163
350
259CF
  3
*A164
350
2001F
  3
*A165
350
106C6
  3
*A166
350
20013
  3
*A167
350
19A52
  3
*A168
350
2532B
  3
*A169
350
18F20
  3
*A17
350
26C8B
  3
*A170
350
1F90E
  3
*A171
350
27332
  3
*A172
350
19989
  3
*A173
350
25D0B
  3
*A174
350
26C43
  3
*A175
350
259D0
  3
*A176
350
27333
  3
*A177
350
2608F
  3
*A178
350
FCB8
  3
*A179
350
2629A
  3
*A18
350
1B74D
  3
*A180
350
27334
  3
*A181
350
1D670
  3
*A182
350
259D2
  3
*A183
350
27335
  3
*A184
350
27336
  3
*A185
350
20218
  3
*A186
350
169DA
  3
*A187
350
259D1
  3
*A188
350
265D2
  3
*A189
350
27337
  3
*A19
350
27CB7
  3
*A190
350
252DD
  3
*A191
350
265CA
  3
*A192
350
1A695
  3
*A193
350
27338
  3
*A194
350
18F22
  3
*A195
350
1606A
  3
*A196
350
17389
  3
*A197
350
25AC2
  3
*A198
350
265CB
  3
*A199
350
FB6B
  3
*A2
350
277FC
  3
*A20
350
19AA4
  3
*A200
350
1B720
  3
*A201
350
2629C
  3
*A202
350
FBFF
  3
*A203
350
FC91
  3
*A204
350
19256
  3
*A205
350
265D0
  3
*A206
350
25343
  3
*A207
350
27CB0
  3
*A208
350
19861
  3
*A209
350
1AA94
  3
*A21
350
25367
  3
*A210
350
2530D
  3
*A211
350
19255
  3
*A212
350
19794
  3
*A213
350
25AC3
  3
*A214
350
265C9
  3
*A215
350
26096
  3
*A216
350
173BD
  3
*A217
350
19787
  3
*A218
350
19F67
  3
*A219
350
1EB80
  3
*A22
350
265D1
  3
*A220
350
25331
  3
*A221
350
20016
  3
*A222
350
27CB5
  3
*A223
350
1B732
  3
*A224
350
2629E
  3
*A225
350
2022C
  3
*A226
350
18F1F
  3
*A227
350
2535B
  3
*A228
350
2786D
  3
*A229
350
196C2
  3
*A23
350
1998A
  3
*A230
350
20209
  3
*A231
350
25E12
  3
*A232
350
27803
  3
*A233
350
277FD
  3
*A234
350
25D0C
  3
*A235
350
17901
  3
*A236
350
20231
  3
*A237
350
19A86
  3
*A238
350
1B756
  3
*A239
350
27D88
  3
*A24
350
2020E
  3
*A240
350
2002B
  3
*A241
350
27806
  3
*A242
350
2021D
  3
*A243
350
262A1
  3
*A244
350
18F23
  3
*A245
350
277FA
  3
*A246
350
1A691
  3
*A247
350
18FA7
  3
*A248
350
277FE
  3
*A249
350
25D0E
  3
*A25
350
1A09A
  3
*A250
350
26092
  3
*A251
350
20028
  3
*A252
350
1D6A2
  3
*A253
350
265CC
  3
*A254
350
2786E
  3
*A255
350
26095
  3
*A256
350
277FB
  3
*A257
350
19988
  3
*A258
350
27CB6
  3
*A259
350
25349
  3
*A26
350
1D698
  3
*A260
350
FC95
  3
*A261
350
27CB3
  3
*A262
350
277FF
  3
*A263
350
1F909
  3
*A264
350
106C7
  3
*A265
350
26093
  3
*A266
350
1D6E8
  3
*A267
350
19A5A
  3
*A268
350
24D3F
  3
*A269
350
1A692
  3
*A27
350
2536D
  3
*A270
350
19729
  3
*A271
350
27804
  3
*A272
350
20236
  3
*A273
350
20213
  3
*A274
350
ACAB
  3
*A275
350
25D97
  3
*A276
350
27800
  3
*A277
350
1B73B
  3
*A28
350
1F904
  3
*A29
350
252EF
  3
*A3
350
20222
  3
*A30
350
2629F
  3
*A31
350
25319
  3
*A32
350
19881
  3
*A33
350
19FAB
  3
*A34
350
26C4B
  3
*A35
350
265CE
  3
*A36
350
20010
  3
*A37
350
25373
  3
*A38
350
25379
  3
*A39
350
20CA6
  3
*A4
350
20CA2
  3
*A40
350
27801
  3
*A41
350
1F8F5
  3
*A42
350
265CD
  3
*A43
350
215A2
  3
*A44
350
ACA2
  3
*A45
350
2534F
  3
*A46
350
16058
  3
*A47
350
26B3D
  3
*A48
350
2537F
  3
*A49
350
1D6D4
  3
*A5
350
25361
  3
*A50
350
1D6CA
  3
*A51
350
ACBD
  3
*A52
350
1606B
  3
*A53
350
1738B
  3
*A54
350
25385
  3
*A55
350
FB6C
  3
*A56
350
106B3
  3
*A57
350
27CB4
  3
*A58
350
FC9B
  3
*A59
350
1D684
  3
*A6
350
27CAF
  3
*A60
350
2538B
  3
*A61
350
25391
  3
*A62
350
25397
  3
*A63
350
253AB
  3
*A64
350
1D706
  3
*A65
350
25E11
  3
*A66
350
19A51
  3
*A67
350
18FA8
  3
*A68
350
20227
  3
*A69
350
173BE
  3
*A7
350
252E3
  3
*A70
350
26091
  3
*A71
350
1F913
  3
*A72
350
19F55
  3
*A73
350
27CB1
  3
*A74
350
25584
  3
*A75
350
1D6F2
  3
*A76
350
27CB9
  3
*A77
350
1D68E
  3
*A78
350
20022
  3
*A79
350
25355
  3
*A8
350
1B729
  3
*A80
350
18F21
  3
*A81
350
16059
  3
*A82
350
26C53
  3
*A83
350
1EB7C
  3
*A84
350
1EB7E
  3
*A85
350
1F8FA
  3
*A86
350
19F87
  3
*A87
350
1EB7D
  3
*A88
350
27CBA
  3
*A89
350
27805
  3
*A9
350
18FA6
  3
*A90
350
2629B
  3
*A91
350
25585
  3
*A92
350
16068
  3
*A93
350
252E9
  3
*A94
350
25586
  3
*A95
350
25590
  3
*A96
350
1D710
  3
*A97
350
27CB2
  3
*A98
350
1D6B6
  3
*A99
350
1F8FF
1001
ACAD
1000
TREAT_AS_HARD
1070
     0
  0
DICTIONARY
  5
DB2
102
{ACAD_REACTORS
330
C
102
}
330
C
100
AcDbDictionary
1001
ACAD
1000
TREAT_AS_HARD
1070
     0
  0
DICTIONARY
  5
1B
102
{ACAD_REACTORS
330
C
102
}
330
C
100
AcDbDictionary
  3
STANDARD
350
1C
1001
ACAD
1000
TREAT_AS_HARD
1070
     0
  0
DICTIONARY
  5
DB3
102
{ACAD_REACTORS
330
C
102
}
330
C
100
AcDbDictionary
1001
ACAD
1000
TREAT_AS_HARD
1070
     0
  0
ACDBDICTIONARYWDFLT
  5
FB5B
102
{ACAD_REACTORS
330
C
102
}
330
C
100
AcDbDictionary
281
     1
  3
Normal
350
FB5C
100
AcDbDictionaryWithDefault
340
FB5C
  0
XRECORD
  5
1B534
102
{ACAD_REACTORS
330
C
102
}
330
C
100
AcDbXrecord
 90
   990106
  3

 60
     0
 61
     0
 62
     4
 63
     4
 64
     1
 65
     0
 66
     0
 67
     3
 68
     1
 69
     0
 70
     0
 71
     0
 72
     0
 40
0.0
170
     2
340
2878C
  0
DICTIONARY
  5
28826
102
{ACAD_REACTORS
330
C
102
}
330
C
100
AcDbDictionary
  3
CEPSNTYPE
350
28830
  3
DIMSTYLEDATA
350
28834
  3
FINGERPRINTGUID
350
28831
  3
HYPERLINKBASE
350
28829
  3
INSUNITS
350
2882F
  3
LAYOUTDICT
350
2882B
  3
LWETCUNION
350
2882E
  3
PLOTSETDICT
350
2882C
  3
PLOTSTYLNAMDICT
350
2882D
  3
PSVPSCALE
350
28833
  3
PUCSBASE
350
28837
  3
PUCSORGBACK
350
2883D
  3
PUCSORGBOTTOM
350
28839
  3
PUCSORGFRONT
350
2883C
  3
PUCSORGLEFT
350
2883A
  3
PUCSORGRIGHT
350
2883B
  3
PUCSORGTOP
350
28838
  3
PUCSORTHOREF
350
28835
  3
PUCSORTHOVIEW
350
28836
  3
STYLESHEET
350
2882A
  3
TSTACKALIGN
350
28827
  3
TSTACKSIZE
350
28828
  3
UCSBASE
350
28840
  3
UCSORGBACK
350
28846
  3
UCSORGBOTTOM
350
28842
  3
UCSORGFRONT
350
28845
  3
UCSORGLEFT
350
28843
  3
UCSORGRIGHT
350
28844
  3
UCSORGTOP
350
28841
  3
UCSORTHOREF
350
2883E
  3
UCSORTHOVIEW
350
2883F
  3
VERSIONGUID
350
28832
  0
DICTIONARY
  5
106A6
102
{ACAD_REACTORS
330
C
102
}
330
C
100
AcDbDictionary
  3
SORTENTS
350
106A7
  0
DICTIONARY
  5
1A99F
102
{ACAD_REACTORS
330
C
102
}
330
C
100
AcDbDictionary
  3
ASEBLOCKHIERARCHYINDEXRECORD
350
1A9A1
1001
DCO15
1040
1464612067.17
  0
XRECORD
  5
15EC9
102
{ACAD_REACTORS
330
C
102
}
330
C
100
AcDbXrecord
  1
DWGPROPS COOKIE
  2

  3

  4

  6

  7

  8

  9

300
=
301
=
302
=
303
=
304
=
305
=
306
=
307
=
308
=
309
=
 40
12.65185717592592
 41
2451224.660162384
 42
2452395.660827315
  1

 90
        0
  0
DICTIONARY
  5
2866A
102
{ACAD_REACTORS
330
28669
102
}
330
28669
100
AcDbDictionary
280
     1
  3
0
360
2866B
  3
11
360
2866C
  3
150_
360
2866D
  3
160_
360
2866E
  3
170_
360
2866F
  3
171_
360
28670
  3
350_
360
28671
  3
4
360
28672
  3
5
360
28673
  3
7
360
28674
  3
KISEKI
360
28675
  0
DICTIONARY
  5
28676
102
{ACAD_REACTORS
330
28669
102
}
330
28669
100
AcDbDictionary
  0
XRECORD
  5
28848
102
{ACAD_REACTORS
330
EFC6
102
}
330
EFC6
100
AcDbXrecord
340
18
  0
XRECORD
  5
28847
102
{ACAD_REACTORS
330
EFC4
102
}
330
EFC4
100
AcDbXrecord
340
15
  0
GROUP
  5
AC8A
102
{ACAD_REACTORS
330
D
102
}
330
D
100
AcDbGroup
300

 70
     1
 71
     1
  0
GROUP
  5
198F1
102
{ACAD_REACTORS
330
D
102
}
330
D
100
AcDbGroup
300

 70
     1
 71
     1
  0
GROUP
  5
25596
102
{ACAD_REACTORS
330
D
102
}
330
D
100
AcDbGroup
300

 70
     1
 71
     1
  0
GROUP
  5
26090
102
{ACAD_REACTORS
330
D
102
}
330
D
100
AcDbGroup
300

 70
     1
 71
     1
  0
GROUP
  5
26E22
102
{ACAD_REACTORS
330
D
102
}
330
D
100
AcDbGroup
300

 70
     1
 71
     1
  0
GROUP
  5
25301
102
{ACAD_REACTORS
330
D
102
}
330
D
100
AcDbGroup
300

 70
     1
 71
     1
  0
GROUP
  5
1738A
102
{ACAD_REACTORS
330
D
102
}
330
D
100
AcDbGroup
300

 70
     1
 71
     1
  0
GROUP
  5
2559C
102
{ACAD_REACTORS
330
D
102
}
330
D
100
AcDbGroup
300

 70
     1
 71
     1
  0
GROUP
  5
262A0
102
{ACAD_REACTORS
330
D
102
}
330
D
100
AcDbGroup
300

 70
     1
 71
     1
  0
GROUP
  5
2559D
102
{ACAD_REACTORS
330
D
102
}
330
D
100
AcDbGroup
300

 70
     1
 71
     1
  0
GROUP
  5
26C06
102
{ACAD_REACTORS
330
D
102
}
330
D
100
AcDbGroup
300

 70
     1
 71
     1
  0
GROUP
  5
FC9A
102
{ACAD_REACTORS
330
D
102
}
330
D
100
AcDbGroup
300

 70
     1
 71
     1
  0
GROUP
  5
25337
102
{ACAD_REACTORS
330
D
102
}
330
D
100
AcDbGroup
300

 70
     1
 71
     1
  0
GROUP
  5
2786C
102
{ACAD_REACTORS
330
D
102
}
330
D
100
AcDbGroup
300

 70
     1
 71
     1
  0
GROUP
  5
26E23
102
{ACAD_REACTORS
330
D
102
}
330
D
100
AcDbGroup
300

 70
     1
 71
     1
  0
GROUP
  5
1F91D
102
{ACAD_REACTORS
330
D
102
}
330
D
100
AcDbGroup
300

 70
     1
 71
     1
  0
GROUP
  5
20025
102
{ACAD_REACTORS
330
D
102
}
330
D
100
AcDbGroup
300

 70
     1
 71
     1
  0
GROUP
  5
252FB
102
{ACAD_REACTORS
330
D
102
}
330
D
100
AcDbGroup
300

 70
     1
 71
     1
  0
GROUP
  5
1EB7F
102
{ACAD_REACTORS
330
D
102
}
330
D
100
AcDbGroup
300

 70
     1
 71
     1
  0
GROUP
  5
265C7
102
{ACAD_REACTORS
330
D
102
}
330
D
100
AcDbGroup
300

 70
     1
 71
     1
  0
GROUP
  5
26E24
102
{ACAD_REACTORS
330
D
102
}
330
D
100
AcDbGroup
300

 70
     1
 71
     1
  0
GROUP
  5
19786
102
{ACAD_REACTORS
330
D
102
}
330
D
100
AcDbGroup
300

 70
     1
 71
     1
  0
GROUP
  5
2531F
102
{ACAD_REACTORS
330
D
102
}
330
D
100
AcDbGroup
300

 70
     1
 71
     1
  0
GROUP
  5
19259
102
{ACAD_REACTORS
330
D
102
}
330
D
100
AcDbGroup
300

 70
     1
 71
     1
  0
GROUP
  5
1D6DE
102
{ACAD_REACTORS
330
D
102
}
330
D
100
AcDbGroup
300

 70
     1
 71
     1
  0
GROUP
  5
25D0D
102
{ACAD_REACTORS
330
D
102
}
330
D
100
AcDbGroup
300

 70
     1
 71
     1
  0
GROUP
  5
26E25
102
{ACAD_REACTORS
330
D
102
}
330
D
100
AcDbGroup
300

 70
     1
 71
     1
  0
GROUP
  5
1D6C0
102
{ACAD_REACTORS
330
D
102
}
330
D
100
AcDbGroup
300

 70
     1
 71
     1
  0
GROUP
  5
265C8
102
{ACAD_REACTORS
330
D
102
}
330
D
100
AcDbGroup
300

 70
     1
 71
     1
  0
GROUP
  5
1D67A
102
{ACAD_REACTORS
330
D
102
}
330
D
100
AcDbGroup
300

 70
     1
 71
     1
  0
GROUP
  5
265CF
102
{ACAD_REACTORS
330
D
102
}
330
D
100
AcDbGroup
300

 70
     1
 71
     1
  0
GROUP
  5
27802
102
{ACAD_REACTORS
330
D
102
}
330
D
100
AcDbGroup
300

 70
     1
 71
     1
  0
GROUP
  5
2832B
102
{ACAD_REACTORS
330
D
102
}
330
D
100
AcDbGroup
300

 70
     1
 71
     1
340
26B6B
340
26B8A
340
26B76
  0
GROUP
  5
1D6FC
102
{ACAD_REACTORS
330
D
102
}
330
D
100
AcDbGroup
300

 70
     1
 71
     1
  0
GROUP
  5
ACB4
102
{ACAD_REACTORS
330
D
102
}
330
D
100
AcDbGroup
300

 70
     1
 71
     1
  0
GROUP
  5
26E26
102
{ACAD_REACTORS
330
D
102
}
330
D
100
AcDbGroup
300

 70
     1
 71
     1
  0
GROUP
  5
26E5E
102
{ACAD_REACTORS
330
D
102
}
330
D
100
AcDbGroup
300

 70
     1
 71
     1
  0
GROUP
  5
26E5F
102
{ACAD_REACTORS
330
D
102
}
330
D
100
AcDbGroup
300

 70
     1
 71
     1
  0
GROUP
  5
26C07
102
{ACAD_REACTORS
330
D
102
}
330
D
100
AcDbGroup
300

 70
     1
 71
     1
  0
GROUP
  5
19F99
102
{ACAD_REACTORS
330
D
102
}
330
D
100
AcDbGroup
300

 70
     1
 71
     1
  0
GROUP
  5
25325
102
{ACAD_REACTORS
330
D
102
}
330
D
100
AcDbGroup
300

 70
     1
 71
     1
  0
GROUP
  5
17BFF
102
{ACAD_REACTORS
330
D
102
}
330
D
100
AcDbGroup
300

 70
     1
 71
     1
  0
GROUP
  5
252F5
102
{ACAD_REACTORS
330
D
102
}
330
D
100
AcDbGroup
300

 70
     1
 71
     1
  0
GROUP
  5
25E13
102
{ACAD_REACTORS
330
D
102
}
330
D
100
AcDbGroup
300

 70
     1
 71
     1
  0
GROUP
  5
26C78
102
{ACAD_REACTORS
330
D
102
}
330
D
100
AcDbGroup
300

 70
     1
 71
     1
  0
GROUP
  5
17B11
102
{ACAD_REACTORS
330
D
102
}
330
D
100
AcDbGroup
300

 70
     1
 71
     1
  0
GROUP
  5
1F918
102
{ACAD_REACTORS
330
D
102
}
330
D
100
AcDbGroup
300

 70
     1
 71
     1
  0
GROUP
  5
26E60
102
{ACAD_REACTORS
330
D
102
}
330
D
100
AcDbGroup
300

 70
     1
 71
     1
  0
GROUP
  5
2629D
102
{ACAD_REACTORS
330
D
102
}
330
D
100
AcDbGroup
300

 70
     1
 71
     1
  0
GROUP
  5
25307
102
{ACAD_REACTORS
330
D
102
}
330
D
100
AcDbGroup
300

 70
     1
 71
     1
  0
GROUP
  5
25D0A
102
{ACAD_REACTORS
330
D
102
}
330
D
100
AcDbGroup
300

 70
     1
 71
     1
  0
GROUP
  5
2533D
102
{ACAD_REACTORS
330
D
102
}
330
D
100
AcDbGroup
300

 70
     1
 71
     1
  0
GROUP
  5
2001C
102
{ACAD_REACTORS
330
D
102
}
330
D
100
AcDbGroup
300

 70
     1
 71
     1
  0
GROUP
  5
26E61
102
{ACAD_REACTORS
330
D
102
}
330
D
100
AcDbGroup
300

 70
     1
 71
     1
  0
GROUP
  5
1D6AC
102
{ACAD_REACTORS
330
D
102
}
330
D
100
AcDbGroup
300

 70
     1
 71
     1
  0
GROUP
  5
106A5
102
{ACAD_REACTORS
330
D
102
}
330
D
100
AcDbGroup
300

 70
     1
 71
     1
  0
GROUP
  5
16069
102
{ACAD_REACTORS
330
D
102
}
330
D
100
AcDbGroup
300

 70
     1
 71
     1
  0
GROUP
  5
AC9A
102
{ACAD_REACTORS
330
D
102
}
330
D
100
AcDbGroup
300

 70
     1
 71
     1
  0
GROUP
  5
ACA1
102
{ACAD_REACTORS
330
D
102
}
330
D
100
AcDbGroup
300

 70
     1
 71
     1
  0
GROUP
  5
2732E
102
{ACAD_REACTORS
330
D
102
}
330
D
100
AcDbGroup
300

 70
     1
 71
     1
  0
GROUP
  5
173BF
102
{ACAD_REACTORS
330
D
102
}
330
D
100
AcDbGroup
300

 70
     1
 71
     1
  0
GROUP
  5
2732F
102
{ACAD_REACTORS
330
D
102
}
330
D
100
AcDbGroup
300

 70
     1
 71
     1
  0
GROUP
  5
27330
102
{ACAD_REACTORS
330
D
102
}
330
D
100
AcDbGroup
300

 70
     1
 71
     1
  0
GROUP
  5
26094
102
{ACAD_REACTORS
330
D
102
}
330
D
100
AcDbGroup
300

 70
     1
 71
     1
  0
GROUP
  5
1F8F0
102
{ACAD_REACTORS
330
D
102
}
330
D
100
AcDbGroup
300

 70
     1
 71
     1
  0
GROUP
  5
20019
102
{ACAD_REACTORS
330
D
102
}
330
D
100
AcDbGroup
300

 70
     1
 71
     1
  0
GROUP
  5
1B744
102
{ACAD_REACTORS
330
D
102
}
330
D
100
AcDbGroup
300

 70
     1
 71
     1
  0
GROUP
  5
25313
102
{ACAD_REACTORS
330
D
102
}
330
D
100
AcDbGroup
300

 70
     1
 71
     1
  0
GROUP
  5
25E10
102
{ACAD_REACTORS
330
D
102
}
330
D
100
AcDbGroup
300

 70
     1
 71
     1
  0
GROUP
  5
27CB8
102
{ACAD_REACTORS
330
D
102
}
330
D
100
AcDbGroup
300

 70
     1
 71
     1
  0
GROUP
  5
27331
102
{ACAD_REACTORS
330
D
102
}
330
D
100
AcDbGroup
300

 70
     1
 71
     1
  0
GROUP
  5
259CF
102
{ACAD_REACTORS
330
D
102
}
330
D
100
AcDbGroup
300

 70
     1
 71
     1
  0
GROUP
  5
2001F
102
{ACAD_REACTORS
330
D
102
}
330
D
100
AcDbGroup
300

 70
     1
 71
     1
  0
GROUP
  5
106C6
102
{ACAD_REACTORS
330
D
102
}
330
D
100
AcDbGroup
300

 70
     1
 71
     1
  0
GROUP
  5
20013
102
{ACAD_REACTORS
330
D
102
}
330
D
100
AcDbGroup
300

 70
     1
 71
     1
  0
GROUP
  5
19A52
102
{ACAD_REACTORS
330
D
102
}
330
D
100
AcDbGroup
300

 70
     1
 71
     1
  0
GROUP
  5
2532B
102
{ACAD_REACTORS
330
D
102
}
330
D
100
AcDbGroup
300

 70
     1
 71
     1
  0
GROUP
  5
18F20
102
{ACAD_REACTORS
330
D
102
}
330
D
100
AcDbGroup
300

 70
     1
 71
     1
  0
GROUP
  5
26C8B
102
{ACAD_REACTORS
330
D
102
}
330
D
100
AcDbGroup
300

 70
     1
 71
     1
340
26C79
340
26C7A
340
26C7B
340
26C7C
340
26C7D
340
26C7E
340
26C7F
340
26C80
340
26C81
340
26C82
340
26C83
340
26C84
340
26C85
340
26C86
340
26C87
340
26C88
340
26C89
340
26C8A
  0
GROUP
  5
1F90E
102
{ACAD_REACTORS
330
D
102
}
330
D
100
AcDbGroup
300

 70
     1
 71
     1
  0
GROUP
  5
27332
102
{ACAD_REACTORS
330
D
102
}
330
D
100
AcDbGroup
300

 70
     1
 71
     1
  0
GROUP
  5
19989
102
{ACAD_REACTORS
330
D
102
}
330
D
100
AcDbGroup
300

 70
     1
 71
     1
  0
GROUP
  5
25D0B
102
{ACAD_REACTORS
330
D
102
}
330
D
100
AcDbGroup
300

 70
     1
 71
     1
  0
GROUP
  5
26C43
102
{ACAD_REACTORS
330
D
102
}
330
D
100
AcDbGroup
300

 70
     1
 71
     1
340
26868
340
26865
340
26864
340
26861
340
26862
340
26867
340
26863
  0
GROUP
  5
259D0
102
{ACAD_REACTORS
330
D
102
}
330
D
100
AcDbGroup
300

 70
     1
 71
     1
  0
GROUP
  5
27333
102
{ACAD_REACTORS
330
D
102
}
330
D
100
AcDbGroup
300

 70
     1
 71
     1
  0
GROUP
  5
2608F
102
{ACAD_REACTORS
330
D
102
}
330
D
100
AcDbGroup
300

 70
     1
 71
     1
  0
GROUP
  5
FCB8
102
{ACAD_REACTORS
330
D
102
}
330
D
100
AcDbGroup
300

 70
     1
 71
     1
  0
GROUP
  5
2629A
102
{ACAD_REACTORS
330
D
102
}
330
D
100
AcDbGroup
300

 70
     1
 71
     1
  0
GROUP
  5
1B74D
102
{ACAD_REACTORS
330
D
102
}
330
D
100
AcDbGroup
300

 70
     1
 71
     1
  0
GROUP
  5
27334
102
{ACAD_REACTORS
330
D
102
}
330
D
100
AcDbGroup
300

 70
     1
 71
     1
  0
GROUP
  5
1D670
102
{ACAD_REACTORS
330
D
102
}
330
D
100
AcDbGroup
300

 70
     1
 71
     1
  0
GROUP
  5
259D2
102
{ACAD_REACTORS
330
D
102
}
330
D
100
AcDbGroup
300

 70
     1
 71
     1
  0
GROUP
  5
27335
102
{ACAD_REACTORS
330
D
102
}
330
D
100
AcDbGroup
300

 70
     1
 71
     1
  0
GROUP
  5
27336
102
{ACAD_REACTORS
330
D
102
}
330
D
100
AcDbGroup
300

 70
     1
 71
     1
  0
GROUP
  5
20218
102
{ACAD_REACTORS
330
D
102
}
330
D
100
AcDbGroup
300

 70
     1
 71
     1
  0
GROUP
  5
169DA
102
{ACAD_REACTORS
330
D
102
}
330
D
100
AcDbGroup
300

 70
     1
 71
     1
  0
GROUP
  5
259D1
102
{ACAD_REACTORS
330
D
102
}
330
D
100
AcDbGroup
300

 70
     1
 71
     1
  0
GROUP
  5
265D2
102
{ACAD_REACTORS
330
D
102
}
330
D
100
AcDbGroup
300

 70
     1
 71
     1
  0
GROUP
  5
27337
102
{ACAD_REACTORS
330
D
102
}
330
D
100
AcDbGroup
300

 70
     1
 71
     1
  0
GROUP
  5
27CB7
102
{ACAD_REACTORS
330
D
102
}
330
D
100
AcDbGroup
300

 70
     1
 71
     1
  0
GROUP
  5
252DD
102
{ACAD_REACTORS
330
D
102
}
330
D
100
AcDbGroup
300

 70
     1
 71
     1
  0
GROUP
  5
265CA
102
{ACAD_REACTORS
330
D
102
}
330
D
100
AcDbGroup
300

 70
     1
 71
     1
  0
GROUP
  5
1A695
102
{ACAD_REACTORS
330
D
102
}
330
D
100
AcDbGroup
300

 70
     1
 71
     1
  0
GROUP
  5
27338
102
{ACAD_REACTORS
330
D
102
}
330
D
100
AcDbGroup
300

 70
     1
 71
     1
  0
GROUP
  5
18F22
102
{ACAD_REACTORS
330
D
102
}
330
D
100
AcDbGroup
300

 70
     1
 71
     1
  0
GROUP
  5
1606A
102
{ACAD_REACTORS
330
D
102
}
330
D
100
AcDbGroup
300

 70
     1
 71
     1
  0
GROUP
  5
17389
102
{ACAD_REACTORS
330
D
102
}
330
D
100
AcDbGroup
300

 70
     1
 71
     1
  0
GROUP
  5
25AC2
102
{ACAD_REACTORS
330
D
102
}
330
D
100
AcDbGroup
300

 70
     1
 71
     1
  0
GROUP
  5
265CB
102
{ACAD_REACTORS
330
D
102
}
330
D
100
AcDbGroup
300

 70
     1
 71
     1
  0
GROUP
  5
FB6B
102
{ACAD_REACTORS
330
D
102
}
330
D
100
AcDbGroup
300

 70
     1
 71
     1
  0
GROUP
  5
277FC
102
{ACAD_REACTORS
330
D
102
}
330
D
100
AcDbGroup
300

 70
     1
 71
     1
  0
GROUP
  5
19AA4
102
{ACAD_REACTORS
330
D
102
}
330
D
100
AcDbGroup
300

 70
     1
 71
     1
  0
GROUP
  5
1B720
102
{ACAD_REACTORS
330
D
102
}
330
D
100
AcDbGroup
300

 70
     1
 71
     1
  0
GROUP
  5
2629C
102
{ACAD_REACTORS
330
D
102
}
330
D
100
AcDbGroup
300

 70
     1
 71
     1
  0
GROUP
  5
FBFF
102
{ACAD_REACTORS
330
D
102
}
330
D
100
AcDbGroup
300

 70
     1
 71
     1
  0
GROUP
  5
FC91
102
{ACAD_REACTORS
330
D
102
}
330
D
100
AcDbGroup
300

 70
     1
 71
     1
  0
GROUP
  5
19256
102
{ACAD_REACTORS
330
D
102
}
330
D
100
AcDbGroup
300

 70
     1
 71
     1
  0
GROUP
  5
265D0
102
{ACAD_REACTORS
330
D
102
}
330
D
100
AcDbGroup
300

 70
     1
 71
     1
  0
GROUP
  5
25343
102
{ACAD_REACTORS
330
D
102
}
330
D
100
AcDbGroup
300

 70
     1
 71
     1
  0
GROUP
  5
27CB0
102
{ACAD_REACTORS
330
D
102
}
330
D
100
AcDbGroup
300

 70
     1
 71
     1
  0
GROUP
  5
19861
102
{ACAD_REACTORS
330
D
102
}
330
D
100
AcDbGroup
300

 70
     1
 71
     1
  0
GROUP
  5
1AA94
102
{ACAD_REACTORS
330
D
102
}
330
D
100
AcDbGroup
300

 70
     1
 71
     1
  0
GROUP
  5
25367
102
{ACAD_REACTORS
330
D
102
}
330
D
100
AcDbGroup
300

 70
     1
 71
     1
  0
GROUP
  5
2530D
102
{ACAD_REACTORS
330
D
102
}
330
D
100
AcDbGroup
300

 70
     1
 71
     1
  0
GROUP
  5
19255
102
{ACAD_REACTORS
330
D
102
}
330
D
100
AcDbGroup
300

 70
     1
 71
     1
  0
GROUP
  5
19794
102
{ACAD_REACTORS
330
D
102
}
330
D
100
AcDbGroup
300

 70
     1
 71
     1
  0
GROUP
  5
25AC3
102
{ACAD_REACTORS
330
D
102
}
330
D
100
AcDbGroup
300

 70
     1
 71
     1
  0
GROUP
  5
265C9
102
{ACAD_REACTORS
330
D
102
}
330
D
100
AcDbGroup
300

 70
     1
 71
     1
  0
GROUP
  5
26096
102
{ACAD_REACTORS
330
D
102
}
330
D
100
AcDbGroup
300

 70
     1
 71
     1
  0
GROUP
  5
173BD
102
{ACAD_REACTORS
330
D
102
}
330
D
100
AcDbGroup
300

 70
     1
 71
     1
  0
GROUP
  5
19787
102
{ACAD_REACTORS
330
D
102
}
330
D
100
AcDbGroup
300

 70
     1
 71
     1
  0
GROUP
  5
19F67
102
{ACAD_REACTORS
330
D
102
}
330
D
100
AcDbGroup
300

 70
     1
 71
     1
  0
GROUP
  5
1EB80
102
{ACAD_REACTORS
330
D
102
}
330
D
100
AcDbGroup
300

 70
     1
 71
     1
  0
GROUP
  5
265D1
102
{ACAD_REACTORS
330
D
102
}
330
D
100
AcDbGroup
300

 70
     1
 71
     1
  0
GROUP
  5
25331
102
{ACAD_REACTORS
330
D
102
}
330
D
100
AcDbGroup
300

 70
     1
 71
     1
  0
GROUP
  5
20016
102
{ACAD_REACTORS
330
D
102
}
330
D
100
AcDbGroup
300

 70
     1
 71
     1
  0
GROUP
  5
27CB5
102
{ACAD_REACTORS
330
D
102
}
330
D
100
AcDbGroup
300

 70
     1
 71
     1
  0
GROUP
  5
1B732
102
{ACAD_REACTORS
330
D
102
}
330
D
100
AcDbGroup
300

 70
     1
 71
     1
  0
GROUP
  5
2629E
102
{ACAD_REACTORS
330
D
102
}
330
D
100
AcDbGroup
300

 70
     1
 71
     1
  0
GROUP
  5
2022C
102
{ACAD_REACTORS
330
D
102
}
330
D
100
AcDbGroup
300

 70
     1
 71
     1
  0
GROUP
  5
18F1F
102
{ACAD_REACTORS
330
D
102
}
330
D
100
AcDbGroup
300

 70
     1
 71
     1
  0
GROUP
  5
2535B
102
{ACAD_REACTORS
330
D
102
}
330
D
100
AcDbGroup
300

 70
     1
 71
     1
  0
GROUP
  5
2786D
102
{ACAD_REACTORS
330
D
102
}
330
D
100
AcDbGroup
300

 70
     1
 71
     1
  0
GROUP
  5
196C2
102
{ACAD_REACTORS
330
D
102
}
330
D
100
AcDbGroup
300

 70
     1
 71
     1
  0
GROUP
  5
1998A
102
{ACAD_REACTORS
330
D
102
}
330
D
100
AcDbGroup
300

 70
     1
 71
     1
  0
GROUP
  5
20209
102
{ACAD_REACTORS
330
D
102
}
330
D
100
AcDbGroup
300

 70
     1
 71
     1
  0
GROUP
  5
25E12
102
{ACAD_REACTORS
330
D
102
}
330
D
100
AcDbGroup
300

 70
     1
 71
     1
  0
GROUP
  5
27803
102
{ACAD_REACTORS
330
D
102
}
330
D
100
AcDbGroup
300

 70
     1
 71
     1
  0
GROUP
  5
277FD
102
{ACAD_REACTORS
330
D
102
}
330
D
100
AcDbGroup
300

 70
     1
 71
     1
  0
GROUP
  5
25D0C
102
{ACAD_REACTORS
330
D
102
}
330
D
100
AcDbGroup
300

 70
     1
 71
     1
  0
GROUP
  5
17901
102
{ACAD_REACTORS
330
D
102
}
330
D
100
AcDbGroup
300

 70
     1
 71
     1
  0
GROUP
  5
20231
102
{ACAD_REACTORS
330
D
102
}
330
D
100
AcDbGroup
300

 70
     1
 71
     1
  0
GROUP
  5
19A86
102
{ACAD_REACTORS
330
D
102
}
330
D
100
AcDbGroup
300

 70
     1
 71
     1
  0
GROUP
  5
1B756
102
{ACAD_REACTORS
330
D
102
}
330
D
100
AcDbGroup
300

 70
     1
 71
     1
  0
GROUP
  5
27D88
102
{ACAD_REACTORS
330
D
102
}
330
D
100
AcDbGroup
300

 70
     1
 71
     1
  0
GROUP
  5
2020E
102
{ACAD_REACTORS
330
D
102
}
330
D
100
AcDbGroup
300

 70
     1
 71
     1
  0
GROUP
  5
2002B
102
{ACAD_REACTORS
330
D
102
}
330
D
100
AcDbGroup
300

 70
     1
 71
     1
  0
GROUP
  5
27806
102
{ACAD_REACTORS
330
D
102
}
330
D
100
AcDbGroup
300

 70
     1
 71
     1
  0
GROUP
  5
2021D
102
{ACAD_REACTORS
330
D
102
}
330
D
100
AcDbGroup
300

 70
     1
 71
     1
  0
GROUP
  5
262A1
102
{ACAD_REACTORS
330
D
102
}
330
D
100
AcDbGroup
300

 70
     1
 71
     1
  0
GROUP
  5
18F23
102
{ACAD_REACTORS
330
D
102
}
330
D
100
AcDbGroup
300

 70
     1
 71
     1
  0
GROUP
  5
277FA
102
{ACAD_REACTORS
330
D
102
}
330
D
100
AcDbGroup
300

 70
     1
 71
     1
  0
GROUP
  5
1A691
102
{ACAD_REACTORS
330
D
102
}
330
D
100
AcDbGroup
300

 70
     1
 71
     1
  0
GROUP
  5
18FA7
102
{ACAD_REACTORS
330
D
102
}
330
D
100
AcDbGroup
300

 70
     1
 71
     1
  0
GROUP
  5
277FE
102
{ACAD_REACTORS
330
D
102
}
330
D
100
AcDbGroup
300

 70
     1
 71
     1
  0
GROUP
  5
25D0E
102
{ACAD_REACTORS
330
D
102
}
330
D
100
AcDbGroup
300

 70
     1
 71
     1
  0
GROUP
  5
1A09A
102
{ACAD_REACTORS
330
D
102
}
330
D
100
AcDbGroup
300

 70
     1
 71
     1
  0
GROUP
  5
26092
102
{ACAD_REACTORS
330
D
102
}
330
D
100
AcDbGroup
300

 70
     1
 71
     1
  0
GROUP
  5
20028
102
{ACAD_REACTORS
330
D
102
}
330
D
100
AcDbGroup
300

 70
     1
 71
     1
  0
GROUP
  5
1D6A2
102
{ACAD_REACTORS
330
D
102
}
330
D
100
AcDbGroup
300

 70
     1
 71
     1
  0
GROUP
  5
265CC
102
{ACAD_REACTORS
330
D
102
}
330
D
100
AcDbGroup
300

 70
     1
 71
     1
  0
GROUP
  5
2786E
102
{ACAD_REACTORS
330
D
102
}
330
D
100
AcDbGroup
300

 70
     1
 71
     1
  0
GROUP
  5
26095
102
{ACAD_REACTORS
330
D
102
}
330
D
100
AcDbGroup
300

 70
     1
 71
     1
  0
GROUP
  5
277FB
102
{ACAD_REACTORS
330
D
102
}
330
D
100
AcDbGroup
300

 70
     1
 71
     1
  0
GROUP
  5
19988
102
{ACAD_REACTORS
330
D
102
}
330
D
100
AcDbGroup
300

 70
     1
 71
     1
  0
GROUP
  5
27CB6
102
{ACAD_REACTORS
330
D
102
}
330
D
100
AcDbGroup
300

 70
     1
 71
     1
  0
GROUP
  5
25349
102
{ACAD_REACTORS
330
D
102
}
330
D
100
AcDbGroup
300

 70
     1
 71
     1
  0
GROUP
  5
1D698
102
{ACAD_REACTORS
330
D
102
}
330
D
100
AcDbGroup
300

 70
     1
 71
     1
  0
GROUP
  5
FC95
102
{ACAD_REACTORS
330
D
102
}
330
D
100
AcDbGroup
300

 70
     1
 71
     1
  0
GROUP
  5
27CB3
102
{ACAD_REACTORS
330
D
102
}
330
D
100
AcDbGroup
300

 70
     1
 71
     1
  0
GROUP
  5
277FF
102
{ACAD_REACTORS
330
D
102
}
330
D
100
AcDbGroup
300

 70
     1
 71
     1
  0
GROUP
  5
1F909
102
{ACAD_REACTORS
330
D
102
}
330
D
100
AcDbGroup
300

 70
     1
 71
     1
  0
GROUP
  5
106C7
102
{ACAD_REACTORS
330
D
102
}
330
D
100
AcDbGroup
300

 70
     1
 71
     1
  0
GROUP
  5
26093
102
{ACAD_REACTORS
330
D
102
}
330
D
100
AcDbGroup
300

 70
     1
 71
     1
  0
GROUP
  5
1D6E8
102
{ACAD_REACTORS
330
D
102
}
330
D
100
AcDbGroup
300

 70
     1
 71
     1
  0
GROUP
  5
19A5A
102
{ACAD_REACTORS
330
D
102
}
330
D
100
AcDbGroup
300

 70
     1
 71
     1
  0
GROUP
  5
24D3F
102
{ACAD_REACTORS
330
D
102
}
330
D
100
AcDbGroup
300

 70
     1
 71
     1
  0
GROUP
  5
1A692
102
{ACAD_REACTORS
330
D
102
}
330
D
100
AcDbGroup
300

 70
     1
 71
     1
  0
GROUP
  5
2536D
102
{ACAD_REACTORS
330
D
102
}
330
D
100
AcDbGroup
300

 70
     1
 71
     1
  0
GROUP
  5
19729
102
{ACAD_REACTORS
330
D
102
}
330
D
100
AcDbGroup
300

 70
     1
 71
     1
  0
GROUP
  5
27804
102
{ACAD_REACTORS
330
D
102
}
330
D
100
AcDbGroup
300

 70
     1
 71
     1
  0
GROUP
  5
20236
102
{ACAD_REACTORS
330
D
102
}
330
D
100
AcDbGroup
300

 70
     1
 71
     1
  0
GROUP
  5
20213
102
{ACAD_REACTORS
330
D
102
}
330
D
100
AcDbGroup
300

 70
     1
 71
     1
  0
GROUP
  5
ACAB
102
{ACAD_REACTORS
330
D
102
}
330
D
100
AcDbGroup
300

 70
     1
 71
     1
  0
GROUP
  5
25D97
102
{ACAD_REACTORS
330
D
102
}
330
D
100
AcDbGroup
300

 70
     1
 71
     1
  0
GROUP
  5
27800
102
{ACAD_REACTORS
330
D
102
}
330
D
100
AcDbGroup
300

 70
     1
 71
     1
  0
GROUP
  5
1B73B
102
{ACAD_REACTORS
330
D
102
}
330
D
100
AcDbGroup
300

 70
     1
 71
     1
  0
GROUP
  5
1F904
102
{ACAD_REACTORS
330
D
102
}
330
D
100
AcDbGroup
300

 70
     1
 71
     1
  0
GROUP
  5
252EF
102
{ACAD_REACTORS
330
D
102
}
330
D
100
AcDbGroup
300

 70
     1
 71
     1
  0
GROUP
  5
20222
102
{ACAD_REACTORS
330
D
102
}
330
D
100
AcDbGroup
300

 70
     1
 71
     1
  0
GROUP
  5
2629F
102
{ACAD_REACTORS
330
D
102
}
330
D
100
AcDbGroup
300

 70
     1
 71
     1
  0
GROUP
  5
25319
102
{ACAD_REACTORS
330
D
102
}
330
D
100
AcDbGroup
300

 70
     1
 71
     1
  0
GROUP
  5
19881
102
{ACAD_REACTORS
330
D
102
}
330
D
100
AcDbGroup
300

 70
     1
 71
     1
  0
GROUP
  5
19FAB
102
{ACAD_REACTORS
330
D
102
}
330
D
100
AcDbGroup
300

 70
     1
 71
     1
  0
GROUP
  5
26C4B
102
{ACAD_REACTORS
330
D
102
}
330
D
100
AcDbGroup
300

 70
     1
 71
     1
  0
GROUP
  5
265CE
102
{ACAD_REACTORS
330
D
102
}
330
D
100
AcDbGroup
300

 70
     1
 71
     1
  0
GROUP
  5
20010
102
{ACAD_REACTORS
330
D
102
}
330
D
100
AcDbGroup
300

 70
     1
 71
     1
  0
GROUP
  5
25373
102
{ACAD_REACTORS
330
D
102
}
330
D
100
AcDbGroup
300

 70
     1
 71
     1
  0
GROUP
  5
25379
102
{ACAD_REACTORS
330
D
102
}
330
D
100
AcDbGroup
300

 70
     1
 71
     1
  0
GROUP
  5
20CA6
102
{ACAD_REACTORS
330
D
102
}
330
D
100
AcDbGroup
300

 70
     1
 71
     1
  0
GROUP
  5
20CA2
102
{ACAD_REACTORS
330
D
102
}
330
D
100
AcDbGroup
300

 70
     1
 71
     1
  0
GROUP
  5
27801
102
{ACAD_REACTORS
330
D
102
}
330
D
100
AcDbGroup
300

 70
     1
 71
     1
  0
GROUP
  5
1F8F5
102
{ACAD_REACTORS
330
D
102
}
330
D
100
AcDbGroup
300

 70
     1
 71
     1
  0
GROUP
  5
265CD
102
{ACAD_REACTORS
330
D
102
}
330
D
100
AcDbGroup
300

 70
     1
 71
     1
  0
GROUP
  5
215A2
102
{ACAD_REACTORS
330
D
102
}
330
D
100
AcDbGroup
300

 70
     1
 71
     1
  0
GROUP
  5
ACA2
102
{ACAD_REACTORS
330
D
102
}
330
D
100
AcDbGroup
300

 70
     1
 71
     1
  0
GROUP
  5
2534F
102
{ACAD_REACTORS
330
D
102
}
330
D
100
AcDbGroup
300

 70
     1
 71
     1
  0
GROUP
  5
16058
102
{ACAD_REACTORS
330
D
102
}
330
D
100
AcDbGroup
300

 70
     1
 71
     1
  0
GROUP
  5
26B3D
102
{ACAD_REACTORS
330
D
102
}
330
D
100
AcDbGroup
300

 70
     1
 71
     1
  0
GROUP
  5
2537F
102
{ACAD_REACTORS
330
D
102
}
330
D
100
AcDbGroup
300

 70
     1
 71
     1
  0
GROUP
  5
1D6D4
102
{ACAD_REACTORS
330
D
102
}
330
D
100
AcDbGroup
300

 70
     1
 71
     1
  0
GROUP
  5
25361
102
{ACAD_REACTORS
330
D
102
}
330
D
100
AcDbGroup
300

 70
     1
 71
     1
  0
GROUP
  5
1D6CA
102
{ACAD_REACTORS
330
D
102
}
330
D
100
AcDbGroup
300

 70
     1
 71
     1
  0
GROUP
  5
ACBD
102
{ACAD_REACTORS
330
D
102
}
330
D
100
AcDbGroup
300

 70
     1
 71
     1
  0
GROUP
  5
1606B
102
{ACAD_REACTORS
330
D
102
}
330
D
100
AcDbGroup
300

 70
     1
 71
     1
  0
GROUP
  5
1738B
102
{ACAD_REACTORS
330
D
102
}
330
D
100
AcDbGroup
300

 70
     1
 71
     1
  0
GROUP
  5
25385
102
{ACAD_REACTORS
330
D
102
}
330
D
100
AcDbGroup
300

 70
     1
 71
     1
  0
GROUP
  5
FB6C
102
{ACAD_REACTORS
330
D
102
}
330
D
100
AcDbGroup
300

 70
     1
 71
     1
  0
GROUP
  5
106B3
102
{ACAD_REACTORS
330
D
102
}
330
D
100
AcDbGroup
300

 70
     1
 71
     1
  0
GROUP
  5
27CB4
102
{ACAD_REACTORS
330
D
102
}
330
D
100
AcDbGroup
300

 70
     1
 71
     1
  0
GROUP
  5
FC9B
102
{ACAD_REACTORS
330
D
102
}
330
D
100
AcDbGroup
300

 70
     1
 71
     1
  0
GROUP
  5
1D684
102
{ACAD_REACTORS
330
D
102
}
330
D
100
AcDbGroup
300

 70
     1
 71
     1
  0
GROUP
  5
27CAF
102
{ACAD_REACTORS
330
D
102
}
330
D
100
AcDbGroup
300

 70
     1
 71
     1
  0
GROUP
  5
2538B
102
{ACAD_REACTORS
330
D
102
}
330
D
100
AcDbGroup
300

 70
     1
 71
     1
  0
GROUP
  5
25391
102
{ACAD_REACTORS
330
D
102
}
330
D
100
AcDbGroup
300

 70
     1
 71
     1
  0
GROUP
  5
25397
102
{ACAD_REACTORS
330
D
102
}
330
D
100
AcDbGroup
300

 70
     1
 71
     1
  0
GROUP
  5
253AB
102
{ACAD_REACTORS
330
D
102
}
330
D
100
AcDbGroup
300

 70
     1
 71
     1
  0
GROUP
  5
1D706
102
{ACAD_REACTORS
330
D
102
}
330
D
100
AcDbGroup
300

 70
     1
 71
     1
  0
GROUP
  5
25E11
102
{ACAD_REACTORS
330
D
102
}
330
D
100
AcDbGroup
300

 70
     1
 71
     1
  0
GROUP
  5
19A51
102
{ACAD_REACTORS
330
D
102
}
330
D
100
AcDbGroup
300

 70
     1
 71
     1
  0
GROUP
  5
18FA8
102
{ACAD_REACTORS
330
D
102
}
330
D
100
AcDbGroup
300

 70
     1
 71
     1
  0
GROUP
  5
20227
102
{ACAD_REACTORS
330
D
102
}
330
D
100
AcDbGroup
300

 70
     1
 71
     1
  0
GROUP
  5
173BE
102
{ACAD_REACTORS
330
D
102
}
330
D
100
AcDbGroup
300

 70
     1
 71
     1
  0
GROUP
  5
252E3
102
{ACAD_REACTORS
330
D
102
}
330
D
100
AcDbGroup
300

 70
     1
 71
     1
  0
GROUP
  5
26091
102
{ACAD_REACTORS
330
D
102
}
330
D
100
AcDbGroup
300

 70
     1
 71
     1
  0
GROUP
  5
1F913
102
{ACAD_REACTORS
330
D
102
}
330
D
100
AcDbGroup
300

 70
     1
 71
     1
  0
GROUP
  5
19F55
102
{ACAD_REACTORS
330
D
102
}
330
D
100
AcDbGroup
300

 70
     1
 71
     1
  0
GROUP
  5
27CB1
102
{ACAD_REACTORS
330
D
102
}
330
D
100
AcDbGroup
300

 70
     1
 71
     1
  0
GROUP
  5
25584
102
{ACAD_REACTORS
330
D
102
}
330
D
100
AcDbGroup
300

 70
     1
 71
     1
  0
GROUP
  5
1D6F2
102
{ACAD_REACTORS
330
D
102
}
330
D
100
AcDbGroup
300

 70
     1
 71
     1
  0
GROUP
  5
27CB9
102
{ACAD_REACTORS
330
D
102
}
330
D
100
AcDbGroup
300

 70
     1
 71
     1
  0
GROUP
  5
1D68E
102
{ACAD_REACTORS
330
D
102
}
330
D
100
AcDbGroup
300

 70
     1
 71
     1
  0
GROUP
  5
20022
102
{ACAD_REACTORS
330
D
102
}
330
D
100
AcDbGroup
300

 70
     1
 71
     1
  0
GROUP
  5
25355
102
{ACAD_REACTORS
330
D
102
}
330
D
100
AcDbGroup
300

 70
     1
 71
     1
  0
GROUP
  5
1B729
102
{ACAD_REACTORS
330
D
102
}
330
D
100
AcDbGroup
300

 70
     1
 71
     1
  0
GROUP
  5
18F21
102
{ACAD_REACTORS
330
D
102
}
330
D
100
AcDbGroup
300

 70
     1
 71
     1
  0
GROUP
  5
16059
102
{ACAD_REACTORS
330
D
102
}
330
D
100
AcDbGroup
300

 70
     1
 71
     1
  0
GROUP
  5
26C53
102
{ACAD_REACTORS
330
D
102
}
330
D
100
AcDbGroup
300

 70
     1
 71
     1
  0
GROUP
  5
1EB7C
102
{ACAD_REACTORS
330
D
102
}
330
D
100
AcDbGroup
300

 70
     1
 71
     1
  0
GROUP
  5
1EB7E
102
{ACAD_REACTORS
330
D
102
}
330
D
100
AcDbGroup
300

 70
     1
 71
     1
  0
GROUP
  5
1F8FA
102
{ACAD_REACTORS
330
D
102
}
330
D
100
AcDbGroup
300

 70
     1
 71
     1
  0
GROUP
  5
19F87
102
{ACAD_REACTORS
330
D
102
}
330
D
100
AcDbGroup
300

 70
     1
 71
     1
  0
GROUP
  5
1EB7D
102
{ACAD_REACTORS
330
D
102
}
330
D
100
AcDbGroup
300

 70
     1
 71
     1
  0
GROUP
  5
27CBA
102
{ACAD_REACTORS
330
D
102
}
330
D
100
AcDbGroup
300

 70
     1
 71
     1
  0
GROUP
  5
27805
102
{ACAD_REACTORS
330
D
102
}
330
D
100
AcDbGroup
300

 70
     1
 71
     1
  0
GROUP
  5
18FA6
102
{ACAD_REACTORS
330
D
102
}
330
D
100
AcDbGroup
300

 70
     1
 71
     1
  0
GROUP
  5
2629B
102
{ACAD_REACTORS
330
D
102
}
330
D
100
AcDbGroup
300

 70
     1
 71
     1
  0
GROUP
  5
25585
102
{ACAD_REACTORS
330
D
102
}
330
D
100
AcDbGroup
300

 70
     1
 71
     1
  0
GROUP
  5
16068
102
{ACAD_REACTORS
330
D
102
}
330
D
100
AcDbGroup
300

 70
     1
 71
     1
  0
GROUP
  5
252E9
102
{ACAD_REACTORS
330
D
102
}
330
D
100
AcDbGroup
300

 70
     1
 71
     1
  0
GROUP
  5
25586
102
{ACAD_REACTORS
330
D
102
}
330
D
100
AcDbGroup
300

 70
     1
 71
     1
  0
GROUP
  5
25590
102
{ACAD_REACTORS
330
D
102
}
330
D
100
AcDbGroup
300

 70
     1
 71
     1
  0
GROUP
  5
1D710
102
{ACAD_REACTORS
330
D
102
}
330
D
100
AcDbGroup
300

 70
     1
 71
     1
  0
GROUP
  5
27CB2
102
{ACAD_REACTORS
330
D
102
}
330
D
100
AcDbGroup
300

 70
     1
 71
     1
  0
GROUP
  5
1D6B6
102
{ACAD_REACTORS
330
D
102
}
330
D
100
AcDbGroup
300

 70
     1
 71
     1
  0
GROUP
  5
1F8FF
102
{ACAD_REACTORS
330
D
102
}
330
D
100
AcDbGroup
300

 70
     1
 71
     1
  0
MLINESTYLE
  5
1C
102
{ACAD_REACTORS
330
1B
102
}
330
1B
100
AcDbMlineStyle
  2
STANDARD
 70
     0
  3

 62
   256
 51
90.0
 52
90.0
 71
     2
 49
0.5
 62
   256
  6
BYLAYER
 49
-0.5
 62
   256
  6
BYLAYER
  0
ACDBPLACEHOLDER
  5
FB5C
102
{ACAD_REACTORS
330
FB5B
102
}
330
FB5B
100
AcDbPlaceHolder
280
     0
  0
XRECORD
  5
28830
102
{ACAD_REACTORS
330
28826
102
}
330
28826
100
AcDbXrecord
 90
        0
  0
XRECORD
  5
28834
102
{ACAD_REACTORS
330
28826
102
}
330
28826
100
AcDbXrecord
1000
DSTYLE
1002
{
1070
   289
 70
     1
1070
   341
340
1215D
1070
   342
340
1215D
1070
   371
 70
    13
1070
   372
 70
    13
1002
}
  0
XRECORD
  5
28831
102
{ACAD_REACTORS
330
28826
102
}
330
28826
100
AcDbXrecord
  1
{D14EE3FF-941A-415A-9907-344E0A80D794}
  0
XRECORD
  5
28829
102
{ACAD_REACTORS
330
28826
102
}
330
28826
100
AcDbXrecord
  1

  0
XRECORD
  5
2882F
102
{ACAD_REACTORS
330
28826
102
}
330
28826
100
AcDbXrecord
 90
        0
  0
XRECORD
  5
2882B
102
{ACAD_REACTORS
330
28826
102
}
330
28826
100
AcDbXrecord
340
DB2
  0
XRECORD
  5
2882E
102
{ACAD_REACTORS
330
28826
102
}
330
28826
100
AcDbXrecord
 90
    10755
  0
XRECORD
  5
2882C
102
{ACAD_REACTORS
330
28826
102
}
330
28826
100
AcDbXrecord
340
DB3
  0
XRECORD
  5
2882D
102
{ACAD_REACTORS
330
28826
102
}
330
28826
100
AcDbXrecord
340
FB5B
  0
XRECORD
  5
28833
102
{ACAD_REACTORS
330
28826
102
}
330
28826
100
AcDbXrecord
 40
0.0
  0
XRECORD
  5
28837
102
{ACAD_REACTORS
330
28826
102
}
330
28826
100
AcDbXrecord
340
0
  0
XRECORD
  5
2883D
102
{ACAD_REACTORS
330
28826
102
}
330
28826
100
AcDbXrecord
 10
0.0
 20
0.0
 30
0.0
  0
XRECORD
  5
28839
102
{ACAD_REACTORS
330
28826
102
}
330
28826
100
AcDbXrecord
 10
0.0
 20
0.0
 30
0.0
  0
XRECORD
  5
2883C
102
{ACAD_REACTORS
330
28826
102
}
330
28826
100
AcDbXrecord
 10
0.0
 20
0.0
 30
0.0
  0
XRECORD
  5
2883A
102
{ACAD_REACTORS
330
28826
102
}
330
28826
100
AcDbXrecord
 10
0.0
 20
0.0
 30
0.0
  0
XRECORD
  5
2883B
102
{ACAD_REACTORS
330
28826
102
}
330
28826
100
AcDbXrecord
 10
0.0
 20
0.0
 30
0.0
  0
XRECORD
  5
28838
102
{ACAD_REACTORS
330
28826
102
}
330
28826
100
AcDbXrecord
 10
0.0
 20
0.0
 30
0.0
  0
XRECORD
  5
28835
102
{ACAD_REACTORS
330
28826
102
}
330
28826
100
AcDbXrecord
340
0
  0
XRECORD
  5
28836
102
{ACAD_REACTORS
330
28826
102
}
330
28826
100
AcDbXrecord
 70
     0
  0
XRECORD
  5
2882A
102
{ACAD_REACTORS
330
28826
102
}
330
28826
100
AcDbXrecord
  1
MONOCHROME.CTB
  0
XRECORD
  5
28827
102
{ACAD_REACTORS
330
28826
102
}
330
28826
100
AcDbXrecord
 90
        1
  0
XRECORD
  5
28828
102
{ACAD_REACTORS
330
28826
102
}
330
28826
100
AcDbXrecord
 90
       70
  0
XRECORD
  5
28840
102
{ACAD_REACTORS
330
28826
102
}
330
28826
100
AcDbXrecord
340
0
  0
XRECORD
  5
28846
102
{ACAD_REACTORS
330
28826
102
}
330
28826
100
AcDbXrecord
 10
0.0
 20
0.0
 30
0.0
  0
XRECORD
  5
28842
102
{ACAD_REACTORS
330
28826
102
}
330
28826
100
AcDbXrecord
 10
0.0
 20
0.0
 30
0.0
  0
XRECORD
  5
28845
102
{ACAD_REACTORS
330
28826
102
}
330
28826
100
AcDbXrecord
 10
0.0
 20
0.0
 30
0.0
  0
XRECORD
  5
28843
102
{ACAD_REACTORS
330
28826
102
}
330
28826
100
AcDbXrecord
 10
0.0
 20
0.0
 30
0.0
  0
XRECORD
  5
28844
102
{ACAD_REACTORS
330
28826
102
}
330
28826
100
AcDbXrecord
 10
0.0
 20
0.0
 30
0.0
  0
XRECORD
  5
28841
102
{ACAD_REACTORS
330
28826
102
}
330
28826
100
AcDbXrecord
 10
0.0
 20
0.0
 30
0.0
  0
XRECORD
  5
2883E
102
{ACAD_REACTORS
330
28826
102
}
330
28826
100
AcDbXrecord
340
0
  0
XRECORD
  5
2883F
102
{ACAD_REACTORS
330
28826
102
}
330
28826
100
AcDbXrecord
 70
     0
  0
XRECORD
  5
28832
102
{ACAD_REACTORS
330
28826
102
}
330
28826
100
AcDbXrecord
  1
{25E78D54-8B3E-4DE1-B6AD-3A65F4C3268E}
  0
DICTIONARYVAR
  5
106A7
102
{ACAD_REACTORS
330
106A6
102
}
330
106A6
100
DictionaryVariables
280
     0
  1
96
  0
XRECORD
  5
1A9A1
102
{ACAD_REACTORS
330
1A99F
102
}
330
1A99F
100
AcDbXrecord
330
187D7
330
0
330
0
330
0
330
0
330
0
330
0
330
0
330
0
330
0
330
79
330
115F
330
0
330
0
330
0
330
0
330
0
330
0
330
0
330
0
330
0
330
0
330
0
330
0
330
0
330
0
330
0
330
0
330
0
330
0
330
0
330
0
330
0
330
0
330
0
330
0
330
0
330
0
330
0
330
0
330
0
330
0
330
0
330
0
  0
XRECORD
  5
2866B
102
{ACAD_REACTORS
330
2866A
102
}
330
2866A
100
AcDbXrecord
  1
0
  1
*0
  1
*
  1
*
 70
     0
  1
*
  1
*
  0
XRECORD
  5
2866C
102
{ACAD_REACTORS
330
2866A
102
}
330
2866A
100
AcDbXrecord
  1
11
  1
*11
  1
*
  1
*
 70
     0
  1
*
  1
*
  0
XRECORD
  5
2866D
102
{ACAD_REACTORS
330
2866A
102
}
330
2866A
100
AcDbXrecord
  1
150_
  1
150_*
  1
*
  1
*
 70
     0
  1
*
  1
*
  0
XRECORD
  5
2866E
102
{ACAD_REACTORS
330
2866A
102
}
330
2866A
100
AcDbXrecord
  1
160_
  1
160_*
  1
*
  1
*
 70
     0
  1
*
  1
*
  0
XRECORD
  5
2866F
102
{ACAD_REACTORS
330
2866A
102
}
330
2866A
100
AcDbXrecord
  1
170_
  1
170_*
  1
*
  1
*
 70
     0
  1
*
  1
*
  0
XRECORD
  5
28670
102
{ACAD_REACTORS
330
2866A
102
}
330
2866A
100
AcDbXrecord
  1
171_
  1
171_*
  1
*
  1
*
 70
     0
  1
*
  1
*
  0
XRECORD
  5
28671
102
{ACAD_REACTORS
330
2866A
102
}
330
2866A
100
AcDbXrecord
  1
350_
  1
350_*
  1
*
  1
*
 70
     0
  1
*
  1
*
  0
XRECORD
  5
28672
102
{ACAD_REACTORS
330
2866A
102
}
330
2866A
100
AcDbXrecord
  1
4
  1
*4
  1
*
  1
*
 70
     0
  1
*
  1
*
  0
XRECORD
  5
28673
102
{ACAD_REACTORS
330
2866A
102
}
330
2866A
100
AcDbXrecord
  1
5
  1
*5
  1
*
  1
*
 70
     0
  1
*
  1
*
  0
XRECORD
  5
28674
102
{ACAD_REACTORS
330
2866A
102
}
330
2866A
100
AcDbXrecord
  1
7
  1
*7
  1
*
  1
*
 70
     0
  1
*
  1
*
  0
XRECORD
  5
28675
102
{ACAD_REACTORS
330
2866A
102
}
330
2866A
100
AcDbXrecord
  1
kiseki
  1
kiseki*
  1
*
  1
*
 70
     0
  1
*
  1
*
  0
ENDSEC
  0
EOF
