  0
SECTION
  2
HEADER
  9
$ACADVER
  1
AC1014
  9
$ACADMAINTVER
 70
     9
  9
$DWGCODEPAGE
  3
ANSI_932
  9
$INSBASE
 10
0.0
 20
0.0
 30
0.0
  9
$EXTMIN
 10
3930.390999098045
 20
-969.8428683892744
 30
0.0
  9
$EXTMAX
 10
4860.390468914721
 20
-689.0361647812442
 30
0.0
  9
$LIMMIN
 10
0.0
 20
0.0
  9
$LIMMAX
 10
420.0
 20
297.0
  9
$ORTHOMODE
 70
     0
  9
$REGENMODE
 70
     1
  9
$FILLMODE
 70
     1
  9
$QTEXTMODE
 70
     0
  9
$MIRRTEXT
 70
     0
  9
$DRAGMODE
 70
     2
  9
$LTSCALE
 40
20.0
  9
$OSMODE
 70
   959
  9
$ATTMODE
 70
     2
  9
$TEXTSIZE
 40
10.0
  9
$TRACEWID
 40
1.0
  9
$TEXTSTYLE
  7
ｽﾀｲﾙ3
  9
$CLAYER
  8
DIMENSION
  9
$CELTYPE
  6
BYLAYER
  9
$CECOLOR
 62
   256
  9
$CELTSCALE
 40
1.0
  9
$DELOBJ
 70
     1
  9
$DISPSILH
 70
     0
  9
$DIMSCALE
 40
2.5
  9
$DIMASZ
 40
2.5
  9
$DIMEXO
 40
0.8
  9
$DIMDLI
 40
0.38
  9
$DIMRND
 40
0.0
  9
$DIMDLE
 40
0.0
  9
$DIMEXE
 40
0.18
  9
$DIMTP
 40
0.0
  9
$DIMTM
 40
0.0
  9
$DIMTXT
 40
3.0
  9
$DIMCEN
 40
0.0
  9
$DIMTSZ
 40
0.0
  9
$DIMTOL
 70
     0
  9
$DIMLIM
 70
     0
  9
$DIMTIH
 70
     0
  9
$DIMTOH
 70
     0
  9
$DIMSE1
 70
     0
  9
$DIMSE2
 70
     0
  9
$DIMTAD
 70
     3
  9
$DIMZIN
 70
     8
  9
$DIMBLK
  1
OPEN30
  9
$DIMASO
 70
     1
  9
$DIMSHO
 70
     1
  9
$DIMPOST
  1

  9
$DIMAPOST
  1

  9
$DIMALT
 70
     0
  9
$DIMALTD
 70
     2
  9
$DIMALTF
 40
25.4
  9
$DIMLFAC
 40
1.0
  9
$DIMTOFL
 70
     0
  9
$DIMTVP
 40
0.0
  9
$DIMTIX
 70
     0
  9
$DIMSOXD
 70
     0
  9
$DIMSAH
 70
     0
  9
$DIMBLK1
  1

  9
$DIMBLK2
  1

  9
$DIMSTYLE
  2
まこ
  9
$DIMCLRD
 70
     4
  9
$DIMCLRE
 70
     4
  9
$DIMCLRT
 70
   256
  9
$DIMTFAC
 40
1.0
  9
$DIMGAP
 40
0.5
  9
$DIMJUST
 70
     0
  9
$DIMSD1
 70
     0
  9
$DIMSD2
 70
     0
  9
$DIMTOLJ
 70
     1
  9
$DIMTZIN
 70
     0
  9
$DIMALTZ
 70
     0
  9
$DIMALTTZ
 70
     0
  9
$DIMFIT
 70
     1
  9
$DIMUPT
 70
     0
  9
$DIMUNIT
 70
     2
  9
$DIMDEC
 70
     8
  9
$DIMTDEC
 70
     8
  9
$DIMALTU
 70
     2
  9
$DIMALTTD
 70
     2
  9
$DIMTXSTY
  7
まこ
  9
$DIMAUNIT
 70
     0
  9
$LUNITS
 70
     2
  9
$LUPREC
 70
     4
  9
$SKETCHINC
 40
1.0
  9
$FILLETRAD
 40
2.0
  9
$AUNITS
 70
     0
  9
$AUPREC
 70
     0
  9
$MENU
  1
.
  9
$ELEVATION
 40
0.0
  9
$PELEVATION
 40
0.0
  9
$THICKNESS
 40
0.0
  9
$LIMCHECK
 70
     0
  9
$BLIPMODE
 70
     0
  9
$CHAMFERA
 40
0.5
  9
$CHAMFERB
 40
0.5
  9
$CHAMFERC
 40
20.0
  9
$CHAMFERD
 40
0.0
  9
$SKPOLY
 70
     0
  9
$TDCREATE
 40
2451224.660162384
  9
$TDUPDATE
 40
2455601.367613565
  9
$TDINDWG
 40
16.1134308333
  9
$TDUSRTIMER
 40
16.1134306481
  9
$USRTIMER
 70
     1
  9
$ANGBASE
 50
0.0
  9
$ANGDIR
 70
     0
  9
$PDMODE
 70
     0
  9
$PDSIZE
 40
0.0
  9
$PLINEWID
 40
0.0
  9
$COORDS
 70
     1
  9
$SPLFRAME
 70
     0
  9
$SPLINETYPE
 70
     6
  9
$SPLINESEGS
 70
     8
  9
$ATTDIA
 70
     0
  9
$ATTREQ
 70
     1
  9
$HANDLING
 70
-16383
  9
$HANDSEED
  5
28518
  9
$SURFTAB1
 70
     6
  9
$SURFTAB2
 70
     6
  9
$SURFTYPE
 70
     6
  9
$SURFU
 70
     6
  9
$SURFV
 70
     6
  9
$UCSNAME
  2

  9
$UCSORG
 10
0.0
 20
0.0
 30
0.0
  9
$UCSXDIR
 10
1.0
 20
0.0
 30
0.0
  9
$UCSYDIR
 10
0.0
 20
1.0
 30
0.0
  9
$PUCSNAME
  2

  9
$PUCSORG
 10
0.0
 20
0.0
 30
0.0
  9
$PUCSXDIR
 10
1.0
 20
0.0
 30
0.0
  9
$PUCSYDIR
 10
0.0
 20
1.0
 30
0.0
  9
$USERI1
 70
     0
  9
$USERI2
 70
     0
  9
$USERI3
 70
     0
  9
$USERI4
 70
     0
  9
$USERI5
 70
     0
  9
$USERR1
 40
245.9999999999999
  9
$USERR2
 40
0.0
  9
$USERR3
 40
0.0
  9
$USERR4
 40
0.0
  9
$USERR5
 40
0.0
  9
$WORLDVIEW
 70
     1
  9
$SHADEDGE
 70
     3
  9
$SHADEDIF
 70
    70
  9
$TILEMODE
 70
     0
  9
$MAXACTVP
 70
    48
  9
$PINSBASE
 10
0.0
 20
0.0
 30
0.0
  9
$PLIMCHECK
 70
     0
  9
$PEXTMIN
 10
-0.0290987147764099
 20
-0.0211368784262049
 30
-0.0015258207003583
  9
$PEXTMAX
 10
400.02513359247
 20
288.0166855387858
 30
0.0000000349246037
  9
$PLIMMIN
 10
-5.129013145245443
 20
-1.898424691082328
  9
$PLIMMAX
 10
411.0950568614438
 20
292.4314533850767
  9
$UNITMODE
 70
     0
  9
$VISRETAIN
 70
     1
  9
$PLINEGEN
 70
     0
  9
$PSLTSCALE
 70
     0
  9
$TREEDEPTH
 70
  3020
  9
$PICKSTYLE
 70
     0
  9
$CMLSTYLE
  2
STANDARD
  9
$CMLJUST
 70
     0
  9
$CMLSCALE
 40
20.0
  9
$PROXYGRAPHICS
 70
     1
  9
$MEASUREMENT
 70
     0
  0
ENDSEC
  0
SECTION
  2
CLASSES
  0
CLASS
  1
HATCH
  2
AcDbHatch
  3
AutoCAD 2000
 90
        0
280
     0
281
     1
  0
CLASS
  1
LWPOLYLINE
  2
AcDbPolyline
  3
AutoCAD 2000
 90
        0
280
     0
281
     1
  0
CLASS
  1
ACDBDICTIONARYWDFLT
  2
AcDbDictionaryWithDefault
  3
AutoCAD 2000
 90
        0
280
     0
281
     0
  0
CLASS
  1
ACDBPLACEHOLDER
  2
AcDbPlaceHolder
  3
AutoCAD 2000
 90
        0
280
     0
281
     0
  0
CLASS
  1
LAYOUT
  2
AcDbLayout
  3
AutoCAD 2000
 90
        0
280
     0
281
     0
  0
CLASS
  1
LONG_TRANSACTION
  2
AcDbLongTransaction
  3
AutoCAD 2000
 90
        0
280
     0
281
     0
  0
CLASS
  1
LWPOLYLINE
  2
AcDbPolyline
  3
AutoCAD 2000
 90
        0
280
     0
281
     1
  0
CLASS
  1
HATCH
  2
AcDbHatch
  3
AutoCAD 2000
 90
        0
280
     0
281
     1
  0
CLASS
  1
XRECORD
  2
AcDbXrecord
  3
AutoCAD 2000
 90
        0
280
     0
281
     0
  0
CLASS
  1
DICTIONARYVAR
  2
AcDbDictionaryVar
  3
AutoCAD 2000
 90
        0
280
     0
281
     0
  0
CLASS
  1
LONG_TRANSACTION
  2
AcDbLongTransaction
  3
AutoCAD 2000
 90
        0
280
     0
281
     0
  0
CLASS
  1
LWPOLYLINE
  2
AcDbPolyline
  3
AutoCAD 2000
 90
        0
280
     0
281
     1
  0
CLASS
  1
HATCH
  2
AcDbHatch
  3
AutoCAD 2000
 90
        0
280
     0
281
     1
  0
CLASS
  1
XRECORD
  2
AcDbXrecord
  3
AutoCAD 2000
 90
        0
280
     0
281
     0
  0
ENDSEC
  0
SECTION
  2
TABLES
  0
TABLE
  2
VPORT
  5
8
330
0
100
AcDbSymbolTable
 70
     2
  0
VPORT
  5
284F4
330
8
100
AcDbSymbolTableRecord
100
AcDbViewportTableRecord
  2
*ACTIVE
 70
     0
 10
0.0
 20
0.0
 11
1.0
 21
1.0
 12
4395.446782384064
 22
-829.4455309136665
 13
0.0
 23
0.0
 14
10.0
 24
10.0
 15
10.0
 25
10.0
 16
0.0
 26
0.0
 36
1.0
 17
0.0
 27
0.0
 37
0.0
 40
427.1685526350534
 41
2.184834123222748
 42
50.0
 43
0.0
 44
0.0
 50
0.0
 51
0.0
 71
     0
 72
   100
 73
     1
 74
     0
 75
     0
 76
     0
 77
     0
 78
     0
  0
ENDTAB
  0
TABLE
  2
LTYPE
  5
5
330
0
100
AcDbSymbolTable
 70
     4
  0
LTYPE
  5
12
330
5
100
AcDbSymbolTableRecord
100
AcDbLinetypeTableRecord
  2
BYBLOCK
 70
     0
  3

 72
    65
 73
     0
 40
0.0
  0
LTYPE
  5
13
330
5
100
AcDbSymbolTableRecord
100
AcDbLinetypeTableRecord
  2
BYLAYER
 70
     0
  3

 72
    65
 73
     0
 40
0.0
  0
LTYPE
  5
14
330
5
100
AcDbSymbolTableRecord
100
AcDbLinetypeTableRecord
  2
CONTINUOUS
 70
     0
  3
Solid line
 72
    65
 73
     0
 40
0.0
  0
LTYPE
  5
126C
330
5
100
AcDbSymbolTableRecord
100
AcDbLinetypeTableRecord
  2
CENTER
 70
     0
  3
____ _ ____ _ ____ _ ____ _ ____ _ ____ _ ____
 72
    65
 73
     4
 40
2.0
 49
1.25
 74
     0
 49
-0.25
 74
     0
 49
0.25
 74
     0
 49
-0.25
 74
     0
  0
LTYPE
  5
1541F
330
5
100
AcDbSymbolTableRecord
100
AcDbLinetypeTableRecord
  2
HIDDEN
 70
     0
  3
_ _ _ _ _ _ _ _ _ _ _ _ _ _ _ _ _ _ _ _ _ _ _
 72
    65
 73
     2
 40
0.375
 49
0.25
 74
     0
 49
-0.125
 74
     0
  0
LTYPE
  5
1615D
330
5
100
AcDbSymbolTableRecord
100
AcDbLinetypeTableRecord
  2
PHANTOM
 70
     0
  3
Phantom ______  __  __  ______  __  __  ______
 72
    65
 73
     6
 40
2.5
 49
1.25
 74
     0
 49
-0.25
 74
     0
 49
0.25
 74
     0
 49
-0.25
 74
     0
 49
0.25
 74
     0
 49
-0.25
 74
     0
  0
ENDTAB
  0
TABLE
  2
LAYER
  5
2
102
{ACAD_XDICTIONARY
360
283CC
102
}
330
0
100
AcDbSymbolTable
 70
    11
  0
LAYER
  5
E
330
2
100
AcDbSymbolTableRecord
100
AcDbLayerTableRecord
  2
0
 70
     2
 62
     7
  6
CONTINUOUS
  0
LAYER
  5
2C
330
2
100
AcDbSymbolTableRecord
100
AcDbLayerTableRecord
  2
M_VIEW
 70
     4
 62
    -1
  6
CONTINUOUS
  0
LAYER
  5
30
330
2
100
AcDbSymbolTableRecord
100
AcDbLayerTableRecord
  2
FRAME025
 70
     0
 62
     7
  6
CONTINUOUS
  0
LAYER
  5
12B
330
2
100
AcDbSymbolTableRecord
100
AcDbLayerTableRecord
  2
DEFPOINTS
 70
     4
 62
    -7
  6
CONTINUOUS
  0
LAYER
  5
651
330
2
100
AcDbSymbolTableRecord
100
AcDbLayerTableRecord
  2
FRAME020
 70
     0
 62
     7
  6
CONTINUOUS
  0
LAYER
  5
A9BB
330
2
100
AcDbSymbolTableRecord
100
AcDbLayerTableRecord
  2
文字
 70
     0
 62
     7
  6
CONTINUOUS
  0
LAYER
  5
122DE
330
2
100
AcDbSymbolTableRecord
100
AcDbLayerTableRecord
  2
DIMENSION
 70
     0
 62
     7
  6
CONTINUOUS
  0
LAYER
  5
15422
330
2
100
AcDbSymbolTableRecord
100
AcDbLayerTableRecord
  2
細線
 70
     0
 62
     7
  6
CONTINUOUS
  0
LAYER
  5
1A846
330
2
100
AcDbSymbolTableRecord
100
AcDbLayerTableRecord
  2
実線
 70
     0
 62
     7
  6
CONTINUOUS
  0
LAYER
  5
1BB4F
330
2
100
AcDbSymbolTableRecord
100
AcDbLayerTableRecord
  2
隠れ線
 70
     0
 62
     7
  6
HIDDEN
  0
LAYER
  5
1BB52
330
2
100
AcDbSymbolTableRecord
100
AcDbLayerTableRecord
  2
基板
 70
     0
 62
     7
  6
CONTINUOUS
  0
ENDTAB
  0
TABLE
  2
STYLE
  5
3
330
0
100
AcDbSymbolTable
 70
     7
  0
STYLE
  5
F
330
3
100
AcDbSymbolTableRecord
100
AcDbTextStyleTableRecord
  2
STANDARD
 70
     0
 40
0.0
 41
1.0
 50
0.0
 71
     0
 42
2.5
  3
isocp.shx
  4
bigfont.shx
  0
STYLE
  5
35
330
3
100
AcDbSymbolTableRecord
100
AcDbTextStyleTableRecord
  2
MSｺ_ｼｯｸ
 70
     0
 40
0.0
 41
1.0
 50
0.0
 71
     0
 42
5.0
  3
MS Gothic.ttf
  4

1001
ACAD
1000
MS Gothic
1071
    32817
  0
STYLE
  5
1A849
330
3
100
AcDbSymbolTableRecord
100
AcDbTextStyleTableRecord
  2
まこ
 70
     0
 40
0.0
 41
1.0
 50
0.0
 71
     0
 42
2.5
  3
simplex.shx
  4
bigfont.shx
  0
STYLE
  5
1A84A
330
3
100
AcDbSymbolTableRecord
100
AcDbTextStyleTableRecord
  2
ｽﾀｲﾙ3
 70
     0
 40
10.0
 41
1.0
 50
0.0
 71
     0
 42
10.0
  3
isocp.shx
  4
extfont.shx
  0
ENDTAB
  0
TABLE
  2
VIEW
  5
6
330
0
100
AcDbSymbolTable
 70
     0
  0
ENDTAB
  0
TABLE
  2
UCS
  5
7
330
0
100
AcDbSymbolTable
 70
     0
  0
ENDTAB
  0
TABLE
  2
APPID
  5
9
330
0
100
AcDbSymbolTable
 70
     4
  0
APPID
  5
10
330
9
100
AcDbSymbolTableRecord
100
AcDbRegAppTableRecord
  2
ACAD
 70
     0
  0
APPID
  5
F013
330
9
100
AcDbSymbolTableRecord
100
AcDbRegAppTableRecord
  2
CONTENTBLOCKDESCRIPTION
 70
     0
  0
APPID
  5
F014
330
9
100
AcDbSymbolTableRecord
100
AcDbRegAppTableRecord
  2
CONTENTBLOCKICON
 70
     0
  0
APPID
  5
1A9A0
330
9
100
AcDbSymbolTableRecord
100
AcDbRegAppTableRecord
  2
DCO15
 70
     0
  0
ENDTAB
  0
TABLE
  2
DIMSTYLE
  5
A
330
0
100
AcDbSymbolTable
 70
     2
  0
DIMSTYLE
105
1D
330
A
100
AcDbSymbolTableRecord
100
AcDbDimStyleTableRecord
  2
STANDARD
 70
     0
  3

  4

  5

  6

  7

 40
1.0
 41
0.18
 42
0.0625
 43
0.38
 44
0.18
 45
0.0
 46
0.0
 47
0.0
 48
0.0
140
0.18
141
0.09
142
0.0
143
25.4
144
1.0
145
0.0
146
1.0
147
0.09
 71
     0
 72
     0
 73
     1
 74
     1
 75
     0
 76
     0
 77
     0
 78
     0
170
     0
171
     2
172
     0
173
     0
174
     0
175
     0
176
     0
177
     0
178
     0
270
     2
271
     4
272
     4
273
     2
274
     2
340
F
275
     0
280
     0
281
     0
282
     0
283
     1
284
     0
285
     0
286
     0
287
     3
288
     0
  0
DIMSTYLE
105
1A84D
102
{ACAD_REACTORS
330
27933
330
27934
330
27A51
330
27A61
330
27AE7
330
28011
102
}
330
A
100
AcDbSymbolTableRecord
100
AcDbDimStyleTableRecord
  2
まこ
 70
     0
  3

  4

  5
OPEN30
  6

  7

 40
2.5
 41
2.5
 42
0.8
 43
0.38
 44
0.18
 45
0.0
 46
0.0
 47
0.0
 48
0.0
140
3.0
141
0.0
142
0.0
143
25.4
144
1.0
145
0.0
146
1.0
147
0.5
 71
     0
 72
     0
 73
     0
 74
     0
 75
     0
 76
     0
 77
     3
 78
     8
170
     0
171
     2
172
     0
173
     0
174
     0
175
     0
176
     4
177
     4
178
   256
270
     2
271
     8
272
     8
273
     2
274
     2
340
1A849
275
     0
280
     0
281
     0
282
     0
283
     1
284
     0
285
     0
286
     0
287
     1
288
     0
  0
ENDTAB
  0
TABLE
  2
BLOCK_RECORD
  5
1
330
0
100
AcDbSymbolTable
 70
    24
  0
BLOCK_RECORD
  5
18
102
{ACAD_XDICTIONARY
360
EFC6
102
}
330
1
100
AcDbSymbolTableRecord
100
AcDbBlockTableRecord
  2
*MODEL_SPACE
  0
BLOCK_RECORD
  5
15
102
{ACAD_XDICTIONARY
360
EFC4
102
}
330
1
100
AcDbSymbolTableRecord
100
AcDbBlockTableRecord
  2
*PAPER_SPACE
  0
BLOCK_RECORD
  5
115C
330
1
100
AcDbSymbolTableRecord
100
AcDbBlockTableRecord
  2
機械A4横_LBP
  0
BLOCK_RECORD
  5
1215D
330
1
100
AcDbSymbolTableRecord
100
AcDbBlockTableRecord
  2
_OPEN30
  0
ENDTAB
  0
ENDSEC
  0
SECTION
  2
BLOCKS
  0
BLOCK
  5
19
330
18
100
AcDbEntity
  8
0
100
AcDbBlockBegin
  2
*MODEL_SPACE
 70
     0
 10
0.0
 20
0.0
 30
0.0
  3
*MODEL_SPACE
  1

  0
ENDBLK
  5
1A
330
18
100
AcDbEntity
  8
0
100
AcDbBlockEnd
  0
BLOCK
  5
16
330
15
100
AcDbEntity
 67
     1
  8
0
100
AcDbBlockBegin
  2
*PAPER_SPACE
 70
     0
 10
0.0
 20
0.0
 30
0.0
  3
*PAPER_SPACE
  1

  0
ENDBLK
  5
17
330
15
100
AcDbEntity
 67
     1
  8
0
100
AcDbBlockEnd
  0
BLOCK
  5
115D
330
115C
100
AcDbEntity
  8
0
100
AcDbBlockBegin
  2
機械A4横_LBP
 70
     0
 10
0.0
 20
0.0
 30
0.0
  3
機械A4横_LBP
  1

  0
ENDBLK
  5
115E
330
115C
100
AcDbEntity
  8
0
100
AcDbBlockEnd
  0
BLOCK
  5
12161
330
1215D
100
AcDbEntity
  8
0
100
AcDbBlockBegin
  2
_OPEN30
 70
     0
 10
0.0
 20
0.0
 30
0.0
  3
_OPEN30
  1

  0
LINE
  5
1215E
330
1215D
100
AcDbEntity
  8
0
  6
BYBLOCK
 62
     0
100
AcDbLine
 10
-1.0
 20
0.26794919
 30
0.0
 11
0.0
 21
0.0
 31
0.0
  0
LINE
  5
1215F
330
1215D
100
AcDbEntity
  8
0
  6
BYBLOCK
 62
     0
100
AcDbLine
 10
0.0
 20
0.0
 30
0.0
 11
-1.0
 21
-0.26794919
 31
0.0
  0
LINE
  5
12160
330
1215D
100
AcDbEntity
  8
0
  6
BYBLOCK
 62
     0
100
AcDbLine
 10
0.0
 20
0.0
 30
0.0
 11
-1.0
 21
0.0
 31
0.0
  0
ENDBLK
  5
12162
330
1215D
100
AcDbEntity
  8
0
100
AcDbBlockEnd
  0
ENDSEC
  0
SECTION
  2
ENTITIES
  0
LWPOLYLINE
  5
27926
330
18
100
AcDbEntity
  8
0
100
AcDbPolyline
 90
        4
 70
     0
 43
0.0
 10
4638.272894955499
 20
-815.00369689631
 10
4598.92415961946
 20
-815.00369689631
 10
4598.92415961946
 20
-807.5262791474584
 10
4640.606739444321
 20
-807.5262791474584
  0
LINE
  5
27928
330
18
100
AcDbEntity
  8
0
  6
CENTER
 48
0.75
100
AcDbLine
 10
4590.657781947987
 20
-811.2649880218841
 30
0.0
 11
4658.819691791466
 21
-811.2649880218841
 31
0.0
  0
LINE
  5
2792E
330
18
100
AcDbEntity
  8
0
  6
PHANTOM
 48
0.75
100
AcDbLine
 10
3960.710077611524
 20
-803.9385419703453
 30
0.0
 11
3960.710077611524
 21
-703.9620871479951
 31
0.0
  0
LINE
  5
27935
330
18
100
AcDbEntity
  8
0
  6
CENTER
 48
0.75
100
AcDbLine
 10
4018.887024966383
 20
-754.0384981060907
 30
0.0
 11
3930.390999098045
 21
-754.0384981060907
 31
0.0
  0
LINE
  5
27937
330
18
100
AcDbEntity
  8
0
100
AcDbLine
 10
3978.910077611524
 20
-771.0384981060907
 30
0.0
 11
3978.910077611524
 21
-737.0384981060907
 31
0.0
  0
LINE
  5
27938
330
18
100
AcDbEntity
  8
0
100
AcDbLine
 10
3971.910077611524
 20
-736.5384981060907
 30
0.0
 11
3971.910077611524
 21
-771.5384981060907
 31
0.0
  0
LINE
  5
27939
330
18
100
AcDbEntity
  8
0
100
AcDbLine
 10
3966.910077611522
 20
-737.0384981060907
 30
0.0
 11
3966.910077611522
 21
-771.0384981060907
 31
0.0
  0
LINE
  5
2793A
330
18
100
AcDbEntity
  8
0
100
AcDbLine
 10
3978.910077611524
 20
-771.0384981060907
 30
0.0
 11
3978.910077611524
 21
-737.0384981060907
 31
0.0
  0
LINE
  5
2793B
330
18
100
AcDbEntity
  8
0
100
AcDbLine
 10
3966.910077611522
 20
-737.0384981060907
 30
0.0
 11
3966.910077611522
 21
-771.0384981060907
 31
0.0
  0
LINE
  5
2793C
330
18
100
AcDbEntity
  8
0
100
AcDbLine
 10
3971.910077611524
 20
-736.5384981060907
 30
0.0
 11
3971.910077611524
 21
-771.5384981060907
 31
0.0
  0
ARC
  5
27941
330
18
100
AcDbEntity
  8
0
100
AcDbCircle
 10
3977.410077611524
 20
-782.5384981060907
 30
0.0
 40
0.5
100
AcDbArc
 50
0.0
 51
90.0
  0
LINE
  5
27943
330
18
100
AcDbEntity
  8
0
100
AcDbLine
 10
3973.910077611525
 20
-782.0384981060907
 30
0.0
 11
3973.910077611525
 21
-797.0384981060907
 31
0.0
  0
LINE
  5
27945
330
18
100
AcDbEntity
  8
0
100
AcDbLine
 10
3977.910077611523
 20
-796.5384981060907
 30
0.0
 11
3977.910077611523
 21
-782.5384981060907
 31
0.0
  0
ARC
  5
27946
330
18
100
AcDbEntity
  8
0
100
AcDbCircle
 10
3977.410077611524
 20
-796.5384981060907
 30
0.0
 40
0.5
100
AcDbArc
 50
270.0
 51
0.0
  0
ARC
  5
27947
330
18
100
AcDbEntity
  8
0
100
AcDbCircle
 10
3978.410077611524
 20
-771.0384981060907
 30
0.0
 40
0.5
100
AcDbArc
 50
270.0
 51
0.0
  0
ARC
  5
27948
330
18
100
AcDbEntity
  8
0
100
AcDbCircle
 10
3978.410077611524
 20
-771.0384981060907
 30
0.0
 40
0.5
100
AcDbArc
 50
270.0
 51
0.0
  0
LINE
  5
27949
330
18
100
AcDbEntity
  8
0
  6
PHANTOM
 48
0.75
100
AcDbLine
 10
3955.710127368491
 20
-803.9385419703453
 30
0.0
 11
3960.710077611524
 21
-803.9385419703453
 31
0.0
  0
LINE
  5
2794D
330
18
100
AcDbEntity
  8
隠れ線
  6
HIDDEN
 48
0.75
100
AcDbLine
 10
3948.910127368491
 20
-816.9376981060905
 30
0.0
 11
3955.710127368491
 21
-816.9376981060905
 31
0.0
  0
LINE
  5
2794F
330
18
100
AcDbEntity
  8
0
  6
CENTER
 48
0.75
100
AcDbLine
 10
3938.032896500381
 20
-811.4376981060905
 30
0.0
 11
3964.993201969456
 21
-811.4376981060905
 31
0.0
  0
ARC
  5
27950
330
18
100
AcDbEntity
  8
0
100
AcDbCircle
 10
3968.410077611522
 20
-796.5384981060907
 30
0.0
 40
0.5
100
AcDbArc
 50
180.0
 51
270.0
  0
ARC
  5
27951
330
18
100
AcDbEntity
  8
0
100
AcDbCircle
 10
3968.410077611525
 20
-782.5384981060907
 30
0.0
 40
0.5
100
AcDbArc
 50
90.0
 51
180.0
  0
LINE
  5
27952
330
18
100
AcDbEntity
  8
0
100
AcDbLine
 10
3967.910077611525
 20
-782.5384981060907
 30
0.0
 11
3967.910077611524
 21
-796.5384981060907
 31
0.0
  0
ARC
  5
27954
330
18
100
AcDbEntity
  8
0
100
AcDbCircle
 10
3967.410077611523
 20
-771.0384981060907
 30
0.0
 40
0.5
100
AcDbArc
 50
180.0
 51
270.0
  0
ARC
  5
27955
330
18
100
AcDbEntity
  8
0
100
AcDbCircle
 10
3967.410077611523
 20
-771.0384981060907
 30
0.0
 40
0.5
100
AcDbArc
 50
180.0
 51
270.0
  0
LINE
  5
2795B
330
18
100
AcDbEntity
  8
0
100
AcDbLine
 10
3968.410077611522
 20
-797.0384981060907
 30
0.0
 11
3977.410077611524
 21
-797.0384981060907
 31
0.0
  0
LINE
  5
2795D
330
18
100
AcDbEntity
  8
0
100
AcDbLine
 10
3977.410077611524
 20
-782.0384981060907
 30
0.0
 11
3968.410077611525
 21
-782.0384981060907
 31
0.0
  0
LINE
  5
2795E
330
18
100
AcDbEntity
  8
0
100
AcDbLine
 10
3967.410077611523
 20
-771.5384981060907
 30
0.0
 11
3978.410077611524
 21
-771.5384981060907
 31
0.0
  0
LINE
  5
2795F
330
18
100
AcDbEntity
  8
0
100
AcDbLine
 10
3967.410077611523
 20
-771.5384981060907
 30
0.0
 11
3978.410077611524
 21
-771.5384981060907
 31
0.0
  0
ARC
  5
27967
330
18
100
AcDbEntity
  8
0
100
AcDbCircle
 10
3978.410077611524
 20
-737.0384981060907
 30
0.0
 40
0.5
100
AcDbArc
 50
0.0
 51
90.0
  0
ARC
  5
27968
330
18
100
AcDbEntity
  8
0
100
AcDbCircle
 10
3978.410077611524
 20
-737.0384981060907
 30
0.0
 40
0.5
100
AcDbArc
 50
0.0
 51
90.0
  0
ARC
  5
27977
330
18
100
AcDbEntity
  8
0
100
AcDbCircle
 10
3967.410077611523
 20
-737.0384981060907
 30
0.0
 40
0.5
100
AcDbArc
 50
90.0
 51
180.0
  0
ARC
  5
27978
330
18
100
AcDbEntity
  8
0
100
AcDbCircle
 10
3967.410077611523
 20
-737.0384981060907
 30
0.0
 40
0.5
100
AcDbArc
 50
90.0
 51
180.0
  0
LINE
  5
2797F
330
18
100
AcDbEntity
  8
0
100
AcDbLine
 10
3978.410077611524
 20
-736.5384981060907
 30
0.0
 11
3967.410077611523
 21
-736.5384981060907
 31
0.0
  0
LINE
  5
27980
330
18
100
AcDbEntity
  8
0
100
AcDbLine
 10
3978.410077611524
 20
-736.5384981060907
 30
0.0
 11
3967.410077611523
 21
-736.5384981060907
 31
0.0
  0
LINE
  5
27988
330
18
100
AcDbEntity
  8
0
  6
CENTER
 48
0.75
100
AcDbLine
 10
4004.875317102092
 20
-811.5384981060907
 30
0.0
 11
3989.494026332772
 21
-811.5384981060907
 31
0.0
  0
LINE
  5
27996
330
18
100
AcDbEntity
  8
0
  6
PHANTOM
 48
0.75
100
AcDbLine
 10
3960.710077611524
 20
-703.9620871479951
 30
0.0
 11
3955.710127368491
 21
-703.9620871479951
 31
0.0
  0
LINE
  5
2799C
330
18
100
AcDbEntity
  8
0
  6
CENTER
 48
0.75
100
AcDbLine
 10
3938.032896500381
 20
-696.4376981060905
 30
0.0
 11
3964.951057845664
 21
-696.4376981060905
 31
0.0
  0
LINE
  5
279A2
330
18
100
AcDbEntity
  8
0
  6
CENTER
 48
0.75
100
AcDbLine
 10
4004.875317102092
 20
-696.5384981060907
 30
0.0
 11
3989.494026332772
 21
-696.5384981060907
 31
0.0
  0
LINE
  5
279AD
330
18
100
AcDbEntity
  8
0
100
AcDbLine
 10
4086.761898348199
 20
-689.0384981060907
 30
0.0
 11
4086.761898348199
 21
-819.0384981060907
 31
0.0
  0
LINE
  5
279AE
330
18
100
AcDbEntity
  8
0
100
AcDbLine
 10
4594.761898348198
 20
-689.0384981060907
 30
0.0
 11
4594.761898348198
 21
-819.0384981060907
 31
0.0
  0
LINE
  5
279B2
330
18
100
AcDbEntity
  8
0
  6
CENTER
 48
0.75
100
AcDbLine
 10
4067.810155654892
 20
-754.0384981060907
 30
0.0
 11
4611.224359221479
 21
-754.0384981060907
 31
0.0
  0
LINE
  5
279B3
330
18
100
AcDbEntity
  8
0
100
AcDbLine
 10
4086.761898348199
 20
-819.0384981060907
 30
0.0
 11
4594.761898348198
 21
-819.0384981060907
 31
0.0
  0
LWPOLYLINE
  5
279BC
330
18
100
AcDbEntity
  8
0
100
AcDbPolyline
 90
        2
 70
     0
 43
0.0
 10
4580.784120748199
 20
-801.0412702779635
 10
4420.784081367975
 20
-801.0412702779635
  0
LINE
  5
279F3
330
18
100
AcDbEntity
  8
0
100
AcDbLine
 10
4086.761898348199
 20
-801.0412702779635
 30
0.0
 11
4420.784081367975
 21
-801.0412702779635
 31
0.0
  0
LINE
  5
279F4
330
18
100
AcDbEntity
  8
0
100
AcDbLine
 10
4101.784081367976
 20
-801.0412702779635
 30
0.0
 11
4101.784081367976
 21
-819.0384981060907
 31
0.0
  0
CIRCLE
  5
279F5
330
18
100
AcDbEntity
  8
0
100
AcDbCircle
 10
4116.761898348197
 20
-811.5384981060907
 30
0.0
 40
2.5
  0
CIRCLE
  5
279F6
330
18
100
AcDbEntity
  8
0
100
AcDbCircle
 10
4116.761898348197
 20
-811.5384981060907
 30
0.0
 40
2.0
  0
LINE
  5
279F7
330
18
100
AcDbEntity
  8
0
  6
CENTER
 48
0.3
100
AcDbLine
 10
4116.761898348197
 20
-816.9352692111893
 30
0.0
 11
4116.761898348197
 21
-806.3077867837382
 31
0.0
  0
LINE
  5
279F8
330
18
100
AcDbEntity
  8
0
  6
CENTER
 48
0.3
100
AcDbLine
 10
4111.655600747343
 20
-811.5384981060907
 30
0.0
 11
4121.924003746949
 21
-811.5384981060907
 31
0.0
  0
LINE
  5
279F9
330
18
100
AcDbEntity
  8
0
  6
CENTER
 48
0.3
100
AcDbLine
 10
4175.655600747343
 20
-811.5384981060907
 30
0.0
 11
4185.924003746949
 21
-811.5384981060907
 31
0.0
  0
LINE
  5
279FA
330
18
100
AcDbEntity
  8
0
  6
CENTER
 48
0.3
100
AcDbLine
 10
4180.761898348198
 20
-816.9352692111893
 30
0.0
 11
4180.761898348198
 21
-806.3077867837382
 31
0.0
  0
CIRCLE
  5
279FB
330
18
100
AcDbEntity
  8
0
100
AcDbCircle
 10
4180.761898348198
 20
-811.5384981060907
 30
0.0
 40
2.0
  0
CIRCLE
  5
279FC
330
18
100
AcDbEntity
  8
0
100
AcDbCircle
 10
4180.761898348198
 20
-811.5384981060907
 30
0.0
 40
2.5
  0
LINE
  5
27A37
330
18
100
AcDbEntity
  8
0
100
AcDbLine
 10
4598.92415961946
 20
-806.4727706707227
 30
0.0
 11
4598.92415961946
 21
-815.9798094144807
 31
0.0
  0
LINE
  5
27A38
330
18
100
AcDbEntity
  8
0
 48
10.0
100
AcDbLine
 10
4598.92415961946
 20
-815.9798094144807
 30
0.0
 11
4594.761898348198
 21
-815.9798094144807
 31
0.0
  0
LINE
  5
27A39
330
18
100
AcDbEntity
  8
0
 48
10.0
100
AcDbLine
 10
4594.761898348198
 20
-806.4727706707227
 30
0.0
 11
4598.92415961946
 21
-806.4727706707227
 31
0.0
  0
LINE
  5
27A3A
330
18
100
AcDbEntity
  8
0
100
AcDbLine
 10
4579.804081367977
 20
-801.0412702779635
 30
0.0
 11
4579.784120748199
 21
-819.0384981060907
 31
0.0
  0
LINE
  5
27A3B
330
18
100
AcDbEntity
  8
0
100
AcDbLine
 10
4580.804081367977
 20
-801.0412702779635
 30
0.0
 11
4594.761898348198
 21
-801.0412702779635
 31
0.0
  0
LINE
  5
27A3D
330
18
100
AcDbEntity
  8
0
100
AcDbLine
 10
4086.761898348199
 20
-689.0384981060907
 30
0.0
 11
4594.761898348198
 21
-689.0384981060907
 31
0.0
  0
LWPOLYLINE
  5
27A3E
330
18
100
AcDbEntity
  8
0
100
AcDbPolyline
 90
        2
 70
     0
 43
0.0
 10
4580.784120748199
 20
-707.0357259342172
 10
4420.784081367975
 20
-707.0357259342172
  0
LINE
  5
27A3F
330
18
100
AcDbEntity
  8
0
100
AcDbLine
 10
4086.761898348199
 20
-707.0357259342172
 30
0.0
 11
4420.784081367975
 21
-707.0357259342172
 31
0.0
  0
LINE
  5
27A40
330
18
100
AcDbEntity
  8
0
100
AcDbLine
 10
4101.784081367976
 20
-689.0384981060907
 30
0.0
 11
4101.784081367976
 21
-707.0357259342172
 31
0.0
  0
CIRCLE
  5
27A41
330
18
100
AcDbEntity
  8
0
100
AcDbCircle
 10
4116.761898348197
 20
-696.5384981060907
 30
0.0
 40
2.5
  0
CIRCLE
  5
27A42
330
18
100
AcDbEntity
  8
0
100
AcDbCircle
 10
4116.761898348197
 20
-696.5384981060907
 30
0.0
 40
2.0
  0
LINE
  5
27A43
330
18
100
AcDbEntity
  8
0
  6
CENTER
 48
0.3
100
AcDbLine
 10
4116.761898348197
 20
-701.2095936395032
 30
0.0
 11
4116.761898348197
 21
-692.0419965568197
 31
0.0
  0
LINE
  5
27A44
330
18
100
AcDbEntity
  8
0
  6
CENTER
 48
0.3
100
AcDbLine
 10
4111.676656963974
 20
-696.5384981060907
 30
0.0
 11
4121.644943001053
 21
-696.5384981060907
 31
0.0
  0
LINE
  5
27A45
330
18
100
AcDbEntity
  8
0
  6
CENTER
 48
0.3
100
AcDbLine
 10
4175.676656963974
 20
-696.5384981060907
 30
0.0
 11
4185.644943001054
 21
-696.5384981060907
 31
0.0
  0
LINE
  5
27A46
330
18
100
AcDbEntity
  8
0
  6
CENTER
 48
0.3
100
AcDbLine
 10
4180.761898348198
 20
-701.2095936395032
 30
0.0
 11
4180.761898348198
 21
-692.0419965568197
 31
0.0
  0
CIRCLE
  5
27A47
330
18
100
AcDbEntity
  8
0
100
AcDbCircle
 10
4180.761898348198
 20
-696.5384981060907
 30
0.0
 40
2.0
  0
CIRCLE
  5
27A48
330
18
100
AcDbEntity
  8
0
100
AcDbCircle
 10
4180.761898348198
 20
-696.5384981060907
 30
0.0
 40
2.5
  0
LINE
  5
27A57
330
18
100
AcDbEntity
  8
0
100
AcDbLine
 10
4579.784120748199
 20
-689.0384981060907
 30
0.0
 11
4579.784120748199
 21
-707.0357259342172
 31
0.0
  0
LINE
  5
27A58
330
18
100
AcDbEntity
  8
0
100
AcDbLine
 10
4580.784120748199
 20
-707.0357259342172
 30
0.0
 11
4594.761898348198
 21
-707.0357259342172
 31
0.0
  0
LINE
  5
27A5B
330
18
100
AcDbEntity
  8
0
  6
PHANTOM
 48
0.75
100
AcDbLine
 10
4830.071390401241
 20
-803.9362086454991
 30
0.0
 11
4830.071390401241
 21
-703.959753823149
 31
0.0
  0
LWPOLYLINE
  5
27A5C
330
18
100
AcDbEntity
  8
0
  6
PHANTOM
 48
0.75
100
AcDbPolyline
 90
        4
 70
     1
 43
0.0
 10
4835.071390401241
 20
-689.0361865073016
 10
4842.871390401241
 20
-689.0361865073016
 10
4842.871390401241
 20
-819.036186507302
 10
4835.071390401241
 20
-819.036186507302
  0
LINE
  5
27A5D
102
{ACAD_REACTORS
330
282C4
102
}
330
18
100
AcDbEntity
  8
0
 48
0.3
100
AcDbLine
 10
4828.871390401241
 20
-689.0361647812442
 30
0.0
 11
4828.871390401241
 21
-819.0361647812443
 31
0.0
  0
LWPOLYLINE
  5
27A5F
102
{ACAD_REACTORS
330
282C4
102
}
330
18
100
AcDbEntity
  8
0
  6
HIDDEN
 48
0.6
100
AcDbPolyline
 90
        5
 70
     0
 43
0.0
 10
4802.870681616715
 20
-809.2015494039042
 10
4802.870681616715
 20
-692.9626647812445
 10
4790.870681616715
 20
-692.9626647812445
 10
4790.870681616715
 20
-814.9626647812445
 10
4802.870681616715
 20
-814.9626647812445
  0
LINE
  5
27A60
102
{ACAD_REACTORS
330
282C4
102
}
330
18
100
AcDbEntity
  8
0
 48
0.3
100
AcDbLine
 10
4789.371390401242
 20
-707.036208645499
 30
0.0
 11
4789.371390401242
 21
-801.0361647812445
 31
0.0
  0
LINE
  5
27A62
102
{ACAD_REACTORS
330
282C4
102
}
330
18
100
AcDbEntity
  8
0
 48
0.3
100
AcDbLine
 10
4828.871390401241
 20
-819.0361647812443
 30
0.0
 11
4788.871390401241
 21
-819.0361647812443
 31
0.0
  0
LINE
  5
27A63
330
18
100
AcDbEntity
  8
0
  6
CENTER
 48
0.75
100
AcDbLine
 10
4771.894443046381
 20
-754.0361647812442
 30
0.0
 11
4860.390468914721
 21
-754.0361647812442
 31
0.0
  0
LWPOLYLINE
  5
27A93
330
18
100
AcDbEntity
  8
0
100
AcDbPolyline
 90
        4
 70
     1
 43
0.0
 10
4726.835437808218
 20
-826.0149880218843
 10
4721.835437808219
 20
-826.0149880218843
 10
4721.835437808219
 20
-796.5149880218842
 10
4726.835437808218
 20
-796.5149880218842
  0
LINE
  5
27A94
330
18
100
AcDbEntity
  8
0
100
AcDbLine
 10
4671.604565324996
 20
-811.3555920487296
 30
0.0
 11
4679.835437808217
 21
-812.7649880218841
 31
0.0
  0
LINE
  5
27A95
330
18
100
AcDbEntity
  8
0
100
AcDbLine
 10
4665.630032402815
 20
-812.3649880218843
 30
0.0
 11
4679.835437808217
 21
-814.7649880218841
 31
0.0
  0
LINE
  5
27A96
330
18
100
AcDbEntity
  8
0
100
AcDbLine
 10
4664.549531767952
 20
-812.5475383574549
 30
0.0
 11
4679.835437808217
 21
-815.1649880218837
 31
0.0
  0
LINE
  5
27A97
330
18
100
AcDbEntity
  8
0
100
AcDbLine
 10
4657.93543780822
 20
-813.6649880218836
 30
0.0
 11
4679.835437808217
 21
-809.9649880218848
 31
0.0
  0
LINE
  5
27A98
330
18
100
AcDbEntity
  8
0
100
AcDbLine
 10
4657.93543780822
 20
-811.2649880218841
 30
0.0
 11
4679.835437808217
 21
-807.5649880218835
 31
0.0
  0
LINE
  5
27A99
330
18
100
AcDbEntity
  8
0
100
AcDbLine
 10
4657.93543780822
 20
-811.6649880218837
 30
0.0
 11
4679.835437808217
 21
-807.9649880218848
 31
0.0
  0
LINE
  5
27A9A
330
18
100
AcDbEntity
  8
0
100
AcDbLine
 10
4657.93543780822
 20
-809.2649880218841
 30
0.0
 11
4679.835437808217
 21
-805.5649880218831
 31
0.0
  0
LINE
  5
27A9B
330
18
100
AcDbEntity
  8
0
100
AcDbLine
 10
4658.527329700109
 20
-813.5649880218831
 30
0.0
 11
4679.835437808217
 21
-817.1649880218836
 31
0.0
  0
LINE
  5
27A9C
330
18
100
AcDbEntity
  8
0
100
AcDbLine
 10
4664.549531767952
 20
-810.1475383574554
 30
0.0
 11
4665.725370694125
 21
-810.3488806393331
 31
0.0
  0
LINE
  5
27A9D
330
18
100
AcDbEntity
  8
0
100
AcDbLine
 10
4658.527329700109
 20
-811.1649880218836
 30
0.0
 11
4659.711113483895
 21
-811.3649880218842
 31
0.0
  0
LINE
  5
27A9E
330
18
100
AcDbEntity
  8
0
100
AcDbLine
 10
4657.93543780822
 20
-811.4149880218837
 30
0.0
 11
4658.670337137079
 21
-811.5408269480584
 31
0.0
  0
LINE
  5
27A9F
330
18
100
AcDbEntity
  8
0
100
AcDbLine
 10
4657.93543780822
 20
-809.0149880218842
 30
0.0
 11
4658.670337137079
 21
-809.140826948059
 31
0.0
  0
LINE
  5
27AA0
330
18
100
AcDbEntity
  8
基板
100
AcDbLine
 10
4657.935437808218
 20
-814.6504629319416
 30
0.0
 11
4657.935437808218
 21
-808.1504629319411
 31
0.0
  0
LINE
  5
27AA1
330
18
100
AcDbEntity
  8
0
  6
CENTER
 48
0.75
100
AcDbLine
 10
4648.259991648727
 20
-798.0445461334834
 30
0.0
 11
4639.666285332032
 21
-825.577971110431
 31
0.0
  0
LINE
  5
27AA2
330
18
100
AcDbEntity
  8
0
  6
CENTER
 48
0.75
100
AcDbLine
 10
4643.566168900107
 20
-798.0445461334834
 30
0.0
 11
4634.972462583411
 21
-825.577971110431
 31
0.0
  0
LWPOLYLINE
  5
27AA3
330
18
100
AcDbEntity
  8
0
100
AcDbPolyline
 90
        4
 70
     0
 43
0.0
 10
4645.300562192943
 20
-807.5262791474584
 10
4657.935437808218
 20
-807.5262791474584
 10
4657.935437808218
 20
-815.00369689631
 10
4642.966717704121
 20
-815.00369689631
  0
LWPOLYLINE
  5
27AA4
330
18
100
AcDbEntity
  8
0
100
AcDbPolyline
 90
        4
 70
     1
 43
0.0
 10
4697.457412185335
 20
-802.5149880218842
 10
4687.457412185334
 20
-802.5149880218842
 10
4687.457412185334
 20
-820.0149880218841
 10
4697.457412185335
 20
-820.0149880218841
  0
LINE
  5
27AA5
330
18
100
AcDbEntity
  8
0
100
AcDbLine
 10
4703.835437808217
 20
-822.2649880218842
 30
0.0
 11
4679.835437808217
 21
-822.2649880218842
 31
0.0
  0
LINE
  5
27AA6
330
18
100
AcDbEntity
  8
0
100
AcDbLine
 10
4703.835437808217
 20
-800.2649880218841
 30
0.0
 11
4679.835437808217
 21
-800.2649880218841
 31
0.0
  0
LWPOLYLINE
  5
27AA9
330
18
100
AcDbEntity
  8
0
100
AcDbPolyline
 90
        4
 70
     1
 43
0.0
 10
4684.335437808218
 20
-803.5149880218842
 10
4679.835437808217
 20
-803.5149880218842
 10
4679.835437808217
 20
-808.0149880218842
 10
4684.335437808218
 20
-808.0149880218842
  0
LINE
  5
27AAA
330
18
100
AcDbEntity
  8
0
100
AcDbLine
 10
4679.835437808217
 20
-818.6399880218841
 30
0.0
 11
4679.835437808217
 21
-803.8899880218842
 31
0.0
  0
LWPOLYLINE
  5
27AAB
330
18
100
AcDbEntity
  8
0
100
AcDbPolyline
 90
        4
 70
     1
 43
0.0
 10
4684.335437808218
 20
-814.5149880218841
 10
4679.835437808217
 20
-814.5149880218841
 10
4679.835437808217
 20
-819.0149880218841
 10
4684.335437808218
 20
-819.0149880218841
  0
LINE
  5
27AAC
330
18
100
AcDbEntity
  8
0
100
AcDbLine
 10
4679.835437808217
 20
-822.2649880218842
 30
0.0
 11
4679.835437808217
 21
-800.2649880218841
 31
0.0
  0
LINE
  5
27AAD
330
18
100
AcDbEntity
  8
0
100
AcDbLine
 10
4704.83543780822
 20
-809.7649880218842
 30
0.0
 11
4717.835437808218
 21
-809.7649880218842
 31
0.0
  0
LINE
  5
27AAE
330
18
100
AcDbEntity
  8
0
100
AcDbLine
 10
4704.83543780822
 20
-812.7649880218841
 30
0.0
 11
4717.835437808218
 21
-812.7649880218841
 31
0.0
  0
LINE
  5
27AAF
330
18
100
AcDbEntity
  8
0
100
AcDbLine
 10
4717.835437808218
 20
-796.5149880218842
 30
0.0
 11
4704.83543780822
 21
-796.5149880218842
 31
0.0
  0
LINE
  5
27AB0
330
18
100
AcDbEntity
  8
0
100
AcDbLine
 10
4704.83543780822
 20
-803.7649880218841
 30
0.0
 11
4717.835437808218
 21
-803.7649880218841
 31
0.0
  0
LINE
  5
27AB1
330
18
100
AcDbEntity
  8
0
100
AcDbLine
 10
4704.83543780822
 20
-800.7649880218842
 30
0.0
 11
4717.835437808218
 21
-800.7649880218842
 31
0.0
  0
LINE
  5
27AB2
330
18
100
AcDbEntity
  8
0
100
AcDbLine
 10
4704.83543780822
 20
-806.7649880218841
 30
0.0
 11
4717.835437808218
 21
-806.7649880218841
 31
0.0
  0
LINE
  5
27AB3
330
18
100
AcDbEntity
  8
0
100
AcDbLine
 10
4704.83543780822
 20
-815.7649880218841
 30
0.0
 11
4717.835437808218
 21
-815.7649880218841
 31
0.0
  0
LINE
  5
27AB4
330
18
100
AcDbEntity
  8
0
100
AcDbLine
 10
4704.83543780822
 20
-818.7649880218842
 30
0.0
 11
4717.835437808218
 21
-818.7649880218842
 31
0.0
  0
LINE
  5
27AB5
330
18
100
AcDbEntity
  8
0
100
AcDbLine
 10
4704.83543780822
 20
-821.7649880218841
 30
0.0
 11
4717.835437808218
 21
-821.7649880218841
 31
0.0
  0
LINE
  5
27AB6
330
18
100
AcDbEntity
  8
0
100
AcDbLine
 10
4704.83543780822
 20
-826.0149880218843
 30
0.0
 11
4717.835437808218
 21
-826.0149880218843
 31
0.0
  0
LINE
  5
27AB7
330
18
100
AcDbEntity
  8
0
100
AcDbLine
 10
4704.83543780822
 20
-812.7649880218841
 30
0.0
 11
4704.83543780822
 21
-809.7649880218842
 31
0.0
  0
LINE
  5
27AB8
330
18
100
AcDbEntity
  8
0
100
AcDbLine
 10
4704.83543780822
 20
-800.7649880218842
 30
0.0
 11
4704.83543780822
 21
-796.5149880218842
 31
0.0
  0
LINE
  5
27AB9
330
18
100
AcDbEntity
  8
0
100
AcDbLine
 10
4703.835437808217
 20
-800.2649880218841
 30
0.0
 11
4704.83543780822
 21
-800.7649880218842
 31
0.0
  0
LINE
  5
27ABA
330
18
100
AcDbEntity
  8
0
100
AcDbLine
 10
4704.83543780822
 20
-796.5149880218842
 30
0.0
 11
4703.835437808217
 21
-800.2649880218841
 31
0.0
  0
LINE
  5
27ABB
330
18
100
AcDbEntity
  8
0
100
AcDbLine
 10
4704.83543780822
 20
-806.7649880218841
 30
0.0
 11
4704.83543780822
 21
-803.7649880218841
 31
0.0
  0
LINE
  5
27ABC
330
18
100
AcDbEntity
  8
0
100
AcDbLine
 10
4704.83543780822
 20
-818.7649880218842
 30
0.0
 11
4704.83543780822
 21
-815.7649880218841
 31
0.0
  0
LINE
  5
27ABD
330
18
100
AcDbEntity
  8
0
100
AcDbLine
 10
4704.83543780822
 20
-826.0149880218843
 30
0.0
 11
4704.83543780822
 21
-821.7649880218841
 31
0.0
  0
LINE
  5
27ABE
330
18
100
AcDbEntity
  8
0
100
AcDbLine
 10
4704.83543780822
 20
-826.0149880218843
 30
0.0
 11
4703.835437808217
 21
-822.2649880218842
 31
0.0
  0
LINE
  5
27ABF
330
18
100
AcDbEntity
  8
0
100
AcDbLine
 10
4703.835437808217
 20
-822.2649880218842
 30
0.0
 11
4704.83543780822
 21
-821.7649880218841
 31
0.0
  0
LWPOLYLINE
  5
27AC0
330
18
100
AcDbEntity
  8
0
100
AcDbPolyline
 90
        4
 70
     1
 43
0.0
 10
4721.835437808219
 20
-828.1149880218842
 10
4717.835437808218
 20
-828.1149880218842
 10
4717.835437808218
 20
-794.4149880218836
 10
4721.835437808219
 20
-794.4149880218836
  0
CIRCLE
  5
27AC2
102
{ACAD_REACTORS
330
27CB3
102
}
330
18
100
AcDbEntity
  8
実線
100
AcDbCircle
 10
4806.071390401241
 20
-811.1362491937059
 30
0.0
 40
3.74
  0
LINE
  5
27AC3
102
{ACAD_REACTORS
330
27CB3
102
}
330
18
100
AcDbEntity
  8
細線
100
AcDbLine
 10
4802.485067330147
 20
-812.1973273386807
 30
0.0
 11
4803.419739971793
 21
-811.2626546970366
 31
0.0
  0
LINE
  5
27AC4
330
18
100
AcDbEntity
  8
0
  6
CENTER
 48
0.3
100
AcDbLine
 10
4801.834538580446
 20
-811.262654697038
 30
0.0
 11
4812.376516690441
 21
-811.262654697038
 31
0.0
  0
CIRCLE
  5
27AC7
102
{ACAD_REACTORS
330
282C4
102
}
330
18
100
AcDbEntity
  8
0
  6
HIDDEN
 48
0.6
100
AcDbCircle
 10
4796.870310210572
 20
-808.9467918200732
 30
0.0
 40
4.0
  0
LINE
  5
27ACB
330
18
100
AcDbEntity
  8
0
  6
CENTER
 48
0.75
100
AcDbLine
 10
4785.906150910673
 20
-811.5361647812445
 30
0.0
 11
4801.287441679992
 21
-811.5361647812445
 31
0.0
  0
LINE
  5
27AD3
102
{ACAD_REACTORS
330
27CB3
102
}
330
18
100
AcDbEntity
  8
細線
100
AcDbLine
 10
4802.344881372889
 20
-811.4536298194575
 30
0.0
 11
4802.53585649531
 21
-811.2626546970352
 31
0.0
  0
LINE
  5
27AD4
102
{ACAD_REACTORS
330
282C4
102
}
330
18
100
AcDbEntity
  8
0
 48
0.3
100
AcDbLine
 10
4789.371522057936
 20
-801.0361647812445
 30
0.0
 11
4788.870681616715
 21
-801.0361647812445
 31
0.0
  0
LINE
  5
27AD5
102
{ACAD_REACTORS
330
282C4
102
}
330
18
100
AcDbEntity
  8
0
 48
0.3
100
AcDbLine
 10
4788.871390401241
 20
-819.0361647812443
 30
0.0
 11
4788.870681616715
 21
-801.0361647812445
 31
0.0
  0
LINE
  5
27AD6
102
{ACAD_REACTORS
330
27CB3
102
}
330
18
100
AcDbEntity
  8
細線
100
AcDbLine
 10
4806.071390401241
 20
-807.7271207911044
 30
0.0
 11
4806.388771026991
 21
-807.4097401653528
 31
0.0
  0
LINE
  5
27AD7
102
{ACAD_REACTORS
330
27CB3
102
}
330
18
100
AcDbEntity
  8
細線
100
AcDbLine
 10
4806.071390401241
 20
-808.611004267588
 30
0.0
 11
4807.132468546216
 21
-807.5499261226124
 31
0.0
  0
LINE
  5
27AD8
102
{ACAD_REACTORS
330
27CB3
102
}
330
18
100
AcDbEntity
  8
細線
100
AcDbLine
 10
4809.606924307175
 20
-811.262654697038
 30
0.0
 11
4809.810592256508
 21
-811.0589867477044
 31
0.0
  0
LINE
  5
27AD9
102
{ACAD_REACTORS
330
27CB3
102
}
330
18
100
AcDbEntity
  8
細線
100
AcDbLine
 10
4808.723040830692
 20
-811.262654697038
 30
0.0
 11
4809.710840840988
 21
-810.2748546867415
 31
0.0
  0
LINE
  5
27ADA
102
{ACAD_REACTORS
330
27CB3
102
}
330
18
100
AcDbEntity
  8
細線
100
AcDbLine
 10
4807.839157354208
 20
-811.262654697038
 30
0.0
 11
4809.487652134786
 21
-809.6141599164583
 31
0.0
  0
LINE
  5
27ADB
102
{ACAD_REACTORS
330
27CB3
102
}
330
18
100
AcDbEntity
  8
細線
100
AcDbLine
 10
4806.071390401241
 20
-809.4948877440716
 30
0.0
 11
4807.764727008883
 21
-807.8015511364272
 31
0.0
  0
LINE
  5
27ADC
102
{ACAD_REACTORS
330
27CB3
102
}
330
18
100
AcDbEntity
  8
細線
100
AcDbLine
 10
4806.955273877724
 20
-811.262654697038
 30
0.0
 11
4809.17242183867
 21
-809.0455067360915
 31
0.0
  0
LINE
  5
27ADD
102
{ACAD_REACTORS
330
27CB3
102
}
330
18
100
AcDbEntity
  8
細線
100
AcDbLine
 10
4806.071390401241
 20
-811.262654697038
 30
0.0
 11
4808.778417165996
 21
-808.555627932284
 31
0.0
  0
LINE
  5
27ADE
102
{ACAD_REACTORS
330
27CB3
102
}
330
18
100
AcDbEntity
  8
細線
100
AcDbLine
 10
4806.071390401241
 20
-810.3787712205551
 30
0.0
 11
4808.309970038763
 21
-808.1401915830326
 31
0.0
  0
LINE
  5
27ADF
102
{ACAD_REACTORS
330
27CB3
102
}
330
18
100
AcDbEntity
  8
細線
100
AcDbLine
 10
4805.209995894276
 20
-814.7756996334523
 30
0.0
 11
4806.071390401241
 21
-813.9143051264877
 31
0.0
  0
LINE
  5
27AE0
102
{ACAD_REACTORS
330
27CB3
102
}
330
18
100
AcDbEntity
  8
細線
100
AcDbLine
 10
4802.736692343962
 20
-812.8295858013494
 30
0.0
 11
4804.303623448276
 21
-811.2626546970371
 31
0.0
  0
LINE
  5
27AE1
102
{ACAD_REACTORS
330
27CB3
102
}
330
18
100
AcDbEntity
  8
細線
100
AcDbLine
 10
4803.075332790569
 20
-813.3748288312286
 30
0.0
 11
4805.187506924758
 21
-811.262654697038
 31
0.0
  0
LINE
  5
27AE2
102
{ACAD_REACTORS
330
27CB3
102
}
330
18
100
AcDbEntity
  8
細線
100
AcDbLine
 10
4803.490769139819
 20
-813.8432759584603
 30
0.0
 11
4806.071390401241
 21
-811.262654697038
 31
0.0
  0
LINE
  5
27AE3
102
{ACAD_REACTORS
330
27CB3
102
}
330
18
100
AcDbEntity
  8
細線
100
AcDbLine
 10
4803.980647943626
 20
-814.2372806311357
 30
0.0
 11
4806.071390401241
 21
-812.1465381735216
 31
0.0
  0
LINE
  5
27AE4
102
{ACAD_REACTORS
330
27CB3
102
}
330
18
100
AcDbEntity
  8
細線
100
AcDbLine
 10
4804.549301123993
 20
-814.5525109272517
 30
0.0
 11
4806.071390401241
 21
-813.0304216500045
 31
0.0
  0
LINE
  5
27AE5
330
18
100
AcDbEntity
  8
0
  6
CENTER
 48
0.3
100
AcDbLine
 10
4806.071390401241
 20
-805.3775796748602
 30
0.0
 11
4806.071390401241
 21
-816.9811911174388
 31
0.0
  0
LWPOLYLINE
  5
27AE6
330
18
100
AcDbEntity
  8
0
  6
HIDDEN
 48
0.3
100
AcDbPolyline
 90
        2
 70
     0
 43
0.0
 10
4802.870681616715
 20
-814.9626647812445
 10
4802.870681616715
 20
-813.0709489835076
  0
LINE
  5
27AED
330
18
100
AcDbEntity
  8
0
  6
PHANTOM
 48
0.75
100
AcDbLine
 10
4835.071340644272
 20
-803.9362086454991
 30
0.0
 11
4830.071390401241
 21
-803.9362086454993
 31
0.0
  0
LINE
  5
27AEE
330
18
100
AcDbEntity
  8
0
  6
CENTER
 48
0.75
100
AcDbLine
 10
4852.748621269352
 20
-811.4353647812441
 30
0.0
 11
4825.788315800276
 21
-811.4353647812441
 31
0.0
  0
LINE
  5
27AF1
102
{ACAD_REACTORS
330
282C4
102
}
330
18
100
AcDbEntity
  8
0
 48
0.3
100
AcDbLine
 10
4788.871390401241
 20
-689.0361647812443
 30
0.0
 11
4828.871390401241
 21
-689.0361647812443
 31
0.0
  0
CIRCLE
  5
27AF8
102
{ACAD_REACTORS
330
282C4
102
}
330
18
100
AcDbEntity
  8
0
  6
HIDDEN
 48
0.6
100
AcDbCircle
 10
4796.870310210572
 20
-698.9467918200728
 30
0.0
 40
4.0
  0
LINE
  5
27AFB
330
18
100
AcDbEntity
  8
0
  6
CENTER
 48
0.75
100
AcDbLine
 10
4785.906150910673
 20
-696.5361647812442
 30
0.0
 11
4801.287441679992
 21
-696.5361647812442
 31
0.0
  0
LINE
  5
27B03
102
{ACAD_REACTORS
330
282C4
102
}
330
18
100
AcDbEntity
  8
0
 48
0.3
100
AcDbLine
 10
4788.871390401241
 20
-707.0361647812442
 30
0.0
 11
4788.871390401241
 21
-689.0361647812442
 31
0.0
  0
LINE
  5
27B04
102
{ACAD_REACTORS
330
282C4
102
}
330
18
100
AcDbEntity
  8
0
 48
0.3
100
AcDbLine
 10
4788.871390401241
 20
-707.0361647812442
 30
0.0
 11
4789.371390401242
 21
-707.0361647812442
 31
0.0
  0
LINE
  5
27B0A
330
18
100
AcDbEntity
  8
0
  6
PHANTOM
 48
0.75
100
AcDbLine
 10
4830.071390401241
 20
-703.959753823149
 30
0.0
 11
4835.071340644272
 21
-703.959753823149
 31
0.0
  0
LINE
  5
27B0B
330
18
100
AcDbEntity
  8
0
  6
CENTER
 48
0.75
100
AcDbLine
 10
4852.748621269352
 20
-696.4353647812441
 30
0.0
 11
4825.83045992407
 21
-696.4353647812441
 31
0.0
  0
LINE
  5
27CBF
330
18
100
AcDbEntity
  8
0
100
AcDbLine
 10
4594.761898348198
 20
-969.8428683892744
 30
0.0
 11
4086.761898348199
 21
-969.8428683892744
 31
0.0
  0
LINE
  5
27CC0
330
18
100
AcDbEntity
  8
0
100
AcDbLine
 10
4086.761898348199
 20
-929.8428683892744
 30
0.0
 11
4594.761898348198
 21
-929.8428683892744
 31
0.0
  0
LWPOLYLINE
  5
27CC1
330
18
100
AcDbEntity
  8
0
100
AcDbPolyline
 90
        2
 70
     0
 43
0.0
 10
4579.784120748199
 20
-955.8428683892744
 10
4101.784081367976
 20
-955.8428683892744
  0
LINE
  5
27CC2
330
18
100
AcDbEntity
  8
隠れ線
 48
0.75
100
AcDbLine
 10
4101.784081367976
 20
-941.3428683892744
 30
0.0
 11
4579.784120748199
 21
-941.3428683892744
 31
0.0
  0
LINE
  5
27CC3
330
18
100
AcDbEntity
  8
隠れ線
 48
0.75
100
AcDbLine
 10
4101.784081367976
 20
-931.8342759161346
 30
0.0
 11
4579.784120748199
 21
-931.8428683892745
 31
0.0
  0
LINE
  5
27CDC
330
18
100
AcDbEntity
  8
0
100
AcDbLine
 10
4101.784081367976
 20
-929.8428683892744
 30
0.0
 11
4101.784081367976
 21
-955.8428683892744
 31
0.0
  0
LINE
  5
27CDE
330
18
100
AcDbEntity
  8
0
100
AcDbLine
 10
4086.761898348199
 20
-929.8428683892744
 30
0.0
 11
4086.761898348199
 21
-969.8428683892744
 31
0.0
  0
CIRCLE
  5
27CE0
330
18
100
AcDbEntity
  8
0
  6
HIDDEN
 48
0.6
100
AcDbCircle
 10
4127.37971532842
 20
-937.3428683892745
 30
0.0
 40
6.0
  0
LINE
  5
27CE1
330
18
100
AcDbEntity
  8
隠れ線
 48
0.75
100
AcDbLine
 10
4114.761162428339
 20
-929.8428683892744
 30
0.0
 11
4114.761162428339
 21
-939.8428683892744
 31
0.0
  0
LINE
  5
27CE2
330
18
100
AcDbEntity
  8
隠れ線
 48
0.75
100
AcDbLine
 10
4115.261162428341
 20
-929.8428683892744
 30
0.0
 11
4115.261162428341
 21
-941.3428683892741
 31
0.0
  0
LINE
  5
27CE3
330
18
100
AcDbEntity
  8
隠れ線
 48
0.75
100
AcDbLine
 10
4114.761162428339
 20
-939.8428683892744
 30
0.0
 11
4118.753684919147
 21
-939.8428683892744
 31
0.0
  0
LINE
  5
27CE4
330
18
100
AcDbEntity
  8
隠れ線
 48
0.75
100
AcDbLine
 10
4118.261162428341
 20
-929.8428683892744
 30
0.0
 11
4118.261162428341
 21
-941.3428683892741
 31
0.0
  0
LINE
  5
27CE5
330
18
100
AcDbEntity
  8
隠れ線
 48
0.75
100
AcDbLine
 10
4118.261162428341
 20
-940.5315610435453
 30
0.0
 11
4118.753684919147
 21
-939.8428683892744
 31
0.0
  0
LINE
  5
27CE6
330
18
100
AcDbEntity
  8
隠れ線
 48
0.75
100
AcDbLine
 10
4114.761162428339
 20
-939.8428683892744
 30
0.0
 11
4115.261162428341
 21
-940.5315610435453
 31
0.0
  0
LINE
  5
27CE7
330
18
100
AcDbEntity
  8
隠れ線
 48
0.75
100
AcDbLine
 10
4118.753684919147
 20
-939.8428683892744
 30
0.0
 11
4118.753684919147
 21
-929.8428683892744
 31
0.0
  0
LINE
  5
27CE8
330
18
100
AcDbEntity
  8
0
  6
CENTER
 48
0.75
100
AcDbLine
 10
4116.761898348197
 20
-943.2249127130132
 30
0.0
 11
4116.761898348197
 21
-928.3764198930484
 31
0.0
  0
LINE
  5
27CE9
330
18
100
AcDbEntity
  8
0
100
AcDbLine
 10
4086.761898348199
 20
-931.8342759161346
 30
0.0
 11
4101.784081367976
 21
-931.8342759161346
 31
0.0
  0
CIRCLE
  5
27CEB
330
18
100
AcDbEntity
  8
0
  6
HIDDEN
 48
0.6
100
AcDbCircle
 10
4162.939715328421
 20
-937.3428683892745
 30
0.0
 40
6.0
  0
CIRCLE
  5
27CED
330
18
100
AcDbEntity
  8
0
  6
HIDDEN
 48
0.6
100
AcDbCircle
 10
4198.49971532842
 20
-937.3428683892745
 30
0.0
 40
6.0
  0
LINE
  5
27CEE
330
18
100
AcDbEntity
  8
隠れ線
 48
0.75
100
AcDbLine
 10
4182.753684919148
 20
-939.8428683892744
 30
0.0
 11
4182.753684919148
 21
-929.8428683892744
 31
0.0
  0
LINE
  5
27CEF
330
18
100
AcDbEntity
  8
隠れ線
 48
0.75
100
AcDbLine
 10
4178.761162428339
 20
-939.8428683892744
 30
0.0
 11
4179.261162428341
 21
-940.5315610435453
 31
0.0
  0
LINE
  5
27CF0
330
18
100
AcDbEntity
  8
隠れ線
 48
0.75
100
AcDbLine
 10
4182.261162428341
 20
-940.5315610435453
 30
0.0
 11
4182.753684919148
 21
-939.8428683892744
 31
0.0
  0
LINE
  5
27CF1
330
18
100
AcDbEntity
  8
隠れ線
 48
0.75
100
AcDbLine
 10
4182.261162428341
 20
-929.8428683892744
 30
0.0
 11
4182.261162428341
 21
-941.3428683892741
 31
0.0
  0
LINE
  5
27CF2
330
18
100
AcDbEntity
  8
隠れ線
 48
0.75
100
AcDbLine
 10
4178.761162428339
 20
-939.8428683892744
 30
0.0
 11
4182.753684919148
 21
-939.8428683892744
 31
0.0
  0
LINE
  5
27CF3
330
18
100
AcDbEntity
  8
隠れ線
 48
0.75
100
AcDbLine
 10
4179.261162428341
 20
-929.8428683892744
 30
0.0
 11
4179.261162428341
 21
-941.3428683892741
 31
0.0
  0
LINE
  5
27CF4
330
18
100
AcDbEntity
  8
隠れ線
 48
0.75
100
AcDbLine
 10
4178.761162428339
 20
-929.8428683892744
 30
0.0
 11
4178.761162428339
 21
-939.8428683892744
 31
0.0
  0
LINE
  5
27CF5
330
18
100
AcDbEntity
  8
0
  6
CENTER
 48
0.75
100
AcDbLine
 10
4180.761898348198
 20
-943.2249127130132
 30
0.0
 11
4180.761898348198
 21
-928.3764198930484
 31
0.0
  0
LINE
  5
27CF6
330
18
100
AcDbEntity
  8
隠れ線
 48
0.75
100
AcDbLine
 10
4246.753684919148
 20
-939.8428683892744
 30
0.0
 11
4246.753684919148
 21
-929.8428683892744
 31
0.0
  0
LINE
  5
27CF7
330
18
100
AcDbEntity
  8
隠れ線
 48
0.75
100
AcDbLine
 10
4242.761162428339
 20
-939.8428683892744
 30
0.0
 11
4243.261162428341
 21
-940.5315610435453
 31
0.0
  0
LINE
  5
27CF8
330
18
100
AcDbEntity
  8
隠れ線
 48
0.75
100
AcDbLine
 10
4246.261162428341
 20
-940.5315610435453
 30
0.0
 11
4246.753684919148
 21
-939.8428683892744
 31
0.0
  0
LINE
  5
27CF9
330
18
100
AcDbEntity
  8
隠れ線
 48
0.75
100
AcDbLine
 10
4246.261162428341
 20
-929.8428683892744
 30
0.0
 11
4246.261162428341
 21
-941.3428683892741
 31
0.0
  0
LINE
  5
27CFA
330
18
100
AcDbEntity
  8
隠れ線
 48
0.75
100
AcDbLine
 10
4242.761162428339
 20
-939.8428683892744
 30
0.0
 11
4246.753684919148
 21
-939.8428683892744
 31
0.0
  0
LINE
  5
27CFB
330
18
100
AcDbEntity
  8
隠れ線
 48
0.75
100
AcDbLine
 10
4243.261162428341
 20
-929.8428683892744
 30
0.0
 11
4243.261162428341
 21
-941.3428683892741
 31
0.0
  0
LINE
  5
27CFC
330
18
100
AcDbEntity
  8
隠れ線
 48
0.75
100
AcDbLine
 10
4242.761162428339
 20
-929.8428683892744
 30
0.0
 11
4242.761162428339
 21
-939.8428683892744
 31
0.0
  0
LINE
  5
27CFE
330
18
100
AcDbEntity
  8
0
  6
CENTER
 48
0.75
100
AcDbLine
 10
4244.761898348198
 20
-943.2249127130132
 30
0.0
 11
4244.761898348198
 21
-928.3764198930484
 31
0.0
  0
CIRCLE
  5
27CFF
330
18
100
AcDbEntity
  8
0
  6
HIDDEN
 48
0.6
100
AcDbCircle
 10
4234.05971532842
 20
-937.3428683892745
 30
0.0
 40
6.0
  0
CIRCLE
  5
27D00
330
18
100
AcDbEntity
  8
0
  6
HIDDEN
 48
0.6
100
AcDbCircle
 10
4269.61971532842
 20
-937.3428683892745
 30
0.0
 40
6.0
  0
CIRCLE
  5
27D02
330
18
100
AcDbEntity
  8
0
  6
HIDDEN
 48
0.6
100
AcDbCircle
 10
4322.95971532842
 20
-937.3428683892745
 30
0.0
 40
6.0
  0
LINE
  5
27D04
330
18
100
AcDbEntity
  8
隠れ線
 48
0.75
100
AcDbLine
 10
4310.753684919148
 20
-939.8428683892744
 30
0.0
 11
4310.753684919148
 21
-929.8428683892744
 31
0.0
  0
LINE
  5
27D05
330
18
100
AcDbEntity
  8
隠れ線
 48
0.75
100
AcDbLine
 10
4306.761162428339
 20
-939.8428683892744
 30
0.0
 11
4307.261162428341
 21
-940.5315610435453
 31
0.0
  0
LINE
  5
27D06
330
18
100
AcDbEntity
  8
隠れ線
 48
0.75
100
AcDbLine
 10
4310.261162428341
 20
-940.5315610435453
 30
0.0
 11
4310.753684919148
 21
-939.8428683892744
 31
0.0
  0
LINE
  5
27D07
330
18
100
AcDbEntity
  8
隠れ線
 48
0.75
100
AcDbLine
 10
4310.261162428341
 20
-929.8428683892744
 30
0.0
 11
4310.261162428341
 21
-941.3428683892741
 31
0.0
  0
LINE
  5
27D08
330
18
100
AcDbEntity
  8
隠れ線
 48
0.75
100
AcDbLine
 10
4306.761162428339
 20
-939.8428683892744
 30
0.0
 11
4310.753684919148
 21
-939.8428683892744
 31
0.0
  0
LINE
  5
27D09
330
18
100
AcDbEntity
  8
隠れ線
 48
0.75
100
AcDbLine
 10
4307.261162428341
 20
-929.8428683892744
 30
0.0
 11
4307.261162428341
 21
-941.3428683892741
 31
0.0
  0
LINE
  5
27D0A
330
18
100
AcDbEntity
  8
隠れ線
 48
0.75
100
AcDbLine
 10
4306.761162428339
 20
-929.8428683892744
 30
0.0
 11
4306.761162428339
 21
-939.8428683892744
 31
0.0
  0
LINE
  5
27D0C
330
18
100
AcDbEntity
  8
0
  6
CENTER
 48
0.75
100
AcDbLine
 10
4308.761898348199
 20
-943.2249127130132
 30
0.0
 11
4308.761898348199
 21
-928.3764198930484
 31
0.0
  0
CIRCLE
  5
27D0D
330
18
100
AcDbEntity
  8
0
  6
HIDDEN
 48
0.6
100
AcDbCircle
 10
4287.399715328421
 20
-937.3428683892745
 30
0.0
 40
6.0
  0
LINE
  5
27D0E
330
18
100
AcDbEntity
  8
隠れ線
 48
0.75
100
AcDbLine
 10
4374.753684919148
 20
-939.8428683892744
 30
0.0
 11
4374.753684919148
 21
-929.8428683892744
 31
0.0
  0
LINE
  5
27D0F
330
18
100
AcDbEntity
  8
隠れ線
 48
0.75
100
AcDbLine
 10
4370.76116242834
 20
-939.8428683892744
 30
0.0
 11
4371.261162428341
 21
-940.5315610435453
 31
0.0
  0
LINE
  5
27D10
330
18
100
AcDbEntity
  8
隠れ線
 48
0.75
100
AcDbLine
 10
4374.261162428341
 20
-940.5315610435453
 30
0.0
 11
4374.753684919148
 21
-939.8428683892744
 31
0.0
  0
LINE
  5
27D11
330
18
100
AcDbEntity
  8
隠れ線
 48
0.75
100
AcDbLine
 10
4374.261162428341
 20
-929.8428683892744
 30
0.0
 11
4374.261162428341
 21
-941.3428683892741
 31
0.0
  0
LINE
  5
27D12
330
18
100
AcDbEntity
  8
隠れ線
 48
0.75
100
AcDbLine
 10
4370.76116242834
 20
-939.8428683892744
 30
0.0
 11
4374.753684919148
 21
-939.8428683892744
 31
0.0
  0
LINE
  5
27D13
330
18
100
AcDbEntity
  8
隠れ線
 48
0.75
100
AcDbLine
 10
4371.261162428341
 20
-929.8428683892744
 30
0.0
 11
4371.261162428341
 21
-941.3428683892741
 31
0.0
  0
LINE
  5
27D14
330
18
100
AcDbEntity
  8
隠れ線
 48
0.75
100
AcDbLine
 10
4370.76116242834
 20
-929.8428683892744
 30
0.0
 11
4370.76116242834
 21
-939.8428683892744
 31
0.0
  0
LINE
  5
27D16
330
18
100
AcDbEntity
  8
0
  6
CENTER
 48
0.75
100
AcDbLine
 10
4372.761898348199
 20
-943.2249127130132
 30
0.0
 11
4372.761898348199
 21
-928.3764198930484
 31
0.0
  0
CIRCLE
  5
27D17
330
18
100
AcDbEntity
  8
0
  6
HIDDEN
 48
0.6
100
AcDbCircle
 10
4358.564081367974
 20
-937.3428683892745
 30
0.0
 40
6.0
  0
LINE
  5
27D18
330
18
100
AcDbEntity
  8
0
100
AcDbLine
 10
4704.83543780822
 20
-954.3679639556598
 30
0.0
 11
4704.83543780822
 21
-951.3679639556599
 31
0.0
  0
LINE
  5
27D19
330
18
100
AcDbEntity
  8
0
100
AcDbLine
 10
4726.835437808218
 20
-935.6179639556598
 30
0.0
 11
4726.835437808218
 21
-958.1179639556605
 31
0.0
  0
LINE
  5
27D1A
330
18
100
AcDbEntity
  8
0
100
AcDbLine
 10
4721.835437808219
 20
-933.5179639556596
 30
0.0
 11
4721.835437808219
 21
-960.2179639556608
 31
0.0
  0
LINE
  5
27D1B
330
18
100
AcDbEntity
  8
0
100
AcDbLine
 10
4717.835437808218
 20
-960.2179639556608
 30
0.0
 11
4717.835437808218
 21
-933.5179639556596
 31
0.0
  0
LINE
  5
27D1C
330
18
100
AcDbEntity
  8
0
100
AcDbLine
 10
4721.835437808219
 20
-960.2179639556608
 30
0.0
 11
4721.835437808219
 21
-933.5179639556596
 31
0.0
  0
LINE
  5
27D1D
330
18
100
AcDbEntity
  8
0
100
AcDbLine
 10
4658.527329700109
 20
-949.1679639556592
 30
0.0
 11
4679.835437808217
 21
-952.7679639556597
 31
0.0
  0
LINE
  5
27D1E
330
18
100
AcDbEntity
  8
0
100
AcDbLine
 10
4679.835437808217
 20
-954.2429639556599
 30
0.0
 11
4679.835437808217
 21
-939.4929639556599
 31
0.0
  0
LINE
  5
27D1F
330
18
100
AcDbEntity
  8
0
100
AcDbLine
 10
4679.835437808217
 20
-954.4929639556606
 30
0.0
 11
4679.835437808217
 21
-939.3679639556605
 31
0.0
  0
LINE
  5
27D20
330
18
100
AcDbEntity
  8
0
  6
CENTER
 48
0.75
100
AcDbLine
 10
4643.566168900107
 20
-933.5708712212808
 30
0.0
 11
4634.972462583411
 21
-961.1042961982283
 31
0.0
  0
LINE
  5
27D21
330
18
100
AcDbEntity
  8
0
  6
CENTER
 48
0.75
100
AcDbLine
 10
4648.259991648727
 20
-933.5708712212808
 30
0.0
 11
4639.666285332032
 21
-961.1042961982283
 31
0.0
  0
LINE
  5
27D22
330
18
100
AcDbEntity
  8
0
100
AcDbLine
 10
4579.784120748199
 20
-929.8428683892744
 30
0.0
 11
4579.784120748199
 21
-955.8428683892744
 31
0.0
  0
LINE
  5
27D23
330
18
100
AcDbEntity
  8
0
100
AcDbLine
 10
4594.761898348198
 20
-929.8428683892744
 30
0.0
 11
4594.761898348198
 21
-969.8428683892744
 31
0.0
  0
LINE
  5
27D36
330
18
100
AcDbEntity
  8
0
100
AcDbLine
 10
4721.835437808219
 20
-960.2179639556608
 30
0.0
 11
4717.835437808218
 21
-960.2179639556608
 31
0.0
  0
LINE
  5
27D37
330
18
100
AcDbEntity
  8
0
100
AcDbLine
 10
4726.835437808218
 20
-958.1179639556605
 30
0.0
 11
4721.835437808219
 21
-958.1179639556605
 31
0.0
  0
LINE
  5
27D38
330
18
100
AcDbEntity
  8
0
100
AcDbLine
 10
4704.83543780822
 20
-958.1179639556605
 30
0.0
 11
4703.835437808217
 21
-954.4929639556606
 31
0.0
  0
LINE
  5
27D39
330
18
100
AcDbEntity
  8
0
100
AcDbLine
 10
4704.83543780822
 20
-958.1179639556605
 30
0.0
 11
4704.83543780822
 21
-953.8679639556605
 31
0.0
  0
LINE
  5
27D3A
330
18
100
AcDbEntity
  8
0
100
AcDbLine
 10
4703.835437808217
 20
-954.4929639556606
 30
0.0
 11
4704.83543780822
 21
-953.8679639556605
 31
0.0
  0
LINE
  5
27D3B
330
18
100
AcDbEntity
  8
0
100
AcDbLine
 10
4704.83543780822
 20
-954.3679639556598
 30
0.0
 11
4717.835437808218
 21
-954.3679639556598
 31
0.0
  0
LINE
  5
27D3C
330
18
100
AcDbEntity
  8
0
100
AcDbLine
 10
4704.83543780822
 20
-957.3679639556599
 30
0.0
 11
4717.835437808218
 21
-957.3679639556599
 31
0.0
  0
LINE
  5
27D3D
330
18
100
AcDbEntity
  8
0
100
AcDbLine
 10
4704.83543780822
 20
-958.1179639556605
 30
0.0
 11
4717.835437808218
 21
-958.1179639556605
 31
0.0
  0
LINE
  5
27D3E
330
18
100
AcDbEntity
  8
0
100
AcDbLine
 10
4703.835437808217
 20
-954.4929639556606
 30
0.0
 11
4679.835437808217
 21
-954.4929639556606
 31
0.0
  0
LWPOLYLINE
  5
27D3F
330
18
100
AcDbEntity
  8
0
100
AcDbPolyline
 90
        2
 70
     0
 43
0.0
 10
4420.784081367975
 20
-929.8428683892744
 10
4580.784120748199
 20
-929.8428683892744
  0
CIRCLE
  5
27D40
330
18
100
AcDbEntity
  8
0
  6
HIDDEN
 48
0.6
100
AcDbCircle
 10
4483.024081367974
 20
-937.3428683892745
 30
0.0
 40
6.0
  0
CIRCLE
  5
27D42
330
18
100
AcDbEntity
  8
0
  6
HIDDEN
 48
0.6
100
AcDbCircle
 10
4411.904081367977
 20
-937.3428683892745
 30
0.0
 40
6.0
  0
CIRCLE
  5
27D44
330
18
100
AcDbEntity
  8
0
  6
HIDDEN
 48
0.6
100
AcDbCircle
 10
4394.124081367976
 20
-937.3428683892745
 30
0.0
 40
6.0
  0
CIRCLE
  5
27D46
330
18
100
AcDbEntity
  8
0
  6
HIDDEN
 48
0.6
100
AcDbCircle
 10
4447.464081367976
 20
-937.3428683892745
 30
0.0
 40
6.0
  0
LINE
  5
27D47
330
18
100
AcDbEntity
  8
隠れ線
 48
0.75
100
AcDbLine
 10
4438.753684919148
 20
-939.8428683892744
 30
0.0
 11
4438.753684919148
 21
-929.8428683892744
 31
0.0
  0
LINE
  5
27D48
330
18
100
AcDbEntity
  8
隠れ線
 48
0.75
100
AcDbLine
 10
4434.76116242834
 20
-939.8428683892744
 30
0.0
 11
4435.261162428341
 21
-940.5315610435453
 31
0.0
  0
LINE
  5
27D49
330
18
100
AcDbEntity
  8
隠れ線
 48
0.75
100
AcDbLine
 10
4438.261162428339
 20
-940.5315610435453
 30
0.0
 11
4438.753684919148
 21
-939.8428683892744
 31
0.0
  0
LINE
  5
27D4A
330
18
100
AcDbEntity
  8
隠れ線
 48
0.75
100
AcDbLine
 10
4438.261162428339
 20
-929.8428683892744
 30
0.0
 11
4438.261162428339
 21
-941.3428683892741
 31
0.0
  0
LINE
  5
27D4B
330
18
100
AcDbEntity
  8
隠れ線
 48
0.75
100
AcDbLine
 10
4434.76116242834
 20
-939.8428683892744
 30
0.0
 11
4438.753684919148
 21
-939.8428683892744
 31
0.0
  0
LINE
  5
27D4C
330
18
100
AcDbEntity
  8
隠れ線
 48
0.75
100
AcDbLine
 10
4435.261162428341
 20
-929.8428683892744
 30
0.0
 11
4435.261162428341
 21
-941.3428683892741
 31
0.0
  0
LINE
  5
27D4D
330
18
100
AcDbEntity
  8
隠れ線
 48
0.75
100
AcDbLine
 10
4434.76116242834
 20
-929.8428683892744
 30
0.0
 11
4434.76116242834
 21
-939.8428683892744
 31
0.0
  0
LINE
  5
27D4E
330
18
100
AcDbEntity
  8
0
  6
CENTER
 48
0.75
100
AcDbLine
 10
4436.761898348199
 20
-943.2249127130132
 30
0.0
 11
4436.761898348199
 21
-928.3764198930484
 31
0.0
  0
LINE
  5
27D50
330
18
100
AcDbEntity
  8
隠れ線
 48
0.75
100
AcDbLine
 10
4502.753684919148
 20
-939.8428683892744
 30
0.0
 11
4502.753684919148
 21
-929.8428683892744
 31
0.0
  0
LINE
  5
27D51
330
18
100
AcDbEntity
  8
隠れ線
 48
0.75
100
AcDbLine
 10
4498.761162428341
 20
-939.8428683892744
 30
0.0
 11
4499.261162428341
 21
-940.5315610435453
 31
0.0
  0
LINE
  5
27D52
330
18
100
AcDbEntity
  8
隠れ線
 48
0.75
100
AcDbLine
 10
4502.261162428339
 20
-940.5315610435453
 30
0.0
 11
4502.753684919148
 21
-939.8428683892744
 31
0.0
  0
LINE
  5
27D53
330
18
100
AcDbEntity
  8
隠れ線
 48
0.75
100
AcDbLine
 10
4502.261162428339
 20
-929.8428683892744
 30
0.0
 11
4502.261162428339
 21
-941.3428683892741
 31
0.0
  0
LINE
  5
27D54
330
18
100
AcDbEntity
  8
隠れ線
 48
0.75
100
AcDbLine
 10
4498.761162428341
 20
-939.8428683892744
 30
0.0
 11
4502.753684919148
 21
-939.8428683892744
 31
0.0
  0
LINE
  5
27D55
330
18
100
AcDbEntity
  8
隠れ線
 48
0.75
100
AcDbLine
 10
4499.261162428341
 20
-929.8428683892744
 30
0.0
 11
4499.261162428341
 21
-941.3428683892741
 31
0.0
  0
LINE
  5
27D56
330
18
100
AcDbEntity
  8
隠れ線
 48
0.75
100
AcDbLine
 10
4498.761162428341
 20
-929.8428683892744
 30
0.0
 11
4498.761162428341
 21
-939.8428683892744
 31
0.0
  0
LINE
  5
27D57
330
18
100
AcDbEntity
  8
0
  6
CENTER
 48
0.75
100
AcDbLine
 10
4500.761898348199
 20
-943.2249127130132
 30
0.0
 11
4500.761898348199
 21
-928.3764198930484
 31
0.0
  0
CIRCLE
  5
27D58
330
18
100
AcDbEntity
  8
0
  6
HIDDEN
 48
0.6
100
AcDbCircle
 10
4518.584081367976
 20
-937.3428683892745
 30
0.0
 40
6.0
  0
LINE
  5
27D5A
330
18
100
AcDbEntity
  8
隠れ線
 48
0.75
100
AcDbLine
 10
4566.753684919148
 20
-939.8428683892744
 30
0.0
 11
4566.753684919148
 21
-929.8428683892744
 31
0.0
  0
LINE
  5
27D5B
330
18
100
AcDbEntity
  8
隠れ線
 48
0.75
100
AcDbLine
 10
4562.761162428341
 20
-939.8428683892744
 30
0.0
 11
4563.261162428339
 21
-940.5315610435453
 31
0.0
  0
LINE
  5
27D5C
330
18
100
AcDbEntity
  8
隠れ線
 48
0.75
100
AcDbLine
 10
4566.26116242834
 20
-940.5315610435453
 30
0.0
 11
4566.753684919148
 21
-939.8428683892744
 31
0.0
  0
LINE
  5
27D5D
330
18
100
AcDbEntity
  8
隠れ線
 48
0.75
100
AcDbLine
 10
4566.26116242834
 20
-929.8428683892744
 30
0.0
 11
4566.26116242834
 21
-941.3428683892741
 31
0.0
  0
LINE
  5
27D5E
330
18
100
AcDbEntity
  8
隠れ線
 48
0.75
100
AcDbLine
 10
4562.761162428341
 20
-939.8428683892744
 30
0.0
 11
4566.753684919148
 21
-939.8428683892744
 31
0.0
  0
LINE
  5
27D5F
330
18
100
AcDbEntity
  8
隠れ線
 48
0.75
100
AcDbLine
 10
4563.261162428339
 20
-929.8428683892744
 30
0.0
 11
4563.261162428339
 21
-941.3428683892741
 31
0.0
  0
LINE
  5
27D60
330
18
100
AcDbEntity
  8
隠れ線
 48
0.75
100
AcDbLine
 10
4562.761162428341
 20
-929.8428683892744
 30
0.0
 11
4562.761162428341
 21
-939.8428683892744
 31
0.0
  0
LINE
  5
27D62
330
18
100
AcDbEntity
  8
0
  6
CENTER
 48
0.75
100
AcDbLine
 10
4564.761898348199
 20
-943.2249127130132
 30
0.0
 11
4564.761898348199
 21
-928.3764198930484
 31
0.0
  0
CIRCLE
  5
27D63
330
18
100
AcDbEntity
  8
0
  6
HIDDEN
 48
0.6
100
AcDbCircle
 10
4554.144081367976
 20
-937.3428683892745
 30
0.0
 40
6.0
  0
LINE
  5
27D64
330
18
100
AcDbEntity
  8
0
100
AcDbLine
 10
4657.93543780822
 20
-946.8679639556599
 30
0.0
 11
4679.835437808217
 21
-943.1679639556591
 31
0.0
  0
LINE
  5
27D65
330
18
100
AcDbEntity
  8
0
100
AcDbLine
 10
4665.630032402815
 20
-947.9679639556602
 30
0.0
 11
4679.835437808217
 21
-950.3679639556599
 31
0.0
  0
LINE
  5
27D66
330
18
100
AcDbEntity
  8
0
100
AcDbLine
 10
4664.549531767952
 20
-948.1505142912306
 30
0.0
 11
4679.835437808217
 21
-950.7679639556597
 31
0.0
  0
LINE
  5
27D67
330
18
100
AcDbEntity
  8
0
100
AcDbLine
 10
4657.93543780822
 20
-949.2679639556596
 30
0.0
 11
4679.835437808217
 21
-945.5679639556604
 31
0.0
  0
LINE
  5
27D68
330
18
100
AcDbEntity
  8
0
100
AcDbLine
 10
4657.93543780822
 20
-947.2679639556597
 30
0.0
 11
4679.835437808217
 21
-943.5679639556607
 31
0.0
  0
LINE
  5
27D69
330
18
100
AcDbEntity
  8
0
100
AcDbLine
 10
4671.604565324996
 20
-946.9585679825057
 30
0.0
 11
4679.835437808217
 21
-948.3679639556598
 31
0.0
  0
LINE
  5
27D6A
330
18
100
AcDbEntity
  8
0
100
AcDbLine
 10
4657.93543780822
 20
-944.8679639556599
 30
0.0
 11
4679.835437808217
 21
-941.1679639556592
 31
0.0
  0
LWPOLYLINE
  5
27D6B
330
18
100
AcDbEntity
  8
0
100
AcDbPolyline
 90
        4
 70
     0
 43
0.0
 10
4638.272894955499
 20
-950.7421477401432
 10
4598.92415961946
 20
-950.7421477401432
 10
4598.92415961946
 20
-943.2647299912916
 10
4640.606739444321
 20
-943.2647299912916
  0
LWPOLYLINE
  5
27D6C
330
18
100
AcDbEntity
  8
0
100
AcDbPolyline
 90
        4
 70
     0
 43
0.0
 10
4638.206686467047
 20
-950.7421477401432
 10
4598.92415961946
 20
-950.7421477401432
 10
4598.92415961946
 20
-943.2647299912916
 10
4640.54053095587
 20
-943.2647299912916
  0
LINE
  5
27D6D
330
18
100
AcDbEntity
  8
0
  6
CENTER
 48
0.75
100
AcDbLine
 10
4590.644126390578
 20
-947.0034388657172
 30
0.0
 11
4665.979026196896
 21
-947.0034388657172
 31
0.0
  0
LINE
  5
27D6E
330
18
100
AcDbEntity
  8
0
100
AcDbLine
 10
4579.784120748199
 20
-931.8342759161346
 30
0.0
 11
4594.761898348198
 21
-931.8342759161346
 31
0.0
  0
LINE
  5
27D6F
330
18
100
AcDbEntity
  8
0
 48
10.0
100
AcDbLine
 10
4598.92415961946
 20
-951.7182602583137
 30
0.0
 11
4594.761898348198
 21
-951.7182602583137
 31
0.0
  0
LINE
  5
27D70
330
18
100
AcDbEntity
  8
0
 48
10.0
100
AcDbLine
 10
4594.761898348198
 20
-942.2112215145558
 30
0.0
 11
4598.92415961946
 21
-942.2112215145558
 31
0.0
  0
LINE
  5
27D71
330
18
100
AcDbEntity
  8
0
100
AcDbLine
 10
4598.92415961946
 20
-942.2112215145558
 30
0.0
 11
4598.92415961946
 21
-951.7182602583137
 31
0.0
  0
LWPOLYLINE
  5
27D72
330
18
100
AcDbEntity
  8
0
100
AcDbPolyline
 90
        2
 70
     0
 43
0.0
 10
4598.924626857785
 20
-943.2647299912916
 10
4614.359188607433
 20
-943.2647299912916
  0
LINE
  5
27D73
330
18
100
AcDbEntity
  8
0
100
AcDbLine
 10
4664.549531767952
 20
-945.7505142912307
 30
0.0
 11
4665.725370694125
 21
-945.9518565731093
 31
0.0
  0
LINE
  5
27D74
330
18
100
AcDbEntity
  8
0
100
AcDbLine
 10
4658.527329700109
 20
-946.7679639556591
 30
0.0
 11
4659.711113483895
 21
-946.9679639556602
 31
0.0
  0
LINE
  5
27D75
330
18
100
AcDbEntity
  8
0
100
AcDbLine
 10
4657.93543780822
 20
-947.0179639556596
 30
0.0
 11
4658.670337137079
 21
-947.1438028818342
 31
0.0
  0
LINE
  5
27D76
330
18
100
AcDbEntity
  8
0
100
AcDbLine
 10
4657.93543780822
 20
-944.6179639556598
 30
0.0
 11
4658.670337137079
 21
-944.7438028818345
 31
0.0
  0
LINE
  5
27D77
330
18
100
AcDbEntity
  8
基板
100
AcDbLine
 10
4657.935437808218
 20
-950.2534388657172
 30
0.0
 11
4657.935437808218
 21
-943.7534388657173
 31
0.0
  0
LWPOLYLINE
  5
27D78
330
18
100
AcDbEntity
  8
0
100
AcDbPolyline
 90
        4
 70
     0
 43
0.0
 10
4645.234353704494
 20
-943.2647299912916
 10
4657.935437808218
 20
-943.2647299912916
 10
4657.935437808218
 20
-950.7421477401432
 10
4642.90050921567
 20
-950.7421477401432
  0
LINE
  5
27D79
330
18
100
AcDbEntity
  8
0
100
AcDbLine
 10
4721.835437808219
 20
-935.6179639556598
 30
0.0
 11
4726.835437808218
 21
-935.6179639556598
 31
0.0
  0
LINE
  5
27D7A
330
18
100
AcDbEntity
  8
0
100
AcDbLine
 10
4717.835437808218
 20
-933.5179639556596
 30
0.0
 11
4721.835437808219
 21
-933.5179639556596
 31
0.0
  0
LINE
  5
27D7B
330
18
100
AcDbEntity
  8
0
100
AcDbLine
 10
4703.835437808217
 20
-939.3679639556598
 30
0.0
 11
4704.83543780822
 21
-939.8679639556599
 31
0.0
  0
LINE
  5
27D7C
330
18
100
AcDbEntity
  8
0
100
AcDbLine
 10
4704.83543780822
 20
-935.6179639556598
 30
0.0
 11
4703.835437808217
 21
-939.3679639556598
 31
0.0
  0
LINE
  5
27D7D
330
18
100
AcDbEntity
  8
0
100
AcDbLine
 10
4704.83543780822
 20
-939.8679639556599
 30
0.0
 11
4704.83543780822
 21
-935.6179639556598
 31
0.0
  0
LINE
  5
27D7E
330
18
100
AcDbEntity
  8
0
100
AcDbLine
 10
4704.83543780822
 20
-936.3679639556599
 30
0.0
 11
4717.835437808218
 21
-936.3679639556599
 31
0.0
  0
LINE
  5
27D7F
330
18
100
AcDbEntity
  8
0
100
AcDbLine
 10
4717.835437808218
 20
-935.6179639556598
 30
0.0
 11
4704.83543780822
 21
-935.6179639556598
 31
0.0
  0
LINE
  5
27D80
330
18
100
AcDbEntity
  8
0
100
AcDbLine
 10
4704.83543780822
 20
-939.3679639556598
 30
0.0
 11
4717.835437808218
 21
-939.3679639556598
 31
0.0
  0
LINE
  5
27D81
330
18
100
AcDbEntity
  8
0
100
AcDbLine
 10
4704.83543780822
 20
-948.3679639556598
 30
0.0
 11
4704.83543780822
 21
-945.3679639556597
 31
0.0
  0
LINE
  5
27D82
330
18
100
AcDbEntity
  8
0
100
AcDbLine
 10
4704.83543780822
 20
-945.3679639556597
 30
0.0
 11
4717.835437808218
 21
-945.3679639556597
 31
0.0
  0
LINE
  5
27D83
330
18
100
AcDbEntity
  8
0
100
AcDbLine
 10
4704.83543780822
 20
-948.3679639556598
 30
0.0
 11
4717.835437808218
 21
-948.3679639556598
 31
0.0
  0
LINE
  5
27D84
330
18
100
AcDbEntity
  8
0
100
AcDbLine
 10
4704.83543780822
 20
-951.3679639556599
 30
0.0
 11
4717.835437808218
 21
-951.3679639556599
 31
0.0
  0
LINE
  5
27D85
330
18
100
AcDbEntity
  8
0
100
AcDbLine
 10
4704.83543780822
 20
-942.3679639556599
 30
0.0
 11
4717.835437808218
 21
-942.3679639556599
 31
0.0
  0
LINE
  5
27D86
330
18
100
AcDbEntity
  8
0
100
AcDbLine
 10
4704.83543780822
 20
-942.3679639556599
 30
0.0
 11
4704.83543780822
 21
-939.3679639556598
 31
0.0
  0
LINE
  5
27D87
330
18
100
AcDbEntity
  8
0
100
AcDbLine
 10
4703.835437808217
 20
-939.3679639556605
 30
0.0
 11
4679.835437808217
 21
-939.3679639556605
 31
0.0
  0
CIRCLE
  5
27DF2
330
18
100
AcDbEntity
  8
0
100
AcDbCircle
 10
4244.761898348198
 20
-811.5384981060907
 30
0.0
 40
2.5
  0
CIRCLE
  5
27DF3
330
18
100
AcDbEntity
  8
0
100
AcDbCircle
 10
4244.761898348198
 20
-811.5384981060907
 30
0.0
 40
2.0
  0
LINE
  5
27DF4
330
18
100
AcDbEntity
  8
0
  6
CENTER
 48
0.3
100
AcDbLine
 10
4244.761898348198
 20
-816.9352692111893
 30
0.0
 11
4244.761898348198
 21
-806.3077867837382
 31
0.0
  0
LINE
  5
27DF5
330
18
100
AcDbEntity
  8
0
  6
CENTER
 48
0.3
100
AcDbLine
 10
4239.655600747343
 20
-811.5384981060907
 30
0.0
 11
4249.924003746949
 21
-811.5384981060907
 31
0.0
  0
LINE
  5
27DF6
330
18
100
AcDbEntity
  8
0
  6
CENTER
 48
0.3
100
AcDbLine
 10
4308.761898348199
 20
-816.9352692111893
 30
0.0
 11
4308.761898348199
 21
-806.3077867837382
 31
0.0
  0
CIRCLE
  5
27DF7
330
18
100
AcDbEntity
  8
0
100
AcDbCircle
 10
4308.761898348199
 20
-811.5384981060907
 30
0.0
 40
2.0
  0
CIRCLE
  5
27DF8
330
18
100
AcDbEntity
  8
0
100
AcDbCircle
 10
4308.761898348199
 20
-811.5384981060907
 30
0.0
 40
2.5
  0
LINE
  5
27DF9
330
18
100
AcDbEntity
  8
0
  6
CENTER
 48
0.3
100
AcDbLine
 10
4303.655600747343
 20
-811.5384981060907
 30
0.0
 11
4313.924003746949
 21
-811.5384981060907
 31
0.0
  0
CIRCLE
  5
27DFA
330
18
100
AcDbEntity
  8
0
100
AcDbCircle
 10
4244.761898348198
 20
-696.5384981060907
 30
0.0
 40
2.5
  0
CIRCLE
  5
27DFB
330
18
100
AcDbEntity
  8
0
100
AcDbCircle
 10
4244.761898348198
 20
-696.5384981060907
 30
0.0
 40
2.0
  0
LINE
  5
27DFC
330
18
100
AcDbEntity
  8
0
  6
CENTER
 48
0.3
100
AcDbLine
 10
4244.761898348198
 20
-701.2095936395032
 30
0.0
 11
4244.761898348198
 21
-692.0419965568197
 31
0.0
  0
LINE
  5
27DFD
330
18
100
AcDbEntity
  8
0
  6
CENTER
 48
0.3
100
AcDbLine
 10
4239.676656963974
 20
-696.5384981060907
 30
0.0
 11
4249.644943001054
 21
-696.5384981060907
 31
0.0
  0
LINE
  5
27DFE
330
18
100
AcDbEntity
  8
0
  6
CENTER
 48
0.3
100
AcDbLine
 10
4303.676656963974
 20
-696.5384981060907
 30
0.0
 11
4313.644943001054
 21
-696.5384981060907
 31
0.0
  0
LINE
  5
27DFF
330
18
100
AcDbEntity
  8
0
  6
CENTER
 48
0.3
100
AcDbLine
 10
4308.761898348199
 20
-701.2095936395032
 30
0.0
 11
4308.761898348199
 21
-692.0419965568197
 31
0.0
  0
CIRCLE
  5
27E00
330
18
100
AcDbEntity
  8
0
100
AcDbCircle
 10
4308.761898348199
 20
-696.5384981060907
 30
0.0
 40
2.0
  0
CIRCLE
  5
27E01
330
18
100
AcDbEntity
  8
0
100
AcDbCircle
 10
4308.761898348199
 20
-696.5384981060907
 30
0.0
 40
2.5
  0
CIRCLE
  5
27E02
330
18
100
AcDbEntity
  8
0
100
AcDbCircle
 10
4436.761898348199
 20
-811.5384981060907
 30
0.0
 40
2.5
  0
CIRCLE
  5
27E03
330
18
100
AcDbEntity
  8
0
100
AcDbCircle
 10
4436.761898348199
 20
-811.5384981060907
 30
0.0
 40
2.0
  0
LINE
  5
27E04
330
18
100
AcDbEntity
  8
0
  6
CENTER
 48
0.3
100
AcDbLine
 10
4436.761898348199
 20
-816.9352692111893
 30
0.0
 11
4436.761898348199
 21
-806.3077867837382
 31
0.0
  0
LINE
  5
27E05
330
18
100
AcDbEntity
  8
0
  6
CENTER
 48
0.3
100
AcDbLine
 10
4372.761898348199
 20
-816.9352692111893
 30
0.0
 11
4372.761898348199
 21
-806.3077867837382
 31
0.0
  0
CIRCLE
  5
27E06
330
18
100
AcDbEntity
  8
0
100
AcDbCircle
 10
4372.761898348199
 20
-811.5384981060907
 30
0.0
 40
2.0
  0
CIRCLE
  5
27E07
330
18
100
AcDbEntity
  8
0
100
AcDbCircle
 10
4372.761898348199
 20
-811.5384981060907
 30
0.0
 40
2.5
  0
LINE
  5
27E08
330
18
100
AcDbEntity
  8
0
  6
CENTER
 48
0.3
100
AcDbLine
 10
4367.655600747343
 20
-811.5384981060907
 30
0.0
 11
4377.924003746949
 21
-811.5384981060907
 31
0.0
  0
LINE
  5
27E09
330
18
100
AcDbEntity
  8
0
  6
CENTER
 48
0.3
100
AcDbLine
 10
4431.655600747343
 20
-811.5384981060907
 30
0.0
 11
4441.924003746949
 21
-811.5384981060907
 31
0.0
  0
LINE
  5
27E0A
330
18
100
AcDbEntity
  8
0
  6
CENTER
 48
0.3
100
AcDbLine
 10
4367.676656963974
 20
-696.5384981060907
 30
0.0
 11
4377.644943001054
 21
-696.5384981060907
 31
0.0
  0
LINE
  5
27E0B
330
18
100
AcDbEntity
  8
0
  6
CENTER
 48
0.3
100
AcDbLine
 10
4372.761898348199
 20
-701.2095936395032
 30
0.0
 11
4372.761898348199
 21
-692.0419965568197
 31
0.0
  0
CIRCLE
  5
27E0C
330
18
100
AcDbEntity
  8
0
100
AcDbCircle
 10
4372.761898348199
 20
-696.5384981060907
 30
0.0
 40
2.0
  0
CIRCLE
  5
27E0D
330
18
100
AcDbEntity
  8
0
100
AcDbCircle
 10
4372.761898348199
 20
-696.5384981060907
 30
0.0
 40
2.5
  0
CIRCLE
  5
27E0E
330
18
100
AcDbEntity
  8
0
100
AcDbCircle
 10
4436.761898348199
 20
-696.5384981060907
 30
0.0
 40
2.5
  0
CIRCLE
  5
27E0F
330
18
100
AcDbEntity
  8
0
100
AcDbCircle
 10
4436.761898348199
 20
-696.5384981060907
 30
0.0
 40
2.0
  0
LINE
  5
27E10
330
18
100
AcDbEntity
  8
0
  6
CENTER
 48
0.3
100
AcDbLine
 10
4436.761898348199
 20
-701.2095936395032
 30
0.0
 11
4436.761898348199
 21
-692.0419965568197
 31
0.0
  0
LINE
  5
27E11
330
18
100
AcDbEntity
  8
0
  6
CENTER
 48
0.3
100
AcDbLine
 10
4431.676656963974
 20
-696.5384981060907
 30
0.0
 11
4441.644943001054
 21
-696.5384981060907
 31
0.0
  0
CIRCLE
  5
27E12
330
18
100
AcDbEntity
  8
0
100
AcDbCircle
 10
4564.761898348199
 20
-811.5384981060907
 30
0.0
 40
2.5
  0
CIRCLE
  5
27E13
330
18
100
AcDbEntity
  8
0
100
AcDbCircle
 10
4564.761898348199
 20
-811.5384981060907
 30
0.0
 40
2.0
  0
LINE
  5
27E14
330
18
100
AcDbEntity
  8
0
  6
CENTER
 48
0.3
100
AcDbLine
 10
4564.761898348199
 20
-816.9352692111893
 30
0.0
 11
4564.761898348199
 21
-806.3077867837382
 31
0.0
  0
LINE
  5
27E15
330
18
100
AcDbEntity
  8
0
  6
CENTER
 48
0.3
100
AcDbLine
 10
4500.761898348199
 20
-816.9352692111893
 30
0.0
 11
4500.761898348199
 21
-806.3077867837382
 31
0.0
  0
CIRCLE
  5
27E16
330
18
100
AcDbEntity
  8
0
100
AcDbCircle
 10
4500.761898348199
 20
-811.5384981060907
 30
0.0
 40
2.0
  0
CIRCLE
  5
27E17
330
18
100
AcDbEntity
  8
0
100
AcDbCircle
 10
4500.761898348199
 20
-811.5384981060907
 30
0.0
 40
2.5
  0
LINE
  5
27E18
330
18
100
AcDbEntity
  8
0
  6
CENTER
 48
0.3
100
AcDbLine
 10
4495.655600747343
 20
-811.5384981060907
 30
0.0
 11
4505.924003746949
 21
-811.5384981060907
 31
0.0
  0
LINE
  5
27E19
330
18
100
AcDbEntity
  8
0
  6
CENTER
 48
0.3
100
AcDbLine
 10
4559.655600747343
 20
-811.5384981060907
 30
0.0
 11
4569.924003746949
 21
-811.5384981060907
 31
0.0
  0
LINE
  5
27E1A
330
18
100
AcDbEntity
  8
0
  6
CENTER
 48
0.3
100
AcDbLine
 10
4495.676656963974
 20
-696.5384981060907
 30
0.0
 11
4505.644943001054
 21
-696.5384981060907
 31
0.0
  0
LINE
  5
27E1B
330
18
100
AcDbEntity
  8
0
  6
CENTER
 48
0.3
100
AcDbLine
 10
4500.761898348199
 20
-701.2095936395032
 30
0.0
 11
4500.761898348199
 21
-692.0419965568197
 31
0.0
  0
CIRCLE
  5
27E1C
330
18
100
AcDbEntity
  8
0
100
AcDbCircle
 10
4500.761898348199
 20
-696.5384981060907
 30
0.0
 40
2.0
  0
CIRCLE
  5
27E1D
330
18
100
AcDbEntity
  8
0
100
AcDbCircle
 10
4500.761898348199
 20
-696.5384981060907
 30
0.0
 40
2.5
  0
CIRCLE
  5
27E1E
330
18
100
AcDbEntity
  8
0
100
AcDbCircle
 10
4564.761898348199
 20
-696.5384981060907
 30
0.0
 40
2.5
  0
CIRCLE
  5
27E1F
330
18
100
AcDbEntity
  8
0
100
AcDbCircle
 10
4564.761898348199
 20
-696.5384981060907
 30
0.0
 40
2.0
  0
LINE
  5
27E20
330
18
100
AcDbEntity
  8
0
  6
CENTER
 48
0.3
100
AcDbLine
 10
4564.761898348199
 20
-701.2095936395032
 30
0.0
 11
4564.761898348199
 21
-692.0419965568197
 31
0.0
  0
LINE
  5
27E21
330
18
100
AcDbEntity
  8
0
  6
CENTER
 48
0.3
100
AcDbLine
 10
4559.676656963974
 20
-696.5384981060907
 30
0.0
 11
4569.644943001054
 21
-696.5384981060907
 31
0.0
  0
LINE
  5
27FC4
330
18
100
AcDbEntity
  8
0
  6
CENTER
 48
0.6
100
AcDbLine
 10
4802.870681616715
 20
-802.0362086454991
 30
0.0
 11
4788.871390401241
 21
-802.0362086454991
 31
0.0
  0
LINE
  5
27FC5
330
18
100
AcDbEntity
  8
0
  6
CENTER
 48
0.6
100
AcDbLine
 10
4802.870681616715
 20
-778.036208645499
 30
0.0
 11
4788.871390401241
 21
-778.036208645499
 31
0.0
  0
CIRCLE
  5
27FC7
330
18
100
AcDbEntity
  8
0
100
AcDbCircle
 10
4796.870681616715
 20
-778.036208645499
 30
0.0
 40
2.0
  0
CIRCLE
  5
27FC8
330
18
100
AcDbEntity
  8
0
100
AcDbCircle
 10
4796.870681616715
 20
-778.036208645499
 30
0.0
 40
1.6
  0
CIRCLE
  5
27FC9
330
18
100
AcDbEntity
  8
0
100
AcDbCircle
 10
4796.870456944147
 20
-802.0362086454991
 30
0.0
 40
2.0
  0
CIRCLE
  5
27FCA
330
18
100
AcDbEntity
  8
0
100
AcDbCircle
 10
4796.870456944147
 20
-802.0362086454991
 30
0.0
 40
1.6
  0
LINE
  5
28029
330
18
100
AcDbEntity
  8
0
  6
CENTER
 48
0.6
100
AcDbLine
 10
4600.761980389338
 20
-778.036208645499
 30
0.0
 11
4586.762689173863
 21
-778.036208645499
 31
0.0
  0
LINE
  5
2802A
330
18
100
AcDbEntity
  8
0
  6
CENTER
 48
0.6
100
AcDbLine
 10
4600.761980389338
 20
-802.0362086454991
 30
0.0
 11
4586.762689173863
 21
-802.0362086454991
 31
0.0
  0
LINE
  5
2826D
330
18
100
AcDbEntity
  8
0
  6
CENTER
 48
0.3
100
AcDbLine
 10
4796.871390395039
 20
-819.0358497658998
 30
0.0
 11
4796.870681610513
 21
-768.8306383603321
 31
0.0
  0
LWPOLYLINE
  5
282D1
102
{ACAD_REACTORS
330
282DC
102
}
330
18
100
AcDbEntity
  8
0
  6
HIDDEN
 48
0.6
100
AcDbPolyline
 90
        5
 70
     0
 43
0.0
 10
3987.910836153018
 20
-814.9626647812445
 10
3987.910836153018
 20
-692.9626647812445
 10
3999.910836153015
 20
-692.9626647812445
 10
3999.910836153015
 20
-814.9626647812445
 10
3987.910836153018
 20
-814.9626647812445
  0
LINE
  5
282D2
102
{ACAD_REACTORS
330
282DC
102
}
330
18
100
AcDbEntity
  8
0
 48
0.3
100
AcDbLine
 10
4001.410127368491
 20
-707.036208645499
 30
0.0
 11
4001.410127368491
 21
-801.0361647812445
 31
0.0
  0
LINE
  5
282D3
102
{ACAD_REACTORS
330
282DC
102
}
330
18
100
AcDbEntity
  8
0
 48
0.3
100
AcDbLine
 10
3961.910127368491
 20
-689.0361647812442
 30
0.0
 11
3961.910127368491
 21
-819.0361647812443
 31
0.0
  0
CIRCLE
  5
282D4
102
{ACAD_REACTORS
330
282DC
102
}
330
18
100
AcDbEntity
  8
0
  6
HIDDEN
 48
0.6
100
AcDbCircle
 10
3993.911207559158
 20
-808.9467918200732
 30
0.0
 40
4.0
  0
LINE
  5
282D5
102
{ACAD_REACTORS
330
282DC
102
}
330
18
100
AcDbEntity
  8
0
 48
0.3
100
AcDbLine
 10
4001.910127368492
 20
-819.0361647812443
 30
0.0
 11
4001.910836153018
 21
-801.0361647812445
 31
0.0
  0
LINE
  5
282D6
102
{ACAD_REACTORS
330
282DC
102
}
330
18
100
AcDbEntity
  8
0
 48
0.3
100
AcDbLine
 10
3961.910127368491
 20
-819.0361647812443
 30
0.0
 11
4001.910127368492
 21
-819.0361647812443
 31
0.0
  0
LINE
  5
282D7
102
{ACAD_REACTORS
330
282DC
102
}
330
18
100
AcDbEntity
  8
0
 48
0.3
100
AcDbLine
 10
4001.409995711796
 20
-801.0361647812445
 30
0.0
 11
4001.910836153018
 21
-801.0361647812445
 31
0.0
  0
CIRCLE
  5
282D8
102
{ACAD_REACTORS
330
282DC
102
}
330
18
100
AcDbEntity
  8
0
  6
HIDDEN
 48
0.6
100
AcDbCircle
 10
3993.911207559161
 20
-698.9467918200728
 30
0.0
 40
4.0
  0
LINE
  5
282D9
102
{ACAD_REACTORS
330
282DC
102
}
330
18
100
AcDbEntity
  8
0
 48
0.3
100
AcDbLine
 10
4001.910127368492
 20
-689.0361647812443
 30
0.0
 11
3961.910127368491
 21
-689.0361647812443
 31
0.0
  0
LINE
  5
282DA
102
{ACAD_REACTORS
330
282DC
102
}
330
18
100
AcDbEntity
  8
0
 48
0.3
100
AcDbLine
 10
4001.910127368492
 20
-707.0361647812442
 30
0.0
 11
4001.410127368491
 21
-707.0361647812442
 31
0.0
  0
LINE
  5
282DB
102
{ACAD_REACTORS
330
282DC
102
}
330
18
100
AcDbEntity
  8
0
 48
0.3
100
AcDbLine
 10
4001.910127368492
 20
-707.0361647812442
 30
0.0
 11
4001.910127368492
 21
-689.0361647812442
 31
0.0
  0
LINE
  5
282DD
330
18
100
AcDbEntity
  8
0
  6
PHANTOM
 48
0.75
100
AcDbLine
 10
3955.710127368491
 20
-689.0385198321476
 30
0.0
 11
3947.910127368492
 21
-689.0385198321476
 31
0.0
  0
LINE
  5
282DE
330
18
100
AcDbEntity
  8
0
  6
PHANTOM
 48
0.75
100
AcDbLine
 10
3947.910127368492
 20
-689.0385198321476
 30
0.0
 11
3947.910127368492
 21
-819.0385198321482
 31
0.0
  0
LINE
  5
282DF
330
18
100
AcDbEntity
  8
0
  6
PHANTOM
 48
0.75
100
AcDbLine
 10
3947.910127368492
 20
-819.0385198321482
 30
0.0
 11
3955.710127368491
 21
-819.0385198321482
 31
0.0
  0
LINE
  5
282E0
330
18
100
AcDbEntity
  8
0
  6
PHANTOM
 48
0.75
100
AcDbLine
 10
3955.710127368491
 20
-819.0385198321482
 30
0.0
 11
3955.710127368491
 21
-689.0385198321476
 31
0.0
  0
LINE
  5
282FA
330
18
100
AcDbEntity
  8
隠れ線
  6
HIDDEN
 48
0.75
100
AcDbLine
 10
4842.871390401241
 20
-808.4353647812442
 30
0.0
 11
4835.071390401241
 21
-808.4353647812442
 31
0.0
  0
LINE
  5
282FB
330
18
100
AcDbEntity
  8
隠れ線
  6
HIDDEN
 48
0.75
100
AcDbLine
 10
4842.871390401241
 20
-814.4353647812442
 30
0.0
 11
4835.071390401241
 21
-814.4353647812442
 31
0.0
  0
LINE
  5
282FC
330
18
100
AcDbEntity
  8
隠れ線
  6
HIDDEN
 48
0.75
100
AcDbLine
 10
4842.871390401241
 20
-693.435364781244
 30
0.0
 11
4835.071390401241
 21
-693.435364781244
 31
0.0
  0
LINE
  5
282FD
330
18
100
AcDbEntity
  8
隠れ線
  6
HIDDEN
 48
0.75
100
AcDbLine
 10
4842.871390401241
 20
-699.4353647812442
 30
0.0
 11
4835.071390401241
 21
-699.4353647812442
 31
0.0
  0
LINE
  5
283AA
330
18
100
AcDbEntity
  8
隠れ線
  6
HIDDEN
 48
0.75
100
AcDbLine
 10
3947.910127368492
 20
-808.4376981060904
 30
0.0
 11
3955.710127368491
 21
-808.4376981060904
 31
0.0
  0
LINE
  5
283AB
330
18
100
AcDbEntity
  8
隠れ線
  6
HIDDEN
 48
0.75
100
AcDbLine
 10
3947.910127368492
 20
-814.4376981060903
 30
0.0
 11
3955.710127368491
 21
-814.4376981060903
 31
0.0
  0
LINE
  5
283AC
330
18
100
AcDbEntity
  8
隠れ線
  6
HIDDEN
 48
0.75
100
AcDbLine
 10
3947.910127368492
 20
-693.4376981060902
 30
0.0
 11
3955.710127368491
 21
-693.4376981060902
 31
0.0
  0
LINE
  5
283AD
330
18
100
AcDbEntity
  8
隠れ線
  6
HIDDEN
 48
0.75
100
AcDbLine
 10
3947.910127368492
 20
-699.4376981060902
 30
0.0
 11
3955.710127368491
 21
-699.4376981060902
 31
0.0
  0
VIEWPORT
  5
23
330
15
100
AcDbEntity
 67
     1
  8
0
100
AcDbViewport
 10
202.9830218580992
 20
145.2665143469971
 30
0.0
 40
647.6280815386635
 41
296.4197943701909
 68
     1
 69
     1
1001
ACAD
1000
MVIEW
1002
{
1070
    16
1010
0.0
1020
0.0
1030
0.0
1010
0.0
1020
0.0
1030
1.0
1040
0.0
1040
296.4197943701909
1040
202.9830218580992
1040
145.2665143469971
1040
50.0
1040
0.0
1040
0.0
1070
     0
1070
   100
1070
     1
1070
     0
1070
     0
1070
     0
1070
     0
1070
     0
1040
0.0
1040
0.0
1040
0.0
1040
10.0
1040
10.0
1040
10.0
1040
10.0
1070
     0
1002
{
1002
}
1002
}
  0
VIEWPORT
  5
2E
330
15
100
AcDbEntity
 67
     1
  8
M_VIEW
100
AcDbViewport
 10
200.0
 20
144.0
 30
0.0
 40
400.0
 41
288.0
 68
     2
 69
     2
1001
ACAD
1000
MVIEW
1002
{
1070
    16
1010
0.0
1020
0.0
1030
0.0
1010
0.0
1020
0.0
1030
1.0
1040
0.0
1040
720.0000041188281
1040
4432.983713522412
1040
-881.8326499689851
1040
50.0
1040
0.0
1040
0.0
1070
     0
1070
   100
1070
     1
1070
     0
1070
     0
1070
     0
1070
     0
1070
     0
1040
0.0
1040
0.0
1040
0.0
1040
10.0
1040
10.0
1040
10.0
1040
10.0
1070
     0
1002
{
1002
}
1002
}
  0
INSERT
  5
115F
330
15
100
AcDbEntity
 67
     1
  8
FRAME025
100
AcDbBlockReference
  2
機械A4横_LBP
 10
82.74908858651452
 20
152.030959079227
 30
0.0
  0
TEXT
  5
AA6A
330
15
100
AcDbEntity
 67
     1
  8
文字
  6
BYBLOCK
 62
     0
100
AcDbText
 10
32.81885892396519
 20
73.01882819621747
 30
0.0
 40
3.2
  1

 50
90.0
 41
0.625
  7
MSｺ_ｼｯｸ
100
AcDbText
  0
TEXT
  5
AA6C
330
15
100
AcDbEntity
 67
     1
  8
文字
  6
BYBLOCK
 62
     0
100
AcDbText
 10
37.25020936743055
 20
73.01882819621747
 30
0.0
 40
3.2
  1

 50
90.0
 41
0.625
  7
MSｺ_ｼｯｸ
100
AcDbText
  0
TEXT
  5
FCA5
330
15
100
AcDbEntity
 67
     1
  8
FRAME020
  6
CONTINUOUS
100
AcDbText
 10
126.6213117262079
 20
29.63926951973459
 30
0.0
 40
2.5
  1

 41
0.625
  7
MSｺ_ｼｯｸ
100
AcDbText
  0
TEXT
  5
12229
330
15
100
AcDbEntity
 67
     1
  8
0
100
AcDbText
 10
324.703280378293
 20
10.63168299257869
 30
0.0
 40
6.0
  1
ＳＥ－３８０１０Ａ
 41
1.1
100
AcDbText
  0
MTEXT
  5
284DD
330
15
100
AcDbEntity
 67
     1
  8
DIMENSION
100
AcDbMText
 10
212.5530969153763
 20
27.12203931060867
 30
0.0
 40
6.0
 41
185.4933
 71
     1
 72
     5
  1
τﾘﾆｱﾓｰﾀ ｺｱ付N NLA-NA CLﾕﾆｯﾄ CLN1500MA (1500N)
  7
ｽﾀｲﾙ3
1001
ACAD
1000
MTEXTBEGIN
1070
    73
1070
     1
1070
    44
1040
1.0
1070
    74
1070
     0
1000
MTEXTEND
  0
ENDSEC
  0
SECTION
  2
OBJECTS
  0
DICTIONARY
  5
C
330
0
100
AcDbDictionary
  3
ACAD_GROUP
350
D
  3
ACAD_LAYOUT
350
DB2
  3
ACAD_MLINESTYLE
350
1B
  3
ACAD_PLOTSETTINGS
350
DB3
  3
ACAD_PLOTSTYLENAME
350
FB5B
  3
ACADDIM
350
1B534
  3
ACDBHEADERROUNDTRIPXREC
350
284F5
  3
ACDBVARIABLEDICTIONARY
350
106A6
  3
ASE_INDEX_DICTIONARY
350
1A99F
  3
DWGPROPS
350
15EC9
1001
ACAD
1000
TREAT_AS_HARD
1070
     0
  0
DICTIONARY
  5
283CC
330
2
100
AcDbDictionary
280
     1
  3
ACAD_LAYERFILTERS
360
283CD
  3
ACAD_LAYERSTATES
360
283D9
  0
DICTIONARY
  5
EFC6
330
18
100
AcDbDictionary
280
     1
  3
ACAD_LAYOUTSELFREF
360
28517
  0
DICTIONARY
  5
EFC4
330
15
100
AcDbDictionary
280
     1
  3
ACAD_LAYOUTSELFREF
360
28516
  0
DICTIONARY
  5
D
102
{ACAD_REACTORS
330
C
102
}
330
C
100
AcDbDictionary
  3
*A1
350
AC8A
  3
*A10
350
1D68E
  3
*A100
350
196C2
  3
*A101
350
26E60
  3
*A102
350
26C43
  3
*A103
350
1738A
  3
*A104
350
1F8F0
  3
*A105
350
2532B
  3
*A106
350
27CB5
  3
*A107
350
25331
  3
*A108
350
19FAB
  3
*A109
350
1D710
  3
*A11
350
265CA
  3
*A110
350
26C53
  3
*A111
350
173BE
  3
*A112
350
25385
  3
*A113
350
1F8F5
  3
*A114
350
25584
  3
*A115
350
16059
  3
*A116
350
1D670
  3
*A117
350
19F67
  3
*A118
350
2001C
  3
*A119
350
19F87
  3
*A12
350
20213
  3
*A120
350
1EB7D
  3
*A121
350
25585
  3
*A122
350
26E24
  3
*A123
350
16069
  3
*A124
350
2531F
  3
*A125
350
25307
  3
*A126
350
1D6DE
  3
*A127
350
1D706
  3
*A128
350
25586
  3
*A129
350
25E12
  3
*A13
350
25301
  3
*A130
350
25325
  3
*A131
350
1D698
  3
*A132
350
25590
  3
*A133
350
1D6CA
  3
*A134
350
265CE
  3
*A135
350
25343
  3
*A136
350
252DD
  3
*A137
350
25596
  3
*A138
350
252EF
  3
*A139
350
1D6C0
  3
*A14
350
2535B
  3
*A140
350
16058
  3
*A141
350
2559C
  3
*A142
350
1606B
  3
*A143
350
2022C
  3
*A144
350
2559D
  3
*A145
350
259CF
  3
*A146
350
26E61
  3
*A147
350
20022
  3
*A148
350
1EB7F
  3
*A149
350
1EB7E
  3
*A15
350
27CB8
  3
*A150
350
259D0
  3
*A151
350
25337
  3
*A152
350
19255
  3
*A153
350
ACA1
  3
*A154
350
259D1
  3
*A155
350
19AA4
  3
*A156
350
20025
  3
*A157
350
18FA8
  3
*A158
350
1F91D
  3
*A159
350
2629A
  3
*A16
350
19787
  3
*A160
350
20CA2
  3
*A161
350
262A0
  3
*A162
350
AC9A
  3
*A163
350
1D67A
  3
*A164
350
252F5
  3
*A165
350
265D2
  3
*A166
350
26C78
  3
*A167
350
26E26
  3
*A168
350
2732E
  3
*A169
350
20013
  3
*A17
350
25397
  3
*A170
350
25373
  3
*A171
350
2001F
  3
*A172
350
1D6AC
  3
*A173
350
ACBD
  3
*A174
350
25319
  3
*A175
350
2629D
  3
*A176
350
259D2
  3
*A177
350
25AC2
  3
*A178
350
25AC3
  3
*A179
350
173BF
  3
*A18
350
18F23
  3
*A180
350
19881
  3
*A181
350
106A5
  3
*A182
350
26E5E
  3
*A183
350
169DA
  3
*A184
350
20209
  3
*A185
350
1F90E
  3
*A186
350
1A695
  3
*A187
350
26C8B
  3
*A188
350
1EB7C
  3
*A189
350
26095
  3
*A19
350
18FA7
  3
*A190
350
FB6B
  3
*A191
350
2020E
  3
*A192
350
262A1
  3
*A193
350
1A09A
  3
*A194
350
19A52
  3
*A195
350
26B3D
  3
*A196
350
2533D
  3
*A197
350
20218
  3
*A198
350
19861
  3
*A199
350
2530D
  3
*A2
350
265C7
  3
*A20
350
16068
  3
*A200
350
2732F
  3
*A201
350
27330
  3
*A202
350
27CB6
  3
*A203
350
25355
  3
*A204
350
2536D
  3
*A205
350
25E10
  3
*A206
350
27331
  3
*A207
350
106C6
  3
*A208
350
17901
  3
*A209
350
20227
  3
*A21
350
265D0
  3
*A210
350
265CC
  3
*A211
350
25349
  3
*A212
350
27332
  3
*A213
350
2608F
  3
*A214
350
27CB7
  3
*A215
350
265D1
  3
*A216
350
25D0E
  3
*A217
350
27333
  3
*A218
350
26094
  3
*A219
350
1F918
  3
*A22
350
26C06
  3
*A220
350
1F904
  3
*A221
350
27334
  3
*A222
350
27335
  3
*A223
350
26096
  3
*A224
350
17B11
  3
*A225
350
18F20
  3
*A226
350
265CB
  3
*A227
350
2629F
  3
*A228
350
27336
  3
*A229
350
265C8
  3
*A23
350
19988
  3
*A230
350
2002B
  3
*A231
350
252FB
  3
*A232
350
25D97
  3
*A233
350
27337
  3
*A234
350
282C4
  3
*A235
350
20CA6
  3
*A236
350
25D0D
  3
*A237
350
27338
  3
*A238
350
25D0A
  3
*A239
350
25367
  3
*A24
350
1B744
  3
*A240
350
1606A
  3
*A241
350
18F22
  3
*A242
350
277FA
  3
*A243
350
277FB
  3
*A244
350
19A5A
  3
*A245
350
26090
  3
*A246
350
19729
  3
*A247
350
1D6FC
  3
*A248
350
1AA94
  3
*A249
350
19A86
  3
*A25
350
FC95
  3
*A250
350
277FC
  3
*A251
350
26E25
  3
*A252
350
1A691
  3
*A253
350
26C4B
  3
*A254
350
25D0B
  3
*A255
350
265CF
  3
*A256
350
282D0
  3
*A257
350
2629C
  3
*A258
350
20016
  3
*A259
350
277FD
  3
*A26
350
1F909
  3
*A260
350
277FE
  3
*A261
350
277FF
  3
*A262
350
1B756
  3
*A263
350
1D6E8
  3
*A264
350
2538B
  3
*A265
350
27800
  3
*A266
350
27801
  3
*A267
350
173BD
  3
*A268
350
25D0C
  3
*A269
350
20222
  3
*A27
350
20010
  3
*A270
350
27802
  3
*A271
350
27803
  3
*A272
350
19989
  3
*A273
350
282DC
  3
*A28
350
1B732
  3
*A29
350
1998A
  3
*A3
350
26093
  3
*A30
350
25379
  3
*A31
350
265CD
  3
*A32
350
106C7
  3
*A33
350
1A692
  3
*A34
350
2629B
  3
*A35
350
20019
  3
*A36
350
1D6D4
  3
*A37
350
27CB4
  3
*A38
350
20236
  3
*A39
350
1D6A2
  3
*A4
350
25391
  3
*A40
350
25313
  3
*A41
350
24D3F
  3
*A42
350
26C07
  3
*A43
350
ACAB
  3
*A44
350
1B720
  3
*A45
350
FCB8
  3
*A46
350
FB6C
  3
*A47
350
2786D
  3
*A48
350
252E3
  3
*A49
350
1B74D
  3
*A5
350
2534F
  3
*A50
350
26E22
  3
*A51
350
1B729
  3
*A52
350
18FA6
  3
*A53
350
18F1F
  3
*A54
350
26091
  3
*A55
350
26092
  3
*A56
350
19786
  3
*A57
350
25E13
  3
*A58
350
1D684
  3
*A59
350
17BFF
  3
*A6
350
20028
  3
*A60
350
265C9
  3
*A61
350
27CB3
  3
*A62
350
19F55
  3
*A63
350
2786E
  3
*A64
350
26B62
  3
*A65
350
2786C
  3
*A66
350
1F8FA
  3
*A67
350
19259
  3
*A68
350
1738B
  3
*A69
350
1D6B6
  3
*A7
350
27804
  3
*A70
350
19F99
  3
*A71
350
19794
  3
*A72
350
198F1
  3
*A73
350
215A2
  3
*A74
350
1F8FF
  3
*A75
350
25361
  3
*A76
350
ACA2
  3
*A77
350
253AB
  3
*A78
350
FC9B
  3
*A79
350
20231
  3
*A8
350
1B73B
  3
*A80
350
FC91
  3
*A81
350
27805
  3
*A82
350
17389
  3
*A83
350
2021D
  3
*A84
350
FBFF
  3
*A85
350
ACB4
  3
*A86
350
1D6F2
  3
*A87
350
252E9
  3
*A88
350
FC9A
  3
*A89
350
1F913
  3
*A9
350
25E11
  3
*A90
350
26E5F
  3
*A91
350
19A51
  3
*A92
350
19256
  3
*A93
350
2537F
  3
*A94
350
27806
  3
*A95
350
26E23
  3
*A96
350
106B3
  3
*A97
350
18F21
  3
*A98
350
2629E
  3
*A99
350
1EB80
1001
ACAD
1000
TREAT_AS_HARD
1070
     0
  0
DICTIONARY
  5
DB2
102
{ACAD_REACTORS
330
C
102
}
330
C
100
AcDbDictionary
1001
ACAD
1000
TREAT_AS_HARD
1070
     0
  0
DICTIONARY
  5
1B
102
{ACAD_REACTORS
330
C
102
}
330
C
100
AcDbDictionary
  3
STANDARD
350
1C
1001
ACAD
1000
TREAT_AS_HARD
1070
     0
  0
DICTIONARY
  5
DB3
102
{ACAD_REACTORS
330
C
102
}
330
C
100
AcDbDictionary
1001
ACAD
1000
TREAT_AS_HARD
1070
     0
  0
ACDBDICTIONARYWDFLT
  5
FB5B
102
{ACAD_REACTORS
330
C
102
}
330
C
100
AcDbDictionary
281
     1
  3
Normal
350
FB5C
100
AcDbDictionaryWithDefault
340
FB5C
  0
XRECORD
  5
1B534
102
{ACAD_REACTORS
330
C
102
}
330
C
100
AcDbXrecord
 90
   990106
  3

 60
     0
 61
     0
 62
     4
 63
     4
 64
     1
 65
     0
 66
     0
 67
     3
 68
     1
 69
     0
 70
     0
 71
     0
 72
     0
 40
0.0
170
     2
340
28012
  0
DICTIONARY
  5
284F5
102
{ACAD_REACTORS
330
C
102
}
330
C
100
AcDbDictionary
  3
CEPSNTYPE
350
284FF
  3
DIMSTYLEDATA
350
28503
  3
FINGERPRINTGUID
350
28500
  3
HYPERLINKBASE
350
284F8
  3
INSUNITS
350
284FE
  3
LAYOUTDICT
350
284FA
  3
LWETCUNION
350
284FD
  3
PLOTSETDICT
350
284FB
  3
PLOTSTYLNAMDICT
350
284FC
  3
PSVPSCALE
350
28502
  3
PUCSBASE
350
28506
  3
PUCSORGBACK
350
2850C
  3
PUCSORGBOTTOM
350
28508
  3
PUCSORGFRONT
350
2850B
  3
PUCSORGLEFT
350
28509
  3
PUCSORGRIGHT
350
2850A
  3
PUCSORGTOP
350
28507
  3
PUCSORTHOREF
350
28504
  3
PUCSORTHOVIEW
350
28505
  3
STYLESHEET
350
284F9
  3
TSTACKALIGN
350
284F6
  3
TSTACKSIZE
350
284F7
  3
UCSBASE
350
2850F
  3
UCSORGBACK
350
28515
  3
UCSORGBOTTOM
350
28511
  3
UCSORGFRONT
350
28514
  3
UCSORGLEFT
350
28512
  3
UCSORGRIGHT
350
28513
  3
UCSORGTOP
350
28510
  3
UCSORTHOREF
350
2850D
  3
UCSORTHOVIEW
350
2850E
  3
VERSIONGUID
350
28501
  0
DICTIONARY
  5
106A6
102
{ACAD_REACTORS
330
C
102
}
330
C
100
AcDbDictionary
  3
SORTENTS
350
106A7
  0
DICTIONARY
  5
1A99F
102
{ACAD_REACTORS
330
C
102
}
330
C
100
AcDbDictionary
  3
ASEBLOCKHIERARCHYINDEXRECORD
350
1A9A1
1001
DCO15
1040
1464612067.17
  0
XRECORD
  5
15EC9
102
{ACAD_REACTORS
330
C
102
}
330
C
100
AcDbXrecord
  1
DWGPROPS COOKIE
  2

  3

  4

  6

  7

  8

  9

300
=
301
=
302
=
303
=
304
=
305
=
306
=
307
=
308
=
309
=
 40
12.65185717592592
 41
2451224.660162384
 42
2452395.660827315
  1

 90
        0
  0
DICTIONARY
  5
283CD
102
{ACAD_REACTORS
330
283CC
102
}
330
283CC
100
AcDbDictionary
280
     1
  3
0
360
283CE
  3
11
360
283CF
  3
150_
360
283D0
  3
160_
360
283D1
  3
170_
360
283D2
  3
171_
360
283D3
  3
350_
360
283D4
  3
4
360
283D5
  3
5
360
283D6
  3
7
360
283D7
  3
KISEKI
360
283D8
  0
DICTIONARY
  5
283D9
102
{ACAD_REACTORS
330
283CC
102
}
330
283CC
100
AcDbDictionary
  0
XRECORD
  5
28517
102
{ACAD_REACTORS
330
EFC6
102
}
330
EFC6
100
AcDbXrecord
340
18
  0
XRECORD
  5
28516
102
{ACAD_REACTORS
330
EFC4
102
}
330
EFC4
100
AcDbXrecord
340
15
  0
GROUP
  5
AC8A
102
{ACAD_REACTORS
330
D
102
}
330
D
100
AcDbGroup
300

 70
     1
 71
     1
  0
GROUP
  5
1D68E
102
{ACAD_REACTORS
330
D
102
}
330
D
100
AcDbGroup
300

 70
     1
 71
     1
  0
GROUP
  5
196C2
102
{ACAD_REACTORS
330
D
102
}
330
D
100
AcDbGroup
300

 70
     1
 71
     1
  0
GROUP
  5
26E60
102
{ACAD_REACTORS
330
D
102
}
330
D
100
AcDbGroup
300

 70
     1
 71
     1
  0
GROUP
  5
26C43
102
{ACAD_REACTORS
330
D
102
}
330
D
100
AcDbGroup
300

 70
     1
 71
     1
  0
GROUP
  5
1738A
102
{ACAD_REACTORS
330
D
102
}
330
D
100
AcDbGroup
300

 70
     1
 71
     1
  0
GROUP
  5
1F8F0
102
{ACAD_REACTORS
330
D
102
}
330
D
100
AcDbGroup
300

 70
     1
 71
     1
  0
GROUP
  5
2532B
102
{ACAD_REACTORS
330
D
102
}
330
D
100
AcDbGroup
300

 70
     1
 71
     1
  0
GROUP
  5
27CB5
102
{ACAD_REACTORS
330
D
102
}
330
D
100
AcDbGroup
300

 70
     1
 71
     1
  0
GROUP
  5
25331
102
{ACAD_REACTORS
330
D
102
}
330
D
100
AcDbGroup
300

 70
     1
 71
     1
  0
GROUP
  5
19FAB
102
{ACAD_REACTORS
330
D
102
}
330
D
100
AcDbGroup
300

 70
     1
 71
     1
  0
GROUP
  5
1D710
102
{ACAD_REACTORS
330
D
102
}
330
D
100
AcDbGroup
300

 70
     1
 71
     1
  0
GROUP
  5
265CA
102
{ACAD_REACTORS
330
D
102
}
330
D
100
AcDbGroup
300

 70
     1
 71
     1
  0
GROUP
  5
26C53
102
{ACAD_REACTORS
330
D
102
}
330
D
100
AcDbGroup
300

 70
     1
 71
     1
  0
GROUP
  5
173BE
102
{ACAD_REACTORS
330
D
102
}
330
D
100
AcDbGroup
300

 70
     1
 71
     1
  0
GROUP
  5
25385
102
{ACAD_REACTORS
330
D
102
}
330
D
100
AcDbGroup
300

 70
     1
 71
     1
  0
GROUP
  5
1F8F5
102
{ACAD_REACTORS
330
D
102
}
330
D
100
AcDbGroup
300

 70
     1
 71
     1
  0
GROUP
  5
25584
102
{ACAD_REACTORS
330
D
102
}
330
D
100
AcDbGroup
300

 70
     1
 71
     1
  0
GROUP
  5
16059
102
{ACAD_REACTORS
330
D
102
}
330
D
100
AcDbGroup
300

 70
     1
 71
     1
  0
GROUP
  5
1D670
102
{ACAD_REACTORS
330
D
102
}
330
D
100
AcDbGroup
300

 70
     1
 71
     1
  0
GROUP
  5
19F67
102
{ACAD_REACTORS
330
D
102
}
330
D
100
AcDbGroup
300

 70
     1
 71
     1
  0
GROUP
  5
2001C
102
{ACAD_REACTORS
330
D
102
}
330
D
100
AcDbGroup
300

 70
     1
 71
     1
  0
GROUP
  5
19F87
102
{ACAD_REACTORS
330
D
102
}
330
D
100
AcDbGroup
300

 70
     1
 71
     1
  0
GROUP
  5
20213
102
{ACAD_REACTORS
330
D
102
}
330
D
100
AcDbGroup
300

 70
     1
 71
     1
  0
GROUP
  5
1EB7D
102
{ACAD_REACTORS
330
D
102
}
330
D
100
AcDbGroup
300

 70
     1
 71
     1
  0
GROUP
  5
25585
102
{ACAD_REACTORS
330
D
102
}
330
D
100
AcDbGroup
300

 70
     1
 71
     1
  0
GROUP
  5
26E24
102
{ACAD_REACTORS
330
D
102
}
330
D
100
AcDbGroup
300

 70
     1
 71
     1
  0
GROUP
  5
16069
102
{ACAD_REACTORS
330
D
102
}
330
D
100
AcDbGroup
300

 70
     1
 71
     1
  0
GROUP
  5
2531F
102
{ACAD_REACTORS
330
D
102
}
330
D
100
AcDbGroup
300

 70
     1
 71
     1
  0
GROUP
  5
25307
102
{ACAD_REACTORS
330
D
102
}
330
D
100
AcDbGroup
300

 70
     1
 71
     1
  0
GROUP
  5
1D6DE
102
{ACAD_REACTORS
330
D
102
}
330
D
100
AcDbGroup
300

 70
     1
 71
     1
  0
GROUP
  5
1D706
102
{ACAD_REACTORS
330
D
102
}
330
D
100
AcDbGroup
300

 70
     1
 71
     1
  0
GROUP
  5
25586
102
{ACAD_REACTORS
330
D
102
}
330
D
100
AcDbGroup
300

 70
     1
 71
     1
  0
GROUP
  5
25E12
102
{ACAD_REACTORS
330
D
102
}
330
D
100
AcDbGroup
300

 70
     1
 71
     1
  0
GROUP
  5
25301
102
{ACAD_REACTORS
330
D
102
}
330
D
100
AcDbGroup
300

 70
     1
 71
     1
  0
GROUP
  5
25325
102
{ACAD_REACTORS
330
D
102
}
330
D
100
AcDbGroup
300

 70
     1
 71
     1
  0
GROUP
  5
1D698
102
{ACAD_REACTORS
330
D
102
}
330
D
100
AcDbGroup
300

 70
     1
 71
     1
  0
GROUP
  5
25590
102
{ACAD_REACTORS
330
D
102
}
330
D
100
AcDbGroup
300

 70
     1
 71
     1
  0
GROUP
  5
1D6CA
102
{ACAD_REACTORS
330
D
102
}
330
D
100
AcDbGroup
300

 70
     1
 71
     1
  0
GROUP
  5
265CE
102
{ACAD_REACTORS
330
D
102
}
330
D
100
AcDbGroup
300

 70
     1
 71
     1
  0
GROUP
  5
25343
102
{ACAD_REACTORS
330
D
102
}
330
D
100
AcDbGroup
300

 70
     1
 71
     1
  0
GROUP
  5
252DD
102
{ACAD_REACTORS
330
D
102
}
330
D
100
AcDbGroup
300

 70
     1
 71
     1
  0
GROUP
  5
25596
102
{ACAD_REACTORS
330
D
102
}
330
D
100
AcDbGroup
300

 70
     1
 71
     1
  0
GROUP
  5
252EF
102
{ACAD_REACTORS
330
D
102
}
330
D
100
AcDbGroup
300

 70
     1
 71
     1
  0
GROUP
  5
1D6C0
102
{ACAD_REACTORS
330
D
102
}
330
D
100
AcDbGroup
300

 70
     1
 71
     1
  0
GROUP
  5
2535B
102
{ACAD_REACTORS
330
D
102
}
330
D
100
AcDbGroup
300

 70
     1
 71
     1
  0
GROUP
  5
16058
102
{ACAD_REACTORS
330
D
102
}
330
D
100
AcDbGroup
300

 70
     1
 71
     1
  0
GROUP
  5
2559C
102
{ACAD_REACTORS
330
D
102
}
330
D
100
AcDbGroup
300

 70
     1
 71
     1
  0
GROUP
  5
1606B
102
{ACAD_REACTORS
330
D
102
}
330
D
100
AcDbGroup
300

 70
     1
 71
     1
  0
GROUP
  5
2022C
102
{ACAD_REACTORS
330
D
102
}
330
D
100
AcDbGroup
300

 70
     1
 71
     1
  0
GROUP
  5
2559D
102
{ACAD_REACTORS
330
D
102
}
330
D
100
AcDbGroup
300

 70
     1
 71
     1
  0
GROUP
  5
259CF
102
{ACAD_REACTORS
330
D
102
}
330
D
100
AcDbGroup
300

 70
     1
 71
     1
  0
GROUP
  5
26E61
102
{ACAD_REACTORS
330
D
102
}
330
D
100
AcDbGroup
300

 70
     1
 71
     1
  0
GROUP
  5
20022
102
{ACAD_REACTORS
330
D
102
}
330
D
100
AcDbGroup
300

 70
     1
 71
     1
  0
GROUP
  5
1EB7F
102
{ACAD_REACTORS
330
D
102
}
330
D
100
AcDbGroup
300

 70
     1
 71
     1
  0
GROUP
  5
1EB7E
102
{ACAD_REACTORS
330
D
102
}
330
D
100
AcDbGroup
300

 70
     1
 71
     1
  0
GROUP
  5
27CB8
102
{ACAD_REACTORS
330
D
102
}
330
D
100
AcDbGroup
300

 70
     1
 71
     1
  0
GROUP
  5
259D0
102
{ACAD_REACTORS
330
D
102
}
330
D
100
AcDbGroup
300

 70
     1
 71
     1
  0
GROUP
  5
25337
102
{ACAD_REACTORS
330
D
102
}
330
D
100
AcDbGroup
300

 70
     1
 71
     1
  0
GROUP
  5
19255
102
{ACAD_REACTORS
330
D
102
}
330
D
100
AcDbGroup
300

 70
     1
 71
     1
  0
GROUP
  5
ACA1
102
{ACAD_REACTORS
330
D
102
}
330
D
100
AcDbGroup
300

 70
     1
 71
     1
  0
GROUP
  5
259D1
102
{ACAD_REACTORS
330
D
102
}
330
D
100
AcDbGroup
300

 70
     1
 71
     1
  0
GROUP
  5
19AA4
102
{ACAD_REACTORS
330
D
102
}
330
D
100
AcDbGroup
300

 70
     1
 71
     1
  0
GROUP
  5
20025
102
{ACAD_REACTORS
330
D
102
}
330
D
100
AcDbGroup
300

 70
     1
 71
     1
  0
GROUP
  5
18FA8
102
{ACAD_REACTORS
330
D
102
}
330
D
100
AcDbGroup
300

 70
     1
 71
     1
  0
GROUP
  5
1F91D
102
{ACAD_REACTORS
330
D
102
}
330
D
100
AcDbGroup
300

 70
     1
 71
     1
  0
GROUP
  5
2629A
102
{ACAD_REACTORS
330
D
102
}
330
D
100
AcDbGroup
300

 70
     1
 71
     1
  0
GROUP
  5
19787
102
{ACAD_REACTORS
330
D
102
}
330
D
100
AcDbGroup
300

 70
     1
 71
     1
  0
GROUP
  5
20CA2
102
{ACAD_REACTORS
330
D
102
}
330
D
100
AcDbGroup
300

 70
     1
 71
     1
  0
GROUP
  5
262A0
102
{ACAD_REACTORS
330
D
102
}
330
D
100
AcDbGroup
300

 70
     1
 71
     1
  0
GROUP
  5
AC9A
102
{ACAD_REACTORS
330
D
102
}
330
D
100
AcDbGroup
300

 70
     1
 71
     1
  0
GROUP
  5
1D67A
102
{ACAD_REACTORS
330
D
102
}
330
D
100
AcDbGroup
300

 70
     1
 71
     1
  0
GROUP
  5
252F5
102
{ACAD_REACTORS
330
D
102
}
330
D
100
AcDbGroup
300

 70
     1
 71
     1
  0
GROUP
  5
265D2
102
{ACAD_REACTORS
330
D
102
}
330
D
100
AcDbGroup
300

 70
     1
 71
     1
  0
GROUP
  5
26C78
102
{ACAD_REACTORS
330
D
102
}
330
D
100
AcDbGroup
300

 70
     1
 71
     1
  0
GROUP
  5
26E26
102
{ACAD_REACTORS
330
D
102
}
330
D
100
AcDbGroup
300

 70
     1
 71
     1
  0
GROUP
  5
2732E
102
{ACAD_REACTORS
330
D
102
}
330
D
100
AcDbGroup
300

 70
     1
 71
     1
  0
GROUP
  5
20013
102
{ACAD_REACTORS
330
D
102
}
330
D
100
AcDbGroup
300

 70
     1
 71
     1
  0
GROUP
  5
25397
102
{ACAD_REACTORS
330
D
102
}
330
D
100
AcDbGroup
300

 70
     1
 71
     1
  0
GROUP
  5
25373
102
{ACAD_REACTORS
330
D
102
}
330
D
100
AcDbGroup
300

 70
     1
 71
     1
  0
GROUP
  5
2001F
102
{ACAD_REACTORS
330
D
102
}
330
D
100
AcDbGroup
300

 70
     1
 71
     1
  0
GROUP
  5
1D6AC
102
{ACAD_REACTORS
330
D
102
}
330
D
100
AcDbGroup
300

 70
     1
 71
     1
  0
GROUP
  5
ACBD
102
{ACAD_REACTORS
330
D
102
}
330
D
100
AcDbGroup
300

 70
     1
 71
     1
  0
GROUP
  5
25319
102
{ACAD_REACTORS
330
D
102
}
330
D
100
AcDbGroup
300

 70
     1
 71
     1
  0
GROUP
  5
2629D
102
{ACAD_REACTORS
330
D
102
}
330
D
100
AcDbGroup
300

 70
     1
 71
     1
  0
GROUP
  5
259D2
102
{ACAD_REACTORS
330
D
102
}
330
D
100
AcDbGroup
300

 70
     1
 71
     1
  0
GROUP
  5
25AC2
102
{ACAD_REACTORS
330
D
102
}
330
D
100
AcDbGroup
300

 70
     1
 71
     1
  0
GROUP
  5
25AC3
102
{ACAD_REACTORS
330
D
102
}
330
D
100
AcDbGroup
300

 70
     1
 71
     1
  0
GROUP
  5
173BF
102
{ACAD_REACTORS
330
D
102
}
330
D
100
AcDbGroup
300

 70
     1
 71
     1
  0
GROUP
  5
18F23
102
{ACAD_REACTORS
330
D
102
}
330
D
100
AcDbGroup
300

 70
     1
 71
     1
  0
GROUP
  5
19881
102
{ACAD_REACTORS
330
D
102
}
330
D
100
AcDbGroup
300

 70
     1
 71
     1
  0
GROUP
  5
106A5
102
{ACAD_REACTORS
330
D
102
}
330
D
100
AcDbGroup
300

 70
     1
 71
     1
  0
GROUP
  5
26E5E
102
{ACAD_REACTORS
330
D
102
}
330
D
100
AcDbGroup
300

 70
     1
 71
     1
  0
GROUP
  5
169DA
102
{ACAD_REACTORS
330
D
102
}
330
D
100
AcDbGroup
300

 70
     1
 71
     1
  0
GROUP
  5
20209
102
{ACAD_REACTORS
330
D
102
}
330
D
100
AcDbGroup
300

 70
     1
 71
     1
  0
GROUP
  5
1F90E
102
{ACAD_REACTORS
330
D
102
}
330
D
100
AcDbGroup
300

 70
     1
 71
     1
  0
GROUP
  5
1A695
102
{ACAD_REACTORS
330
D
102
}
330
D
100
AcDbGroup
300

 70
     1
 71
     1
  0
GROUP
  5
26C8B
102
{ACAD_REACTORS
330
D
102
}
330
D
100
AcDbGroup
300

 70
     1
 71
     1
  0
GROUP
  5
1EB7C
102
{ACAD_REACTORS
330
D
102
}
330
D
100
AcDbGroup
300

 70
     1
 71
     1
  0
GROUP
  5
26095
102
{ACAD_REACTORS
330
D
102
}
330
D
100
AcDbGroup
300

 70
     1
 71
     1
  0
GROUP
  5
18FA7
102
{ACAD_REACTORS
330
D
102
}
330
D
100
AcDbGroup
300

 70
     1
 71
     1
  0
GROUP
  5
FB6B
102
{ACAD_REACTORS
330
D
102
}
330
D
100
AcDbGroup
300

 70
     1
 71
     1
  0
GROUP
  5
2020E
102
{ACAD_REACTORS
330
D
102
}
330
D
100
AcDbGroup
300

 70
     1
 71
     1
  0
GROUP
  5
262A1
102
{ACAD_REACTORS
330
D
102
}
330
D
100
AcDbGroup
300

 70
     1
 71
     1
  0
GROUP
  5
1A09A
102
{ACAD_REACTORS
330
D
102
}
330
D
100
AcDbGroup
300

 70
     1
 71
     1
  0
GROUP
  5
19A52
102
{ACAD_REACTORS
330
D
102
}
330
D
100
AcDbGroup
300

 70
     1
 71
     1
  0
GROUP
  5
26B3D
102
{ACAD_REACTORS
330
D
102
}
330
D
100
AcDbGroup
300

 70
     1
 71
     1
  0
GROUP
  5
2533D
102
{ACAD_REACTORS
330
D
102
}
330
D
100
AcDbGroup
300

 70
     1
 71
     1
  0
GROUP
  5
20218
102
{ACAD_REACTORS
330
D
102
}
330
D
100
AcDbGroup
300

 70
     1
 71
     1
  0
GROUP
  5
19861
102
{ACAD_REACTORS
330
D
102
}
330
D
100
AcDbGroup
300

 70
     1
 71
     1
  0
GROUP
  5
2530D
102
{ACAD_REACTORS
330
D
102
}
330
D
100
AcDbGroup
300

 70
     1
 71
     1
  0
GROUP
  5
265C7
102
{ACAD_REACTORS
330
D
102
}
330
D
100
AcDbGroup
300

 70
     1
 71
     1
  0
GROUP
  5
16068
102
{ACAD_REACTORS
330
D
102
}
330
D
100
AcDbGroup
300

 70
     1
 71
     1
  0
GROUP
  5
2732F
102
{ACAD_REACTORS
330
D
102
}
330
D
100
AcDbGroup
300

 70
     1
 71
     1
  0
GROUP
  5
27330
102
{ACAD_REACTORS
330
D
102
}
330
D
100
AcDbGroup
300

 70
     1
 71
     1
  0
GROUP
  5
27CB6
102
{ACAD_REACTORS
330
D
102
}
330
D
100
AcDbGroup
300

 70
     1
 71
     1
  0
GROUP
  5
25355
102
{ACAD_REACTORS
330
D
102
}
330
D
100
AcDbGroup
300

 70
     1
 71
     1
  0
GROUP
  5
2536D
102
{ACAD_REACTORS
330
D
102
}
330
D
100
AcDbGroup
300

 70
     1
 71
     1
  0
GROUP
  5
25E10
102
{ACAD_REACTORS
330
D
102
}
330
D
100
AcDbGroup
300

 70
     1
 71
     1
  0
GROUP
  5
27331
102
{ACAD_REACTORS
330
D
102
}
330
D
100
AcDbGroup
300

 70
     1
 71
     1
  0
GROUP
  5
106C6
102
{ACAD_REACTORS
330
D
102
}
330
D
100
AcDbGroup
300

 70
     1
 71
     1
  0
GROUP
  5
17901
102
{ACAD_REACTORS
330
D
102
}
330
D
100
AcDbGroup
300

 70
     1
 71
     1
  0
GROUP
  5
20227
102
{ACAD_REACTORS
330
D
102
}
330
D
100
AcDbGroup
300

 70
     1
 71
     1
  0
GROUP
  5
265D0
102
{ACAD_REACTORS
330
D
102
}
330
D
100
AcDbGroup
300

 70
     1
 71
     1
  0
GROUP
  5
265CC
102
{ACAD_REACTORS
330
D
102
}
330
D
100
AcDbGroup
300

 70
     1
 71
     1
  0
GROUP
  5
25349
102
{ACAD_REACTORS
330
D
102
}
330
D
100
AcDbGroup
300

 70
     1
 71
     1
  0
GROUP
  5
27332
102
{ACAD_REACTORS
330
D
102
}
330
D
100
AcDbGroup
300

 70
     1
 71
     1
  0
GROUP
  5
2608F
102
{ACAD_REACTORS
330
D
102
}
330
D
100
AcDbGroup
300

 70
     1
 71
     1
  0
GROUP
  5
27CB7
102
{ACAD_REACTORS
330
D
102
}
330
D
100
AcDbGroup
300

 70
     1
 71
     1
  0
GROUP
  5
265D1
102
{ACAD_REACTORS
330
D
102
}
330
D
100
AcDbGroup
300

 70
     1
 71
     1
  0
GROUP
  5
25D0E
102
{ACAD_REACTORS
330
D
102
}
330
D
100
AcDbGroup
300

 70
     1
 71
     1
  0
GROUP
  5
27333
102
{ACAD_REACTORS
330
D
102
}
330
D
100
AcDbGroup
300

 70
     1
 71
     1
  0
GROUP
  5
26094
102
{ACAD_REACTORS
330
D
102
}
330
D
100
AcDbGroup
300

 70
     1
 71
     1
  0
GROUP
  5
1F918
102
{ACAD_REACTORS
330
D
102
}
330
D
100
AcDbGroup
300

 70
     1
 71
     1
  0
GROUP
  5
26C06
102
{ACAD_REACTORS
330
D
102
}
330
D
100
AcDbGroup
300

 70
     1
 71
     1
  0
GROUP
  5
1F904
102
{ACAD_REACTORS
330
D
102
}
330
D
100
AcDbGroup
300

 70
     1
 71
     1
  0
GROUP
  5
27334
102
{ACAD_REACTORS
330
D
102
}
330
D
100
AcDbGroup
300

 70
     1
 71
     1
  0
GROUP
  5
27335
102
{ACAD_REACTORS
330
D
102
}
330
D
100
AcDbGroup
300

 70
     1
 71
     1
  0
GROUP
  5
26096
102
{ACAD_REACTORS
330
D
102
}
330
D
100
AcDbGroup
300

 70
     1
 71
     1
  0
GROUP
  5
17B11
102
{ACAD_REACTORS
330
D
102
}
330
D
100
AcDbGroup
300

 70
     1
 71
     1
  0
GROUP
  5
18F20
102
{ACAD_REACTORS
330
D
102
}
330
D
100
AcDbGroup
300

 70
     1
 71
     1
  0
GROUP
  5
265CB
102
{ACAD_REACTORS
330
D
102
}
330
D
100
AcDbGroup
300

 70
     1
 71
     1
  0
GROUP
  5
2629F
102
{ACAD_REACTORS
330
D
102
}
330
D
100
AcDbGroup
300

 70
     1
 71
     1
  0
GROUP
  5
27336
102
{ACAD_REACTORS
330
D
102
}
330
D
100
AcDbGroup
300

 70
     1
 71
     1
  0
GROUP
  5
265C8
102
{ACAD_REACTORS
330
D
102
}
330
D
100
AcDbGroup
300

 70
     1
 71
     1
  0
GROUP
  5
19988
102
{ACAD_REACTORS
330
D
102
}
330
D
100
AcDbGroup
300

 70
     1
 71
     1
  0
GROUP
  5
2002B
102
{ACAD_REACTORS
330
D
102
}
330
D
100
AcDbGroup
300

 70
     1
 71
     1
  0
GROUP
  5
252FB
102
{ACAD_REACTORS
330
D
102
}
330
D
100
AcDbGroup
300

 70
     1
 71
     1
  0
GROUP
  5
25D97
102
{ACAD_REACTORS
330
D
102
}
330
D
100
AcDbGroup
300

 70
     1
 71
     1
  0
GROUP
  5
27337
102
{ACAD_REACTORS
330
D
102
}
330
D
100
AcDbGroup
300

 70
     1
 71
     1
  0
GROUP
  5
282C4
102
{ACAD_REACTORS
330
D
102
}
330
D
100
AcDbGroup
300

 70
     1
 71
     1
340
27A5D
340
27AF1
340
27B03
340
27B04
340
27A60
340
27AD5
340
27AD4
340
27A62
340
27A5F
340
27AC7
340
27AF8
  0
GROUP
  5
20CA6
102
{ACAD_REACTORS
330
D
102
}
330
D
100
AcDbGroup
300

 70
     1
 71
     1
  0
GROUP
  5
25D0D
102
{ACAD_REACTORS
330
D
102
}
330
D
100
AcDbGroup
300

 70
     1
 71
     1
  0
GROUP
  5
27338
102
{ACAD_REACTORS
330
D
102
}
330
D
100
AcDbGroup
300

 70
     1
 71
     1
  0
GROUP
  5
25D0A
102
{ACAD_REACTORS
330
D
102
}
330
D
100
AcDbGroup
300

 70
     1
 71
     1
  0
GROUP
  5
25367
102
{ACAD_REACTORS
330
D
102
}
330
D
100
AcDbGroup
300

 70
     1
 71
     1
  0
GROUP
  5
1B744
102
{ACAD_REACTORS
330
D
102
}
330
D
100
AcDbGroup
300

 70
     1
 71
     1
  0
GROUP
  5
1606A
102
{ACAD_REACTORS
330
D
102
}
330
D
100
AcDbGroup
300

 70
     1
 71
     1
  0
GROUP
  5
18F22
102
{ACAD_REACTORS
330
D
102
}
330
D
100
AcDbGroup
300

 70
     1
 71
     1
  0
GROUP
  5
277FA
102
{ACAD_REACTORS
330
D
102
}
330
D
100
AcDbGroup
300

 70
     1
 71
     1
  0
GROUP
  5
277FB
102
{ACAD_REACTORS
330
D
102
}
330
D
100
AcDbGroup
300

 70
     1
 71
     1
  0
GROUP
  5
19A5A
102
{ACAD_REACTORS
330
D
102
}
330
D
100
AcDbGroup
300

 70
     1
 71
     1
  0
GROUP
  5
26090
102
{ACAD_REACTORS
330
D
102
}
330
D
100
AcDbGroup
300

 70
     1
 71
     1
  0
GROUP
  5
19729
102
{ACAD_REACTORS
330
D
102
}
330
D
100
AcDbGroup
300

 70
     1
 71
     1
  0
GROUP
  5
1D6FC
102
{ACAD_REACTORS
330
D
102
}
330
D
100
AcDbGroup
300

 70
     1
 71
     1
  0
GROUP
  5
1AA94
102
{ACAD_REACTORS
330
D
102
}
330
D
100
AcDbGroup
300

 70
     1
 71
     1
  0
GROUP
  5
19A86
102
{ACAD_REACTORS
330
D
102
}
330
D
100
AcDbGroup
300

 70
     1
 71
     1
  0
GROUP
  5
FC95
102
{ACAD_REACTORS
330
D
102
}
330
D
100
AcDbGroup
300

 70
     1
 71
     1
  0
GROUP
  5
277FC
102
{ACAD_REACTORS
330
D
102
}
330
D
100
AcDbGroup
300

 70
     1
 71
     1
  0
GROUP
  5
26E25
102
{ACAD_REACTORS
330
D
102
}
330
D
100
AcDbGroup
300

 70
     1
 71
     1
  0
GROUP
  5
1A691
102
{ACAD_REACTORS
330
D
102
}
330
D
100
AcDbGroup
300

 70
     1
 71
     1
  0
GROUP
  5
26C4B
102
{ACAD_REACTORS
330
D
102
}
330
D
100
AcDbGroup
300

 70
     1
 71
     1
  0
GROUP
  5
25D0B
102
{ACAD_REACTORS
330
D
102
}
330
D
100
AcDbGroup
300

 70
     1
 71
     1
  0
GROUP
  5
265CF
102
{ACAD_REACTORS
330
D
102
}
330
D
100
AcDbGroup
300

 70
     1
 71
     1
  0
GROUP
  5
282D0
102
{ACAD_REACTORS
330
D
102
}
330
D
100
AcDbGroup
300

 70
     1
 71
     1
  0
GROUP
  5
2629C
102
{ACAD_REACTORS
330
D
102
}
330
D
100
AcDbGroup
300

 70
     1
 71
     1
  0
GROUP
  5
20016
102
{ACAD_REACTORS
330
D
102
}
330
D
100
AcDbGroup
300

 70
     1
 71
     1
  0
GROUP
  5
277FD
102
{ACAD_REACTORS
330
D
102
}
330
D
100
AcDbGroup
300

 70
     1
 71
     1
  0
GROUP
  5
1F909
102
{ACAD_REACTORS
330
D
102
}
330
D
100
AcDbGroup
300

 70
     1
 71
     1
  0
GROUP
  5
277FE
102
{ACAD_REACTORS
330
D
102
}
330
D
100
AcDbGroup
300

 70
     1
 71
     1
  0
GROUP
  5
277FF
102
{ACAD_REACTORS
330
D
102
}
330
D
100
AcDbGroup
300

 70
     1
 71
     1
  0
GROUP
  5
1B756
102
{ACAD_REACTORS
330
D
102
}
330
D
100
AcDbGroup
300

 70
     1
 71
     1
  0
GROUP
  5
1D6E8
102
{ACAD_REACTORS
330
D
102
}
330
D
100
AcDbGroup
300

 70
     1
 71
     1
  0
GROUP
  5
2538B
102
{ACAD_REACTORS
330
D
102
}
330
D
100
AcDbGroup
300

 70
     1
 71
     1
  0
GROUP
  5
27800
102
{ACAD_REACTORS
330
D
102
}
330
D
100
AcDbGroup
300

 70
     1
 71
     1
  0
GROUP
  5
27801
102
{ACAD_REACTORS
330
D
102
}
330
D
100
AcDbGroup
300

 70
     1
 71
     1
  0
GROUP
  5
173BD
102
{ACAD_REACTORS
330
D
102
}
330
D
100
AcDbGroup
300

 70
     1
 71
     1
  0
GROUP
  5
25D0C
102
{ACAD_REACTORS
330
D
102
}
330
D
100
AcDbGroup
300

 70
     1
 71
     1
  0
GROUP
  5
20222
102
{ACAD_REACTORS
330
D
102
}
330
D
100
AcDbGroup
300

 70
     1
 71
     1
  0
GROUP
  5
20010
102
{ACAD_REACTORS
330
D
102
}
330
D
100
AcDbGroup
300

 70
     1
 71
     1
  0
GROUP
  5
27802
102
{ACAD_REACTORS
330
D
102
}
330
D
100
AcDbGroup
300

 70
     1
 71
     1
  0
GROUP
  5
27803
102
{ACAD_REACTORS
330
D
102
}
330
D
100
AcDbGroup
300

 70
     1
 71
     1
  0
GROUP
  5
19989
102
{ACAD_REACTORS
330
D
102
}
330
D
100
AcDbGroup
300

 70
     1
 71
     1
  0
GROUP
  5
282DC
102
{ACAD_REACTORS
330
D
102
}
330
D
100
AcDbGroup
300

 70
     1
 71
     1
340
282D3
340
282D9
340
282DB
340
282DA
340
282D2
340
282D5
340
282D7
340
282D6
340
282D1
340
282D4
340
282D8
  0
GROUP
  5
1B732
102
{ACAD_REACTORS
330
D
102
}
330
D
100
AcDbGroup
300

 70
     1
 71
     1
  0
GROUP
  5
1998A
102
{ACAD_REACTORS
330
D
102
}
330
D
100
AcDbGroup
300

 70
     1
 71
     1
  0
GROUP
  5
26093
102
{ACAD_REACTORS
330
D
102
}
330
D
100
AcDbGroup
300

 70
     1
 71
     1
  0
GROUP
  5
25379
102
{ACAD_REACTORS
330
D
102
}
330
D
100
AcDbGroup
300

 70
     1
 71
     1
  0
GROUP
  5
265CD
102
{ACAD_REACTORS
330
D
102
}
330
D
100
AcDbGroup
300

 70
     1
 71
     1
  0
GROUP
  5
106C7
102
{ACAD_REACTORS
330
D
102
}
330
D
100
AcDbGroup
300

 70
     1
 71
     1
  0
GROUP
  5
1A692
102
{ACAD_REACTORS
330
D
102
}
330
D
100
AcDbGroup
300

 70
     1
 71
     1
  0
GROUP
  5
2629B
102
{ACAD_REACTORS
330
D
102
}
330
D
100
AcDbGroup
300

 70
     1
 71
     1
  0
GROUP
  5
20019
102
{ACAD_REACTORS
330
D
102
}
330
D
100
AcDbGroup
300

 70
     1
 71
     1
  0
GROUP
  5
1D6D4
102
{ACAD_REACTORS
330
D
102
}
330
D
100
AcDbGroup
300

 70
     1
 71
     1
  0
GROUP
  5
27CB4
102
{ACAD_REACTORS
330
D
102
}
330
D
100
AcDbGroup
300

 70
     1
 71
     1
  0
GROUP
  5
20236
102
{ACAD_REACTORS
330
D
102
}
330
D
100
AcDbGroup
300

 70
     1
 71
     1
  0
GROUP
  5
1D6A2
102
{ACAD_REACTORS
330
D
102
}
330
D
100
AcDbGroup
300

 70
     1
 71
     1
  0
GROUP
  5
25391
102
{ACAD_REACTORS
330
D
102
}
330
D
100
AcDbGroup
300

 70
     1
 71
     1
  0
GROUP
  5
25313
102
{ACAD_REACTORS
330
D
102
}
330
D
100
AcDbGroup
300

 70
     1
 71
     1
  0
GROUP
  5
24D3F
102
{ACAD_REACTORS
330
D
102
}
330
D
100
AcDbGroup
300

 70
     1
 71
     1
  0
GROUP
  5
26C07
102
{ACAD_REACTORS
330
D
102
}
330
D
100
AcDbGroup
300

 70
     1
 71
     1
  0
GROUP
  5
ACAB
102
{ACAD_REACTORS
330
D
102
}
330
D
100
AcDbGroup
300

 70
     1
 71
     1
  0
GROUP
  5
1B720
102
{ACAD_REACTORS
330
D
102
}
330
D
100
AcDbGroup
300

 70
     1
 71
     1
  0
GROUP
  5
FCB8
102
{ACAD_REACTORS
330
D
102
}
330
D
100
AcDbGroup
300

 70
     1
 71
     1
  0
GROUP
  5
FB6C
102
{ACAD_REACTORS
330
D
102
}
330
D
100
AcDbGroup
300

 70
     1
 71
     1
  0
GROUP
  5
2786D
102
{ACAD_REACTORS
330
D
102
}
330
D
100
AcDbGroup
300

 70
     1
 71
     1
  0
GROUP
  5
252E3
102
{ACAD_REACTORS
330
D
102
}
330
D
100
AcDbGroup
300

 70
     1
 71
     1
  0
GROUP
  5
1B74D
102
{ACAD_REACTORS
330
D
102
}
330
D
100
AcDbGroup
300

 70
     1
 71
     1
  0
GROUP
  5
2534F
102
{ACAD_REACTORS
330
D
102
}
330
D
100
AcDbGroup
300

 70
     1
 71
     1
  0
GROUP
  5
26E22
102
{ACAD_REACTORS
330
D
102
}
330
D
100
AcDbGroup
300

 70
     1
 71
     1
  0
GROUP
  5
1B729
102
{ACAD_REACTORS
330
D
102
}
330
D
100
AcDbGroup
300

 70
     1
 71
     1
  0
GROUP
  5
18FA6
102
{ACAD_REACTORS
330
D
102
}
330
D
100
AcDbGroup
300

 70
     1
 71
     1
  0
GROUP
  5
18F1F
102
{ACAD_REACTORS
330
D
102
}
330
D
100
AcDbGroup
300

 70
     1
 71
     1
  0
GROUP
  5
26091
102
{ACAD_REACTORS
330
D
102
}
330
D
100
AcDbGroup
300

 70
     1
 71
     1
  0
GROUP
  5
26092
102
{ACAD_REACTORS
330
D
102
}
330
D
100
AcDbGroup
300

 70
     1
 71
     1
  0
GROUP
  5
19786
102
{ACAD_REACTORS
330
D
102
}
330
D
100
AcDbGroup
300

 70
     1
 71
     1
  0
GROUP
  5
25E13
102
{ACAD_REACTORS
330
D
102
}
330
D
100
AcDbGroup
300

 70
     1
 71
     1
  0
GROUP
  5
1D684
102
{ACAD_REACTORS
330
D
102
}
330
D
100
AcDbGroup
300

 70
     1
 71
     1
  0
GROUP
  5
17BFF
102
{ACAD_REACTORS
330
D
102
}
330
D
100
AcDbGroup
300

 70
     1
 71
     1
  0
GROUP
  5
20028
102
{ACAD_REACTORS
330
D
102
}
330
D
100
AcDbGroup
300

 70
     1
 71
     1
  0
GROUP
  5
265C9
102
{ACAD_REACTORS
330
D
102
}
330
D
100
AcDbGroup
300

 70
     1
 71
     1
  0
GROUP
  5
27CB3
102
{ACAD_REACTORS
330
D
102
}
330
D
100
AcDbGroup
300

 70
     1
 71
     1
340
27AC2
340
27AD6
340
27AD7
340
27AD8
340
27AD9
340
27ADA
340
27ADB
340
27ADC
340
27ADD
340
27ADE
340
27AD3
340
27AC3
340
27ADF
340
27AE0
340
27AE1
340
27AE2
340
27AE3
340
27AE4
  0
GROUP
  5
19F55
102
{ACAD_REACTORS
330
D
102
}
330
D
100
AcDbGroup
300

 70
     1
 71
     1
  0
GROUP
  5
2786E
102
{ACAD_REACTORS
330
D
102
}
330
D
100
AcDbGroup
300

 70
     1
 71
     1
  0
GROUP
  5
26B62
102
{ACAD_REACTORS
330
D
102
}
330
D
100
AcDbGroup
300

 70
     1
 71
     1
  0
GROUP
  5
2786C
102
{ACAD_REACTORS
330
D
102
}
330
D
100
AcDbGroup
300

 70
     1
 71
     1
  0
GROUP
  5
1F8FA
102
{ACAD_REACTORS
330
D
102
}
330
D
100
AcDbGroup
300

 70
     1
 71
     1
  0
GROUP
  5
19259
102
{ACAD_REACTORS
330
D
102
}
330
D
100
AcDbGroup
300

 70
     1
 71
     1
  0
GROUP
  5
1738B
102
{ACAD_REACTORS
330
D
102
}
330
D
100
AcDbGroup
300

 70
     1
 71
     1
  0
GROUP
  5
1D6B6
102
{ACAD_REACTORS
330
D
102
}
330
D
100
AcDbGroup
300

 70
     1
 71
     1
  0
GROUP
  5
27804
102
{ACAD_REACTORS
330
D
102
}
330
D
100
AcDbGroup
300

 70
     1
 71
     1
  0
GROUP
  5
19F99
102
{ACAD_REACTORS
330
D
102
}
330
D
100
AcDbGroup
300

 70
     1
 71
     1
  0
GROUP
  5
19794
102
{ACAD_REACTORS
330
D
102
}
330
D
100
AcDbGroup
300

 70
     1
 71
     1
  0
GROUP
  5
198F1
102
{ACAD_REACTORS
330
D
102
}
330
D
100
AcDbGroup
300

 70
     1
 71
     1
  0
GROUP
  5
215A2
102
{ACAD_REACTORS
330
D
102
}
330
D
100
AcDbGroup
300

 70
     1
 71
     1
  0
GROUP
  5
1F8FF
102
{ACAD_REACTORS
330
D
102
}
330
D
100
AcDbGroup
300

 70
     1
 71
     1
  0
GROUP
  5
25361
102
{ACAD_REACTORS
330
D
102
}
330
D
100
AcDbGroup
300

 70
     1
 71
     1
  0
GROUP
  5
ACA2
102
{ACAD_REACTORS
330
D
102
}
330
D
100
AcDbGroup
300

 70
     1
 71
     1
  0
GROUP
  5
253AB
102
{ACAD_REACTORS
330
D
102
}
330
D
100
AcDbGroup
300

 70
     1
 71
     1
  0
GROUP
  5
FC9B
102
{ACAD_REACTORS
330
D
102
}
330
D
100
AcDbGroup
300

 70
     1
 71
     1
  0
GROUP
  5
20231
102
{ACAD_REACTORS
330
D
102
}
330
D
100
AcDbGroup
300

 70
     1
 71
     1
  0
GROUP
  5
1B73B
102
{ACAD_REACTORS
330
D
102
}
330
D
100
AcDbGroup
300

 70
     1
 71
     1
  0
GROUP
  5
FC91
102
{ACAD_REACTORS
330
D
102
}
330
D
100
AcDbGroup
300

 70
     1
 71
     1
  0
GROUP
  5
27805
102
{ACAD_REACTORS
330
D
102
}
330
D
100
AcDbGroup
300

 70
     1
 71
     1
  0
GROUP
  5
17389
102
{ACAD_REACTORS
330
D
102
}
330
D
100
AcDbGroup
300

 70
     1
 71
     1
  0
GROUP
  5
2021D
102
{ACAD_REACTORS
330
D
102
}
330
D
100
AcDbGroup
300

 70
     1
 71
     1
  0
GROUP
  5
FBFF
102
{ACAD_REACTORS
330
D
102
}
330
D
100
AcDbGroup
300

 70
     1
 71
     1
  0
GROUP
  5
ACB4
102
{ACAD_REACTORS
330
D
102
}
330
D
100
AcDbGroup
300

 70
     1
 71
     1
  0
GROUP
  5
1D6F2
102
{ACAD_REACTORS
330
D
102
}
330
D
100
AcDbGroup
300

 70
     1
 71
     1
  0
GROUP
  5
252E9
102
{ACAD_REACTORS
330
D
102
}
330
D
100
AcDbGroup
300

 70
     1
 71
     1
  0
GROUP
  5
FC9A
102
{ACAD_REACTORS
330
D
102
}
330
D
100
AcDbGroup
300

 70
     1
 71
     1
  0
GROUP
  5
1F913
102
{ACAD_REACTORS
330
D
102
}
330
D
100
AcDbGroup
300

 70
     1
 71
     1
  0
GROUP
  5
25E11
102
{ACAD_REACTORS
330
D
102
}
330
D
100
AcDbGroup
300

 70
     1
 71
     1
  0
GROUP
  5
26E5F
102
{ACAD_REACTORS
330
D
102
}
330
D
100
AcDbGroup
300

 70
     1
 71
     1
  0
GROUP
  5
19A51
102
{ACAD_REACTORS
330
D
102
}
330
D
100
AcDbGroup
300

 70
     1
 71
     1
  0
GROUP
  5
19256
102
{ACAD_REACTORS
330
D
102
}
330
D
100
AcDbGroup
300

 70
     1
 71
     1
  0
GROUP
  5
2537F
102
{ACAD_REACTORS
330
D
102
}
330
D
100
AcDbGroup
300

 70
     1
 71
     1
  0
GROUP
  5
27806
102
{ACAD_REACTORS
330
D
102
}
330
D
100
AcDbGroup
300

 70
     1
 71
     1
  0
GROUP
  5
26E23
102
{ACAD_REACTORS
330
D
102
}
330
D
100
AcDbGroup
300

 70
     1
 71
     1
  0
GROUP
  5
106B3
102
{ACAD_REACTORS
330
D
102
}
330
D
100
AcDbGroup
300

 70
     1
 71
     1
  0
GROUP
  5
18F21
102
{ACAD_REACTORS
330
D
102
}
330
D
100
AcDbGroup
300

 70
     1
 71
     1
  0
GROUP
  5
2629E
102
{ACAD_REACTORS
330
D
102
}
330
D
100
AcDbGroup
300

 70
     1
 71
     1
  0
GROUP
  5
1EB80
102
{ACAD_REACTORS
330
D
102
}
330
D
100
AcDbGroup
300

 70
     1
 71
     1
  0
MLINESTYLE
  5
1C
102
{ACAD_REACTORS
330
1B
102
}
330
1B
100
AcDbMlineStyle
  2
STANDARD
 70
     0
  3

 62
   256
 51
90.0
 52
90.0
 71
     2
 49
0.5
 62
   256
  6
BYLAYER
 49
-0.5
 62
   256
  6
BYLAYER
  0
ACDBPLACEHOLDER
  5
FB5C
102
{ACAD_REACTORS
330
FB5B
102
}
330
FB5B
100
AcDbPlaceHolder
280
     0
  0
XRECORD
  5
284FF
102
{ACAD_REACTORS
330
284F5
102
}
330
284F5
100
AcDbXrecord
 90
        0
  0
XRECORD
  5
28503
102
{ACAD_REACTORS
330
284F5
102
}
330
284F5
100
AcDbXrecord
1000
DSTYLE
1002
{
1070
   289
 70
     1
1070
   341
340
1215D
1070
   342
340
1215D
1070
   371
 70
    13
1070
   372
 70
    13
1002
}
  0
XRECORD
  5
28500
102
{ACAD_REACTORS
330
284F5
102
}
330
284F5
100
AcDbXrecord
  1
{D14EE3FF-941A-415A-9907-344E0A80D794}
  0
XRECORD
  5
284F8
102
{ACAD_REACTORS
330
284F5
102
}
330
284F5
100
AcDbXrecord
  1

  0
XRECORD
  5
284FE
102
{ACAD_REACTORS
330
284F5
102
}
330
284F5
100
AcDbXrecord
 90
        0
  0
XRECORD
  5
284FA
102
{ACAD_REACTORS
330
284F5
102
}
330
284F5
100
AcDbXrecord
340
DB2
  0
XRECORD
  5
284FD
102
{ACAD_REACTORS
330
284F5
102
}
330
284F5
100
AcDbXrecord
 90
    10781
  0
XRECORD
  5
284FB
102
{ACAD_REACTORS
330
284F5
102
}
330
284F5
100
AcDbXrecord
340
DB3
  0
XRECORD
  5
284FC
102
{ACAD_REACTORS
330
284F5
102
}
330
284F5
100
AcDbXrecord
340
FB5B
  0
XRECORD
  5
28502
102
{ACAD_REACTORS
330
284F5
102
}
330
284F5
100
AcDbXrecord
 40
0.0
  0
XRECORD
  5
28506
102
{ACAD_REACTORS
330
284F5
102
}
330
284F5
100
AcDbXrecord
340
0
  0
XRECORD
  5
2850C
102
{ACAD_REACTORS
330
284F5
102
}
330
284F5
100
AcDbXrecord
 10
0.0
 20
0.0
 30
0.0
  0
XRECORD
  5
28508
102
{ACAD_REACTORS
330
284F5
102
}
330
284F5
100
AcDbXrecord
 10
0.0
 20
0.0
 30
0.0
  0
XRECORD
  5
2850B
102
{ACAD_REACTORS
330
284F5
102
}
330
284F5
100
AcDbXrecord
 10
0.0
 20
0.0
 30
0.0
  0
XRECORD
  5
28509
102
{ACAD_REACTORS
330
284F5
102
}
330
284F5
100
AcDbXrecord
 10
0.0
 20
0.0
 30
0.0
  0
XRECORD
  5
2850A
102
{ACAD_REACTORS
330
284F5
102
}
330
284F5
100
AcDbXrecord
 10
0.0
 20
0.0
 30
0.0
  0
XRECORD
  5
28507
102
{ACAD_REACTORS
330
284F5
102
}
330
284F5
100
AcDbXrecord
 10
0.0
 20
0.0
 30
0.0
  0
XRECORD
  5
28504
102
{ACAD_REACTORS
330
284F5
102
}
330
284F5
100
AcDbXrecord
340
0
  0
XRECORD
  5
28505
102
{ACAD_REACTORS
330
284F5
102
}
330
284F5
100
AcDbXrecord
 70
     0
  0
XRECORD
  5
284F9
102
{ACAD_REACTORS
330
284F5
102
}
330
284F5
100
AcDbXrecord
  1
MONOCHROME.CTB
  0
XRECORD
  5
284F6
102
{ACAD_REACTORS
330
284F5
102
}
330
284F5
100
AcDbXrecord
 90
        1
  0
XRECORD
  5
284F7
102
{ACAD_REACTORS
330
284F5
102
}
330
284F5
100
AcDbXrecord
 90
       70
  0
XRECORD
  5
2850F
102
{ACAD_REACTORS
330
284F5
102
}
330
284F5
100
AcDbXrecord
340
0
  0
XRECORD
  5
28515
102
{ACAD_REACTORS
330
284F5
102
}
330
284F5
100
AcDbXrecord
 10
0.0
 20
0.0
 30
0.0
  0
XRECORD
  5
28511
102
{ACAD_REACTORS
330
284F5
102
}
330
284F5
100
AcDbXrecord
 10
0.0
 20
0.0
 30
0.0
  0
XRECORD
  5
28514
102
{ACAD_REACTORS
330
284F5
102
}
330
284F5
100
AcDbXrecord
 10
0.0
 20
0.0
 30
0.0
  0
XRECORD
  5
28512
102
{ACAD_REACTORS
330
284F5
102
}
330
284F5
100
AcDbXrecord
 10
0.0
 20
0.0
 30
0.0
  0
XRECORD
  5
28513
102
{ACAD_REACTORS
330
284F5
102
}
330
284F5
100
AcDbXrecord
 10
0.0
 20
0.0
 30
0.0
  0
XRECORD
  5
28510
102
{ACAD_REACTORS
330
284F5
102
}
330
284F5
100
AcDbXrecord
 10
0.0
 20
0.0
 30
0.0
  0
XRECORD
  5
2850D
102
{ACAD_REACTORS
330
284F5
102
}
330
284F5
100
AcDbXrecord
340
0
  0
XRECORD
  5
2850E
102
{ACAD_REACTORS
330
284F5
102
}
330
284F5
100
AcDbXrecord
 70
     0
  0
XRECORD
  5
28501
102
{ACAD_REACTORS
330
284F5
102
}
330
284F5
100
AcDbXrecord
  1
{9DDCF332-CF85-4224-B7F6-A99A55001B9C}
  0
DICTIONARYVAR
  5
106A7
102
{ACAD_REACTORS
330
106A6
102
}
330
106A6
100
DictionaryVariables
280
     0
  1
96
  0
XRECORD
  5
1A9A1
102
{ACAD_REACTORS
330
1A99F
102
}
330
1A99F
100
AcDbXrecord
330
187D7
330
0
330
0
330
0
330
0
330
0
330
0
330
0
330
0
330
0
330
79
330
115F
330
0
330
0
330
0
330
0
330
0
330
0
330
0
330
0
330
0
330
0
330
0
330
0
330
0
330
0
330
0
330
0
330
0
330
0
330
0
330
0
330
0
330
0
330
0
330
0
330
0
330
0
330
0
330
0
330
0
330
0
330
0
330
0
  0
XRECORD
  5
283CE
102
{ACAD_REACTORS
330
283CD
102
}
330
283CD
100
AcDbXrecord
  1
0
  1
*0
  1
*
  1
*
 70
     0
  1
*
  1
*
  0
XRECORD
  5
283CF
102
{ACAD_REACTORS
330
283CD
102
}
330
283CD
100
AcDbXrecord
  1
11
  1
*11
  1
*
  1
*
 70
     0
  1
*
  1
*
  0
XRECORD
  5
283D0
102
{ACAD_REACTORS
330
283CD
102
}
330
283CD
100
AcDbXrecord
  1
150_
  1
150_*
  1
*
  1
*
 70
     0
  1
*
  1
*
  0
XRECORD
  5
283D1
102
{ACAD_REACTORS
330
283CD
102
}
330
283CD
100
AcDbXrecord
  1
160_
  1
160_*
  1
*
  1
*
 70
     0
  1
*
  1
*
  0
XRECORD
  5
283D2
102
{ACAD_REACTORS
330
283CD
102
}
330
283CD
100
AcDbXrecord
  1
170_
  1
170_*
  1
*
  1
*
 70
     0
  1
*
  1
*
  0
XRECORD
  5
283D3
102
{ACAD_REACTORS
330
283CD
102
}
330
283CD
100
AcDbXrecord
  1
171_
  1
171_*
  1
*
  1
*
 70
     0
  1
*
  1
*
  0
XRECORD
  5
283D4
102
{ACAD_REACTORS
330
283CD
102
}
330
283CD
100
AcDbXrecord
  1
350_
  1
350_*
  1
*
  1
*
 70
     0
  1
*
  1
*
  0
XRECORD
  5
283D5
102
{ACAD_REACTORS
330
283CD
102
}
330
283CD
100
AcDbXrecord
  1
4
  1
*4
  1
*
  1
*
 70
     0
  1
*
  1
*
  0
XRECORD
  5
283D6
102
{ACAD_REACTORS
330
283CD
102
}
330
283CD
100
AcDbXrecord
  1
5
  1
*5
  1
*
  1
*
 70
     0
  1
*
  1
*
  0
XRECORD
  5
283D7
102
{ACAD_REACTORS
330
283CD
102
}
330
283CD
100
AcDbXrecord
  1
7
  1
*7
  1
*
  1
*
 70
     0
  1
*
  1
*
  0
XRECORD
  5
283D8
102
{ACAD_REACTORS
330
283CD
102
}
330
283CD
100
AcDbXrecord
  1
kiseki
  1
kiseki*
  1
*
  1
*
 70
     0
  1
*
  1
*
  0
ENDSEC
  0
EOF
