  0
SECTION
  2
HEADER
  9
$ACADVER
  1
AC1014
  9
$ACADMAINTVER
 70
     9
  9
$DWGCODEPAGE
  3
ANSI_932
  9
$INSBASE
 10
0.0
 20
0.0
 30
0.0
  9
$EXTMIN
 10
4106.875131549108
 20
-250.1484581668433
 30
0.0
  9
$EXTMAX
 10
4849.001509019934
 20
7.720956411083263
 30
0.0
  9
$LIMMIN
 10
0.0
 20
0.0
  9
$LIMMAX
 10
420.0
 20
297.0
  9
$ORTHOMODE
 70
     0
  9
$REGENMODE
 70
     1
  9
$FILLMODE
 70
     1
  9
$QTEXTMODE
 70
     0
  9
$MIRRTEXT
 70
     0
  9
$DRAGMODE
 70
     2
  9
$LTSCALE
 40
20.0
  9
$OSMODE
 70
   959
  9
$ATTMODE
 70
     2
  9
$TEXTSIZE
 40
10.0
  9
$TRACEWID
 40
1.0
  9
$TEXTSTYLE
  7
ｽﾀｲﾙ3
  9
$CLAYER
  8
DIMENSION
  9
$CELTYPE
  6
BYLAYER
  9
$CECOLOR
 62
   256
  9
$CELTSCALE
 40
1.0
  9
$DELOBJ
 70
     1
  9
$DISPSILH
 70
     0
  9
$DIMSCALE
 40
2.0
  9
$DIMASZ
 40
2.5
  9
$DIMEXO
 40
0.8
  9
$DIMDLI
 40
0.38
  9
$DIMRND
 40
0.0
  9
$DIMDLE
 40
0.0
  9
$DIMEXE
 40
0.18
  9
$DIMTP
 40
0.0
  9
$DIMTM
 40
0.0
  9
$DIMTXT
 40
3.0
  9
$DIMCEN
 40
0.0
  9
$DIMTSZ
 40
0.0
  9
$DIMTOL
 70
     0
  9
$DIMLIM
 70
     0
  9
$DIMTIH
 70
     0
  9
$DIMTOH
 70
     0
  9
$DIMSE1
 70
     0
  9
$DIMSE2
 70
     0
  9
$DIMTAD
 70
     3
  9
$DIMZIN
 70
     8
  9
$DIMBLK
  1
OPEN30
  9
$DIMASO
 70
     1
  9
$DIMSHO
 70
     1
  9
$DIMPOST
  1

  9
$DIMAPOST
  1

  9
$DIMALT
 70
     0
  9
$DIMALTD
 70
     2
  9
$DIMALTF
 40
25.4
  9
$DIMLFAC
 40
1.0
  9
$DIMTOFL
 70
     0
  9
$DIMTVP
 40
0.0
  9
$DIMTIX
 70
     0
  9
$DIMSOXD
 70
     0
  9
$DIMSAH
 70
     0
  9
$DIMBLK1
  1

  9
$DIMBLK2
  1

  9
$DIMSTYLE
  2
まこ
  9
$DIMCLRD
 70
     4
  9
$DIMCLRE
 70
     4
  9
$DIMCLRT
 70
   256
  9
$DIMTFAC
 40
1.0
  9
$DIMGAP
 40
0.5
  9
$DIMJUST
 70
     0
  9
$DIMSD1
 70
     0
  9
$DIMSD2
 70
     0
  9
$DIMTOLJ
 70
     1
  9
$DIMTZIN
 70
     0
  9
$DIMALTZ
 70
     0
  9
$DIMALTTZ
 70
     0
  9
$DIMFIT
 70
     1
  9
$DIMUPT
 70
     0
  9
$DIMUNIT
 70
     2
  9
$DIMDEC
 70
     8
  9
$DIMTDEC
 70
     8
  9
$DIMALTU
 70
     2
  9
$DIMALTTD
 70
     2
  9
$DIMTXSTY
  7
まこ
  9
$DIMAUNIT
 70
     0
  9
$LUNITS
 70
     2
  9
$LUPREC
 70
     4
  9
$SKETCHINC
 40
1.0
  9
$FILLETRAD
 40
2.0
  9
$AUNITS
 70
     0
  9
$AUPREC
 70
     0
  9
$MENU
  1
.
  9
$ELEVATION
 40
0.0
  9
$PELEVATION
 40
0.0
  9
$THICKNESS
 40
0.0
  9
$LIMCHECK
 70
     0
  9
$BLIPMODE
 70
     0
  9
$CHAMFERA
 40
0.5
  9
$CHAMFERB
 40
0.5
  9
$CHAMFERC
 40
20.0
  9
$CHAMFERD
 40
0.0
  9
$SKPOLY
 70
     0
  9
$TDCREATE
 40
2451224.660162384
  9
$TDUPDATE
 40
2455601.366035879
  9
$TDINDWG
 40
16.1481800000
  9
$TDUSRTIMER
 40
16.1481798264
  9
$USRTIMER
 70
     1
  9
$ANGBASE
 50
0.0
  9
$ANGDIR
 70
     0
  9
$PDMODE
 70
     0
  9
$PDSIZE
 40
0.0
  9
$PLINEWID
 40
0.0
  9
$COORDS
 70
     1
  9
$SPLFRAME
 70
     0
  9
$SPLINETYPE
 70
     6
  9
$SPLINESEGS
 70
     8
  9
$ATTDIA
 70
     0
  9
$ATTREQ
 70
     1
  9
$HANDLING
 70
-16383
  9
$HANDSEED
  5
2878B
  9
$SURFTAB1
 70
     6
  9
$SURFTAB2
 70
     6
  9
$SURFTYPE
 70
     6
  9
$SURFU
 70
     6
  9
$SURFV
 70
     6
  9
$UCSNAME
  2

  9
$UCSORG
 10
0.0
 20
0.0
 30
0.0
  9
$UCSXDIR
 10
1.0
 20
0.0
 30
0.0
  9
$UCSYDIR
 10
0.0
 20
1.0
 30
0.0
  9
$PUCSNAME
  2

  9
$PUCSORG
 10
0.0
 20
0.0
 30
0.0
  9
$PUCSXDIR
 10
1.0
 20
0.0
 30
0.0
  9
$PUCSYDIR
 10
0.0
 20
1.0
 30
0.0
  9
$USERI1
 70
     0
  9
$USERI2
 70
     0
  9
$USERI3
 70
     0
  9
$USERI4
 70
     0
  9
$USERI5
 70
     0
  9
$USERR1
 40
245.9999999999999
  9
$USERR2
 40
0.0
  9
$USERR3
 40
0.0
  9
$USERR4
 40
0.0
  9
$USERR5
 40
0.0
  9
$WORLDVIEW
 70
     1
  9
$SHADEDGE
 70
     3
  9
$SHADEDIF
 70
    70
  9
$TILEMODE
 70
     0
  9
$MAXACTVP
 70
    48
  9
$PINSBASE
 10
0.0
 20
0.0
 30
0.0
  9
$PLIMCHECK
 70
     0
  9
$PEXTMIN
 10
-0.018089180103857
 20
-0.0071460572438582
 30
-0.0015258207003583
  9
$PEXTMAX
 10
400.0046750053157
 20
288.0080194085983
 30
0.0000000349246037
  9
$PLIMMIN
 10
-5.149355331745963
 20
-1.884286203116861
  9
$PLIMMAX
 10
411.0419746395069
 20
292.4224399908403
  9
$UNITMODE
 70
     0
  9
$VISRETAIN
 70
     1
  9
$PLINEGEN
 70
     0
  9
$PSLTSCALE
 70
     0
  9
$TREEDEPTH
 70
  3020
  9
$PICKSTYLE
 70
     0
  9
$CMLSTYLE
  2
STANDARD
  9
$CMLJUST
 70
     0
  9
$CMLSCALE
 40
20.0
  9
$PROXYGRAPHICS
 70
     1
  9
$MEASUREMENT
 70
     0
  0
ENDSEC
  0
SECTION
  2
CLASSES
  0
CLASS
  1
HATCH
  2
AcDbHatch
  3
AutoCAD 2000
 90
        0
280
     0
281
     1
  0
CLASS
  1
LWPOLYLINE
  2
AcDbPolyline
  3
AutoCAD 2000
 90
        0
280
     0
281
     1
  0
CLASS
  1
ACDBDICTIONARYWDFLT
  2
AcDbDictionaryWithDefault
  3
AutoCAD 2000
 90
        0
280
     0
281
     0
  0
CLASS
  1
ACDBPLACEHOLDER
  2
AcDbPlaceHolder
  3
AutoCAD 2000
 90
        0
280
     0
281
     0
  0
CLASS
  1
LAYOUT
  2
AcDbLayout
  3
AutoCAD 2000
 90
        0
280
     0
281
     0
  0
CLASS
  1
LONG_TRANSACTION
  2
AcDbLongTransaction
  3
AutoCAD 2000
 90
        0
280
     0
281
     0
  0
CLASS
  1
LWPOLYLINE
  2
AcDbPolyline
  3
AutoCAD 2000
 90
        0
280
     0
281
     1
  0
CLASS
  1
HATCH
  2
AcDbHatch
  3
AutoCAD 2000
 90
        0
280
     0
281
     1
  0
CLASS
  1
XRECORD
  2
AcDbXrecord
  3
AutoCAD 2000
 90
        0
280
     0
281
     0
  0
CLASS
  1
DICTIONARYVAR
  2
AcDbDictionaryVar
  3
AutoCAD 2000
 90
        0
280
     0
281
     0
  0
CLASS
  1
LONG_TRANSACTION
  2
AcDbLongTransaction
  3
AutoCAD 2000
 90
        0
280
     0
281
     0
  0
CLASS
  1
LWPOLYLINE
  2
AcDbPolyline
  3
AutoCAD 2000
 90
        0
280
     0
281
     1
  0
CLASS
  1
HATCH
  2
AcDbHatch
  3
AutoCAD 2000
 90
        0
280
     0
281
     1
  0
CLASS
  1
XRECORD
  2
AcDbXrecord
  3
AutoCAD 2000
 90
        0
280
     0
281
     0
  0
ENDSEC
  0
SECTION
  2
TABLES
  0
TABLE
  2
VPORT
  5
8
330
0
100
AcDbSymbolTable
 70
     2
  0
VPORT
  5
28767
330
8
100
AcDbSymbolTableRecord
100
AcDbViewportTableRecord
  2
*ACTIVE
 70
     0
 10
0.0
 20
0.0
 11
1.0
 21
1.0
 12
4478.067150005641
 22
-121.2013626323278
 13
0.0
 23
0.0
 14
10.0
 24
10.0
 15
10.0
 25
10.0
 16
0.0
 26
0.0
 36
1.0
 17
0.0
 27
0.0
 37
0.0
 40
340.9542762291049
 41
2.184834123222748
 42
50.0
 43
0.0
 44
0.0
 50
0.0
 51
0.0
 71
     0
 72
   100
 73
     1
 74
     0
 75
     0
 76
     0
 77
     0
 78
     0
  0
ENDTAB
  0
TABLE
  2
LTYPE
  5
5
330
0
100
AcDbSymbolTable
 70
     4
  0
LTYPE
  5
12
330
5
100
AcDbSymbolTableRecord
100
AcDbLinetypeTableRecord
  2
BYBLOCK
 70
     0
  3

 72
    65
 73
     0
 40
0.0
  0
LTYPE
  5
13
330
5
100
AcDbSymbolTableRecord
100
AcDbLinetypeTableRecord
  2
BYLAYER
 70
     0
  3

 72
    65
 73
     0
 40
0.0
  0
LTYPE
  5
14
330
5
100
AcDbSymbolTableRecord
100
AcDbLinetypeTableRecord
  2
CONTINUOUS
 70
     0
  3
Solid line
 72
    65
 73
     0
 40
0.0
  0
LTYPE
  5
126C
330
5
100
AcDbSymbolTableRecord
100
AcDbLinetypeTableRecord
  2
CENTER
 70
     0
  3
____ _ ____ _ ____ _ ____ _ ____ _ ____ _ ____
 72
    65
 73
     4
 40
2.0
 49
1.25
 74
     0
 49
-0.25
 74
     0
 49
0.25
 74
     0
 49
-0.25
 74
     0
  0
LTYPE
  5
1541F
330
5
100
AcDbSymbolTableRecord
100
AcDbLinetypeTableRecord
  2
HIDDEN
 70
     0
  3
_ _ _ _ _ _ _ _ _ _ _ _ _ _ _ _ _ _ _ _ _ _ _
 72
    65
 73
     2
 40
0.375
 49
0.25
 74
     0
 49
-0.125
 74
     0
  0
LTYPE
  5
1615D
330
5
100
AcDbSymbolTableRecord
100
AcDbLinetypeTableRecord
  2
PHANTOM
 70
     0
  3
Phantom ______  __  __  ______  __  __  ______
 72
    65
 73
     6
 40
2.5
 49
1.25
 74
     0
 49
-0.25
 74
     0
 49
0.25
 74
     0
 49
-0.25
 74
     0
 49
0.25
 74
     0
 49
-0.25
 74
     0
  0
ENDTAB
  0
TABLE
  2
LAYER
  5
2
102
{ACAD_XDICTIONARY
360
284A8
102
}
330
0
100
AcDbSymbolTable
 70
    11
  0
LAYER
  5
E
330
2
100
AcDbSymbolTableRecord
100
AcDbLayerTableRecord
  2
0
 70
     2
 62
     7
  6
CONTINUOUS
  0
LAYER
  5
2C
330
2
100
AcDbSymbolTableRecord
100
AcDbLayerTableRecord
  2
M_VIEW
 70
     4
 62
    -1
  6
CONTINUOUS
  0
LAYER
  5
30
330
2
100
AcDbSymbolTableRecord
100
AcDbLayerTableRecord
  2
FRAME025
 70
     0
 62
     7
  6
CONTINUOUS
  0
LAYER
  5
12B
330
2
100
AcDbSymbolTableRecord
100
AcDbLayerTableRecord
  2
DEFPOINTS
 70
     4
 62
    -7
  6
CONTINUOUS
  0
LAYER
  5
651
330
2
100
AcDbSymbolTableRecord
100
AcDbLayerTableRecord
  2
FRAME020
 70
     0
 62
     7
  6
CONTINUOUS
  0
LAYER
  5
A9BB
330
2
100
AcDbSymbolTableRecord
100
AcDbLayerTableRecord
  2
文字
 70
     0
 62
     7
  6
CONTINUOUS
  0
LAYER
  5
122DE
330
2
100
AcDbSymbolTableRecord
100
AcDbLayerTableRecord
  2
DIMENSION
 70
     0
 62
     7
  6
CONTINUOUS
  0
LAYER
  5
15422
330
2
100
AcDbSymbolTableRecord
100
AcDbLayerTableRecord
  2
細線
 70
     0
 62
     7
  6
CONTINUOUS
  0
LAYER
  5
1A846
330
2
100
AcDbSymbolTableRecord
100
AcDbLayerTableRecord
  2
実線
 70
     0
 62
     7
  6
CONTINUOUS
  0
LAYER
  5
1BB4F
330
2
100
AcDbSymbolTableRecord
100
AcDbLayerTableRecord
  2
隠れ線
 70
     0
 62
     7
  6
HIDDEN
  0
LAYER
  5
1BB52
330
2
100
AcDbSymbolTableRecord
100
AcDbLayerTableRecord
  2
基板
 70
     0
 62
     7
  6
CONTINUOUS
  0
ENDTAB
  0
TABLE
  2
STYLE
  5
3
330
0
100
AcDbSymbolTable
 70
     7
  0
STYLE
  5
F
330
3
100
AcDbSymbolTableRecord
100
AcDbTextStyleTableRecord
  2
STANDARD
 70
     0
 40
0.0
 41
1.0
 50
0.0
 71
     0
 42
2.5
  3
isocp.shx
  4
bigfont.shx
  0
STYLE
  5
35
330
3
100
AcDbSymbolTableRecord
100
AcDbTextStyleTableRecord
  2
MSｺ_ｼｯｸ
 70
     0
 40
0.0
 41
1.0
 50
0.0
 71
     0
 42
5.0
  3
MS Gothic.ttf
  4

1001
ACAD
1000
MS Gothic
1071
    32817
  0
STYLE
  5
1A849
330
3
100
AcDbSymbolTableRecord
100
AcDbTextStyleTableRecord
  2
まこ
 70
     0
 40
0.0
 41
1.0
 50
0.0
 71
     0
 42
2.5
  3
simplex.shx
  4
bigfont.shx
  0
STYLE
  5
1A84A
330
3
100
AcDbSymbolTableRecord
100
AcDbTextStyleTableRecord
  2
ｽﾀｲﾙ3
 70
     0
 40
10.0
 41
1.0
 50
0.0
 71
     0
 42
10.0
  3
isocp.shx
  4
extfont.shx
  0
ENDTAB
  0
TABLE
  2
VIEW
  5
6
330
0
100
AcDbSymbolTable
 70
     0
  0
ENDTAB
  0
TABLE
  2
UCS
  5
7
330
0
100
AcDbSymbolTable
 70
     0
  0
ENDTAB
  0
TABLE
  2
APPID
  5
9
330
0
100
AcDbSymbolTable
 70
     4
  0
APPID
  5
10
330
9
100
AcDbSymbolTableRecord
100
AcDbRegAppTableRecord
  2
ACAD
 70
     0
  0
APPID
  5
F013
330
9
100
AcDbSymbolTableRecord
100
AcDbRegAppTableRecord
  2
CONTENTBLOCKDESCRIPTION
 70
     0
  0
APPID
  5
F014
330
9
100
AcDbSymbolTableRecord
100
AcDbRegAppTableRecord
  2
CONTENTBLOCKICON
 70
     0
  0
APPID
  5
1A9A0
330
9
100
AcDbSymbolTableRecord
100
AcDbRegAppTableRecord
  2
DCO15
 70
     0
  0
ENDTAB
  0
TABLE
  2
DIMSTYLE
  5
A
330
0
100
AcDbSymbolTable
 70
     2
  0
DIMSTYLE
105
1D
330
A
100
AcDbSymbolTableRecord
100
AcDbDimStyleTableRecord
  2
STANDARD
 70
     0
  3

  4

  5

  6

  7

 40
1.0
 41
0.18
 42
0.0625
 43
0.38
 44
0.18
 45
0.0
 46
0.0
 47
0.0
 48
0.0
140
0.18
141
0.09
142
0.0
143
25.4
144
1.0
145
0.0
146
1.0
147
0.09
 71
     0
 72
     0
 73
     1
 74
     1
 75
     0
 76
     0
 77
     0
 78
     0
170
     0
171
     2
172
     0
173
     0
174
     0
175
     0
176
     0
177
     0
178
     0
270
     2
271
     4
272
     4
273
     2
274
     2
340
F
275
     0
280
     0
281
     0
282
     0
283
     1
284
     0
285
     0
286
     0
287
     3
288
     0
  0
DIMSTYLE
105
1A84D
102
{ACAD_REACTORS
330
2707B
330
270AB
330
270E7
330
270F7
330
27154
330
2808F
102
}
330
A
100
AcDbSymbolTableRecord
100
AcDbDimStyleTableRecord
  2
まこ
 70
     0
  3

  4

  5
OPEN30
  6

  7

 40
2.0
 41
2.5
 42
0.8
 43
0.38
 44
0.18
 45
0.0
 46
0.0
 47
0.0
 48
0.0
140
3.0
141
0.0
142
0.0
143
25.4
144
1.0
145
0.0
146
1.0
147
0.5
 71
     0
 72
     0
 73
     0
 74
     0
 75
     0
 76
     0
 77
     3
 78
     8
170
     0
171
     2
172
     0
173
     0
174
     0
175
     0
176
     4
177
     4
178
   256
270
     2
271
     8
272
     8
273
     2
274
     2
340
1A849
275
     0
280
     0
281
     0
282
     0
283
     1
284
     0
285
     0
286
     0
287
     1
288
     0
  0
ENDTAB
  0
TABLE
  2
BLOCK_RECORD
  5
1
330
0
100
AcDbSymbolTable
 70
    24
  0
BLOCK_RECORD
  5
18
102
{ACAD_XDICTIONARY
360
EFC6
102
}
330
1
100
AcDbSymbolTableRecord
100
AcDbBlockTableRecord
  2
*MODEL_SPACE
  0
BLOCK_RECORD
  5
15
102
{ACAD_XDICTIONARY
360
EFC4
102
}
330
1
100
AcDbSymbolTableRecord
100
AcDbBlockTableRecord
  2
*PAPER_SPACE
  0
BLOCK_RECORD
  5
115C
330
1
100
AcDbSymbolTableRecord
100
AcDbBlockTableRecord
  2
機械A4横_LBP
  0
BLOCK_RECORD
  5
1215D
330
1
100
AcDbSymbolTableRecord
100
AcDbBlockTableRecord
  2
_OPEN30
  0
ENDTAB
  0
ENDSEC
  0
SECTION
  2
BLOCKS
  0
BLOCK
  5
19
330
18
100
AcDbEntity
  8
0
100
AcDbBlockBegin
  2
*MODEL_SPACE
 70
     0
 10
0.0
 20
0.0
 30
0.0
  3
*MODEL_SPACE
  1

  0
ENDBLK
  5
1A
330
18
100
AcDbEntity
  8
0
100
AcDbBlockEnd
  0
BLOCK
  5
16
330
15
100
AcDbEntity
 67
     1
  8
0
100
AcDbBlockBegin
  2
*PAPER_SPACE
 70
     0
 10
0.0
 20
0.0
 30
0.0
  3
*PAPER_SPACE
  1

  0
ENDBLK
  5
17
330
15
100
AcDbEntity
 67
     1
  8
0
100
AcDbBlockEnd
  0
BLOCK
  5
115D
330
115C
100
AcDbEntity
  8
0
100
AcDbBlockBegin
  2
機械A4横_LBP
 70
     0
 10
0.0
 20
0.0
 30
0.0
  3
機械A4横_LBP
  1

  0
ENDBLK
  5
115E
330
115C
100
AcDbEntity
  8
0
100
AcDbBlockEnd
  0
BLOCK
  5
12161
330
1215D
100
AcDbEntity
  8
0
100
AcDbBlockBegin
  2
_OPEN30
 70
     0
 10
0.0
 20
0.0
 30
0.0
  3
_OPEN30
  1

  0
LINE
  5
1215E
330
1215D
100
AcDbEntity
  8
0
  6
BYBLOCK
 62
     0
100
AcDbLine
 10
-1.0
 20
0.26794919
 30
0.0
 11
0.0
 21
0.0
 31
0.0
  0
LINE
  5
1215F
330
1215D
100
AcDbEntity
  8
0
  6
BYBLOCK
 62
     0
100
AcDbLine
 10
0.0
 20
0.0
 30
0.0
 11
-1.0
 21
-0.26794919
 31
0.0
  0
LINE
  5
12160
330
1215D
100
AcDbEntity
  8
0
  6
BYBLOCK
 62
     0
100
AcDbLine
 10
0.0
 20
0.0
 30
0.0
 11
-1.0
 21
0.0
 31
0.0
  0
ENDBLK
  5
12162
330
1215D
100
AcDbEntity
  8
0
100
AcDbBlockEnd
  0
ENDSEC
  0
SECTION
  2
ENTITIES
  0
LINE
  5
26FF7
330
18
100
AcDbEntity
  8
0
  6
CENTER
 48
0.6
100
AcDbLine
 10
4590.657781947987
 20
-114.5078668295564
 30
0.0
 11
4658.819691791466
 21
-114.5078668295564
 31
0.0
  0
LWPOLYLINE
  5
26FFA
330
18
100
AcDbEntity
  8
0
  6
HIDDEN
 48
0.45
100
AcDbPolyline
 90
        5
 70
     0
 43
0.0
 10
4156.753071201747
 20
-118.2078769137629
 10
4156.753071201747
 20
3.792123086237102
 10
4168.753071201747
 20
3.792123086237102
 10
4168.753071201747
 20
-118.2078769137629
 10
4156.753071201747
 20
-118.2078769137629
  0
LINE
  5
26FFB
330
18
100
AcDbEntity
  8
0
  6
PHANTOM
 48
0.6
100
AcDbLine
 10
4129.552362417221
 20
-107.1814207780174
 30
0.0
 11
4129.552362417221
 21
-7.204965955667367
 31
0.0
  0
LWPOLYLINE
  5
26FFC
330
18
100
AcDbEntity
  8
0
  6
PHANTOM
 48
0.6
100
AcDbPolyline
 90
        4
 70
     1
 43
0.0
 10
4124.552362417222
 20
7.718601360179952
 10
4116.752362417221
 20
7.718601360179952
 10
4116.752362417221
 20
-122.2813986398205
 10
4124.552362417222
 20
-122.2813986398205
  0
LINE
  5
26FFD
330
18
100
AcDbEntity
  8
0
 48
0.3
100
AcDbLine
 10
4130.752362417221
 20
7.718623086237136
 30
0.0
 11
4130.752362417221
 21
-122.2813769137627
 31
0.0
  0
LINE
  5
26FFF
330
18
100
AcDbEntity
  8
0
 48
0.3
100
AcDbLine
 10
4170.252362417221
 20
-10.28142080567356
 30
0.0
 11
4170.253068065972
 21
-104.2766664274719
 31
0.0
  0
LINE
  5
27000
330
18
100
AcDbEntity
  8
0
100
AcDbLine
 10
4594.761898348198
 20
7.71862308623713
 30
0.0
 11
4594.761898348198
 21
-122.2813769137627
 31
0.0
  0
LINE
  5
27001
330
18
100
AcDbEntity
  8
0
100
AcDbLine
 10
4246.761898348199
 20
7.718623086237137
 30
0.0
 11
4246.761898348199
 21
-122.2813769137627
 31
0.0
  0
LINE
  5
2700C
330
18
100
AcDbEntity
  8
0
100
AcDbLine
 10
4246.761898348199
 20
-122.2813769137627
 30
0.0
 11
4594.761898348198
 21
-122.2813769137627
 31
0.0
  0
LWPOLYLINE
  5
2700D
330
18
100
AcDbEntity
  8
0
100
AcDbPolyline
 90
        2
 70
     0
 43
0.0
 10
4580.784120748199
 20
-104.2841490856357
 10
4420.784081367975
 20
-104.2841490856357
  0
LINE
  5
27010
330
18
100
AcDbEntity
  8
0
 48
0.3
100
AcDbLine
 10
4130.752362417221
 20
-122.2813769137627
 30
0.0
 11
4170.75236241722
 21
-122.2813769137627
 31
0.0
  0
LINE
  5
27011
330
18
100
AcDbEntity
  8
0
  6
PHANTOM
 48
0.6
100
AcDbLine
 10
4124.552412174189
 20
-107.1814207780174
 30
0.0
 11
4129.552362417221
 21
-107.1814207780174
 31
0.0
  0
LINE
  5
27017
330
18
100
AcDbEntity
  8
0
  6
CENTER
 48
0.6
100
AcDbLine
 10
4106.875131549108
 20
-114.6805769137624
 30
0.0
 11
4133.835437018186
 21
-114.6805769137624
 31
0.0
  0
CIRCLE
  5
2701B
330
18
100
AcDbEntity
  8
0
  6
HIDDEN
 48
0.45
100
AcDbCircle
 10
4162.753442607889
 20
-112.1920039525915
 30
0.0
 40
4.0
  0
LINE
  5
2701F
330
18
100
AcDbEntity
  8
0
  6
CENTER
 48
0.6
100
AcDbLine
 10
4173.717601907788
 20
-114.7813769137628
 30
0.0
 11
4158.336311138469
 21
-114.7813769137628
 31
0.0
  0
LINE
  5
27027
330
18
100
AcDbEntity
  8
0
 48
0.3
100
AcDbLine
 10
4170.253068065972
 20
-104.2766663998159
 30
0.0
 11
4170.753071201747
 21
-104.2766663998159
 31
0.0
  0
LINE
  5
27028
330
18
100
AcDbEntity
  8
0
 48
0.3
100
AcDbLine
 10
4170.75236241722
 20
-122.2814207780174
 30
0.0
 11
4170.753068066356
 21
-104.2766663998159
 31
0.0
  0
LINE
  5
2702B
330
18
100
AcDbEntity
  8
0
100
AcDbLine
 10
4246.761898348199
 20
-104.2841490856357
 30
0.0
 11
4420.784081367975
 21
-104.2841490856357
 31
0.0
  0
LINE
  5
2702C
330
18
100
AcDbEntity
  8
0
100
AcDbLine
 10
4261.784081367976
 20
-104.2841490856357
 30
0.0
 11
4261.784081367976
 21
-122.2813769137627
 31
0.0
  0
LINE
  5
2705A
330
18
100
AcDbEntity
  8
0
  6
CENTER
 48
0.3
100
AcDbLine
 10
4287.655600747344
 20
-114.7813769137628
 30
0.0
 11
4297.924003746948
 21
-114.7813769137629
 31
0.0
  0
CIRCLE
  5
2705B
330
18
100
AcDbEntity
  8
0
100
AcDbCircle
 10
4292.761898348198
 20
-114.7813769137628
 30
0.0
 40
2.5
  0
CIRCLE
  5
2705C
330
18
100
AcDbEntity
  8
0
100
AcDbCircle
 10
4292.761898348198
 20
-114.7813769137628
 30
0.0
 40
2.0
  0
LINE
  5
27075
330
18
100
AcDbEntity
  8
0
100
AcDbLine
 10
4580.804081367977
 20
-104.2841490856357
 30
0.0
 11
4594.761898348198
 21
-104.2841490856357
 31
0.0
  0
LINE
  5
27076
330
18
100
AcDbEntity
  8
0
100
AcDbLine
 10
4579.804081367977
 20
-104.2841490856357
 30
0.0
 11
4579.784120748199
 21
-122.2813769137627
 31
0.0
  0
LINE
  5
27078
330
18
100
AcDbEntity
  8
0
  6
CENTER
 48
0.6
100
AcDbLine
 10
4226.736969194258
 20
-57.28137691376286
 30
0.0
 11
4611.224359221479
 21
-57.28137691376286
 31
0.0
  0
LINE
  5
27079
330
18
100
AcDbEntity
  8
0
100
AcDbLine
 10
4246.761898348199
 20
7.718623086237137
 30
0.0
 11
4594.761898348198
 21
7.71862308623713
 31
0.0
  0
LWPOLYLINE
  5
2707A
330
18
100
AcDbEntity
  8
0
100
AcDbPolyline
 90
        2
 70
     0
 43
0.0
 10
4580.784120748199
 20
-10.27860474188946
 10
4420.784081367975
 20
-10.27860474188946
  0
LINE
  5
2707C
330
18
100
AcDbEntity
  8
0
100
AcDbLine
 10
4147.752362417221
 20
-74.28137691376298
 30
0.0
 11
4147.752362417221
 21
-40.28137691376296
 31
0.0
  0
LINE
  5
2707D
330
18
100
AcDbEntity
  8
0
100
AcDbLine
 10
4140.75236241722
 20
-39.78137691376296
 30
0.0
 11
4140.75236241722
 21
-74.78137691376298
 31
0.0
  0
LINE
  5
2707E
330
18
100
AcDbEntity
  8
0
100
AcDbLine
 10
4135.75236241722
 20
-40.28137691376296
 30
0.0
 11
4135.75236241722
 21
-74.28137691376298
 31
0.0
  0
LINE
  5
2707F
330
18
100
AcDbEntity
  8
0
100
AcDbLine
 10
4147.752362417221
 20
-74.28137691376298
 30
0.0
 11
4147.752362417221
 21
-40.28137691376296
 31
0.0
  0
LINE
  5
27080
330
18
100
AcDbEntity
  8
0
100
AcDbLine
 10
4135.75236241722
 20
-40.28137691376296
 30
0.0
 11
4135.75236241722
 21
-74.28137691376298
 31
0.0
  0
LINE
  5
27081
330
18
100
AcDbEntity
  8
0
100
AcDbLine
 10
4140.75236241722
 20
-39.78137691376296
 30
0.0
 11
4140.75236241722
 21
-74.78137691376298
 31
0.0
  0
LINE
  5
27088
330
18
100
AcDbEntity
  8
0
100
AcDbLine
 10
4137.25236241722
 20
-100.2813769137629
 30
0.0
 11
4146.252362417221
 21
-100.2813769137629
 31
0.0
  0
LINE
  5
2708A
330
18
100
AcDbEntity
  8
0
100
AcDbLine
 10
4146.252362417221
 20
-85.28137691376299
 30
0.0
 11
4137.25236241722
 21
-85.28137691376299
 31
0.0
  0
LINE
  5
27091
330
18
100
AcDbEntity
  8
0
100
AcDbLine
 10
4136.252362417221
 20
-74.78137691376298
 30
0.0
 11
4147.252362417221
 21
-74.78137691376298
 31
0.0
  0
LINE
  5
27092
330
18
100
AcDbEntity
  8
0
100
AcDbLine
 10
4136.252362417221
 20
-74.78137691376298
 30
0.0
 11
4147.252362417221
 21
-74.78137691376298
 31
0.0
  0
LINE
  5
27095
330
18
100
AcDbEntity
  8
0
  6
CENTER
 48
0.6
100
AcDbLine
 10
4187.72930977208
 20
-57.28137691376286
 30
0.0
 11
4108.561281000433
 21
-57.28137691376286
 31
0.0
  0
ARC
  5
27096
330
18
100
AcDbEntity
  8
0
100
AcDbCircle
 10
4137.25236241722
 20
-99.78137691376298
 30
0.0
 40
0.5
100
AcDbArc
 50
180.0
 51
270.0
  0
ARC
  5
27097
330
18
100
AcDbEntity
  8
0
100
AcDbCircle
 10
4137.25236241722
 20
-85.78137691376298
 30
0.0
 40
0.5
100
AcDbArc
 50
90.0
 51
180.0
  0
LINE
  5
27098
330
18
100
AcDbEntity
  8
0
100
AcDbLine
 10
4136.752362417221
 20
-85.78137691376298
 30
0.0
 11
4136.752362417221
 21
-99.78137691376298
 31
0.0
  0
ARC
  5
270A6
330
18
100
AcDbEntity
  8
0
100
AcDbCircle
 10
4136.252362417221
 20
-74.28137691376298
 30
0.0
 40
0.5
100
AcDbArc
 50
180.0
 51
270.0
  0
ARC
  5
270A7
330
18
100
AcDbEntity
  8
0
100
AcDbCircle
 10
4136.252362417221
 20
-74.28137691376298
 30
0.0
 40
0.5
100
AcDbArc
 50
180.0
 51
270.0
  0
ARC
  5
270B0
330
18
100
AcDbEntity
  8
0
100
AcDbCircle
 10
4146.252362417221
 20
-85.78137691376298
 30
0.0
 40
0.5
100
AcDbArc
 50
0.0
 51
90.0
  0
LINE
  5
270B2
330
18
100
AcDbEntity
  8
0
100
AcDbLine
 10
4142.752362417223
 20
-85.28137691376299
 30
0.0
 11
4142.752362417223
 21
-100.2813769137629
 31
0.0
  0
LINE
  5
270B4
330
18
100
AcDbEntity
  8
0
100
AcDbLine
 10
4146.75236241722
 20
-99.78137691376298
 30
0.0
 11
4146.75236241722
 21
-85.78137691376298
 31
0.0
  0
ARC
  5
270B5
330
18
100
AcDbEntity
  8
0
100
AcDbCircle
 10
4146.252362417221
 20
-99.78137691376298
 30
0.0
 40
0.5
100
AcDbArc
 50
270.0
 51
0.0
  0
ARC
  5
270B8
330
18
100
AcDbEntity
  8
0
100
AcDbCircle
 10
4147.252362417221
 20
-74.28137691376298
 30
0.0
 40
0.5
100
AcDbArc
 50
270.0
 51
0.0
  0
ARC
  5
270B9
330
18
100
AcDbEntity
  8
0
100
AcDbCircle
 10
4147.252362417221
 20
-74.28137691376298
 30
0.0
 40
0.5
100
AcDbArc
 50
270.0
 51
0.0
  0
LINE
  5
270BC
330
18
100
AcDbEntity
  8
0
100
AcDbLine
 10
4147.252362417221
 20
-39.78137691376296
 30
0.0
 11
4136.252362417221
 21
-39.78137691376296
 31
0.0
  0
LINE
  5
270BD
330
18
100
AcDbEntity
  8
0
100
AcDbLine
 10
4147.252362417221
 20
-39.78137691376296
 30
0.0
 11
4136.252362417221
 21
-39.78137691376296
 31
0.0
  0
LINE
  5
270BE
330
18
100
AcDbEntity
  8
0
 48
0.3
100
AcDbLine
 10
4170.75236241722
 20
7.718623086237136
 30
0.0
 11
4130.752362417221
 21
7.718623086237136
 31
0.0
  0
ARC
  5
270BF
330
18
100
AcDbEntity
  8
0
100
AcDbCircle
 10
4136.252362417221
 20
-40.28137691376296
 30
0.0
 40
0.5
100
AcDbArc
 50
90.0
 51
180.0
  0
ARC
  5
270C0
330
18
100
AcDbEntity
  8
0
100
AcDbCircle
 10
4136.252362417221
 20
-40.28137691376296
 30
0.0
 40
0.5
100
AcDbArc
 50
90.0
 51
180.0
  0
LINE
  5
270C1
330
18
100
AcDbEntity
  8
0
  6
PHANTOM
 48
0.6
100
AcDbLine
 10
4129.552362417221
 20
-7.204965955667367
 30
0.0
 11
4124.552412174189
 21
-7.204965955667367
 31
0.0
  0
LINE
  5
270C7
330
18
100
AcDbEntity
  8
0
  6
CENTER
 48
0.6
100
AcDbLine
 10
4106.875131549108
 20
0.3194230862373004
 30
0.0
 11
4133.793292894393
 21
0.3194230862373004
 31
0.0
  0
ARC
  5
270C9
330
18
100
AcDbEntity
  8
0
100
AcDbCircle
 10
4147.252362417221
 20
-40.28137691376296
 30
0.0
 40
0.5
100
AcDbArc
 50
0.0
 51
90.0
  0
ARC
  5
270CA
330
18
100
AcDbEntity
  8
0
100
AcDbCircle
 10
4147.252362417221
 20
-40.28137691376296
 30
0.0
 40
0.5
100
AcDbArc
 50
0.0
 51
90.0
  0
CIRCLE
  5
270CD
330
18
100
AcDbEntity
  8
0
  6
HIDDEN
 48
0.45
100
AcDbCircle
 10
4162.75344260789
 20
-2.192003952591214
 30
0.0
 40
4.0
  0
LINE
  5
270D0
330
18
100
AcDbEntity
  8
0
  6
CENTER
 48
0.6
100
AcDbLine
 10
4173.717601907788
 20
0.2186230862371374
 30
0.0
 11
4158.336311138469
 21
0.2186230862371374
 31
0.0
  0
LINE
  5
270D8
330
18
100
AcDbEntity
  8
0
 48
0.3
100
AcDbLine
 10
4170.75236241722
 20
-10.28142077801748
 30
0.0
 11
4170.75236241722
 21
7.718623086237136
 31
0.0
  0
LINE
  5
270D9
330
18
100
AcDbEntity
  8
0
 48
0.3
100
AcDbLine
 10
4170.75236241722
 20
-10.28142077801748
 30
0.0
 11
4170.252362417221
 21
-10.28142077801748
 31
0.0
  0
LINE
  5
270DB
330
18
100
AcDbEntity
  8
0
100
AcDbLine
 10
4261.784081367976
 20
7.718623086237137
 30
0.0
 11
4261.784081367976
 21
-10.27860474188946
 31
0.0
  0
LINE
  5
270DC
330
18
100
AcDbEntity
  8
0
100
AcDbLine
 10
4246.761898348199
 20
-10.27860474188946
 30
0.0
 11
4420.784081367975
 21
-10.27860474188946
 31
0.0
  0
LINE
  5
270E0
330
18
100
AcDbEntity
  8
0
  6
CENTER
 48
0.3
100
AcDbLine
 10
4287.676656963974
 20
0.2186230862371303
 30
0.0
 11
4297.644943001052
 21
0.2186230862371303
 31
0.0
  0
CIRCLE
  5
270E1
330
18
100
AcDbEntity
  8
0
100
AcDbCircle
 10
4292.761898348198
 20
0.2186230862371303
 30
0.0
 40
2.5
  0
CIRCLE
  5
270E2
330
18
100
AcDbEntity
  8
0
100
AcDbCircle
 10
4292.761898348198
 20
0.2186230862371303
 30
0.0
 40
2.0
  0
LINE
  5
270EC
330
18
100
AcDbEntity
  8
0
100
AcDbLine
 10
4580.784120748199
 20
-10.27860474188946
 30
0.0
 11
4594.761898348198
 21
-10.27860474188946
 31
0.0
  0
LINE
  5
270ED
330
18
100
AcDbEntity
  8
0
100
AcDbLine
 10
4579.784120748199
 20
7.71862308623713
 30
0.0
 11
4579.784120748199
 21
-10.27860474188946
 31
0.0
  0
LINE
  5
270EF
330
18
100
AcDbEntity
  8
0
 48
0.3
100
AcDbLine
 10
4777.982430506455
 20
-10.27904358891672
 30
0.0
 11
4777.982430506455
 21
-104.2790435889167
 31
0.0
  0
LINE
  5
270F2
330
18
100
AcDbEntity
  8
0
 48
0.3
100
AcDbLine
 10
4817.482430506457
 20
7.720956411083263
 30
0.0
 11
4817.482430506457
 21
-122.2790435889167
 31
0.0
  0
LWPOLYLINE
  5
270F3
330
18
100
AcDbEntity
  8
0
  6
PHANTOM
 48
0.6
100
AcDbPolyline
 90
        4
 70
     1
 43
0.0
 10
4823.682430506456
 20
7.720934685026092
 10
4831.482430506457
 20
7.720934685026092
 10
4831.482430506457
 20
-122.2790653149743
 10
4823.682430506456
 20
-122.2790653149743
  0
LINE
  5
270F4
330
18
100
AcDbEntity
  8
0
  6
PHANTOM
 48
0.6
100
AcDbLine
 10
4818.682430506457
 20
-107.1790874531714
 30
0.0
 11
4818.682430506457
 21
-7.202632630821227
 31
0.0
  0
LINE
  5
270F8
330
18
100
AcDbEntity
  8
0
  6
CENTER
 48
0.6
100
AcDbLine
 10
4841.359611617598
 20
-114.6782435889164
 30
0.0
 11
4814.399306148523
 21
-114.6782435889164
 31
0.0
  0
LINE
  5
2713F
330
18
100
AcDbEntity
  8
0
  6
CENTER
 48
0.3
100
AcDbLine
 10
4790.445578685661
 20
-114.5055335047101
 30
0.0
 11
4800.987556795656
 21
-114.5055335047101
 31
0.0
  0
LINE
  5
27140
102
{ACAD_REACTORS
330
27334
102
}
330
18
100
AcDbEntity
  8
細線
100
AcDbLine
 10
4791.096107435362
 20
-115.4402061463529
 30
0.0
 11
4792.030780077007
 21
-114.5055335047088
 31
0.0
  0
CIRCLE
  5
27141
102
{ACAD_REACTORS
330
27334
102
}
330
18
100
AcDbEntity
  8
実線
100
AcDbCircle
 10
4794.682430506457
 20
-114.3791280013781
 30
0.0
 40
3.74
  0
LINE
  5
27142
330
18
100
AcDbEntity
  8
0
 48
0.3
100
AcDbLine
 10
4817.482430506457
 20
-122.2790435889167
 30
0.0
 11
4777.482430506455
 21
-122.2790435889167
 31
0.0
  0
LINE
  5
27143
330
18
100
AcDbEntity
  8
0
 48
0.3
100
AcDbLine
 10
4777.482430504735
 20
-122.2790435889167
 30
0.0
 11
4777.481725041936
 21
-104.2790435889167
 31
0.0
  0
LINE
  5
27144
330
18
100
AcDbEntity
  8
0
 48
0.3
100
AcDbLine
 10
4777.982562163152
 20
-104.2790435889167
 30
0.0
 11
4777.48172172193
 21
-104.2790435889167
 31
0.0
  0
LINE
  5
27145
102
{ACAD_REACTORS
330
27334
102
}
330
18
100
AcDbEntity
  8
細線
100
AcDbLine
 10
4790.955921478102
 20
-114.6965086271298
 30
0.0
 11
4791.146896600525
 21
-114.5055335047075
 31
0.0
  0
LINE
  5
2714D
330
18
100
AcDbEntity
  8
0
  6
CENTER
 48
0.6
100
AcDbLine
 10
4774.517191015887
 20
-114.7790435889167
 30
0.0
 11
4789.898481785207
 21
-114.7790435889167
 31
0.0
  0
CIRCLE
  5
27151
330
18
100
AcDbEntity
  8
0
  6
HIDDEN
 48
0.45
100
AcDbCircle
 10
4785.481350315786
 20
-112.1896706277454
 30
0.0
 40
4.0
  0
LWPOLYLINE
  5
27156
330
18
100
AcDbEntity
  8
0
  6
HIDDEN
 48
0.45
100
AcDbPolyline
 90
        2
 70
     0
 43
0.0
 10
4791.48172172193
 20
-118.2055435889167
 10
4791.48172172193
 20
-116.3138277911798
  0
LINE
  5
27157
330
18
100
AcDbEntity
  8
0
  6
CENTER
 48
0.3
100
AcDbLine
 10
4794.682430506457
 20
-108.6204584825324
 30
0.0
 11
4794.682430506457
 21
-120.2240699251111
 31
0.0
  0
LINE
  5
27158
102
{ACAD_REACTORS
330
27334
102
}
330
18
100
AcDbEntity
  8
細線
100
AcDbLine
 10
4793.160341229206
 20
-117.7953897349238
 30
0.0
 11
4794.682430506457
 21
-116.2733004576769
 31
0.0
  0
LINE
  5
27159
102
{ACAD_REACTORS
330
27334
102
}
330
18
100
AcDbEntity
  8
細線
100
AcDbLine
 10
4792.591688048841
 20
-117.4801594388082
 30
0.0
 11
4794.682430506457
 21
-115.3894169811936
 31
0.0
  0
LINE
  5
2715A
102
{ACAD_REACTORS
330
27334
102
}
330
18
100
AcDbEntity
  8
細線
100
AcDbLine
 10
4792.101809245033
 20
-117.0861547661325
 30
0.0
 11
4794.682430506457
 21
-114.5055335047101
 31
0.0
  0
LINE
  5
2715B
102
{ACAD_REACTORS
330
27334
102
}
330
18
100
AcDbEntity
  8
細線
100
AcDbLine
 10
4791.686372895781
 20
-116.6177076389008
 30
0.0
 11
4793.798547029973
 21
-114.5055335047101
 31
0.0
  0
LINE
  5
2715C
102
{ACAD_REACTORS
330
27334
102
}
330
18
100
AcDbEntity
  8
細線
100
AcDbLine
 10
4791.347732449177
 20
-116.0724646090214
 30
0.0
 11
4792.91466355349
 21
-114.5055335047094
 31
0.0
  0
LINE
  5
2715D
102
{ACAD_REACTORS
330
27334
102
}
330
18
100
AcDbEntity
  8
細線
100
AcDbLine
 10
4793.821035999491
 20
-118.0185784411244
 30
0.0
 11
4794.682430506457
 21
-117.15718393416
 31
0.0
  0
LINE
  5
2715E
102
{ACAD_REACTORS
330
27334
102
}
330
18
100
AcDbEntity
  8
細線
100
AcDbLine
 10
4794.682430506457
 20
-113.6216500282273
 30
0.0
 11
4796.921010143978
 21
-111.383070390705
 31
0.0
  0
LINE
  5
2715F
102
{ACAD_REACTORS
330
27334
102
}
330
18
100
AcDbEntity
  8
細線
100
AcDbLine
 10
4794.682430506457
 20
-114.5055335047101
 30
0.0
 11
4797.389457271211
 21
-111.7985067399561
 31
0.0
  0
LINE
  5
27160
102
{ACAD_REACTORS
330
27334
102
}
330
18
100
AcDbEntity
  8
細線
100
AcDbLine
 10
4795.566313982938
 20
-114.5055335047101
 30
0.0
 11
4797.783461943884
 21
-112.2883855437637
 31
0.0
  0
LINE
  5
27161
102
{ACAD_REACTORS
330
27334
102
}
330
18
100
AcDbEntity
  8
細線
100
AcDbLine
 10
4794.682430506457
 20
-112.7377665517437
 30
0.0
 11
4796.375767114097
 21
-111.0444299440999
 31
0.0
  0
LINE
  5
27162
102
{ACAD_REACTORS
330
27334
102
}
330
18
100
AcDbEntity
  8
細線
100
AcDbLine
 10
4796.450197459422
 20
-114.5055335047101
 30
0.0
 11
4798.098692239999
 21
-112.8570387241303
 31
0.0
  0
LINE
  5
27163
102
{ACAD_REACTORS
330
27334
102
}
330
18
100
AcDbEntity
  8
細線
100
AcDbLine
 10
4797.334080935906
 20
-114.5055335047101
 30
0.0
 11
4798.321880946201
 21
-113.5177334944135
 31
0.0
  0
LINE
  5
27164
102
{ACAD_REACTORS
330
27334
102
}
330
18
100
AcDbEntity
  8
細線
100
AcDbLine
 10
4798.21796441239
 20
-114.5055335047101
 30
0.0
 11
4798.421632361723
 21
-114.3018655553764
 31
0.0
  0
LINE
  5
27165
102
{ACAD_REACTORS
330
27334
102
}
330
18
100
AcDbEntity
  8
細線
100
AcDbLine
 10
4794.682430506457
 20
-111.8538830752602
 30
0.0
 11
4795.743508651431
 21
-110.7928049302848
 31
0.0
  0
LINE
  5
27166
102
{ACAD_REACTORS
330
27334
102
}
330
18
100
AcDbEntity
  8
細線
100
AcDbLine
 10
4794.682430506457
 20
-110.9699995987764
 30
0.0
 11
4794.999811132206
 21
-110.652618973025
 31
0.0
  0
LINE
  5
27167
330
18
100
AcDbEntity
  8
0
  6
PHANTOM
 48
0.6
100
AcDbLine
 10
4823.682380749488
 20
-107.1790874531714
 30
0.0
 11
4818.682430506457
 21
-107.1790874531714
 31
0.0
  0
LINE
  5
2716E
330
18
100
AcDbEntity
  8
0
  6
CENTER
 48
0.6
100
AcDbLine
 10
4760.505483151596
 20
-57.27904358891672
 30
0.0
 11
4849.001509019934
 21
-57.27904358891672
 31
0.0
  0
LINE
  5
2716F
330
18
100
AcDbEntity
  8
0
  6
CENTER
 48
0.6
100
AcDbLine
 10
4841.359611617598
 20
0.3217564110834417
 30
0.0
 11
4814.441450272315
 21
0.3217564110834417
 31
0.0
  0
LINE
  5
27176
330
18
100
AcDbEntity
  8
0
 48
0.3
100
AcDbLine
 10
4777.482430506455
 20
7.720956411083263
 30
0.0
 11
4817.482430506457
 21
7.720956411083263
 31
0.0
  0
LINE
  5
27178
330
18
100
AcDbEntity
  8
0
 48
0.3
100
AcDbLine
 10
4777.482430506455
 20
-10.27904358891672
 30
0.0
 11
4777.982430506455
 21
-10.27904358891672
 31
0.0
  0
LINE
  5
27179
330
18
100
AcDbEntity
  8
0
 48
0.3
100
AcDbLine
 10
4777.482430506455
 20
-10.27904358891672
 30
0.0
 11
4777.482430506455
 21
7.720956411083263
 31
0.0
  0
LINE
  5
27181
330
18
100
AcDbEntity
  8
0
  6
CENTER
 48
0.6
100
AcDbLine
 10
4774.517191015887
 20
0.2209564110832787
 30
0.0
 11
4789.898481785207
 21
0.2209564110832787
 31
0.0
  0
CIRCLE
  5
27184
330
18
100
AcDbEntity
  8
0
  6
HIDDEN
 48
0.45
100
AcDbCircle
 10
4785.481350315786
 20
-2.189670627745073
 30
0.0
 40
4.0
  0
LINE
  5
27187
330
18
100
AcDbEntity
  8
0
  6
PHANTOM
 48
0.6
100
AcDbLine
 10
4818.682430506457
 20
-7.202632630821227
 30
0.0
 11
4823.682380749488
 21
-7.202632630821227
 31
0.0
  0
CIRCLE
  5
2733A
330
18
100
AcDbEntity
  8
0
  6
HIDDEN
 48
0.45
100
AcDbCircle
 10
4340.751898348198
 20
-217.6484581668431
 30
0.0
 40
6.0
  0
LINE
  5
2733C
330
18
100
AcDbEntity
  8
隠れ線
 48
0.6
100
AcDbLine
 10
4261.784081367976
 20
-212.1484581668432
 30
0.0
 11
4579.784120748199
 21
-212.1484581668432
 31
0.0
  0
LINE
  5
2733D
330
18
100
AcDbEntity
  8
隠れ線
 48
0.6
100
AcDbLine
 10
4261.784081367976
 20
-221.6484581668431
 30
0.0
 11
4579.784120748199
 21
-221.6484581668431
 31
0.0
  0
LWPOLYLINE
  5
2733E
330
18
100
AcDbEntity
  8
0
100
AcDbPolyline
 90
        2
 70
     0
 43
0.0
 10
4579.784120748199
 20
-236.1484581668432
 10
4261.784081367976
 20
-236.1484581668432
  0
LINE
  5
2733F
330
18
100
AcDbEntity
  8
0
100
AcDbLine
 10
4246.761898348199
 20
-210.1484581668432
 30
0.0
 11
4594.761898348198
 21
-210.1484581668432
 31
0.0
  0
LINE
  5
27340
330
18
100
AcDbEntity
  8
0
100
AcDbLine
 10
4594.761898348198
 20
-250.1484581668433
 30
0.0
 11
4246.761898348199
 21
-250.1484581668433
 31
0.0
  0
LINE
  5
27341
330
18
100
AcDbEntity
  8
隠れ線
 48
0.6
100
AcDbLine
 10
4290.761162428341
 20
-220.148458166843
 30
0.0
 11
4294.753684919146
 21
-220.148458166843
 31
0.0
  0
LINE
  5
27342
330
18
100
AcDbEntity
  8
隠れ線
 48
0.6
100
AcDbLine
 10
4291.26116242834
 20
-210.1484581668432
 30
0.0
 11
4291.26116242834
 21
-221.6484581668427
 31
0.0
  0
LINE
  5
27343
330
18
100
AcDbEntity
  8
隠れ線
 48
0.6
100
AcDbLine
 10
4290.761162428341
 20
-220.148458166843
 30
0.0
 11
4291.26116242834
 21
-220.8371508211143
 31
0.0
  0
LINE
  5
27344
330
18
100
AcDbEntity
  8
隠れ線
 48
0.6
100
AcDbLine
 10
4290.761162428341
 20
-210.1484581668432
 30
0.0
 11
4290.761162428341
 21
-220.148458166843
 31
0.0
  0
LINE
  5
27345
330
18
100
AcDbEntity
  8
0
  6
CENTER
 48
0.6
100
AcDbLine
 10
4292.761898348198
 20
-223.9159921356116
 30
0.0
 11
4292.761898348198
 21
-208.3981454647014
 31
0.0
  0
LINE
  5
2734A
330
18
100
AcDbEntity
  8
0
100
AcDbLine
 10
4261.784081367976
 20
-210.1484581668432
 30
0.0
 11
4261.784081367976
 21
-236.1484581668432
 31
0.0
  0
CIRCLE
  5
2734B
330
18
100
AcDbEntity
  8
0
  6
HIDDEN
 48
0.45
100
AcDbCircle
 10
4269.631898348198
 20
-217.6484581668431
 30
0.0
 40
6.0
  0
LINE
  5
2734C
330
18
100
AcDbEntity
  8
0
100
AcDbLine
 10
4246.761898348199
 20
-210.1484581668432
 30
0.0
 11
4246.761898348199
 21
-250.1484581668433
 31
0.0
  0
LINE
  5
2734D
330
18
100
AcDbEntity
  8
0
100
AcDbLine
 10
4246.761898348199
 20
-212.1398656937035
 30
0.0
 11
4261.784081367976
 21
-212.1398656937035
 31
0.0
  0
LINE
  5
27351
330
18
100
AcDbEntity
  8
隠れ線
 48
0.6
100
AcDbLine
 10
4294.753684919146
 20
-220.148458166843
 30
0.0
 11
4294.753684919146
 21
-210.1484581668432
 31
0.0
  0
CIRCLE
  5
27355
330
18
100
AcDbEntity
  8
0
  6
HIDDEN
 48
0.45
100
AcDbCircle
 10
4305.191898348199
 20
-217.6484581668431
 30
0.0
 40
6.0
  0
LINE
  5
27357
330
18
100
AcDbEntity
  8
隠れ線
 48
0.6
100
AcDbLine
 10
4294.26116242834
 20
-210.1484581668432
 30
0.0
 11
4294.26116242834
 21
-221.6484581668427
 31
0.0
  0
LINE
  5
27358
330
18
100
AcDbEntity
  8
隠れ線
 48
0.6
100
AcDbLine
 10
4294.26116242834
 20
-220.8371508211143
 30
0.0
 11
4294.753684919146
 21
-220.148458166843
 31
0.0
  0
LWPOLYLINE
  5
27359
330
18
100
AcDbEntity
  8
0
100
AcDbPolyline
 90
        2
 70
     0
 43
0.0
 10
4420.784081367975
 20
-210.1484581668432
 10
4580.784120748199
 20
-210.1484581668432
  0
LINE
  5
2735A
330
18
100
AcDbEntity
  8
隠れ線
 48
0.6
100
AcDbLine
 10
4358.753684919146
 20
-220.148458166843
 30
0.0
 11
4358.753684919146
 21
-210.1484581668432
 31
0.0
  0
LINE
  5
27360
330
18
100
AcDbEntity
  8
隠れ線
 48
0.6
100
AcDbLine
 10
4358.26116242834
 20
-210.1484581668432
 30
0.0
 11
4358.26116242834
 21
-221.6484581668427
 31
0.0
  0
LINE
  5
27361
330
18
100
AcDbEntity
  8
隠れ線
 48
0.6
100
AcDbLine
 10
4355.26116242834
 20
-210.1484581668432
 30
0.0
 11
4355.26116242834
 21
-221.6484581668427
 31
0.0
  0
LINE
  5
27362
330
18
100
AcDbEntity
  8
隠れ線
 48
0.6
100
AcDbLine
 10
4354.761162428341
 20
-220.148458166843
 30
0.0
 11
4355.26116242834
 21
-220.8371508211143
 31
0.0
  0
LINE
  5
27363
330
18
100
AcDbEntity
  8
0
  6
CENTER
 48
0.6
100
AcDbLine
 10
4356.761898348199
 20
-223.9159921356116
 30
0.0
 11
4356.761898348199
 21
-208.3981454647014
 31
0.0
  0
LINE
  5
27364
330
18
100
AcDbEntity
  8
隠れ線
 48
0.6
100
AcDbLine
 10
4354.761162428341
 20
-210.1484581668432
 30
0.0
 11
4354.761162428341
 21
-220.148458166843
 31
0.0
  0
LINE
  5
27365
330
18
100
AcDbEntity
  8
隠れ線
 48
0.6
100
AcDbLine
 10
4358.26116242834
 20
-220.8371508211143
 30
0.0
 11
4358.753684919146
 21
-220.148458166843
 31
0.0
  0
LINE
  5
27366
330
18
100
AcDbEntity
  8
隠れ線
 48
0.6
100
AcDbLine
 10
4354.761162428341
 20
-220.148458166843
 30
0.0
 11
4358.753684919146
 21
-220.148458166843
 31
0.0
  0
CIRCLE
  5
27367
330
18
100
AcDbEntity
  8
0
  6
HIDDEN
 48
0.45
100
AcDbCircle
 10
4376.311898348199
 20
-217.6484581668431
 30
0.0
 40
6.0
  0
CIRCLE
  5
27368
330
18
100
AcDbEntity
  8
0
  6
HIDDEN
 48
0.45
100
AcDbCircle
 10
4429.651898348198
 20
-217.6484581668431
 30
0.0
 40
6.0
  0
LINE
  5
27369
330
18
100
AcDbEntity
  8
隠れ線
 48
0.3
100
AcDbLine
 10
4422.753684919146
 20
-220.148458166843
 30
0.0
 11
4422.753684919146
 21
-210.1484581668432
 31
0.0
  0
CIRCLE
  5
27372
330
18
100
AcDbEntity
  8
0
  6
HIDDEN
 48
0.45
100
AcDbCircle
 10
4411.871898348198
 20
-217.6484581668431
 30
0.0
 40
6.0
  0
LINE
  5
27373
330
18
100
AcDbEntity
  8
隠れ線
 48
0.3
100
AcDbLine
 10
4422.26116242834
 20
-210.1484581668432
 30
0.0
 11
4422.26116242834
 21
-221.6484581668427
 31
0.0
  0
LINE
  5
27374
330
18
100
AcDbEntity
  8
隠れ線
 48
0.3
100
AcDbLine
 10
4419.26116242834
 20
-210.1484581668432
 30
0.0
 11
4419.26116242834
 21
-221.6484581668427
 31
0.0
  0
LINE
  5
27375
330
18
100
AcDbEntity
  8
隠れ線
 48
0.3
100
AcDbLine
 10
4418.761162428341
 20
-220.148458166843
 30
0.0
 11
4419.26116242834
 21
-220.8371508211143
 31
0.0
  0
LINE
  5
27376
330
18
100
AcDbEntity
  8
0
  6
CENTER
 48
0.3
100
AcDbLine
 10
4420.761898348199
 20
-223.9159921356116
 30
0.0
 11
4420.761898348199
 21
-208.3981454647014
 31
0.0
  0
LINE
  5
27377
330
18
100
AcDbEntity
  8
隠れ線
 48
0.3
100
AcDbLine
 10
4418.761162428341
 20
-210.1484581668432
 30
0.0
 11
4418.761162428341
 21
-220.148458166843
 31
0.0
  0
LINE
  5
27378
330
18
100
AcDbEntity
  8
隠れ線
 48
0.3
100
AcDbLine
 10
4422.26116242834
 20
-220.8371508211143
 30
0.0
 11
4422.753684919146
 21
-220.148458166843
 31
0.0
  0
LINE
  5
27379
330
18
100
AcDbEntity
  8
隠れ線
 48
0.3
100
AcDbLine
 10
4418.761162428341
 20
-220.148458166843
 30
0.0
 11
4422.753684919146
 21
-220.148458166843
 31
0.0
  0
LINE
  5
2737A
330
18
100
AcDbEntity
  8
隠れ線
 48
0.6
100
AcDbLine
 10
4486.753684919146
 20
-220.148458166843
 30
0.0
 11
4486.753684919146
 21
-210.1484581668432
 31
0.0
  0
LINE
  5
2737C
330
18
100
AcDbEntity
  8
隠れ線
 48
0.6
100
AcDbLine
 10
4486.26116242834
 20
-210.1484581668432
 30
0.0
 11
4486.26116242834
 21
-221.6484581668427
 31
0.0
  0
LINE
  5
2737D
330
18
100
AcDbEntity
  8
隠れ線
 48
0.6
100
AcDbLine
 10
4483.26116242834
 20
-210.1484581668432
 30
0.0
 11
4483.26116242834
 21
-221.6484581668427
 31
0.0
  0
LINE
  5
2737E
330
18
100
AcDbEntity
  8
隠れ線
 48
0.6
100
AcDbLine
 10
4482.76116242834
 20
-220.148458166843
 30
0.0
 11
4483.26116242834
 21
-220.8371508211143
 31
0.0
  0
LINE
  5
2737F
330
18
100
AcDbEntity
  8
0
  6
CENTER
 48
0.6
100
AcDbLine
 10
4484.761898348199
 20
-223.9159921356116
 30
0.0
 11
4484.761898348199
 21
-208.3981454647014
 31
0.0
  0
LINE
  5
27380
330
18
100
AcDbEntity
  8
隠れ線
 48
0.6
100
AcDbLine
 10
4482.76116242834
 20
-210.1484581668432
 30
0.0
 11
4482.76116242834
 21
-220.148458166843
 31
0.0
  0
LINE
  5
27381
330
18
100
AcDbEntity
  8
隠れ線
 48
0.6
100
AcDbLine
 10
4486.26116242834
 20
-220.8371508211143
 30
0.0
 11
4486.753684919146
 21
-220.148458166843
 31
0.0
  0
LINE
  5
27382
330
18
100
AcDbEntity
  8
隠れ線
 48
0.6
100
AcDbLine
 10
4482.76116242834
 20
-220.148458166843
 30
0.0
 11
4486.753684919146
 21
-220.148458166843
 31
0.0
  0
CIRCLE
  5
27385
330
18
100
AcDbEntity
  8
0
  6
HIDDEN
 48
0.45
100
AcDbCircle
 10
4465.211898348199
 20
-217.6484581668431
 30
0.0
 40
6.0
  0
CIRCLE
  5
27387
330
18
100
AcDbEntity
  8
0
  6
HIDDEN
 48
0.45
100
AcDbCircle
 10
4536.331898348199
 20
-217.6484581668431
 30
0.0
 40
6.0
  0
CIRCLE
  5
2738F
330
18
100
AcDbEntity
  8
0
  6
HIDDEN
 48
0.45
100
AcDbCircle
 10
4500.771898348199
 20
-217.6484581668431
 30
0.0
 40
6.0
  0
LINE
  5
27393
330
18
100
AcDbEntity
  8
0
  6
CENTER
 48
0.6
100
AcDbLine
 10
4590.644126390578
 20
-227.309028643286
 30
0.0
 11
4658.806036234055
 21
-227.309028643286
 31
0.0
  0
LINE
  5
27394
330
18
100
AcDbEntity
  8
0
100
AcDbLine
 10
4579.784120748199
 20
-212.1398656937035
 30
0.0
 11
4594.761898348198
 21
-212.1398656937035
 31
0.0
  0
LINE
  5
27396
330
18
100
AcDbEntity
  8
0
100
AcDbLine
 10
4579.784120748199
 20
-210.1484581668432
 30
0.0
 11
4579.784120748199
 21
-236.1484581668432
 31
0.0
  0
CIRCLE
  5
27399
330
18
100
AcDbEntity
  8
0
  6
HIDDEN
 48
0.45
100
AcDbCircle
 10
4571.891898348199
 20
-217.6484581668431
 30
0.0
 40
6.0
  0
LINE
  5
2739B
330
18
100
AcDbEntity
  8
隠れ線
 48
0.6
100
AcDbLine
 10
4550.26116242834
 20
-210.1484581668432
 30
0.0
 11
4550.26116242834
 21
-221.6484581668427
 31
0.0
  0
LINE
  5
2739C
330
18
100
AcDbEntity
  8
隠れ線
 48
0.6
100
AcDbLine
 10
4547.26116242834
 20
-210.1484581668432
 30
0.0
 11
4547.26116242834
 21
-221.6484581668427
 31
0.0
  0
LINE
  5
2739D
330
18
100
AcDbEntity
  8
隠れ線
 48
0.6
100
AcDbLine
 10
4550.26116242834
 20
-220.8371508211143
 30
0.0
 11
4550.753684919146
 21
-220.148458166843
 31
0.0
  0
LINE
  5
2739E
330
18
100
AcDbEntity
  8
隠れ線
 48
0.6
100
AcDbLine
 10
4546.761162428341
 20
-220.148458166843
 30
0.0
 11
4547.26116242834
 21
-220.8371508211143
 31
0.0
  0
LINE
  5
2739F
330
18
100
AcDbEntity
  8
隠れ線
 48
0.6
100
AcDbLine
 10
4546.761162428341
 20
-220.148458166843
 30
0.0
 11
4550.753684919146
 21
-220.148458166843
 31
0.0
  0
LINE
  5
273A0
330
18
100
AcDbEntity
  8
0
  6
CENTER
 48
0.6
100
AcDbLine
 10
4548.761898348199
 20
-223.9159921356116
 30
0.0
 11
4548.761898348199
 21
-208.3981454647014
 31
0.0
  0
LINE
  5
273A1
330
18
100
AcDbEntity
  8
隠れ線
 48
0.6
100
AcDbLine
 10
4550.753684919146
 20
-220.148458166843
 30
0.0
 11
4550.753684919146
 21
-210.1484581668432
 31
0.0
  0
LINE
  5
273A2
330
18
100
AcDbEntity
  8
隠れ線
 48
0.6
100
AcDbLine
 10
4546.761162428341
 20
-210.1484581668432
 30
0.0
 11
4546.761162428341
 21
-220.148458166843
 31
0.0
  0
LINE
  5
273A6
330
18
100
AcDbEntity
  8
0
100
AcDbLine
 10
4594.761898348198
 20
-210.1484581668432
 30
0.0
 11
4594.761898348198
 21
-250.1484581668433
 31
0.0
  0
LINE
  5
273F4
330
18
100
AcDbEntity
  8
0
  6
CENTER
 48
0.3
100
AcDbLine
 10
4292.761898348198
 20
-120.1781480188615
 30
0.0
 11
4292.761898348198
 21
-109.5506655914105
 31
0.0
  0
LINE
  5
273F5
330
18
100
AcDbEntity
  8
0
  6
CENTER
 48
0.3
100
AcDbLine
 10
4292.761898348198
 20
-4.452472447175749
 30
0.0
 11
4292.761898348198
 21
4.715124635507891
 31
0.0
  0
CIRCLE
  5
27438
330
18
100
AcDbEntity
  8
0
100
AcDbCircle
 10
4356.761898348199
 20
0.2186230862371303
 30
0.0
 40
2.5
  0
CIRCLE
  5
27439
330
18
100
AcDbEntity
  8
0
100
AcDbCircle
 10
4356.761898348199
 20
0.2186230862371303
 30
0.0
 40
2.0
  0
LINE
  5
2743A
330
18
100
AcDbEntity
  8
0
  6
CENTER
 48
0.3
100
AcDbLine
 10
4356.761898348199
 20
-4.452472447175749
 30
0.0
 11
4356.761898348199
 21
4.715124635507891
 31
0.0
  0
LINE
  5
2743B
330
18
100
AcDbEntity
  8
0
  6
CENTER
 48
0.3
100
AcDbLine
 10
4351.676656963974
 20
0.2186230862371303
 30
0.0
 11
4361.644943001052
 21
0.2186230862371303
 31
0.0
  0
CIRCLE
  5
2743C
330
18
100
AcDbEntity
  8
0
100
AcDbCircle
 10
4356.761898348199
 20
-114.7813769137628
 30
0.0
 40
2.5
  0
CIRCLE
  5
2743D
330
18
100
AcDbEntity
  8
0
100
AcDbCircle
 10
4356.761898348199
 20
-114.7813769137628
 30
0.0
 40
2.0
  0
LINE
  5
2743E
330
18
100
AcDbEntity
  8
0
  6
CENTER
 48
0.3
100
AcDbLine
 10
4356.761898348199
 20
-120.1781480188615
 30
0.0
 11
4356.761898348199
 21
-109.5506655914105
 31
0.0
  0
LINE
  5
2743F
330
18
100
AcDbEntity
  8
0
  6
CENTER
 48
0.3
100
AcDbLine
 10
4351.655600747344
 20
-114.7813769137628
 30
0.0
 11
4361.924003746948
 21
-114.7813769137629
 31
0.0
  0
CIRCLE
  5
27440
330
18
100
AcDbEntity
  8
0
100
AcDbCircle
 10
4420.761898348199
 20
0.2186230862371303
 30
0.0
 40
2.5
  0
CIRCLE
  5
27441
330
18
100
AcDbEntity
  8
0
100
AcDbCircle
 10
4420.761898348199
 20
0.2186230862371303
 30
0.0
 40
2.0
  0
LINE
  5
27442
330
18
100
AcDbEntity
  8
0
  6
CENTER
 48
0.3
100
AcDbLine
 10
4420.761898348199
 20
-4.452472447175749
 30
0.0
 11
4420.761898348199
 21
4.715124635507891
 31
0.0
  0
LINE
  5
27443
330
18
100
AcDbEntity
  8
0
  6
CENTER
 48
0.3
100
AcDbLine
 10
4415.676656963974
 20
0.2186230862371303
 30
0.0
 11
4425.644943001052
 21
0.2186230862371303
 31
0.0
  0
CIRCLE
  5
27444
330
18
100
AcDbEntity
  8
0
100
AcDbCircle
 10
4420.761898348199
 20
-114.7813769137628
 30
0.0
 40
2.5
  0
CIRCLE
  5
27445
330
18
100
AcDbEntity
  8
0
100
AcDbCircle
 10
4420.761898348199
 20
-114.7813769137628
 30
0.0
 40
2.0
  0
LINE
  5
27446
330
18
100
AcDbEntity
  8
0
  6
CENTER
 48
0.3
100
AcDbLine
 10
4420.761898348199
 20
-120.1781480188615
 30
0.0
 11
4420.761898348199
 21
-109.5506655914105
 31
0.0
  0
LINE
  5
27447
330
18
100
AcDbEntity
  8
0
  6
CENTER
 48
0.3
100
AcDbLine
 10
4415.655600747344
 20
-114.7813769137628
 30
0.0
 11
4425.924003746948
 21
-114.7813769137629
 31
0.0
  0
CIRCLE
  5
27448
330
18
100
AcDbEntity
  8
0
100
AcDbCircle
 10
4484.761898348199
 20
0.2186230862371303
 30
0.0
 40
2.5
  0
CIRCLE
  5
27449
330
18
100
AcDbEntity
  8
0
100
AcDbCircle
 10
4484.761898348199
 20
0.2186230862371303
 30
0.0
 40
2.0
  0
LINE
  5
2744A
330
18
100
AcDbEntity
  8
0
  6
CENTER
 48
0.3
100
AcDbLine
 10
4484.761898348199
 20
-4.452472447175749
 30
0.0
 11
4484.761898348199
 21
4.715124635507891
 31
0.0
  0
LINE
  5
2744B
330
18
100
AcDbEntity
  8
0
  6
CENTER
 48
0.3
100
AcDbLine
 10
4479.676656963974
 20
0.2186230862371303
 30
0.0
 11
4489.644943001052
 21
0.2186230862371303
 31
0.0
  0
CIRCLE
  5
2744C
330
18
100
AcDbEntity
  8
0
100
AcDbCircle
 10
4484.761898348199
 20
-114.7813769137628
 30
0.0
 40
2.5
  0
CIRCLE
  5
2744D
330
18
100
AcDbEntity
  8
0
100
AcDbCircle
 10
4484.761898348199
 20
-114.7813769137628
 30
0.0
 40
2.0
  0
LINE
  5
2744E
330
18
100
AcDbEntity
  8
0
  6
CENTER
 48
0.3
100
AcDbLine
 10
4484.761898348199
 20
-120.1781480188615
 30
0.0
 11
4484.761898348199
 21
-109.5506655914105
 31
0.0
  0
LINE
  5
2744F
330
18
100
AcDbEntity
  8
0
  6
CENTER
 48
0.3
100
AcDbLine
 10
4479.655600747341
 20
-114.7813769137628
 30
0.0
 11
4489.924003746948
 21
-114.7813769137629
 31
0.0
  0
CIRCLE
  5
27450
330
18
100
AcDbEntity
  8
0
100
AcDbCircle
 10
4548.761898348199
 20
0.2186230862371303
 30
0.0
 40
2.5
  0
CIRCLE
  5
27451
330
18
100
AcDbEntity
  8
0
100
AcDbCircle
 10
4548.761898348199
 20
0.2186230862371303
 30
0.0
 40
2.0
  0
LINE
  5
27452
330
18
100
AcDbEntity
  8
0
  6
CENTER
 48
0.3
100
AcDbLine
 10
4548.761898348199
 20
-4.452472447175749
 30
0.0
 11
4548.761898348199
 21
4.715124635507891
 31
0.0
  0
LINE
  5
27453
330
18
100
AcDbEntity
  8
0
  6
CENTER
 48
0.3
100
AcDbLine
 10
4543.676656963974
 20
0.2186230862371303
 30
0.0
 11
4553.644943001052
 21
0.2186230862371303
 31
0.0
  0
CIRCLE
  5
27454
330
18
100
AcDbEntity
  8
0
100
AcDbCircle
 10
4548.761898348199
 20
-114.7813769137628
 30
0.0
 40
2.5
  0
CIRCLE
  5
27455
330
18
100
AcDbEntity
  8
0
100
AcDbCircle
 10
4548.761898348199
 20
-114.7813769137628
 30
0.0
 40
2.0
  0
LINE
  5
27456
330
18
100
AcDbEntity
  8
0
  6
CENTER
 48
0.3
100
AcDbLine
 10
4548.761898348199
 20
-120.1781480188615
 30
0.0
 11
4548.761898348199
 21
-109.5506655914105
 31
0.0
  0
LINE
  5
27457
330
18
100
AcDbEntity
  8
0
  6
CENTER
 48
0.3
100
AcDbLine
 10
4543.655600747341
 20
-114.7813769137628
 30
0.0
 11
4553.924003746948
 21
-114.7813769137629
 31
0.0
  0
LWPOLYLINE
  5
27807
330
18
100
AcDbEntity
  8
0
100
AcDbPolyline
 90
        4
 70
     0
 43
0.0
 10
4638.272894955499
 20
-231.047737517712
 10
4598.92415961946
 20
-231.047737517712
 10
4598.92415961946
 20
-223.5703197688603
 10
4640.606739444321
 20
-223.5703197688603
  0
LINE
  5
27808
330
18
100
AcDbEntity
  8
0
 48
10.0
100
AcDbLine
 10
4598.92415961946
 20
-232.0238500358826
 30
0.0
 11
4594.761898348198
 21
-232.0238500358826
 31
0.0
  0
LINE
  5
27809
330
18
100
AcDbEntity
  8
0
 48
10.0
100
AcDbLine
 10
4594.761898348198
 20
-222.5168112921246
 30
0.0
 11
4598.92415961946
 21
-222.5168112921246
 31
0.0
  0
LINE
  5
2780A
330
18
100
AcDbEntity
  8
0
100
AcDbLine
 10
4598.92415961946
 20
-222.5168112921246
 30
0.0
 11
4598.92415961946
 21
-232.0238500358826
 31
0.0
  0
LINE
  5
2780B
330
18
100
AcDbEntity
  8
0
  6
CENTER
 48
0.6
100
AcDbLine
 10
4643.566168900107
 20
-213.8764609988498
 30
0.0
 11
4634.972462583411
 21
-241.4098859757973
 31
0.0
  0
LINE
  5
2780C
330
18
100
AcDbEntity
  8
0
  6
CENTER
 48
0.6
100
AcDbLine
 10
4648.259991648727
 20
-213.8764609988498
 30
0.0
 11
4639.666285332032
 21
-241.4098859757973
 31
0.0
  0
LINE
  5
2780D
330
18
100
AcDbEntity
  8
0
100
AcDbLine
 10
4704.83543780822
 20
-234.6735537332288
 30
0.0
 11
4704.83543780822
 21
-231.6735537332287
 31
0.0
  0
LINE
  5
2780E
330
18
100
AcDbEntity
  8
0
100
AcDbLine
 10
4726.835437808218
 20
-215.9235537332288
 30
0.0
 11
4726.835437808218
 21
-238.423553733229
 31
0.0
  0
LINE
  5
2780F
330
18
100
AcDbEntity
  8
0
100
AcDbLine
 10
4721.835437808219
 20
-213.8235537332284
 30
0.0
 11
4721.835437808219
 21
-240.5235537332294
 31
0.0
  0
LINE
  5
27810
330
18
100
AcDbEntity
  8
0
100
AcDbLine
 10
4717.835437808218
 20
-240.5235537332294
 30
0.0
 11
4717.835437808218
 21
-213.8235537332284
 31
0.0
  0
LINE
  5
27811
330
18
100
AcDbEntity
  8
0
100
AcDbLine
 10
4721.835437808219
 20
-240.5235537332294
 30
0.0
 11
4721.835437808219
 21
-213.8235537332284
 31
0.0
  0
LINE
  5
27812
330
18
100
AcDbEntity
  8
0
100
AcDbLine
 10
4658.527329700109
 20
-229.4735537332279
 30
0.0
 11
4679.835437808217
 21
-233.0735537332284
 31
0.0
  0
LINE
  5
27813
330
18
100
AcDbEntity
  8
0
100
AcDbLine
 10
4679.835437808217
 20
-234.5485537332288
 30
0.0
 11
4679.835437808217
 21
-219.7985537332288
 31
0.0
  0
LINE
  5
27814
330
18
100
AcDbEntity
  8
0
100
AcDbLine
 10
4679.835437808217
 20
-234.7985537332295
 30
0.0
 11
4679.835437808217
 21
-219.673553733229
 31
0.0
  0
LINE
  5
27815
330
18
100
AcDbEntity
  8
0
100
AcDbLine
 10
4721.835437808219
 20
-240.5235537332294
 30
0.0
 11
4717.835437808218
 21
-240.5235537332294
 31
0.0
  0
LINE
  5
27816
330
18
100
AcDbEntity
  8
0
100
AcDbLine
 10
4726.835437808218
 20
-238.423553733229
 30
0.0
 11
4721.835437808219
 21
-238.423553733229
 31
0.0
  0
LINE
  5
27817
330
18
100
AcDbEntity
  8
0
100
AcDbLine
 10
4704.83543780822
 20
-238.423553733229
 30
0.0
 11
4703.835437808217
 21
-234.7985537332295
 31
0.0
  0
LINE
  5
27818
330
18
100
AcDbEntity
  8
0
100
AcDbLine
 10
4704.83543780822
 20
-238.423553733229
 30
0.0
 11
4704.83543780822
 21
-234.1735537332291
 31
0.0
  0
LINE
  5
27819
330
18
100
AcDbEntity
  8
0
100
AcDbLine
 10
4703.835437808217
 20
-234.7985537332295
 30
0.0
 11
4704.83543780822
 21
-234.1735537332291
 31
0.0
  0
LINE
  5
2781A
330
18
100
AcDbEntity
  8
0
100
AcDbLine
 10
4704.83543780822
 20
-234.6735537332288
 30
0.0
 11
4717.835437808218
 21
-234.6735537332288
 31
0.0
  0
LINE
  5
2781B
330
18
100
AcDbEntity
  8
0
100
AcDbLine
 10
4704.83543780822
 20
-237.6735537332288
 30
0.0
 11
4717.835437808218
 21
-237.6735537332288
 31
0.0
  0
LINE
  5
2781C
330
18
100
AcDbEntity
  8
0
100
AcDbLine
 10
4704.83543780822
 20
-238.423553733229
 30
0.0
 11
4717.835437808218
 21
-238.423553733229
 31
0.0
  0
LINE
  5
2781D
330
18
100
AcDbEntity
  8
0
100
AcDbLine
 10
4703.835437808217
 20
-234.7985537332295
 30
0.0
 11
4679.835437808217
 21
-234.7985537332295
 31
0.0
  0
LINE
  5
2781E
330
18
100
AcDbEntity
  8
0
100
AcDbLine
 10
4657.93543780822
 20
-227.1735537332288
 30
0.0
 11
4679.835437808217
 21
-223.473553733228
 31
0.0
  0
LINE
  5
2781F
330
18
100
AcDbEntity
  8
0
100
AcDbLine
 10
4665.630032402815
 20
-228.2735537332291
 30
0.0
 11
4679.835437808217
 21
-230.6735537332288
 31
0.0
  0
LINE
  5
27820
330
18
100
AcDbEntity
  8
0
100
AcDbLine
 10
4664.549531767952
 20
-228.4561040687995
 30
0.0
 11
4679.835437808217
 21
-231.0735537332284
 31
0.0
  0
LINE
  5
27821
330
18
100
AcDbEntity
  8
0
100
AcDbLine
 10
4657.93543780822
 20
-229.5735537332284
 30
0.0
 11
4679.835437808217
 21
-225.8735537332294
 31
0.0
  0
LINE
  5
27822
330
18
100
AcDbEntity
  8
0
100
AcDbLine
 10
4657.93543780822
 20
-227.5735537332284
 30
0.0
 11
4679.835437808217
 21
-223.8735537332294
 31
0.0
  0
LINE
  5
27823
330
18
100
AcDbEntity
  8
0
100
AcDbLine
 10
4671.604565324996
 20
-227.2641577600743
 30
0.0
 11
4679.835437808217
 21
-228.6735537332288
 31
0.0
  0
LINE
  5
27824
330
18
100
AcDbEntity
  8
0
100
AcDbLine
 10
4657.93543780822
 20
-225.1735537332288
 30
0.0
 11
4679.835437808217
 21
-221.473553733228
 31
0.0
  0
LINE
  5
27825
330
18
100
AcDbEntity
  8
0
100
AcDbLine
 10
4664.549531767952
 20
-226.0561040687998
 30
0.0
 11
4665.725370694125
 21
-226.2574463506779
 31
0.0
  0
LINE
  5
27826
330
18
100
AcDbEntity
  8
0
100
AcDbLine
 10
4658.527329700109
 20
-227.0735537332284
 30
0.0
 11
4659.711113483895
 21
-227.2735537332291
 31
0.0
  0
LINE
  5
27827
330
18
100
AcDbEntity
  8
0
100
AcDbLine
 10
4657.93543780822
 20
-227.3235537332284
 30
0.0
 11
4658.670337137079
 21
-227.4493926594032
 31
0.0
  0
LINE
  5
27828
330
18
100
AcDbEntity
  8
0
100
AcDbLine
 10
4657.93543780822
 20
-224.9235537332288
 30
0.0
 11
4658.670337137079
 21
-225.0493926594035
 31
0.0
  0
LINE
  5
27829
330
18
100
AcDbEntity
  8
基板
100
AcDbLine
 10
4657.935437808218
 20
-230.5590286432861
 30
0.0
 11
4657.935437808218
 21
-224.0590286432861
 31
0.0
  0
LWPOLYLINE
  5
2782A
330
18
100
AcDbEntity
  8
0
100
AcDbPolyline
 90
        4
 70
     0
 43
0.0
 10
4645.234353704494
 20
-223.5703197688603
 10
4657.935437808218
 20
-223.5703197688603
 10
4657.935437808218
 20
-231.047737517712
 10
4642.90050921567
 20
-231.047737517712
  0
LINE
  5
2782B
330
18
100
AcDbEntity
  8
0
100
AcDbLine
 10
4721.835437808219
 20
-215.9235537332288
 30
0.0
 11
4726.835437808218
 21
-215.9235537332288
 31
0.0
  0
LINE
  5
2782C
330
18
100
AcDbEntity
  8
0
100
AcDbLine
 10
4717.835437808218
 20
-213.8235537332284
 30
0.0
 11
4721.835437808219
 21
-213.8235537332284
 31
0.0
  0
LINE
  5
2782D
330
18
100
AcDbEntity
  8
0
100
AcDbLine
 10
4703.835437808217
 20
-219.6735537332286
 30
0.0
 11
4704.83543780822
 21
-220.1735537332288
 31
0.0
  0
LINE
  5
2782E
330
18
100
AcDbEntity
  8
0
100
AcDbLine
 10
4704.83543780822
 20
-215.9235537332288
 30
0.0
 11
4703.835437808217
 21
-219.6735537332286
 31
0.0
  0
LINE
  5
2782F
330
18
100
AcDbEntity
  8
0
100
AcDbLine
 10
4704.83543780822
 20
-220.1735537332288
 30
0.0
 11
4704.83543780822
 21
-215.9235537332288
 31
0.0
  0
LINE
  5
27830
330
18
100
AcDbEntity
  8
0
100
AcDbLine
 10
4704.83543780822
 20
-216.6735537332288
 30
0.0
 11
4717.835437808218
 21
-216.6735537332288
 31
0.0
  0
LINE
  5
27831
330
18
100
AcDbEntity
  8
0
100
AcDbLine
 10
4717.835437808218
 20
-215.9235537332288
 30
0.0
 11
4704.83543780822
 21
-215.9235537332288
 31
0.0
  0
LINE
  5
27832
330
18
100
AcDbEntity
  8
0
100
AcDbLine
 10
4704.83543780822
 20
-219.6735537332286
 30
0.0
 11
4717.835437808218
 21
-219.6735537332286
 31
0.0
  0
LINE
  5
27833
330
18
100
AcDbEntity
  8
0
100
AcDbLine
 10
4704.83543780822
 20
-228.6735537332288
 30
0.0
 11
4704.83543780822
 21
-225.6735537332287
 31
0.0
  0
LINE
  5
27834
330
18
100
AcDbEntity
  8
0
100
AcDbLine
 10
4704.83543780822
 20
-225.6735537332287
 30
0.0
 11
4717.835437808218
 21
-225.6735537332287
 31
0.0
  0
LINE
  5
27835
330
18
100
AcDbEntity
  8
0
100
AcDbLine
 10
4704.83543780822
 20
-228.6735537332288
 30
0.0
 11
4717.835437808218
 21
-228.6735537332288
 31
0.0
  0
LINE
  5
27836
330
18
100
AcDbEntity
  8
0
100
AcDbLine
 10
4704.83543780822
 20
-231.6735537332287
 30
0.0
 11
4717.835437808218
 21
-231.6735537332287
 31
0.0
  0
LINE
  5
27837
330
18
100
AcDbEntity
  8
0
100
AcDbLine
 10
4704.83543780822
 20
-222.6735537332288
 30
0.0
 11
4717.835437808218
 21
-222.6735537332288
 31
0.0
  0
LINE
  5
27838
330
18
100
AcDbEntity
  8
0
100
AcDbLine
 10
4704.83543780822
 20
-222.6735537332288
 30
0.0
 11
4704.83543780822
 21
-219.6735537332286
 31
0.0
  0
LINE
  5
27839
330
18
100
AcDbEntity
  8
0
100
AcDbLine
 10
4703.835437808217
 20
-219.673553733229
 30
0.0
 11
4679.835437808217
 21
-219.673553733229
 31
0.0
  0
LWPOLYLINE
  5
2783A
330
18
100
AcDbEntity
  8
0
100
AcDbPolyline
 90
        4
 70
     0
 43
0.0
 10
4638.272894955499
 20
-118.2465757039822
 10
4598.92415961946
 20
-118.2465757039822
 10
4598.92415961946
 20
-110.7691579551306
 10
4640.606739444321
 20
-110.7691579551306
  0
LINE
  5
2783B
330
18
100
AcDbEntity
  8
0
 48
10.0
100
AcDbLine
 10
4594.761898348198
 20
-109.7156494783948
 30
0.0
 11
4598.92415961946
 21
-109.7156494783948
 31
0.0
  0
LINE
  5
2783C
330
18
100
AcDbEntity
  8
0
 48
10.0
100
AcDbLine
 10
4598.92415961946
 20
-119.222688222153
 30
0.0
 11
4594.761898348198
 21
-119.222688222153
 31
0.0
  0
LINE
  5
2783D
330
18
100
AcDbEntity
  8
0
100
AcDbLine
 10
4598.92415961946
 20
-109.7156494783948
 30
0.0
 11
4598.92415961946
 21
-119.222688222153
 31
0.0
  0
LWPOLYLINE
  5
2783E
330
18
100
AcDbEntity
  8
0
100
AcDbPolyline
 90
        4
 70
     0
 43
0.0
 10
4645.300562192943
 20
-110.7691579551306
 10
4657.935437808218
 20
-110.7691579551306
 10
4657.935437808218
 20
-118.2465757039822
 10
4642.966717704121
 20
-118.2465757039822
  0
LINE
  5
2783F
330
18
100
AcDbEntity
  8
0
  6
CENTER
 48
0.6
100
AcDbLine
 10
4643.566168900107
 20
-101.2874249411555
 30
0.0
 11
4634.972462583411
 21
-128.820849918103
 31
0.0
  0
LINE
  5
27840
330
18
100
AcDbEntity
  8
0
  6
CENTER
 48
0.6
100
AcDbLine
 10
4648.259991648727
 20
-101.2874249411555
 30
0.0
 11
4639.666285332032
 21
-128.820849918103
 31
0.0
  0
LINE
  5
27841
330
18
100
AcDbEntity
  8
0
100
AcDbLine
 10
4658.527329700109
 20
-116.8078668295555
 30
0.0
 11
4679.835437808217
 21
-120.407866829556
 31
0.0
  0
LINE
  5
27842
330
18
100
AcDbEntity
  8
0
100
AcDbLine
 10
4657.93543780822
 20
-112.5078668295564
 30
0.0
 11
4679.835437808217
 21
-108.8078668295555
 31
0.0
  0
LINE
  5
27843
330
18
100
AcDbEntity
  8
0
100
AcDbLine
 10
4657.93543780822
 20
-114.907866829556
 30
0.0
 11
4679.835437808217
 21
-111.2078668295571
 31
0.0
  0
LINE
  5
27844
330
18
100
AcDbEntity
  8
0
100
AcDbLine
 10
4657.93543780822
 20
-114.5078668295564
 30
0.0
 11
4679.835437808217
 21
-110.8078668295555
 31
0.0
  0
LINE
  5
27845
330
18
100
AcDbEntity
  8
0
100
AcDbLine
 10
4657.93543780822
 20
-116.907866829556
 30
0.0
 11
4679.835437808217
 21
-113.2078668295571
 31
0.0
  0
LINE
  5
27846
330
18
100
AcDbEntity
  8
0
100
AcDbLine
 10
4664.549531767952
 20
-115.7904171651269
 30
0.0
 11
4679.835437808217
 21
-118.407866829556
 31
0.0
  0
LINE
  5
27847
330
18
100
AcDbEntity
  8
0
100
AcDbLine
 10
4665.630032402815
 20
-115.6078668295567
 30
0.0
 11
4679.835437808217
 21
-118.0078668295564
 31
0.0
  0
LINE
  5
27848
330
18
100
AcDbEntity
  8
0
100
AcDbLine
 10
4671.604565324996
 20
-114.5984708564019
 30
0.0
 11
4679.835437808217
 21
-116.0078668295564
 31
0.0
  0
LINE
  5
27849
330
18
100
AcDbEntity
  8
基板
100
AcDbLine
 10
4657.935437808218
 20
-117.8933417396135
 30
0.0
 11
4657.935437808218
 21
-111.3933417396133
 31
0.0
  0
LINE
  5
2784A
330
18
100
AcDbEntity
  8
0
100
AcDbLine
 10
4657.93543780822
 20
-112.2578668295564
 30
0.0
 11
4658.670337137079
 21
-112.3837057557309
 31
0.0
  0
LINE
  5
2784B
330
18
100
AcDbEntity
  8
0
100
AcDbLine
 10
4657.93543780822
 20
-114.657866829556
 30
0.0
 11
4658.670337137079
 21
-114.7837057557308
 31
0.0
  0
LINE
  5
2784C
330
18
100
AcDbEntity
  8
0
100
AcDbLine
 10
4658.527329700109
 20
-114.407866829556
 30
0.0
 11
4659.711113483895
 21
-114.6078668295567
 31
0.0
  0
LINE
  5
2784D
330
18
100
AcDbEntity
  8
0
100
AcDbLine
 10
4664.549531767952
 20
-113.3904171651274
 30
0.0
 11
4665.725370694125
 21
-113.5917594470056
 31
0.0
  0
LWPOLYLINE
  5
2784E
330
18
100
AcDbEntity
  8
0
100
AcDbPolyline
 90
        4
 70
     1
 43
0.0
 10
4721.835437808219
 20
-131.3578668295565
 10
4717.835437808218
 20
-131.3578668295565
 10
4717.835437808218
 20
-97.65786682955605
 10
4721.835437808219
 20
-97.65786682955605
  0
LWPOLYLINE
  5
2784F
330
18
100
AcDbEntity
  8
0
100
AcDbPolyline
 90
        4
 70
     1
 43
0.0
 10
4726.835437808218
 20
-129.2578668295564
 10
4721.835437808219
 20
-129.2578668295564
 10
4721.835437808219
 20
-99.75786682955641
 10
4726.835437808218
 20
-99.75786682955641
  0
LINE
  5
27850
330
18
100
AcDbEntity
  8
0
100
AcDbLine
 10
4703.835437808217
 20
-125.5078668295564
 30
0.0
 11
4704.83543780822
 21
-125.0078668295564
 31
0.0
  0
LINE
  5
27851
330
18
100
AcDbEntity
  8
0
100
AcDbLine
 10
4704.83543780822
 20
-129.2578668295564
 30
0.0
 11
4703.835437808217
 21
-125.5078668295564
 31
0.0
  0
LINE
  5
27852
330
18
100
AcDbEntity
  8
0
100
AcDbLine
 10
4704.83543780822
 20
-129.2578668295564
 30
0.0
 11
4704.83543780822
 21
-125.0078668295564
 31
0.0
  0
LINE
  5
27853
330
18
100
AcDbEntity
  8
0
100
AcDbLine
 10
4704.83543780822
 20
-122.0078668295561
 30
0.0
 11
4704.83543780822
 21
-119.0078668295564
 31
0.0
  0
LINE
  5
27854
330
18
100
AcDbEntity
  8
0
100
AcDbLine
 10
4704.83543780822
 20
-110.0078668295564
 30
0.0
 11
4704.83543780822
 21
-107.0078668295564
 31
0.0
  0
LINE
  5
27855
330
18
100
AcDbEntity
  8
0
100
AcDbLine
 10
4704.83543780822
 20
-99.75786682955641
 30
0.0
 11
4703.835437808217
 21
-103.5078668295564
 31
0.0
  0
LINE
  5
27856
330
18
100
AcDbEntity
  8
0
100
AcDbLine
 10
4703.835437808217
 20
-103.5078668295564
 30
0.0
 11
4704.83543780822
 21
-104.0078668295564
 31
0.0
  0
LINE
  5
27857
330
18
100
AcDbEntity
  8
0
100
AcDbLine
 10
4704.83543780822
 20
-104.0078668295564
 30
0.0
 11
4704.83543780822
 21
-99.75786682955641
 31
0.0
  0
LINE
  5
27858
330
18
100
AcDbEntity
  8
0
100
AcDbLine
 10
4704.83543780822
 20
-116.0078668295564
 30
0.0
 11
4704.83543780822
 21
-113.0078668295564
 31
0.0
  0
LINE
  5
27859
330
18
100
AcDbEntity
  8
0
100
AcDbLine
 10
4704.83543780822
 20
-129.2578668295564
 30
0.0
 11
4717.835437808218
 21
-129.2578668295564
 31
0.0
  0
LINE
  5
2785A
330
18
100
AcDbEntity
  8
0
100
AcDbLine
 10
4704.83543780822
 20
-125.0078668295564
 30
0.0
 11
4717.835437808218
 21
-125.0078668295564
 31
0.0
  0
LINE
  5
2785B
330
18
100
AcDbEntity
  8
0
100
AcDbLine
 10
4704.83543780822
 20
-122.0078668295561
 30
0.0
 11
4717.835437808218
 21
-122.0078668295561
 31
0.0
  0
LINE
  5
2785C
330
18
100
AcDbEntity
  8
0
100
AcDbLine
 10
4704.83543780822
 20
-119.0078668295564
 30
0.0
 11
4717.835437808218
 21
-119.0078668295564
 31
0.0
  0
LINE
  5
2785D
330
18
100
AcDbEntity
  8
0
100
AcDbLine
 10
4704.83543780822
 20
-110.0078668295564
 30
0.0
 11
4717.835437808218
 21
-110.0078668295564
 31
0.0
  0
LINE
  5
2785E
330
18
100
AcDbEntity
  8
0
100
AcDbLine
 10
4704.83543780822
 20
-104.0078668295564
 30
0.0
 11
4717.835437808218
 21
-104.0078668295564
 31
0.0
  0
LINE
  5
2785F
330
18
100
AcDbEntity
  8
0
100
AcDbLine
 10
4704.83543780822
 20
-107.0078668295564
 30
0.0
 11
4717.835437808218
 21
-107.0078668295564
 31
0.0
  0
LINE
  5
27860
330
18
100
AcDbEntity
  8
0
100
AcDbLine
 10
4717.835437808218
 20
-99.75786682955641
 30
0.0
 11
4704.83543780822
 21
-99.75786682955641
 31
0.0
  0
LINE
  5
27861
330
18
100
AcDbEntity
  8
0
100
AcDbLine
 10
4704.83543780822
 20
-116.0078668295564
 30
0.0
 11
4717.835437808218
 21
-116.0078668295564
 31
0.0
  0
LINE
  5
27862
330
18
100
AcDbEntity
  8
0
100
AcDbLine
 10
4704.83543780822
 20
-113.0078668295564
 30
0.0
 11
4717.835437808218
 21
-113.0078668295564
 31
0.0
  0
LINE
  5
27863
330
18
100
AcDbEntity
  8
0
100
AcDbLine
 10
4679.835437808217
 20
-125.5078668295564
 30
0.0
 11
4679.835437808217
 21
-103.5078668295564
 31
0.0
  0
LWPOLYLINE
  5
27864
330
18
100
AcDbEntity
  8
0
100
AcDbPolyline
 90
        4
 70
     1
 43
0.0
 10
4684.335437808218
 20
-117.7578668295564
 10
4679.835437808217
 20
-117.7578668295564
 10
4679.835437808217
 20
-122.2578668295564
 10
4684.335437808218
 20
-122.2578668295564
  0
LINE
  5
27865
330
18
100
AcDbEntity
  8
0
100
AcDbLine
 10
4679.835437808217
 20
-121.8828668295564
 30
0.0
 11
4679.835437808217
 21
-107.1328668295564
 31
0.0
  0
LWPOLYLINE
  5
27866
330
18
100
AcDbEntity
  8
0
100
AcDbPolyline
 90
        4
 70
     1
 43
0.0
 10
4684.335437808218
 20
-106.7578668295564
 10
4679.835437808217
 20
-106.7578668295564
 10
4679.835437808217
 20
-111.2578668295564
 10
4684.335437808218
 20
-111.2578668295564
  0
LINE
  5
27869
330
18
100
AcDbEntity
  8
0
100
AcDbLine
 10
4703.835437808217
 20
-103.5078668295564
 30
0.0
 11
4679.835437808217
 21
-103.5078668295564
 31
0.0
  0
LINE
  5
2786A
330
18
100
AcDbEntity
  8
0
100
AcDbLine
 10
4703.835437808217
 20
-125.5078668295564
 30
0.0
 11
4679.835437808217
 21
-125.5078668295564
 31
0.0
  0
LWPOLYLINE
  5
2786B
330
18
100
AcDbEntity
  8
0
100
AcDbPolyline
 90
        4
 70
     1
 43
0.0
 10
4697.457412185335
 20
-105.7578668295564
 10
4687.457412185334
 20
-105.7578668295564
 10
4687.457412185334
 20
-123.2578668295564
 10
4697.457412185335
 20
-123.2578668295564
  0
LINE
  5
27F5C
330
18
100
AcDbEntity
  8
0
100
AcDbLine
 10
4777.48172172193
 20
-28.68189634508851
 30
0.0
 11
4777.982562163152
 21
-28.68189634508851
 31
0.0
  0
LINE
  5
2803C
330
18
100
AcDbEntity
  8
0
  6
HIDDEN
 48
0.45
100
AcDbLine
 10
4791.48172172193
 20
-112.4444282115764
 30
0.0
 11
4791.48172172193
 21
3.794456411083245
 31
0.0
  0
LINE
  5
2803D
330
18
100
AcDbEntity
  8
0
  6
HIDDEN
 48
0.45
100
AcDbLine
 10
4791.48172172193
 20
3.794456411083245
 30
0.0
 11
4779.481721721928
 21
3.794456411083245
 31
0.0
  0
LINE
  5
2803E
330
18
100
AcDbEntity
  8
0
  6
HIDDEN
 48
0.45
100
AcDbLine
 10
4779.481721721928
 20
3.794456411083245
 30
0.0
 11
4779.481721721928
 21
-118.2055435889167
 31
0.0
  0
LINE
  5
2803F
330
18
100
AcDbEntity
  8
0
  6
HIDDEN
 48
0.45
100
AcDbLine
 10
4779.481721721928
 20
-118.2055435889167
 30
0.0
 11
4791.48172172193
 21
-118.2055435889167
 31
0.0
  0
LINE
  5
28040
330
18
100
AcDbEntity
  8
0
  6
CENTER
 48
0.6
100
AcDbLine
 10
4791.481859340225
 20
-105.2790874477777
 30
0.0
 11
4777.482568124752
 21
-105.2790874477777
 31
0.0
  0
LINE
  5
28041
330
18
100
AcDbEntity
  8
0
  6
CENTER
 48
0.6
100
AcDbLine
 10
4791.481859340225
 20
-81.27908744777775
 30
0.0
 11
4777.482568124752
 21
-81.27908744777775
 31
0.0
  0
CIRCLE
  5
28042
330
18
100
AcDbEntity
  8
0
100
AcDbCircle
 10
4785.48172172193
 20
-81.27908745317133
 30
0.0
 40
2.0
  0
CIRCLE
  5
28043
330
18
100
AcDbEntity
  8
0
100
AcDbCircle
 10
4785.481859340226
 20
-81.27908744777775
 30
0.0
 40
1.6
  0
CIRCLE
  5
28044
330
18
100
AcDbEntity
  8
0
100
AcDbCircle
 10
4785.481859340226
 20
-105.2790874477777
 30
0.0
 40
2.0
  0
CIRCLE
  5
28045
330
18
100
AcDbEntity
  8
0
100
AcDbCircle
 10
4785.481859340226
 20
-105.2790874477777
 30
0.0
 40
1.6
  0
LINE
  5
280AB
330
18
100
AcDbEntity
  8
0
  6
CENTER
 48
0.6
100
AcDbLine
 10
4600.761898348198
 20
-81.27908745317133
 30
0.0
 11
4586.762607132725
 21
-81.27908745317133
 31
0.0
  0
LINE
  5
280AC
330
18
100
AcDbEntity
  8
0
  6
CENTER
 48
0.6
100
AcDbLine
 10
4600.761898348198
 20
-105.2790874531712
 30
0.0
 11
4586.762607132725
 21
-105.2790874531712
 31
0.0
  0
LINE
  5
283A4
330
18
100
AcDbEntity
  8
0
  6
CENTER
 48
0.3
100
AcDbLine
 10
4785.482430498592
 20
-122.2787300498945
 30
0.0
 11
4785.481725035792
 21
-72.88265368371549
 31
0.0
  0
LINE
  5
284E1
330
18
100
AcDbEntity
  8
隠れ線
  6
HIDDEN
 48
0.6
100
AcDbLine
 10
4831.482430506457
 20
-111.6782435889164
 30
0.0
 11
4823.682430506456
 21
-111.6782435889164
 31
0.0
  0
LINE
  5
284E2
330
18
100
AcDbEntity
  8
隠れ線
  6
HIDDEN
 48
0.6
100
AcDbLine
 10
4831.482430506457
 20
-117.6782435889164
 30
0.0
 11
4823.682430506456
 21
-117.6782435889164
 31
0.0
  0
LINE
  5
284E3
330
18
100
AcDbEntity
  8
隠れ線
  6
HIDDEN
 48
0.6
100
AcDbLine
 10
4831.482430506457
 20
3.321756411083441
 30
0.0
 11
4823.682430506456
 21
3.321756411083441
 31
0.0
  0
LINE
  5
284E4
330
18
100
AcDbEntity
  8
隠れ線
  6
HIDDEN
 48
0.6
100
AcDbLine
 10
4831.482430506457
 20
-2.678243588916556
 30
0.0
 11
4823.682430506456
 21
-2.678243588916556
 31
0.0
  0
LINE
  5
285B3
330
18
100
AcDbEntity
  8
隠れ線
 48
0.6
100
AcDbLine
 10
4116.752362417221
 20
3.319423086237298
 30
0.0
 11
4124.552362417222
 21
3.319423086237298
 31
0.0
  0
LINE
  5
285B4
330
18
100
AcDbEntity
  8
隠れ線
 48
0.6
100
AcDbLine
 10
4116.752362417221
 20
-2.680576913762699
 30
0.0
 11
4124.552362417222
 21
-2.680576913762699
 31
0.0
  0
LINE
  5
285B5
330
18
100
AcDbEntity
  8
隠れ線
 48
0.6
100
AcDbLine
 10
4116.752362417221
 20
-111.6805769137627
 30
0.0
 11
4124.552362417222
 21
-111.6805769137627
 31
0.0
  0
LINE
  5
285B6
330
18
100
AcDbEntity
  8
隠れ線
 48
0.6
100
AcDbLine
 10
4116.752362417221
 20
-117.6805769137627
 30
0.0
 11
4124.552362417222
 21
-117.6805769137627
 31
0.0
  0
VIEWPORT
  5
23
330
15
100
AcDbEntity
 67
     1
  8
0
100
AcDbViewport
 10
202.9463096538804
 20
145.2690768938617
 30
0.0
 40
647.5771393470235
 41
296.3964780959262
 68
     1
 69
     1
1001
ACAD
1000
MVIEW
1002
{
1070
    16
1010
0.0
1020
0.0
1030
0.0
1010
0.0
1020
0.0
1030
1.0
1040
0.0
1040
296.3964780959262
1040
202.9463096538804
1040
145.2690768938617
1040
50.0
1040
0.0
1040
0.0
1070
     0
1070
   100
1070
     1
1070
     0
1070
     0
1070
     0
1070
     0
1070
     0
1040
0.0
1040
0.0
1040
0.0
1040
10.0
1040
10.0
1040
10.0
1040
10.0
1070
     0
1002
{
1002
}
1002
}
  0
VIEWPORT
  5
2E
330
15
100
AcDbEntity
 67
     1
  8
M_VIEW
100
AcDbViewport
 10
200.0
 20
144.0
 30
0.0
 40
400.0
 41
288.0
 68
     2
 69
     2
1001
ACAD
1000
MVIEW
1002
{
1070
    16
1010
0.0
1020
0.0
1030
0.0
1010
0.0
1020
0.0
1030
1.0
1040
0.0
1040
575.9999998028095
1040
4501.685503328842
1040
-146.6302196853439
1040
50.0
1040
0.0
1040
0.0
1070
     0
1070
   100
1070
     1
1070
     0
1070
     0
1070
     0
1070
     0
1070
     0
1040
0.0
1040
0.0
1040
0.0
1040
10.0
1040
10.0
1040
10.0
1040
10.0
1070
     0
1002
{
1002
}
1002
}
  0
INSERT
  5
115F
330
15
100
AcDbEntity
 67
     1
  8
FRAME025
100
AcDbBlockReference
  2
機械A4横_LBP
 10
82.74908858651452
 20
152.030959079227
 30
0.0
  0
TEXT
  5
AA6A
330
15
100
AcDbEntity
 67
     1
  8
文字
  6
BYBLOCK
 62
     0
100
AcDbText
 10
32.81885892396519
 20
73.01882819621747
 30
0.0
 40
3.2
  1

 50
90.0
 41
0.625
  7
MSｺ_ｼｯｸ
100
AcDbText
  0
TEXT
  5
AA6C
330
15
100
AcDbEntity
 67
     1
  8
文字
  6
BYBLOCK
 62
     0
100
AcDbText
 10
37.25020936743055
 20
73.01882819621747
 30
0.0
 40
3.2
  1

 50
90.0
 41
0.625
  7
MSｺ_ｼｯｸ
100
AcDbText
  0
TEXT
  5
FCA5
330
15
100
AcDbEntity
 67
     1
  8
FRAME020
  6
CONTINUOUS
100
AcDbText
 10
126.6213117262079
 20
29.63926951973459
 30
0.0
 40
2.5
  1

 41
0.625
  7
MSｺ_ｼｯｸ
100
AcDbText
  0
TEXT
  5
12229
330
15
100
AcDbEntity
 67
     1
  8
0
100
AcDbText
 10
324.703280378293
 20
10.63168299257869
 30
0.0
 40
6.0
  1
ＳＥ－３８０００Ａ
 41
1.1
100
AcDbText
  0
MTEXT
  5
28750
330
15
100
AcDbEntity
 67
     1
  8
DIMENSION
100
AcDbMText
 10
214.2896681419936
 20
26.77111286131503
 30
0.0
 40
6.0
 41
183.7045999999999
 71
     1
 72
     5
  1
τﾘﾆｱﾓｰﾀ ｺｱ付N NLA-NA CLﾕﾆｯﾄ CLN1000MA (1000N)
  7
ｽﾀｲﾙ3
1001
ACAD
1000
MTEXTBEGIN
1070
    73
1070
     1
1070
    44
1040
1.0
1070
    74
1070
     0
1000
MTEXTEND
  0
ENDSEC
  0
SECTION
  2
OBJECTS
  0
DICTIONARY
  5
C
330
0
100
AcDbDictionary
  3
ACAD_GROUP
350
D
  3
ACAD_LAYOUT
350
DB2
  3
ACAD_MLINESTYLE
350
1B
  3
ACAD_PLOTSETTINGS
350
DB3
  3
ACAD_PLOTSTYLENAME
350
FB5B
  3
ACADDIM
350
1B534
  3
ACDBHEADERROUNDTRIPXREC
350
28768
  3
ACDBVARIABLEDICTIONARY
350
106A6
  3
ASE_INDEX_DICTIONARY
350
1A99F
  3
DWGPROPS
350
15EC9
1001
ACAD
1000
TREAT_AS_HARD
1070
     0
  0
DICTIONARY
  5
284A8
330
2
100
AcDbDictionary
280
     1
  3
ACAD_LAYERFILTERS
360
284A9
  3
ACAD_LAYERSTATES
360
284B5
  0
DICTIONARY
  5
EFC6
330
18
100
AcDbDictionary
280
     1
  3
ACAD_LAYOUTSELFREF
360
2878A
  0
DICTIONARY
  5
EFC4
330
15
100
AcDbDictionary
280
     1
  3
ACAD_LAYOUTSELFREF
360
28789
  0
DICTIONARY
  5
D
102
{ACAD_REACTORS
330
C
102
}
330
C
100
AcDbDictionary
  3
*A1
350
AC8A
  3
*A10
350
2536D
  3
*A100
350
16068
  3
*A101
350
25337
  3
*A102
350
25391
  3
*A103
350
1B73B
  3
*A104
350
265CC
  3
*A105
350
106B3
  3
*A106
350
26C4B
  3
*A107
350
26E24
  3
*A108
350
18F21
  3
*A109
350
25397
  3
*A11
350
27805
  3
*A110
350
19A52
  3
*A111
350
265D0
  3
*A112
350
26C43
  3
*A113
350
1EB80
  3
*A114
350
253AB
  3
*A115
350
19989
  3
*A116
350
17B11
  3
*A117
350
1F913
  3
*A118
350
25584
  3
*A119
350
19255
  3
*A12
350
20231
  3
*A120
350
25355
  3
*A121
350
25301
  3
*A122
350
16059
  3
*A123
350
26E25
  3
*A124
350
26E60
  3
*A125
350
19F87
  3
*A126
350
19AA4
  3
*A127
350
26C53
  3
*A128
350
1D706
  3
*A129
350
1AA94
  3
*A13
350
2020E
  3
*A130
350
1EB7D
  3
*A131
350
25585
  3
*A132
350
1B732
  3
*A133
350
25373
  3
*A134
350
20222
  3
*A135
350
26E61
  3
*A136
350
25586
  3
*A137
350
2001F
  3
*A138
350
1D6C0
  3
*A139
350
252FB
  3
*A14
350
27CB9
  3
*A140
350
FCB8
  3
*A141
350
25590
  3
*A142
350
173BD
  3
*A143
350
215A2
  3
*A144
350
25596
  3
*A145
350
1B720
  3
*A146
350
1606B
  3
*A147
350
25331
  3
*A148
350
ACBD
  3
*A149
350
2559C
  3
*A15
350
2531F
  3
*A150
350
1D68E
  3
*A151
350
2559D
  3
*A152
350
2535B
  3
*A153
350
169DA
  3
*A154
350
259CF
  3
*A155
350
25313
  3
*A156
350
259D0
  3
*A157
350
25379
  3
*A158
350
2629A
  3
*A159
350
259D1
  3
*A16
350
25343
  3
*A160
350
262A0
  3
*A161
350
1F91D
  3
*A162
350
265D1
  3
*A163
350
18F1F
  3
*A164
350
25E12
  3
*A165
350
20213
  3
*A166
350
265C7
  3
*A167
350
26093
  3
*A168
350
265D2
  3
*A169
350
25E11
  3
*A17
350
25D0D
  3
*A170
350
1738A
  3
*A171
350
18FA8
  3
*A172
350
1EB7C
  3
*A173
350
173BE
  3
*A174
350
20CA2
  3
*A175
350
AC9A
  3
*A176
350
20013
  3
*A177
350
259D2
  3
*A178
350
25AC2
  3
*A179
350
26095
  3
*A18
350
19A86
  3
*A180
350
25AC3
  3
*A181
350
19786
  3
*A182
350
265CF
  3
*A183
350
19787
  3
*A184
350
19881
  3
*A185
350
1D67A
  3
*A186
350
2629E
  3
*A187
350
20025
  3
*A188
350
106A5
  3
*A189
350
1D670
  3
*A19
350
26B62
  3
*A190
350
2732E
  3
*A191
350
2532B
  3
*A192
350
19FAB
  3
*A193
350
1F90E
  3
*A194
350
252DD
  3
*A195
350
2022C
  3
*A196
350
262A1
  3
*A197
350
173BF
  3
*A198
350
25D0E
  3
*A199
350
1F918
  3
*A2
350
2001C
  3
*A20
350
16058
  3
*A200
350
2732F
  3
*A201
350
25361
  3
*A202
350
27CB0
  3
*A203
350
27330
  3
*A204
350
27331
  3
*A205
350
20CA6
  3
*A206
350
26C78
  3
*A207
350
265CA
  3
*A208
350
106C6
  3
*A209
350
20209
  3
*A21
350
1B756
  3
*A210
350
27332
  3
*A211
350
25D0A
  3
*A212
350
FB6B
  3
*A213
350
26094
  3
*A214
350
ACA2
  3
*A215
350
2608F
  3
*A216
350
27333
  3
*A217
350
16069
  3
*A218
350
26E26
  3
*A219
350
18F20
  3
*A22
350
18F23
  3
*A220
350
27334
  3
*A221
350
1A691
  3
*A222
350
26096
  3
*A223
350
265C9
  3
*A224
350
25D97
  3
*A225
350
27336
  3
*A226
350
2629F
  3
*A227
350
252F5
  3
*A228
350
27338
  3
*A229
350
252EF
  3
*A23
350
265CB
  3
*A230
350
26B3D
  3
*A231
350
25D0B
  3
*A232
350
1606A
  3
*A233
350
2629D
  3
*A234
350
277FA
  3
*A235
350
26C8B
  3
*A236
350
1D6E8
  3
*A237
350
277FB
  3
*A238
350
265CE
  3
*A239
350
19A5A
  3
*A24
350
26E5E
  3
*A240
350
1D6CA
  3
*A241
350
277FC
  3
*A242
350
1D6D4
  3
*A243
350
277FD
  3
*A244
350
17389
  3
*A245
350
2629C
  3
*A246
350
27CB8
  3
*A247
350
1D710
  3
*A248
350
19729
  3
*A249
350
20022
  3
*A25
350
19F67
  3
*A250
350
27CB6
  3
*A251
350
1A695
  3
*A252
350
1B744
  3
*A253
350
25D0C
  3
*A254
350
25E10
  3
*A255
350
26090
  3
*A256
350
277FE
  3
*A257
350
277FF
  3
*A258
350
27800
  3
*A259
350
27801
  3
*A26
350
20019
  3
*A260
350
27802
  3
*A261
350
1EB7E
  3
*A262
350
1D6DE
  3
*A263
350
2537F
  3
*A264
350
27803
  3
*A265
350
2530D
  3
*A266
350
FBFF
  3
*A267
350
25367
  3
*A268
350
20028
  3
*A269
350
27CB7
  3
*A27
350
18FA7
  3
*A270
350
1A09A
  3
*A271
350
2533D
  3
*A272
350
27804
  3
*A28
350
1F904
  3
*A29
350
25385
  3
*A3
350
1F8F5
  3
*A30
350
19988
  3
*A31
350
27CB3
  3
*A32
350
2534F
  3
*A33
350
FC95
  3
*A34
350
1738B
  3
*A35
350
1F8F0
  3
*A36
350
1F909
  3
*A37
350
106C7
  3
*A38
350
26C06
  3
*A39
350
FC91
  3
*A4
350
ACB4
  3
*A40
350
1D6A2
  3
*A41
350
2538B
  3
*A42
350
1A692
  3
*A43
350
27CB1
  3
*A44
350
20010
  3
*A45
350
1EB7F
  3
*A46
350
25E13
  3
*A47
350
27CBA
  3
*A48
350
20236
  3
*A49
350
26E22
  3
*A5
350
17901
  3
*A50
350
26092
  3
*A51
350
ACAB
  3
*A52
350
26091
  3
*A53
350
1B74D
  3
*A54
350
17BFF
  3
*A55
350
27CB4
  3
*A56
350
252E3
  3
*A57
350
1998A
  3
*A58
350
20016
  3
*A59
350
1B729
  3
*A6
350
265C8
  3
*A60
350
1D6FC
  3
*A61
350
27CB2
  3
*A62
350
18FA6
  3
*A63
350
20227
  3
*A64
350
1D684
  3
*A65
350
19861
  3
*A66
350
27806
  3
*A67
350
19F55
  3
*A68
350
24D3F
  3
*A69
350
1F8FA
  3
*A7
350
25307
  3
*A70
350
1D6B6
  3
*A71
350
25325
  3
*A72
350
198F1
  3
*A73
350
1D6AC
  3
*A74
350
18F22
  3
*A75
350
1D698
  3
*A76
350
20218
  3
*A77
350
1F8FF
  3
*A78
350
2002B
  3
*A79
350
ACA1
  3
*A8
350
19259
  3
*A80
350
27CAF
  3
*A81
350
2021D
  3
*A82
350
27CB5
  3
*A83
350
27D88
  3
*A84
350
19F99
  3
*A85
350
19794
  3
*A86
350
FC9B
  3
*A87
350
1D6F2
  3
*A88
350
252E9
  3
*A89
350
196C2
  3
*A9
350
25349
  3
*A90
350
26E5F
  3
*A91
350
FC9A
  3
*A92
350
265CD
  3
*A93
350
25319
  3
*A94
350
26E23
  3
*A95
350
19A51
  3
*A96
350
2629B
  3
*A97
350
FB6C
  3
*A98
350
26C07
  3
*A99
350
19256
1001
ACAD
1000
TREAT_AS_HARD
1070
     0
  0
DICTIONARY
  5
DB2
102
{ACAD_REACTORS
330
C
102
}
330
C
100
AcDbDictionary
1001
ACAD
1000
TREAT_AS_HARD
1070
     0
  0
DICTIONARY
  5
1B
102
{ACAD_REACTORS
330
C
102
}
330
C
100
AcDbDictionary
  3
STANDARD
350
1C
1001
ACAD
1000
TREAT_AS_HARD
1070
     0
  0
DICTIONARY
  5
DB3
102
{ACAD_REACTORS
330
C
102
}
330
C
100
AcDbDictionary
1001
ACAD
1000
TREAT_AS_HARD
1070
     0
  0
ACDBDICTIONARYWDFLT
  5
FB5B
102
{ACAD_REACTORS
330
C
102
}
330
C
100
AcDbDictionary
281
     1
  3
Normal
350
FB5C
100
AcDbDictionaryWithDefault
340
FB5C
  0
XRECORD
  5
1B534
102
{ACAD_REACTORS
330
C
102
}
330
C
100
AcDbXrecord
 90
   990106
  3

 60
     0
 61
     0
 62
     4
 63
     4
 64
     1
 65
     0
 66
     0
 67
     3
 68
     1
 69
     0
 70
     0
 71
     0
 72
     0
 40
0.0
170
     2
340
28090
  0
DICTIONARY
  5
28768
102
{ACAD_REACTORS
330
C
102
}
330
C
100
AcDbDictionary
  3
CEPSNTYPE
350
28772
  3
DIMSTYLEDATA
350
28776
  3
FINGERPRINTGUID
350
28773
  3
HYPERLINKBASE
350
2876B
  3
INSUNITS
350
28771
  3
LAYOUTDICT
350
2876D
  3
LWETCUNION
350
28770
  3
PLOTSETDICT
350
2876E
  3
PLOTSTYLNAMDICT
350
2876F
  3
PSVPSCALE
350
28775
  3
PUCSBASE
350
28779
  3
PUCSORGBACK
350
2877F
  3
PUCSORGBOTTOM
350
2877B
  3
PUCSORGFRONT
350
2877E
  3
PUCSORGLEFT
350
2877C
  3
PUCSORGRIGHT
350
2877D
  3
PUCSORGTOP
350
2877A
  3
PUCSORTHOREF
350
28777
  3
PUCSORTHOVIEW
350
28778
  3
STYLESHEET
350
2876C
  3
TSTACKALIGN
350
28769
  3
TSTACKSIZE
350
2876A
  3
UCSBASE
350
28782
  3
UCSORGBACK
350
28788
  3
UCSORGBOTTOM
350
28784
  3
UCSORGFRONT
350
28787
  3
UCSORGLEFT
350
28785
  3
UCSORGRIGHT
350
28786
  3
UCSORGTOP
350
28783
  3
UCSORTHOREF
350
28780
  3
UCSORTHOVIEW
350
28781
  3
VERSIONGUID
350
28774
  0
DICTIONARY
  5
106A6
102
{ACAD_REACTORS
330
C
102
}
330
C
100
AcDbDictionary
  3
SORTENTS
350
106A7
  0
DICTIONARY
  5
1A99F
102
{ACAD_REACTORS
330
C
102
}
330
C
100
AcDbDictionary
  3
ASEBLOCKHIERARCHYINDEXRECORD
350
1A9A1
1001
DCO15
1040
1464612067.17
  0
XRECORD
  5
15EC9
102
{ACAD_REACTORS
330
C
102
}
330
C
100
AcDbXrecord
  1
DWGPROPS COOKIE
  2

  3

  4

  6

  7

  8

  9

300
=
301
=
302
=
303
=
304
=
305
=
306
=
307
=
308
=
309
=
 40
12.65185717592592
 41
2451224.660162384
 42
2452395.660827315
  1

 90
        0
  0
DICTIONARY
  5
284A9
102
{ACAD_REACTORS
330
284A8
102
}
330
284A8
100
AcDbDictionary
280
     1
  3
0
360
284AA
  3
11
360
284AB
  3
150_
360
284AC
  3
160_
360
284AD
  3
170_
360
284AE
  3
171_
360
284AF
  3
350_
360
284B0
  3
4
360
284B1
  3
5
360
284B2
  3
7
360
284B3
  3
KISEKI
360
284B4
  0
DICTIONARY
  5
284B5
102
{ACAD_REACTORS
330
284A8
102
}
330
284A8
100
AcDbDictionary
  0
XRECORD
  5
2878A
102
{ACAD_REACTORS
330
EFC6
102
}
330
EFC6
100
AcDbXrecord
340
18
  0
XRECORD
  5
28789
102
{ACAD_REACTORS
330
EFC4
102
}
330
EFC4
100
AcDbXrecord
340
15
  0
GROUP
  5
AC8A
102
{ACAD_REACTORS
330
D
102
}
330
D
100
AcDbGroup
300

 70
     1
 71
     1
  0
GROUP
  5
2536D
102
{ACAD_REACTORS
330
D
102
}
330
D
100
AcDbGroup
300

 70
     1
 71
     1
  0
GROUP
  5
16068
102
{ACAD_REACTORS
330
D
102
}
330
D
100
AcDbGroup
300

 70
     1
 71
     1
  0
GROUP
  5
25337
102
{ACAD_REACTORS
330
D
102
}
330
D
100
AcDbGroup
300

 70
     1
 71
     1
  0
GROUP
  5
25391
102
{ACAD_REACTORS
330
D
102
}
330
D
100
AcDbGroup
300

 70
     1
 71
     1
  0
GROUP
  5
1B73B
102
{ACAD_REACTORS
330
D
102
}
330
D
100
AcDbGroup
300

 70
     1
 71
     1
  0
GROUP
  5
265CC
102
{ACAD_REACTORS
330
D
102
}
330
D
100
AcDbGroup
300

 70
     1
 71
     1
  0
GROUP
  5
106B3
102
{ACAD_REACTORS
330
D
102
}
330
D
100
AcDbGroup
300

 70
     1
 71
     1
  0
GROUP
  5
26C4B
102
{ACAD_REACTORS
330
D
102
}
330
D
100
AcDbGroup
300

 70
     1
 71
     1
  0
GROUP
  5
26E24
102
{ACAD_REACTORS
330
D
102
}
330
D
100
AcDbGroup
300

 70
     1
 71
     1
  0
GROUP
  5
18F21
102
{ACAD_REACTORS
330
D
102
}
330
D
100
AcDbGroup
300

 70
     1
 71
     1
  0
GROUP
  5
25397
102
{ACAD_REACTORS
330
D
102
}
330
D
100
AcDbGroup
300

 70
     1
 71
     1
  0
GROUP
  5
27805
102
{ACAD_REACTORS
330
D
102
}
330
D
100
AcDbGroup
300

 70
     1
 71
     1
  0
GROUP
  5
19A52
102
{ACAD_REACTORS
330
D
102
}
330
D
100
AcDbGroup
300

 70
     1
 71
     1
  0
GROUP
  5
265D0
102
{ACAD_REACTORS
330
D
102
}
330
D
100
AcDbGroup
300

 70
     1
 71
     1
  0
GROUP
  5
26C43
102
{ACAD_REACTORS
330
D
102
}
330
D
100
AcDbGroup
300

 70
     1
 71
     1
  0
GROUP
  5
1EB80
102
{ACAD_REACTORS
330
D
102
}
330
D
100
AcDbGroup
300

 70
     1
 71
     1
  0
GROUP
  5
253AB
102
{ACAD_REACTORS
330
D
102
}
330
D
100
AcDbGroup
300

 70
     1
 71
     1
  0
GROUP
  5
19989
102
{ACAD_REACTORS
330
D
102
}
330
D
100
AcDbGroup
300

 70
     1
 71
     1
  0
GROUP
  5
17B11
102
{ACAD_REACTORS
330
D
102
}
330
D
100
AcDbGroup
300

 70
     1
 71
     1
  0
GROUP
  5
1F913
102
{ACAD_REACTORS
330
D
102
}
330
D
100
AcDbGroup
300

 70
     1
 71
     1
  0
GROUP
  5
25584
102
{ACAD_REACTORS
330
D
102
}
330
D
100
AcDbGroup
300

 70
     1
 71
     1
  0
GROUP
  5
19255
102
{ACAD_REACTORS
330
D
102
}
330
D
100
AcDbGroup
300

 70
     1
 71
     1
  0
GROUP
  5
20231
102
{ACAD_REACTORS
330
D
102
}
330
D
100
AcDbGroup
300

 70
     1
 71
     1
  0
GROUP
  5
25355
102
{ACAD_REACTORS
330
D
102
}
330
D
100
AcDbGroup
300

 70
     1
 71
     1
  0
GROUP
  5
25301
102
{ACAD_REACTORS
330
D
102
}
330
D
100
AcDbGroup
300

 70
     1
 71
     1
  0
GROUP
  5
16059
102
{ACAD_REACTORS
330
D
102
}
330
D
100
AcDbGroup
300

 70
     1
 71
     1
  0
GROUP
  5
26E25
102
{ACAD_REACTORS
330
D
102
}
330
D
100
AcDbGroup
300

 70
     1
 71
     1
  0
GROUP
  5
26E60
102
{ACAD_REACTORS
330
D
102
}
330
D
100
AcDbGroup
300

 70
     1
 71
     1
  0
GROUP
  5
19F87
102
{ACAD_REACTORS
330
D
102
}
330
D
100
AcDbGroup
300

 70
     1
 71
     1
  0
GROUP
  5
19AA4
102
{ACAD_REACTORS
330
D
102
}
330
D
100
AcDbGroup
300

 70
     1
 71
     1
  0
GROUP
  5
26C53
102
{ACAD_REACTORS
330
D
102
}
330
D
100
AcDbGroup
300

 70
     1
 71
     1
  0
GROUP
  5
1D706
102
{ACAD_REACTORS
330
D
102
}
330
D
100
AcDbGroup
300

 70
     1
 71
     1
  0
GROUP
  5
1AA94
102
{ACAD_REACTORS
330
D
102
}
330
D
100
AcDbGroup
300

 70
     1
 71
     1
  0
GROUP
  5
2020E
102
{ACAD_REACTORS
330
D
102
}
330
D
100
AcDbGroup
300

 70
     1
 71
     1
  0
GROUP
  5
1EB7D
102
{ACAD_REACTORS
330
D
102
}
330
D
100
AcDbGroup
300

 70
     1
 71
     1
  0
GROUP
  5
25585
102
{ACAD_REACTORS
330
D
102
}
330
D
100
AcDbGroup
300

 70
     1
 71
     1
  0
GROUP
  5
1B732
102
{ACAD_REACTORS
330
D
102
}
330
D
100
AcDbGroup
300

 70
     1
 71
     1
  0
GROUP
  5
25373
102
{ACAD_REACTORS
330
D
102
}
330
D
100
AcDbGroup
300

 70
     1
 71
     1
  0
GROUP
  5
20222
102
{ACAD_REACTORS
330
D
102
}
330
D
100
AcDbGroup
300

 70
     1
 71
     1
  0
GROUP
  5
26E61
102
{ACAD_REACTORS
330
D
102
}
330
D
100
AcDbGroup
300

 70
     1
 71
     1
  0
GROUP
  5
25586
102
{ACAD_REACTORS
330
D
102
}
330
D
100
AcDbGroup
300

 70
     1
 71
     1
  0
GROUP
  5
2001F
102
{ACAD_REACTORS
330
D
102
}
330
D
100
AcDbGroup
300

 70
     1
 71
     1
  0
GROUP
  5
1D6C0
102
{ACAD_REACTORS
330
D
102
}
330
D
100
AcDbGroup
300

 70
     1
 71
     1
  0
GROUP
  5
252FB
102
{ACAD_REACTORS
330
D
102
}
330
D
100
AcDbGroup
300

 70
     1
 71
     1
  0
GROUP
  5
27CB9
102
{ACAD_REACTORS
330
D
102
}
330
D
100
AcDbGroup
300

 70
     1
 71
     1
  0
GROUP
  5
FCB8
102
{ACAD_REACTORS
330
D
102
}
330
D
100
AcDbGroup
300

 70
     1
 71
     1
  0
GROUP
  5
25590
102
{ACAD_REACTORS
330
D
102
}
330
D
100
AcDbGroup
300

 70
     1
 71
     1
  0
GROUP
  5
173BD
102
{ACAD_REACTORS
330
D
102
}
330
D
100
AcDbGroup
300

 70
     1
 71
     1
  0
GROUP
  5
215A2
102
{ACAD_REACTORS
330
D
102
}
330
D
100
AcDbGroup
300

 70
     1
 71
     1
  0
GROUP
  5
25596
102
{ACAD_REACTORS
330
D
102
}
330
D
100
AcDbGroup
300

 70
     1
 71
     1
  0
GROUP
  5
1B720
102
{ACAD_REACTORS
330
D
102
}
330
D
100
AcDbGroup
300

 70
     1
 71
     1
  0
GROUP
  5
1606B
102
{ACAD_REACTORS
330
D
102
}
330
D
100
AcDbGroup
300

 70
     1
 71
     1
  0
GROUP
  5
25331
102
{ACAD_REACTORS
330
D
102
}
330
D
100
AcDbGroup
300

 70
     1
 71
     1
  0
GROUP
  5
ACBD
102
{ACAD_REACTORS
330
D
102
}
330
D
100
AcDbGroup
300

 70
     1
 71
     1
  0
GROUP
  5
2559C
102
{ACAD_REACTORS
330
D
102
}
330
D
100
AcDbGroup
300

 70
     1
 71
     1
  0
GROUP
  5
2531F
102
{ACAD_REACTORS
330
D
102
}
330
D
100
AcDbGroup
300

 70
     1
 71
     1
  0
GROUP
  5
1D68E
102
{ACAD_REACTORS
330
D
102
}
330
D
100
AcDbGroup
300

 70
     1
 71
     1
  0
GROUP
  5
2559D
102
{ACAD_REACTORS
330
D
102
}
330
D
100
AcDbGroup
300

 70
     1
 71
     1
  0
GROUP
  5
2535B
102
{ACAD_REACTORS
330
D
102
}
330
D
100
AcDbGroup
300

 70
     1
 71
     1
  0
GROUP
  5
169DA
102
{ACAD_REACTORS
330
D
102
}
330
D
100
AcDbGroup
300

 70
     1
 71
     1
  0
GROUP
  5
259CF
102
{ACAD_REACTORS
330
D
102
}
330
D
100
AcDbGroup
300

 70
     1
 71
     1
  0
GROUP
  5
25313
102
{ACAD_REACTORS
330
D
102
}
330
D
100
AcDbGroup
300

 70
     1
 71
     1
  0
GROUP
  5
259D0
102
{ACAD_REACTORS
330
D
102
}
330
D
100
AcDbGroup
300

 70
     1
 71
     1
  0
GROUP
  5
25379
102
{ACAD_REACTORS
330
D
102
}
330
D
100
AcDbGroup
300

 70
     1
 71
     1
  0
GROUP
  5
2629A
102
{ACAD_REACTORS
330
D
102
}
330
D
100
AcDbGroup
300

 70
     1
 71
     1
  0
GROUP
  5
259D1
102
{ACAD_REACTORS
330
D
102
}
330
D
100
AcDbGroup
300

 70
     1
 71
     1
  0
GROUP
  5
25343
102
{ACAD_REACTORS
330
D
102
}
330
D
100
AcDbGroup
300

 70
     1
 71
     1
  0
GROUP
  5
262A0
102
{ACAD_REACTORS
330
D
102
}
330
D
100
AcDbGroup
300

 70
     1
 71
     1
  0
GROUP
  5
1F91D
102
{ACAD_REACTORS
330
D
102
}
330
D
100
AcDbGroup
300

 70
     1
 71
     1
  0
GROUP
  5
265D1
102
{ACAD_REACTORS
330
D
102
}
330
D
100
AcDbGroup
300

 70
     1
 71
     1
  0
GROUP
  5
18F1F
102
{ACAD_REACTORS
330
D
102
}
330
D
100
AcDbGroup
300

 70
     1
 71
     1
  0
GROUP
  5
25E12
102
{ACAD_REACTORS
330
D
102
}
330
D
100
AcDbGroup
300

 70
     1
 71
     1
  0
GROUP
  5
20213
102
{ACAD_REACTORS
330
D
102
}
330
D
100
AcDbGroup
300

 70
     1
 71
     1
  0
GROUP
  5
265C7
102
{ACAD_REACTORS
330
D
102
}
330
D
100
AcDbGroup
300

 70
     1
 71
     1
  0
GROUP
  5
26093
102
{ACAD_REACTORS
330
D
102
}
330
D
100
AcDbGroup
300

 70
     1
 71
     1
  0
GROUP
  5
265D2
102
{ACAD_REACTORS
330
D
102
}
330
D
100
AcDbGroup
300

 70
     1
 71
     1
  0
GROUP
  5
25E11
102
{ACAD_REACTORS
330
D
102
}
330
D
100
AcDbGroup
300

 70
     1
 71
     1
  0
GROUP
  5
25D0D
102
{ACAD_REACTORS
330
D
102
}
330
D
100
AcDbGroup
300

 70
     1
 71
     1
  0
GROUP
  5
1738A
102
{ACAD_REACTORS
330
D
102
}
330
D
100
AcDbGroup
300

 70
     1
 71
     1
  0
GROUP
  5
18FA8
102
{ACAD_REACTORS
330
D
102
}
330
D
100
AcDbGroup
300

 70
     1
 71
     1
  0
GROUP
  5
1EB7C
102
{ACAD_REACTORS
330
D
102
}
330
D
100
AcDbGroup
300

 70
     1
 71
     1
  0
GROUP
  5
173BE
102
{ACAD_REACTORS
330
D
102
}
330
D
100
AcDbGroup
300

 70
     1
 71
     1
  0
GROUP
  5
20CA2
102
{ACAD_REACTORS
330
D
102
}
330
D
100
AcDbGroup
300

 70
     1
 71
     1
  0
GROUP
  5
AC9A
102
{ACAD_REACTORS
330
D
102
}
330
D
100
AcDbGroup
300

 70
     1
 71
     1
  0
GROUP
  5
20013
102
{ACAD_REACTORS
330
D
102
}
330
D
100
AcDbGroup
300

 70
     1
 71
     1
  0
GROUP
  5
259D2
102
{ACAD_REACTORS
330
D
102
}
330
D
100
AcDbGroup
300

 70
     1
 71
     1
  0
GROUP
  5
25AC2
102
{ACAD_REACTORS
330
D
102
}
330
D
100
AcDbGroup
300

 70
     1
 71
     1
  0
GROUP
  5
26095
102
{ACAD_REACTORS
330
D
102
}
330
D
100
AcDbGroup
300

 70
     1
 71
     1
  0
GROUP
  5
19A86
102
{ACAD_REACTORS
330
D
102
}
330
D
100
AcDbGroup
300

 70
     1
 71
     1
  0
GROUP
  5
25AC3
102
{ACAD_REACTORS
330
D
102
}
330
D
100
AcDbGroup
300

 70
     1
 71
     1
  0
GROUP
  5
19786
102
{ACAD_REACTORS
330
D
102
}
330
D
100
AcDbGroup
300

 70
     1
 71
     1
  0
GROUP
  5
265CF
102
{ACAD_REACTORS
330
D
102
}
330
D
100
AcDbGroup
300

 70
     1
 71
     1
  0
GROUP
  5
19787
102
{ACAD_REACTORS
330
D
102
}
330
D
100
AcDbGroup
300

 70
     1
 71
     1
  0
GROUP
  5
19881
102
{ACAD_REACTORS
330
D
102
}
330
D
100
AcDbGroup
300

 70
     1
 71
     1
  0
GROUP
  5
1D67A
102
{ACAD_REACTORS
330
D
102
}
330
D
100
AcDbGroup
300

 70
     1
 71
     1
  0
GROUP
  5
2629E
102
{ACAD_REACTORS
330
D
102
}
330
D
100
AcDbGroup
300

 70
     1
 71
     1
  0
GROUP
  5
20025
102
{ACAD_REACTORS
330
D
102
}
330
D
100
AcDbGroup
300

 70
     1
 71
     1
  0
GROUP
  5
106A5
102
{ACAD_REACTORS
330
D
102
}
330
D
100
AcDbGroup
300

 70
     1
 71
     1
  0
GROUP
  5
1D670
102
{ACAD_REACTORS
330
D
102
}
330
D
100
AcDbGroup
300

 70
     1
 71
     1
  0
GROUP
  5
26B62
102
{ACAD_REACTORS
330
D
102
}
330
D
100
AcDbGroup
300

 70
     1
 71
     1
  0
GROUP
  5
2732E
102
{ACAD_REACTORS
330
D
102
}
330
D
100
AcDbGroup
300

 70
     1
 71
     1
  0
GROUP
  5
2532B
102
{ACAD_REACTORS
330
D
102
}
330
D
100
AcDbGroup
300

 70
     1
 71
     1
  0
GROUP
  5
19FAB
102
{ACAD_REACTORS
330
D
102
}
330
D
100
AcDbGroup
300

 70
     1
 71
     1
  0
GROUP
  5
1F90E
102
{ACAD_REACTORS
330
D
102
}
330
D
100
AcDbGroup
300

 70
     1
 71
     1
  0
GROUP
  5
252DD
102
{ACAD_REACTORS
330
D
102
}
330
D
100
AcDbGroup
300

 70
     1
 71
     1
  0
GROUP
  5
2022C
102
{ACAD_REACTORS
330
D
102
}
330
D
100
AcDbGroup
300

 70
     1
 71
     1
  0
GROUP
  5
262A1
102
{ACAD_REACTORS
330
D
102
}
330
D
100
AcDbGroup
300

 70
     1
 71
     1
  0
GROUP
  5
173BF
102
{ACAD_REACTORS
330
D
102
}
330
D
100
AcDbGroup
300

 70
     1
 71
     1
  0
GROUP
  5
25D0E
102
{ACAD_REACTORS
330
D
102
}
330
D
100
AcDbGroup
300

 70
     1
 71
     1
  0
GROUP
  5
1F918
102
{ACAD_REACTORS
330
D
102
}
330
D
100
AcDbGroup
300

 70
     1
 71
     1
  0
GROUP
  5
2001C
102
{ACAD_REACTORS
330
D
102
}
330
D
100
AcDbGroup
300

 70
     1
 71
     1
  0
GROUP
  5
16058
102
{ACAD_REACTORS
330
D
102
}
330
D
100
AcDbGroup
300

 70
     1
 71
     1
  0
GROUP
  5
2732F
102
{ACAD_REACTORS
330
D
102
}
330
D
100
AcDbGroup
300

 70
     1
 71
     1
  0
GROUP
  5
25361
102
{ACAD_REACTORS
330
D
102
}
330
D
100
AcDbGroup
300

 70
     1
 71
     1
  0
GROUP
  5
27CB0
102
{ACAD_REACTORS
330
D
102
}
330
D
100
AcDbGroup
300

 70
     1
 71
     1
  0
GROUP
  5
27330
102
{ACAD_REACTORS
330
D
102
}
330
D
100
AcDbGroup
300

 70
     1
 71
     1
  0
GROUP
  5
27331
102
{ACAD_REACTORS
330
D
102
}
330
D
100
AcDbGroup
300

 70
     1
 71
     1
  0
GROUP
  5
20CA6
102
{ACAD_REACTORS
330
D
102
}
330
D
100
AcDbGroup
300

 70
     1
 71
     1
  0
GROUP
  5
26C78
102
{ACAD_REACTORS
330
D
102
}
330
D
100
AcDbGroup
300

 70
     1
 71
     1
  0
GROUP
  5
265CA
102
{ACAD_REACTORS
330
D
102
}
330
D
100
AcDbGroup
300

 70
     1
 71
     1
  0
GROUP
  5
106C6
102
{ACAD_REACTORS
330
D
102
}
330
D
100
AcDbGroup
300

 70
     1
 71
     1
  0
GROUP
  5
20209
102
{ACAD_REACTORS
330
D
102
}
330
D
100
AcDbGroup
300

 70
     1
 71
     1
  0
GROUP
  5
1B756
102
{ACAD_REACTORS
330
D
102
}
330
D
100
AcDbGroup
300

 70
     1
 71
     1
  0
GROUP
  5
27332
102
{ACAD_REACTORS
330
D
102
}
330
D
100
AcDbGroup
300

 70
     1
 71
     1
  0
GROUP
  5
25D0A
102
{ACAD_REACTORS
330
D
102
}
330
D
100
AcDbGroup
300

 70
     1
 71
     1
  0
GROUP
  5
FB6B
102
{ACAD_REACTORS
330
D
102
}
330
D
100
AcDbGroup
300

 70
     1
 71
     1
  0
GROUP
  5
26094
102
{ACAD_REACTORS
330
D
102
}
330
D
100
AcDbGroup
300

 70
     1
 71
     1
  0
GROUP
  5
ACA2
102
{ACAD_REACTORS
330
D
102
}
330
D
100
AcDbGroup
300

 70
     1
 71
     1
  0
GROUP
  5
2608F
102
{ACAD_REACTORS
330
D
102
}
330
D
100
AcDbGroup
300

 70
     1
 71
     1
  0
GROUP
  5
27333
102
{ACAD_REACTORS
330
D
102
}
330
D
100
AcDbGroup
300

 70
     1
 71
     1
  0
GROUP
  5
16069
102
{ACAD_REACTORS
330
D
102
}
330
D
100
AcDbGroup
300

 70
     1
 71
     1
  0
GROUP
  5
26E26
102
{ACAD_REACTORS
330
D
102
}
330
D
100
AcDbGroup
300

 70
     1
 71
     1
  0
GROUP
  5
18F20
102
{ACAD_REACTORS
330
D
102
}
330
D
100
AcDbGroup
300

 70
     1
 71
     1
  0
GROUP
  5
18F23
102
{ACAD_REACTORS
330
D
102
}
330
D
100
AcDbGroup
300

 70
     1
 71
     1
  0
GROUP
  5
27334
102
{ACAD_REACTORS
330
D
102
}
330
D
100
AcDbGroup
300

 70
     1
 71
     1
340
27141
340
27166
340
27165
340
27164
340
27163
340
27162
340
27161
340
27160
340
2715F
340
2715E
340
27145
340
27140
340
2715D
340
2715C
340
2715B
340
2715A
340
27159
340
27158
  0
GROUP
  5
1A691
102
{ACAD_REACTORS
330
D
102
}
330
D
100
AcDbGroup
300

 70
     1
 71
     1
  0
GROUP
  5
26096
102
{ACAD_REACTORS
330
D
102
}
330
D
100
AcDbGroup
300

 70
     1
 71
     1
  0
GROUP
  5
265C9
102
{ACAD_REACTORS
330
D
102
}
330
D
100
AcDbGroup
300

 70
     1
 71
     1
  0
GROUP
  5
25D97
102
{ACAD_REACTORS
330
D
102
}
330
D
100
AcDbGroup
300

 70
     1
 71
     1
  0
GROUP
  5
27336
102
{ACAD_REACTORS
330
D
102
}
330
D
100
AcDbGroup
300

 70
     1
 71
     1
  0
GROUP
  5
2629F
102
{ACAD_REACTORS
330
D
102
}
330
D
100
AcDbGroup
300

 70
     1
 71
     1
  0
GROUP
  5
252F5
102
{ACAD_REACTORS
330
D
102
}
330
D
100
AcDbGroup
300

 70
     1
 71
     1
  0
GROUP
  5
27338
102
{ACAD_REACTORS
330
D
102
}
330
D
100
AcDbGroup
300

 70
     1
 71
     1
  0
GROUP
  5
252EF
102
{ACAD_REACTORS
330
D
102
}
330
D
100
AcDbGroup
300

 70
     1
 71
     1
  0
GROUP
  5
265CB
102
{ACAD_REACTORS
330
D
102
}
330
D
100
AcDbGroup
300

 70
     1
 71
     1
  0
GROUP
  5
26B3D
102
{ACAD_REACTORS
330
D
102
}
330
D
100
AcDbGroup
300

 70
     1
 71
     1
  0
GROUP
  5
25D0B
102
{ACAD_REACTORS
330
D
102
}
330
D
100
AcDbGroup
300

 70
     1
 71
     1
  0
GROUP
  5
1606A
102
{ACAD_REACTORS
330
D
102
}
330
D
100
AcDbGroup
300

 70
     1
 71
     1
  0
GROUP
  5
2629D
102
{ACAD_REACTORS
330
D
102
}
330
D
100
AcDbGroup
300

 70
     1
 71
     1
  0
GROUP
  5
277FA
102
{ACAD_REACTORS
330
D
102
}
330
D
100
AcDbGroup
300

 70
     1
 71
     1
  0
GROUP
  5
26C8B
102
{ACAD_REACTORS
330
D
102
}
330
D
100
AcDbGroup
300

 70
     1
 71
     1
  0
GROUP
  5
1D6E8
102
{ACAD_REACTORS
330
D
102
}
330
D
100
AcDbGroup
300

 70
     1
 71
     1
  0
GROUP
  5
277FB
102
{ACAD_REACTORS
330
D
102
}
330
D
100
AcDbGroup
300

 70
     1
 71
     1
  0
GROUP
  5
265CE
102
{ACAD_REACTORS
330
D
102
}
330
D
100
AcDbGroup
300

 70
     1
 71
     1
  0
GROUP
  5
19A5A
102
{ACAD_REACTORS
330
D
102
}
330
D
100
AcDbGroup
300

 70
     1
 71
     1
  0
GROUP
  5
26E5E
102
{ACAD_REACTORS
330
D
102
}
330
D
100
AcDbGroup
300

 70
     1
 71
     1
  0
GROUP
  5
1D6CA
102
{ACAD_REACTORS
330
D
102
}
330
D
100
AcDbGroup
300

 70
     1
 71
     1
  0
GROUP
  5
277FC
102
{ACAD_REACTORS
330
D
102
}
330
D
100
AcDbGroup
300

 70
     1
 71
     1
  0
GROUP
  5
1D6D4
102
{ACAD_REACTORS
330
D
102
}
330
D
100
AcDbGroup
300

 70
     1
 71
     1
  0
GROUP
  5
277FD
102
{ACAD_REACTORS
330
D
102
}
330
D
100
AcDbGroup
300

 70
     1
 71
     1
  0
GROUP
  5
17389
102
{ACAD_REACTORS
330
D
102
}
330
D
100
AcDbGroup
300

 70
     1
 71
     1
  0
GROUP
  5
2629C
102
{ACAD_REACTORS
330
D
102
}
330
D
100
AcDbGroup
300

 70
     1
 71
     1
  0
GROUP
  5
27CB8
102
{ACAD_REACTORS
330
D
102
}
330
D
100
AcDbGroup
300

 70
     1
 71
     1
  0
GROUP
  5
1D710
102
{ACAD_REACTORS
330
D
102
}
330
D
100
AcDbGroup
300

 70
     1
 71
     1
  0
GROUP
  5
19729
102
{ACAD_REACTORS
330
D
102
}
330
D
100
AcDbGroup
300

 70
     1
 71
     1
  0
GROUP
  5
20022
102
{ACAD_REACTORS
330
D
102
}
330
D
100
AcDbGroup
300

 70
     1
 71
     1
  0
GROUP
  5
19F67
102
{ACAD_REACTORS
330
D
102
}
330
D
100
AcDbGroup
300

 70
     1
 71
     1
  0
GROUP
  5
27CB6
102
{ACAD_REACTORS
330
D
102
}
330
D
100
AcDbGroup
300

 70
     1
 71
     1
  0
GROUP
  5
1A695
102
{ACAD_REACTORS
330
D
102
}
330
D
100
AcDbGroup
300

 70
     1
 71
     1
  0
GROUP
  5
1B744
102
{ACAD_REACTORS
330
D
102
}
330
D
100
AcDbGroup
300

 70
     1
 71
     1
  0
GROUP
  5
25D0C
102
{ACAD_REACTORS
330
D
102
}
330
D
100
AcDbGroup
300

 70
     1
 71
     1
  0
GROUP
  5
25E10
102
{ACAD_REACTORS
330
D
102
}
330
D
100
AcDbGroup
300

 70
     1
 71
     1
  0
GROUP
  5
26090
102
{ACAD_REACTORS
330
D
102
}
330
D
100
AcDbGroup
300

 70
     1
 71
     1
  0
GROUP
  5
277FE
102
{ACAD_REACTORS
330
D
102
}
330
D
100
AcDbGroup
300

 70
     1
 71
     1
  0
GROUP
  5
277FF
102
{ACAD_REACTORS
330
D
102
}
330
D
100
AcDbGroup
300

 70
     1
 71
     1
  0
GROUP
  5
27800
102
{ACAD_REACTORS
330
D
102
}
330
D
100
AcDbGroup
300

 70
     1
 71
     1
  0
GROUP
  5
27801
102
{ACAD_REACTORS
330
D
102
}
330
D
100
AcDbGroup
300

 70
     1
 71
     1
  0
GROUP
  5
20019
102
{ACAD_REACTORS
330
D
102
}
330
D
100
AcDbGroup
300

 70
     1
 71
     1
  0
GROUP
  5
27802
102
{ACAD_REACTORS
330
D
102
}
330
D
100
AcDbGroup
300

 70
     1
 71
     1
  0
GROUP
  5
1EB7E
102
{ACAD_REACTORS
330
D
102
}
330
D
100
AcDbGroup
300

 70
     1
 71
     1
  0
GROUP
  5
1D6DE
102
{ACAD_REACTORS
330
D
102
}
330
D
100
AcDbGroup
300

 70
     1
 71
     1
  0
GROUP
  5
2537F
102
{ACAD_REACTORS
330
D
102
}
330
D
100
AcDbGroup
300

 70
     1
 71
     1
  0
GROUP
  5
27803
102
{ACAD_REACTORS
330
D
102
}
330
D
100
AcDbGroup
300

 70
     1
 71
     1
  0
GROUP
  5
2530D
102
{ACAD_REACTORS
330
D
102
}
330
D
100
AcDbGroup
300

 70
     1
 71
     1
  0
GROUP
  5
FBFF
102
{ACAD_REACTORS
330
D
102
}
330
D
100
AcDbGroup
300

 70
     1
 71
     1
  0
GROUP
  5
25367
102
{ACAD_REACTORS
330
D
102
}
330
D
100
AcDbGroup
300

 70
     1
 71
     1
  0
GROUP
  5
20028
102
{ACAD_REACTORS
330
D
102
}
330
D
100
AcDbGroup
300

 70
     1
 71
     1
  0
GROUP
  5
27CB7
102
{ACAD_REACTORS
330
D
102
}
330
D
100
AcDbGroup
300

 70
     1
 71
     1
  0
GROUP
  5
18FA7
102
{ACAD_REACTORS
330
D
102
}
330
D
100
AcDbGroup
300

 70
     1
 71
     1
  0
GROUP
  5
1A09A
102
{ACAD_REACTORS
330
D
102
}
330
D
100
AcDbGroup
300

 70
     1
 71
     1
  0
GROUP
  5
2533D
102
{ACAD_REACTORS
330
D
102
}
330
D
100
AcDbGroup
300

 70
     1
 71
     1
  0
GROUP
  5
27804
102
{ACAD_REACTORS
330
D
102
}
330
D
100
AcDbGroup
300

 70
     1
 71
     1
  0
GROUP
  5
1F904
102
{ACAD_REACTORS
330
D
102
}
330
D
100
AcDbGroup
300

 70
     1
 71
     1
  0
GROUP
  5
25385
102
{ACAD_REACTORS
330
D
102
}
330
D
100
AcDbGroup
300

 70
     1
 71
     1
  0
GROUP
  5
1F8F5
102
{ACAD_REACTORS
330
D
102
}
330
D
100
AcDbGroup
300

 70
     1
 71
     1
  0
GROUP
  5
19988
102
{ACAD_REACTORS
330
D
102
}
330
D
100
AcDbGroup
300

 70
     1
 71
     1
  0
GROUP
  5
27CB3
102
{ACAD_REACTORS
330
D
102
}
330
D
100
AcDbGroup
300

 70
     1
 71
     1
  0
GROUP
  5
2534F
102
{ACAD_REACTORS
330
D
102
}
330
D
100
AcDbGroup
300

 70
     1
 71
     1
  0
GROUP
  5
FC95
102
{ACAD_REACTORS
330
D
102
}
330
D
100
AcDbGroup
300

 70
     1
 71
     1
  0
GROUP
  5
1738B
102
{ACAD_REACTORS
330
D
102
}
330
D
100
AcDbGroup
300

 70
     1
 71
     1
  0
GROUP
  5
1F8F0
102
{ACAD_REACTORS
330
D
102
}
330
D
100
AcDbGroup
300

 70
     1
 71
     1
  0
GROUP
  5
1F909
102
{ACAD_REACTORS
330
D
102
}
330
D
100
AcDbGroup
300

 70
     1
 71
     1
  0
GROUP
  5
106C7
102
{ACAD_REACTORS
330
D
102
}
330
D
100
AcDbGroup
300

 70
     1
 71
     1
  0
GROUP
  5
26C06
102
{ACAD_REACTORS
330
D
102
}
330
D
100
AcDbGroup
300

 70
     1
 71
     1
  0
GROUP
  5
FC91
102
{ACAD_REACTORS
330
D
102
}
330
D
100
AcDbGroup
300

 70
     1
 71
     1
  0
GROUP
  5
ACB4
102
{ACAD_REACTORS
330
D
102
}
330
D
100
AcDbGroup
300

 70
     1
 71
     1
  0
GROUP
  5
1D6A2
102
{ACAD_REACTORS
330
D
102
}
330
D
100
AcDbGroup
300

 70
     1
 71
     1
  0
GROUP
  5
2538B
102
{ACAD_REACTORS
330
D
102
}
330
D
100
AcDbGroup
300

 70
     1
 71
     1
  0
GROUP
  5
1A692
102
{ACAD_REACTORS
330
D
102
}
330
D
100
AcDbGroup
300

 70
     1
 71
     1
  0
GROUP
  5
27CB1
102
{ACAD_REACTORS
330
D
102
}
330
D
100
AcDbGroup
300

 70
     1
 71
     1
  0
GROUP
  5
20010
102
{ACAD_REACTORS
330
D
102
}
330
D
100
AcDbGroup
300

 70
     1
 71
     1
  0
GROUP
  5
1EB7F
102
{ACAD_REACTORS
330
D
102
}
330
D
100
AcDbGroup
300

 70
     1
 71
     1
  0
GROUP
  5
25E13
102
{ACAD_REACTORS
330
D
102
}
330
D
100
AcDbGroup
300

 70
     1
 71
     1
  0
GROUP
  5
27CBA
102
{ACAD_REACTORS
330
D
102
}
330
D
100
AcDbGroup
300

 70
     1
 71
     1
  0
GROUP
  5
20236
102
{ACAD_REACTORS
330
D
102
}
330
D
100
AcDbGroup
300

 70
     1
 71
     1
  0
GROUP
  5
26E22
102
{ACAD_REACTORS
330
D
102
}
330
D
100
AcDbGroup
300

 70
     1
 71
     1
  0
GROUP
  5
17901
102
{ACAD_REACTORS
330
D
102
}
330
D
100
AcDbGroup
300

 70
     1
 71
     1
  0
GROUP
  5
26092
102
{ACAD_REACTORS
330
D
102
}
330
D
100
AcDbGroup
300

 70
     1
 71
     1
  0
GROUP
  5
ACAB
102
{ACAD_REACTORS
330
D
102
}
330
D
100
AcDbGroup
300

 70
     1
 71
     1
  0
GROUP
  5
26091
102
{ACAD_REACTORS
330
D
102
}
330
D
100
AcDbGroup
300

 70
     1
 71
     1
  0
GROUP
  5
1B74D
102
{ACAD_REACTORS
330
D
102
}
330
D
100
AcDbGroup
300

 70
     1
 71
     1
  0
GROUP
  5
17BFF
102
{ACAD_REACTORS
330
D
102
}
330
D
100
AcDbGroup
300

 70
     1
 71
     1
  0
GROUP
  5
27CB4
102
{ACAD_REACTORS
330
D
102
}
330
D
100
AcDbGroup
300

 70
     1
 71
     1
  0
GROUP
  5
252E3
102
{ACAD_REACTORS
330
D
102
}
330
D
100
AcDbGroup
300

 70
     1
 71
     1
  0
GROUP
  5
1998A
102
{ACAD_REACTORS
330
D
102
}
330
D
100
AcDbGroup
300

 70
     1
 71
     1
  0
GROUP
  5
20016
102
{ACAD_REACTORS
330
D
102
}
330
D
100
AcDbGroup
300

 70
     1
 71
     1
  0
GROUP
  5
1B729
102
{ACAD_REACTORS
330
D
102
}
330
D
100
AcDbGroup
300

 70
     1
 71
     1
  0
GROUP
  5
265C8
102
{ACAD_REACTORS
330
D
102
}
330
D
100
AcDbGroup
300

 70
     1
 71
     1
  0
GROUP
  5
1D6FC
102
{ACAD_REACTORS
330
D
102
}
330
D
100
AcDbGroup
300

 70
     1
 71
     1
  0
GROUP
  5
27CB2
102
{ACAD_REACTORS
330
D
102
}
330
D
100
AcDbGroup
300

 70
     1
 71
     1
  0
GROUP
  5
18FA6
102
{ACAD_REACTORS
330
D
102
}
330
D
100
AcDbGroup
300

 70
     1
 71
     1
  0
GROUP
  5
20227
102
{ACAD_REACTORS
330
D
102
}
330
D
100
AcDbGroup
300

 70
     1
 71
     1
  0
GROUP
  5
1D684
102
{ACAD_REACTORS
330
D
102
}
330
D
100
AcDbGroup
300

 70
     1
 71
     1
  0
GROUP
  5
19861
102
{ACAD_REACTORS
330
D
102
}
330
D
100
AcDbGroup
300

 70
     1
 71
     1
  0
GROUP
  5
27806
102
{ACAD_REACTORS
330
D
102
}
330
D
100
AcDbGroup
300

 70
     1
 71
     1
  0
GROUP
  5
19F55
102
{ACAD_REACTORS
330
D
102
}
330
D
100
AcDbGroup
300

 70
     1
 71
     1
  0
GROUP
  5
24D3F
102
{ACAD_REACTORS
330
D
102
}
330
D
100
AcDbGroup
300

 70
     1
 71
     1
  0
GROUP
  5
1F8FA
102
{ACAD_REACTORS
330
D
102
}
330
D
100
AcDbGroup
300

 70
     1
 71
     1
  0
GROUP
  5
25307
102
{ACAD_REACTORS
330
D
102
}
330
D
100
AcDbGroup
300

 70
     1
 71
     1
  0
GROUP
  5
1D6B6
102
{ACAD_REACTORS
330
D
102
}
330
D
100
AcDbGroup
300

 70
     1
 71
     1
  0
GROUP
  5
25325
102
{ACAD_REACTORS
330
D
102
}
330
D
100
AcDbGroup
300

 70
     1
 71
     1
  0
GROUP
  5
198F1
102
{ACAD_REACTORS
330
D
102
}
330
D
100
AcDbGroup
300

 70
     1
 71
     1
  0
GROUP
  5
1D6AC
102
{ACAD_REACTORS
330
D
102
}
330
D
100
AcDbGroup
300

 70
     1
 71
     1
  0
GROUP
  5
18F22
102
{ACAD_REACTORS
330
D
102
}
330
D
100
AcDbGroup
300

 70
     1
 71
     1
  0
GROUP
  5
1D698
102
{ACAD_REACTORS
330
D
102
}
330
D
100
AcDbGroup
300

 70
     1
 71
     1
  0
GROUP
  5
20218
102
{ACAD_REACTORS
330
D
102
}
330
D
100
AcDbGroup
300

 70
     1
 71
     1
  0
GROUP
  5
1F8FF
102
{ACAD_REACTORS
330
D
102
}
330
D
100
AcDbGroup
300

 70
     1
 71
     1
  0
GROUP
  5
2002B
102
{ACAD_REACTORS
330
D
102
}
330
D
100
AcDbGroup
300

 70
     1
 71
     1
  0
GROUP
  5
ACA1
102
{ACAD_REACTORS
330
D
102
}
330
D
100
AcDbGroup
300

 70
     1
 71
     1
  0
GROUP
  5
19259
102
{ACAD_REACTORS
330
D
102
}
330
D
100
AcDbGroup
300

 70
     1
 71
     1
  0
GROUP
  5
27CAF
102
{ACAD_REACTORS
330
D
102
}
330
D
100
AcDbGroup
300

 70
     1
 71
     1
  0
GROUP
  5
2021D
102
{ACAD_REACTORS
330
D
102
}
330
D
100
AcDbGroup
300

 70
     1
 71
     1
  0
GROUP
  5
27CB5
102
{ACAD_REACTORS
330
D
102
}
330
D
100
AcDbGroup
300

 70
     1
 71
     1
  0
GROUP
  5
27D88
102
{ACAD_REACTORS
330
D
102
}
330
D
100
AcDbGroup
300

 70
     1
 71
     1
  0
GROUP
  5
19F99
102
{ACAD_REACTORS
330
D
102
}
330
D
100
AcDbGroup
300

 70
     1
 71
     1
  0
GROUP
  5
19794
102
{ACAD_REACTORS
330
D
102
}
330
D
100
AcDbGroup
300

 70
     1
 71
     1
  0
GROUP
  5
FC9B
102
{ACAD_REACTORS
330
D
102
}
330
D
100
AcDbGroup
300

 70
     1
 71
     1
  0
GROUP
  5
1D6F2
102
{ACAD_REACTORS
330
D
102
}
330
D
100
AcDbGroup
300

 70
     1
 71
     1
  0
GROUP
  5
252E9
102
{ACAD_REACTORS
330
D
102
}
330
D
100
AcDbGroup
300

 70
     1
 71
     1
  0
GROUP
  5
196C2
102
{ACAD_REACTORS
330
D
102
}
330
D
100
AcDbGroup
300

 70
     1
 71
     1
  0
GROUP
  5
25349
102
{ACAD_REACTORS
330
D
102
}
330
D
100
AcDbGroup
300

 70
     1
 71
     1
  0
GROUP
  5
26E5F
102
{ACAD_REACTORS
330
D
102
}
330
D
100
AcDbGroup
300

 70
     1
 71
     1
  0
GROUP
  5
FC9A
102
{ACAD_REACTORS
330
D
102
}
330
D
100
AcDbGroup
300

 70
     1
 71
     1
  0
GROUP
  5
265CD
102
{ACAD_REACTORS
330
D
102
}
330
D
100
AcDbGroup
300

 70
     1
 71
     1
  0
GROUP
  5
25319
102
{ACAD_REACTORS
330
D
102
}
330
D
100
AcDbGroup
300

 70
     1
 71
     1
  0
GROUP
  5
26E23
102
{ACAD_REACTORS
330
D
102
}
330
D
100
AcDbGroup
300

 70
     1
 71
     1
  0
GROUP
  5
19A51
102
{ACAD_REACTORS
330
D
102
}
330
D
100
AcDbGroup
300

 70
     1
 71
     1
  0
GROUP
  5
2629B
102
{ACAD_REACTORS
330
D
102
}
330
D
100
AcDbGroup
300

 70
     1
 71
     1
  0
GROUP
  5
FB6C
102
{ACAD_REACTORS
330
D
102
}
330
D
100
AcDbGroup
300

 70
     1
 71
     1
  0
GROUP
  5
26C07
102
{ACAD_REACTORS
330
D
102
}
330
D
100
AcDbGroup
300

 70
     1
 71
     1
  0
GROUP
  5
19256
102
{ACAD_REACTORS
330
D
102
}
330
D
100
AcDbGroup
300

 70
     1
 71
     1
  0
MLINESTYLE
  5
1C
102
{ACAD_REACTORS
330
1B
102
}
330
1B
100
AcDbMlineStyle
  2
STANDARD
 70
     0
  3

 62
   256
 51
90.0
 52
90.0
 71
     2
 49
0.5
 62
   256
  6
BYLAYER
 49
-0.5
 62
   256
  6
BYLAYER
  0
ACDBPLACEHOLDER
  5
FB5C
102
{ACAD_REACTORS
330
FB5B
102
}
330
FB5B
100
AcDbPlaceHolder
280
     0
  0
XRECORD
  5
28772
102
{ACAD_REACTORS
330
28768
102
}
330
28768
100
AcDbXrecord
 90
        0
  0
XRECORD
  5
28776
102
{ACAD_REACTORS
330
28768
102
}
330
28768
100
AcDbXrecord
1000
DSTYLE
1002
{
1070
   289
 70
     1
1070
   341
340
1215D
1070
   342
340
1215D
1070
   371
 70
    13
1070
   372
 70
    13
1002
}
  0
XRECORD
  5
28773
102
{ACAD_REACTORS
330
28768
102
}
330
28768
100
AcDbXrecord
  1
{D14EE3FF-941A-415A-9907-344E0A80D794}
  0
XRECORD
  5
2876B
102
{ACAD_REACTORS
330
28768
102
}
330
28768
100
AcDbXrecord
  1

  0
XRECORD
  5
28771
102
{ACAD_REACTORS
330
28768
102
}
330
28768
100
AcDbXrecord
 90
        0
  0
XRECORD
  5
2876D
102
{ACAD_REACTORS
330
28768
102
}
330
28768
100
AcDbXrecord
340
DB2
  0
XRECORD
  5
28770
102
{ACAD_REACTORS
330
28768
102
}
330
28768
100
AcDbXrecord
 90
    10781
  0
XRECORD
  5
2876E
102
{ACAD_REACTORS
330
28768
102
}
330
28768
100
AcDbXrecord
340
DB3
  0
XRECORD
  5
2876F
102
{ACAD_REACTORS
330
28768
102
}
330
28768
100
AcDbXrecord
340
FB5B
  0
XRECORD
  5
28775
102
{ACAD_REACTORS
330
28768
102
}
330
28768
100
AcDbXrecord
 40
0.0
  0
XRECORD
  5
28779
102
{ACAD_REACTORS
330
28768
102
}
330
28768
100
AcDbXrecord
340
0
  0
XRECORD
  5
2877F
102
{ACAD_REACTORS
330
28768
102
}
330
28768
100
AcDbXrecord
 10
0.0
 20
0.0
 30
0.0
  0
XRECORD
  5
2877B
102
{ACAD_REACTORS
330
28768
102
}
330
28768
100
AcDbXrecord
 10
0.0
 20
0.0
 30
0.0
  0
XRECORD
  5
2877E
102
{ACAD_REACTORS
330
28768
102
}
330
28768
100
AcDbXrecord
 10
0.0
 20
0.0
 30
0.0
  0
XRECORD
  5
2877C
102
{ACAD_REACTORS
330
28768
102
}
330
28768
100
AcDbXrecord
 10
0.0
 20
0.0
 30
0.0
  0
XRECORD
  5
2877D
102
{ACAD_REACTORS
330
28768
102
}
330
28768
100
AcDbXrecord
 10
0.0
 20
0.0
 30
0.0
  0
XRECORD
  5
2877A
102
{ACAD_REACTORS
330
28768
102
}
330
28768
100
AcDbXrecord
 10
0.0
 20
0.0
 30
0.0
  0
XRECORD
  5
28777
102
{ACAD_REACTORS
330
28768
102
}
330
28768
100
AcDbXrecord
340
0
  0
XRECORD
  5
28778
102
{ACAD_REACTORS
330
28768
102
}
330
28768
100
AcDbXrecord
 70
     0
  0
XRECORD
  5
2876C
102
{ACAD_REACTORS
330
28768
102
}
330
28768
100
AcDbXrecord
  1
MONOCHROME.CTB
  0
XRECORD
  5
28769
102
{ACAD_REACTORS
330
28768
102
}
330
28768
100
AcDbXrecord
 90
        1
  0
XRECORD
  5
2876A
102
{ACAD_REACTORS
330
28768
102
}
330
28768
100
AcDbXrecord
 90
       70
  0
XRECORD
  5
28782
102
{ACAD_REACTORS
330
28768
102
}
330
28768
100
AcDbXrecord
340
0
  0
XRECORD
  5
28788
102
{ACAD_REACTORS
330
28768
102
}
330
28768
100
AcDbXrecord
 10
0.0
 20
0.0
 30
0.0
  0
XRECORD
  5
28784
102
{ACAD_REACTORS
330
28768
102
}
330
28768
100
AcDbXrecord
 10
0.0
 20
0.0
 30
0.0
  0
XRECORD
  5
28787
102
{ACAD_REACTORS
330
28768
102
}
330
28768
100
AcDbXrecord
 10
0.0
 20
0.0
 30
0.0
  0
XRECORD
  5
28785
102
{ACAD_REACTORS
330
28768
102
}
330
28768
100
AcDbXrecord
 10
0.0
 20
0.0
 30
0.0
  0
XRECORD
  5
28786
102
{ACAD_REACTORS
330
28768
102
}
330
28768
100
AcDbXrecord
 10
0.0
 20
0.0
 30
0.0
  0
XRECORD
  5
28783
102
{ACAD_REACTORS
330
28768
102
}
330
28768
100
AcDbXrecord
 10
0.0
 20
0.0
 30
0.0
  0
XRECORD
  5
28780
102
{ACAD_REACTORS
330
28768
102
}
330
28768
100
AcDbXrecord
340
0
  0
XRECORD
  5
28781
102
{ACAD_REACTORS
330
28768
102
}
330
28768
100
AcDbXrecord
 70
     0
  0
XRECORD
  5
28774
102
{ACAD_REACTORS
330
28768
102
}
330
28768
100
AcDbXrecord
  1
{24DFA5A2-3A23-4885-863F-974681B175FB}
  0
DICTIONARYVAR
  5
106A7
102
{ACAD_REACTORS
330
106A6
102
}
330
106A6
100
DictionaryVariables
280
     0
  1
96
  0
XRECORD
  5
1A9A1
102
{ACAD_REACTORS
330
1A99F
102
}
330
1A99F
100
AcDbXrecord
330
187D7
330
0
330
0
330
0
330
0
330
0
330
0
330
0
330
0
330
0
330
79
330
115F
330
0
330
0
330
0
330
0
330
0
330
0
330
0
330
0
330
0
330
0
330
0
330
0
330
0
330
0
330
0
330
0
330
0
330
0
330
0
330
0
330
0
330
0
330
0
330
0
330
0
330
0
330
0
330
0
330
0
330
0
330
0
330
0
  0
XRECORD
  5
284AA
102
{ACAD_REACTORS
330
284A9
102
}
330
284A9
100
AcDbXrecord
  1
0
  1
*0
  1
*
  1
*
 70
     0
  1
*
  1
*
  0
XRECORD
  5
284AB
102
{ACAD_REACTORS
330
284A9
102
}
330
284A9
100
AcDbXrecord
  1
11
  1
*11
  1
*
  1
*
 70
     0
  1
*
  1
*
  0
XRECORD
  5
284AC
102
{ACAD_REACTORS
330
284A9
102
}
330
284A9
100
AcDbXrecord
  1
150_
  1
150_*
  1
*
  1
*
 70
     0
  1
*
  1
*
  0
XRECORD
  5
284AD
102
{ACAD_REACTORS
330
284A9
102
}
330
284A9
100
AcDbXrecord
  1
160_
  1
160_*
  1
*
  1
*
 70
     0
  1
*
  1
*
  0
XRECORD
  5
284AE
102
{ACAD_REACTORS
330
284A9
102
}
330
284A9
100
AcDbXrecord
  1
170_
  1
170_*
  1
*
  1
*
 70
     0
  1
*
  1
*
  0
XRECORD
  5
284AF
102
{ACAD_REACTORS
330
284A9
102
}
330
284A9
100
AcDbXrecord
  1
171_
  1
171_*
  1
*
  1
*
 70
     0
  1
*
  1
*
  0
XRECORD
  5
284B0
102
{ACAD_REACTORS
330
284A9
102
}
330
284A9
100
AcDbXrecord
  1
350_
  1
350_*
  1
*
  1
*
 70
     0
  1
*
  1
*
  0
XRECORD
  5
284B1
102
{ACAD_REACTORS
330
284A9
102
}
330
284A9
100
AcDbXrecord
  1
4
  1
*4
  1
*
  1
*
 70
     0
  1
*
  1
*
  0
XRECORD
  5
284B2
102
{ACAD_REACTORS
330
284A9
102
}
330
284A9
100
AcDbXrecord
  1
5
  1
*5
  1
*
  1
*
 70
     0
  1
*
  1
*
  0
XRECORD
  5
284B3
102
{ACAD_REACTORS
330
284A9
102
}
330
284A9
100
AcDbXrecord
  1
7
  1
*7
  1
*
  1
*
 70
     0
  1
*
  1
*
  0
XRECORD
  5
284B4
102
{ACAD_REACTORS
330
284A9
102
}
330
284A9
100
AcDbXrecord
  1
kiseki
  1
kiseki*
  1
*
  1
*
 70
     0
  1
*
  1
*
  0
ENDSEC
  0
EOF
