  0
SECTION
  2
HEADER
  9
$ACADVER
  1
AC1014
  9
$ACADMAINTVER
 70
     9
  9
$DWGCODEPAGE
  3
ANSI_932
  9
$INSBASE
 10
0.0
 20
0.0
 30
0.0
  9
$EXTMIN
 10
527.6359208489849
 20
-2700.735877685328
 30
0.0
  9
$EXTMAX
 10
1414.705048150425
 20
-2508.02674934043
 30
0.0
  9
$LIMMIN
 10
0.0
 20
0.0
  9
$LIMMAX
 10
420.0
 20
297.0
  9
$ORTHOMODE
 70
     0
  9
$REGENMODE
 70
     1
  9
$FILLMODE
 70
     1
  9
$QTEXTMODE
 70
     0
  9
$MIRRTEXT
 70
     0
  9
$DRAGMODE
 70
     2
  9
$LTSCALE
 40
20.0
  9
$OSMODE
 70
   959
  9
$ATTMODE
 70
     2
  9
$TEXTSIZE
 40
10.0
  9
$TRACEWID
 40
1.0
  9
$TEXTSTYLE
  7
ｽﾀｲﾙ3
  9
$CLAYER
  8
DIMENSION
  9
$CELTYPE
  6
BYLAYER
  9
$CECOLOR
 62
   256
  9
$CELTSCALE
 40
1.0
  9
$DELOBJ
 70
     1
  9
$DISPSILH
 70
     0
  9
$DIMSCALE
 40
2.5
  9
$DIMASZ
 40
2.5
  9
$DIMEXO
 40
0.8
  9
$DIMDLI
 40
0.38
  9
$DIMRND
 40
0.0
  9
$DIMDLE
 40
0.0
  9
$DIMEXE
 40
0.18
  9
$DIMTP
 40
0.0
  9
$DIMTM
 40
0.0
  9
$DIMTXT
 40
3.0
  9
$DIMCEN
 40
0.0
  9
$DIMTSZ
 40
0.0
  9
$DIMTOL
 70
     0
  9
$DIMLIM
 70
     0
  9
$DIMTIH
 70
     0
  9
$DIMTOH
 70
     0
  9
$DIMSE1
 70
     0
  9
$DIMSE2
 70
     0
  9
$DIMTAD
 70
     3
  9
$DIMZIN
 70
     8
  9
$DIMBLK
  1
OPEN30
  9
$DIMASO
 70
     1
  9
$DIMSHO
 70
     1
  9
$DIMPOST
  1

  9
$DIMAPOST
  1

  9
$DIMALT
 70
     0
  9
$DIMALTD
 70
     2
  9
$DIMALTF
 40
25.4
  9
$DIMLFAC
 40
1.0
  9
$DIMTOFL
 70
     0
  9
$DIMTVP
 40
0.0
  9
$DIMTIX
 70
     0
  9
$DIMSOXD
 70
     0
  9
$DIMSAH
 70
     0
  9
$DIMBLK1
  1

  9
$DIMBLK2
  1

  9
$DIMSTYLE
  2
まこ
  9
$DIMCLRD
 70
     4
  9
$DIMCLRE
 70
     4
  9
$DIMCLRT
 70
   256
  9
$DIMTFAC
 40
1.0
  9
$DIMGAP
 40
0.5
  9
$DIMJUST
 70
     0
  9
$DIMSD1
 70
     0
  9
$DIMSD2
 70
     0
  9
$DIMTOLJ
 70
     1
  9
$DIMTZIN
 70
     0
  9
$DIMALTZ
 70
     0
  9
$DIMALTTZ
 70
     0
  9
$DIMFIT
 70
     1
  9
$DIMUPT
 70
     0
  9
$DIMUNIT
 70
     2
  9
$DIMDEC
 70
     8
  9
$DIMTDEC
 70
     8
  9
$DIMALTU
 70
     2
  9
$DIMALTTD
 70
     2
  9
$DIMTXSTY
  7
まこ
  9
$DIMAUNIT
 70
     0
  9
$LUNITS
 70
     2
  9
$LUPREC
 70
     4
  9
$SKETCHINC
 40
1.0
  9
$FILLETRAD
 40
2.0
  9
$AUNITS
 70
     0
  9
$AUPREC
 70
     0
  9
$MENU
  1
.
  9
$ELEVATION
 40
0.0
  9
$PELEVATION
 40
0.0
  9
$THICKNESS
 40
0.0
  9
$LIMCHECK
 70
     0
  9
$BLIPMODE
 70
     0
  9
$CHAMFERA
 40
0.5
  9
$CHAMFERB
 40
0.5
  9
$CHAMFERC
 40
20.0
  9
$CHAMFERD
 40
0.0
  9
$SKPOLY
 70
     0
  9
$TDCREATE
 40
2451224.660162384
  9
$TDUPDATE
 40
2455601.362613021
  9
$TDINDWG
 40
16.4805885185
  9
$TDUSRTIMER
 40
16.4805881597
  9
$USRTIMER
 70
     1
  9
$ANGBASE
 50
0.0
  9
$ANGDIR
 70
     0
  9
$PDMODE
 70
     0
  9
$PDSIZE
 40
0.0
  9
$PLINEWID
 40
0.0
  9
$COORDS
 70
     1
  9
$SPLFRAME
 70
     0
  9
$SPLINETYPE
 70
     6
  9
$SPLINESEGS
 70
     8
  9
$ATTDIA
 70
     0
  9
$ATTREQ
 70
     1
  9
$HANDLING
 70
-16383
  9
$HANDSEED
  5
2557D
  9
$SURFTAB1
 70
     6
  9
$SURFTAB2
 70
     6
  9
$SURFTYPE
 70
     6
  9
$SURFU
 70
     6
  9
$SURFV
 70
     6
  9
$UCSNAME
  2

  9
$UCSORG
 10
0.0
 20
0.0
 30
0.0
  9
$UCSXDIR
 10
1.0
 20
0.0
 30
0.0
  9
$UCSYDIR
 10
0.0
 20
1.0
 30
0.0
  9
$PUCSNAME
  2

  9
$PUCSORG
 10
0.0
 20
0.0
 30
0.0
  9
$PUCSXDIR
 10
1.0
 20
0.0
 30
0.0
  9
$PUCSYDIR
 10
0.0
 20
1.0
 30
0.0
  9
$USERI1
 70
     0
  9
$USERI2
 70
     0
  9
$USERI3
 70
     0
  9
$USERI4
 70
     0
  9
$USERI5
 70
     0
  9
$USERR1
 40
245.9999999999999
  9
$USERR2
 40
0.0
  9
$USERR3
 40
0.0
  9
$USERR4
 40
0.0
  9
$USERR5
 40
0.0
  9
$WORLDVIEW
 70
     1
  9
$SHADEDGE
 70
     3
  9
$SHADEDIF
 70
    70
  9
$TILEMODE
 70
     0
  9
$MAXACTVP
 70
    48
  9
$PINSBASE
 10
0.0
 20
0.0
 30
0.0
  9
$PLIMCHECK
 70
     0
  9
$PEXTMIN
 10
-0.0212474585570135
 20
-0.0041302228551103
 30
-0.0015258207003583
  9
$PEXTMAX
 10
400.0021191316862
 20
288.0118771597103
 30
0.0000000349246037
  9
$PLIMMIN
 10
-5.152928678453103
 20
-1.90387784823362
  9
$PLIMMAX
 10
411.0720670204318
 20
292.4266548245493
  9
$UNITMODE
 70
     0
  9
$VISRETAIN
 70
     1
  9
$PLINEGEN
 70
     0
  9
$PSLTSCALE
 70
     0
  9
$TREEDEPTH
 70
  3020
  9
$PICKSTYLE
 70
     0
  9
$CMLSTYLE
  2
STANDARD
  9
$CMLJUST
 70
     0
  9
$CMLSCALE
 40
20.0
  9
$PROXYGRAPHICS
 70
     1
  9
$MEASUREMENT
 70
     0
  0
ENDSEC
  0
SECTION
  2
CLASSES
  0
CLASS
  1
HATCH
  2
AcDbHatch
  3
AutoCAD 2000
 90
        0
280
     0
281
     1
  0
CLASS
  1
LWPOLYLINE
  2
AcDbPolyline
  3
AutoCAD 2000
 90
        0
280
     0
281
     1
  0
CLASS
  1
ACDBDICTIONARYWDFLT
  2
AcDbDictionaryWithDefault
  3
AutoCAD 2000
 90
        0
280
     0
281
     0
  0
CLASS
  1
ACDBPLACEHOLDER
  2
AcDbPlaceHolder
  3
AutoCAD 2000
 90
        0
280
     0
281
     0
  0
CLASS
  1
LAYOUT
  2
AcDbLayout
  3
AutoCAD 2000
 90
        0
280
     0
281
     0
  0
CLASS
  1
LONG_TRANSACTION
  2
AcDbLongTransaction
  3
AutoCAD 2000
 90
        0
280
     0
281
     0
  0
CLASS
  1
LWPOLYLINE
  2
AcDbPolyline
  3
AutoCAD 2000
 90
        0
280
     0
281
     1
  0
CLASS
  1
HATCH
  2
AcDbHatch
  3
AutoCAD 2000
 90
        0
280
     0
281
     1
  0
CLASS
  1
XRECORD
  2
AcDbXrecord
  3
AutoCAD 2000
 90
        0
280
     0
281
     0
  0
CLASS
  1
DICTIONARYVAR
  2
AcDbDictionaryVar
  3
AutoCAD 2000
 90
        0
280
     0
281
     0
  0
CLASS
  1
LONG_TRANSACTION
  2
AcDbLongTransaction
  3
AutoCAD 2000
 90
        0
280
     0
281
     0
  0
CLASS
  1
LWPOLYLINE
  2
AcDbPolyline
  3
AutoCAD 2000
 90
        0
280
     0
281
     1
  0
CLASS
  1
HATCH
  2
AcDbHatch
  3
AutoCAD 2000
 90
        0
280
     0
281
     1
  0
CLASS
  1
XRECORD
  2
AcDbXrecord
  3
AutoCAD 2000
 90
        0
280
     0
281
     0
  0
ENDSEC
  0
SECTION
  2
TABLES
  0
TABLE
  2
VPORT
  5
8
330
0
100
AcDbSymbolTable
 70
     2
  0
VPORT
  5
25559
330
8
100
AcDbSymbolTableRecord
100
AcDbViewportTableRecord
  2
*ACTIVE
 70
     0
 10
0.0
 20
0.0
 11
1.0
 21
1.0
 12
971.156928119147
 22
-2604.400651259465
 13
0.0
 23
0.0
 14
10.0
 24
10.0
 15
10.0
 25
10.0
 16
0.0
 26
0.0
 36
1.0
 17
0.0
 27
0.0
 37
0.0
 40
407.3770119791348
 41
2.184834123222748
 42
50.0
 43
0.0
 44
0.0
 50
0.0
 51
0.0
 71
     0
 72
   100
 73
     1
 74
     0
 75
     0
 76
     0
 77
     0
 78
     0
  0
ENDTAB
  0
TABLE
  2
LTYPE
  5
5
330
0
100
AcDbSymbolTable
 70
     5
  0
LTYPE
  5
12
330
5
100
AcDbSymbolTableRecord
100
AcDbLinetypeTableRecord
  2
BYBLOCK
 70
     0
  3

 72
    65
 73
     0
 40
0.0
  0
LTYPE
  5
13
330
5
100
AcDbSymbolTableRecord
100
AcDbLinetypeTableRecord
  2
BYLAYER
 70
     0
  3

 72
    65
 73
     0
 40
0.0
  0
LTYPE
  5
14
330
5
100
AcDbSymbolTableRecord
100
AcDbLinetypeTableRecord
  2
CONTINUOUS
 70
     0
  3
Solid line
 72
    65
 73
     0
 40
0.0
  0
LTYPE
  5
126C
330
5
100
AcDbSymbolTableRecord
100
AcDbLinetypeTableRecord
  2
CENTER
 70
     0
  3
____ _ ____ _ ____ _ ____ _ ____ _ ____ _ ____
 72
    65
 73
     4
 40
2.0
 49
1.25
 74
     0
 49
-0.25
 74
     0
 49
0.25
 74
     0
 49
-0.25
 74
     0
  0
LTYPE
  5
126E
330
5
100
AcDbSymbolTableRecord
100
AcDbLinetypeTableRecord
  2
DASHDOT
 70
     0
  3
__ . __ . __ . __ . __ . __ . __ . __ . __ . __
 72
    65
 73
     4
 40
1.0
 49
0.5
 74
     0
 49
-0.25
 74
     0
 49
0.0
 74
     0
 49
-0.25
 74
     0
  0
LTYPE
  5
1541F
330
5
100
AcDbSymbolTableRecord
100
AcDbLinetypeTableRecord
  2
HIDDEN
 70
     0
  3
_ _ _ _ _ _ _ _ _ _ _ _ _ _ _ _ _ _ _ _ _ _ _
 72
    65
 73
     2
 40
0.375
 49
0.25
 74
     0
 49
-0.125
 74
     0
  0
LTYPE
  5
1615D
330
5
100
AcDbSymbolTableRecord
100
AcDbLinetypeTableRecord
  2
PHANTOM
 70
     0
  3
Phantom ______  __  __  ______  __  __  ______
 72
    65
 73
     6
 40
2.5
 49
1.25
 74
     0
 49
-0.25
 74
     0
 49
0.25
 74
     0
 49
-0.25
 74
     0
 49
0.25
 74
     0
 49
-0.25
 74
     0
  0
ENDTAB
  0
TABLE
  2
LAYER
  5
2
102
{ACAD_XDICTIONARY
360
25419
102
}
330
0
100
AcDbSymbolTable
 70
    12
  0
LAYER
  5
E
330
2
100
AcDbSymbolTableRecord
100
AcDbLayerTableRecord
  2
0
 70
     2
 62
     7
  6
CONTINUOUS
  0
LAYER
  5
2C
330
2
100
AcDbSymbolTableRecord
100
AcDbLayerTableRecord
  2
M_VIEW
 70
     4
 62
    -1
  6
CONTINUOUS
  0
LAYER
  5
30
330
2
100
AcDbSymbolTableRecord
100
AcDbLayerTableRecord
  2
FRAME025
 70
     0
 62
     7
  6
CONTINUOUS
  0
LAYER
  5
12B
330
2
100
AcDbSymbolTableRecord
100
AcDbLayerTableRecord
  2
DEFPOINTS
 70
     4
 62
    -7
  6
CONTINUOUS
  0
LAYER
  5
651
330
2
100
AcDbSymbolTableRecord
100
AcDbLayerTableRecord
  2
FRAME020
 70
     0
 62
     7
  6
CONTINUOUS
  0
LAYER
  5
1271
330
2
100
AcDbSymbolTableRecord
100
AcDbLayerTableRecord
  2
A
 70
     0
 62
     7
  6
CONTINUOUS
  0
LAYER
  5
A9BB
330
2
100
AcDbSymbolTableRecord
100
AcDbLayerTableRecord
  2
文字
 70
     0
 62
     7
  6
CONTINUOUS
  0
LAYER
  5
122DE
330
2
100
AcDbSymbolTableRecord
100
AcDbLayerTableRecord
  2
DIMENSION
 70
     0
 62
     7
  6
CONTINUOUS
  0
LAYER
  5
15422
330
2
100
AcDbSymbolTableRecord
100
AcDbLayerTableRecord
  2
細線
 70
     0
 62
     7
  6
CONTINUOUS
  0
LAYER
  5
1A846
330
2
100
AcDbSymbolTableRecord
100
AcDbLayerTableRecord
  2
実線
 70
     0
 62
     7
  6
CONTINUOUS
  0
LAYER
  5
1BB4F
330
2
100
AcDbSymbolTableRecord
100
AcDbLayerTableRecord
  2
隠れ線
 70
     0
 62
     7
  6
HIDDEN
  0
LAYER
  5
1BB52
330
2
100
AcDbSymbolTableRecord
100
AcDbLayerTableRecord
  2
基板
 70
     0
 62
     7
  6
CONTINUOUS
  0
ENDTAB
  0
TABLE
  2
STYLE
  5
3
330
0
100
AcDbSymbolTable
 70
     8
  0
STYLE
  5
F
330
3
100
AcDbSymbolTableRecord
100
AcDbTextStyleTableRecord
  2
STANDARD
 70
     0
 40
0.0
 41
1.0
 50
0.0
 71
     0
 42
2.5
  3
isocp.shx
  4
bigfont.shx
  0
STYLE
  5
35
330
3
100
AcDbSymbolTableRecord
100
AcDbTextStyleTableRecord
  2
MSｺ_ｼｯｸ
 70
     0
 40
0.0
 41
1.0
 50
0.0
 71
     0
 42
5.0
  3
MS Gothic.ttf
  4

1001
ACAD
1000
MS Gothic
1071
    32817
  0
STYLE
  5
1275
330
3
100
AcDbSymbolTableRecord
100
AcDbTextStyleTableRecord
  2
BIGFONT
 70
     0
 40
2.0
 41
1.0
 50
0.0
 71
     0
 42
2.0
  3
txt.shx
  4
bigfont.shx
  0
STYLE
  5
1A849
330
3
100
AcDbSymbolTableRecord
100
AcDbTextStyleTableRecord
  2
まこ
 70
     0
 40
0.0
 41
1.0
 50
0.0
 71
     0
 42
2.5
  3
simplex.shx
  4
bigfont.shx
  0
STYLE
  5
1A84A
330
3
100
AcDbSymbolTableRecord
100
AcDbTextStyleTableRecord
  2
ｽﾀｲﾙ3
 70
     0
 40
10.0
 41
1.0
 50
0.0
 71
     0
 42
10.0
  3
isocp.shx
  4
extfont.shx
  0
ENDTAB
  0
TABLE
  2
VIEW
  5
6
330
0
100
AcDbSymbolTable
 70
     0
  0
ENDTAB
  0
TABLE
  2
UCS
  5
7
330
0
100
AcDbSymbolTable
 70
     0
  0
ENDTAB
  0
TABLE
  2
APPID
  5
9
330
0
100
AcDbSymbolTable
 70
     4
  0
APPID
  5
10
330
9
100
AcDbSymbolTableRecord
100
AcDbRegAppTableRecord
  2
ACAD
 70
     0
  0
APPID
  5
F013
330
9
100
AcDbSymbolTableRecord
100
AcDbRegAppTableRecord
  2
CONTENTBLOCKDESCRIPTION
 70
     0
  0
APPID
  5
F014
330
9
100
AcDbSymbolTableRecord
100
AcDbRegAppTableRecord
  2
CONTENTBLOCKICON
 70
     0
  0
APPID
  5
1A9A0
330
9
100
AcDbSymbolTableRecord
100
AcDbRegAppTableRecord
  2
DCO15
 70
     0
  0
ENDTAB
  0
TABLE
  2
DIMSTYLE
  5
A
330
0
100
AcDbSymbolTable
 70
     2
  0
DIMSTYLE
105
1D
330
A
100
AcDbSymbolTableRecord
100
AcDbDimStyleTableRecord
  2
STANDARD
 70
     0
  3

  4

  5

  6

  7

 40
1.0
 41
0.18
 42
0.0625
 43
0.38
 44
0.18
 45
0.0
 46
0.0
 47
0.0
 48
0.0
140
0.18
141
0.09
142
0.0
143
25.4
144
1.0
145
0.0
146
1.0
147
0.09
 71
     0
 72
     0
 73
     1
 74
     1
 75
     0
 76
     0
 77
     0
 78
     0
170
     0
171
     2
172
     0
173
     0
174
     0
175
     0
176
     0
177
     0
178
     0
270
     2
271
     4
272
     4
273
     2
274
     2
340
F
275
     0
280
     0
281
     0
282
     0
283
     1
284
     0
285
     0
286
     0
287
     3
288
     0
  0
DIMSTYLE
105
1A84D
102
{ACAD_REACTORS
330
243AA
330
2440F
330
244F8
330
24562
330
24840
330
24E48
102
}
330
A
100
AcDbSymbolTableRecord
100
AcDbDimStyleTableRecord
  2
まこ
 70
     0
  3

  4

  5
OPEN30
  6

  7

 40
2.5
 41
2.5
 42
0.8
 43
0.38
 44
0.18
 45
0.0
 46
0.0
 47
0.0
 48
0.0
140
3.0
141
0.0
142
0.0
143
25.4
144
1.0
145
0.0
146
1.0
147
0.5
 71
     0
 72
     0
 73
     0
 74
     0
 75
     0
 76
     0
 77
     3
 78
     8
170
     0
171
     2
172
     0
173
     0
174
     0
175
     0
176
     4
177
     4
178
   256
270
     2
271
     8
272
     8
273
     2
274
     2
340
1A849
275
     0
280
     0
281
     0
282
     0
283
     1
284
     0
285
     0
286
     0
287
     1
288
     0
  0
ENDTAB
  0
TABLE
  2
BLOCK_RECORD
  5
1
330
0
100
AcDbSymbolTable
 70
    24
  0
BLOCK_RECORD
  5
18
102
{ACAD_XDICTIONARY
360
EFC6
102
}
330
1
100
AcDbSymbolTableRecord
100
AcDbBlockTableRecord
  2
*MODEL_SPACE
  0
BLOCK_RECORD
  5
15
102
{ACAD_XDICTIONARY
360
EFC4
102
}
330
1
100
AcDbSymbolTableRecord
100
AcDbBlockTableRecord
  2
*PAPER_SPACE
  0
BLOCK_RECORD
  5
115C
330
1
100
AcDbSymbolTableRecord
100
AcDbBlockTableRecord
  2
機械A4横_LBP
  0
BLOCK_RECORD
  5
1215D
330
1
100
AcDbSymbolTableRecord
100
AcDbBlockTableRecord
  2
_OPEN30
  0
ENDTAB
  0
ENDSEC
  0
SECTION
  2
BLOCKS
  0
BLOCK
  5
19
330
18
100
AcDbEntity
  8
0
100
AcDbBlockBegin
  2
*MODEL_SPACE
 70
     0
 10
0.0
 20
0.0
 30
0.0
  3
*MODEL_SPACE
  1

  0
ENDBLK
  5
1A
330
18
100
AcDbEntity
  8
0
100
AcDbBlockEnd
  0
BLOCK
  5
16
330
15
100
AcDbEntity
 67
     1
  8
0
100
AcDbBlockBegin
  2
*PAPER_SPACE
 70
     0
 10
0.0
 20
0.0
 30
0.0
  3
*PAPER_SPACE
  1

  0
ENDBLK
  5
17
330
15
100
AcDbEntity
 67
     1
  8
0
100
AcDbBlockEnd
  0
BLOCK
  5
115D
330
115C
100
AcDbEntity
  8
0
100
AcDbBlockBegin
  2
機械A4横_LBP
 70
     0
 10
0.0
 20
0.0
 30
0.0
  3
機械A4横_LBP
  1

  0
ENDBLK
  5
115E
330
115C
100
AcDbEntity
  8
0
100
AcDbBlockEnd
  0
BLOCK
  5
12161
330
1215D
100
AcDbEntity
  8
0
100
AcDbBlockBegin
  2
_OPEN30
 70
     0
 10
0.0
 20
0.0
 30
0.0
  3
_OPEN30
  1

  0
LINE
  5
1215E
330
1215D
100
AcDbEntity
  8
0
  6
BYBLOCK
 62
     0
100
AcDbLine
 10
-1.0
 20
0.26794919
 30
0.0
 11
0.0
 21
0.0
 31
0.0
  0
LINE
  5
1215F
330
1215D
100
AcDbEntity
  8
0
  6
BYBLOCK
 62
     0
100
AcDbLine
 10
0.0
 20
0.0
 30
0.0
 11
-1.0
 21
-0.26794919
 31
0.0
  0
LINE
  5
12160
330
1215D
100
AcDbEntity
  8
0
  6
BYBLOCK
 62
     0
100
AcDbLine
 10
0.0
 20
0.0
 30
0.0
 11
-1.0
 21
0.0
 31
0.0
  0
ENDBLK
  5
12162
330
1215D
100
AcDbEntity
  8
0
100
AcDbBlockEnd
  0
ENDSEC
  0
SECTION
  2
ENTITIES
  0
MTEXT
  5
176FC
330
18
100
AcDbEntity
  8
DIMENSION
 62
     2
100
AcDbMText
 10
-100.7823601383244
 20
171.6213144128388
 30
0.0
 40
8.0
 41
0.0
 71
     4
 72
     1
  1

1001
ACAD
1000
MTEXTBEGIN
1070
    73
1070
     1
1070
    44
1040
1.0
1070
    74
1070
     0
1000
MTEXTEND
  0
TEXT
  5
187C8
330
18
100
AcDbEntity
  8
A
100
AcDbText
 10
27.08248755054501
 20
1784.547672862094
 30
0.0
 40
2.5
  1

  7
MSｺ_ｼｯｸ
100
AcDbText
  0
TEXT
  5
187C9
330
18
100
AcDbEntity
  8
A
100
AcDbText
 10
19.25748755054502
 20
1784.547672862094
 30
0.0
 40
2.5
  1

 41
0.5
  7
MSｺ_ｼｯｸ
100
AcDbText
  0
TEXT
  5
187CA
330
18
100
AcDbEntity
  8
A
100
AcDbText
 10
167.1825875009164
 20
2214.514692980458
 30
0.0
 40
3.524999999999999
  1
�    
100
AcDbText
  0
MTEXT
  5
187CB
330
18
100
AcDbEntity
  8
0
  6
BYBLOCK
100
AcDbMText
 10
325.4874764241681
 20
2232.511722574347
 30
0.0
 40
2.0
 41
0.0
 71
     4
 72
     5
  1

 11
-0.0000000000000002
 21
-1.0
 31
0.0
1001
ACAD
1000
MTEXTBEGIN
1070
    73
1070
     1
1070
    44
1040
1.0
1070
    74
1070
     0
1000
MTEXTEND
1000
MTEXTBEGIN
1070
    73
1070
     1
1070
    44
1040
1.0
1070
    74
1070
     0
1000
MTEXTEND
  0
MTEXT
  5
187CC
330
18
100
AcDbEntity
  8
0
  6
BYBLOCK
100
AcDbMText
 10
360.9528647873208
 20
2221.718414215929
 30
0.0
 40
2.0
 41
0.0
 71
     7
 72
     5
  1

 11
0.0000000000000001
 21
1.0
 31
0.0
1001
ACAD
1000
MTEXTBEGIN
1070
    73
1070
     1
1070
    44
1040
1.0
1070
    74
1070
     0
1000
MTEXTEND
1000
MTEXTBEGIN
1070
    73
1070
     1
1070
    44
1040
1.0
1070
    74
1070
     0
1000
MTEXTEND
  0
MTEXT
  5
187CD
330
18
100
AcDbEntity
  8
0
100
AcDbMText
 10
325.1733668026532
 20
2146.938903673639
 30
0.0
 40
2.0
 41
10.1453
 71
     1
 72
     5
  1

 11
-0.0000000000000002
 21
-1.0
 31
0.0
1001
ACAD
1000
MTEXTBEGIN
1070
    73
1070
     1
1070
    44
1040
1.0
1070
    74
1070
     0
1000
MTEXTEND
1000
MTEXTBEGIN
1070
    73
1070
     1
1070
    44
1040
1.0
1070
    74
1070
     0
1000
MTEXTEND
  0
MTEXT
  5
187CE
330
18
100
AcDbEntity
  8
0
100
AcDbMText
 10
280.7738750495033
 20
2115.30742008065
 30
0.0
 40
2.0
 41
0.0
 71
     1
 72
     5
  1

1001
ACAD
1000
MTEXTBEGIN
1070
    73
1070
     1
1070
    44
1040
1.0
1070
    74
1070
     0
1000
MTEXTEND
1000
MTEXTBEGIN
1070
    73
1070
     1
1070
    44
1040
1.0
1070
    74
1070
     0
1000
MTEXTEND
  0
MTEXT
  5
187CF
330
18
100
AcDbEntity
  8
0
  6
CENTER
100
AcDbMText
 10
606.3621522332661
 20
2216.239946825076
 30
0.0
 40
2.0
 41
15.6417
 71
     1
 72
     5
  1

  7
BIGFONT
1001
ACAD
1000
MTEXTBEGIN
1070
    73
1070
     1
1070
    44
1040
1.0
1070
    74
1070
     0
1000
MTEXTEND
1000
MTEXTBEGIN
1070
    73
1070
     1
1070
    44
1040
1.0
1070
    74
1070
     0
1000
MTEXTEND
  0
MTEXT
  5
187D0
330
18
100
AcDbEntity
  8
0
  6
DASHDOT
100
AcDbMText
 10
368.6842112890943
 20
2323.029441652852
 30
0.0
 40
1.0
 41
2.0
 71
     1
 72
     5
  1

  7
BIGFONT
1001
ACAD
1000
MTEXTBEGIN
1070
    73
1070
     1
1070
    44
1040
1.0
1070
    74
1070
     0
1000
MTEXTEND
1000
MTEXTBEGIN
1070
    73
1070
     1
1070
    44
1040
1.0
1070
    74
1070
     0
1000
MTEXTEND
  0
MTEXT
  5
187D1
330
18
100
AcDbEntity
  8
0
  6
BYBLOCK
100
AcDbMText
 10
325.4873894192176
 20
2232.511722574347
 30
0.0
 40
2.0
 41
0.0
 71
     4
 72
     5
  1

 11
-0.0000000000000002
 21
-1.0
 31
0.0
1001
ACAD
1000
MTEXTBEGIN
1070
    73
1070
     1
1070
    44
1040
1.0
1070
    74
1070
     0
1000
MTEXTEND
1000
MTEXTBEGIN
1070
    73
1070
     1
1070
    44
1040
1.0
1070
    74
1070
     0
1000
MTEXTEND
  0
MTEXT
  5
187D2
330
18
100
AcDbEntity
  8
0
  6
BYBLOCK
100
AcDbMText
 10
360.9527777823706
 20
2221.718414215929
 30
0.0
 40
2.0
 41
0.0
 71
     7
 72
     5
  1

 11
0.0000000000000001
 21
1.0
 31
0.0
1001
ACAD
1000
MTEXTBEGIN
1070
    73
1070
     1
1070
    44
1040
1.0
1070
    74
1070
     0
1000
MTEXTEND
1000
MTEXTBEGIN
1070
    73
1070
     1
1070
    44
1040
1.0
1070
    74
1070
     0
1000
MTEXTEND
  0
MTEXT
  5
187D3
330
18
100
AcDbEntity
  8
0
100
AcDbMText
 10
325.1732797977028
 20
2146.938903673639
 30
0.0
 40
2.0
 41
10.1453
 71
     1
 72
     5
  1

 11
-0.0000000000000002
 21
-1.0
 31
0.0
1001
ACAD
1000
MTEXTBEGIN
1070
    73
1070
     1
1070
    44
1040
1.0
1070
    74
1070
     0
1000
MTEXTEND
1000
MTEXTBEGIN
1070
    73
1070
     1
1070
    44
1040
1.0
1070
    74
1070
     0
1000
MTEXTEND
  0
MTEXT
  5
187D4
330
18
100
AcDbEntity
  8
0
100
AcDbMText
 10
280.7737880445529
 20
2115.30742008065
 30
0.0
 40
2.0
 41
0.0
 71
     1
 72
     5
  1

1001
ACAD
1000
MTEXTBEGIN
1070
    73
1070
     1
1070
    44
1040
1.0
1070
    74
1070
     0
1000
MTEXTEND
1000
MTEXTBEGIN
1070
    73
1070
     1
1070
    44
1040
1.0
1070
    74
1070
     0
1000
MTEXTEND
  0
MTEXT
  5
187D5
330
18
100
AcDbEntity
  8
0
  6
CENTER
100
AcDbMText
 10
606.3620652283159
 20
2216.239946825076
 30
0.0
 40
2.0
 41
15.6417
 71
     1
 72
     5
  1

  7
BIGFONT
1001
ACAD
1000
MTEXTBEGIN
1070
    73
1070
     1
1070
    44
1040
1.0
1070
    74
1070
     0
1000
MTEXTEND
1000
MTEXTBEGIN
1070
    73
1070
     1
1070
    44
1040
1.0
1070
    74
1070
     0
1000
MTEXTEND
  0
MTEXT
  5
187D6
330
18
100
AcDbEntity
  8
0
  6
DASHDOT
100
AcDbMText
 10
368.6841242841442
 20
2323.029441652852
 30
0.0
 40
1.0
 41
2.0
 71
     1
 72
     5
  1

  7
BIGFONT
1001
ACAD
1000
MTEXTBEGIN
1070
    73
1070
     1
1070
    44
1040
1.0
1070
    74
1070
     0
1000
MTEXTEND
1000
MTEXTBEGIN
1070
    73
1070
     1
1070
    44
1040
1.0
1070
    74
1070
     0
1000
MTEXTEND
  0
INSERT
  5
187D7
330
18
100
AcDbEntity
  8
FRAME025
100
AcDbBlockReference
  2
機械A4横_LBP
 10
271.0019941658661
 20
2006.88884056487
 30
0.0
  0
LINE
  5
216D4
102
{ACAD_REACTORS
330
24914
102
}
330
18
100
AcDbEntity
  8
0
100
AcDbLine
 10
1287.981372571804
 20
-2569.253239256225
 30
0.0
 11
1263.981372571804
 21
-2569.253239256225
 31
0.0
  0
LINE
  5
216D5
102
{ACAD_REACTORS
330
24914
102
}
330
18
100
AcDbEntity
  8
0
100
AcDbLine
 10
1287.981372571804
 20
-2591.253239256225
 30
0.0
 11
1263.981372571804
 21
-2591.253239256225
 31
0.0
  0
LINE
  5
216D7
102
{ACAD_REACTORS
330
24914
102
}
330
18
100
AcDbEntity
  8
0
100
AcDbLine
 10
1242.673264463695
 20
-2582.553239256225
 30
0.0
 11
1263.981372571804
 21
-2586.153239256224
 31
0.0
  0
LINE
  5
216D8
102
{ACAD_REACTORS
330
24914
102
}
330
18
100
AcDbEntity
  8
0
100
AcDbLine
 10
1242.081372571804
 20
-2578.253239256225
 30
0.0
 11
1263.981372571804
 21
-2574.553239256225
 31
0.0
  0
LINE
  5
216D9
102
{ACAD_REACTORS
330
24914
102
}
330
18
100
AcDbEntity
  8
0
100
AcDbLine
 10
1242.081372571804
 20
-2580.653239256225
 30
0.0
 11
1263.981372571804
 21
-2576.953239256226
 31
0.0
  0
LINE
  5
216DA
102
{ACAD_REACTORS
330
24914
102
}
330
18
100
AcDbEntity
  8
0
100
AcDbLine
 10
1242.081372571804
 20
-2580.253239256224
 30
0.0
 11
1263.981372571804
 21
-2576.553239256225
 31
0.0
  0
LINE
  5
216DB
102
{ACAD_REACTORS
330
24914
102
}
330
18
100
AcDbEntity
  8
0
100
AcDbLine
 10
1242.081372571804
 20
-2582.653239256225
 30
0.0
 11
1263.981372571804
 21
-2578.953239256226
 31
0.0
  0
LINE
  5
216DC
102
{ACAD_REACTORS
330
24914
102
}
330
18
100
AcDbEntity
  8
0
100
AcDbLine
 10
1248.695466531535
 20
-2581.535789591796
 30
0.0
 11
1263.981372571804
 21
-2584.153239256225
 31
0.0
  0
LINE
  5
216DD
102
{ACAD_REACTORS
330
24914
102
}
330
18
100
AcDbEntity
  8
0
100
AcDbLine
 10
1255.750500088582
 20
-2580.34384328307
 30
0.0
 11
1263.981372571804
 21
-2581.753239256225
 31
0.0
  0
LINE
  5
216DE
102
{ACAD_REACTORS
330
24914
102
}
330
18
100
AcDbEntity
  8
0
100
AcDbLine
 10
1249.7759671664
 20
-2581.353239256226
 30
0.0
 11
1263.981372571804
 21
-2583.753239256225
 31
0.0
  0
LINE
  5
216DF
102
{ACAD_REACTORS
330
24914
102
}
330
18
100
AcDbEntity
  8
基板
100
AcDbLine
 10
1242.081372571803
 20
-2583.638714166283
 30
0.0
 11
1242.081372571803
 21
-2577.138714166283
 31
0.0
  0
LINE
  5
216E0
102
{ACAD_REACTORS
330
24914
102
}
330
18
100
AcDbEntity
  8
0
100
AcDbLine
 10
1242.081372571804
 20
-2578.003239256226
 30
0.0
 11
1242.816271900661
 21
-2578.1290781824
 31
0.0
  0
LINE
  5
216E1
102
{ACAD_REACTORS
330
24914
102
}
330
18
100
AcDbEntity
  8
0
100
AcDbLine
 10
1242.081372571804
 20
-2580.403239256225
 30
0.0
 11
1242.816271900661
 21
-2580.5290781824
 31
0.0
  0
LINE
  5
216E2
102
{ACAD_REACTORS
330
24914
102
}
330
18
100
AcDbEntity
  8
0
100
AcDbLine
 10
1242.673264463695
 20
-2580.153239256225
 30
0.0
 11
1243.85704824748
 21
-2580.353239256226
 31
0.0
  0
LINE
  5
216E3
102
{ACAD_REACTORS
330
24914
102
}
330
18
100
AcDbEntity
  8
0
100
AcDbLine
 10
1248.695466531535
 20
-2579.135789591797
 30
0.0
 11
1249.871305457709
 21
-2579.337131873675
 31
0.0
  0
LWPOLYLINE
  5
216E4
102
{ACAD_REACTORS
330
24914
102
}
330
18
100
AcDbEntity
  8
0
100
AcDbPolyline
 90
        4
 70
     1
 43
0.0
 10
1268.481372571804
 20
-2583.503239256224
 10
1263.981372571804
 20
-2583.503239256224
 10
1263.981372571804
 20
-2588.003239256225
 10
1268.481372571804
 20
-2588.003239256225
  0
LINE
  5
216E5
102
{ACAD_REACTORS
330
24914
102
}
330
18
100
AcDbEntity
  8
0
100
AcDbLine
 10
1263.981372571804
 20
-2591.253239256225
 30
0.0
 11
1263.981372571804
 21
-2569.253239256225
 31
0.0
  0
LINE
  5
216E6
102
{ACAD_REACTORS
330
24914
102
}
330
18
100
AcDbEntity
  8
0
100
AcDbLine
 10
1263.981372571804
 20
-2587.628239256225
 30
0.0
 11
1263.981372571804
 21
-2572.878239256226
 31
0.0
  0
TEXT
  5
216E7
330
18
100
AcDbEntity
  8
FRAME020
  6
CONTINUOUS
100
AcDbText
 10
1272.84444499335
 20
-2736.187561819853
 30
0.0
 40
3.0
  1

 50
270.0
100
AcDbText
  0
LWPOLYLINE
  5
216E8
102
{ACAD_REACTORS
330
24914
102
}
330
18
100
AcDbEntity
  8
0
100
AcDbPolyline
 90
        4
 70
     1
 43
0.0
 10
1281.60334694892
 20
-2571.503239256225
 10
1271.60334694892
 20
-2571.503239256225
 10
1271.60334694892
 20
-2589.003239256224
 10
1281.60334694892
 20
-2589.003239256224
  0
LWPOLYLINE
  5
216EA
102
{ACAD_REACTORS
330
24914
102
}
330
18
100
AcDbEntity
  8
0
100
AcDbPolyline
 90
        4
 70
     1
 43
0.0
 10
1268.481372571804
 20
-2572.503239256226
 10
1263.981372571804
 20
-2572.503239256226
 10
1263.981372571804
 20
-2577.003239256224
 10
1268.481372571804
 20
-2577.003239256224
  0
LWPOLYLINE
  5
216F3
102
{ACAD_REACTORS
330
24914
102
}
330
18
100
AcDbEntity
  8
0
100
AcDbPolyline
 90
        4
 70
     1
 43
0.0
 10
1310.981372571804
 20
-2595.003239256225
 10
1305.981372571804
 20
-2595.003239256225
 10
1305.981372571804
 20
-2565.503239256226
 10
1310.981372571804
 20
-2565.503239256226
  0
LINE
  5
216F4
102
{ACAD_REACTORS
330
24914
102
}
330
18
100
AcDbEntity
  8
0
100
AcDbLine
 10
1288.981372571804
 20
-2587.753239256226
 30
0.0
 11
1288.981372571804
 21
-2584.753239256226
 31
0.0
  0
LWPOLYLINE
  5
216F5
102
{ACAD_REACTORS
330
24914
102
}
330
18
100
AcDbEntity
  8
0
100
AcDbPolyline
 90
        4
 70
     1
 43
0.0
 10
1305.981372571804
 20
-2597.103239256226
 10
1301.981372571804
 20
-2597.103239256226
 10
1301.981372571804
 20
-2563.403239256225
 10
1305.981372571804
 20
-2563.403239256225
  0
LINE
  5
216F6
102
{ACAD_REACTORS
330
24914
102
}
330
18
100
AcDbEntity
  8
0
100
AcDbLine
 10
1288.981372571804
 20
-2595.003239256225
 30
0.0
 11
1301.981372571804
 21
-2595.003239256225
 31
0.0
  0
LINE
  5
216F7
102
{ACAD_REACTORS
330
24914
102
}
330
18
100
AcDbEntity
  8
0
100
AcDbLine
 10
1288.981372571804
 20
-2590.753239256224
 30
0.0
 11
1301.981372571804
 21
-2590.753239256224
 31
0.0
  0
LINE
  5
216F8
102
{ACAD_REACTORS
330
24914
102
}
330
18
100
AcDbEntity
  8
0
100
AcDbLine
 10
1288.981372571804
 20
-2587.753239256226
 30
0.0
 11
1301.981372571804
 21
-2587.753239256226
 31
0.0
  0
LINE
  5
216F9
102
{ACAD_REACTORS
330
24914
102
}
330
18
100
AcDbEntity
  8
0
100
AcDbLine
 10
1287.981372571804
 20
-2591.253239256225
 30
0.0
 11
1288.981372571804
 21
-2590.753239256224
 31
0.0
  0
LINE
  5
216FA
102
{ACAD_REACTORS
330
24914
102
}
330
18
100
AcDbEntity
  8
0
100
AcDbLine
 10
1288.981372571804
 20
-2595.003239256225
 30
0.0
 11
1287.981372571804
 21
-2591.253239256225
 31
0.0
  0
LINE
  5
216FB
102
{ACAD_REACTORS
330
24914
102
}
330
18
100
AcDbEntity
  8
0
100
AcDbLine
 10
1288.981372571804
 20
-2595.003239256225
 30
0.0
 11
1288.981372571804
 21
-2590.753239256224
 31
0.0
  0
LINE
  5
216FC
102
{ACAD_REACTORS
330
24914
102
}
330
18
100
AcDbEntity
  8
0
100
AcDbLine
 10
1288.981372571804
 20
-2584.753239256226
 30
0.0
 11
1301.981372571804
 21
-2584.753239256226
 31
0.0
  0
LINE
  5
216FD
102
{ACAD_REACTORS
330
24914
102
}
330
18
100
AcDbEntity
  8
0
100
AcDbLine
 10
1288.981372571804
 20
-2575.753239256226
 30
0.0
 11
1301.981372571804
 21
-2575.753239256226
 31
0.0
  0
LINE
  5
216FE
102
{ACAD_REACTORS
330
24914
102
}
330
18
100
AcDbEntity
  8
0
100
AcDbLine
 10
1288.981372571804
 20
-2569.753239256225
 30
0.0
 11
1301.981372571804
 21
-2569.753239256225
 31
0.0
  0
LINE
  5
216FF
102
{ACAD_REACTORS
330
24914
102
}
330
18
100
AcDbEntity
  8
0
100
AcDbLine
 10
1288.981372571804
 20
-2572.753239256226
 30
0.0
 11
1301.981372571804
 21
-2572.753239256226
 31
0.0
  0
LINE
  5
21700
102
{ACAD_REACTORS
330
24914
102
}
330
18
100
AcDbEntity
  8
0
100
AcDbLine
 10
1301.981372571804
 20
-2565.503239256226
 30
0.0
 11
1288.981372571804
 21
-2565.503239256226
 31
0.0
  0
LINE
  5
21701
102
{ACAD_REACTORS
330
24914
102
}
330
18
100
AcDbEntity
  8
0
100
AcDbLine
 10
1288.981372571804
 20
-2581.753239256225
 30
0.0
 11
1301.981372571804
 21
-2581.753239256225
 31
0.0
  0
LINE
  5
21702
102
{ACAD_REACTORS
330
24914
102
}
330
18
100
AcDbEntity
  8
0
100
AcDbLine
 10
1288.981372571804
 20
-2578.753239256226
 30
0.0
 11
1301.981372571804
 21
-2578.753239256226
 31
0.0
  0
LINE
  5
21703
102
{ACAD_REACTORS
330
24914
102
}
330
18
100
AcDbEntity
  8
0
100
AcDbLine
 10
1288.981372571804
 20
-2575.753239256226
 30
0.0
 11
1288.981372571804
 21
-2572.753239256226
 31
0.0
  0
LINE
  5
21704
102
{ACAD_REACTORS
330
24914
102
}
330
18
100
AcDbEntity
  8
0
100
AcDbLine
 10
1288.981372571804
 20
-2565.503239256226
 30
0.0
 11
1287.981372571804
 21
-2569.253239256225
 31
0.0
  0
LINE
  5
21705
102
{ACAD_REACTORS
330
24914
102
}
330
18
100
AcDbEntity
  8
0
100
AcDbLine
 10
1287.981372571804
 20
-2569.253239256225
 30
0.0
 11
1288.981372571804
 21
-2569.753239256225
 31
0.0
  0
LINE
  5
21706
102
{ACAD_REACTORS
330
24914
102
}
330
18
100
AcDbEntity
  8
0
100
AcDbLine
 10
1288.981372571804
 20
-2569.753239256225
 30
0.0
 11
1288.981372571804
 21
-2565.503239256226
 31
0.0
  0
LINE
  5
21707
102
{ACAD_REACTORS
330
24914
102
}
330
18
100
AcDbEntity
  8
0
100
AcDbLine
 10
1288.981372571804
 20
-2581.753239256225
 30
0.0
 11
1288.981372571804
 21
-2578.753239256226
 31
0.0
  0
MTEXT
  5
21ACC
330
18
100
AcDbEntity
  8
0
100
AcDbMText
 10
62.91095225984047
 20
-1280.130762802907
 30
0.0
 40
2.5
 41
0.625
 71
     9
 72
     1
  1

1001
ACAD
1000
MTEXTBEGIN
1070
    73
1070
     1
1070
    44
1040
1.0
1070
    74
1070
     0
1000
MTEXTEND
1000
MTEXTBEGIN
1070
    73
1070
     1
1070
    44
1040
1.0
1070
    74
1070
     0
1000
MTEXTEND
1000
MTEXTBEGIN
1070
    73
1070
     1
1070
    44
1040
1.0
1070
    74
1070
     0
1000
MTEXTEND
1000
MTEXTBEGIN
1070
    73
1070
     1
1070
    44
1040
1.0
1070
    74
1070
     0
1000
MTEXTEND
1000
MTEXTBEGIN
1070
    73
1070
     1
1070
    44
1040
1.0
1070
    74
1070
     0
1000
MTEXTEND
1000
MTEXTBEGIN
1070
    73
1070
     1
1070
    44
1040
1.0
1070
    74
1070
     0
1000
MTEXTEND
1000
MTEXTBEGIN
1070
    73
1070
     1
1070
    44
1040
1.0
1070
    74
1070
     0
1000
MTEXTEND
  0
LINE
  5
2439E
330
18
100
AcDbEntity
  8
0
100
AcDbLine
 10
670.9078331117835
 20
-2588.026749340432
 30
0.0
 11
1178.907833111783
 21
-2588.026749340432
 31
0.0
  0
LINE
  5
2439F
330
18
100
AcDbEntity
  8
0
100
AcDbLine
 10
670.9078331117835
 20
-2570.029521512305
 30
0.0
 11
1004.930016131561
 21
-2570.029521512305
 31
0.0
  0
LINE
  5
243A1
330
18
100
AcDbEntity
  8
0
100
AcDbLine
 10
670.9078331117837
 20
-2526.023977168557
 30
0.0
 11
1004.930016131561
 21
-2526.023977168557
 31
0.0
  0
LINE
  5
243A2
330
18
100
AcDbEntity
  8
0
100
AcDbLine
 10
1178.907833111783
 20
-2508.026749340432
 30
0.0
 11
670.9078331117836
 21
-2508.02674934043
 31
0.0
  0
LINE
  5
243A3
330
18
100
AcDbEntity
  8
0
100
AcDbLine
 10
670.9078331117836
 20
-2662.727285212188
 30
0.0
 11
685.9300161315615
 21
-2662.727285212188
 31
0.0
  0
LINE
  5
243A4
330
18
100
AcDbEntity
  8
0
100
AcDbLine
 10
1178.907833111783
 20
-2700.735877685328
 30
0.0
 11
670.9078331117836
 21
-2700.735877685328
 31
0.0
  0
LINE
  5
243A5
330
18
100
AcDbEntity
  8
0
100
AcDbLine
 10
670.9078331117836
 20
-2660.735877685328
 30
0.0
 11
1178.907833111783
 21
-2660.735877685328
 31
0.0
  0
LINE
  5
243A7
330
18
100
AcDbEntity
  8
0
  6
CENTER
 48
0.75
100
AcDbLine
 10
660.9888583894335
 20
-2548.026749340431
 30
0.0
 11
1204.660568398741
 21
-2548.026749340431
 31
0.0
  0
LINE
  5
243A8
330
18
100
AcDbEntity
  8
0
100
AcDbLine
 10
670.9078331117835
 20
-2660.735877685328
 30
0.0
 11
670.9078331117835
 21
-2700.735877685328
 31
0.0
  0
LINE
  5
243A9
330
18
100
AcDbEntity
  8
0
  6
CENTER
 48
0.75
100
AcDbLine
 10
596.6521260000637
 20
-2548.026749340431
 30
0.0
 11
530.5798687655054
 21
-2548.026749340431
 31
0.0
  0
LINE
  5
243BA
330
18
100
AcDbEntity
  8
0
100
AcDbLine
 10
557.0138019601279
 20
-2565.526788586739
 30
0.0
 11
568.0138019601279
 21
-2565.526788586739
 31
0.0
  0
LINE
  5
243BB
330
18
100
AcDbEntity
  8
0
100
AcDbLine
 10
557.0138019601279
 20
-2565.526788586739
 30
0.0
 11
568.0138019601279
 21
-2565.526788586739
 31
0.0
  0
LINE
  5
243BC
330
18
100
AcDbEntity
  8
0
 48
0.3
100
AcDbLine
 10
551.5138019601279
 20
-2588.026749340432
 30
0.0
 11
591.5138019601279
 21
-2588.026749340432
 31
0.0
  0
LINE
  5
243BD
330
18
100
AcDbEntity
  8
0
100
AcDbLine
 10
567.0138019601276
 20
-2570.526788586739
 30
0.0
 11
558.0138019601281
 21
-2570.526788586739
 31
0.0
  0
LINE
  5
243BE
330
18
100
AcDbEntity
  8
0
100
AcDbLine
 10
558.0138019601276
 20
-2585.526788586738
 30
0.0
 11
567.0138019601276
 21
-2585.526788586738
 31
0.0
  0
LINE
  5
243BF
330
18
100
AcDbEntity
  8
0
100
AcDbLine
 10
568.0138019601279
 20
-2530.526788586739
 30
0.0
 11
557.0138019601279
 21
-2530.526788586739
 31
0.0
  0
LINE
  5
243C0
330
18
100
AcDbEntity
  8
0
100
AcDbLine
 10
568.0138019601279
 20
-2530.526788586739
 30
0.0
 11
557.0138019601279
 21
-2530.526788586739
 31
0.0
  0
LINE
  5
243C1
330
18
100
AcDbEntity
  8
0
 48
0.3
100
AcDbLine
 10
591.5138019601279
 20
-2508.02674934043
 30
0.0
 11
551.5138019601279
 21
-2508.02674934043
 31
0.0
  0
LINE
  5
243C2
330
18
100
AcDbEntity
  8
0
100
AcDbLine
 10
556.5138019601278
 20
-2531.026788586739
 30
0.0
 11
556.5138019601278
 21
-2565.026788586739
 31
0.0
  0
LINE
  5
243C3
330
18
100
AcDbEntity
  8
0
100
AcDbLine
 10
556.5138019601278
 20
-2531.026788586739
 30
0.0
 11
556.5138019601278
 21
-2565.026788586739
 31
0.0
  0
LINE
  5
243C4
330
18
100
AcDbEntity
  8
0
 48
0.3
100
AcDbLine
 10
551.5138019601279
 20
-2508.026793204686
 30
0.0
 11
551.5138019601279
 21
-2588.026783968792
 31
0.0
  0
LWPOLYLINE
  5
243C5
102
{ACAD_REACTORS
330
24717
102
}
330
18
100
AcDbEntity
  8
0
  6
PHANTOM
 48
0.75
100
AcDbPolyline
 90
        4
 70
     1
 43
0.0
 10
550.3138019601277
 20
-2523.051838382336
 10
545.3138019601276
 20
-2523.051838382336
 10
545.3138019601276
 20
-2573.027322065339
 10
550.3138019601277
 20
-2573.027322065339
  0
LINE
  5
243C6
102
{ACAD_REACTORS
330
24717
102
}
330
18
100
AcDbEntity
  8
0
  6
PHANTOM
 48
0.75
100
AcDbLine
 10
537.5138019601279
 20
-2508.026793204686
 30
0.0
 11
537.5138019601279
 21
-2588.026793204686
 31
0.0
  0
LINE
  5
243C7
102
{ACAD_REACTORS
330
24717
102
}
330
18
100
AcDbEntity
  8
0
  6
PHANTOM
 48
0.75
100
AcDbLine
 10
545.3138019601276
 20
-2588.026793204686
 30
0.0
 11
545.3138019601276
 21
-2508.026793204686
 31
0.0
  0
LINE
  5
243CA
330
18
100
AcDbEntity
  8
0
  6
CENTER
 48
0.75
100
AcDbLine
 10
527.6359208489849
 20
-2580.527449340431
 30
0.0
 11
554.5962263180606
 21
-2580.527449340431
 31
0.0
  0
LINE
  5
243CB
102
{ACAD_REACTORS
330
24717
102
}
330
18
100
AcDbEntity
  8
0
  6
PHANTOM
 48
0.75
100
AcDbLine
 10
537.5138019601279
 20
-2588.026793204686
 30
0.0
 11
545.3138019601276
 21
-2588.026793204686
 31
0.0
  0
LINE
  5
243CD
330
18
100
AcDbEntity
  8
0
100
AcDbLine
 10
557.5138019601281
 20
-2571.026788586738
 30
0.0
 11
557.5138019601276
 21
-2585.026788586739
 31
0.0
  0
ARC
  5
243CE
330
18
100
AcDbEntity
  8
0
100
AcDbCircle
 10
558.0138019601281
 20
-2571.026788586738
 30
0.0
 40
0.5
100
AcDbArc
 50
89.99999999999998
 51
180.0
  0
ARC
  5
243CF
330
18
100
AcDbEntity
  8
0
100
AcDbCircle
 10
558.0138019601276
 20
-2585.026788586739
 30
0.0
 40
0.5
100
AcDbArc
 50
180.0
 51
270.0
  0
ARC
  5
243D0
330
18
100
AcDbEntity
  8
0
100
AcDbCircle
 10
557.0138019601279
 20
-2565.026788586739
 30
0.0
 40
0.5
100
AcDbArc
 50
180.0
 51
270.0
  0
ARC
  5
243D1
330
18
100
AcDbEntity
  8
0
100
AcDbCircle
 10
557.0138019601279
 20
-2565.026788586739
 30
0.0
 40
0.5
100
AcDbArc
 50
180.0
 51
270.0
  0
LINE
  5
243D7
330
18
100
AcDbEntity
  8
0
  6
CENTER
 48
0.75
100
AcDbLine
 10
527.6359208489849
 20
-2515.527449340431
 30
0.0
 11
554.5540821942673
 21
-2515.527449340431
 31
0.0
  0
LINE
  5
243D8
102
{ACAD_REACTORS
330
24717
102
}
330
18
100
AcDbEntity
  8
0
  6
PHANTOM
 48
0.75
100
AcDbLine
 10
545.3138019601276
 20
-2508.026793204686
 30
0.0
 11
537.5138019601279
 21
-2508.026793204686
 31
0.0
  0
ARC
  5
243E5
330
18
100
AcDbEntity
  8
0
100
AcDbCircle
 10
557.0138019601279
 20
-2531.026788586739
 30
0.0
 40
0.5
100
AcDbArc
 50
89.99999999999998
 51
180.0
  0
ARC
  5
243E6
330
18
100
AcDbEntity
  8
0
100
AcDbCircle
 10
557.0138019601279
 20
-2531.026788586739
 30
0.0
 40
0.5
100
AcDbArc
 50
89.99999999999998
 51
180.0
  0
LINE
  5
243EB
330
18
100
AcDbEntity
  8
0
100
AcDbLine
 10
568.5138019601279
 20
-2565.026788586739
 30
0.0
 11
568.5138019601279
 21
-2531.026788586739
 31
0.0
  0
LINE
  5
243EC
330
18
100
AcDbEntity
  8
0
100
AcDbLine
 10
568.5138019601279
 20
-2565.026788586739
 30
0.0
 11
568.5138019601279
 21
-2531.026788586739
 31
0.0
  0
LWPOLYLINE
  5
243ED
330
18
100
AcDbEntity
  8
0
  6
HIDDEN
 48
0.75
100
AcDbPolyline
 90
        4
 70
     1
 43
0.0
 10
577.5138107446537
 20
-2512.054749340431
 10
589.5138107446538
 20
-2512.054749340431
 10
589.5138107446538
 20
-2584.054749340431
 10
577.5138107446537
 20
-2584.054749340431
  0
LINE
  5
243EE
330
18
100
AcDbEntity
  8
0
 48
0.3
100
AcDbLine
 10
591.0138019601279
 20
-2526.037994482738
 30
0.0
 11
591.0138019601279
 21
-2570.026783968792
 31
0.0
  0
LINE
  5
243EF
330
18
100
AcDbEntity
  8
0
100
AcDbLine
 10
561.5138019601279
 20
-2530.526788586739
 30
0.0
 11
561.5138019601279
 21
-2565.526788586739
 31
0.0
  0
LINE
  5
243F0
330
18
100
AcDbEntity
  8
0
100
AcDbLine
 10
561.5138019601279
 20
-2530.526788586739
 30
0.0
 11
561.5138019601279
 21
-2565.526788586739
 31
0.0
  0
CIRCLE
  5
243F4
330
18
100
AcDbEntity
  8
0
  6
HIDDEN
 48
0.75
100
AcDbCircle
 10
583.5141821507966
 20
-2578.03887637926
 30
0.0
 40
4.0
  0
LINE
  5
243F8
330
18
100
AcDbEntity
  8
0
  6
CENTER
 48
0.75
100
AcDbLine
 10
595.1934470433709
 20
-2580.522641094663
 30
0.0
 11
572.4836487485783
 21
-2580.522641094663
 31
0.0
  0
LINE
  5
243F9
330
18
100
AcDbEntity
  8
0
100
AcDbLine
 10
567.5138019601276
 20
-2585.026788586739
 30
0.0
 11
567.5138019601276
 21
-2571.026788586738
 31
0.0
  0
LINE
  5
243FA
330
18
100
AcDbEntity
  8
0
100
AcDbLine
 10
563.5138019601281
 20
-2570.526788586739
 30
0.0
 11
563.5138019601281
 21
-2585.526788586738
 31
0.0
  0
ARC
  5
243FC
330
18
100
AcDbEntity
  8
0
100
AcDbCircle
 10
567.0138019601276
 20
-2571.026788586738
 30
0.0
 40
0.5
100
AcDbArc
 50
0.0
 51
89.99999999999998
  0
ARC
  5
243FD
330
18
100
AcDbEntity
  8
0
100
AcDbCircle
 10
567.0138019601276
 20
-2585.026788586739
 30
0.0
 40
0.5
100
AcDbArc
 50
270.0
 51
0.0
  0
ARC
  5
243FE
330
18
100
AcDbEntity
  8
0
100
AcDbCircle
 10
568.0138019601279
 20
-2565.026788586739
 30
0.0
 40
0.5
100
AcDbArc
 50
270.0
 51
0.0
  0
ARC
  5
243FF
330
18
100
AcDbEntity
  8
0
100
AcDbCircle
 10
568.0138019601279
 20
-2565.026788586739
 30
0.0
 40
0.5
100
AcDbArc
 50
270.0
 51
0.0
  0
LINE
  5
24409
330
18
100
AcDbEntity
  8
0
 48
0.3
100
AcDbLine
 10
591.0138019601279
 20
-2570.02674934043
 30
0.0
 11
591.5138107446538
 21
-2570.02674934043
 31
0.0
  0
CIRCLE
  5
24413
330
18
100
AcDbEntity
  8
0
  6
HIDDEN
 48
0.75
100
AcDbCircle
 10
583.5141821507966
 20
-2518.03887637926
 30
0.0
 40
4.0
  0
LINE
  5
24417
330
18
100
AcDbEntity
  8
0
  6
CENTER
 48
0.75
100
AcDbLine
 10
595.1934470433709
 20
-2515.550775890506
 30
0.0
 11
573.2173951382931
 21
-2515.550775890506
 31
0.0
  0
ARC
  5
24418
330
18
100
AcDbEntity
  8
0
100
AcDbCircle
 10
568.0138019601279
 20
-2531.026788586739
 30
0.0
 40
0.5
100
AcDbArc
 50
0.0
 51
89.99999999999998
  0
ARC
  5
24419
330
18
100
AcDbEntity
  8
0
100
AcDbCircle
 10
568.0138019601279
 20
-2531.026788586739
 30
0.0
 40
0.5
100
AcDbArc
 50
0.0
 51
89.99999999999998
  0
LINE
  5
24425
330
18
100
AcDbEntity
  8
0
 48
0.3
100
AcDbLine
 10
591.5138107446538
 20
-2526.026749340431
 30
0.0
 11
591.0138019601279
 21
-2526.026749340431
 31
0.0
  0
LINE
  5
2442C
330
18
100
AcDbEntity
  8
0
100
AcDbLine
 10
670.9078331117835
 20
-2588.026749340432
 30
0.0
 11
670.9078331117836
 21
-2508.026749340432
 31
0.0
  0
LINE
  5
24433
330
18
100
AcDbEntity
  8
0
100
AcDbLine
 10
1164.930055511782
 20
-2526.023977168557
 30
0.0
 11
1178.907833111783
 21
-2526.023977168557
 31
0.0
  0
LINE
  5
24435
330
18
100
AcDbEntity
  8
0
100
AcDbLine
 10
1164.95001613156
 20
-2570.029521512305
 30
0.0
 11
1178.907833111783
 21
-2570.029521512305
 31
0.0
  0
LINE
  5
24437
330
18
100
AcDbEntity
  8
0
  6
CENTER
 48
0.75
100
AcDbLine
 10
1174.776405596754
 20
-2580.253239256224
 30
0.0
 11
1242.938315440233
 21
-2580.253239256224
 31
0.0
  0
LINE
  5
24439
330
18
100
AcDbEntity
  8
0
100
AcDbLine
 10
1163.930055511783
 20
-2662.727285212188
 30
0.0
 11
1178.907833111783
 21
-2662.727285212188
 31
0.0
  0
LINE
  5
2443A
330
18
100
AcDbEntity
  8
0
  6
CENTER
 48
0.75
100
AcDbLine
 10
1174.790061154162
 20
-2677.896448161771
 30
0.0
 11
1250.12496096048
 21
-2677.896448161771
 31
0.0
  0
LWPOLYLINE
  5
2443D
330
18
100
AcDbEntity
  8
0
100
AcDbPolyline
 90
        2
 70
     0
 43
0.0
 10
1004.930016131561
 20
-2660.735877685328
 10
1164.930055511782
 20
-2660.735877685328
  0
LWPOLYLINE
  5
2443E
330
18
100
AcDbEntity
  8
0
100
AcDbPolyline
 90
        2
 70
     0
 43
0.0
 10
1163.930055511783
 20
-2686.735877685328
 10
685.9300161315614
 20
-2686.735877685328
  0
LINE
  5
2443F
330
18
100
AcDbEntity
  8
隠れ線
 48
0.75
100
AcDbLine
 10
685.9300161315614
 20
-2672.235877685328
 30
0.0
 11
1163.930055511783
 21
-2672.235877685328
 31
0.0
  0
LINE
  5
24440
330
18
100
AcDbEntity
  8
隠れ線
 48
0.75
100
AcDbLine
 10
685.9300161315615
 20
-2662.727285212188
 30
0.0
 11
1163.930055511783
 21
-2662.735877685328
 31
0.0
  0
LINE
  5
24446
330
18
100
AcDbEntity
  8
0
100
AcDbLine
 10
685.9300161315614
 20
-2660.735877685328
 30
0.0
 11
685.9300161315614
 21
-2686.735877685328
 31
0.0
  0
LINE
  5
2449A
330
18
100
AcDbEntity
  8
0
100
AcDbLine
 10
1163.930055511783
 20
-2660.735877685328
 30
0.0
 11
1163.930055511783
 21
-2686.735877685328
 31
0.0
  0
LWPOLYLINE
  5
244A4
330
18
100
AcDbEntity
  8
0
100
AcDbPolyline
 90
        2
 70
     0
 43
0.0
 10
1164.930055511782
 20
-2570.029521512305
 10
1004.930016131561
 20
-2570.029521512305
  0
LWPOLYLINE
  5
244A6
330
18
100
AcDbEntity
  8
0
100
AcDbPolyline
 90
        2
 70
     0
 43
0.0
 10
1164.930055511782
 20
-2526.023977168557
 10
1004.930016131561
 20
-2526.023977168557
  0
LINE
  5
244A8
330
18
100
AcDbEntity
  8
0
  6
CENTER
 48
0.3
100
AcDbLine
 10
696.6595275678444
 20
-2515.52674934043
 30
0.0
 11
704.9464675398461
 21
-2515.52674934043
 31
0.0
  0
CIRCLE
  5
244A9
330
18
100
AcDbEntity
  8
0
100
AcDbCircle
 10
700.9078331117835
 20
-2515.52674934043
 30
0.0
 40
2.5
  0
CIRCLE
  5
244AA
330
18
100
AcDbEntity
  8
0
100
AcDbCircle
 10
700.9078331117835
 20
-2515.546667644736
 30
0.0
 40
2.0
  0
LINE
  5
244AB
330
18
100
AcDbEntity
  8
0
  6
CENTER
 48
0.3
100
AcDbLine
 10
696.6595275678444
 20
-2580.526749340432
 30
0.0
 11
704.9464675398461
 21
-2580.526749340432
 31
0.0
  0
CIRCLE
  5
244AC
330
18
100
AcDbEntity
  8
0
100
AcDbCircle
 10
700.9078331117835
 20
-2580.526749340432
 30
0.0
 40
2.5
  0
CIRCLE
  5
244AD
330
18
100
AcDbEntity
  8
0
100
AcDbCircle
 10
700.9078331117835
 20
-2580.534884136275
 30
0.0
 40
2.0
  0
LINE
  5
244AE
330
18
100
AcDbEntity
  8
0
100
AcDbLine
 10
685.9300161315614
 20
-2570.029521512305
 30
0.0
 11
685.9300161315614
 21
-2588.012766654612
 31
0.0
  0
LINE
  5
244AF
330
18
100
AcDbEntity
  8
0
  6
CENTER
 48
0.3
100
AcDbLine
 10
700.9078331117835
 20
-2584.196962531339
 30
0.0
 11
700.9078331117835
 21
-2577.093657367189
 31
0.0
  0
LINE
  5
244B0
330
18
100
AcDbEntity
  8
0
100
AcDbLine
 10
685.9300161315614
 20
-2508.040732026251
 30
0.0
 11
685.9300161315614
 21
-2526.023977168557
 31
0.0
  0
LINE
  5
244B1
330
18
100
AcDbEntity
  8
0
  6
CENTER
 48
0.3
100
AcDbLine
 10
700.9078331117835
 20
-2519.196962531339
 30
0.0
 11
700.9078331117835
 21
-2512.093657367188
 31
0.0
  0
LINE
  5
244CC
330
18
100
AcDbEntity
  8
0
100
AcDbLine
 10
1163.950016131561
 20
-2570.029521512305
 30
0.0
 11
1163.930055511783
 21
-2588.026749340432
 31
0.0
  0
LINE
  5
244CD
330
18
100
AcDbEntity
  8
0
100
AcDbLine
 10
1163.930055511783
 20
-2508.040732026251
 30
0.0
 11
1163.930055511783
 21
-2526.023977168557
 31
0.0
  0
LINE
  5
244D3
330
18
100
AcDbEntity
  8
0
  6
CENTER
 48
0.75
100
AcDbLine
 10
1227.712103663692
 20
-2664.463880517334
 30
0.0
 11
1219.118397346996
 21
-2691.997305494282
 31
0.0
  0
LWPOLYLINE
  5
244D4
330
18
100
AcDbEntity
  8
0
100
AcDbPolyline
 90
        4
 70
     0
 43
0.0
 10
1222.352621230633
 20
-2681.635157036196
 10
1183.070094383044
 20
-2681.635157036196
 10
1183.070094383044
 20
-2674.157739287345
 10
1224.686465719456
 20
-2674.157739287345
  0
LINE
  5
244D5
330
18
100
AcDbEntity
  8
0
100
AcDbLine
 10
1178.907833111783
 20
-2660.735877685328
 30
0.0
 11
1178.907833111783
 21
-2700.735877685328
 31
0.0
  0
LWPOLYLINE
  5
244D6
330
18
100
AcDbEntity
  8
0
100
AcDbPolyline
 90
        4
 70
     0
 43
0.0
 10
1229.380288468079
 20
-2674.157739287345
 10
1242.081372571803
 20
-2674.157739287345
 10
1242.081372571803
 20
-2681.635157036196
 10
1227.046443979255
 20
-2681.635157036196
  0
LINE
  5
244D7
330
18
100
AcDbEntity
  8
0
  6
CENTER
 48
0.75
100
AcDbLine
 10
1232.405926412314
 20
-2664.463880517334
 30
0.0
 11
1223.812220095618
 21
-2691.997305494282
 31
0.0
  0
LINE
  5
244F9
330
18
100
AcDbEntity
  8
0
  6
CENTER
 48
0.75
100
AcDbLine
 10
1344.067261409102
 20
-2548.026749340431
 30
0.0
 11
1413.504405282671
 21
-2548.026749340431
 31
0.0
  0
LINE
  5
244FA
330
18
100
AcDbEntity
  8
0
 48
0.3
100
AcDbLine
 10
1390.827167039283
 20
-2588.026749340432
 30
0.0
 11
1350.827167039283
 21
-2588.026749340432
 31
0.0
  0
LINE
  5
244FB
330
18
100
AcDbEntity
  8
0
 48
0.3
100
AcDbLine
 10
1350.827167039283
 20
-2508.026749340432
 30
0.0
 11
1390.827167039283
 21
-2508.026749340432
 31
0.0
  0
LINE
  5
24502
330
18
100
AcDbEntity
  8
0
  6
CENTER
 48
0.75
100
AcDbLine
 10
1227.712103663692
 20
-2567.032797367825
 30
0.0
 11
1219.118397346996
 21
-2594.566222344772
 31
0.0
  0
LWPOLYLINE
  5
24503
330
18
100
AcDbEntity
  8
0
100
AcDbPolyline
 90
        4
 70
     0
 43
0.0
 10
1222.418829719084
 20
-2583.991948130651
 10
1183.070094383044
 20
-2583.991948130651
 10
1183.070094383044
 20
-2576.5145303818
 10
1224.752674207906
 20
-2576.5145303818
  0
LINE
  5
24504
330
18
100
AcDbEntity
  8
0
100
AcDbLine
 10
1178.907833111783
 20
-2588.026749340432
 30
0.0
 11
1178.907833111783
 21
-2508.040732026251
 31
0.0
  0
LWPOLYLINE
  5
24505
330
18
100
AcDbEntity
  8
0
100
AcDbPolyline
 90
        4
 70
     0
 43
0.0
 10
1229.446496956529
 20
-2576.5145303818
 10
1242.081372571803
 20
-2576.5145303818
 10
1242.081372571803
 20
-2583.991948130651
 10
1227.112652467706
 20
-2583.991948130651
  0
LINE
  5
24506
330
18
100
AcDbEntity
  8
0
  6
CENTER
 48
0.75
100
AcDbLine
 10
1232.405926412314
 20
-2567.032797367825
 30
0.0
 11
1223.812220095618
 21
-2594.566222344772
 31
0.0
  0
LINE
  5
2452B
330
18
100
AcDbEntity
  8
0
 48
0.3
100
AcDbLine
 10
1351.327167039283
 20
-2570.02674934043
 30
0.0
 11
1350.827158254757
 21
-2570.02674934043
 31
0.0
  0
LINE
  5
2452C
330
18
100
AcDbEntity
  8
細線
100
AcDbLine
 10
1364.30065801093
 20
-2580.41775909121
 30
0.0
 11
1364.491633133352
 21
-2580.226783968789
 31
0.0
  0
CIRCLE
  5
2452D
330
18
100
AcDbEntity
  8
実線
100
AcDbCircle
 10
1368.027167039283
 20
-2580.10037846546
 30
0.0
 40
3.74
  0
LINE
  5
2452E
330
18
100
AcDbEntity
  8
0
  6
CENTER
 48
0.3
100
AcDbLine
 10
1372.654886911321
 20
-2580.226783968792
 30
0.0
 11
1362.522825110805
 21
-2580.226783968792
 31
0.0
  0
LINE
  5
24538
330
18
100
AcDbEntity
  8
細線
100
AcDbLine
 10
1364.44084396819
 20
-2581.161456610435
 30
0.0
 11
1365.375516609834
 21
-2580.22678396879
 31
0.0
  0
LINE
  5
24539
330
18
100
AcDbEntity
  8
細線
100
AcDbLine
 10
1367.165772532318
 20
-2583.739828905206
 30
0.0
 11
1368.027167039283
 21
-2582.878434398241
 31
0.0
  0
LINE
  5
2453A
330
18
100
AcDbEntity
  8
細線
100
AcDbLine
 10
1371.562700945216
 20
-2580.226783968792
 30
0.0
 11
1371.76636889455
 21
-2580.023116019458
 31
0.0
  0
LINE
  5
2453B
330
18
100
AcDbEntity
  8
細線
100
AcDbLine
 10
1370.678817468733
 20
-2580.226783968792
 30
0.0
 11
1371.66661747903
 21
-2579.238983958495
 31
0.0
  0
LINE
  5
2453C
330
18
100
AcDbEntity
  8
細線
100
AcDbLine
 10
1368.027167039283
 20
-2577.575133539342
 30
0.0
 11
1369.088245184258
 21
-2576.514055394366
 31
0.0
  0
LINE
  5
2453D
330
18
100
AcDbEntity
  8
細線
100
AcDbLine
 10
1368.027167039283
 20
-2576.691250062859
 30
0.0
 11
1368.344547665034
 21
-2576.373869437107
 31
0.0
  0
LINE
  5
2453E
330
18
100
AcDbEntity
  8
細線
100
AcDbLine
 10
1369.79493399225
 20
-2580.226783968792
 30
0.0
 11
1371.443428772828
 21
-2578.578289188211
 31
0.0
  0
LINE
  5
2453F
330
18
100
AcDbEntity
  8
細線
100
AcDbLine
 10
1368.911050515766
 20
-2580.226783968792
 30
0.0
 11
1371.128198476712
 21
-2578.009636007845
 31
0.0
  0
LINE
  5
24540
330
18
100
AcDbEntity
  8
細線
100
AcDbLine
 10
1368.027167039283
 20
-2580.226783968792
 30
0.0
 11
1370.734193804037
 21
-2577.519757204038
 31
0.0
  0
LINE
  5
24541
330
18
100
AcDbEntity
  8
細線
100
AcDbLine
 10
1366.505077762036
 20
-2583.516640199005
 30
0.0
 11
1368.027167039283
 21
-2581.994550921758
 31
0.0
  0
LINE
  5
24542
330
18
100
AcDbEntity
  8
細線
100
AcDbLine
 10
1365.936424581668
 20
-2583.201409902889
 30
0.0
 11
1368.027167039283
 21
-2581.110667445276
 31
0.0
  0
LINE
  5
24543
330
18
100
AcDbEntity
  8
細線
100
AcDbLine
 10
1365.446545777861
 20
-2582.807405230214
 30
0.0
 11
1368.027167039283
 21
-2580.226783968792
 31
0.0
  0
LINE
  5
24544
330
18
100
AcDbEntity
  8
細線
100
AcDbLine
 10
1365.03110942861
 20
-2582.338958102981
 30
0.0
 11
1367.1432835628
 21
-2580.226783968792
 31
0.0
  0
LINE
  5
24545
330
18
100
AcDbEntity
  8
細線
100
AcDbLine
 10
1364.692468982005
 20
-2581.793715073103
 30
0.0
 11
1366.259400086317
 21
-2580.226783968791
 31
0.0
  0
LINE
  5
24546
330
18
100
AcDbEntity
  8
細線
100
AcDbLine
 10
1368.027167039283
 20
-2579.342900492309
 30
0.0
 11
1370.265746676805
 21
-2577.104320854787
 31
0.0
  0
LINE
  5
24547
330
18
100
AcDbEntity
  8
細線
100
AcDbLine
 10
1368.027167039283
 20
-2578.459017015825
 30
0.0
 11
1369.720503646925
 21
-2576.765680408181
 31
0.0
  0
LINE
  5
24548
330
18
100
AcDbEntity
  8
0
  6
CENTER
 48
0.3
100
AcDbLine
 10
1368.027167039283
 20
-2575.187211562818
 30
0.0
 11
1368.027167039283
 21
-2584.666488639107
 31
0.0
  0
CIRCLE
  5
24549
330
18
100
AcDbEntity
  8
0
  6
HIDDEN
 48
0.75
100
AcDbCircle
 10
1358.826786848614
 20
-2578.03887637926
 30
0.0
 40
4.0
  0
LINE
  5
24552
330
18
100
AcDbEntity
  8
0
 48
0.3
100
AcDbLine
 10
1350.827158254757
 20
-2526.026749340431
 30
0.0
 11
1351.327167039283
 21
-2526.026749340431
 31
0.0
  0
CIRCLE
  5
2455D
330
18
100
AcDbEntity
  8
0
  6
HIDDEN
 48
0.75
100
AcDbCircle
 10
1358.826786848614
 20
-2518.03887637926
 30
0.0
 40
4.0
  0
LINE
  5
24564
330
18
100
AcDbEntity
  8
0
 48
0.3
100
AcDbLine
 10
1390.827167039283
 20
-2508.026749340432
 30
0.0
 11
1390.827167039283
 21
-2588.026783968792
 31
0.0
  0
LWPOLYLINE
  5
24565
102
{ACAD_REACTORS
330
2471A
102
}
330
18
100
AcDbEntity
  8
0
  6
PHANTOM
 48
0.75
100
AcDbPolyline
 90
        4
 70
     1
 43
0.0
 10
1392.027167039283
 20
-2523.051838382336
 10
1397.027167039283
 20
-2523.051838382336
 10
1397.027167039283
 20
-2573.027322065339
 10
1392.027167039283
 20
-2573.027322065339
  0
LINE
  5
24566
102
{ACAD_REACTORS
330
2471A
102
}
330
18
100
AcDbEntity
  8
0
  6
PHANTOM
 48
0.75
100
AcDbLine
 10
1404.827167039283
 20
-2508.026793204686
 30
0.0
 11
1404.827167039283
 21
-2588.026793204686
 31
0.0
  0
LINE
  5
24567
102
{ACAD_REACTORS
330
2471A
102
}
330
18
100
AcDbEntity
  8
0
  6
PHANTOM
 48
0.75
100
AcDbLine
 10
1397.027167039283
 20
-2588.026793204686
 30
0.0
 11
1397.027167039283
 21
-2508.026793204686
 31
0.0
  0
LINE
  5
24569
330
18
100
AcDbEntity
  8
0
  6
CENTER
 48
0.75
100
AcDbLine
 10
1414.705048150425
 20
-2580.527449340431
 30
0.0
 11
1387.74474268135
 21
-2580.527449340431
 31
0.0
  0
LINE
  5
2456F
102
{ACAD_REACTORS
330
2471A
102
}
330
18
100
AcDbEntity
  8
0
  6
PHANTOM
 48
0.75
100
AcDbLine
 10
1404.827167039283
 20
-2588.026793204686
 30
0.0
 11
1397.027167039283
 21
-2588.026793204686
 31
0.0
  0
LINE
  5
24570
330
18
100
AcDbEntity
  8
0
  6
CENTER
 48
0.75
100
AcDbLine
 10
1414.705048150425
 20
-2515.527449340432
 30
0.0
 11
1387.786886805143
 21
-2515.527449340432
 31
0.0
  0
LINE
  5
24576
102
{ACAD_REACTORS
330
2471A
102
}
330
18
100
AcDbEntity
  8
0
  6
PHANTOM
 48
0.75
100
AcDbLine
 10
1397.027167039283
 20
-2508.026793204686
 30
0.0
 11
1404.827167039283
 21
-2508.026793204686
 31
0.0
  0
CIRCLE
  5
247DA
330
18
100
AcDbEntity
  8
0
100
AcDbCircle
 10
764.9078331117837
 20
-2580.526749340432
 30
0.0
 40
2.5
  0
LINE
  5
247DB
330
18
100
AcDbEntity
  8
0
  6
CENTER
 48
0.3
100
AcDbLine
 10
760.6595275678444
 20
-2580.526749340432
 30
0.0
 11
768.9464675398465
 21
-2580.526749340432
 31
0.0
  0
CIRCLE
  5
247DC
330
18
100
AcDbEntity
  8
0
100
AcDbCircle
 10
764.9078331117837
 20
-2580.534884136275
 30
0.0
 40
2.0
  0
LINE
  5
247DD
330
18
100
AcDbEntity
  8
0
  6
CENTER
 48
0.3
100
AcDbLine
 10
764.9078331117837
 20
-2584.196962531339
 30
0.0
 11
764.9078331117837
 21
-2577.093657367189
 31
0.0
  0
CIRCLE
  5
247DE
330
18
100
AcDbEntity
  8
0
100
AcDbCircle
 10
764.9078331117837
 20
-2515.52674934043
 30
0.0
 40
2.5
  0
LINE
  5
247DF
330
18
100
AcDbEntity
  8
0
  6
CENTER
 48
0.3
100
AcDbLine
 10
760.6595275678444
 20
-2515.52674934043
 30
0.0
 11
768.9464675398465
 21
-2515.52674934043
 31
0.0
  0
CIRCLE
  5
247E0
330
18
100
AcDbEntity
  8
0
100
AcDbCircle
 10
764.9078331117837
 20
-2515.546667644736
 30
0.0
 40
2.0
  0
LINE
  5
247E1
330
18
100
AcDbEntity
  8
0
  6
CENTER
 48
0.3
100
AcDbLine
 10
764.9078331117837
 20
-2519.196962531339
 30
0.0
 11
764.9078331117837
 21
-2512.093657367188
 31
0.0
  0
CIRCLE
  5
247E2
330
18
100
AcDbEntity
  8
0
100
AcDbCircle
 10
828.9078331117837
 20
-2580.526749340432
 30
0.0
 40
2.5
  0
LINE
  5
247E3
330
18
100
AcDbEntity
  8
0
  6
CENTER
 48
0.3
100
AcDbLine
 10
824.6595275678444
 20
-2580.526749340432
 30
0.0
 11
832.9464675398465
 21
-2580.526749340432
 31
0.0
  0
CIRCLE
  5
247E4
330
18
100
AcDbEntity
  8
0
100
AcDbCircle
 10
828.9078331117837
 20
-2580.534884136275
 30
0.0
 40
2.0
  0
LINE
  5
247E5
330
18
100
AcDbEntity
  8
0
  6
CENTER
 48
0.3
100
AcDbLine
 10
828.9078331117837
 20
-2584.196962531339
 30
0.0
 11
828.9078331117837
 21
-2577.093657367189
 31
0.0
  0
CIRCLE
  5
247E6
330
18
100
AcDbEntity
  8
0
100
AcDbCircle
 10
828.9078331117837
 20
-2515.52674934043
 30
0.0
 40
2.5
  0
LINE
  5
247E7
330
18
100
AcDbEntity
  8
0
  6
CENTER
 48
0.3
100
AcDbLine
 10
824.6595275678444
 20
-2515.52674934043
 30
0.0
 11
832.9464675398465
 21
-2515.52674934043
 31
0.0
  0
CIRCLE
  5
247E8
330
18
100
AcDbEntity
  8
0
100
AcDbCircle
 10
828.9078331117837
 20
-2515.546667644736
 30
0.0
 40
2.0
  0
LINE
  5
247E9
330
18
100
AcDbEntity
  8
0
  6
CENTER
 48
0.3
100
AcDbLine
 10
828.9078331117837
 20
-2519.196962531339
 30
0.0
 11
828.9078331117837
 21
-2512.093657367188
 31
0.0
  0
CIRCLE
  5
247EA
330
18
100
AcDbEntity
  8
0
100
AcDbCircle
 10
892.9078331117837
 20
-2580.526749340432
 30
0.0
 40
2.5
  0
LINE
  5
247EB
330
18
100
AcDbEntity
  8
0
  6
CENTER
 48
0.3
100
AcDbLine
 10
888.6595275678443
 20
-2580.526749340432
 30
0.0
 11
896.9464675398464
 21
-2580.526749340432
 31
0.0
  0
CIRCLE
  5
247EC
330
18
100
AcDbEntity
  8
0
100
AcDbCircle
 10
892.9078331117837
 20
-2580.534884136275
 30
0.0
 40
2.0
  0
LINE
  5
247ED
330
18
100
AcDbEntity
  8
0
  6
CENTER
 48
0.3
100
AcDbLine
 10
892.9078331117837
 20
-2584.196962531339
 30
0.0
 11
892.9078331117837
 21
-2577.093657367189
 31
0.0
  0
CIRCLE
  5
247EE
330
18
100
AcDbEntity
  8
0
100
AcDbCircle
 10
892.9078331117837
 20
-2515.52674934043
 30
0.0
 40
2.5
  0
LINE
  5
247EF
330
18
100
AcDbEntity
  8
0
  6
CENTER
 48
0.3
100
AcDbLine
 10
888.6595275678443
 20
-2515.52674934043
 30
0.0
 11
896.9464675398464
 21
-2515.52674934043
 31
0.0
  0
CIRCLE
  5
247F0
330
18
100
AcDbEntity
  8
0
100
AcDbCircle
 10
892.9078331117837
 20
-2515.546667644736
 30
0.0
 40
2.0
  0
LINE
  5
247F1
330
18
100
AcDbEntity
  8
0
  6
CENTER
 48
0.3
100
AcDbLine
 10
892.9078331117837
 20
-2519.196962531339
 30
0.0
 11
892.9078331117837
 21
-2512.093657367188
 31
0.0
  0
CIRCLE
  5
247F2
330
18
100
AcDbEntity
  8
0
100
AcDbCircle
 10
956.9078331117836
 20
-2580.526749340432
 30
0.0
 40
2.5
  0
LINE
  5
247F3
330
18
100
AcDbEntity
  8
0
  6
CENTER
 48
0.3
100
AcDbLine
 10
952.6595275678443
 20
-2580.526749340432
 30
0.0
 11
960.9464675398463
 21
-2580.526749340432
 31
0.0
  0
CIRCLE
  5
247F4
330
18
100
AcDbEntity
  8
0
100
AcDbCircle
 10
956.9078331117836
 20
-2580.534884136275
 30
0.0
 40
2.0
  0
LINE
  5
247F5
330
18
100
AcDbEntity
  8
0
  6
CENTER
 48
0.3
100
AcDbLine
 10
956.9078331117836
 20
-2584.196962531339
 30
0.0
 11
956.9078331117836
 21
-2577.093657367189
 31
0.0
  0
CIRCLE
  5
247F6
330
18
100
AcDbEntity
  8
0
100
AcDbCircle
 10
956.9078331117836
 20
-2515.52674934043
 30
0.0
 40
2.5
  0
LINE
  5
247F7
330
18
100
AcDbEntity
  8
0
  6
CENTER
 48
0.3
100
AcDbLine
 10
952.6595275678443
 20
-2515.52674934043
 30
0.0
 11
960.9464675398463
 21
-2515.52674934043
 31
0.0
  0
CIRCLE
  5
247F8
330
18
100
AcDbEntity
  8
0
100
AcDbCircle
 10
956.9078331117836
 20
-2515.546667644736
 30
0.0
 40
2.0
  0
LINE
  5
247F9
330
18
100
AcDbEntity
  8
0
  6
CENTER
 48
0.3
100
AcDbLine
 10
956.9078331117836
 20
-2519.196962531339
 30
0.0
 11
956.9078331117836
 21
-2512.093657367188
 31
0.0
  0
CIRCLE
  5
247FA
330
18
100
AcDbEntity
  8
0
100
AcDbCircle
 10
1020.907833111783
 20
-2580.526749340432
 30
0.0
 40
2.5
  0
LINE
  5
247FB
330
18
100
AcDbEntity
  8
0
  6
CENTER
 48
0.3
100
AcDbLine
 10
1016.659527567844
 20
-2580.526749340432
 30
0.0
 11
1024.946467539846
 21
-2580.526749340432
 31
0.0
  0
CIRCLE
  5
247FC
330
18
100
AcDbEntity
  8
0
100
AcDbCircle
 10
1020.907833111783
 20
-2580.534884136275
 30
0.0
 40
2.0
  0
LINE
  5
247FD
330
18
100
AcDbEntity
  8
0
  6
CENTER
 48
0.3
100
AcDbLine
 10
1020.907833111783
 20
-2584.196962531339
 30
0.0
 11
1020.907833111783
 21
-2577.093657367189
 31
0.0
  0
CIRCLE
  5
247FE
330
18
100
AcDbEntity
  8
0
100
AcDbCircle
 10
1020.907833111783
 20
-2515.52674934043
 30
0.0
 40
2.5
  0
LINE
  5
247FF
330
18
100
AcDbEntity
  8
0
  6
CENTER
 48
0.3
100
AcDbLine
 10
1016.659527567844
 20
-2515.52674934043
 30
0.0
 11
1024.946467539846
 21
-2515.52674934043
 31
0.0
  0
CIRCLE
  5
24800
330
18
100
AcDbEntity
  8
0
100
AcDbCircle
 10
1020.907833111783
 20
-2515.546667644736
 30
0.0
 40
2.0
  0
LINE
  5
24801
330
18
100
AcDbEntity
  8
0
  6
CENTER
 48
0.3
100
AcDbLine
 10
1020.907833111783
 20
-2519.196962531339
 30
0.0
 11
1020.907833111783
 21
-2512.093657367188
 31
0.0
  0
CIRCLE
  5
24802
330
18
100
AcDbEntity
  8
0
100
AcDbCircle
 10
1084.907833111783
 20
-2580.526749340432
 30
0.0
 40
2.5
  0
LINE
  5
24803
330
18
100
AcDbEntity
  8
0
  6
CENTER
 48
0.3
100
AcDbLine
 10
1080.659527567844
 20
-2580.526749340432
 30
0.0
 11
1088.946467539846
 21
-2580.526749340432
 31
0.0
  0
CIRCLE
  5
24804
330
18
100
AcDbEntity
  8
0
100
AcDbCircle
 10
1084.907833111783
 20
-2580.534884136275
 30
0.0
 40
2.0
  0
LINE
  5
24805
330
18
100
AcDbEntity
  8
0
  6
CENTER
 48
0.3
100
AcDbLine
 10
1084.907833111783
 20
-2584.196962531339
 30
0.0
 11
1084.907833111783
 21
-2577.093657367189
 31
0.0
  0
CIRCLE
  5
24806
330
18
100
AcDbEntity
  8
0
100
AcDbCircle
 10
1084.907833111783
 20
-2515.52674934043
 30
0.0
 40
2.5
  0
LINE
  5
24807
330
18
100
AcDbEntity
  8
0
  6
CENTER
 48
0.3
100
AcDbLine
 10
1080.659527567844
 20
-2515.52674934043
 30
0.0
 11
1088.946467539846
 21
-2515.52674934043
 31
0.0
  0
CIRCLE
  5
24808
330
18
100
AcDbEntity
  8
0
100
AcDbCircle
 10
1084.907833111783
 20
-2515.546667644736
 30
0.0
 40
2.0
  0
LINE
  5
24809
330
18
100
AcDbEntity
  8
0
  6
CENTER
 48
0.3
100
AcDbLine
 10
1084.907833111783
 20
-2519.196962531339
 30
0.0
 11
1084.907833111783
 21
-2512.093657367188
 31
0.0
  0
CIRCLE
  5
2480A
330
18
100
AcDbEntity
  8
0
100
AcDbCircle
 10
1148.907833111783
 20
-2580.526749340432
 30
0.0
 40
2.5
  0
LINE
  5
2480B
330
18
100
AcDbEntity
  8
0
  6
CENTER
 48
0.3
100
AcDbLine
 10
1144.659527567844
 20
-2580.526749340432
 30
0.0
 11
1152.946467539844
 21
-2580.526749340432
 31
0.0
  0
CIRCLE
  5
2480C
330
18
100
AcDbEntity
  8
0
100
AcDbCircle
 10
1148.907833111783
 20
-2580.534884136275
 30
0.0
 40
2.0
  0
LINE
  5
2480D
330
18
100
AcDbEntity
  8
0
  6
CENTER
 48
0.3
100
AcDbLine
 10
1148.907833111783
 20
-2584.196962531339
 30
0.0
 11
1148.907833111783
 21
-2577.093657367189
 31
0.0
  0
CIRCLE
  5
2480E
330
18
100
AcDbEntity
  8
0
100
AcDbCircle
 10
1148.907833111783
 20
-2515.52674934043
 30
0.0
 40
2.5
  0
LINE
  5
2480F
330
18
100
AcDbEntity
  8
0
  6
CENTER
 48
0.3
100
AcDbLine
 10
1144.659527567844
 20
-2515.52674934043
 30
0.0
 11
1152.946467539844
 21
-2515.52674934043
 31
0.0
  0
CIRCLE
  5
24810
330
18
100
AcDbEntity
  8
0
100
AcDbCircle
 10
1148.907833111783
 20
-2515.546667644736
 30
0.0
 40
2.0
  0
LINE
  5
24811
330
18
100
AcDbEntity
  8
0
  6
CENTER
 48
0.3
100
AcDbLine
 10
1148.907833111783
 20
-2519.196962531339
 30
0.0
 11
1148.907833111783
 21
-2512.093657367188
 31
0.0
  0
LINE
  5
24843
102
{ACAD_REACTORS
330
24913
102
}
330
18
100
AcDbEntity
  8
0
100
AcDbLine
 10
1263.981372571804
 20
-2685.385973251714
 30
0.0
 11
1263.981372571804
 21
-2670.260973251714
 31
0.0
  0
LINE
  5
24845
102
{ACAD_REACTORS
330
24913
102
}
330
18
100
AcDbEntity
  8
0
100
AcDbLine
 10
1287.981372571804
 20
-2685.385973251714
 30
0.0
 11
1263.981372571804
 21
-2685.385973251714
 31
0.0
  0
LINE
  5
24846
102
{ACAD_REACTORS
330
24913
102
}
330
18
100
AcDbEntity
  8
0
100
AcDbLine
 10
1288.981372571804
 20
-2689.010973251714
 30
0.0
 11
1301.981372571804
 21
-2689.010973251714
 31
0.0
  0
LINE
  5
24847
102
{ACAD_REACTORS
330
24913
102
}
330
18
100
AcDbEntity
  8
0
100
AcDbLine
 10
1288.981372571804
 20
-2688.260973251713
 30
0.0
 11
1301.981372571804
 21
-2688.260973251713
 31
0.0
  0
LINE
  5
24848
102
{ACAD_REACTORS
330
24913
102
}
330
18
100
AcDbEntity
  8
0
100
AcDbLine
 10
1287.981372571804
 20
-2685.385973251714
 30
0.0
 11
1288.981372571804
 21
-2684.760973251714
 31
0.0
  0
LINE
  5
24849
102
{ACAD_REACTORS
330
24913
102
}
330
18
100
AcDbEntity
  8
0
100
AcDbLine
 10
1288.981372571804
 20
-2689.010973251714
 30
0.0
 11
1287.981372571804
 21
-2685.385973251714
 31
0.0
  0
LINE
  5
2484A
102
{ACAD_REACTORS
330
24913
102
}
330
18
100
AcDbEntity
  8
0
100
AcDbLine
 10
1288.981372571804
 20
-2689.010973251714
 30
0.0
 11
1288.981372571804
 21
-2684.760973251714
 31
0.0
  0
LINE
  5
2484C
102
{ACAD_REACTORS
330
24913
102
}
330
18
100
AcDbEntity
  8
0
100
AcDbLine
 10
1287.981372571804
 20
-2670.260973251714
 30
0.0
 11
1263.981372571804
 21
-2670.260973251714
 31
0.0
  0
LINE
  5
2484D
102
{ACAD_REACTORS
330
24913
102
}
330
18
100
AcDbEntity
  8
0
100
AcDbLine
 10
1242.673264463695
 20
-2680.060973251713
 30
0.0
 11
1263.981372571804
 21
-2683.660973251713
 31
0.0
  0
LINE
  5
2484E
102
{ACAD_REACTORS
330
24913
102
}
330
18
100
AcDbEntity
  8
0
100
AcDbLine
 10
1242.081372571804
 20
-2675.760973251713
 30
0.0
 11
1263.981372571804
 21
-2672.060973251713
 31
0.0
  0
LINE
  5
2484F
102
{ACAD_REACTORS
330
24913
102
}
330
18
100
AcDbEntity
  8
0
100
AcDbLine
 10
1242.081372571804
 20
-2678.160973251713
 30
0.0
 11
1263.981372571804
 21
-2674.460973251713
 31
0.0
  0
LINE
  5
24850
102
{ACAD_REACTORS
330
24913
102
}
330
18
100
AcDbEntity
  8
0
100
AcDbLine
 10
1242.081372571804
 20
-2677.760973251713
 30
0.0
 11
1263.981372571804
 21
-2674.060973251711
 31
0.0
  0
LINE
  5
24851
102
{ACAD_REACTORS
330
24913
102
}
330
18
100
AcDbEntity
  8
0
100
AcDbLine
 10
1242.081372571804
 20
-2680.160973251713
 30
0.0
 11
1263.981372571804
 21
-2676.460973251713
 31
0.0
  0
LINE
  5
24852
102
{ACAD_REACTORS
330
24913
102
}
330
18
100
AcDbEntity
  8
0
100
AcDbLine
 10
1248.695466531535
 20
-2679.043523587282
 30
0.0
 11
1263.981372571804
 21
-2681.660973251713
 31
0.0
  0
LINE
  5
24853
102
{ACAD_REACTORS
330
24913
102
}
330
18
100
AcDbEntity
  8
0
100
AcDbLine
 10
1249.7759671664
 20
-2678.860973251714
 30
0.0
 11
1263.981372571804
 21
-2681.260973251713
 31
0.0
  0
LINE
  5
24854
102
{ACAD_REACTORS
330
24913
102
}
330
18
100
AcDbEntity
  8
基板
100
AcDbLine
 10
1242.081372571803
 20
-2681.14644816177
 30
0.0
 11
1242.081372571803
 21
-2674.646448161771
 31
0.0
  0
LINE
  5
24855
102
{ACAD_REACTORS
330
24913
102
}
330
18
100
AcDbEntity
  8
0
100
AcDbLine
 10
1242.081372571804
 20
-2675.510973251713
 30
0.0
 11
1242.816271900661
 21
-2675.636812177887
 31
0.0
  0
LINE
  5
24856
102
{ACAD_REACTORS
330
24913
102
}
330
18
100
AcDbEntity
  8
0
100
AcDbLine
 10
1242.081372571804
 20
-2677.910973251713
 30
0.0
 11
1242.816271900661
 21
-2678.036812177888
 31
0.0
  0
LINE
  5
24857
102
{ACAD_REACTORS
330
24913
102
}
330
18
100
AcDbEntity
  8
0
100
AcDbLine
 10
1242.673264463695
 20
-2677.660973251713
 30
0.0
 11
1243.85704824748
 21
-2677.860973251714
 31
0.0
  0
LINE
  5
24858
102
{ACAD_REACTORS
330
24913
102
}
330
18
100
AcDbEntity
  8
0
100
AcDbLine
 10
1248.695466531535
 20
-2676.643523587284
 30
0.0
 11
1249.871305457709
 21
-2676.844865869163
 31
0.0
  0
LINE
  5
2485A
102
{ACAD_REACTORS
330
24913
102
}
330
18
100
AcDbEntity
  8
0
100
AcDbLine
 10
1263.981372571804
 20
-2685.135973251713
 30
0.0
 11
1263.981372571804
 21
-2670.385973251713
 31
0.0
  0
LINE
  5
2485E
102
{ACAD_REACTORS
330
24913
102
}
330
18
100
AcDbEntity
  8
0
100
AcDbLine
 10
1255.750500088582
 20
-2677.851577278559
 30
0.0
 11
1263.981372571804
 21
-2679.260973251713
 31
0.0
  0
LINE
  5
2485F
102
{ACAD_REACTORS
330
24913
102
}
330
18
100
AcDbEntity
  8
0
100
AcDbLine
 10
1288.981372571804
 20
-2685.260973251713
 30
0.0
 11
1301.981372571804
 21
-2685.260973251713
 31
0.0
  0
LINE
  5
24860
102
{ACAD_REACTORS
330
24913
102
}
330
18
100
AcDbEntity
  8
0
100
AcDbLine
 10
1288.981372571804
 20
-2682.260973251713
 30
0.0
 11
1301.981372571804
 21
-2682.260973251713
 31
0.0
  0
LINE
  5
24861
102
{ACAD_REACTORS
330
24913
102
}
330
18
100
AcDbEntity
  8
0
100
AcDbLine
 10
1288.981372571804
 20
-2673.260973251712
 30
0.0
 11
1301.981372571804
 21
-2673.260973251712
 31
0.0
  0
LINE
  5
24862
102
{ACAD_REACTORS
330
24913
102
}
330
18
100
AcDbEntity
  8
0
100
AcDbLine
 10
1288.981372571804
 20
-2667.260973251713
 30
0.0
 11
1301.981372571804
 21
-2667.260973251713
 31
0.0
  0
LINE
  5
24863
102
{ACAD_REACTORS
330
24913
102
}
330
18
100
AcDbEntity
  8
0
100
AcDbLine
 10
1288.981372571804
 20
-2670.260973251713
 30
0.0
 11
1301.981372571804
 21
-2670.260973251713
 31
0.0
  0
LINE
  5
24864
102
{ACAD_REACTORS
330
24913
102
}
330
18
100
AcDbEntity
  8
0
100
AcDbLine
 10
1301.981372571804
 20
-2666.510973251713
 30
0.0
 11
1288.981372571804
 21
-2666.510973251713
 31
0.0
  0
LINE
  5
24865
102
{ACAD_REACTORS
330
24913
102
}
330
18
100
AcDbEntity
  8
0
100
AcDbLine
 10
1288.981372571804
 20
-2679.260973251713
 30
0.0
 11
1301.981372571804
 21
-2679.260973251713
 31
0.0
  0
LINE
  5
24866
102
{ACAD_REACTORS
330
24913
102
}
330
18
100
AcDbEntity
  8
0
100
AcDbLine
 10
1288.981372571804
 20
-2676.260973251713
 30
0.0
 11
1301.981372571804
 21
-2676.260973251713
 31
0.0
  0
LINE
  5
24867
102
{ACAD_REACTORS
330
24913
102
}
330
18
100
AcDbEntity
  8
0
100
AcDbLine
 10
1288.981372571804
 20
-2685.260973251713
 30
0.0
 11
1288.981372571804
 21
-2682.260973251713
 31
0.0
  0
LINE
  5
24868
102
{ACAD_REACTORS
330
24913
102
}
330
18
100
AcDbEntity
  8
0
100
AcDbLine
 10
1288.981372571804
 20
-2673.260973251712
 30
0.0
 11
1288.981372571804
 21
-2670.260973251713
 31
0.0
  0
LINE
  5
24869
102
{ACAD_REACTORS
330
24913
102
}
330
18
100
AcDbEntity
  8
0
100
AcDbLine
 10
1288.981372571804
 20
-2666.510973251713
 30
0.0
 11
1287.981372571804
 21
-2670.260973251713
 31
0.0
  0
LINE
  5
2486A
102
{ACAD_REACTORS
330
24913
102
}
330
18
100
AcDbEntity
  8
0
100
AcDbLine
 10
1287.981372571804
 20
-2670.260973251713
 30
0.0
 11
1288.981372571804
 21
-2670.760973251713
 31
0.0
  0
LINE
  5
2486B
102
{ACAD_REACTORS
330
24913
102
}
330
18
100
AcDbEntity
  8
0
100
AcDbLine
 10
1288.981372571804
 20
-2670.760973251713
 30
0.0
 11
1288.981372571804
 21
-2666.510973251713
 31
0.0
  0
LINE
  5
2486C
102
{ACAD_REACTORS
330
24913
102
}
330
18
100
AcDbEntity
  8
0
100
AcDbLine
 10
1288.981372571804
 20
-2679.260973251713
 30
0.0
 11
1288.981372571804
 21
-2676.260973251713
 31
0.0
  0
LWPOLYLINE
  5
248CE
330
18
100
AcDbEntity
  8
0
100
AcDbPolyline
 90
        2
 70
     0
 43
0.0
 10
1201.330187403085
 20
-2583.991948130651
 10
1187.762701244495
 20
-2583.991948130651
  0
LWPOLYLINE
  5
248F1
330
18
100
AcDbEntity
  8
0
100
AcDbPolyline
 90
        2
 70
     0
 43
0.0
 10
1183.07056162137
 20
-2576.5145303818
 10
1198.505123371018
 20
-2576.5145303818
  0
LINE
  5
248F2
330
18
100
AcDbEntity
  8
0
 48
10.0
100
AcDbLine
 10
1183.070094383044
 20
-2584.968060648822
 30
0.0
 11
1178.907833111783
 21
-2584.968060648822
 31
0.0
  0
LINE
  5
248F4
330
18
100
AcDbEntity
  8
0
 48
10.0
100
AcDbLine
 10
1178.907833111783
 20
-2575.461021905064
 30
0.0
 11
1183.070094383044
 21
-2575.461021905064
 31
0.0
  0
LINE
  5
248F6
330
18
100
AcDbEntity
  8
0
100
AcDbLine
 10
1183.070094383044
 20
-2575.461021905064
 30
0.0
 11
1183.070094383044
 21
-2584.968060648822
 31
0.0
  0
LINE
  5
248F7
330
18
100
AcDbEntity
  8
0
 48
10.0
100
AcDbLine
 10
1183.070094383044
 20
-2682.611269554367
 30
0.0
 11
1178.907833111783
 21
-2682.611269554367
 31
0.0
  0
LINE
  5
248F8
330
18
100
AcDbEntity
  8
0
 48
10.0
100
AcDbLine
 10
1178.907833111783
 20
-2673.104230810609
 30
0.0
 11
1183.070094383044
 21
-2673.104230810609
 31
0.0
  0
LWPOLYLINE
  5
248F9
330
18
100
AcDbEntity
  8
0
100
AcDbPolyline
 90
        2
 70
     0
 43
0.0
 10
1183.07056162137
 20
-2674.157739287345
 10
1198.505123371018
 20
-2674.157739287345
  0
LWPOLYLINE
  5
248FA
330
18
100
AcDbEntity
  8
0
100
AcDbPolyline
 90
        4
 70
     0
 43
0.0
 10
1222.418829719084
 20
-2681.635157036196
 10
1183.070094383044
 20
-2681.635157036196
 10
1183.070094383044
 20
-2674.157739287345
 10
1224.752674207906
 20
-2674.157739287345
  0
LINE
  5
248FC
330
18
100
AcDbEntity
  8
0
100
AcDbLine
 10
1183.070094383044
 20
-2673.104230810609
 30
0.0
 11
1183.070094383044
 21
-2682.611269554367
 31
0.0
  0
LINE
  5
2490B
102
{ACAD_REACTORS
330
24913
102
}
330
18
100
AcDbEntity
  8
0
100
AcDbLine
 10
1305.981372571804
 20
-2691.110973251714
 30
0.0
 11
1301.981372571804
 21
-2691.110973251714
 31
0.0
  0
LINE
  5
2490C
102
{ACAD_REACTORS
330
24913
102
}
330
18
100
AcDbEntity
  8
0
100
AcDbLine
 10
1301.981372571804
 20
-2691.110973251714
 30
0.0
 11
1301.981372571804
 21
-2664.410973251713
 31
0.0
  0
LINE
  5
2490D
102
{ACAD_REACTORS
330
24913
102
}
330
18
100
AcDbEntity
  8
0
100
AcDbLine
 10
1301.981372571804
 20
-2664.410973251713
 30
0.0
 11
1305.981372571804
 21
-2664.410973251713
 31
0.0
  0
LINE
  5
2490E
102
{ACAD_REACTORS
330
24913
102
}
330
18
100
AcDbEntity
  8
0
100
AcDbLine
 10
1305.981372571804
 20
-2664.410973251713
 30
0.0
 11
1305.981372571804
 21
-2691.110973251714
 31
0.0
  0
LINE
  5
2490F
102
{ACAD_REACTORS
330
24913
102
}
330
18
100
AcDbEntity
  8
0
100
AcDbLine
 10
1310.981372571804
 20
-2689.010973251714
 30
0.0
 11
1305.981372571804
 21
-2689.010973251714
 31
0.0
  0
LINE
  5
24910
102
{ACAD_REACTORS
330
24913
102
}
330
18
100
AcDbEntity
  8
0
100
AcDbLine
 10
1305.981372571804
 20
-2691.110973251714
 30
0.0
 11
1305.981372571804
 21
-2664.410973251713
 31
0.0
  0
LINE
  5
24911
102
{ACAD_REACTORS
330
24913
102
}
330
18
100
AcDbEntity
  8
0
100
AcDbLine
 10
1305.981372571804
 20
-2666.510973251713
 30
0.0
 11
1310.981372571804
 21
-2666.510973251713
 31
0.0
  0
LINE
  5
24912
102
{ACAD_REACTORS
330
24913
102
}
330
18
100
AcDbEntity
  8
0
100
AcDbLine
 10
1310.981372571804
 20
-2666.510973251713
 30
0.0
 11
1310.981372571804
 21
-2689.010973251714
 31
0.0
  0
LINE
  5
2499C
330
18
100
AcDbEntity
  8
0
  6
CENTER
 48
0.75
100
AcDbLine
 10
700.9078331117835
 20
-2674.117922009067
 30
0.0
 11
700.9078331117835
 21
-2659.269429189102
 31
0.0
  0
LINE
  5
2499D
330
18
100
AcDbEntity
  8
隠れ線
 48
0.75
100
AcDbLine
 10
698.9070971919257
 20
-2660.735877685328
 30
0.0
 11
698.9070971919257
 21
-2670.735877685328
 31
0.0
  0
LINE
  5
2499E
330
18
100
AcDbEntity
  8
隠れ線
 48
0.75
100
AcDbLine
 10
699.4070971919257
 20
-2660.735877685328
 30
0.0
 11
699.4070971919257
 21
-2672.235877685327
 31
0.0
  0
LINE
  5
2499F
330
18
100
AcDbEntity
  8
隠れ線
 48
0.75
100
AcDbLine
 10
698.9070971919257
 20
-2670.735877685328
 30
0.0
 11
702.8996196827319
 21
-2670.735877685328
 31
0.0
  0
LINE
  5
249A0
330
18
100
AcDbEntity
  8
隠れ線
 48
0.75
100
AcDbLine
 10
702.4070971919257
 20
-2660.735877685328
 30
0.0
 11
702.4070971919257
 21
-2672.235877685327
 31
0.0
  0
LINE
  5
249A1
330
18
100
AcDbEntity
  8
隠れ線
 48
0.75
100
AcDbLine
 10
702.4070971919257
 20
-2671.424570339599
 30
0.0
 11
702.8996196827319
 21
-2670.735877685328
 31
0.0
  0
LINE
  5
249A2
330
18
100
AcDbEntity
  8
隠れ線
 48
0.75
100
AcDbLine
 10
698.9070971919257
 20
-2670.735877685328
 30
0.0
 11
699.4070971919257
 21
-2671.424570339599
 31
0.0
  0
LINE
  5
249A3
330
18
100
AcDbEntity
  8
隠れ線
 48
0.75
100
AcDbLine
 10
702.8996196827319
 20
-2670.735877685328
 30
0.0
 11
702.8996196827319
 21
-2660.735877685328
 31
0.0
  0
LINE
  5
249A4
330
18
100
AcDbEntity
  8
0
  6
CENTER
 48
0.75
100
AcDbLine
 10
764.9078331117837
 20
-2674.117922009067
 30
0.0
 11
764.9078331117837
 21
-2659.269429189102
 31
0.0
  0
LINE
  5
249A5
330
18
100
AcDbEntity
  8
隠れ線
 48
0.75
100
AcDbLine
 10
766.8996196827317
 20
-2670.735877685328
 30
0.0
 11
766.8996196827317
 21
-2660.735877685328
 31
0.0
  0
LINE
  5
249A6
330
18
100
AcDbEntity
  8
隠れ線
 48
0.75
100
AcDbLine
 10
762.9070971919258
 20
-2670.735877685328
 30
0.0
 11
763.4070971919258
 21
-2671.424570339599
 31
0.0
  0
LINE
  5
249A7
330
18
100
AcDbEntity
  8
隠れ線
 48
0.75
100
AcDbLine
 10
766.4070971919258
 20
-2671.424570339599
 30
0.0
 11
766.8996196827317
 21
-2670.735877685328
 31
0.0
  0
LINE
  5
249A8
330
18
100
AcDbEntity
  8
隠れ線
 48
0.75
100
AcDbLine
 10
766.4070971919258
 20
-2660.735877685328
 30
0.0
 11
766.4070971919258
 21
-2672.235877685327
 31
0.0
  0
LINE
  5
249A9
330
18
100
AcDbEntity
  8
隠れ線
 48
0.75
100
AcDbLine
 10
762.9070971919258
 20
-2670.735877685328
 30
0.0
 11
766.8996196827317
 21
-2670.735877685328
 31
0.0
  0
LINE
  5
249AA
330
18
100
AcDbEntity
  8
隠れ線
 48
0.75
100
AcDbLine
 10
763.4070971919258
 20
-2660.735877685328
 30
0.0
 11
763.4070971919258
 21
-2672.235877685327
 31
0.0
  0
LINE
  5
249AB
330
18
100
AcDbEntity
  8
隠れ線
 48
0.75
100
AcDbLine
 10
762.9070971919258
 20
-2660.735877685328
 30
0.0
 11
762.9070971919258
 21
-2670.735877685328
 31
0.0
  0
LINE
  5
249AC
330
18
100
AcDbEntity
  8
0
  6
CENTER
 48
0.75
100
AcDbLine
 10
828.9078331117837
 20
-2674.117922009067
 30
0.0
 11
828.9078331117837
 21
-2659.269429189102
 31
0.0
  0
LINE
  5
249AD
330
18
100
AcDbEntity
  8
隠れ線
 48
0.75
100
AcDbLine
 10
830.8996196827319
 20
-2670.735877685328
 30
0.0
 11
830.8996196827319
 21
-2660.735877685328
 31
0.0
  0
LINE
  5
249AE
330
18
100
AcDbEntity
  8
隠れ線
 48
0.75
100
AcDbLine
 10
826.9070971919258
 20
-2670.735877685328
 30
0.0
 11
827.4070971919257
 21
-2671.424570339599
 31
0.0
  0
LINE
  5
249AF
330
18
100
AcDbEntity
  8
隠れ線
 48
0.75
100
AcDbLine
 10
830.4070971919257
 20
-2671.424570339599
 30
0.0
 11
830.8996196827319
 21
-2670.735877685328
 31
0.0
  0
LINE
  5
249B0
330
18
100
AcDbEntity
  8
隠れ線
 48
0.75
100
AcDbLine
 10
830.4070971919257
 20
-2660.735877685328
 30
0.0
 11
830.4070971919257
 21
-2672.235877685327
 31
0.0
  0
LINE
  5
249B1
330
18
100
AcDbEntity
  8
隠れ線
 48
0.75
100
AcDbLine
 10
826.9070971919258
 20
-2670.735877685328
 30
0.0
 11
830.8996196827319
 21
-2670.735877685328
 31
0.0
  0
LINE
  5
249B2
330
18
100
AcDbEntity
  8
隠れ線
 48
0.75
100
AcDbLine
 10
827.4070971919257
 20
-2660.735877685328
 30
0.0
 11
827.4070971919257
 21
-2672.235877685327
 31
0.0
  0
LINE
  5
249B3
330
18
100
AcDbEntity
  8
隠れ線
 48
0.75
100
AcDbLine
 10
826.9070971919258
 20
-2660.735877685328
 30
0.0
 11
826.9070971919258
 21
-2670.735877685328
 31
0.0
  0
LINE
  5
249B4
330
18
100
AcDbEntity
  8
0
  6
CENTER
 48
0.75
100
AcDbLine
 10
892.9078331117837
 20
-2674.117922009067
 30
0.0
 11
892.9078331117837
 21
-2659.269429189102
 31
0.0
  0
LINE
  5
249B5
330
18
100
AcDbEntity
  8
隠れ線
 48
0.75
100
AcDbLine
 10
894.8996196827319
 20
-2670.735877685328
 30
0.0
 11
894.8996196827319
 21
-2660.735877685328
 31
0.0
  0
LINE
  5
249B6
330
18
100
AcDbEntity
  8
隠れ線
 48
0.75
100
AcDbLine
 10
890.9070971919261
 20
-2670.735877685328
 30
0.0
 11
891.4070971919258
 21
-2671.424570339599
 31
0.0
  0
LINE
  5
249B7
330
18
100
AcDbEntity
  8
隠れ線
 48
0.75
100
AcDbLine
 10
894.4070971919257
 20
-2671.424570339599
 30
0.0
 11
894.8996196827319
 21
-2670.735877685328
 31
0.0
  0
LINE
  5
249B8
330
18
100
AcDbEntity
  8
隠れ線
 48
0.75
100
AcDbLine
 10
894.4070971919257
 20
-2660.735877685328
 30
0.0
 11
894.4070971919257
 21
-2672.235877685327
 31
0.0
  0
LINE
  5
249B9
330
18
100
AcDbEntity
  8
隠れ線
 48
0.75
100
AcDbLine
 10
890.9070971919261
 20
-2670.735877685328
 30
0.0
 11
894.8996196827319
 21
-2670.735877685328
 31
0.0
  0
LINE
  5
249BA
330
18
100
AcDbEntity
  8
隠れ線
 48
0.75
100
AcDbLine
 10
891.4070971919258
 20
-2660.735877685328
 30
0.0
 11
891.4070971919258
 21
-2672.235877685327
 31
0.0
  0
LINE
  5
249BB
330
18
100
AcDbEntity
  8
隠れ線
 48
0.75
100
AcDbLine
 10
890.9070971919261
 20
-2660.735877685328
 30
0.0
 11
890.9070971919261
 21
-2670.735877685328
 31
0.0
  0
LINE
  5
249BC
330
18
100
AcDbEntity
  8
0
  6
CENTER
 48
0.75
100
AcDbLine
 10
956.9078331117836
 20
-2674.117922009067
 30
0.0
 11
956.9078331117836
 21
-2659.269429189102
 31
0.0
  0
LINE
  5
249BD
330
18
100
AcDbEntity
  8
隠れ線
 48
0.75
100
AcDbLine
 10
958.8996196827318
 20
-2670.735877685328
 30
0.0
 11
958.8996196827318
 21
-2660.735877685328
 31
0.0
  0
LINE
  5
249BE
330
18
100
AcDbEntity
  8
隠れ線
 48
0.75
100
AcDbLine
 10
954.907097191926
 20
-2670.735877685328
 30
0.0
 11
955.4070971919259
 21
-2671.424570339599
 31
0.0
  0
LINE
  5
249BF
330
18
100
AcDbEntity
  8
隠れ線
 48
0.75
100
AcDbLine
 10
958.4070971919258
 20
-2671.424570339599
 30
0.0
 11
958.8996196827318
 21
-2670.735877685328
 31
0.0
  0
LINE
  5
249C0
330
18
100
AcDbEntity
  8
隠れ線
 48
0.75
100
AcDbLine
 10
958.4070971919258
 20
-2660.735877685328
 30
0.0
 11
958.4070971919258
 21
-2672.235877685327
 31
0.0
  0
LINE
  5
249C1
330
18
100
AcDbEntity
  8
隠れ線
 48
0.75
100
AcDbLine
 10
954.907097191926
 20
-2670.735877685328
 30
0.0
 11
958.8996196827318
 21
-2670.735877685328
 31
0.0
  0
LINE
  5
249C2
330
18
100
AcDbEntity
  8
隠れ線
 48
0.75
100
AcDbLine
 10
955.4070971919259
 20
-2660.735877685328
 30
0.0
 11
955.4070971919259
 21
-2672.235877685327
 31
0.0
  0
LINE
  5
249C3
330
18
100
AcDbEntity
  8
隠れ線
 48
0.75
100
AcDbLine
 10
954.907097191926
 20
-2660.735877685328
 30
0.0
 11
954.907097191926
 21
-2670.735877685328
 31
0.0
  0
LINE
  5
249C4
330
18
100
AcDbEntity
  8
0
  6
CENTER
 48
0.75
100
AcDbLine
 10
1020.907833111784
 20
-2674.117922009067
 30
0.0
 11
1020.907833111784
 21
-2659.269429189102
 31
0.0
  0
LINE
  5
249C5
330
18
100
AcDbEntity
  8
隠れ線
 48
0.75
100
AcDbLine
 10
1022.899619682732
 20
-2670.735877685328
 30
0.0
 11
1022.899619682732
 21
-2660.735877685328
 31
0.0
  0
LINE
  5
249C6
330
18
100
AcDbEntity
  8
隠れ線
 48
0.75
100
AcDbLine
 10
1018.907097191924
 20
-2670.735877685328
 30
0.0
 11
1019.407097191926
 21
-2671.424570339599
 31
0.0
  0
LINE
  5
249C7
330
18
100
AcDbEntity
  8
隠れ線
 48
0.75
100
AcDbLine
 10
1022.407097191925
 20
-2671.424570339599
 30
0.0
 11
1022.899619682732
 21
-2670.735877685328
 31
0.0
  0
LINE
  5
249C8
330
18
100
AcDbEntity
  8
隠れ線
 48
0.75
100
AcDbLine
 10
1022.407097191925
 20
-2660.735877685328
 30
0.0
 11
1022.407097191925
 21
-2672.235877685327
 31
0.0
  0
LINE
  5
249C9
330
18
100
AcDbEntity
  8
隠れ線
 48
0.75
100
AcDbLine
 10
1018.907097191924
 20
-2670.735877685328
 30
0.0
 11
1022.899619682732
 21
-2670.735877685328
 31
0.0
  0
LINE
  5
249CA
330
18
100
AcDbEntity
  8
隠れ線
 48
0.75
100
AcDbLine
 10
1019.407097191926
 20
-2660.735877685328
 30
0.0
 11
1019.407097191926
 21
-2672.235877685327
 31
0.0
  0
LINE
  5
249CB
330
18
100
AcDbEntity
  8
隠れ線
 48
0.75
100
AcDbLine
 10
1018.907097191924
 20
-2660.735877685328
 30
0.0
 11
1018.907097191924
 21
-2670.735877685328
 31
0.0
  0
LINE
  5
249CC
330
18
100
AcDbEntity
  8
0
  6
CENTER
 48
0.75
100
AcDbLine
 10
1084.907833111784
 20
-2674.117922009067
 30
0.0
 11
1084.907833111784
 21
-2659.269429189102
 31
0.0
  0
LINE
  5
249CD
330
18
100
AcDbEntity
  8
隠れ線
 48
0.75
100
AcDbLine
 10
1086.899619682732
 20
-2670.735877685328
 30
0.0
 11
1086.899619682732
 21
-2660.735877685328
 31
0.0
  0
LINE
  5
249CE
330
18
100
AcDbEntity
  8
隠れ線
 48
0.75
100
AcDbLine
 10
1082.907097191925
 20
-2670.735877685328
 30
0.0
 11
1083.407097191923
 21
-2671.424570339599
 31
0.0
  0
LINE
  5
249CF
330
18
100
AcDbEntity
  8
隠れ線
 48
0.75
100
AcDbLine
 10
1086.407097191925
 20
-2671.424570339599
 30
0.0
 11
1086.899619682732
 21
-2670.735877685328
 31
0.0
  0
LINE
  5
249D0
330
18
100
AcDbEntity
  8
隠れ線
 48
0.75
100
AcDbLine
 10
1086.407097191925
 20
-2660.735877685328
 30
0.0
 11
1086.407097191925
 21
-2672.235877685327
 31
0.0
  0
LINE
  5
249D1
330
18
100
AcDbEntity
  8
隠れ線
 48
0.75
100
AcDbLine
 10
1082.907097191925
 20
-2670.735877685328
 30
0.0
 11
1086.899619682732
 21
-2670.735877685328
 31
0.0
  0
LINE
  5
249D2
330
18
100
AcDbEntity
  8
隠れ線
 48
0.75
100
AcDbLine
 10
1083.407097191923
 20
-2660.735877685328
 30
0.0
 11
1083.407097191923
 21
-2672.235877685327
 31
0.0
  0
LINE
  5
249D3
330
18
100
AcDbEntity
  8
隠れ線
 48
0.75
100
AcDbLine
 10
1082.907097191925
 20
-2660.735877685328
 30
0.0
 11
1082.907097191925
 21
-2670.735877685328
 31
0.0
  0
LINE
  5
249D4
330
18
100
AcDbEntity
  8
0
  6
CENTER
 48
0.75
100
AcDbLine
 10
1148.907833111784
 20
-2674.117922009067
 30
0.0
 11
1148.907833111784
 21
-2659.269429189102
 31
0.0
  0
LINE
  5
249D5
330
18
100
AcDbEntity
  8
隠れ線
 48
0.75
100
AcDbLine
 10
1150.899619682732
 20
-2670.735877685328
 30
0.0
 11
1150.899619682732
 21
-2660.735877685328
 31
0.0
  0
LINE
  5
249D6
330
18
100
AcDbEntity
  8
隠れ線
 48
0.75
100
AcDbLine
 10
1146.907097191925
 20
-2670.735877685328
 30
0.0
 11
1147.407097191925
 21
-2671.424570339599
 31
0.0
  0
LINE
  5
249D7
330
18
100
AcDbEntity
  8
隠れ線
 48
0.75
100
AcDbLine
 10
1150.407097191926
 20
-2671.424570339599
 30
0.0
 11
1150.899619682732
 21
-2670.735877685328
 31
0.0
  0
LINE
  5
249D8
330
18
100
AcDbEntity
  8
隠れ線
 48
0.75
100
AcDbLine
 10
1150.407097191926
 20
-2660.735877685328
 30
0.0
 11
1150.407097191926
 21
-2672.235877685327
 31
0.0
  0
LINE
  5
249D9
330
18
100
AcDbEntity
  8
隠れ線
 48
0.75
100
AcDbLine
 10
1146.907097191925
 20
-2670.735877685328
 30
0.0
 11
1150.899619682732
 21
-2670.735877685328
 31
0.0
  0
LINE
  5
249DA
330
18
100
AcDbEntity
  8
隠れ線
 48
0.75
100
AcDbLine
 10
1147.407097191925
 20
-2660.735877685328
 30
0.0
 11
1147.407097191925
 21
-2672.235877685327
 31
0.0
  0
LINE
  5
249DB
330
18
100
AcDbEntity
  8
隠れ線
 48
0.75
100
AcDbLine
 10
1146.907097191925
 20
-2660.735877685328
 30
0.0
 11
1146.907097191925
 21
-2670.735877685328
 31
0.0
  0
CIRCLE
  5
249EF
330
18
100
AcDbEntity
  8
0
  6
HIDDEN
 48
0.75
100
AcDbCircle
 10
942.7100161315614
 20
-2668.235877685328
 30
0.0
 40
6.0
  0
CIRCLE
  5
249F6
330
18
100
AcDbEntity
  8
0
  6
HIDDEN
 48
0.75
100
AcDbCircle
 10
978.2700161315615
 20
-2668.235877685328
 30
0.0
 40
6.0
  0
CIRCLE
  5
249FE
330
18
100
AcDbEntity
  8
0
  6
HIDDEN
 48
0.75
100
AcDbCircle
 10
996.0500161315614
 20
-2668.235877685328
 30
0.0
 40
6.0
  0
CIRCLE
  5
24A05
330
18
100
AcDbEntity
  8
0
  6
HIDDEN
 48
0.75
100
AcDbCircle
 10
1031.610016131561
 20
-2668.235877685328
 30
0.0
 40
6.0
  0
CIRCLE
  5
24A0C
330
18
100
AcDbEntity
  8
0
  6
HIDDEN
 48
0.75
100
AcDbCircle
 10
1067.170016131559
 20
-2668.235877685328
 30
0.0
 40
6.0
  0
CIRCLE
  5
24A13
330
18
100
AcDbEntity
  8
0
  6
HIDDEN
 48
0.75
100
AcDbCircle
 10
1102.73001613156
 20
-2668.235877685328
 30
0.0
 40
6.0
  0
CIRCLE
  5
24A1A
330
18
100
AcDbEntity
  8
0
  6
HIDDEN
 48
0.75
100
AcDbCircle
 10
1138.290016131561
 20
-2668.235877685328
 30
0.0
 40
6.0
  0
CIRCLE
  5
24A21
330
18
100
AcDbEntity
  8
0
  6
HIDDEN
 48
0.75
100
AcDbCircle
 10
907.1056500920054
 20
-2668.235877685328
 30
0.0
 40
6.0
  0
CIRCLE
  5
24A26
330
18
100
AcDbEntity
  8
0
  6
HIDDEN
 48
0.75
100
AcDbCircle
 10
871.5456500920053
 20
-2668.235877685328
 30
0.0
 40
6.0
  0
CIRCLE
  5
24A2B
330
18
100
AcDbEntity
  8
0
  6
HIDDEN
 48
0.75
100
AcDbCircle
 10
853.7656500920054
 20
-2668.235877685328
 30
0.0
 40
6.0
  0
CIRCLE
  5
24A2F
330
18
100
AcDbEntity
  8
0
  6
HIDDEN
 48
0.75
100
AcDbCircle
 10
818.2056500920053
 20
-2668.235877685328
 30
0.0
 40
6.0
  0
CIRCLE
  5
24A35
330
18
100
AcDbEntity
  8
0
  6
HIDDEN
 48
0.75
100
AcDbCircle
 10
782.6456500920053
 20
-2668.235877685328
 30
0.0
 40
6.0
  0
CIRCLE
  5
24A3A
330
18
100
AcDbEntity
  8
0
  6
HIDDEN
 48
0.75
100
AcDbCircle
 10
747.0856500920052
 20
-2668.235877685328
 30
0.0
 40
6.0
  0
CIRCLE
  5
24A3F
330
18
100
AcDbEntity
  8
0
  6
HIDDEN
 48
0.75
100
AcDbCircle
 10
711.5256500920053
 20
-2668.235877685328
 30
0.0
 40
6.0
  0
LINE
  5
24B54
330
18
100
AcDbEntity
  8
0
  6
CENTER
 48
0.75
100
AcDbLine
 10
1347.14752195604
 20
-2515.550775890506
 30
0.0
 11
1369.123573861116
 21
-2515.550775890506
 31
0.0
  0
LINE
  5
24B55
330
18
100
AcDbEntity
  8
0
  6
CENTER
 48
0.75
100
AcDbLine
 10
1347.14752195604
 20
-2580.522641094663
 30
0.0
 11
1364.00821682545
 21
-2580.522641094663
 31
0.0
  0
LINE
  5
24DE1
330
18
100
AcDbEntity
  8
0
  6
HIDDEN
 48
0.75
100
AcDbLine
 10
1364.827158254757
 20
-2578.271676867133
 30
0.0
 11
1364.827158254757
 21
-2512.054749340432
 31
0.0
  0
LINE
  5
24DE2
330
18
100
AcDbEntity
  8
0
  6
HIDDEN
 48
0.75
100
AcDbLine
 10
1364.827158254757
 20
-2512.054749340432
 30
0.0
 11
1352.827158254757
 21
-2512.054749340432
 31
0.0
  0
LINE
  5
24DE3
330
18
100
AcDbEntity
  8
0
  6
HIDDEN
 48
0.75
100
AcDbLine
 10
1352.827158254757
 20
-2512.054749340432
 30
0.0
 11
1352.827158254757
 21
-2584.054749340432
 31
0.0
  0
LINE
  5
24DE4
330
18
100
AcDbEntity
  8
0
  6
HIDDEN
 48
0.75
100
AcDbLine
 10
1352.827158254757
 20
-2584.054749340432
 30
0.0
 11
1364.827158254757
 21
-2584.054749340432
 31
0.0
  0
LINE
  5
24DE5
330
18
100
AcDbEntity
  8
0
  6
HIDDEN
 48
0.75
100
AcDbLine
 10
1364.827158254757
 20
-2584.054749340432
 30
0.0
 11
1364.827158254757
 21
-2582.181891070451
 31
0.0
  0
LINE
  5
24DE6
330
18
100
AcDbEntity
  8
0
  6
CENTER
 48
0.75
100
AcDbLine
 10
1358.827167039283
 20
-2578.271676867133
 30
0.0
 11
1358.827167039283
 21
-2541.582717906667
 31
0.0
  0
LINE
  5
24E03
330
18
100
AcDbEntity
  8
0
  6
CENTER
 48
0.75
100
AcDbLine
 10
1352.827158254757
 20
-2571.026749340431
 30
0.0
 11
1364.827158254757
 21
-2571.026749340431
 31
0.0
  0
LINE
  5
24E04
330
18
100
AcDbEntity
  8
0
  6
CENTER
 48
0.75
100
AcDbLine
 10
1352.827158254757
 20
-2547.026749340432
 30
0.0
 11
1364.827158254757
 21
-2547.026749340432
 31
0.0
  0
CIRCLE
  5
24E06
330
18
100
AcDbEntity
  8
0
100
AcDbCircle
 10
1358.827167039283
 20
-2547.026749340432
 30
0.0
 40
2.0
  0
CIRCLE
  5
24E07
330
18
100
AcDbEntity
  8
0
100
AcDbCircle
 10
1358.827167039283
 20
-2547.026749340432
 30
0.0
 40
1.6
  0
CIRCLE
  5
24E08
330
18
100
AcDbEntity
  8
0
100
AcDbCircle
 10
1358.827167039283
 20
-2571.026749340431
 30
0.0
 40
1.6
  0
CIRCLE
  5
24E09
330
18
100
AcDbEntity
  8
0
100
AcDbCircle
 10
1358.827167039283
 20
-2571.026749340431
 30
0.0
 40
2.0
  0
LINE
  5
24E50
330
18
100
AcDbEntity
  8
0
  6
CENTER
 48
0.75
100
AcDbLine
 10
1172.907833111783
 20
-2547.054749340432
 30
0.0
 11
1184.907833111783
 21
-2547.054749340432
 31
0.0
  0
LINE
  5
24E51
330
18
100
AcDbEntity
  8
0
  6
CENTER
 48
0.75
100
AcDbLine
 10
1172.907833111783
 20
-2571.054749340432
 30
0.0
 11
1184.907833111783
 21
-2571.054749340432
 31
0.0
  0
LINE
  5
24FBA
330
18
100
AcDbEntity
  8
0
 48
0.3
100
AcDbLine
 10
1350.827167039283
 20
-2508.026749340432
 30
0.0
 11
1350.827167039283
 21
-2526.026749340431
 31
0.0
  0
LINE
  5
24FD6
330
18
100
AcDbEntity
  8
0
 48
0.3
100
AcDbLine
 10
1351.327167039283
 20
-2526.026749340431
 30
0.0
 11
1351.327167039283
 21
-2570.02674934043
 31
0.0
  0
LINE
  5
25033
330
18
100
AcDbEntity
  8
0
 48
0.3
100
AcDbLine
 10
1350.827167039283
 20
-2570.02674934043
 30
0.0
 11
1350.827167039283
 21
-2588.026749340432
 31
0.0
  0
LINE
  5
2518F
330
18
100
AcDbEntity
  8
0
 48
0.3
100
AcDbLine
 10
591.5138019601279
 20
-2508.02674934043
 30
0.0
 11
591.5138107446538
 21
-2526.026749340431
 31
0.0
  0
LINE
  5
25190
330
18
100
AcDbEntity
  8
0
 48
0.3
100
AcDbLine
 10
591.0138019601279
 20
-2526.026793204685
 30
0.0
 11
591.0138019601279
 21
-2570.026783968792
 31
0.0
  0
LINE
  5
25192
330
18
100
AcDbEntity
  8
0
 48
0.3
100
AcDbLine
 10
591.0138019601279
 20
-2570.02674934043
 30
0.0
 11
591.5138107446538
 21
-2570.02674934043
 31
0.0
  0
LINE
  5
25194
330
18
100
AcDbEntity
  8
0
 48
0.3
100
AcDbLine
 10
591.5138019601276
 20
-2570.02674934043
 30
0.0
 11
591.5138019601279
 21
-2588.026749340432
 31
0.0
  0
LINE
  5
252FF
330
18
100
AcDbEntity
  8
隠れ線
 48
0.75
100
AcDbLine
 10
1404.827167039283
 20
-2512.527449340431
 30
0.0
 11
1397.027167039283
 21
-2512.527449340431
 31
0.0
  0
LINE
  5
25300
330
18
100
AcDbEntity
  8
隠れ線
 48
0.75
100
AcDbLine
 10
1404.827167039283
 20
-2518.527449340432
 30
0.0
 11
1397.027167039283
 21
-2518.527449340432
 31
0.0
  0
LINE
  5
25301
330
18
100
AcDbEntity
  8
隠れ線
 48
0.75
100
AcDbLine
 10
1404.827167039283
 20
-2577.527449340431
 30
0.0
 11
1397.027167039283
 21
-2577.527449340431
 31
0.0
  0
LINE
  5
25302
330
18
100
AcDbEntity
  8
隠れ線
 48
0.75
100
AcDbLine
 10
1404.827167039283
 20
-2583.527449340431
 30
0.0
 11
1397.027167039283
 21
-2583.527449340431
 31
0.0
  0
LINE
  5
2543E
330
18
100
AcDbEntity
  8
隠れ線
  6
HIDDEN
 48
0.75
100
AcDbLine
 10
537.513801960128
 20
-2512.527449340431
 30
0.0
 11
545.3138019601275
 21
-2512.527449340431
 31
0.0
  0
LINE
  5
2543F
330
18
100
AcDbEntity
  8
隠れ線
  6
HIDDEN
 48
0.75
100
AcDbLine
 10
537.513801960128
 20
-2518.52744934043
 30
0.0
 11
545.3138019601275
 21
-2518.52744934043
 31
0.0
  0
LINE
  5
25440
330
18
100
AcDbEntity
  8
隠れ線
  6
HIDDEN
 48
0.75
100
AcDbLine
 10
537.5138019601279
 20
-2577.527449340431
 30
0.0
 11
545.3138019601276
 21
-2577.527449340431
 31
0.0
  0
LINE
  5
25441
330
18
100
AcDbEntity
  8
隠れ線
  6
HIDDEN
 48
0.75
100
AcDbLine
 10
537.5138019601279
 20
-2583.527449340431
 30
0.0
 11
545.3138019601276
 21
-2583.527449340431
 31
0.0
  0
VIEWPORT
  5
23
330
15
100
AcDbEntity
 67
     1
  8
0
100
AcDbViewport
 10
202.9595691709893
 20
145.2613884881578
 30
0.0
 40
647.6295218788646
 41
296.4204536148382
 68
     1
 69
     1
1001
ACAD
1000
MVIEW
1002
{
1070
    16
1010
0.0
1020
0.0
1030
0.0
1010
0.0
1020
0.0
1030
1.0
1040
0.0
1040
296.4204536148382
1040
202.9595691709893
1040
145.2613884881578
1040
50.0
1040
0.0
1040
0.0
1070
     0
1070
   100
1070
     1
1070
     0
1070
     0
1070
     0
1070
     0
1070
     0
1040
0.0
1040
0.0
1040
0.0
1040
10.0
1040
10.0
1040
10.0
1040
10.0
1070
     0
1002
{
1002
}
1002
}
  0
VIEWPORT
  5
2E
330
15
100
AcDbEntity
 67
     1
  8
M_VIEW
100
AcDbViewport
 10
200.0
 20
144.0
 30
0.0
 40
400.0
 41
288.0
 68
     2
 69
     2
1001
ACAD
1000
MVIEW
1002
{
1070
    16
1010
0.0
1020
0.0
1030
0.0
1010
0.0
1020
0.0
1030
1.0
1040
0.0
1040
719.9999973953159
1040
1014.761559478377
1040
-2621.762706073419
1040
50.0
1040
0.0
1040
0.0
1070
     0
1070
   100
1070
     1
1070
     0
1070
     0
1070
     0
1070
     0
1070
     0
1040
0.0
1040
0.0
1040
0.0
1040
10.0
1040
10.0
1040
10.0
1040
10.0
1070
     0
1002
{
1002
}
1002
}
  0
INSERT
  5
115F
330
15
100
AcDbEntity
 67
     1
  8
FRAME025
100
AcDbBlockReference
  2
機械A4横_LBP
 10
82.74908858651452
 20
152.030959079227
 30
0.0
  0
TEXT
  5
AA6A
330
15
100
AcDbEntity
 67
     1
  8
文字
  6
BYBLOCK
 62
     0
100
AcDbText
 10
32.81885892396519
 20
73.01882819621747
 30
0.0
 40
3.2
  1

 50
90.0
 41
0.625
  7
MSｺ_ｼｯｸ
100
AcDbText
  0
TEXT
  5
AA6C
330
15
100
AcDbEntity
 67
     1
  8
文字
  6
BYBLOCK
 62
     0
100
AcDbText
 10
37.25020936743055
 20
73.01882819621747
 30
0.0
 40
3.2
  1

 50
90.0
 41
0.625
  7
MSｺ_ｼｯｸ
100
AcDbText
  0
TEXT
  5
FCA5
330
15
100
AcDbEntity
 67
     1
  8
FRAME020
  6
CONTINUOUS
100
AcDbText
 10
126.6213117262079
 20
29.63926951973459
 30
0.0
 40
2.5
  1

 41
0.625
  7
MSｺ_ｼｯｸ
100
AcDbText
  0
TEXT
  5
12229
330
15
100
AcDbEntity
 67
     1
  8
0
100
AcDbText
 10
324.703280378293
 20
10.63168299257869
 30
0.0
 40
6.0
  1
ＳＥ－３７９３０Ａ
 41
1.1
100
AcDbText
  0
MTEXT
  5
25537
330
15
100
AcDbEntity
 67
     1
  8
DIMENSION
100
AcDbMText
 10
216.7508524663035
 20
26.43950287973233
 30
0.0
 40
6.0
 41
181.2725
 71
     1
 72
     5
  1
τﾘﾆｱﾓｰﾀ ｺｱ付M NLA-MA CLﾕﾆｯﾄ CLM750MA (750N)
  7
ｽﾀｲﾙ3
1001
ACAD
1000
MTEXTBEGIN
1070
    73
1070
     1
1070
    44
1040
1.0
1070
    74
1070
     0
1000
MTEXTEND
  0
ENDSEC
  0
SECTION
  2
OBJECTS
  0
DICTIONARY
  5
C
330
0
100
AcDbDictionary
  3
ACAD_GROUP
350
D
  3
ACAD_LAYOUT
350
DB2
  3
ACAD_MLINESTYLE
350
1B
  3
ACAD_PLOTSETTINGS
350
DB3
  3
ACAD_PLOTSTYLENAME
350
FB5B
  3
ACADDIM
350
24E47
  3
ACDBHEADERROUNDTRIPXREC
350
2555A
  3
ACDBVARIABLEDICTIONARY
350
106A6
  3
ASE_INDEX_DICTIONARY
350
1A99F
  3
DWGPROPS
350
15EC9
1001
ACAD
1000
TREAT_AS_HARD
1070
     0
  0
DICTIONARY
  5
25419
330
2
100
AcDbDictionary
280
     1
  3
ACAD_LAYERFILTERS
360
2541A
  3
ACAD_LAYERSTATES
360
25426
  0
DICTIONARY
  5
EFC6
330
18
100
AcDbDictionary
280
     1
  3
ACAD_LAYOUTSELFREF
360
2557C
  0
DICTIONARY
  5
EFC4
330
15
100
AcDbDictionary
280
     1
  3
ACAD_LAYOUTSELFREF
360
2557B
  0
DICTIONARY
  5
D
102
{ACAD_REACTORS
330
C
102
}
330
C
100
AcDbDictionary
  3
*A1
350
AC8A
  3
*A10
350
23BB4
  3
*A100
350
224AC
  3
*A101
350
242A7
  3
*A102
350
FC9A
  3
*A103
350
1D6CA
  3
*A104
350
24A8C
  3
*A105
350
17389
  3
*A106
350
19256
  3
*A107
350
198F1
  3
*A108
350
24914
  3
*A109
350
106C7
  3
*A11
350
224D1
  3
*A110
350
19AA4
  3
*A111
350
19A86
  3
*A112
350
24AEC
  3
*A113
350
1D706
  3
*A114
350
242AE
  3
*A115
350
24B32
  3
*A116
350
20010
  3
*A117
350
242DF
  3
*A118
350
19861
  3
*A119
350
1D6A2
  3
*A12
350
24AB0
  3
*A120
350
2472F
  3
*A121
350
18F21
  3
*A122
350
24B44
  3
*A123
350
ACAB
  3
*A124
350
24A98
  3
*A125
350
1AA94
  3
*A126
350
18F22
  3
*A127
350
19787
  3
*A128
350
173BE
  3
*A129
350
1D6F2
  3
*A13
350
23A77
  3
*A130
350
FB6C
  3
*A131
350
2022C
  3
*A132
350
18F20
  3
*A133
350
19F87
  3
*A134
350
FC91
  3
*A135
350
19F55
  3
*A136
350
24719
  3
*A137
350
20209
  3
*A138
350
2471E
  3
*A139
350
24AAA
  3
*A14
350
24A62
  3
*A140
350
19F99
  3
*A141
350
19A51
  3
*A142
350
24ABC
  3
*A143
350
2244A
  3
*A144
350
AC9A
  3
*A145
350
1606B
  3
*A146
350
196C2
  3
*A147
350
1D6AC
  3
*A148
350
173BF
  3
*A149
350
2472A
  3
*A15
350
18FA6
  3
*A150
350
1D6D4
  3
*A151
350
17901
  3
*A152
350
1B729
  3
*A153
350
19FAB
  3
*A154
350
24ACE
  3
*A155
350
1738A
  3
*A156
350
19F67
  3
*A157
350
1F8FA
  3
*A158
350
20227
  3
*A159
350
24721
  3
*A16
350
242B5
  3
*A160
350
1D6C0
  3
*A161
350
1F8FF
  3
*A162
350
FCB8
  3
*A163
350
1EB7E
  3
*A164
350
1F91D
  3
*A165
350
1738B
  3
*A166
350
19A52
  3
*A167
350
1F904
  3
*A168
350
242AF
  3
*A169
350
106C6
  3
*A17
350
24AFE
  3
*A170
350
242E7
  3
*A171
350
1D6DE
  3
*A172
350
242BC
  3
*A173
350
24AB6
  3
*A174
350
19A5A
  3
*A175
350
16068
  3
*A176
350
24723
  3
*A177
350
24AF8
  3
*A178
350
24724
  3
*A179
350
1F909
  3
*A18
350
106A5
  3
*A180
350
23BB3
  3
*A181
350
24726
  3
*A182
350
2472E
  3
*A183
350
1B756
  3
*A184
350
19259
  3
*A185
350
242BD
  3
*A186
350
20CA2
  3
*A187
350
24728
  3
*A188
350
1EB7C
  3
*A189
350
24AA4
  3
*A19
350
24AD4
  3
*A190
350
20019
  3
*A191
350
2472B
  3
*A192
350
16059
  3
*A193
350
22E4B
  3
*A194
350
1EB7D
  3
*A195
350
23CC4
  3
*A196
350
1D68E
  3
*A197
350
24717
  3
*A198
350
16058
  3
*A199
350
18FA7
  3
*A2
350
19255
  3
*A20
350
20016
  3
*A200
350
240ED
  3
*A201
350
1606A
  3
*A202
350
242C3
  3
*A203
350
1D67A
  3
*A204
350
242C4
  3
*A205
350
2472C
  3
*A206
350
240F0
  3
*A207
350
1F90E
  3
*A208
350
24730
  3
*A209
350
232CA
  3
*A21
350
2471C
  3
*A210
350
242CA
  3
*A211
350
1D6E8
  3
*A212
350
1F8F0
  3
*A213
350
FB6B
  3
*A214
350
20231
  3
*A215
350
20028
  3
*A216
350
ACA1
  3
*A217
350
1F913
  3
*A218
350
24B0A
  3
*A219
350
2471D
  3
*A22
350
106B3
  3
*A220
350
240EF
  3
*A221
350
173BD
  3
*A222
350
2001C
  3
*A223
350
FC95
  3
*A224
350
24729
  3
*A225
350
2021D
  3
*A226
350
24727
  3
*A227
350
24720
  3
*A228
350
1EB80
  3
*A229
350
24AC2
  3
*A23
350
2002B
  3
*A230
350
1998A
  3
*A231
350
242CB
  3
*A232
350
24A5C
  3
*A233
350
22498
  3
*A234
350
242D1
  3
*A235
350
1D6FC
  3
*A24
350
19786
  3
*A25
350
17B11
  3
*A26
350
1D670
  3
*A27
350
24ADA
  3
*A28
350
24AC8
  3
*A29
350
17BFF
  3
*A3
350
1B73B
  3
*A30
350
1D710
  3
*A31
350
2001F
  3
*A32
350
2471F
  3
*A33
350
1A691
  3
*A34
350
215A2
  3
*A35
350
24AF2
  3
*A36
350
1B732
  3
*A37
350
24A68
  3
*A38
350
24AE0
  3
*A39
350
24A6E
  3
*A4
350
20025
  3
*A40
350
24A74
  3
*A41
350
1B720
  3
*A42
350
16069
  3
*A43
350
24A7A
  3
*A44
350
169DA
  3
*A45
350
1F918
  3
*A46
350
20218
  3
*A47
350
19881
  3
*A48
350
24B10
  3
*A49
350
227B1
  3
*A5
350
242D2
  3
*A50
350
FBFF
  3
*A51
350
242D9
  3
*A52
350
23CC2
  3
*A53
350
1EB7F
  3
*A54
350
2472D
  3
*A55
350
24A80
  3
*A56
350
24AE6
  3
*A57
350
1F8F5
  3
*A58
350
24722
  3
*A59
350
24913
  3
*A6
350
242D8
  3
*A60
350
ACB4
  3
*A61
350
23BB2
  3
*A62
350
ACBD
  3
*A63
350
20213
  3
*A64
350
240EE
  3
*A65
350
23CC3
  3
*A66
350
1D698
  3
*A67
350
22AAC
  3
*A68
350
240F2
  3
*A69
350
18FA8
  3
*A7
350
20022
  3
*A70
350
ACA2
  3
*A71
350
1D684
  3
*A72
350
1A695
  3
*A73
350
242E0
  3
*A74
350
1A09A
  3
*A75
350
227B2
  3
*A76
350
24B04
  3
*A77
350
1B744
  3
*A78
350
20013
  3
*A79
350
19794
  3
*A8
350
FC9B
  3
*A80
350
19988
  3
*A81
350
1B74D
  3
*A82
350
24725
  3
*A83
350
19729
  3
*A84
350
19989
  3
*A85
350
242A8
  3
*A86
350
2020E
  3
*A87
350
242B6
  3
*A88
350
242E6
  3
*A89
350
1A692
  3
*A9
350
1D6B6
  3
*A90
350
2471A
  3
*A91
350
18F23
  3
*A92
350
24A86
  3
*A93
350
20236
  3
*A94
350
24A92
  3
*A95
350
20222
  3
*A96
350
20CA6
  3
*A97
350
24A9E
  3
*A98
350
18F1F
  3
*A99
350
240F1
1001
ACAD
1000
TREAT_AS_HARD
1070
     0
  0
DICTIONARY
  5
DB2
102
{ACAD_REACTORS
330
C
102
}
330
C
100
AcDbDictionary
1001
ACAD
1000
TREAT_AS_HARD
1070
     0
  0
DICTIONARY
  5
1B
102
{ACAD_REACTORS
330
C
102
}
330
C
100
AcDbDictionary
  3
STANDARD
350
1C
1001
ACAD
1000
TREAT_AS_HARD
1070
     0
  0
DICTIONARY
  5
DB3
102
{ACAD_REACTORS
330
C
102
}
330
C
100
AcDbDictionary
1001
ACAD
1000
TREAT_AS_HARD
1070
     0
  0
ACDBDICTIONARYWDFLT
  5
FB5B
102
{ACAD_REACTORS
330
C
102
}
330
C
100
AcDbDictionary
281
     1
  3
Normal
350
FB5C
100
AcDbDictionaryWithDefault
340
FB5C
  0
XRECORD
  5
24E47
102
{ACAD_REACTORS
330
C
102
}
330
C
100
AcDbXrecord
 90
   990106
  3

 60
     0
 61
     0
 62
     4
 63
     4
 64
     1
 65
     0
 66
     0
 67
     3
 68
     1
 69
     0
 70
     0
 71
     0
 72
     0
 40
0.0
170
     2
340
24E49
  0
DICTIONARY
  5
2555A
102
{ACAD_REACTORS
330
C
102
}
330
C
100
AcDbDictionary
  3
CEPSNTYPE
350
25564
  3
DIMSTYLEDATA
350
25568
  3
FINGERPRINTGUID
350
25565
  3
HYPERLINKBASE
350
2555D
  3
INSUNITS
350
25563
  3
LAYOUTDICT
350
2555F
  3
LWETCUNION
350
25562
  3
PLOTSETDICT
350
25560
  3
PLOTSTYLNAMDICT
350
25561
  3
PSVPSCALE
350
25567
  3
PUCSBASE
350
2556B
  3
PUCSORGBACK
350
25571
  3
PUCSORGBOTTOM
350
2556D
  3
PUCSORGFRONT
350
25570
  3
PUCSORGLEFT
350
2556E
  3
PUCSORGRIGHT
350
2556F
  3
PUCSORGTOP
350
2556C
  3
PUCSORTHOREF
350
25569
  3
PUCSORTHOVIEW
350
2556A
  3
STYLESHEET
350
2555E
  3
TSTACKALIGN
350
2555B
  3
TSTACKSIZE
350
2555C
  3
UCSBASE
350
25574
  3
UCSORGBACK
350
2557A
  3
UCSORGBOTTOM
350
25576
  3
UCSORGFRONT
350
25579
  3
UCSORGLEFT
350
25577
  3
UCSORGRIGHT
350
25578
  3
UCSORGTOP
350
25575
  3
UCSORTHOREF
350
25572
  3
UCSORTHOVIEW
350
25573
  3
VERSIONGUID
350
25566
  0
DICTIONARY
  5
106A6
102
{ACAD_REACTORS
330
C
102
}
330
C
100
AcDbDictionary
  3
SORTENTS
350
106A7
  0
DICTIONARY
  5
1A99F
102
{ACAD_REACTORS
330
C
102
}
330
C
100
AcDbDictionary
  3
ASEBLOCKHIERARCHYINDEXRECORD
350
1A9A1
1001
DCO15
1040
1464612067.17
  0
XRECORD
  5
15EC9
102
{ACAD_REACTORS
330
C
102
}
330
C
100
AcDbXrecord
  1
DWGPROPS COOKIE
  2

  3

  4

  6

  7

  8

  9

300
=
301
=
302
=
303
=
304
=
305
=
306
=
307
=
308
=
309
=
 40
12.65185717592592
 41
2451224.660162384
 42
2452395.660827315
  1

 90
        0
  0
DICTIONARY
  5
2541A
102
{ACAD_REACTORS
330
25419
102
}
330
25419
100
AcDbDictionary
280
     1
  3
0
360
2541B
  3
11
360
2541C
  3
150_
360
2541D
  3
160_
360
2541E
  3
170_
360
2541F
  3
171_
360
25420
  3
350_
360
25421
  3
4
360
25422
  3
5
360
25423
  3
7
360
25424
  3
KISEKI
360
25425
  0
DICTIONARY
  5
25426
102
{ACAD_REACTORS
330
25419
102
}
330
25419
100
AcDbDictionary
  0
XRECORD
  5
2557C
102
{ACAD_REACTORS
330
EFC6
102
}
330
EFC6
100
AcDbXrecord
340
18
  0
XRECORD
  5
2557B
102
{ACAD_REACTORS
330
EFC4
102
}
330
EFC4
100
AcDbXrecord
340
15
  0
GROUP
  5
AC8A
102
{ACAD_REACTORS
330
D
102
}
330
D
100
AcDbGroup
300

 70
     1
 71
     1
  0
GROUP
  5
23BB4
102
{ACAD_REACTORS
330
D
102
}
330
D
100
AcDbGroup
300

 70
     1
 71
     1
  0
GROUP
  5
224AC
102
{ACAD_REACTORS
330
D
102
}
330
D
100
AcDbGroup
300

 70
     1
 71
     1
  0
GROUP
  5
242A7
102
{ACAD_REACTORS
330
D
102
}
330
D
100
AcDbGroup
300

 70
     1
 71
     1
  0
GROUP
  5
FC9A
102
{ACAD_REACTORS
330
D
102
}
330
D
100
AcDbGroup
300

 70
     1
 71
     1
  0
GROUP
  5
1D6CA
102
{ACAD_REACTORS
330
D
102
}
330
D
100
AcDbGroup
300

 70
     1
 71
     1
  0
GROUP
  5
24A8C
102
{ACAD_REACTORS
330
D
102
}
330
D
100
AcDbGroup
300

 70
     1
 71
     1
  0
GROUP
  5
17389
102
{ACAD_REACTORS
330
D
102
}
330
D
100
AcDbGroup
300

 70
     1
 71
     1
  0
GROUP
  5
19256
102
{ACAD_REACTORS
330
D
102
}
330
D
100
AcDbGroup
300

 70
     1
 71
     1
  0
GROUP
  5
198F1
102
{ACAD_REACTORS
330
D
102
}
330
D
100
AcDbGroup
300

 70
     1
 71
     1
  0
GROUP
  5
24914
102
{ACAD_REACTORS
330
D
102
}
330
D
100
AcDbGroup
300

 70
     1
 71
     1
340
216F3
340
216E5
340
216F5
340
216D5
340
216F6
340
216F7
340
216F9
340
216FA
340
216FB
340
216E8
340
216D4
340
216D7
340
216D8
340
216D9
340
216DA
340
216DB
340
216DC
340
216DE
340
216DF
340
216E0
340
216E1
340
216E2
340
216E3
340
216E4
340
216E6
340
216EA
340
216DD
340
216F8
340
216FC
340
216FD
340
216FE
340
216FF
340
21700
340
21701
340
21702
340
216F4
340
21703
340
21704
340
21705
340
21706
340
21707
  0
GROUP
  5
106C7
102
{ACAD_REACTORS
330
D
102
}
330
D
100
AcDbGroup
300

 70
     1
 71
     1
  0
GROUP
  5
224D1
102
{ACAD_REACTORS
330
D
102
}
330
D
100
AcDbGroup
300

 70
     1
 71
     1
  0
GROUP
  5
19AA4
102
{ACAD_REACTORS
330
D
102
}
330
D
100
AcDbGroup
300

 70
     1
 71
     1
  0
GROUP
  5
19A86
102
{ACAD_REACTORS
330
D
102
}
330
D
100
AcDbGroup
300

 70
     1
 71
     1
  0
GROUP
  5
24AEC
102
{ACAD_REACTORS
330
D
102
}
330
D
100
AcDbGroup
300

 70
     1
 71
     1
  0
GROUP
  5
1D706
102
{ACAD_REACTORS
330
D
102
}
330
D
100
AcDbGroup
300

 70
     1
 71
     1
  0
GROUP
  5
242AE
102
{ACAD_REACTORS
330
D
102
}
330
D
100
AcDbGroup
300

 70
     1
 71
     1
  0
GROUP
  5
24B32
102
{ACAD_REACTORS
330
D
102
}
330
D
100
AcDbGroup
300

 70
     1
 71
     1
  0
GROUP
  5
20010
102
{ACAD_REACTORS
330
D
102
}
330
D
100
AcDbGroup
300

 70
     1
 71
     1
  0
GROUP
  5
242DF
102
{ACAD_REACTORS
330
D
102
}
330
D
100
AcDbGroup
300

 70
     1
 71
     1
  0
GROUP
  5
19861
102
{ACAD_REACTORS
330
D
102
}
330
D
100
AcDbGroup
300

 70
     1
 71
     1
  0
GROUP
  5
1D6A2
102
{ACAD_REACTORS
330
D
102
}
330
D
100
AcDbGroup
300

 70
     1
 71
     1
  0
GROUP
  5
24AB0
102
{ACAD_REACTORS
330
D
102
}
330
D
100
AcDbGroup
300

 70
     1
 71
     1
  0
GROUP
  5
2472F
102
{ACAD_REACTORS
330
D
102
}
330
D
100
AcDbGroup
300

 70
     1
 71
     1
  0
GROUP
  5
18F21
102
{ACAD_REACTORS
330
D
102
}
330
D
100
AcDbGroup
300

 70
     1
 71
     1
  0
GROUP
  5
24B44
102
{ACAD_REACTORS
330
D
102
}
330
D
100
AcDbGroup
300

 70
     1
 71
     1
  0
GROUP
  5
ACAB
102
{ACAD_REACTORS
330
D
102
}
330
D
100
AcDbGroup
300

 70
     1
 71
     1
  0
GROUP
  5
24A98
102
{ACAD_REACTORS
330
D
102
}
330
D
100
AcDbGroup
300

 70
     1
 71
     1
  0
GROUP
  5
1AA94
102
{ACAD_REACTORS
330
D
102
}
330
D
100
AcDbGroup
300

 70
     1
 71
     1
  0
GROUP
  5
18F22
102
{ACAD_REACTORS
330
D
102
}
330
D
100
AcDbGroup
300

 70
     1
 71
     1
  0
GROUP
  5
19787
102
{ACAD_REACTORS
330
D
102
}
330
D
100
AcDbGroup
300

 70
     1
 71
     1
  0
GROUP
  5
173BE
102
{ACAD_REACTORS
330
D
102
}
330
D
100
AcDbGroup
300

 70
     1
 71
     1
  0
GROUP
  5
1D6F2
102
{ACAD_REACTORS
330
D
102
}
330
D
100
AcDbGroup
300

 70
     1
 71
     1
  0
GROUP
  5
23A77
102
{ACAD_REACTORS
330
D
102
}
330
D
100
AcDbGroup
300

 70
     1
 71
     1
  0
GROUP
  5
FB6C
102
{ACAD_REACTORS
330
D
102
}
330
D
100
AcDbGroup
300

 70
     1
 71
     1
  0
GROUP
  5
2022C
102
{ACAD_REACTORS
330
D
102
}
330
D
100
AcDbGroup
300

 70
     1
 71
     1
  0
GROUP
  5
18F20
102
{ACAD_REACTORS
330
D
102
}
330
D
100
AcDbGroup
300

 70
     1
 71
     1
  0
GROUP
  5
19F87
102
{ACAD_REACTORS
330
D
102
}
330
D
100
AcDbGroup
300

 70
     1
 71
     1
  0
GROUP
  5
FC91
102
{ACAD_REACTORS
330
D
102
}
330
D
100
AcDbGroup
300

 70
     1
 71
     1
  0
GROUP
  5
19F55
102
{ACAD_REACTORS
330
D
102
}
330
D
100
AcDbGroup
300

 70
     1
 71
     1
  0
GROUP
  5
24719
102
{ACAD_REACTORS
330
D
102
}
330
D
100
AcDbGroup
300

 70
     1
 71
     1
  0
GROUP
  5
20209
102
{ACAD_REACTORS
330
D
102
}
330
D
100
AcDbGroup
300

 70
     1
 71
     1
  0
GROUP
  5
2471E
102
{ACAD_REACTORS
330
D
102
}
330
D
100
AcDbGroup
300

 70
     1
 71
     1
  0
GROUP
  5
24AAA
102
{ACAD_REACTORS
330
D
102
}
330
D
100
AcDbGroup
300

 70
     1
 71
     1
  0
GROUP
  5
24A62
102
{ACAD_REACTORS
330
D
102
}
330
D
100
AcDbGroup
300

 70
     1
 71
     1
  0
GROUP
  5
19F99
102
{ACAD_REACTORS
330
D
102
}
330
D
100
AcDbGroup
300

 70
     1
 71
     1
  0
GROUP
  5
19A51
102
{ACAD_REACTORS
330
D
102
}
330
D
100
AcDbGroup
300

 70
     1
 71
     1
  0
GROUP
  5
24ABC
102
{ACAD_REACTORS
330
D
102
}
330
D
100
AcDbGroup
300

 70
     1
 71
     1
  0
GROUP
  5
2244A
102
{ACAD_REACTORS
330
D
102
}
330
D
100
AcDbGroup
300

 70
     1
 71
     1
  0
GROUP
  5
AC9A
102
{ACAD_REACTORS
330
D
102
}
330
D
100
AcDbGroup
300

 70
     1
 71
     1
  0
GROUP
  5
1606B
102
{ACAD_REACTORS
330
D
102
}
330
D
100
AcDbGroup
300

 70
     1
 71
     1
  0
GROUP
  5
196C2
102
{ACAD_REACTORS
330
D
102
}
330
D
100
AcDbGroup
300

 70
     1
 71
     1
  0
GROUP
  5
1D6AC
102
{ACAD_REACTORS
330
D
102
}
330
D
100
AcDbGroup
300

 70
     1
 71
     1
  0
GROUP
  5
173BF
102
{ACAD_REACTORS
330
D
102
}
330
D
100
AcDbGroup
300

 70
     1
 71
     1
  0
GROUP
  5
2472A
102
{ACAD_REACTORS
330
D
102
}
330
D
100
AcDbGroup
300

 70
     1
 71
     1
  0
GROUP
  5
18FA6
102
{ACAD_REACTORS
330
D
102
}
330
D
100
AcDbGroup
300

 70
     1
 71
     1
  0
GROUP
  5
1D6D4
102
{ACAD_REACTORS
330
D
102
}
330
D
100
AcDbGroup
300

 70
     1
 71
     1
  0
GROUP
  5
17901
102
{ACAD_REACTORS
330
D
102
}
330
D
100
AcDbGroup
300

 70
     1
 71
     1
  0
GROUP
  5
1B729
102
{ACAD_REACTORS
330
D
102
}
330
D
100
AcDbGroup
300

 70
     1
 71
     1
  0
GROUP
  5
19FAB
102
{ACAD_REACTORS
330
D
102
}
330
D
100
AcDbGroup
300

 70
     1
 71
     1
  0
GROUP
  5
24ACE
102
{ACAD_REACTORS
330
D
102
}
330
D
100
AcDbGroup
300

 70
     1
 71
     1
  0
GROUP
  5
1738A
102
{ACAD_REACTORS
330
D
102
}
330
D
100
AcDbGroup
300

 70
     1
 71
     1
  0
GROUP
  5
19F67
102
{ACAD_REACTORS
330
D
102
}
330
D
100
AcDbGroup
300

 70
     1
 71
     1
  0
GROUP
  5
1F8FA
102
{ACAD_REACTORS
330
D
102
}
330
D
100
AcDbGroup
300

 70
     1
 71
     1
  0
GROUP
  5
20227
102
{ACAD_REACTORS
330
D
102
}
330
D
100
AcDbGroup
300

 70
     1
 71
     1
  0
GROUP
  5
24721
102
{ACAD_REACTORS
330
D
102
}
330
D
100
AcDbGroup
300

 70
     1
 71
     1
  0
GROUP
  5
242B5
102
{ACAD_REACTORS
330
D
102
}
330
D
100
AcDbGroup
300

 70
     1
 71
     1
  0
GROUP
  5
1D6C0
102
{ACAD_REACTORS
330
D
102
}
330
D
100
AcDbGroup
300

 70
     1
 71
     1
  0
GROUP
  5
1F8FF
102
{ACAD_REACTORS
330
D
102
}
330
D
100
AcDbGroup
300

 70
     1
 71
     1
  0
GROUP
  5
FCB8
102
{ACAD_REACTORS
330
D
102
}
330
D
100
AcDbGroup
300

 70
     1
 71
     1
  0
GROUP
  5
1EB7E
102
{ACAD_REACTORS
330
D
102
}
330
D
100
AcDbGroup
300

 70
     1
 71
     1
  0
GROUP
  5
1F91D
102
{ACAD_REACTORS
330
D
102
}
330
D
100
AcDbGroup
300

 70
     1
 71
     1
  0
GROUP
  5
1738B
102
{ACAD_REACTORS
330
D
102
}
330
D
100
AcDbGroup
300

 70
     1
 71
     1
  0
GROUP
  5
19A52
102
{ACAD_REACTORS
330
D
102
}
330
D
100
AcDbGroup
300

 70
     1
 71
     1
  0
GROUP
  5
1F904
102
{ACAD_REACTORS
330
D
102
}
330
D
100
AcDbGroup
300

 70
     1
 71
     1
  0
GROUP
  5
242AF
102
{ACAD_REACTORS
330
D
102
}
330
D
100
AcDbGroup
300

 70
     1
 71
     1
  0
GROUP
  5
106C6
102
{ACAD_REACTORS
330
D
102
}
330
D
100
AcDbGroup
300

 70
     1
 71
     1
  0
GROUP
  5
24AFE
102
{ACAD_REACTORS
330
D
102
}
330
D
100
AcDbGroup
300

 70
     1
 71
     1
  0
GROUP
  5
242E7
102
{ACAD_REACTORS
330
D
102
}
330
D
100
AcDbGroup
300

 70
     1
 71
     1
  0
GROUP
  5
1D6DE
102
{ACAD_REACTORS
330
D
102
}
330
D
100
AcDbGroup
300

 70
     1
 71
     1
  0
GROUP
  5
242BC
102
{ACAD_REACTORS
330
D
102
}
330
D
100
AcDbGroup
300

 70
     1
 71
     1
  0
GROUP
  5
24AB6
102
{ACAD_REACTORS
330
D
102
}
330
D
100
AcDbGroup
300

 70
     1
 71
     1
  0
GROUP
  5
19A5A
102
{ACAD_REACTORS
330
D
102
}
330
D
100
AcDbGroup
300

 70
     1
 71
     1
  0
GROUP
  5
16068
102
{ACAD_REACTORS
330
D
102
}
330
D
100
AcDbGroup
300

 70
     1
 71
     1
  0
GROUP
  5
24723
102
{ACAD_REACTORS
330
D
102
}
330
D
100
AcDbGroup
300

 70
     1
 71
     1
  0
GROUP
  5
24AF8
102
{ACAD_REACTORS
330
D
102
}
330
D
100
AcDbGroup
300

 70
     1
 71
     1
  0
GROUP
  5
24724
102
{ACAD_REACTORS
330
D
102
}
330
D
100
AcDbGroup
300

 70
     1
 71
     1
  0
GROUP
  5
1F909
102
{ACAD_REACTORS
330
D
102
}
330
D
100
AcDbGroup
300

 70
     1
 71
     1
  0
GROUP
  5
106A5
102
{ACAD_REACTORS
330
D
102
}
330
D
100
AcDbGroup
300

 70
     1
 71
     1
  0
GROUP
  5
23BB3
102
{ACAD_REACTORS
330
D
102
}
330
D
100
AcDbGroup
300

 70
     1
 71
     1
  0
GROUP
  5
24726
102
{ACAD_REACTORS
330
D
102
}
330
D
100
AcDbGroup
300

 70
     1
 71
     1
  0
GROUP
  5
2472E
102
{ACAD_REACTORS
330
D
102
}
330
D
100
AcDbGroup
300

 70
     1
 71
     1
  0
GROUP
  5
1B756
102
{ACAD_REACTORS
330
D
102
}
330
D
100
AcDbGroup
300

 70
     1
 71
     1
  0
GROUP
  5
19259
102
{ACAD_REACTORS
330
D
102
}
330
D
100
AcDbGroup
300

 70
     1
 71
     1
  0
GROUP
  5
242BD
102
{ACAD_REACTORS
330
D
102
}
330
D
100
AcDbGroup
300

 70
     1
 71
     1
  0
GROUP
  5
20CA2
102
{ACAD_REACTORS
330
D
102
}
330
D
100
AcDbGroup
300

 70
     1
 71
     1
  0
GROUP
  5
24728
102
{ACAD_REACTORS
330
D
102
}
330
D
100
AcDbGroup
300

 70
     1
 71
     1
  0
GROUP
  5
1EB7C
102
{ACAD_REACTORS
330
D
102
}
330
D
100
AcDbGroup
300

 70
     1
 71
     1
  0
GROUP
  5
24AA4
102
{ACAD_REACTORS
330
D
102
}
330
D
100
AcDbGroup
300

 70
     1
 71
     1
  0
GROUP
  5
24AD4
102
{ACAD_REACTORS
330
D
102
}
330
D
100
AcDbGroup
300

 70
     1
 71
     1
  0
GROUP
  5
20019
102
{ACAD_REACTORS
330
D
102
}
330
D
100
AcDbGroup
300

 70
     1
 71
     1
  0
GROUP
  5
2472B
102
{ACAD_REACTORS
330
D
102
}
330
D
100
AcDbGroup
300

 70
     1
 71
     1
  0
GROUP
  5
16059
102
{ACAD_REACTORS
330
D
102
}
330
D
100
AcDbGroup
300

 70
     1
 71
     1
  0
GROUP
  5
22E4B
102
{ACAD_REACTORS
330
D
102
}
330
D
100
AcDbGroup
300

 70
     1
 71
     1
  0
GROUP
  5
1EB7D
102
{ACAD_REACTORS
330
D
102
}
330
D
100
AcDbGroup
300

 70
     1
 71
     1
  0
GROUP
  5
23CC4
102
{ACAD_REACTORS
330
D
102
}
330
D
100
AcDbGroup
300

 70
     1
 71
     1
  0
GROUP
  5
1D68E
102
{ACAD_REACTORS
330
D
102
}
330
D
100
AcDbGroup
300

 70
     1
 71
     1
  0
GROUP
  5
24717
102
{ACAD_REACTORS
330
D
102
}
330
D
100
AcDbGroup
300

 70
     1
 71
     1
340
243C6
340
243D8
340
243C7
340
243C5
340
243CB
  0
GROUP
  5
16058
102
{ACAD_REACTORS
330
D
102
}
330
D
100
AcDbGroup
300

 70
     1
 71
     1
  0
GROUP
  5
18FA7
102
{ACAD_REACTORS
330
D
102
}
330
D
100
AcDbGroup
300

 70
     1
 71
     1
  0
GROUP
  5
19255
102
{ACAD_REACTORS
330
D
102
}
330
D
100
AcDbGroup
300

 70
     1
 71
     1
  0
GROUP
  5
20016
102
{ACAD_REACTORS
330
D
102
}
330
D
100
AcDbGroup
300

 70
     1
 71
     1
  0
GROUP
  5
240ED
102
{ACAD_REACTORS
330
D
102
}
330
D
100
AcDbGroup
300

 70
     1
 71
     1
  0
GROUP
  5
1606A
102
{ACAD_REACTORS
330
D
102
}
330
D
100
AcDbGroup
300

 70
     1
 71
     1
  0
GROUP
  5
242C3
102
{ACAD_REACTORS
330
D
102
}
330
D
100
AcDbGroup
300

 70
     1
 71
     1
  0
GROUP
  5
1D67A
102
{ACAD_REACTORS
330
D
102
}
330
D
100
AcDbGroup
300

 70
     1
 71
     1
  0
GROUP
  5
242C4
102
{ACAD_REACTORS
330
D
102
}
330
D
100
AcDbGroup
300

 70
     1
 71
     1
  0
GROUP
  5
2472C
102
{ACAD_REACTORS
330
D
102
}
330
D
100
AcDbGroup
300

 70
     1
 71
     1
  0
GROUP
  5
240F0
102
{ACAD_REACTORS
330
D
102
}
330
D
100
AcDbGroup
300

 70
     1
 71
     1
  0
GROUP
  5
1F90E
102
{ACAD_REACTORS
330
D
102
}
330
D
100
AcDbGroup
300

 70
     1
 71
     1
  0
GROUP
  5
24730
102
{ACAD_REACTORS
330
D
102
}
330
D
100
AcDbGroup
300

 70
     1
 71
     1
  0
GROUP
  5
232CA
102
{ACAD_REACTORS
330
D
102
}
330
D
100
AcDbGroup
300

 70
     1
 71
     1
  0
GROUP
  5
2471C
102
{ACAD_REACTORS
330
D
102
}
330
D
100
AcDbGroup
300

 70
     1
 71
     1
  0
GROUP
  5
242CA
102
{ACAD_REACTORS
330
D
102
}
330
D
100
AcDbGroup
300

 70
     1
 71
     1
  0
GROUP
  5
1D6E8
102
{ACAD_REACTORS
330
D
102
}
330
D
100
AcDbGroup
300

 70
     1
 71
     1
  0
GROUP
  5
1F8F0
102
{ACAD_REACTORS
330
D
102
}
330
D
100
AcDbGroup
300

 70
     1
 71
     1
  0
GROUP
  5
FB6B
102
{ACAD_REACTORS
330
D
102
}
330
D
100
AcDbGroup
300

 70
     1
 71
     1
  0
GROUP
  5
20231
102
{ACAD_REACTORS
330
D
102
}
330
D
100
AcDbGroup
300

 70
     1
 71
     1
  0
GROUP
  5
20028
102
{ACAD_REACTORS
330
D
102
}
330
D
100
AcDbGroup
300

 70
     1
 71
     1
  0
GROUP
  5
ACA1
102
{ACAD_REACTORS
330
D
102
}
330
D
100
AcDbGroup
300

 70
     1
 71
     1
  0
GROUP
  5
1F913
102
{ACAD_REACTORS
330
D
102
}
330
D
100
AcDbGroup
300

 70
     1
 71
     1
  0
GROUP
  5
24B0A
102
{ACAD_REACTORS
330
D
102
}
330
D
100
AcDbGroup
300

 70
     1
 71
     1
  0
GROUP
  5
2471D
102
{ACAD_REACTORS
330
D
102
}
330
D
100
AcDbGroup
300

 70
     1
 71
     1
  0
GROUP
  5
106B3
102
{ACAD_REACTORS
330
D
102
}
330
D
100
AcDbGroup
300

 70
     1
 71
     1
  0
GROUP
  5
240EF
102
{ACAD_REACTORS
330
D
102
}
330
D
100
AcDbGroup
300

 70
     1
 71
     1
  0
GROUP
  5
173BD
102
{ACAD_REACTORS
330
D
102
}
330
D
100
AcDbGroup
300

 70
     1
 71
     1
  0
GROUP
  5
2001C
102
{ACAD_REACTORS
330
D
102
}
330
D
100
AcDbGroup
300

 70
     1
 71
     1
  0
GROUP
  5
FC95
102
{ACAD_REACTORS
330
D
102
}
330
D
100
AcDbGroup
300

 70
     1
 71
     1
  0
GROUP
  5
24729
102
{ACAD_REACTORS
330
D
102
}
330
D
100
AcDbGroup
300

 70
     1
 71
     1
  0
GROUP
  5
2021D
102
{ACAD_REACTORS
330
D
102
}
330
D
100
AcDbGroup
300

 70
     1
 71
     1
  0
GROUP
  5
24727
102
{ACAD_REACTORS
330
D
102
}
330
D
100
AcDbGroup
300

 70
     1
 71
     1
  0
GROUP
  5
24720
102
{ACAD_REACTORS
330
D
102
}
330
D
100
AcDbGroup
300

 70
     1
 71
     1
  0
GROUP
  5
1EB80
102
{ACAD_REACTORS
330
D
102
}
330
D
100
AcDbGroup
300

 70
     1
 71
     1
  0
GROUP
  5
24AC2
102
{ACAD_REACTORS
330
D
102
}
330
D
100
AcDbGroup
300

 70
     1
 71
     1
  0
GROUP
  5
2002B
102
{ACAD_REACTORS
330
D
102
}
330
D
100
AcDbGroup
300

 70
     1
 71
     1
  0
GROUP
  5
1998A
102
{ACAD_REACTORS
330
D
102
}
330
D
100
AcDbGroup
300

 70
     1
 71
     1
  0
GROUP
  5
242CB
102
{ACAD_REACTORS
330
D
102
}
330
D
100
AcDbGroup
300

 70
     1
 71
     1
  0
GROUP
  5
24A5C
102
{ACAD_REACTORS
330
D
102
}
330
D
100
AcDbGroup
300

 70
     1
 71
     1
  0
GROUP
  5
22498
102
{ACAD_REACTORS
330
D
102
}
330
D
100
AcDbGroup
300

 70
     1
 71
     1
  0
GROUP
  5
242D1
102
{ACAD_REACTORS
330
D
102
}
330
D
100
AcDbGroup
300

 70
     1
 71
     1
  0
GROUP
  5
1D6FC
102
{ACAD_REACTORS
330
D
102
}
330
D
100
AcDbGroup
300

 70
     1
 71
     1
  0
GROUP
  5
19786
102
{ACAD_REACTORS
330
D
102
}
330
D
100
AcDbGroup
300

 70
     1
 71
     1
  0
GROUP
  5
17B11
102
{ACAD_REACTORS
330
D
102
}
330
D
100
AcDbGroup
300

 70
     1
 71
     1
  0
GROUP
  5
1D670
102
{ACAD_REACTORS
330
D
102
}
330
D
100
AcDbGroup
300

 70
     1
 71
     1
  0
GROUP
  5
24ADA
102
{ACAD_REACTORS
330
D
102
}
330
D
100
AcDbGroup
300

 70
     1
 71
     1
  0
GROUP
  5
24AC8
102
{ACAD_REACTORS
330
D
102
}
330
D
100
AcDbGroup
300

 70
     1
 71
     1
  0
GROUP
  5
17BFF
102
{ACAD_REACTORS
330
D
102
}
330
D
100
AcDbGroup
300

 70
     1
 71
     1
  0
GROUP
  5
1B73B
102
{ACAD_REACTORS
330
D
102
}
330
D
100
AcDbGroup
300

 70
     1
 71
     1
  0
GROUP
  5
1D710
102
{ACAD_REACTORS
330
D
102
}
330
D
100
AcDbGroup
300

 70
     1
 71
     1
  0
GROUP
  5
2001F
102
{ACAD_REACTORS
330
D
102
}
330
D
100
AcDbGroup
300

 70
     1
 71
     1
  0
GROUP
  5
2471F
102
{ACAD_REACTORS
330
D
102
}
330
D
100
AcDbGroup
300

 70
     1
 71
     1
  0
GROUP
  5
1A691
102
{ACAD_REACTORS
330
D
102
}
330
D
100
AcDbGroup
300

 70
     1
 71
     1
  0
GROUP
  5
215A2
102
{ACAD_REACTORS
330
D
102
}
330
D
100
AcDbGroup
300

 70
     1
 71
     1
  0
GROUP
  5
24AF2
102
{ACAD_REACTORS
330
D
102
}
330
D
100
AcDbGroup
300

 70
     1
 71
     1
  0
GROUP
  5
1B732
102
{ACAD_REACTORS
330
D
102
}
330
D
100
AcDbGroup
300

 70
     1
 71
     1
  0
GROUP
  5
24A68
102
{ACAD_REACTORS
330
D
102
}
330
D
100
AcDbGroup
300

 70
     1
 71
     1
  0
GROUP
  5
24AE0
102
{ACAD_REACTORS
330
D
102
}
330
D
100
AcDbGroup
300

 70
     1
 71
     1
  0
GROUP
  5
24A6E
102
{ACAD_REACTORS
330
D
102
}
330
D
100
AcDbGroup
300

 70
     1
 71
     1
  0
GROUP
  5
20025
102
{ACAD_REACTORS
330
D
102
}
330
D
100
AcDbGroup
300

 70
     1
 71
     1
  0
GROUP
  5
24A74
102
{ACAD_REACTORS
330
D
102
}
330
D
100
AcDbGroup
300

 70
     1
 71
     1
  0
GROUP
  5
1B720
102
{ACAD_REACTORS
330
D
102
}
330
D
100
AcDbGroup
300

 70
     1
 71
     1
  0
GROUP
  5
16069
102
{ACAD_REACTORS
330
D
102
}
330
D
100
AcDbGroup
300

 70
     1
 71
     1
  0
GROUP
  5
24A7A
102
{ACAD_REACTORS
330
D
102
}
330
D
100
AcDbGroup
300

 70
     1
 71
     1
  0
GROUP
  5
169DA
102
{ACAD_REACTORS
330
D
102
}
330
D
100
AcDbGroup
300

 70
     1
 71
     1
  0
GROUP
  5
1F918
102
{ACAD_REACTORS
330
D
102
}
330
D
100
AcDbGroup
300

 70
     1
 71
     1
  0
GROUP
  5
20218
102
{ACAD_REACTORS
330
D
102
}
330
D
100
AcDbGroup
300

 70
     1
 71
     1
  0
GROUP
  5
19881
102
{ACAD_REACTORS
330
D
102
}
330
D
100
AcDbGroup
300

 70
     1
 71
     1
  0
GROUP
  5
24B10
102
{ACAD_REACTORS
330
D
102
}
330
D
100
AcDbGroup
300

 70
     1
 71
     1
  0
GROUP
  5
227B1
102
{ACAD_REACTORS
330
D
102
}
330
D
100
AcDbGroup
300

 70
     1
 71
     1
  0
GROUP
  5
242D2
102
{ACAD_REACTORS
330
D
102
}
330
D
100
AcDbGroup
300

 70
     1
 71
     1
  0
GROUP
  5
FBFF
102
{ACAD_REACTORS
330
D
102
}
330
D
100
AcDbGroup
300

 70
     1
 71
     1
  0
GROUP
  5
242D9
102
{ACAD_REACTORS
330
D
102
}
330
D
100
AcDbGroup
300

 70
     1
 71
     1
  0
GROUP
  5
23CC2
102
{ACAD_REACTORS
330
D
102
}
330
D
100
AcDbGroup
300

 70
     1
 71
     1
  0
GROUP
  5
1EB7F
102
{ACAD_REACTORS
330
D
102
}
330
D
100
AcDbGroup
300

 70
     1
 71
     1
  0
GROUP
  5
2472D
102
{ACAD_REACTORS
330
D
102
}
330
D
100
AcDbGroup
300

 70
     1
 71
     1
  0
GROUP
  5
24A80
102
{ACAD_REACTORS
330
D
102
}
330
D
100
AcDbGroup
300

 70
     1
 71
     1
  0
GROUP
  5
24AE6
102
{ACAD_REACTORS
330
D
102
}
330
D
100
AcDbGroup
300

 70
     1
 71
     1
  0
GROUP
  5
1F8F5
102
{ACAD_REACTORS
330
D
102
}
330
D
100
AcDbGroup
300

 70
     1
 71
     1
  0
GROUP
  5
24722
102
{ACAD_REACTORS
330
D
102
}
330
D
100
AcDbGroup
300

 70
     1
 71
     1
  0
GROUP
  5
24913
102
{ACAD_REACTORS
330
D
102
}
330
D
100
AcDbGroup
300

 70
     1
 71
     1
340
2486B
340
24869
340
24910
340
2490C
340
2490E
340
24912
340
24846
340
24861
340
24863
340
24847
340
2485F
340
24860
340
24865
340
24866
340
2490F
340
2490B
340
24843
340
2486A
340
24848
340
2484A
340
24849
340
2484C
340
24845
340
24854
340
2484F
340
2485E
340
24855
340
24856
340
24857
340
24858
340
2484D
340
24851
340
24852
340
24853
340
2485A
340
2484E
340
24850
340
24868
340
24867
340
2486C
340
24864
340
24862
340
2490D
340
24911
  0
GROUP
  5
242D8
102
{ACAD_REACTORS
330
D
102
}
330
D
100
AcDbGroup
300

 70
     1
 71
     1
  0
GROUP
  5
ACB4
102
{ACAD_REACTORS
330
D
102
}
330
D
100
AcDbGroup
300

 70
     1
 71
     1
  0
GROUP
  5
23BB2
102
{ACAD_REACTORS
330
D
102
}
330
D
100
AcDbGroup
300

 70
     1
 71
     1
  0
GROUP
  5
ACBD
102
{ACAD_REACTORS
330
D
102
}
330
D
100
AcDbGroup
300

 70
     1
 71
     1
  0
GROUP
  5
20213
102
{ACAD_REACTORS
330
D
102
}
330
D
100
AcDbGroup
300

 70
     1
 71
     1
  0
GROUP
  5
240EE
102
{ACAD_REACTORS
330
D
102
}
330
D
100
AcDbGroup
300

 70
     1
 71
     1
  0
GROUP
  5
23CC3
102
{ACAD_REACTORS
330
D
102
}
330
D
100
AcDbGroup
300

 70
     1
 71
     1
  0
GROUP
  5
1D698
102
{ACAD_REACTORS
330
D
102
}
330
D
100
AcDbGroup
300

 70
     1
 71
     1
  0
GROUP
  5
22AAC
102
{ACAD_REACTORS
330
D
102
}
330
D
100
AcDbGroup
300

 70
     1
 71
     1
  0
GROUP
  5
240F2
102
{ACAD_REACTORS
330
D
102
}
330
D
100
AcDbGroup
300

 70
     1
 71
     1
  0
GROUP
  5
18FA8
102
{ACAD_REACTORS
330
D
102
}
330
D
100
AcDbGroup
300

 70
     1
 71
     1
  0
GROUP
  5
20022
102
{ACAD_REACTORS
330
D
102
}
330
D
100
AcDbGroup
300

 70
     1
 71
     1
  0
GROUP
  5
ACA2
102
{ACAD_REACTORS
330
D
102
}
330
D
100
AcDbGroup
300

 70
     1
 71
     1
  0
GROUP
  5
1D684
102
{ACAD_REACTORS
330
D
102
}
330
D
100
AcDbGroup
300

 70
     1
 71
     1
  0
GROUP
  5
1A695
102
{ACAD_REACTORS
330
D
102
}
330
D
100
AcDbGroup
300

 70
     1
 71
     1
  0
GROUP
  5
242E0
102
{ACAD_REACTORS
330
D
102
}
330
D
100
AcDbGroup
300

 70
     1
 71
     1
  0
GROUP
  5
1A09A
102
{ACAD_REACTORS
330
D
102
}
330
D
100
AcDbGroup
300

 70
     1
 71
     1
  0
GROUP
  5
227B2
102
{ACAD_REACTORS
330
D
102
}
330
D
100
AcDbGroup
300

 70
     1
 71
     1
  0
GROUP
  5
24B04
102
{ACAD_REACTORS
330
D
102
}
330
D
100
AcDbGroup
300

 70
     1
 71
     1
  0
GROUP
  5
1B744
102
{ACAD_REACTORS
330
D
102
}
330
D
100
AcDbGroup
300

 70
     1
 71
     1
  0
GROUP
  5
20013
102
{ACAD_REACTORS
330
D
102
}
330
D
100
AcDbGroup
300

 70
     1
 71
     1
  0
GROUP
  5
19794
102
{ACAD_REACTORS
330
D
102
}
330
D
100
AcDbGroup
300

 70
     1
 71
     1
  0
GROUP
  5
FC9B
102
{ACAD_REACTORS
330
D
102
}
330
D
100
AcDbGroup
300

 70
     1
 71
     1
  0
GROUP
  5
19988
102
{ACAD_REACTORS
330
D
102
}
330
D
100
AcDbGroup
300

 70
     1
 71
     1
  0
GROUP
  5
1B74D
102
{ACAD_REACTORS
330
D
102
}
330
D
100
AcDbGroup
300

 70
     1
 71
     1
  0
GROUP
  5
24725
102
{ACAD_REACTORS
330
D
102
}
330
D
100
AcDbGroup
300

 70
     1
 71
     1
  0
GROUP
  5
19729
102
{ACAD_REACTORS
330
D
102
}
330
D
100
AcDbGroup
300

 70
     1
 71
     1
  0
GROUP
  5
19989
102
{ACAD_REACTORS
330
D
102
}
330
D
100
AcDbGroup
300

 70
     1
 71
     1
  0
GROUP
  5
242A8
102
{ACAD_REACTORS
330
D
102
}
330
D
100
AcDbGroup
300

 70
     1
 71
     1
  0
GROUP
  5
2020E
102
{ACAD_REACTORS
330
D
102
}
330
D
100
AcDbGroup
300

 70
     1
 71
     1
  0
GROUP
  5
242B6
102
{ACAD_REACTORS
330
D
102
}
330
D
100
AcDbGroup
300

 70
     1
 71
     1
  0
GROUP
  5
242E6
102
{ACAD_REACTORS
330
D
102
}
330
D
100
AcDbGroup
300

 70
     1
 71
     1
  0
GROUP
  5
1A692
102
{ACAD_REACTORS
330
D
102
}
330
D
100
AcDbGroup
300

 70
     1
 71
     1
  0
GROUP
  5
1D6B6
102
{ACAD_REACTORS
330
D
102
}
330
D
100
AcDbGroup
300

 70
     1
 71
     1
  0
GROUP
  5
2471A
102
{ACAD_REACTORS
330
D
102
}
330
D
100
AcDbGroup
300

 70
     1
 71
     1
340
24566
340
24576
340
24567
340
24565
340
2456F
  0
GROUP
  5
18F23
102
{ACAD_REACTORS
330
D
102
}
330
D
100
AcDbGroup
300

 70
     1
 71
     1
  0
GROUP
  5
24A86
102
{ACAD_REACTORS
330
D
102
}
330
D
100
AcDbGroup
300

 70
     1
 71
     1
  0
GROUP
  5
20236
102
{ACAD_REACTORS
330
D
102
}
330
D
100
AcDbGroup
300

 70
     1
 71
     1
  0
GROUP
  5
24A92
102
{ACAD_REACTORS
330
D
102
}
330
D
100
AcDbGroup
300

 70
     1
 71
     1
  0
GROUP
  5
20222
102
{ACAD_REACTORS
330
D
102
}
330
D
100
AcDbGroup
300

 70
     1
 71
     1
  0
GROUP
  5
20CA6
102
{ACAD_REACTORS
330
D
102
}
330
D
100
AcDbGroup
300

 70
     1
 71
     1
  0
GROUP
  5
24A9E
102
{ACAD_REACTORS
330
D
102
}
330
D
100
AcDbGroup
300

 70
     1
 71
     1
  0
GROUP
  5
18F1F
102
{ACAD_REACTORS
330
D
102
}
330
D
100
AcDbGroup
300

 70
     1
 71
     1
  0
GROUP
  5
240F1
102
{ACAD_REACTORS
330
D
102
}
330
D
100
AcDbGroup
300

 70
     1
 71
     1
  0
MLINESTYLE
  5
1C
102
{ACAD_REACTORS
330
1B
102
}
330
1B
100
AcDbMlineStyle
  2
STANDARD
 70
     0
  3

 62
   256
 51
90.0
 52
90.0
 71
     2
 49
0.5
 62
   256
  6
BYLAYER
 49
-0.5
 62
   256
  6
BYLAYER
  0
ACDBPLACEHOLDER
  5
FB5C
102
{ACAD_REACTORS
330
FB5B
102
}
330
FB5B
100
AcDbPlaceHolder
280
     0
  0
XRECORD
  5
25564
102
{ACAD_REACTORS
330
2555A
102
}
330
2555A
100
AcDbXrecord
 90
        0
  0
XRECORD
  5
25568
102
{ACAD_REACTORS
330
2555A
102
}
330
2555A
100
AcDbXrecord
1000
DSTYLE
1002
{
1070
   289
 70
     1
1070
   341
340
1215D
1070
   342
340
1215D
1070
   371
 70
    13
1070
   372
 70
    13
1002
}
  0
XRECORD
  5
25565
102
{ACAD_REACTORS
330
2555A
102
}
330
2555A
100
AcDbXrecord
  1
{D14EE3FF-941A-415A-9907-344E0A80D794}
  0
XRECORD
  5
2555D
102
{ACAD_REACTORS
330
2555A
102
}
330
2555A
100
AcDbXrecord
  1

  0
XRECORD
  5
25563
102
{ACAD_REACTORS
330
2555A
102
}
330
2555A
100
AcDbXrecord
 90
        0
  0
XRECORD
  5
2555F
102
{ACAD_REACTORS
330
2555A
102
}
330
2555A
100
AcDbXrecord
340
DB2
  0
XRECORD
  5
25562
102
{ACAD_REACTORS
330
2555A
102
}
330
2555A
100
AcDbXrecord
 90
    10781
  0
XRECORD
  5
25560
102
{ACAD_REACTORS
330
2555A
102
}
330
2555A
100
AcDbXrecord
340
DB3
  0
XRECORD
  5
25561
102
{ACAD_REACTORS
330
2555A
102
}
330
2555A
100
AcDbXrecord
340
FB5B
  0
XRECORD
  5
25567
102
{ACAD_REACTORS
330
2555A
102
}
330
2555A
100
AcDbXrecord
 40
0.0
  0
XRECORD
  5
2556B
102
{ACAD_REACTORS
330
2555A
102
}
330
2555A
100
AcDbXrecord
340
0
  0
XRECORD
  5
25571
102
{ACAD_REACTORS
330
2555A
102
}
330
2555A
100
AcDbXrecord
 10
0.0
 20
0.0
 30
0.0
  0
XRECORD
  5
2556D
102
{ACAD_REACTORS
330
2555A
102
}
330
2555A
100
AcDbXrecord
 10
0.0
 20
0.0
 30
0.0
  0
XRECORD
  5
25570
102
{ACAD_REACTORS
330
2555A
102
}
330
2555A
100
AcDbXrecord
 10
0.0
 20
0.0
 30
0.0
  0
XRECORD
  5
2556E
102
{ACAD_REACTORS
330
2555A
102
}
330
2555A
100
AcDbXrecord
 10
0.0
 20
0.0
 30
0.0
  0
XRECORD
  5
2556F
102
{ACAD_REACTORS
330
2555A
102
}
330
2555A
100
AcDbXrecord
 10
0.0
 20
0.0
 30
0.0
  0
XRECORD
  5
2556C
102
{ACAD_REACTORS
330
2555A
102
}
330
2555A
100
AcDbXrecord
 10
0.0
 20
0.0
 30
0.0
  0
XRECORD
  5
25569
102
{ACAD_REACTORS
330
2555A
102
}
330
2555A
100
AcDbXrecord
340
0
  0
XRECORD
  5
2556A
102
{ACAD_REACTORS
330
2555A
102
}
330
2555A
100
AcDbXrecord
 70
     0
  0
XRECORD
  5
2555E
102
{ACAD_REACTORS
330
2555A
102
}
330
2555A
100
AcDbXrecord
  1
MONOCHROME.CTB
  0
XRECORD
  5
2555B
102
{ACAD_REACTORS
330
2555A
102
}
330
2555A
100
AcDbXrecord
 90
        1
  0
XRECORD
  5
2555C
102
{ACAD_REACTORS
330
2555A
102
}
330
2555A
100
AcDbXrecord
 90
       70
  0
XRECORD
  5
25574
102
{ACAD_REACTORS
330
2555A
102
}
330
2555A
100
AcDbXrecord
340
0
  0
XRECORD
  5
2557A
102
{ACAD_REACTORS
330
2555A
102
}
330
2555A
100
AcDbXrecord
 10
0.0
 20
0.0
 30
0.0
  0
XRECORD
  5
25576
102
{ACAD_REACTORS
330
2555A
102
}
330
2555A
100
AcDbXrecord
 10
0.0
 20
0.0
 30
0.0
  0
XRECORD
  5
25579
102
{ACAD_REACTORS
330
2555A
102
}
330
2555A
100
AcDbXrecord
 10
0.0
 20
0.0
 30
0.0
  0
XRECORD
  5
25577
102
{ACAD_REACTORS
330
2555A
102
}
330
2555A
100
AcDbXrecord
 10
0.0
 20
0.0
 30
0.0
  0
XRECORD
  5
25578
102
{ACAD_REACTORS
330
2555A
102
}
330
2555A
100
AcDbXrecord
 10
0.0
 20
0.0
 30
0.0
  0
XRECORD
  5
25575
102
{ACAD_REACTORS
330
2555A
102
}
330
2555A
100
AcDbXrecord
 10
0.0
 20
0.0
 30
0.0
  0
XRECORD
  5
25572
102
{ACAD_REACTORS
330
2555A
102
}
330
2555A
100
AcDbXrecord
340
0
  0
XRECORD
  5
25573
102
{ACAD_REACTORS
330
2555A
102
}
330
2555A
100
AcDbXrecord
 70
     0
  0
XRECORD
  5
25566
102
{ACAD_REACTORS
330
2555A
102
}
330
2555A
100
AcDbXrecord
  1
{F4997906-32C9-409E-BC05-480D9565151E}
  0
DICTIONARYVAR
  5
106A7
102
{ACAD_REACTORS
330
106A6
102
}
330
106A6
100
DictionaryVariables
280
     0
  1
96
  0
XRECORD
  5
1A9A1
102
{ACAD_REACTORS
330
1A99F
102
}
330
1A99F
100
AcDbXrecord
330
187D7
330
0
330
0
330
0
330
0
330
0
330
0
330
0
330
0
330
0
330
0
330
115F
330
0
330
0
330
0
330
0
330
0
330
0
330
0
330
0
330
0
330
0
330
0
330
0
330
0
330
0
330
0
330
0
330
0
330
0
330
0
330
0
330
0
330
0
330
0
330
0
330
0
330
0
330
0
330
0
330
0
330
0
330
0
330
0
  0
XRECORD
  5
2541B
102
{ACAD_REACTORS
330
2541A
102
}
330
2541A
100
AcDbXrecord
  1
0
  1
*0
  1
*
  1
*
 70
     0
  1
*
  1
*
  0
XRECORD
  5
2541C
102
{ACAD_REACTORS
330
2541A
102
}
330
2541A
100
AcDbXrecord
  1
11
  1
*11
  1
*
  1
*
 70
     0
  1
*
  1
*
  0
XRECORD
  5
2541D
102
{ACAD_REACTORS
330
2541A
102
}
330
2541A
100
AcDbXrecord
  1
150_
  1
150_*
  1
*
  1
*
 70
     0
  1
*
  1
*
  0
XRECORD
  5
2541E
102
{ACAD_REACTORS
330
2541A
102
}
330
2541A
100
AcDbXrecord
  1
160_
  1
160_*
  1
*
  1
*
 70
     0
  1
*
  1
*
  0
XRECORD
  5
2541F
102
{ACAD_REACTORS
330
2541A
102
}
330
2541A
100
AcDbXrecord
  1
170_
  1
170_*
  1
*
  1
*
 70
     0
  1
*
  1
*
  0
XRECORD
  5
25420
102
{ACAD_REACTORS
330
2541A
102
}
330
2541A
100
AcDbXrecord
  1
171_
  1
171_*
  1
*
  1
*
 70
     0
  1
*
  1
*
  0
XRECORD
  5
25421
102
{ACAD_REACTORS
330
2541A
102
}
330
2541A
100
AcDbXrecord
  1
350_
  1
350_*
  1
*
  1
*
 70
     0
  1
*
  1
*
  0
XRECORD
  5
25422
102
{ACAD_REACTORS
330
2541A
102
}
330
2541A
100
AcDbXrecord
  1
4
  1
*4
  1
*
  1
*
 70
     0
  1
*
  1
*
  0
XRECORD
  5
25423
102
{ACAD_REACTORS
330
2541A
102
}
330
2541A
100
AcDbXrecord
  1
5
  1
*5
  1
*
  1
*
 70
     0
  1
*
  1
*
  0
XRECORD
  5
25424
102
{ACAD_REACTORS
330
2541A
102
}
330
2541A
100
AcDbXrecord
  1
7
  1
*7
  1
*
  1
*
 70
     0
  1
*
  1
*
  0
XRECORD
  5
25425
102
{ACAD_REACTORS
330
2541A
102
}
330
2541A
100
AcDbXrecord
  1
kiseki
  1
kiseki*
  1
*
  1
*
 70
     0
  1
*
  1
*
  0
ENDSEC
  0
EOF
