  0
SECTION
  2
HEADER
  9
$ACADVER
  1
AC1014
  9
$ACADMAINTVER
 70
     9
  9
$DWGCODEPAGE
  3
ANSI_932
  9
$INSBASE
 10
0.0
 20
0.0
 30
0.0
  9
$EXTMIN
 10
2061.382530492369
 20
-869.3191501859239
 30
0.0
  9
$EXTMAX
 10
2334.780198836408
 20
-628.4459102681818
 30
0.0
  9
$LIMMIN
 10
0.0
 20
0.0
  9
$LIMMAX
 10
420.0
 20
297.0
  9
$ORTHOMODE
 70
     1
  9
$REGENMODE
 70
     1
  9
$FILLMODE
 70
     1
  9
$QTEXTMODE
 70
     0
  9
$MIRRTEXT
 70
     0
  9
$DRAGMODE
 70
     2
  9
$LTSCALE
 40
1.0
  9
$OSMODE
 70
   959
  9
$ATTMODE
 70
     1
  9
$TEXTSIZE
 40
2.5
  9
$TRACEWID
 40
1.0
  9
$TEXTSTYLE
  7
STANDARD
  9
$CLAYER
  8
文字１
  9
$CELTYPE
  6
BYLAYER
  9
$CECOLOR
 62
   256
  9
$CELTSCALE
 40
0.1
  9
$DELOBJ
 70
     1
  9
$DISPSILH
 70
     0
  9
$DIMSCALE
 40
1.0
  9
$DIMASZ
 40
3.0
  9
$DIMEXO
 40
1.0
  9
$DIMDLI
 40
0.38
  9
$DIMRND
 40
0.0
  9
$DIMDLE
 40
0.0
  9
$DIMEXE
 40
1.0
  9
$DIMTP
 40
0.0
  9
$DIMTM
 40
0.0
  9
$DIMTXT
 40
5.0
  9
$DIMCEN
 40
0.0
  9
$DIMTSZ
 40
0.0
  9
$DIMTOL
 70
     0
  9
$DIMLIM
 70
     0
  9
$DIMTIH
 70
     0
  9
$DIMTOH
 70
     0
  9
$DIMSE1
 70
     0
  9
$DIMSE2
 70
     0
  9
$DIMTAD
 70
     3
  9
$DIMZIN
 70
     8
  9
$DIMBLK
  1
OPEN30
  9
$DIMASO
 70
     1
  9
$DIMSHO
 70
     1
  9
$DIMPOST
  1

  9
$DIMAPOST
  1

  9
$DIMALT
 70
     0
  9
$DIMALTD
 70
     2
  9
$DIMALTF
 40
25.4
  9
$DIMLFAC
 40
1.0
  9
$DIMTOFL
 70
     1
  9
$DIMTVP
 40
0.0
  9
$DIMTIX
 70
     0
  9
$DIMSOXD
 70
     0
  9
$DIMSAH
 70
     0
  9
$DIMBLK1
  1

  9
$DIMBLK2
  1

  9
$DIMSTYLE
  2
まこ-１_２
  9
$DIMCLRD
 70
     4
  9
$DIMCLRE
 70
     4
  9
$DIMCLRT
 70
   256
  9
$DIMTFAC
 40
1.0
  9
$DIMGAP
 40
1.0
  9
$DIMJUST
 70
     0
  9
$DIMSD1
 70
     0
  9
$DIMSD2
 70
     0
  9
$DIMTOLJ
 70
     1
  9
$DIMTZIN
 70
     0
  9
$DIMALTZ
 70
     0
  9
$DIMALTTZ
 70
     0
  9
$DIMFIT
 70
     3
  9
$DIMUPT
 70
     0
  9
$DIMUNIT
 70
     2
  9
$DIMDEC
 70
     2
  9
$DIMTDEC
 70
     2
  9
$DIMALTU
 70
     2
  9
$DIMALTTD
 70
     2
  9
$DIMTXSTY
  7
MSｺ_ｼｯｸ-0
  9
$DIMAUNIT
 70
     0
  9
$LUNITS
 70
     2
  9
$LUPREC
 70
     4
  9
$SKETCHINC
 40
1.0
  9
$FILLETRAD
 40
0.1
  9
$AUNITS
 70
     0
  9
$AUPREC
 70
     0
  9
$MENU
  1
.
  9
$ELEVATION
 40
0.0
  9
$PELEVATION
 40
0.0
  9
$THICKNESS
 40
0.0
  9
$LIMCHECK
 70
     0
  9
$BLIPMODE
 70
     0
  9
$CHAMFERA
 40
0.5
  9
$CHAMFERB
 40
0.5
  9
$CHAMFERC
 40
20.0
  9
$CHAMFERD
 40
0.0
  9
$SKPOLY
 70
     0
  9
$TDCREATE
 40
2452312.443623217
  9
$TDUPDATE
 40
2455601.380211226
  9
$TDINDWG
 40
14.3396508681
  9
$TDUSRTIMER
 40
14.3396492477
  9
$USRTIMER
 70
     1
  9
$ANGBASE
 50
0.0
  9
$ANGDIR
 70
     0
  9
$PDMODE
 70
     0
  9
$PDSIZE
 40
0.0
  9
$PLINEWID
 40
0.0
  9
$COORDS
 70
     1
  9
$SPLFRAME
 70
     0
  9
$SPLINETYPE
 70
     6
  9
$SPLINESEGS
 70
     8
  9
$ATTDIA
 70
     0
  9
$ATTREQ
 70
     1
  9
$HANDLING
 70
-16383
  9
$HANDSEED
  5
2D58D
  9
$SURFTAB1
 70
     6
  9
$SURFTAB2
 70
     6
  9
$SURFTYPE
 70
     6
  9
$SURFU
 70
     6
  9
$SURFV
 70
     6
  9
$UCSNAME
  2

  9
$UCSORG
 10
0.0
 20
0.0
 30
0.0
  9
$UCSXDIR
 10
1.0
 20
0.0
 30
0.0
  9
$UCSYDIR
 10
0.0
 20
1.0
 30
0.0
  9
$PUCSNAME
  2

  9
$PUCSORG
 10
0.0
 20
0.0
 30
0.0
  9
$PUCSXDIR
 10
1.0
 20
0.0
 30
0.0
  9
$PUCSYDIR
 10
0.0
 20
1.0
 30
0.0
  9
$USERI1
 70
     0
  9
$USERI2
 70
     0
  9
$USERI3
 70
     0
  9
$USERI4
 70
     0
  9
$USERI5
 70
     0
  9
$USERR1
 40
0.0
  9
$USERR2
 40
0.0
  9
$USERR3
 40
0.0
  9
$USERR4
 40
0.0
  9
$USERR5
 40
0.0
  9
$WORLDVIEW
 70
     1
  9
$SHADEDGE
 70
     3
  9
$SHADEDIF
 70
    70
  9
$TILEMODE
 70
     0
  9
$MAXACTVP
 70
    64
  9
$PINSBASE
 10
0.0
 20
0.0
 30
0.0
  9
$PLIMCHECK
 70
     0
  9
$PEXTMIN
 10
0.2289129429502736
 20
1.133170060020006
 30
-0.0015258207003583
  9
$PEXTMAX
 10
414.6428860292957
 20
292.2107669805845
 30
0.0000000349246037
  9
$PLIMMIN
 10
-0.17498779296875
 20
1.825000047683715
  9
$PLIMMAX
 10
419.9833374023437
 20
298.856829881668
  9
$UNITMODE
 70
     0
  9
$VISRETAIN
 70
     1
  9
$PLINEGEN
 70
     0
  9
$PSLTSCALE
 70
     0
  9
$TREEDEPTH
 70
  3020
  9
$PICKSTYLE
 70
     0
  9
$CMLSTYLE
  2
STANDARD
  9
$CMLJUST
 70
     0
  9
$CMLSCALE
 40
20.0
  9
$PROXYGRAPHICS
 70
     1
  9
$MEASUREMENT
 70
     0
  0
ENDSEC
  0
SECTION
  2
CLASSES
  0
CLASS
  1
ACDBDICTIONARYWDFLT
  2
AcDbDictionaryWithDefault
  3
AutoCAD 2000
 90
        0
280
     0
281
     0
  0
CLASS
  1
ACDBPLACEHOLDER
  2
AcDbPlaceHolder
  3
AutoCAD 2000
 90
        0
280
     0
281
     0
  0
CLASS
  1
LAYOUT
  2
AcDbLayout
  3
AutoCAD 2000
 90
        0
280
     0
281
     0
  0
CLASS
  1
DICTIONARYVAR
  2
AcDbDictionaryVar
  3
AutoCAD 2000
 90
        0
280
     0
281
     0
  0
CLASS
  1
SORTENTSTABLE
  2
AcDbSortentsTable
  3
AutoCAD 2000
 90
        0
280
     0
281
     0
  0
CLASS
  1
LONG_TRANSACTION
  2
AcDbLongTransaction
  3
AutoCAD 2000
 90
        0
280
     0
281
     0
  0
CLASS
  1
LWPOLYLINE
  2
AcDbPolyline
  3
AutoCAD 2000
 90
        0
280
     0
281
     1
  0
CLASS
  1
HATCH
  2
AcDbHatch
  3
AutoCAD 2000
 90
        0
280
     0
281
     1
  0
CLASS
  1
XRECORD
  2
AcDbXrecord
  3
AutoCAD 2000
 90
        0
280
     0
281
     0
  0
ENDSEC
  0
SECTION
  2
TABLES
  0
TABLE
  2
VPORT
  5
8
330
0
100
AcDbSymbolTable
 70
     2
  0
VPORT
  5
2D568
330
8
100
AcDbSymbolTableRecord
100
AcDbViewportTableRecord
  2
*ACTIVE
 70
     0
 10
0.0
 20
0.0
 11
1.0
 21
1.0
 12
2198.109190227385
 22
-748.8716381143545
 13
0.0
 23
0.0
 14
10.0
 24
10.0
 15
10.0
 25
10.0
 16
0.0
 26
0.0
 36
1.0
 17
0.0
 27
0.0
 37
0.0
 40
242.6772078240515
 41
2.184834123222748
 42
50.0
 43
0.0
 44
0.0
 50
0.0
 51
0.0
 71
     0
 72
   100
 73
     1
 74
     2
 75
     0
 76
     0
 77
     0
 78
     2
  0
ENDTAB
  0
TABLE
  2
LTYPE
  5
5
330
0
100
AcDbSymbolTable
 70
     4
  0
LTYPE
  5
14
330
5
100
AcDbSymbolTableRecord
100
AcDbLinetypeTableRecord
  2
BYBLOCK
 70
     0
  3

 72
    65
 73
     0
 40
0.0
  0
LTYPE
  5
15
330
5
100
AcDbSymbolTableRecord
100
AcDbLinetypeTableRecord
  2
BYLAYER
 70
     0
  3

 72
    65
 73
     0
 40
0.0
  0
LTYPE
  5
16
330
5
100
AcDbSymbolTableRecord
100
AcDbLinetypeTableRecord
  2
CONTINUOUS
 70
     0
  3
Solid line
 72
    65
 73
     0
 40
0.0
  0
LTYPE
  5
6B0
330
5
100
AcDbSymbolTableRecord
100
AcDbLinetypeTableRecord
  2
CENTER2
 70
     0
  3
Center (.5x) ___ _ ___ _ ___ _ ___ _ ___ _ ___
 72
    65
 73
     4
 40
28.57499999999999
 49
19.05
 74
     0
 49
-3.174999999999998
 74
     0
 49
3.174999999999998
 74
     0
 49
-3.174999999999998
 74
     0
  0
LTYPE
  5
6B1
330
5
100
AcDbSymbolTableRecord
100
AcDbLinetypeTableRecord
  2
HIDDEN
 70
     0
  3
Hidden __ __ __ __ __ __ __ __ __ __ __ __ __ _
 72
    65
 73
     2
 40
9.524999999999996
 49
6.349999999999997
 74
     0
 49
-3.174999999999998
 74
     0
  0
LTYPE
  5
2AA26
330
5
100
AcDbSymbolTableRecord
100
AcDbLinetypeTableRecord
  2
PHANTOM
 70
     0
  3
Phantom ______  __  __  ______  __  __  ______
 72
    65
 73
     6
 40
2.5
 49
1.25
 74
     0
 49
-0.25
 74
     0
 49
0.25
 74
     0
 49
-0.25
 74
     0
 49
0.25
 74
     0
 49
-0.25
 74
     0
  0
ENDTAB
  0
TABLE
  2
LAYER
  5
2
102
{ACAD_XDICTIONARY
360
29CAD
102
}
330
0
100
AcDbSymbolTable
 70
    12
  0
LAYER
  5
10
330
2
100
AcDbSymbolTableRecord
100
AcDbLayerTableRecord
  2
0
 70
     0
 62
     7
  6
CONTINUOUS
  0
LAYER
  5
31
330
2
100
AcDbSymbolTableRecord
100
AcDbLayerTableRecord
  2
MYVIEW
 70
     0
 62
    -1
  6
CONTINUOUS
  0
LAYER
  5
12A
330
2
100
AcDbSymbolTableRecord
100
AcDbLayerTableRecord
  2
DIMENSION
 70
     0
 62
     7
  6
CONTINUOUS
  0
LAYER
  5
12B
330
2
100
AcDbSymbolTableRecord
100
AcDbLayerTableRecord
  2
文字
 70
     0
 62
     7
  6
CONTINUOUS
  0
LAYER
  5
540
330
2
100
AcDbSymbolTableRecord
100
AcDbLayerTableRecord
  2
WAKUMOJI1
 70
     0
 62
    -7
  6
CONTINUOUS
  0
LAYER
  5
6B2
330
2
100
AcDbSymbolTableRecord
100
AcDbLayerTableRecord
  2
DEFPOINTS
 70
     1
 62
    -7
  6
CONTINUOUS
  0
LAYER
  5
6B3
330
2
100
AcDbSymbolTableRecord
100
AcDbLayerTableRecord
  2
中心線
 70
     0
 62
     7
  6
CENTER2
  0
LAYER
  5
20D69
330
2
100
AcDbSymbolTableRecord
100
AcDbLayerTableRecord
  2
実線
 70
     0
 62
     7
  6
CONTINUOUS
  0
LAYER
  5
2134A
330
2
100
AcDbSymbolTableRecord
100
AcDbLayerTableRecord
  2
細線
 70
     0
 62
     7
  6
CONTINUOUS
  0
LAYER
  5
21D6D
330
2
100
AcDbSymbolTableRecord
100
AcDbLayerTableRecord
  2
破線
 70
     0
 62
     7
  6
HIDDEN
  0
LAYER
  5
28BB4
330
2
100
AcDbSymbolTableRecord
100
AcDbLayerTableRecord
  2
文字１
 70
     0
 62
     7
  6
CONTINUOUS
  0
LAYER
  5
2AA28
330
2
100
AcDbSymbolTableRecord
100
AcDbLayerTableRecord
  2
２点鎖線
 70
     0
 62
     7
  6
PHANTOM
  0
ENDTAB
  0
TABLE
  2
STYLE
  5
3
330
0
100
AcDbSymbolTable
 70
     6
  0
STYLE
  5
11
330
3
100
AcDbSymbolTableRecord
100
AcDbTextStyleTableRecord
  2
STANDARD
 70
     0
 40
0.0
 41
1.0
 50
0.0
 71
     0
 42
2.5
  3
isocp.shx
  4
bigfont.shx
  0
STYLE
  5
133
330
3
100
AcDbSymbolTableRecord
100
AcDbTextStyleTableRecord
  2
MSｺ_ｼｯｸ-0
 70
     0
 40
0.0
 41
1.0
 50
0.0
 71
     0
 42
4.0
  3
simplex.shx
  4
bigfont.shx
  0
ENDTAB
  0
TABLE
  2
VIEW
  5
6
330
0
100
AcDbSymbolTable
 70
     0
  0
ENDTAB
  0
TABLE
  2
UCS
  5
7
330
0
100
AcDbSymbolTable
 70
     0
  0
ENDTAB
  0
TABLE
  2
APPID
  5
9
330
0
100
AcDbSymbolTable
 70
     1
  0
APPID
  5
12
330
9
100
AcDbSymbolTableRecord
100
AcDbRegAppTableRecord
  2
ACAD
 70
     0
  0
ENDTAB
  0
TABLE
  2
DIMSTYLE
  5
A
330
0
100
AcDbSymbolTable
 70
     2
  0
DIMSTYLE
105
135
330
A
100
AcDbSymbolTableRecord
100
AcDbDimStyleTableRecord
  2
STANDARD
 70
     0
  3

  4

  5
OPEN
  6

  7

 40
1.0
 41
3.0
 42
0.8
 43
0.38
 44
0.18
 45
0.0
 46
0.0
 47
0.0
 48
0.0
140
3.0
141
0.0
142
0.0
143
25.4
144
1.0
145
0.0
146
1.0
147
1.0
 71
     0
 72
     0
 73
     0
 74
     0
 75
     0
 76
     0
 77
     3
 78
     8
170
     0
171
     2
172
     0
173
     0
174
     0
175
     0
176
     4
177
     4
178
    40
270
     2
271
     2
272
     2
273
     2
274
     2
340
133
275
     0
280
     0
281
     0
282
     0
283
     1
284
     0
285
     0
286
     0
287
     3
288
     0
  0
DIMSTYLE
105
21455
330
A
100
AcDbSymbolTableRecord
100
AcDbDimStyleTableRecord
  2
まこ-１_２
 70
     0
  3

  4

  5
OPEN30
  6

  7

 40
1.0
 41
3.0
 42
1.0
 43
0.38
 44
1.0
 45
0.0
 46
0.0
 47
0.0
 48
0.0
140
5.0
141
0.0
142
0.0
143
25.4
144
1.0
145
0.0
146
1.0
147
1.0
 71
     0
 72
     0
 73
     0
 74
     0
 75
     0
 76
     0
 77
     3
 78
     8
170
     0
171
     2
172
     1
173
     0
174
     0
175
     0
176
     4
177
     4
178
   256
270
     2
271
     2
272
     2
273
     2
274
     2
340
133
275
     0
280
     0
281
     0
282
     0
283
     1
284
     0
285
     0
286
     0
287
     3
288
     0
  0
ENDTAB
  0
TABLE
  2
BLOCK_RECORD
  5
1
330
0
100
AcDbSymbolTable
 70
    22
  0
BLOCK_RECORD
  5
1F
102
{ACAD_XDICTIONARY
360
2847E
102
}
330
1
100
AcDbSymbolTableRecord
100
AcDbBlockTableRecord
  2
*MODEL_SPACE
  0
BLOCK_RECORD
  5
2A57E
102
{ACAD_XDICTIONARY
360
2D58B
102
}
330
1
100
AcDbSymbolTableRecord
100
AcDbBlockTableRecord
  2
*PAPER_SPACE
  0
BLOCK_RECORD
  5
123
330
1
100
AcDbSymbolTableRecord
100
AcDbBlockTableRecord
  2
_OPEN
  0
BLOCK_RECORD
  5
495
330
1
100
AcDbSymbolTableRecord
100
AcDbBlockTableRecord
  2
_OPEN30
  0
ENDTAB
  0
ENDSEC
  0
SECTION
  2
BLOCKS
  0
BLOCK
  5
20
330
1F
100
AcDbEntity
  8
0
100
AcDbBlockBegin
  2
*MODEL_SPACE
 70
     0
 10
0.0
 20
0.0
 30
0.0
  3
*MODEL_SPACE
  1

  0
ENDBLK
  5
21
330
1F
100
AcDbEntity
  8
0
100
AcDbBlockEnd
  0
BLOCK
  5
2A6EA
330
2A57E
100
AcDbEntity
 67
     1
  8
0
100
AcDbBlockBegin
  2
*PAPER_SPACE
 70
     0
 10
0.0
 20
0.0
 30
0.0
  3
*PAPER_SPACE
  1

  0
ENDBLK
  5
2A6EB
330
2A57E
100
AcDbEntity
 67
     1
  8
0
100
AcDbBlockEnd
  0
BLOCK
  5
127
330
123
100
AcDbEntity
  8
0
100
AcDbBlockBegin
  2
_OPEN
 70
     0
 10
0.0
 20
0.0
 30
0.0
  3
_OPEN
  1

  0
LINE
  5
124
330
123
100
AcDbEntity
  8
0
  6
BYBLOCK
 62
     0
100
AcDbLine
 10
-1.0
 20
0.1666666666666666
 30
0.0
 11
0.0
 21
0.0
 31
0.0
  0
LINE
  5
125
330
123
100
AcDbEntity
  8
0
  6
BYBLOCK
 62
     0
100
AcDbLine
 10
0.0
 20
0.0
 30
0.0
 11
-1.0
 21
-0.1666666666666666
 31
0.0
  0
LINE
  5
126
330
123
100
AcDbEntity
  8
0
  6
BYBLOCK
 62
     0
100
AcDbLine
 10
0.0
 20
0.0
 30
0.0
 11
-1.0
 21
0.0
 31
0.0
  0
ENDBLK
  5
128
330
123
100
AcDbEntity
  8
0
100
AcDbBlockEnd
  0
BLOCK
  5
499
330
495
100
AcDbEntity
  8
0
100
AcDbBlockBegin
  2
_OPEN30
 70
     0
 10
0.0
 20
0.0
 30
0.0
  3
_OPEN30
  1

  0
LINE
  5
496
330
495
100
AcDbEntity
  8
DIMENSION
 62
     0
100
AcDbLine
 10
-1.0
 20
0.26794919
 30
0.0
 11
0.0
 21
0.0
 31
0.0
  0
LINE
  5
497
330
495
100
AcDbEntity
  8
DIMENSION
 62
     0
100
AcDbLine
 10
0.0
 20
0.0
 30
0.0
 11
-1.0
 21
-0.26794919
 31
0.0
  0
LINE
  5
498
330
495
100
AcDbEntity
  8
DIMENSION
 62
     0
100
AcDbLine
 10
0.0
 20
0.0
 30
0.0
 11
-1.0
 21
0.0
 31
0.0
  0
ENDBLK
  5
49A
330
495
100
AcDbEntity
  8
0
100
AcDbBlockEnd
  0
ENDSEC
  0
SECTION
  2
ENTITIES
  0
LINE
  5
2CD4B
330
1F
100
AcDbEntity
  8
実線
100
AcDbLine
 10
2234.989318283678
 20
-719.7959102681815
 30
0.0
 11
2237.08253049237
 21
-719.7959102681815
 31
0.0
  0
LINE
  5
2CD4C
330
1F
100
AcDbEntity
  8
実線
100
AcDbLine
 10
2236.68253049237
 20
-718.7959102681817
 30
0.0
 11
2233.582530492371
 21
-718.7959102681817
 31
0.0
  0
LINE
  5
2CD4D
330
1F
100
AcDbEntity
  8
実線
100
AcDbLine
 10
2237.08253049237
 20
-720.5959102681817
 30
0.0
 11
2234.989318283678
 21
-720.5959102681817
 31
0.0
  0
LINE
  5
2CD4E
330
1F
100
AcDbEntity
  8
実線
100
AcDbLine
 10
2234.58253049237
 20
-726.4359102681817
 30
0.0
 11
2245.082530492371
 21
-726.4359102681817
 31
0.0
  0
LINE
  5
2CD4F
330
1F
100
AcDbEntity
  8
実線
100
AcDbLine
 10
2245.082530492371
 20
-722.9959102681813
 30
0.0
 11
2234.58253049237
 21
-722.9959102681813
 31
0.0
  0
LINE
  5
2CD50
330
1F
100
AcDbEntity
  8
実線
100
AcDbLine
 10
2234.58253049237
 20
-730.9959102681813
 30
0.0
 11
2245.082530492371
 21
-730.9959102681817
 31
0.0
  0
LINE
  5
2CD51
330
1F
100
AcDbEntity
  8
実線
100
AcDbLine
 10
2245.082530492371
 20
-727.5559102681812
 30
0.0
 11
2234.58253049237
 21
-727.5559102681812
 31
0.0
  0
LINE
  5
2CD52
330
1F
100
AcDbEntity
  8
実線
100
AcDbLine
 10
2236.082530492371
 20
-718.1959102681815
 30
0.0
 11
2227.88253049237
 21
-718.1959102681815
 31
0.0
  0
LINE
  5
2CD53
330
1F
100
AcDbEntity
  8
実線
 48
10.0
100
AcDbLine
 10
2171.382530492369
 20
-712.4459102681822
 30
0.0
 11
2171.382530492369
 21
-644.9459102681821
 31
0.0
  0
LINE
  5
2CD54
330
1F
100
AcDbEntity
  8
実線
 48
10.0
100
AcDbLine
 10
2067.382530492368
 20
-712.4459102681822
 30
0.0
 11
2067.382530492368
 21
-644.9459102681821
 31
0.0
  0
LINE
  5
2CD57
330
1F
100
AcDbEntity
  8
実線
 48
10.0
100
AcDbLine
 10
2171.882530492371
 20
-712.4459102681822
 30
0.0
 11
2066.882530492371
 21
-712.4459102681822
 31
0.0
  0
LINE
  5
2CD58
330
1F
100
AcDbEntity
  8
実線
 48
10.0
100
AcDbLine
 10
2171.882530492371
 20
-737.4459102681822
 30
0.0
 11
2066.882530492371
 21
-737.4459102681822
 31
0.0
  0
LINE
  5
2CD5C
330
1F
100
AcDbEntity
  8
実線
 48
10.0
100
AcDbLine
 10
2066.382530492369
 20
-712.9459102681821
 30
0.0
 11
2066.382530492369
 21
-736.9459102681823
 31
0.0
  0
LINE
  5
2CD5D
330
1F
100
AcDbEntity
  8
中心線
 48
0.2
100
AcDbLine
 10
2079.382530492368
 20
-735.0959102681799
 30
0.0
 11
2079.382530492368
 21
-727.7959102681834
 31
0.0
  0
LINE
  5
2CD5E
330
1F
100
AcDbEntity
  8
実線
 48
10.0
100
AcDbLine
 10
2066.382530492369
 20
-736.9459102681823
 30
0.0
 11
2066.882530492371
 21
-737.4459102681822
 31
0.0
  0
CIRCLE
  5
2CD5F
330
1F
100
AcDbEntity
  8
実線
100
AcDbCircle
 10
2079.382530492368
 20
-731.4459102681817
 30
0.0
 40
1.649999999998384
  0
CIRCLE
  5
2CD60
330
1F
100
AcDbEntity
  8
細線
100
AcDbCircle
 10
2079.382530492368
 20
-731.4459102681817
 30
0.0
 40
1.999999999998293
  0
LINE
  5
2CD61
330
1F
100
AcDbEntity
  8
中心線
 48
0.2
100
AcDbLine
 10
2075.732530492373
 20
-731.4459102681812
 30
0.0
 11
2083.032530492367
 21
-731.4459102681799
 31
0.0
  0
LINE
  5
2CD62
330
1F
100
AcDbEntity
  8
実線
 48
10.0
100
AcDbLine
 10
2066.382530492369
 20
-712.9459102681821
 30
0.0
 11
2066.882530492371
 21
-712.4459102681822
 31
0.0
  0
CIRCLE
  5
2CD66
330
1F
100
AcDbEntity
  8
実線
100
AcDbCircle
 10
2119.382530492369
 20
-731.4459102681817
 30
0.0
 40
1.649999999998384
  0
CIRCLE
  5
2CD67
330
1F
100
AcDbEntity
  8
細線
100
AcDbCircle
 10
2119.382530492369
 20
-731.4459102681817
 30
0.0
 40
1.999999999998293
  0
LINE
  5
2CD68
330
1F
100
AcDbEntity
  8
中心線
 48
0.2
100
AcDbLine
 10
2115.732530492373
 20
-731.4459102681812
 30
0.0
 11
2123.032530492369
 21
-731.4459102681799
 31
0.0
  0
LINE
  5
2CD69
330
1F
100
AcDbEntity
  8
中心線
 48
0.2
100
AcDbLine
 10
2119.382530492369
 20
-735.0959102681799
 30
0.0
 11
2119.382530492369
 21
-727.7959102681834
 31
0.0
  0
LINE
  5
2CD71
330
1F
100
AcDbEntity
  8
実線
100
AcDbLine
 10
2184.382530492368
 20
-723.3459102681813
 30
0.0
 11
2172.38253049237
 21
-723.3459102681813
 31
0.0
  0
LINE
  5
2CD72
330
1F
100
AcDbEntity
  8
実線
100
AcDbLine
 10
2184.382530492368
 20
-730.5459102681817
 30
0.0
 11
2172.382530492372
 21
-730.5459102681817
 31
0.0
  0
LINE
  5
2CD73
330
1F
100
AcDbEntity
  8
実線
 48
10.0
100
AcDbLine
 10
2172.38253049237
 20
-712.9459102681821
 30
0.0
 11
2172.38253049237
 21
-736.9459102681823
 31
0.0
  0
LINE
  5
2CD74
330
1F
100
AcDbEntity
  8
実線
 48
10.0
100
AcDbLine
 10
2172.38253049237
 20
-736.9459102681823
 30
0.0
 11
2171.882530492371
 21
-737.4459102681822
 31
0.0
  0
LINE
  5
2CD75
330
1F
100
AcDbEntity
  8
中心線
 48
0.2
100
AcDbLine
 10
2159.382530492369
 20
-735.0959102681799
 30
0.0
 11
2159.382530492369
 21
-727.7959102681834
 31
0.0
  0
CIRCLE
  5
2CD76
330
1F
100
AcDbEntity
  8
実線
100
AcDbCircle
 10
2159.382530492369
 20
-731.4459102681817
 30
0.0
 40
1.649999999998384
  0
LINE
  5
2CD77
330
1F
100
AcDbEntity
  8
中心線
 48
0.2
100
AcDbLine
 10
2155.732530492373
 20
-731.4459102681812
 30
0.0
 11
2163.032530492367
 21
-731.4459102681799
 31
0.0
  0
CIRCLE
  5
2CD78
330
1F
100
AcDbEntity
  8
細線
100
AcDbCircle
 10
2159.382530492369
 20
-731.4459102681817
 30
0.0
 40
1.999999999998293
  0
LINE
  5
2CD79
330
1F
100
AcDbEntity
  8
実線
 48
10.0
100
AcDbLine
 10
2171.882530492371
 20
-712.4459102681822
 30
0.0
 11
2172.38253049237
 21
-712.9459102681821
 31
0.0
  0
LINE
  5
2CD7A
330
1F
100
AcDbEntity
  8
実線
100
AcDbLine
 10
2234.58253049237
 20
-726.9959102681813
 30
0.0
 11
2234.58253049237
 21
-722.0959102681818
 31
0.0
  0
LINE
  5
2CD7B
330
1F
100
AcDbEntity
  8
実線
100
AcDbLine
 10
2221.382530492371
 20
-724.3959102681807
 30
0.0
 11
2221.382530492371
 21
-729.6959102681812
 31
0.0
  0
LINE
  5
2CD7C
330
1F
100
AcDbEntity
  8
実線
100
AcDbLine
 10
2221.382530492371
 20
-726.9959102681813
 30
0.0
 11
2221.382530492371
 21
-721.0959102681818
 31
0.0
  0
LINE
  5
2CD7D
330
1F
100
AcDbEntity
  8
実線
100
AcDbLine
 10
2219.382530492369
 20
-723.7959102681815
 30
0.0
 11
2219.382530492369
 21
-730.0959102681818
 31
0.0
  0
LINE
  5
2CD7E
330
1F
100
AcDbEntity
  8
中心線
 48
0.5
100
AcDbLine
 10
2203.011395698954
 20
-735.0720020943287
 30
0.0
 11
2205.753665285786
 21
-719.5198184420346
 31
0.0
  0
LINE
  5
2CD7F
330
1F
100
AcDbEntity
  8
中心線
 48
0.5
100
AcDbLine
 10
2205.011395698954
 20
-735.0720020943287
 30
0.0
 11
2207.753665285787
 21
-719.5198184420346
 31
0.0
  0
LINE
  5
2CD80
330
1F
100
AcDbEntity
  8
実線
 48
10.0
100
AcDbLine
 10
2184.382530492368
 20
-723.3459102681813
 30
0.0
 11
2184.382530492368
 21
-730.5459102681817
 31
0.0
  0
LINE
  5
2CD81
330
1F
100
AcDbEntity
  8
実線
100
AcDbLine
 10
2219.382530492369
 20
-730.0959102681818
 30
0.0
 11
2205.976978436742
 21
-730.0959102681818
 31
0.0
  0
LINE
  5
2CD82
330
1F
100
AcDbEntity
  8
実線
100
AcDbLine
 10
2203.97697843674
 20
-730.0959102681818
 30
0.0
 11
2184.382530492368
 21
-730.0959102681818
 31
0.0
  0
LINE
  5
2CD83
330
1F
100
AcDbEntity
  8
実線
100
AcDbLine
 10
2234.58253049237
 20
-731.8959102681812
 30
0.0
 11
2234.58253049237
 21
-726.9959102681813
 31
0.0
  0
LINE
  5
2CD84
330
1F
100
AcDbEntity
  8
実線
100
AcDbLine
 10
2222.382530492371
 20
-732.3959102681812
 30
0.0
 11
2222.382530492371
 21
-731.8959102681812
 31
0.0
  0
LINE
  5
2CD85
330
1F
100
AcDbEntity
  8
実線
100
AcDbLine
 10
2221.382530492371
 20
-732.8959102681813
 30
0.0
 11
2221.382530492371
 21
-726.9959102681813
 31
0.0
  0
LINE
  5
2CD86
330
1F
100
AcDbEntity
  8
実線
100
AcDbLine
 10
2221.382530492371
 20
-726.9959102681813
 30
0.0
 11
2219.382530492369
 21
-726.9959102681813
 31
0.0
  0
LINE
  5
2CD87
330
1F
100
AcDbEntity
  8
実線
100
AcDbLine
 10
2221.382530492371
 20
-732.8959102681813
 30
0.0
 11
2221.882530492369
 21
-732.8959102681813
 31
0.0
  0
LINE
  5
2CD88
330
1F
100
AcDbEntity
  8
実線
100
AcDbLine
 10
2221.382530492371
 20
-729.5959102681818
 30
0.0
 11
2219.382530492369
 21
-729.5959102681818
 31
0.0
  0
LINE
  5
2CD89
330
1F
100
AcDbEntity
  8
実線
100
AcDbLine
 10
2221.382530492371
 20
-728.2959102681815
 30
0.0
 11
2219.382530492369
 21
-728.2959102681815
 31
0.0
  0
ARC
  5
2CD8A
330
1F
100
AcDbEntity
  8
実線
100
AcDbCircle
 10
2221.882530492369
 20
-732.3959102681812
 30
0.0
 40
0.5
100
AcDbArc
 50
270.0
 51
0.0
  0
LINE
  5
2CD8B
330
1F
100
AcDbEntity
  8
実線
100
AcDbLine
 10
2222.382530492371
 20
-731.8959102681812
 30
0.0
 11
2234.58253049237
 21
-731.8959102681812
 31
0.0
  0
LINE
  5
2CD8C
330
1F
100
AcDbEntity
  8
実線
100
AcDbLine
 10
2206.911511434495
 20
-723.7959102681815
 30
0.0
 11
2219.382530492369
 21
-723.7959102681815
 31
0.0
  0
LINE
  5
2CD8D
330
1F
100
AcDbEntity
  8
実線
100
AcDbLine
 10
2184.382530492368
 20
-723.7959102681815
 30
0.0
 11
2204.911511434497
 21
-723.7959102681815
 31
0.0
  0
LINE
  5
2CD8E
330
1F
100
AcDbEntity
  8
実線
100
AcDbLine
 10
2233.582530492371
 20
-719.7959102681815
 30
0.0
 11
2234.989318283678
 21
-719.7959102681815
 31
0.0
  0
LINE
  5
2CD8F
330
1F
100
AcDbEntity
  8
実線
100
AcDbLine
 10
2233.582530492371
 20
-719.7959102681815
 30
0.0
 11
2233.582530492371
 21
-718.7959102681817
 31
0.0
  0
ARC
  5
2CD90
330
1F
100
AcDbEntity
  8
実線
100
AcDbCircle
 10
2233.872662682493
 20
-720.9988736372784
 30
0.0
 40
0.2901321901215654
100
AcDbArc
 50
180.0
 51
225.7347860444803
  0
LINE
  5
2CD91
330
1F
100
AcDbEntity
  8
実線
100
AcDbLine
 10
2234.58253049237
 20
-722.0959102681818
 30
0.0
 11
2233.670156031477
 21
-721.2066421239146
 31
0.0
  0
LINE
  5
2CD92
330
1F
100
AcDbEntity
  8
実線
100
AcDbLine
 10
2233.582530492371
 20
-720.9988736372784
 30
0.0
 11
2233.582530492371
 21
-720.5959102681817
 31
0.0
  0
LINE
  5
2CD93
330
1F
100
AcDbEntity
  8
実線
100
AcDbLine
 10
2234.989318283678
 20
-720.5959102681817
 30
0.0
 11
2233.582530492371
 21
-720.5959102681817
 31
0.0
  0
LINE
  5
2CD94
330
1F
100
AcDbEntity
  8
実線
100
AcDbLine
 10
2234.989318283678
 20
-720.5959102681817
 30
0.0
 11
2234.989318283678
 21
-719.7959102681815
 31
0.0
  0
LINE
  5
2CD95
330
1F
100
AcDbEntity
  8
実線
100
AcDbLine
 10
2233.582530492371
 20
-720.5959102681817
 30
0.0
 11
2233.582530492371
 21
-719.7959102681815
 31
0.0
  0
LINE
  5
2CD96
330
1F
100
AcDbEntity
  8
実線
100
AcDbLine
 10
2227.88253049237
 20
-718.7959102681817
 30
0.0
 11
2227.88253049237
 21
-718.1959102681815
 31
0.0
  0
LINE
  5
2CD97
330
1F
100
AcDbEntity
  8
実線
100
AcDbLine
 10
2222.382530492371
 20
-722.0959102681818
 30
0.0
 11
2222.382530492371
 21
-721.5959102681818
 31
0.0
  0
LINE
  5
2CD98
330
1F
100
AcDbEntity
  8
実線
100
AcDbLine
 10
2227.082530492371
 20
-720.1959102681818
 30
0.0
 11
2227.082530492371
 21
-718.1959102681815
 31
0.0
  0
LINE
  5
2CD99
330
1F
100
AcDbEntity
  8
実線
100
AcDbLine
 10
2227.88253049237
 20
-718.1959102681815
 30
0.0
 11
2227.082530492371
 21
-718.1959102681815
 31
0.0
  0
LINE
  5
2CD9A
330
1F
100
AcDbEntity
  8
実線
100
AcDbLine
 10
2231.633509504143
 20
-721.0135493624981
 30
0.0
 11
2227.082530492371
 21
-720.1959102681818
 31
0.0
  0
LINE
  5
2CD9B
330
1F
100
AcDbEntity
  8
実線
100
AcDbLine
 10
2231.537052004975
 20
-722.0959102681818
 30
0.0
 11
2222.382530492371
 21
-722.0959102681818
 31
0.0
  0
LINE
  5
2CD9C
330
1F
100
AcDbEntity
  8
実線
100
AcDbLine
 10
2221.382530492371
 20
-725.5959102681813
 30
0.0
 11
2219.382530492369
 21
-725.5959102681813
 31
0.0
  0
LINE
  5
2CD9D
330
1F
100
AcDbEntity
  8
実線
100
AcDbLine
 10
2219.382530492369
 20
-724.2959102681813
 30
0.0
 11
2221.382530492371
 21
-724.2959102681813
 31
0.0
  0
LINE
  5
2CD9E
330
1F
100
AcDbEntity
  8
実線
100
AcDbLine
 10
2221.882530492369
 20
-721.0959102681818
 30
0.0
 11
2221.382530492371
 21
-721.0959102681818
 31
0.0
  0
ARC
  5
2CD9F
330
1F
100
AcDbEntity
  8
実線
100
AcDbCircle
 10
2221.882530492369
 20
-721.5959102681818
 30
0.0
 40
0.5
100
AcDbArc
 50
0.0
 51
90.0
  0
ARC
  5
2CDA0
330
1F
100
AcDbEntity
  8
実線
100
AcDbCircle
 10
2231.537052004975
 20
-721.5504317807856
 30
0.0
 40
0.545478487396098
100
AcDbArc
 50
270.0
 51
79.81477213708254
  0
LINE
  5
2CDA1
330
1F
100
AcDbEntity
  8
実線
100
AcDbLine
 10
2233.582530492371
 20
-718.7959102681817
 30
0.0
 11
2227.88253049237
 21
-718.7959102681817
 31
0.0
  0
LINE
  5
2CDA2
330
1F
100
AcDbEntity
  8
実線
 48
10.0
100
AcDbLine
 10
2067.382530492368
 20
-644.9459102681821
 30
0.0
 11
2171.382530492369
 21
-644.9459102681821
 31
0.0
  0
LINE
  5
2CDA3
330
1F
100
AcDbEntity
  8
中心線
 48
0.5
100
AcDbLine
 10
2319.280198836408
 20
-639.7104496306557
 30
0.0
 11
2319.280198836408
 21
-742.6830646077672
 31
0.0
  0
LINE
  5
2CDA4
330
1F
100
AcDbEntity
  8
実線
100
AcDbLine
 10
2316.130198836409
 20
-644.9459102681821
 30
0.0
 11
2316.130198836409
 21
-710.445910268182
 31
0.0
  0
LINE
  5
2CDA5
330
1F
100
AcDbEntity
  8
実線
100
AcDbLine
 10
2322.430198836408
 20
-644.9459102681821
 30
0.0
 11
2322.430198836408
 21
-710.4459102681819
 31
0.0
  0
LINE
  5
2CDA6
330
1F
100
AcDbEntity
  8
実線
 48
0.2
100
AcDbLine
 10
2331.780198836409
 20
-712.9459102681819
 30
0.0
 11
2331.780198836409
 21
-736.9459102681819
 31
0.0
  0
LINE
  5
2CDA7
330
1F
100
AcDbEntity
  8
実線
 48
0.2
100
AcDbLine
 10
2306.780198836409
 20
-736.9459102681819
 30
0.0
 11
2306.780198836409
 21
-712.9459102681819
 31
0.0
  0
LINE
  5
2CDA8
330
1F
100
AcDbEntity
  8
破線
 48
0.2
100
AcDbLine
 10
2306.780198836409
 20
-729.4459102681819
 30
0.0
 11
2312.780198836409
 21
-729.4459102681818
 31
0.0
  0
LINE
  5
2CDA9
330
1F
100
AcDbEntity
  8
破線
 48
0.2
100
AcDbLine
 10
2306.780198836409
 20
-729.8459102681817
 30
0.0
 11
2313.530198836409
 21
-729.8459102681816
 31
0.0
  0
LINE
  5
2CDAA
330
1F
100
AcDbEntity
  8
破線
 48
0.2
100
AcDbLine
 10
2306.780198836409
 20
-733.4459102681819
 30
0.0
 11
2312.780198836409
 21
-733.4459102681818
 31
0.0
  0
LINE
  5
2CDAB
330
1F
100
AcDbEntity
  8
破線
 48
0.2
100
AcDbLine
 10
2306.780198836409
 20
-733.0459102681817
 30
0.0
 11
2313.530198836409
 21
-733.0459102681816
 31
0.0
  0
LINE
  5
2CDAC
330
1F
100
AcDbEntity
  8
中心線
 48
0.5
100
AcDbLine
 10
2332.77167715807
 20
-731.4459102681819
 30
0.0
 11
2306.010081230901
 21
-731.4459102681815
 31
0.0
  0
LINE
  5
2CDAD
330
1F
100
AcDbEntity
  8
実線
 48
0.2
100
AcDbLine
 10
2307.280198836409
 20
-737.4459102681819
 30
0.0
 11
2331.280198836409
 21
-737.4459102681819
 31
0.0
  0
LINE
  5
2CDAE
330
1F
100
AcDbEntity
  8
実線
 48
0.2
100
AcDbLine
 10
2307.280198836409
 20
-737.4459102681819
 30
0.0
 11
2306.780198836409
 21
-736.9459102681819
 31
0.0
  0
LINE
  5
2CDAF
330
1F
100
AcDbEntity
  8
実線
100
AcDbLine
 10
2245.082530492371
 20
-730.9959102681817
 30
0.0
 11
2245.082530492371
 21
-727.5559102681812
 31
0.0
  0
LINE
  5
2CDB0
330
1F
100
AcDbEntity
  8
実線
 48
0.2
100
AcDbLine
 10
2322.080198836407
 20
-730.9459102681819
 30
0.0
 11
2315.980198836407
 21
-730.9459102681819
 31
0.0
  0
ARC
  5
2CDB1
330
1F
100
AcDbEntity
  8
実線
 48
0.2
100
AcDbCircle
 10
2315.980198836407
 20
-729.9459102681819
 30
0.0
 40
1.0
100
AcDbArc
 50
180.0
 51
270.0
  0
ARC
  5
2CDB2
330
1F
100
AcDbEntity
  8
実線
 48
0.2
100
AcDbCircle
 10
2322.080198836407
 20
-729.9459102681819
 30
0.0
 40
1.0
100
AcDbArc
 50
270.0
 51
0.0
  0
LINE
  5
2CDB3
330
1F
100
AcDbEntity
  8
破線
 48
0.2
100
AcDbLine
 10
2325.780198836409
 20
-733.4459102681818
 30
0.0
 11
2325.780198836409
 21
-729.4459102681818
 31
0.0
  0
LINE
  5
2CDB4
330
1F
100
AcDbEntity
  8
破線
 48
0.2
100
AcDbLine
 10
2325.780198836409
 20
-733.4459102681818
 30
0.0
 11
2325.780198836409
 21
-729.4459102681818
 31
0.0
  0
LINE
  5
2CDB5
330
1F
100
AcDbEntity
  8
破線
 48
0.2
100
AcDbLine
 10
2325.030198836409
 20
-729.8459102681816
 30
0.0
 11
2325.030198836409
 21
-733.0459102681816
 31
0.0
  0
LINE
  5
2CDB6
330
1F
100
AcDbEntity
  8
破線
 48
0.2
100
AcDbLine
 10
2324.106438405705
 20
-731.4459102681817
 30
0.0
 11
2325.030198836409
 21
-729.8459102681816
 31
0.0
  0
LINE
  5
2CDB7
330
1F
100
AcDbEntity
  8
破線
 48
0.2
100
AcDbLine
 10
2324.106438405705
 20
-731.4459102681817
 30
0.0
 11
2325.030198836409
 21
-733.0459102681816
 31
0.0
  0
LINE
  5
2CDB8
330
1F
100
AcDbEntity
  8
破線
 48
0.2
100
AcDbLine
 10
2325.780198836409
 20
-729.4459102681818
 30
0.0
 11
2325.08737851338
 21
-729.8459102681816
 31
0.0
  0
LINE
  5
2CDB9
330
1F
100
AcDbEntity
  8
破線
 48
0.2
100
AcDbLine
 10
2325.780198836409
 20
-729.4459102681818
 30
0.0
 11
2325.08737851338
 21
-729.8459102681816
 31
0.0
  0
LINE
  5
2CDBA
330
1F
100
AcDbEntity
  8
破線
 48
0.2
100
AcDbLine
 10
2325.780198836409
 20
-733.4459102681818
 30
0.0
 11
2325.08737851338
 21
-733.0459102681816
 31
0.0
  0
LINE
  5
2CDBB
330
1F
100
AcDbEntity
  8
破線
 48
0.2
100
AcDbLine
 10
2325.780198836409
 20
-733.4459102681818
 30
0.0
 11
2325.08737851338
 21
-733.0459102681816
 31
0.0
  0
LINE
  5
2CDBC
330
1F
100
AcDbEntity
  8
破線
 48
0.2
100
AcDbLine
 10
2331.780198836409
 20
-729.4459102681819
 30
0.0
 11
2325.780198836409
 21
-729.4459102681818
 31
0.0
  0
LINE
  5
2CDBD
330
1F
100
AcDbEntity
  8
破線
 48
0.2
100
AcDbLine
 10
2331.780198836409
 20
-733.4459102681819
 30
0.0
 11
2325.780198836409
 21
-733.4459102681818
 31
0.0
  0
LINE
  5
2CDBE
330
1F
100
AcDbEntity
  8
破線
 48
0.2
100
AcDbLine
 10
2331.780198836409
 20
-729.8459102681817
 30
0.0
 11
2325.030198836409
 21
-729.8459102681816
 31
0.0
  0
LINE
  5
2CDBF
330
1F
100
AcDbEntity
  8
破線
 48
0.2
100
AcDbLine
 10
2331.780198836409
 20
-733.0459102681817
 30
0.0
 11
2325.030198836409
 21
-733.0459102681816
 31
0.0
  0
LINE
  5
2CDC0
330
1F
100
AcDbEntity
  8
実線
 48
0.2
100
AcDbLine
 10
2331.780198836409
 20
-736.9459102681819
 30
0.0
 11
2331.280198836409
 21
-737.4459102681819
 31
0.0
  0
LINE
  5
2CDC1
330
1F
100
AcDbEntity
  8
破線
 48
0.2
100
AcDbLine
 10
2312.780198836409
 20
-729.4459102681818
 30
0.0
 11
2313.473019159436
 21
-729.8459102681816
 31
0.0
  0
LINE
  5
2CDC2
330
1F
100
AcDbEntity
  8
破線
 48
0.2
100
AcDbLine
 10
2312.780198836409
 20
-729.4459102681818
 30
0.0
 11
2313.473019159436
 21
-729.8459102681816
 31
0.0
  0
LINE
  5
2CDC3
330
1F
100
AcDbEntity
  8
破線
 48
0.2
100
AcDbLine
 10
2312.780198836409
 20
-733.4459102681818
 30
0.0
 11
2312.780198836409
 21
-729.4459102681818
 31
0.0
  0
LINE
  5
2CDC4
330
1F
100
AcDbEntity
  8
破線
 48
0.2
100
AcDbLine
 10
2312.780198836409
 20
-733.4459102681818
 30
0.0
 11
2312.780198836409
 21
-729.4459102681818
 31
0.0
  0
LINE
  5
2CDC5
330
1F
100
AcDbEntity
  8
破線
 48
0.2
100
AcDbLine
 10
2313.530198836409
 20
-729.8459102681816
 30
0.0
 11
2313.530198836409
 21
-733.0459102681816
 31
0.0
  0
LINE
  5
2CDC6
330
1F
100
AcDbEntity
  8
破線
 48
0.2
100
AcDbLine
 10
2312.780198836409
 20
-733.4459102681818
 30
0.0
 11
2313.473019159436
 21
-733.0459102681816
 31
0.0
  0
LINE
  5
2CDC7
330
1F
100
AcDbEntity
  8
破線
 48
0.2
100
AcDbLine
 10
2312.780198836409
 20
-733.4459102681818
 30
0.0
 11
2313.473019159436
 21
-733.0459102681816
 31
0.0
  0
LINE
  5
2CDC8
330
1F
100
AcDbEntity
  8
破線
 48
0.2
100
AcDbLine
 10
2314.453959267112
 20
-731.4459102681817
 30
0.0
 11
2313.530198836409
 21
-729.8459102681816
 31
0.0
  0
LINE
  5
2CDC9
330
1F
100
AcDbEntity
  8
破線
 48
0.2
100
AcDbLine
 10
2314.453959267112
 20
-731.4459102681817
 30
0.0
 11
2313.530198836409
 21
-733.0459102681816
 31
0.0
  0
LINE
  5
2CDCA
330
1F
100
AcDbEntity
  8
実線
 48
0.2
100
AcDbLine
 10
2314.980198836408
 20
-712.4459102681819
 30
0.0
 11
2307.280198836409
 21
-712.4459102681819
 31
0.0
  0
LINE
  5
2CDCB
330
1F
100
AcDbEntity
  8
実線
 48
0.2
100
AcDbLine
 10
2307.280198836409
 20
-712.4459102681819
 30
0.0
 11
2306.780198836409
 21
-712.9459102681819
 31
0.0
  0
LINE
  5
2CDCC
330
1F
100
AcDbEntity
  8
実線
100
AcDbLine
 10
2245.082530492371
 20
-726.4359102681817
 30
0.0
 11
2245.082530492371
 21
-722.9959102681813
 31
0.0
  0
LINE
  5
2CDCD
330
1F
100
AcDbEntity
  8
実線
100
AcDbLine
 10
2239.082530492371
 20
-719.7959102681815
 30
0.0
 11
2238.082530492371
 21
-718.7959102681817
 31
0.0
  0
LINE
  5
2CDCE
330
1F
100
AcDbEntity
  8
実線
100
AcDbLine
 10
2238.082530492371
 20
-721.5959102681818
 30
0.0
 11
2239.082530492371
 21
-720.5959102681817
 31
0.0
  0
LINE
  5
2CDCF
330
1F
100
AcDbEntity
  8
実線
100
AcDbLine
 10
2239.082530492371
 20
-720.5959102681817
 30
0.0
 11
2239.082530492371
 21
-719.7959102681815
 31
0.0
  0
LINE
  5
2CDD0
330
1F
100
AcDbEntity
  8
実線
100
AcDbLine
 10
2237.08253049237
 20
-718.7959102681817
 30
0.0
 11
2236.68253049237
 21
-718.7959102681817
 31
0.0
  0
LINE
  5
2CDD1
330
1F
100
AcDbEntity
  8
実線
100
AcDbLine
 10
2236.68253049237
 20
-718.7959102681817
 30
0.0
 11
2236.082530492371
 21
-718.1959102681815
 31
0.0
  0
LINE
  5
2CDD2
330
1F
100
AcDbEntity
  8
実線
100
AcDbLine
 10
2237.08253049237
 20
-719.7959102681815
 30
0.0
 11
2237.08253049237
 21
-718.7959102681817
 31
0.0
  0
LINE
  5
2CDD3
330
1F
100
AcDbEntity
  8
実線
100
AcDbLine
 10
2237.08253049237
 20
-720.5959102681817
 30
0.0
 11
2237.08253049237
 21
-721.5959102681818
 31
0.0
  0
LINE
  5
2CDD4
330
1F
100
AcDbEntity
  8
実線
100
AcDbLine
 10
2238.082530492371
 20
-718.7959102681817
 30
0.0
 11
2237.08253049237
 21
-718.7959102681817
 31
0.0
  0
LINE
  5
2CDD5
330
1F
100
AcDbEntity
  8
実線
100
AcDbLine
 10
2237.08253049237
 20
-721.5959102681818
 30
0.0
 11
2238.082530492371
 21
-721.5959102681818
 31
0.0
  0
LINE
  5
2CDD6
330
1F
100
AcDbEntity
  8
実線
100
AcDbLine
 10
2324.430198836409
 20
-712.4459102681819
 30
0.0
 11
2322.430198836408
 21
-710.4459102681819
 31
0.0
  0
LINE
  5
2CDD7
330
1F
100
AcDbEntity
  8
実線
 48
0.2
100
AcDbLine
 10
2331.280198836409
 20
-712.4459102681819
 30
0.0
 11
2323.080198836407
 21
-712.4459102681819
 31
0.0
  0
LINE
  5
2CDD8
330
1F
100
AcDbEntity
  8
実線
 48
0.2
100
AcDbLine
 10
2331.280198836409
 20
-712.4459102681819
 30
0.0
 11
2331.780198836409
 21
-712.9459102681819
 31
0.0
  0
LINE
  5
2CDD9
330
1F
100
AcDbEntity
  8
実線
100
AcDbLine
 10
2314.130198836408
 20
-712.4459102681819
 30
0.0
 11
2316.130198836409
 21
-710.4459102681819
 31
0.0
  0
LINE
  5
2CDDA
330
1F
100
AcDbEntity
  8
実線
100
AcDbLine
 10
2322.430198836408
 20
-644.9459102681821
 30
0.0
 11
2316.130198836408
 21
-644.9459102681821
 31
0.0
  0
LINE
  5
2CDDC
330
1F
100
AcDbEntity
  8
実線
 48
10.0
100
AcDbLine
 10
2323.080198836407
 20
-719.4459102681819
 30
0.0
 11
2325.080198836408
 21
-719.4459102681819
 31
0.0
  0
LINE
  5
2CDDD
330
1F
100
AcDbEntity
  8
実線
 48
10.0
100
AcDbLine
 10
2323.080198836407
 20
-712.4459102681819
 30
0.0
 11
2323.080198836407
 21
-719.4459102681819
 31
0.0
  0
LINE
  5
2CDDE
330
1F
100
AcDbEntity
  8
実線
 48
10.0
100
AcDbLine
 10
2325.080198836408
 20
-723.4459102681819
 30
0.0
 11
2325.080198836408
 21
-719.4459102681819
 31
0.0
  0
LINE
  5
2CDDF
330
1F
100
AcDbEntity
  8
実線
 48
10.0
100
AcDbLine
 10
2323.080198836407
 20
-723.4459102681819
 30
0.0
 11
2325.080198836408
 21
-723.4459102681819
 31
0.0
  0
LINE
  5
2CDE0
330
1F
100
AcDbEntity
  8
実線
 48
10.0
100
AcDbLine
 10
2314.980198836408
 20
-723.4459102681819
 30
0.0
 11
2312.980198836407
 21
-723.4459102681819
 31
0.0
  0
LINE
  5
2CDE1
330
1F
100
AcDbEntity
  8
実線
 48
10.0
100
AcDbLine
 10
2312.980198836407
 20
-723.4459102681819
 30
0.0
 11
2312.980198836407
 21
-719.4459102681819
 31
0.0
  0
LINE
  5
2CDE2
330
1F
100
AcDbEntity
  8
実線
 48
10.0
100
AcDbLine
 10
2314.980198836408
 20
-719.4459102681819
 30
0.0
 11
2312.980198836407
 21
-719.4459102681819
 31
0.0
  0
LINE
  5
2CDE3
330
1F
100
AcDbEntity
  8
実線
 48
10.0
100
AcDbLine
 10
2314.980198836408
 20
-712.4459102681819
 30
0.0
 11
2314.980198836408
 21
-719.4459102681819
 31
0.0
  0
LINE
  5
2CDE4
330
1F
100
AcDbEntity
  8
実線
 48
10.0
100
AcDbLine
 10
2314.980198836408
 20
-723.4459102681819
 30
0.0
 11
2314.980198836408
 21
-729.9459102681819
 31
0.0
  0
LINE
  5
2CDE5
330
1F
100
AcDbEntity
  8
実線
 48
10.0
100
AcDbLine
 10
2323.080198836407
 20
-723.4459102681819
 30
0.0
 11
2323.080198836407
 21
-729.9459102681819
 31
0.0
  0
LINE
  5
2CDE6
102
{ACAD_REACTORS
330
2D098
102
}
330
1F
100
AcDbEntity
  8
２点鎖線
 48
5.0
100
AcDbLine
 10
2310.280198836407
 20
-628.4459102681818
 30
0.0
 11
2305.780198836408
 21
-628.4459102681818
 31
0.0
  0
LINE
  5
2CDE7
102
{ACAD_REACTORS
330
2D098
102
}
330
1F
100
AcDbEntity
  8
２点鎖線
 48
5.0
100
AcDbLine
 10
2310.280198836408
 20
-631.4459102681821
 30
0.0
 11
2305.780198836408
 21
-631.4459102681821
 31
0.0
  0
LINE
  5
2CDE8
102
{ACAD_REACTORS
330
2D098
102
}
330
1F
100
AcDbEntity
  8
２点鎖線
 48
5.0
100
AcDbLine
 10
2310.280198836408
 20
-641.4459102681822
 30
0.0
 11
2305.780198836408
 21
-641.4459102681822
 31
0.0
  0
LINE
  5
2CDE9
102
{ACAD_REACTORS
330
2D098
102
}
330
1F
100
AcDbEntity
  8
２点鎖線
 48
5.0
100
AcDbLine
 10
2305.780198836408
 20
-710.4459102681819
 30
0.0
 11
2310.280198836408
 21
-710.4459102681819
 31
0.0
  0
LINE
  5
2CDEA
102
{ACAD_REACTORS
330
2D098
102
}
330
1F
100
AcDbEntity
  8
中心線
 48
0.5
100
AcDbLine
 10
2334.780198836408
 20
-636.4459102681818
 30
0.0
 11
2303.780198836406
 21
-636.4459102681821
 31
0.0
  0
LINE
  5
2CDEB
102
{ACAD_REACTORS
330
2D098
102
}
330
1F
100
AcDbEntity
  8
２点鎖線
 48
5.0
100
AcDbLine
 10
2305.780198836408
 20
-710.4459102681819
 30
0.0
 11
2305.780198836408
 21
-628.4459102681818
 31
0.0
  0
LINE
  5
2CDEC
102
{ACAD_REACTORS
330
2D098
102
}
330
1F
100
AcDbEntity
  8
２点鎖線
 48
5.0
100
AcDbLine
 10
2332.780198836408
 20
-710.4459102681819
 30
0.0
 11
2332.780198836408
 21
-628.4459102681818
 31
0.0
  0
LINE
  5
2CDED
102
{ACAD_REACTORS
330
2D098
102
}
330
1F
100
AcDbEntity
  8
２点鎖線
 48
5.0
100
AcDbLine
 10
2323.230198836407
 20
-659.7459102681821
 30
0.0
 11
2323.230198836407
 21
-710.1459102681817
 31
0.0
  0
LINE
  5
2CDEE
102
{ACAD_REACTORS
330
2D098
102
}
330
1F
100
AcDbEntity
  8
２点鎖線
 48
5.0
100
AcDbLine
 10
2328.280198836408
 20
-659.9459102681818
 30
0.0
 11
2328.280198836408
 21
-709.9459102681819
 31
0.0
  0
LINE
  5
2CDEF
102
{ACAD_REACTORS
330
2D098
102
}
330
1F
100
AcDbEntity
  8
２点鎖線
 48
5.0
100
AcDbLine
 10
2328.280198836408
 20
-710.4459102681819
 30
0.0
 11
2328.280198836408
 21
-654.845910268182
 31
0.0
  0
LINE
  5
2CDF0
102
{ACAD_REACTORS
330
2D098
102
}
330
1F
100
AcDbEntity
  8
２点鎖線
 48
5.0
100
AcDbLine
 10
2315.330198836407
 20
-659.7459102681821
 30
0.0
 11
2315.330198836409
 21
-710.1459102681817
 31
0.0
  0
LINE
  5
2CDF1
102
{ACAD_REACTORS
330
2D098
102
}
330
1F
100
AcDbEntity
  8
２点鎖線
 48
5.0
100
AcDbLine
 10
2310.280198836408
 20
-659.9459102681818
 30
0.0
 11
2310.280198836408
 21
-709.9459102681819
 31
0.0
  0
LINE
  5
2CDF2
102
{ACAD_REACTORS
330
2D098
102
}
330
1F
100
AcDbEntity
  8
２点鎖線
 48
5.0
100
AcDbLine
 10
2310.280198836408
 20
-710.4459102681819
 30
0.0
 11
2310.280198836407
 21
-654.845910268182
 31
0.0
  0
LINE
  5
2CDF3
102
{ACAD_REACTORS
330
2D098
102
}
330
1F
100
AcDbEntity
  8
２点鎖線
 48
5.0
100
AcDbLine
 10
2323.230198836407
 20
-710.1459102681817
 30
0.0
 11
2328.280198836408
 21
-710.1459102681817
 31
0.0
  0
LINE
  5
2CDF4
102
{ACAD_REACTORS
330
2D098
102
}
330
1F
100
AcDbEntity
  8
２点鎖線
 48
5.0
100
AcDbLine
 10
2315.330198836409
 20
-710.1459102681817
 30
0.0
 11
2310.280198836408
 21
-710.1459102681817
 31
0.0
  0
LINE
  5
2CDF5
102
{ACAD_REACTORS
330
2D098
102
}
330
1F
100
AcDbEntity
  8
２点鎖線
 48
5.0
100
AcDbLine
 10
2332.780198836408
 20
-710.4459102681819
 30
0.0
 11
2328.280198836408
 21
-710.4459102681819
 31
0.0
  0
LINE
  5
2CDF6
102
{ACAD_REACTORS
330
2D098
102
}
330
1F
100
AcDbEntity
  8
２点鎖線
 48
5.0
100
AcDbLine
 10
2328.280198836405
 20
-654.845910268182
 30
0.0
 11
2323.380198836408
 21
-654.845910268182
 31
0.0
  0
LINE
  5
2CDF7
102
{ACAD_REACTORS
330
2D098
102
}
330
1F
100
AcDbEntity
  8
２点鎖線
 48
5.0
100
AcDbLine
 10
2323.230198836407
 20
-659.7459102681821
 30
0.0
 11
2328.280198836408
 21
-659.7459102681821
 31
0.0
  0
LINE
  5
2CDF8
102
{ACAD_REACTORS
330
2D098
102
}
330
1F
100
AcDbEntity
  8
２点鎖線
 48
5.0
100
AcDbLine
 10
2323.380198836408
 20
-642.845910268182
 30
0.0
 11
2315.180198836408
 21
-642.845910268182
 31
0.0
  0
LINE
  5
2CDF9
102
{ACAD_REACTORS
330
2D098
102
}
330
1F
100
AcDbEntity
  8
２点鎖線
 48
5.0
100
AcDbLine
 10
2315.180198836408
 20
-654.845910268182
 30
0.0
 11
2310.280198836407
 21
-654.845910268182
 31
0.0
  0
LINE
  5
2CDFA
102
{ACAD_REACTORS
330
2D098
102
}
330
1F
100
AcDbEntity
  8
２点鎖線
 48
5.0
100
AcDbLine
 10
2315.330198836407
 20
-659.7459102681821
 30
0.0
 11
2310.280198836408
 21
-659.7459102681821
 31
0.0
  0
LINE
  5
2CDFB
102
{ACAD_REACTORS
330
2D098
102
}
330
1F
100
AcDbEntity
  8
２点鎖線
 48
5.0
100
AcDbLine
 10
2315.180198836408
 20
-642.845910268182
 30
0.0
 11
2315.180198836408
 21
-654.845910268182
 31
0.0
  0
LINE
  5
2CDFC
102
{ACAD_REACTORS
330
2D098
102
}
330
1F
100
AcDbEntity
  8
２点鎖線
 48
5.0
100
AcDbLine
 10
2323.380198836408
 20
-642.845910268182
 30
0.0
 11
2323.380198836408
 21
-654.845910268182
 31
0.0
  0
LINE
  5
2CDFD
102
{ACAD_REACTORS
330
2D098
102
}
330
1F
100
AcDbEntity
  8
２点鎖線
 48
5.0
100
AcDbLine
 10
2328.280198836408
 20
-628.8459102681818
 30
0.0
 11
2310.280198836407
 21
-628.8459102681818
 31
0.0
  0
LINE
  5
2CDFE
102
{ACAD_REACTORS
330
2D098
102
}
330
1F
100
AcDbEntity
  8
２点鎖線
 48
5.0
100
AcDbLine
 10
2328.280198836408
 20
-633.4459102681821
 30
0.0
 11
2310.280198836407
 21
-633.4459102681821
 31
0.0
  0
LINE
  5
2CDFF
102
{ACAD_REACTORS
330
2D098
102
}
330
1F
100
AcDbEntity
  8
２点鎖線
 48
5.0
100
AcDbLine
 10
2328.280198836408
 20
-639.4459102681821
 30
0.0
 11
2310.280198836407
 21
-639.4459102681821
 31
0.0
  0
LINE
  5
2CE00
102
{ACAD_REACTORS
330
2D098
102
}
330
1F
100
AcDbEntity
  8
２点鎖線
 48
5.0
100
AcDbLine
 10
2310.280198836407
 20
-628.4459102681818
 30
0.0
 11
2310.280198836407
 21
-628.8459102681818
 31
0.0
  0
LINE
  5
2CE01
102
{ACAD_REACTORS
330
2D098
102
}
330
1F
100
AcDbEntity
  8
２点鎖線
 48
5.0
100
AcDbLine
 10
2310.280198836408
 20
-641.4459102681822
 30
0.0
 11
2310.280198836408
 21
-631.4459102681821
 31
0.0
  0
LINE
  5
2CE02
102
{ACAD_REACTORS
330
2D098
102
}
330
1F
100
AcDbEntity
  8
２点鎖線
 48
5.0
100
AcDbLine
 10
2328.280198836408
 20
-628.4459102681818
 30
0.0
 11
2328.280198836408
 21
-628.8459102681818
 31
0.0
  0
LINE
  5
2CE03
102
{ACAD_REACTORS
330
2D098
102
}
330
1F
100
AcDbEntity
  8
２点鎖線
 48
5.0
100
AcDbLine
 10
2332.780198836408
 20
-628.4459102681818
 30
0.0
 11
2328.280198836408
 21
-628.4459102681818
 31
0.0
  0
LINE
  5
2CE04
102
{ACAD_REACTORS
330
2D098
102
}
330
1F
100
AcDbEntity
  8
２点鎖線
 48
5.0
100
AcDbLine
 10
2332.780198836408
 20
-631.4459102681821
 30
0.0
 11
2328.280198836408
 21
-631.4459102681821
 31
0.0
  0
LINE
  5
2CE05
102
{ACAD_REACTORS
330
2D098
102
}
330
1F
100
AcDbEntity
  8
２点鎖線
 48
5.0
100
AcDbLine
 10
2332.780198836408
 20
-641.4459102681822
 30
0.0
 11
2328.280198836408
 21
-641.4459102681822
 31
0.0
  0
LINE
  5
2CE06
102
{ACAD_REACTORS
330
2D098
102
}
330
1F
100
AcDbEntity
  8
２点鎖線
 48
5.0
100
AcDbLine
 10
2328.280198836408
 20
-641.4459102681822
 30
0.0
 11
2328.280198836408
 21
-631.4459102681821
 31
0.0
  0
LINE
  5
2CE12
102
{ACAD_REACTORS
330
2D099
102
}
330
1F
100
AcDbEntity
  8
実線
 48
0.2
100
AcDbLine
 10
2171.882530492371
 20
-864.3191501859236
 30
0.0
 11
2066.882530492371
 21
-864.3191501859236
 31
0.0
  0
LINE
  5
2CE13
102
{ACAD_REACTORS
330
2D099
102
}
330
1F
100
AcDbEntity
  8
実線
 48
0.2
100
AcDbLine
 10
2172.38253049237
 20
-863.8191501859237
 30
0.0
 11
2172.38253049237
 21
-839.8191501859237
 31
0.0
  0
LINE
  5
2CE14
102
{ACAD_REACTORS
330
2D099
102
}
330
1F
100
AcDbEntity
  8
実線
 48
0.2
100
AcDbLine
 10
2171.882530492371
 20
-839.3191501859236
 30
0.0
 11
2066.882530492371
 21
-839.3191501859242
 31
0.0
  0
LINE
  5
2CE15
102
{ACAD_REACTORS
330
2D099
102
}
330
1F
100
AcDbEntity
  8
実線
 48
0.2
100
AcDbLine
 10
2171.882530492371
 20
-839.3191501859236
 30
0.0
 11
2172.38253049237
 21
-839.8191501859237
 31
0.0
  0
LINE
  5
2CE16
102
{ACAD_REACTORS
330
2D099
102
}
330
1F
100
AcDbEntity
  8
実線
 48
0.2
100
AcDbLine
 10
2172.38253049237
 20
-863.8191501859237
 30
0.0
 11
2171.882530492371
 21
-864.3191501859236
 31
0.0
  0
LINE
  5
2CE17
102
{ACAD_REACTORS
330
2D099
102
}
330
1F
100
AcDbEntity
  8
中心線
 48
0.5
100
AcDbLine
 10
2188.204466140267
 20
-851.8191501859236
 30
0.0
 11
2061.382530492369
 21
-851.8191501859242
 31
0.0
  0
LINE
  5
2CE1A
102
{ACAD_REACTORS
330
2D09A
102
}
330
1F
100
AcDbEntity
  8
0
100
AcDbLine
 10
2146.882530492371
 20
-845.8191501859237
 30
0.0
 11
2112.882530492369
 21
-845.8191501859237
 31
0.0
  0
LINE
  5
2CE1B
102
{ACAD_REACTORS
330
2D09A
102
}
330
1F
100
AcDbEntity
  8
0
100
AcDbLine
 10
2112.382530492371
 20
-852.8191501859236
 30
0.0
 11
2147.382530492369
 21
-852.8191501859236
 31
0.0
  0
LINE
  5
2CE1C
102
{ACAD_REACTORS
330
2D09A
102
}
330
1F
100
AcDbEntity
  8
0
100
AcDbLine
 10
2112.882530492369
 20
-857.8191501859237
 30
0.0
 11
2146.882530492371
 21
-857.8191501859237
 31
0.0
  0
LINE
  5
2CE1D
102
{ACAD_REACTORS
330
2D09A
102
}
330
1F
100
AcDbEntity
  8
0
100
AcDbLine
 10
2112.382530492371
 20
-846.3191501859236
 30
0.0
 11
2112.382530492371
 21
-857.3191501859238
 31
0.0
  0
ARC
  5
2CE1E
102
{ACAD_REACTORS
330
2D09A
102
}
330
1F
100
AcDbEntity
  8
0
100
AcDbCircle
 10
2112.882530492369
 20
-846.3191501859236
 30
0.0
 40
0.5
100
AcDbArc
 50
90.0
 51
180.0
  0
ARC
  5
2CE1F
102
{ACAD_REACTORS
330
2D09A
102
}
330
1F
100
AcDbEntity
  8
0
100
AcDbCircle
 10
2112.882530492369
 20
-857.3191501859238
 30
0.0
 40
0.5
100
AcDbArc
 50
180.0
 51
270.0
  0
LINE
  5
2CE2C
102
{ACAD_REACTORS
330
2D09A
102
}
330
1F
100
AcDbEntity
  8
0
100
AcDbLine
 10
2147.382530492369
 20
-857.3191501859238
 30
0.0
 11
2147.382530492369
 21
-846.3191501859236
 31
0.0
  0
ARC
  5
2CE2D
102
{ACAD_REACTORS
330
2D09A
102
}
330
1F
100
AcDbEntity
  8
0
100
AcDbCircle
 10
2146.882530492371
 20
-846.3191501859236
 30
0.0
 40
0.5
100
AcDbArc
 50
0.0
 51
90.0
  0
ARC
  5
2CE2E
102
{ACAD_REACTORS
330
2D09A
102
}
330
1F
100
AcDbEntity
  8
0
100
AcDbCircle
 10
2146.882530492371
 20
-857.3191501859238
 30
0.0
 40
0.5
100
AcDbArc
 50
270.0
 51
0.0
  0
LWPOLYLINE
  5
2CE3C
102
{ACAD_REACTORS
330
2D09B
102
}
330
1F
100
AcDbEntity
  8
0
100
AcDbPolyline
 90
        8
 70
     1
 43
0.0
 10
2152.882530492369
 20
-856.8191501859232
 10
2166.882530492368
 20
-856.8191501859237
 42
0.4142135623730951
 10
2167.382530492369
 20
-856.3191501859236
 10
2167.382530492369
 20
-847.3191501859236
 42
0.4142135623730951
 10
2166.882530492368
 20
-846.8191501859237
 10
2152.882530492369
 20
-846.8191501859237
 42
0.4142135623730996
 10
2152.382530492368
 20
-847.3191501859236
 10
2152.382530492368
 20
-856.3191501859233
 42
0.4142135623730904
  0
LINE
  5
2CE3D
102
{ACAD_REACTORS
330
2D09B
102
}
330
1F
100
AcDbEntity
  8
0
100
AcDbLine
 10
2152.382530492368
 20
-850.8191501859233
 30
0.0
 11
2167.382530492369
 21
-850.8191501859233
 31
0.0
  0
LINE
  5
2CE48
102
{ACAD_REACTORS
330
2D09C
102
}
330
1F
100
AcDbEntity
  8
２点鎖線
 48
5.0
100
AcDbLine
 10
2172.38253049237
 20
-722.4459102681827
 30
0.0
 11
2172.382530492367
 21
-676.4459102681812
 31
0.0
  0
LINE
  5
2CE49
102
{ACAD_REACTORS
330
2D09C
102
}
330
1F
100
AcDbEntity
  8
２点鎖線
 48
5.0
100
AcDbLine
 10
2195.38253049236
 20
-676.4459102681829
 30
0.0
 11
2195.382530492365
 21
-722.4459102681827
 31
0.0
  0
LINE
  5
2CE4A
102
{ACAD_REACTORS
330
2D09C
102
}
330
1F
100
AcDbEntity
  8
２点鎖線
 48
5.0
100
AcDbLine
 10
2172.382530492368
 20
-722.4459102681827
 30
0.0
 11
2195.382530492365
 21
-722.4459102681827
 31
0.0
  0
LWPOLYLINE
  5
2CE4B
102
{ACAD_REACTORS
330
2D09C
102
}
330
1F
100
AcDbEntity
  8
２点鎖線
 48
5.0
100
AcDbPolyline
 90
        5
 70
     0
 43
0.0
 10
2195.382530492364
 20
-712.445910268183
 10
2195.882530492368
 20
-712.445910268183
 10
2195.882530492368
 20
-729.4459102681827
 10
2172.38253049237
 20
-729.4459102681827
 10
2172.38253049237
 20
-722.4459102681827
  0
SPLINE
  5
2CE4C
102
{ACAD_REACTORS
330
2D09C
102
}
330
1F
100
AcDbEntity
  8
２点鎖線
 48
5.0
100
AcDbSpline
210
0.0
220
0.0
230
1.0
 70
     8
 71
     3
 72
    11
 73
     7
 74
     0
 42
0.0000000001
 43
0.0000000001
 40
0.7400739024284913
 40
0.7400739024284913
 40
0.7400739024284913
 40
0.7400739024284913
 40
1.581138830084188
 40
3.162277660168379
 40
5.320980974660691
 40
6.163181696929322
 40
6.163181696929322
 40
6.163181696929322
 40
6.163181696929322
 10
2211.710673052615
 20
-718.5812472494058
 30
0.0
 10
2211.606326287438
 20
-718.3150964320327
 30
0.0
 10
2211.404292377415
 20
-717.5497489497184
 30
0.0
 10
2212.168115165541
 20
-716.1156579160054
 30
0.0
 10
2212.707741857048
 20
-714.5987712779587
 30
0.0
 10
2212.435589753543
 20
-713.6468684675112
 30
0.0
 10
2212.336183410199
 20
-713.3812472494069
 30
0.0
  0
LINE
  5
2CE4D
102
{ACAD_REACTORS
330
2D09C
102
}
330
1F
100
AcDbEntity
  8
２点鎖線
 48
5.0
100
AcDbLine
 10
2211.713235492401
 20
-718.5812472494074
 30
0.0
 11
2199.882530334798
 21
-718.5812472494074
 31
0.0
  0
LINE
  5
2CE4E
102
{ACAD_REACTORS
330
2D09C
102
}
330
1F
100
AcDbEntity
  8
２点鎖線
 48
5.0
100
AcDbLine
 10
2212.362417502163
 20
-713.3812472494064
 30
0.0
 11
2199.882530334798
 21
-713.3812472494072
 31
0.0
  0
LINE
  5
2CE4F
102
{ACAD_REACTORS
330
2D09C
102
}
330
1F
100
AcDbEntity
  8
２点鎖線
 48
5.0
100
AcDbLine
 10
2198.382530492369
 20
-718.5709117726254
 30
0.0
 11
2195.882530492368
 21
-718.5709102681832
 31
0.0
  0
LINE
  5
2CE50
102
{ACAD_REACTORS
330
2D09C
102
}
330
1F
100
AcDbEntity
  8
２点鎖線
 48
5.0
100
AcDbLine
 10
2198.382530492369
 20
-713.3209120735118
 30
0.0
 11
2195.882530492368
 21
-713.3209102681812
 31
0.0
  0
LINE
  5
2CE51
102
{ACAD_REACTORS
330
2D09C
102
}
330
1F
100
AcDbEntity
  8
２点鎖線
 48
5.0
100
AcDbLine
 10
2198.382530492369
 20
-723.3209120735118
 30
0.0
 11
2195.882530492368
 21
-723.3209102681812
 31
0.0
  0
LINE
  5
2CE52
102
{ACAD_REACTORS
330
2D09C
102
}
330
1F
100
AcDbEntity
  8
２点鎖線
 48
5.0
100
AcDbLine
 10
2195.882530492368
 20
-713.3209102681812
 30
0.0
 11
2195.882530492368
 21
-718.5709102681832
 31
0.0
  0
LINE
  5
2CE53
102
{ACAD_REACTORS
330
2D09C
102
}
330
1F
100
AcDbEntity
  8
２点鎖線
 48
5.0
100
AcDbLine
 10
2195.882530492368
 20
-722.4459102681827
 30
0.0
 11
2195.382530492365
 21
-722.4459102681827
 31
0.0
  0
LINE
  5
2CE54
102
{ACAD_REACTORS
330
2D09C
102
}
330
1F
100
AcDbEntity
  8
２点鎖線
 48
5.0
100
AcDbLine
 10
2198.382530492369
 20
-718.5709120735136
 30
0.0
 11
2198.882530492368
 21
-718.3209120735138
 31
0.0
  0
LINE
  5
2CE55
102
{ACAD_REACTORS
330
2D09C
102
}
330
1F
100
AcDbEntity
  8
２点鎖線
 48
5.0
100
AcDbLine
 10
2198.382530492369
 20
-713.3209120735118
 30
0.0
 11
2198.382530492369
 21
-718.5709120735136
 31
0.0
  0
LINE
  5
2CE56
102
{ACAD_REACTORS
330
2D09C
102
}
330
1F
100
AcDbEntity
  8
２点鎖線
 48
5.0
100
AcDbLine
 10
2198.882530341923
 20
-713.5709120735136
 30
0.0
 11
2198.882530492368
 21
-718.3209120735138
 31
0.0
  0
LINE
  5
2CE57
102
{ACAD_REACTORS
330
2D09C
102
}
330
1F
100
AcDbEntity
  8
２点鎖線
 48
5.0
100
AcDbLine
 10
2198.382530492369
 20
-713.3209120735118
 30
0.0
 11
2198.882530341923
 21
-713.5709120735136
 31
0.0
  0
LINE
  5
2CE58
102
{ACAD_REACTORS
330
2D09C
102
}
330
1F
100
AcDbEntity
  8
２点鎖線
 48
5.0
100
AcDbLine
 10
2198.382530492369
 20
-718.5459102681816
 30
0.0
 11
2198.382530492369
 21
-718.5709120735136
 31
0.0
  0
LINE
  5
2CE59
102
{ACAD_REACTORS
330
2D09C
102
}
330
1F
100
AcDbEntity
  8
２点鎖線
 48
5.0
100
AcDbLine
 10
2198.382530492369
 20
-723.3209120735118
 30
0.0
 11
2198.882530341923
 21
-723.5709120735138
 31
0.0
  0
LINE
  5
2CE5A
102
{ACAD_REACTORS
330
2D09C
102
}
330
1F
100
AcDbEntity
  8
２点鎖線
 48
5.0
100
AcDbLine
 10
2198.382530492369
 20
-728.5709117726256
 30
0.0
 11
2195.882530492368
 21
-728.5709102681827
 31
0.0
  0
LINE
  5
2CE5B
102
{ACAD_REACTORS
330
2D09C
102
}
330
1F
100
AcDbEntity
  8
２点鎖線
 48
5.0
100
AcDbLine
 10
2198.382530492369
 20
-728.5709120735138
 30
0.0
 11
2198.882530492368
 21
-728.3209120735136
 31
0.0
  0
LINE
  5
2CE5C
102
{ACAD_REACTORS
330
2D09C
102
}
330
1F
100
AcDbEntity
  8
２点鎖線
 48
5.0
100
AcDbLine
 10
2195.882530492368
 20
-723.3209102681812
 30
0.0
 11
2195.882530492368
 21
-728.5709102681827
 31
0.0
  0
LINE
  5
2CE5D
102
{ACAD_REACTORS
330
2D09C
102
}
330
1F
100
AcDbEntity
  8
２点鎖線
 48
5.0
100
AcDbLine
 10
2198.882530341923
 20
-723.5709120735138
 30
0.0
 11
2198.882530492368
 21
-728.3209120735136
 31
0.0
  0
LINE
  5
2CE5E
102
{ACAD_REACTORS
330
2D09C
102
}
330
1F
100
AcDbEntity
  8
２点鎖線
 48
5.0
100
AcDbLine
 10
2198.382530492369
 20
-723.3209120735118
 30
0.0
 11
2198.382530492369
 21
-728.5709120735138
 31
0.0
  0
LINE
  5
2CE5F
102
{ACAD_REACTORS
330
2D09C
102
}
330
1F
100
AcDbEntity
  8
２点鎖線
 48
5.0
100
AcDbLine
 10
2172.382530492367
 20
-676.4459102681812
 30
0.0
 11
2195.382530492362
 21
-676.4459102681829
 31
0.0
  0
LINE
  5
2CE60
102
{ACAD_REACTORS
330
2D09C
102
}
330
1F
100
AcDbEntity
  8
２点鎖線
 48
5.0
100
AcDbLine
 10
2244.592153170429
 20
-719.781247249407
 30
0.0
 11
2249.592153170429
 21
-719.781247249407
 31
0.0
  0
LINE
  5
2CE61
102
{ACAD_REACTORS
330
2D09C
102
}
330
1F
100
AcDbEntity
  8
２点鎖線
 48
5.0
100
AcDbLine
 10
2244.592153170429
 20
-712.1812472494061
 30
0.0
 11
2249.592153170429
 21
-712.1812472494066
 31
0.0
  0
LWPOLYLINE
  5
2CE62
102
{ACAD_REACTORS
330
2D09C
102
}
330
1F
100
AcDbEntity
  8
２点鎖線
 48
5.0
100
AcDbPolyline
 90
        2
 70
     0
 43
0.0
 10
2212.710673052614
 20
-718.5812472494074
 10
2231.776538571052
 20
-718.5812472494074
  0
LWPOLYLINE
  5
2CE63
102
{ACAD_REACTORS
330
2D09C
102
}
330
1F
100
AcDbEntity
  8
２点鎖線
 48
5.0
100
AcDbPolyline
 90
        2
 70
     0
 43
0.0
 10
2231.776538571052
 20
-713.3812472494064
 10
2213.336183410198
 20
-713.3812472494064
  0
SPLINE
  5
2CE64
102
{ACAD_REACTORS
330
2D09C
102
}
330
1F
100
AcDbEntity
  8
２点鎖線
 48
5.0
100
AcDbSpline
210
0.0
220
0.0
230
1.0
 70
     8
 71
     3
 72
    11
 73
     7
 74
     0
 42
0.0000000001
 43
0.0000000001
 40
0.7400739024284913
 40
0.7400739024284913
 40
0.7400739024284913
 40
0.7400739024284913
 40
1.581138830084188
 40
3.162277660168379
 40
5.320980974660691
 40
6.163181696929142
 40
6.163181696929142
 40
6.163181696929142
 40
6.163181696929142
 10
2212.710673052617
 20
-718.5812472494058
 30
0.0
 10
2212.606326287438
 20
-718.3150964320327
 30
0.0
 10
2212.404292377417
 20
-717.5497489497184
 30
0.0
 10
2213.168115165542
 20
-716.1156579160054
 30
0.0
 10
2213.707741857044
 20
-714.5987712779587
 30
0.0
 10
2213.435589753542
 20
-713.6468684675112
 30
0.0
 10
2213.336183410198
 20
-713.3812472494072
 30
0.0
  0
LINE
  5
2CE65
102
{ACAD_REACTORS
330
2D09C
102
}
330
1F
100
AcDbEntity
  8
２点鎖線
 48
5.0
100
AcDbLine
 10
2238.842153170428
 20
-713.3812472494064
 30
0.0
 11
2238.842153170428
 21
-718.5812472494074
 31
0.0
  0
LINE
  5
2CE66
102
{ACAD_REACTORS
330
2D09C
102
}
330
1F
100
AcDbEntity
  8
２点鎖線
 48
5.0
100
AcDbLine
 10
2231.776538571052
 20
-712.234949455677
 30
0.0
 11
2231.776538571052
 21
-719.034949455677
 31
0.0
  0
LINE
  5
2CE67
102
{ACAD_REACTORS
330
2D09C
102
}
330
1F
100
AcDbEntity
  8
２点鎖線
 48
5.0
100
AcDbLine
 10
2232.776538571051
 20
-719.034949455677
 30
0.0
 11
2232.776538571051
 21
-712.234949455677
 31
0.0
  0
SPLINE
  5
2CE68
102
{ACAD_REACTORS
330
2D09C
102
}
330
1F
100
AcDbEntity
  8
２点鎖線
 48
5.0
100
AcDbSpline
210
0.0
220
0.0
230
1.0
 70
     8
 71
     3
 72
    11
 73
     7
 74
     0
 42
0.0000000001
 43
0.0000000001
 40
0.7400739024272012
 40
0.7400739024272012
 40
0.7400739024272012
 40
0.7400739024272012
 40
1.581138830084188
 40
3.162277660168379
 40
5.320980974660691
 40
6.163181696929322
 40
6.163181696929322
 40
6.163181696929322
 40
6.163181696929322
 10
2235.924112418918
 20
-718.5812472494074
 30
0.0
 10
2235.819765653742
 20
-718.3150964320336
 30
0.0
 10
2235.617731743722
 20
-717.5497489497188
 30
0.0
 10
2236.381554531845
 20
-716.1156579160054
 30
0.0
 10
2236.921181223351
 20
-714.5987712779587
 30
0.0
 10
2236.649029119848
 20
-713.6468684675112
 30
0.0
 10
2236.549622776502
 20
-713.3812472494069
 30
0.0
  0
SPLINE
  5
2CE69
102
{ACAD_REACTORS
330
2D09C
102
}
330
1F
100
AcDbEntity
  8
２点鎖線
 48
5.0
100
AcDbSpline
210
0.0
220
0.0
230
1.0
 70
     8
 71
     3
 72
    11
 73
     7
 74
     0
 42
0.0000000001
 43
0.0000000001
 40
0.7400739024269944
 40
0.7400739024269944
 40
0.7400739024269944
 40
0.7400739024269944
 40
1.581138830084188
 40
3.162277660168379
 40
5.320980974660691
 40
6.163181696929452
 40
6.163181696929452
 40
6.163181696929452
 40
6.163181696929452
 10
2234.924112418918
 20
-718.5812472494076
 30
0.0
 10
2234.819765653742
 20
-718.3150964320339
 30
0.0
 10
2234.617731743723
 20
-717.5497489497188
 30
0.0
 10
2235.381554531846
 20
-716.1156579160054
 30
0.0
 10
2235.921181223351
 20
-714.5987712779587
 30
0.0
 10
2235.649029119846
 20
-713.646868467511
 30
0.0
 10
2235.549622776502
 20
-713.3812472494064
 30
0.0
  0
LINE
  5
2CE6A
102
{ACAD_REACTORS
330
2D09C
102
}
330
1F
100
AcDbEntity
  8
２点鎖線
 48
5.0
100
AcDbLine
 10
2238.842153170428
 20
-718.7812472494067
 30
0.0
 11
2238.84215317043
 21
-713.181247249407
 31
0.0
  0
LINE
  5
2CE6B
102
{ACAD_REACTORS
330
2D09C
102
}
330
1F
100
AcDbEntity
  8
２点鎖線
 48
5.0
100
AcDbLine
 10
2231.776538571052
 20
-719.034949455677
 30
0.0
 11
2232.776538571051
 21
-719.034949455677
 31
0.0
  0
ARC
  5
2CE6C
102
{ACAD_REACTORS
330
2D09C
102
}
330
1F
100
AcDbEntity
  8
２点鎖線
 48
5.0
100
AcDbCircle
 10
2244.592153170429
 20
-719.2812472494067
 30
0.0
 40
0.5
100
AcDbArc
 50
180.0
 51
270.0
  0
ARC
  5
2CE6D
102
{ACAD_REACTORS
330
2D09C
102
}
330
1F
100
AcDbEntity
  8
２点鎖線
 48
5.0
100
AcDbCircle
 10
2243.59215317043
 20
-719.2812472494064
 30
0.0
 40
0.5
100
AcDbArc
 50
0.0
 51
90.0
  0
LINE
  5
2CE6E
102
{ACAD_REACTORS
330
2D09C
102
}
330
1F
100
AcDbEntity
  8
２点鎖線
 48
5.0
100
AcDbLine
 10
2243.59215317043
 20
-718.7812472494064
 30
0.0
 11
2238.84215317043
 21
-718.7812472494067
 31
0.0
  0
LWPOLYLINE
  5
2CE6F
102
{ACAD_REACTORS
330
2D09C
102
}
330
1F
100
AcDbEntity
  8
２点鎖線
 48
5.0
100
AcDbPolyline
 90
        2
 70
     0
 43
0.0
 10
2235.924112418918
 20
-718.5812472494074
 10
2238.842153170428
 20
-718.5812472494074
  0
LWPOLYLINE
  5
2CE70
102
{ACAD_REACTORS
330
2D09C
102
}
330
1F
100
AcDbEntity
  8
２点鎖線
 48
5.0
100
AcDbPolyline
 90
        2
 70
     0
 43
0.0
 10
2232.776538571051
 20
-718.5812472494074
 10
2234.926674858705
 20
-718.5812472494074
  0
LINE
  5
2CE71
102
{ACAD_REACTORS
330
2D09C
102
}
330
1F
100
AcDbEntity
  8
２点鎖線
 48
5.0
100
AcDbLine
 10
2232.776538571051
 20
-712.234949455677
 30
0.0
 11
2231.776538571052
 21
-712.234949455677
 31
0.0
  0
ARC
  5
2CE72
102
{ACAD_REACTORS
330
2D09C
102
}
330
1F
100
AcDbEntity
  8
２点鎖線
 48
5.0
100
AcDbCircle
 10
2243.59215317043
 20
-712.681247249407
 30
0.0
 40
0.5
100
AcDbArc
 50
270.0
 51
0.0
  0
ARC
  5
2CE73
102
{ACAD_REACTORS
330
2D09C
102
}
330
1F
100
AcDbEntity
  8
２点鎖線
 48
5.0
100
AcDbCircle
 10
2244.592153170429
 20
-712.6812472494061
 30
0.0
 40
0.5
100
AcDbArc
 50
90.0
 51
180.0
  0
LINE
  5
2CE74
102
{ACAD_REACTORS
330
2D09C
102
}
330
1F
100
AcDbEntity
  8
２点鎖線
 48
5.0
100
AcDbLine
 10
2238.84215317043
 20
-713.1812472494066
 30
0.0
 11
2243.59215317043
 21
-713.181247249407
 31
0.0
  0
LWPOLYLINE
  5
2CE75
102
{ACAD_REACTORS
330
2D09C
102
}
330
1F
100
AcDbEntity
  8
２点鎖線
 48
5.0
100
AcDbPolyline
 90
        2
 70
     0
 43
0.0
 10
2235.549622776502
 20
-713.3812472494064
 10
2232.776538571051
 20
-713.3812472494064
  0
LWPOLYLINE
  5
2CE76
102
{ACAD_REACTORS
330
2D09C
102
}
330
1F
100
AcDbEntity
  8
２点鎖線
 48
5.0
100
AcDbPolyline
 90
        2
 70
     0
 43
0.0
 10
2238.842153170428
 20
-713.3812472494064
 10
2236.549622776502
 20
-713.3812472494064
  0
LWPOLYLINE
  5
2CE77
102
{ACAD_REACTORS
330
2D09C
102
}
330
1F
100
AcDbEntity
  8
２点鎖線
 48
5.0
100
AcDbPolyline
 90
        4
 70
     1
 43
0.0
 10
2227.276538571052
 20
-712.234949455677
 10
2237.27653857105
 20
-712.234949455677
 10
2237.27653857105
 20
-707.2349494556767
 10
2227.276538571052
 20
-707.2349494556767
  0
LINE
  5
2CE78
102
{ACAD_REACTORS
330
2D09C
102
}
330
1F
100
AcDbEntity
  8
２点鎖線
 48
5.0
100
AcDbLine
 10
2251.59219827179
 20
-720.8312372692971
 30
0.0
 11
2265.59216327179
 21
-720.8312372692971
 31
0.0
  0
LINE
  5
2CE79
102
{ACAD_REACTORS
330
2D09C
102
}
330
1F
100
AcDbEntity
  8
２点鎖線
 48
5.0
100
AcDbLine
 10
2251.59219827179
 20
-711.0312617692969
 30
0.0
 11
2265.59216327179
 21
-711.0312617692969
 31
0.0
  0
LINE
  5
2CE7A
102
{ACAD_REACTORS
330
2D09C
102
}
330
1F
100
AcDbEntity
  8
２点鎖線
 48
5.0
100
AcDbLine
 10
2249.592153170429
 20
-712.1812472494066
 30
0.0
 11
2249.592153170429
 21
-719.781247249407
 31
0.0
  0
LINE
  5
2CE7B
102
{ACAD_REACTORS
330
2D09C
102
}
330
1F
100
AcDbEntity
  8
２点鎖線
 48
5.0
100
AcDbLine
 10
2251.592153170429
 20
-720.83123121627
 30
0.0
 11
2251.592153170429
 21
-711.0312617692969
 31
0.0
  0
LINE
  5
2CE7C
102
{ACAD_REACTORS
330
2D09C
102
}
330
1F
100
AcDbEntity
  8
２点鎖線
 48
5.0
100
AcDbLine
 10
2251.592153170429
 20
-718.4312442228846
 30
0.0
 11
2249.592153170429
 21
-718.4312442228846
 31
0.0
  0
LINE
  5
2CE7D
102
{ACAD_REACTORS
330
2D09C
102
}
330
1F
100
AcDbEntity
  8
２点鎖線
 48
5.0
100
AcDbLine
 10
2251.592153170429
 20
-715.4312442228846
 30
0.0
 11
2249.592153170429
 21
-715.4312442228846
 31
0.0
  0
LINE
  5
2CE7E
102
{ACAD_REACTORS
330
2D09C
102
}
330
1F
100
AcDbEntity
  8
２点鎖線
 48
5.0
100
AcDbLine
 10
2251.592153170429
 20
-717.4312442228846
 30
0.0
 11
2249.592153170429
 21
-717.4312442228846
 31
0.0
  0
LINE
  5
2CE7F
102
{ACAD_REACTORS
330
2D09C
102
}
330
1F
100
AcDbEntity
  8
２点鎖線
 48
5.0
100
AcDbLine
 10
2251.592153170429
 20
-716.4312442228846
 30
0.0
 11
2249.592153170429
 21
-716.4312442228846
 31
0.0
  0
LINE
  5
2CE80
102
{ACAD_REACTORS
330
2D09C
102
}
330
1F
100
AcDbEntity
  8
２点鎖線
 48
5.0
100
AcDbLine
 10
2252.59215067043
 20
-721.8312287162697
 30
0.0
 11
2252.59215067043
 21
-720.83123121627
 31
0.0
  0
LINE
  5
2CE81
102
{ACAD_REACTORS
330
2D09C
102
}
330
1F
100
AcDbEntity
  8
２点鎖線
 48
5.0
100
AcDbLine
 10
2251.592153170429
 20
-721.8312287162697
 30
0.0
 11
2251.592153170429
 21
-720.83123121627
 31
0.0
  0
LINE
  5
2CE82
102
{ACAD_REACTORS
330
2D09C
102
}
330
1F
100
AcDbEntity
  8
２点鎖線
 48
5.0
100
AcDbLine
 10
2251.59219827179
 20
-721.8312347692972
 30
0.0
 11
2252.592195771788
 21
-721.8312347692972
 31
0.0
  0
LINE
  5
2CE83
102
{ACAD_REACTORS
330
2D09C
102
}
330
1F
100
AcDbEntity
  8
２点鎖線
 48
5.0
100
AcDbLine
 10
2251.59219827179
 20
-710.031264269297
 30
0.0
 11
2252.592195771788
 21
-710.031264269297
 31
0.0
  0
LINE
  5
2CE84
102
{ACAD_REACTORS
330
2D09C
102
}
330
1F
100
AcDbEntity
  8
２点鎖線
 48
5.0
100
AcDbLine
 10
2251.592153170429
 20
-711.0312557162695
 30
0.0
 11
2251.592153170429
 21
-710.0312582162692
 31
0.0
  0
LINE
  5
2CE85
102
{ACAD_REACTORS
330
2D09C
102
}
330
1F
100
AcDbEntity
  8
２点鎖線
 48
5.0
100
AcDbLine
 10
2252.59215067043
 20
-711.0312557162695
 30
0.0
 11
2252.59215067043
 21
-710.0312582162692
 31
0.0
  0
LINE
  5
2CE86
102
{ACAD_REACTORS
330
2D09C
102
}
330
1F
100
AcDbEntity
  8
２点鎖線
 48
5.0
100
AcDbLine
 10
2251.592153170429
 20
-714.4312442228846
 30
0.0
 11
2249.592153170429
 21
-714.4312442228846
 31
0.0
  0
LINE
  5
2CE87
102
{ACAD_REACTORS
330
2D09C
102
}
330
1F
100
AcDbEntity
  8
２点鎖線
 48
5.0
100
AcDbLine
 10
2251.592153170429
 20
-713.4312442228846
 30
0.0
 11
2249.592153170429
 21
-713.4312442228846
 31
0.0
  0
LWPOLYLINE
  5
2CE88
102
{ACAD_REACTORS
330
2D09C
102
}
330
1F
100
AcDbEntity
  8
２点鎖線
 48
5.0
100
AcDbPolyline
 90
        4
 70
     1
 43
0.0
 10
2265.592163271791
 20
-712.0312471632421
 10
2274.592140771788
 20
-712.0312471632421
 10
2274.592140771788
 20
-715.5312384132421
 10
2265.592163271791
 20
-715.5312384132421
  0
LINE
  5
2CE89
102
{ACAD_REACTORS
330
2D09C
102
}
330
1F
100
AcDbEntity
  8
２点鎖線
 48
5.0
100
AcDbLine
 10
2265.592118170427
 20
-720.83123121627
 30
0.0
 11
2265.592118170427
 21
-711.0312557162695
 31
0.0
  0
LWPOLYLINE
  5
2CE8A
102
{ACAD_REACTORS
330
2D09C
102
}
330
1F
100
AcDbEntity
  8
２点鎖線
 48
5.0
100
AcDbPolyline
 90
        4
 70
     1
 43
0.0
 10
2265.592163271791
 20
-719.8312397692972
 10
2274.592140771788
 20
-719.8312397692972
 10
2274.592140771788
 20
-716.3312485192975
 10
2265.592163271791
 20
-716.3312485192975
  0
LINE
  5
2CE8B
102
{ACAD_REACTORS
330
2D09C
102
}
330
1F
100
AcDbEntity
  8
２点鎖線
 48
5.0
100
AcDbLine
 10
2268.742110295427
 20
-709.5967763024781
 30
0.0
 11
2268.742110295427
 21
-708.2812625912695
 31
0.0
  0
LINE
  5
2CE8C
102
{ACAD_REACTORS
330
2D09C
102
}
330
1F
100
AcDbEntity
  8
２点鎖線
 48
5.0
100
AcDbLine
 10
2257.042139545429
 20
-706.331267466271
 30
0.0
 11
2268.742110295427
 21
-708.2812625912695
 31
0.0
  0
LINE
  5
2CE8D
102
{ACAD_REACTORS
330
2D09C
102
}
330
1F
100
AcDbEntity
  8
２点鎖線
 48
5.0
100
AcDbLine
 10
2268.742110295427
 20
-709.5967763024781
 30
0.0
 11
2265.592118170427
 21
-710.0312582162692
 31
0.0
  0
LINE
  5
2CE8E
102
{ACAD_REACTORS
330
2D09C
102
}
330
1F
100
AcDbEntity
  8
２点鎖線
 48
5.0
100
AcDbLine
 10
2262.56392074094
 20
-710.231257716269
 30
0.0
 11
2257.492138420429
 21
-708.0812630912687
 31
0.0
  0
LINE
  5
2CE8F
102
{ACAD_REACTORS
330
2D09C
102
}
330
1F
100
AcDbEntity
  8
２点鎖線
 48
5.0
100
AcDbLine
 10
2265.592118170427
 20
-710.0312582162692
 30
0.0
 11
2265.59216327179
 21
-711.0312617692969
 31
0.0
  0
LINE
  5
2CE90
102
{ACAD_REACTORS
330
2D09C
102
}
330
1F
100
AcDbEntity
  8
２点鎖線
 48
5.0
100
AcDbLine
 10
2262.56392074094
 20
-710.231257716269
 30
0.0
 11
2262.56392074094
 21
-711.0312617692969
 31
0.0
  0
LINE
  5
2CE91
102
{ACAD_REACTORS
330
2D09C
102
}
330
1F
100
AcDbEntity
  8
２点鎖線
 48
5.0
100
AcDbLine
 10
2257.492138420429
 20
-708.0812630912712
 30
0.0
 11
2257.042139545429
 21
-706.331267466271
 31
0.0
  0
LINE
  5
2CE92
102
{ACAD_REACTORS
330
2D09D
330
2D09E
102
}
330
1F
100
AcDbEntity
  8
２点鎖線
 48
5.0
100
AcDbLine
 10
2314.280198836408
 20
-729.4459102681818
 30
0.0
 11
2314.280198836408
 21
-722.4459102681818
 31
0.0
  0
LINE
  5
2CE93
102
{ACAD_REACTORS
330
2D09D
330
2D09E
102
}
330
1F
100
AcDbEntity
  8
２点鎖線
 48
5.0
100
AcDbLine
 10
2307.280198836409
 20
-712.4459102681818
 30
0.0
 11
2307.280198836408
 21
-729.4459102681818
 31
0.0
  0
LINE
  5
2CE94
102
{ACAD_REACTORS
330
2D09D
330
2D09E
102
}
330
1F
100
AcDbEntity
  8
２点鎖線
 48
5.0
100
AcDbLine
 10
2307.280198836408
 20
-729.4459102681818
 30
0.0
 11
2314.280198836408
 21
-729.4459102681834
 31
0.0
  0
LINE
  5
2CE95
102
{ACAD_REACTORS
330
2D09D
330
2D09E
102
}
330
1F
100
AcDbEntity
  8
２点鎖線
 48
5.0
100
AcDbLine
 10
2316.780198836409
 20
-678.4460054553095
 30
0.0
 11
2316.380198836408
 21
-712.4459102681818
 31
0.0
  0
LINE
  5
2CE96
102
{ACAD_REACTORS
330
2D09D
330
2D09E
102
}
330
1F
100
AcDbEntity
  8
２点鎖線
 48
5.0
100
AcDbLine
 10
2321.780198836409
 20
-678.4460054553043
 30
0.0
 11
2322.297845741528
 21
-722.4459102681818
 31
0.0
  0
LINE
  5
2CE97
102
{ACAD_REACTORS
330
2D09D
330
2D09E
102
}
330
1F
100
AcDbEntity
  8
２点鎖線
 48
5.0
100
AcDbLine
 10
2317.380198836408
 20
-712.4459102681818
 30
0.0
 11
2307.280198836409
 21
-712.4459102681818
 31
0.0
  0
LINE
  5
2CE98
102
{ACAD_REACTORS
330
2D09D
330
2D09E
102
}
330
1F
100
AcDbEntity
  8
２点鎖線
 48
5.0
100
AcDbLine
 10
2317.380198836408
 20
-722.4459102681818
 30
0.0
 11
2322.297845741528
 21
-722.4459102681818
 31
0.0
  0
LINE
  5
2CE99
102
{ACAD_REACTORS
330
2D09D
330
2D09E
102
}
330
1F
100
AcDbEntity
  8
２点鎖線
 48
5.0
100
AcDbLine
 10
2317.380198836408
 20
-722.4459102681818
 30
0.0
 11
2317.380198836408
 21
-712.4459102681818
 31
0.0
  0
LINE
  5
2CE9A
102
{ACAD_REACTORS
330
2D09D
330
2D09E
102
}
330
1F
100
AcDbEntity
  8
２点鎖線
 48
5.0
100
AcDbLine
 10
2317.380198836408
 20
-722.4459102681818
 30
0.0
 11
2314.280198836408
 21
-722.4459102681818
 31
0.0
  0
ARC
  5
2CE9B
102
{ACAD_REACTORS
330
2D09D
330
2D09E
102
}
330
1F
100
AcDbEntity
  8
２点鎖線
 48
5.0
100
AcDbCircle
 10
2319.780198836409
 20
-678.4460054553043
 30
0.0
 40
2.0
100
AcDbArc
 50
0.0000000001042204
 51
90.0
  0
LINE
  5
2CE9C
102
{ACAD_REACTORS
330
2D09D
330
2D09E
102
}
330
1F
100
AcDbEntity
  8
２点鎖線
 48
5.0
100
AcDbLine
 10
2319.780198836409
 20
-676.446005455304
 30
0.0
 11
2318.780198836408
 21
-676.446005455304
 31
0.0
  0
ARC
  5
2CE9D
102
{ACAD_REACTORS
330
2D09D
330
2D09E
102
}
330
1F
100
AcDbEntity
  8
２点鎖線
 48
5.0
100
AcDbCircle
 10
2318.780198836408
 20
-678.446005455306
 30
0.0
 40
2.0
100
AcDbArc
 50
90.0
 51
180.0000000001041
  0
CIRCLE
  5
2CE9E
102
{ACAD_REACTORS
330
2D09E
330
2D09F
102
}
330
1F
100
AcDbEntity
  8
２点鎖線
 48
5.0
100
AcDbCircle
 10
2310.780198836409
 20
-715.9459102681819
 30
0.0
 40
2.75
  0
LINE
  5
2CE9F
102
{ACAD_REACTORS
330
2D09E
330
2D09F
102
}
330
1F
100
AcDbEntity
  8
中心線
 48
0.2
100
AcDbLine
 10
2310.780198836409
 20
-712.1799102681822
 30
0.0
 11
2310.780198836409
 21
-719.7119102681832
 31
0.0
  0
CIRCLE
  5
2CEA0
102
{ACAD_REACTORS
330
2D09E
330
2D09F
102
}
330
1F
100
AcDbEntity
  8
２点鎖線
 48
5.0
100
AcDbCircle
 10
2310.780198836409
 20
-715.9459102681819
 30
0.0
 40
2.450000000000001
  0
LINE
  5
2CEA1
102
{ACAD_REACTORS
330
2D09E
330
2D09F
102
}
330
1F
100
AcDbEntity
  8
２点鎖線
 48
5.0
100
AcDbLine
 10
2310.780198836409
 20
-714.5025345681831
 30
0.0
 11
2312.030198436406
 21
-715.2242223581822
 31
0.0
  0
LINE
  5
2CEA2
102
{ACAD_REACTORS
330
2D09E
330
2D09F
102
}
330
1F
100
AcDbEntity
  8
中心線
 48
0.2
100
AcDbLine
 10
2307.014198836405
 20
-715.9459102681819
 30
0.0
 11
2314.546198236408
 21
-715.9459102681819
 31
0.0
  0
LINE
  5
2CEA3
102
{ACAD_REACTORS
330
2D09E
330
2D09F
102
}
330
1F
100
AcDbEntity
  8
２点鎖線
 48
5.0
100
AcDbLine
 10
2312.030198436406
 20
-716.6675981781816
 30
0.0
 11
2310.780198836409
 21
-717.3892859681825
 31
0.0
  0
LINE
  5
2CEA4
102
{ACAD_REACTORS
330
2D09E
330
2D09F
102
}
330
1F
100
AcDbEntity
  8
２点鎖線
 48
5.0
100
AcDbLine
 10
2310.780198836409
 20
-714.502534668182
 30
0.0
 11
2309.530198836409
 21
-715.224222538182
 31
0.0
  0
LINE
  5
2CEA5
102
{ACAD_REACTORS
330
2D09E
330
2D09F
102
}
330
1F
100
AcDbEntity
  8
２点鎖線
 48
5.0
100
AcDbLine
 10
2310.780198836409
 20
-717.3892858681817
 30
0.0
 11
2309.530198836409
 21
-716.6675979981818
 31
0.0
  0
LINE
  5
2CEA6
102
{ACAD_REACTORS
330
2D09E
330
2D09F
102
}
330
1F
100
AcDbEntity
  8
２点鎖線
 48
5.0
100
AcDbLine
 10
2309.530198836409
 20
-715.2242224181834
 30
0.0
 11
2309.530198836409
 21
-716.6675979981818
 31
0.0
  0
LINE
  5
2CEA7
102
{ACAD_REACTORS
330
2D09E
330
2D09F
102
}
330
1F
100
AcDbEntity
  8
２点鎖線
 48
5.0
100
AcDbLine
 10
2312.030198436406
 20
-715.2242224181834
 30
0.0
 11
2312.030198436406
 21
-716.6675981781816
 31
0.0
  0
CIRCLE
  5
2CEA8
102
{ACAD_REACTORS
330
2D09E
330
2D0A0
102
}
330
1F
100
AcDbEntity
  8
２点鎖線
 48
5.0
100
AcDbCircle
 10
2310.780198836409
 20
-725.9459102681819
 30
0.0
 40
2.75
  0
LINE
  5
2CEA9
102
{ACAD_REACTORS
330
2D09E
330
2D0A0
102
}
330
1F
100
AcDbEntity
  8
中心線
 48
0.2
100
AcDbLine
 10
2310.780198836409
 20
-722.1799102681822
 30
0.0
 11
2310.780198836409
 21
-729.7119102681834
 31
0.0
  0
CIRCLE
  5
2CEAA
102
{ACAD_REACTORS
330
2D09E
330
2D0A0
102
}
330
1F
100
AcDbEntity
  8
２点鎖線
 48
5.0
100
AcDbCircle
 10
2310.780198836409
 20
-725.9459102681819
 30
0.0
 40
2.450000000000001
  0
LINE
  5
2CEAB
102
{ACAD_REACTORS
330
2D09E
330
2D0A0
102
}
330
1F
100
AcDbEntity
  8
２点鎖線
 48
5.0
100
AcDbLine
 10
2310.780198836409
 20
-724.5025345681831
 30
0.0
 11
2312.030198436406
 21
-725.2242223581823
 31
0.0
  0
LINE
  5
2CEAC
102
{ACAD_REACTORS
330
2D09E
330
2D0A0
102
}
330
1F
100
AcDbEntity
  8
中心線
 48
0.2
100
AcDbLine
 10
2307.014198836405
 20
-725.9459102681819
 30
0.0
 11
2314.546198236408
 21
-725.9459102681819
 31
0.0
  0
LINE
  5
2CEAD
102
{ACAD_REACTORS
330
2D09E
330
2D0A0
102
}
330
1F
100
AcDbEntity
  8
２点鎖線
 48
5.0
100
AcDbLine
 10
2312.030198436406
 20
-726.6675981781816
 30
0.0
 11
2310.780198836409
 21
-727.3892859681825
 31
0.0
  0
LINE
  5
2CEAE
102
{ACAD_REACTORS
330
2D09E
330
2D0A0
102
}
330
1F
100
AcDbEntity
  8
２点鎖線
 48
5.0
100
AcDbLine
 10
2310.780198836409
 20
-724.5025346681821
 30
0.0
 11
2309.530198836409
 21
-725.224222538182
 31
0.0
  0
LINE
  5
2CEAF
102
{ACAD_REACTORS
330
2D09E
330
2D0A0
102
}
330
1F
100
AcDbEntity
  8
２点鎖線
 48
5.0
100
AcDbLine
 10
2310.780198836409
 20
-727.3892858681818
 30
0.0
 11
2309.530198836409
 21
-726.6675979981815
 31
0.0
  0
LINE
  5
2CEB0
102
{ACAD_REACTORS
330
2D09E
330
2D0A0
102
}
330
1F
100
AcDbEntity
  8
２点鎖線
 48
5.0
100
AcDbLine
 10
2309.530198836409
 20
-725.2242224181834
 30
0.0
 11
2309.530198836409
 21
-726.6675979981815
 31
0.0
  0
LINE
  5
2CEB1
102
{ACAD_REACTORS
330
2D09E
330
2D0A0
102
}
330
1F
100
AcDbEntity
  8
２点鎖線
 48
5.0
100
AcDbLine
 10
2312.030198436406
 20
-725.2242224181834
 30
0.0
 11
2312.030198436406
 21
-726.6675981781816
 31
0.0
  0
LINE
  5
2CEBC
102
{ACAD_REACTORS
330
2D099
102
}
330
1F
100
AcDbEntity
  8
実線
 48
0.2
100
AcDbLine
 10
2066.382530492369
 20
-839.8191501859241
 30
0.0
 11
2066.382530492369
 21
-863.8191501859237
 31
0.0
  0
LINE
  5
2CEBD
102
{ACAD_REACTORS
330
2D099
102
}
330
1F
100
AcDbEntity
  8
実線
 48
0.2
100
AcDbLine
 10
2066.882530492371
 20
-864.3191501859236
 30
0.0
 11
2066.382530492369
 21
-863.8191501859237
 31
0.0
  0
LINE
  5
2CEBE
102
{ACAD_REACTORS
330
2D099
102
}
330
1F
100
AcDbEntity
  8
実線
 48
0.2
100
AcDbLine
 10
2066.882530492371
 20
-839.3191501859242
 30
0.0
 11
2066.382530492369
 21
-839.8191501859241
 31
0.0
  0
LINE
  5
2CEC1
102
{ACAD_REACTORS
330
2D099
102
}
330
1F
100
AcDbEntity
  8
中心線
 48
0.5
100
AcDbLine
 10
2079.382530492368
 20
-834.3191501859239
 30
0.0
 11
2079.382530492368
 21
-869.3191501859239
 31
0.0
  0
LINE
  5
2CEC2
102
{ACAD_REACTORS
330
2D099
102
}
330
1F
100
AcDbEntity
  8
中心線
 48
0.5
100
AcDbLine
 10
2119.382530492369
 20
-834.3191501859239
 30
0.0
 11
2119.382530492369
 21
-869.3191501859237
 31
0.0
  0
LINE
  5
2CEC5
102
{ACAD_REACTORS
330
2D099
102
}
330
1F
100
AcDbEntity
  8
中心線
 48
0.5
100
AcDbLine
 10
2159.382530492369
 20
-834.3191501859237
 30
0.0
 11
2159.382530492369
 21
-869.3191501859239
 31
0.0
  0
LINE
  5
2CEC6
102
{ACAD_REACTORS
330
2D099
102
}
330
1F
100
AcDbEntity
  8
実線
100
AcDbLine
 10
2221.382530492371
 20
-845.9191501859235
 30
0.0
 11
2221.382530492371
 21
-857.7191501859234
 31
0.0
  0
LINE
  5
2CEC7
102
{ACAD_REACTORS
330
2D099
102
}
330
1F
100
AcDbEntity
  8
実線
100
AcDbLine
 10
2234.58253049237
 20
-852.3791501859236
 30
0.0
 11
2245.082530492371
 21
-852.3791501859236
 31
0.0
  0
LINE
  5
2CEC8
102
{ACAD_REACTORS
330
2D099
102
}
330
1F
100
AcDbEntity
  8
実線
100
AcDbLine
 10
2245.082530492371
 20
-851.2591501859237
 30
0.0
 11
2234.58253049237
 21
-851.2591501859237
 31
0.0
  0
LINE
  5
2CEC9
102
{ACAD_REACTORS
330
2D099
102
}
330
1F
100
AcDbEntity
  8
実線
100
AcDbLine
 10
2234.58253049237
 20
-847.8191501859239
 30
0.0
 11
2245.082530492371
 21
-847.8191501859235
 31
0.0
  0
LINE
  5
2CECA
102
{ACAD_REACTORS
330
2D099
102
}
330
1F
100
AcDbEntity
  8
実線
100
AcDbLine
 10
2245.082530492371
 20
-855.8191501859239
 30
0.0
 11
2234.58253049237
 21
-855.8191501859239
 31
0.0
  0
LINE
  5
2CECB
102
{ACAD_REACTORS
330
2D099
102
}
330
1F
100
AcDbEntity
  8
実線
100
AcDbLine
 10
2234.58253049237
 20
-846.9191501859237
 30
0.0
 11
2234.58253049237
 21
-856.7191501859236
 31
0.0
  0
LINE
  5
2CECC
102
{ACAD_REACTORS
330
2D099
102
}
330
1F
100
AcDbEntity
  8
実線
100
AcDbLine
 10
2221.882530492369
 20
-857.7191501859234
 30
0.0
 11
2221.382530492371
 21
-857.7191501859234
 31
0.0
  0
LINE
  5
2CECD
102
{ACAD_REACTORS
330
2D099
102
}
330
1F
100
AcDbEntity
  8
実線
100
AcDbLine
 10
2222.382530492371
 20
-856.7191501859236
 30
0.0
 11
2222.382530492371
 21
-857.2191501859235
 31
0.0
  0
ARC
  5
2CECE
102
{ACAD_REACTORS
330
2D099
102
}
330
1F
100
AcDbEntity
  8
実線
100
AcDbCircle
 10
2221.882530492369
 20
-857.2191501859235
 30
0.0
 40
0.5
100
AcDbArc
 50
270.0
 51
0.0
  0
LINE
  5
2CECF
102
{ACAD_REACTORS
330
2D099
102
}
330
1F
100
AcDbEntity
  8
実線
100
AcDbLine
 10
2234.58253049237
 20
-856.7191501859236
 30
0.0
 11
2222.382530492371
 21
-856.7191501859236
 31
0.0
  0
LINE
  5
2CED0
102
{ACAD_REACTORS
330
2D099
102
}
330
1F
100
AcDbEntity
  8
実線
 48
0.5
100
AcDbLine
 10
2221.382530492371
 20
-849.2191501859233
 30
0.0
 11
2219.382530492369
 21
-849.2191501859233
 31
0.0
  0
LINE
  5
2CED1
102
{ACAD_REACTORS
330
2D099
102
}
330
1F
100
AcDbEntity
  8
実線
 48
0.5
100
AcDbLine
 10
2221.382530492371
 20
-850.5191501859235
 30
0.0
 11
2219.382530492369
 21
-850.5191501859235
 31
0.0
  0
LINE
  5
2CED2
102
{ACAD_REACTORS
330
2D099
102
}
330
1F
100
AcDbEntity
  8
実線
 48
0.5
100
AcDbLine
 10
2221.382530492371
 20
-853.2191501859234
 30
0.0
 11
2219.382530492369
 21
-853.2191501859234
 31
0.0
  0
LINE
  5
2CED3
102
{ACAD_REACTORS
330
2D099
102
}
330
1F
100
AcDbEntity
  8
実線
 48
0.5
100
AcDbLine
 10
2221.382530492371
 20
-851.8191501859236
 30
0.0
 11
2219.382530492369
 21
-851.8191501859236
 31
0.0
  0
LINE
  5
2CED4
102
{ACAD_REACTORS
330
2D099
102
}
330
1F
100
AcDbEntity
  8
実線
 48
0.5
100
AcDbLine
 10
2219.382530492369
 20
-854.5191501859234
 30
0.0
 11
2221.382530492371
 21
-854.5191501859234
 31
0.0
  0
LINE
  5
2CED5
102
{ACAD_REACTORS
330
2D099
102
}
330
1F
100
AcDbEntity
  8
実線
100
AcDbLine
 10
2245.082530492371
 20
-847.8191501859235
 30
0.0
 11
2245.082530492371
 21
-851.2591501859237
 31
0.0
  0
LINE
  5
2CED6
102
{ACAD_REACTORS
330
2D099
102
}
330
1F
100
AcDbEntity
  8
実線
100
AcDbLine
 10
2245.082530492371
 20
-852.3791501859236
 30
0.0
 11
2245.082530492371
 21
-855.8191501859239
 31
0.0
  0
LINE
  5
2CED7
102
{ACAD_REACTORS
330
2D099
102
}
330
1F
100
AcDbEntity
  8
実線
100
AcDbLine
 10
2222.382530492371
 20
-846.9191501859237
 30
0.0
 11
2234.58253049237
 21
-846.9191501859237
 31
0.0
  0
LINE
  5
2CED8
102
{ACAD_REACTORS
330
2D099
102
}
330
1F
100
AcDbEntity
  8
実線
100
AcDbLine
 10
2221.382530492371
 20
-845.9191501859235
 30
0.0
 11
2221.882530492369
 21
-845.9191501859235
 31
0.0
  0
LINE
  5
2CED9
102
{ACAD_REACTORS
330
2D099
102
}
330
1F
100
AcDbEntity
  8
実線
100
AcDbLine
 10
2222.382530492371
 20
-846.4191501859236
 30
0.0
 11
2222.382530492371
 21
-846.9191501859237
 31
0.0
  0
ARC
  5
2CEDA
102
{ACAD_REACTORS
330
2D099
102
}
330
1F
100
AcDbEntity
  8
実線
100
AcDbCircle
 10
2221.882530492369
 20
-846.4191501859236
 30
0.0
 40
0.5
100
AcDbArc
 50
0.0
 51
90.0
  0
LINE
  5
2CEDB
102
{ACAD_REACTORS
330
2D099
102
}
330
1F
100
AcDbEntity
  8
実線
100
AcDbLine
 10
2184.382530492368
 20
-848.2191501859233
 30
0.0
 11
2172.38253049237
 21
-848.2191501859233
 31
0.0
  0
LINE
  5
2CEDC
102
{ACAD_REACTORS
330
2D099
102
}
330
1F
100
AcDbEntity
  8
実線
100
AcDbLine
 10
2184.382530492368
 20
-855.4191501859236
 30
0.0
 11
2172.382530492372
 21
-855.4191501859236
 31
0.0
  0
LINE
  5
2CEDD
102
{ACAD_REACTORS
330
2D099
102
}
330
1F
100
AcDbEntity
  8
実線
100
AcDbLine
 10
2219.382530492369
 20
-848.6691501859237
 30
0.0
 11
2219.382530492369
 21
-854.9691501859237
 31
0.0
  0
LINE
  5
2CEDE
102
{ACAD_REACTORS
330
2D099
102
}
330
1F
100
AcDbEntity
  8
中心線
 48
0.5
100
AcDbLine
 10
2203.011395698954
 20
-859.9452420120705
 30
0.0
 11
2205.753665285786
 21
-844.3930583597767
 31
0.0
  0
LINE
  5
2CEDF
102
{ACAD_REACTORS
330
2D099
102
}
330
1F
100
AcDbEntity
  8
中心線
 48
0.5
100
AcDbLine
 10
2205.011395698954
 20
-859.9452420120705
 30
0.0
 11
2207.753665285787
 21
-844.3930583597767
 31
0.0
  0
LINE
  5
2CEE0
102
{ACAD_REACTORS
330
2D099
102
}
330
1F
100
AcDbEntity
  8
実線
 48
10.0
100
AcDbLine
 10
2184.382530492368
 20
-848.2191501859233
 30
0.0
 11
2184.382530492368
 21
-855.4191501859236
 31
0.0
  0
LINE
  5
2CEE1
102
{ACAD_REACTORS
330
2D099
102
}
330
1F
100
AcDbEntity
  8
実線
100
AcDbLine
 10
2219.382530492369
 20
-854.9691501859237
 30
0.0
 11
2205.976978436742
 21
-854.9691501859237
 31
0.0
  0
LINE
  5
2CEE2
102
{ACAD_REACTORS
330
2D099
102
}
330
1F
100
AcDbEntity
  8
実線
100
AcDbLine
 10
2203.97697843674
 20
-854.9691501859237
 30
0.0
 11
2184.382530492368
 21
-854.9691501859237
 31
0.0
  0
LINE
  5
2CEE3
102
{ACAD_REACTORS
330
2D099
102
}
330
1F
100
AcDbEntity
  8
実線
100
AcDbLine
 10
2206.911511434495
 20
-848.6691501859237
 30
0.0
 11
2219.382530492369
 21
-848.6691501859237
 31
0.0
  0
LINE
  5
2CEE4
102
{ACAD_REACTORS
330
2D099
102
}
330
1F
100
AcDbEntity
  8
実線
100
AcDbLine
 10
2184.382530492368
 20
-848.6691501859233
 30
0.0
 11
2204.911511434497
 21
-848.6691501859237
 31
0.0
  0
LINE
  5
2CEE5
330
1F
100
AcDbEntity
  8
中心線
 48
0.5
100
AcDbLine
 10
2312.853012439646
 20
-726.9459102681818
 30
0.0
 11
2325.753012439645
 21
-726.9459102681818
 31
0.0
  0
CIRCLE
  5
2CEE6
330
1F
100
AcDbEntity
  8
実線
 48
0.1
100
AcDbCircle
 10
2319.280198836408
 20
-726.9459102681818
 30
0.0
 40
3.6
  0
HATCH
  5
2CEE7
330
1F
100
AcDbEntity
  8
実線
 48
0.1
100
AcDbHatch
 10
0.0
 20
0.0
 30
0.0
210
0.0
220
0.0
230
1.0
  2
ANSI31
 70
     0
 71
     0
 91
        2
 92
        7
 72
     1
 73
     1
 93
        3
 10
2319.280198836408
 20
-723.3459102681818
 42
0.0
 10
2319.280198836408
 20
-726.9459102681818
 42
0.0
 10
2322.880198836406
 20
-726.9459102681818
 42
0.4142135623730895
 97
        0
 92
        7
 72
     1
 73
     1
 93
        3
 10
2319.280198836408
 20
-726.9459102681818
 42
0.0
 10
2315.680198836408
 20
-726.9459102681818
 42
0.4142135623730895
 10
2319.280198836408
 20
-730.5459102681813
 42
0.0
 97
        0
 75
     0
 76
     1
 52
0.0
 41
5.0
 77
     0
 78
     1
 53
45.0
 43
0.0
 44
-75.82846160920691
 45
-0.4419417382415923
 46
0.4419417382415923
 79
     0
 47
0.0363543198641016
 98
        2
 10
2321.741013190465
 20
-725.4521874115507
 10
2318.540300100367
 20
-727.4880339777827
  0
VIEWPORT
  5
2A57F
330
2A57E
100
AcDbEntity
 67
     1
  8
0
100
AcDbViewport
 10
209.9041748046874
 20
149.994999970844
 30
0.0
 40
655.0955815266304
 41
299.8376739742278
 68
     1
 69
     1
1001
ACAD
1000
MVIEW
1002
{
1070
    16
1010
0.0
1020
0.0
1030
0.0
1010
0.0
1020
0.0
1030
1.0
1040
0.0
1040
299.8376739742278
1040
209.9041748046874
1040
149.994999970844
1040
50.0
1040
0.0
1040
0.0
1070
     0
1070
   100
1070
     1
1070
     0
1070
     0
1070
     0
1070
     0
1070
     2
1040
0.0
1040
0.0
1040
0.0
1040
10.0
1040
10.0
1040
10.0
1040
10.0
1070
     0
1002
{
1002
}
1002
}
  0
VIEWPORT
  5
2A580
330
2A57E
100
AcDbEntity
 67
     1
  8
MYVIEW
100
AcDbViewport
 10
207.4313274472447
 20
146.6688338714809
 30
0.0
 40
414.3908449126611
 41
291.0531579536398
 68
     2
 69
     2
1001
ACAD
1000
MVIEW
1002
{
1070
    16
1010
0.0
1020
0.0
1030
0.0
1010
0.0
1020
0.0
1030
1.0
1040
0.0
1040
436.579740796051
1040
2203.831117462298
1040
-763.1116748305568
1040
50.0
1040
0.0
1040
0.0
1070
     0
1070
   100
1070
     1
1070
     2
1070
     0
1070
     0
1070
     0
1070
     0
1040
0.0
1040
0.0
1040
0.0
1040
10.0
1040
10.0
1040
10.0
1040
10.0
1070
     0
1002
{
1002
}
1002
}
  0
TEXT
  5
2A5AD
330
2A57E
100
AcDbEntity
 67
     1
  8
文字
  6
CONTINUOUS
100
AcDbText
 10
337.6689773544477
 20
11.75329967377081
 30
0.0
 40
7.0
  1
ＳＥ－５６２７０
 41
0.9529999999999999
100
AcDbText
  0
TEXT
  5
2A66F
330
2A57E
100
AcDbEntity
 67
     1
  8
WAKUMOJI1
  6
CONTINUOUS
100
AcDbText
 10
144.131927571291
 20
21.39335646759497
 30
0.0
 40
4.0
  1
１～＊
 41
0.625
100
AcDbText
  0
TEXT
  5
2A670
330
2A57E
100
AcDbEntity
 67
     1
  8
WAKUMOJI1
  6
CONTINUOUS
100
AcDbText
 10
136.1333845714824
 20
21.2100231342654
 30
0.0
 40
3.5
  1
Ａ
 72
     1
 11
137.7667179048157
 21
21.2100231342654
 31
0.0
100
AcDbText
  0
TEXT
  5
2A671
330
2A57E
100
AcDbEntity
 67
     1
  8
WAKUMOJI1
  6
CONTINUOUS
100
AcDbText
 10
135.1319275712915
 20
16.39335646759499
 30
0.0
 40
4.0
  1
Ｒ＊－
 41
0.625
100
AcDbText
  0
TEXT
  5
2A672
330
2A57E
100
AcDbEntity
 67
     1
  8
WAKUMOJI1
  6
CONTINUOUS
100
AcDbText
 10
160.1627465868908
 20
21.77803427355024
 30
0.0
 40
3.5
  1
＊＊＊＊＊
100
AcDbText
  0
TEXT
  5
2A673
330
2A57E
100
AcDbEntity
 67
     1
  8
WAKUMOJI1
  6
CONTINUOUS
100
AcDbText
 10
232.131927571291
 20
16.39335646759499
 30
0.0
 40
3.0
  1
'99.**.**
 41
0.5
100
AcDbText
  0
MTEXT
  5
2D550
330
2A57E
100
AcDbEntity
 67
     1
  8
文字１
 48
0.1
100
AcDbMText
 10
190.7191918392418
 20
28.53302347427688
 30
0.0
 40
6.0
 41
213.3696333009943
 71
     1
 72
     5
  1
τﾘﾆｱﾓｰﾀ ｺｱﾚｽｽﾀﾝﾀﾞｰﾄﾞ NLD-AM CLﾕﾆｯﾄ CLD-AM10SA2A (50N)
1001
ACAD
1000
MTEXTBEGIN
1070
    73
1070
     1
1070
    44
1040
1.0
1070
    74
1070
     0
1000
MTEXTEND
  0
ENDSEC
  0
SECTION
  2
OBJECTS
  0
DICTIONARY
  5
C
330
0
100
AcDbDictionary
  3
ACAD_GROUP
350
D
  3
ACAD_LAYOUT
350
1A
  3
ACAD_MLINESTYLE
350
17
  3
ACAD_PLOTSETTINGS
350
19
  3
ACAD_PLOTSTYLENAME
350
E
  3
ACADDIM
350
2C078
  3
ACDBHEADERROUNDTRIPXREC
350
2D569
  3
ACDBVARIABLEDICTIONARY
350
72CC
  0
DICTIONARY
  5
29CAD
330
2
100
AcDbDictionary
280
     1
  3
ACAD_LAYERFILTERS
360
29CAE
  3
ACAD_LAYERSTATES
360
29CBB
  0
DICTIONARY
  5
2847E
330
1F
100
AcDbDictionary
280
     1
  3
ACAD_LAYOUTSELFREF
360
2D58A
  3
ACAD_SORTENTS
360
2847F
  0
DICTIONARY
  5
2D58B
330
2A57E
100
AcDbDictionary
280
     1
  3
ACAD_LAYOUTSELFREF
360
2D58C
  0
DICTIONARY
  5
D
102
{ACAD_REACTORS
330
C
102
}
330
C
100
AcDbDictionary
  3
*A1
350
1220
  3
*A10
350
2B0DE
  3
*A100
350
21E76
  3
*A101
350
27093
  3
*A102
350
A53E
  3
*A103
350
C1CA
  3
*A104
350
24698
  3
*A105
350
C536
  3
*A106
350
CA67
  3
*A107
350
27500
  3
*A108
350
2790D
  3
*A109
350
A4F4
  3
*A11
350
27079
  3
*A110
350
23507
  3
*A111
350
AA9E
  3
*A112
350
93C3
  3
*A113
350
25374
  3
*A114
350
28680
  3
*A115
350
CC1A
  3
*A116
350
24A7B
  3
*A117
350
274D1
  3
*A118
350
9131
  3
*A119
350
2707A
  3
*A12
350
25F42
  3
*A120
350
27086
  3
*A121
350
6E9B
  3
*A122
350
2707D
  3
*A123
350
9936
  3
*A124
350
80FC
  3
*A125
350
27088
  3
*A126
350
90E7
  3
*A127
350
2449B
  3
*A128
350
6FF5
  3
*A129
350
1A5B
  3
*A13
350
A4F3
  3
*A130
350
2706C
  3
*A131
350
245B4
  3
*A132
350
2C5D3
  3
*A133
350
2C5D4
  3
*A134
350
2C5D5
  3
*A135
350
21E27
  3
*A136
350
242E5
  3
*A137
350
2C5D6
  3
*A138
350
662F
  3
*A139
350
80FD
  3
*A14
350
2B3A2
  3
*A140
350
27070
  3
*A141
350
2C5D7
  3
*A142
350
283A6
  3
*A143
350
2C5D8
  3
*A144
350
2C5D9
  3
*A145
350
2C5DA
  3
*A146
350
22263
  3
*A147
350
8306
  3
*A148
350
239CA
  3
*A149
350
2C5DB
  3
*A15
350
24A7E
  3
*A150
350
2CA0A
  3
*A151
350
2CA0B
  3
*A152
350
9C90
  3
*A153
350
2CA0C
  3
*A154
350
10EBD
  3
*A155
350
24694
  3
*A156
350
2CA0D
  3
*A157
350
25F3F
  3
*A158
350
22DAD
  3
*A159
350
2CA0E
  3
*A16
350
9130
  3
*A160
350
2CA0F
  3
*A161
350
2CA10
  3
*A162
350
2536F
  3
*A163
350
23ECD
  3
*A164
350
22B10
  3
*A165
350
2CA11
  3
*A166
350
AA60
  3
*A167
350
2CA12
  3
*A168
350
27089
  3
*A169
350
1207
  3
*A17
350
BFA9
  3
*A170
350
27075
  3
*A171
350
2D098
  3
*A172
350
2D099
  3
*A173
350
2D09A
  3
*A174
350
2D09B
  3
*A175
350
2D09C
  3
*A176
350
25F49
  3
*A177
350
24D5E
  3
*A178
350
285C3
  3
*A179
350
CB80
  3
*A18
350
2449D
  3
*A180
350
25371
  3
*A181
350
2D09D
  3
*A182
350
2790C
  3
*A183
350
21E26
  3
*A184
350
2D09E
  3
*A185
350
92A7
  3
*A186
350
2755E
  3
*A187
350
2D09F
  3
*A188
350
23E92
  3
*A189
350
2D0A0
  3
*A19
350
3DA0
  3
*A190
350
2867F
  3
*A191
350
27446
  3
*A192
350
2707B
  3
*A193
350
A5B4
  3
*A194
350
D6FD
  3
*A195
350
22DB2
  3
*A196
350
1C56
  3
*A197
350
2706A
  3
*A198
350
22782
  3
*A199
350
AAAF
  3
*A2
350
27063
  3
*A20
350
2B3A3
  3
*A200
350
25921
  3
*A201
350
9B47
  3
*A202
350
24693
  3
*A203
350
27087
  3
*A204
350
24F5C
  3
*A205
350
27942
  3
*A206
350
927F
  3
*A207
350
2A44A
  3
*A208
350
19BED
  3
*A209
350
227A6
  3
*A21
350
128B
  3
*A210
350
27074
  3
*A211
350
228C4
  3
*A212
350
228C5
  3
*A213
350
242E2
  3
*A214
350
80FE
  3
*A215
350
939C
  3
*A216
350
2A44E
  3
*A217
350
2708B
  3
*A218
350
2A452
  3
*A219
350
25F40
  3
*A22
350
2B822
  3
*A220
350
4FA2
  3
*A221
350
B351
  3
*A222
350
27068
  3
*A223
350
25F44
  3
*A224
350
C5AE
  3
*A225
350
239CB
  3
*A226
350
639C
  3
*A227
350
1D706
  3
*A228
350
D6FC
  3
*A229
350
920C
  3
*A23
350
2B88B
  3
*A230
350
229C3
  3
*A231
350
2845E
  3
*A232
350
22DB3
  3
*A233
350
227B6
  3
*A234
350
19794
  3
*A235
350
279D3
  3
*A236
350
1BC3
  3
*A237
350
27C47
  3
*A238
350
24956
  3
*A239
350
22C04
  3
*A24
350
148A6
  3
*A240
350
9282
  3
*A241
350
639B
  3
*A242
350
6F90
  3
*A243
350
45DB
  3
*A244
350
27064
  3
*A245
350
1C73
  3
*A246
350
22369
  3
*A247
350
27060
  3
*A248
350
25F46
  3
*A249
350
27562
  3
*A25
350
2B923
  3
*A250
350
AAB1
  3
*A251
350
228C2
  3
*A252
350
1152
  3
*A253
350
27084
  3
*A254
350
275F9
  3
*A255
350
27091
  3
*A256
350
1A425
  3
*A257
350
AAB0
  3
*A258
350
2536A
  3
*A259
350
2708F
  3
*A26
350
2B94C
  3
*A260
350
80D6
  3
*A261
350
4190
  3
*A262
350
27082
  3
*A263
350
8166
  3
*A264
350
243C0
  3
*A265
350
27067
  3
*A266
350
6565
  3
*A267
350
2844C
  3
*A268
350
12F2
  3
*A269
350
9C4A
  3
*A27
350
2B9CF
  3
*A270
350
A332
  3
*A271
350
27081
  3
*A272
350
8307
  3
*A273
350
1C7E3
  3
*A274
350
7074
  3
*A275
350
24695
  3
*A276
350
92CC
  3
*A277
350
19D1
  3
*A278
350
23A30
  3
*A279
350
B1F2
  3
*A28
350
9132
  3
*A280
350
8BED
  3
*A281
350
18F3
  3
*A282
350
1C33
  3
*A283
350
236FC
  3
*A284
350
92A6
  3
*A285
350
243BB
  3
*A286
350
25526
  3
*A287
350
920F
  3
*A288
350
1A85
  3
*A289
350
2749A
  3
*A29
350
25925
  3
*A290
350
274E7
  3
*A291
350
3102
  3
*A292
350
25F45
  3
*A293
350
24D5B
  3
*A294
350
22E84
  3
*A295
350
16BB
  3
*A296
350
242E3
  3
*A297
350
2536B
  3
*A298
350
27077
  3
*A299
350
2707C
  3
*A3
350
2B0D9
  3
*A30
350
2B9DA
  3
*A300
350
1C64C
  3
*A301
350
24692
  3
*A302
350
99B0
  3
*A303
350
2707E
  3
*A304
350
280D2
  3
*A305
350
8BB5
  3
*A306
350
1A46C
  3
*A307
350
63E1
  3
*A308
350
243BC
  3
*A309
350
23E8E
  3
*A31
350
2B9DB
  3
*A310
350
2707F
  3
*A311
350
D4D4
  3
*A312
350
2349A
  3
*A313
350
24879
  3
*A314
350
CB94
  3
*A315
350
80D7
  3
*A316
350
22B17
  3
*A317
350
25929
  3
*A318
350
22DB0
  3
*A319
350
117E
  3
*A32
350
242E0
  3
*A320
350
D8D7
  3
*A321
350
283F3
  3
*A322
350
27080
  3
*A323
350
25B45
  3
*A324
350
243BE
  3
*A325
350
24B2B
  3
*A326
350
27CF1
  3
*A327
350
1C0D
  3
*A328
350
AAAE
  3
*A329
350
37C8
  3
*A33
350
27090
  3
*A330
350
8BB3
  3
*A331
350
2239C
  3
*A332
350
27071
  3
*A333
350
B948
  3
*A334
350
25F86
  3
*A335
350
286BA
  3
*A336
350
6962
  3
*A337
350
349E
  3
*A338
350
A986
  3
*A339
350
6C31
  3
*A34
350
24F58
  3
*A340
350
917A
  3
*A341
350
24F5A
  3
*A342
350
22E6E
  3
*A343
350
23337
  3
*A344
350
228C3
  3
*A345
350
228C6
  3
*A346
350
6CF7
  3
*A347
350
B949
  3
*A348
350
45D7
  3
*A349
350
24A7C
  3
*A35
350
27078
  3
*A350
350
243BD
  3
*A351
350
6623
  3
*A352
350
27066
  3
*A353
350
2784F
  3
*A354
350
2449E
  3
*A355
350
280E0
  3
*A356
350
B974
  3
*A357
350
A2EC
  3
*A358
350
BA57
  3
*A359
350
28417
  3
*A36
350
1D705
  3
*A360
350
25920
  3
*A361
350
8122
  3
*A362
350
34DC
  3
*A363
350
6FB1
  3
*A364
350
1208
  3
*A365
350
4199
  3
*A366
350
6C2E
  3
*A367
350
1A89
  3
*A368
350
230AB
  3
*A369
350
2536C
  3
*A37
350
2C14A
  3
*A370
350
A107
  3
*A371
350
1101D
  3
*A372
350
23E94
  3
*A373
350
6569
  3
*A374
350
26067
  3
*A375
350
25F47
  3
*A376
350
282DD
  3
*A377
350
2449A
  3
*A378
350
4501
  3
*A379
350
63BF
  3
*A38
350
A2ED
  3
*A380
350
8124
  3
*A381
350
27069
  3
*A382
350
117F
  3
*A383
350
190B
  3
*A384
350
22B12
  3
*A385
350
25F3E
  3
*A386
350
639D
  3
*A387
350
27062
  3
*A388
350
22DAA
  3
*A389
350
AA61
  3
*A39
350
272ED
  3
*A390
350
28405
  3
*A391
350
26131
  3
*A392
350
25F43
  3
*A393
350
A336
  3
*A394
350
2292D
  3
*A395
350
B946
  3
*A396
350
22C22
  3
*A397
350
16DA
  3
*A398
350
7FF3
  3
*A399
350
3442
  3
*A4
350
A4F1
  3
*A40
350
26210
  3
*A400
350
25923
  3
*A401
350
2592A
  3
*A402
350
2706B
  3
*A403
350
23E90
  3
*A404
350
24878
  3
*A405
350
2E19
  3
*A406
350
282DC
  3
*A407
350
A4F2
  3
*A408
350
25373
  3
*A409
350
282DE
  3
*A41
350
25B44
  3
*A410
350
25369
  3
*A411
350
22DB1
  3
*A412
350
25370
  3
*A413
350
283A7
  3
*A414
350
D5EB
  3
*A415
350
9935
  3
*A416
350
7FF8
  3
*A417
350
25446
  3
*A418
350
A591
  3
*A419
350
920E
  3
*A42
350
28559
  3
*A420
350
C7BB
  3
*A421
350
6C9C
  3
*A422
350
C69D
  3
*A423
350
2708C
  3
*A424
350
27061
  3
*A425
350
24A66
  3
*A426
350
22DAC
  3
*A427
350
245B8
  3
*A428
350
22DAB
  3
*A429
350
236FD
  3
*A43
350
239C6
  3
*A430
350
2845F
  3
*A431
350
1A689
  3
*A432
350
2785C
  3
*A433
350
830B
  3
*A434
350
C1E4
  3
*A435
350
7FF4
  3
*A436
350
2708A
  3
*A437
350
36C8
  3
*A438
350
BB10
  3
*A439
350
23A96
  3
*A44
350
6AB6
  3
*A440
350
1A15
  3
*A441
350
9C8F
  3
*A442
350
920D
  3
*A443
350
D724
  3
*A444
350
B94B
  3
*A445
350
23338
  3
*A446
350
229C2
  3
*A447
350
DCA
  3
*A448
350
2487C
  3
*A449
350
25926
  3
*A45
350
C538
  3
*A450
350
2705F
  3
*A451
350
B94A
  3
*A452
350
26068
  3
*A453
350
6FA2
  3
*A454
350
1A688
  3
*A455
350
2487A
  3
*A456
350
25F48
  3
*A457
350
8123
  3
*A458
350
28681
  3
*A459
350
91C4
  3
*A46
350
21E25
  3
*A460
350
939D
  3
*A461
350
A53F
  3
*A462
350
3101
  3
*A463
350
27065
  3
*A464
350
24955
  3
*A465
350
24D60
  3
*A466
350
6CCC
  3
*A467
350
A56C
  3
*A468
350
2844D
  3
*A469
350
2495B
  3
*A47
350
10CEC
  3
*A470
350
8CD1
  3
*A471
350
2708E
  3
*A472
350
2495C
  3
*A473
350
2536D
  3
*A474
350
CCA0
  3
*A475
350
BF05
  3
*A476
350
A4F0
  3
*A477
350
1D708
  3
*A478
350
2591F
  3
*A479
350
1A5A
  3
*A48
350
2487B
  3
*A480
350
27197
  3
*A481
350
93C4
  3
*A482
350
CC5E
  3
*A483
350
A2F5
  3
*A484
350
2487D
  3
*A485
350
242E1
  3
*A486
350
27095
  3
*A487
350
BB55
  3
*A488
350
AFF4
  3
*A489
350
B947
  3
*A49
350
25368
  3
*A490
350
27094
  3
*A491
350
28692
  3
*A492
350
22BE6
  3
*A493
350
25924
  3
*A494
350
12D2
  3
*A495
350
25367
  3
*A496
350
BFA8
  3
*A497
350
231F2
  3
*A498
350
A966
  3
*A499
350
AA9F
  3
*A5
350
27516
  3
*A50
350
22DAE
  3
*A500
350
2265B
  3
*A501
350
6C2B
  3
*A502
350
695F
  3
*A503
350
25B47
  3
*A504
350
1153
  3
*A505
350
1A12B
  3
*A506
350
22B14
  3
*A507
350
D69A
  3
*A508
350
3443
  3
*A509
350
DE6
  3
*A51
350
239C9
  3
*A510
350
25922
  3
*A511
350
235E0
  3
*A512
350
1A12A
  3
*A513
350
9933
  3
*A514
350
2257A
  3
*A515
350
9B46
  3
*A516
350
24B2A
  3
*A517
350
3DBF
  3
*A518
350
27073
  3
*A519
350
3ED3
  3
*A52
350
22DAF
  3
*A520
350
24A14
  3
*A521
350
BF7B
  3
*A522
350
22B11
  3
*A523
350
24A15
  3
*A524
350
AF2A
  3
*A525
350
27076
  3
*A526
350
23AFB
  3
*A527
350
242E4
  3
*A528
350
92CB
  3
*A529
350
91A0
  3
*A53
350
24957
  3
*A530
350
21E77
  3
*A531
350
349F
  3
*A532
350
6DFB
  3
*A533
350
2596A
  3
*A534
350
36E8
  3
*A535
350
A0BB
  3
*A536
350
12F1
  3
*A537
350
2536E
  3
*A538
350
2708D
  3
*A539
350
22B0F
  3
*A54
350
A331
  3
*A540
350
BEE2
  3
*A541
350
24699
  3
*A542
350
6960
  3
*A543
350
6C2C
  3
*A544
350
BF76
  3
*A545
350
25928
  3
*A546
350
24499
  3
*A547
350
A91C
  3
*A548
350
278E7
  3
*A549
350
418F
  3
*A55
350
6FC8
  3
*A550
350
6FC2
  3
*A551
350
225F5
  3
*A552
350
22DA9
  3
*A553
350
279CE
  3
*A554
350
2706F
  3
*A555
350
285C4
  3
*A556
350
25F41
  3
*A557
350
22B16
  3
*A558
350
6961
  3
*A559
350
27612
  3
*A56
350
29D12
  3
*A560
350
BFA7
  3
*A561
350
1A7B8
  3
*A562
350
25F85
  3
*A563
350
260CD
  3
*A564
350
D820
  3
*A565
350
8CD0
  3
*A566
350
25927
  3
*A567
350
24F5D
  3
*A568
350
126C
  3
*A569
350
228C7
  3
*A57
350
283E5
  3
*A570
350
2706D
  3
*A571
350
6355
  3
*A572
350
6356
  3
*A573
350
C88F
  3
*A574
350
234D7
  3
*A575
350
C410
  3
*A576
350
27085
  3
*A577
350
27092
  3
*A578
350
239C7
  3
*A579
350
270EF
  3
*A58
350
29D13
  3
*A580
350
A329
  3
*A581
350
23E8F
  3
*A582
350
D74A
  3
*A583
350
91C5
  3
*A584
350
2A9BB
  3
*A585
350
2A9BC
  3
*A586
350
2A9BD
  3
*A587
350
2A9BE
  3
*A588
350
2A9BF
  3
*A589
350
24959
  3
*A59
350
2219F
  3
*A590
350
2A9C0
  3
*A591
350
2ABA0
  3
*A592
350
12AA
  3
*A593
350
280D3
  3
*A594
350
25F4B
  3
*A595
350
9367
  3
*A596
350
2ABC2
  3
*A597
350
7FF2
  3
*A598
350
34A0
  3
*A599
350
2B0D7
  3
*A6
350
2B0DA
  3
*A60
350
BA56
  3
*A600
350
239C8
  3
*A601
350
2459C
  3
*A602
350
2B0D8
  3
*A603
350
6E9D
  3
*A61
350
29D2A
  3
*A62
350
2705E
  3
*A63
350
22B13
  3
*A64
350
8076
  3
*A65
350
148A7
  3
*A66
350
A4F5
  3
*A67
350
28416
  3
*A68
350
B973
  3
*A69
350
A919
  3
*A7
350
2B0DB
  3
*A70
350
6C2D
  3
*A71
350
A56E
  3
*A72
350
919F
  3
*A73
350
225AD
  3
*A74
350
22B15
  3
*A75
350
19E9
  3
*A76
350
2706E
  3
*A77
350
4502
  3
*A78
350
22E98
  3
*A79
350
28008
  3
*A8
350
2B0DC
  3
*A80
350
23EE2
  3
*A81
350
27398
  3
*A82
350
27072
  3
*A83
350
99AF
  3
*A84
350
15E1
  3
*A85
350
27AF2
  3
*A86
350
249B9
  3
*A87
350
A2F4
  3
*A88
350
27083
  3
*A89
350
25372
  3
*A9
350
2B0DD
  3
*A90
350
27545
  3
*A91
350
AAA0
  3
*A92
350
278E6
  3
*A93
350
36E7
  3
*A94
350
2596D
  3
*A95
350
28009
  3
*A96
350
21F2B
  3
*A97
350
CC19
  3
*A98
350
2752F
  3
*A99
350
A962
  0
DICTIONARY
  5
1A
102
{ACAD_REACTORS
330
C
102
}
330
C
100
AcDbDictionary
  0
DICTIONARY
  5
17
102
{ACAD_REACTORS
330
C
102
}
330
C
100
AcDbDictionary
  3
STANDARD
350
18
  0
DICTIONARY
  5
19
102
{ACAD_REACTORS
330
C
102
}
330
C
100
AcDbDictionary
  0
ACDBDICTIONARYWDFLT
  5
E
102
{ACAD_REACTORS
330
C
102
}
330
C
100
AcDbDictionary
281
     1
  3
Normal
350
F
100
AcDbDictionaryWithDefault
340
F
  0
XRECORD
  5
2C078
102
{ACAD_REACTORS
330
C
102
}
330
C
100
AcDbXrecord
 90
   990106
  3
OPEN
 60
     0
 61
     0
 62
     4
 63
     4
 64
     1
 65
     0
 66
     0
 67
     3
 68
     0
 69
     1
 70
     0
 71
     0
 72
     0
 40
0.0
170
     1
340
0
  0
DICTIONARY
  5
2D569
102
{ACAD_REACTORS
330
C
102
}
330
C
100
AcDbDictionary
  3
CEPSNTYPE
350
2D573
  3
DIMSTYLEDATA
350
2D577
  3
FINGERPRINTGUID
350
2D574
  3
HYPERLINKBASE
350
2D56C
  3
INSUNITS
350
2D572
  3
LAYOUTDICT
350
2D56E
  3
LWETCUNION
350
2D571
  3
PLOTSETDICT
350
2D56F
  3
PLOTSTYLNAMDICT
350
2D570
  3
PSVPSCALE
350
2D576
  3
PUCSBASE
350
2D57A
  3
PUCSORGBACK
350
2D580
  3
PUCSORGBOTTOM
350
2D57C
  3
PUCSORGFRONT
350
2D57F
  3
PUCSORGLEFT
350
2D57D
  3
PUCSORGRIGHT
350
2D57E
  3
PUCSORGTOP
350
2D57B
  3
PUCSORTHOREF
350
2D578
  3
PUCSORTHOVIEW
350
2D579
  3
STYLESHEET
350
2D56D
  3
TSTACKALIGN
350
2D56A
  3
TSTACKSIZE
350
2D56B
  3
UCSBASE
350
2D583
  3
UCSORGBACK
350
2D589
  3
UCSORGBOTTOM
350
2D585
  3
UCSORGFRONT
350
2D588
  3
UCSORGLEFT
350
2D586
  3
UCSORGRIGHT
350
2D587
  3
UCSORGTOP
350
2D584
  3
UCSORTHOREF
350
2D581
  3
UCSORTHOVIEW
350
2D582
  3
VERSIONGUID
350
2D575
  0
DICTIONARY
  5
72CC
102
{ACAD_REACTORS
330
C
102
}
330
C
100
AcDbDictionary
  3
SORTENTS
350
72CD
  0
DICTIONARY
  5
29CAE
102
{ACAD_REACTORS
330
29CAD
102
}
330
29CAD
100
AcDbDictionary
280
     1
  3
0
360
29CAF
  3
11
360
29CB0
  3
150_
360
29CB1
  3
160_
360
29CB2
  3
170_
360
29CB3
  3
171_
360
29CB4
  3
350_
360
29CB5
  3
4
360
29CB6
  3
5
360
29CB7
  3
7
360
29CB8
  3
KISEKI
360
29CB9
  0
DICTIONARY
  5
29CBB
102
{ACAD_REACTORS
330
29CAD
102
}
330
29CAD
100
AcDbDictionary
  0
XRECORD
  5
2D58A
102
{ACAD_REACTORS
330
2847E
102
}
330
2847E
100
AcDbXrecord
340
1F
  0
SORTENTSTABLE
  5
2847F
102
{ACAD_REACTORS
330
2847E
102
}
330
2847E
100
AcDbSortentsTable
330
1F
  0
XRECORD
  5
2D58C
102
{ACAD_REACTORS
330
2D58B
102
}
330
2D58B
100
AcDbXrecord
340
2A57E
  0
GROUP
  5
1220
102
{ACAD_REACTORS
330
D
102
}
330
D
100
AcDbGroup
300

 70
     1
 71
     1
  0
GROUP
  5
2B0DE
102
{ACAD_REACTORS
330
D
102
}
330
D
100
AcDbGroup
300

 70
     1
 71
     1
  0
GROUP
  5
21E76
102
{ACAD_REACTORS
330
D
102
}
330
D
100
AcDbGroup
300

 70
     1
 71
     1
  0
GROUP
  5
27093
102
{ACAD_REACTORS
330
D
102
}
330
D
100
AcDbGroup
300

 70
     1
 71
     1
  0
GROUP
  5
A53E
102
{ACAD_REACTORS
330
D
102
}
330
D
100
AcDbGroup
300

 70
     1
 71
     1
  0
GROUP
  5
C1CA
102
{ACAD_REACTORS
330
D
102
}
330
D
100
AcDbGroup
300

 70
     1
 71
     1
  0
GROUP
  5
24698
102
{ACAD_REACTORS
330
D
102
}
330
D
100
AcDbGroup
300

 70
     1
 71
     1
  0
GROUP
  5
C536
102
{ACAD_REACTORS
330
D
102
}
330
D
100
AcDbGroup
300

 70
     1
 71
     1
  0
GROUP
  5
CA67
102
{ACAD_REACTORS
330
D
102
}
330
D
100
AcDbGroup
300

 70
     1
 71
     1
  0
GROUP
  5
27500
102
{ACAD_REACTORS
330
D
102
}
330
D
100
AcDbGroup
300

 70
     1
 71
     1
  0
GROUP
  5
2790D
102
{ACAD_REACTORS
330
D
102
}
330
D
100
AcDbGroup
300

 70
     1
 71
     1
  0
GROUP
  5
A4F4
102
{ACAD_REACTORS
330
D
102
}
330
D
100
AcDbGroup
300

 70
     1
 71
     1
  0
GROUP
  5
27079
102
{ACAD_REACTORS
330
D
102
}
330
D
100
AcDbGroup
300

 70
     1
 71
     1
  0
GROUP
  5
23507
102
{ACAD_REACTORS
330
D
102
}
330
D
100
AcDbGroup
300

 70
     1
 71
     1
  0
GROUP
  5
AA9E
102
{ACAD_REACTORS
330
D
102
}
330
D
100
AcDbGroup
300

 70
     1
 71
     1
  0
GROUP
  5
93C3
102
{ACAD_REACTORS
330
D
102
}
330
D
100
AcDbGroup
300

 70
     1
 71
     1
  0
GROUP
  5
25374
102
{ACAD_REACTORS
330
D
102
}
330
D
100
AcDbGroup
300

 70
     1
 71
     1
  0
GROUP
  5
28680
102
{ACAD_REACTORS
330
D
102
}
330
D
100
AcDbGroup
300

 70
     1
 71
     1
  0
GROUP
  5
CC1A
102
{ACAD_REACTORS
330
D
102
}
330
D
100
AcDbGroup
300

 70
     1
 71
     1
  0
GROUP
  5
24A7B
102
{ACAD_REACTORS
330
D
102
}
330
D
100
AcDbGroup
300

 70
     1
 71
     1
  0
GROUP
  5
274D1
102
{ACAD_REACTORS
330
D
102
}
330
D
100
AcDbGroup
300

 70
     1
 71
     1
  0
GROUP
  5
9131
102
{ACAD_REACTORS
330
D
102
}
330
D
100
AcDbGroup
300

 70
     1
 71
     1
  0
GROUP
  5
2707A
102
{ACAD_REACTORS
330
D
102
}
330
D
100
AcDbGroup
300

 70
     1
 71
     1
  0
GROUP
  5
25F42
102
{ACAD_REACTORS
330
D
102
}
330
D
100
AcDbGroup
300

 70
     1
 71
     1
  0
GROUP
  5
27086
102
{ACAD_REACTORS
330
D
102
}
330
D
100
AcDbGroup
300

 70
     1
 71
     1
  0
GROUP
  5
6E9B
102
{ACAD_REACTORS
330
D
102
}
330
D
100
AcDbGroup
300

 70
     1
 71
     1
  0
GROUP
  5
2707D
102
{ACAD_REACTORS
330
D
102
}
330
D
100
AcDbGroup
300

 70
     1
 71
     1
  0
GROUP
  5
9936
102
{ACAD_REACTORS
330
D
102
}
330
D
100
AcDbGroup
300

 70
     1
 71
     1
  0
GROUP
  5
80FC
102
{ACAD_REACTORS
330
D
102
}
330
D
100
AcDbGroup
300

 70
     1
 71
     1
  0
GROUP
  5
27088
102
{ACAD_REACTORS
330
D
102
}
330
D
100
AcDbGroup
300

 70
     1
 71
     1
  0
GROUP
  5
90E7
102
{ACAD_REACTORS
330
D
102
}
330
D
100
AcDbGroup
300

 70
     1
 71
     1
  0
GROUP
  5
2449B
102
{ACAD_REACTORS
330
D
102
}
330
D
100
AcDbGroup
300

 70
     1
 71
     1
  0
GROUP
  5
6FF5
102
{ACAD_REACTORS
330
D
102
}
330
D
100
AcDbGroup
300

 70
     1
 71
     1
  0
GROUP
  5
1A5B
102
{ACAD_REACTORS
330
D
102
}
330
D
100
AcDbGroup
300

 70
     1
 71
     1
  0
GROUP
  5
A4F3
102
{ACAD_REACTORS
330
D
102
}
330
D
100
AcDbGroup
300

 70
     1
 71
     1
  0
GROUP
  5
2706C
102
{ACAD_REACTORS
330
D
102
}
330
D
100
AcDbGroup
300

 70
     1
 71
     1
  0
GROUP
  5
245B4
102
{ACAD_REACTORS
330
D
102
}
330
D
100
AcDbGroup
300

 70
     1
 71
     1
  0
GROUP
  5
2C5D3
102
{ACAD_REACTORS
330
D
102
}
330
D
100
AcDbGroup
300

 70
     1
 71
     1
  0
GROUP
  5
2C5D4
102
{ACAD_REACTORS
330
D
102
}
330
D
100
AcDbGroup
300

 70
     1
 71
     1
  0
GROUP
  5
2C5D5
102
{ACAD_REACTORS
330
D
102
}
330
D
100
AcDbGroup
300

 70
     1
 71
     1
  0
GROUP
  5
21E27
102
{ACAD_REACTORS
330
D
102
}
330
D
100
AcDbGroup
300

 70
     1
 71
     1
  0
GROUP
  5
242E5
102
{ACAD_REACTORS
330
D
102
}
330
D
100
AcDbGroup
300

 70
     1
 71
     1
  0
GROUP
  5
2C5D6
102
{ACAD_REACTORS
330
D
102
}
330
D
100
AcDbGroup
300

 70
     1
 71
     1
  0
GROUP
  5
662F
102
{ACAD_REACTORS
330
D
102
}
330
D
100
AcDbGroup
300

 70
     1
 71
     1
  0
GROUP
  5
80FD
102
{ACAD_REACTORS
330
D
102
}
330
D
100
AcDbGroup
300

 70
     1
 71
     1
  0
GROUP
  5
2B3A2
102
{ACAD_REACTORS
330
D
102
}
330
D
100
AcDbGroup
300

 70
     1
 71
     1
  0
GROUP
  5
27070
102
{ACAD_REACTORS
330
D
102
}
330
D
100
AcDbGroup
300

 70
     1
 71
     1
  0
GROUP
  5
2C5D7
102
{ACAD_REACTORS
330
D
102
}
330
D
100
AcDbGroup
300

 70
     1
 71
     1
  0
GROUP
  5
283A6
102
{ACAD_REACTORS
330
D
102
}
330
D
100
AcDbGroup
300

 70
     1
 71
     1
  0
GROUP
  5
2C5D8
102
{ACAD_REACTORS
330
D
102
}
330
D
100
AcDbGroup
300

 70
     1
 71
     1
  0
GROUP
  5
2C5D9
102
{ACAD_REACTORS
330
D
102
}
330
D
100
AcDbGroup
300

 70
     1
 71
     1
  0
GROUP
  5
2C5DA
102
{ACAD_REACTORS
330
D
102
}
330
D
100
AcDbGroup
300

 70
     1
 71
     1
  0
GROUP
  5
22263
102
{ACAD_REACTORS
330
D
102
}
330
D
100
AcDbGroup
300

 70
     1
 71
     1
  0
GROUP
  5
8306
102
{ACAD_REACTORS
330
D
102
}
330
D
100
AcDbGroup
300

 70
     1
 71
     1
  0
GROUP
  5
239CA
102
{ACAD_REACTORS
330
D
102
}
330
D
100
AcDbGroup
300

 70
     1
 71
     1
  0
GROUP
  5
2C5DB
102
{ACAD_REACTORS
330
D
102
}
330
D
100
AcDbGroup
300

 70
     1
 71
     1
  0
GROUP
  5
24A7E
102
{ACAD_REACTORS
330
D
102
}
330
D
100
AcDbGroup
300

 70
     1
 71
     1
  0
GROUP
  5
2CA0A
102
{ACAD_REACTORS
330
D
102
}
330
D
100
AcDbGroup
300

 70
     1
 71
     1
  0
GROUP
  5
2CA0B
102
{ACAD_REACTORS
330
D
102
}
330
D
100
AcDbGroup
300

 70
     1
 71
     1
  0
GROUP
  5
9C90
102
{ACAD_REACTORS
330
D
102
}
330
D
100
AcDbGroup
300

 70
     1
 71
     1
  0
GROUP
  5
2CA0C
102
{ACAD_REACTORS
330
D
102
}
330
D
100
AcDbGroup
300

 70
     1
 71
     1
  0
GROUP
  5
10EBD
102
{ACAD_REACTORS
330
D
102
}
330
D
100
AcDbGroup
300

 70
     1
 71
     1
  0
GROUP
  5
24694
102
{ACAD_REACTORS
330
D
102
}
330
D
100
AcDbGroup
300

 70
     1
 71
     1
  0
GROUP
  5
2CA0D
102
{ACAD_REACTORS
330
D
102
}
330
D
100
AcDbGroup
300

 70
     1
 71
     1
  0
GROUP
  5
25F3F
102
{ACAD_REACTORS
330
D
102
}
330
D
100
AcDbGroup
300

 70
     1
 71
     1
  0
GROUP
  5
22DAD
102
{ACAD_REACTORS
330
D
102
}
330
D
100
AcDbGroup
300

 70
     1
 71
     1
  0
GROUP
  5
2CA0E
102
{ACAD_REACTORS
330
D
102
}
330
D
100
AcDbGroup
300

 70
     1
 71
     1
  0
GROUP
  5
9130
102
{ACAD_REACTORS
330
D
102
}
330
D
100
AcDbGroup
300

 70
     1
 71
     1
  0
GROUP
  5
2CA0F
102
{ACAD_REACTORS
330
D
102
}
330
D
100
AcDbGroup
300

 70
     1
 71
     1
  0
GROUP
  5
2CA10
102
{ACAD_REACTORS
330
D
102
}
330
D
100
AcDbGroup
300

 70
     1
 71
     1
  0
GROUP
  5
2536F
102
{ACAD_REACTORS
330
D
102
}
330
D
100
AcDbGroup
300

 70
     1
 71
     1
  0
GROUP
  5
23ECD
102
{ACAD_REACTORS
330
D
102
}
330
D
100
AcDbGroup
300

 70
     1
 71
     1
  0
GROUP
  5
22B10
102
{ACAD_REACTORS
330
D
102
}
330
D
100
AcDbGroup
300

 70
     1
 71
     1
  0
GROUP
  5
2CA11
102
{ACAD_REACTORS
330
D
102
}
330
D
100
AcDbGroup
300

 70
     1
 71
     1
  0
GROUP
  5
AA60
102
{ACAD_REACTORS
330
D
102
}
330
D
100
AcDbGroup
300

 70
     1
 71
     1
  0
GROUP
  5
2CA12
102
{ACAD_REACTORS
330
D
102
}
330
D
100
AcDbGroup
300

 70
     1
 71
     1
  0
GROUP
  5
27089
102
{ACAD_REACTORS
330
D
102
}
330
D
100
AcDbGroup
300

 70
     1
 71
     1
  0
GROUP
  5
1207
102
{ACAD_REACTORS
330
D
102
}
330
D
100
AcDbGroup
300

 70
     1
 71
     1
  0
GROUP
  5
BFA9
102
{ACAD_REACTORS
330
D
102
}
330
D
100
AcDbGroup
300

 70
     1
 71
     1
  0
GROUP
  5
27075
102
{ACAD_REACTORS
330
D
102
}
330
D
100
AcDbGroup
300

 70
     1
 71
     1
  0
GROUP
  5
2D098
102
{ACAD_REACTORS
330
D
102
}
330
D
100
AcDbGroup
300

 70
     1
 71
     1
340
2CE06
340
2CE05
340
2CE04
340
2CE03
340
2CE02
340
2CE01
340
2CE00
340
2CDFF
340
2CDFE
340
2CDFD
340
2CDFC
340
2CDFB
340
2CDFA
340
2CDF9
340
2CDF8
340
2CDF7
340
2CDF6
340
2CDF5
340
2CDF4
340
2CDF3
340
2CDF2
340
2CDF1
340
2CDF0
340
2CDEF
340
2CDEE
340
2CDED
340
2CDEC
340
2CDEB
340
2CDEA
340
2CDE9
340
2CDE8
340
2CDE7
340
2CDE6
  0
GROUP
  5
2D099
102
{ACAD_REACTORS
330
D
102
}
330
D
100
AcDbGroup
300

 70
     1
 71
     1
340
2CEE4
340
2CEE3
340
2CEE2
340
2CEE1
340
2CEE0
340
2CEDF
340
2CEDE
340
2CEDD
340
2CEDC
340
2CEDB
340
2CEDA
340
2CED9
340
2CED8
340
2CED7
340
2CED6
340
2CED5
340
2CED4
340
2CED3
340
2CED2
340
2CED1
340
2CED0
340
2CECF
340
2CECE
340
2CECD
340
2CECC
340
2CECB
340
2CECA
340
2CEC9
340
2CEC8
340
2CEC7
340
2CEC6
340
2CEC5
340
2CEC2
340
2CEC1
340
2CEBE
340
2CEBD
340
2CEBC
340
2CE17
340
2CE16
340
2CE15
340
2CE14
340
2CE13
340
2CE12
  0
GROUP
  5
2D09A
102
{ACAD_REACTORS
330
D
102
}
330
D
100
AcDbGroup
300

 70
     1
 71
     1
340
2CE2E
340
2CE2D
340
2CE2C
340
2CE1F
340
2CE1E
340
2CE1D
340
2CE1C
340
2CE1B
340
2CE1A
  0
GROUP
  5
2D09B
102
{ACAD_REACTORS
330
D
102
}
330
D
100
AcDbGroup
300

 70
     1
 71
     1
340
2CE3D
340
2CE3C
  0
GROUP
  5
2D09C
102
{ACAD_REACTORS
330
D
102
}
330
D
100
AcDbGroup
300

 70
     1
 71
     1
340
2CE91
340
2CE90
340
2CE8F
340
2CE8E
340
2CE8D
340
2CE8C
340
2CE8B
340
2CE8A
340
2CE89
340
2CE88
340
2CE87
340
2CE86
340
2CE85
340
2CE84
340
2CE83
340
2CE82
340
2CE81
340
2CE80
340
2CE7F
340
2CE7E
340
2CE7D
340
2CE7C
340
2CE7B
340
2CE7A
340
2CE79
340
2CE78
340
2CE77
340
2CE76
340
2CE75
340
2CE74
340
2CE73
340
2CE72
340
2CE71
340
2CE70
340
2CE6F
340
2CE6E
340
2CE6D
340
2CE6C
340
2CE6B
340
2CE6A
340
2CE69
340
2CE68
340
2CE67
340
2CE66
340
2CE65
340
2CE64
340
2CE63
340
2CE62
340
2CE61
340
2CE60
340
2CE5F
340
2CE5E
340
2CE5D
340
2CE5C
340
2CE5B
340
2CE5A
340
2CE59
340
2CE58
340
2CE57
340
2CE56
340
2CE55
340
2CE54
340
2CE53
340
2CE52
340
2CE51
340
2CE50
340
2CE4F
340
2CE4E
340
2CE4D
340
2CE4C
340
2CE4B
340
2CE4A
340
2CE49
340
2CE48
  0
GROUP
  5
25F49
102
{ACAD_REACTORS
330
D
102
}
330
D
100
AcDbGroup
300

 70
     1
 71
     1
  0
GROUP
  5
24D5E
102
{ACAD_REACTORS
330
D
102
}
330
D
100
AcDbGroup
300

 70
     1
 71
     1
  0
GROUP
  5
285C3
102
{ACAD_REACTORS
330
D
102
}
330
D
100
AcDbGroup
300

 70
     1
 71
     1
  0
GROUP
  5
CB80
102
{ACAD_REACTORS
330
D
102
}
330
D
100
AcDbGroup
300

 70
     1
 71
     1
  0
GROUP
  5
2449D
102
{ACAD_REACTORS
330
D
102
}
330
D
100
AcDbGroup
300

 70
     1
 71
     1
  0
GROUP
  5
25371
102
{ACAD_REACTORS
330
D
102
}
330
D
100
AcDbGroup
300

 70
     1
 71
     1
  0
GROUP
  5
2D09D
102
{ACAD_REACTORS
330
D
102
}
330
D
100
AcDbGroup
300

 70
     1
 71
     1
340
2CE9D
340
2CE9C
340
2CE9B
340
2CE9A
340
2CE99
340
2CE98
340
2CE97
340
2CE96
340
2CE95
340
2CE94
340
2CE93
340
2CE92
  0
GROUP
  5
2790C
102
{ACAD_REACTORS
330
D
102
}
330
D
100
AcDbGroup
300

 70
     1
 71
     1
  0
GROUP
  5
21E26
102
{ACAD_REACTORS
330
D
102
}
330
D
100
AcDbGroup
300

 70
     1
 71
     1
  0
GROUP
  5
2D09E
102
{ACAD_REACTORS
330
D
102
}
330
D
100
AcDbGroup
300

 70
     1
 71
     1
340
2CE95
340
2CE9D
340
2CE9C
340
2CE9B
340
2CE9A
340
2CE99
340
2CE98
340
2CE97
340
2CE96
340
2CE94
340
2CE93
340
2CE92
340
2CE9E
340
2CEA7
340
2CEA6
340
2CEA5
340
2CEA4
340
2CEA3
340
2CEA2
340
2CEA1
340
2CEA0
340
2CE9F
340
2CEAA
340
2CEB1
340
2CEB0
340
2CEAF
340
2CEAE
340
2CEAD
340
2CEAC
340
2CEAB
340
2CEA9
340
2CEA8
  0
GROUP
  5
92A7
102
{ACAD_REACTORS
330
D
102
}
330
D
100
AcDbGroup
300

 70
     1
 71
     1
  0
GROUP
  5
2755E
102
{ACAD_REACTORS
330
D
102
}
330
D
100
AcDbGroup
300

 70
     1
 71
     1
  0
GROUP
  5
2D09F
102
{ACAD_REACTORS
330
D
102
}
330
D
100
AcDbGroup
300

 70
     1
 71
     1
340
2CEA7
340
2CEA6
340
2CEA5
340
2CEA4
340
2CEA3
340
2CEA2
340
2CEA1
340
2CEA0
340
2CE9F
340
2CE9E
  0
GROUP
  5
23E92
102
{ACAD_REACTORS
330
D
102
}
330
D
100
AcDbGroup
300

 70
     1
 71
     1
  0
GROUP
  5
2D0A0
102
{ACAD_REACTORS
330
D
102
}
330
D
100
AcDbGroup
300

 70
     1
 71
     1
340
2CEB1
340
2CEB0
340
2CEAF
340
2CEAE
340
2CEAD
340
2CEAC
340
2CEAB
340
2CEAA
340
2CEA9
340
2CEA8
  0
GROUP
  5
3DA0
102
{ACAD_REACTORS
330
D
102
}
330
D
100
AcDbGroup
300

 70
     1
 71
     1
  0
GROUP
  5
2867F
102
{ACAD_REACTORS
330
D
102
}
330
D
100
AcDbGroup
300

 70
     1
 71
     1
  0
GROUP
  5
27446
102
{ACAD_REACTORS
330
D
102
}
330
D
100
AcDbGroup
300

 70
     1
 71
     1
  0
GROUP
  5
2707B
102
{ACAD_REACTORS
330
D
102
}
330
D
100
AcDbGroup
300

 70
     1
 71
     1
  0
GROUP
  5
A5B4
102
{ACAD_REACTORS
330
D
102
}
330
D
100
AcDbGroup
300

 70
     1
 71
     1
  0
GROUP
  5
D6FD
102
{ACAD_REACTORS
330
D
102
}
330
D
100
AcDbGroup
300

 70
     1
 71
     1
  0
GROUP
  5
22DB2
102
{ACAD_REACTORS
330
D
102
}
330
D
100
AcDbGroup
300

 70
     1
 71
     1
  0
GROUP
  5
1C56
102
{ACAD_REACTORS
330
D
102
}
330
D
100
AcDbGroup
300

 70
     1
 71
     1
  0
GROUP
  5
2706A
102
{ACAD_REACTORS
330
D
102
}
330
D
100
AcDbGroup
300

 70
     1
 71
     1
  0
GROUP
  5
22782
102
{ACAD_REACTORS
330
D
102
}
330
D
100
AcDbGroup
300

 70
     1
 71
     1
  0
GROUP
  5
AAAF
102
{ACAD_REACTORS
330
D
102
}
330
D
100
AcDbGroup
300

 70
     1
 71
     1
  0
GROUP
  5
27063
102
{ACAD_REACTORS
330
D
102
}
330
D
100
AcDbGroup
300

 70
     1
 71
     1
  0
GROUP
  5
2B3A3
102
{ACAD_REACTORS
330
D
102
}
330
D
100
AcDbGroup
300

 70
     1
 71
     1
  0
GROUP
  5
25921
102
{ACAD_REACTORS
330
D
102
}
330
D
100
AcDbGroup
300

 70
     1
 71
     1
  0
GROUP
  5
9B47
102
{ACAD_REACTORS
330
D
102
}
330
D
100
AcDbGroup
300

 70
     1
 71
     1
  0
GROUP
  5
24693
102
{ACAD_REACTORS
330
D
102
}
330
D
100
AcDbGroup
300

 70
     1
 71
     1
  0
GROUP
  5
27087
102
{ACAD_REACTORS
330
D
102
}
330
D
100
AcDbGroup
300

 70
     1
 71
     1
  0
GROUP
  5
24F5C
102
{ACAD_REACTORS
330
D
102
}
330
D
100
AcDbGroup
300

 70
     1
 71
     1
  0
GROUP
  5
27942
102
{ACAD_REACTORS
330
D
102
}
330
D
100
AcDbGroup
300

 70
     1
 71
     1
  0
GROUP
  5
927F
102
{ACAD_REACTORS
330
D
102
}
330
D
100
AcDbGroup
300

 70
     1
 71
     1
  0
GROUP
  5
2A44A
102
{ACAD_REACTORS
330
D
102
}
330
D
100
AcDbGroup
300

 70
     1
 71
     1
  0
GROUP
  5
19BED
102
{ACAD_REACTORS
330
D
102
}
330
D
100
AcDbGroup
300

 70
     1
 71
     1
  0
GROUP
  5
227A6
102
{ACAD_REACTORS
330
D
102
}
330
D
100
AcDbGroup
300

 70
     1
 71
     1
  0
GROUP
  5
128B
102
{ACAD_REACTORS
330
D
102
}
330
D
100
AcDbGroup
300

 70
     1
 71
     1
  0
GROUP
  5
27074
102
{ACAD_REACTORS
330
D
102
}
330
D
100
AcDbGroup
300

 70
     1
 71
     1
  0
GROUP
  5
228C4
102
{ACAD_REACTORS
330
D
102
}
330
D
100
AcDbGroup
300

 70
     1
 71
     1
  0
GROUP
  5
228C5
102
{ACAD_REACTORS
330
D
102
}
330
D
100
AcDbGroup
300

 70
     1
 71
     1
  0
GROUP
  5
242E2
102
{ACAD_REACTORS
330
D
102
}
330
D
100
AcDbGroup
300

 70
     1
 71
     1
  0
GROUP
  5
80FE
102
{ACAD_REACTORS
330
D
102
}
330
D
100
AcDbGroup
300

 70
     1
 71
     1
  0
GROUP
  5
939C
102
{ACAD_REACTORS
330
D
102
}
330
D
100
AcDbGroup
300

 70
     1
 71
     1
  0
GROUP
  5
2A44E
102
{ACAD_REACTORS
330
D
102
}
330
D
100
AcDbGroup
300

 70
     1
 71
     1
  0
GROUP
  5
2708B
102
{ACAD_REACTORS
330
D
102
}
330
D
100
AcDbGroup
300

 70
     1
 71
     1
  0
GROUP
  5
2A452
102
{ACAD_REACTORS
330
D
102
}
330
D
100
AcDbGroup
300

 70
     1
 71
     1
  0
GROUP
  5
25F40
102
{ACAD_REACTORS
330
D
102
}
330
D
100
AcDbGroup
300

 70
     1
 71
     1
  0
GROUP
  5
2B822
102
{ACAD_REACTORS
330
D
102
}
330
D
100
AcDbGroup
300

 70
     1
 71
     1
  0
GROUP
  5
4FA2
102
{ACAD_REACTORS
330
D
102
}
330
D
100
AcDbGroup
300

 70
     1
 71
     1
  0
GROUP
  5
B351
102
{ACAD_REACTORS
330
D
102
}
330
D
100
AcDbGroup
300

 70
     1
 71
     1
  0
GROUP
  5
27068
102
{ACAD_REACTORS
330
D
102
}
330
D
100
AcDbGroup
300

 70
     1
 71
     1
  0
GROUP
  5
25F44
102
{ACAD_REACTORS
330
D
102
}
330
D
100
AcDbGroup
300

 70
     1
 71
     1
  0
GROUP
  5
C5AE
102
{ACAD_REACTORS
330
D
102
}
330
D
100
AcDbGroup
300

 70
     1
 71
     1
  0
GROUP
  5
239CB
102
{ACAD_REACTORS
330
D
102
}
330
D
100
AcDbGroup
300

 70
     1
 71
     1
  0
GROUP
  5
639C
102
{ACAD_REACTORS
330
D
102
}
330
D
100
AcDbGroup
300

 70
     1
 71
     1
  0
GROUP
  5
1D706
102
{ACAD_REACTORS
330
D
102
}
330
D
100
AcDbGroup
300

 70
     1
 71
     1
  0
GROUP
  5
D6FC
102
{ACAD_REACTORS
330
D
102
}
330
D
100
AcDbGroup
300

 70
     1
 71
     1
  0
GROUP
  5
920C
102
{ACAD_REACTORS
330
D
102
}
330
D
100
AcDbGroup
300

 70
     1
 71
     1
  0
GROUP
  5
2B88B
102
{ACAD_REACTORS
330
D
102
}
330
D
100
AcDbGroup
300

 70
     1
 71
     1
  0
GROUP
  5
229C3
102
{ACAD_REACTORS
330
D
102
}
330
D
100
AcDbGroup
300

 70
     1
 71
     1
  0
GROUP
  5
2845E
102
{ACAD_REACTORS
330
D
102
}
330
D
100
AcDbGroup
300

 70
     1
 71
     1
  0
GROUP
  5
22DB3
102
{ACAD_REACTORS
330
D
102
}
330
D
100
AcDbGroup
300

 70
     1
 71
     1
  0
GROUP
  5
227B6
102
{ACAD_REACTORS
330
D
102
}
330
D
100
AcDbGroup
300

 70
     1
 71
     1
  0
GROUP
  5
19794
102
{ACAD_REACTORS
330
D
102
}
330
D
100
AcDbGroup
300

 70
     1
 71
     1
  0
GROUP
  5
279D3
102
{ACAD_REACTORS
330
D
102
}
330
D
100
AcDbGroup
300

 70
     1
 71
     1
  0
GROUP
  5
1BC3
102
{ACAD_REACTORS
330
D
102
}
330
D
100
AcDbGroup
300

 70
     1
 71
     1
  0
GROUP
  5
27C47
102
{ACAD_REACTORS
330
D
102
}
330
D
100
AcDbGroup
300

 70
     1
 71
     1
  0
GROUP
  5
24956
102
{ACAD_REACTORS
330
D
102
}
330
D
100
AcDbGroup
300

 70
     1
 71
     1
  0
GROUP
  5
22C04
102
{ACAD_REACTORS
330
D
102
}
330
D
100
AcDbGroup
300

 70
     1
 71
     1
  0
GROUP
  5
148A6
102
{ACAD_REACTORS
330
D
102
}
330
D
100
AcDbGroup
300

 70
     1
 71
     1
  0
GROUP
  5
9282
102
{ACAD_REACTORS
330
D
102
}
330
D
100
AcDbGroup
300

 70
     1
 71
     1
  0
GROUP
  5
639B
102
{ACAD_REACTORS
330
D
102
}
330
D
100
AcDbGroup
300

 70
     1
 71
     1
  0
GROUP
  5
6F90
102
{ACAD_REACTORS
330
D
102
}
330
D
100
AcDbGroup
300

 70
     1
 71
     1
  0
GROUP
  5
45DB
102
{ACAD_REACTORS
330
D
102
}
330
D
100
AcDbGroup
300

 70
     1
 71
     1
  0
GROUP
  5
27064
102
{ACAD_REACTORS
330
D
102
}
330
D
100
AcDbGroup
300

 70
     1
 71
     1
  0
GROUP
  5
1C73
102
{ACAD_REACTORS
330
D
102
}
330
D
100
AcDbGroup
300

 70
     1
 71
     1
  0
GROUP
  5
22369
102
{ACAD_REACTORS
330
D
102
}
330
D
100
AcDbGroup
300

 70
     1
 71
     1
  0
GROUP
  5
27060
102
{ACAD_REACTORS
330
D
102
}
330
D
100
AcDbGroup
300

 70
     1
 71
     1
  0
GROUP
  5
25F46
102
{ACAD_REACTORS
330
D
102
}
330
D
100
AcDbGroup
300

 70
     1
 71
     1
  0
GROUP
  5
27562
102
{ACAD_REACTORS
330
D
102
}
330
D
100
AcDbGroup
300

 70
     1
 71
     1
  0
GROUP
  5
2B923
102
{ACAD_REACTORS
330
D
102
}
330
D
100
AcDbGroup
300

 70
     1
 71
     1
  0
GROUP
  5
AAB1
102
{ACAD_REACTORS
330
D
102
}
330
D
100
AcDbGroup
300

 70
     1
 71
     1
  0
GROUP
  5
228C2
102
{ACAD_REACTORS
330
D
102
}
330
D
100
AcDbGroup
300

 70
     1
 71
     1
  0
GROUP
  5
1152
102
{ACAD_REACTORS
330
D
102
}
330
D
100
AcDbGroup
300

 70
     1
 71
     1
  0
GROUP
  5
27084
102
{ACAD_REACTORS
330
D
102
}
330
D
100
AcDbGroup
300

 70
     1
 71
     1
  0
GROUP
  5
275F9
102
{ACAD_REACTORS
330
D
102
}
330
D
100
AcDbGroup
300

 70
     1
 71
     1
  0
GROUP
  5
27091
102
{ACAD_REACTORS
330
D
102
}
330
D
100
AcDbGroup
300

 70
     1
 71
     1
  0
GROUP
  5
1A425
102
{ACAD_REACTORS
330
D
102
}
330
D
100
AcDbGroup
300

 70
     1
 71
     1
  0
GROUP
  5
AAB0
102
{ACAD_REACTORS
330
D
102
}
330
D
100
AcDbGroup
300

 70
     1
 71
     1
  0
GROUP
  5
2536A
102
{ACAD_REACTORS
330
D
102
}
330
D
100
AcDbGroup
300

 70
     1
 71
     1
  0
GROUP
  5
2708F
102
{ACAD_REACTORS
330
D
102
}
330
D
100
AcDbGroup
300

 70
     1
 71
     1
  0
GROUP
  5
2B94C
102
{ACAD_REACTORS
330
D
102
}
330
D
100
AcDbGroup
300

 70
     1
 71
     1
  0
GROUP
  5
80D6
102
{ACAD_REACTORS
330
D
102
}
330
D
100
AcDbGroup
300

 70
     1
 71
     1
  0
GROUP
  5
4190
102
{ACAD_REACTORS
330
D
102
}
330
D
100
AcDbGroup
300

 70
     1
 71
     1
  0
GROUP
  5
27082
102
{ACAD_REACTORS
330
D
102
}
330
D
100
AcDbGroup
300

 70
     1
 71
     1
  0
GROUP
  5
8166
102
{ACAD_REACTORS
330
D
102
}
330
D
100
AcDbGroup
300

 70
     1
 71
     1
  0
GROUP
  5
243C0
102
{ACAD_REACTORS
330
D
102
}
330
D
100
AcDbGroup
300

 70
     1
 71
     1
  0
GROUP
  5
27067
102
{ACAD_REACTORS
330
D
102
}
330
D
100
AcDbGroup
300

 70
     1
 71
     1
  0
GROUP
  5
6565
102
{ACAD_REACTORS
330
D
102
}
330
D
100
AcDbGroup
300

 70
     1
 71
     1
  0
GROUP
  5
2844C
102
{ACAD_REACTORS
330
D
102
}
330
D
100
AcDbGroup
300

 70
     1
 71
     1
  0
GROUP
  5
12F2
102
{ACAD_REACTORS
330
D
102
}
330
D
100
AcDbGroup
300

 70
     1
 71
     1
  0
GROUP
  5
9C4A
102
{ACAD_REACTORS
330
D
102
}
330
D
100
AcDbGroup
300

 70
     1
 71
     1
  0
GROUP
  5
2B9CF
102
{ACAD_REACTORS
330
D
102
}
330
D
100
AcDbGroup
300

 70
     1
 71
     1
  0
GROUP
  5
A332
102
{ACAD_REACTORS
330
D
102
}
330
D
100
AcDbGroup
300

 70
     1
 71
     1
  0
GROUP
  5
27081
102
{ACAD_REACTORS
330
D
102
}
330
D
100
AcDbGroup
300

 70
     1
 71
     1
  0
GROUP
  5
8307
102
{ACAD_REACTORS
330
D
102
}
330
D
100
AcDbGroup
300

 70
     1
 71
     1
  0
GROUP
  5
1C7E3
102
{ACAD_REACTORS
330
D
102
}
330
D
100
AcDbGroup
300

 70
     1
 71
     1
  0
GROUP
  5
7074
102
{ACAD_REACTORS
330
D
102
}
330
D
100
AcDbGroup
300

 70
     1
 71
     1
  0
GROUP
  5
24695
102
{ACAD_REACTORS
330
D
102
}
330
D
100
AcDbGroup
300

 70
     1
 71
     1
  0
GROUP
  5
92CC
102
{ACAD_REACTORS
330
D
102
}
330
D
100
AcDbGroup
300

 70
     1
 71
     1
  0
GROUP
  5
19D1
102
{ACAD_REACTORS
330
D
102
}
330
D
100
AcDbGroup
300

 70
     1
 71
     1
  0
GROUP
  5
23A30
102
{ACAD_REACTORS
330
D
102
}
330
D
100
AcDbGroup
300

 70
     1
 71
     1
  0
GROUP
  5
B1F2
102
{ACAD_REACTORS
330
D
102
}
330
D
100
AcDbGroup
300

 70
     1
 71
     1
  0
GROUP
  5
9132
102
{ACAD_REACTORS
330
D
102
}
330
D
100
AcDbGroup
300

 70
     1
 71
     1
  0
GROUP
  5
8BED
102
{ACAD_REACTORS
330
D
102
}
330
D
100
AcDbGroup
300

 70
     1
 71
     1
  0
GROUP
  5
18F3
102
{ACAD_REACTORS
330
D
102
}
330
D
100
AcDbGroup
300

 70
     1
 71
     1
  0
GROUP
  5
1C33
102
{ACAD_REACTORS
330
D
102
}
330
D
100
AcDbGroup
300

 70
     1
 71
     1
  0
GROUP
  5
236FC
102
{ACAD_REACTORS
330
D
102
}
330
D
100
AcDbGroup
300

 70
     1
 71
     1
  0
GROUP
  5
92A6
102
{ACAD_REACTORS
330
D
102
}
330
D
100
AcDbGroup
300

 70
     1
 71
     1
  0
GROUP
  5
243BB
102
{ACAD_REACTORS
330
D
102
}
330
D
100
AcDbGroup
300

 70
     1
 71
     1
  0
GROUP
  5
25526
102
{ACAD_REACTORS
330
D
102
}
330
D
100
AcDbGroup
300

 70
     1
 71
     1
  0
GROUP
  5
920F
102
{ACAD_REACTORS
330
D
102
}
330
D
100
AcDbGroup
300

 70
     1
 71
     1
  0
GROUP
  5
1A85
102
{ACAD_REACTORS
330
D
102
}
330
D
100
AcDbGroup
300

 70
     1
 71
     1
  0
GROUP
  5
2749A
102
{ACAD_REACTORS
330
D
102
}
330
D
100
AcDbGroup
300

 70
     1
 71
     1
  0
GROUP
  5
25925
102
{ACAD_REACTORS
330
D
102
}
330
D
100
AcDbGroup
300

 70
     1
 71
     1
  0
GROUP
  5
274E7
102
{ACAD_REACTORS
330
D
102
}
330
D
100
AcDbGroup
300

 70
     1
 71
     1
  0
GROUP
  5
3102
102
{ACAD_REACTORS
330
D
102
}
330
D
100
AcDbGroup
300

 70
     1
 71
     1
  0
GROUP
  5
25F45
102
{ACAD_REACTORS
330
D
102
}
330
D
100
AcDbGroup
300

 70
     1
 71
     1
  0
GROUP
  5
24D5B
102
{ACAD_REACTORS
330
D
102
}
330
D
100
AcDbGroup
300

 70
     1
 71
     1
  0
GROUP
  5
22E84
102
{ACAD_REACTORS
330
D
102
}
330
D
100
AcDbGroup
300

 70
     1
 71
     1
  0
GROUP
  5
16BB
102
{ACAD_REACTORS
330
D
102
}
330
D
100
AcDbGroup
300

 70
     1
 71
     1
  0
GROUP
  5
242E3
102
{ACAD_REACTORS
330
D
102
}
330
D
100
AcDbGroup
300

 70
     1
 71
     1
  0
GROUP
  5
2536B
102
{ACAD_REACTORS
330
D
102
}
330
D
100
AcDbGroup
300

 70
     1
 71
     1
  0
GROUP
  5
27077
102
{ACAD_REACTORS
330
D
102
}
330
D
100
AcDbGroup
300

 70
     1
 71
     1
  0
GROUP
  5
2707C
102
{ACAD_REACTORS
330
D
102
}
330
D
100
AcDbGroup
300

 70
     1
 71
     1
  0
GROUP
  5
2B0D9
102
{ACAD_REACTORS
330
D
102
}
330
D
100
AcDbGroup
300

 70
     1
 71
     1
  0
GROUP
  5
2B9DA
102
{ACAD_REACTORS
330
D
102
}
330
D
100
AcDbGroup
300

 70
     1
 71
     1
  0
GROUP
  5
1C64C
102
{ACAD_REACTORS
330
D
102
}
330
D
100
AcDbGroup
300

 70
     1
 71
     1
  0
GROUP
  5
24692
102
{ACAD_REACTORS
330
D
102
}
330
D
100
AcDbGroup
300

 70
     1
 71
     1
  0
GROUP
  5
99B0
102
{ACAD_REACTORS
330
D
102
}
330
D
100
AcDbGroup
300

 70
     1
 71
     1
  0
GROUP
  5
2707E
102
{ACAD_REACTORS
330
D
102
}
330
D
100
AcDbGroup
300

 70
     1
 71
     1
  0
GROUP
  5
280D2
102
{ACAD_REACTORS
330
D
102
}
330
D
100
AcDbGroup
300

 70
     1
 71
     1
  0
GROUP
  5
8BB5
102
{ACAD_REACTORS
330
D
102
}
330
D
100
AcDbGroup
300

 70
     1
 71
     1
  0
GROUP
  5
1A46C
102
{ACAD_REACTORS
330
D
102
}
330
D
100
AcDbGroup
300

 70
     1
 71
     1
  0
GROUP
  5
63E1
102
{ACAD_REACTORS
330
D
102
}
330
D
100
AcDbGroup
300

 70
     1
 71
     1
  0
GROUP
  5
243BC
102
{ACAD_REACTORS
330
D
102
}
330
D
100
AcDbGroup
300

 70
     1
 71
     1
  0
GROUP
  5
23E8E
102
{ACAD_REACTORS
330
D
102
}
330
D
100
AcDbGroup
300

 70
     1
 71
     1
  0
GROUP
  5
2B9DB
102
{ACAD_REACTORS
330
D
102
}
330
D
100
AcDbGroup
300

 70
     1
 71
     1
  0
GROUP
  5
2707F
102
{ACAD_REACTORS
330
D
102
}
330
D
100
AcDbGroup
300

 70
     1
 71
     1
  0
GROUP
  5
D4D4
102
{ACAD_REACTORS
330
D
102
}
330
D
100
AcDbGroup
300

 70
     1
 71
     1
  0
GROUP
  5
2349A
102
{ACAD_REACTORS
330
D
102
}
330
D
100
AcDbGroup
300

 70
     1
 71
     1
  0
GROUP
  5
24879
102
{ACAD_REACTORS
330
D
102
}
330
D
100
AcDbGroup
300

 70
     1
 71
     1
  0
GROUP
  5
CB94
102
{ACAD_REACTORS
330
D
102
}
330
D
100
AcDbGroup
300

 70
     1
 71
     1
  0
GROUP
  5
80D7
102
{ACAD_REACTORS
330
D
102
}
330
D
100
AcDbGroup
300

 70
     1
 71
     1
  0
GROUP
  5
22B17
102
{ACAD_REACTORS
330
D
102
}
330
D
100
AcDbGroup
300

 70
     1
 71
     1
  0
GROUP
  5
25929
102
{ACAD_REACTORS
330
D
102
}
330
D
100
AcDbGroup
300

 70
     1
 71
     1
  0
GROUP
  5
22DB0
102
{ACAD_REACTORS
330
D
102
}
330
D
100
AcDbGroup
300

 70
     1
 71
     1
  0
GROUP
  5
117E
102
{ACAD_REACTORS
330
D
102
}
330
D
100
AcDbGroup
300

 70
     1
 71
     1
  0
GROUP
  5
242E0
102
{ACAD_REACTORS
330
D
102
}
330
D
100
AcDbGroup
300

 70
     1
 71
     1
  0
GROUP
  5
D8D7
102
{ACAD_REACTORS
330
D
102
}
330
D
100
AcDbGroup
300

 70
     1
 71
     1
  0
GROUP
  5
283F3
102
{ACAD_REACTORS
330
D
102
}
330
D
100
AcDbGroup
300

 70
     1
 71
     1
  0
GROUP
  5
27080
102
{ACAD_REACTORS
330
D
102
}
330
D
100
AcDbGroup
300

 70
     1
 71
     1
  0
GROUP
  5
25B45
102
{ACAD_REACTORS
330
D
102
}
330
D
100
AcDbGroup
300

 70
     1
 71
     1
  0
GROUP
  5
243BE
102
{ACAD_REACTORS
330
D
102
}
330
D
100
AcDbGroup
300

 70
     1
 71
     1
  0
GROUP
  5
24B2B
102
{ACAD_REACTORS
330
D
102
}
330
D
100
AcDbGroup
300

 70
     1
 71
     1
  0
GROUP
  5
27CF1
102
{ACAD_REACTORS
330
D
102
}
330
D
100
AcDbGroup
300

 70
     1
 71
     1
  0
GROUP
  5
1C0D
102
{ACAD_REACTORS
330
D
102
}
330
D
100
AcDbGroup
300

 70
     1
 71
     1
  0
GROUP
  5
AAAE
102
{ACAD_REACTORS
330
D
102
}
330
D
100
AcDbGroup
300

 70
     1
 71
     1
  0
GROUP
  5
37C8
102
{ACAD_REACTORS
330
D
102
}
330
D
100
AcDbGroup
300

 70
     1
 71
     1
  0
GROUP
  5
27090
102
{ACAD_REACTORS
330
D
102
}
330
D
100
AcDbGroup
300

 70
     1
 71
     1
  0
GROUP
  5
8BB3
102
{ACAD_REACTORS
330
D
102
}
330
D
100
AcDbGroup
300

 70
     1
 71
     1
  0
GROUP
  5
2239C
102
{ACAD_REACTORS
330
D
102
}
330
D
100
AcDbGroup
300

 70
     1
 71
     1
  0
GROUP
  5
27071
102
{ACAD_REACTORS
330
D
102
}
330
D
100
AcDbGroup
300

 70
     1
 71
     1
  0
GROUP
  5
B948
102
{ACAD_REACTORS
330
D
102
}
330
D
100
AcDbGroup
300

 70
     1
 71
     1
  0
GROUP
  5
25F86
102
{ACAD_REACTORS
330
D
102
}
330
D
100
AcDbGroup
300

 70
     1
 71
     1
  0
GROUP
  5
286BA
102
{ACAD_REACTORS
330
D
102
}
330
D
100
AcDbGroup
300

 70
     1
 71
     1
  0
GROUP
  5
6962
102
{ACAD_REACTORS
330
D
102
}
330
D
100
AcDbGroup
300

 70
     1
 71
     1
  0
GROUP
  5
349E
102
{ACAD_REACTORS
330
D
102
}
330
D
100
AcDbGroup
300

 70
     1
 71
     1
  0
GROUP
  5
A986
102
{ACAD_REACTORS
330
D
102
}
330
D
100
AcDbGroup
300

 70
     1
 71
     1
  0
GROUP
  5
6C31
102
{ACAD_REACTORS
330
D
102
}
330
D
100
AcDbGroup
300

 70
     1
 71
     1
  0
GROUP
  5
24F58
102
{ACAD_REACTORS
330
D
102
}
330
D
100
AcDbGroup
300

 70
     1
 71
     1
  0
GROUP
  5
917A
102
{ACAD_REACTORS
330
D
102
}
330
D
100
AcDbGroup
300

 70
     1
 71
     1
  0
GROUP
  5
24F5A
102
{ACAD_REACTORS
330
D
102
}
330
D
100
AcDbGroup
300

 70
     1
 71
     1
  0
GROUP
  5
22E6E
102
{ACAD_REACTORS
330
D
102
}
330
D
100
AcDbGroup
300

 70
     1
 71
     1
  0
GROUP
  5
23337
102
{ACAD_REACTORS
330
D
102
}
330
D
100
AcDbGroup
300

 70
     1
 71
     1
  0
GROUP
  5
228C3
102
{ACAD_REACTORS
330
D
102
}
330
D
100
AcDbGroup
300

 70
     1
 71
     1
  0
GROUP
  5
228C6
102
{ACAD_REACTORS
330
D
102
}
330
D
100
AcDbGroup
300

 70
     1
 71
     1
  0
GROUP
  5
6CF7
102
{ACAD_REACTORS
330
D
102
}
330
D
100
AcDbGroup
300

 70
     1
 71
     1
  0
GROUP
  5
B949
102
{ACAD_REACTORS
330
D
102
}
330
D
100
AcDbGroup
300

 70
     1
 71
     1
  0
GROUP
  5
45D7
102
{ACAD_REACTORS
330
D
102
}
330
D
100
AcDbGroup
300

 70
     1
 71
     1
  0
GROUP
  5
24A7C
102
{ACAD_REACTORS
330
D
102
}
330
D
100
AcDbGroup
300

 70
     1
 71
     1
  0
GROUP
  5
27078
102
{ACAD_REACTORS
330
D
102
}
330
D
100
AcDbGroup
300

 70
     1
 71
     1
  0
GROUP
  5
243BD
102
{ACAD_REACTORS
330
D
102
}
330
D
100
AcDbGroup
300

 70
     1
 71
     1
  0
GROUP
  5
6623
102
{ACAD_REACTORS
330
D
102
}
330
D
100
AcDbGroup
300

 70
     1
 71
     1
  0
GROUP
  5
27066
102
{ACAD_REACTORS
330
D
102
}
330
D
100
AcDbGroup
300

 70
     1
 71
     1
  0
GROUP
  5
2784F
102
{ACAD_REACTORS
330
D
102
}
330
D
100
AcDbGroup
300

 70
     1
 71
     1
  0
GROUP
  5
2449E
102
{ACAD_REACTORS
330
D
102
}
330
D
100
AcDbGroup
300

 70
     1
 71
     1
  0
GROUP
  5
280E0
102
{ACAD_REACTORS
330
D
102
}
330
D
100
AcDbGroup
300

 70
     1
 71
     1
  0
GROUP
  5
B974
102
{ACAD_REACTORS
330
D
102
}
330
D
100
AcDbGroup
300

 70
     1
 71
     1
  0
GROUP
  5
A2EC
102
{ACAD_REACTORS
330
D
102
}
330
D
100
AcDbGroup
300

 70
     1
 71
     1
  0
GROUP
  5
BA57
102
{ACAD_REACTORS
330
D
102
}
330
D
100
AcDbGroup
300

 70
     1
 71
     1
  0
GROUP
  5
28417
102
{ACAD_REACTORS
330
D
102
}
330
D
100
AcDbGroup
300

 70
     1
 71
     1
  0
GROUP
  5
1D705
102
{ACAD_REACTORS
330
D
102
}
330
D
100
AcDbGroup
300

 70
     1
 71
     1
  0
GROUP
  5
25920
102
{ACAD_REACTORS
330
D
102
}
330
D
100
AcDbGroup
300

 70
     1
 71
     1
  0
GROUP
  5
8122
102
{ACAD_REACTORS
330
D
102
}
330
D
100
AcDbGroup
300

 70
     1
 71
     1
  0
GROUP
  5
34DC
102
{ACAD_REACTORS
330
D
102
}
330
D
100
AcDbGroup
300

 70
     1
 71
     1
  0
GROUP
  5
6FB1
102
{ACAD_REACTORS
330
D
102
}
330
D
100
AcDbGroup
300

 70
     1
 71
     1
  0
GROUP
  5
1208
102
{ACAD_REACTORS
330
D
102
}
330
D
100
AcDbGroup
300

 70
     1
 71
     1
  0
GROUP
  5
4199
102
{ACAD_REACTORS
330
D
102
}
330
D
100
AcDbGroup
300

 70
     1
 71
     1
  0
GROUP
  5
6C2E
102
{ACAD_REACTORS
330
D
102
}
330
D
100
AcDbGroup
300

 70
     1
 71
     1
  0
GROUP
  5
1A89
102
{ACAD_REACTORS
330
D
102
}
330
D
100
AcDbGroup
300

 70
     1
 71
     1
  0
GROUP
  5
230AB
102
{ACAD_REACTORS
330
D
102
}
330
D
100
AcDbGroup
300

 70
     1
 71
     1
  0
GROUP
  5
2536C
102
{ACAD_REACTORS
330
D
102
}
330
D
100
AcDbGroup
300

 70
     1
 71
     1
  0
GROUP
  5
2C14A
102
{ACAD_REACTORS
330
D
102
}
330
D
100
AcDbGroup
300

 70
     1
 71
     1
  0
GROUP
  5
A107
102
{ACAD_REACTORS
330
D
102
}
330
D
100
AcDbGroup
300

 70
     1
 71
     1
  0
GROUP
  5
1101D
102
{ACAD_REACTORS
330
D
102
}
330
D
100
AcDbGroup
300

 70
     1
 71
     1
  0
GROUP
  5
23E94
102
{ACAD_REACTORS
330
D
102
}
330
D
100
AcDbGroup
300

 70
     1
 71
     1
  0
GROUP
  5
6569
102
{ACAD_REACTORS
330
D
102
}
330
D
100
AcDbGroup
300

 70
     1
 71
     1
  0
GROUP
  5
26067
102
{ACAD_REACTORS
330
D
102
}
330
D
100
AcDbGroup
300

 70
     1
 71
     1
  0
GROUP
  5
25F47
102
{ACAD_REACTORS
330
D
102
}
330
D
100
AcDbGroup
300

 70
     1
 71
     1
  0
GROUP
  5
282DD
102
{ACAD_REACTORS
330
D
102
}
330
D
100
AcDbGroup
300

 70
     1
 71
     1
  0
GROUP
  5
2449A
102
{ACAD_REACTORS
330
D
102
}
330
D
100
AcDbGroup
300

 70
     1
 71
     1
  0
GROUP
  5
4501
102
{ACAD_REACTORS
330
D
102
}
330
D
100
AcDbGroup
300

 70
     1
 71
     1
  0
GROUP
  5
63BF
102
{ACAD_REACTORS
330
D
102
}
330
D
100
AcDbGroup
300

 70
     1
 71
     1
  0
GROUP
  5
A2ED
102
{ACAD_REACTORS
330
D
102
}
330
D
100
AcDbGroup
300

 70
     1
 71
     1
  0
GROUP
  5
8124
102
{ACAD_REACTORS
330
D
102
}
330
D
100
AcDbGroup
300

 70
     1
 71
     1
  0
GROUP
  5
27069
102
{ACAD_REACTORS
330
D
102
}
330
D
100
AcDbGroup
300

 70
     1
 71
     1
  0
GROUP
  5
117F
102
{ACAD_REACTORS
330
D
102
}
330
D
100
AcDbGroup
300

 70
     1
 71
     1
  0
GROUP
  5
190B
102
{ACAD_REACTORS
330
D
102
}
330
D
100
AcDbGroup
300

 70
     1
 71
     1
  0
GROUP
  5
22B12
102
{ACAD_REACTORS
330
D
102
}
330
D
100
AcDbGroup
300

 70
     1
 71
     1
  0
GROUP
  5
25F3E
102
{ACAD_REACTORS
330
D
102
}
330
D
100
AcDbGroup
300

 70
     1
 71
     1
  0
GROUP
  5
639D
102
{ACAD_REACTORS
330
D
102
}
330
D
100
AcDbGroup
300

 70
     1
 71
     1
  0
GROUP
  5
27062
102
{ACAD_REACTORS
330
D
102
}
330
D
100
AcDbGroup
300

 70
     1
 71
     1
  0
GROUP
  5
22DAA
102
{ACAD_REACTORS
330
D
102
}
330
D
100
AcDbGroup
300

 70
     1
 71
     1
  0
GROUP
  5
AA61
102
{ACAD_REACTORS
330
D
102
}
330
D
100
AcDbGroup
300

 70
     1
 71
     1
  0
GROUP
  5
272ED
102
{ACAD_REACTORS
330
D
102
}
330
D
100
AcDbGroup
300

 70
     1
 71
     1
  0
GROUP
  5
28405
102
{ACAD_REACTORS
330
D
102
}
330
D
100
AcDbGroup
300

 70
     1
 71
     1
  0
GROUP
  5
26131
102
{ACAD_REACTORS
330
D
102
}
330
D
100
AcDbGroup
300

 70
     1
 71
     1
  0
GROUP
  5
25F43
102
{ACAD_REACTORS
330
D
102
}
330
D
100
AcDbGroup
300

 70
     1
 71
     1
  0
GROUP
  5
A336
102
{ACAD_REACTORS
330
D
102
}
330
D
100
AcDbGroup
300

 70
     1
 71
     1
  0
GROUP
  5
2292D
102
{ACAD_REACTORS
330
D
102
}
330
D
100
AcDbGroup
300

 70
     1
 71
     1
  0
GROUP
  5
B946
102
{ACAD_REACTORS
330
D
102
}
330
D
100
AcDbGroup
300

 70
     1
 71
     1
  0
GROUP
  5
22C22
102
{ACAD_REACTORS
330
D
102
}
330
D
100
AcDbGroup
300

 70
     1
 71
     1
  0
GROUP
  5
16DA
102
{ACAD_REACTORS
330
D
102
}
330
D
100
AcDbGroup
300

 70
     1
 71
     1
  0
GROUP
  5
7FF3
102
{ACAD_REACTORS
330
D
102
}
330
D
100
AcDbGroup
300

 70
     1
 71
     1
  0
GROUP
  5
3442
102
{ACAD_REACTORS
330
D
102
}
330
D
100
AcDbGroup
300

 70
     1
 71
     1
  0
GROUP
  5
A4F1
102
{ACAD_REACTORS
330
D
102
}
330
D
100
AcDbGroup
300

 70
     1
 71
     1
  0
GROUP
  5
26210
102
{ACAD_REACTORS
330
D
102
}
330
D
100
AcDbGroup
300

 70
     1
 71
     1
  0
GROUP
  5
25923
102
{ACAD_REACTORS
330
D
102
}
330
D
100
AcDbGroup
300

 70
     1
 71
     1
  0
GROUP
  5
2592A
102
{ACAD_REACTORS
330
D
102
}
330
D
100
AcDbGroup
300

 70
     1
 71
     1
  0
GROUP
  5
2706B
102
{ACAD_REACTORS
330
D
102
}
330
D
100
AcDbGroup
300

 70
     1
 71
     1
  0
GROUP
  5
23E90
102
{ACAD_REACTORS
330
D
102
}
330
D
100
AcDbGroup
300

 70
     1
 71
     1
  0
GROUP
  5
24878
102
{ACAD_REACTORS
330
D
102
}
330
D
100
AcDbGroup
300

 70
     1
 71
     1
  0
GROUP
  5
2E19
102
{ACAD_REACTORS
330
D
102
}
330
D
100
AcDbGroup
300

 70
     1
 71
     1
  0
GROUP
  5
282DC
102
{ACAD_REACTORS
330
D
102
}
330
D
100
AcDbGroup
300

 70
     1
 71
     1
  0
GROUP
  5
A4F2
102
{ACAD_REACTORS
330
D
102
}
330
D
100
AcDbGroup
300

 70
     1
 71
     1
  0
GROUP
  5
25373
102
{ACAD_REACTORS
330
D
102
}
330
D
100
AcDbGroup
300

 70
     1
 71
     1
  0
GROUP
  5
282DE
102
{ACAD_REACTORS
330
D
102
}
330
D
100
AcDbGroup
300

 70
     1
 71
     1
  0
GROUP
  5
25B44
102
{ACAD_REACTORS
330
D
102
}
330
D
100
AcDbGroup
300

 70
     1
 71
     1
  0
GROUP
  5
25369
102
{ACAD_REACTORS
330
D
102
}
330
D
100
AcDbGroup
300

 70
     1
 71
     1
  0
GROUP
  5
22DB1
102
{ACAD_REACTORS
330
D
102
}
330
D
100
AcDbGroup
300

 70
     1
 71
     1
  0
GROUP
  5
25370
102
{ACAD_REACTORS
330
D
102
}
330
D
100
AcDbGroup
300

 70
     1
 71
     1
  0
GROUP
  5
283A7
102
{ACAD_REACTORS
330
D
102
}
330
D
100
AcDbGroup
300

 70
     1
 71
     1
  0
GROUP
  5
D5EB
102
{ACAD_REACTORS
330
D
102
}
330
D
100
AcDbGroup
300

 70
     1
 71
     1
  0
GROUP
  5
9935
102
{ACAD_REACTORS
330
D
102
}
330
D
100
AcDbGroup
300

 70
     1
 71
     1
  0
GROUP
  5
7FF8
102
{ACAD_REACTORS
330
D
102
}
330
D
100
AcDbGroup
300

 70
     1
 71
     1
  0
GROUP
  5
25446
102
{ACAD_REACTORS
330
D
102
}
330
D
100
AcDbGroup
300

 70
     1
 71
     1
  0
GROUP
  5
A591
102
{ACAD_REACTORS
330
D
102
}
330
D
100
AcDbGroup
300

 70
     1
 71
     1
  0
GROUP
  5
920E
102
{ACAD_REACTORS
330
D
102
}
330
D
100
AcDbGroup
300

 70
     1
 71
     1
  0
GROUP
  5
28559
102
{ACAD_REACTORS
330
D
102
}
330
D
100
AcDbGroup
300

 70
     1
 71
     1
  0
GROUP
  5
C7BB
102
{ACAD_REACTORS
330
D
102
}
330
D
100
AcDbGroup
300

 70
     1
 71
     1
  0
GROUP
  5
6C9C
102
{ACAD_REACTORS
330
D
102
}
330
D
100
AcDbGroup
300

 70
     1
 71
     1
  0
GROUP
  5
C69D
102
{ACAD_REACTORS
330
D
102
}
330
D
100
AcDbGroup
300

 70
     1
 71
     1
  0
GROUP
  5
2708C
102
{ACAD_REACTORS
330
D
102
}
330
D
100
AcDbGroup
300

 70
     1
 71
     1
  0
GROUP
  5
27061
102
{ACAD_REACTORS
330
D
102
}
330
D
100
AcDbGroup
300

 70
     1
 71
     1
  0
GROUP
  5
24A66
102
{ACAD_REACTORS
330
D
102
}
330
D
100
AcDbGroup
300

 70
     1
 71
     1
  0
GROUP
  5
22DAC
102
{ACAD_REACTORS
330
D
102
}
330
D
100
AcDbGroup
300

 70
     1
 71
     1
  0
GROUP
  5
245B8
102
{ACAD_REACTORS
330
D
102
}
330
D
100
AcDbGroup
300

 70
     1
 71
     1
  0
GROUP
  5
22DAB
102
{ACAD_REACTORS
330
D
102
}
330
D
100
AcDbGroup
300

 70
     1
 71
     1
  0
GROUP
  5
236FD
102
{ACAD_REACTORS
330
D
102
}
330
D
100
AcDbGroup
300

 70
     1
 71
     1
  0
GROUP
  5
239C6
102
{ACAD_REACTORS
330
D
102
}
330
D
100
AcDbGroup
300

 70
     1
 71
     1
  0
GROUP
  5
2845F
102
{ACAD_REACTORS
330
D
102
}
330
D
100
AcDbGroup
300

 70
     1
 71
     1
  0
GROUP
  5
1A689
102
{ACAD_REACTORS
330
D
102
}
330
D
100
AcDbGroup
300

 70
     1
 71
     1
  0
GROUP
  5
2785C
102
{ACAD_REACTORS
330
D
102
}
330
D
100
AcDbGroup
300

 70
     1
 71
     1
  0
GROUP
  5
830B
102
{ACAD_REACTORS
330
D
102
}
330
D
100
AcDbGroup
300

 70
     1
 71
     1
  0
GROUP
  5
C1E4
102
{ACAD_REACTORS
330
D
102
}
330
D
100
AcDbGroup
300

 70
     1
 71
     1
  0
GROUP
  5
7FF4
102
{ACAD_REACTORS
330
D
102
}
330
D
100
AcDbGroup
300

 70
     1
 71
     1
  0
GROUP
  5
2708A
102
{ACAD_REACTORS
330
D
102
}
330
D
100
AcDbGroup
300

 70
     1
 71
     1
  0
GROUP
  5
36C8
102
{ACAD_REACTORS
330
D
102
}
330
D
100
AcDbGroup
300

 70
     1
 71
     1
  0
GROUP
  5
BB10
102
{ACAD_REACTORS
330
D
102
}
330
D
100
AcDbGroup
300

 70
     1
 71
     1
  0
GROUP
  5
23A96
102
{ACAD_REACTORS
330
D
102
}
330
D
100
AcDbGroup
300

 70
     1
 71
     1
  0
GROUP
  5
6AB6
102
{ACAD_REACTORS
330
D
102
}
330
D
100
AcDbGroup
300

 70
     1
 71
     1
  0
GROUP
  5
1A15
102
{ACAD_REACTORS
330
D
102
}
330
D
100
AcDbGroup
300

 70
     1
 71
     1
  0
GROUP
  5
9C8F
102
{ACAD_REACTORS
330
D
102
}
330
D
100
AcDbGroup
300

 70
     1
 71
     1
  0
GROUP
  5
920D
102
{ACAD_REACTORS
330
D
102
}
330
D
100
AcDbGroup
300

 70
     1
 71
     1
  0
GROUP
  5
D724
102
{ACAD_REACTORS
330
D
102
}
330
D
100
AcDbGroup
300

 70
     1
 71
     1
  0
GROUP
  5
B94B
102
{ACAD_REACTORS
330
D
102
}
330
D
100
AcDbGroup
300

 70
     1
 71
     1
  0
GROUP
  5
23338
102
{ACAD_REACTORS
330
D
102
}
330
D
100
AcDbGroup
300

 70
     1
 71
     1
  0
GROUP
  5
229C2
102
{ACAD_REACTORS
330
D
102
}
330
D
100
AcDbGroup
300

 70
     1
 71
     1
  0
GROUP
  5
DCA
102
{ACAD_REACTORS
330
D
102
}
330
D
100
AcDbGroup
300

 70
     1
 71
     1
  0
GROUP
  5
2487C
102
{ACAD_REACTORS
330
D
102
}
330
D
100
AcDbGroup
300

 70
     1
 71
     1
  0
GROUP
  5
25926
102
{ACAD_REACTORS
330
D
102
}
330
D
100
AcDbGroup
300

 70
     1
 71
     1
  0
GROUP
  5
C538
102
{ACAD_REACTORS
330
D
102
}
330
D
100
AcDbGroup
300

 70
     1
 71
     1
  0
GROUP
  5
2705F
102
{ACAD_REACTORS
330
D
102
}
330
D
100
AcDbGroup
300

 70
     1
 71
     1
  0
GROUP
  5
B94A
102
{ACAD_REACTORS
330
D
102
}
330
D
100
AcDbGroup
300

 70
     1
 71
     1
  0
GROUP
  5
26068
102
{ACAD_REACTORS
330
D
102
}
330
D
100
AcDbGroup
300

 70
     1
 71
     1
  0
GROUP
  5
6FA2
102
{ACAD_REACTORS
330
D
102
}
330
D
100
AcDbGroup
300

 70
     1
 71
     1
  0
GROUP
  5
1A688
102
{ACAD_REACTORS
330
D
102
}
330
D
100
AcDbGroup
300

 70
     1
 71
     1
  0
GROUP
  5
2487A
102
{ACAD_REACTORS
330
D
102
}
330
D
100
AcDbGroup
300

 70
     1
 71
     1
  0
GROUP
  5
25F48
102
{ACAD_REACTORS
330
D
102
}
330
D
100
AcDbGroup
300

 70
     1
 71
     1
  0
GROUP
  5
8123
102
{ACAD_REACTORS
330
D
102
}
330
D
100
AcDbGroup
300

 70
     1
 71
     1
  0
GROUP
  5
28681
102
{ACAD_REACTORS
330
D
102
}
330
D
100
AcDbGroup
300

 70
     1
 71
     1
  0
GROUP
  5
91C4
102
{ACAD_REACTORS
330
D
102
}
330
D
100
AcDbGroup
300

 70
     1
 71
     1
  0
GROUP
  5
21E25
102
{ACAD_REACTORS
330
D
102
}
330
D
100
AcDbGroup
300

 70
     1
 71
     1
  0
GROUP
  5
939D
102
{ACAD_REACTORS
330
D
102
}
330
D
100
AcDbGroup
300

 70
     1
 71
     1
  0
GROUP
  5
A53F
102
{ACAD_REACTORS
330
D
102
}
330
D
100
AcDbGroup
300

 70
     1
 71
     1
  0
GROUP
  5
3101
102
{ACAD_REACTORS
330
D
102
}
330
D
100
AcDbGroup
300

 70
     1
 71
     1
  0
GROUP
  5
27065
102
{ACAD_REACTORS
330
D
102
}
330
D
100
AcDbGroup
300

 70
     1
 71
     1
  0
GROUP
  5
24955
102
{ACAD_REACTORS
330
D
102
}
330
D
100
AcDbGroup
300

 70
     1
 71
     1
  0
GROUP
  5
24D60
102
{ACAD_REACTORS
330
D
102
}
330
D
100
AcDbGroup
300

 70
     1
 71
     1
  0
GROUP
  5
6CCC
102
{ACAD_REACTORS
330
D
102
}
330
D
100
AcDbGroup
300

 70
     1
 71
     1
  0
GROUP
  5
A56C
102
{ACAD_REACTORS
330
D
102
}
330
D
100
AcDbGroup
300

 70
     1
 71
     1
  0
GROUP
  5
2844D
102
{ACAD_REACTORS
330
D
102
}
330
D
100
AcDbGroup
300

 70
     1
 71
     1
  0
GROUP
  5
2495B
102
{ACAD_REACTORS
330
D
102
}
330
D
100
AcDbGroup
300

 70
     1
 71
     1
  0
GROUP
  5
10CEC
102
{ACAD_REACTORS
330
D
102
}
330
D
100
AcDbGroup
300

 70
     1
 71
     1
  0
GROUP
  5
8CD1
102
{ACAD_REACTORS
330
D
102
}
330
D
100
AcDbGroup
300

 70
     1
 71
     1
  0
GROUP
  5
2708E
102
{ACAD_REACTORS
330
D
102
}
330
D
100
AcDbGroup
300

 70
     1
 71
     1
  0
GROUP
  5
2495C
102
{ACAD_REACTORS
330
D
102
}
330
D
100
AcDbGroup
300

 70
     1
 71
     1
  0
GROUP
  5
2536D
102
{ACAD_REACTORS
330
D
102
}
330
D
100
AcDbGroup
300

 70
     1
 71
     1
  0
GROUP
  5
CCA0
102
{ACAD_REACTORS
330
D
102
}
330
D
100
AcDbGroup
300

 70
     1
 71
     1
  0
GROUP
  5
BF05
102
{ACAD_REACTORS
330
D
102
}
330
D
100
AcDbGroup
300

 70
     1
 71
     1
  0
GROUP
  5
A4F0
102
{ACAD_REACTORS
330
D
102
}
330
D
100
AcDbGroup
300

 70
     1
 71
     1
  0
GROUP
  5
1D708
102
{ACAD_REACTORS
330
D
102
}
330
D
100
AcDbGroup
300

 70
     1
 71
     1
  0
GROUP
  5
2591F
102
{ACAD_REACTORS
330
D
102
}
330
D
100
AcDbGroup
300

 70
     1
 71
     1
  0
GROUP
  5
1A5A
102
{ACAD_REACTORS
330
D
102
}
330
D
100
AcDbGroup
300

 70
     1
 71
     1
  0
GROUP
  5
2487B
102
{ACAD_REACTORS
330
D
102
}
330
D
100
AcDbGroup
300

 70
     1
 71
     1
  0
GROUP
  5
27197
102
{ACAD_REACTORS
330
D
102
}
330
D
100
AcDbGroup
300

 70
     1
 71
     1
  0
GROUP
  5
93C4
102
{ACAD_REACTORS
330
D
102
}
330
D
100
AcDbGroup
300

 70
     1
 71
     1
  0
GROUP
  5
CC5E
102
{ACAD_REACTORS
330
D
102
}
330
D
100
AcDbGroup
300

 70
     1
 71
     1
  0
GROUP
  5
A2F5
102
{ACAD_REACTORS
330
D
102
}
330
D
100
AcDbGroup
300

 70
     1
 71
     1
  0
GROUP
  5
2487D
102
{ACAD_REACTORS
330
D
102
}
330
D
100
AcDbGroup
300

 70
     1
 71
     1
  0
GROUP
  5
242E1
102
{ACAD_REACTORS
330
D
102
}
330
D
100
AcDbGroup
300

 70
     1
 71
     1
  0
GROUP
  5
27095
102
{ACAD_REACTORS
330
D
102
}
330
D
100
AcDbGroup
300

 70
     1
 71
     1
  0
GROUP
  5
BB55
102
{ACAD_REACTORS
330
D
102
}
330
D
100
AcDbGroup
300

 70
     1
 71
     1
  0
GROUP
  5
AFF4
102
{ACAD_REACTORS
330
D
102
}
330
D
100
AcDbGroup
300

 70
     1
 71
     1
  0
GROUP
  5
B947
102
{ACAD_REACTORS
330
D
102
}
330
D
100
AcDbGroup
300

 70
     1
 71
     1
  0
GROUP
  5
25368
102
{ACAD_REACTORS
330
D
102
}
330
D
100
AcDbGroup
300

 70
     1
 71
     1
  0
GROUP
  5
27094
102
{ACAD_REACTORS
330
D
102
}
330
D
100
AcDbGroup
300

 70
     1
 71
     1
  0
GROUP
  5
28692
102
{ACAD_REACTORS
330
D
102
}
330
D
100
AcDbGroup
300

 70
     1
 71
     1
  0
GROUP
  5
22BE6
102
{ACAD_REACTORS
330
D
102
}
330
D
100
AcDbGroup
300

 70
     1
 71
     1
  0
GROUP
  5
25924
102
{ACAD_REACTORS
330
D
102
}
330
D
100
AcDbGroup
300

 70
     1
 71
     1
  0
GROUP
  5
12D2
102
{ACAD_REACTORS
330
D
102
}
330
D
100
AcDbGroup
300

 70
     1
 71
     1
  0
GROUP
  5
25367
102
{ACAD_REACTORS
330
D
102
}
330
D
100
AcDbGroup
300

 70
     1
 71
     1
  0
GROUP
  5
BFA8
102
{ACAD_REACTORS
330
D
102
}
330
D
100
AcDbGroup
300

 70
     1
 71
     1
  0
GROUP
  5
231F2
102
{ACAD_REACTORS
330
D
102
}
330
D
100
AcDbGroup
300

 70
     1
 71
     1
  0
GROUP
  5
A966
102
{ACAD_REACTORS
330
D
102
}
330
D
100
AcDbGroup
300

 70
     1
 71
     1
  0
GROUP
  5
AA9F
102
{ACAD_REACTORS
330
D
102
}
330
D
100
AcDbGroup
300

 70
     1
 71
     1
  0
GROUP
  5
27516
102
{ACAD_REACTORS
330
D
102
}
330
D
100
AcDbGroup
300

 70
     1
 71
     1
  0
GROUP
  5
22DAE
102
{ACAD_REACTORS
330
D
102
}
330
D
100
AcDbGroup
300

 70
     1
 71
     1
  0
GROUP
  5
2265B
102
{ACAD_REACTORS
330
D
102
}
330
D
100
AcDbGroup
300

 70
     1
 71
     1
  0
GROUP
  5
6C2B
102
{ACAD_REACTORS
330
D
102
}
330
D
100
AcDbGroup
300

 70
     1
 71
     1
  0
GROUP
  5
695F
102
{ACAD_REACTORS
330
D
102
}
330
D
100
AcDbGroup
300

 70
     1
 71
     1
  0
GROUP
  5
25B47
102
{ACAD_REACTORS
330
D
102
}
330
D
100
AcDbGroup
300

 70
     1
 71
     1
  0
GROUP
  5
1153
102
{ACAD_REACTORS
330
D
102
}
330
D
100
AcDbGroup
300

 70
     1
 71
     1
  0
GROUP
  5
1A12B
102
{ACAD_REACTORS
330
D
102
}
330
D
100
AcDbGroup
300

 70
     1
 71
     1
  0
GROUP
  5
22B14
102
{ACAD_REACTORS
330
D
102
}
330
D
100
AcDbGroup
300

 70
     1
 71
     1
  0
GROUP
  5
D69A
102
{ACAD_REACTORS
330
D
102
}
330
D
100
AcDbGroup
300

 70
     1
 71
     1
  0
GROUP
  5
3443
102
{ACAD_REACTORS
330
D
102
}
330
D
100
AcDbGroup
300

 70
     1
 71
     1
  0
GROUP
  5
DE6
102
{ACAD_REACTORS
330
D
102
}
330
D
100
AcDbGroup
300

 70
     1
 71
     1
  0
GROUP
  5
239C9
102
{ACAD_REACTORS
330
D
102
}
330
D
100
AcDbGroup
300

 70
     1
 71
     1
  0
GROUP
  5
25922
102
{ACAD_REACTORS
330
D
102
}
330
D
100
AcDbGroup
300

 70
     1
 71
     1
  0
GROUP
  5
235E0
102
{ACAD_REACTORS
330
D
102
}
330
D
100
AcDbGroup
300

 70
     1
 71
     1
  0
GROUP
  5
1A12A
102
{ACAD_REACTORS
330
D
102
}
330
D
100
AcDbGroup
300

 70
     1
 71
     1
  0
GROUP
  5
9933
102
{ACAD_REACTORS
330
D
102
}
330
D
100
AcDbGroup
300

 70
     1
 71
     1
  0
GROUP
  5
2257A
102
{ACAD_REACTORS
330
D
102
}
330
D
100
AcDbGroup
300

 70
     1
 71
     1
  0
GROUP
  5
9B46
102
{ACAD_REACTORS
330
D
102
}
330
D
100
AcDbGroup
300

 70
     1
 71
     1
  0
GROUP
  5
24B2A
102
{ACAD_REACTORS
330
D
102
}
330
D
100
AcDbGroup
300

 70
     1
 71
     1
  0
GROUP
  5
3DBF
102
{ACAD_REACTORS
330
D
102
}
330
D
100
AcDbGroup
300

 70
     1
 71
     1
  0
GROUP
  5
27073
102
{ACAD_REACTORS
330
D
102
}
330
D
100
AcDbGroup
300

 70
     1
 71
     1
  0
GROUP
  5
3ED3
102
{ACAD_REACTORS
330
D
102
}
330
D
100
AcDbGroup
300

 70
     1
 71
     1
  0
GROUP
  5
22DAF
102
{ACAD_REACTORS
330
D
102
}
330
D
100
AcDbGroup
300

 70
     1
 71
     1
  0
GROUP
  5
24A14
102
{ACAD_REACTORS
330
D
102
}
330
D
100
AcDbGroup
300

 70
     1
 71
     1
  0
GROUP
  5
BF7B
102
{ACAD_REACTORS
330
D
102
}
330
D
100
AcDbGroup
300

 70
     1
 71
     1
  0
GROUP
  5
22B11
102
{ACAD_REACTORS
330
D
102
}
330
D
100
AcDbGroup
300

 70
     1
 71
     1
  0
GROUP
  5
24A15
102
{ACAD_REACTORS
330
D
102
}
330
D
100
AcDbGroup
300

 70
     1
 71
     1
  0
GROUP
  5
AF2A
102
{ACAD_REACTORS
330
D
102
}
330
D
100
AcDbGroup
300

 70
     1
 71
     1
  0
GROUP
  5
27076
102
{ACAD_REACTORS
330
D
102
}
330
D
100
AcDbGroup
300

 70
     1
 71
     1
  0
GROUP
  5
23AFB
102
{ACAD_REACTORS
330
D
102
}
330
D
100
AcDbGroup
300

 70
     1
 71
     1
  0
GROUP
  5
242E4
102
{ACAD_REACTORS
330
D
102
}
330
D
100
AcDbGroup
300

 70
     1
 71
     1
  0
GROUP
  5
92CB
102
{ACAD_REACTORS
330
D
102
}
330
D
100
AcDbGroup
300

 70
     1
 71
     1
  0
GROUP
  5
91A0
102
{ACAD_REACTORS
330
D
102
}
330
D
100
AcDbGroup
300

 70
     1
 71
     1
  0
GROUP
  5
24957
102
{ACAD_REACTORS
330
D
102
}
330
D
100
AcDbGroup
300

 70
     1
 71
     1
  0
GROUP
  5
21E77
102
{ACAD_REACTORS
330
D
102
}
330
D
100
AcDbGroup
300

 70
     1
 71
     1
  0
GROUP
  5
349F
102
{ACAD_REACTORS
330
D
102
}
330
D
100
AcDbGroup
300

 70
     1
 71
     1
  0
GROUP
  5
6DFB
102
{ACAD_REACTORS
330
D
102
}
330
D
100
AcDbGroup
300

 70
     1
 71
     1
  0
GROUP
  5
2596A
102
{ACAD_REACTORS
330
D
102
}
330
D
100
AcDbGroup
300

 70
     1
 71
     1
  0
GROUP
  5
36E8
102
{ACAD_REACTORS
330
D
102
}
330
D
100
AcDbGroup
300

 70
     1
 71
     1
  0
GROUP
  5
A0BB
102
{ACAD_REACTORS
330
D
102
}
330
D
100
AcDbGroup
300

 70
     1
 71
     1
  0
GROUP
  5
12F1
102
{ACAD_REACTORS
330
D
102
}
330
D
100
AcDbGroup
300

 70
     1
 71
     1
  0
GROUP
  5
2536E
102
{ACAD_REACTORS
330
D
102
}
330
D
100
AcDbGroup
300

 70
     1
 71
     1
  0
GROUP
  5
2708D
102
{ACAD_REACTORS
330
D
102
}
330
D
100
AcDbGroup
300

 70
     1
 71
     1
  0
GROUP
  5
22B0F
102
{ACAD_REACTORS
330
D
102
}
330
D
100
AcDbGroup
300

 70
     1
 71
     1
  0
GROUP
  5
A331
102
{ACAD_REACTORS
330
D
102
}
330
D
100
AcDbGroup
300

 70
     1
 71
     1
  0
GROUP
  5
BEE2
102
{ACAD_REACTORS
330
D
102
}
330
D
100
AcDbGroup
300

 70
     1
 71
     1
  0
GROUP
  5
24699
102
{ACAD_REACTORS
330
D
102
}
330
D
100
AcDbGroup
300

 70
     1
 71
     1
  0
GROUP
  5
6960
102
{ACAD_REACTORS
330
D
102
}
330
D
100
AcDbGroup
300

 70
     1
 71
     1
  0
GROUP
  5
6C2C
102
{ACAD_REACTORS
330
D
102
}
330
D
100
AcDbGroup
300

 70
     1
 71
     1
  0
GROUP
  5
BF76
102
{ACAD_REACTORS
330
D
102
}
330
D
100
AcDbGroup
300

 70
     1
 71
     1
  0
GROUP
  5
25928
102
{ACAD_REACTORS
330
D
102
}
330
D
100
AcDbGroup
300

 70
     1
 71
     1
  0
GROUP
  5
24499
102
{ACAD_REACTORS
330
D
102
}
330
D
100
AcDbGroup
300

 70
     1
 71
     1
  0
GROUP
  5
A91C
102
{ACAD_REACTORS
330
D
102
}
330
D
100
AcDbGroup
300

 70
     1
 71
     1
  0
GROUP
  5
278E7
102
{ACAD_REACTORS
330
D
102
}
330
D
100
AcDbGroup
300

 70
     1
 71
     1
  0
GROUP
  5
418F
102
{ACAD_REACTORS
330
D
102
}
330
D
100
AcDbGroup
300

 70
     1
 71
     1
  0
GROUP
  5
6FC8
102
{ACAD_REACTORS
330
D
102
}
330
D
100
AcDbGroup
300

 70
     1
 71
     1
  0
GROUP
  5
6FC2
102
{ACAD_REACTORS
330
D
102
}
330
D
100
AcDbGroup
300

 70
     1
 71
     1
  0
GROUP
  5
225F5
102
{ACAD_REACTORS
330
D
102
}
330
D
100
AcDbGroup
300

 70
     1
 71
     1
  0
GROUP
  5
22DA9
102
{ACAD_REACTORS
330
D
102
}
330
D
100
AcDbGroup
300

 70
     1
 71
     1
  0
GROUP
  5
279CE
102
{ACAD_REACTORS
330
D
102
}
330
D
100
AcDbGroup
300

 70
     1
 71
     1
  0
GROUP
  5
2706F
102
{ACAD_REACTORS
330
D
102
}
330
D
100
AcDbGroup
300

 70
     1
 71
     1
  0
GROUP
  5
285C4
102
{ACAD_REACTORS
330
D
102
}
330
D
100
AcDbGroup
300

 70
     1
 71
     1
  0
GROUP
  5
25F41
102
{ACAD_REACTORS
330
D
102
}
330
D
100
AcDbGroup
300

 70
     1
 71
     1
  0
GROUP
  5
22B16
102
{ACAD_REACTORS
330
D
102
}
330
D
100
AcDbGroup
300

 70
     1
 71
     1
  0
GROUP
  5
6961
102
{ACAD_REACTORS
330
D
102
}
330
D
100
AcDbGroup
300

 70
     1
 71
     1
  0
GROUP
  5
27612
102
{ACAD_REACTORS
330
D
102
}
330
D
100
AcDbGroup
300

 70
     1
 71
     1
  0
GROUP
  5
29D12
102
{ACAD_REACTORS
330
D
102
}
330
D
100
AcDbGroup
300

 70
     1
 71
     1
  0
GROUP
  5
BFA7
102
{ACAD_REACTORS
330
D
102
}
330
D
100
AcDbGroup
300

 70
     1
 71
     1
  0
GROUP
  5
1A7B8
102
{ACAD_REACTORS
330
D
102
}
330
D
100
AcDbGroup
300

 70
     1
 71
     1
  0
GROUP
  5
25F85
102
{ACAD_REACTORS
330
D
102
}
330
D
100
AcDbGroup
300

 70
     1
 71
     1
  0
GROUP
  5
260CD
102
{ACAD_REACTORS
330
D
102
}
330
D
100
AcDbGroup
300

 70
     1
 71
     1
  0
GROUP
  5
D820
102
{ACAD_REACTORS
330
D
102
}
330
D
100
AcDbGroup
300

 70
     1
 71
     1
  0
GROUP
  5
8CD0
102
{ACAD_REACTORS
330
D
102
}
330
D
100
AcDbGroup
300

 70
     1
 71
     1
  0
GROUP
  5
25927
102
{ACAD_REACTORS
330
D
102
}
330
D
100
AcDbGroup
300

 70
     1
 71
     1
  0
GROUP
  5
24F5D
102
{ACAD_REACTORS
330
D
102
}
330
D
100
AcDbGroup
300

 70
     1
 71
     1
  0
GROUP
  5
126C
102
{ACAD_REACTORS
330
D
102
}
330
D
100
AcDbGroup
300

 70
     1
 71
     1
  0
GROUP
  5
228C7
102
{ACAD_REACTORS
330
D
102
}
330
D
100
AcDbGroup
300

 70
     1
 71
     1
  0
GROUP
  5
283E5
102
{ACAD_REACTORS
330
D
102
}
330
D
100
AcDbGroup
300

 70
     1
 71
     1
  0
GROUP
  5
2706D
102
{ACAD_REACTORS
330
D
102
}
330
D
100
AcDbGroup
300

 70
     1
 71
     1
  0
GROUP
  5
6355
102
{ACAD_REACTORS
330
D
102
}
330
D
100
AcDbGroup
300

 70
     1
 71
     1
  0
GROUP
  5
6356
102
{ACAD_REACTORS
330
D
102
}
330
D
100
AcDbGroup
300

 70
     1
 71
     1
  0
GROUP
  5
C88F
102
{ACAD_REACTORS
330
D
102
}
330
D
100
AcDbGroup
300

 70
     1
 71
     1
  0
GROUP
  5
234D7
102
{ACAD_REACTORS
330
D
102
}
330
D
100
AcDbGroup
300

 70
     1
 71
     1
  0
GROUP
  5
C410
102
{ACAD_REACTORS
330
D
102
}
330
D
100
AcDbGroup
300

 70
     1
 71
     1
  0
GROUP
  5
27085
102
{ACAD_REACTORS
330
D
102
}
330
D
100
AcDbGroup
300

 70
     1
 71
     1
  0
GROUP
  5
27092
102
{ACAD_REACTORS
330
D
102
}
330
D
100
AcDbGroup
300

 70
     1
 71
     1
  0
GROUP
  5
239C7
102
{ACAD_REACTORS
330
D
102
}
330
D
100
AcDbGroup
300

 70
     1
 71
     1
  0
GROUP
  5
270EF
102
{ACAD_REACTORS
330
D
102
}
330
D
100
AcDbGroup
300

 70
     1
 71
     1
  0
GROUP
  5
29D13
102
{ACAD_REACTORS
330
D
102
}
330
D
100
AcDbGroup
300

 70
     1
 71
     1
  0
GROUP
  5
A329
102
{ACAD_REACTORS
330
D
102
}
330
D
100
AcDbGroup
300

 70
     1
 71
     1
  0
GROUP
  5
23E8F
102
{ACAD_REACTORS
330
D
102
}
330
D
100
AcDbGroup
300

 70
     1
 71
     1
  0
GROUP
  5
D74A
102
{ACAD_REACTORS
330
D
102
}
330
D
100
AcDbGroup
300

 70
     1
 71
     1
  0
GROUP
  5
91C5
102
{ACAD_REACTORS
330
D
102
}
330
D
100
AcDbGroup
300

 70
     1
 71
     1
  0
GROUP
  5
2A9BB
102
{ACAD_REACTORS
330
D
102
}
330
D
100
AcDbGroup
300

 70
     1
 71
     1
  0
GROUP
  5
2A9BC
102
{ACAD_REACTORS
330
D
102
}
330
D
100
AcDbGroup
300

 70
     1
 71
     1
  0
GROUP
  5
2A9BD
102
{ACAD_REACTORS
330
D
102
}
330
D
100
AcDbGroup
300

 70
     1
 71
     1
  0
GROUP
  5
2A9BE
102
{ACAD_REACTORS
330
D
102
}
330
D
100
AcDbGroup
300

 70
     1
 71
     1
  0
GROUP
  5
2A9BF
102
{ACAD_REACTORS
330
D
102
}
330
D
100
AcDbGroup
300

 70
     1
 71
     1
  0
GROUP
  5
24959
102
{ACAD_REACTORS
330
D
102
}
330
D
100
AcDbGroup
300

 70
     1
 71
     1
  0
GROUP
  5
2219F
102
{ACAD_REACTORS
330
D
102
}
330
D
100
AcDbGroup
300

 70
     1
 71
     1
  0
GROUP
  5
2A9C0
102
{ACAD_REACTORS
330
D
102
}
330
D
100
AcDbGroup
300

 70
     1
 71
     1
  0
GROUP
  5
2ABA0
102
{ACAD_REACTORS
330
D
102
}
330
D
100
AcDbGroup
300

 70
     1
 71
     1
  0
GROUP
  5
12AA
102
{ACAD_REACTORS
330
D
102
}
330
D
100
AcDbGroup
300

 70
     1
 71
     1
  0
GROUP
  5
280D3
102
{ACAD_REACTORS
330
D
102
}
330
D
100
AcDbGroup
300

 70
     1
 71
     1
  0
GROUP
  5
25F4B
102
{ACAD_REACTORS
330
D
102
}
330
D
100
AcDbGroup
300

 70
     1
 71
     1
  0
GROUP
  5
9367
102
{ACAD_REACTORS
330
D
102
}
330
D
100
AcDbGroup
300

 70
     1
 71
     1
  0
GROUP
  5
2ABC2
102
{ACAD_REACTORS
330
D
102
}
330
D
100
AcDbGroup
300

 70
     1
 71
     1
  0
GROUP
  5
7FF2
102
{ACAD_REACTORS
330
D
102
}
330
D
100
AcDbGroup
300

 70
     1
 71
     1
  0
GROUP
  5
34A0
102
{ACAD_REACTORS
330
D
102
}
330
D
100
AcDbGroup
300

 70
     1
 71
     1
  0
GROUP
  5
2B0D7
102
{ACAD_REACTORS
330
D
102
}
330
D
100
AcDbGroup
300

 70
     1
 71
     1
  0
GROUP
  5
2B0DA
102
{ACAD_REACTORS
330
D
102
}
330
D
100
AcDbGroup
300

 70
     1
 71
     1
  0
GROUP
  5
BA56
102
{ACAD_REACTORS
330
D
102
}
330
D
100
AcDbGroup
300

 70
     1
 71
     1
  0
GROUP
  5
239C8
102
{ACAD_REACTORS
330
D
102
}
330
D
100
AcDbGroup
300

 70
     1
 71
     1
  0
GROUP
  5
2459C
102
{ACAD_REACTORS
330
D
102
}
330
D
100
AcDbGroup
300

 70
     1
 71
     1
  0
GROUP
  5
2B0D8
102
{ACAD_REACTORS
330
D
102
}
330
D
100
AcDbGroup
300

 70
     1
 71
     1
  0
GROUP
  5
6E9D
102
{ACAD_REACTORS
330
D
102
}
330
D
100
AcDbGroup
300

 70
     1
 71
     1
  0
GROUP
  5
29D2A
102
{ACAD_REACTORS
330
D
102
}
330
D
100
AcDbGroup
300

 70
     1
 71
     1
  0
GROUP
  5
2705E
102
{ACAD_REACTORS
330
D
102
}
330
D
100
AcDbGroup
300

 70
     1
 71
     1
  0
GROUP
  5
22B13
102
{ACAD_REACTORS
330
D
102
}
330
D
100
AcDbGroup
300

 70
     1
 71
     1
  0
GROUP
  5
8076
102
{ACAD_REACTORS
330
D
102
}
330
D
100
AcDbGroup
300

 70
     1
 71
     1
  0
GROUP
  5
148A7
102
{ACAD_REACTORS
330
D
102
}
330
D
100
AcDbGroup
300

 70
     1
 71
     1
  0
GROUP
  5
A4F5
102
{ACAD_REACTORS
330
D
102
}
330
D
100
AcDbGroup
300

 70
     1
 71
     1
  0
GROUP
  5
28416
102
{ACAD_REACTORS
330
D
102
}
330
D
100
AcDbGroup
300

 70
     1
 71
     1
  0
GROUP
  5
B973
102
{ACAD_REACTORS
330
D
102
}
330
D
100
AcDbGroup
300

 70
     1
 71
     1
  0
GROUP
  5
A919
102
{ACAD_REACTORS
330
D
102
}
330
D
100
AcDbGroup
300

 70
     1
 71
     1
  0
GROUP
  5
2B0DB
102
{ACAD_REACTORS
330
D
102
}
330
D
100
AcDbGroup
300

 70
     1
 71
     1
  0
GROUP
  5
6C2D
102
{ACAD_REACTORS
330
D
102
}
330
D
100
AcDbGroup
300

 70
     1
 71
     1
  0
GROUP
  5
A56E
102
{ACAD_REACTORS
330
D
102
}
330
D
100
AcDbGroup
300

 70
     1
 71
     1
  0
GROUP
  5
919F
102
{ACAD_REACTORS
330
D
102
}
330
D
100
AcDbGroup
300

 70
     1
 71
     1
  0
GROUP
  5
225AD
102
{ACAD_REACTORS
330
D
102
}
330
D
100
AcDbGroup
300

 70
     1
 71
     1
  0
GROUP
  5
22B15
102
{ACAD_REACTORS
330
D
102
}
330
D
100
AcDbGroup
300

 70
     1
 71
     1
  0
GROUP
  5
19E9
102
{ACAD_REACTORS
330
D
102
}
330
D
100
AcDbGroup
300

 70
     1
 71
     1
  0
GROUP
  5
2706E
102
{ACAD_REACTORS
330
D
102
}
330
D
100
AcDbGroup
300

 70
     1
 71
     1
  0
GROUP
  5
4502
102
{ACAD_REACTORS
330
D
102
}
330
D
100
AcDbGroup
300

 70
     1
 71
     1
  0
GROUP
  5
22E98
102
{ACAD_REACTORS
330
D
102
}
330
D
100
AcDbGroup
300

 70
     1
 71
     1
  0
GROUP
  5
28008
102
{ACAD_REACTORS
330
D
102
}
330
D
100
AcDbGroup
300

 70
     1
 71
     1
  0
GROUP
  5
2B0DC
102
{ACAD_REACTORS
330
D
102
}
330
D
100
AcDbGroup
300

 70
     1
 71
     1
  0
GROUP
  5
23EE2
102
{ACAD_REACTORS
330
D
102
}
330
D
100
AcDbGroup
300

 70
     1
 71
     1
  0
GROUP
  5
27398
102
{ACAD_REACTORS
330
D
102
}
330
D
100
AcDbGroup
300

 70
     1
 71
     1
  0
GROUP
  5
27072
102
{ACAD_REACTORS
330
D
102
}
330
D
100
AcDbGroup
300

 70
     1
 71
     1
  0
GROUP
  5
99AF
102
{ACAD_REACTORS
330
D
102
}
330
D
100
AcDbGroup
300

 70
     1
 71
     1
  0
GROUP
  5
15E1
102
{ACAD_REACTORS
330
D
102
}
330
D
100
AcDbGroup
300

 70
     1
 71
     1
  0
GROUP
  5
27AF2
102
{ACAD_REACTORS
330
D
102
}
330
D
100
AcDbGroup
300

 70
     1
 71
     1
  0
GROUP
  5
249B9
102
{ACAD_REACTORS
330
D
102
}
330
D
100
AcDbGroup
300

 70
     1
 71
     1
  0
GROUP
  5
A2F4
102
{ACAD_REACTORS
330
D
102
}
330
D
100
AcDbGroup
300

 70
     1
 71
     1
  0
GROUP
  5
27083
102
{ACAD_REACTORS
330
D
102
}
330
D
100
AcDbGroup
300

 70
     1
 71
     1
  0
GROUP
  5
25372
102
{ACAD_REACTORS
330
D
102
}
330
D
100
AcDbGroup
300

 70
     1
 71
     1
  0
GROUP
  5
2B0DD
102
{ACAD_REACTORS
330
D
102
}
330
D
100
AcDbGroup
300

 70
     1
 71
     1
  0
GROUP
  5
27545
102
{ACAD_REACTORS
330
D
102
}
330
D
100
AcDbGroup
300

 70
     1
 71
     1
  0
GROUP
  5
AAA0
102
{ACAD_REACTORS
330
D
102
}
330
D
100
AcDbGroup
300

 70
     1
 71
     1
  0
GROUP
  5
278E6
102
{ACAD_REACTORS
330
D
102
}
330
D
100
AcDbGroup
300

 70
     1
 71
     1
  0
GROUP
  5
36E7
102
{ACAD_REACTORS
330
D
102
}
330
D
100
AcDbGroup
300

 70
     1
 71
     1
  0
GROUP
  5
2596D
102
{ACAD_REACTORS
330
D
102
}
330
D
100
AcDbGroup
300

 70
     1
 71
     1
  0
GROUP
  5
28009
102
{ACAD_REACTORS
330
D
102
}
330
D
100
AcDbGroup
300

 70
     1
 71
     1
  0
GROUP
  5
21F2B
102
{ACAD_REACTORS
330
D
102
}
330
D
100
AcDbGroup
300

 70
     1
 71
     1
  0
GROUP
  5
CC19
102
{ACAD_REACTORS
330
D
102
}
330
D
100
AcDbGroup
300

 70
     1
 71
     1
  0
GROUP
  5
2752F
102
{ACAD_REACTORS
330
D
102
}
330
D
100
AcDbGroup
300

 70
     1
 71
     1
  0
GROUP
  5
A962
102
{ACAD_REACTORS
330
D
102
}
330
D
100
AcDbGroup
300

 70
     1
 71
     1
  0
MLINESTYLE
  5
18
102
{ACAD_REACTORS
330
17
102
}
330
17
100
AcDbMlineStyle
  2
STANDARD
 70
     0
  3

 62
   256
 51
90.0
 52
90.0
 71
     2
 49
0.5
 62
   256
  6
BYLAYER
 49
-0.5
 62
   256
  6
BYLAYER
  0
ACDBPLACEHOLDER
  5
F
102
{ACAD_REACTORS
330
E
102
}
330
E
100
AcDbPlaceHolder
280
     0
  0
XRECORD
  5
2D573
102
{ACAD_REACTORS
330
2D569
102
}
330
2D569
100
AcDbXrecord
 90
        0
  0
XRECORD
  5
2D577
102
{ACAD_REACTORS
330
2D569
102
}
330
2D569
100
AcDbXrecord
1000
DSTYLE
1002
{
1070
    79
 70
     2
1070
   341
340
495
1070
   342
340
495
1070
   371
 70
    13
1070
   372
 70
    13
1002
}
  0
XRECORD
  5
2D574
102
{ACAD_REACTORS
330
2D569
102
}
330
2D569
100
AcDbXrecord
  1
{317A188D-5D9A-4B88-8B34-F77A538D2CB2}
  0
XRECORD
  5
2D56C
102
{ACAD_REACTORS
330
2D569
102
}
330
2D569
100
AcDbXrecord
  1

  0
XRECORD
  5
2D572
102
{ACAD_REACTORS
330
2D569
102
}
330
2D569
100
AcDbXrecord
 90
        4
  0
XRECORD
  5
2D56E
102
{ACAD_REACTORS
330
2D569
102
}
330
2D569
100
AcDbXrecord
340
1A
  0
XRECORD
  5
2D571
102
{ACAD_REACTORS
330
2D569
102
}
330
2D569
100
AcDbXrecord
 90
    10781
  0
XRECORD
  5
2D56F
102
{ACAD_REACTORS
330
2D569
102
}
330
2D569
100
AcDbXrecord
340
19
  0
XRECORD
  5
2D570
102
{ACAD_REACTORS
330
2D569
102
}
330
2D569
100
AcDbXrecord
340
E
  0
XRECORD
  5
2D576
102
{ACAD_REACTORS
330
2D569
102
}
330
2D569
100
AcDbXrecord
 40
0.0
  0
XRECORD
  5
2D57A
102
{ACAD_REACTORS
330
2D569
102
}
330
2D569
100
AcDbXrecord
340
0
  0
XRECORD
  5
2D580
102
{ACAD_REACTORS
330
2D569
102
}
330
2D569
100
AcDbXrecord
 10
0.0
 20
0.0
 30
0.0
  0
XRECORD
  5
2D57C
102
{ACAD_REACTORS
330
2D569
102
}
330
2D569
100
AcDbXrecord
 10
0.0
 20
0.0
 30
0.0
  0
XRECORD
  5
2D57F
102
{ACAD_REACTORS
330
2D569
102
}
330
2D569
100
AcDbXrecord
 10
0.0
 20
0.0
 30
0.0
  0
XRECORD
  5
2D57D
102
{ACAD_REACTORS
330
2D569
102
}
330
2D569
100
AcDbXrecord
 10
0.0
 20
0.0
 30
0.0
  0
XRECORD
  5
2D57E
102
{ACAD_REACTORS
330
2D569
102
}
330
2D569
100
AcDbXrecord
 10
0.0
 20
0.0
 30
0.0
  0
XRECORD
  5
2D57B
102
{ACAD_REACTORS
330
2D569
102
}
330
2D569
100
AcDbXrecord
 10
0.0
 20
0.0
 30
0.0
  0
XRECORD
  5
2D578
102
{ACAD_REACTORS
330
2D569
102
}
330
2D569
100
AcDbXrecord
340
0
  0
XRECORD
  5
2D579
102
{ACAD_REACTORS
330
2D569
102
}
330
2D569
100
AcDbXrecord
 70
     0
  0
XRECORD
  5
2D56D
102
{ACAD_REACTORS
330
2D569
102
}
330
2D569
100
AcDbXrecord
  1

  0
XRECORD
  5
2D56A
102
{ACAD_REACTORS
330
2D569
102
}
330
2D569
100
AcDbXrecord
 90
        1
  0
XRECORD
  5
2D56B
102
{ACAD_REACTORS
330
2D569
102
}
330
2D569
100
AcDbXrecord
 90
       70
  0
XRECORD
  5
2D583
102
{ACAD_REACTORS
330
2D569
102
}
330
2D569
100
AcDbXrecord
340
0
  0
XRECORD
  5
2D589
102
{ACAD_REACTORS
330
2D569
102
}
330
2D569
100
AcDbXrecord
 10
0.0
 20
0.0
 30
0.0
  0
XRECORD
  5
2D585
102
{ACAD_REACTORS
330
2D569
102
}
330
2D569
100
AcDbXrecord
 10
0.0
 20
0.0
 30
0.0
  0
XRECORD
  5
2D588
102
{ACAD_REACTORS
330
2D569
102
}
330
2D569
100
AcDbXrecord
 10
0.0
 20
0.0
 30
0.0
  0
XRECORD
  5
2D586
102
{ACAD_REACTORS
330
2D569
102
}
330
2D569
100
AcDbXrecord
 10
0.0
 20
0.0
 30
0.0
  0
XRECORD
  5
2D587
102
{ACAD_REACTORS
330
2D569
102
}
330
2D569
100
AcDbXrecord
 10
0.0
 20
0.0
 30
0.0
  0
XRECORD
  5
2D584
102
{ACAD_REACTORS
330
2D569
102
}
330
2D569
100
AcDbXrecord
 10
0.0
 20
0.0
 30
0.0
  0
XRECORD
  5
2D581
102
{ACAD_REACTORS
330
2D569
102
}
330
2D569
100
AcDbXrecord
340
0
  0
XRECORD
  5
2D582
102
{ACAD_REACTORS
330
2D569
102
}
330
2D569
100
AcDbXrecord
 70
     0
  0
XRECORD
  5
2D575
102
{ACAD_REACTORS
330
2D569
102
}
330
2D569
100
AcDbXrecord
  1
{DFBDD070-994B-4503-9DEA-D4AA947A55EB}
  0
DICTIONARYVAR
  5
72CD
102
{ACAD_REACTORS
330
72CC
102
}
330
72CC
100
DictionaryVariables
280
     0
  1
127
  0
XRECORD
  5
29CAF
102
{ACAD_REACTORS
330
29CAE
102
}
330
29CAE
100
AcDbXrecord
  1
0
  1
*0
  1
*
  1
*
 70
     0
  1
*
  1
*
  0
XRECORD
  5
29CB0
102
{ACAD_REACTORS
330
29CAE
102
}
330
29CAE
100
AcDbXrecord
  1
11
  1
*11
  1
*
  1
*
 70
     0
  1
*
  1
*
  0
XRECORD
  5
29CB1
102
{ACAD_REACTORS
330
29CAE
102
}
330
29CAE
100
AcDbXrecord
  1
150_
  1
150_*
  1
*
  1
*
 70
     0
  1
*
  1
*
  0
XRECORD
  5
29CB2
102
{ACAD_REACTORS
330
29CAE
102
}
330
29CAE
100
AcDbXrecord
  1
160_
  1
160_*
  1
*
  1
*
 70
     0
  1
*
  1
*
  0
XRECORD
  5
29CB3
102
{ACAD_REACTORS
330
29CAE
102
}
330
29CAE
100
AcDbXrecord
  1
170_
  1
170_*
  1
*
  1
*
 70
     0
  1
*
  1
*
  0
XRECORD
  5
29CB4
102
{ACAD_REACTORS
330
29CAE
102
}
330
29CAE
100
AcDbXrecord
  1
171_
  1
171_*
  1
*
  1
*
 70
     0
  1
*
  1
*
  0
XRECORD
  5
29CB5
102
{ACAD_REACTORS
330
29CAE
102
}
330
29CAE
100
AcDbXrecord
  1
350_
  1
350_*
  1
*
  1
*
 70
     0
  1
*
  1
*
  0
XRECORD
  5
29CB6
102
{ACAD_REACTORS
330
29CAE
102
}
330
29CAE
100
AcDbXrecord
  1
4
  1
*4
  1
*
  1
*
 70
     0
  1
*
  1
*
  0
XRECORD
  5
29CB7
102
{ACAD_REACTORS
330
29CAE
102
}
330
29CAE
100
AcDbXrecord
  1
5
  1
*5
  1
*
  1
*
 70
     0
  1
*
  1
*
  0
XRECORD
  5
29CB8
102
{ACAD_REACTORS
330
29CAE
102
}
330
29CAE
100
AcDbXrecord
  1
7
  1
*7
  1
*
  1
*
 70
     0
  1
*
  1
*
  0
XRECORD
  5
29CB9
102
{ACAD_REACTORS
330
29CAE
102
}
330
29CAE
100
AcDbXrecord
  1
kiseki
  1
kiseki*
  1
*
  1
*
 70
     0
  1
*
  1
*
  0
ENDSEC
  0
EOF
