  0
SECTION
  2
HEADER
  9
$ACADVER
  1
AC1014
  9
$ACADMAINTVER
 70
     9
  9
$DWGCODEPAGE
  3
ANSI_932
  9
$INSBASE
 10
0.0
 20
0.0
 30
0.0
  9
$EXTMIN
 10
-3198.939170364186
 20
-1415.692895122976
 30
0.0
  9
$EXTMAX
 10
-2800.686141876205
 20
-1249.994276469107
 30
0.0
  9
$LIMMIN
 10
0.0
 20
0.0
  9
$LIMMAX
 10
420.0
 20
297.0
  9
$ORTHOMODE
 70
     1
  9
$REGENMODE
 70
     1
  9
$FILLMODE
 70
     1
  9
$QTEXTMODE
 70
     0
  9
$MIRRTEXT
 70
     0
  9
$DRAGMODE
 70
     2
  9
$LTSCALE
 40
20.0
  9
$OSMODE
 70
    37
  9
$ATTMODE
 70
     2
  9
$TEXTSIZE
 40
10.0
  9
$TRACEWID
 40
1.0
  9
$TEXTSTYLE
  7
ｽﾀｲﾙ3
  9
$CLAYER
  8
文字
  9
$CELTYPE
  6
BYLAYER
  9
$CECOLOR
 62
   256
  9
$CELTSCALE
 40
1.0
  9
$DELOBJ
 70
     1
  9
$DISPSILH
 70
     0
  9
$DIMSCALE
 40
1.0
  9
$DIMASZ
 40
4.0
  9
$DIMEXO
 40
1.0
  9
$DIMDLI
 40
0.38
  9
$DIMRND
 40
0.0
  9
$DIMDLE
 40
0.0
  9
$DIMEXE
 40
1.0
  9
$DIMTP
 40
0.0
  9
$DIMTM
 40
0.0
  9
$DIMTXT
 40
5.0
  9
$DIMCEN
 40
0.0
  9
$DIMTSZ
 40
0.0
  9
$DIMTOL
 70
     0
  9
$DIMLIM
 70
     0
  9
$DIMTIH
 70
     0
  9
$DIMTOH
 70
     0
  9
$DIMSE1
 70
     0
  9
$DIMSE2
 70
     0
  9
$DIMTAD
 70
     3
  9
$DIMZIN
 70
     8
  9
$DIMBLK
  1
OPEN30
  9
$DIMASO
 70
     1
  9
$DIMSHO
 70
     1
  9
$DIMPOST
  1

  9
$DIMAPOST
  1

  9
$DIMALT
 70
     0
  9
$DIMALTD
 70
     2
  9
$DIMALTF
 40
25.4
  9
$DIMLFAC
 40
1.0
  9
$DIMTOFL
 70
     0
  9
$DIMTVP
 40
0.0
  9
$DIMTIX
 70
     0
  9
$DIMSOXD
 70
     0
  9
$DIMSAH
 70
     0
  9
$DIMBLK1
  1

  9
$DIMBLK2
  1

  9
$DIMSTYLE
  2
まこ-１_２
  9
$DIMCLRD
 70
     4
  9
$DIMCLRE
 70
     4
  9
$DIMCLRT
 70
   256
  9
$DIMTFAC
 40
1.0
  9
$DIMGAP
 40
1.0
  9
$DIMJUST
 70
     0
  9
$DIMSD1
 70
     0
  9
$DIMSD2
 70
     0
  9
$DIMTOLJ
 70
     1
  9
$DIMTZIN
 70
     0
  9
$DIMALTZ
 70
     0
  9
$DIMALTTZ
 70
     0
  9
$DIMFIT
 70
     3
  9
$DIMUPT
 70
     0
  9
$DIMUNIT
 70
     2
  9
$DIMDEC
 70
     2
  9
$DIMTDEC
 70
     2
  9
$DIMALTU
 70
     2
  9
$DIMALTTD
 70
     2
  9
$DIMTXSTY
  7
MSゴシック-0
  9
$DIMAUNIT
 70
     0
  9
$LUNITS
 70
     2
  9
$LUPREC
 70
     4
  9
$SKETCHINC
 40
1.0
  9
$FILLETRAD
 40
0.0
  9
$AUNITS
 70
     0
  9
$AUPREC
 70
     0
  9
$MENU
  1
.
  9
$ELEVATION
 40
0.0
  9
$PELEVATION
 40
0.0
  9
$THICKNESS
 40
0.0
  9
$LIMCHECK
 70
     0
  9
$BLIPMODE
 70
     0
  9
$CHAMFERA
 40
0.5
  9
$CHAMFERB
 40
0.5
  9
$CHAMFERC
 40
20.0
  9
$CHAMFERD
 40
0.0
  9
$SKPOLY
 70
     0
  9
$TDCREATE
 40
2451224.660162384
  9
$TDUPDATE
 40
2455638.673175636
  9
$TDINDWG
 40
16.3406316667
  9
$TDUSRTIMER
 40
16.3406316667
  9
$USRTIMER
 70
     1
  9
$ANGBASE
 50
0.0
  9
$ANGDIR
 70
     0
  9
$PDMODE
 70
     0
  9
$PDSIZE
 40
0.0
  9
$PLINEWID
 40
0.0
  9
$COORDS
 70
     0
  9
$SPLFRAME
 70
     0
  9
$SPLINETYPE
 70
     6
  9
$SPLINESEGS
 70
     8
  9
$ATTDIA
 70
     0
  9
$ATTREQ
 70
     1
  9
$HANDLING
 70
-16383
  9
$HANDSEED
  5
24A8F
  9
$SURFTAB1
 70
     6
  9
$SURFTAB2
 70
     6
  9
$SURFTYPE
 70
     6
  9
$SURFU
 70
     6
  9
$SURFV
 70
     6
  9
$UCSNAME
  2

  9
$UCSORG
 10
0.0
 20
0.0
 30
0.0
  9
$UCSXDIR
 10
1.0
 20
0.0
 30
0.0
  9
$UCSYDIR
 10
0.0
 20
1.0
 30
0.0
  9
$PUCSNAME
  2

  9
$PUCSORG
 10
0.0
 20
0.0
 30
0.0
  9
$PUCSXDIR
 10
1.0
 20
0.0
 30
0.0
  9
$PUCSYDIR
 10
0.0
 20
1.0
 30
0.0
  9
$USERI1
 70
     0
  9
$USERI2
 70
     0
  9
$USERI3
 70
     0
  9
$USERI4
 70
     0
  9
$USERI5
 70
     0
  9
$USERR1
 40
245.9999999999999
  9
$USERR2
 40
0.0
  9
$USERR3
 40
0.0
  9
$USERR4
 40
0.0
  9
$USERR5
 40
0.0
  9
$WORLDVIEW
 70
     1
  9
$SHADEDGE
 70
     3
  9
$SHADEDIF
 70
    70
  9
$TILEMODE
 70
     0
  9
$MAXACTVP
 70
    48
  9
$PINSBASE
 10
0.0
 20
0.0
 30
0.0
  9
$PLIMCHECK
 70
     0
  9
$PEXTMIN
 10
0.0
 20
0.0
 30
0.0
  9
$PEXTMAX
 10
400.0
 20
288.0
 30
0.0
  9
$PLIMMIN
 10
-8.558649352544467
 20
-8.554356515276159
  9
$PLIMMAX
 10
422.9034335439272
 20
296.5571219646623
  9
$UNITMODE
 70
     0
  9
$VISRETAIN
 70
     1
  9
$PLINEGEN
 70
     0
  9
$PSLTSCALE
 70
     0
  9
$TREEDEPTH
 70
  3020
  9
$PICKSTYLE
 70
     0
  9
$CMLSTYLE
  2
STANDARD
  9
$CMLJUST
 70
     0
  9
$CMLSCALE
 40
20.0
  9
$PROXYGRAPHICS
 70
     1
  9
$MEASUREMENT
 70
     0
  0
ENDSEC
  0
SECTION
  2
CLASSES
  0
CLASS
  1
HATCH
  2
AcDbHatch
  3
AutoCAD 2000
 90
        0
280
     0
281
     1
  0
CLASS
  1
LWPOLYLINE
  2
AcDbPolyline
  3
AutoCAD 2000
 90
        0
280
     0
281
     1
  0
CLASS
  1
ACDBDICTIONARYWDFLT
  2
AcDbDictionaryWithDefault
  3
AutoCAD 2000
 90
        0
280
     0
281
     0
  0
CLASS
  1
ACDBPLACEHOLDER
  2
AcDbPlaceHolder
  3
AutoCAD 2000
 90
        0
280
     0
281
     0
  0
CLASS
  1
LAYOUT
  2
AcDbLayout
  3
AutoCAD 2000
 90
        0
280
     0
281
     0
  0
CLASS
  1
LONG_TRANSACTION
  2
AcDbLongTransaction
  3
AutoCAD 2000
 90
        0
280
     0
281
     0
  0
CLASS
  1
LWPOLYLINE
  2
AcDbPolyline
  3
AutoCAD 2000
 90
        0
280
     0
281
     1
  0
CLASS
  1
HATCH
  2
AcDbHatch
  3
AutoCAD 2000
 90
        0
280
     0
281
     1
  0
CLASS
  1
XRECORD
  2
AcDbXrecord
  3
AutoCAD 2000
 90
        0
280
     0
281
     0
  0
CLASS
  1
DICTIONARYVAR
  2
AcDbDictionaryVar
  3
AutoCAD 2000
 90
        0
280
     0
281
     0
  0
CLASS
  1
LONG_TRANSACTION
  2
AcDbLongTransaction
  3
AutoCAD 2000
 90
        0
280
     0
281
     0
  0
CLASS
  1
LWPOLYLINE
  2
AcDbPolyline
  3
AutoCAD 2000
 90
        0
280
     0
281
     1
  0
CLASS
  1
HATCH
  2
AcDbHatch
  3
AutoCAD 2000
 90
        0
280
     0
281
     1
  0
CLASS
  1
XRECORD
  2
AcDbXrecord
  3
AutoCAD 2000
 90
        0
280
     0
281
     0
  0
CLASS
  1
LONG_TRANSACTION
  2
AcDbLongTransaction
  3
AutoCAD 2000
 90
        0
280
     0
281
     0
  0
CLASS
  1
LWPOLYLINE
  2
AcDbPolyline
  3
AutoCAD 2000
 90
        0
280
     0
281
     1
  0
CLASS
  1
HATCH
  2
AcDbHatch
  3
AutoCAD 2000
 90
        0
280
     0
281
     1
  0
CLASS
  1
XRECORD
  2
AcDbXrecord
  3
AutoCAD 2000
 90
        0
280
     0
281
     0
  0
ENDSEC
  0
SECTION
  2
TABLES
  0
TABLE
  2
VPORT
  5
8
330
0
100
AcDbSymbolTable
 70
     4
  0
VPORT
  5
24A48
330
8
100
AcDbSymbolTableRecord
100
AcDbViewportTableRecord
  2
*ACTIVE
 70
     0
 10
0.0
 20
0.0
 11
1.0
 21
1.0
 12
-2999.841184400857
 22
-1332.836251044743
 13
0.0
 23
0.0
 14
10.0
 24
10.0
 15
10.0
 25
10.0
 16
0.0
 26
0.0
 36
1.0
 17
0.0
 27
0.0
 37
0.0
 40
262.0556746314818
 41
1.527918781725888
 42
50.0
 43
0.0
 44
0.0
 50
0.0
 51
0.0
 71
     0
 72
   100
 73
     1
 74
     0
 75
     0
 76
     0
 77
     0
 78
     0
  0
ENDTAB
  0
TABLE
  2
LTYPE
  5
5
330
0
100
AcDbSymbolTable
 70
     6
  0
LTYPE
  5
12
330
5
100
AcDbSymbolTableRecord
100
AcDbLinetypeTableRecord
  2
BYBLOCK
 70
     0
  3

 72
    65
 73
     0
 40
0.0
  0
LTYPE
  5
13
330
5
100
AcDbSymbolTableRecord
100
AcDbLinetypeTableRecord
  2
BYLAYER
 70
     0
  3

 72
    65
 73
     0
 40
0.0
  0
LTYPE
  5
14
330
5
100
AcDbSymbolTableRecord
100
AcDbLinetypeTableRecord
  2
CONTINUOUS
 70
     0
  3
Solid line
 72
    65
 73
     0
 40
0.0
  0
LTYPE
  5
126C
330
5
100
AcDbSymbolTableRecord
100
AcDbLinetypeTableRecord
  2
CENTER
 70
     0
  3
____ _ ____ _ ____ _ ____ _ ____ _ ____ _ ____
 72
    65
 73
     4
 40
2.0
 49
1.25
 74
     0
 49
-0.25
 74
     0
 49
0.25
 74
     0
 49
-0.25
 74
     0
  0
LTYPE
  5
126E
330
5
100
AcDbSymbolTableRecord
100
AcDbLinetypeTableRecord
  2
DASHDOT
 70
     0
  3
__ . __ . __ . __ . __ . __ . __ . __ . __ . __
 72
    65
 73
     4
 40
1.0
 49
0.5
 74
     0
 49
-0.25
 74
     0
 49
0.0
 74
     0
 49
-0.25
 74
     0
  0
LTYPE
  5
1541F
330
5
100
AcDbSymbolTableRecord
100
AcDbLinetypeTableRecord
  2
HIDDEN
 70
     0
  3
_ _ _ _ _ _ _ _ _ _ _ _ _ _ _ _ _ _ _ _ _ _ _
 72
    65
 73
     2
 40
0.375
 49
0.25
 74
     0
 49
-0.125
 74
     0
  0
LTYPE
  5
15420
330
5
100
AcDbSymbolTableRecord
100
AcDbLinetypeTableRecord
  2
CENTER2
 70
     0
  3
Center (.5x) ___ _ ___ _ ___ _ ___ _ ___ _ ___
 72
    65
 73
     4
 40
1.125
 49
0.75
 74
     0
 49
-0.125
 74
     0
 49
0.125
 74
     0
 49
-0.125
 74
     0
  0
LTYPE
  5
1615D
330
5
100
AcDbSymbolTableRecord
100
AcDbLinetypeTableRecord
  2
PHANTOM
 70
     0
  3
Phantom ______  __  __  ______  __  __  ______
 72
    65
 73
     6
 40
2.5
 49
1.25
 74
     0
 49
-0.25
 74
     0
 49
0.25
 74
     0
 49
-0.25
 74
     0
 49
0.25
 74
     0
 49
-0.25
 74
     0
  0
ENDTAB
  0
TABLE
  2
LAYER
  5
2
102
{ACAD_XDICTIONARY
360
244DE
102
}
330
0
100
AcDbSymbolTable
 70
    12
  0
LAYER
  5
E
330
2
100
AcDbSymbolTableRecord
100
AcDbLayerTableRecord
  2
0
 70
     2
 62
     7
  6
CONTINUOUS
  0
LAYER
  5
2C
330
2
100
AcDbSymbolTableRecord
100
AcDbLayerTableRecord
  2
M_VIEW
 70
     4
 62
    -1
  6
CONTINUOUS
  0
LAYER
  5
30
330
2
100
AcDbSymbolTableRecord
100
AcDbLayerTableRecord
  2
FRAME025
 70
     0
 62
     7
  6
CONTINUOUS
  0
LAYER
  5
12B
330
2
100
AcDbSymbolTableRecord
100
AcDbLayerTableRecord
  2
DEFPOINTS
 70
     4
 62
    -7
  6
CONTINUOUS
  0
LAYER
  5
651
330
2
100
AcDbSymbolTableRecord
100
AcDbLayerTableRecord
  2
FRAME020
 70
     0
 62
     7
  6
CONTINUOUS
  0
LAYER
  5
1271
330
2
100
AcDbSymbolTableRecord
100
AcDbLayerTableRecord
  2
A
 70
     0
 62
     7
  6
CONTINUOUS
  0
LAYER
  5
A9BB
330
2
100
AcDbSymbolTableRecord
100
AcDbLayerTableRecord
  2
文字
 70
     0
 62
     7
  6
CONTINUOUS
  0
LAYER
  5
122DE
330
2
100
AcDbSymbolTableRecord
100
AcDbLayerTableRecord
  2
DIMENSION
 70
     0
 62
     7
  6
CONTINUOUS
  0
LAYER
  5
15422
330
2
100
AcDbSymbolTableRecord
100
AcDbLayerTableRecord
  2
細線
 70
     0
 62
     7
  6
CONTINUOUS
  0
LAYER
  5
15425
330
2
100
AcDbSymbolTableRecord
100
AcDbLayerTableRecord
  2
中心線
 70
     0
 62
     7
  6
CENTER2
  0
LAYER
  5
1615E
330
2
100
AcDbSymbolTableRecord
100
AcDbLayerTableRecord
  2
２点鎖線
 70
     0
 62
     7
  6
PHANTOM
  0
LAYER
  5
1A846
330
2
100
AcDbSymbolTableRecord
100
AcDbLayerTableRecord
  2
実線
 70
     0
 62
     7
  6
CONTINUOUS
  0
ENDTAB
  0
TABLE
  2
STYLE
  5
3
330
0
100
AcDbSymbolTable
 70
     8
  0
STYLE
  5
F
330
3
100
AcDbSymbolTableRecord
100
AcDbTextStyleTableRecord
  2
STANDARD
 70
     0
 40
0.0
 41
1.0
 50
0.0
 71
     0
 42
2.5
  3
isocp.shx
  4
bigfont.shx
  0
STYLE
  5
35
330
3
100
AcDbSymbolTableRecord
100
AcDbTextStyleTableRecord
  2
MSｺ_ｼｯｸ
 70
     0
 40
0.0
 41
1.0
 50
0.0
 71
     0
 42
5.0
  3
MS Gothic.ttf
  4

1001
ACAD
1000
MS Gothic
1071
    32817
  0
STYLE
  5
1275
330
3
100
AcDbSymbolTableRecord
100
AcDbTextStyleTableRecord
  2
BIGFONT
 70
     0
 40
2.0
 41
1.0
 50
0.0
 71
     0
 42
2.0
  3
txt.shx
  4
bigfont.shx
  0
STYLE
  5
1A84A
330
3
100
AcDbSymbolTableRecord
100
AcDbTextStyleTableRecord
  2
ｽﾀｲﾙ3
 70
     0
 40
10.0
 41
1.0
 50
0.0
 71
     0
 42
10.0
  3
isocp.shx
  4
extfont.shx
  0
STYLE
  5
1FA55
330
3
100
AcDbSymbolTableRecord
100
AcDbTextStyleTableRecord
  2
MSゴシック-0
 70
     0
 40
0.0
 41
1.0
 50
0.0
 71
     0
 42
4.0
  3
simplex.shx
  4
bigfont.shx
  0
ENDTAB
  0
TABLE
  2
VIEW
  5
6
330
0
100
AcDbSymbolTable
 70
     0
  0
ENDTAB
  0
TABLE
  2
UCS
  5
7
330
0
100
AcDbSymbolTable
 70
     0
  0
ENDTAB
  0
TABLE
  2
APPID
  5
9
330
0
100
AcDbSymbolTable
 70
     4
  0
APPID
  5
10
330
9
100
AcDbSymbolTableRecord
100
AcDbRegAppTableRecord
  2
ACAD
 70
     0
  0
APPID
  5
F013
330
9
100
AcDbSymbolTableRecord
100
AcDbRegAppTableRecord
  2
CONTENTBLOCKDESCRIPTION
 70
     0
  0
APPID
  5
F014
330
9
100
AcDbSymbolTableRecord
100
AcDbRegAppTableRecord
  2
CONTENTBLOCKICON
 70
     0
  0
APPID
  5
1A9A0
330
9
100
AcDbSymbolTableRecord
100
AcDbRegAppTableRecord
  2
DCO15
 70
     0
  0
ENDTAB
  0
TABLE
  2
DIMSTYLE
  5
A
330
0
100
AcDbSymbolTable
 70
     2
  0
DIMSTYLE
105
1D
330
A
100
AcDbSymbolTableRecord
100
AcDbDimStyleTableRecord
  2
STANDARD
 70
     0
  3

  4

  5

  6

  7

 40
1.0
 41
0.18
 42
0.0625
 43
0.38
 44
0.18
 45
0.0
 46
0.0
 47
0.0
 48
0.0
140
0.18
141
0.09
142
0.0
143
25.4
144
1.0
145
0.0
146
1.0
147
0.09
 71
     0
 72
     0
 73
     1
 74
     1
 75
     0
 76
     0
 77
     0
 78
     0
170
     0
171
     2
172
     0
173
     0
174
     0
175
     0
176
     0
177
     0
178
     0
270
     2
271
     4
272
     4
273
     2
274
     2
340
F
275
     0
280
     0
281
     0
282
     0
283
     1
284
     0
285
     0
286
     0
287
     3
288
     0
  0
DIMSTYLE
105
1FA57
330
A
100
AcDbSymbolTableRecord
100
AcDbDimStyleTableRecord
  2
まこ-１_２
 70
     0
  3

  4

  5
OPEN30
  6

  7

 40
1.0
 41
4.0
 42
1.0
 43
0.38
 44
1.0
 45
0.0
 46
0.0
 47
0.0
 48
0.0
140
5.0
141
0.0
142
0.0
143
25.4
144
1.0
145
0.0
146
1.0
147
1.0
 71
     0
 72
     0
 73
     0
 74
     0
 75
     0
 76
     0
 77
     3
 78
     8
170
     0
171
     2
172
     0
173
     0
174
     0
175
     0
176
     4
177
     4
178
   256
270
     2
271
     2
272
     2
273
     2
274
     2
340
1FA55
275
     0
280
     0
281
     0
282
     0
283
     1
284
     0
285
     0
286
     0
287
     3
288
     0
  0
ENDTAB
  0
TABLE
  2
BLOCK_RECORD
  5
1
330
0
100
AcDbSymbolTable
 70
    26
  0
BLOCK_RECORD
  5
18
102
{ACAD_XDICTIONARY
360
EFC6
102
}
330
1
100
AcDbSymbolTableRecord
100
AcDbBlockTableRecord
  2
*MODEL_SPACE
  0
BLOCK_RECORD
  5
15
102
{ACAD_XDICTIONARY
360
EFC4
102
}
330
1
100
AcDbSymbolTableRecord
100
AcDbBlockTableRecord
  2
*PAPER_SPACE
  0
BLOCK_RECORD
  5
115C
330
1
100
AcDbSymbolTableRecord
100
AcDbBlockTableRecord
  2
機械A4横_LBP
  0
BLOCK_RECORD
  5
1215D
330
1
100
AcDbSymbolTableRecord
100
AcDbBlockTableRecord
  2
_OPEN30
  0
ENDTAB
  0
ENDSEC
  0
SECTION
  2
BLOCKS
  0
BLOCK
  5
19
330
18
100
AcDbEntity
  8
0
100
AcDbBlockBegin
  2
*MODEL_SPACE
 70
     0
 10
0.0
 20
0.0
 30
0.0
  3
*MODEL_SPACE
  1

  0
ENDBLK
  5
1A
330
18
100
AcDbEntity
  8
0
100
AcDbBlockEnd
  0
BLOCK
  5
16
330
15
100
AcDbEntity
 67
     1
  8
0
100
AcDbBlockBegin
  2
*PAPER_SPACE
 70
     0
 10
0.0
 20
0.0
 30
0.0
  3
*PAPER_SPACE
  1

  0
ENDBLK
  5
17
330
15
100
AcDbEntity
 67
     1
  8
0
100
AcDbBlockEnd
  0
BLOCK
  5
115D
330
115C
100
AcDbEntity
  8
0
100
AcDbBlockBegin
  2
機械A4横_LBP
 70
     0
 10
0.0
 20
0.0
 30
0.0
  3
機械A4横_LBP
  1

  0
ENDBLK
  5
115E
330
115C
100
AcDbEntity
  8
0
100
AcDbBlockEnd
  0
BLOCK
  5
12161
330
1215D
100
AcDbEntity
  8
0
100
AcDbBlockBegin
  2
_OPEN30
 70
     0
 10
0.0
 20
0.0
 30
0.0
  3
_OPEN30
  1

  0
LINE
  5
1215E
330
1215D
100
AcDbEntity
  8
0
  6
BYBLOCK
 62
     0
100
AcDbLine
 10
-1.0
 20
0.26794919
 30
0.0
 11
0.0
 21
0.0
 31
0.0
  0
LINE
  5
1215F
330
1215D
100
AcDbEntity
  8
0
  6
BYBLOCK
 62
     0
100
AcDbLine
 10
0.0
 20
0.0
 30
0.0
 11
-1.0
 21
-0.26794919
 31
0.0
  0
LINE
  5
12160
330
1215D
100
AcDbEntity
  8
0
  6
BYBLOCK
 62
     0
100
AcDbLine
 10
0.0
 20
0.0
 30
0.0
 11
-1.0
 21
0.0
 31
0.0
  0
ENDBLK
  5
12162
330
1215D
100
AcDbEntity
  8
0
100
AcDbBlockEnd
  0
ENDSEC
  0
SECTION
  2
ENTITIES
  0
MTEXT
  5
176FC
330
18
100
AcDbEntity
  8
DIMENSION
 62
     2
100
AcDbMText
 10
-100.7823601383244
 20
171.6213144128389
 30
0.0
 40
8.0
 41
0.0
 71
     4
 72
     1
  1

1001
ACAD
1000
MTEXTBEGIN
1070
    73
1070
     1
1070
    44
1040
1.0
1070
    74
1070
     0
1000
MTEXTEND
1000
MTEXTBEGIN
1070
    73
1070
     1
1070
    44
1040
1.0
1070
    74
1070
     0
1000
MTEXTEND
  0
TEXT
  5
187C8
330
18
100
AcDbEntity
  8
A
100
AcDbText
 10
27.08248755054501
 20
1784.547672862095
 30
0.0
 40
2.5
  1

  7
MSｺ_ｼｯｸ
100
AcDbText
  0
TEXT
  5
187C9
330
18
100
AcDbEntity
  8
A
100
AcDbText
 10
19.25748755054502
 20
1784.547672862095
 30
0.0
 40
2.5
  1

 41
0.5
  7
MSｺ_ｼｯｸ
100
AcDbText
  0
TEXT
  5
187CA
330
18
100
AcDbEntity
  8
A
100
AcDbText
 10
167.1825875009164
 20
2214.514692980458
 30
0.0
 40
3.524999999999999
  1
�    
100
AcDbText
  0
MTEXT
  5
187CB
330
18
100
AcDbEntity
  8
0
  6
BYBLOCK
100
AcDbMText
 10
325.4874764241681
 20
2232.511722574347
 30
0.0
 40
2.0
 41
0.0
 71
     4
 72
     5
  1

 11
-0.0000000000000002
 21
-1.0
 31
0.0
1001
ACAD
1000
MTEXTBEGIN
1070
    73
1070
     1
1070
    44
1040
1.0
1070
    74
1070
     0
1000
MTEXTEND
1000
MTEXTBEGIN
1070
    73
1070
     1
1070
    44
1040
1.0
1070
    74
1070
     0
1000
MTEXTEND
1000
MTEXTBEGIN
1070
    73
1070
     1
1070
    44
1040
1.0
1070
    74
1070
     0
1000
MTEXTEND
  0
MTEXT
  5
187CC
330
18
100
AcDbEntity
  8
0
  6
BYBLOCK
100
AcDbMText
 10
360.9528647873208
 20
2221.718414215929
 30
0.0
 40
2.0
 41
0.0
 71
     7
 72
     5
  1

 11
0.0000000000000001
 21
1.0
 31
0.0
1001
ACAD
1000
MTEXTBEGIN
1070
    73
1070
     1
1070
    44
1040
1.0
1070
    74
1070
     0
1000
MTEXTEND
1000
MTEXTBEGIN
1070
    73
1070
     1
1070
    44
1040
1.0
1070
    74
1070
     0
1000
MTEXTEND
1000
MTEXTBEGIN
1070
    73
1070
     1
1070
    44
1040
1.0
1070
    74
1070
     0
1000
MTEXTEND
  0
MTEXT
  5
187CD
330
18
100
AcDbEntity
  8
0
100
AcDbMText
 10
325.1733668026532
 20
2146.938903673639
 30
0.0
 40
2.0
 41
10.1453
 71
     1
 72
     5
  1

 11
-0.0000000000000002
 21
-1.0
 31
0.0
1001
ACAD
1000
MTEXTBEGIN
1070
    73
1070
     1
1070
    44
1040
1.0
1070
    74
1070
     0
1000
MTEXTEND
1000
MTEXTBEGIN
1070
    73
1070
     1
1070
    44
1040
1.0
1070
    74
1070
     0
1000
MTEXTEND
1000
MTEXTBEGIN
1070
    73
1070
     1
1070
    44
1040
1.0
1070
    74
1070
     0
1000
MTEXTEND
  0
MTEXT
  5
187CE
330
18
100
AcDbEntity
  8
0
100
AcDbMText
 10
280.7738750495033
 20
2115.30742008065
 30
0.0
 40
2.0
 41
0.0
 71
     1
 72
     5
  1

1001
ACAD
1000
MTEXTBEGIN
1070
    73
1070
     1
1070
    44
1040
1.0
1070
    74
1070
     0
1000
MTEXTEND
1000
MTEXTBEGIN
1070
    73
1070
     1
1070
    44
1040
1.0
1070
    74
1070
     0
1000
MTEXTEND
1000
MTEXTBEGIN
1070
    73
1070
     1
1070
    44
1040
1.0
1070
    74
1070
     0
1000
MTEXTEND
  0
MTEXT
  5
187CF
330
18
100
AcDbEntity
  8
0
  6
CENTER
100
AcDbMText
 10
606.3621522332661
 20
2216.239946825076
 30
0.0
 40
2.0
 41
15.6417
 71
     1
 72
     5
  1

  7
BIGFONT
1001
ACAD
1000
MTEXTBEGIN
1070
    73
1070
     1
1070
    44
1040
1.0
1070
    74
1070
     0
1000
MTEXTEND
1000
MTEXTBEGIN
1070
    73
1070
     1
1070
    44
1040
1.0
1070
    74
1070
     0
1000
MTEXTEND
1000
MTEXTBEGIN
1070
    73
1070
     1
1070
    44
1040
1.0
1070
    74
1070
     0
1000
MTEXTEND
  0
MTEXT
  5
187D0
330
18
100
AcDbEntity
  8
0
  6
DASHDOT
100
AcDbMText
 10
368.6842112890943
 20
2323.029441652852
 30
0.0
 40
1.0
 41
2.0
 71
     1
 72
     5
  1

  7
BIGFONT
1001
ACAD
1000
MTEXTBEGIN
1070
    73
1070
     1
1070
    44
1040
1.0
1070
    74
1070
     0
1000
MTEXTEND
1000
MTEXTBEGIN
1070
    73
1070
     1
1070
    44
1040
1.0
1070
    74
1070
     0
1000
MTEXTEND
1000
MTEXTBEGIN
1070
    73
1070
     1
1070
    44
1040
1.0
1070
    74
1070
     0
1000
MTEXTEND
  0
MTEXT
  5
187D1
330
18
100
AcDbEntity
  8
0
  6
BYBLOCK
100
AcDbMText
 10
325.4873894192177
 20
2232.511722574347
 30
0.0
 40
2.0
 41
0.0
 71
     4
 72
     5
  1

 11
-0.0000000000000002
 21
-1.0
 31
0.0
1001
ACAD
1000
MTEXTBEGIN
1070
    73
1070
     1
1070
    44
1040
1.0
1070
    74
1070
     0
1000
MTEXTEND
1000
MTEXTBEGIN
1070
    73
1070
     1
1070
    44
1040
1.0
1070
    74
1070
     0
1000
MTEXTEND
1000
MTEXTBEGIN
1070
    73
1070
     1
1070
    44
1040
1.0
1070
    74
1070
     0
1000
MTEXTEND
  0
MTEXT
  5
187D2
330
18
100
AcDbEntity
  8
0
  6
BYBLOCK
100
AcDbMText
 10
360.9527777823706
 20
2221.718414215929
 30
0.0
 40
2.0
 41
0.0
 71
     7
 72
     5
  1

 11
0.0000000000000001
 21
1.0
 31
0.0
1001
ACAD
1000
MTEXTBEGIN
1070
    73
1070
     1
1070
    44
1040
1.0
1070
    74
1070
     0
1000
MTEXTEND
1000
MTEXTBEGIN
1070
    73
1070
     1
1070
    44
1040
1.0
1070
    74
1070
     0
1000
MTEXTEND
1000
MTEXTBEGIN
1070
    73
1070
     1
1070
    44
1040
1.0
1070
    74
1070
     0
1000
MTEXTEND
  0
MTEXT
  5
187D3
330
18
100
AcDbEntity
  8
0
100
AcDbMText
 10
325.1732797977028
 20
2146.938903673639
 30
0.0
 40
2.0
 41
10.1453
 71
     1
 72
     5
  1

 11
-0.0000000000000002
 21
-1.0
 31
0.0
1001
ACAD
1000
MTEXTBEGIN
1070
    73
1070
     1
1070
    44
1040
1.0
1070
    74
1070
     0
1000
MTEXTEND
1000
MTEXTBEGIN
1070
    73
1070
     1
1070
    44
1040
1.0
1070
    74
1070
     0
1000
MTEXTEND
1000
MTEXTBEGIN
1070
    73
1070
     1
1070
    44
1040
1.0
1070
    74
1070
     0
1000
MTEXTEND
  0
MTEXT
  5
187D4
330
18
100
AcDbEntity
  8
0
100
AcDbMText
 10
280.7737880445529
 20
2115.30742008065
 30
0.0
 40
2.0
 41
0.0
 71
     1
 72
     5
  1

1001
ACAD
1000
MTEXTBEGIN
1070
    73
1070
     1
1070
    44
1040
1.0
1070
    74
1070
     0
1000
MTEXTEND
1000
MTEXTBEGIN
1070
    73
1070
     1
1070
    44
1040
1.0
1070
    74
1070
     0
1000
MTEXTEND
1000
MTEXTBEGIN
1070
    73
1070
     1
1070
    44
1040
1.0
1070
    74
1070
     0
1000
MTEXTEND
  0
MTEXT
  5
187D5
330
18
100
AcDbEntity
  8
0
  6
CENTER
100
AcDbMText
 10
606.3620652283159
 20
2216.239946825076
 30
0.0
 40
2.0
 41
15.6417
 71
     1
 72
     5
  1

  7
BIGFONT
1001
ACAD
1000
MTEXTBEGIN
1070
    73
1070
     1
1070
    44
1040
1.0
1070
    74
1070
     0
1000
MTEXTEND
1000
MTEXTBEGIN
1070
    73
1070
     1
1070
    44
1040
1.0
1070
    74
1070
     0
1000
MTEXTEND
1000
MTEXTBEGIN
1070
    73
1070
     1
1070
    44
1040
1.0
1070
    74
1070
     0
1000
MTEXTEND
  0
MTEXT
  5
187D6
330
18
100
AcDbEntity
  8
0
  6
DASHDOT
100
AcDbMText
 10
368.6841242841442
 20
2323.029441652852
 30
0.0
 40
1.0
 41
2.0
 71
     1
 72
     5
  1

  7
BIGFONT
1001
ACAD
1000
MTEXTBEGIN
1070
    73
1070
     1
1070
    44
1040
1.0
1070
    74
1070
     0
1000
MTEXTEND
1000
MTEXTBEGIN
1070
    73
1070
     1
1070
    44
1040
1.0
1070
    74
1070
     0
1000
MTEXTEND
1000
MTEXTBEGIN
1070
    73
1070
     1
1070
    44
1040
1.0
1070
    74
1070
     0
1000
MTEXTEND
  0
INSERT
  5
187D7
330
18
100
AcDbEntity
  8
FRAME025
100
AcDbBlockReference
  2
機械A4横_LBP
 10
271.0019941658661
 20
2006.88884056487
 30
0.0
  0
LINE
  5
239EE
330
18
100
AcDbEntity
  8
実線
100
AcDbLine
 10
-2942.789689507407
 20
-1402.950143322872
 30
0.0
 11
-2942.789689507407
 21
-1307.95014332287
 31
0.0
  0
LINE
  5
239F0
330
18
100
AcDbEntity
  8
実線
100
AcDbLine
 10
-2881.660772918582
 20
-1409.992895122977
 30
0.0
 11
-2905.333798198711
 21
-1409.992895122977
 31
0.0
  0
LINE
  5
239F1
330
18
100
AcDbEntity
  8
実線
100
AcDbLine
 10
-2902.248266622603
 20
-1403.692895122977
 30
0.0
 11
-2881.660772918582
 21
-1403.692895122977
 31
0.0
  0
LINE
  5
239FE
330
18
100
AcDbEntity
  8
中心線
100
AcDbLine
 10
-3198.939170364186
 20
-1352.950143322874
 30
0.0
 11
-2935.261064277655
 21
-1352.950143322873
 31
0.0
  0
LINE
  5
23A00
330
18
100
AcDbEntity
  8
実線
100
AcDbLine
 10
-3187.789689507407
 20
-1377.950143322872
 30
0.0
 11
-2974.46047875006
 21
-1377.950143322872
 31
0.0
  0
LINE
  5
23A01
330
18
100
AcDbEntity
  8
実線
100
AcDbLine
 10
-3190.789689507407
 20
-1402.950143322872
 30
0.0
 11
-2977.454382864179
 21
-1402.950143322861
 31
0.0
  0
LINE
  5
23A26
330
18
100
AcDbEntity
  8
中心線
 48
3.0
100
AcDbLine
 10
-3126.789689507408
 20
-1397.390143322872
 30
0.0
 11
-3126.789689507408
 21
-1388.390143322872
 31
0.0
  0
LINE
  5
23A27
330
18
100
AcDbEntity
  8
中心線
 48
3.0
100
AcDbLine
 10
-3131.289689507409
 20
-1392.890143322871
 30
0.0
 11
-3122.289689507409
 21
-1392.890143322871
 31
0.0
  0
CIRCLE
  5
23A28
330
18
100
AcDbEntity
  8
細線
100
AcDbCircle
 10
-3126.789689507408
 20
-1392.890143322871
 30
0.0
 40
2.5
  0
CIRCLE
  5
23A29
330
18
100
AcDbEntity
  8
実線
100
AcDbCircle
 10
-3126.789689507409
 20
-1392.890143322872
 30
0.0
 40
2.1
  0
CIRCLE
  5
23A32
330
18
100
AcDbEntity
  8
実線
100
AcDbCircle
 10
-3046.789689507408
 20
-1392.890143322872
 30
0.0
 40
2.1
  0
CIRCLE
  5
23A33
330
18
100
AcDbEntity
  8
細線
100
AcDbCircle
 10
-3046.789689507407
 20
-1392.890143322871
 30
0.0
 40
2.5
  0
LINE
  5
23A34
330
18
100
AcDbEntity
  8
中心線
 48
3.0
100
AcDbLine
 10
-3051.289689507408
 20
-1392.890143322871
 30
0.0
 11
-3042.289689507407
 21
-1392.890143322871
 31
0.0
  0
LINE
  5
23A35
330
18
100
AcDbEntity
  8
中心線
 48
3.0
100
AcDbLine
 10
-3091.289689507409
 20
-1392.890143322871
 30
0.0
 11
-3082.289689507407
 21
-1392.890143322871
 31
0.0
  0
CIRCLE
  5
23A36
330
18
100
AcDbEntity
  8
細線
100
AcDbCircle
 10
-3086.789689507408
 20
-1392.890143322871
 30
0.0
 40
2.5
  0
CIRCLE
  5
23A37
330
18
100
AcDbEntity
  8
実線
100
AcDbCircle
 10
-3086.789689507408
 20
-1392.890143322872
 30
0.0
 40
2.1
  0
LINE
  5
23A38
330
18
100
AcDbEntity
  8
中心線
 48
3.0
100
AcDbLine
 10
-3086.789689507408
 20
-1397.390143322872
 30
0.0
 11
-3086.789689507408
 21
-1388.390143322872
 31
0.0
  0
LINE
  5
23A39
330
18
100
AcDbEntity
  8
中心線
 48
3.0
100
AcDbLine
 10
-3006.789689507407
 20
-1397.390143322872
 30
0.0
 11
-3006.789689507407
 21
-1388.390143322872
 31
0.0
  0
CIRCLE
  5
23A3A
330
18
100
AcDbEntity
  8
実線
100
AcDbCircle
 10
-3006.789689507407
 20
-1392.890143322872
 30
0.0
 40
2.1
  0
CIRCLE
  5
23A3B
330
18
100
AcDbEntity
  8
細線
100
AcDbCircle
 10
-3006.789689507407
 20
-1392.890143322871
 30
0.0
 40
2.5
  0
LINE
  5
23A3C
330
18
100
AcDbEntity
  8
中心線
 48
3.0
100
AcDbLine
 10
-3011.289689507407
 20
-1392.890143322871
 30
0.0
 11
-3002.289689507407
 21
-1392.890143322871
 31
0.0
  0
LINE
  5
23A3D
330
18
100
AcDbEntity
  8
中心線
 48
3.0
100
AcDbLine
 10
-3046.789689507408
 20
-1397.390143322872
 30
0.0
 11
-3046.789689507408
 21
-1388.390143322872
 31
0.0
  0
LINE
  5
23A3F
102
{ACAD_REACTORS
330
23C26
102
}
330
18
100
AcDbEntity
  8
中心線
 48
0.4
100
AcDbLine
 10
-2921.469286318649
 20
-1402.158513403416
 30
0.0
 11
-2919.986663809668
 21
-1393.750143322872
 31
0.0
  0
LINE
  5
23A40
330
18
100
AcDbEntity
  8
中心線
 48
0.4
100
AcDbLine
 10
-2919.46928631865
 20
-1402.158513403416
 30
0.0
 11
-2917.986663809668
 21
-1393.750143322872
 31
0.0
  0
ARC
  5
23A41
330
18
100
AcDbEntity
  8
実線
100
AcDbCircle
 10
-2902.248266622603
 20
-1400.692895122977
 30
0.0
 40
3.0
100
AcDbArc
 50
179.9999999999934
 51
270.0
  0
ARC
  5
23A42
330
18
100
AcDbEntity
  8
実線
100
AcDbCircle
 10
-2913.333798198711
 20
-1404.104328363144
 30
0.0
 40
3.0
100
AcDbArc
 50
0.0
 51
90.0
  0
LINE
  5
23A43
330
18
100
AcDbEntity
  8
実線
100
AcDbLine
 10
-2977.454382864179
 20
-1402.950143322861
 30
0.0
 11
-2942.789689507407
 21
-1402.950143322851
 31
0.0
  0
LINE
  5
23A44
330
18
100
AcDbEntity
  8
実線
100
AcDbLine
 10
-2910.333798198711
 20
-1404.992895122977
 30
0.0
 11
-2910.333798198711
 21
-1404.104328363144
 31
0.0
  0
ARC
  5
23A45
330
18
100
AcDbEntity
  8
実線
100
AcDbCircle
 10
-2905.333798198711
 20
-1404.992895122977
 30
0.0
 40
5.0
100
AcDbArc
 50
180.0
 51
270.0
  0
LINE
  5
23A46
102
{ACAD_REACTORS
330
23C26
102
}
330
18
100
AcDbEntity
  8
実線
100
AcDbLine
 10
-2921.28340505339
 20
-1401.104328363143
 30
0.0
 11
-2922.789689507407
 21
-1401.104328363143
 31
0.0
  0
LINE
  5
23A47
102
{ACAD_REACTORS
330
23C26
102
}
330
18
100
AcDbEntity
  8
実線
100
AcDbLine
 10
-2922.789689507407
 20
-1394.804328363145
 30
0.0
 11
-2920.172545074926
 21
-1394.804328363145
 31
0.0
  0
LINE
  5
23A48
330
18
100
AcDbEntity
  8
中心線
 48
3.0
100
AcDbLine
 10
-2966.789689507407
 20
-1397.390143322872
 30
0.0
 11
-2966.789689507407
 21
-1388.390143322872
 31
0.0
  0
CIRCLE
  5
23A49
330
18
100
AcDbEntity
  8
実線
100
AcDbCircle
 10
-2966.789689507407
 20
-1392.890143322872
 30
0.0
 40
2.1
  0
CIRCLE
  5
23A4A
330
18
100
AcDbEntity
  8
細線
100
AcDbCircle
 10
-2966.789689507407
 20
-1392.890143322871
 30
0.0
 40
2.5
  0
LINE
  5
23A4B
330
18
100
AcDbEntity
  8
中心線
 48
3.0
100
AcDbLine
 10
-2971.289689507408
 20
-1392.890143322871
 30
0.0
 11
-2962.289689507407
 21
-1392.890143322871
 31
0.0
  0
LINE
  5
23A4C
330
18
100
AcDbEntity
  8
実線
100
AcDbLine
 10
-2974.46047875006
 20
-1377.950143322872
 30
0.0
 11
-2942.789689507407
 21
-1377.950143322872
 31
0.0
  0
ARC
  5
23A4D
330
18
100
AcDbEntity
  8
実線
100
AcDbCircle
 10
-2910.248266622602
 20
-1399.804328363144
 30
0.0
 40
5.0
100
AcDbArc
 50
0.0
 51
90.0
  0
LINE
  5
23A4E
330
18
100
AcDbEntity
  8
実線
100
AcDbLine
 10
-2913.333798198711
 20
-1401.104328363143
 30
0.0
 11
-2919.283405053391
 21
-1401.104328363143
 31
0.0
  0
LINE
  5
23A4F
330
18
100
AcDbEntity
  8
実線
100
AcDbLine
 10
-2905.248266622603
 20
-1400.692895122976
 30
0.0
 11
-2905.248266622603
 21
-1399.804328363144
 31
0.0
  0
LINE
  5
23A50
330
18
100
AcDbEntity
  8
実線
100
AcDbLine
 10
-2918.172545074928
 20
-1394.804328363143
 30
0.0
 11
-2910.248266622602
 21
-1394.804328363145
 31
0.0
  0
ARC
  5
23A59
330
18
100
AcDbEntity
  8
実線
100
AcDbCircle
 10
-2879.160772918581
 20
-1401.492895122976
 30
0.0
 40
0.5
100
AcDbArc
 50
0.0
 51
90.0
  0
LINE
  5
23A5A
330
18
100
AcDbEntity
  8
実線
100
AcDbLine
 10
-2879.660772918581
 20
-1400.992895122977
 30
0.0
 11
-2879.660772918581
 21
-1406.892895122977
 31
0.0
  0
LINE
  5
23A5D
330
18
100
AcDbEntity
  8
実線
100
AcDbLine
 10
-2866.460772918582
 20
-1402.892895122977
 30
0.0
 11
-2855.960772918582
 21
-1402.892895122976
 31
0.0
  0
LINE
  5
23A5E
330
18
100
AcDbEntity
  8
実線
100
AcDbLine
 10
-2878.660772918582
 20
-1401.492895122976
 30
0.0
 11
-2878.660772918582
 21
-1401.992895122977
 31
0.0
  0
LINE
  5
23A5F
330
18
100
AcDbEntity
  8
実線
100
AcDbLine
 10
-2878.660772918582
 20
-1401.992895122977
 30
0.0
 11
-2866.460772918582
 21
-1401.992895122977
 31
0.0
  0
LINE
  5
23A60
330
18
100
AcDbEntity
  8
実線
100
AcDbLine
 10
-2881.660772918582
 20
-1403.692895122977
 30
0.0
 11
-2881.660772918582
 21
-1409.992895122977
 31
0.0
  0
LINE
  5
23A61
330
18
100
AcDbEntity
  8
実線
100
AcDbLine
 10
-2879.660772918581
 20
-1409.492895122976
 30
0.0
 11
-2879.660772918581
 21
-1404.192895122977
 31
0.0
  0
LINE
  5
23A62
330
18
100
AcDbEntity
  8
実線
100
AcDbLine
 10
-2861.960772918582
 20
-1414.092895122976
 30
0.0
 11
-2862.960772918581
 21
-1415.092895122976
 31
0.0
  0
LINE
  5
23A63
330
18
100
AcDbEntity
  8
実線
100
AcDbLine
 10
-2863.960772918582
 20
-1414.092895122976
 30
0.0
 11
-2863.960772918582
 21
-1415.092895122976
 31
0.0
  0
LINE
  5
23A64
330
18
100
AcDbEntity
  8
実線
100
AcDbLine
 10
-2867.460772918581
 20
-1414.092895122976
 30
0.0
 11
-2867.460772918581
 21
-1415.092895122976
 31
0.0
  0
LINE
  5
23A65
330
18
100
AcDbEntity
  8
実線
100
AcDbLine
 10
-2873.960772918582
 20
-1413.692895122976
 30
0.0
 11
-2873.960772918582
 21
-1415.692895122976
 31
0.0
  0
LINE
  5
23A66
330
18
100
AcDbEntity
  8
実線
100
AcDbLine
 10
-2862.960772918581
 20
-1415.092895122976
 30
0.0
 11
-2863.960772918582
 21
-1415.092895122976
 31
0.0
  0
LINE
  5
23A67
330
18
100
AcDbEntity
  8
実線
100
AcDbLine
 10
-2864.360772918582
 20
-1415.092895122976
 30
0.0
 11
-2864.960772918582
 21
-1415.692895122976
 31
0.0
  0
LINE
  5
23A68
330
18
100
AcDbEntity
  8
実線
100
AcDbLine
 10
-2863.960772918582
 20
-1415.092895122976
 30
0.0
 11
-2864.360772918582
 21
-1415.092895122976
 31
0.0
  0
LINE
  5
23A69
330
18
100
AcDbEntity
  8
実線
100
AcDbLine
 10
-2864.360772918582
 20
-1415.092895122976
 30
0.0
 11
-2867.460772918581
 21
-1415.092895122976
 31
0.0
  0
LINE
  5
23A6A
330
18
100
AcDbEntity
  8
実線
100
AcDbLine
 10
-2873.160772918581
 20
-1415.692895122976
 30
0.0
 11
-2873.960772918582
 21
-1415.692895122976
 31
0.0
  0
LINE
  5
23A6B
330
18
100
AcDbEntity
  8
実線
100
AcDbLine
 10
-2873.160772918581
 20
-1415.092895122976
 30
0.0
 11
-2873.160772918581
 21
-1415.692895122976
 31
0.0
  0
LINE
  5
23A6C
330
18
100
AcDbEntity
  8
実線
100
AcDbLine
 10
-2867.460772918581
 20
-1415.092895122976
 30
0.0
 11
-2873.160772918581
 21
-1415.092895122976
 31
0.0
  0
LINE
  5
23A6D
330
18
100
AcDbEntity
  8
実線
100
AcDbLine
 10
-2864.960772918582
 20
-1415.692895122976
 30
0.0
 11
-2873.160772918581
 21
-1415.692895122976
 31
0.0
  0
LINE
  5
23A6E
330
18
100
AcDbEntity
  8
実線
100
AcDbLine
 10
-2855.960772918582
 20
-1410.892895122977
 30
0.0
 11
-2866.460772918582
 21
-1410.892895122977
 31
0.0
  0
LINE
  5
23A6F
330
18
100
AcDbEntity
  8
実線
100
AcDbLine
 10
-2866.460772918582
 20
-1407.452895122976
 30
0.0
 11
-2855.960772918582
 21
-1407.452895122976
 31
0.0
  0
LINE
  5
23A70
330
18
100
AcDbEntity
  8
実線
100
AcDbLine
 10
-2855.960772918582
 20
-1406.332895122976
 30
0.0
 11
-2866.460772918582
 21
-1406.332895122976
 31
0.0
  0
LINE
  5
23A71
330
18
100
AcDbEntity
  8
実線
100
AcDbLine
 10
-2861.960772918582
 20
-1413.292895122975
 30
0.0
 11
-2861.960772918582
 21
-1414.092895122976
 31
0.0
  0
LINE
  5
23A72
330
18
100
AcDbEntity
  8
実線
100
AcDbLine
 10
-2862.960772918581
 20
-1412.292895122976
 30
0.0
 11
-2861.960772918582
 21
-1413.292895122975
 31
0.0
  0
LINE
  5
23A73
330
18
100
AcDbEntity
  8
実線
100
AcDbLine
 10
-2863.960772918582
 20
-1412.292895122976
 30
0.0
 11
-2862.960772918581
 21
-1412.292895122976
 31
0.0
  0
LINE
  5
23A74
330
18
100
AcDbEntity
  8
実線
100
AcDbLine
 10
-2866.460772918582
 20
-1406.892895122977
 30
0.0
 11
-2866.460772918582
 21
-1411.792895122976
 31
0.0
  0
LINE
  5
23A75
330
18
100
AcDbEntity
  8
実線
100
AcDbLine
 10
-2863.960772918582
 20
-1413.292895122975
 30
0.0
 11
-2863.960772918582
 21
-1412.292895122976
 31
0.0
  0
LINE
  5
23A76
330
18
100
AcDbEntity
  8
実線
100
AcDbLine
 10
-2867.460772918581
 20
-1413.292895122975
 30
0.0
 11
-2867.460772918581
 21
-1414.092895122976
 31
0.0
  0
LINE
  5
23A77
330
18
100
AcDbEntity
  8
実線
100
AcDbLine
 10
-2866.053985127274
 20
-1413.292895122975
 30
0.0
 11
-2866.053985127274
 21
-1414.092895122976
 31
0.0
  0
ARC
  5
23A78
330
18
100
AcDbEntity
  8
実線
100
AcDbCircle
 10
-2869.506251405977
 20
-1412.338373610372
 30
0.0
 40
0.545478487396098
100
AcDbArc
 50
280.1852278629175
 51
90.0
  0
LINE
  5
23A79
330
18
100
AcDbEntity
  8
実線
100
AcDbLine
 10
-2866.053985127274
 20
-1413.292895122975
 30
0.0
 11
-2867.460772918581
 21
-1413.292895122975
 31
0.0
  0
LINE
  5
23A7A
330
18
100
AcDbEntity
  8
実線
100
AcDbLine
 10
-2867.460772918581
 20
-1412.889931753879
 30
0.0
 11
-2867.460772918581
 21
-1413.292895122975
 31
0.0
  0
LINE
  5
23A7B
330
18
100
AcDbEntity
  8
実線
100
AcDbLine
 10
-2866.460772918582
 20
-1411.792895122976
 30
0.0
 11
-2867.373147379475
 21
-1412.682163267243
 31
0.0
  0
ARC
  5
23A7C
330
18
100
AcDbEntity
  8
実線
100
AcDbCircle
 10
-2867.17064072846
 20
-1412.889931753879
 30
0.0
 40
0.2901321901215654
100
AcDbArc
 50
134.2652139555196
 51
180.0
  0
LINE
  5
23A7D
330
18
100
AcDbEntity
  8
実線
100
AcDbLine
 10
-2867.460772918581
 20
-1414.092895122976
 30
0.0
 11
-2866.053985127274
 21
-1414.092895122976
 31
0.0
  0
LINE
  5
23A7E
330
18
100
AcDbEntity
  8
実線
100
AcDbLine
 10
-2863.960772918582
 20
-1413.292895122975
 30
0.0
 11
-2866.053985127274
 21
-1413.292895122975
 31
0.0
  0
LINE
  5
23A7F
330
18
100
AcDbEntity
  8
実線
100
AcDbLine
 10
-2866.053985127274
 20
-1414.092895122976
 30
0.0
 11
-2863.960772918582
 21
-1414.092895122976
 31
0.0
  0
LINE
  5
23A80
330
18
100
AcDbEntity
  8
実線
100
AcDbLine
 10
-2879.660772918581
 20
-1406.892895122977
 30
0.0
 11
-2879.660772918581
 21
-1412.792895122976
 31
0.0
  0
LINE
  5
23A81
330
18
100
AcDbEntity
  8
実線
100
AcDbLine
 10
-2879.160772918581
 20
-1412.792895122976
 30
0.0
 11
-2879.660772918581
 21
-1412.792895122976
 31
0.0
  0
LINE
  5
23A82
330
18
100
AcDbEntity
  8
実線
100
AcDbLine
 10
-2878.660772918582
 20
-1411.792895122976
 30
0.0
 11
-2878.660772918582
 21
-1412.292895122976
 31
0.0
  0
ARC
  5
23A83
330
18
100
AcDbEntity
  8
実線
100
AcDbCircle
 10
-2879.160772918581
 20
-1412.292895122976
 30
0.0
 40
0.5
100
AcDbArc
 50
270.0
 51
0.0
  0
LINE
  5
23A84
330
18
100
AcDbEntity
  8
実線
100
AcDbLine
 10
-2879.660772918581
 20
-1406.892895122977
 30
0.0
 11
-2881.660772918582
 21
-1406.892895122977
 31
0.0
  0
LINE
  5
23A85
330
18
100
AcDbEntity
  8
実線
100
AcDbLine
 10
-2879.660772918581
 20
-1405.492895122977
 30
0.0
 11
-2881.660772918582
 21
-1405.492895122977
 31
0.0
  0
LINE
  5
23A86
330
18
100
AcDbEntity
  8
実線
100
AcDbLine
 10
-2879.660772918581
 20
-1408.192895122977
 30
0.0
 11
-2881.660772918582
 21
-1408.192895122977
 31
0.0
  0
LINE
  5
23A87
330
18
100
AcDbEntity
  8
実線
100
AcDbLine
 10
-2879.660772918581
 20
-1409.492895122976
 30
0.0
 11
-2881.660772918582
 21
-1409.492895122976
 31
0.0
  0
LINE
  5
23A88
330
18
100
AcDbEntity
  8
実線
100
AcDbLine
 10
-2869.506251405977
 20
-1411.792895122976
 30
0.0
 11
-2878.660772918582
 21
-1411.792895122976
 31
0.0
  0
LINE
  5
23A89
330
18
100
AcDbEntity
  8
実線
100
AcDbLine
 10
-2869.409793906809
 20
-1412.87525602866
 30
0.0
 11
-2873.960772918582
 21
-1413.692895122976
 31
0.0
  0
LINE
  5
23A8A
330
18
100
AcDbEntity
  8
実線
100
AcDbLine
 10
-2855.960772918582
 20
-1407.452895122976
 30
0.0
 11
-2855.960772918582
 21
-1410.892895122977
 31
0.0
  0
LINE
  5
23A8B
330
18
100
AcDbEntity
  8
実線
100
AcDbLine
 10
-2881.660772918582
 20
-1404.192895122977
 30
0.0
 11
-2879.660772918581
 21
-1404.192895122977
 31
0.0
  0
LINE
  5
23A8C
330
18
100
AcDbEntity
  8
実線
100
AcDbLine
 10
-2866.460772918582
 20
-1401.992895122977
 30
0.0
 11
-2866.460772918582
 21
-1406.892895122977
 31
0.0
  0
LINE
  5
23A8D
330
18
100
AcDbEntity
  8
実線
100
AcDbLine
 10
-2855.960772918582
 20
-1402.892895122976
 30
0.0
 11
-2855.960772918582
 21
-1406.332895122976
 31
0.0
  0
LINE
  5
23A92
330
18
100
AcDbEntity
  8
実線
100
AcDbLine
 10
-2879.660772918581
 20
-1400.992895122977
 30
0.0
 11
-2879.160772918581
 21
-1400.992895122977
 31
0.0
  0
LINE
  5
23AA1
330
18
100
AcDbEntity
  8
実線
100
AcDbLine
 10
-3187.789689507407
 20
-1327.950143322872
 30
0.0
 11
-2968.472670521818
 21
-1327.950143322872
 31
0.0
  0
LINE
  5
23AA2
330
18
100
AcDbEntity
  8
実線
100
AcDbLine
 10
-3190.789689507407
 20
-1307.95014332287
 30
0.0
 11
-2966.07754723052
 21
-1307.95014332287
 31
0.0
  0
LINE
  5
23AA3
330
18
100
AcDbEntity
  8
中心線
 48
3.0
100
AcDbLine
 10
-3126.789689507408
 20
-1317.390143322872
 30
0.0
 11
-3126.789689507408
 21
-1308.390143322872
 31
0.0
  0
LINE
  5
23AA4
330
18
100
AcDbEntity
  8
中心線
 48
3.0
100
AcDbLine
 10
-3131.289689507409
 20
-1312.890143322872
 30
0.0
 11
-3122.289689507409
 21
-1312.890143322872
 31
0.0
  0
CIRCLE
  5
23AA5
330
18
100
AcDbEntity
  8
実線
100
AcDbCircle
 10
-3126.789689507409
 20
-1312.890143322872
 30
0.0
 40
2.1
  0
CIRCLE
  5
23AA6
330
18
100
AcDbEntity
  8
細線
100
AcDbCircle
 10
-3126.789689507408
 20
-1312.890143322871
 30
0.0
 40
2.5
  0
CIRCLE
  5
23AA7
330
18
100
AcDbEntity
  8
細線
100
AcDbCircle
 10
-3046.789689507407
 20
-1312.890143322871
 30
0.0
 40
2.5
  0
CIRCLE
  5
23AA8
330
18
100
AcDbEntity
  8
実線
100
AcDbCircle
 10
-3046.789689507408
 20
-1312.890143322872
 30
0.0
 40
2.1
  0
LINE
  5
23AA9
330
18
100
AcDbEntity
  8
中心線
 48
3.0
100
AcDbLine
 10
-3051.289689507408
 20
-1312.890143322872
 30
0.0
 11
-3042.289689507407
 21
-1312.890143322872
 31
0.0
  0
LINE
  5
23AAA
330
18
100
AcDbEntity
  8
中心線
 48
3.0
100
AcDbLine
 10
-3091.289689507409
 20
-1312.890143322872
 30
0.0
 11
-3082.289689507407
 21
-1312.890143322872
 31
0.0
  0
CIRCLE
  5
23AAB
330
18
100
AcDbEntity
  8
実線
100
AcDbCircle
 10
-3086.789689507408
 20
-1312.890143322872
 30
0.0
 40
2.1
  0
LINE
  5
23AAC
330
18
100
AcDbEntity
  8
中心線
 48
3.0
100
AcDbLine
 10
-3086.789689507408
 20
-1317.390143322872
 30
0.0
 11
-3086.789689507408
 21
-1308.390143322872
 31
0.0
  0
CIRCLE
  5
23AAD
330
18
100
AcDbEntity
  8
細線
100
AcDbCircle
 10
-3086.789689507408
 20
-1312.890143322871
 30
0.0
 40
2.5
  0
CIRCLE
  5
23AAE
330
18
100
AcDbEntity
  8
細線
100
AcDbCircle
 10
-3006.789689507407
 20
-1312.890143322871
 30
0.0
 40
2.5
  0
LINE
  5
23AAF
330
18
100
AcDbEntity
  8
中心線
 48
3.0
100
AcDbLine
 10
-3006.789689507407
 20
-1317.390143322872
 30
0.0
 11
-3006.789689507407
 21
-1308.390143322872
 31
0.0
  0
CIRCLE
  5
23AB0
330
18
100
AcDbEntity
  8
実線
100
AcDbCircle
 10
-3006.789689507407
 20
-1312.890143322872
 30
0.0
 40
2.1
  0
LINE
  5
23AB1
330
18
100
AcDbEntity
  8
中心線
 48
3.0
100
AcDbLine
 10
-3011.289689507407
 20
-1312.890143322872
 30
0.0
 11
-3002.289689507407
 21
-1312.890143322872
 31
0.0
  0
LINE
  5
23AB2
330
18
100
AcDbEntity
  8
中心線
 48
3.0
100
AcDbLine
 10
-3046.789689507408
 20
-1317.390143322872
 30
0.0
 11
-3046.789689507408
 21
-1308.390143322872
 31
0.0
  0
LINE
  5
23AB3
330
18
100
AcDbEntity
  8
中心線
 48
3.0
100
AcDbLine
 10
-2966.789689507407
 20
-1317.390143322872
 30
0.0
 11
-2966.789689507407
 21
-1308.390143322872
 31
0.0
  0
CIRCLE
  5
23AB4
330
18
100
AcDbEntity
  8
実線
100
AcDbCircle
 10
-2966.789689507407
 20
-1312.890143322872
 30
0.0
 40
2.1
  0
LINE
  5
23AB5
330
18
100
AcDbEntity
  8
中心線
 48
3.0
100
AcDbLine
 10
-2971.289689507408
 20
-1312.890143322872
 30
0.0
 11
-2962.289689507407
 21
-1312.890143322872
 31
0.0
  0
CIRCLE
  5
23AB6
330
18
100
AcDbEntity
  8
細線
100
AcDbCircle
 10
-2966.789689507407
 20
-1312.890143322871
 30
0.0
 40
2.5
  0
LINE
  5
23AB7
330
18
100
AcDbEntity
  8
実線
100
AcDbLine
 10
-2968.472670521818
 20
-1327.950143322872
 30
0.0
 11
-2942.789689507407
 21
-1327.950143322872
 31
0.0
  0
LINE
  5
23AB8
330
18
100
AcDbEntity
  8
実線
100
AcDbLine
 10
-2966.07754723052
 20
-1307.95014332287
 30
0.0
 11
-2942.789689507407
 21
-1307.950143322872
 31
0.0
  0
LINE
  5
23C28
330
18
100
AcDbEntity
  8
実線
100
AcDbLine
 10
-3190.789689507407
 20
-1402.947391522769
 30
0.0
 11
-3190.789689507407
 21
-1307.947391522768
 31
0.0
  0
LINE
  5
23C3B
330
18
100
AcDbEntity
  8
中心線
 48
3.0
100
AcDbLine
 10
-3166.78968950741
 20
-1397.447391522768
 30
0.0
 11
-3166.78968950741
 21
-1388.447391522769
 31
0.0
  0
LINE
  5
23C3C
330
18
100
AcDbEntity
  8
中心線
 48
3.0
100
AcDbLine
 10
-3171.28968950741
 20
-1392.947391522769
 30
0.0
 11
-3162.28968950741
 21
-1392.947391522769
 31
0.0
  0
CIRCLE
  5
23C3D
330
18
100
AcDbEntity
  8
細線
100
AcDbCircle
 10
-3166.789689507409
 20
-1392.947391522768
 30
0.0
 40
2.5
  0
CIRCLE
  5
23C3E
330
18
100
AcDbEntity
  8
実線
100
AcDbCircle
 10
-3166.78968950741
 20
-1392.947391522769
 30
0.0
 40
2.1
  0
LINE
  5
23C3F
330
18
100
AcDbEntity
  8
中心線
 48
3.0
100
AcDbLine
 10
-3166.78968950741
 20
-1317.447391522769
 30
0.0
 11
-3166.78968950741
 21
-1308.447391522769
 31
0.0
  0
LINE
  5
23C40
330
18
100
AcDbEntity
  8
中心線
 48
3.0
100
AcDbLine
 10
-3171.28968950741
 20
-1312.947391522769
 30
0.0
 11
-3162.28968950741
 21
-1312.947391522769
 31
0.0
  0
CIRCLE
  5
23C41
330
18
100
AcDbEntity
  8
実線
100
AcDbCircle
 10
-3166.78968950741
 20
-1312.947391522769
 30
0.0
 40
2.1
  0
CIRCLE
  5
23C42
330
18
100
AcDbEntity
  8
細線
100
AcDbCircle
 10
-3166.789689507409
 20
-1312.947391522768
 30
0.0
 40
2.5
  0
LINE
  5
24254
330
18
100
AcDbEntity
  8
実線
100
AcDbLine
 10
-2942.789689507407
 20
-1252.849581986693
 30
0.0
 11
-3008.032896285606
 21
-1252.849581986693
 31
0.0
  0
LINE
  5
24255
330
18
100
AcDbEntity
  8
実線
100
AcDbLine
 10
-2942.789689507407
 20
-1269.849581986693
 30
0.0
 11
-3009.996243825485
 21
-1269.849581986693
 31
0.0
  0
LINE
  5
24257
330
18
100
AcDbEntity
  8
0
100
AcDbLine
 10
-3002.285637898535
 20
-1268.353467055586
 30
0.0
 11
-2968.285637898537
 21
-1268.353467055586
 31
0.0
  0
LINE
  5
24258
330
18
100
AcDbEntity
  8
0
100
AcDbLine
 10
-2967.785637898535
 20
-1261.353467055585
 30
0.0
 11
-3002.785637898536
 21
-1261.353467055585
 31
0.0
  0
LINE
  5
24259
330
18
100
AcDbEntity
  8
0
100
AcDbLine
 10
-2968.285637898537
 20
-1256.353467055586
 30
0.0
 11
-3002.285637898535
 21
-1256.353467055586
 31
0.0
  0
SPLINE
  5
2425B
330
18
100
AcDbEntity
  8
実線
100
AcDbSpline
210
0.0
220
0.0
230
1.0
 70
     8
 71
     3
 72
    12
 73
     8
 74
     6
 42
0.0000000001
 43
0.0000000001
 44
0.0000000001
 40
0.0
 40
0.0
 40
0.0
 40
0.0
 40
3.393404858668809
 40
9.239086133661384
 40
13.23455097091541
 40
17.27372249097043
 40
24.76338539145928
 40
24.76338539145928
 40
24.76338539145928
 40
24.76338539145928
 10
-3005.86232574943
 20
-1249.994276469107
 30
0.0
 10
-3006.590726667851
 20
-1250.844277781599
 30
0.0
 10
-3008.573914382083
 20
-1253.15854196961
 30
0.0
 10
-3010.187019279309
 20
-1257.952126246222
 30
0.0
 10
-3007.340221432879
 20
-1261.980390873694
 30
0.0
 10
-3007.900763227923
 20
-1267.487242246833
 30
0.0
 10
-3010.428761516253
 20
-1270.489030065576
 30
0.0
 10
-3012.071065872612
 20
-1272.439129966492
 30
0.0
 11
-3005.86232574943
 21
-1249.994276469107
 31
0.0
 11
-3007.931908915031
 21
-1252.683518380035
 31
0.0
 11
-3009.277136097947
 21
-1258.372310290024
 31
0.0
 11
-3007.828424132577
 21
-1262.095880204384
 31
0.0
 11
-3008.035384323862
 21
-1266.129746097996
 31
0.0
 11
-3012.071065872612
 21
-1272.439129966492
 31
0.0
  0
LINE
  5
2425C
330
18
100
AcDbEntity
  8
0
100
AcDbLine
 10
-3002.785637898536
 20
-1256.853467055585
 30
0.0
 11
-3002.785637898536
 21
-1267.853467055586
 31
0.0
  0
ARC
  5
2425D
330
18
100
AcDbEntity
  8
0
100
AcDbCircle
 10
-3002.285637898535
 20
-1267.853467055586
 30
0.0
 40
0.5
100
AcDbArc
 50
180.0
 51
270.0
  0
ARC
  5
2425E
330
18
100
AcDbEntity
  8
0
100
AcDbCircle
 10
-3002.285637898535
 20
-1256.853467055585
 30
0.0
 40
0.5
100
AcDbArc
 50
90.0
 51
180.0
  0
LINE
  5
2425F
330
18
100
AcDbEntity
  8
0
100
AcDbLine
 10
-2947.785637898535
 20
-1263.353467055587
 30
0.0
 11
-2962.785637898535
 21
-1263.353467055587
 31
0.0
  0
LWPOLYLINE
  5
24261
330
18
100
AcDbEntity
  8
0
100
AcDbPolyline
 90
        8
 70
     1
 43
0.0
 10
-2948.285637898536
 20
-1257.353467055587
 10
-2962.285637898537
 20
-1257.353467055586
 42
0.4142135623730951
 10
-2962.785637898535
 20
-1257.853467055586
 10
-2962.785637898535
 20
-1266.853467055585
 42
0.4142135623730951
 10
-2962.285637898537
 20
-1267.353467055586
 10
-2948.285637898536
 20
-1267.353467055586
 42
0.4142135623730996
 10
-2947.785637898535
 20
-1266.853467055585
 10
-2947.785637898535
 20
-1257.853467055586
 42
0.4142135623730904
  0
LINE
  5
2426A
330
18
100
AcDbEntity
  8
0
100
AcDbLine
 10
-2967.785637898535
 20
-1267.853467055586
 30
0.0
 11
-2967.785637898535
 21
-1256.853467055585
 31
0.0
  0
ARC
  5
2426C
330
18
100
AcDbEntity
  8
0
100
AcDbCircle
 10
-2968.285637898537
 20
-1267.853467055586
 30
0.0
 40
0.5
100
AcDbArc
 50
270.0
 51
0.0
  0
ARC
  5
2426D
330
18
100
AcDbEntity
  8
0
100
AcDbCircle
 10
-2968.285637898537
 20
-1256.853467055585
 30
0.0
 40
0.5
100
AcDbArc
 50
0.0
 51
90.0
  0
LINE
  5
24281
330
18
100
AcDbEntity
  8
実線
100
AcDbLine
 10
-2942.789689507407
 20
-1252.849581986693
 30
0.0
 11
-2942.789689507407
 21
-1269.849581986693
 31
0.0
  0
LINE
  5
244DA
330
18
100
AcDbEntity
  8
実線
100
AcDbLine
 10
-2942.789689507407
 20
-1401.454328363143
 30
0.0
 11
-2922.789689507407
 21
-1401.454328363143
 31
0.0
  0
LINE
  5
244DB
330
18
100
AcDbEntity
  8
実線
100
AcDbLine
 10
-2922.789689507407
 20
-1401.454328363143
 30
0.0
 11
-2922.789689507407
 21
-1394.454328363144
 31
0.0
  0
LINE
  5
244DC
330
18
100
AcDbEntity
  8
実線
100
AcDbLine
 10
-2922.789689507407
 20
-1394.454328363144
 30
0.0
 11
-2942.789689507407
 21
-1394.454328363144
 31
0.0
  0
LINE
  5
24512
330
18
100
AcDbEntity
  8
実線
100
AcDbLine
 10
-2917.967209180059
 20
-1260.449581986692
 30
0.0
 11
-2922.789689507407
 21
-1260.449581986692
 31
0.0
  0
LINE
  5
24513
330
18
100
AcDbEntity
  8
実線
100
AcDbLine
 10
-2922.789689507407
 20
-1254.149581986693
 30
0.0
 11
-2916.856349201596
 21
-1254.149581986693
 31
0.0
  0
LINE
  5
24514
330
18
100
AcDbEntity
  8
実線
100
AcDbLine
 10
-2922.789689507407
 20
-1253.799581986693
 30
0.0
 11
-2922.789689507407
 21
-1260.799581986693
 31
0.0
  0
LINE
  5
24515
330
18
100
AcDbEntity
  8
実線
100
AcDbLine
 10
-2922.789689507407
 20
-1260.799581986693
 30
0.0
 11
-2942.789689507407
 21
-1260.799581986693
 31
0.0
  0
LINE
  5
24516
330
18
100
AcDbEntity
  8
実線
100
AcDbLine
 10
-2942.789689507407
 20
-1253.799581986693
 30
0.0
 11
-2922.789689507407
 21
-1253.799581986693
 31
0.0
  0
LINE
  5
24517
330
18
100
AcDbEntity
  8
中心線
 48
0.4
100
AcDbLine
 10
-2918.153090445319
 20
-1261.503767026963
 30
0.0
 11
-2916.670467936337
 21
-1253.095396946421
 31
0.0
  0
LINE
  5
24518
330
18
100
AcDbEntity
  8
実線
100
AcDbLine
 10
-2942.789689507407
 20
-1254.849581986693
 30
0.0
 11
-3008.971370926821
 21
-1254.849581986693
 31
0.0
  0
LINE
  5
246C8
330
18
100
AcDbEntity
  8
２点鎖線
 48
0.5
100
AcDbLine
 10
-2846.937211300685
 20
-1407.191320198075
 30
0.0
 11
-2846.937211300696
 21
-1298.708966447638
 31
0.0
  0
LINE
  5
246C9
330
18
100
AcDbEntity
  8
実線
100
AcDbLine
 10
-2832.686141876196
 20
-1402.450143322855
 30
0.0
 11
-2832.686141876199
 21
-1377.950143322855
 31
0.0
  0
LINE
  5
246CC
330
18
100
AcDbEntity
  8
実線
100
AcDbLine
 10
-2812.686141876196
 20
-1402.950143322851
 30
0.0
 11
-2812.686141876197
 21
-1382.950143322851
 31
0.0
  0
LINE
  5
246CD
330
18
100
AcDbEntity
  8
２点鎖線
 48
0.3
100
AcDbLine
 10
-2806.686141876205
 20
-1312.950143322854
 30
0.0
 11
-2806.686141876205
 21
-1392.950143322854
 31
0.0
  0
LINE
  5
246CE
330
18
100
AcDbEntity
  8
２点鎖線
 48
0.3
100
AcDbLine
 10
-2802.686141876206
 20
-1312.950143322854
 30
0.0
 11
-2802.686141876206
 21
-1392.950143322854
 31
0.0
  0
LINE
  5
246CF
330
18
100
AcDbEntity
  8
実線
100
AcDbLine
 10
-2828.686141876197
 20
-1388.950143322855
 30
0.0
 11
-2828.686141876198
 21
-1377.950143322855
 31
0.0
  0
LINE
  5
246D2
330
18
100
AcDbEntity
  8
実線
100
AcDbLine
 10
-2829.686141876194
 20
-1402.950143322855
 30
0.0
 11
-2832.186141876196
 21
-1402.950143322855
 31
0.0
  0
LINE
  5
246D4
330
18
100
AcDbEntity
  8
中心線
 48
0.5
100
AcDbLine
 10
-2819.197694166374
 20
-1392.950143322853
 30
0.0
 11
-2834.686141876197
 21
-1392.950143322854
 31
0.0
  0
LINE
  5
246D5
330
18
100
AcDbEntity
  8
２点鎖線
 48
0.5
100
AcDbLine
 10
-2846.937211300685
 20
-1407.191320198075
 30
0.0
 11
-2832.686141876197
 21
-1407.191320198072
 31
0.0
  0
LINE
  5
246D6
330
18
100
AcDbEntity
  8
２点鎖線
100
AcDbLine
 10
-2832.686141876196
 20
-1402.450143322855
 30
0.0
 11
-2832.686141876194
 21
-1407.191320198072
 31
0.0
  0
LINE
  5
246D7
330
18
100
AcDbEntity
  8
実線
100
AcDbLine
 10
-2832.186141876196
 20
-1402.950143322855
 30
0.0
 11
-2832.686141876196
 21
-1402.450143322855
 31
0.0
  0
LINE
  5
246D8
330
18
100
AcDbEntity
  8
２点鎖線
 48
0.3
100
AcDbLine
 10
-2806.686141876205
 20
-1392.950143322854
 30
0.0
 11
-2802.686141876206
 21
-1392.950143322854
 31
0.0
  0
LINE
  5
246D9
330
18
100
AcDbEntity
  8
２点鎖線
 48
0.3
100
AcDbLine
 10
-2806.686141876205
 20
-1389.450143322854
 30
0.0
 11
-2802.686141876206
 21
-1389.450143322854
 31
0.0
  0
LINE
  5
246DA
330
18
100
AcDbEntity
  8
実線
100
AcDbLine
 10
-2824.686141876195
 20
-1402.950143322854
 30
0.0
 11
-2824.686141876197
 21
-1393.450143322854
 31
0.0
  0
LINE
  5
246DB
330
18
100
AcDbEntity
  8
実線
  6
HIDDEN
 48
5.0
100
AcDbLine
 10
-2812.686141876196
 20
-1402.450143322854
 30
0.0
 11
-2812.686141876196
 21
-1393.450143322854
 31
0.0
  0
LINE
  5
246DC
330
18
100
AcDbEntity
  8
中心線
  6
CENTER
 48
3.0
100
AcDbLine
 10
-2817.186141876195
 20
-1402.422609312884
 30
0.0
 11
-2817.186141876197
 21
-1393.477677332823
 31
0.0
  0
LINE
  5
246DD
330
18
100
AcDbEntity
  8
実線
100
AcDbLine
 10
-2829.686141876194
 20
-1402.950143322855
 30
0.0
 11
-2812.686141876196
 21
-1402.950143322851
 31
0.0
  0
LINE
  5
246DE
330
18
100
AcDbEntity
  8
実線
100
AcDbLine
 10
-2817.686141876196
 20
-1393.450143322853
 30
0.0
 11
-2817.686141876197
 21
-1388.950143322853
 31
0.0
  0
LINE
  5
246DF
330
18
100
AcDbEntity
  8
中心線
  6
CENTER
 48
3.0
100
AcDbLine
 10
-2821.658607866226
 20
-1397.950143322854
 30
0.0
 11
-2812.713675886165
 21
-1397.950143322854
 31
0.0
  0
CIRCLE
  5
246E0
330
18
100
AcDbEntity
  8
実線
100
AcDbCircle
 10
-2817.186141876195
 20
-1397.950143322854
 30
0.0
 40
3.5
  0
LINE
  5
246E1
330
18
100
AcDbEntity
  8
中心線
 48
0.2
100
AcDbLine
 10
-2826.986141876197
 20
-1394.343866469242
 30
0.0
 11
-2826.986141876197
 21
-1389.21828861303
 31
0.0
  0
LINE
  5
246E2
330
18
100
AcDbEntity
  8
中心線
  6
CENTER
 48
0.2
100
AcDbLine
 10
-2828.873257547511
 20
-1391.450143322854
 30
0.0
 11
-2824.037755060914
 21
-1391.450143322854
 31
0.0
  0
CIRCLE
  5
246E3
330
18
100
AcDbEntity
  8
細線
100
AcDbCircle
 10
-2826.986141876197
 20
-1391.450143322854
 30
0.0
 40
1.5
  0
CIRCLE
  5
246E4
330
18
100
AcDbEntity
  8
実線
 48
0.1
100
AcDbCircle
 10
-2826.986141876197
 20
-1391.450143322854
 30
0.0
 40
1.25
  0
LINE
  5
246E5
330
18
100
AcDbEntity
  8
中心線
 48
0.2
100
AcDbLine
 10
-2826.986141876195
 20
-1401.007114049654
 30
0.0
 11
-2826.986141876197
 21
-1395.746655433538
 31
0.0
  0
LINE
  5
246E6
330
18
100
AcDbEntity
  8
中心線
  6
CENTER
 48
0.2
100
AcDbLine
 10
-2828.873257547511
 20
-1398.450143322854
 30
0.0
 11
-2824.037755060914
 21
-1398.450143322854
 31
0.0
  0
CIRCLE
  5
246E7
330
18
100
AcDbEntity
  8
実線
 48
0.1
100
AcDbCircle
 10
-2826.986141876196
 20
-1398.450143322854
 30
0.0
 40
1.25
  0
CIRCLE
  5
246E8
330
18
100
AcDbEntity
  8
細線
100
AcDbCircle
 10
-2826.986141876196
 20
-1398.450143322854
 30
0.0
 40
1.5
  0
LINE
  5
246E9
330
18
100
AcDbEntity
  8
実線
100
AcDbLine
 10
-2828.686141876197
 20
-1388.950143322854
 30
0.0
 11
-2817.686141876197
 21
-1388.950143322853
 31
0.0
  0
LINE
  5
246EA
330
18
100
AcDbEntity
  8
実線
100
AcDbLine
 10
-2824.686141876197
 20
-1393.450143322854
 30
0.0
 11
-2817.686141876196
 21
-1393.450143322853
 31
0.0
  0
LINE
  5
246EF
330
18
100
AcDbEntity
  8
２点鎖線
100
AcDbLine
 10
-2832.686141876206
 20
-1298.708966447638
 30
0.0
 11
-2832.686141876206
 21
-1308.450143322854
 31
0.0
  0
LINE
  5
246F4
330
18
100
AcDbEntity
  8
２点鎖線
100
AcDbLine
 10
-2832.686141876198
 20
-1329.109946297641
 30
0.0
 11
-2832.686141876198
 21
-1376.790340348066
 31
0.0
  0
LINE
  5
246F5
330
18
100
AcDbEntity
  8
実線
100
AcDbLine
 10
-2824.686141876197
 20
-1373.709946297642
 30
0.0
 11
-2824.686141876201
 21
-1332.190340348067
 31
0.0
  0
LINE
  5
246F6
330
18
100
AcDbEntity
  8
実線
100
AcDbLine
 10
-2817.286141876204
 20
-1322.950143322852
 30
0.0
 11
-2817.286141876198
 21
-1382.950143322851
 31
0.0
  0
LINE
  5
246F7
330
18
100
AcDbEntity
  8
２点鎖線
 48
0.3
100
AcDbLine
 10
-2816.786141876205
 20
-1327.750143322854
 30
0.0
 11
-2816.786141876205
 21
-1378.150143322854
 31
0.0
  0
LINE
  5
246FB
330
18
100
AcDbEntity
  8
実線
100
AcDbLine
 10
-2828.686141876198
 20
-1377.950143322855
 30
0.0
 11
-2832.686141876198
 21
-1377.950143322855
 31
0.0
  0
LINE
  5
246FC
330
18
100
AcDbEntity
  8
実線
100
AcDbLine
 10
-2825.513761544445
 20
-1374.694976764798
 30
0.0
 11
-2831.858522207949
 21
-1375.805309880911
 31
0.0
  0
LINE
  5
246FD
330
18
100
AcDbEntity
  8
中心線
 48
0.5
100
AcDbLine
 10
-2805.807551131959
 20
-1352.950143322852
 30
0.0
 11
-2836.34493264429
 21
-1352.950143322855
 31
0.0
  0
LINE
  5
246FE
330
18
100
AcDbEntity
  8
実線
100
AcDbLine
 10
-2832.686141876198
 20
-1376.790340348066
 30
0.0
 11
-2832.686141876199
 21
-1377.950143322855
 31
0.0
  0
ARC
  5
246FF
330
18
100
AcDbEntity
  8
実線
100
AcDbCircle
 10
-2831.686141876197
 20
-1376.790340348067
 30
0.0
 40
1.0
100
AcDbArc
 50
99.92624550665331
 51
179.9999999999739
  0
LINE
  5
24700
330
18
100
AcDbEntity
  8
２点鎖線
 48
0.3
100
AcDbLine
 10
-2806.686141876205
 20
-1384.450143322854
 30
0.0
 11
-2802.686141876206
 21
-1384.450143322854
 31
0.0
  0
LINE
  5
24701
330
18
100
AcDbEntity
  8
２点鎖線
 48
0.3
100
AcDbLine
 10
-2808.686141876205
 20
-1386.950143322854
 30
0.0
 11
-2800.686141876205
 21
-1386.950143322854
 31
0.0
  0
LINE
  5
24702
330
18
100
AcDbEntity
  8
実線
 48
4.0
100
AcDbLine
 10
-2812.686141876197
 20
-1382.950143322851
 30
0.0
 11
-2817.286141876198
 21
-1382.950143322851
 31
0.0
  0
ARC
  5
24703
330
18
100
AcDbEntity
  8
実線
100
AcDbCircle
 10
-2825.686141876198
 20
-1373.709946297642
 30
0.0
 40
1.0
100
AcDbArc
 50
279.9262455066533
 51
0.0
  0
LINE
  5
24704
330
18
100
AcDbEntity
  8
２点鎖線
 48
0.3
100
AcDbLine
 10
-2816.786141876205
 20
-1378.150143322854
 30
0.0
 11
-2806.686141876205
 21
-1378.150143322854
 31
0.0
  0
LINE
  5
24705
330
18
100
AcDbEntity
  8
実線
100
AcDbLine
 10
-2828.686141876204
 20
-1327.950143322854
 30
0.0
 11
-2832.686141876204
 21
-1327.950143322854
 31
0.0
  0
LINE
  5
24706
330
18
100
AcDbEntity
  8
実線
100
AcDbLine
 10
-2825.513761544449
 20
-1331.205309880911
 30
0.0
 11
-2831.858522207951
 21
-1330.094976764798
 31
0.0
  0
LINE
  5
24707
330
18
100
AcDbEntity
  8
実線
100
AcDbLine
 10
-2829.686141876205
 20
-1307.950143322854
 30
0.0
 11
-2832.186141876206
 21
-1307.950143322854
 31
0.0
  0
LINE
  5
24708
330
18
100
AcDbEntity
  8
中心線
  6
CENTER
 48
0.3
100
AcDbLine
 10
-2818.816726081899
 20
-1312.950143322852
 30
0.0
 11
-2834.686141876199
 21
-1312.950143322854
 31
0.0
  0
LINE
  5
24709
330
18
100
AcDbEntity
  8
実線
100
AcDbLine
 10
-2832.686141876198
 20
-1327.950143322855
 30
0.0
 11
-2832.686141876201
 21
-1308.450143322854
 31
0.0
  0
LINE
  5
2470A
330
18
100
AcDbEntity
  8
実線
100
AcDbLine
 10
-2832.686141876198
 20
-1327.950143322854
 30
0.0
 11
-2832.686141876198
 21
-1329.109946297641
 31
0.0
  0
ARC
  5
2470B
330
18
100
AcDbEntity
  8
実線
 48
0.5
100
AcDbCircle
 10
-2831.686141876197
 20
-1329.109946297641
 30
0.0
 40
1.0
100
AcDbArc
 50
180.0
 51
260.0737544933465
  0
LINE
  5
2470C
330
18
100
AcDbEntity
  8
実線
100
AcDbLine
 10
-2832.686141876206
 20
-1308.450143322854
 30
0.0
 11
-2832.186141876206
 21
-1307.950143322854
 31
0.0
  0
LINE
  5
2470F
330
18
100
AcDbEntity
  8
２点鎖線
 48
0.3
100
AcDbLine
 10
-2806.686141876205
 20
-1321.450143322854
 30
0.0
 11
-2802.686141876206
 21
-1321.450143322854
 31
0.0
  0
LINE
  5
24710
330
18
100
AcDbEntity
  8
２点鎖線
 48
0.3
100
AcDbLine
 10
-2806.686141876205
 20
-1312.950143322854
 30
0.0
 11
-2802.686141876206
 21
-1312.950143322854
 31
0.0
  0
LINE
  5
24711
330
18
100
AcDbEntity
  8
２点鎖線
 48
0.3
100
AcDbLine
 10
-2806.686141876205
 20
-1316.450143322854
 30
0.0
 11
-2802.686141876206
 21
-1316.450143322854
 31
0.0
  0
LINE
  5
24712
330
18
100
AcDbEntity
  8
中心線
  6
CENTER
 48
3.0
100
AcDbLine
 10
-2808.686141876205
 20
-1318.950143322854
 30
0.0
 11
-2800.686141876205
 21
-1318.950143322854
 31
0.0
  0
LINE
  5
24713
330
18
100
AcDbEntity
  8
実線
100
AcDbLine
 10
-2815.686141876205
 20
-1316.950143322854
 30
0.0
 11
-2815.686141876206
 21
-1307.950143322854
 31
0.0
  0
LINE
  5
24714
330
18
100
AcDbEntity
  8
実線
 48
4.0
100
AcDbLine
 10
-2815.686141876205
 20
-1322.950143322852
 30
0.0
 11
-2817.286141876205
 21
-1322.950143322852
 31
0.0
  0
LINE
  5
24715
330
18
100
AcDbEntity
  8
実線
100
AcDbLine
 10
-2815.686141876205
 20
-1322.950143322852
 30
0.0
 11
-2815.686141876206
 21
-1307.950143322853
 31
0.0
  0
LINE
  5
24716
330
18
100
AcDbEntity
  8
実線
100
AcDbLine
 10
-2817.697499447616
 20
-1316.950143322854
 30
0.0
 11
-2817.697499447616
 21
-1307.950143322854
 31
0.0
  0
ARC
  5
24717
330
18
100
AcDbEntity
  8
実線
100
AcDbCircle
 10
-2825.686141876201
 20
-1332.190340348067
 30
0.0
 40
1.0
100
AcDbArc
 50
0.0
 51
80.0737544933467
  0
LINE
  5
24718
330
18
100
AcDbEntity
  8
実線
100
AcDbLine
 10
-2828.686141876204
 20
-1327.950143322854
 30
0.0
 11
-2828.686141876205
 21
-1316.950143322855
 31
0.0
  0
LINE
  5
24719
330
18
100
AcDbEntity
  8
実線
100
AcDbLine
 10
-2817.697499447616
 20
-1316.950143322854
 30
0.0
 11
-2828.686141876205
 21
-1316.950143322855
 31
0.0
  0
LINE
  5
2471A
330
18
100
AcDbEntity
  8
実線
100
AcDbLine
 10
-2815.686141876206
 20
-1307.950143322854
 30
0.0
 11
-2829.686141876205
 21
-1307.950143322855
 31
0.0
  0
LINE
  5
2471C
330
18
100
AcDbEntity
  8
２点鎖線
 48
0.3
100
AcDbLine
 10
-2816.786141876205
 20
-1327.750143322854
 30
0.0
 11
-2806.686141876205
 21
-1327.750143322854
 31
0.0
  0
LINE
  5
2471F
330
18
100
AcDbEntity
  8
２点鎖線
 48
0.5
100
AcDbLine
 10
-2846.937211300696
 20
-1298.708966447638
 30
0.0
 11
-2832.686141876199
 21
-1298.708966447638
 31
0.0
  0
LINE
  5
24905
330
18
100
AcDbEntity
  8
実線
100
AcDbLine
 10
-3190.789689507407
 20
-1375.950143322872
 30
0.0
 11
-2942.789689507407
 21
-1375.950143322872
 31
0.0
  0
LINE
  5
24906
330
18
100
AcDbEntity
  8
実線
100
AcDbLine
 10
-3190.789689507407
 20
-1374.550143322871
 30
0.0
 11
-2942.789689507407
 21
-1374.550143322871
 31
0.0
  0
LINE
  5
24907
330
18
100
AcDbEntity
  8
実線
100
AcDbLine
 10
-3190.789689507407
 20
-1329.950143322871
 30
0.0
 11
-2942.789689507407
 21
-1329.950143322871
 31
0.0
  0
LINE
  5
24908
330
18
100
AcDbEntity
  8
実線
100
AcDbLine
 10
-3190.789689507407
 20
-1331.350143322872
 30
0.0
 11
-2942.789689507407
 21
-1331.350143322872
 31
0.0
  0
LINE
  5
24909
330
18
100
AcDbEntity
  8
実線
100
AcDbLine
 10
-3187.789689507407
 20
-1402.947391522769
 30
0.0
 11
-3187.789689507407
 21
-1377.950143322872
 31
0.0
  0
LINE
  5
2490A
330
18
100
AcDbEntity
  8
実線
100
AcDbLine
 10
-3187.789689507407
 20
-1327.950143322872
 30
0.0
 11
-3187.789689507407
 21
-1307.947391522768
 31
0.0
  0
VIEWPORT
  5
23
330
15
100
AcDbEntity
 67
     1
  8
0
100
AcDbViewport
 10
199.9983676050733
 20
144.0013834175834
 30
0.0
 40
443.9879371636571
 41
290.5834671802009
 68
     1
 69
     1
1001
ACAD
1000
MVIEW
1002
{
1070
    16
1010
0.0
1020
0.0
1030
0.0
1010
0.0
1020
0.0
1030
1.0
1040
0.0
1040
290.5834671802009
1040
199.9983676050733
1040
144.0013834175834
1040
50.0
1040
0.0
1040
0.0
1070
     0
1070
   100
1070
     1
1070
     0
1070
     0
1070
     0
1070
     0
1070
     0
1040
0.0
1040
0.0
1040
0.0
1040
10.0
1040
10.0
1040
10.0
1040
10.0
1070
     0
1002
{
1002
}
1002
}
  0
VIEWPORT
  5
2E
330
15
100
AcDbEntity
 67
     1
  8
M_VIEW
100
AcDbViewport
 10
200.0
 20
144.0
 30
0.0
 40
400.0
 41
288.0
 68
     2
 69
     2
1001
ACAD
1000
MVIEW
1002
{
1070
    16
1010
0.0
1020
0.0
1030
0.0
1010
0.0
1020
0.0
1030
1.0
1040
0.0
1040
287.9999993328212
1040
-2998.261054105505
1040
-1372.642292073663
1040
50.0
1040
0.0
1040
0.0
1070
     0
1070
   100
1070
     1
1070
     0
1070
     0
1070
     0
1070
     0
1070
     0
1040
0.0
1040
0.0
1040
0.0
1040
10.0
1040
10.0
1040
10.0
1040
10.0
1070
     0
1002
{
1002
}
1002
}
  0
INSERT
  5
115F
330
15
100
AcDbEntity
 67
     1
  8
FRAME025
100
AcDbBlockReference
  2
機械A4横_LBP
 10
82.74908858651452
 20
152.030959079227
 30
0.0
  0
TEXT
  5
AA6A
330
15
100
AcDbEntity
 67
     1
  8
文字
  6
BYBLOCK
 62
     0
100
AcDbText
 10
32.81885892396519
 20
73.01882819621747
 30
0.0
 40
3.2
  1

 50
90.0
 41
0.625
  7
MSｺ_ｼｯｸ
100
AcDbText
  0
TEXT
  5
AA6C
330
15
100
AcDbEntity
 67
     1
  8
文字
  6
BYBLOCK
 62
     0
100
AcDbText
 10
37.25020936743055
 20
73.01882819621747
 30
0.0
 40
3.2
  1

 50
90.0
 41
0.625
  7
MSｺ_ｼｯｸ
100
AcDbText
  0
TEXT
  5
FCA5
330
15
100
AcDbEntity
 67
     1
  8
FRAME020
  6
CONTINUOUS
100
AcDbText
 10
126.6213117262079
 20
29.63926951973459
 30
0.0
 40
2.5
  1

 41
0.625
  7
MSｺ_ｼｯｸ
100
AcDbText
  0
TEXT
  5
12229
330
15
100
AcDbEntity
 67
     1
  8
0
100
AcDbText
 10
324.703280378293
 20
10.63168299257869
 30
0.0
 40
6.0
  1
ＳＥ－３７０３１B
 41
1.1
100
AcDbText
  0
MTEXT
  5
21047
330
15
100
AcDbEntity
 67
     1
  8
0
 48
10.0
100
AcDbMText
 10
327.7719738752167
 20
55.46212977036839
 30
0.0
 40
6.0
 41
50.05040000000001
 71
     1
 72
     5
  1
{\fＭＳ ゴシック|b0|i0|c128|p49;\L質量：0.96kg}
1001
ACAD
1000
MTEXTBEGIN
1070
    73
1070
     1
1070
    44
1040
1.0
1070
    74
1070
     0
1000
MTEXTEND
1000
MTEXTBEGIN
1070
    73
1070
     1
1070
    44
1040
1.0
1070
    74
1070
     0
1000
MTEXTEND
  0
MTEXT
  5
249C6
330
15
100
AcDbEntity
 67
     1
  8
文字
100
AcDbMText
 10
209.6254129783264
 20
27.4225513967591
 30
0.0
 40
6.0
 41
189.3939646235157
 71
     1
 72
     5
  1
{\fＭＳ ゴシック|b0|i0|c128|p49;τﾘﾆｱﾓｰﾀ ｺｱﾚｽﾌﾗｯﾄ NVA-AM CLﾕﾆｯﾄ CLV-AMD30A2B 90N}
  7
ｽﾀｲﾙ3
1001
ACAD
1000
MTEXTBEGIN
1070
    73
1070
     1
1070
    44
1040
1.0
1070
    74
1070
     0
1000
MTEXTEND
1000
MTEXTBEGIN
1070
    73
1070
     1
1070
    44
1040
1.0
1070
    74
1070
     0
1000
MTEXTEND
1000
MTEXTBEGIN
1070
    73
1070
     1
1070
    44
1040
1.0
1070
    74
1070
     0
1000
MTEXTEND
  0
ENDSEC
  0
SECTION
  2
OBJECTS
  0
DICTIONARY
  5
C
330
0
100
AcDbDictionary
  3
ACAD_GROUP
350
D
  3
ACAD_LAYOUT
350
DB2
  3
ACAD_MLINESTYLE
350
1B
  3
ACAD_PLOTSETTINGS
350
DB3
  3
ACAD_PLOTSTYLENAME
350
FB5B
  3
ACADDIM
350
1B534
  3
ACDBHEADERROUNDTRIPXREC
350
24A6C
  3
ACDBVARIABLEDICTIONARY
350
106A6
  3
ASE_INDEX_DICTIONARY
350
1A99F
  3
DWGPROPS
350
15EC9
1001
ACAD
1000
TREAT_AS_HARD
1070
     0
  0
DICTIONARY
  5
244DE
330
2
100
AcDbDictionary
280
     1
  3
ACAD_LAYERFILTERS
360
244DF
  3
ACAD_LAYERSTATES
360
244EB
  0
DICTIONARY
  5
EFC6
330
18
100
AcDbDictionary
280
     1
  3
ACAD_LAYOUTSELFREF
360
24A8E
  0
DICTIONARY
  5
EFC4
330
15
100
AcDbDictionary
280
     1
  3
ACAD_LAYOUTSELFREF
360
24A8D
  0
DICTIONARY
  5
D
102
{ACAD_REACTORS
330
C
102
}
330
C
100
AcDbDictionary
  3
*A1
350
AC8A
  3
*A10
350
106C7
  3
*A100
350
19FAB
  3
*A101
350
19861
  3
*A102
350
19AA4
  3
*A103
350
1D6A2
  3
*A104
350
18F1F
  3
*A105
350
23216
  3
*A106
350
169DA
  3
*A107
350
22A72
  3
*A108
350
19794
  3
*A109
350
17389
  3
*A11
350
2001F
  3
*A110
350
1EB7D
  3
*A111
350
1738B
  3
*A112
350
22015
  3
*A113
350
1F8FF
  3
*A114
350
1D6E8
  3
*A115
350
1AA94
  3
*A116
350
1B756
  3
*A117
350
20231
  3
*A118
350
2342E
  3
*A119
350
22430
  3
*A12
350
19881
  3
*A120
350
19787
  3
*A121
350
1F909
  3
*A122
350
2284C
  3
*A123
350
1D6DE
  3
*A124
350
FBFF
  3
*A125
350
21E86
  3
*A126
350
20236
  3
*A127
350
1F904
  3
*A128
350
23F10
  3
*A129
350
2342F
  3
*A13
350
1D6D4
  3
*A130
350
1B729
  3
*A131
350
18F23
  3
*A132
350
22A71
  3
*A133
350
23F0D
  3
*A134
350
22231
  3
*A135
350
AC9A
  3
*A136
350
173BF
  3
*A137
350
1D698
  3
*A138
350
23430
  3
*A139
350
106B3
  3
*A14
350
19F55
  3
*A140
350
1F8F5
  3
*A141
350
23F0C
  3
*A142
350
22639
  3
*A143
350
173BE
  3
*A144
350
1B744
  3
*A145
350
23431
  3
*A146
350
20CA2
  3
*A147
350
18F20
  3
*A148
350
23C27
  3
*A149
350
2284D
  3
*A15
350
1D710
  3
*A150
350
1D67A
  3
*A151
350
23432
  3
*A152
350
23F0F
  3
*A153
350
23C26
  3
*A154
350
106A5
  3
*A155
350
20025
  3
*A156
350
23788
  3
*A157
350
23F0E
  3
*A158
350
23C25
  3
*A159
350
22CA0
  3
*A16
350
20227
  3
*A160
350
23789
  3
*A161
350
23C24
  3
*A162
350
22CA3
  3
*A163
350
2378A
  3
*A164
350
2378C
  3
*A165
350
231F5
  3
*A166
350
17B11
  3
*A167
350
2378B
  3
*A168
350
19786
  3
*A169
350
2020E
  3
*A17
350
1738A
  3
*A170
350
1D670
  3
*A171
350
FB6B
  3
*A172
350
1606B
  3
*A173
350
1F91D
  3
*A174
350
22014
  3
*A175
350
22232
  3
*A176
350
2263A
  3
*A177
350
19A5A
  3
*A178
350
1EB7E
  3
*A179
350
21D4E
  3
*A18
350
1D6FC
  3
*A180
350
1B720
  3
*A181
350
20213
  3
*A182
350
19F87
  3
*A183
350
FB6C
  3
*A184
350
20028
  3
*A185
350
20CA6
  3
*A186
350
18F21
  3
*A187
350
18FA6
  3
*A188
350
2022C
  3
*A189
350
17901
  3
*A19
350
17BFF
  3
*A2
350
2284E
  3
*A20
350
1F8FA
  3
*A21
350
21D4D
  3
*A22
350
19988
  3
*A23
350
1D684
  3
*A24
350
1606A
  3
*A25
350
FC9A
  3
*A26
350
16059
  3
*A27
350
1F8F0
  3
*A28
350
173BD
  3
*A29
350
FC9B
  3
*A3
350
20022
  3
*A30
350
1EB7F
  3
*A31
350
1D6B6
  3
*A32
350
22CA1
  3
*A33
350
2222F
  3
*A34
350
ACBD
  3
*A35
350
18F22
  3
*A36
350
22016
  3
*A37
350
21E50
  3
*A38
350
ACA2
  3
*A39
350
19255
  3
*A4
350
19729
  3
*A40
350
18FA7
  3
*A41
350
2242D
  3
*A42
350
231AD
  3
*A43
350
2001C
  3
*A44
350
ACA1
  3
*A45
350
2242E
  3
*A46
350
22230
  3
*A47
350
1EB7C
  3
*A48
350
19F99
  3
*A49
350
1D6F2
  3
*A5
350
20209
  3
*A50
350
1D6C0
  3
*A51
350
1D6CA
  3
*A52
350
19A52
  3
*A53
350
2263B
  3
*A54
350
19F67
  3
*A55
350
1998A
  3
*A56
350
18FA8
  3
*A57
350
ACB4
  3
*A58
350
FC95
  3
*A59
350
FCB8
  3
*A6
350
2284F
  3
*A60
350
1B73B
  3
*A61
350
1EB80
  3
*A62
350
198F1
  3
*A63
350
20019
  3
*A64
350
2002B
  3
*A65
350
16069
  3
*A66
350
19259
  3
*A67
350
1D68E
  3
*A68
350
20016
  3
*A69
350
16068
  3
*A7
350
19A86
  3
*A70
350
106C6
  3
*A71
350
ACAB
  3
*A72
350
1A691
  3
*A73
350
196C2
  3
*A74
350
20013
  3
*A75
350
1D706
  3
*A76
350
20218
  3
*A77
350
1D6AC
  3
*A78
350
1B74D
  3
*A79
350
16058
  3
*A8
350
FC91
  3
*A80
350
1B732
  3
*A81
350
1A695
  3
*A82
350
20222
  3
*A83
350
19989
  3
*A84
350
20010
  3
*A85
350
1A692
  3
*A86
350
19256
  3
*A87
350
1A09A
  3
*A88
350
1F918
  3
*A89
350
1F913
  3
*A9
350
19A51
  3
*A90
350
1F90E
  3
*A91
350
231F9
  3
*A92
350
231AE
  3
*A93
350
22CA2
  3
*A94
350
22A73
  3
*A95
350
22A70
  3
*A96
350
2263C
  3
*A97
350
2242F
  3
*A98
350
22017
  3
*A99
350
2021D
1001
ACAD
1000
TREAT_AS_HARD
1070
     0
  0
DICTIONARY
  5
DB2
102
{ACAD_REACTORS
330
C
102
}
330
C
100
AcDbDictionary
1001
ACAD
1000
TREAT_AS_HARD
1070
     0
  0
DICTIONARY
  5
1B
102
{ACAD_REACTORS
330
C
102
}
330
C
100
AcDbDictionary
  3
STANDARD
350
1C
1001
ACAD
1000
TREAT_AS_HARD
1070
     0
  0
DICTIONARY
  5
DB3
102
{ACAD_REACTORS
330
C
102
}
330
C
100
AcDbDictionary
1001
ACAD
1000
TREAT_AS_HARD
1070
     0
  0
ACDBDICTIONARYWDFLT
  5
FB5B
102
{ACAD_REACTORS
330
C
102
}
330
C
100
AcDbDictionary
281
     1
  3
Normal
350
FB5C
100
AcDbDictionaryWithDefault
340
FB5C
  0
XRECORD
  5
1B534
102
{ACAD_REACTORS
330
C
102
}
330
C
100
AcDbXrecord
 90
   990106
  3

 60
     0
 61
     0
 62
     4
 63
     4
 64
     1
 65
     0
 66
     0
 67
     3
 68
     1
 69
     0
 70
     0
 71
     0
 72
     0
 40
0.0
170
     2
340
0
  0
DICTIONARY
  5
24A6C
102
{ACAD_REACTORS
330
C
102
}
330
C
100
AcDbDictionary
  3
CEPSNTYPE
350
24A76
  3
DIMSTYLEDATA
350
24A7A
  3
FINGERPRINTGUID
350
24A77
  3
HYPERLINKBASE
350
24A6F
  3
INSUNITS
350
24A75
  3
LAYOUTDICT
350
24A71
  3
LWETCUNION
350
24A74
  3
PLOTSETDICT
350
24A72
  3
PLOTSTYLNAMDICT
350
24A73
  3
PSVPSCALE
350
24A79
  3
PUCSBASE
350
24A7D
  3
PUCSORGBACK
350
24A83
  3
PUCSORGBOTTOM
350
24A7F
  3
PUCSORGFRONT
350
24A82
  3
PUCSORGLEFT
350
24A80
  3
PUCSORGRIGHT
350
24A81
  3
PUCSORGTOP
350
24A7E
  3
PUCSORTHOREF
350
24A7B
  3
PUCSORTHOVIEW
350
24A7C
  3
STYLESHEET
350
24A70
  3
TSTACKALIGN
350
24A6D
  3
TSTACKSIZE
350
24A6E
  3
UCSBASE
350
24A86
  3
UCSORGBACK
350
24A8C
  3
UCSORGBOTTOM
350
24A88
  3
UCSORGFRONT
350
24A8B
  3
UCSORGLEFT
350
24A89
  3
UCSORGRIGHT
350
24A8A
  3
UCSORGTOP
350
24A87
  3
UCSORTHOREF
350
24A84
  3
UCSORTHOVIEW
350
24A85
  3
VERSIONGUID
350
24A78
  0
DICTIONARY
  5
106A6
102
{ACAD_REACTORS
330
C
102
}
330
C
100
AcDbDictionary
  3
SORTENTS
350
106A7
  0
DICTIONARY
  5
1A99F
102
{ACAD_REACTORS
330
C
102
}
330
C
100
AcDbDictionary
  3
ASEBLOCKHIERARCHYINDEXRECORD
350
1A9A1
1001
DCO15
1040
1464612067.17
  0
XRECORD
  5
15EC9
102
{ACAD_REACTORS
330
C
102
}
330
C
100
AcDbXrecord
  1
DWGPROPS COOKIE
  2

  3

  4

  6

  7

  8

  9

300
=
301
=
302
=
303
=
304
=
305
=
306
=
307
=
308
=
309
=
 40
12.65185717592592
 41
2451224.660162384
 42
2452395.660827315
  1

 90
        0
  0
DICTIONARY
  5
244DF
102
{ACAD_REACTORS
330
244DE
102
}
330
244DE
100
AcDbDictionary
280
     1
  3
0
360
244E0
  3
11
360
244E1
  3
150_
360
244E2
  3
160_
360
244E3
  3
170_
360
244E4
  3
171_
360
244E5
  3
350_
360
244E6
  3
4
360
244E7
  3
5
360
244E8
  3
7
360
244E9
  3
KISEKI
360
244EA
  0
DICTIONARY
  5
244EB
102
{ACAD_REACTORS
330
244DE
102
}
330
244DE
100
AcDbDictionary
  0
XRECORD
  5
24A8E
102
{ACAD_REACTORS
330
EFC6
102
}
330
EFC6
100
AcDbXrecord
340
18
  0
XRECORD
  5
24A8D
102
{ACAD_REACTORS
330
EFC4
102
}
330
EFC4
100
AcDbXrecord
340
15
  0
GROUP
  5
AC8A
102
{ACAD_REACTORS
330
D
102
}
330
D
100
AcDbGroup
300

 70
     1
 71
     1
  0
GROUP
  5
106C7
102
{ACAD_REACTORS
330
D
102
}
330
D
100
AcDbGroup
300

 70
     1
 71
     1
  0
GROUP
  5
19FAB
102
{ACAD_REACTORS
330
D
102
}
330
D
100
AcDbGroup
300

 70
     1
 71
     1
  0
GROUP
  5
19861
102
{ACAD_REACTORS
330
D
102
}
330
D
100
AcDbGroup
300

 70
     1
 71
     1
  0
GROUP
  5
19AA4
102
{ACAD_REACTORS
330
D
102
}
330
D
100
AcDbGroup
300

 70
     1
 71
     1
  0
GROUP
  5
1D6A2
102
{ACAD_REACTORS
330
D
102
}
330
D
100
AcDbGroup
300

 70
     1
 71
     1
  0
GROUP
  5
18F1F
102
{ACAD_REACTORS
330
D
102
}
330
D
100
AcDbGroup
300

 70
     1
 71
     1
  0
GROUP
  5
23216
102
{ACAD_REACTORS
330
D
102
}
330
D
100
AcDbGroup
300

 70
     1
 71
     1
  0
GROUP
  5
169DA
102
{ACAD_REACTORS
330
D
102
}
330
D
100
AcDbGroup
300

 70
     1
 71
     1
  0
GROUP
  5
22A72
102
{ACAD_REACTORS
330
D
102
}
330
D
100
AcDbGroup
300

 70
     1
 71
     1
  0
GROUP
  5
19794
102
{ACAD_REACTORS
330
D
102
}
330
D
100
AcDbGroup
300

 70
     1
 71
     1
  0
GROUP
  5
17389
102
{ACAD_REACTORS
330
D
102
}
330
D
100
AcDbGroup
300

 70
     1
 71
     1
  0
GROUP
  5
2001F
102
{ACAD_REACTORS
330
D
102
}
330
D
100
AcDbGroup
300

 70
     1
 71
     1
  0
GROUP
  5
1EB7D
102
{ACAD_REACTORS
330
D
102
}
330
D
100
AcDbGroup
300

 70
     1
 71
     1
  0
GROUP
  5
1738B
102
{ACAD_REACTORS
330
D
102
}
330
D
100
AcDbGroup
300

 70
     1
 71
     1
  0
GROUP
  5
22015
102
{ACAD_REACTORS
330
D
102
}
330
D
100
AcDbGroup
300

 70
     1
 71
     1
  0
GROUP
  5
1F8FF
102
{ACAD_REACTORS
330
D
102
}
330
D
100
AcDbGroup
300

 70
     1
 71
     1
  0
GROUP
  5
1D6E8
102
{ACAD_REACTORS
330
D
102
}
330
D
100
AcDbGroup
300

 70
     1
 71
     1
  0
GROUP
  5
1AA94
102
{ACAD_REACTORS
330
D
102
}
330
D
100
AcDbGroup
300

 70
     1
 71
     1
  0
GROUP
  5
1B756
102
{ACAD_REACTORS
330
D
102
}
330
D
100
AcDbGroup
300

 70
     1
 71
     1
  0
GROUP
  5
20231
102
{ACAD_REACTORS
330
D
102
}
330
D
100
AcDbGroup
300

 70
     1
 71
     1
  0
GROUP
  5
2342E
102
{ACAD_REACTORS
330
D
102
}
330
D
100
AcDbGroup
300

 70
     1
 71
     1
  0
GROUP
  5
22430
102
{ACAD_REACTORS
330
D
102
}
330
D
100
AcDbGroup
300

 70
     1
 71
     1
  0
GROUP
  5
19881
102
{ACAD_REACTORS
330
D
102
}
330
D
100
AcDbGroup
300

 70
     1
 71
     1
  0
GROUP
  5
19787
102
{ACAD_REACTORS
330
D
102
}
330
D
100
AcDbGroup
300

 70
     1
 71
     1
  0
GROUP
  5
1F909
102
{ACAD_REACTORS
330
D
102
}
330
D
100
AcDbGroup
300

 70
     1
 71
     1
  0
GROUP
  5
2284C
102
{ACAD_REACTORS
330
D
102
}
330
D
100
AcDbGroup
300

 70
     1
 71
     1
  0
GROUP
  5
1D6DE
102
{ACAD_REACTORS
330
D
102
}
330
D
100
AcDbGroup
300

 70
     1
 71
     1
  0
GROUP
  5
FBFF
102
{ACAD_REACTORS
330
D
102
}
330
D
100
AcDbGroup
300

 70
     1
 71
     1
  0
GROUP
  5
21E86
102
{ACAD_REACTORS
330
D
102
}
330
D
100
AcDbGroup
300

 70
     1
 71
     1
  0
GROUP
  5
20236
102
{ACAD_REACTORS
330
D
102
}
330
D
100
AcDbGroup
300

 70
     1
 71
     1
  0
GROUP
  5
1F904
102
{ACAD_REACTORS
330
D
102
}
330
D
100
AcDbGroup
300

 70
     1
 71
     1
  0
GROUP
  5
23F10
102
{ACAD_REACTORS
330
D
102
}
330
D
100
AcDbGroup
300

 70
     1
 71
     1
  0
GROUP
  5
2342F
102
{ACAD_REACTORS
330
D
102
}
330
D
100
AcDbGroup
300

 70
     1
 71
     1
  0
GROUP
  5
1D6D4
102
{ACAD_REACTORS
330
D
102
}
330
D
100
AcDbGroup
300

 70
     1
 71
     1
  0
GROUP
  5
1B729
102
{ACAD_REACTORS
330
D
102
}
330
D
100
AcDbGroup
300

 70
     1
 71
     1
  0
GROUP
  5
18F23
102
{ACAD_REACTORS
330
D
102
}
330
D
100
AcDbGroup
300

 70
     1
 71
     1
  0
GROUP
  5
22A71
102
{ACAD_REACTORS
330
D
102
}
330
D
100
AcDbGroup
300

 70
     1
 71
     1
  0
GROUP
  5
23F0D
102
{ACAD_REACTORS
330
D
102
}
330
D
100
AcDbGroup
300

 70
     1
 71
     1
  0
GROUP
  5
22231
102
{ACAD_REACTORS
330
D
102
}
330
D
100
AcDbGroup
300

 70
     1
 71
     1
  0
GROUP
  5
AC9A
102
{ACAD_REACTORS
330
D
102
}
330
D
100
AcDbGroup
300

 70
     1
 71
     1
  0
GROUP
  5
173BF
102
{ACAD_REACTORS
330
D
102
}
330
D
100
AcDbGroup
300

 70
     1
 71
     1
  0
GROUP
  5
1D698
102
{ACAD_REACTORS
330
D
102
}
330
D
100
AcDbGroup
300

 70
     1
 71
     1
  0
GROUP
  5
23430
102
{ACAD_REACTORS
330
D
102
}
330
D
100
AcDbGroup
300

 70
     1
 71
     1
  0
GROUP
  5
106B3
102
{ACAD_REACTORS
330
D
102
}
330
D
100
AcDbGroup
300

 70
     1
 71
     1
  0
GROUP
  5
19F55
102
{ACAD_REACTORS
330
D
102
}
330
D
100
AcDbGroup
300

 70
     1
 71
     1
  0
GROUP
  5
1F8F5
102
{ACAD_REACTORS
330
D
102
}
330
D
100
AcDbGroup
300

 70
     1
 71
     1
  0
GROUP
  5
23F0C
102
{ACAD_REACTORS
330
D
102
}
330
D
100
AcDbGroup
300

 70
     1
 71
     1
  0
GROUP
  5
22639
102
{ACAD_REACTORS
330
D
102
}
330
D
100
AcDbGroup
300

 70
     1
 71
     1
  0
GROUP
  5
173BE
102
{ACAD_REACTORS
330
D
102
}
330
D
100
AcDbGroup
300

 70
     1
 71
     1
  0
GROUP
  5
1B744
102
{ACAD_REACTORS
330
D
102
}
330
D
100
AcDbGroup
300

 70
     1
 71
     1
  0
GROUP
  5
23431
102
{ACAD_REACTORS
330
D
102
}
330
D
100
AcDbGroup
300

 70
     1
 71
     1
  0
GROUP
  5
20CA2
102
{ACAD_REACTORS
330
D
102
}
330
D
100
AcDbGroup
300

 70
     1
 71
     1
  0
GROUP
  5
18F20
102
{ACAD_REACTORS
330
D
102
}
330
D
100
AcDbGroup
300

 70
     1
 71
     1
  0
GROUP
  5
23C27
102
{ACAD_REACTORS
330
D
102
}
330
D
100
AcDbGroup
300

 70
     1
 71
     1
  0
GROUP
  5
2284D
102
{ACAD_REACTORS
330
D
102
}
330
D
100
AcDbGroup
300

 70
     1
 71
     1
  0
GROUP
  5
1D710
102
{ACAD_REACTORS
330
D
102
}
330
D
100
AcDbGroup
300

 70
     1
 71
     1
  0
GROUP
  5
1D67A
102
{ACAD_REACTORS
330
D
102
}
330
D
100
AcDbGroup
300

 70
     1
 71
     1
  0
GROUP
  5
23432
102
{ACAD_REACTORS
330
D
102
}
330
D
100
AcDbGroup
300

 70
     1
 71
     1
  0
GROUP
  5
23F0F
102
{ACAD_REACTORS
330
D
102
}
330
D
100
AcDbGroup
300

 70
     1
 71
     1
  0
GROUP
  5
23C26
102
{ACAD_REACTORS
330
D
102
}
330
D
100
AcDbGroup
300

 70
     1
 71
     1
340
23A47
340
23A46
340
23A3F
  0
GROUP
  5
106A5
102
{ACAD_REACTORS
330
D
102
}
330
D
100
AcDbGroup
300

 70
     1
 71
     1
  0
GROUP
  5
20025
102
{ACAD_REACTORS
330
D
102
}
330
D
100
AcDbGroup
300

 70
     1
 71
     1
  0
GROUP
  5
23788
102
{ACAD_REACTORS
330
D
102
}
330
D
100
AcDbGroup
300

 70
     1
 71
     1
  0
GROUP
  5
23F0E
102
{ACAD_REACTORS
330
D
102
}
330
D
100
AcDbGroup
300

 70
     1
 71
     1
  0
GROUP
  5
23C25
102
{ACAD_REACTORS
330
D
102
}
330
D
100
AcDbGroup
300

 70
     1
 71
     1
  0
GROUP
  5
22CA0
102
{ACAD_REACTORS
330
D
102
}
330
D
100
AcDbGroup
300

 70
     1
 71
     1
  0
GROUP
  5
20227
102
{ACAD_REACTORS
330
D
102
}
330
D
100
AcDbGroup
300

 70
     1
 71
     1
  0
GROUP
  5
23789
102
{ACAD_REACTORS
330
D
102
}
330
D
100
AcDbGroup
300

 70
     1
 71
     1
  0
GROUP
  5
23C24
102
{ACAD_REACTORS
330
D
102
}
330
D
100
AcDbGroup
300

 70
     1
 71
     1
  0
GROUP
  5
22CA3
102
{ACAD_REACTORS
330
D
102
}
330
D
100
AcDbGroup
300

 70
     1
 71
     1
  0
GROUP
  5
2378A
102
{ACAD_REACTORS
330
D
102
}
330
D
100
AcDbGroup
300

 70
     1
 71
     1
  0
GROUP
  5
2378C
102
{ACAD_REACTORS
330
D
102
}
330
D
100
AcDbGroup
300

 70
     1
 71
     1
  0
GROUP
  5
231F5
102
{ACAD_REACTORS
330
D
102
}
330
D
100
AcDbGroup
300

 70
     1
 71
     1
  0
GROUP
  5
17B11
102
{ACAD_REACTORS
330
D
102
}
330
D
100
AcDbGroup
300

 70
     1
 71
     1
  0
GROUP
  5
2378B
102
{ACAD_REACTORS
330
D
102
}
330
D
100
AcDbGroup
300

 70
     1
 71
     1
  0
GROUP
  5
19786
102
{ACAD_REACTORS
330
D
102
}
330
D
100
AcDbGroup
300

 70
     1
 71
     1
  0
GROUP
  5
2020E
102
{ACAD_REACTORS
330
D
102
}
330
D
100
AcDbGroup
300

 70
     1
 71
     1
  0
GROUP
  5
1738A
102
{ACAD_REACTORS
330
D
102
}
330
D
100
AcDbGroup
300

 70
     1
 71
     1
  0
GROUP
  5
1D670
102
{ACAD_REACTORS
330
D
102
}
330
D
100
AcDbGroup
300

 70
     1
 71
     1
  0
GROUP
  5
FB6B
102
{ACAD_REACTORS
330
D
102
}
330
D
100
AcDbGroup
300

 70
     1
 71
     1
  0
GROUP
  5
1606B
102
{ACAD_REACTORS
330
D
102
}
330
D
100
AcDbGroup
300

 70
     1
 71
     1
  0
GROUP
  5
1F91D
102
{ACAD_REACTORS
330
D
102
}
330
D
100
AcDbGroup
300

 70
     1
 71
     1
  0
GROUP
  5
22014
102
{ACAD_REACTORS
330
D
102
}
330
D
100
AcDbGroup
300

 70
     1
 71
     1
  0
GROUP
  5
22232
102
{ACAD_REACTORS
330
D
102
}
330
D
100
AcDbGroup
300

 70
     1
 71
     1
  0
GROUP
  5
2263A
102
{ACAD_REACTORS
330
D
102
}
330
D
100
AcDbGroup
300

 70
     1
 71
     1
  0
GROUP
  5
19A5A
102
{ACAD_REACTORS
330
D
102
}
330
D
100
AcDbGroup
300

 70
     1
 71
     1
  0
GROUP
  5
1EB7E
102
{ACAD_REACTORS
330
D
102
}
330
D
100
AcDbGroup
300

 70
     1
 71
     1
  0
GROUP
  5
21D4E
102
{ACAD_REACTORS
330
D
102
}
330
D
100
AcDbGroup
300

 70
     1
 71
     1
  0
GROUP
  5
1D6FC
102
{ACAD_REACTORS
330
D
102
}
330
D
100
AcDbGroup
300

 70
     1
 71
     1
  0
GROUP
  5
1B720
102
{ACAD_REACTORS
330
D
102
}
330
D
100
AcDbGroup
300

 70
     1
 71
     1
  0
GROUP
  5
20213
102
{ACAD_REACTORS
330
D
102
}
330
D
100
AcDbGroup
300

 70
     1
 71
     1
  0
GROUP
  5
19F87
102
{ACAD_REACTORS
330
D
102
}
330
D
100
AcDbGroup
300

 70
     1
 71
     1
  0
GROUP
  5
FB6C
102
{ACAD_REACTORS
330
D
102
}
330
D
100
AcDbGroup
300

 70
     1
 71
     1
  0
GROUP
  5
20028
102
{ACAD_REACTORS
330
D
102
}
330
D
100
AcDbGroup
300

 70
     1
 71
     1
  0
GROUP
  5
20CA6
102
{ACAD_REACTORS
330
D
102
}
330
D
100
AcDbGroup
300

 70
     1
 71
     1
  0
GROUP
  5
18F21
102
{ACAD_REACTORS
330
D
102
}
330
D
100
AcDbGroup
300

 70
     1
 71
     1
  0
GROUP
  5
18FA6
102
{ACAD_REACTORS
330
D
102
}
330
D
100
AcDbGroup
300

 70
     1
 71
     1
  0
GROUP
  5
2022C
102
{ACAD_REACTORS
330
D
102
}
330
D
100
AcDbGroup
300

 70
     1
 71
     1
  0
GROUP
  5
17901
102
{ACAD_REACTORS
330
D
102
}
330
D
100
AcDbGroup
300

 70
     1
 71
     1
  0
GROUP
  5
17BFF
102
{ACAD_REACTORS
330
D
102
}
330
D
100
AcDbGroup
300

 70
     1
 71
     1
  0
GROUP
  5
2284E
102
{ACAD_REACTORS
330
D
102
}
330
D
100
AcDbGroup
300

 70
     1
 71
     1
  0
GROUP
  5
1F8FA
102
{ACAD_REACTORS
330
D
102
}
330
D
100
AcDbGroup
300

 70
     1
 71
     1
  0
GROUP
  5
21D4D
102
{ACAD_REACTORS
330
D
102
}
330
D
100
AcDbGroup
300

 70
     1
 71
     1
  0
GROUP
  5
19988
102
{ACAD_REACTORS
330
D
102
}
330
D
100
AcDbGroup
300

 70
     1
 71
     1
  0
GROUP
  5
1D684
102
{ACAD_REACTORS
330
D
102
}
330
D
100
AcDbGroup
300

 70
     1
 71
     1
  0
GROUP
  5
1606A
102
{ACAD_REACTORS
330
D
102
}
330
D
100
AcDbGroup
300

 70
     1
 71
     1
  0
GROUP
  5
FC9A
102
{ACAD_REACTORS
330
D
102
}
330
D
100
AcDbGroup
300

 70
     1
 71
     1
  0
GROUP
  5
16059
102
{ACAD_REACTORS
330
D
102
}
330
D
100
AcDbGroup
300

 70
     1
 71
     1
  0
GROUP
  5
1F8F0
102
{ACAD_REACTORS
330
D
102
}
330
D
100
AcDbGroup
300

 70
     1
 71
     1
  0
GROUP
  5
173BD
102
{ACAD_REACTORS
330
D
102
}
330
D
100
AcDbGroup
300

 70
     1
 71
     1
  0
GROUP
  5
FC9B
102
{ACAD_REACTORS
330
D
102
}
330
D
100
AcDbGroup
300

 70
     1
 71
     1
  0
GROUP
  5
20022
102
{ACAD_REACTORS
330
D
102
}
330
D
100
AcDbGroup
300

 70
     1
 71
     1
  0
GROUP
  5
1EB7F
102
{ACAD_REACTORS
330
D
102
}
330
D
100
AcDbGroup
300

 70
     1
 71
     1
  0
GROUP
  5
1D6B6
102
{ACAD_REACTORS
330
D
102
}
330
D
100
AcDbGroup
300

 70
     1
 71
     1
  0
GROUP
  5
22CA1
102
{ACAD_REACTORS
330
D
102
}
330
D
100
AcDbGroup
300

 70
     1
 71
     1
  0
GROUP
  5
2222F
102
{ACAD_REACTORS
330
D
102
}
330
D
100
AcDbGroup
300

 70
     1
 71
     1
  0
GROUP
  5
ACBD
102
{ACAD_REACTORS
330
D
102
}
330
D
100
AcDbGroup
300

 70
     1
 71
     1
  0
GROUP
  5
18F22
102
{ACAD_REACTORS
330
D
102
}
330
D
100
AcDbGroup
300

 70
     1
 71
     1
  0
GROUP
  5
22016
102
{ACAD_REACTORS
330
D
102
}
330
D
100
AcDbGroup
300

 70
     1
 71
     1
  0
GROUP
  5
21E50
102
{ACAD_REACTORS
330
D
102
}
330
D
100
AcDbGroup
300

 70
     1
 71
     1
  0
GROUP
  5
ACA2
102
{ACAD_REACTORS
330
D
102
}
330
D
100
AcDbGroup
300

 70
     1
 71
     1
  0
GROUP
  5
19255
102
{ACAD_REACTORS
330
D
102
}
330
D
100
AcDbGroup
300

 70
     1
 71
     1
  0
GROUP
  5
19729
102
{ACAD_REACTORS
330
D
102
}
330
D
100
AcDbGroup
300

 70
     1
 71
     1
  0
GROUP
  5
18FA7
102
{ACAD_REACTORS
330
D
102
}
330
D
100
AcDbGroup
300

 70
     1
 71
     1
  0
GROUP
  5
2242D
102
{ACAD_REACTORS
330
D
102
}
330
D
100
AcDbGroup
300

 70
     1
 71
     1
  0
GROUP
  5
231AD
102
{ACAD_REACTORS
330
D
102
}
330
D
100
AcDbGroup
300

 70
     1
 71
     1
  0
GROUP
  5
2001C
102
{ACAD_REACTORS
330
D
102
}
330
D
100
AcDbGroup
300

 70
     1
 71
     1
  0
GROUP
  5
ACA1
102
{ACAD_REACTORS
330
D
102
}
330
D
100
AcDbGroup
300

 70
     1
 71
     1
  0
GROUP
  5
2242E
102
{ACAD_REACTORS
330
D
102
}
330
D
100
AcDbGroup
300

 70
     1
 71
     1
  0
GROUP
  5
22230
102
{ACAD_REACTORS
330
D
102
}
330
D
100
AcDbGroup
300

 70
     1
 71
     1
  0
GROUP
  5
1EB7C
102
{ACAD_REACTORS
330
D
102
}
330
D
100
AcDbGroup
300

 70
     1
 71
     1
  0
GROUP
  5
19F99
102
{ACAD_REACTORS
330
D
102
}
330
D
100
AcDbGroup
300

 70
     1
 71
     1
  0
GROUP
  5
1D6F2
102
{ACAD_REACTORS
330
D
102
}
330
D
100
AcDbGroup
300

 70
     1
 71
     1
  0
GROUP
  5
20209
102
{ACAD_REACTORS
330
D
102
}
330
D
100
AcDbGroup
300

 70
     1
 71
     1
  0
GROUP
  5
1D6C0
102
{ACAD_REACTORS
330
D
102
}
330
D
100
AcDbGroup
300

 70
     1
 71
     1
  0
GROUP
  5
1D6CA
102
{ACAD_REACTORS
330
D
102
}
330
D
100
AcDbGroup
300

 70
     1
 71
     1
  0
GROUP
  5
19A52
102
{ACAD_REACTORS
330
D
102
}
330
D
100
AcDbGroup
300

 70
     1
 71
     1
  0
GROUP
  5
2263B
102
{ACAD_REACTORS
330
D
102
}
330
D
100
AcDbGroup
300

 70
     1
 71
     1
  0
GROUP
  5
19F67
102
{ACAD_REACTORS
330
D
102
}
330
D
100
AcDbGroup
300

 70
     1
 71
     1
  0
GROUP
  5
1998A
102
{ACAD_REACTORS
330
D
102
}
330
D
100
AcDbGroup
300

 70
     1
 71
     1
  0
GROUP
  5
18FA8
102
{ACAD_REACTORS
330
D
102
}
330
D
100
AcDbGroup
300

 70
     1
 71
     1
  0
GROUP
  5
ACB4
102
{ACAD_REACTORS
330
D
102
}
330
D
100
AcDbGroup
300

 70
     1
 71
     1
  0
GROUP
  5
FC95
102
{ACAD_REACTORS
330
D
102
}
330
D
100
AcDbGroup
300

 70
     1
 71
     1
  0
GROUP
  5
FCB8
102
{ACAD_REACTORS
330
D
102
}
330
D
100
AcDbGroup
300

 70
     1
 71
     1
  0
GROUP
  5
2284F
102
{ACAD_REACTORS
330
D
102
}
330
D
100
AcDbGroup
300

 70
     1
 71
     1
  0
GROUP
  5
1B73B
102
{ACAD_REACTORS
330
D
102
}
330
D
100
AcDbGroup
300

 70
     1
 71
     1
  0
GROUP
  5
1EB80
102
{ACAD_REACTORS
330
D
102
}
330
D
100
AcDbGroup
300

 70
     1
 71
     1
  0
GROUP
  5
198F1
102
{ACAD_REACTORS
330
D
102
}
330
D
100
AcDbGroup
300

 70
     1
 71
     1
  0
GROUP
  5
20019
102
{ACAD_REACTORS
330
D
102
}
330
D
100
AcDbGroup
300

 70
     1
 71
     1
  0
GROUP
  5
2002B
102
{ACAD_REACTORS
330
D
102
}
330
D
100
AcDbGroup
300

 70
     1
 71
     1
  0
GROUP
  5
16069
102
{ACAD_REACTORS
330
D
102
}
330
D
100
AcDbGroup
300

 70
     1
 71
     1
  0
GROUP
  5
19259
102
{ACAD_REACTORS
330
D
102
}
330
D
100
AcDbGroup
300

 70
     1
 71
     1
  0
GROUP
  5
1D68E
102
{ACAD_REACTORS
330
D
102
}
330
D
100
AcDbGroup
300

 70
     1
 71
     1
  0
GROUP
  5
20016
102
{ACAD_REACTORS
330
D
102
}
330
D
100
AcDbGroup
300

 70
     1
 71
     1
  0
GROUP
  5
16068
102
{ACAD_REACTORS
330
D
102
}
330
D
100
AcDbGroup
300

 70
     1
 71
     1
  0
GROUP
  5
19A86
102
{ACAD_REACTORS
330
D
102
}
330
D
100
AcDbGroup
300

 70
     1
 71
     1
  0
GROUP
  5
106C6
102
{ACAD_REACTORS
330
D
102
}
330
D
100
AcDbGroup
300

 70
     1
 71
     1
  0
GROUP
  5
ACAB
102
{ACAD_REACTORS
330
D
102
}
330
D
100
AcDbGroup
300

 70
     1
 71
     1
  0
GROUP
  5
1A691
102
{ACAD_REACTORS
330
D
102
}
330
D
100
AcDbGroup
300

 70
     1
 71
     1
  0
GROUP
  5
196C2
102
{ACAD_REACTORS
330
D
102
}
330
D
100
AcDbGroup
300

 70
     1
 71
     1
  0
GROUP
  5
20013
102
{ACAD_REACTORS
330
D
102
}
330
D
100
AcDbGroup
300

 70
     1
 71
     1
  0
GROUP
  5
1D706
102
{ACAD_REACTORS
330
D
102
}
330
D
100
AcDbGroup
300

 70
     1
 71
     1
  0
GROUP
  5
20218
102
{ACAD_REACTORS
330
D
102
}
330
D
100
AcDbGroup
300

 70
     1
 71
     1
  0
GROUP
  5
1D6AC
102
{ACAD_REACTORS
330
D
102
}
330
D
100
AcDbGroup
300

 70
     1
 71
     1
  0
GROUP
  5
1B74D
102
{ACAD_REACTORS
330
D
102
}
330
D
100
AcDbGroup
300

 70
     1
 71
     1
  0
GROUP
  5
16058
102
{ACAD_REACTORS
330
D
102
}
330
D
100
AcDbGroup
300

 70
     1
 71
     1
  0
GROUP
  5
FC91
102
{ACAD_REACTORS
330
D
102
}
330
D
100
AcDbGroup
300

 70
     1
 71
     1
  0
GROUP
  5
1B732
102
{ACAD_REACTORS
330
D
102
}
330
D
100
AcDbGroup
300

 70
     1
 71
     1
  0
GROUP
  5
1A695
102
{ACAD_REACTORS
330
D
102
}
330
D
100
AcDbGroup
300

 70
     1
 71
     1
  0
GROUP
  5
20222
102
{ACAD_REACTORS
330
D
102
}
330
D
100
AcDbGroup
300

 70
     1
 71
     1
  0
GROUP
  5
19989
102
{ACAD_REACTORS
330
D
102
}
330
D
100
AcDbGroup
300

 70
     1
 71
     1
  0
GROUP
  5
20010
102
{ACAD_REACTORS
330
D
102
}
330
D
100
AcDbGroup
300

 70
     1
 71
     1
  0
GROUP
  5
1A692
102
{ACAD_REACTORS
330
D
102
}
330
D
100
AcDbGroup
300

 70
     1
 71
     1
  0
GROUP
  5
19256
102
{ACAD_REACTORS
330
D
102
}
330
D
100
AcDbGroup
300

 70
     1
 71
     1
  0
GROUP
  5
1A09A
102
{ACAD_REACTORS
330
D
102
}
330
D
100
AcDbGroup
300

 70
     1
 71
     1
  0
GROUP
  5
1F918
102
{ACAD_REACTORS
330
D
102
}
330
D
100
AcDbGroup
300

 70
     1
 71
     1
  0
GROUP
  5
1F913
102
{ACAD_REACTORS
330
D
102
}
330
D
100
AcDbGroup
300

 70
     1
 71
     1
  0
GROUP
  5
19A51
102
{ACAD_REACTORS
330
D
102
}
330
D
100
AcDbGroup
300

 70
     1
 71
     1
  0
GROUP
  5
1F90E
102
{ACAD_REACTORS
330
D
102
}
330
D
100
AcDbGroup
300

 70
     1
 71
     1
  0
GROUP
  5
231F9
102
{ACAD_REACTORS
330
D
102
}
330
D
100
AcDbGroup
300

 70
     1
 71
     1
  0
GROUP
  5
231AE
102
{ACAD_REACTORS
330
D
102
}
330
D
100
AcDbGroup
300

 70
     1
 71
     1
  0
GROUP
  5
22CA2
102
{ACAD_REACTORS
330
D
102
}
330
D
100
AcDbGroup
300

 70
     1
 71
     1
  0
GROUP
  5
22A73
102
{ACAD_REACTORS
330
D
102
}
330
D
100
AcDbGroup
300

 70
     1
 71
     1
  0
GROUP
  5
22A70
102
{ACAD_REACTORS
330
D
102
}
330
D
100
AcDbGroup
300

 70
     1
 71
     1
  0
GROUP
  5
2263C
102
{ACAD_REACTORS
330
D
102
}
330
D
100
AcDbGroup
300

 70
     1
 71
     1
  0
GROUP
  5
2242F
102
{ACAD_REACTORS
330
D
102
}
330
D
100
AcDbGroup
300

 70
     1
 71
     1
  0
GROUP
  5
22017
102
{ACAD_REACTORS
330
D
102
}
330
D
100
AcDbGroup
300

 70
     1
 71
     1
  0
GROUP
  5
2021D
102
{ACAD_REACTORS
330
D
102
}
330
D
100
AcDbGroup
300

 70
     1
 71
     1
  0
MLINESTYLE
  5
1C
102
{ACAD_REACTORS
330
1B
102
}
330
1B
100
AcDbMlineStyle
  2
STANDARD
 70
     0
  3

 62
   256
 51
90.0
 52
90.0
 71
     2
 49
0.5
 62
   256
  6
BYLAYER
 49
-0.5
 62
   256
  6
BYLAYER
  0
ACDBPLACEHOLDER
  5
FB5C
102
{ACAD_REACTORS
330
FB5B
102
}
330
FB5B
100
AcDbPlaceHolder
280
     0
  0
XRECORD
  5
24A76
102
{ACAD_REACTORS
330
24A6C
102
}
330
24A6C
100
AcDbXrecord
 90
        0
  0
XRECORD
  5
24A7A
102
{ACAD_REACTORS
330
24A6C
102
}
330
24A6C
100
AcDbXrecord
1000
DSTYLE
1002
{
1070
    79
 70
     2
1070
   341
340
1215D
1070
   342
340
1215D
1070
   371
 70
    13
1070
   372
 70
    13
1002
}
  0
XRECORD
  5
24A77
102
{ACAD_REACTORS
330
24A6C
102
}
330
24A6C
100
AcDbXrecord
  1
{D14EE3FF-941A-415A-9907-344E0A80D794}
  0
XRECORD
  5
24A6F
102
{ACAD_REACTORS
330
24A6C
102
}
330
24A6C
100
AcDbXrecord
  1

  0
XRECORD
  5
24A75
102
{ACAD_REACTORS
330
24A6C
102
}
330
24A6C
100
AcDbXrecord
 90
        0
  0
XRECORD
  5
24A71
102
{ACAD_REACTORS
330
24A6C
102
}
330
24A6C
100
AcDbXrecord
340
DB2
  0
XRECORD
  5
24A74
102
{ACAD_REACTORS
330
24A6C
102
}
330
24A6C
100
AcDbXrecord
 90
    10781
  0
XRECORD
  5
24A72
102
{ACAD_REACTORS
330
24A6C
102
}
330
24A6C
100
AcDbXrecord
340
DB3
  0
XRECORD
  5
24A73
102
{ACAD_REACTORS
330
24A6C
102
}
330
24A6C
100
AcDbXrecord
340
FB5B
  0
XRECORD
  5
24A79
102
{ACAD_REACTORS
330
24A6C
102
}
330
24A6C
100
AcDbXrecord
 40
0.0
  0
XRECORD
  5
24A7D
102
{ACAD_REACTORS
330
24A6C
102
}
330
24A6C
100
AcDbXrecord
340
0
  0
XRECORD
  5
24A83
102
{ACAD_REACTORS
330
24A6C
102
}
330
24A6C
100
AcDbXrecord
 10
0.0
 20
0.0
 30
0.0
  0
XRECORD
  5
24A7F
102
{ACAD_REACTORS
330
24A6C
102
}
330
24A6C
100
AcDbXrecord
 10
0.0
 20
0.0
 30
0.0
  0
XRECORD
  5
24A82
102
{ACAD_REACTORS
330
24A6C
102
}
330
24A6C
100
AcDbXrecord
 10
0.0
 20
0.0
 30
0.0
  0
XRECORD
  5
24A80
102
{ACAD_REACTORS
330
24A6C
102
}
330
24A6C
100
AcDbXrecord
 10
0.0
 20
0.0
 30
0.0
  0
XRECORD
  5
24A81
102
{ACAD_REACTORS
330
24A6C
102
}
330
24A6C
100
AcDbXrecord
 10
0.0
 20
0.0
 30
0.0
  0
XRECORD
  5
24A7E
102
{ACAD_REACTORS
330
24A6C
102
}
330
24A6C
100
AcDbXrecord
 10
0.0
 20
0.0
 30
0.0
  0
XRECORD
  5
24A7B
102
{ACAD_REACTORS
330
24A6C
102
}
330
24A6C
100
AcDbXrecord
340
0
  0
XRECORD
  5
24A7C
102
{ACAD_REACTORS
330
24A6C
102
}
330
24A6C
100
AcDbXrecord
 70
     0
  0
XRECORD
  5
24A70
102
{ACAD_REACTORS
330
24A6C
102
}
330
24A6C
100
AcDbXrecord
  1
monochrome.ctb
  0
XRECORD
  5
24A6D
102
{ACAD_REACTORS
330
24A6C
102
}
330
24A6C
100
AcDbXrecord
 90
        1
  0
XRECORD
  5
24A6E
102
{ACAD_REACTORS
330
24A6C
102
}
330
24A6C
100
AcDbXrecord
 90
       70
  0
XRECORD
  5
24A86
102
{ACAD_REACTORS
330
24A6C
102
}
330
24A6C
100
AcDbXrecord
340
0
  0
XRECORD
  5
24A8C
102
{ACAD_REACTORS
330
24A6C
102
}
330
24A6C
100
AcDbXrecord
 10
0.0
 20
0.0
 30
0.0
  0
XRECORD
  5
24A88
102
{ACAD_REACTORS
330
24A6C
102
}
330
24A6C
100
AcDbXrecord
 10
0.0
 20
0.0
 30
0.0
  0
XRECORD
  5
24A8B
102
{ACAD_REACTORS
330
24A6C
102
}
330
24A6C
100
AcDbXrecord
 10
0.0
 20
0.0
 30
0.0
  0
XRECORD
  5
24A89
102
{ACAD_REACTORS
330
24A6C
102
}
330
24A6C
100
AcDbXrecord
 10
0.0
 20
0.0
 30
0.0
  0
XRECORD
  5
24A8A
102
{ACAD_REACTORS
330
24A6C
102
}
330
24A6C
100
AcDbXrecord
 10
0.0
 20
0.0
 30
0.0
  0
XRECORD
  5
24A87
102
{ACAD_REACTORS
330
24A6C
102
}
330
24A6C
100
AcDbXrecord
 10
0.0
 20
0.0
 30
0.0
  0
XRECORD
  5
24A84
102
{ACAD_REACTORS
330
24A6C
102
}
330
24A6C
100
AcDbXrecord
340
0
  0
XRECORD
  5
24A85
102
{ACAD_REACTORS
330
24A6C
102
}
330
24A6C
100
AcDbXrecord
 70
     0
  0
XRECORD
  5
24A78
102
{ACAD_REACTORS
330
24A6C
102
}
330
24A6C
100
AcDbXrecord
  1
{506002BB-7364-4084-B061-FCF52F95BB5E}
  0
DICTIONARYVAR
  5
106A7
102
{ACAD_REACTORS
330
106A6
102
}
330
106A6
100
DictionaryVariables
280
     0
  1
96
  0
XRECORD
  5
1A9A1
102
{ACAD_REACTORS
330
1A99F
102
}
330
1A99F
100
AcDbXrecord
330
187D7
330
0
330
0
330
0
330
0
330
0
330
0
330
0
330
0
330
0
330
0
330
115F
330
0
330
0
330
0
330
0
330
0
330
0
330
0
330
0
330
0
330
0
330
0
330
0
330
0
330
0
330
0
330
0
330
0
330
0
330
0
330
0
330
0
330
0
330
0
330
0
330
0
330
0
330
0
330
0
330
0
330
0
330
0
330
0
  0
XRECORD
  5
244E0
102
{ACAD_REACTORS
330
244DF
102
}
330
244DF
100
AcDbXrecord
  1
0
  1
*0
  1
*
  1
*
 70
     0
  1
*
  1
*
  0
XRECORD
  5
244E1
102
{ACAD_REACTORS
330
244DF
102
}
330
244DF
100
AcDbXrecord
  1
11
  1
*11
  1
*
  1
*
 70
     0
  1
*
  1
*
  0
XRECORD
  5
244E2
102
{ACAD_REACTORS
330
244DF
102
}
330
244DF
100
AcDbXrecord
  1
150_
  1
150_*
  1
*
  1
*
 70
     0
  1
*
  1
*
  0
XRECORD
  5
244E3
102
{ACAD_REACTORS
330
244DF
102
}
330
244DF
100
AcDbXrecord
  1
160_
  1
160_*
  1
*
  1
*
 70
     0
  1
*
  1
*
  0
XRECORD
  5
244E4
102
{ACAD_REACTORS
330
244DF
102
}
330
244DF
100
AcDbXrecord
  1
170_
  1
170_*
  1
*
  1
*
 70
     0
  1
*
  1
*
  0
XRECORD
  5
244E5
102
{ACAD_REACTORS
330
244DF
102
}
330
244DF
100
AcDbXrecord
  1
171_
  1
171_*
  1
*
  1
*
 70
     0
  1
*
  1
*
  0
XRECORD
  5
244E6
102
{ACAD_REACTORS
330
244DF
102
}
330
244DF
100
AcDbXrecord
  1
350_
  1
350_*
  1
*
  1
*
 70
     0
  1
*
  1
*
  0
XRECORD
  5
244E7
102
{ACAD_REACTORS
330
244DF
102
}
330
244DF
100
AcDbXrecord
  1
4
  1
*4
  1
*
  1
*
 70
     0
  1
*
  1
*
  0
XRECORD
  5
244E8
102
{ACAD_REACTORS
330
244DF
102
}
330
244DF
100
AcDbXrecord
  1
5
  1
*5
  1
*
  1
*
 70
     0
  1
*
  1
*
  0
XRECORD
  5
244E9
102
{ACAD_REACTORS
330
244DF
102
}
330
244DF
100
AcDbXrecord
  1
7
  1
*7
  1
*
  1
*
 70
     0
  1
*
  1
*
  0
XRECORD
  5
244EA
102
{ACAD_REACTORS
330
244DF
102
}
330
244DF
100
AcDbXrecord
  1
kiseki
  1
kiseki*
  1
*
  1
*
 70
     0
  1
*
  1
*
  0
ENDSEC
  0
EOF
