  0
SECTION
  2
HEADER
  9
$ACADVER
  1
AC1015
  9
$ACADMAINTVER
 70
    10
  9
$DWGCODEPAGE
  3
ANSI_932
  9
$INSBASE
 10
0.0
 20
0.0
 30
0.0
  9
$EXTMIN
 10
1.614699270353526
 20
-29.94857852144558
 30
0.0
  9
$EXTMAX
 10
480.4888017057358
 20
333.4838876017025
 30
1.004996417558615E+99
  9
$LIMMIN
 10
0.0
 20
0.0
  9
$LIMMAX
 10
420.0
 20
297.0
  9
$ORTHOMODE
 70
     0
  9
$REGENMODE
 70
     1
  9
$FILLMODE
 70
     1
  9
$QTEXTMODE
 70
     0
  9
$MIRRTEXT
 70
     1
  9
$LTSCALE
 40
1.0
  9
$ATTMODE
 70
     1
  9
$TEXTSIZE
 40
3.0
  9
$TRACEWID
 40
1.0
  9
$TEXTSTYLE
  7
STANDARD
  9
$CLAYER
  8
0
  9
$CELTYPE
  6
BYLAYER
  9
$CECOLOR
 62
   256
  9
$CELTSCALE
 40
1.0
  9
$DISPSILH
 70
     0
  9
$DIMSCALE
 40
1.0
  9
$DIMASZ
 40
2.0
  9
$DIMEXO
 40
1.0
  9
$DIMDLI
 40
5.0
  9
$DIMRND
 40
0.0
  9
$DIMDLE
 40
0.0
  9
$DIMEXE
 40
0.75
  9
$DIMTP
 40
0.0
  9
$DIMTM
 40
0.0
  9
$DIMTXT
 40
5.0
  9
$DIMCEN
 40
2.5
  9
$DIMTSZ
 40
0.0
  9
$DIMTOL
 70
     0
  9
$DIMLIM
 70
     0
  9
$DIMTIH
 70
     0
  9
$DIMTOH
 70
     0
  9
$DIMSE1
 70
     0
  9
$DIMSE2
 70
     0
  9
$DIMTAD
 70
     1
  9
$DIMZIN
 70
     9
  9
$DIMBLK
  1

  9
$DIMASO
 70
     1
  9
$DIMSHO
 70
     1
  9
$DIMPOST
  1

  9
$DIMAPOST
  1

  9
$DIMALT
 70
     0
  9
$DIMALTD
 70
     4
  9
$DIMALTF
 40
0.0394
  9
$DIMLFAC
 40
1.0
  9
$DIMTOFL
 70
     1
  9
$DIMTVP
 40
0.0
  9
$DIMTIX
 70
     0
  9
$DIMSOXD
 70
     0
  9
$DIMSAH
 70
     1
  9
$DIMBLK1
  1
OPEN
  9
$DIMBLK2
  1
OPEN
  9
$DIMSTYLE
  2
STANDARD
  9
$DIMCLRD
 70
     0
  9
$DIMCLRE
 70
     0
  9
$DIMCLRT
 70
     7
  9
$DIMTFAC
 40
1.0
  9
$DIMGAP
 40
1.0
  9
$DIMJUST
 70
     0
  9
$DIMSD1
 70
     0
  9
$DIMSD2
 70
     0
  9
$DIMTOLJ
 70
     1
  9
$DIMTZIN
 70
     9
  9
$DIMALTZ
 70
     0
  9
$DIMALTTZ
 70
     0
  9
$DIMUPT
 70
     0
  9
$DIMDEC
 70
     4
  9
$DIMTDEC
 70
     4
  9
$DIMALTU
 70
     8
  9
$DIMALTTD
 70
     4
  9
$DIMTXSTY
  7
STANDARD
  9
$DIMAUNIT
 70
     0
  9
$DIMADEC
 70
     0
  9
$DIMALTRND
 40
0.0
  9
$DIMAZIN
 70
     2
  9
$DIMDSEP
 70
    46
  9
$DIMATFIT
 70
     3
  9
$DIMFRAC
 70
     0
  9
$DIMLDRBLK
  1
OPEN
  9
$DIMLUNIT
 70
     2
  9
$DIMLWD
 70
    -2
  9
$DIMLWE
 70
    -2
  9
$DIMTMOVE
 70
     2
  9
$LUNITS
 70
     2
  9
$LUPREC
 70
     4
  9
$SKETCHINC
 40
1.0
  9
$FILLETRAD
 40
10.0
  9
$AUNITS
 70
     0
  9
$AUPREC
 70
     0
  9
$MENU
  1
.
  9
$ELEVATION
 40
0.0
  9
$PELEVATION
 40
0.0
  9
$THICKNESS
 40
0.0
  9
$LIMCHECK
 70
     0
  9
$CHAMFERA
 40
0.0
  9
$CHAMFERB
 40
0.0
  9
$CHAMFERC
 40
20.0
  9
$CHAMFERD
 40
0.0
  9
$SKPOLY
 70
     0
  9
$TDCREATE
 40
2451224.660162384
  9
$TDUCREATE
 40
2451224.285162384
  9
$TDUPDATE
 40
2457366.485141597
  9
$TDUUPDATE
 40
2457366.110141597
  9
$TDINDWG
 40
0.7666871991
  9
$TDUSRTIMER
 40
2457317.274920578
  9
$USRTIMER
 70
     1
  9
$ANGBASE
 50
0.0
  9
$ANGDIR
 70
     0
  9
$PDMODE
 70
     0
  9
$PDSIZE
 40
0.0
  9
$PLINEWID
 40
0.0
  9
$SPLFRAME
 70
     0
  9
$SPLINETYPE
 70
     6
  9
$SPLINESEGS
 70
     8
  9
$HANDSEED
  5
8544
  9
$SURFTAB1
 70
     6
  9
$SURFTAB2
 70
     6
  9
$SURFTYPE
 70
     6
  9
$SURFU
 70
     6
  9
$SURFV
 70
     6
  9
$UCSBASE
  2

  9
$UCSNAME
  2

  9
$UCSORG
 10
0.0
 20
0.0
 30
0.0
  9
$UCSXDIR
 10
1.0
 20
0.0
 30
0.0
  9
$UCSYDIR
 10
0.0
 20
1.0
 30
0.0
  9
$UCSORTHOREF
  2

  9
$UCSORTHOVIEW
 70
     0
  9
$UCSORGTOP
 10
0.0
 20
0.0
 30
0.0
  9
$UCSORGBOTTOM
 10
0.0
 20
0.0
 30
0.0
  9
$UCSORGLEFT
 10
0.0
 20
0.0
 30
0.0
  9
$UCSORGRIGHT
 10
0.0
 20
0.0
 30
0.0
  9
$UCSORGFRONT
 10
0.0
 20
0.0
 30
0.0
  9
$UCSORGBACK
 10
0.0
 20
0.0
 30
0.0
  9
$PUCSBASE
  2

  9
$PUCSNAME
  2

  9
$PUCSORG
 10
0.0
 20
0.0
 30
0.0
  9
$PUCSXDIR
 10
1.0
 20
0.0
 30
0.0
  9
$PUCSYDIR
 10
0.0
 20
1.0
 30
0.0
  9
$PUCSORTHOREF
  2

  9
$PUCSORTHOVIEW
 70
     0
  9
$PUCSORGTOP
 10
0.0
 20
0.0
 30
0.0
  9
$PUCSORGBOTTOM
 10
0.0
 20
0.0
 30
0.0
  9
$PUCSORGLEFT
 10
0.0
 20
0.0
 30
0.0
  9
$PUCSORGRIGHT
 10
0.0
 20
0.0
 30
0.0
  9
$PUCSORGFRONT
 10
0.0
 20
0.0
 30
0.0
  9
$PUCSORGBACK
 10
0.0
 20
0.0
 30
0.0
  9
$USERI1
 70
     0
  9
$USERI2
 70
     0
  9
$USERI3
 70
     0
  9
$USERI4
 70
     0
  9
$USERI5
 70
     0
  9
$USERR1
 40
0.0
  9
$USERR2
 40
0.0
  9
$USERR3
 40
0.0
  9
$USERR4
 40
0.0
  9
$USERR5
 40
0.0
  9
$WORLDVIEW
 70
     1
  9
$SHADEDGE
 70
     3
  9
$SHADEDIF
 70
    70
  9
$TILEMODE
 70
     1
  9
$MAXACTVP
 70
    48
  9
$PINSBASE
 10
0.0
 20
0.0
 30
0.0
  9
$PLIMCHECK
 70
     0
  9
$PEXTMIN
 10
40.49999999999999
 20
25.69999999999998
 30
0.0
  9
$PEXTMAX
 10
364.5
 20
231.3
 30
0.0
  9
$PLIMMIN
 10
0.0
 20
0.0
  9
$PLIMMAX
 10
0.0
 20
0.0
  9
$UNITMODE
 70
     0
  9
$VISRETAIN
 70
     1
  9
$PLINEGEN
 70
     0
  9
$PSLTSCALE
 70
     1
  9
$TREEDEPTH
 70
  3020
  9
$CMLSTYLE
  2
STANDARD
  9
$CMLJUST
 70
     0
  9
$CMLSCALE
 40
20.0
  9
$PROXYGRAPHICS
 70
     1
  9
$MEASUREMENT
 70
     1
  9
$CELWEIGHT
370
    -1
  9
$ENDCAPS
280
     0
  9
$JOINSTYLE
280
     0
  9
$LWDISPLAY
290
     1
  9
$INSUNITS
 70
     0
  9
$HYPERLINKBASE
  1

  9
$STYLESHEET
  1

  9
$XEDIT
290
     1
  9
$CEPSNTYPE
380
     0
  9
$PSTYLEMODE
290
     1
  9
$FINGERPRINTGUID
  2
{6B368F64-F7EB-11D4-BFBA-00004C030E53}
  9
$VERSIONGUID
  2
{9ED18127-5663-4049-8F3F-5AC8F7F20092}
  9
$EXTNAMES
290
     1
  9
$PSVPSCALE
 40
0.0
  9
$OLESTARTUP
290
     0
  0
ENDSEC
  0
SECTION
  2
CLASSES
  0
CLASS
  1
HATCH
  2
AcDbHatch
  3
AutoCAD 2000
 90
    32768
280
     0
281
     1
  0
CLASS
  1
LWPOLYLINE
  2
AcDbPolyline
  3
AutoCAD 2000
 90
    32768
280
     0
281
     1
  0
CLASS
  1
ACDBDICTIONARYWDFLT
  2
AcDbDictionaryWithDefault
  3
AutoCAD 2000
 90
        0
280
     0
281
     0
  0
CLASS
  1
ACDBPLACEHOLDER
  2
AcDbPlaceHolder
  3
AutoCAD 2000
 90
        0
280
     0
281
     0
  0
CLASS
  1
LAYOUT
  2
AcDbLayout
  3
AutoCAD 2000
 90
        0
280
     0
281
     0
  0
CLASS
  1
DICTIONARYVAR
  2
AcDbDictionaryVar
  3
AutoCAD 2000
 90
        0
280
     0
281
     0
  0
CLASS
  1
VISUALSTYLE
  2
AcDbVisualStyle
  3
ObjectDBX Classes
 90
    36863
280
     0
281
     0
  0
CLASS
  1
SCALE
  2
AcDbScale
  3
ObjectDBX Classes
 90
     1153
280
     0
281
     0
  0
CLASS
  1
MATERIAL
  2
AcDbMaterial
  3
ObjectDBX Classes
 90
    33921
280
     0
281
     0
  0
CLASS
  1
TABLESTYLE
  2
AcDbTableStyle
  3
ObjectDBX Classes
 90
    36863
280
     0
281
     0
  0
CLASS
  1
MLEADERSTYLE
  2
AcDbMLeaderStyle
  3
ACDB_MLEADERSTYLE_CLASS
 90
    36863
280
     0
281
     0
  0
CLASS
  1
SUN
  2
AcDbSun
  3
SCENEOE
 90
     1153
280
     0
281
     0
  0
CLASS
  1
RASTERVARIABLES
  2
AcDbRasterVariables
  3
ISM
 90
        0
280
     0
281
     0
  0
ENDSEC
  0
SECTION
  2
TABLES
  0
TABLE
  2
VPORT
  5
8
330
0
100
AcDbSymbolTable
 70
     2
  0
VPORT
  5
8543
330
8
100
AcDbSymbolTableRecord
100
AcDbViewportTableRecord
  2
*Active
 70
     0
 10
0.0
 20
0.0
 11
1.0
 21
1.0
 12
377.2643353125051
 22
173.0808634784347
 13
0.0
 23
0.0
 14
10.0
 24
10.0
 15
10.0
 25
10.0
 16
0.0
 26
0.0
 36
1.0
 17
0.0
 27
0.0
 37
0.0
 40
483.058382792904
 41
1.562182741116751
 42
50.0
 43
0.0
 44
0.0
 50
0.0
 51
0.0
 71
     0
 72
   100
 73
     1
 74
     0
 75
     0
 76
     0
 77
     0
 78
     0
281
     0
 65
     1
110
0.0
120
0.0
130
0.0
111
1.0
121
0.0
131
0.0
112
0.0
122
1.0
132
0.0
 79
     0
146
0.0
  0
ENDTAB
  0
TABLE
  2
LTYPE
  5
5
330
0
100
AcDbSymbolTable
 70
     1
  0
LTYPE
  5
12
330
5
100
AcDbSymbolTableRecord
100
AcDbLinetypeTableRecord
  2
BYBLOCK
 70
     0
  3

 72
    65
 73
     0
 40
0.0
  0
LTYPE
  5
13
330
5
100
AcDbSymbolTableRecord
100
AcDbLinetypeTableRecord
  2
BYLAYER
 70
     0
  3

 72
    65
 73
     0
 40
0.0
  0
LTYPE
  5
14
330
5
100
AcDbSymbolTableRecord
100
AcDbLinetypeTableRecord
  2
CONTINUOUS
 70
     0
  3
Solid line
 72
    65
 73
     0
 40
0.0
  0
ENDTAB
  0
TABLE
  2
LAYER
  5
2
330
0
100
AcDbSymbolTable
 70
     1
  0
LAYER
  5
E
330
2
100
AcDbSymbolTableRecord
100
AcDbLayerTableRecord
  2
0
 70
     0
 62
     7
  6
CONTINUOUS
370
    -3
390
73E
  0
ENDTAB
  0
TABLE
  2
STYLE
  5
3
330
0
100
AcDbSymbolTable
 70
     2
  0
STYLE
  5
F
330
3
100
AcDbSymbolTableRecord
100
AcDbTextStyleTableRecord
  2
STANDARD
 70
     0
 40
0.0
 41
1.0
 50
0.0
 71
     0
 42
3.0
  3
isocp.shx
  4
bigfont.shx
  0
STYLE
  5
35
330
3
100
AcDbSymbolTableRecord
100
AcDbTextStyleTableRecord
  2
MSｺﾞｼｯｸ
 70
     0
 40
0.0
 41
1.0
 50
0.0
 71
     0
 42
5.0
  3
MS Gothic.ttf
  4

1001
ACAD
1000
MS Gothic
1071
    32817
  0
ENDTAB
  0
TABLE
  2
VIEW
  5
6
330
0
100
AcDbSymbolTable
 70
     0
  0
ENDTAB
  0
TABLE
  2
UCS
  5
7
330
0
100
AcDbSymbolTable
 70
     0
  0
ENDTAB
  0
TABLE
  2
APPID
  5
9
330
0
100
AcDbSymbolTable
 70
     1
  0
APPID
  5
10
330
9
100
AcDbSymbolTableRecord
100
AcDbRegAppTableRecord
  2
ACAD
 70
     0
  0
ENDTAB
  0
TABLE
  2
DIMSTYLE
  5
A
330
0
100
AcDbSymbolTable
 70
     1
100
AcDbDimStyleTable
 71
     0
  0
DIMSTYLE
105
1D
330
A
100
AcDbSymbolTableRecord
100
AcDbDimStyleTableRecord
  2
STANDARD
 70
     0
 78
     8
 79
     2
140
3.0
340
F
341
89E
342
89E
  0
ENDTAB
  0
TABLE
  2
BLOCK_RECORD
  5
1
330
0
100
AcDbSymbolTable
 70
     4
  0
BLOCK_RECORD
  5
18
330
1
100
AcDbSymbolTableRecord
100
AcDbBlockTableRecord
  2
*MODEL_SPACE
340
741
  0
BLOCK_RECORD
  5
8533
330
1
100
AcDbSymbolTableRecord
100
AcDbBlockTableRecord
  2
*Paper_Space
340
8534
  0
BLOCK_RECORD
  5
24
330
1
100
AcDbSymbolTableRecord
100
AcDbBlockTableRecord
  2
_OPEN
340
0
  0
BLOCK_RECORD
  5
89E
330
1
100
AcDbSymbolTableRecord
100
AcDbBlockTableRecord
  2
_Open30
340
0
  0
BLOCK_RECORD
  5
8054
330
1
100
AcDbSymbolTableRecord
100
AcDbBlockTableRecord
  2
MC_1_5-2-STF-3_81__6
340
0
102
{BLKREFS
331
8116
102
}
  0
BLOCK_RECORD
  5
8115
330
1
100
AcDbSymbolTableRecord
100
AcDbBlockTableRecord
  2
VORDANS1
340
0
102
{BLKREFS
331
8125
102
}
  0
ENDTAB
  0
ENDSEC
  0
SECTION
  2
BLOCKS
  0
BLOCK
  5
19
330
18
100
AcDbEntity
  8
0
100
AcDbBlockBegin
  2
*MODEL_SPACE
 70
     0
 10
0.0
 20
0.0
 30
0.0
  3
*MODEL_SPACE
  1

  0
ENDBLK
  5
1A
330
18
100
AcDbEntity
  8
0
100
AcDbBlockEnd
  0
BLOCK
  5
8535
330
8533
100
AcDbEntity
 67
     1
  8
0
100
AcDbBlockBegin
  2
*Paper_Space
 70
     0
 10
0.0
 20
0.0
 30
0.0
  3
*Paper_Space
  1

  0
ENDBLK
  5
8536
330
8533
100
AcDbEntity
 67
     1
  8
0
100
AcDbBlockEnd
  0
BLOCK
  5
25
330
24
100
AcDbEntity
  8
0
100
AcDbBlockBegin
  2
_OPEN
 70
     0
 10
0.0
 20
0.0
 30
0.0
  3
_OPEN
  1

  0
LINE
  5
26
330
24
100
AcDbEntity
  8
0
  6
ByBlock
 62
     0
100
AcDbLine
 10
-1.0
 20
0.1666666666666666
 30
0.0
 11
0.0
 21
0.0
 31
0.0
  0
LINE
  5
27
330
24
100
AcDbEntity
  8
0
  6
ByBlock
 62
     0
100
AcDbLine
 10
0.0
 20
0.0
 30
0.0
 11
-1.0
 21
-0.1666666666666666
 31
0.0
  0
LINE
  5
28
330
24
100
AcDbEntity
  8
0
  6
ByBlock
 62
     0
100
AcDbLine
 10
0.0
 20
0.0
 30
0.0
 11
-1.0
 21
0.0
 31
0.0
  0
ENDBLK
  5
29
330
24
100
AcDbEntity
  8
0
100
AcDbBlockEnd
  0
BLOCK
  5
8A2
330
89E
100
AcDbEntity
  8
0
100
AcDbBlockBegin
  2
_Open30
 70
     0
 10
0.0
 20
0.0
 30
0.0
  3
_Open30
  1

  0
LINE
  5
89F
330
89E
100
AcDbEntity
  8
0
  6
ByBlock
 62
     0
370
    -2
100
AcDbLine
 10
-1.0
 20
0.26794919
 30
0.0
 11
0.0
 21
0.0
 31
0.0
  0
LINE
  5
8A0
330
89E
100
AcDbEntity
  8
0
  6
ByBlock
 62
     0
370
    -2
100
AcDbLine
 10
0.0
 20
0.0
 30
0.0
 11
-1.0
 21
-0.26794919
 31
0.0
  0
LINE
  5
8A1
330
89E
100
AcDbEntity
  8
0
  6
ByBlock
 62
     0
370
    -2
100
AcDbLine
 10
0.0
 20
0.0
 30
0.0
 11
-1.0
 21
0.0
 31
0.0
  0
ENDBLK
  5
8A3
330
89E
100
AcDbEntity
  8
0
100
AcDbBlockEnd
  0
BLOCK
  5
8113
330
8054
100
AcDbEntity
  8
0
100
AcDbBlockBegin
  2
MC_1_5-2-STF-3_81__6
 70
     0
 10
11.65200479999999
 20
-9.005000000000009
 30
0.0
  3
MC_1_5-2-STF-3_81__6
  1

  0
LINE
  5
8055
330
8054
100
AcDbEntity
  8
0
 62
     7
100
AcDbLine
 10
22.45200479999998
 20
4.204999999999998
 30
0.0
 11
22.2520048
 21
4.204999999999998
 31
0.0
  0
LINE
  5
8056
330
8054
100
AcDbEntity
  8
0
 62
     7
100
AcDbLine
 10
22.75200479999999
 20
3.405000000000001
 30
0.0
 11
22.7520048
 21
4.204999999999998
 31
0.0
  0
LINE
  5
8057
330
8054
100
AcDbEntity
  8
0
 62
     7
100
AcDbLine
 10
22.7520048
 20
-4.204999999999998
 30
0.0
 11
22.75200479999999
 21
-3.405000000000001
 31
0.0
  0
LINE
  5
8058
330
8054
100
AcDbEntity
  8
0
 62
     7
100
AcDbLine
 10
22.45200479999998
 20
-4.204999999999998
 30
0.0
 11
22.2520048
 21
-4.204999999999998
 31
0.0
  0
LINE
  5
8059
330
8054
100
AcDbEntity
  8
0
 62
     7
100
AcDbLine
 10
22.7520048
 20
4.204999999999998
 30
0.0
 11
22.45200479999998
 21
4.204999999999998
 31
0.0
  0
LINE
  5
805A
330
8054
100
AcDbEntity
  8
0
 62
     7
100
AcDbLine
 10
22.7520048
 20
-4.204999999999998
 30
0.0
 11
22.45200479999998
 21
-4.204999999999998
 31
0.0
  0
LINE
  5
805B
330
8054
100
AcDbEntity
  8
0
 62
     7
100
AcDbLine
 10
16.22700479999998
 20
5.718068416798288
 30
0.0
 11
16.22700479999998
 21
7.091931583201727
 31
0.0
  0
LINE
  5
805C
330
8054
100
AcDbEntity
  8
0
 62
     7
100
AcDbLine
 10
19.12502869120912
 20
4.837001361960294
 30
0.0
 11
16.48400616196027
 21
7.478023891209136
 31
0.0
  0
LINE
  5
805D
330
8054
100
AcDbEntity
  8
0
 62
     7
100
AcDbLine
 10
16.97898090879087
 20
7.972998638039726
 30
0.0
 11
19.6200034380397
 21
5.331976108790883
 31
0.0
  0
LINE
  5
805E
330
8054
100
AcDbEntity
  8
0
 62
     7
100
AcDbLine
 10
20.85200480000001
 20
4.204999999999998
 30
0.0
 11
20.85200480000001
 21
8.005000000000009
 31
0.0
  0
LINE
  5
805F
330
8054
100
AcDbEntity
  8
0
 62
     7
100
AcDbLine
 10
17.35200480000009
 20
3.268050143491976
 30
0.0
 11
17.35200480000001
 21
4.204999999999998
 31
0.0
  0
LINE
  5
8060
330
8054
100
AcDbEntity
  8
0
 62
     7
100
AcDbLine
 10
18.35200480000003
 20
4.204999999999998
 30
0.0
 11
18.35200480000001
 21
-4.204999999999998
 31
0.0
  0
LINE
  5
8061
330
8054
100
AcDbEntity
  8
0
 62
     7
100
AcDbLine
 10
17.35200480000002
 20
-0.5419498565080297
 30
0.0
 11
17.35200480000009
 21
0.5419498565080261
 31
0.0
  0
LINE
  5
8062
330
8054
100
AcDbEntity
  8
0
 62
     7
100
AcDbLine
 10
17.35200480000001
 20
-3.268050143491976
 30
0.0
 11
17.35200480000002
 21
-0.5419498565080297
 31
0.0
  0
LINE
  5
8063
330
8054
100
AcDbEntity
  8
0
 62
     7
100
AcDbLine
 10
17.35200480000001
 20
-4.204999999999998
 30
0.0
 11
17.35200480000001
 21
-3.268050143491976
 31
0.0
  0
LINE
  5
8064
330
8054
100
AcDbEntity
  8
0
 62
     7
100
AcDbLine
 10
17.35200480000001
 20
-4.204999999999998
 30
0.0
 11
17.65200480000006
 21
-4.204999999999998
 31
0.0
  0
LINE
  5
8065
330
8054
100
AcDbEntity
  8
0
 62
     7
100
AcDbLine
 10
17.85200480000012
 20
-4.204999999999998
 30
0.0
 11
18.35200480000001
 21
-4.204999999999998
 31
0.0
  0
LINE
  5
8066
330
8054
100
AcDbEntity
  8
0
 62
     7
100
AcDbLine
 10
18.35200480000001
 20
-4.204999999999998
 30
0.0
 11
20.85200480000001
 21
-4.204999999999998
 31
0.0
  0
LINE
  5
8067
330
8054
100
AcDbEntity
  8
0
 62
     7
100
AcDbLine
 10
17.65200480000006
 20
-4.204999999999998
 30
0.0
 11
17.85200480000012
 21
-4.204999999999998
 31
0.0
  0
LINE
  5
8068
330
8054
100
AcDbEntity
  8
0
 62
     7
100
AcDbLine
 10
18.7389363832017
 20
4.580000000000012
 30
0.0
 11
17.36507321679829
 21
4.580000000000012
 31
0.0
  0
LINE
  5
8069
330
8054
100
AcDbEntity
  8
0
 62
     7
100
AcDbLine
 10
19.87700479999998
 20
5.718068416798288
 30
0.0
 11
19.87700479999998
 21
7.091931583201727
 31
0.0
  0
LINE
  5
806A
330
8054
100
AcDbEntity
  8
0
 62
     7
100
AcDbLine
 10
17.35200480000001
 20
4.204999999999998
 30
0.0
 11
17.65200480000006
 21
4.204999999999998
 31
0.0
  0
LINE
  5
806B
330
8054
100
AcDbEntity
  8
0
 62
     7
100
AcDbLine
 10
17.35200480000009
 20
0.5419498565080261
 30
0.0
 11
17.35200480000009
 21
3.268050143491976
 31
0.0
  0
LINE
  5
806C
330
8054
100
AcDbEntity
  8
0
 62
     7
100
AcDbLine
 10
17.85200480000012
 20
4.204999999999998
 30
0.0
 11
18.35200480000003
 21
4.204999999999998
 31
0.0
  0
LINE
  5
806D
330
8054
100
AcDbEntity
  8
0
 62
     7
100
AcDbLine
 10
17.65200480000006
 20
4.204999999999998
 30
0.0
 11
17.85200480000012
 21
4.204999999999998
 31
0.0
  0
LINE
  5
806E
330
8054
100
AcDbEntity
  8
0
 62
     7
100
AcDbLine
 10
18.7389363832017
 20
8.230000000000003
 30
0.0
 11
17.36507321679828
 21
8.230000000000003
 31
0.0
  0
LINE
  5
806F
330
8054
100
AcDbEntity
  8
0
 62
     7
100
AcDbLine
 10
22.15200480000001
 20
4.204999999999998
 30
0.0
 11
22.15200480000001
 21
-4.204999999999998
 31
0.0
  0
LINE
  5
8070
330
8054
100
AcDbEntity
  8
0
 62
     7
100
AcDbLine
 10
15.25200480000002
 20
-4.204999999999998
 30
0.0
 11
12.7520048
 21
-4.204999999999998
 31
0.0
  0
LINE
  5
8071
330
8054
100
AcDbEntity
  8
0
 62
     7
100
AcDbLine
 10
15.25200480000002
 20
4.204999999999998
 30
0.0
 11
17.35200480000001
 21
4.204999999999998
 31
0.0
  0
LINE
  5
8072
330
8054
100
AcDbEntity
  8
0
 62
     7
100
AcDbLine
 10
15.25200480000002
 20
-4.204999999999998
 30
0.0
 11
17.35200480000001
 21
-4.204999999999998
 31
0.0
  0
LINE
  5
8073
330
8054
100
AcDbEntity
  8
0
 62
     7
100
AcDbLine
 10
20.85200480000001
 20
4.204999999999998
 30
0.0
 11
18.35200480000003
 21
4.204999999999998
 31
0.0
  0
LINE
  5
8074
330
8054
100
AcDbEntity
  8
0
 62
     7
100
AcDbLine
 10
22.15200480000001
 20
4.204999999999998
 30
0.0
 11
20.85200480000001
 21
4.204999999999998
 31
0.0
  0
LINE
  5
8075
330
8054
100
AcDbEntity
  8
0
 62
     7
100
AcDbLine
 10
20.85200480000001
 20
-4.204999999999998
 30
0.0
 11
22.15200480000001
 21
-4.204999999999998
 31
0.0
  0
LINE
  5
8076
330
8054
100
AcDbEntity
  8
0
 62
     7
100
AcDbLine
 10
22.2520048
 20
4.204999999999998
 30
0.0
 11
22.15200480000001
 21
4.204999999999998
 31
0.0
  0
LINE
  5
8077
330
8054
100
AcDbEntity
  8
0
 62
     7
100
AcDbLine
 10
22.2520048
 20
-4.204999999999998
 30
0.0
 11
22.15200480000001
 21
-4.204999999999998
 31
0.0
  0
LINE
  5
8078
330
8054
100
AcDbEntity
  8
0
 62
     7
100
AcDbLine
 10
22.75200479999999
 20
-3.355000000000017
 30
0.0
 11
22.75200479999999
 21
-3.405000000000001
 31
0.0
  0
LINE
  5
8079
330
8054
100
AcDbEntity
  8
0
 62
     7
100
AcDbLine
 10
22.75200479999999
 20
-3.057345434320807
 30
0.0
 11
22.75200479999999
 21
-3.355000000000017
 31
0.0
  0
LINE
  5
807A
330
8054
100
AcDbEntity
  8
0
 62
     7
100
AcDbLine
 10
15.25200480000002
 20
4.204999999999998
 30
0.0
 11
12.7520048
 21
4.204999999999998
 31
0.0
  0
LINE
  5
807B
330
8054
100
AcDbEntity
  8
0
 62
     7
100
AcDbLine
 10
12.51610641513737
 20
-3.268549682463004
 30
0.0
 11
12.51610641513737
 21
-0.5414503175369987
 31
0.0
  0
LINE
  5
807C
330
8054
100
AcDbEntity
  8
0
 62
     7
100
AcDbLine
 10
22.75200479999999
 20
-3.057345434320807
 30
0.0
 11
22.75200479999999
 21
-0.7526545656791513
 31
0.0
  0
LINE
  5
807D
330
8054
100
AcDbEntity
  8
0
 62
     7
100
AcDbLine
 10
22.75200479999999
 20
-0.4549999999999841
 30
0.0
 11
22.75200479999999
 21
-0.7526545656791513
 31
0.0
  0
LINE
  5
807E
330
8054
100
AcDbEntity
  8
0
 62
     7
100
AcDbLine
 10
22.75200479999999
 20
0.4549999999999841
 30
0.0
 11
22.75200479999999
 21
-0.4549999999999841
 31
0.0
  0
LINE
  5
807F
330
8054
100
AcDbEntity
  8
0
 62
     7
100
AcDbLine
 10
12.51610641513737
 20
0.5414503175369987
 30
0.0
 11
12.51610641513737
 21
3.268549682463004
 31
0.0
  0
LINE
  5
8080
330
8054
100
AcDbEntity
  8
0
 62
     7
100
AcDbLine
 10
13.05200480000026
 20
2.765000000000071
 30
0.0
 11
13.01578513557523
 21
2.765000000000128
 31
0.0
  0
LINE
  5
8081
330
8054
100
AcDbEntity
  8
0
 62
     7
100
AcDbLine
 10
15.80200480000035
 20
2.765000000000071
 30
0.0
 11
13.05200480000026
 21
2.765000000000071
 31
0.0
  0
LINE
  5
8082
330
8054
100
AcDbEntity
  8
0
 62
     7
100
AcDbLine
 10
15.97876816497175
 20
2.76500000000008
 30
0.0
 11
15.80200480000035
 21
2.765000000000071
 31
0.0
  0
LINE
  5
8083
330
8054
100
AcDbEntity
  8
0
 62
     7
100
AcDbLine
 10
13.05200480000026
 20
2.765000000000071
 30
0.0
 11
13.05200480000026
 21
1.045000000000044
 31
0.0
  0
LINE
  5
8084
330
8054
100
AcDbEntity
  8
0
 62
     7
100
AcDbLine
 10
15.80200480000035
 20
1.045000000000045
 30
0.0
 11
15.80200480000035
 21
2.765000000000071
 31
0.0
  0
LINE
  5
8085
330
8054
100
AcDbEntity
  8
0
 62
     7
100
AcDbLine
 10
13.05200480000026
 20
1.045000000000044
 30
0.0
 11
13.01578513557525
 21
1.044999999999945
 31
0.0
  0
LINE
  5
8086
330
8054
100
AcDbEntity
  8
0
 62
     7
100
AcDbLine
 10
13.05200480000026
 20
1.045000000000044
 30
0.0
 11
15.80200480000035
 21
1.045000000000045
 31
0.0
  0
LINE
  5
8087
330
8054
100
AcDbEntity
  8
0
 62
     7
100
AcDbLine
 10
15.97876816497182
 20
1.044999999999959
 30
0.0
 11
15.80200480000035
 21
1.045000000000045
 31
0.0
  0
LINE
  5
8088
330
8054
100
AcDbEntity
  8
0
 62
     7
100
AcDbLine
 10
22.75200479999999
 20
3.355000000000017
 30
0.0
 11
22.75200479999999
 21
3.405000000000001
 31
0.0
  0
LINE
  5
8089
330
8054
100
AcDbEntity
  8
0
 62
     7
100
AcDbLine
 10
22.75200479999999
 20
3.057345434320807
 30
0.0
 11
22.75200479999999
 21
3.355000000000017
 31
0.0
  0
LINE
  5
808A
330
8054
100
AcDbEntity
  8
0
 62
     7
100
AcDbLine
 10
22.75200479999999
 20
0.7526545656791939
 30
0.0
 11
22.75200479999999
 21
3.057345434320807
 31
0.0
  0
LINE
  5
808B
330
8054
100
AcDbEntity
  8
0
 62
     7
100
AcDbLine
 10
22.75200479999999
 20
0.7526545656791939
 30
0.0
 11
22.75200479999999
 21
0.4549999999999841
 31
0.0
  0
LINE
  5
808C
330
8054
100
AcDbEntity
  8
0
 62
     7
100
AcDbLine
 10
15.80200480000034
 20
-1.044999999999922
 30
0.0
 11
15.80200480000034
 21
-2.764999999999958
 31
0.0
  0
LINE
  5
808D
330
8054
100
AcDbEntity
  8
0
 62
     7
100
AcDbLine
 10
15.97876816497185
 20
-1.044999999999945
 30
0.0
 11
15.80200480000034
 21
-1.044999999999922
 31
0.0
  0
LINE
  5
808E
330
8054
100
AcDbEntity
  8
0
 62
     7
100
AcDbLine
 10
15.97876816497185
 20
-2.764999999999949
 30
0.0
 11
15.80200480000034
 21
-2.764999999999958
 31
0.0
  0
LINE
  5
808F
330
8054
100
AcDbEntity
  8
0
 62
     7
100
AcDbLine
 10
13.01578513557523
 20
-1.044999999999874
 30
0.0
 11
13.05200480000026
 21
-1.04499999999993
 31
0.0
  0
LINE
  5
8090
330
8054
100
AcDbEntity
  8
0
 62
     7
100
AcDbLine
 10
13.05200480000026
 20
-1.04499999999993
 30
0.0
 11
13.05200480000026
 21
-2.764999999999958
 31
0.0
  0
LINE
  5
8091
330
8054
100
AcDbEntity
  8
0
 62
     7
100
AcDbLine
 10
13.05200480000026
 20
-2.764999999999958
 30
0.0
 11
13.01578513557525
 21
-2.764999999999949
 31
0.0
  0
LINE
  5
8092
330
8054
100
AcDbEntity
  8
0
 62
     7
100
AcDbLine
 10
15.80200480000034
 20
-2.764999999999958
 30
0.0
 11
13.05200480000026
 21
-2.764999999999958
 31
0.0
  0
LINE
  5
8093
330
8054
100
AcDbEntity
  8
0
 62
     7
100
AcDbLine
 10
15.80200480000034
 20
-1.044999999999922
 30
0.0
 11
13.05200480000026
 21
-1.04499999999993
 31
0.0
  0
LINE
  5
8094
330
8054
100
AcDbEntity
  8
0
 62
     7
100
AcDbLine
 10
17.86491036107106
 20
9.005000000000009
 30
0.0
 11
17.72267493613536
 21
9.005000000000009
 31
0.0
  0
LINE
  5
8095
330
8054
100
AcDbEntity
  8
0
 62
     7
100
AcDbLine
 10
17.48272598516249
 20
9.005000000000009
 30
0.0
 11
17.72267493613536
 21
9.005000000000009
 31
0.0
  0
LINE
  5
8096
330
8054
100
AcDbEntity
  8
0
 62
     7
100
AcDbLine
 10
18.82895046341312
 20
9.005000000000009
 30
0.0
 11
19.06889941438586
 21
9.005000000000009
 31
0.0
  0
LINE
  5
8097
330
8054
100
AcDbEntity
  8
0
 62
     7
100
AcDbLine
 10
19.06889941438586
 20
9.005000000000009
 30
0.0
 11
19.22699627381939
 21
9.005000000000009
 31
0.0
  0
LINE
  5
8098
330
8054
100
AcDbEntity
  8
0
 62
     7
100
AcDbLine
 10
17.324629125729
 20
9.005000000000009
 30
0.0
 11
17.48272598516249
 21
9.005000000000009
 31
0.0
  0
LINE
  5
8099
330
8054
100
AcDbEntity
  8
0
 62
     7
100
AcDbLine
 10
18.68671503847739
 20
9.005000000000009
 30
0.0
 11
18.82895046341312
 21
9.005000000000009
 31
0.0
  0
LINE
  5
809A
330
8054
100
AcDbEntity
  8
0
 62
     7
100
AcDbLine
 10
18.50417483006699
 20
9.005000000000009
 30
0.0
 11
18.68671503847739
 21
9.005000000000009
 31
0.0
  0
LINE
  5
809B
330
8054
100
AcDbEntity
  8
0
 62
     7
100
AcDbLine
 10
18.0474505694814
 20
9.005000000000009
 30
0.0
 11
18.2758126997742
 21
9.005000000000009
 31
0.0
  0
LINE
  5
809C
330
8054
100
AcDbEntity
  8
0
 62
     7
100
AcDbLine
 10
17.86491036107106
 20
9.005000000000009
 30
0.0
 11
18.0474505694814
 21
9.005000000000009
 31
0.0
  0
LINE
  5
809D
330
8054
100
AcDbEntity
  8
0
 62
     7
100
AcDbLine
 10
18.2758126997742
 20
9.005000000000009
 30
0.0
 11
18.50417483006699
 21
9.005000000000009
 31
0.0
  0
LINE
  5
809E
330
8054
100
AcDbEntity
  8
0
 62
     7
100
AcDbLine
 10
17.324629125729
 20
9.005000000000009
 30
0.0
 11
17.03511018562189
 21
9.005000000000009
 31
0.0
  0
LINE
  5
809F
330
8054
100
AcDbEntity
  8
0
 62
     7
100
AcDbLine
 10
17.03511018562189
 20
9.005000000000009
 30
0.0
 11
16.8770133261884
 21
9.005000000000009
 31
0.0
  0
LINE
  5
80A0
330
8054
100
AcDbEntity
  8
0
 62
     7
100
AcDbLine
 10
16.76280061257794
 20
9.005000000000009
 30
0.0
 11
16.8770133261884
 21
9.005000000000009
 31
0.0
  0
LINE
  5
80A1
330
8054
100
AcDbEntity
  8
0
 62
     7
100
AcDbLine
 10
19.22699627381939
 20
9.005000000000009
 30
0.0
 11
19.3412089874221
 21
9.005000000000009
 31
0.0
  0
LINE
  5
80A2
330
8054
100
AcDbEntity
  8
0
 62
     7
100
AcDbLine
 10
19.3412089874221
 20
9.005000000000009
 30
0.0
 11
19.55200480000002
 21
9.005000000000009
 31
0.0
  0
LINE
  5
80A3
330
8054
100
AcDbEntity
  8
0
 62
     7
100
AcDbLine
 10
16.55200479999994
 20
9.005000000000009
 30
0.0
 11
16.76280061257794
 21
9.005000000000009
 31
0.0
  0
LINE
  5
80A4
330
8054
100
AcDbEntity
  8
0
 62
     7
100
AcDbLine
 10
19.55200480000002
 20
9.005000000000009
 30
0.0
 11
19.85200480000001
 21
9.005000000000009
 31
0.0
  0
LINE
  5
80A5
330
8054
100
AcDbEntity
  8
0
 62
     7
100
AcDbLine
 10
16.25200480000001
 20
9.005000000000009
 30
0.0
 11
16.55200479999994
 21
9.005000000000009
 31
0.0
  0
LINE
  5
80A6
330
8054
100
AcDbEntity
  8
0
 62
     7
100
AcDbLine
 10
15.25200480000002
 20
4.204999999999998
 30
0.0
 11
15.25200480000002
 21
8.005000000000009
 31
0.0
  0
LINE
  5
80A7
330
8054
100
AcDbEntity
  8
0
 62
     7
100
AcDbLine
 10
11.65200479999999
 20
4.204999999999998
 30
0.0
 11
12.4520048
 21
4.204999999999998
 31
0.0
  0
LINE
  5
80A8
330
8054
100
AcDbEntity
  8
0
 62
     7
100
AcDbLine
 10
12.4520048
 20
-4.204999999999998
 30
0.0
 11
11.65200479999999
 21
-4.204999999999998
 31
0.0
  0
LINE
  5
80A9
330
8054
100
AcDbEntity
  8
0
 62
     7
100
AcDbLine
 10
11.65200479999999
 20
-4.204999999999998
 30
0.0
 11
11.65200479999999
 21
4.204999999999998
 31
0.0
  0
LINE
  5
80AA
330
8054
100
AcDbEntity
  8
0
 62
     7
100
AcDbLine
 10
12.7520048
 20
-4.204999999999998
 30
0.0
 11
12.4520048
 21
-4.204999999999998
 31
0.0
  0
LINE
  5
80AB
330
8054
100
AcDbEntity
  8
0
 62
     7
100
AcDbLine
 10
12.7520048
 20
4.204999999999998
 30
0.0
 11
12.4520048
 21
4.204999999999998
 31
0.0
  0
LINE
  5
80AC
330
8054
100
AcDbEntity
  8
0
 62
     7
100
AcDbLine
 10
20.85200480000001
 20
-4.204999999999998
 30
0.0
 11
20.85200480000001
 21
-8.005000000000009
 31
0.0
  0
LINE
  5
80AD
330
8054
100
AcDbEntity
  8
0
 62
     7
100
AcDbLine
 10
15.25200480000002
 20
-4.204999999999998
 30
0.0
 11
15.25200480000002
 21
-8.005000000000009
 31
0.0
  0
LINE
  5
80AE
330
8054
100
AcDbEntity
  8
0
 62
     7
100
AcDbLine
 10
18.73893638320173
 20
-4.579999999999998
 30
0.0
 11
17.36507321679825
 21
-4.579999999999998
 31
0.0
  0
LINE
  5
80AF
330
8054
100
AcDbEntity
  8
0
 62
     7
100
AcDbLine
 10
19.87700479999998
 20
-5.718068416798275
 30
0.0
 11
19.87700479999998
 21
-7.091931583201699
 31
0.0
  0
LINE
  5
80B0
330
8054
100
AcDbEntity
  8
0
 62
     7
100
AcDbLine
 10
19.12502869120912
 20
-7.972998638039709
 30
0.0
 11
16.48400616196028
 21
-5.331976108790865
 31
0.0
  0
LINE
  5
80B1
330
8054
100
AcDbEntity
  8
0
 62
     7
100
AcDbLine
 10
16.97898090879085
 20
-4.837001361960271
 30
0.0
 11
19.6200034380397
 21
-7.478023891209117
 31
0.0
  0
LINE
  5
80B2
330
8054
100
AcDbEntity
  8
0
 62
     7
100
AcDbLine
 10
16.22700479999998
 20
-5.718068416798261
 30
0.0
 11
16.22700479999998
 21
-7.091931583201699
 31
0.0
  0
LINE
  5
80B3
330
8054
100
AcDbEntity
  8
0
 62
     7
100
AcDbLine
 10
18.73893638320166
 20
-8.229999999999989
 30
0.0
 11
17.36507321679831
 21
-8.229999999999989
 31
0.0
  0
LINE
  5
80B4
330
8054
100
AcDbEntity
  8
0
 62
     7
100
AcDbLine
 10
16.25200480000001
 20
-9.005000000000009
 30
0.0
 11
19.85200480000001
 21
-9.005000000000009
 31
0.0
  0
ARC
  5
80B5
330
8054
100
AcDbEntity
  8
0
 62
     7
100
AcDbCircle
 10
14.9320048000011
 20
20.39499999999989
 30
0.0
 40
20.00000000000011
100
AcDbArc
 50
263.6465784957678
 51
276.8921252520984
  0
ARC
  5
80B6
330
8054
100
AcDbEntity
  8
0
 62
     7
100
AcDbCircle
 10
18.05200479999998
 20
6.405000000000014
 30
0.0
 40
1.949999999999999
100
AcDbArc
 50
9.617477116202456
 51
15.00000000000011
  0
ARC
  5
80B7
330
8054
100
AcDbEntity
  8
0
 62
     7
100
AcDbCircle
 10
18.05200479999998
 20
6.405000000000014
 30
0.0
 40
1.949999999999996
100
AcDbArc
 50
339.3736189501979
 51
350.3825228837971
  0
ARC
  5
80B8
330
8054
100
AcDbEntity
  8
0
 62
     7
100
AcDbCircle
 10
18.05200479999998
 20
6.405000000000014
 30
0.0
 40
1.950000000000004
100
AcDbArc
 50
290.6263810498014
 51
339.3736189501979
  0
ARC
  5
80B9
330
8054
100
AcDbEntity
  8
0
 62
     7
100
AcDbCircle
 10
18.05200479999998
 20
6.405000000000014
 30
0.0
 40
1.950000000000006
100
AcDbArc
 50
159.3736189501985
 51
170.3825228837962
  0
ARC
  5
80BA
330
8054
100
AcDbEntity
  8
0
 62
     7
100
AcDbCircle
 10
18.05200479999998
 20
6.405000000000014
 30
0.0
 40
1.95
100
AcDbArc
 50
189.6174771162041
 51
200.6263810498018
  0
ARC
  5
80BB
330
8054
100
AcDbEntity
  8
0
 62
     7
100
AcDbCircle
 10
18.05200479999998
 20
6.405000000000014
 30
0.0
 40
1.899999999999996
100
AcDbArc
 50
45.00000000000003
 51
73.84784348690004
  0
ARC
  5
80BC
330
8054
100
AcDbEntity
  8
0
 62
     7
100
AcDbCircle
 10
18.05200479999998
 20
6.405000000000014
 30
0.0
 40
1.899999999999988
100
AcDbArc
 50
124.3848921492918
 51
145.6151078507083
  0
ARC
  5
80BD
330
8054
100
AcDbEntity
  8
0
 62
     7
100
AcDbCircle
 10
18.05200479999998
 20
6.405000000000014
 30
0.0
 40
1.899999999999995
100
AcDbArc
 50
145.6151078507083
 51
163.8478434869018
  0
ARC
  5
80BE
330
8054
100
AcDbEntity
  8
0
 62
     7
100
AcDbCircle
 10
18.05200479999998
 20
6.405000000000014
 30
0.0
 40
1.899999999999997
100
AcDbArc
 50
196.1521565130981
 51
253.8478434869018
  0
ARC
  5
80BF
330
8054
100
AcDbEntity
  8
0
 62
     7
100
AcDbCircle
 10
18.05200479999998
 20
6.405000000000014
 30
0.0
 40
1.95
100
AcDbArc
 50
249.3736189501989
 51
260.382522883796
  0
ARC
  5
80C0
330
8054
100
AcDbEntity
  8
0
 62
     7
100
AcDbCircle
 10
18.05200479999998
 20
6.405000000000014
 30
0.0
 40
1.95000000000001
100
AcDbArc
 50
200.6263810498018
 51
249.3736189501989
  0
ARC
  5
80C1
330
8054
100
AcDbEntity
  8
0
 62
     7
100
AcDbCircle
 10
18.05200479999998
 20
6.405000000000014
 30
0.0
 40
1.949999999999992
100
AcDbArc
 50
110.6263810498015
 51
159.3736189501985
  0
ARC
  5
80C2
330
8054
100
AcDbEntity
  8
0
 62
     7
100
AcDbCircle
 10
18.05200479999998
 20
6.405000000000014
 30
0.0
 40
1.899999999999997
100
AcDbArc
 50
106.1521565130997
 51
124.3848921492918
  0
ARC
  5
80C3
330
8054
100
AcDbEntity
  8
0
 62
     7
100
AcDbCircle
 10
19.85200480000001
 20
8.005000000000009
 30
0.0
 40
1.0
100
AcDbArc
 50
0.0
 51
45.57299599919454
  0
ARC
  5
80C4
330
8054
100
AcDbEntity
  8
0
 62
     7
100
AcDbCircle
 10
18.05200479999998
 20
6.405000000000014
 30
0.0
 40
1.949999999999991
100
AcDbArc
 50
69.37361895019858
 51
80.3825228837967
  0
ARC
  5
80C5
330
8054
100
AcDbEntity
  8
0
 62
     7
100
AcDbCircle
 10
18.05200479999998
 20
6.405000000000014
 30
0.0
 40
1.949999999999996
100
AcDbArc
 50
99.61747711620342
 51
110.6263810498015
  0
ARC
  5
80C6
330
8054
100
AcDbEntity
  8
0
 62
     7
100
AcDbCircle
 10
18.05200479999998
 20
6.405000000000014
 30
0.0
 40
1.949999999999992
100
AcDbArc
 50
20.62638104980153
 51
69.37361895019858
  0
ARC
  5
80C7
330
8054
100
AcDbEntity
  8
0
 62
     7
100
AcDbCircle
 10
18.05200479999998
 20
6.405000000000014
 30
0.0
 40
1.899999999999998
100
AcDbArc
 50
325.6151078507081
 51
343.8478434869001
  0
ARC
  5
80C8
330
8054
100
AcDbEntity
  8
0
 62
     7
100
AcDbCircle
 10
14.93200480000109
 20
-16.58499999999989
 30
0.0
 40
19.99999999999993
100
AcDbArc
 50
83.05018107851344
 51
83.10787474790149
  0
ARC
  5
80C9
330
8054
100
AcDbEntity
  8
0
 62
     7
100
AcDbCircle
 10
18.05200479999998
 20
6.405000000000014
 30
0.0
 40
1.950000000000011
100
AcDbArc
 50
279.6174771162034
 51
290.6263810498014
  0
ARC
  5
80CA
330
8054
100
AcDbEntity
  8
0
 62
     7
100
AcDbCircle
 10
18.05200479999998
 20
6.405000000000014
 30
0.0
 40
1.899999999999998
100
AcDbArc
 50
286.1521565130983
 51
304.3848921492918
  0
ARC
  5
80CB
330
8054
100
AcDbEntity
  8
0
 62
     7
100
AcDbCircle
 10
18.05200479999998
 20
6.405000000000014
 30
0.0
 40
1.949999999999995
100
AcDbArc
 50
15.00000000000011
 51
20.62638104980153
  0
ARC
  5
80CC
330
8054
100
AcDbEntity
  8
0
 62
     7
100
AcDbCircle
 10
18.05200479999998
 20
6.405000000000014
 30
0.0
 40
1.949999999999999
100
AcDbArc
 50
0.0
 51
9.617477116202456
  0
ARC
  5
80CD
330
8054
100
AcDbEntity
  8
0
 62
     7
100
AcDbCircle
 10
18.05200479999998
 20
6.405000000000014
 30
0.0
 40
1.95
100
AcDbArc
 50
350.3825228837971
 51
0.0
  0
ARC
  5
80CE
330
8054
100
AcDbEntity
  8
0
 62
     7
100
AcDbCircle
 10
18.05200479999998
 20
6.405000000000014
 30
0.0
 40
1.950000000000014
100
AcDbArc
 50
260.382522883796
 51
279.6174771162034
  0
ARC
  5
80CF
330
8054
100
AcDbEntity
  8
0
 62
     7
100
AcDbCircle
 10
18.05200479999998
 20
6.405000000000014
 30
0.0
 40
1.899999999999998
100
AcDbArc
 50
304.3848921492918
 51
325.6151078507081
  0
ARC
  5
80D0
330
8054
100
AcDbEntity
  8
0
 62
     7
100
AcDbCircle
 10
14.9320048000011
 20
20.39499999999989
 30
0.0
 40
19.99999999999987
100
AcDbArc
 50
276.8921252520984
 51
276.9498189214866
  0
ARC
  5
80D1
330
8054
100
AcDbEntity
  8
0
 62
     7
100
AcDbCircle
 10
14.93200480000002
 20
-20.39499999999989
 30
0.0
 40
20.00000000000006
100
AcDbArc
 50
83.05018107851052
 51
83.10787474789842
  0
ARC
  5
80D2
330
8054
100
AcDbEntity
  8
0
 62
     7
100
AcDbCircle
 10
14.93200480000002
 20
16.58499999999989
 30
0.0
 40
20.00000000000001
100
AcDbArc
 50
276.8921252521029
 51
276.9498189214893
  0
ARC
  5
80D3
330
8054
100
AcDbEntity
  8
0
 62
     7
100
AcDbCircle
 10
18.05200479999998
 20
6.405000000000014
 30
0.0
 40
1.899999999999998
100
AcDbArc
 50
16.15215651309982
 51
45.00000000000003
  0
ARC
  5
80D4
330
8054
100
AcDbEntity
  8
0
 62
     7
100
AcDbCircle
 10
18.05200479999998
 20
6.405000000000014
 30
0.0
 40
1.949999999999995
100
AcDbArc
 50
80.3825228837967
 51
99.61747711620342
  0
ARC
  5
80D5
330
8054
100
AcDbEntity
  8
0
 62
     7
100
AcDbCircle
 10
18.05200479999998
 20
6.405000000000014
 30
0.0
 40
1.949999999999997
100
AcDbArc
 50
170.3825228837962
 51
189.6174771162041
  0
ARC
  5
80D6
330
8054
100
AcDbEntity
  8
0
 62
     7
100
AcDbCircle
 10
14.93200480000002
 20
16.58499999999989
 30
0.0
 40
19.99999999999999
100
AcDbArc
 50
263.6465784957709
 51
276.8921252521029
  0
ARC
  5
80D7
330
8054
100
AcDbEntity
  8
0
 62
     7
100
AcDbCircle
 10
14.93200480000109
 20
-16.58499999999989
 30
0.0
 40
19.99999999999987
100
AcDbArc
 50
83.10787474790149
 51
90.00000000000277
  0
ARC
  5
80D8
330
8054
100
AcDbEntity
  8
0
 62
     7
100
AcDbCircle
 10
14.93200480000109
 20
-16.58499999999989
 30
0.0
 40
20.0
100
AcDbArc
 50
90.00000000000277
 51
96.35342150423221
  0
ARC
  5
80D9
330
8054
100
AcDbEntity
  8
0
 62
     7
100
AcDbCircle
 10
14.93200480000002
 20
-20.39499999999989
 30
0.0
 40
19.99999999999999
100
AcDbArc
 50
96.35342150422914
 51
96.93798183461964
  0
ARC
  5
80DA
330
8054
100
AcDbEntity
  8
0
 62
     7
100
AcDbCircle
 10
14.93200480000002
 20
-20.39499999999989
 30
0.0
 40
20.0
100
AcDbArc
 50
89.99999999999968
 51
96.35342150422914
  0
ARC
  5
80DB
330
8054
100
AcDbEntity
  8
0
 62
     7
100
AcDbCircle
 10
14.93200480000002
 20
-20.39499999999989
 30
0.0
 40
20.0
100
AcDbArc
 50
83.10787474789842
 51
89.99999999999968
  0
ARC
  5
80DC
330
8054
100
AcDbEntity
  8
0
 62
     7
100
AcDbCircle
 10
14.93200480000109
 20
-16.58499999999989
 30
0.0
 40
20.0000000000001
100
AcDbArc
 50
96.35342150423221
 51
96.93798183462273
  0
ARC
  5
80DD
330
8054
100
AcDbEntity
  8
0
 62
     7
100
AcDbCircle
 10
14.9320048000011
 20
20.39499999999989
 30
0.0
 40
20.00000000000024
100
AcDbArc
 50
263.0620181653773
 51
263.6465784957678
  0
ARC
  5
80DE
330
8054
100
AcDbEntity
  8
0
 62
     7
100
AcDbCircle
 10
14.93200480000002
 20
16.58499999999989
 30
0.0
 40
20.00000000000011
100
AcDbArc
 50
263.0620181653803
 51
263.6465784957709
  0
ARC
  5
80DF
330
8054
100
AcDbEntity
  8
0
 62
     7
100
AcDbCircle
 10
19.85200480000001
 20
8.005000000000009
 30
0.0
 40
0.9999999999999779
100
AcDbArc
 50
45.57299599919454
 51
90.0
  0
ARC
  5
80E0
330
8054
100
AcDbEntity
  8
0
 62
     7
100
AcDbCircle
 10
19.85200480000001
 20
-8.005000000000009
 30
0.0
 40
1.000000000000001
100
AcDbArc
 50
314.4270040008046
 51
0.0
  0
ARC
  5
80E1
330
8054
100
AcDbEntity
  8
0
 62
     7
100
AcDbCircle
 10
16.25200480000001
 20
8.005000000000009
 30
0.0
 40
1.0
100
AcDbArc
 50
90.0
 51
180.0
  0
ARC
  5
80E2
330
8054
100
AcDbEntity
  8
0
 62
     7
100
AcDbCircle
 10
18.05200479999998
 20
-6.404999999999986
 30
0.0
 40
1.95
100
AcDbArc
 50
350.3825228837971
 51
0.0
  0
ARC
  5
80E3
330
8054
100
AcDbEntity
  8
0
 62
     7
100
AcDbCircle
 10
18.05200479999998
 20
-6.404999999999986
 30
0.0
 40
1.949999999999992
100
AcDbArc
 50
339.3736189501986
 51
345.0000000000001
  0
ARC
  5
80E4
330
8054
100
AcDbEntity
  8
0
 62
     7
100
AcDbCircle
 10
18.05200479999998
 20
-6.404999999999986
 30
0.0
 40
1.950000000000006
100
AcDbArc
 50
200.6263810498014
 51
249.3736189501996
  0
ARC
  5
80E5
330
8054
100
AcDbEntity
  8
0
 62
     7
100
AcDbCircle
 10
18.05200479999998
 20
-6.404999999999986
 30
0.0
 40
1.95000000000001
100
AcDbArc
 50
99.61747711620569
 51
110.6263810498023
  0
ARC
  5
80E6
330
8054
100
AcDbEntity
  8
0
 62
     7
100
AcDbCircle
 10
18.05200479999998
 20
-6.404999999999986
 30
0.0
 40
1.899999999999996
100
AcDbArc
 50
45.00000000000002
 51
73.84784348690004
  0
ARC
  5
80E7
330
8054
100
AcDbEntity
  8
0
 62
     7
100
AcDbCircle
 10
18.05200479999998
 20
-6.404999999999986
 30
0.0
 40
1.899999999999997
100
AcDbArc
 50
325.6151078507081
 51
343.8478434869003
  0
ARC
  5
80E8
330
8054
100
AcDbEntity
  8
0
 62
     7
100
AcDbCircle
 10
18.05200479999998
 20
-6.404999999999986
 30
0.0
 40
1.899999999999997
100
AcDbArc
 50
16.15215651309974
 51
45.00000000000002
  0
ARC
  5
80E9
330
8054
100
AcDbEntity
  8
0
 62
     7
100
AcDbCircle
 10
18.05200479999998
 20
-6.404999999999986
 30
0.0
 40
1.950000000000002
100
AcDbArc
 50
110.6263810498023
 51
159.3736189501982
  0
ARC
  5
80EA
330
8054
100
AcDbEntity
  8
0
 62
     7
100
AcDbCircle
 10
18.05200479999998
 20
-6.404999999999986
 30
0.0
 40
1.949999999999991
100
AcDbArc
 50
290.6263810498001
 51
339.3736189501986
  0
ARC
  5
80EB
330
8054
100
AcDbEntity
  8
0
 62
     7
100
AcDbCircle
 10
18.05200479999998
 20
-6.404999999999986
 30
0.0
 40
1.899999999999996
100
AcDbArc
 50
124.384892149292
 51
145.6151078507081
  0
ARC
  5
80EC
330
8054
100
AcDbEntity
  8
0
 62
     7
100
AcDbCircle
 10
18.05200479999998
 20
-6.404999999999986
 30
0.0
 40
1.899999999999988
100
AcDbArc
 50
145.6151078507081
 51
163.8478434869015
  0
ARC
  5
80ED
330
8054
100
AcDbEntity
  8
0
 62
     7
100
AcDbCircle
 10
18.05200479999998
 20
-6.404999999999986
 30
0.0
 40
1.9
100
AcDbArc
 50
304.3848921492918
 51
325.6151078507081
  0
ARC
  5
80EE
330
8054
100
AcDbEntity
  8
0
 62
     7
100
AcDbCircle
 10
18.05200479999998
 20
-6.404999999999986
 30
0.0
 40
1.9
100
AcDbArc
 50
286.1521565130983
 51
304.3848921492918
  0
ARC
  5
80EF
330
8054
100
AcDbEntity
  8
0
 62
     7
100
AcDbCircle
 10
18.05200479999998
 20
-6.404999999999986
 30
0.0
 40
1.9
100
AcDbArc
 50
196.1521565130984
 51
253.8478434869018
  0
ARC
  5
80F0
330
8054
100
AcDbEntity
  8
0
 62
     7
100
AcDbCircle
 10
18.05200479999998
 20
-6.404999999999986
 30
0.0
 40
1.899999999999997
100
AcDbArc
 50
106.1521565130997
 51
124.384892149292
  0
ARC
  5
80F1
330
8054
100
AcDbEntity
  8
0
 62
     7
100
AcDbCircle
 10
18.05200479999998
 20
-6.404999999999986
 30
0.0
 40
1.950000000000003
100
AcDbArc
 50
9.617477116203307
 51
20.62638104980153
  0
ARC
  5
80F2
330
8054
100
AcDbEntity
  8
0
 62
     7
100
AcDbCircle
 10
18.05200479999998
 20
-6.404999999999986
 30
0.0
 40
1.949999999999999
100
AcDbArc
 50
0.0
 51
9.617477116203307
  0
ARC
  5
80F3
330
8054
100
AcDbEntity
  8
0
 62
     7
100
AcDbCircle
 10
18.05200479999998
 20
-6.404999999999986
 30
0.0
 40
1.949999999999992
100
AcDbArc
 50
345.0000000000001
 51
350.3825228837971
  0
ARC
  5
80F4
330
8054
100
AcDbEntity
  8
0
 62
     7
100
AcDbCircle
 10
18.05200479999998
 20
-6.404999999999986
 30
0.0
 40
1.950000000000004
100
AcDbArc
 50
69.37361895019749
 51
80.38252288379444
  0
ARC
  5
80F5
330
8054
100
AcDbEntity
  8
0
 62
     7
100
AcDbCircle
 10
18.05200479999998
 20
-6.404999999999986
 30
0.0
 40
1.949999999999992
100
AcDbArc
 50
20.62638104980153
 51
69.37361895019749
  0
ARC
  5
80F6
330
8054
100
AcDbEntity
  8
0
 62
     7
100
AcDbCircle
 10
18.05200479999998
 20
-6.404999999999986
 30
0.0
 40
1.95
100
AcDbArc
 50
189.6174771162041
 51
200.6263810498014
  0
ARC
  5
80F7
330
8054
100
AcDbEntity
  8
0
 62
     7
100
AcDbCircle
 10
18.05200479999998
 20
-6.404999999999986
 30
0.0
 40
1.95000000000001
100
AcDbArc
 50
159.3736189501982
 51
170.3825228837958
  0
ARC
  5
80F8
330
8054
100
AcDbEntity
  8
0
 62
     7
100
AcDbCircle
 10
18.05200479999998
 20
-6.404999999999986
 30
0.0
 40
1.950000000000008
100
AcDbArc
 50
80.38252288379444
 51
99.61747711620569
  0
ARC
  5
80F9
330
8054
100
AcDbEntity
  8
0
 62
     7
100
AcDbCircle
 10
18.05200479999998
 20
-6.404999999999986
 30
0.0
 40
1.95
100
AcDbArc
 50
170.3825228837958
 51
189.6174771162041
  0
ARC
  5
80FA
330
8054
100
AcDbEntity
  8
0
 62
     7
100
AcDbCircle
 10
18.05200479999998
 20
-6.404999999999986
 30
0.0
 40
1.949999999999995
100
AcDbArc
 50
279.6174771162005
 51
290.6263810498001
  0
ARC
  5
80FB
330
8054
100
AcDbEntity
  8
0
 62
     7
100
AcDbCircle
 10
18.05200479999998
 20
-6.404999999999986
 30
0.0
 40
1.949999999999992
100
AcDbArc
 50
249.3736189501996
 51
260.3825228837994
  0
ARC
  5
80FC
330
8054
100
AcDbEntity
  8
0
 62
     7
100
AcDbCircle
 10
18.05200479999998
 20
-6.404999999999986
 30
0.0
 40
1.949999999999995
100
AcDbArc
 50
260.3825228837994
 51
279.6174771162005
  0
ARC
  5
80FD
330
8054
100
AcDbEntity
  8
0
 62
     7
100
AcDbCircle
 10
19.85200480000001
 20
-8.005000000000009
 30
0.0
 40
1.0
100
AcDbArc
 50
270.0
 51
314.4270040008046
  0
ARC
  5
80FE
330
8054
100
AcDbEntity
  8
0
 62
     7
100
AcDbCircle
 10
16.25200480000001
 20
-8.005000000000009
 30
0.0
 40
1.0
100
AcDbArc
 50
180.0
 51
270.0
  0
LWPOLYLINE
  5
80FF
330
8054
100
AcDbEntity
  8
0
 62
     7
100
AcDbPolyline
 90
        8
 70
     0
 43
0.0
 10
17.33201265709492
 20
3.270476883869775
 42
0.0335310637653838
 10
17.31329089504755
 20
3.271318850572598
 42
0.0156165892135584
 10
17.28941606510463
 20
3.270301414414703
 42
0.0071889415064502
 10
17.26096723987685
 20
3.267894183712745
 10
17.24520853922197
 20
3.266316148006695
 42
0.0004735704562555
 10
17.20263031056757
 20
3.261820140191021
 42
-0.0032656780077607
 10
17.15475467428841
 20
3.257047853800718
 42
-0.0060397432882063
 10
17.10200480000014
 20
3.252767990508274
  0
LWPOLYLINE
  5
8100
330
8054
100
AcDbEntity
  8
0
 62
     7
100
AcDbPolyline
 90
        8
 70
     0
 43
0.0
 38
1.004996417558615E+99
 10
17.10200480000016
 20
-3.252767990508261
 42
-0.0057841437119752
 10
17.15475467428849
 20
-3.257047853800721
 42
-0.0030986770794639
 10
17.20263031056765
 20
-3.261820140191028
 42
0.0004438508909904
 10
17.24520853922196
 20
-3.266316148006695
 10
17.26096723987798
 20
-3.26789418371285
 42
0.0066594803953065
 10
17.28941606510647
 20
-3.270301414414806
 42
0.0140857367880889
 10
17.31329089504882
 20
-3.271318850572584
 42
0.029075955183634
 10
17.33201265709538
 20
-3.27047688386973
  0
LWPOLYLINE
  5
8101
330
8054
100
AcDbEntity
  8
0
 62
     7
100
AcDbPolyline
 90
        8
 70
     0
 43
0.0
 38
1.004996417558615E+99
 10
17.33201265709492
 20
-0.5395231161302263
 42
0.0335310637654514
 10
17.31329089504755
 20
-0.5386811494274043
 42
0.0156165892136423
 10
17.28941606510463
 20
-0.5396985855852991
 42
0.0071889415065424
 10
17.26096723987685
 20
-0.5421058162872582
 10
17.24520853922197
 20
-0.5436838519933076
 42
0.000473570456253
 10
17.20263031056757
 20
-0.5481798598089815
 42
-0.0032656780077582
 10
17.15475467428841
 20
-0.5529521461992828
 42
-0.0060397432882149
 10
17.10200480000014
 20
-0.5572320094917274
  0
LWPOLYLINE
  5
8102
330
8054
100
AcDbEntity
  8
0
 62
     7
100
AcDbPolyline
 90
        7
 70
     0
 43
0.0
 38
1.004996417558615E+99
 10
16.616100821069
 20
-3.162470935450638
 42
0.0142366455524767
 10
16.71847418368156
 20
-3.191985082742943
 42
0.0120695717613071
 10
16.81329986998719
 20
-3.21388240731759
 10
16.85709152197306
 20
-3.222370470715873
 42
0.0109464766023359
 10
16.94590726101023
 20
-3.23663611128645
 42
0.0117619100328867
 10
17.04699139911177
 20
-3.248331995093447
 10
17.10200480000016
 20
-3.252767990508261
  0
LWPOLYLINE
  5
8103
330
8054
100
AcDbEntity
  8
0
 62
     7
100
AcDbPolyline
 90
        7
 70
     0
 43
0.0
 38
1.004996417558615E+99
 10
17.10200480000014
 20
-0.5572320094917274
 42
0.0114955886726863
 10
16.99494164454427
 20
-0.5671050695806743
 42
0.010693155915218
 10
16.89993997955839
 20
-0.580265146700024
 10
16.85709152380381
 20
-0.587629528949833
 42
0.0132133522827158
 10
16.74997761891906
 20
-0.6101877167674827
 42
0.012315081278624
 10
16.65713327402092
 20
-0.6349225981987328
 10
16.61610082105868
 20
-0.6475290645263101
  0
LWPOLYLINE
  5
8104
330
8054
100
AcDbEntity
  8
0
 62
     7
100
AcDbPolyline
 90
       10
 70
     0
 43
0.0
 38
1.004996417558615E+99
 10
12.71878452584433
 20
-3.292164184512589
 42
0.0713896900981334
 10
12.73912646990165
 20
-3.291515258092779
 42
0.0666714301192336
 10
12.75931935202005
 20
-3.285058393107493
 42
0.0553520163103628
 10
12.77927648011357
 20
-3.272838617559158
 42
0.0432324602286106
 10
12.79891116209622
 20
-3.254900959450196
 10
12.80956552699472
 20
-3.242584230898982
 42
0.0279507230419066
 10
12.82857928705096
 20
-3.215784155475322
 10
12.83691288690262
 20
-3.201967815856306
 42
0.0205298851605054
 10
12.85509923991141
 20
-3.167032021894308
 42
0.016567694174159
 10
12.87247386876198
 20
-3.126852274657494
  0
LWPOLYLINE
  5
8105
330
8054
100
AcDbEntity
  8
0
 62
     7
100
AcDbPolyline
 90
        8
 70
     0
 43
0.0
 38
1.004996417558615E+99
 10
16.55200479999989
 20
-3.141833507019384
 42
-0.0172357152741053
 10
16.45363200812228
 20
-3.106123295177748
 42
-0.0156206511984958
 10
16.37121760425574
 20
-3.069661539308611
 10
16.2907379072175
 20
-3.027361546687111
 10
16.21532243007297
 20
-2.980605332479683
 42
-0.0289969906790955
 10
16.11019173680183
 20
-2.900816274056373
 42
-0.0309858041169319
 10
16.01892463016775
 20
-2.812265826742595
 10
15.97876816497185
 20
-2.764999999999949
  0
LWPOLYLINE
  5
8106
330
8054
100
AcDbEntity
  8
0
 62
     7
100
AcDbPolyline
 90
        4
 70
     0
 43
0.0
 38
1.004996417558615E+99
 10
12.87247386876198
 20
-3.126852274657494
 42
0.0000672453982348
 10
12.94413775952127
 20
-2.945977117000836
 10
12.97994661263786
 20
-2.855544234353944
 10
13.01578513557525
 20
-2.764999999999949
  0
LWPOLYLINE
  5
8107
330
8054
100
AcDbEntity
  8
0
 62
     7
100
AcDbPolyline
 90
       13
 70
     0
 43
0.0
 38
1.004996417558615E+99
 10
12.71878452584433
 20
-0.5178358154874161
 42
-0.0540737045845098
 10
12.73373645593272
 20
-0.5177442886678304
 42
-0.0584544106834491
 10
12.75038643120335
 20
-0.5213637008600364
 10
12.75928426185442
 20
-0.5249252922323393
 42
-0.0430322370880051
 10
12.77401265121024
 20
-0.533362369981703
 42
-0.0397710223195412
 10
12.7902793546071
 20
-0.5464696695280157
 10
12.79891116277707
 20
-0.5550990412774582
 42
-0.0259639365893202
 10
12.81314111282177
 20
-0.5719740014074884
 42
-0.0236660583852533
 10
12.82871446065355
 20
-0.5944295456982303
 10
12.83691288664194
 20
-0.6080321836908241
 42
-0.0132121325114661
 10
12.84801734031893
 20
-0.6285501157737668
 42
-0.0126137944452103
 10
12.8599357948471
 20
-0.6534447134590642
 42
-0.0118616736523889
 10
12.87247386876198
 20
-0.6831477253424936
  0
LWPOLYLINE
  5
8108
330
8054
100
AcDbEntity
  8
0
 62
     7
100
AcDbPolyline
 90
        6
 70
     0
 43
0.0
 38
1.004996417558615E+99
 10
15.97876816497175
 20
2.76500000000008
 42
-0.0325977349406635
 10
16.06276956961641
 20
2.857577224051703
 42
-0.030522221758657
 10
16.16107974477825
 20
2.941864930859147
 10
16.21532237832621
 20
2.980605297711776
 42
-0.0365061160130735
 10
16.37398103609807
 20
3.070990548300478
 42
-0.0339342447692767
 10
16.55200480000024
 20
3.141833507019082
  0
LWPOLYLINE
  5
8109
330
8054
100
AcDbEntity
  8
0
 62
     7
100
AcDbPolyline
 90
        4
 70
     0
 43
0.0
 38
1.004996417558615E+99
 10
13.01578513557523
 20
2.765000000000128
 42
0.0000688030150836
 10
12.94413775952126
 20
2.945977117000865
 10
12.90847227567684
 20
3.036012270361933
 10
12.87247386876221
 20
3.126852274657494
  0
LWPOLYLINE
  5
810A
330
8054
100
AcDbEntity
  8
0
 62
     7
100
AcDbPolyline
 90
        7
 70
     0
 43
0.0
 38
1.004996417558615E+99
 10
17.10200480000014
 20
3.252767990508274
 42
0.0103287961059071
 10
17.01053164590373
 20
3.244652098382688
 42
0.0118254457483567
 10
16.91010503245275
 20
3.231348856690711
 10
16.85709152380381
 20
3.222370471050168
 42
0.0117303694242514
 10
16.76698865005261
 20
3.203806706214678
 42
0.0137357288488717
 10
16.66807279980443
 20
3.178259253991158
 10
16.61610082105868
 20
3.162470935473691
  0
LWPOLYLINE
  5
810B
330
8054
100
AcDbEntity
  8
0
 62
     7
100
AcDbPolyline
 90
       13
 70
     0
 43
0.0
 38
1.004996417558615E+99
 10
12.71878452584433
 20
3.292164184512586
 42
-0.0601256924076704
 10
12.73631142739282
 20
3.291953258094934
 42
-0.0520112694679805
 10
12.75209506241659
 20
3.288040995659616
 10
12.75928426185442
 20
3.285074707767662
 42
-0.0430322370962311
 10
12.77401265121556
 20
3.276637630014683
 42
-0.0397710223088454
 10
12.79027935461039
 20
3.263530330468931
 10
12.79891116277707
 20
3.254900958722543
 42
-0.0259639365891621
 10
12.8131411128218
 20
3.238025998592486
 42
-0.0236660583851113
 10
12.82871446065356
 20
3.21557045430175
 10
12.83691288664194
 20
3.201967816309178
 42
-0.0132121325112643
 10
12.84801734031893
 20
3.181449884226243
 42
-0.0126137944444185
 10
12.85993579484715
 20
3.156555286540943
 42
-0.0118616736517415
 10
12.87247386876221
 20
3.126852274657494
  0
LWPOLYLINE
  5
810C
330
8054
100
AcDbEntity
  8
0
 62
     7
100
AcDbPolyline
 90
        8
 70
     0
 43
0.0
 38
1.004996417558615E+99
 10
17.10200480000016
 20
0.5572320094917416
 42
-0.0057841437119978
 10
17.15475467428849
 20
0.552952146199281
 42
-0.0030986770794661
 10
17.20263031056765
 20
0.5481798598089736
 42
0.0004438508909754
 10
17.24520853922196
 20
0.5436838519933076
 10
17.26096723987798
 20
0.5421058162871527
 42
0.0066594803952394
 10
17.28941606510644
 20
0.5396985855851913
 42
0.014085736787834
 10
17.31329089504864
 20
0.5386811494274003
 42
0.0290759551837512
 10
17.33201265709493
 20
0.5395231161302263
  0
LWPOLYLINE
  5
810D
330
8054
100
AcDbEntity
  8
0
 62
     7
100
AcDbPolyline
 90
        7
 70
     0
 43
0.0
 38
1.004996417558615E+99
 10
16.61610082105863
 20
0.6475290645263101
 42
0.012718828706105
 10
16.70176402404458
 20
0.6223985178213073
 42
0.0136497241492148
 10
16.80175860193109
 20
0.5985210895394429
 10
16.85709152197306
 20
0.5876295292841292
 42
0.0121332295909498
 10
16.96132605154292
 20
0.5712748021562968
 42
0.010540646941768
 10
17.05749887415354
 20
0.560717838625227
 10
17.10200480000016
 20
0.5572320094917416
  0
LWPOLYLINE
  5
810E
330
8054
100
AcDbEntity
  8
0
 62
     7
100
AcDbPolyline
 90
       12
 70
     0
 43
0.0
 38
1.004996417558615E+99
 10
12.71878452584433
 20
0.5178358154874161
 42
0.0601256927789293
 10
12.73631142750432
 20
0.5180467419202018
 42
0.052011269696002
 10
12.7520950626132
 20
0.5219590044113075
 10
12.75928426208257
 20
0.5249252923383665
 42
0.0430322361030259
 10
12.77401265113331
 20
0.5333623699292321
 42
0.0397710214533923
 10
12.79027935414378
 20
0.5464696690965148
 10
12.79891116209622
 20
0.5550990405498056
 42
0.0333357694253342
 10
12.81820299616752
 20
0.5788021820716362
 42
0.0257926327426025
 10
12.83691288690262
 20
0.6080321841436956
 10
12.84610256449348
 20
0.6248338765137564
 42
0.0183835902305781
 10
12.86389298428892
 20
0.6624130680145124
 10
12.87247386876198
 20
0.6831477253425078
  0
LWPOLYLINE
  5
810F
330
8054
100
AcDbEntity
  8
0
 62
     7
100
AcDbPolyline
 90
        4
 70
     0
 43
0.0
 38
1.004996417558615E+99
 10
12.87247386876198
 20
0.6831477253425078
 42
0.0000672453982339
 10
12.94413775952127
 20
0.8640228829991656
 10
12.97994661263786
 20
0.9544557656460435
 10
13.01578513557525
 20
1.044999999999945
  0
LWPOLYLINE
  5
8110
330
8054
100
AcDbEntity
  8
0
 62
     7
100
AcDbPolyline
 90
        8
 70
     0
 43
0.0
 38
1.004996417558615E+99
 10
16.55200479999989
 20
0.6681664929806175
 42
-0.0331237740553586
 10
16.37398106560044
 20
0.7390094375523257
 42
-0.0356503627170927
 10
16.21532243007297
 20
0.8293946675203187
 10
16.16929927013764
 20
0.861954730083339
 42
-0.0251001891186864
 10
16.08441178188682
 20
0.9320250238870215
 10
16.05334326000975
 20
0.961688945321976
 42
-0.0191265343849438
 10
16.00068070039764
 20
1.018430545385189
 10
15.97876816497182
 20
1.044999999999959
  0
LWPOLYLINE
  5
8111
330
8054
100
AcDbEntity
  8
0
 62
     7
100
AcDbPolyline
 90
       10
 70
     0
 43
0.0
 38
1.004996417558615E+99
 10
15.97876816497185
 20
-1.044999999999945
 42
-0.0269308923277117
 10
16.0498429944254
 20
-0.9651923061939241
 10
16.08441180061221
 20
-0.9320250067404174
 42
-0.0255080698581152
 10
16.17328480058137
 20
-0.8589996628881911
 10
16.21532237832621
 20
-0.8293947022882264
 42
-0.0177011673951069
 10
16.28585099047542
 20
-0.7854453872855803
 42
-0.0191866721761406
 10
16.37121763347848
 20
-0.7403384465963683
 10
16.41043714169405
 20
-0.7221855390639375
 42
-0.0177512161237768
 10
16.50081650472401
 20
-0.6857557426047415
 10
16.55200479999993
 20
-0.6681664929806317
  0
LWPOLYLINE
  5
8112
330
8054
100
AcDbEntity
  8
0
 62
     7
100
AcDbPolyline
 90
        4
 70
     0
 43
0.0
 38
1.004996417558615E+99
 10
13.01578513557523
 20
-1.044999999999874
 42
0.0000688030150844
 10
12.94413775952126
 20
-0.8640228829991372
 10
12.90847226417216
 20
-0.7739877006010056
 10
12.87247386876198
 20
-0.6831477253424936
  0
ENDBLK
  5
8114
330
8054
100
AcDbEntity
  8
0
100
AcDbBlockEnd
  0
BLOCK
  5
8117
330
8115
100
AcDbEntity
  8
0
100
AcDbBlockBegin
  2
VORDANS1
 70
     0
 10
11.65200479999999
 20
-9.005000000000009
 30
0.0
  3
VORDANS1
  1

  0
INSERT
  5
8116
330
8115
100
AcDbEntity
  8
0
100
AcDbBlockReference
  2
MC_1_5-2-STF-3_81__6
 10
11.65200479999999
 20
-9.005000000000009
 30
0.0
  0
ENDBLK
  5
8118
330
8115
100
AcDbEntity
  8
0
100
AcDbBlockEnd
  0
ENDSEC
  0
SECTION
  2
ENTITIES
  0
ARC
  5
742B
330
18
100
AcDbEntity
  8
0
100
AcDbCircle
 10
80.61469927035352
 20
194.3819325826317
 30
0.0
 40
2.75
100
AcDbArc
 50
180.0
 51
0.0
  0
LINE
  5
742C
330
18
100
AcDbEntity
  8
0
100
AcDbLine
 10
86.61469927035353
 20
173.8819325826319
 30
0.0
 11
72.11469927035352
 21
173.8819325826319
 31
0.0
  0
LINE
  5
742D
330
18
100
AcDbEntity
  8
0
100
AcDbLine
 10
34.61469927035352
 20
184.3819325826317
 30
0.0
 11
109.6146992703536
 21
184.3819325826317
 31
0.0
  0
LINE
  5
742E
330
18
100
AcDbEntity
  8
0
100
AcDbLine
 10
86.61469927035353
 20
33.88193258263186
 30
0.0
 11
72.1146992703533
 21
33.88193258263175
 31
0.0
  0
ARC
  5
742F
330
18
100
AcDbEntity
  8
0
100
AcDbCircle
 10
80.61469927035352
 20
14.38193258263186
 30
0.0
 40
2.75
100
AcDbArc
 50
0.0
 51
180.0
  0
LINE
  5
7430
330
18
100
AcDbEntity
  8
0
100
AcDbLine
 10
34.61469927035364
 20
24.38193258263186
 30
0.0
 11
109.6146992703536
 21
24.38193258263169
 31
0.0
  0
LINE
  5
743C
330
18
100
AcDbEntity
  8
0
100
AcDbLine
 10
72.11469927035341
 20
111.8819325826317
 30
0.0
 11
72.1146992703533
 21
33.88193258263175
 31
0.0
  0
LINE
  5
743D
330
18
100
AcDbEntity
  8
0
100
AcDbLine
 10
1.614699270353526
 20
184.3819325826317
 30
0.0
 11
1.614699270353526
 21
24.38193258263197
 31
0.0
  0
LINE
  5
743E
330
18
100
AcDbEntity
  8
0
100
AcDbLine
 10
34.61469927035352
 20
184.3819325826317
 30
0.0
 11
34.61469927035352
 21
24.38193258263186
 31
0.0
  0
LINE
  5
743F
330
18
100
AcDbEntity
  8
0
100
AcDbLine
 10
62.61469927035353
 20
140.3819325826317
 30
0.0
 11
62.61469927035353
 21
138.3819325826318
 31
0.0
  0
LINE
  5
7440
330
18
100
AcDbEntity
  8
0
100
AcDbLine
 10
46.61469927035352
 20
140.3819325826317
 30
0.0
 11
46.61469927035352
 21
78.38193258263174
 31
0.0
  0
LINE
  5
7441
330
18
100
AcDbEntity
  8
0
100
AcDbLine
 10
49.2146992703536
 20
78.38193258263174
 30
0.0
 11
49.21469927035357
 21
140.3819325826317
 31
0.0
  0
LINE
  5
7442
330
18
100
AcDbEntity
  8
0
100
AcDbLine
 10
47.61469927035349
 20
78.38193258263174
 30
0.0
 11
47.61469927035352
 21
140.3819325826317
 31
0.0
  0
LINE
  5
7448
330
18
100
AcDbEntity
  8
0
100
AcDbLine
 10
34.61469927035352
 20
184.3819325826317
 30
0.0
 11
34.61469927035352
 21
24.38193258263186
 31
0.0
  0
LINE
  5
7449
330
18
100
AcDbEntity
  8
0
100
AcDbLine
 10
34.61469927035352
 20
24.38193258263186
 30
0.0
 11
1.614699270353526
 21
24.38193258263197
 31
0.0
  0
LINE
  5
744C
330
18
100
AcDbEntity
  8
0
100
AcDbLine
 10
53.36469927035352
 20
9.381932582631861
 30
0.0
 11
76.86469927035353
 21
9.381932582631748
 31
0.0
  0
LINE
  5
744D
330
18
100
AcDbEntity
  8
0
100
AcDbLine
 10
40.61469927035353
 20
24.38193258263186
 30
0.0
 11
40.61469927035353
 21
10.38193258263186
 31
0.0
  0
ARC
  5
744E
330
18
100
AcDbEntity
  8
0
100
AcDbCircle
 10
49.61469927035352
 20
14.38193258263186
 30
0.0
 40
2.75
100
AcDbArc
 50
0.0
 51
180.0
  0
LINE
  5
744F
330
18
100
AcDbEntity
  8
0
100
AcDbLine
 10
46.86469927035353
 20
10.38193258263186
 30
0.0
 11
45.86469927035352
 21
9.381932582631861
 31
0.0
  0
LINE
  5
7450
330
18
100
AcDbEntity
  8
0
100
AcDbLine
 10
46.86469927035353
 20
14.38193258263174
 30
0.0
 11
46.86469927035353
 21
10.38193258263186
 31
0.0
  0
LINE
  5
7451
330
18
100
AcDbEntity
  8
0
100
AcDbLine
 10
41.61469927035352
 20
9.381932582631861
 30
0.0
 11
40.61469927035353
 21
10.38193258263186
 31
0.0
  0
LINE
  5
7452
330
18
100
AcDbEntity
  8
0
100
AcDbLine
 10
41.61469927035352
 20
9.381932582631861
 30
0.0
 11
45.86469927035352
 21
9.381932582631861
 31
0.0
  0
LINE
  5
7453
330
18
100
AcDbEntity
  8
0
100
AcDbLine
 10
53.36469927035352
 20
9.381932582631861
 30
0.0
 11
52.36469927035352
 21
10.38193258263186
 31
0.0
  0
LINE
  5
7454
330
18
100
AcDbEntity
  8
0
100
AcDbLine
 10
52.36469927035352
 20
14.38193258263174
 30
0.0
 11
52.36469927035352
 21
10.38193258263186
 31
0.0
  0
LINE
  5
745D
330
18
100
AcDbEntity
  8
0
100
AcDbLine
 10
77.86469927035352
 20
10.38193258263186
 30
0.0
 11
76.86469927035353
 21
9.381932582631861
 31
0.0
  0
LINE
  5
745E
330
18
100
AcDbEntity
  8
0
100
AcDbLine
 10
77.86469927035352
 20
14.38193258263174
 30
0.0
 11
77.86469927035352
 21
10.38193258263186
 31
0.0
  0
LINE
  5
745F
330
18
100
AcDbEntity
  8
0
100
AcDbLine
 10
62.61469927035353
 20
78.38193258263174
 30
0.0
 11
46.61469927035352
 21
78.38193258263174
 31
0.0
  0
LINE
  5
746A
330
18
100
AcDbEntity
  8
0
100
AcDbLine
 10
72.11469927035341
 20
127.3819325826317
 30
0.0
 11
72.11469927035352
 21
173.8819325826317
 31
0.0
  0
LINE
  5
746D
330
18
100
AcDbEntity
  8
0
100
AcDbLine
 10
67.11469927035352
 20
111.8819325826317
 30
0.0
 11
67.11469927035352
 21
127.3819325826317
 31
0.0
  0
LINE
  5
747E
330
18
100
AcDbEntity
  8
0
100
AcDbLine
 10
72.1146992703533
 20
111.8819325826317
 30
0.0
 11
67.11469927035352
 21
111.8819325826317
 31
0.0
  0
LINE
  5
7480
330
18
100
AcDbEntity
  8
0
100
AcDbLine
 10
62.61469927035353
 20
140.3819325826317
 30
0.0
 11
46.61469927035352
 21
140.3819325826317
 31
0.0
  0
LINE
  5
7492
330
18
100
AcDbEntity
  8
0
100
AcDbLine
 10
72.11469927035352
 20
127.3819325826319
 30
0.0
 11
67.11469927035352
 21
127.3819325826317
 31
0.0
  0
LINE
  5
7493
330
18
100
AcDbEntity
  8
0
100
AcDbLine
 10
34.61469927035352
 20
184.3819325826317
 30
0.0
 11
1.614699270353526
 21
184.3819325826317
 31
0.0
  0
LINE
  5
7494
330
18
100
AcDbEntity
  8
0
100
AcDbLine
 10
77.86469927035352
 20
194.3819325826319
 30
0.0
 11
77.86469927035352
 21
198.3819325826319
 31
0.0
  0
LINE
  5
7495
330
18
100
AcDbEntity
  8
0
100
AcDbLine
 10
52.36469927035352
 20
194.3819325826319
 30
0.0
 11
52.36469927035352
 21
198.3819325826319
 31
0.0
  0
LINE
  5
7496
330
18
100
AcDbEntity
  8
0
100
AcDbLine
 10
40.61469927035353
 20
184.3819325826317
 30
0.0
 11
40.61469927035353
 21
198.3819325826317
 31
0.0
  0
LINE
  5
7497
330
18
100
AcDbEntity
  8
0
100
AcDbLine
 10
46.86469927035353
 20
194.3819325826319
 30
0.0
 11
46.86469927035353
 21
198.3819325826319
 31
0.0
  0
ARC
  5
74A1
330
18
100
AcDbEntity
  8
0
100
AcDbCircle
 10
49.61469927035352
 20
194.3819325826317
 30
0.0
 40
2.75
100
AcDbArc
 50
180.0
 51
0.0
  0
LINE
  5
74A7
330
18
100
AcDbEntity
  8
0
100
AcDbLine
 10
53.36469927035352
 20
199.3819325826319
 30
0.0
 11
76.86469927035353
 21
199.3819325826319
 31
0.0
  0
LINE
  5
74A8
330
18
100
AcDbEntity
  8
0
100
AcDbLine
 10
46.86469927035353
 20
198.3819325826319
 30
0.0
 11
45.86469927035352
 21
199.3819325826319
 31
0.0
  0
LINE
  5
74A9
330
18
100
AcDbEntity
  8
0
100
AcDbLine
 10
41.61469927035352
 20
199.3819325826317
 30
0.0
 11
40.61469927035353
 21
198.3819325826317
 31
0.0
  0
LINE
  5
74AA
330
18
100
AcDbEntity
  8
0
100
AcDbLine
 10
41.61469927035352
 20
199.3819325826317
 30
0.0
 11
45.86469927035352
 21
199.3819325826319
 31
0.0
  0
LINE
  5
74AB
330
18
100
AcDbEntity
  8
0
100
AcDbLine
 10
53.36469927035352
 20
199.3819325826319
 30
0.0
 11
52.36469927035352
 21
198.3819325826319
 31
0.0
  0
LINE
  5
74AC
330
18
100
AcDbEntity
  8
0
100
AcDbLine
 10
77.86469927035352
 20
198.3819325826319
 30
0.0
 11
76.86469927035353
 21
199.3819325826319
 31
0.0
  0
LINE
  5
74AD
330
18
100
AcDbEntity
  8
0
100
AcDbLine
 10
261.3031199218176
 20
258.4838876017026
 30
0.0
 11
261.3031199218176
 21
268.4838876017026
 31
0.0
  0
LINE
  5
74AE
330
18
100
AcDbEntity
  8
0
100
AcDbLine
 10
264.3031199218177
 20
258.4838876017026
 30
0.0
 11
264.3031199218177
 21
268.4838876017026
 31
0.0
  0
LINE
  5
74AF
330
18
100
AcDbEntity
  8
0
100
AcDbLine
 10
384.3031199218178
 20
297.4838876017027
 30
0.0
 11
384.3031199218177
 21
244.4838876017026
 31
0.0
  0
LINE
  5
74B0
330
18
100
AcDbEntity
  8
0
100
AcDbLine
 10
381.3031199218177
 20
297.4838876017027
 30
0.0
 11
381.3031199218177
 21
244.4838876017026
 31
0.0
  0
LINE
  5
74B1
330
18
100
AcDbEntity
  8
0
100
AcDbLine
 10
368.8031199218177
 20
251.4838876017027
 30
0.0
 11
368.8031199218177
 21
268.4838876017026
 31
0.0
  0
LINE
  5
74B2
330
18
100
AcDbEntity
  8
0
100
AcDbLine
 10
371.3031199218177
 20
251.4838876017027
 30
0.0
 11
371.3031199218177
 21
268.4838876017026
 31
0.0
  0
LINE
  5
74B3
330
18
100
AcDbEntity
  8
0
100
AcDbLine
 10
349.3031199218177
 20
251.4838876017027
 30
0.0
 11
349.3031199218177
 21
268.4838876017026
 31
0.0
  0
LINE
  5
74B4
330
18
100
AcDbEntity
  8
0
100
AcDbLine
 10
352.3031199218177
 20
251.4838876017027
 30
0.0
 11
352.3031199218177
 21
268.4838876017026
 31
0.0
  0
LINE
  5
74B5
330
18
100
AcDbEntity
  8
0
100
AcDbLine
 10
354.8031199218177
 20
251.4838876017027
 30
0.0
 11
354.8031199218177
 21
268.4838876017026
 31
0.0
  0
LINE
  5
74B6
330
18
100
AcDbEntity
  8
0
100
AcDbLine
 10
357.8031199218177
 20
251.4838876017027
 30
0.0
 11
357.8031199218177
 21
268.4838876017026
 31
0.0
  0
LINE
  5
74B7
330
18
100
AcDbEntity
  8
0
100
AcDbLine
 10
360.3031199218177
 20
251.4838876017027
 30
0.0
 11
360.3031199218177
 21
268.4838876017026
 31
0.0
  0
LINE
  5
74B8
330
18
100
AcDbEntity
  8
0
100
AcDbLine
 10
363.3031199218176
 20
251.4838876017027
 30
0.0
 11
363.3031199218176
 21
268.4838876017026
 31
0.0
  0
LINE
  5
74B9
330
18
100
AcDbEntity
  8
0
100
AcDbLine
 10
365.8031199218177
 20
251.4838876017027
 30
0.0
 11
365.8031199218177
 21
268.4838876017026
 31
0.0
  0
LINE
  5
74BA
330
18
100
AcDbEntity
  8
0
100
AcDbLine
 10
343.8031199218177
 20
251.4838876017027
 30
0.0
 11
343.8031199218177
 21
268.4838876017026
 31
0.0
  0
LINE
  5
74BB
330
18
100
AcDbEntity
  8
0
100
AcDbLine
 10
346.8031199218177
 20
251.4838876017027
 30
0.0
 11
346.8031199218177
 21
268.4838876017026
 31
0.0
  0
LINE
  5
74BC
330
18
100
AcDbEntity
  8
0
100
AcDbLine
 10
374.3031199218177
 20
251.4838876017027
 30
0.0
 11
374.3031199218177
 21
268.4838876017026
 31
0.0
  0
LINE
  5
74BD
330
18
100
AcDbEntity
  8
0
100
AcDbLine
 10
379.3031199218178
 20
295.4838876017026
 30
0.0
 11
379.3031199218177
 21
245.4838876017026
 31
0.0
  0
LINE
  5
74BE
330
18
100
AcDbEntity
  8
0
100
AcDbLine
 10
330.3031199218177
 20
251.4838876017027
 30
0.0
 11
330.3031199218177
 21
268.4838876017026
 31
0.0
  0
LINE
  5
74BF
330
18
100
AcDbEntity
  8
0
100
AcDbLine
 10
332.8031199218177
 20
251.4838876017027
 30
0.0
 11
332.8031199218177
 21
268.4838876017026
 31
0.0
  0
LINE
  5
74C0
330
18
100
AcDbEntity
  8
0
100
AcDbLine
 10
335.8031199218177
 20
251.4838876017027
 30
0.0
 11
335.8031199218177
 21
268.4838876017026
 31
0.0
  0
LINE
  5
74C1
330
18
100
AcDbEntity
  8
0
100
AcDbLine
 10
338.3031199218176
 20
251.4838876017027
 30
0.0
 11
338.3031199218176
 21
268.4838876017026
 31
0.0
  0
LINE
  5
74C2
330
18
100
AcDbEntity
  8
0
100
AcDbLine
 10
341.3031199218177
 20
251.4838876017027
 30
0.0
 11
341.3031199218177
 21
268.4838876017026
 31
0.0
  0
LINE
  5
74C3
330
18
100
AcDbEntity
  8
0
100
AcDbLine
 10
324.8031199218177
 20
251.4838876017027
 30
0.0
 11
324.8031199218177
 21
268.4838876017026
 31
0.0
  0
LINE
  5
74C4
330
18
100
AcDbEntity
  8
0
100
AcDbLine
 10
327.3031199218177
 20
251.4838876017027
 30
0.0
 11
327.3031199218177
 21
268.4838876017026
 31
0.0
  0
LINE
  5
74C5
330
18
100
AcDbEntity
  8
0
100
AcDbLine
 10
310.8031199218177
 20
251.4838876017027
 30
0.0
 11
310.8031199218177
 21
268.4838876017026
 31
0.0
  0
LINE
  5
74C6
330
18
100
AcDbEntity
  8
0
100
AcDbLine
 10
313.8031199218177
 20
251.4838876017027
 30
0.0
 11
313.8031199218177
 21
268.4838876017026
 31
0.0
  0
LINE
  5
74C7
330
18
100
AcDbEntity
  8
0
100
AcDbLine
 10
316.3031199218177
 20
251.4838876017027
 30
0.0
 11
316.3031199218177
 21
268.4838876017026
 31
0.0
  0
LINE
  5
74C8
330
18
100
AcDbEntity
  8
0
100
AcDbLine
 10
319.3031199218177
 20
251.4838876017027
 30
0.0
 11
319.3031199218177
 21
268.4838876017026
 31
0.0
  0
LINE
  5
74C9
330
18
100
AcDbEntity
  8
0
100
AcDbLine
 10
321.8031199218177
 20
251.4838876017027
 30
0.0
 11
321.8031199218177
 21
268.4838876017026
 31
0.0
  0
LINE
  5
74CA
330
18
100
AcDbEntity
  8
0
100
AcDbLine
 10
305.3031199218177
 20
251.4838876017027
 30
0.0
 11
305.3031199218177
 21
268.4838876017026
 31
0.0
  0
LINE
  5
74CB
330
18
100
AcDbEntity
  8
0
100
AcDbLine
 10
308.3031199218177
 20
251.4838876017027
 30
0.0
 11
308.3031199218177
 21
268.4838876017026
 31
0.0
  0
LINE
  5
74CC
330
18
100
AcDbEntity
  8
0
100
AcDbLine
 10
225.3031199218177
 20
297.4838876017025
 30
0.0
 11
225.3031199218177
 21
244.4838876017025
 31
0.0
  0
LINE
  5
74CD
330
18
100
AcDbEntity
  8
0
100
AcDbLine
 10
222.3031199218177
 20
297.4838876017025
 30
0.0
 11
222.3031199218177
 21
244.4838876017025
 31
0.0
  0
LINE
  5
74CE
330
18
100
AcDbEntity
  8
0
100
AcDbLine
 10
253.3031199218177
 20
251.4838876017027
 30
0.0
 11
253.3031199218177
 21
268.4838876017026
 31
0.0
  0
LINE
  5
74CF
330
18
100
AcDbEntity
  8
0
100
AcDbLine
 10
255.8031199218177
 20
251.4838876017027
 30
0.0
 11
255.8031199218177
 21
268.4838876017026
 31
0.0
  0
LINE
  5
74D0
330
18
100
AcDbEntity
  8
0
100
AcDbLine
 10
258.8031199218177
 20
251.4838876017027
 30
0.0
 11
258.8031199218177
 21
268.4838876017026
 31
0.0
  0
LINE
  5
74D1
330
18
100
AcDbEntity
  8
0
100
AcDbLine
 10
233.8031199218177
 20
251.4838876017027
 30
0.0
 11
233.8031199218177
 21
268.4838876017026
 31
0.0
  0
LINE
  5
74D2
330
18
100
AcDbEntity
  8
0
100
AcDbLine
 10
236.8031199218177
 20
251.4838876017027
 30
0.0
 11
236.8031199218177
 21
268.4838876017026
 31
0.0
  0
LINE
  5
74D3
330
18
100
AcDbEntity
  8
0
100
AcDbLine
 10
242.3031199218177
 20
251.4838876017027
 30
0.0
 11
242.3031199218177
 21
268.4838876017026
 31
0.0
  0
LINE
  5
74D4
330
18
100
AcDbEntity
  8
0
100
AcDbLine
 10
244.8031199218177
 20
251.4838876017027
 30
0.0
 11
244.8031199218177
 21
268.4838876017026
 31
0.0
  0
LINE
  5
74D5
330
18
100
AcDbEntity
  8
0
100
AcDbLine
 10
247.8031199218177
 20
251.4838876017027
 30
0.0
 11
247.8031199218177
 21
268.4838876017026
 31
0.0
  0
LINE
  5
74D6
330
18
100
AcDbEntity
  8
0
100
AcDbLine
 10
250.3031199218177
 20
251.4838876017027
 30
0.0
 11
250.3031199218177
 21
268.4838876017026
 31
0.0
  0
LINE
  5
74D7
330
18
100
AcDbEntity
  8
0
100
AcDbLine
 10
239.3031199218177
 20
251.4838876017027
 30
0.0
 11
239.3031199218177
 21
268.4838876017026
 31
0.0
  0
LINE
  5
74D8
330
18
100
AcDbEntity
  8
0
100
AcDbLine
 10
227.3031199218177
 20
295.4838876017026
 30
0.0
 11
227.3031199218177
 21
245.4838876017026
 31
0.0
  0
LINE
  5
74DA
330
18
100
AcDbEntity
  8
0
100
AcDbLine
 10
342.0531199218177
 20
122.3819325826317
 30
0.0
 11
353.5531199218177
 21
122.3819325826317
 31
0.0
  0
LINE
  5
74DB
330
18
100
AcDbEntity
  8
0
100
AcDbLine
 10
342.0531199218177
 20
125.8819325826318
 30
0.0
 11
353.5531199218177
 21
125.8819325826317
 31
0.0
  0
LINE
  5
74DC
330
18
100
AcDbEntity
  8
0
100
AcDbLine
 10
342.0531199218177
 20
119.3819325826318
 30
0.0
 11
353.5531199218177
 21
119.3819325826317
 31
0.0
  0
LINE
  5
74DD
330
18
100
AcDbEntity
  8
0
100
AcDbLine
 10
342.0531199218177
 20
128.8819325826317
 30
0.0
 11
353.5531199218177
 21
128.8819325826317
 31
0.0
  0
LINE
  5
74DE
330
18
100
AcDbEntity
  8
0
100
AcDbLine
 10
342.0531199218177
 20
132.3819325826318
 30
0.0
 11
353.5531199218177
 21
132.3819325826317
 31
0.0
  0
LINE
  5
74DF
330
18
100
AcDbEntity
  8
0
100
AcDbLine
 10
342.0531199218177
 20
115.8819325826317
 30
0.0
 11
353.5531199218177
 21
115.8819325826317
 31
0.0
  0
LINE
  5
74E0
330
18
100
AcDbEntity
  8
0
100
AcDbLine
 10
342.0531199218177
 20
112.8819325826318
 30
0.0
 11
353.5531199218177
 21
112.8819325826317
 31
0.0
  0
LINE
  5
74E1
330
18
100
AcDbEntity
  8
0
100
AcDbLine
 10
342.0531199218177
 20
109.3819325826317
 30
0.0
 11
353.5531199218177
 21
109.3819325826317
 31
0.0
  0
LINE
  5
74E2
330
18
100
AcDbEntity
  8
0
100
AcDbLine
 10
342.0531199218177
 20
106.3819325826318
 30
0.0
 11
353.5531199218177
 21
106.3819325826317
 31
0.0
  0
LINE
  5
74E3
330
18
100
AcDbEntity
  8
0
100
AcDbLine
 10
342.0531199218177
 20
102.8819325826317
 30
0.0
 11
353.5531199218177
 21
102.8819325826317
 31
0.0
  0
LINE
  5
74E4
330
18
100
AcDbEntity
  8
0
100
AcDbLine
 10
342.0531199218177
 20
99.88193258263187
 30
0.0
 11
353.5531199218177
 21
99.88193258263175
 31
0.0
  0
LINE
  5
74E5
330
18
100
AcDbEntity
  8
0
100
AcDbLine
 10
342.0531199218177
 20
80.38193258263186
 30
0.0
 11
353.5531199218177
 21
80.38193258263175
 31
0.0
  0
LINE
  5
74E6
330
18
100
AcDbEntity
  8
0
100
AcDbLine
 10
342.0531199218177
 20
89.88193258263175
 30
0.0
 11
353.5531199218177
 21
89.88193258263175
 31
0.0
  0
LINE
  5
74E7
330
18
100
AcDbEntity
  8
0
100
AcDbLine
 10
342.0531199218177
 20
83.38193258263174
 30
0.0
 11
353.5531199218177
 21
83.38193258263174
 31
0.0
  0
LINE
  5
74E8
330
18
100
AcDbEntity
  8
0
100
AcDbLine
 10
342.0531199218177
 20
86.88193258263186
 30
0.0
 11
353.5531199218177
 21
86.88193258263174
 31
0.0
  0
LINE
  5
74E9
330
18
100
AcDbEntity
  8
0
100
AcDbLine
 10
342.0531199218177
 20
96.38193258263175
 30
0.0
 11
353.5531199218177
 21
96.38193258263175
 31
0.0
  0
LINE
  5
74EA
330
18
100
AcDbEntity
  8
0
100
AcDbLine
 10
342.0531199218177
 20
93.38193258263187
 30
0.0
 11
353.5531199218177
 21
93.38193258263174
 31
0.0
  0
LINE
  5
74EB
330
18
100
AcDbEntity
  8
0
100
AcDbLine
 10
342.0531199218177
 20
70.38193258263174
 30
0.0
 11
353.5531199218177
 21
70.38193258263174
 31
0.0
  0
LINE
  5
74EC
330
18
100
AcDbEntity
  8
0
100
AcDbLine
 10
342.0531199218177
 20
73.88193258263186
 30
0.0
 11
353.5531199218177
 21
73.88193258263175
 31
0.0
  0
LINE
  5
74ED
330
18
100
AcDbEntity
  8
0
100
AcDbLine
 10
342.0531199218177
 20
63.88193258263175
 30
0.0
 11
353.5531199218177
 21
63.88193258263175
 31
0.0
  0
LINE
  5
74EE
330
18
100
AcDbEntity
  8
0
100
AcDbLine
 10
342.0531199218177
 20
67.38193258263186
 30
0.0
 11
353.5531199218177
 21
67.38193258263175
 31
0.0
  0
LINE
  5
74EF
330
18
100
AcDbEntity
  8
0
100
AcDbLine
 10
342.0531199218177
 20
76.88193258263175
 30
0.0
 11
353.5531199218177
 21
76.88193258263175
 31
0.0
  0
LINE
  5
74F0
330
18
100
AcDbEntity
  8
0
100
AcDbLine
 10
342.0531199218177
 20
50.88193258263174
 30
0.0
 11
353.5531199218177
 21
50.88193258263174
 31
0.0
  0
LINE
  5
74F1
330
18
100
AcDbEntity
  8
0
100
AcDbLine
 10
342.0531199218177
 20
47.88193258263186
 30
0.0
 11
353.5531199218177
 21
47.88193258263174
 31
0.0
  0
LINE
  5
74F2
330
18
100
AcDbEntity
  8
0
100
AcDbLine
 10
342.0531199218177
 20
44.38193258263175
 30
0.0
 11
353.5531199218177
 21
44.38193258263175
 31
0.0
  0
LINE
  5
74F3
330
18
100
AcDbEntity
  8
0
100
AcDbLine
 10
342.0531199218177
 20
54.38193258263186
 30
0.0
 11
353.5531199218177
 21
54.38193258263175
 31
0.0
  0
LINE
  5
74F4
330
18
100
AcDbEntity
  8
0
100
AcDbLine
 10
342.0531199218177
 20
60.88193258263186
 30
0.0
 11
353.5531199218177
 21
60.88193258263174
 31
0.0
  0
LINE
  5
74F5
330
18
100
AcDbEntity
  8
0
100
AcDbLine
 10
342.0531199218177
 20
57.38193258263175
 30
0.0
 11
353.5531199218177
 21
57.38193258263175
 31
0.0
  0
LINE
  5
74F6
330
18
100
AcDbEntity
  8
0
100
AcDbLine
 10
342.0531199218177
 20
31.38193258263175
 30
0.0
 11
353.5531199218177
 21
31.38193258263175
 31
0.0
  0
LINE
  5
74F7
330
18
100
AcDbEntity
  8
0
100
AcDbLine
 10
342.0531199218177
 20
41.38193258263186
 30
0.0
 11
353.5531199218177
 21
41.38193258263174
 31
0.0
  0
LINE
  5
74F8
330
18
100
AcDbEntity
  8
0
100
AcDbLine
 10
342.0531199218177
 20
37.88193258263174
 30
0.0
 11
353.5531199218177
 21
37.88193258263174
 31
0.0
  0
LINE
  5
74F9
330
18
100
AcDbEntity
  8
0
100
AcDbLine
 10
342.0531199218177
 20
34.88193258263186
 30
0.0
 11
353.5531199218177
 21
34.88193258263175
 31
0.0
  0
LINE
  5
74FA
330
18
100
AcDbEntity
  8
0
100
AcDbLine
 10
381.3031199218177
 20
24.38193258263174
 30
0.0
 11
225.3031199218177
 21
24.38193258263174
 31
0.0
  0
LINE
  5
74FD
330
18
100
AcDbEntity
  8
0
100
AcDbLine
 10
315.3031199218176
 20
24.38193258263174
 30
0.0
 11
381.3031199218177
 21
24.38193258263174
 31
0.0
  0
LINE
  5
7501
330
18
100
AcDbEntity
  8
0
100
AcDbLine
 10
342.0531199218177
 20
174.3819325826317
 30
0.0
 11
353.5531199218177
 21
174.3819325826317
 31
0.0
  0
LINE
  5
7502
330
18
100
AcDbEntity
  8
0
100
AcDbLine
 10
342.0531199218177
 20
177.8819325826318
 30
0.0
 11
353.5531199218177
 21
177.8819325826317
 31
0.0
  0
LINE
  5
7503
330
18
100
AcDbEntity
  8
0
100
AcDbLine
 10
342.0531199218177
 20
161.3819325826317
 30
0.0
 11
353.5531199218177
 21
161.3819325826317
 31
0.0
  0
LINE
  5
7504
330
18
100
AcDbEntity
  8
0
100
AcDbLine
 10
342.0531199218177
 20
164.8819325826318
 30
0.0
 11
353.5531199218177
 21
164.8819325826317
 31
0.0
  0
LINE
  5
7505
330
18
100
AcDbEntity
  8
0
100
AcDbLine
 10
342.0531199218177
 20
154.8819325826317
 30
0.0
 11
353.5531199218177
 21
154.8819325826317
 31
0.0
  0
LINE
  5
7506
330
18
100
AcDbEntity
  8
0
100
AcDbLine
 10
342.0531199218177
 20
158.3819325826318
 30
0.0
 11
353.5531199218177
 21
158.3819325826317
 31
0.0
  0
LINE
  5
7507
330
18
100
AcDbEntity
  8
0
100
AcDbLine
 10
342.0531199218177
 20
171.3819325826318
 30
0.0
 11
353.5531199218177
 21
171.3819325826317
 31
0.0
  0
LINE
  5
7508
330
18
100
AcDbEntity
  8
0
100
AcDbLine
 10
342.0531199218177
 20
167.8819325826317
 30
0.0
 11
353.5531199218177
 21
167.8819325826317
 31
0.0
  0
LINE
  5
7509
330
18
100
AcDbEntity
  8
0
100
AcDbLine
 10
342.0531199218177
 20
148.3819325826317
 30
0.0
 11
353.5531199218177
 21
148.3819325826317
 31
0.0
  0
LINE
  5
750A
330
18
100
AcDbEntity
  8
0
100
AcDbLine
 10
342.0531199218177
 20
151.8819325826318
 30
0.0
 11
353.5531199218177
 21
151.8819325826317
 31
0.0
  0
LINE
  5
750B
330
18
100
AcDbEntity
  8
0
100
AcDbLine
 10
342.0531199218177
 20
141.8819325826317
 30
0.0
 11
353.5531199218177
 21
141.8819325826317
 31
0.0
  0
LINE
  5
750C
330
18
100
AcDbEntity
  8
0
100
AcDbLine
 10
342.0531199218177
 20
145.3819325826318
 30
0.0
 11
353.5531199218177
 21
145.3819325826317
 31
0.0
  0
LINE
  5
750D
330
18
100
AcDbEntity
  8
0
100
AcDbLine
 10
342.0531199218177
 20
138.8819325826318
 30
0.0
 11
353.5531199218177
 21
138.8819325826317
 31
0.0
  0
LINE
  5
750E
330
18
100
AcDbEntity
  8
0
100
AcDbLine
 10
342.0531199218177
 20
135.3819325826317
 30
0.0
 11
353.5531199218177
 21
135.3819325826317
 31
0.0
  0
LINE
  5
750F
330
18
100
AcDbEntity
  8
0
100
AcDbLine
 10
225.3031199218177
 20
184.3819325826317
 30
0.0
 11
381.3031199218177
 21
184.3819325826317
 31
0.0
  0
LINE
  5
7512
330
18
100
AcDbEntity
  8
0
100
AcDbLine
 10
317.3031199218177
 20
184.3819325826317
 30
0.0
 11
381.3031199218177
 21
184.3819325826317
 31
0.0
  0
LINE
  5
7515
330
18
100
AcDbEntity
  8
0
100
AcDbLine
 10
225.3031199218177
 20
225.4838876017026
 30
0.0
 11
381.3031199218177
 21
225.4838876017026
 31
0.0
  0
LINE
  5
7518
330
18
100
AcDbEntity
  8
0
100
AcDbLine
 10
225.3031199218177
 20
184.3819325826317
 30
0.0
 11
225.3031199218177
 21
24.38193258263174
 31
0.0
  0
LINE
  5
751E
330
18
100
AcDbEntity
  8
0
100
AcDbLine
 10
90.61469927035352
 20
25.38193258263174
 30
0.0
 11
90.61469927035352
 21
183.3819325826317
 31
0.0
  0
LINE
  5
751F
330
18
100
AcDbEntity
  8
0
100
AcDbLine
 10
86.61469927035353
 20
173.8819325826317
 30
0.0
 11
86.61469927035353
 21
33.88193258263175
 31
0.0
  0
LINE
  5
7520
330
18
100
AcDbEntity
  8
0
100
AcDbLine
 10
225.3031199218177
 20
184.3819325826317
 30
0.0
 11
225.3031199218177
 21
24.38193258263186
 31
0.0
  0
LINE
  5
7522
330
18
100
AcDbEntity
  8
0
100
AcDbLine
 10
222.3031199218177
 20
184.3819325826317
 30
0.0
 11
222.3031199218177
 21
24.38193258263186
 31
0.0
  0
LINE
  5
7523
330
18
100
AcDbEntity
  8
0
100
AcDbLine
 10
85.81469927035334
 20
33.88193258263186
 30
0.0
 11
85.81469927035346
 21
173.8819325826319
 31
0.0
  0
LINE
  5
7524
330
18
100
AcDbEntity
  8
0
100
AcDbLine
 10
84.21469927035341
 20
33.88193258263186
 30
0.0
 11
84.21469927035355
 21
173.8819325826319
 31
0.0
  0
LINE
  5
7526
330
18
100
AcDbEntity
  8
0
100
AcDbLine
 10
254.0531199218177
 20
47.88193258263186
 30
0.0
 11
265.5531199218177
 21
47.88193258263174
 31
0.0
  0
LINE
  5
7527
330
18
100
AcDbEntity
  8
0
100
AcDbLine
 10
254.0531199218177
 20
44.38193258263175
 30
0.0
 11
265.5531199218177
 21
44.38193258263175
 31
0.0
  0
LINE
  5
7528
330
18
100
AcDbEntity
  8
0
100
AcDbLine
 10
254.0531199218177
 20
41.38193258263186
 30
0.0
 11
265.5531199218177
 21
41.38193258263174
 31
0.0
  0
LINE
  5
7529
330
18
100
AcDbEntity
  8
0
100
AcDbLine
 10
254.0531199218177
 20
37.88193258263174
 30
0.0
 11
265.5531199218177
 21
37.88193258263174
 31
0.0
  0
LINE
  5
752A
330
18
100
AcDbEntity
  8
0
100
AcDbLine
 10
254.0531199218177
 20
34.88193258263186
 30
0.0
 11
265.5531199218177
 21
34.88193258263175
 31
0.0
  0
LINE
  5
752B
330
18
100
AcDbEntity
  8
0
100
AcDbLine
 10
254.0531199218177
 20
31.38193258263175
 30
0.0
 11
265.5531199218177
 21
31.38193258263175
 31
0.0
  0
LINE
  5
752C
330
18
100
AcDbEntity
  8
0
100
AcDbLine
 10
224.3031199218177
 20
24.38193258263174
 30
0.0
 11
291.3031199218177
 21
24.38193258263174
 31
0.0
  0
LINE
  5
752D
330
18
100
AcDbEntity
  8
0
100
AcDbLine
 10
90.61469927035352
 20
25.38193258263174
 30
0.0
 11
90.61469927035352
 21
10.38193258263174
 31
0.0
  0
LINE
  5
752E
330
18
100
AcDbEntity
  8
0
100
AcDbLine
 10
84.36469927035352
 20
9.381932582631748
 30
0.0
 11
89.61469927035352
 21
9.381932582631748
 31
0.0
  0
LINE
  5
752F
330
18
100
AcDbEntity
  8
0
100
AcDbLine
 10
84.36469927035352
 20
9.381932582631861
 30
0.0
 11
83.36469927035352
 21
10.38193258263186
 31
0.0
  0
LINE
  5
7530
330
18
100
AcDbEntity
  8
0
100
AcDbLine
 10
83.36469927035352
 20
14.38193258263174
 30
0.0
 11
83.36469927035352
 21
10.38193258263186
 31
0.0
  0
LINE
  5
7531
330
18
100
AcDbEntity
  8
0
100
AcDbLine
 10
90.61469927035352
 20
10.38193258263174
 30
0.0
 11
89.61469927035352
 21
9.381932582631748
 31
0.0
  0
LINE
  5
753C
330
18
100
AcDbEntity
  8
0
100
AcDbLine
 10
90.61469927035352
 20
25.38193258263174
 30
0.0
 11
89.61469927035352
 21
24.38193258263174
 31
0.0
  0
ARC
  5
753D
330
18
100
AcDbEntity
  8
0
100
AcDbCircle
 10
254.0531199218177
 20
39.63193258263178
 30
0.0
 40
1.75
100
AcDbArc
 50
90.0
 51
270.0
  0
ARC
  5
753E
330
18
100
AcDbEntity
  8
0
100
AcDbCircle
 10
243.5531199218177
 20
39.63193258263178
 30
0.0
 40
1.75
100
AcDbArc
 50
270.0
 51
90.0
  0
ARC
  5
753F
330
18
100
AcDbEntity
  8
0
100
AcDbCircle
 10
232.0531199218176
 20
39.63193258263178
 30
0.0
 40
1.75
100
AcDbArc
 50
90.0
 51
270.0
  0
LINE
  5
7542
330
18
100
AcDbEntity
  8
0
100
AcDbLine
 10
232.0531199218176
 20
31.38193258263175
 30
0.0
 11
243.5531199218177
 21
31.38193258263175
 31
0.0
  0
LINE
  5
7543
330
18
100
AcDbEntity
  8
0
100
AcDbLine
 10
232.0531199218176
 20
34.88193258263186
 30
0.0
 11
243.5531199218177
 21
34.88193258263175
 31
0.0
  0
LINE
  5
7544
330
18
100
AcDbEntity
  8
0
100
AcDbLine
 10
232.0531199218176
 20
37.88193258263174
 30
0.0
 11
243.5531199218177
 21
37.88193258263174
 31
0.0
  0
ARC
  5
7545
330
18
100
AcDbEntity
  8
0
100
AcDbCircle
 10
232.0531199218176
 20
33.13193258263178
 30
0.0
 40
1.75
100
AcDbArc
 50
90.0
 51
270.0
  0
LINE
  5
7547
330
18
100
AcDbEntity
  8
0
100
AcDbLine
 10
222.3031199218177
 20
24.38193258263186
 30
0.0
 11
224.3031199218177
 21
24.38193258263174
 31
0.0
  0
ARC
  5
754D
330
18
100
AcDbEntity
  8
0
100
AcDbCircle
 10
243.5531199218177
 20
33.13193258263178
 30
0.0
 40
1.75
100
AcDbArc
 50
270.0
 51
90.0
  0
ARC
  5
754E
330
18
100
AcDbEntity
  8
0
100
AcDbCircle
 10
254.0531199218177
 20
33.13193258263178
 30
0.0
 40
1.75
100
AcDbArc
 50
90.0
 51
270.0
  0
LINE
  5
7552
330
18
100
AcDbEntity
  8
0
100
AcDbLine
 10
232.0531199218176
 20
47.88193258263186
 30
0.0
 11
243.5531199218177
 21
47.88193258263174
 31
0.0
  0
LINE
  5
7555
330
18
100
AcDbEntity
  8
0
100
AcDbLine
 10
232.0531199218176
 20
41.38193258263186
 30
0.0
 11
243.5531199218177
 21
41.38193258263174
 31
0.0
  0
LINE
  5
7556
330
18
100
AcDbEntity
  8
0
100
AcDbLine
 10
232.0531199218176
 20
44.38193258263175
 30
0.0
 11
243.5531199218177
 21
44.38193258263175
 31
0.0
  0
ARC
  5
7557
330
18
100
AcDbEntity
  8
0
100
AcDbCircle
 10
232.0531199218176
 20
46.1319325826318
 30
0.0
 40
1.75
100
AcDbArc
 50
90.0
 51
270.0
  0
ARC
  5
755D
330
18
100
AcDbEntity
  8
0
100
AcDbCircle
 10
243.5531199218177
 20
46.13193258263177
 30
0.0
 40
1.75
100
AcDbArc
 50
270.0
 51
90.0
  0
ARC
  5
755E
330
18
100
AcDbEntity
  8
0
100
AcDbCircle
 10
254.0531199218177
 20
46.13193258263177
 30
0.0
 40
1.75
100
AcDbArc
 50
90.0
 51
270.0
  0
LINE
  5
7560
330
18
100
AcDbEntity
  8
0
100
AcDbLine
 10
298.0531199218177
 20
47.88193258263186
 30
0.0
 11
309.5531199218177
 21
47.88193258263174
 31
0.0
  0
LINE
  5
7561
330
18
100
AcDbEntity
  8
0
100
AcDbLine
 10
298.0531199218177
 20
44.38193258263175
 30
0.0
 11
309.5531199218177
 21
44.38193258263175
 31
0.0
  0
LINE
  5
7562
330
18
100
AcDbEntity
  8
0
100
AcDbLine
 10
298.0531199218177
 20
41.38193258263186
 30
0.0
 11
309.5531199218177
 21
41.38193258263174
 31
0.0
  0
LINE
  5
7563
330
18
100
AcDbEntity
  8
0
100
AcDbLine
 10
298.0531199218177
 20
37.88193258263174
 30
0.0
 11
309.5531199218177
 21
37.88193258263174
 31
0.0
  0
LINE
  5
7564
330
18
100
AcDbEntity
  8
0
100
AcDbLine
 10
298.0531199218177
 20
34.88193258263186
 30
0.0
 11
309.5531199218177
 21
34.88193258263175
 31
0.0
  0
LINE
  5
7565
330
18
100
AcDbEntity
  8
0
100
AcDbLine
 10
298.0531199218177
 20
31.38193258263175
 30
0.0
 11
309.5531199218177
 21
31.38193258263175
 31
0.0
  0
ARC
  5
756E
330
18
100
AcDbEntity
  8
0
100
AcDbCircle
 10
298.0531199218177
 20
39.63193258263178
 30
0.0
 40
1.75
100
AcDbArc
 50
90.0
 51
270.0
  0
ARC
  5
756F
330
18
100
AcDbEntity
  8
0
100
AcDbCircle
 10
287.5531199218177
 20
39.63193258263178
 30
0.0
 40
1.75
100
AcDbArc
 50
270.0
 51
90.0
  0
ARC
  5
7570
330
18
100
AcDbEntity
  8
0
100
AcDbCircle
 10
276.0531199218177
 20
39.63193258263178
 30
0.0
 40
1.75
100
AcDbArc
 50
90.0
 51
270.0
  0
ARC
  5
7571
330
18
100
AcDbEntity
  8
0
100
AcDbCircle
 10
265.5531199218177
 20
39.63193258263178
 30
0.0
 40
1.75
100
AcDbArc
 50
270.0
 51
90.0
  0
LINE
  5
7572
330
18
100
AcDbEntity
  8
0
100
AcDbLine
 10
276.0531199218177
 20
34.88193258263186
 30
0.0
 11
287.5531199218177
 21
34.88193258263175
 31
0.0
  0
LINE
  5
7573
330
18
100
AcDbEntity
  8
0
100
AcDbLine
 10
276.0531199218177
 20
37.88193258263174
 30
0.0
 11
287.5531199218177
 21
37.88193258263174
 31
0.0
  0
LINE
  5
7574
330
18
100
AcDbEntity
  8
0
100
AcDbLine
 10
276.0531199218177
 20
31.38193258263175
 30
0.0
 11
287.5531199218177
 21
31.38193258263175
 31
0.0
  0
ARC
  5
7575
330
18
100
AcDbEntity
  8
0
100
AcDbCircle
 10
265.5531199218177
 20
33.13193258263178
 30
0.0
 40
1.75
100
AcDbArc
 50
270.0
 51
90.0
  0
ARC
  5
7576
330
18
100
AcDbEntity
  8
0
100
AcDbCircle
 10
276.0531199218177
 20
33.13193258263178
 30
0.0
 40
1.75
100
AcDbArc
 50
90.0
 51
270.0
  0
ARC
  5
7577
330
18
100
AcDbEntity
  8
0
100
AcDbCircle
 10
287.5531199218177
 20
33.13193258263178
 30
0.0
 40
1.75
100
AcDbArc
 50
270.0
 51
90.0
  0
ARC
  5
757A
330
18
100
AcDbEntity
  8
0
100
AcDbCircle
 10
298.0531199218177
 20
33.13193258263178
 30
0.0
 40
1.75
100
AcDbArc
 50
90.0
 51
270.0
  0
LINE
  5
757E
330
18
100
AcDbEntity
  8
0
100
AcDbLine
 10
276.0531199218177
 20
47.88193258263186
 30
0.0
 11
287.5531199218177
 21
47.88193258263174
 31
0.0
  0
LINE
  5
757F
330
18
100
AcDbEntity
  8
0
100
AcDbLine
 10
276.0531199218177
 20
41.38193258263186
 30
0.0
 11
287.5531199218177
 21
41.38193258263174
 31
0.0
  0
LINE
  5
7580
330
18
100
AcDbEntity
  8
0
100
AcDbLine
 10
276.0531199218177
 20
44.38193258263175
 30
0.0
 11
287.5531199218177
 21
44.38193258263175
 31
0.0
  0
ARC
  5
7583
330
18
100
AcDbEntity
  8
0
100
AcDbCircle
 10
265.5531199218177
 20
46.13193258263177
 30
0.0
 40
1.75
100
AcDbArc
 50
270.0
 51
90.0
  0
ARC
  5
7584
330
18
100
AcDbEntity
  8
0
100
AcDbCircle
 10
276.0531199218177
 20
46.13193258263177
 30
0.0
 40
1.75
100
AcDbArc
 50
90.0
 51
270.0
  0
ARC
  5
7585
330
18
100
AcDbEntity
  8
0
100
AcDbCircle
 10
287.5531199218177
 20
46.13193258263177
 30
0.0
 40
1.75
100
AcDbArc
 50
270.0
 51
90.0
  0
ARC
  5
7586
330
18
100
AcDbEntity
  8
0
100
AcDbCircle
 10
298.0531199218177
 20
46.13193258263177
 30
0.0
 40
1.75
100
AcDbArc
 50
90.0
 51
270.0
  0
ARC
  5
7587
330
18
100
AcDbEntity
  8
0
100
AcDbCircle
 10
342.0531199218177
 20
39.63193258263174
 30
0.0
 40
1.75
100
AcDbArc
 50
90.0
 51
270.0
  0
ARC
  5
7588
330
18
100
AcDbEntity
  8
0
100
AcDbCircle
 10
331.5531199218177
 20
39.63193258263178
 30
0.0
 40
1.75
100
AcDbArc
 50
270.0
 51
90.0
  0
ARC
  5
7589
330
18
100
AcDbEntity
  8
0
100
AcDbCircle
 10
320.0531199218177
 20
39.63193258263178
 30
0.0
 40
1.75
100
AcDbArc
 50
90.0
 51
270.0
  0
ARC
  5
758A
330
18
100
AcDbEntity
  8
0
100
AcDbCircle
 10
309.5531199218177
 20
39.63193258263178
 30
0.0
 40
1.75
100
AcDbArc
 50
270.0
 51
90.0
  0
LINE
  5
758C
330
18
100
AcDbEntity
  8
0
100
AcDbLine
 10
320.0531199218177
 20
31.38193258263175
 30
0.0
 11
331.5531199218177
 21
31.38193258263175
 31
0.0
  0
LINE
  5
758D
330
18
100
AcDbEntity
  8
0
100
AcDbLine
 10
320.0531199218177
 20
34.88193258263186
 30
0.0
 11
331.5531199218177
 21
34.88193258263175
 31
0.0
  0
LINE
  5
758E
330
18
100
AcDbEntity
  8
0
100
AcDbLine
 10
320.0531199218177
 20
37.88193258263174
 30
0.0
 11
331.5531199218177
 21
37.88193258263174
 31
0.0
  0
ARC
  5
758F
330
18
100
AcDbEntity
  8
0
100
AcDbCircle
 10
309.5531199218177
 20
33.13193258263178
 30
0.0
 40
1.75
100
AcDbArc
 50
270.0
 51
90.0
  0
ARC
  5
7593
330
18
100
AcDbEntity
  8
0
100
AcDbCircle
 10
320.0531199218177
 20
33.13193258263178
 30
0.0
 40
1.75
100
AcDbArc
 50
90.0
 51
270.0
  0
ARC
  5
7596
330
18
100
AcDbEntity
  8
0
100
AcDbCircle
 10
331.5531199218177
 20
33.13193258263178
 30
0.0
 40
1.75
100
AcDbArc
 50
270.0
 51
90.0
  0
ARC
  5
7599
330
18
100
AcDbEntity
  8
0
100
AcDbCircle
 10
342.0531199218177
 20
33.13193258263174
 30
0.0
 40
1.75
100
AcDbArc
 50
90.0
 51
270.0
  0
LINE
  5
759A
330
18
100
AcDbEntity
  8
0
100
AcDbLine
 10
320.0531199218177
 20
47.88193258263186
 30
0.0
 11
331.5531199218177
 21
47.88193258263174
 31
0.0
  0
LINE
  5
759B
330
18
100
AcDbEntity
  8
0
100
AcDbLine
 10
320.0531199218177
 20
44.38193258263175
 30
0.0
 11
331.5531199218177
 21
44.38193258263175
 31
0.0
  0
LINE
  5
759C
330
18
100
AcDbEntity
  8
0
100
AcDbLine
 10
320.0531199218177
 20
41.38193258263186
 30
0.0
 11
331.5531199218177
 21
41.38193258263174
 31
0.0
  0
ARC
  5
759F
330
18
100
AcDbEntity
  8
0
100
AcDbCircle
 10
309.5531199218177
 20
46.13193258263177
 30
0.0
 40
1.75
100
AcDbArc
 50
270.0
 51
90.0
  0
ARC
  5
75A0
330
18
100
AcDbEntity
  8
0
100
AcDbCircle
 10
320.0531199218177
 20
46.13193258263175
 30
0.0
 40
1.75
100
AcDbArc
 50
90.0
 51
270.0
  0
ARC
  5
75A2
330
18
100
AcDbEntity
  8
0
100
AcDbCircle
 10
342.0531199218177
 20
59.13193258263174
 30
0.0
 40
1.75
100
AcDbArc
 50
90.0
 51
270.0
  0
ARC
  5
75A3
330
18
100
AcDbEntity
  8
0
100
AcDbCircle
 10
331.5531199218177
 20
46.13193258263175
 30
0.0
 40
1.75
100
AcDbArc
 50
270.0
 51
90.0
  0
ARC
  5
75A4
330
18
100
AcDbEntity
  8
0
100
AcDbCircle
 10
342.0531199218177
 20
52.63193258263175
 30
0.0
 40
1.75
100
AcDbArc
 50
90.0
 51
270.0
  0
ARC
  5
75A5
330
18
100
AcDbEntity
  8
0
100
AcDbCircle
 10
342.0531199218177
 20
46.13193258263175
 30
0.0
 40
1.75
100
AcDbArc
 50
90.0
 51
270.0
  0
ARC
  5
75A6
330
18
100
AcDbEntity
  8
0
100
AcDbCircle
 10
342.0531199218177
 20
72.13193258263174
 30
0.0
 40
1.75
100
AcDbArc
 50
90.0
 51
270.0
  0
ARC
  5
75A7
330
18
100
AcDbEntity
  8
0
100
AcDbCircle
 10
342.0531199218177
 20
78.63193258263175
 30
0.0
 40
1.75
100
AcDbArc
 50
90.0
 51
270.0
  0
ARC
  5
75A8
330
18
100
AcDbEntity
  8
0
100
AcDbCircle
 10
342.0531199218177
 20
65.63193258263175
 30
0.0
 40
1.75
100
AcDbArc
 50
90.0
 51
270.0
  0
LINE
  5
75A9
330
18
100
AcDbEntity
  8
0
100
AcDbLine
 10
254.0531199218177
 20
174.3819325826317
 30
0.0
 11
265.5531199218177
 21
174.3819325826317
 31
0.0
  0
LINE
  5
75AA
330
18
100
AcDbEntity
  8
0
100
AcDbLine
 10
254.0531199218177
 20
177.8819325826318
 30
0.0
 11
265.5531199218177
 21
177.8819325826317
 31
0.0
  0
LINE
  5
75AB
330
18
100
AcDbEntity
  8
0
100
AcDbLine
 10
254.0531199218177
 20
161.3819325826317
 30
0.0
 11
265.5531199218177
 21
161.3819325826317
 31
0.0
  0
LINE
  5
75AC
330
18
100
AcDbEntity
  8
0
100
AcDbLine
 10
254.0531199218177
 20
164.8819325826318
 30
0.0
 11
265.5531199218177
 21
164.8819325826317
 31
0.0
  0
LINE
  5
75AD
330
18
100
AcDbEntity
  8
0
100
AcDbLine
 10
254.0531199218177
 20
171.3819325826318
 30
0.0
 11
265.5531199218177
 21
171.3819325826317
 31
0.0
  0
LINE
  5
75AE
330
18
100
AcDbEntity
  8
0
100
AcDbLine
 10
254.0531199218177
 20
167.8819325826317
 30
0.0
 11
265.5531199218177
 21
167.8819325826317
 31
0.0
  0
LINE
  5
75AF
330
18
100
AcDbEntity
  8
0
100
AcDbLine
 10
222.3031199218177
 20
184.3819325826317
 30
0.0
 11
293.3031199218177
 21
184.3819325826317
 31
0.0
  0
LINE
  5
75CA
330
18
100
AcDbEntity
  8
0
100
AcDbLine
 10
83.36469927035352
 20
194.3819325826319
 30
0.0
 11
83.36469927035352
 21
198.3819325826319
 31
0.0
  0
LINE
  5
75CB
330
18
100
AcDbEntity
  8
0
100
AcDbLine
 10
90.61469927035352
 20
183.3819325826317
 30
0.0
 11
90.61469927035364
 21
198.3819325826319
 31
0.0
  0
LINE
  5
75D6
330
18
100
AcDbEntity
  8
0
100
AcDbLine
 10
90.61469927035352
 20
183.3819325826317
 30
0.0
 11
89.61469927035352
 21
184.3819325826317
 31
0.0
  0
LINE
  5
75D7
330
18
100
AcDbEntity
  8
0
100
AcDbLine
 10
84.36469927035352
 20
199.3819325826319
 30
0.0
 11
89.61469927035365
 21
199.3819325826319
 31
0.0
  0
LINE
  5
75D8
330
18
100
AcDbEntity
  8
0
100
AcDbLine
 10
84.36469927035352
 20
199.3819325826319
 30
0.0
 11
83.36469927035352
 21
198.3819325826319
 31
0.0
  0
LINE
  5
75D9
330
18
100
AcDbEntity
  8
0
100
AcDbLine
 10
89.61469927035365
 20
199.3819325826319
 30
0.0
 11
90.61469927035364
 21
198.3819325826319
 31
0.0
  0
LINE
  5
75DA
330
18
100
AcDbEntity
  8
0
100
AcDbLine
 10
232.0531199218176
 20
164.8819325826318
 30
0.0
 11
243.5531199218177
 21
164.8819325826317
 31
0.0
  0
LINE
  5
75DB
330
18
100
AcDbEntity
  8
0
100
AcDbLine
 10
232.0531199218176
 20
167.8819325826317
 30
0.0
 11
243.5531199218177
 21
167.8819325826317
 31
0.0
  0
LINE
  5
75DC
330
18
100
AcDbEntity
  8
0
100
AcDbLine
 10
232.0531199218176
 20
171.3819325826318
 30
0.0
 11
243.5531199218177
 21
171.3819325826317
 31
0.0
  0
LINE
  5
75DD
330
18
100
AcDbEntity
  8
0
100
AcDbLine
 10
232.0531199218176
 20
177.8819325826318
 30
0.0
 11
243.5531199218177
 21
177.8819325826317
 31
0.0
  0
LINE
  5
75DE
330
18
100
AcDbEntity
  8
0
100
AcDbLine
 10
232.0531199218176
 20
174.3819325826317
 30
0.0
 11
243.5531199218177
 21
174.3819325826317
 31
0.0
  0
LINE
  5
75DF
330
18
100
AcDbEntity
  8
0
100
AcDbLine
 10
232.0531199218176
 20
161.3819325826317
 30
0.0
 11
243.5531199218177
 21
161.3819325826317
 31
0.0
  0
ARC
  5
75E0
330
18
100
AcDbEntity
  8
0
100
AcDbCircle
 10
232.0531199218176
 20
169.6319325826317
 30
0.0
 40
1.75
100
AcDbArc
 50
90.0
 51
270.0
  0
ARC
  5
75E2
330
18
100
AcDbEntity
  8
0
100
AcDbCircle
 10
232.0531199218176
 20
176.1319325826317
 30
0.0
 40
1.75
100
AcDbArc
 50
90.0
 51
270.0
  0
ARC
  5
75E6
330
18
100
AcDbEntity
  8
0
100
AcDbCircle
 10
232.0531199218176
 20
163.1319325826317
 30
0.0
 40
1.75
100
AcDbArc
 50
90.0
 51
270.0
  0
ARC
  5
75EC
330
18
100
AcDbEntity
  8
0
100
AcDbCircle
 10
243.5531199218177
 20
169.6319325826317
 30
0.0
 40
1.75
100
AcDbArc
 50
270.0
 51
90.0
  0
ARC
  5
75ED
330
18
100
AcDbEntity
  8
0
100
AcDbCircle
 10
243.5531199218177
 20
176.1319325826317
 30
0.0
 40
1.75
100
AcDbArc
 50
270.0
 51
90.0
  0
ARC
  5
75EE
330
18
100
AcDbEntity
  8
0
100
AcDbCircle
 10
243.5531199218177
 20
163.1319325826317
 30
0.0
 40
1.75
100
AcDbArc
 50
270.0
 51
90.0
  0
ARC
  5
75F0
330
18
100
AcDbEntity
  8
0
100
AcDbCircle
 10
254.0531199218177
 20
169.6319325826317
 30
0.0
 40
1.75
100
AcDbArc
 50
90.0
 51
270.0
  0
ARC
  5
75F1
330
18
100
AcDbEntity
  8
0
100
AcDbCircle
 10
254.0531199218177
 20
176.1319325826317
 30
0.0
 40
1.75
100
AcDbArc
 50
90.0
 51
270.0
  0
ARC
  5
75F2
330
18
100
AcDbEntity
  8
0
100
AcDbCircle
 10
254.0531199218177
 20
163.1319325826317
 30
0.0
 40
1.75
100
AcDbArc
 50
90.0
 51
270.0
  0
LINE
  5
75F3
330
18
100
AcDbEntity
  8
0
100
AcDbLine
 10
242.3031199218177
 20
251.4838876017026
 30
0.0
 11
239.3031199218177
 21
251.4838876017027
 31
0.0
  0
LINE
  5
75F6
330
18
100
AcDbEntity
  8
0
100
AcDbLine
 10
225.3031199218177
 20
249.4838876017026
 30
0.0
 11
226.3031199218177
 21
249.4838876017026
 31
0.0
  0
LINE
  5
75FA
330
18
100
AcDbEntity
  8
0
100
AcDbLine
 10
225.3031199218177
 20
244.4838876017025
 30
0.0
 11
222.3031199218177
 21
244.4838876017025
 31
0.0
  0
LINE
  5
75FB
330
18
100
AcDbEntity
  8
0
100
AcDbLine
 10
225.3031199218177
 20
245.4838876017026
 30
0.0
 11
227.3031199218177
 21
245.4838876017026
 31
0.0
  0
LINE
  5
75FC
330
18
100
AcDbEntity
  8
0
100
AcDbLine
 10
225.3031199218177
 20
249.4838876017026
 30
0.0
 11
225.3031199218177
 21
225.4838876017026
 31
0.0
  0
LINE
  5
75FD
330
18
100
AcDbEntity
  8
0
100
AcDbLine
 10
226.3031199218177
 20
249.4838876017026
 30
0.0
 11
226.3031199218177
 21
245.4838876017026
 31
0.0
  0
LINE
  5
75FE
330
18
100
AcDbEntity
  8
0
100
AcDbLine
 10
236.8031199218177
 20
251.4838876017026
 30
0.0
 11
233.8031199218177
 21
251.4838876017027
 31
0.0
  0
LINE
  5
7601
330
18
100
AcDbEntity
  8
0
100
AcDbLine
 10
253.3031199218177
 20
251.4838876017026
 30
0.0
 11
250.3031199218177
 21
251.4838876017027
 31
0.0
  0
LINE
  5
7604
330
18
100
AcDbEntity
  8
0
100
AcDbLine
 10
247.8031199218177
 20
251.4838876017026
 30
0.0
 11
244.8031199218177
 21
251.4838876017027
 31
0.0
  0
LINE
  5
7608
330
18
100
AcDbEntity
  8
0
100
AcDbLine
 10
258.8031199218177
 20
251.4838876017026
 30
0.0
 11
255.8031199218177
 21
251.4838876017027
 31
0.0
  0
ARC
  5
7613
330
18
100
AcDbEntity
  8
0
100
AcDbCircle
 10
342.0531199218177
 20
91.63193258263175
 30
0.0
 40
1.75
100
AcDbArc
 50
90.0
 51
270.0
  0
ARC
  5
7614
330
18
100
AcDbEntity
  8
0
100
AcDbCircle
 10
342.0531199218177
 20
98.13193258263176
 30
0.0
 40
1.75
100
AcDbArc
 50
90.0
 51
270.0
  0
ARC
  5
7615
330
18
100
AcDbEntity
  8
0
100
AcDbCircle
 10
342.0531199218177
 20
85.13193258263175
 30
0.0
 40
1.75
100
AcDbArc
 50
90.0
 51
270.0
  0
ARC
  5
7616
330
18
100
AcDbEntity
  8
0
100
AcDbCircle
 10
342.0531199218177
 20
111.1319325826317
 30
0.0
 40
1.75
100
AcDbArc
 50
90.0
 51
270.0
  0
ARC
  5
7617
330
18
100
AcDbEntity
  8
0
100
AcDbCircle
 10
342.0531199218177
 20
117.6319325826317
 30
0.0
 40
1.75
100
AcDbArc
 50
90.0
 51
270.0
  0
ARC
  5
7618
330
18
100
AcDbEntity
  8
0
100
AcDbCircle
 10
342.0531199218177
 20
104.6319325826317
 30
0.0
 40
1.75
100
AcDbArc
 50
90.0
 51
270.0
  0
ARC
  5
761C
330
18
100
AcDbEntity
  8
0
100
AcDbCircle
 10
342.0531199218177
 20
130.6319325826317
 30
0.0
 40
1.75
100
AcDbArc
 50
90.0
 51
270.0
  0
ARC
  5
761D
330
18
100
AcDbEntity
  8
0
100
AcDbCircle
 10
342.0531199218177
 20
137.1319325826317
 30
0.0
 40
1.75
100
AcDbArc
 50
90.0
 51
270.0
  0
ARC
  5
761E
330
18
100
AcDbEntity
  8
0
100
AcDbCircle
 10
342.0531199218177
 20
124.1319325826317
 30
0.0
 40
1.75
100
AcDbArc
 50
90.0
 51
270.0
  0
ARC
  5
7622
330
18
100
AcDbEntity
  8
0
100
AcDbCircle
 10
342.0531199218177
 20
150.1319325826317
 30
0.0
 40
1.75
100
AcDbArc
 50
90.0
 51
270.0
  0
ARC
  5
7623
330
18
100
AcDbEntity
  8
0
100
AcDbCircle
 10
342.0531199218177
 20
156.6319325826317
 30
0.0
 40
1.75
100
AcDbArc
 50
90.0
 51
270.0
  0
ARC
  5
7624
330
18
100
AcDbEntity
  8
0
100
AcDbCircle
 10
342.0531199218177
 20
143.6319325826317
 30
0.0
 40
1.75
100
AcDbArc
 50
90.0
 51
270.0
  0
LINE
  5
7625
330
18
100
AcDbEntity
  8
0
100
AcDbLine
 10
303.3031199218177
 20
248.4838876017021
 30
0.0
 11
270.3031199218175
 21
248.4838876017028
 31
0.0
  0
LINE
  5
7626
330
18
100
AcDbEntity
  8
0
100
AcDbLine
 10
303.3031199218177
 20
262.4838876017022
 30
0.0
 11
270.3031199218177
 21
262.4838876017028
 31
0.0
  0
LINE
  5
7628
330
18
100
AcDbEntity
  8
0
100
AcDbLine
 10
298.0531199218177
 20
174.3819325826317
 30
0.0
 11
309.5531199218177
 21
174.3819325826317
 31
0.0
  0
LINE
  5
7629
330
18
100
AcDbEntity
  8
0
100
AcDbLine
 10
298.0531199218177
 20
177.8819325826318
 30
0.0
 11
309.5531199218177
 21
177.8819325826317
 31
0.0
  0
LINE
  5
762A
330
18
100
AcDbEntity
  8
0
100
AcDbLine
 10
298.0531199218177
 20
161.3819325826317
 30
0.0
 11
309.5531199218177
 21
161.3819325826317
 31
0.0
  0
LINE
  5
762B
330
18
100
AcDbEntity
  8
0
100
AcDbLine
 10
298.0531199218177
 20
164.8819325826318
 30
0.0
 11
309.5531199218177
 21
164.8819325826317
 31
0.0
  0
LINE
  5
762C
330
18
100
AcDbEntity
  8
0
100
AcDbLine
 10
298.0531199218177
 20
171.3819325826318
 30
0.0
 11
309.5531199218177
 21
171.3819325826317
 31
0.0
  0
LINE
  5
762D
330
18
100
AcDbEntity
  8
0
100
AcDbLine
 10
298.0531199218177
 20
167.8819325826317
 30
0.0
 11
309.5531199218177
 21
167.8819325826317
 31
0.0
  0
LINE
  5
7630
330
18
100
AcDbEntity
  8
0
100
AcDbLine
 10
276.0531199218177
 20
164.8819325826318
 30
0.0
 11
287.5531199218177
 21
164.8819325826317
 31
0.0
  0
LINE
  5
7631
330
18
100
AcDbEntity
  8
0
100
AcDbLine
 10
276.0531199218177
 20
167.8819325826317
 30
0.0
 11
287.5531199218177
 21
167.8819325826317
 31
0.0
  0
LINE
  5
7632
330
18
100
AcDbEntity
  8
0
100
AcDbLine
 10
276.0531199218177
 20
171.3819325826318
 30
0.0
 11
287.5531199218177
 21
171.3819325826317
 31
0.0
  0
LINE
  5
7633
330
18
100
AcDbEntity
  8
0
100
AcDbLine
 10
276.0531199218177
 20
177.8819325826318
 30
0.0
 11
287.5531199218177
 21
177.8819325826317
 31
0.0
  0
LINE
  5
7634
330
18
100
AcDbEntity
  8
0
100
AcDbLine
 10
276.0531199218177
 20
174.3819325826317
 30
0.0
 11
287.5531199218177
 21
174.3819325826317
 31
0.0
  0
LINE
  5
7635
330
18
100
AcDbEntity
  8
0
100
AcDbLine
 10
276.0531199218177
 20
161.3819325826317
 30
0.0
 11
287.5531199218177
 21
161.3819325826317
 31
0.0
  0
ARC
  5
7636
330
18
100
AcDbEntity
  8
0
100
AcDbCircle
 10
265.5531199218177
 20
169.6319325826317
 30
0.0
 40
1.75
100
AcDbArc
 50
270.0
 51
90.0
  0
ARC
  5
7637
330
18
100
AcDbEntity
  8
0
100
AcDbCircle
 10
265.5531199218177
 20
176.1319325826317
 30
0.0
 40
1.75
100
AcDbArc
 50
270.0
 51
90.0
  0
ARC
  5
7638
330
18
100
AcDbEntity
  8
0
100
AcDbCircle
 10
265.5531199218177
 20
163.1319325826317
 30
0.0
 40
1.75
100
AcDbArc
 50
270.0
 51
90.0
  0
ARC
  5
7639
330
18
100
AcDbEntity
  8
0
100
AcDbCircle
 10
276.0531199218177
 20
169.6319325826317
 30
0.0
 40
1.75
100
AcDbArc
 50
90.0
 51
270.0
  0
ARC
  5
763A
330
18
100
AcDbEntity
  8
0
100
AcDbCircle
 10
276.0531199218177
 20
176.1319325826317
 30
0.0
 40
1.75
100
AcDbArc
 50
90.0
 51
270.0
  0
ARC
  5
763B
330
18
100
AcDbEntity
  8
0
100
AcDbCircle
 10
276.0531199218177
 20
163.1319325826317
 30
0.0
 40
1.75
100
AcDbArc
 50
90.0
 51
270.0
  0
ARC
  5
763C
330
18
100
AcDbEntity
  8
0
100
AcDbCircle
 10
287.5531199218177
 20
169.6319325826317
 30
0.0
 40
1.75
100
AcDbArc
 50
270.0
 51
90.0
  0
ARC
  5
763D
330
18
100
AcDbEntity
  8
0
100
AcDbCircle
 10
287.5531199218177
 20
176.1319325826317
 30
0.0
 40
1.75
100
AcDbArc
 50
270.0
 51
90.0
  0
ARC
  5
763E
330
18
100
AcDbEntity
  8
0
100
AcDbCircle
 10
287.5531199218177
 20
163.1319325826317
 30
0.0
 40
1.75
100
AcDbArc
 50
270.0
 51
90.0
  0
ARC
  5
763F
330
18
100
AcDbEntity
  8
0
100
AcDbCircle
 10
298.0531199218177
 20
169.6319325826317
 30
0.0
 40
1.75
100
AcDbArc
 50
90.0
 51
270.0
  0
ARC
  5
7640
330
18
100
AcDbEntity
  8
0
100
AcDbCircle
 10
298.0531199218177
 20
176.1319325826317
 30
0.0
 40
1.75
100
AcDbArc
 50
90.0
 51
270.0
  0
ARC
  5
7641
330
18
100
AcDbEntity
  8
0
100
AcDbCircle
 10
298.0531199218177
 20
163.1319325826317
 30
0.0
 40
1.75
100
AcDbArc
 50
90.0
 51
270.0
  0
CIRCLE
  5
7644
330
18
100
AcDbEntity
  8
0
100
AcDbCircle
 10
265.3031199218176
 20
251.4838876017027
 30
0.0
 40
3.25
  0
LINE
  5
7645
330
18
100
AcDbEntity
  8
0
100
AcDbLine
 10
270.3031199218175
 20
248.4838876017028
 30
0.0
 11
270.3031199218177
 21
262.4838876017028
 31
0.0
  0
LINE
  5
7646
330
18
100
AcDbEntity
  8
0
100
AcDbLine
 10
264.3031199218177
 20
258.4838876017027
 30
0.0
 11
261.3031199218176
 21
258.4838876017027
 31
0.0
  0
LINE
  5
7648
330
18
100
AcDbEntity
  8
0
100
AcDbLine
 10
320.0531199218177
 20
164.8819325826318
 30
0.0
 11
331.5531199218177
 21
164.8819325826317
 31
0.0
  0
LINE
  5
7649
330
18
100
AcDbEntity
  8
0
100
AcDbLine
 10
320.0531199218177
 20
167.8819325826317
 30
0.0
 11
331.5531199218177
 21
167.8819325826317
 31
0.0
  0
LINE
  5
764A
330
18
100
AcDbEntity
  8
0
100
AcDbLine
 10
320.0531199218177
 20
171.3819325826318
 30
0.0
 11
331.5531199218177
 21
171.3819325826317
 31
0.0
  0
LINE
  5
764B
330
18
100
AcDbEntity
  8
0
100
AcDbLine
 10
320.0531199218177
 20
177.8819325826318
 30
0.0
 11
331.5531199218177
 21
177.8819325826317
 31
0.0
  0
LINE
  5
764C
330
18
100
AcDbEntity
  8
0
100
AcDbLine
 10
320.0531199218177
 20
174.3819325826317
 30
0.0
 11
331.5531199218177
 21
174.3819325826317
 31
0.0
  0
LINE
  5
764D
330
18
100
AcDbEntity
  8
0
100
AcDbLine
 10
320.0531199218177
 20
161.3819325826317
 30
0.0
 11
331.5531199218177
 21
161.3819325826317
 31
0.0
  0
ARC
  5
764E
330
18
100
AcDbEntity
  8
0
100
AcDbCircle
 10
309.5531199218177
 20
169.6319325826317
 30
0.0
 40
1.75
100
AcDbArc
 50
270.0
 51
90.0
  0
ARC
  5
764F
330
18
100
AcDbEntity
  8
0
100
AcDbCircle
 10
309.5531199218177
 20
176.1319325826317
 30
0.0
 40
1.75
100
AcDbArc
 50
270.0
 51
90.0
  0
ARC
  5
7650
330
18
100
AcDbEntity
  8
0
100
AcDbCircle
 10
309.5531199218177
 20
163.1319325826317
 30
0.0
 40
1.75
100
AcDbArc
 50
270.0
 51
90.0
  0
ARC
  5
7651
330
18
100
AcDbEntity
  8
0
100
AcDbCircle
 10
320.0531199218177
 20
169.6319325826317
 30
0.0
 40
1.75
100
AcDbArc
 50
90.0
 51
270.0
  0
ARC
  5
7652
330
18
100
AcDbEntity
  8
0
100
AcDbCircle
 10
320.0531199218177
 20
176.1319325826317
 30
0.0
 40
1.75
100
AcDbArc
 50
90.0
 51
270.0
  0
ARC
  5
7653
330
18
100
AcDbEntity
  8
0
100
AcDbCircle
 10
320.0531199218177
 20
163.1319325826317
 30
0.0
 40
1.75
100
AcDbArc
 50
90.0
 51
270.0
  0
ARC
  5
765F
330
18
100
AcDbEntity
  8
0
100
AcDbCircle
 10
331.5531199218177
 20
169.6319325826317
 30
0.0
 40
1.75
100
AcDbArc
 50
270.0
 51
90.0
  0
ARC
  5
7661
330
18
100
AcDbEntity
  8
0
100
AcDbCircle
 10
331.5531199218177
 20
176.1319325826317
 30
0.0
 40
1.75
100
AcDbArc
 50
270.0
 51
90.0
  0
ARC
  5
7662
330
18
100
AcDbEntity
  8
0
100
AcDbCircle
 10
331.5531199218177
 20
163.1319325826317
 30
0.0
 40
1.75
100
AcDbArc
 50
270.0
 51
90.0
  0
ARC
  5
7663
330
18
100
AcDbEntity
  8
0
100
AcDbCircle
 10
342.0531199218177
 20
169.6319325826317
 30
0.0
 40
1.75
100
AcDbArc
 50
90.0
 51
270.0
  0
ARC
  5
7664
330
18
100
AcDbEntity
  8
0
100
AcDbCircle
 10
342.0531199218177
 20
176.1319325826317
 30
0.0
 40
1.75
100
AcDbArc
 50
90.0
 51
270.0
  0
ARC
  5
7665
330
18
100
AcDbEntity
  8
0
100
AcDbCircle
 10
342.0531199218177
 20
163.1319325826317
 30
0.0
 40
1.75
100
AcDbArc
 50
90.0
 51
270.0
  0
LINE
  5
7666
330
18
100
AcDbEntity
  8
0
100
AcDbLine
 10
324.8031199218177
 20
251.4838876017026
 30
0.0
 11
321.8031199218177
 21
251.4838876017027
 31
0.0
  0
LINE
  5
7667
330
18
100
AcDbEntity
  8
0
100
AcDbLine
 10
313.8031199218177
 20
251.4838876017026
 30
0.0
 11
310.8031199218177
 21
251.4838876017027
 31
0.0
  0
LINE
  5
7668
330
18
100
AcDbEntity
  8
0
100
AcDbLine
 10
303.3031199218177
 20
248.4838876017021
 30
0.0
 11
303.3031199218177
 21
262.4838876017022
 31
0.0
  0
LINE
  5
7669
330
18
100
AcDbEntity
  8
0
100
AcDbLine
 10
308.3031199218177
 20
251.4838876017026
 30
0.0
 11
305.3031199218177
 21
251.4838876017027
 31
0.0
  0
LINE
  5
766A
330
18
100
AcDbEntity
  8
0
100
AcDbLine
 10
319.3031199218177
 20
251.4838876017026
 30
0.0
 11
316.3031199218177
 21
251.4838876017027
 31
0.0
  0
LINE
  5
766B
330
18
100
AcDbEntity
  8
0
100
AcDbLine
 10
330.3031199218177
 20
251.4838876017026
 30
0.0
 11
327.3031199218177
 21
251.4838876017027
 31
0.0
  0
LINE
  5
766D
330
18
100
AcDbEntity
  8
0
100
AcDbLine
 10
335.8031199218177
 20
251.4838876017026
 30
0.0
 11
332.8031199218177
 21
251.4838876017027
 31
0.0
  0
LINE
  5
766E
330
18
100
AcDbEntity
  8
0
100
AcDbLine
 10
341.3031199218177
 20
251.4838876017026
 30
0.0
 11
338.3031199218176
 21
251.4838876017027
 31
0.0
  0
LINE
  5
7671
330
18
100
AcDbEntity
  8
0
100
AcDbLine
 10
381.3031199218177
 20
184.3819325826317
 30
0.0
 11
381.3031199218177
 21
24.38193258263174
 31
0.0
  0
LINE
  5
7674
330
18
100
AcDbEntity
  8
0
100
AcDbLine
 10
381.3031199218177
 20
199.3819325826317
 30
0.0
 11
381.3031199218177
 21
9.381932582631748
 31
0.0
  0
LINE
  5
7675
330
18
100
AcDbEntity
  8
0
100
AcDbLine
 10
384.3031199218177
 20
199.3819325826317
 30
0.0
 11
384.3031199218177
 21
9.381932582631748
 31
0.0
  0
LINE
  5
7676
330
18
100
AcDbEntity
  8
0
100
AcDbLine
 10
381.3031199218177
 20
9.381932582631748
 30
0.0
 11
384.3031199218177
 21
9.381932582631748
 31
0.0
  0
ARC
  5
7677
330
18
100
AcDbEntity
  8
0
100
AcDbCircle
 10
375.5531199218177
 20
39.63193258263174
 30
0.0
 40
1.75
100
AcDbArc
 50
270.0
 51
90.0
  0
ARC
  5
7678
330
18
100
AcDbEntity
  8
0
100
AcDbCircle
 10
353.5531199218177
 20
39.63193258263174
 30
0.0
 40
1.75
100
AcDbArc
 50
270.0
 51
90.0
  0
ARC
  5
7679
330
18
100
AcDbEntity
  8
0
100
AcDbCircle
 10
364.0531199218177
 20
39.63193258263174
 30
0.0
 40
1.75
100
AcDbArc
 50
90.0
 51
270.0
  0
ARC
  5
767C
330
18
100
AcDbEntity
  8
0
100
AcDbCircle
 10
364.0531199218177
 20
33.13193258263174
 30
0.0
 40
1.75
100
AcDbArc
 50
90.0
 51
270.0
  0
ARC
  5
767F
330
18
100
AcDbEntity
  8
0
100
AcDbCircle
 10
353.5531199218177
 20
33.13193258263174
 30
0.0
 40
1.75
100
AcDbArc
 50
270.0
 51
90.0
  0
LINE
  5
7680
330
18
100
AcDbEntity
  8
0
100
AcDbLine
 10
364.0531199218177
 20
31.38193258263175
 30
0.0
 11
375.5531199218177
 21
31.38193258263175
 31
0.0
  0
LINE
  5
7681
330
18
100
AcDbEntity
  8
0
100
AcDbLine
 10
364.0531199218177
 20
34.88193258263186
 30
0.0
 11
375.5531199218177
 21
34.88193258263175
 31
0.0
  0
LINE
  5
7682
330
18
100
AcDbEntity
  8
0
100
AcDbLine
 10
364.0531199218177
 20
37.88193258263174
 30
0.0
 11
375.5531199218177
 21
37.88193258263174
 31
0.0
  0
ARC
  5
7683
330
18
100
AcDbEntity
  8
0
100
AcDbCircle
 10
375.5531199218177
 20
33.13193258263174
 30
0.0
 40
1.75
100
AcDbArc
 50
270.0
 51
90.0
  0
ARC
  5
7684
330
18
100
AcDbEntity
  8
0
100
AcDbCircle
 10
364.0531199218177
 20
52.63193258263175
 30
0.0
 40
1.75
100
AcDbArc
 50
90.0
 51
270.0
  0
ARC
  5
7685
330
18
100
AcDbEntity
  8
0
100
AcDbCircle
 10
364.0531199218177
 20
72.13193258263174
 30
0.0
 40
1.75
100
AcDbArc
 50
90.0
 51
270.0
  0
ARC
  5
7686
330
18
100
AcDbEntity
  8
0
100
AcDbCircle
 10
364.0531199218177
 20
65.63193258263175
 30
0.0
 40
1.75
100
AcDbArc
 50
90.0
 51
270.0
  0
ARC
  5
7687
330
18
100
AcDbEntity
  8
0
100
AcDbCircle
 10
364.0531199218177
 20
78.63193258263175
 30
0.0
 40
1.75
100
AcDbArc
 50
90.0
 51
270.0
  0
ARC
  5
7688
330
18
100
AcDbEntity
  8
0
100
AcDbCircle
 10
364.0531199218177
 20
59.13193258263174
 30
0.0
 40
1.75
100
AcDbArc
 50
90.0
 51
270.0
  0
ARC
  5
7689
330
18
100
AcDbEntity
  8
0
100
AcDbCircle
 10
364.0531199218177
 20
46.13193258263175
 30
0.0
 40
1.75
100
AcDbArc
 50
90.0
 51
270.0
  0
ARC
  5
768A
330
18
100
AcDbEntity
  8
0
100
AcDbCircle
 10
353.5531199218177
 20
59.13193258263174
 30
0.0
 40
1.75
100
AcDbArc
 50
270.0
 51
90.0
  0
ARC
  5
768B
330
18
100
AcDbEntity
  8
0
100
AcDbCircle
 10
353.5531199218177
 20
52.63193258263175
 30
0.0
 40
1.75
100
AcDbArc
 50
270.0
 51
90.0
  0
ARC
  5
768C
330
18
100
AcDbEntity
  8
0
100
AcDbCircle
 10
353.5531199218177
 20
46.13193258263175
 30
0.0
 40
1.75
100
AcDbArc
 50
270.0
 51
90.0
  0
ARC
  5
768D
330
18
100
AcDbEntity
  8
0
100
AcDbCircle
 10
353.5531199218177
 20
72.13193258263174
 30
0.0
 40
1.75
100
AcDbArc
 50
270.0
 51
90.0
  0
ARC
  5
768E
330
18
100
AcDbEntity
  8
0
100
AcDbCircle
 10
353.5531199218177
 20
78.63193258263175
 30
0.0
 40
1.75
100
AcDbArc
 50
270.0
 51
90.0
  0
ARC
  5
768F
330
18
100
AcDbEntity
  8
0
100
AcDbCircle
 10
353.5531199218177
 20
65.63193258263175
 30
0.0
 40
1.75
100
AcDbArc
 50
270.0
 51
90.0
  0
ARC
  5
7690
330
18
100
AcDbEntity
  8
0
100
AcDbCircle
 10
375.5531199218177
 20
59.13193258263174
 30
0.0
 40
1.75
100
AcDbArc
 50
270.0
 51
90.0
  0
LINE
  5
7691
330
18
100
AcDbEntity
  8
0
100
AcDbLine
 10
364.0531199218177
 20
47.88193258263186
 30
0.0
 11
375.5531199218177
 21
47.88193258263174
 31
0.0
  0
LINE
  5
7692
330
18
100
AcDbEntity
  8
0
100
AcDbLine
 10
364.0531199218177
 20
50.88193258263174
 30
0.0
 11
375.5531199218177
 21
50.88193258263174
 31
0.0
  0
LINE
  5
7693
330
18
100
AcDbEntity
  8
0
100
AcDbLine
 10
364.0531199218177
 20
54.38193258263186
 30
0.0
 11
375.5531199218177
 21
54.38193258263175
 31
0.0
  0
LINE
  5
7694
330
18
100
AcDbEntity
  8
0
100
AcDbLine
 10
364.0531199218177
 20
57.38193258263175
 30
0.0
 11
375.5531199218177
 21
57.38193258263175
 31
0.0
  0
LINE
  5
7695
330
18
100
AcDbEntity
  8
0
100
AcDbLine
 10
364.0531199218177
 20
44.38193258263175
 30
0.0
 11
375.5531199218177
 21
44.38193258263175
 31
0.0
  0
LINE
  5
7696
330
18
100
AcDbEntity
  8
0
100
AcDbLine
 10
364.0531199218177
 20
41.38193258263186
 30
0.0
 11
375.5531199218177
 21
41.38193258263174
 31
0.0
  0
ARC
  5
7697
330
18
100
AcDbEntity
  8
0
100
AcDbCircle
 10
375.5531199218177
 20
52.63193258263175
 30
0.0
 40
1.75
100
AcDbArc
 50
270.0
 51
90.0
  0
ARC
  5
7698
330
18
100
AcDbEntity
  8
0
100
AcDbCircle
 10
375.5531199218177
 20
46.13193258263175
 30
0.0
 40
1.75
100
AcDbArc
 50
270.0
 51
90.0
  0
LINE
  5
7699
330
18
100
AcDbEntity
  8
0
100
AcDbLine
 10
364.0531199218177
 20
67.38193258263186
 30
0.0
 11
375.5531199218177
 21
67.38193258263175
 31
0.0
  0
LINE
  5
769A
330
18
100
AcDbEntity
  8
0
100
AcDbLine
 10
364.0531199218177
 20
73.88193258263186
 30
0.0
 11
375.5531199218177
 21
73.88193258263175
 31
0.0
  0
LINE
  5
769B
330
18
100
AcDbEntity
  8
0
100
AcDbLine
 10
364.0531199218177
 20
70.38193258263174
 30
0.0
 11
375.5531199218177
 21
70.38193258263174
 31
0.0
  0
LINE
  5
769C
330
18
100
AcDbEntity
  8
0
100
AcDbLine
 10
364.0531199218177
 20
80.38193258263186
 30
0.0
 11
375.5531199218177
 21
80.38193258263175
 31
0.0
  0
LINE
  5
769D
330
18
100
AcDbEntity
  8
0
100
AcDbLine
 10
364.0531199218177
 20
76.88193258263175
 30
0.0
 11
375.5531199218177
 21
76.88193258263175
 31
0.0
  0
LINE
  5
769E
330
18
100
AcDbEntity
  8
0
100
AcDbLine
 10
364.0531199218177
 20
63.88193258263175
 30
0.0
 11
375.5531199218177
 21
63.88193258263175
 31
0.0
  0
LINE
  5
769F
330
18
100
AcDbEntity
  8
0
100
AcDbLine
 10
364.0531199218177
 20
60.88193258263186
 30
0.0
 11
375.5531199218177
 21
60.88193258263174
 31
0.0
  0
ARC
  5
76A0
330
18
100
AcDbEntity
  8
0
100
AcDbCircle
 10
375.5531199218177
 20
72.13193258263174
 30
0.0
 40
1.75
100
AcDbArc
 50
270.0
 51
90.0
  0
ARC
  5
76A1
330
18
100
AcDbEntity
  8
0
100
AcDbCircle
 10
375.5531199218177
 20
78.63193258263175
 30
0.0
 40
1.75
100
AcDbArc
 50
270.0
 51
90.0
  0
ARC
  5
76A2
330
18
100
AcDbEntity
  8
0
100
AcDbCircle
 10
375.5531199218177
 20
65.63193258263175
 30
0.0
 40
1.75
100
AcDbArc
 50
270.0
 51
90.0
  0
ARC
  5
76A6
330
18
100
AcDbEntity
  8
0
100
AcDbCircle
 10
364.0531199218177
 20
91.63193258263175
 30
0.0
 40
1.75
100
AcDbArc
 50
90.0
 51
270.0
  0
ARC
  5
76A7
330
18
100
AcDbEntity
  8
0
100
AcDbCircle
 10
364.0531199218177
 20
111.1319325826317
 30
0.0
 40
1.75
100
AcDbArc
 50
90.0
 51
270.0
  0
ARC
  5
76A8
330
18
100
AcDbEntity
  8
0
100
AcDbCircle
 10
364.0531199218177
 20
104.6319325826317
 30
0.0
 40
1.75
100
AcDbArc
 50
90.0
 51
270.0
  0
ARC
  5
76A9
330
18
100
AcDbEntity
  8
0
100
AcDbCircle
 10
364.0531199218177
 20
117.6319325826317
 30
0.0
 40
1.75
100
AcDbArc
 50
90.0
 51
270.0
  0
ARC
  5
76AA
330
18
100
AcDbEntity
  8
0
100
AcDbCircle
 10
364.0531199218177
 20
98.13193258263176
 30
0.0
 40
1.75
100
AcDbArc
 50
90.0
 51
270.0
  0
ARC
  5
76AB
330
18
100
AcDbEntity
  8
0
100
AcDbCircle
 10
364.0531199218177
 20
85.13193258263175
 30
0.0
 40
1.75
100
AcDbArc
 50
90.0
 51
270.0
  0
ARC
  5
76AC
330
18
100
AcDbEntity
  8
0
100
AcDbCircle
 10
353.5531199218177
 20
91.63193258263175
 30
0.0
 40
1.75
100
AcDbArc
 50
270.0
 51
90.0
  0
ARC
  5
76AD
330
18
100
AcDbEntity
  8
0
100
AcDbCircle
 10
353.5531199218177
 20
98.13193258263176
 30
0.0
 40
1.75
100
AcDbArc
 50
270.0
 51
90.0
  0
ARC
  5
76AE
330
18
100
AcDbEntity
  8
0
100
AcDbCircle
 10
353.5531199218177
 20
85.13193258263175
 30
0.0
 40
1.75
100
AcDbArc
 50
270.0
 51
90.0
  0
ARC
  5
76AF
330
18
100
AcDbEntity
  8
0
100
AcDbCircle
 10
353.5531199218177
 20
111.1319325826317
 30
0.0
 40
1.75
100
AcDbArc
 50
270.0
 51
90.0
  0
ARC
  5
76B0
330
18
100
AcDbEntity
  8
0
100
AcDbCircle
 10
353.5531199218177
 20
117.6319325826317
 30
0.0
 40
1.75
100
AcDbArc
 50
270.0
 51
90.0
  0
ARC
  5
76B1
330
18
100
AcDbEntity
  8
0
100
AcDbCircle
 10
353.5531199218177
 20
104.6319325826317
 30
0.0
 40
1.75
100
AcDbArc
 50
270.0
 51
90.0
  0
LINE
  5
76B2
330
18
100
AcDbEntity
  8
0
100
AcDbLine
 10
364.0531199218177
 20
86.88193258263186
 30
0.0
 11
375.5531199218177
 21
86.88193258263174
 31
0.0
  0
LINE
  5
76B3
330
18
100
AcDbEntity
  8
0
100
AcDbLine
 10
364.0531199218177
 20
93.38193258263187
 30
0.0
 11
375.5531199218177
 21
93.38193258263174
 31
0.0
  0
LINE
  5
76B4
330
18
100
AcDbEntity
  8
0
100
AcDbLine
 10
364.0531199218177
 20
89.88193258263175
 30
0.0
 11
375.5531199218177
 21
89.88193258263175
 31
0.0
  0
LINE
  5
76B5
330
18
100
AcDbEntity
  8
0
100
AcDbLine
 10
364.0531199218177
 20
99.88193258263187
 30
0.0
 11
375.5531199218177
 21
99.88193258263175
 31
0.0
  0
LINE
  5
76B6
330
18
100
AcDbEntity
  8
0
100
AcDbLine
 10
364.0531199218177
 20
96.38193258263175
 30
0.0
 11
375.5531199218177
 21
96.38193258263175
 31
0.0
  0
LINE
  5
76B7
330
18
100
AcDbEntity
  8
0
100
AcDbLine
 10
364.0531199218177
 20
83.38193258263174
 30
0.0
 11
375.5531199218177
 21
83.38193258263174
 31
0.0
  0
ARC
  5
76B8
330
18
100
AcDbEntity
  8
0
100
AcDbCircle
 10
375.5531199218177
 20
91.63193258263175
 30
0.0
 40
1.75
100
AcDbArc
 50
270.0
 51
90.0
  0
ARC
  5
76B9
330
18
100
AcDbEntity
  8
0
100
AcDbCircle
 10
375.5531199218177
 20
98.13193258263176
 30
0.0
 40
1.75
100
AcDbArc
 50
270.0
 51
90.0
  0
ARC
  5
76BA
330
18
100
AcDbEntity
  8
0
100
AcDbCircle
 10
375.5531199218177
 20
85.13193258263175
 30
0.0
 40
1.75
100
AcDbArc
 50
270.0
 51
90.0
  0
LINE
  5
76BB
330
18
100
AcDbEntity
  8
0
100
AcDbLine
 10
364.0531199218177
 20
106.3819325826318
 30
0.0
 11
375.5531199218177
 21
106.3819325826317
 31
0.0
  0
LINE
  5
76BC
330
18
100
AcDbEntity
  8
0
100
AcDbLine
 10
364.0531199218177
 20
112.8819325826318
 30
0.0
 11
375.5531199218177
 21
112.8819325826317
 31
0.0
  0
LINE
  5
76BD
330
18
100
AcDbEntity
  8
0
100
AcDbLine
 10
364.0531199218177
 20
109.3819325826317
 30
0.0
 11
375.5531199218177
 21
109.3819325826317
 31
0.0
  0
LINE
  5
76BE
330
18
100
AcDbEntity
  8
0
100
AcDbLine
 10
364.0531199218177
 20
119.3819325826318
 30
0.0
 11
375.5531199218177
 21
119.3819325826317
 31
0.0
  0
LINE
  5
76BF
330
18
100
AcDbEntity
  8
0
100
AcDbLine
 10
364.0531199218177
 20
115.8819325826317
 30
0.0
 11
375.5531199218177
 21
115.8819325826317
 31
0.0
  0
LINE
  5
76C0
330
18
100
AcDbEntity
  8
0
100
AcDbLine
 10
364.0531199218177
 20
102.8819325826317
 30
0.0
 11
375.5531199218177
 21
102.8819325826317
 31
0.0
  0
ARC
  5
76C3
330
18
100
AcDbEntity
  8
0
100
AcDbCircle
 10
375.5531199218177
 20
111.1319325826317
 30
0.0
 40
1.75
100
AcDbArc
 50
270.0
 51
90.0
  0
ARC
  5
76C4
330
18
100
AcDbEntity
  8
0
100
AcDbCircle
 10
375.5531199218177
 20
117.6319325826317
 30
0.0
 40
1.75
100
AcDbArc
 50
270.0
 51
90.0
  0
ARC
  5
76C5
330
18
100
AcDbEntity
  8
0
100
AcDbCircle
 10
375.5531199218177
 20
104.6319325826317
 30
0.0
 40
1.75
100
AcDbArc
 50
270.0
 51
90.0
  0
ARC
  5
76C6
330
18
100
AcDbEntity
  8
0
100
AcDbCircle
 10
364.0531199218177
 20
130.6319325826317
 30
0.0
 40
1.75
100
AcDbArc
 50
90.0
 51
270.0
  0
ARC
  5
76C7
330
18
100
AcDbEntity
  8
0
100
AcDbCircle
 10
364.0531199218177
 20
156.6319325826317
 30
0.0
 40
1.75
100
AcDbArc
 50
90.0
 51
270.0
  0
ARC
  5
76C8
330
18
100
AcDbEntity
  8
0
100
AcDbCircle
 10
364.0531199218177
 20
137.1319325826317
 30
0.0
 40
1.75
100
AcDbArc
 50
90.0
 51
270.0
  0
ARC
  5
76C9
330
18
100
AcDbEntity
  8
0
100
AcDbCircle
 10
364.0531199218177
 20
143.6319325826317
 30
0.0
 40
1.75
100
AcDbArc
 50
90.0
 51
270.0
  0
ARC
  5
76CA
330
18
100
AcDbEntity
  8
0
100
AcDbCircle
 10
364.0531199218177
 20
150.1319325826317
 30
0.0
 40
1.75
100
AcDbArc
 50
90.0
 51
270.0
  0
ARC
  5
76CB
330
18
100
AcDbEntity
  8
0
100
AcDbCircle
 10
364.0531199218177
 20
124.1319325826317
 30
0.0
 40
1.75
100
AcDbArc
 50
90.0
 51
270.0
  0
ARC
  5
76CC
330
18
100
AcDbEntity
  8
0
100
AcDbCircle
 10
353.5531199218177
 20
130.6319325826317
 30
0.0
 40
1.75
100
AcDbArc
 50
270.0
 51
90.0
  0
ARC
  5
76CD
330
18
100
AcDbEntity
  8
0
100
AcDbCircle
 10
353.5531199218177
 20
137.1319325826317
 30
0.0
 40
1.75
100
AcDbArc
 50
270.0
 51
90.0
  0
ARC
  5
76CE
330
18
100
AcDbEntity
  8
0
100
AcDbCircle
 10
353.5531199218177
 20
124.1319325826317
 30
0.0
 40
1.75
100
AcDbArc
 50
270.0
 51
90.0
  0
ARC
  5
76CF
330
18
100
AcDbEntity
  8
0
100
AcDbCircle
 10
353.5531199218177
 20
150.1319325826317
 30
0.0
 40
1.75
100
AcDbArc
 50
270.0
 51
90.0
  0
ARC
  5
76D0
330
18
100
AcDbEntity
  8
0
100
AcDbCircle
 10
353.5531199218177
 20
156.6319325826317
 30
0.0
 40
1.75
100
AcDbArc
 50
270.0
 51
90.0
  0
ARC
  5
76D1
330
18
100
AcDbEntity
  8
0
100
AcDbCircle
 10
353.5531199218177
 20
143.6319325826317
 30
0.0
 40
1.75
100
AcDbArc
 50
270.0
 51
90.0
  0
LINE
  5
76D5
330
18
100
AcDbEntity
  8
0
100
AcDbLine
 10
364.0531199218177
 20
132.3819325826318
 30
0.0
 11
375.5531199218177
 21
132.3819325826317
 31
0.0
  0
LINE
  5
76D6
330
18
100
AcDbEntity
  8
0
100
AcDbLine
 10
364.0531199218177
 20
125.8819325826318
 30
0.0
 11
375.5531199218177
 21
125.8819325826317
 31
0.0
  0
LINE
  5
76D7
330
18
100
AcDbEntity
  8
0
100
AcDbLine
 10
364.0531199218177
 20
128.8819325826317
 30
0.0
 11
375.5531199218177
 21
128.8819325826317
 31
0.0
  0
LINE
  5
76D8
330
18
100
AcDbEntity
  8
0
100
AcDbLine
 10
364.0531199218177
 20
138.8819325826318
 30
0.0
 11
375.5531199218177
 21
138.8819325826317
 31
0.0
  0
LINE
  5
76D9
330
18
100
AcDbEntity
  8
0
100
AcDbLine
 10
364.0531199218177
 20
135.3819325826317
 30
0.0
 11
375.5531199218177
 21
135.3819325826317
 31
0.0
  0
LINE
  5
76DA
330
18
100
AcDbEntity
  8
0
100
AcDbLine
 10
364.0531199218177
 20
122.3819325826317
 30
0.0
 11
375.5531199218177
 21
122.3819325826317
 31
0.0
  0
ARC
  5
76DB
330
18
100
AcDbEntity
  8
0
100
AcDbCircle
 10
375.5531199218177
 20
130.6319325826317
 30
0.0
 40
1.75
100
AcDbArc
 50
270.0
 51
90.0
  0
ARC
  5
76DC
330
18
100
AcDbEntity
  8
0
100
AcDbCircle
 10
375.5531199218177
 20
137.1319325826317
 30
0.0
 40
1.75
100
AcDbArc
 50
270.0
 51
90.0
  0
ARC
  5
76DD
330
18
100
AcDbEntity
  8
0
100
AcDbCircle
 10
375.5531199218177
 20
124.1319325826317
 30
0.0
 40
1.75
100
AcDbArc
 50
270.0
 51
90.0
  0
LINE
  5
76DE
330
18
100
AcDbEntity
  8
0
100
AcDbLine
 10
364.0531199218177
 20
145.3819325826318
 30
0.0
 11
375.5531199218177
 21
145.3819325826317
 31
0.0
  0
LINE
  5
76DF
330
18
100
AcDbEntity
  8
0
100
AcDbLine
 10
364.0531199218177
 20
151.8819325826318
 30
0.0
 11
375.5531199218177
 21
151.8819325826317
 31
0.0
  0
LINE
  5
76E0
330
18
100
AcDbEntity
  8
0
100
AcDbLine
 10
364.0531199218177
 20
148.3819325826317
 30
0.0
 11
375.5531199218177
 21
148.3819325826317
 31
0.0
  0
LINE
  5
76E1
330
18
100
AcDbEntity
  8
0
100
AcDbLine
 10
364.0531199218177
 20
154.8819325826317
 30
0.0
 11
375.5531199218177
 21
154.8819325826317
 31
0.0
  0
LINE
  5
76E2
330
18
100
AcDbEntity
  8
0
100
AcDbLine
 10
364.0531199218177
 20
158.3819325826318
 30
0.0
 11
375.5531199218177
 21
158.3819325826317
 31
0.0
  0
LINE
  5
76E3
330
18
100
AcDbEntity
  8
0
100
AcDbLine
 10
364.0531199218177
 20
141.8819325826317
 30
0.0
 11
375.5531199218177
 21
141.8819325826317
 31
0.0
  0
ARC
  5
76E4
330
18
100
AcDbEntity
  8
0
100
AcDbCircle
 10
375.5531199218177
 20
150.1319325826317
 30
0.0
 40
1.75
100
AcDbArc
 50
270.0
 51
90.0
  0
ARC
  5
76E5
330
18
100
AcDbEntity
  8
0
100
AcDbCircle
 10
375.5531199218177
 20
156.6319325826317
 30
0.0
 40
1.75
100
AcDbArc
 50
270.0
 51
90.0
  0
ARC
  5
76E6
330
18
100
AcDbEntity
  8
0
100
AcDbCircle
 10
375.5531199218177
 20
143.6319325826317
 30
0.0
 40
1.75
100
AcDbArc
 50
270.0
 51
90.0
  0
LINE
  5
76E7
330
18
100
AcDbEntity
  8
0
100
AcDbLine
 10
381.3031199218177
 20
244.4838876017026
 30
0.0
 11
384.3031199218177
 21
244.4838876017026
 31
0.0
  0
LINE
  5
76E8
330
18
100
AcDbEntity
  8
0
100
AcDbLine
 10
381.3031199218177
 20
199.3819325826317
 30
0.0
 11
384.3031199218177
 21
199.3819325826317
 31
0.0
  0
ARC
  5
76E9
330
18
100
AcDbEntity
  8
0
100
AcDbCircle
 10
364.0531199218177
 20
169.6319325826317
 30
0.0
 40
1.75
100
AcDbArc
 50
90.0
 51
270.0
  0
ARC
  5
76EA
330
18
100
AcDbEntity
  8
0
100
AcDbCircle
 10
364.0531199218177
 20
176.1319325826317
 30
0.0
 40
1.75
100
AcDbArc
 50
90.0
 51
270.0
  0
ARC
  5
76EB
330
18
100
AcDbEntity
  8
0
100
AcDbCircle
 10
364.0531199218177
 20
163.1319325826317
 30
0.0
 40
1.75
100
AcDbArc
 50
90.0
 51
270.0
  0
ARC
  5
76EC
330
18
100
AcDbEntity
  8
0
100
AcDbCircle
 10
353.5531199218177
 20
169.6319325826317
 30
0.0
 40
1.75
100
AcDbArc
 50
270.0
 51
90.0
  0
ARC
  5
76ED
330
18
100
AcDbEntity
  8
0
100
AcDbCircle
 10
353.5531199218177
 20
176.1319325826317
 30
0.0
 40
1.75
100
AcDbArc
 50
270.0
 51
90.0
  0
ARC
  5
76EE
330
18
100
AcDbEntity
  8
0
100
AcDbCircle
 10
353.5531199218177
 20
163.1319325826317
 30
0.0
 40
1.75
100
AcDbArc
 50
270.0
 51
90.0
  0
LINE
  5
76F2
330
18
100
AcDbEntity
  8
0
100
AcDbLine
 10
364.0531199218177
 20
164.8819325826318
 30
0.0
 11
375.5531199218177
 21
164.8819325826317
 31
0.0
  0
LINE
  5
76F3
330
18
100
AcDbEntity
  8
0
100
AcDbLine
 10
364.0531199218177
 20
167.8819325826317
 30
0.0
 11
375.5531199218177
 21
167.8819325826317
 31
0.0
  0
LINE
  5
76F4
330
18
100
AcDbEntity
  8
0
100
AcDbLine
 10
364.0531199218177
 20
171.3819325826318
 30
0.0
 11
375.5531199218177
 21
171.3819325826317
 31
0.0
  0
LINE
  5
76F5
330
18
100
AcDbEntity
  8
0
100
AcDbLine
 10
364.0531199218177
 20
177.8819325826318
 30
0.0
 11
375.5531199218177
 21
177.8819325826317
 31
0.0
  0
LINE
  5
76F6
330
18
100
AcDbEntity
  8
0
100
AcDbLine
 10
364.0531199218177
 20
174.3819325826317
 30
0.0
 11
375.5531199218177
 21
174.3819325826317
 31
0.0
  0
LINE
  5
76F7
330
18
100
AcDbEntity
  8
0
100
AcDbLine
 10
364.0531199218177
 20
161.3819325826317
 30
0.0
 11
375.5531199218177
 21
161.3819325826317
 31
0.0
  0
ARC
  5
76F8
330
18
100
AcDbEntity
  8
0
100
AcDbCircle
 10
375.5531199218177
 20
169.6319325826317
 30
0.0
 40
1.75
100
AcDbArc
 50
270.0
 51
90.0
  0
ARC
  5
76F9
330
18
100
AcDbEntity
  8
0
100
AcDbCircle
 10
375.5531199218177
 20
176.1319325826317
 30
0.0
 40
1.75
100
AcDbArc
 50
270.0
 51
90.0
  0
ARC
  5
76FA
330
18
100
AcDbEntity
  8
0
100
AcDbCircle
 10
375.5531199218177
 20
163.1319325826317
 30
0.0
 40
1.75
100
AcDbArc
 50
270.0
 51
90.0
  0
LINE
  5
76FE
330
18
100
AcDbEntity
  8
0
100
AcDbLine
 10
363.3031199218176
 20
251.4838876017026
 30
0.0
 11
360.3031199218177
 21
251.4838876017027
 31
0.0
  0
LINE
  5
76FF
330
18
100
AcDbEntity
  8
0
100
AcDbLine
 10
346.8031199218177
 20
251.4838876017026
 30
0.0
 11
343.8031199218177
 21
251.4838876017027
 31
0.0
  0
LINE
  5
7700
330
18
100
AcDbEntity
  8
0
100
AcDbLine
 10
352.3031199218177
 20
251.4838876017026
 30
0.0
 11
349.3031199218177
 21
251.4838876017027
 31
0.0
  0
LINE
  5
7701
330
18
100
AcDbEntity
  8
0
100
AcDbLine
 10
357.8031199218177
 20
251.4838876017026
 30
0.0
 11
354.8031199218177
 21
251.4838876017027
 31
0.0
  0
LINE
  5
7705
330
18
100
AcDbEntity
  8
0
100
AcDbLine
 10
374.3031199218177
 20
251.4838876017026
 30
0.0
 11
371.3031199218177
 21
251.4838876017027
 31
0.0
  0
LINE
  5
7707
330
18
100
AcDbEntity
  8
0
100
AcDbLine
 10
368.8031199218177
 20
251.4838876017026
 30
0.0
 11
365.8031199218177
 21
251.4838876017027
 31
0.0
  0
LINE
  5
770B
330
18
100
AcDbEntity
  8
0
100
AcDbLine
 10
380.3031199218178
 20
249.4838876017026
 30
0.0
 11
381.3031199218177
 21
249.4838876017026
 31
0.0
  0
LINE
  5
770C
330
18
100
AcDbEntity
  8
0
100
AcDbLine
 10
379.3031199218176
 20
245.4838876017026
 30
0.0
 11
381.3031199218177
 21
245.4838876017026
 31
0.0
  0
LINE
  5
770D
330
18
100
AcDbEntity
  8
0
100
AcDbLine
 10
381.3031199218177
 20
249.4838876017026
 30
0.0
 11
381.3031199218177
 21
225.4838876017026
 31
0.0
  0
LINE
  5
770E
330
18
100
AcDbEntity
  8
0
100
AcDbLine
 10
380.3031199218177
 20
249.4838876017026
 30
0.0
 11
380.3031199218176
 21
245.4838876017026
 31
0.0
  0
LINE
  5
770F
330
18
100
AcDbEntity
  8
0
100
AcDbLine
 10
381.3031199218178
 20
300.4838876017026
 30
0.0
 11
225.3031199218177
 21
300.4838876017025
 31
0.0
  0
LINE
  5
7710
330
18
100
AcDbEntity
  8
0
100
AcDbLine
 10
381.3031199218177
 20
297.4838876017027
 30
0.0
 11
313.3031199218176
 21
297.4838876017027
 31
0.0
  0
LINE
  5
7713
330
18
100
AcDbEntity
  8
0
100
AcDbLine
 10
232.3031199218178
 20
300.4838876017014
 30
0.0
 11
384.3031199218173
 21
300.4838876017014
 31
0.0
  0
LINE
  5
7714
330
18
100
AcDbEntity
  8
0
100
AcDbLine
 10
334.3031199218177
 20
307.4838876017014
 30
0.0
 11
344.8518516388875
 21
307.4838876017014
 31
0.0
  0
LINE
  5
7715
330
18
100
AcDbEntity
  8
0
100
AcDbLine
 10
356.3031199218178
 20
295.4838876017026
 30
0.0
 11
250.3031199218177
 21
295.4838876017026
 31
0.0
  0
LINE
  5
7716
330
18
100
AcDbEntity
  8
0
100
AcDbLine
 10
293.3031199218177
 20
297.4838876017027
 30
0.0
 11
225.3031199218177
 21
297.4838876017025
 31
0.0
  0
LINE
  5
7717
330
18
100
AcDbEntity
  8
0
100
AcDbLine
 10
259.3031199218177
 20
307.4838876017014
 30
0.0
 11
269.8518516388876
 21
307.4838876017014
 31
0.0
  0
LINE
  5
7718
330
18
100
AcDbEntity
  8
0
100
AcDbLine
 10
232.3031199218176
 20
332.7338876017012
 30
0.0
 11
232.3031199218178
 21
300.4838876017014
 31
0.0
  0
LINE
  5
7719
330
18
100
AcDbEntity
  8
0
100
AcDbLine
 10
242.3031199218177
 20
292.4838876017026
 30
0.0
 11
239.3031199218177
 21
292.4838876017026
 31
0.0
  0
LINE
  5
771A
330
18
100
AcDbEntity
  8
0
100
AcDbLine
 10
242.3031199218177
 20
268.4838876017026
 30
0.0
 11
239.3031199218177
 21
268.4838876017026
 31
0.0
  0
LINE
  5
771B
330
18
100
AcDbEntity
  8
0
100
AcDbLine
 10
242.3031199218177
 20
275.4838876017026
 30
0.0
 11
239.3031199218177
 21
275.4838876017026
 31
0.0
  0
LINE
  5
771C
330
18
100
AcDbEntity
  8
0
100
AcDbLine
 10
240.3031199218178
 20
297.4838876017027
 30
0.0
 11
250.3031199218177
 21
297.4838876017027
 31
0.0
  0
LINE
  5
7722
330
18
100
AcDbEntity
  8
0
100
AcDbLine
 10
236.8031199218177
 20
275.4838876017026
 30
0.0
 11
236.8031199218177
 21
292.4838876017026
 31
0.0
  0
LINE
  5
7723
330
18
100
AcDbEntity
  8
0
100
AcDbLine
 10
233.8031199218177
 20
275.4838876017026
 30
0.0
 11
233.8031199218177
 21
292.4838876017026
 31
0.0
  0
LINE
  5
7724
330
18
100
AcDbEntity
  8
0
100
AcDbLine
 10
239.3031199218177
 20
275.4838876017026
 30
0.0
 11
239.3031199218177
 21
292.4838876017026
 31
0.0
  0
LINE
  5
772C
330
18
100
AcDbEntity
  8
0
100
AcDbLine
 10
236.8031199218177
 20
268.4838876017026
 30
0.0
 11
233.8031199218177
 21
268.4838876017026
 31
0.0
  0
LINE
  5
772D
330
18
100
AcDbEntity
  8
0
100
AcDbLine
 10
236.8031199218177
 20
275.4838876017026
 30
0.0
 11
233.8031199218177
 21
275.4838876017026
 31
0.0
  0
LINE
  5
772E
330
18
100
AcDbEntity
  8
0
100
AcDbLine
 10
240.3031199218176
 20
295.4838876017026
 30
0.0
 11
227.3031199218177
 21
295.4838876017026
 31
0.0
  0
ARC
  5
7730
330
18
100
AcDbEntity
  8
0
100
AcDbCircle
 10
225.3031199218177
 20
297.4838876017025
 30
0.0
 40
3.0
100
AcDbArc
 50
90.0
 51
180.0
  0
LINE
  5
7732
330
18
100
AcDbEntity
  8
0
100
AcDbLine
 10
236.8031199218177
 20
292.4838876017026
 30
0.0
 11
233.8031199218177
 21
292.4838876017026
 31
0.0
  0
LINE
  5
7733
330
18
100
AcDbEntity
  8
0
100
AcDbLine
 10
240.3031199218176
 20
297.4838876017027
 30
0.0
 11
240.3031199218176
 21
295.4838876017026
 31
0.0
  0
LINE
  5
7734
330
18
100
AcDbEntity
  8
0
100
AcDbLine
 10
253.3031199218177
 20
275.4838876017026
 30
0.0
 11
253.3031199218177
 21
292.4838876017026
 31
0.0
  0
LINE
  5
7735
330
18
100
AcDbEntity
  8
0
100
AcDbLine
 10
250.3031199218177
 20
275.4838876017026
 30
0.0
 11
250.3031199218177
 21
292.4838876017026
 31
0.0
  0
LINE
  5
7736
330
18
100
AcDbEntity
  8
0
100
AcDbLine
 10
247.8031199218177
 20
275.4838876017026
 30
0.0
 11
247.8031199218177
 21
292.4838876017026
 31
0.0
  0
LINE
  5
7737
330
18
100
AcDbEntity
  8
0
100
AcDbLine
 10
244.8031199218177
 20
275.4838876017026
 30
0.0
 11
244.8031199218177
 21
292.4838876017026
 31
0.0
  0
LINE
  5
7738
330
18
100
AcDbEntity
  8
0
100
AcDbLine
 10
242.3031199218177
 20
275.4838876017026
 30
0.0
 11
242.3031199218177
 21
292.4838876017026
 31
0.0
  0
LINE
  5
7739
330
18
100
AcDbEntity
  8
0
100
AcDbLine
 10
258.8031199218177
 20
275.4838876017026
 30
0.0
 11
258.8031199218177
 21
292.4838876017026
 31
0.0
  0
LINE
  5
773A
330
18
100
AcDbEntity
  8
0
100
AcDbLine
 10
255.8031199218177
 20
275.4838876017026
 30
0.0
 11
255.8031199218177
 21
292.4838876017026
 31
0.0
  0
LINE
  5
773B
330
18
100
AcDbEntity
  8
0
100
AcDbLine
 10
253.3031199218177
 20
268.4838876017026
 30
0.0
 11
250.3031199218177
 21
268.4838876017026
 31
0.0
  0
LINE
  5
773C
330
18
100
AcDbEntity
  8
0
100
AcDbLine
 10
253.3031199218177
 20
275.4838876017026
 30
0.0
 11
250.3031199218177
 21
275.4838876017026
 31
0.0
  0
LINE
  5
773D
330
18
100
AcDbEntity
  8
0
100
AcDbLine
 10
247.8031199218177
 20
268.4838876017026
 30
0.0
 11
244.8031199218177
 21
268.4838876017026
 31
0.0
  0
LINE
  5
773E
330
18
100
AcDbEntity
  8
0
100
AcDbLine
 10
247.8031199218177
 20
275.4838876017026
 30
0.0
 11
244.8031199218177
 21
275.4838876017026
 31
0.0
  0
LINE
  5
773F
330
18
100
AcDbEntity
  8
0
100
AcDbLine
 10
258.8031199218177
 20
268.4838876017026
 30
0.0
 11
255.8031199218177
 21
268.4838876017026
 31
0.0
  0
LINE
  5
7740
330
18
100
AcDbEntity
  8
0
100
AcDbLine
 10
258.8031199218177
 20
275.4838876017026
 30
0.0
 11
255.8031199218177
 21
275.4838876017026
 31
0.0
  0
LINE
  5
7741
330
18
100
AcDbEntity
  8
0
100
AcDbLine
 10
253.3031199218177
 20
292.4838876017026
 30
0.0
 11
250.3031199218177
 21
292.4838876017026
 31
0.0
  0
LINE
  5
7742
330
18
100
AcDbEntity
  8
0
100
AcDbLine
 10
247.8031199218177
 20
292.4838876017026
 30
0.0
 11
244.8031199218177
 21
292.4838876017026
 31
0.0
  0
LINE
  5
7743
330
18
100
AcDbEntity
  8
0
100
AcDbLine
 10
250.3031199218177
 20
297.4838876017027
 30
0.0
 11
250.3031199218177
 21
295.4838876017026
 31
0.0
  0
LINE
  5
7744
330
18
100
AcDbEntity
  8
0
100
AcDbLine
 10
258.8031199218177
 20
292.4838876017026
 30
0.0
 11
255.8031199218177
 21
292.4838876017026
 31
0.0
  0
LINE
  5
7745
330
18
100
AcDbEntity
  8
0
100
AcDbLine
 10
234.3031199218177
 20
307.4838876017014
 30
0.0
 11
244.8518516388876
 21
307.4838876017014
 31
0.0
  0
LINE
  5
7746
330
18
100
AcDbEntity
  8
0
100
AcDbLine
 10
234.3031199218177
 20
307.4838876017014
 30
0.0
 11
234.0531199218175
 21
332.7338876017014
 31
0.0
  0
ARC
  5
7747
330
18
100
AcDbEntity
  8
0
100
AcDbCircle
 10
233.1781199218176
 20
332.5984709350349
 30
0.0
 40
0.8854166666665937
100
AcDbArc
 50
8.797410709984804
 51
171.2025892900136
  0
LINE
  5
7748
330
18
100
AcDbEntity
  8
0
100
AcDbLine
 10
246.8031199218177
 20
307.4838876017014
 30
0.0
 11
246.5531199218175
 21
332.7338876017014
 31
0.0
  0
LINE
  5
7749
330
18
100
AcDbEntity
  8
0
100
AcDbLine
 10
244.8518516388876
 20
307.4838876017014
 30
0.0
 11
245.0531199218175
 21
332.7338876017014
 31
0.0
  0
LINE
  5
774A
330
18
100
AcDbEntity
  8
0
100
AcDbLine
 10
257.3518516388876
 20
307.4838876017014
 30
0.0
 11
257.5531199218175
 21
332.7338876017014
 31
0.0
  0
LINE
  5
774B
330
18
100
AcDbEntity
  8
0
100
AcDbLine
 10
259.3031199218177
 20
307.4838876017014
 30
0.0
 11
259.0531199218175
 21
332.7338876017014
 31
0.0
  0
LINE
  5
774C
330
18
100
AcDbEntity
  8
0
100
AcDbLine
 10
246.8031199218177
 20
307.4838876017014
 30
0.0
 11
257.3518516388876
 21
307.4838876017014
 31
0.0
  0
ARC
  5
774D
330
18
100
AcDbEntity
  8
0
100
AcDbCircle
 10
245.8031199218176
 20
332.7338876017014
 30
0.0
 40
0.75
100
AcDbArc
 50
0.0
 51
180.0
  0
ARC
  5
774E
330
18
100
AcDbEntity
  8
0
100
AcDbCircle
 10
258.3031199218176
 20
332.7338876017014
 30
0.0
 40
0.75
100
AcDbArc
 50
0.0
 51
180.0
  0
CIRCLE
  5
774F
330
18
100
AcDbEntity
  8
0
 48
0.4
100
AcDbCircle
 10
303.3031199218177
 20
290.9838876017026
 30
0.0
 40
3.0
  0
LINE
  5
7751
330
18
100
AcDbEntity
  8
0
100
AcDbLine
 10
296.8031199218177
 20
307.4838876017014
 30
0.0
 11
307.3518516388876
 21
307.4838876017014
 31
0.0
  0
LINE
  5
7752
330
18
100
AcDbEntity
  8
0
100
AcDbLine
 10
302.8031199218176
 20
275.4838876017026
 30
0.0
 11
299.8031199218177
 21
275.4838876017026
 31
0.0
  0
LINE
  5
7753
330
18
100
AcDbEntity
  8
0
100
AcDbLine
 10
302.8031199218178
 20
285.4838876017026
 30
0.0
 11
299.8031199218178
 21
285.4838876017026
 31
0.0
  0
LINE
  5
7754
330
18
100
AcDbEntity
  8
0
100
AcDbLine
 10
301.366628248714
 20
291.4838876017027
 30
0.0
 11
302.8031199218176
 21
291.4838876017027
 31
0.0
  0
LINE
  5
7755
330
18
100
AcDbEntity
  8
0
100
AcDbLine
 10
301.366628248714
 20
290.4838876017027
 30
0.0
 11
302.8031199218176
 21
290.4838876017027
 31
0.0
  0
CIRCLE
  5
7756
330
18
100
AcDbEntity
  8
0
100
AcDbCircle
 10
303.3031199218177
 20
290.9838876017026
 30
0.0
 40
3.0
  0
LINE
  5
7757
330
18
100
AcDbEntity
  8
0
100
AcDbLine
 10
277.8031199218176
 20
275.4838876017026
 30
0.0
 11
277.8031199218176
 21
292.4838876017026
 31
0.0
  0
LINE
  5
7758
330
18
100
AcDbEntity
  8
0
100
AcDbLine
 10
275.3031199218177
 20
275.4838876017026
 30
0.0
 11
275.3031199218177
 21
292.4838876017026
 31
0.0
  0
LINE
  5
7759
330
18
100
AcDbEntity
  8
0
100
AcDbLine
 10
272.3031199218177
 20
275.4838876017026
 30
0.0
 11
272.3031199218177
 21
292.4838876017026
 31
0.0
  0
LINE
  5
775A
330
18
100
AcDbEntity
  8
0
100
AcDbLine
 10
264.3031199218177
 20
275.4838876017026
 30
0.0
 11
264.3031199218177
 21
292.4838876017026
 31
0.0
  0
LINE
  5
775B
330
18
100
AcDbEntity
  8
0
100
AcDbLine
 10
261.3031199218176
 20
275.4838876017026
 30
0.0
 11
261.3031199218176
 21
292.4838876017026
 31
0.0
  0
LINE
  5
775C
330
18
100
AcDbEntity
  8
0
100
AcDbLine
 10
266.8031199218177
 20
275.4838876017026
 30
0.0
 11
266.8031199218177
 21
292.4838876017026
 31
0.0
  0
LINE
  5
775D
330
18
100
AcDbEntity
  8
0
100
AcDbLine
 10
269.8031199218177
 20
275.4838876017026
 30
0.0
 11
269.8031199218177
 21
292.4838876017026
 31
0.0
  0
LINE
  5
775E
330
18
100
AcDbEntity
  8
0
100
AcDbLine
 10
280.8031199218177
 20
275.4838876017026
 30
0.0
 11
280.8031199218177
 21
292.4838876017026
 31
0.0
  0
LINE
  5
775F
330
18
100
AcDbEntity
  8
0
100
AcDbLine
 10
269.8031199218177
 20
275.4838876017026
 30
0.0
 11
266.8031199218177
 21
275.4838876017026
 31
0.0
  0
LINE
  5
7760
330
18
100
AcDbEntity
  8
0
100
AcDbLine
 10
264.3031199218177
 20
268.4838876017027
 30
0.0
 11
261.3031199218176
 21
268.4838876017027
 31
0.0
  0
LINE
  5
7761
330
18
100
AcDbEntity
  8
0
100
AcDbLine
 10
264.3031199218177
 20
275.4838876017026
 30
0.0
 11
261.3031199218176
 21
275.4838876017026
 31
0.0
  0
LINE
  5
7762
330
18
100
AcDbEntity
  8
0
100
AcDbLine
 10
280.8031199218177
 20
275.4838876017026
 30
0.0
 11
277.8031199218176
 21
275.4838876017026
 31
0.0
  0
LINE
  5
7763
330
18
100
AcDbEntity
  8
0
100
AcDbLine
 10
275.3031199218177
 20
275.4838876017026
 30
0.0
 11
272.3031199218177
 21
275.4838876017026
 31
0.0
  0
LINE
  5
7764
330
18
100
AcDbEntity
  8
0
100
AcDbLine
 10
269.8031199218177
 20
292.4838876017026
 30
0.0
 11
266.8031199218177
 21
292.4838876017026
 31
0.0
  0
LINE
  5
7765
330
18
100
AcDbEntity
  8
0
100
AcDbLine
 10
264.3031199218177
 20
292.4838876017026
 30
0.0
 11
261.3031199218176
 21
292.4838876017026
 31
0.0
  0
LINE
  5
7766
330
18
100
AcDbEntity
  8
0
100
AcDbLine
 10
280.8031199218177
 20
292.4838876017026
 30
0.0
 11
277.8031199218176
 21
292.4838876017026
 31
0.0
  0
LINE
  5
7767
330
18
100
AcDbEntity
  8
0
100
AcDbLine
 10
275.3031199218177
 20
292.4838876017026
 30
0.0
 11
272.3031199218177
 21
292.4838876017026
 31
0.0
  0
LINE
  5
7768
330
18
100
AcDbEntity
  8
0
100
AcDbLine
 10
294.3031199218177
 20
275.4838876017027
 30
0.0
 11
294.3031199218177
 21
285.4838876017027
 31
0.0
  0
LINE
  5
7769
330
18
100
AcDbEntity
  8
0
100
AcDbLine
 10
297.3031199218177
 20
275.4838876017027
 30
0.0
 11
297.3031199218177
 21
285.4838876017027
 31
0.0
  0
LINE
  5
776A
330
18
100
AcDbEntity
  8
0
100
AcDbLine
 10
299.8031199218177
 20
275.4838876017026
 30
0.0
 11
299.8031199218177
 21
285.4838876017026
 31
0.0
  0
LINE
  5
776B
330
18
100
AcDbEntity
  8
0
100
AcDbLine
 10
291.8031199218177
 20
275.4838876017026
 30
0.0
 11
291.8031199218177
 21
292.4838876017026
 31
0.0
  0
LINE
  5
776C
330
18
100
AcDbEntity
  8
0
100
AcDbLine
 10
288.8031199218177
 20
275.4838876017026
 30
0.0
 11
288.8031199218177
 21
292.4838876017026
 31
0.0
  0
LINE
  5
776D
330
18
100
AcDbEntity
  8
0
100
AcDbLine
 10
286.3031199218177
 20
275.4838876017026
 30
0.0
 11
286.3031199218177
 21
292.4838876017026
 31
0.0
  0
LINE
  5
776E
330
18
100
AcDbEntity
  8
0
100
AcDbLine
 10
283.3031199218177
 20
275.4838876017026
 30
0.0
 11
283.3031199218177
 21
292.4838876017026
 31
0.0
  0
LINE
  5
776F
330
18
100
AcDbEntity
  8
0
100
AcDbLine
 10
291.8031199218177
 20
275.4838876017026
 30
0.0
 11
288.8031199218177
 21
275.4838876017026
 31
0.0
  0
LINE
  5
7770
330
18
100
AcDbEntity
  8
0
100
AcDbLine
 10
286.3031199218177
 20
275.4838876017026
 30
0.0
 11
283.3031199218177
 21
275.4838876017026
 31
0.0
  0
LINE
  5
7771
330
18
100
AcDbEntity
  8
0
100
AcDbLine
 10
297.3031199218177
 20
275.4838876017026
 30
0.0
 11
294.3031199218177
 21
275.4838876017027
 31
0.0
  0
LINE
  5
7772
330
18
100
AcDbEntity
  8
0
100
AcDbLine
 10
291.8031199218177
 20
292.4838876017026
 30
0.0
 11
288.8031199218177
 21
292.4838876017026
 31
0.0
  0
LINE
  5
7773
330
18
100
AcDbEntity
  8
0
100
AcDbLine
 10
286.3031199218177
 20
292.4838876017026
 30
0.0
 11
283.3031199218177
 21
292.4838876017026
 31
0.0
  0
LINE
  5
7774
330
18
100
AcDbEntity
  8
0
100
AcDbLine
 10
291.3031199218177
 20
300.4838876017026
 30
0.0
 11
291.3031199218177
 21
297.4838876017027
 31
0.0
  0
LINE
  5
7775
330
18
100
AcDbEntity
  8
0
100
AcDbLine
 10
301.366628248714
 20
290.4838876017027
 30
0.0
 11
301.366628248714
 21
291.4838876017027
 31
0.0
  0
LINE
  5
7776
330
18
100
AcDbEntity
  8
0
100
AcDbLine
 10
297.3031199218178
 20
285.4838876017027
 30
0.0
 11
294.3031199218178
 21
285.4838876017027
 31
0.0
  0
LINE
  5
7777
330
18
100
AcDbEntity
  8
0
100
AcDbLine
 10
293.3031199218177
 20
300.4838876017026
 30
0.0
 11
293.3031199218177
 21
295.4838876017026
 31
0.0
  0
LINE
  5
7778
330
18
100
AcDbEntity
  8
0
100
AcDbLine
 10
271.8031199218177
 20
307.4838876017014
 30
0.0
 11
282.3518516388876
 21
307.4838876017014
 31
0.0
  0
LINE
  5
7779
330
18
100
AcDbEntity
  8
0
100
AcDbLine
 10
271.8031199218177
 20
307.4838876017014
 30
0.0
 11
271.5531199218175
 21
332.7338876017014
 31
0.0
  0
LINE
  5
777A
330
18
100
AcDbEntity
  8
0
100
AcDbLine
 10
269.8518516388876
 20
307.4838876017014
 30
0.0
 11
270.0531199218175
 21
332.7338876017014
 31
0.0
  0
ARC
  5
777B
330
18
100
AcDbEntity
  8
0
100
AcDbCircle
 10
270.8031199218176
 20
332.7338876017014
 30
0.0
 40
0.75
100
AcDbArc
 50
0.0
 51
180.0
  0
LINE
  5
777C
330
18
100
AcDbEntity
  8
0
100
AcDbLine
 10
284.3031199218177
 20
307.4838876017014
 30
0.0
 11
284.0531199218175
 21
332.7338876017014
 31
0.0
  0
LINE
  5
777D
330
18
100
AcDbEntity
  8
0
100
AcDbLine
 10
282.3518516388876
 20
307.4838876017014
 30
0.0
 11
282.5531199218175
 21
332.7338876017014
 31
0.0
  0
LINE
  5
777E
330
18
100
AcDbEntity
  8
0
100
AcDbLine
 10
294.8518516388876
 20
307.4838876017014
 30
0.0
 11
295.0531199218175
 21
332.7338876017014
 31
0.0
  0
LINE
  5
777F
330
18
100
AcDbEntity
  8
0
100
AcDbLine
 10
296.8031199218177
 20
307.4838876017014
 30
0.0
 11
296.5531199218175
 21
332.7338876017014
 31
0.0
  0
LINE
  5
7780
330
18
100
AcDbEntity
  8
0
100
AcDbLine
 10
284.3031199218176
 20
307.4838876017014
 30
0.0
 11
294.8518516388876
 21
307.4838876017014
 31
0.0
  0
ARC
  5
7781
330
18
100
AcDbEntity
  8
0
100
AcDbCircle
 10
283.3031199218176
 20
332.7338876017014
 30
0.0
 40
0.75
100
AcDbArc
 50
0.0
 51
180.0
  0
ARC
  5
7782
330
18
100
AcDbEntity
  8
0
100
AcDbCircle
 10
295.8031199218176
 20
332.7338876017014
 30
0.0
 40
0.75
100
AcDbArc
 50
0.0
 51
180.0
  0
LINE
  5
7783
330
18
100
AcDbEntity
  8
0
100
AcDbLine
 10
324.8031199218177
 20
292.4838876017026
 30
0.0
 11
321.8031199218177
 21
292.4838876017026
 31
0.0
  0
LINE
  5
7784
330
18
100
AcDbEntity
  8
0
100
AcDbLine
 10
324.8031199218177
 20
268.4838876017026
 30
0.0
 11
321.8031199218177
 21
268.4838876017026
 31
0.0
  0
LINE
  5
7785
330
18
100
AcDbEntity
  8
0
100
AcDbLine
 10
324.8031199218177
 20
275.4838876017026
 30
0.0
 11
321.8031199218177
 21
275.4838876017026
 31
0.0
  0
LINE
  5
7786
330
18
100
AcDbEntity
  8
0
100
AcDbLine
 10
313.8031199218177
 20
275.4838876017026
 30
0.0
 11
313.8031199218177
 21
285.4838876017026
 31
0.0
  0
LINE
  5
7787
330
18
100
AcDbEntity
  8
0
100
AcDbLine
 10
310.8031199218177
 20
275.4838876017026
 30
0.0
 11
310.8031199218177
 21
285.4838876017026
 31
0.0
  0
LINE
  5
7788
330
18
100
AcDbEntity
  8
0
100
AcDbLine
 10
308.3031199218177
 20
275.4838876017026
 30
0.0
 11
308.3031199218177
 21
285.4838876017026
 31
0.0
  0
LINE
  5
7789
330
18
100
AcDbEntity
  8
0
100
AcDbLine
 10
305.3031199218177
 20
275.4838876017026
 30
0.0
 11
305.3031199218177
 21
285.4838876017026
 31
0.0
  0
LINE
  5
778A
330
18
100
AcDbEntity
  8
0
100
AcDbLine
 10
302.8031199218176
 20
275.4838876017026
 30
0.0
 11
302.8031199218176
 21
285.4838876017026
 31
0.0
  0
LINE
  5
778B
330
18
100
AcDbEntity
  8
0
100
AcDbLine
 10
321.8031199218177
 20
275.4838876017026
 30
0.0
 11
321.8031199218177
 21
292.4838876017026
 31
0.0
  0
LINE
  5
778C
330
18
100
AcDbEntity
  8
0
100
AcDbLine
 10
319.3031199218177
 20
275.4838876017026
 30
0.0
 11
319.3031199218177
 21
292.4838876017026
 31
0.0
  0
LINE
  5
778D
330
18
100
AcDbEntity
  8
0
100
AcDbLine
 10
316.3031199218177
 20
275.4838876017026
 30
0.0
 11
316.3031199218177
 21
292.4838876017026
 31
0.0
  0
LINE
  5
778E
330
18
100
AcDbEntity
  8
0
100
AcDbLine
 10
313.8031199218177
 20
275.4838876017026
 30
0.0
 11
310.8031199218177
 21
275.4838876017026
 31
0.0
  0
LINE
  5
778F
330
18
100
AcDbEntity
  8
0
100
AcDbLine
 10
313.8031199218177
 20
268.4838876017026
 30
0.0
 11
310.8031199218177
 21
268.4838876017026
 31
0.0
  0
LINE
  5
7790
330
18
100
AcDbEntity
  8
0
100
AcDbLine
 10
308.3031199218177
 20
268.4838876017026
 30
0.0
 11
305.3031199218177
 21
268.4838876017026
 31
0.0
  0
LINE
  5
7791
330
18
100
AcDbEntity
  8
0
100
AcDbLine
 10
308.3031199218177
 20
275.4838876017026
 30
0.0
 11
305.3031199218177
 21
275.4838876017026
 31
0.0
  0
LINE
  5
7792
330
18
100
AcDbEntity
  8
0
100
AcDbLine
 10
319.3031199218177
 20
268.4838876017026
 30
0.0
 11
316.3031199218177
 21
268.4838876017026
 31
0.0
  0
LINE
  5
7793
330
18
100
AcDbEntity
  8
0
100
AcDbLine
 10
319.3031199218177
 20
275.4838876017026
 30
0.0
 11
316.3031199218177
 21
275.4838876017026
 31
0.0
  0
LINE
  5
7794
330
18
100
AcDbEntity
  8
0
100
AcDbLine
 10
313.8031199218178
 20
285.4838876017026
 30
0.0
 11
310.8031199218178
 21
285.4838876017026
 31
0.0
  0
LINE
  5
7796
330
18
100
AcDbEntity
  8
0
100
AcDbLine
 10
302.8031199218176
 20
291.4838876017027
 30
0.0
 11
302.8031199218176
 21
292.9203792748064
 31
0.0
  0
LINE
  5
7797
330
18
100
AcDbEntity
  8
0
100
AcDbLine
 10
303.8031199218177
 20
291.4838876017027
 30
0.0
 11
305.2396115949213
 21
291.4838876017027
 31
0.0
  0
LINE
  5
7798
330
18
100
AcDbEntity
  8
0
100
AcDbLine
 10
303.8031199218177
 20
290.4838876017027
 30
0.0
 11
305.2396115949213
 21
290.4838876017027
 31
0.0
  0
LINE
  5
7799
330
18
100
AcDbEntity
  8
0
100
AcDbLine
 10
303.8031199218177
 20
291.4838876017027
 30
0.0
 11
303.8031199218177
 21
292.9203792748064
 31
0.0
  0
LINE
  5
779A
330
18
100
AcDbEntity
  8
0
100
AcDbLine
 10
305.2396115949213
 20
291.4838876017027
 30
0.0
 11
305.2396115949213
 21
290.4838876017027
 31
0.0
  0
LINE
  5
779B
330
18
100
AcDbEntity
  8
0
100
AcDbLine
 10
302.8031199218176
 20
292.9203792748064
 30
0.0
 11
303.8031199218177
 21
292.9203792748064
 31
0.0
  0
LINE
  5
779C
330
18
100
AcDbEntity
  8
0
100
AcDbLine
 10
303.8031199218177
 20
289.0473959285989
 30
0.0
 11
302.8031199218176
 21
289.0473959285989
 31
0.0
  0
LINE
  5
779D
330
18
100
AcDbEntity
  8
0
100
AcDbLine
 10
302.8031199218176
 20
289.0473959285989
 30
0.0
 11
302.8031199218176
 21
290.4838876017027
 31
0.0
  0
LINE
  5
779E
330
18
100
AcDbEntity
  8
0
100
AcDbLine
 10
303.8031199218177
 20
289.0473959285989
 30
0.0
 11
303.8031199218177
 21
290.4838876017027
 31
0.0
  0
LINE
  5
779F
330
18
100
AcDbEntity
  8
0
100
AcDbLine
 10
308.3031199218178
 20
285.4838876017026
 30
0.0
 11
305.3031199218178
 21
285.4838876017026
 31
0.0
  0
LINE
  5
77A0
330
18
100
AcDbEntity
  8
0
100
AcDbLine
 10
319.3031199218177
 20
292.4838876017026
 30
0.0
 11
316.3031199218177
 21
292.4838876017026
 31
0.0
  0
LINE
  5
77A1
330
18
100
AcDbEntity
  8
0
100
AcDbLine
 10
315.3031199218176
 20
300.4838876017026
 30
0.0
 11
315.3031199218176
 21
297.4838876017027
 31
0.0
  0
LINE
  5
77A2
330
18
100
AcDbEntity
  8
0
100
AcDbLine
 10
313.3031199218176
 20
300.4838876017026
 30
0.0
 11
313.3031199218177
 21
295.4838876017026
 31
0.0
  0
LINE
  5
77A3
330
18
100
AcDbEntity
  8
0
100
AcDbLine
 10
324.8031199218177
 20
275.4838876017026
 30
0.0
 11
324.8031199218177
 21
292.4838876017026
 31
0.0
  0
LINE
  5
77A4
330
18
100
AcDbEntity
  8
0
100
AcDbLine
 10
341.3031199218177
 20
275.4838876017026
 30
0.0
 11
341.3031199218177
 21
292.4838876017026
 31
0.0
  0
LINE
  5
77A5
330
18
100
AcDbEntity
  8
0
100
AcDbLine
 10
338.3031199218176
 20
275.4838876017026
 30
0.0
 11
338.3031199218176
 21
292.4838876017026
 31
0.0
  0
LINE
  5
77A6
330
18
100
AcDbEntity
  8
0
100
AcDbLine
 10
335.8031199218177
 20
275.4838876017026
 30
0.0
 11
335.8031199218177
 21
292.4838876017026
 31
0.0
  0
LINE
  5
77A7
330
18
100
AcDbEntity
  8
0
100
AcDbLine
 10
332.8031199218177
 20
275.4838876017026
 30
0.0
 11
332.8031199218177
 21
292.4838876017026
 31
0.0
  0
LINE
  5
77A8
330
18
100
AcDbEntity
  8
0
100
AcDbLine
 10
330.3031199218177
 20
275.4838876017026
 30
0.0
 11
330.3031199218177
 21
292.4838876017026
 31
0.0
  0
LINE
  5
77A9
330
18
100
AcDbEntity
  8
0
100
AcDbLine
 10
327.3031199218177
 20
275.4838876017026
 30
0.0
 11
327.3031199218177
 21
292.4838876017026
 31
0.0
  0
LINE
  5
77AA
330
18
100
AcDbEntity
  8
0
100
AcDbLine
 10
330.3031199218177
 20
268.4838876017026
 30
0.0
 11
327.3031199218177
 21
268.4838876017026
 31
0.0
  0
LINE
  5
77AB
330
18
100
AcDbEntity
  8
0
100
AcDbLine
 10
330.3031199218177
 20
275.4838876017026
 30
0.0
 11
327.3031199218177
 21
275.4838876017026
 31
0.0
  0
LINE
  5
77AC
330
18
100
AcDbEntity
  8
0
100
AcDbLine
 10
335.8031199218177
 20
268.4838876017026
 30
0.0
 11
332.8031199218177
 21
268.4838876017026
 31
0.0
  0
LINE
  5
77AD
330
18
100
AcDbEntity
  8
0
100
AcDbLine
 10
335.8031199218177
 20
275.4838876017026
 30
0.0
 11
332.8031199218177
 21
275.4838876017026
 31
0.0
  0
LINE
  5
77AE
330
18
100
AcDbEntity
  8
0
100
AcDbLine
 10
341.3031199218177
 20
268.4838876017026
 30
0.0
 11
338.3031199218176
 21
268.4838876017026
 31
0.0
  0
LINE
  5
77AF
330
18
100
AcDbEntity
  8
0
100
AcDbLine
 10
341.3031199218177
 20
275.4838876017026
 30
0.0
 11
338.3031199218176
 21
275.4838876017026
 31
0.0
  0
LINE
  5
77B0
330
18
100
AcDbEntity
  8
0
100
AcDbLine
 10
330.3031199218177
 20
292.4838876017026
 30
0.0
 11
327.3031199218177
 21
292.4838876017026
 31
0.0
  0
LINE
  5
77B1
330
18
100
AcDbEntity
  8
0
100
AcDbLine
 10
335.8031199218177
 20
292.4838876017026
 30
0.0
 11
332.8031199218177
 21
292.4838876017026
 31
0.0
  0
LINE
  5
77B2
330
18
100
AcDbEntity
  8
0
100
AcDbLine
 10
341.3031199218177
 20
292.4838876017026
 30
0.0
 11
338.3031199218176
 21
292.4838876017026
 31
0.0
  0
LINE
  5
77B3
330
18
100
AcDbEntity
  8
0
100
AcDbLine
 10
321.8031199218177
 20
307.4838876017014
 30
0.0
 11
332.3518516388875
 21
307.4838876017014
 31
0.0
  0
LINE
  5
77B4
330
18
100
AcDbEntity
  8
0
100
AcDbLine
 10
321.8031199218177
 20
307.4838876017014
 30
0.0
 11
321.5531199218174
 21
332.7338876017014
 31
0.0
  0
LINE
  5
77B5
330
18
100
AcDbEntity
  8
0
100
AcDbLine
 10
319.8518516388875
 20
307.4838876017014
 30
0.0
 11
320.0531199218175
 21
332.7338876017014
 31
0.0
  0
LINE
  5
77B6
330
18
100
AcDbEntity
  8
0
100
AcDbLine
 10
307.3518516388876
 20
307.4838876017014
 30
0.0
 11
307.5531199218175
 21
332.7338876017014
 31
0.0
  0
LINE
  5
77B7
330
18
100
AcDbEntity
  8
0
100
AcDbLine
 10
309.3031199218177
 20
307.4838876017014
 30
0.0
 11
309.0531199218175
 21
332.7338876017014
 31
0.0
  0
LINE
  5
77B8
330
18
100
AcDbEntity
  8
0
100
AcDbLine
 10
309.3031199218177
 20
307.4838876017014
 30
0.0
 11
319.8518516388875
 21
307.4838876017014
 31
0.0
  0
ARC
  5
77B9
330
18
100
AcDbEntity
  8
0
100
AcDbCircle
 10
308.3031199218176
 20
332.7338876017014
 30
0.0
 40
0.75
100
AcDbArc
 50
0.0
 51
180.0
  0
ARC
  5
77BA
330
18
100
AcDbEntity
  8
0
100
AcDbCircle
 10
320.8031199218177
 20
332.7338876017014
 30
0.0
 40
0.75
100
AcDbArc
 50
0.0
 51
180.0
  0
LINE
  5
77BB
330
18
100
AcDbEntity
  8
0
100
AcDbLine
 10
334.3031199218177
 20
307.4838876017014
 30
0.0
 11
334.0531199218174
 21
332.7338876017014
 31
0.0
  0
LINE
  5
77BC
330
18
100
AcDbEntity
  8
0
100
AcDbLine
 10
332.3518516388875
 20
307.4838876017014
 30
0.0
 11
332.5531199218175
 21
332.7338876017014
 31
0.0
  0
ARC
  5
77BD
330
18
100
AcDbEntity
  8
0
100
AcDbCircle
 10
333.3031199218176
 20
332.7338876017014
 30
0.0
 40
0.75
100
AcDbArc
 50
0.0
 51
180.0
  0
ARC
  5
77BE
330
18
100
AcDbEntity
  8
0
100
AcDbCircle
 10
383.4281199218177
 20
332.5984709350359
 30
0.0
 40
0.8854166666665937
100
AcDbArc
 50
8.797410709986314
 51
171.2025892900151
  0
LINE
  5
77BF
330
18
100
AcDbEntity
  8
0
100
AcDbLine
 10
381.3031199218177
 20
294.4838876017026
 30
0.0
 11
384.3031199218177
 21
294.4838876017026
 31
0.0
  0
ARC
  5
77C0
330
18
100
AcDbEntity
  8
0
100
AcDbCircle
 10
381.3031199218178
 20
297.4838876017027
 30
0.0
 40
3.0
100
AcDbArc
 50
359.9999999999997
 51
90.0
  0
LINE
  5
77C1
330
18
100
AcDbEntity
  8
0
100
AcDbLine
 10
363.3031199218176
 20
292.4838876017026
 30
0.0
 11
360.3031199218177
 21
292.4838876017026
 31
0.0
  0
LINE
  5
77C2
330
18
100
AcDbEntity
  8
0
100
AcDbLine
 10
363.3031199218176
 20
268.4838876017026
 30
0.0
 11
360.3031199218177
 21
268.4838876017026
 31
0.0
  0
LINE
  5
77C3
330
18
100
AcDbEntity
  8
0
100
AcDbLine
 10
363.3031199218176
 20
275.4838876017026
 30
0.0
 11
360.3031199218177
 21
275.4838876017026
 31
0.0
  0
LINE
  5
77C4
330
18
100
AcDbEntity
  8
0
100
AcDbLine
 10
356.3031199218179
 20
297.4838876017027
 30
0.0
 11
366.3031199218178
 21
297.4838876017027
 31
0.0
  0
LINE
  5
77C5
330
18
100
AcDbEntity
  8
0
100
AcDbLine
 10
346.8031199218177
 20
275.4838876017026
 30
0.0
 11
346.8031199218177
 21
292.4838876017026
 31
0.0
  0
LINE
  5
77C6
330
18
100
AcDbEntity
  8
0
100
AcDbLine
 10
343.8031199218177
 20
275.4838876017026
 30
0.0
 11
343.8031199218177
 21
292.4838876017026
 31
0.0
  0
LINE
  5
77C7
330
18
100
AcDbEntity
  8
0
100
AcDbLine
 10
349.3031199218177
 20
275.4838876017026
 30
0.0
 11
349.3031199218177
 21
292.4838876017026
 31
0.0
  0
LINE
  5
77C8
330
18
100
AcDbEntity
  8
0
100
AcDbLine
 10
360.3031199218177
 20
275.4838876017026
 30
0.0
 11
360.3031199218177
 21
292.4838876017026
 31
0.0
  0
LINE
  5
77C9
330
18
100
AcDbEntity
  8
0
100
AcDbLine
 10
357.8031199218177
 20
275.4838876017026
 30
0.0
 11
357.8031199218177
 21
292.4838876017026
 31
0.0
  0
LINE
  5
77CA
330
18
100
AcDbEntity
  8
0
100
AcDbLine
 10
354.8031199218177
 20
275.4838876017026
 30
0.0
 11
354.8031199218177
 21
292.4838876017026
 31
0.0
  0
LINE
  5
77CB
330
18
100
AcDbEntity
  8
0
100
AcDbLine
 10
352.3031199218177
 20
275.4838876017026
 30
0.0
 11
352.3031199218177
 21
292.4838876017026
 31
0.0
  0
LINE
  5
77CC
330
18
100
AcDbEntity
  8
0
100
AcDbLine
 10
346.8031199218177
 20
268.4838876017026
 30
0.0
 11
343.8031199218177
 21
268.4838876017026
 31
0.0
  0
LINE
  5
77CD
330
18
100
AcDbEntity
  8
0
100
AcDbLine
 10
346.8031199218177
 20
275.4838876017026
 30
0.0
 11
343.8031199218177
 21
275.4838876017026
 31
0.0
  0
LINE
  5
77CE
330
18
100
AcDbEntity
  8
0
100
AcDbLine
 10
352.3031199218177
 20
268.4838876017026
 30
0.0
 11
349.3031199218177
 21
268.4838876017026
 31
0.0
  0
LINE
  5
77CF
330
18
100
AcDbEntity
  8
0
100
AcDbLine
 10
352.3031199218177
 20
275.4838876017026
 30
0.0
 11
349.3031199218177
 21
275.4838876017026
 31
0.0
  0
LINE
  5
77D0
330
18
100
AcDbEntity
  8
0
100
AcDbLine
 10
357.8031199218177
 20
268.4838876017026
 30
0.0
 11
354.8031199218177
 21
268.4838876017026
 31
0.0
  0
LINE
  5
77D1
330
18
100
AcDbEntity
  8
0
100
AcDbLine
 10
357.8031199218177
 20
275.4838876017026
 30
0.0
 11
354.8031199218177
 21
275.4838876017026
 31
0.0
  0
LINE
  5
77D2
330
18
100
AcDbEntity
  8
0
100
AcDbLine
 10
346.8031199218177
 20
292.4838876017026
 30
0.0
 11
343.8031199218177
 21
292.4838876017026
 31
0.0
  0
LINE
  5
77D3
330
18
100
AcDbEntity
  8
0
100
AcDbLine
 10
352.3031199218177
 20
292.4838876017026
 30
0.0
 11
349.3031199218177
 21
292.4838876017026
 31
0.0
  0
LINE
  5
77D4
330
18
100
AcDbEntity
  8
0
100
AcDbLine
 10
357.8031199218177
 20
292.4838876017026
 30
0.0
 11
354.8031199218177
 21
292.4838876017026
 31
0.0
  0
LINE
  5
77D5
330
18
100
AcDbEntity
  8
0
100
AcDbLine
 10
356.3031199218179
 20
297.4838876017027
 30
0.0
 11
356.3031199218178
 21
295.4838876017026
 31
0.0
  0
LINE
  5
77D6
330
18
100
AcDbEntity
  8
0
100
AcDbLine
 10
371.3031199218177
 20
275.4838876017026
 30
0.0
 11
371.3031199218177
 21
292.4838876017026
 31
0.0
  0
LINE
  5
77D7
330
18
100
AcDbEntity
  8
0
100
AcDbLine
 10
368.8031199218177
 20
275.4838876017026
 30
0.0
 11
368.8031199218177
 21
292.4838876017026
 31
0.0
  0
LINE
  5
77D8
330
18
100
AcDbEntity
  8
0
100
AcDbLine
 10
365.8031199218177
 20
275.4838876017026
 30
0.0
 11
365.8031199218177
 21
292.4838876017026
 31
0.0
  0
LINE
  5
77D9
330
18
100
AcDbEntity
  8
0
100
AcDbLine
 10
363.3031199218176
 20
275.4838876017026
 30
0.0
 11
363.3031199218176
 21
292.4838876017026
 31
0.0
  0
LINE
  5
77DA
330
18
100
AcDbEntity
  8
0
100
AcDbLine
 10
374.3031199218177
 20
275.4838876017026
 30
0.0
 11
374.3031199218177
 21
292.4838876017026
 31
0.0
  0
LINE
  5
77DB
330
18
100
AcDbEntity
  8
0
100
AcDbLine
 10
374.3031199218177
 20
268.4838876017026
 30
0.0
 11
371.3031199218177
 21
268.4838876017026
 31
0.0
  0
LINE
  5
77DC
330
18
100
AcDbEntity
  8
0
100
AcDbLine
 10
374.3031199218177
 20
275.4838876017026
 30
0.0
 11
371.3031199218177
 21
275.4838876017026
 31
0.0
  0
LINE
  5
77DD
330
18
100
AcDbEntity
  8
0
100
AcDbLine
 10
368.8031199218177
 20
268.4838876017026
 30
0.0
 11
365.8031199218177
 21
268.4838876017026
 31
0.0
  0
LINE
  5
77DE
330
18
100
AcDbEntity
  8
0
100
AcDbLine
 10
368.8031199218177
 20
275.4838876017026
 30
0.0
 11
365.8031199218177
 21
275.4838876017026
 31
0.0
  0
LINE
  5
77DF
330
18
100
AcDbEntity
  8
0
100
AcDbLine
 10
374.3031199218177
 20
292.4838876017026
 30
0.0
 11
371.3031199218177
 21
292.4838876017026
 31
0.0
  0
LINE
  5
77E0
330
18
100
AcDbEntity
  8
0
100
AcDbLine
 10
379.3031199218178
 20
295.4838876017026
 30
0.0
 11
366.3031199218178
 21
295.4838876017026
 31
0.0
  0
LINE
  5
77E1
330
18
100
AcDbEntity
  8
0
100
AcDbLine
 10
368.8031199218177
 20
292.4838876017026
 30
0.0
 11
365.8031199218177
 21
292.4838876017026
 31
0.0
  0
LINE
  5
77E2
330
18
100
AcDbEntity
  8
0
100
AcDbLine
 10
366.3031199218178
 20
297.4838876017027
 30
0.0
 11
366.3031199218178
 21
295.4838876017027
 31
0.0
  0
LINE
  5
77E4
330
18
100
AcDbEntity
  8
0
100
AcDbLine
 10
359.3031199218177
 20
307.4838876017014
 30
0.0
 11
369.8518516388876
 21
307.4838876017014
 31
0.0
  0
LINE
  5
77E5
330
18
100
AcDbEntity
  8
0
100
AcDbLine
 10
357.3518516388875
 20
307.4838876017014
 30
0.0
 11
357.5531199218175
 21
332.7338876017014
 31
0.0
  0
LINE
  5
77E6
330
18
100
AcDbEntity
  8
0
100
AcDbLine
 10
359.3031199218177
 20
307.4838876017014
 30
0.0
 11
359.0531199218174
 21
332.7338876017014
 31
0.0
  0
LINE
  5
77E7
330
18
100
AcDbEntity
  8
0
100
AcDbLine
 10
344.8518516388875
 20
307.4838876017014
 30
0.0
 11
345.0531199218175
 21
332.7338876017014
 31
0.0
  0
LINE
  5
77E8
330
18
100
AcDbEntity
  8
0
100
AcDbLine
 10
346.8031199218177
 20
307.4838876017014
 30
0.0
 11
346.5531199218174
 21
332.7338876017014
 31
0.0
  0
LINE
  5
77E9
330
18
100
AcDbEntity
  8
0
100
AcDbLine
 10
346.8031199218177
 20
307.4838876017014
 30
0.0
 11
357.3518516388875
 21
307.4838876017014
 31
0.0
  0
ARC
  5
77EA
330
18
100
AcDbEntity
  8
0
100
AcDbCircle
 10
345.8031199218177
 20
332.7338876017014
 30
0.0
 40
0.75
100
AcDbArc
 50
0.0
 51
180.0
  0
ARC
  5
77EB
330
18
100
AcDbEntity
  8
0
100
AcDbCircle
 10
358.3031199218176
 20
332.7338876017014
 30
0.0
 40
0.75
100
AcDbArc
 50
0.0
 51
180.0
  0
LINE
  5
77EC
330
18
100
AcDbEntity
  8
0
100
AcDbLine
 10
382.3031199218179
 20
307.4838876017024
 30
0.0
 11
382.5531199218177
 21
332.7338876017024
 31
0.0
  0
LINE
  5
77ED
330
18
100
AcDbEntity
  8
0
100
AcDbLine
 10
371.8031199218177
 20
307.4838876017014
 30
0.0
 11
371.5531199218174
 21
332.7338876017014
 31
0.0
  0
LINE
  5
77EE
330
18
100
AcDbEntity
  8
0
100
AcDbLine
 10
369.8518516388875
 20
307.4838876017014
 30
0.0
 11
370.0531199218175
 21
332.7338876017014
 31
0.0
  0
LINE
  5
77EF
330
18
100
AcDbEntity
  8
0
100
AcDbLine
 10
371.8031199218177
 20
307.4838876017014
 30
0.0
 11
382.303119921818
 21
307.4838876017014
 31
0.0
  0
ARC
  5
77F0
330
18
100
AcDbEntity
  8
0
100
AcDbCircle
 10
370.8031199218177
 20
332.7338876017014
 30
0.0
 40
0.75
100
AcDbArc
 50
0.0
 51
180.0
  0
LINE
  5
77F1
330
18
100
AcDbEntity
  8
0
100
AcDbLine
 10
384.3031199218176
 20
332.7338876017023
 30
0.0
 11
384.3031199218178
 21
300.4838876017025
 31
0.0
  0
LINE
  5
7AFF
330
18
100
AcDbEntity
  8
0
100
AcDbLine
 10
57.61469927035347
 20
138.3819325826317
 30
0.0
 11
57.61469927035347
 21
80.38193258263172
 31
0.0
  0
LINE
  5
7B00
330
18
100
AcDbEntity
  8
0
100
AcDbLine
 10
49.61469927035347
 20
138.3819325826317
 30
0.0
 11
49.61469927035347
 21
80.38193258263177
 31
0.0
  0
LINE
  5
7B01
330
18
100
AcDbEntity
  8
0
100
AcDbLine
 10
64.61469927035347
 20
138.3819325826318
 30
0.0
 11
64.61469927035347
 21
80.38193258263182
 31
0.0
  0
LINE
  5
7B02
330
18
100
AcDbEntity
  8
0
100
AcDbLine
 10
63.61469927035347
 20
138.3819325826318
 30
0.0
 11
63.61469927035347
 21
80.38193258263182
 31
0.0
  0
LINE
  5
7B03
330
18
100
AcDbEntity
  8
0
100
AcDbLine
 10
57.41469927035343
 20
85.13193258263171
 30
0.0
 11
57.41469927035343
 21
81.13193258263184
 31
0.0
  0
LINE
  5
7B04
330
18
100
AcDbEntity
  8
0
100
AcDbLine
 10
55.41469927035342
 20
84.63193258263178
 30
0.0
 11
55.41469927035342
 21
81.63193258263177
 31
0.0
  0
LINE
  5
7B05
330
18
100
AcDbEntity
  8
0
100
AcDbLine
 10
51.41469927035342
 20
85.13193258263184
 30
0.0
 11
51.41469927035342
 21
81.13193258263171
 31
0.0
  0
LINE
  5
7B06
330
18
100
AcDbEntity
  8
0
100
AcDbLine
 10
52.41469927035343
 20
84.63193258263183
 30
0.0
 11
52.41469927035343
 21
81.63193258263177
 31
0.0
  0
LINE
  5
7B07
330
18
100
AcDbEntity
  8
0
100
AcDbLine
 10
49.61469927035347
 20
80.38193258263177
 30
0.0
 11
64.61469927035347
 21
80.38193258263182
 31
0.0
  0
LINE
  5
7B08
330
18
100
AcDbEntity
  8
0
100
AcDbLine
 10
51.41469927035342
 20
81.13193258263171
 30
0.0
 11
52.41469927035343
 21
81.63193258263177
 31
0.0
  0
LINE
  5
7B09
330
18
100
AcDbEntity
  8
0
100
AcDbLine
 10
51.41469927035342
 20
81.13193258263171
 30
0.0
 11
57.41469927035343
 21
81.13193258263184
 31
0.0
  0
LINE
  5
7B0A
330
18
100
AcDbEntity
  8
0
100
AcDbLine
 10
55.41469927035342
 20
81.63193258263177
 30
0.0
 11
57.41469927035343
 21
81.13193258263184
 31
0.0
  0
LINE
  5
7B0B
330
18
100
AcDbEntity
  8
0
100
AcDbLine
 10
52.41469927035343
 20
81.63193258263177
 30
0.0
 11
55.41469927035342
 21
81.63193258263177
 31
0.0
  0
LINE
  5
7B0C
330
18
100
AcDbEntity
  8
0
100
AcDbLine
 10
55.41469927035354
 20
96.63193258263177
 30
0.0
 11
57.41469927035343
 21
96.13193258263184
 31
0.0
  0
LINE
  5
7B0D
330
18
100
AcDbEntity
  8
0
100
AcDbLine
 10
51.41469927035354
 20
96.13193258263173
 30
0.0
 11
52.41469927035353
 21
96.63193258263177
 31
0.0
  0
LINE
  5
7B0E
330
18
100
AcDbEntity
  8
0
100
AcDbLine
 10
51.41469927035354
 20
100.1319325826318
 30
0.0
 11
51.41469927035354
 21
96.13193258263173
 31
0.0
  0
LINE
  5
7B0F
330
18
100
AcDbEntity
  8
0
100
AcDbLine
 10
57.41469927035353
 20
100.1319325826317
 30
0.0
 11
57.41469927035343
 21
96.13193258263184
 31
0.0
  0
LINE
  5
7B10
330
18
100
AcDbEntity
  8
0
100
AcDbLine
 10
51.41469927035354
 20
96.13193258263173
 30
0.0
 11
57.41469927035343
 21
96.13193258263184
 31
0.0
  0
LINE
  5
7B11
330
18
100
AcDbEntity
  8
0
100
AcDbLine
 10
51.41469927035342
 20
88.63193258263171
 30
0.0
 11
52.41469927035353
 21
89.13193258263177
 31
0.0
  0
LINE
  5
7B12
330
18
100
AcDbEntity
  8
0
100
AcDbLine
 10
52.41469927035353
 20
92.13193258263183
 30
0.0
 11
51.41469927035354
 21
92.63193258263184
 31
0.0
  0
LINE
  5
7B13
330
18
100
AcDbEntity
  8
0
100
AcDbLine
 10
51.41469927035342
 20
88.63193258263171
 30
0.0
 11
57.41469927035343
 21
88.63193258263184
 31
0.0
  0
LINE
  5
7B14
330
18
100
AcDbEntity
  8
0
100
AcDbLine
 10
51.41469927035354
 20
92.63193258263184
 30
0.0
 11
57.41469927035353
 21
92.63193258263171
 31
0.0
  0
LINE
  5
7B15
330
18
100
AcDbEntity
  8
0
100
AcDbLine
 10
52.41469927035343
 20
84.63193258263183
 30
0.0
 11
51.41469927035342
 21
85.13193258263184
 31
0.0
  0
LINE
  5
7B16
330
18
100
AcDbEntity
  8
0
100
AcDbLine
 10
51.41469927035342
 20
85.13193258263184
 30
0.0
 11
57.41469927035343
 21
85.13193258263171
 31
0.0
  0
LINE
  5
7B17
330
18
100
AcDbEntity
  8
0
100
AcDbLine
 10
51.41469927035354
 20
92.63193258263184
 30
0.0
 11
51.41469927035342
 21
88.63193258263171
 31
0.0
  0
LINE
  5
7B18
330
18
100
AcDbEntity
  8
0
100
AcDbLine
 10
57.41469927035353
 20
92.63193258263171
 30
0.0
 11
57.41469927035343
 21
88.63193258263184
 31
0.0
  0
LINE
  5
7B19
330
18
100
AcDbEntity
  8
0
100
AcDbLine
 10
55.41469927035354
 20
92.13193258263178
 30
0.0
 11
55.41469927035354
 21
89.13193258263177
 31
0.0
  0
LINE
  5
7B1A
330
18
100
AcDbEntity
  8
0
100
AcDbLine
 10
52.41469927035353
 20
92.13193258263183
 30
0.0
 11
52.41469927035353
 21
89.13193258263177
 31
0.0
  0
LINE
  5
7B1B
330
18
100
AcDbEntity
  8
0
100
AcDbLine
 10
55.41469927035354
 20
89.13193258263177
 30
0.0
 11
57.41469927035343
 21
88.63193258263184
 31
0.0
  0
LINE
  5
7B1C
330
18
100
AcDbEntity
  8
0
100
AcDbLine
 10
55.41469927035342
 20
84.63193258263178
 30
0.0
 11
57.41469927035343
 21
85.13193258263171
 31
0.0
  0
LINE
  5
7B1D
330
18
100
AcDbEntity
  8
0
100
AcDbLine
 10
52.41469927035353
 20
89.13193258263177
 30
0.0
 11
55.41469927035354
 21
89.13193258263177
 31
0.0
  0
LINE
  5
7B1E
330
18
100
AcDbEntity
  8
0
100
AcDbLine
 10
52.41469927035343
 20
84.63193258263183
 30
0.0
 11
55.41469927035342
 21
84.63193258263178
 31
0.0
  0
LINE
  5
7B1F
330
18
100
AcDbEntity
  8
0
100
AcDbLine
 10
55.41469927035354
 20
92.13193258263178
 30
0.0
 11
57.41469927035353
 21
92.63193258263171
 31
0.0
  0
LINE
  5
7B20
330
18
100
AcDbEntity
  8
0
100
AcDbLine
 10
52.41469927035353
 20
92.13193258263183
 30
0.0
 11
55.41469927035354
 21
92.13193258263178
 31
0.0
  0
LINE
  5
7B21
330
18
100
AcDbEntity
  8
0
100
AcDbLine
 10
52.41469927035353
 20
107.1319325826318
 30
0.0
 11
51.41469927035354
 21
107.6319325826318
 31
0.0
  0
LINE
  5
7B22
330
18
100
AcDbEntity
  8
0
100
AcDbLine
 10
51.41469927035354
 20
107.6319325826318
 30
0.0
 11
57.41469927035353
 21
107.6319325826317
 31
0.0
  0
LINE
  5
7B23
330
18
100
AcDbEntity
  8
0
100
AcDbLine
 10
51.41469927035354
 20
103.6319325826317
 30
0.0
 11
52.41469927035353
 21
104.1319325826317
 31
0.0
  0
LINE
  5
7B24
330
18
100
AcDbEntity
  8
0
100
AcDbLine
 10
51.41469927035354
 20
103.6319325826317
 30
0.0
 11
57.41469927035343
 21
103.6319325826318
 31
0.0
  0
LINE
  5
7B25
330
18
100
AcDbEntity
  8
0
100
AcDbLine
 10
51.41469927035354
 20
100.1319325826318
 30
0.0
 11
57.41469927035353
 21
100.1319325826317
 31
0.0
  0
LINE
  5
7B26
330
18
100
AcDbEntity
  8
0
100
AcDbLine
 10
52.41469927035353
 20
99.63193258263183
 30
0.0
 11
51.41469927035354
 21
100.1319325826318
 31
0.0
  0
LINE
  5
7B27
330
18
100
AcDbEntity
  8
0
100
AcDbLine
 10
51.41469927035354
 20
107.6319325826318
 30
0.0
 11
51.41469927035354
 21
103.6319325826317
 31
0.0
  0
LINE
  5
7B28
330
18
100
AcDbEntity
  8
0
100
AcDbLine
 10
55.41469927035354
 20
99.63193258263178
 30
0.0
 11
57.41469927035353
 21
100.1319325826317
 31
0.0
  0
LINE
  5
7B29
330
18
100
AcDbEntity
  8
0
100
AcDbLine
 10
55.41469927035354
 20
99.63193258263178
 30
0.0
 11
55.41469927035354
 21
96.63193258263177
 31
0.0
  0
LINE
  5
7B2A
330
18
100
AcDbEntity
  8
0
100
AcDbLine
 10
52.41469927035353
 20
99.63193258263183
 30
0.0
 11
52.41469927035353
 21
96.63193258263177
 31
0.0
  0
LINE
  5
7B2B
330
18
100
AcDbEntity
  8
0
100
AcDbLine
 10
52.41469927035353
 20
96.63193258263177
 30
0.0
 11
55.41469927035354
 21
96.63193258263177
 31
0.0
  0
LINE
  5
7B2C
330
18
100
AcDbEntity
  8
0
100
AcDbLine
 10
52.41469927035353
 20
99.63193258263183
 30
0.0
 11
55.41469927035354
 21
99.63193258263178
 31
0.0
  0
LINE
  5
7B2D
330
18
100
AcDbEntity
  8
0
100
AcDbLine
 10
55.41469927035354
 20
107.1319325826317
 30
0.0
 11
57.41469927035353
 21
107.6319325826317
 31
0.0
  0
LINE
  5
7B2E
330
18
100
AcDbEntity
  8
0
100
AcDbLine
 10
55.41469927035354
 20
104.1319325826317
 30
0.0
 11
57.41469927035343
 21
103.6319325826318
 31
0.0
  0
LINE
  5
7B2F
330
18
100
AcDbEntity
  8
0
100
AcDbLine
 10
52.41469927035353
 20
107.1319325826318
 30
0.0
 11
55.41469927035354
 21
107.1319325826317
 31
0.0
  0
LINE
  5
7B30
330
18
100
AcDbEntity
  8
0
100
AcDbLine
 10
52.41469927035353
 20
104.1319325826317
 30
0.0
 11
55.41469927035354
 21
104.1319325826317
 31
0.0
  0
LINE
  5
7B31
330
18
100
AcDbEntity
  8
0
100
AcDbLine
 10
52.41469927035353
 20
107.1319325826318
 30
0.0
 11
52.41469927035353
 21
104.1319325826317
 31
0.0
  0
LINE
  5
7B32
330
18
100
AcDbEntity
  8
0
100
AcDbLine
 10
55.41469927035354
 20
107.1319325826317
 30
0.0
 11
55.41469927035354
 21
104.1319325826317
 31
0.0
  0
LINE
  5
7B33
330
18
100
AcDbEntity
  8
0
100
AcDbLine
 10
57.41469927035353
 20
107.6319325826317
 30
0.0
 11
57.41469927035343
 21
103.6319325826318
 31
0.0
  0
LINE
  5
7B34
330
18
100
AcDbEntity
  8
0
100
AcDbLine
 10
51.41469927035354
 20
133.6319325826317
 30
0.0
 11
52.41469927035353
 21
134.1319325826317
 31
0.0
  0
LINE
  5
7B35
330
18
100
AcDbEntity
  8
0
100
AcDbLine
 10
51.41469927035354
 20
137.6319325826318
 30
0.0
 11
51.41469927035354
 21
133.6319325826317
 31
0.0
  0
LINE
  5
7B36
330
18
100
AcDbEntity
  8
0
100
AcDbLine
 10
55.41469927035354
 20
134.1319325826317
 30
0.0
 11
57.41469927035343
 21
133.6319325826318
 31
0.0
  0
LINE
  5
7B37
330
18
100
AcDbEntity
  8
0
100
AcDbLine
 10
57.41469927035353
 20
137.6319325826317
 30
0.0
 11
57.41469927035343
 21
133.6319325826318
 31
0.0
  0
LINE
  5
7B38
330
18
100
AcDbEntity
  8
0
100
AcDbLine
 10
51.41469927035354
 20
122.6319325826318
 30
0.0
 11
51.41469927035354
 21
118.6319325826317
 31
0.0
  0
LINE
  5
7B39
330
18
100
AcDbEntity
  8
0
100
AcDbLine
 10
52.41469927035353
 20
122.1319325826318
 30
0.0
 11
52.41469927035353
 21
119.1319325826317
 31
0.0
  0
LINE
  5
7B3A
330
18
100
AcDbEntity
  8
0
100
AcDbLine
 10
57.41469927035353
 20
122.6319325826317
 30
0.0
 11
57.41469927035343
 21
118.6319325826318
 31
0.0
  0
LINE
  5
7B3B
330
18
100
AcDbEntity
  8
0
100
AcDbLine
 10
55.41469927035354
 20
122.1319325826317
 30
0.0
 11
55.41469927035354
 21
119.1319325826317
 31
0.0
  0
LINE
  5
7B3C
330
18
100
AcDbEntity
  8
0
100
AcDbLine
 10
52.41469927035353
 20
114.6319325826318
 30
0.0
 11
51.41469927035354
 21
115.1319325826318
 31
0.0
  0
LINE
  5
7B3D
330
18
100
AcDbEntity
  8
0
100
AcDbLine
 10
51.41469927035354
 20
118.6319325826317
 30
0.0
 11
52.41469927035353
 21
119.1319325826317
 31
0.0
  0
LINE
  5
7B3E
330
18
100
AcDbEntity
  8
0
100
AcDbLine
 10
51.41469927035354
 20
115.1319325826318
 30
0.0
 11
57.41469927035353
 21
115.1319325826317
 31
0.0
  0
LINE
  5
7B3F
330
18
100
AcDbEntity
  8
0
100
AcDbLine
 10
51.41469927035354
 20
118.6319325826317
 30
0.0
 11
57.41469927035343
 21
118.6319325826318
 31
0.0
  0
LINE
  5
7B40
330
18
100
AcDbEntity
  8
0
100
AcDbLine
 10
51.41469927035354
 20
111.1319325826317
 30
0.0
 11
52.41469927035353
 21
111.6319325826317
 31
0.0
  0
LINE
  5
7B41
330
18
100
AcDbEntity
  8
0
100
AcDbLine
 10
51.41469927035354
 20
111.1319325826317
 30
0.0
 11
57.41469927035343
 21
111.1319325826318
 31
0.0
  0
LINE
  5
7B42
330
18
100
AcDbEntity
  8
0
100
AcDbLine
 10
51.41469927035354
 20
115.1319325826318
 30
0.0
 11
51.41469927035354
 21
111.1319325826317
 31
0.0
  0
LINE
  5
7B43
330
18
100
AcDbEntity
  8
0
100
AcDbLine
 10
55.41469927035354
 20
114.6319325826317
 30
0.0
 11
57.41469927035353
 21
115.1319325826317
 31
0.0
  0
LINE
  5
7B44
330
18
100
AcDbEntity
  8
0
100
AcDbLine
 10
57.41469927035353
 20
115.1319325826317
 30
0.0
 11
57.41469927035343
 21
111.1319325826318
 31
0.0
  0
LINE
  5
7B45
330
18
100
AcDbEntity
  8
0
100
AcDbLine
 10
55.41469927035354
 20
111.6319325826317
 30
0.0
 11
57.41469927035343
 21
111.1319325826318
 31
0.0
  0
LINE
  5
7B46
330
18
100
AcDbEntity
  8
0
100
AcDbLine
 10
52.41469927035353
 20
114.6319325826318
 30
0.0
 11
55.41469927035354
 21
114.6319325826317
 31
0.0
  0
LINE
  5
7B47
330
18
100
AcDbEntity
  8
0
100
AcDbLine
 10
52.41469927035353
 20
111.6319325826317
 30
0.0
 11
55.41469927035354
 21
111.6319325826317
 31
0.0
  0
LINE
  5
7B48
330
18
100
AcDbEntity
  8
0
100
AcDbLine
 10
52.41469927035353
 20
114.6319325826318
 30
0.0
 11
52.41469927035353
 21
111.6319325826317
 31
0.0
  0
LINE
  5
7B49
330
18
100
AcDbEntity
  8
0
100
AcDbLine
 10
55.41469927035354
 20
114.6319325826317
 30
0.0
 11
55.41469927035354
 21
111.6319325826317
 31
0.0
  0
LINE
  5
7B4A
330
18
100
AcDbEntity
  8
0
100
AcDbLine
 10
55.41469927035354
 20
119.1319325826317
 30
0.0
 11
57.41469927035343
 21
118.6319325826318
 31
0.0
  0
LINE
  5
7B4B
330
18
100
AcDbEntity
  8
0
100
AcDbLine
 10
52.41469927035353
 20
119.1319325826317
 30
0.0
 11
55.41469927035354
 21
119.1319325826317
 31
0.0
  0
LINE
  5
7B4C
330
18
100
AcDbEntity
  8
0
100
AcDbLine
 10
52.41469927035353
 20
129.6319325826318
 30
0.0
 11
51.41469927035354
 21
130.1319325826318
 31
0.0
  0
LINE
  5
7B4D
330
18
100
AcDbEntity
  8
0
100
AcDbLine
 10
51.41469927035354
 20
130.1319325826318
 30
0.0
 11
57.41469927035353
 21
130.1319325826317
 31
0.0
  0
LINE
  5
7B4E
330
18
100
AcDbEntity
  8
0
100
AcDbLine
 10
51.41469927035354
 20
133.6319325826317
 30
0.0
 11
57.41469927035343
 21
133.6319325826318
 31
0.0
  0
LINE
  5
7B4F
330
18
100
AcDbEntity
  8
0
100
AcDbLine
 10
52.41469927035353
 20
122.1319325826318
 30
0.0
 11
51.41469927035354
 21
122.6319325826318
 31
0.0
  0
LINE
  5
7B50
330
18
100
AcDbEntity
  8
0
100
AcDbLine
 10
51.41469927035354
 20
126.1319325826317
 30
0.0
 11
52.41469927035353
 21
126.6319325826317
 31
0.0
  0
LINE
  5
7B51
330
18
100
AcDbEntity
  8
0
100
AcDbLine
 10
51.41469927035354
 20
122.6319325826318
 30
0.0
 11
57.41469927035353
 21
122.6319325826317
 31
0.0
  0
LINE
  5
7B52
330
18
100
AcDbEntity
  8
0
100
AcDbLine
 10
51.41469927035354
 20
126.1319325826317
 30
0.0
 11
57.41469927035343
 21
126.1319325826318
 31
0.0
  0
LINE
  5
7B53
330
18
100
AcDbEntity
  8
0
100
AcDbLine
 10
51.41469927035354
 20
130.1319325826318
 30
0.0
 11
51.41469927035354
 21
126.1319325826317
 31
0.0
  0
LINE
  5
7B54
330
18
100
AcDbEntity
  8
0
100
AcDbLine
 10
52.41469927035353
 20
129.6319325826318
 30
0.0
 11
52.41469927035353
 21
126.6319325826317
 31
0.0
  0
LINE
  5
7B55
330
18
100
AcDbEntity
  8
0
100
AcDbLine
 10
55.41469927035354
 20
129.6319325826317
 30
0.0
 11
55.41469927035354
 21
126.6319325826317
 31
0.0
  0
LINE
  5
7B56
330
18
100
AcDbEntity
  8
0
100
AcDbLine
 10
57.41469927035353
 20
130.1319325826317
 30
0.0
 11
57.41469927035343
 21
126.1319325826318
 31
0.0
  0
LINE
  5
7B57
330
18
100
AcDbEntity
  8
0
100
AcDbLine
 10
55.41469927035354
 20
122.1319325826317
 30
0.0
 11
57.41469927035353
 21
122.6319325826317
 31
0.0
  0
LINE
  5
7B58
330
18
100
AcDbEntity
  8
0
100
AcDbLine
 10
55.41469927035354
 20
126.6319325826317
 30
0.0
 11
57.41469927035343
 21
126.1319325826318
 31
0.0
  0
LINE
  5
7B59
330
18
100
AcDbEntity
  8
0
100
AcDbLine
 10
52.41469927035353
 20
122.1319325826318
 30
0.0
 11
55.41469927035354
 21
122.1319325826317
 31
0.0
  0
LINE
  5
7B5A
330
18
100
AcDbEntity
  8
0
100
AcDbLine
 10
52.41469927035353
 20
126.6319325826317
 30
0.0
 11
55.41469927035354
 21
126.6319325826317
 31
0.0
  0
LINE
  5
7B5B
330
18
100
AcDbEntity
  8
0
100
AcDbLine
 10
55.41469927035354
 20
129.6319325826317
 30
0.0
 11
57.41469927035353
 21
130.1319325826317
 31
0.0
  0
LINE
  5
7B5C
330
18
100
AcDbEntity
  8
0
100
AcDbLine
 10
52.41469927035353
 20
129.6319325826318
 30
0.0
 11
55.41469927035354
 21
129.6319325826317
 31
0.0
  0
LINE
  5
7B5D
330
18
100
AcDbEntity
  8
0
100
AcDbLine
 10
49.61469927035324
 20
138.3819325826317
 30
0.0
 11
64.61469927035335
 21
138.3819325826318
 31
0.0
  0
LINE
  5
7B5E
330
18
100
AcDbEntity
  8
0
100
AcDbLine
 10
52.41469927035353
 20
137.1319325826318
 30
0.0
 11
51.41469927035354
 21
137.6319325826318
 31
0.0
  0
LINE
  5
7B5F
330
18
100
AcDbEntity
  8
0
100
AcDbLine
 10
51.41469927035354
 20
137.6319325826318
 30
0.0
 11
57.41469927035353
 21
137.6319325826317
 31
0.0
  0
LINE
  5
7B60
330
18
100
AcDbEntity
  8
0
100
AcDbLine
 10
55.41469927035354
 20
137.1319325826317
 30
0.0
 11
57.41469927035353
 21
137.6319325826317
 31
0.0
  0
LINE
  5
7B61
330
18
100
AcDbEntity
  8
0
100
AcDbLine
 10
55.41469927035354
 20
137.1319325826317
 30
0.0
 11
55.41469927035354
 21
134.1319325826317
 31
0.0
  0
LINE
  5
7B62
330
18
100
AcDbEntity
  8
0
100
AcDbLine
 10
52.41469927035353
 20
137.1319325826318
 30
0.0
 11
52.41469927035353
 21
134.1319325826317
 31
0.0
  0
LINE
  5
7B63
330
18
100
AcDbEntity
  8
0
100
AcDbLine
 10
52.41469927035353
 20
134.1319325826317
 30
0.0
 11
55.41469927035354
 21
134.1319325826317
 31
0.0
  0
LINE
  5
7B64
330
18
100
AcDbEntity
  8
0
100
AcDbLine
 10
52.41469927035353
 20
137.1319325826318
 30
0.0
 11
55.41469927035354
 21
137.1319325826317
 31
0.0
  0
LINE
  5
7B98
330
18
100
AcDbEntity
  8
0
 48
0.2
100
AcDbLine
 10
222.3031199218177
 20
78.63193258263169
 30
0.0
 11
201.5031199218177
 21
78.63193258263168
 31
0.0
  0
LINE
  5
7B99
330
18
100
AcDbEntity
  8
0
 48
0.2
100
AcDbLine
 10
222.3031199218177
 20
35.13193258263157
 30
0.0
 11
201.5031199218175
 21
35.13193258263167
 31
0.0
  0
LINE
  5
7B9A
330
18
100
AcDbEntity
  8
0
 48
0.2
100
AcDbLine
 10
207.3031199218177
 20
47.88193258263167
 30
0.0
 11
207.3031199218176
 21
65.88193258263167
 31
0.0
  0
LINE
  5
7B9B
330
18
100
AcDbEntity
  8
0
 48
0.2
100
AcDbLine
 10
202.3031199218177
 20
47.88193258263167
 30
0.0
 11
202.3031199218176
 21
65.88193258263167
 31
0.0
  0
LINE
  5
7B9C
330
18
100
AcDbEntity
  8
0
 48
0.2
100
AcDbLine
 10
186.3031199218177
 20
43.88193258263167
 30
0.0
 11
186.3031199218176
 21
69.88193258263168
 31
0.0
  0
LINE
  5
7B9D
330
18
100
AcDbEntity
  8
0
 48
0.2
100
AcDbLine
 10
197.5031199218177
 20
43.88193258263156
 30
0.0
 11
193.5031199218175
 21
43.88193258263167
 31
0.0
  0
LINE
  5
7B9E
330
18
100
AcDbEntity
  8
0
 48
0.2
100
AcDbLine
 10
207.3031199218177
 20
47.88193258263167
 30
0.0
 11
186.3031199218177
 21
47.88193258263156
 31
0.0
  0
LINE
  5
7B9F
330
18
100
AcDbEntity
  8
0
 48
0.2
100
AcDbLine
 10
193.5031199218176
 20
43.88193258263167
 30
0.0
 11
191.7470223608422
 21
41.85310992987574
 31
0.0
  0
ARC
  5
7BA0
330
18
100
AcDbEntity
  8
0
 48
0.2
100
AcDbCircle
 10
189.4031199218176
 20
43.88193258263173
 30
0.0
 40
3.100000000000022
100
AcDbArc
 50
180.0
 51
319.1213648534833
  0
CIRCLE
  5
7BA1
330
18
100
AcDbEntity
  8
0
 48
0.2
100
AcDbCircle
 10
210.8031199218177
 20
41.88193258263173
 30
0.0
 40
1.5
  0
LINE
  5
7BA2
330
18
100
AcDbEntity
  8
0
 48
0.2
100
AcDbLine
 10
213.3031199218177
 20
41.88193258263168
 30
0.0
 11
212.0531199218177
 21
44.04699609209278
 31
0.0
  0
LINE
  5
7BA3
330
18
100
AcDbEntity
  8
0
 48
0.2
100
AcDbLine
 10
213.5917950564125
 20
41.88193258263178
 30
0.0
 11
212.1974574891152
 21
44.29699609209278
 31
0.0
  0
LINE
  5
7BA4
330
18
100
AcDbEntity
  8
0
 48
0.2
100
AcDbLine
 10
208.3031199218177
 20
41.88193258263168
 30
0.0
 11
209.5531199218177
 21
44.04699609209278
 31
0.0
  0
LINE
  5
7BA5
330
18
100
AcDbEntity
  8
0
 48
0.2
100
AcDbLine
 10
208.014444787223
 20
41.88193258263168
 30
0.0
 11
209.4087823545202
 21
44.29699609209278
 31
0.0
  0
LINE
  5
7BA6
330
18
100
AcDbEntity
  8
0
 48
0.2
100
AcDbLine
 10
197.5031199218177
 20
43.88193258263167
 30
0.0
 11
201.5031199218177
 21
40.78193258263165
 31
0.0
  0
ARC
  5
7BA7
330
18
100
AcDbEntity
  8
0
 48
0.2
100
AcDbCircle
 10
202.6731199218174
 20
37.73193258263175
 30
0.0
 40
2.669999999999886
100
AcDbArc
 50
115.9892335838295
 51
244.0107664161704
  0
LINE
  5
7BA8
330
18
100
AcDbEntity
  8
0
 48
0.2
100
AcDbLine
 10
201.5031199218175
 20
35.13193258263167
 30
0.0
 11
201.5031199218175
 21
40.78193258263165
 31
0.0
  0
LINE
  5
7BA9
330
18
100
AcDbEntity
  8
0
 48
0.2
100
AcDbLine
 10
209.5531199218177
 20
39.71686907317057
 30
0.0
 11
212.0531199218177
 21
39.71686907317057
 31
0.0
  0
LINE
  5
7BAA
330
18
100
AcDbEntity
  8
0
 48
0.2
100
AcDbLine
 10
209.4087823545202
 20
39.46686907317068
 30
0.0
 11
212.1974574891152
 21
39.46686907317068
 31
0.0
  0
LINE
  5
7BAB
330
18
100
AcDbEntity
  8
0
 48
0.2
100
AcDbLine
 10
208.3031199218177
 20
41.88193258263168
 30
0.0
 11
209.5531199218177
 21
39.71686907317057
 31
0.0
  0
LINE
  5
7BAC
330
18
100
AcDbEntity
  8
0
 48
0.2
100
AcDbLine
 10
208.014444787223
 20
41.88193258263168
 30
0.0
 11
209.4087823545202
 21
39.46686907317068
 31
0.0
  0
LINE
  5
7BAD
330
18
100
AcDbEntity
  8
0
 48
0.2
100
AcDbLine
 10
212.0531199218177
 20
39.71686907317057
 30
0.0
 11
213.3031199218177
 21
41.88193258263168
 31
0.0
  0
LINE
  5
7BAE
330
18
100
AcDbEntity
  8
0
 48
0.2
100
AcDbLine
 10
212.1974574891152
 20
39.46686907317068
 30
0.0
 11
213.5917950564125
 21
41.88193258263178
 31
0.0
  0
LINE
  5
7BAF
330
18
100
AcDbEntity
  8
0
 48
0.2
100
AcDbLine
 10
209.5531199218177
 20
44.04699609209278
 30
0.0
 11
212.0531199218177
 21
44.04699609209278
 31
0.0
  0
LINE
  5
7BB0
330
18
100
AcDbEntity
  8
0
 48
0.2
100
AcDbLine
 10
209.4087823545202
 20
44.29699609209278
 30
0.0
 11
212.1974574891152
 21
44.29699609209278
 31
0.0
  0
LINE
  5
7BB1
330
18
100
AcDbEntity
  8
0
 48
0.2
100
AcDbLine
 10
197.5031199218177
 20
69.88193258263179
 30
0.0
 11
193.5031199218175
 21
69.88193258263168
 31
0.0
  0
LINE
  5
7BB2
330
18
100
AcDbEntity
  8
0
 48
0.2
100
AcDbLine
 10
207.3031199218176
 20
65.88193258263167
 30
0.0
 11
186.3031199218176
 21
65.88193258263167
 31
0.0
  0
LINE
  5
7BB3
330
18
100
AcDbEntity
  8
0
 48
0.2
100
AcDbLine
 10
193.5031199218176
 20
69.88193258263168
 30
0.0
 11
191.7470223608422
 21
71.91075523538761
 31
0.0
  0
ARC
  5
7BB4
330
18
100
AcDbEntity
  8
0
 48
0.2
100
AcDbCircle
 10
189.4031199218176
 20
69.88193258263173
 30
0.0
 40
3.100000000000022
100
AcDbArc
 50
40.87863514651683
 51
180.0
  0
LINE
  5
7BB5
330
18
100
AcDbEntity
  8
0
 48
0.2
100
AcDbLine
 10
213.5917950564125
 20
71.88193258263156
 30
0.0
 11
212.1974574891152
 21
69.46686907317057
 31
0.0
  0
LINE
  5
7BB6
330
18
100
AcDbEntity
  8
0
 48
0.2
100
AcDbLine
 10
213.3031199218177
 20
71.88193258263168
 30
0.0
 11
212.0531199218177
 21
69.71686907317057
 31
0.0
  0
LINE
  5
7BB7
330
18
100
AcDbEntity
  8
0
 48
0.2
100
AcDbLine
 10
208.014444787223
 20
71.88193258263168
 30
0.0
 11
209.4087823545202
 21
69.46686907317057
 31
0.0
  0
LINE
  5
7BB8
330
18
100
AcDbEntity
  8
0
 48
0.2
100
AcDbLine
 10
208.3031199218177
 20
71.88193258263168
 30
0.0
 11
209.5531199218177
 21
69.71686907317057
 31
0.0
  0
LINE
  5
7BB9
330
18
100
AcDbEntity
  8
0
 48
0.2
100
AcDbLine
 10
197.5031199218177
 20
69.88193258263168
 30
0.0
 11
201.5031199218177
 21
72.9819325826317
 31
0.0
  0
LINE
  5
7BBA
330
18
100
AcDbEntity
  8
0
 48
0.2
100
AcDbLine
 10
209.4087823545202
 20
69.46686907317057
 30
0.0
 11
212.1974574891152
 21
69.46686907317057
 31
0.0
  0
LINE
  5
7BBB
330
18
100
AcDbEntity
  8
0
 48
0.2
100
AcDbLine
 10
209.5531199218177
 20
69.71686907317057
 30
0.0
 11
212.0531199218177
 21
69.71686907317057
 31
0.0
  0
ARC
  5
7BBC
330
18
100
AcDbEntity
  8
0
 48
0.2
100
AcDbCircle
 10
202.6731199218174
 20
76.03193258263171
 30
0.0
 40
2.669999999999886
100
AcDbArc
 50
115.9892335838296
 51
244.0107664161704
  0
LINE
  5
7BBD
330
18
100
AcDbEntity
  8
0
 48
0.2
100
AcDbLine
 10
201.5031199218177
 20
72.98193258263181
 30
0.0
 11
201.5031199218177
 21
78.63193258263168
 31
0.0
  0
CIRCLE
  5
7BBE
330
18
100
AcDbEntity
  8
0
 48
0.2
100
AcDbCircle
 10
210.8031199218177
 20
71.88193258263173
 30
0.0
 40
1.5
  0
LINE
  5
7BBF
330
18
100
AcDbEntity
  8
0
 48
0.2
100
AcDbLine
 10
209.4087823545202
 20
74.29699609209267
 30
0.0
 11
212.1974574891152
 21
74.29699609209267
 31
0.0
  0
LINE
  5
7BC0
330
18
100
AcDbEntity
  8
0
 48
0.2
100
AcDbLine
 10
209.5531199218177
 20
74.04699609209278
 30
0.0
 11
212.0531199218177
 21
74.04699609209278
 31
0.0
  0
LINE
  5
7BC1
330
18
100
AcDbEntity
  8
0
 48
0.2
100
AcDbLine
 10
208.014444787223
 20
71.88193258263168
 30
0.0
 11
209.4087823545202
 21
74.29699609209267
 31
0.0
  0
LINE
  5
7BC2
330
18
100
AcDbEntity
  8
0
 48
0.2
100
AcDbLine
 10
208.3031199218177
 20
71.88193258263168
 30
0.0
 11
209.5531199218177
 21
74.04699609209278
 31
0.0
  0
LINE
  5
7BC3
330
18
100
AcDbEntity
  8
0
 48
0.2
100
AcDbLine
 10
212.1974574891152
 20
74.29699609209267
 30
0.0
 11
213.5917950564125
 21
71.88193258263156
 31
0.0
  0
LINE
  5
7BC4
330
18
100
AcDbEntity
  8
0
 48
0.2
100
AcDbLine
 10
212.0531199218177
 20
74.04699609209278
 30
0.0
 11
213.3031199218177
 21
71.88193258263168
 31
0.0
  0
LINE
  5
7C0C
330
18
100
AcDbEntity
  8
0
100
AcDbLine
 10
221.5031199218176
 20
138.3819325826318
 30
0.0
 11
221.5031199218177
 21
80.3819325826317
 31
0.0
  0
LINE
  5
7C0D
330
18
100
AcDbEntity
  8
0
100
AcDbLine
 10
212.9031199218176
 20
138.3819325826318
 30
0.0
 11
212.9031199218177
 21
80.3819325826317
 31
0.0
  0
LINE
  5
7C0F
330
18
100
AcDbEntity
  8
0
100
AcDbLine
 10
212.4031199218177
 20
138.3819325826318
 30
0.0
 11
212.4031199218177
 21
80.3819325826317
 31
0.0
  0
LINE
  5
7C10
330
18
100
AcDbEntity
  8
0
100
AcDbLine
 10
217.4772140011121
 20
134.1571877112401
 30
0.0
 11
216.063000438739
 21
136.6066774540232
 31
0.0
  0
LINE
  5
7C11
330
18
100
AcDbEntity
  8
0
100
AcDbLine
 10
218.3432394048965
 20
134.6571877112401
 30
0.0
 11
216.9290258425234
 21
137.1066774540232
 31
0.0
  0
CIRCLE
  5
7C12
330
18
100
AcDbEntity
  8
0
100
AcDbCircle
 10
217.2031199218177
 20
135.6319325826316
 30
0.0
 40
1.5
  0
CIRCLE
  5
7C13
330
18
100
AcDbEntity
  8
0
100
AcDbCircle
 10
217.2031199218177
 20
135.6319325826316
 30
0.0
 40
1.75
  0
CIRCLE
  5
7C14
330
18
100
AcDbEntity
  8
0
100
AcDbCircle
 10
217.2031199218177
 20
128.1319325826316
 30
0.0
 40
1.75
  0
CIRCLE
  5
7C15
330
18
100
AcDbEntity
  8
0
100
AcDbCircle
 10
217.2031199218177
 20
128.1319325826316
 30
0.0
 40
1.5
  0
LINE
  5
7C16
330
18
100
AcDbEntity
  8
0
100
AcDbLine
 10
218.3432394048965
 20
127.15718771124
 30
0.0
 11
216.9290258425234
 21
129.6066774540232
 31
0.0
  0
LINE
  5
7C17
330
18
100
AcDbEntity
  8
0
100
AcDbLine
 10
217.4772140011121
 20
126.6571877112401
 30
0.0
 11
216.063000438739
 21
129.1066774540232
 31
0.0
  0
LINE
  5
7C18
330
18
100
AcDbEntity
  8
0
100
AcDbLine
 10
212.4031199218177
 20
138.3819325826318
 30
0.0
 11
222.3031199218176
 21
138.3819325826318
 31
0.0
  0
LINE
  5
7C19
330
18
100
AcDbEntity
  8
0
100
AcDbLine
 10
217.4772140011121
 20
111.65718771124
 30
0.0
 11
216.063000438739
 21
114.1066774540232
 31
0.0
  0
LINE
  5
7C1A
330
18
100
AcDbEntity
  8
0
100
AcDbLine
 10
218.3432394048965
 20
112.15718771124
 30
0.0
 11
216.9290258425234
 21
114.6066774540232
 31
0.0
  0
CIRCLE
  5
7C1B
330
18
100
AcDbEntity
  8
0
100
AcDbCircle
 10
217.2031199218177
 20
113.1319325826316
 30
0.0
 40
1.5
  0
CIRCLE
  5
7C1C
330
18
100
AcDbEntity
  8
0
100
AcDbCircle
 10
217.2031199218177
 20
113.1319325826316
 30
0.0
 40
1.75
  0
LINE
  5
7C1D
330
18
100
AcDbEntity
  8
0
100
AcDbLine
 10
217.4772140011121
 20
119.1571877112401
 30
0.0
 11
216.063000438739
 21
121.6066774540232
 31
0.0
  0
LINE
  5
7C1E
330
18
100
AcDbEntity
  8
0
100
AcDbLine
 10
218.3432394048965
 20
119.65718771124
 30
0.0
 11
216.9290258425234
 21
122.1066774540232
 31
0.0
  0
CIRCLE
  5
7C1F
330
18
100
AcDbEntity
  8
0
100
AcDbCircle
 10
217.2031199218177
 20
120.6319325826316
 30
0.0
 40
1.5
  0
CIRCLE
  5
7C20
330
18
100
AcDbEntity
  8
0
100
AcDbCircle
 10
217.2031199218177
 20
120.6319325826316
 30
0.0
 40
1.75
  0
CIRCLE
  5
7C21
330
18
100
AcDbEntity
  8
0
100
AcDbCircle
 10
217.2031199218177
 20
98.13193258263169
 30
0.0
 40
1.75
  0
CIRCLE
  5
7C22
330
18
100
AcDbEntity
  8
0
100
AcDbCircle
 10
217.2031199218177
 20
98.13193258263169
 30
0.0
 40
1.5
  0
LINE
  5
7C23
330
18
100
AcDbEntity
  8
0
100
AcDbLine
 10
218.3432394048965
 20
97.15718771124008
 30
0.0
 11
216.9290258425234
 21
99.60667745402323
 31
0.0
  0
LINE
  5
7C24
330
18
100
AcDbEntity
  8
0
100
AcDbLine
 10
217.4772140011121
 20
96.6571877112401
 30
0.0
 11
216.063000438739
 21
99.10667745402328
 31
0.0
  0
LINE
  5
7C25
330
18
100
AcDbEntity
  8
0
100
AcDbLine
 10
217.4772140011121
 20
104.15718771124
 30
0.0
 11
216.063000438739
 21
106.6066774540232
 31
0.0
  0
LINE
  5
7C26
330
18
100
AcDbEntity
  8
0
100
AcDbLine
 10
218.3432394048965
 20
104.65718771124
 30
0.0
 11
216.9290258425234
 21
107.1066774540232
 31
0.0
  0
CIRCLE
  5
7C27
330
18
100
AcDbEntity
  8
0
100
AcDbCircle
 10
217.2031199218177
 20
105.6319325826316
 30
0.0
 40
1.5
  0
CIRCLE
  5
7C28
330
18
100
AcDbEntity
  8
0
100
AcDbCircle
 10
217.2031199218177
 20
105.6319325826316
 30
0.0
 40
1.75
  0
CIRCLE
  5
7C29
330
18
100
AcDbEntity
  8
0
100
AcDbCircle
 10
217.2031199218177
 20
90.63193258263167
 30
0.0
 40
1.75
  0
CIRCLE
  5
7C2A
330
18
100
AcDbEntity
  8
0
100
AcDbCircle
 10
217.2031199218177
 20
90.63193258263167
 30
0.0
 40
1.5
  0
LINE
  5
7C2B
330
18
100
AcDbEntity
  8
0
100
AcDbLine
 10
218.3432394048965
 20
89.65718771124008
 30
0.0
 11
216.9290258425234
 21
92.10667745402323
 31
0.0
  0
LINE
  5
7C2C
330
18
100
AcDbEntity
  8
0
100
AcDbLine
 10
217.4772140011121
 20
89.1571877112401
 30
0.0
 11
216.063000438739
 21
91.60667745402328
 31
0.0
  0
LINE
  5
7C2D
330
18
100
AcDbEntity
  8
0
100
AcDbLine
 10
217.4772140011121
 20
81.6571877112401
 30
0.0
 11
216.063000438739
 21
84.10667745402328
 31
0.0
  0
LINE
  5
7C2E
330
18
100
AcDbEntity
  8
0
100
AcDbLine
 10
218.3432394048965
 20
82.15718771124008
 30
0.0
 11
216.9290258425234
 21
84.60667745402323
 31
0.0
  0
CIRCLE
  5
7C2F
330
18
100
AcDbEntity
  8
0
100
AcDbCircle
 10
217.2031199218177
 20
83.13193258263167
 30
0.0
 40
1.5
  0
CIRCLE
  5
7C30
330
18
100
AcDbEntity
  8
0
100
AcDbCircle
 10
217.2031199218177
 20
83.13193258263167
 30
0.0
 40
1.75
  0
LINE
  5
7C31
330
18
100
AcDbEntity
  8
0
100
AcDbLine
 10
212.4031199218177
 20
80.3819325826317
 30
0.0
 11
222.3031199218177
 21
80.3819325826317
 31
0.0
  0
LINE
  5
7C34
330
18
100
AcDbEntity
  8
0
100
AcDbLine
 10
222.3031199218177
 20
35.13193258263157
 30
0.0
 11
222.3031199218177
 21
78.63193258263169
 31
0.0
  0
LINE
  5
7C3C
330
18
100
AcDbEntity
  8
0
100
AcDbLine
 10
62.61469927035353
 20
80.38193258263181
 30
0.0
 11
62.61469927035353
 21
78.38193258263174
 31
0.0
  0
MTEXT
  5
7D13
330
18
100
AcDbEntity
  8
0
100
AcDbMText
 10
37.6612361622285
 20
162.7833334379616
 30
0.0
 40
2.0
 41
0.0
 71
     1
 72
     5
  1
２４Ｖ
  7
MSｺﾞｼｯｸ
 73
     1
 44
1.0
  0
MTEXT
  5
7D15
330
18
100
AcDbEntity
  8
0
100
AcDbMText
 10
47.15681701449762
 20
173.564320957121
 30
0.0
 40
3.0
 41
0.0
 71
     1
 72
     5
  1
ＴＢ１
  7
MSｺﾞｼｯｸ
 73
     1
 44
1.0
  0
MTEXT
  5
7D16
330
18
100
AcDbEntity
  8
0
100
AcDbMText
 10
47.18009013747655
 20
147.4716691282194
 30
0.0
 40
3.0
 41
0.0
 71
     1
 72
     5
  1
ＴＢ２
  7
MSｺﾞｼｯｸ
 73
     1
 44
1.0
  0
MTEXT
  5
7D19
330
18
100
AcDbEntity
  8
0
100
AcDbMText
 10
40.13067472576787
 20
158.2483884608041
 30
0.0
 40
2.0
 41
0.0
 71
     1
 72
     5
  1
０Ｖ
  7
MSｺﾞｼｯｸ
 73
     1
 44
1.0
  0
MTEXT
  5
7D1A
330
18
100
AcDbEntity
  8
0
100
AcDbMText
 10
42.4868878870243
 20
136.5408065248811
 30
0.0
 40
3.0
 41
0.0
 71
     1
 72
     5
  1
Ｒ\PＳ\PＴ\PB1\PB2\PＵ\PＶ\PＷ
  7
MSｺﾞｼｯｸ
 73
     1
 44
1.5
  0
MTEXT
  5
7D25
330
18
100
AcDbEntity
  8
0
100
AcDbMText
 10
70.90257950255974
 20
178.3781417730186
 30
0.0
 40
2.0
 41
0.0
 71
     1
 72
     5
  1
ＳＴＡＴＵＳ
  7
MSｺﾞｼｯｸ
 73
     1
 44
1.0
  0
MTEXT
  5
7D2A
330
18
100
AcDbEntity
  8
0
100
AcDbMText
 10
43.36181471537474
 20
41.16993013948717
 30
0.0
 40
4.45
 41
0.0
 71
     1
 72
     5
  1
Ｅ
  7
MSｺﾞｼｯｸ
 73
     1
 44
1.0
  0
LINE
  5
7D7A
330
18
100
AcDbEntity
  8
0
100
AcDbLine
 10
109.6146992703536
 20
184.3819325826317
 30
0.0
 11
109.6146992703536
 21
24.38193258263169
 31
0.0
  0
MTEXT
  5
7D7C
330
18
100
AcDbEntity
  8
0
100
AcDbMText
 10
98.66557556075006
 20
120.6569265608816
 30
0.0
 40
3.5
 41
0.0
 71
     5
 72
     5
  1
CN3
  7
MSｺﾞｼｯｸ
 73
     1
 44
1.0
  0
LINE
  5
7D7D
330
18
100
AcDbEntity
  8
0
370
    15
100
AcDbLine
 10
96.50212747085911
 20
57.24197616831699
 30
0.0
 11
95.13955567136449
 21
54.88193258263184
 31
0.0
  0
LINE
  5
7D7E
330
18
100
AcDbEntity
  8
0
370
    15
100
AcDbLine
 10
95.13955567136449
 20
54.88193258263184
 30
0.0
 11
96.50212747085911
 21
52.52188899694667
 31
0.0
  0
LINE
  5
7D7F
330
18
100
AcDbEntity
  8
0
370
    15
100
AcDbLine
 10
103.1146992703537
 20
51.88193258263183
 30
0.0
 11
92.61469927035372
 21
51.88193258263178
 31
0.0
  0
LINE
  5
7D80
330
18
100
AcDbEntity
  8
0
370
    15
100
AcDbLine
 10
94.61469927035372
 20
61.88193258263183
 30
0.0
 11
101.1146992703537
 21
60.38193258263183
 31
0.0
  0
LINE
  5
7D81
330
18
100
AcDbEntity
  8
0
100
AcDbLine
 10
90.61469927035361
 20
50.88193258263183
 30
0.0
 11
106.1146992703537
 21
50.88193258263183
 31
0.0
  0
LINE
  5
7D82
330
18
100
AcDbEntity
  8
0
370
    15
100
AcDbLine
 10
94.61469927035372
 20
105.8819325826318
 30
0.0
 11
101.1146992703537
 21
107.3819325826317
 31
0.0
  0
LINE
  5
7D83
330
18
100
AcDbEntity
  8
0
370
    15
100
AcDbLine
 10
95.13955567136449
 20
112.8819325826318
 30
0.0
 11
96.50212747085911
 21
115.2419761683169
 31
0.0
  0
LINE
  5
7D84
330
18
100
AcDbEntity
  8
0
370
    15
100
AcDbLine
 10
96.50212747085911
 20
110.5218889969466
 30
0.0
 11
95.13955567136449
 21
112.8819325826318
 31
0.0
  0
LINE
  5
7D85
330
18
100
AcDbEntity
  8
0
370
    15
100
AcDbLine
 10
103.1146992703537
 20
115.8819325826317
 30
0.0
 11
92.61469927035372
 21
115.8819325826317
 31
0.0
  0
LINE
  5
7D86
330
18
100
AcDbEntity
  8
0
100
AcDbLine
 10
90.61469927035364
 20
116.8819325826318
 30
0.0
 11
106.1146992703536
 21
116.8819325826317
 31
0.0
  0
LINE
  5
7D87
330
18
100
AcDbEntity
  8
0
100
AcDbLine
 10
91.81469927035369
 20
50.88193258263178
 30
0.0
 11
91.81469927035369
 21
116.8819325826318
 31
0.0
  0
LINE
  5
7D88
330
18
100
AcDbEntity
  8
0
370
    15
100
AcDbLine
 10
92.61469927035372
 20
115.8819325826317
 30
0.0
 11
92.61469927035372
 21
51.88193258263183
 31
0.0
  0
LINE
  5
7D89
330
18
100
AcDbEntity
  8
0
370
    15
100
AcDbLine
 10
94.61469927035372
 20
105.8819325826317
 30
0.0
 11
94.61469927035372
 21
61.88193258263183
 31
0.0
  0
LINE
  5
7D8A
330
18
100
AcDbEntity
  8
0
100
AcDbLine
 10
93.41469927035367
 20
50.88193258263183
 30
0.0
 11
93.41469927035365
 21
51.88193258263178
 31
0.0
  0
LINE
  5
7D8B
330
18
100
AcDbEntity
  8
0
100
AcDbLine
 10
93.4146992703536
 20
115.8819325826317
 30
0.0
 11
93.4146992703536
 21
116.8819325826318
 31
0.0
  0
LINE
  5
7D8C
330
18
100
AcDbEntity
  8
0
100
AcDbLine
 10
91.81469927035365
 20
113.6319325826317
 30
0.0
 11
91.81469927035365
 21
108.1319325826317
 31
0.0
  0
LINE
  5
7D8D
330
18
100
AcDbEntity
  8
0
100
AcDbLine
 10
106.1146992703536
 20
116.8819325826317
 30
0.0
 11
106.1146992703537
 21
50.88193258263183
 31
0.0
  0
LINE
  5
7D8E
330
18
100
AcDbEntity
  8
0
370
    15
100
AcDbLine
 10
103.1146992703537
 20
115.8819325826317
 30
0.0
 11
103.1146992703537
 21
51.88193258263183
 31
0.0
  0
LINE
  5
7D8F
330
18
100
AcDbEntity
  8
0
370
    15
100
AcDbLine
 10
101.1146992703537
 20
107.3819325826317
 30
0.0
 11
101.1146992703537
 21
60.38193258263183
 31
0.0
  0
LINE
  5
7D90
330
18
100
AcDbEntity
  8
0
370
    15
100
AcDbLine
 10
99.22727106984835
 20
52.52188899694667
 30
0.0
 11
96.50212747085911
 21
52.52188899694667
 31
0.0
  0
LINE
  5
7D91
330
18
100
AcDbEntity
  8
0
370
    15
100
AcDbLine
 10
100.5898428693429
 20
54.88193258263184
 30
0.0
 11
99.22727106984835
 21
57.24197616831699
 31
0.0
  0
LINE
  5
7D92
330
18
100
AcDbEntity
  8
0
370
    15
100
AcDbLine
 10
99.22727106984835
 20
57.24197616831699
 30
0.0
 11
96.50212747085911
 21
57.24197616831699
 31
0.0
  0
LINE
  5
7D93
330
18
100
AcDbEntity
  8
0
370
    15
100
AcDbLine
 10
99.22727106984835
 20
52.52188899694667
 30
0.0
 11
100.5898428693429
 21
54.88193258263184
 31
0.0
  0
CIRCLE
  5
7D94
330
18
100
AcDbEntity
  8
0
370
    15
100
AcDbCircle
 10
97.86469927035373
 20
54.88193258263184
 30
0.0
 40
1.5
  0
LINE
  5
7D95
330
18
100
AcDbEntity
  8
0
370
    15
100
AcDbLine
 10
99.22727106984835
 20
110.5218889969466
 30
0.0
 11
96.50212747085911
 21
110.5218889969466
 31
0.0
  0
LINE
  5
7D96
330
18
100
AcDbEntity
  8
0
370
    15
100
AcDbLine
 10
99.22727106984835
 20
115.2419761683169
 30
0.0
 11
100.5898428693429
 21
112.8819325826318
 31
0.0
  0
LINE
  5
7D97
330
18
100
AcDbEntity
  8
0
370
    15
100
AcDbLine
 10
99.22727106984835
 20
115.2419761683169
 30
0.0
 11
96.50212747085911
 21
115.2419761683169
 31
0.0
  0
LINE
  5
7D98
330
18
100
AcDbEntity
  8
0
370
    15
100
AcDbLine
 10
100.5898428693429
 20
112.8819325826318
 30
0.0
 11
99.22727106984835
 21
110.5218889969466
 31
0.0
  0
CIRCLE
  5
7D99
330
18
100
AcDbEntity
  8
0
370
    15
100
AcDbCircle
 10
97.86469927035373
 20
112.8819325826318
 30
0.0
 40
1.5
  0
MTEXT
  5
7D9A
330
18
100
AcDbEntity
  8
0
100
AcDbMText
 10
95.4246649778488
 20
171.8063793218521
 30
0.0
 40
3.5
 41
0.0
 71
     1
 72
     5
  1
P1
  7
MSｺﾞｼｯｸ
 73
     1
 44
1.0
  0
LINE
  5
7D9B
330
18
100
AcDbEntity
  8
0
100
AcDbLine
 10
100.4146992703535
 20
148.3819325826317
 30
0.0
 11
93.41469927035356
 21
148.3819325826317
 31
0.0
  0
LINE
  5
7D9C
330
18
100
AcDbEntity
  8
0
100
AcDbLine
 10
100.4146992703535
 20
158.8819325826317
 30
0.0
 11
93.41469927035356
 21
158.8819325826317
 31
0.0
  0
LINE
  5
7D9D
330
18
100
AcDbEntity
  8
0
100
AcDbLine
 10
90.61469927035366
 20
166.8819325826318
 30
0.0
 11
103.6146992703536
 21
166.8819325826318
 31
0.0
  0
LINE
  5
7D9E
330
18
100
AcDbEntity
  8
0
100
AcDbLine
 10
90.61469927035364
 20
139.3819325826317
 30
0.0
 11
103.6146992703536
 21
139.3819325826317
 31
0.0
  0
LINE
  5
7D9F
330
18
100
AcDbEntity
  8
0
100
AcDbLine
 10
91.81469927035365
 20
139.3819325826317
 30
0.0
 11
91.81469927035369
 21
166.8819325826318
 31
0.0
  0
LINE
  5
7DA0
330
18
100
AcDbEntity
  8
0
100
AcDbLine
 10
93.41469927035356
 20
139.3819325826317
 30
0.0
 11
93.41469927035356
 21
166.8819325826318
 31
0.0
  0
LINE
  5
7DA1
330
18
100
AcDbEntity
  8
0
100
AcDbLine
 10
93.41469927035356
 20
158.8819325826317
 30
0.0
 11
93.41469927035367
 21
148.3819325826317
 31
0.0
  0
CIRCLE
  5
7DA2
330
18
100
AcDbEntity
  8
0
100
AcDbCircle
 10
97.4146992703538
 20
152.3819325826317
 30
0.0
 40
0.5
  0
LINE
  5
7DA3
330
18
100
AcDbEntity
  8
0
100
AcDbLine
 10
99.91469927035357
 20
158.8819325826317
 30
0.0
 11
99.91469927035357
 21
148.3819325826317
 31
0.0
  0
LINE
  5
7DA4
330
18
100
AcDbEntity
  8
0
100
AcDbLine
 10
100.4146992703535
 20
158.8819325826317
 30
0.0
 11
100.4146992703535
 21
148.3819325826317
 31
0.0
  0
LINE
  5
7DA5
330
18
100
AcDbEntity
  8
0
100
AcDbLine
 10
103.6146992703536
 20
166.8819325826318
 30
0.0
 11
103.6146992703536
 21
139.3819325826317
 31
0.0
  0
CIRCLE
  5
7DA6
330
18
100
AcDbEntity
  8
0
100
AcDbCircle
 10
97.4146992703538
 20
149.8819325826317
 30
0.0
 40
0.5
  0
CIRCLE
  5
7DA7
330
18
100
AcDbEntity
  8
0
100
AcDbCircle
 10
97.4146992703538
 20
154.8819325826317
 30
0.0
 40
0.5
  0
CIRCLE
  5
7DA8
330
18
100
AcDbEntity
  8
0
100
AcDbCircle
 10
97.4146992703538
 20
157.3819325826317
 30
0.0
 40
0.5
  0
LINE
  5
7F2A
102
{ACAD_REACTORS
330
7F2E
102
}
330
18
100
AcDbEntity
  8
0
100
AcDbLine
 10
279.6729592686715
 20
98.67487970041986
 30
0.0
 11
281.9157592686715
 21
98.67487970041986
 31
0.0
  0
LINE
  5
7F2B
102
{ACAD_REACTORS
330
7F2E
102
}
330
18
100
AcDbEntity
  8
0
100
AcDbLine
 10
282.0759592686718
 20
99.87637970041999
 30
0.0
 11
279.2724592686718
 21
98.99527970041948
 31
0.0
  0
LINE
  5
7F2C
102
{ACAD_REACTORS
330
7F2E
102
}
330
18
100
AcDbEntity
  8
0
100
AcDbLine
 10
277.2699592686712
 20
96.67237970042027
 30
0.0
 11
281.675459268672
 21
96.67237970042027
 31
0.0
  0
LINE
  5
7F2D
102
{ACAD_REACTORS
330
7F2E
102
}
330
18
100
AcDbEntity
  8
0
100
AcDbLine
 10
277.6704592686728
 20
99.87637970041999
 30
0.0
 11
282.0759592686718
 21
99.87637970041999
 31
0.0
  0
HATCH
  5
7F2E
330
18
100
AcDbEntity
  8
0
100
AcDbHatch
 10
0.0
 20
0.0
 30
0.0
210
0.0
220
0.0
230
1.0
  2
SOLID
 70
     1
 71
     1
 91
        2
 92
       17
 93
        1
 72
     2
 10
279.6729592686715
 20
98.07412970041935
 40
0.6007500000000002
 50
0.0
 51
360.0
 73
     1
 97
        1
330
7F4A
 92
        1
 93
        8
 72
     2
 10
279.6738906640202
 20
98.07599249111774
 40
1.00311322310025
 50
113.5897772726145
 51
269.9468005913759
 73
     1
 72
     2
 10
279.6729592686715
 20
97.87387970041947
 40
0.8009999999999999
 50
270.0
 51
450.0
 73
     1
 72
     1
 10
279.6729592686715
 20
98.67487970041986
 11
281.9157592686715
 21
98.67487970041986
 72
     1
 10
281.9157592686715
 20
98.67487970041986
 11
281.675459268672
 21
96.67237970042027
 72
     1
 10
281.675459268672
 20
96.67237970042027
 11
277.2699592686712
 21
96.67237970042027
 72
     1
 10
277.2699592686712
 20
96.67237970042027
 11
277.6704592686728
 21
99.87637970041999
 72
     1
 10
277.6704592686728
 20
99.87637970041999
 11
282.0759592686718
 21
99.87637970041999
 72
     1
 10
282.0759592686718
 20
99.87637970041999
 11
279.2724592686718
 21
98.99527970041948
 97
        8
330
7F4B
330
7F48
330
7F2A
330
7F54
330
7F2C
330
7F49
330
7F2D
330
7F2B
 75
     0
 76
     1
 98
        1
 10
78.19524917443596
 20
100.5536045161794
  0
TEXT
  5
7F2F
330
18
100
AcDbEntity
  8
0
100
AcDbText
 10
275.846836115641
 20
104.0921237600461
 30
0.0
 40
2.0
  1
MODEL:NCR-*A**
 41
1.199999999999999
  7
MSｺﾞｼｯｸ
 11
275.846836115641
 21
103.7266415265436
 31
0.0
100
AcDbText
 73
     1
  0
TEXT
  5
7F30
330
18
100
AcDbEntity
  8
0
100
AcDbText
 10
275.8197095428295
 20
101.3777350816655
 30
0.0
 40
2.0
  1
SER No.******
 41
1.199999999999999
  7
MSｺﾞｼｯｸ
 11
275.8197095428295
 21
101.012252848163
 31
0.0
100
AcDbText
 73
     1
  0
LINE
  5
7F31
330
18
100
AcDbEntity
  8
0
100
AcDbLine
 10
293.7239127675947
 20
82.31885628241855
 30
0.0
 11
279.2239127675947
 21
82.31885628241855
 31
0.0
  0
LINE
  5
7F32
330
18
100
AcDbEntity
  8
0
100
AcDbLine
 10
279.2239127675947
 20
87.81885628241855
 30
0.0
 11
293.7239127675947
 21
87.81885628241855
 31
0.0
  0
TEXT
  5
7F33
330
18
100
AcDbEntity
  8
0
100
AcDbText
 10
279.8676953015929
 20
69.95599428928938
 30
0.0
 40
2.5
  1
ＳＯＵＲＣＥ
 41
0.6
  7
MSｺﾞｼｯｸ
100
AcDbText
  0
LINE
  5
7F34
330
18
100
AcDbEntity
  8
0
100
AcDbLine
 10
309.2239127675948
 20
107.8188562824185
 30
0.0
 11
275.2239127675948
 21
107.8188562824185
 31
0.0
  0
LINE
  5
7F35
330
18
100
AcDbEntity
  8
0
100
AcDbLine
 10
274.7239127675948
 20
100.8188562824185
 30
0.0
 11
309.7239127675948
 21
100.8188562824185
 31
0.0
  0
LINE
  5
7F36
330
18
100
AcDbEntity
  8
0
100
AcDbLine
 10
275.2239127675948
 20
95.81885628241854
 30
0.0
 11
309.2239127675948
 21
95.81885628241854
 31
0.0
  0
TEXT
  5
7F37
330
18
100
AcDbEntity
  8
0
100
AcDbText
 10
279.8676953015929
 20
77.95599428928937
 30
0.0
 40
2.5
  1
ＣＯＮＴ.ＡＭＰＳ    *** Ａ
 41
0.6
  7
MSｺﾞｼｯｸ
100
AcDbText
  0
LINE
  5
7F38
330
18
100
AcDbEntity
  8
0
100
AcDbLine
 10
279.2239127675947
 20
81.31885628241855
 30
0.0
 11
305.2239127675948
 21
81.31885628241855
 31
0.0
  0
LINE
  5
7F39
330
18
100
AcDbEntity
  8
0
100
AcDbLine
 10
278.2239127675948
 20
94.31885628241856
 30
0.0
 11
306.2239127675947
 21
94.31885628241856
 31
0.0
  0
LINE
  5
7F3A
330
18
100
AcDbEntity
  8
0
100
AcDbLine
 10
305.2239127675948
 20
73.31885628241855
 30
0.0
 11
279.2239127675947
 21
73.31885628241855
 31
0.0
  0
LINE
  5
7F3B
330
18
100
AcDbEntity
  8
0
100
AcDbLine
 10
305.2239127675948
 20
62.31885628241855
 30
0.0
 11
279.2239127675947
 21
62.31885628241855
 31
0.0
  0
TEXT
  5
7F3C
330
18
100
AcDbEntity
  8
0
100
AcDbText
 10
278.887459282967
 20
58.87565877645704
 30
0.0
 40
2.7
  1
NIKKI DENSO CO.,LTD
 41
0.8
  7
MSｺﾞｼｯｸ
100
AcDbText
  0
TEXT
  5
7F3D
330
18
100
AcDbEntity
  8
0
100
AcDbText
 10
279.8676953015929
 20
73.95599428928938
 30
0.0
 40
2.5
  1
ＰＥＡＫ.ＡＭＰＳ    *** Ａ
 41
0.6
  7
MSｺﾞｼｯｸ
100
AcDbText
  0
LINE
  5
7F3E
330
18
100
AcDbEntity
  8
0
100
AcDbLine
 10
279.2239127675947
 20
77.31885628241855
 30
0.0
 11
305.2239127675948
 21
77.31885628241855
 31
0.0
  0
LINE
  5
7F3F
330
18
100
AcDbEntity
  8
0
100
AcDbLine
 10
306.2239127675947
 20
54.31885628241855
 30
0.0
 11
278.2239127675948
 21
54.31885628241855
 31
0.0
  0
LINE
  5
7F40
330
18
100
AcDbEntity
  8
0
100
AcDbLine
 10
277.2239127675948
 20
93.31885628241854
 30
0.0
 11
277.2239127675948
 21
55.31885628241855
 31
0.0
  0
LINE
  5
7F41
330
18
100
AcDbEntity
  8
0
100
AcDbLine
 10
279.2239127675947
 20
62.31885628241855
 30
0.0
 11
279.2239127675947
 21
81.31885628241855
 31
0.0
  0
ARC
  5
7F42
330
18
100
AcDbEntity
  8
0
100
AcDbCircle
 10
278.2239127675948
 20
55.31885628241855
 30
0.0
 40
1.0
100
AcDbArc
 50
180.0
 51
270.0
  0
LINE
  5
7F43
330
18
100
AcDbEntity
  8
0
100
AcDbLine
 10
279.2239127675947
 20
82.31885628241855
 30
0.0
 11
279.2239127675947
 21
87.81885628241855
 31
0.0
  0
ARC
  5
7F44
330
18
100
AcDbEntity
  8
0
100
AcDbCircle
 10
278.2239127675948
 20
93.31885628241854
 30
0.0
 40
1.0
100
AcDbArc
 50
90.0
 51
180.0
  0
LINE
  5
7F45
330
18
100
AcDbEntity
  8
0
100
AcDbLine
 10
274.7239127675948
 20
107.3188562824185
 30
0.0
 11
274.7239127675948
 21
96.31885628241855
 31
0.0
  0
ARC
  5
7F46
330
18
100
AcDbEntity
  8
0
100
AcDbCircle
 10
275.2239127675948
 20
96.31885628241855
 30
0.0
 40
0.5
100
AcDbArc
 50
180.0
 51
270.0
  0
ARC
  5
7F47
330
18
100
AcDbEntity
  8
0
100
AcDbCircle
 10
275.2239127675948
 20
107.3188562824185
 30
0.0
 40
0.5
100
AcDbArc
 50
90.0
 51
180.0
  0
ARC
  5
7F48
102
{ACAD_REACTORS
330
7F2E
102
}
330
18
100
AcDbEntity
  8
0
100
AcDbCircle
 10
279.6729592686715
 20
97.87387970041947
 30
0.0
 40
0.8009999999999999
100
AcDbArc
 50
270.0
 51
90.0
  0
LINE
  5
7F49
102
{ACAD_REACTORS
330
7F2E
102
}
330
18
100
AcDbEntity
  8
0
100
AcDbLine
 10
277.2699592686712
 20
96.67237970042027
 30
0.0
 11
277.6704592686728
 21
99.87637970041999
 31
0.0
  0
CIRCLE
  5
7F4A
102
{ACAD_REACTORS
330
7F2E
102
}
330
18
100
AcDbEntity
  8
0
100
AcDbCircle
 10
279.6729592686715
 20
98.07412970041935
 30
0.0
 40
0.6007500000000002
  0
ARC
  5
7F4B
102
{ACAD_REACTORS
330
7F2E
102
}
330
18
100
AcDbEntity
  8
0
100
AcDbCircle
 10
279.6738906640202
 20
98.07599249111774
 30
0.0
 40
1.00311322310025
100
AcDbArc
 50
113.5897772726145
 51
269.9468005913759
  0
LINE
  5
7F4C
330
18
100
AcDbEntity
  8
0
100
AcDbLine
 10
295.7239127675947
 20
87.81885628241855
 30
0.0
 11
305.2239127675948
 21
87.81885628241855
 31
0.0
  0
LINE
  5
7F4D
330
18
100
AcDbEntity
  8
0
100
AcDbLine
 10
305.2239127675948
 20
82.31885628241855
 30
0.0
 11
295.7239127675947
 21
82.31885628241855
 31
0.0
  0
TEXT
  5
7F4E
330
18
100
AcDbEntity
  8
0
100
AcDbText
 10
282.8251300827996
 20
88.66057682911934
 30
0.0
 40
3.299999999999999
  1
NCR-*A**
  7
MSｺﾞｼｯｸ
100
AcDbText
  0
TEXT
  5
7F4F
330
18
100
AcDbEntity
  8
0
100
AcDbText
 10
285.2666361172068
 20
55.71086325093176
 30
0.0
 40
2.7
  1
MADE IN JAPAN
 41
0.8
  7
MSｺﾞｼｯｸ
100
AcDbText
  0
TEXT
  5
7F50
330
18
100
AcDbEntity
  8
0
100
AcDbText
 10
288.2089100137618
 20
64.41289781963144
 30
0.0
 40
5.0
  1
＊＊＊
 41
0.45
  7
MSｺﾞｼｯｸ
100
AcDbText
  0
TEXT
  5
7F51
330
18
100
AcDbEntity
  8
0
100
AcDbText
 10
283.0134716031989
 20
98.41687624798908
 30
0.0
 40
1.44
  1
NIKKI
 41
1.25
  7
MSｺﾞｼｯｸ
100
AcDbText
  0
TEXT
  5
7F52
330
18
100
AcDbEntity
  8
0
100
AcDbText
 10
282.2954878466635
 20
83.28888144623272
 30
0.0
 40
3.299999999999999
  1
＊＊＊
 41
0.8
  7
MSｺﾞｼｯｸ
100
AcDbText
  0
TEXT
  5
7F53
330
18
100
AcDbEntity
  8
0
100
AcDbText
 10
282.8920584930601
 20
96.72011383900338
 30
0.0
 40
1.44
  1
DENSO
 41
1.3
  7
MSｺﾞｼｯｸ
100
AcDbText
  0
LINE
  5
7F54
102
{ACAD_REACTORS
330
7F2E
102
}
330
18
100
AcDbEntity
  8
0
100
AcDbLine
 10
281.675459268672
 20
96.67237970042027
 30
0.0
 11
281.9157592686715
 21
98.67487970041986
 31
0.0
  0
LINE
  5
7F55
330
18
100
AcDbEntity
  8
0
100
AcDbLine
 10
293.9739127675948
 20
85.06885628241855
 30
0.0
 11
295.4739127675948
 21
85.06885628241855
 31
0.0
  0
LINE
  5
7F56
330
18
100
AcDbEntity
  8
0
100
AcDbLine
 10
293.7239127675947
 20
87.81885628241855
 30
0.0
 11
293.7239127675947
 21
82.31885628241855
 31
0.0
  0
LINE
  5
7F57
330
18
100
AcDbEntity
  8
0
100
AcDbLine
 10
295.7239127675947
 20
82.31885628241855
 30
0.0
 11
295.7239127675947
 21
87.81885628241855
 31
0.0
  0
LINE
  5
7F58
330
18
100
AcDbEntity
  8
0
100
AcDbLine
 10
307.2239127675948
 20
93.31885628241854
 30
0.0
 11
307.2239127675948
 21
55.31885628241855
 31
0.0
  0
LINE
  5
7F59
330
18
100
AcDbEntity
  8
0
100
AcDbLine
 10
305.2239127675948
 20
81.31885628241855
 30
0.0
 11
305.2239127675948
 21
62.31885628241855
 31
0.0
  0
ARC
  5
7F5A
330
18
100
AcDbEntity
  8
0
100
AcDbCircle
 10
306.2239127675947
 20
55.31885628241855
 30
0.0
 40
1.0
100
AcDbArc
 50
270.0
 51
0.0
  0
LINE
  5
7F5B
330
18
100
AcDbEntity
  8
0
100
AcDbLine
 10
305.2239127675948
 20
87.81885628241855
 30
0.0
 11
305.2239127675948
 21
82.31885628241855
 31
0.0
  0
ARC
  5
7F5C
330
18
100
AcDbEntity
  8
0
100
AcDbCircle
 10
306.2239127675947
 20
93.31885628241854
 30
0.0
 40
1.0
100
AcDbArc
 50
0.0
 51
90.0
  0
LINE
  5
7F5D
330
18
100
AcDbEntity
  8
0
100
AcDbLine
 10
309.7239127675948
 20
96.31885628241855
 30
0.0
 11
309.7239127675948
 21
107.3188562824185
 31
0.0
  0
ARC
  5
7F5E
330
18
100
AcDbEntity
  8
0
100
AcDbCircle
 10
309.2239127675948
 20
96.31885628241855
 30
0.0
 40
0.5
100
AcDbArc
 50
270.0
 51
0.0
  0
ARC
  5
7F5F
330
18
100
AcDbEntity
  8
0
100
AcDbCircle
 10
309.2239127675948
 20
107.3188562824185
 30
0.0
 40
0.5
100
AcDbArc
 50
0.0
 51
90.0
  0
TEXT
  5
7F60
330
18
100
AcDbEntity
  8
0
100
AcDbText
 10
294.3455731621452
 20
98.32345155885542
 30
137.5
 40
1.5
  1
SN-16140
  7
MSｺﾞｼｯｸ
 11
294.3455731621452
 21
98.04933988372852
 31
137.5
100
AcDbText
 73
     1
  0
TEXT
  5
7F61
330
18
100
AcDbEntity
  8
0
100
AcDbText
 10
294.3455731621452
 20
96.45366550847013
 30
137.5
 40
1.5
  1
MADE IN JAPAN
  7
MSｺﾞｼｯｸ
 11
294.3455731621452
 21
96.17955383334322
 31
137.5
100
AcDbText
 73
     1
  0
TEXT
  5
7F62
330
18
100
AcDbEntity
  8
0
100
AcDbText
 10
266.3312614608208
 20
59.86015642655195
 30
0.0
 40
1.44
  1
NIKKI
  7
MSｺﾞｼｯｸ
100
AcDbText
  0
TEXT
  5
7F63
330
18
100
AcDbEntity
  8
0
100
AcDbText
 10
266.2098483506821
 20
58.16339401756625
 30
0.0
 40
1.44
  1
DENSO
  7
MSｺﾞｼｯｸ
100
AcDbText
  0
LINE
  5
7F64
330
18
100
AcDbEntity
  8
0
100
AcDbLine
 10
259.330675724676
 20
62.81716579836995
 30
0.0
 11
274.330675724676
 21
62.81716579836995
 31
0.0
  0
TEXT
  5
7F65
330
18
100
AcDbEntity
  8
0
100
AcDbText
 10
260.5453942038826
 20
63.50241873009618
 30
0.0
 40
2.0
  1
Certificate
  7
MSｺﾞｼｯｸ
 11
260.5453942038826
 21
63.13693649659365
 31
0.0
100
AcDbText
 73
     1
  0
LWPOLYLINE
  5
7F66
330
18
100
AcDbEntity
  8
0
100
AcDbPolyline
 90
        8
 70
     1
 43
0.0
 10
259.830675724676
 20
56.81716579836995
 10
273.830675724676
 20
56.8171657983695
 42
0.4142135623730951
 10
274.330675724676
 20
57.3171657983695
 10
274.330675724676
 20
66.3171657983695
 42
0.4142135623730951
 10
273.830675724676
 20
66.8171657983695
 10
259.830675724676
 20
66.8171657983695
 42
0.4142135623730996
 10
259.330675724676
 20
66.3171657983695
 10
259.330675724676
 20
57.31716579836995
 42
0.4142135623730904
  0
LINE
  5
7F67
102
{ACAD_REACTORS
330
7F6C
102
}
330
18
100
AcDbEntity
  8
0
100
AcDbLine
 10
264.993249126294
 20
58.11565987898314
 30
0.0
 11
265.2335491262935
 21
60.11815987898273
 31
0.0
  0
ARC
  5
7F68
102
{ACAD_REACTORS
330
7F6C
102
}
330
18
100
AcDbEntity
  8
0
100
AcDbCircle
 10
262.9907491262934
 20
59.31715987898235
 30
0.0
 40
0.8009999999999999
100
AcDbArc
 50
270.0
 51
90.0
  0
CIRCLE
  5
7F69
102
{ACAD_REACTORS
330
7F6C
102
}
330
18
100
AcDbEntity
  8
0
100
AcDbCircle
 10
262.9907491262934
 20
59.51740987898222
 30
0.0
 40
0.6007500000000002
  0
LINE
  5
7F6A
102
{ACAD_REACTORS
330
7F6C
102
}
330
18
100
AcDbEntity
  8
0
100
AcDbLine
 10
260.5877491262932
 20
58.11565987898314
 30
0.0
 11
260.9882491262948
 21
61.31965987898286
 31
0.0
  0
ARC
  5
7F6B
102
{ACAD_REACTORS
330
7F6C
102
}
330
18
100
AcDbEntity
  8
0
100
AcDbCircle
 10
262.9916805216422
 20
59.51927266968062
 30
0.0
 40
1.00311322310025
100
AcDbArc
 50
113.5897772726145
 51
269.9468005913759
  0
HATCH
  5
7F6C
330
18
100
AcDbEntity
  8
0
100
AcDbHatch
 10
0.0
 20
0.0
 30
0.0
210
0.0
220
0.0
230
1.0
  2
SOLID
 70
     1
 71
     1
 91
        2
 92
       17
 93
        1
 72
     2
 10
262.9907491262934
 20
59.51740987898222
 40
0.6007500000000002
 50
0.0
 51
360.0
 73
     1
 97
        1
330
7F69
 92
        1
 93
        8
 72
     2
 10
262.9916805216422
 20
59.51927266968062
 40
1.00311322310025
 50
113.5897772726145
 51
269.9468005913759
 73
     1
 72
     2
 10
262.9907491262934
 20
59.31715987898235
 40
0.8009999999999999
 50
270.0
 51
450.0
 73
     1
 72
     1
 10
262.9907491262934
 20
60.11815987898273
 11
265.2335491262935
 21
60.11815987898273
 72
     1
 10
265.2335491262935
 20
60.11815987898273
 11
264.993249126294
 21
58.11565987898314
 72
     1
 10
264.993249126294
 20
58.11565987898314
 11
260.5877491262932
 21
58.11565987898314
 72
     1
 10
260.5877491262932
 20
58.11565987898314
 11
260.9882491262948
 21
61.31965987898286
 72
     1
 10
260.9882491262948
 20
61.31965987898286
 11
265.3937491262937
 21
61.31965987898286
 72
     1
 10
265.3937491262937
 20
61.31965987898286
 11
262.5902491262937
 21
60.43855987898234
 97
        8
330
7F6B
330
7F68
330
7F6E
330
7F67
330
7F6D
330
7F6A
330
7F70
330
7F6F
 75
     0
 76
     1
 98
        1
 10
61.51303903205792
 20
61.99688469474233
  0
LINE
  5
7F6D
102
{ACAD_REACTORS
330
7F6C
102
}
330
18
100
AcDbEntity
  8
0
100
AcDbLine
 10
260.5877491262932
 20
58.11565987898314
 30
0.0
 11
264.993249126294
 21
58.11565987898314
 31
0.0
  0
LINE
  5
7F6E
102
{ACAD_REACTORS
330
7F6C
102
}
330
18
100
AcDbEntity
  8
0
100
AcDbLine
 10
262.9907491262934
 20
60.11815987898273
 30
0.0
 11
265.2335491262935
 21
60.11815987898273
 31
0.0
  0
LINE
  5
7F6F
102
{ACAD_REACTORS
330
7F6C
102
}
330
18
100
AcDbEntity
  8
0
100
AcDbLine
 10
265.3937491262937
 20
61.31965987898286
 30
0.0
 11
262.5902491262937
 21
60.43855987898234
 31
0.0
  0
LINE
  5
7F70
102
{ACAD_REACTORS
330
7F6C
102
}
330
18
100
AcDbEntity
  8
0
100
AcDbLine
 10
260.9882491262948
 20
61.31965987898286
 30
0.0
 11
265.3937491262937
 21
61.31965987898286
 31
0.0
  0
LINE
  5
7F93
330
18
100
AcDbEntity
  8
0
100
AcDbLine
 10
53.0480326036868
 20
36.29994368516026
 30
0.0
 11
53.0480326036868
 21
38.21526591596528
 31
0.0
  0
LINE
  5
7F94
330
18
100
AcDbEntity
  8
0
100
AcDbLine
 10
54.38136593702018
 20
36.29994368516026
 30
0.0
 11
54.38136593702018
 21
38.21526591596528
 31
0.0
  0
CIRCLE
  5
7F95
330
18
100
AcDbEntity
  8
0
100
AcDbCircle
 10
53.71469927035343
 20
38.88193258263197
 30
0.0
 40
4.0
  0
CIRCLE
  5
7F96
330
18
100
AcDbEntity
  8
0
100
AcDbCircle
 10
53.71469927035343
 20
38.88193258263197
 30
0.0
 40
3.333333333333333
  0
ARC
  5
7F97
330
18
100
AcDbEntity
  8
0
100
AcDbCircle
 10
53.71469927035343
 20
38.88193258263197
 30
0.0
 40
2.666666666666666
100
AcDbArc
 50
255.5224878140716
 51
284.4775121859282
  0
ARC
  5
7F98
330
18
100
AcDbEntity
  8
0
100
AcDbCircle
 10
53.71469927035343
 20
38.88193258263197
 30
0.0
 40
2.666666666666666
100
AcDbArc
 50
75.52248781407172
 51
104.4775121859282
  0
LINE
  5
7F99
330
18
100
AcDbEntity
  8
0
100
AcDbLine
 10
53.0480326036868
 20
39.54859924929866
 30
0.0
 11
53.0480326036868
 21
41.46392148010369
 31
0.0
  0
ARC
  5
7F9A
330
18
100
AcDbEntity
  8
0
100
AcDbCircle
 10
53.71469927035343
 20
38.88193258263197
 30
0.0
 40
2.666666666666666
100
AcDbArc
 50
165.5224878140701
 51
194.4775121859299
  0
LINE
  5
7F9B
330
18
100
AcDbEntity
  8
0
100
AcDbLine
 10
51.13271037288234
 20
39.54859924929866
 30
0.0
 11
53.0480326036868
 21
39.54859924929866
 31
0.0
  0
LINE
  5
7F9C
330
18
100
AcDbEntity
  8
0
100
AcDbLine
 10
51.13271037288234
 20
38.21526591596528
 30
0.0
 11
53.0480326036868
 21
38.21526591596528
 31
0.0
  0
LINE
  5
7F9D
330
18
100
AcDbEntity
  8
0
100
AcDbLine
 10
54.38136593702018
 20
39.54859924929866
 30
0.0
 11
56.29668816782521
 21
39.54859924929866
 31
0.0
  0
LINE
  5
7F9E
330
18
100
AcDbEntity
  8
0
100
AcDbLine
 10
54.38136593702018
 20
39.54859924929866
 30
0.0
 11
54.38136593702018
 21
41.46392148010369
 31
0.0
  0
LINE
  5
7F9F
330
18
100
AcDbEntity
  8
0
100
AcDbLine
 10
54.38136593702018
 20
38.21526591596528
 30
0.0
 11
56.29668816782521
 21
38.21526591596528
 31
0.0
  0
ARC
  5
7FA0
330
18
100
AcDbEntity
  8
0
100
AcDbCircle
 10
53.71469927035343
 20
38.88193258263197
 30
0.0
 40
2.666666666666666
100
AcDbArc
 50
345.52248781407
 51
14.47751218592991
  0
INSERT
  5
8125
330
18
100
AcDbEntity
  8
0
100
AcDbBlockReference
  2
VORDANS1
 10
45.81469927035357
 20
150.3719325826316
 30
0.0
  0
LINE
  5
8129
330
18
100
AcDbEntity
  8
0
100
AcDbLine
 10
49.21469927035355
 20
148.8769325826317
 30
0.0
 11
49.21469927035355
 21
155.1719325826317
 31
0.0
  0
LINE
  5
812C
330
18
100
AcDbEntity
  8
0
100
AcDbLine
 10
49.21469927035355
 20
163.5819325826316
 30
0.0
 11
49.21469927035355
 21
169.8769325826317
 31
0.0
  0
LWPOLYLINE
  5
81AF
330
18
100
AcDbEntity
  8
0
100
AcDbPolyline
 90
        8
 70
     0
 43
0.0
 38
1.004996417558615E+99
 10
222.0031200557921
 20
151.3719323505808
 42
-0.0034483591116001
 10
222.1064300426363
 20
151.1812437344396
 42
-0.0115542971442169
 10
222.1979424523435
 20
150.9996812372228
 10
222.22659171407
 20
150.9363540707063
 42
-0.0214451454493749
 10
222.2715550215216
 20
150.8200923755087
 42
-0.0361324550867008
 10
222.2976414131645
 20
150.7186004602079
 10
222.3017437591262
 20
150.687102890438
 10
222.3031200557922
 20
150.6577895077265
  0
LWPOLYLINE
  5
81B0
330
18
100
AcDbEntity
  8
0
100
AcDbPolyline
 90
        8
 70
     0
 43
0.0
 38
1.004996417558615E+99
 10
222.3031200557922
 20
168.0960751934351
 42
-0.0426465887263262
 10
222.2977140635792
 20
168.0356999257365
 10
222.2872640209547
 20
167.9869138819724
 42
-0.0303643048025655
 10
222.2514697541495
 20
167.8779846093705
 42
-0.0178342398264282
 10
222.1982411069128
 20
167.754819586409
 10
222.1546282788029
 20
167.6655720532279
 42
-0.007436110675559
 10
222.0556294226468
 20
167.4780616782705
 10
222.0031200557921
 20
167.3819323505808
  0
LWPOLYLINE
  5
81B1
330
18
100
AcDbEntity
  8
0
100
AcDbPolyline
 90
        7
 70
     0
 43
0.0
 38
1.004996417558615E+99
 10
220.3131200557921
 20
158.8202275704789
 42
0.0010354907219746
 10
220.2663518971433
 20
158.8031224964744
 10
220.2126930883208
 20
158.783222391677
 10
220.1597644173698
 20
158.7632926699132
 42
0.0054090623159217
 10
219.953477074033
 20
158.6824900228443
 10
219.8823640822938
 20
158.6533548600886
 10
219.8131200557921
 20
158.6242777849016
  0
LWPOLYLINE
  5
81B2
330
18
100
AcDbEntity
  8
0
100
AcDbPolyline
 90
        7
 70
     0
 43
0.0
 38
1.004996417558615E+99
 10
219.8131200557921
 20
162.4342777849016
 42
-0.0043862742691308
 10
219.9529565283868
 20
162.4922793021377
 10
220.0546250465644
 20
162.5327620316153
 10
220.1596846637543
 20
162.5732624074613
 42
-0.0025025260483379
 10
220.266146285235
 20
162.6130468102927
 10
220.2896242352165
 20
162.6216616203056
 10
220.3131200557921
 20
162.6302275704789
  0
LWPOLYLINE
  5
81B3
330
18
100
AcDbEntity
  8
0
100
AcDbPolyline
 90
        7
 70
     0
 43
0.0
 38
1.004996417558615E+99
 10
219.8131200557921
 20
160.12958691626
 42
0.0044011835197963
 10
219.9534769469775
 20
160.0713747297458
 10
220.0550057853851
 20
160.030953527818
 10
220.1597643978693
 20
159.9905720386479
 42
0.0025073429045212
 10
220.2663518479837
 20
159.9507422227825
 10
220.2897270957909
 20
159.9421654626628
 10
220.3131200557998
 20
159.933637130691
  0
ARC
  5
81B4
330
18
100
AcDbEntity
  8
0
100
AcDbCircle
 10
218.7031200557921
 20
161.2819323505808
 30
0.0
 40
1.400000000000011
100
AcDbArc
 50
235.2865606114744
 51
34.71343938852555
  0
ARC
  5
81B5
330
18
100
AcDbEntity
  8
0
100
AcDbCircle
 10
218.7031200557921
 20
161.2819323505808
 30
0.0
 40
2.100000000000624
100
AcDbArc
 50
320.0554948104905
 51
346.3257176637284
  0
ARC
  5
81B6
330
18
100
AcDbEntity
  8
0
100
AcDbCircle
 10
218.7031200557921
 20
161.2819323505808
 30
0.0
 40
1.400000000000012
100
AcDbArc
 50
180.0
 51
214.7134393885255
  0
ARC
  5
81B7
330
18
100
AcDbEntity
  8
0
100
AcDbCircle
 10
218.7031200557921
 20
161.2819323505808
 30
0.0
 40
1.450000000000014
100
AcDbArc
 50
180.0
 51
0.0
  0
LINE
  5
81B8
330
18
100
AcDbEntity
  8
0
100
AcDbLine
 10
219.5003813474344
 20
162.4327470328164
 30
0.0
 11
217.5523053735566
 21
160.4846710589385
 31
0.0
  0
LINE
  5
81B9
330
18
100
AcDbEntity
  8
0
100
AcDbLine
 10
217.9058587641498
 20
160.1311176683453
 30
0.0
 11
219.8539347380277
 21
162.0791936422231
 31
0.0
  0
LINE
  5
81BA
330
18
100
AcDbEntity
  8
0
100
AcDbLine
 10
212.8031200557922
 20
155.1719323505809
 30
0.0
 11
212.8031200557922
 21
163.5819323505808
 31
0.0
  0
LINE
  5
81BB
330
18
100
AcDbEntity
  8
0
100
AcDbLine
 10
214.8031200557921
 20
163.5819323505808
 30
0.0
 11
214.8031200557921
 21
155.1719323505809
 31
0.0
  0
LINE
  5
81BC
330
18
100
AcDbEntity
  8
0
100
AcDbLine
 10
214.0031200557921
 20
163.5819323505808
 30
0.0
 11
214.0031200557921
 21
155.1719323505809
 31
0.0
  0
LINE
  5
81BD
330
18
100
AcDbEntity
  8
0
100
AcDbLine
 10
222.3031200557922
 20
160.3332490525303
 30
0.0
 11
222.3031200557922
 21
162.2306156486313
 31
0.0
  0
ARC
  5
81BE
330
18
100
AcDbEntity
  8
0
100
AcDbCircle
 10
218.7031200557921
 20
157.4719323505808
 30
0.0
 40
1.400000000000023
100
AcDbArc
 50
55.28656061147445
 51
180.0
  0
ARC
  5
81BF
330
18
100
AcDbEntity
  8
0
100
AcDbCircle
 10
218.7031200557921
 20
157.4719323505808
 30
0.0
 40
1.45000000000002
100
AcDbArc
 50
0.0
 51
180.0
  0
ARC
  5
81C0
330
18
100
AcDbEntity
  8
0
100
AcDbCircle
 10
218.7031200557921
 20
157.4719323505808
 30
0.0
 40
1.400000000000012
100
AcDbArc
 50
235.2865606114744
 51
34.71343938852555
  0
ARC
  5
81C1
330
18
100
AcDbEntity
  8
0
100
AcDbCircle
 10
218.7031200557921
 20
157.4719323505808
 30
0.0
 40
1.45000000000002
100
AcDbArc
 50
180.0
 51
0.0
  0
LINE
  5
81C2
330
18
100
AcDbEntity
  8
0
100
AcDbLine
 10
222.3031200557922
 20
150.3719323505809
 30
0.0
 11
215.4031200557922
 21
150.3719323505809
 31
0.0
  0
LINE
  5
81C3
330
18
100
AcDbEntity
  8
0
100
AcDbLine
 10
219.5003813474344
 20
158.6227470328164
 30
0.0
 11
217.5523053735566
 21
156.6746710589385
 31
0.0
  0
LINE
  5
81C4
330
18
100
AcDbEntity
  8
0
100
AcDbLine
 10
217.9058587641498
 20
156.3211176683453
 30
0.0
 11
219.8539347380277
 21
158.2691936422231
 31
0.0
  0
LINE
  5
81C5
330
18
100
AcDbEntity
  8
0
100
AcDbLine
 10
220.9031200557922
 20
155.1719323505809
 30
0.0
 11
215.4031200557922
 21
155.1719323505809
 31
0.0
  0
LINE
  5
81C6
330
18
100
AcDbEntity
  8
0
100
AcDbLine
 10
215.4031200557922
 20
154.9219323505809
 30
0.0
 11
215.4031200557922
 21
151.3719323505808
 31
0.0
  0
LINE
  5
81C7
330
18
100
AcDbEntity
  8
0
100
AcDbLine
 10
215.4031200557922
 20
151.3719323505808
 30
0.0
 11
215.4031200557922
 21
151.0219323505809
 31
0.0
  0
LINE
  5
81C8
330
18
100
AcDbEntity
  8
0
100
AcDbLine
 10
215.4031200557922
 20
151.0219323505809
 30
0.0
 11
215.4031200557922
 21
150.3719323505809
 31
0.0
  0
LINE
  5
81C9
330
18
100
AcDbEntity
  8
0
100
AcDbLine
 10
214.0031200557921
 20
155.1719323505809
 30
0.0
 11
214.8031200557921
 21
155.1719323505809
 31
0.0
  0
LINE
  5
81CA
330
18
100
AcDbEntity
  8
0
100
AcDbLine
 10
213.1031200557922
 20
155.1719323505809
 30
0.0
 11
213.3031200557922
 21
155.1719323505809
 31
0.0
  0
LINE
  5
81CB
330
18
100
AcDbEntity
  8
0
100
AcDbLine
 10
213.1031200557922
 20
155.1719323505809
 30
0.0
 11
212.8031200557922
 21
155.1719323505809
 31
0.0
  0
LINE
  5
81CC
330
18
100
AcDbEntity
  8
0
100
AcDbLine
 10
213.3031200557922
 20
155.1719323505809
 30
0.0
 11
213.4031200557923
 21
155.1719323505809
 31
0.0
  0
LINE
  5
81CD
330
18
100
AcDbEntity
  8
0
100
AcDbLine
 10
213.4031200557923
 20
155.1719323505809
 30
0.0
 11
214.0031200557921
 21
155.1719323505809
 31
0.0
  0
ARC
  5
81CE
330
18
100
AcDbEntity
  8
0
100
AcDbCircle
 10
218.7031200557921
 20
161.2819323505808
 30
0.0
 40
1.400000000000008
100
AcDbArc
 50
214.7134393885255
 51
235.2865606114744
  0
ARC
  5
81CF
330
18
100
AcDbEntity
  8
0
100
AcDbCircle
 10
218.7031200557921
 20
157.4719323505808
 30
0.0
 40
1.400000000000024
100
AcDbArc
 50
214.7134393885255
 51
235.2865606114744
  0
ARC
  5
81D0
330
18
100
AcDbEntity
  8
0
100
AcDbCircle
 10
218.7031200557921
 20
157.4719323505808
 30
0.0
 40
1.400000000000012
100
AcDbArc
 50
180.0
 51
214.7134393885255
  0
LINE
  5
81D1
330
18
100
AcDbEntity
  8
0
100
AcDbLine
 10
215.4031200557922
 20
155.1719323505809
 30
0.0
 11
215.4031200557922
 21
154.9219323505809
 31
0.0
  0
LINE
  5
81D2
330
18
100
AcDbEntity
  8
0
100
AcDbLine
 10
215.1031200557921
 20
155.1719323505809
 30
0.0
 11
215.0213269870306
 21
155.1719323505809
 31
0.0
  0
LINE
  5
81D3
330
18
100
AcDbEntity
  8
0
100
AcDbLine
 10
215.1031200557921
 20
155.1719323505809
 30
0.0
 11
215.4031200557922
 21
155.1719323505809
 31
0.0
  0
LINE
  5
81D4
330
18
100
AcDbEntity
  8
0
100
AcDbLine
 10
214.8031200557921
 20
155.1719323505809
 30
0.0
 11
215.0213269870306
 21
155.1719323505809
 31
0.0
  0
LINE
  5
81D5
330
18
100
AcDbEntity
  8
0
100
AcDbLine
 10
222.3031200557922
 20
154.2219323505808
 30
0.0
 11
222.3031200557922
 21
151.7219323505809
 31
0.0
  0
LINE
  5
81D6
330
18
100
AcDbEntity
  8
0
100
AcDbLine
 10
222.3031200557922
 20
151.7219323505809
 30
0.0
 11
222.3031200557922
 21
151.3719323505808
 31
0.0
  0
LINE
  5
81D7
330
18
100
AcDbEntity
  8
0
100
AcDbLine
 10
222.3031200557922
 20
151.3719323505808
 30
0.0
 11
222.3031200557922
 21
150.6577895077265
 31
0.0
  0
LINE
  5
81D8
330
18
100
AcDbEntity
  8
0
100
AcDbLine
 10
222.3031200557922
 20
150.6577895077265
 30
0.0
 11
222.3031200557922
 21
150.3719323505809
 31
0.0
  0
LWPOLYLINE
  5
81D9
330
18
100
AcDbEntity
  8
0
100
AcDbPolyline
 90
        7
 70
     0
 43
0.0
 10
220.3131200557935
 20
156.1236371306843
 42
-0.0010357402252054
 10
220.2663408900332
 20
156.1407462563189
 10
220.2126109681827
 20
156.1606729963176
 10
220.1597600958157
 20
156.1805736710409
 42
-0.0054101641983534
 10
219.9534486813118
 20
156.2613861709539
 10
219.8825596872853
 20
156.290428715858
 10
219.8131200557921
 20
156.31958691626
  0
ARC
  5
81DA
330
18
100
AcDbEntity
  8
0
100
AcDbCircle
 10
218.7031200557921
 20
157.4719323505808
 30
0.0
 40
2.1
100
AcDbArc
 50
13.6742823362715
 51
39.94450518981471
  0
ARC
  5
81DB
330
18
100
AcDbEntity
  8
0
100
AcDbCircle
 10
218.7031200557921
 20
157.4719323505808
 30
0.0
 40
1.400000000000012
100
AcDbArc
 50
34.71343938852555
 51
55.28656061147445
  0
ARC
  5
81DC
330
18
100
AcDbEntity
  8
0
100
AcDbCircle
 10
218.7031200557921
 20
157.4719323505808
 30
0.0
 40
2.1
100
AcDbArc
 50
0.0
 51
13.6742823362715
  0
ARC
  5
81DD
330
18
100
AcDbEntity
  8
0
100
AcDbCircle
 10
220.8031200557921
 20
157.4719323505808
 30
0.0
 40
0.5000000000000011
100
AcDbArc
 50
263.1628588318638
 51
96.83714116813618
  0
ARC
  5
81DE
330
18
100
AcDbEntity
  8
0
100
AcDbCircle
 10
218.7031200557921
 20
157.4719323505808
 30
0.0
 40
2.1
100
AcDbArc
 50
346.3257176637284
 51
0.0
  0
ARC
  5
81DF
330
18
100
AcDbEntity
  8
0
100
AcDbCircle
 10
218.7031200557921
 20
157.4719323505808
 30
0.0
 40
2.100000000000111
100
AcDbArc
 50
320.0554948102419
 51
346.3257176637284
  0
LINE
  5
81E0
330
18
100
AcDbEntity
  8
0
100
AcDbLine
 10
222.3031200557922
 20
155.1719323505809
 30
0.0
 11
222.3031200557922
 21
154.2219323505808
 31
0.0
  0
LINE
  5
81E1
330
18
100
AcDbEntity
  8
0
100
AcDbLine
 10
222.3031200557922
 20
159.6519323505809
 30
0.0
 11
222.3031200557922
 21
159.8069323505808
 31
0.0
  0
LINE
  5
81E2
330
18
100
AcDbEntity
  8
0
100
AcDbLine
 10
220.3131200557921
 20
158.8202275704789
 30
0.0
 11
220.3131200557998
 21
159.933637130691
 31
0.0
  0
LINE
  5
81E3
330
18
100
AcDbEntity
  8
0
100
AcDbLine
 10
221.5531190557921
 20
159.5778942449042
 30
0.0
 11
221.5531190557921
 21
159.1759704562575
 31
0.0
  0
LINE
  5
81E4
330
18
100
AcDbEntity
  8
0
100
AcDbLine
 10
222.3031199218175
 20
159.3769325826317
 30
0.0
 11
221.5531190557921
 21
159.5778942449042
 31
0.0
  0
LINE
  5
81E5
330
18
100
AcDbEntity
  8
0
100
AcDbLine
 10
222.3031199218175
 20
159.3769325826317
 30
0.0
 11
221.5531190557921
 21
159.1759704562575
 31
0.0
  0
LINE
  5
81E6
330
18
100
AcDbEntity
  8
0
100
AcDbLine
 10
221.4031200557922
 20
155.1719323505809
 30
0.0
 11
220.9031200557922
 21
155.1719323505809
 31
0.0
  0
LINE
  5
81E7
330
18
100
AcDbEntity
  8
0
100
AcDbLine
 10
220.3131200557921
 20
155.9719323505808
 30
0.0
 11
220.9031200557922
 21
155.9719323505808
 31
0.0
  0
LINE
  5
81E8
330
18
100
AcDbEntity
  8
0
100
AcDbLine
 10
220.9031200557922
 20
155.9719323505808
 30
0.0
 11
221.4031200557922
 21
155.9719323505808
 31
0.0
  0
LINE
  5
81E9
330
18
100
AcDbEntity
  8
0
100
AcDbLine
 10
221.4031200557922
 20
155.1719323505809
 30
0.0
 11
221.4031200557922
 21
155.9719323505808
 31
0.0
  0
LINE
  5
81EA
330
18
100
AcDbEntity
  8
0
100
AcDbLine
 10
220.3131200557921
 20
155.9719323505808
 30
0.0
 11
219.8131200557921
 21
155.9719323505808
 31
0.0
  0
LINE
  5
81EB
330
18
100
AcDbEntity
  8
0
100
AcDbLine
 10
220.3131200557935
 20
156.1236371306843
 30
0.0
 11
220.3131200557921
 21
155.9719323505808
 31
0.0
  0
LINE
  5
81EC
330
18
100
AcDbEntity
  8
0
100
AcDbLine
 10
222.3031199218175
 20
159.3769325826317
 30
0.0
 11
222.3031199218175
 21
159.3769325826317
 31
0.0
  0
LINE
  5
81ED
330
18
100
AcDbEntity
  8
0
100
AcDbLine
 10
222.3031200557922
 20
155.9969323505808
 30
0.0
 11
222.3031200557922
 21
155.1719323505809
 31
0.0
  0
LINE
  5
81EE
330
18
100
AcDbEntity
  8
0
100
AcDbLine
 10
222.3031200557922
 20
156.5232490525303
 30
0.0
 11
222.3031200557922
 21
155.9969323505808
 31
0.0
  0
LINE
  5
81EF
330
18
100
AcDbEntity
  8
0
100
AcDbLine
 10
222.3031200557922
 20
159.1019323505809
 30
0.0
 11
222.3031200557922
 21
158.9469323505808
 31
0.0
  0
LINE
  5
81F0
330
18
100
AcDbEntity
  8
0
100
AcDbLine
 10
222.3031199218175
 20
159.3769325826317
 30
0.0
 11
222.3031200557922
 21
159.1759704562575
 31
0.0
  0
LINE
  5
81F1
330
18
100
AcDbEntity
  8
0
100
AcDbLine
 10
222.3031200557922
 20
159.6519323505809
 30
0.0
 11
222.3031200557922
 21
159.5778942449042
 31
0.0
  0
LINE
  5
81F2
330
18
100
AcDbEntity
  8
0
100
AcDbLine
 10
222.3031200557922
 20
158.4206156486313
 30
0.0
 11
222.3031200557922
 21
156.5232490525303
 31
0.0
  0
LINE
  5
81F3
330
18
100
AcDbEntity
  8
0
100
AcDbLine
 10
222.3031200557922
 20
158.9469323505808
 30
0.0
 11
222.3031200557922
 21
158.4206156486313
 31
0.0
  0
LINE
  5
81F4
330
18
100
AcDbEntity
  8
0
100
AcDbLine
 10
222.3031200557922
 20
159.5778942449042
 30
0.0
 11
222.3031199218175
 21
159.3769325826317
 31
0.0
  0
LINE
  5
81F5
330
18
100
AcDbEntity
  8
0
100
AcDbLine
 10
222.3031200557922
 20
159.1759704562575
 30
0.0
 11
222.3031200557922
 21
159.1019323505809
 31
0.0
  0
LINE
  5
81F6
330
18
100
AcDbEntity
  8
0
100
AcDbLine
 10
222.3031200557922
 20
159.1019323505809
 30
0.0
 11
222.0031200557922
 21
159.1019323505809
 31
0.0
  0
LINE
  5
81F7
330
18
100
AcDbEntity
  8
0
100
AcDbLine
 10
222.3031200557922
 20
159.8069323505808
 30
0.0
 11
222.3031200557922
 21
160.3332490525303
 31
0.0
  0
LINE
  5
81F8
330
18
100
AcDbEntity
  8
0
100
AcDbLine
 10
222.0031200557922
 20
159.6519323505809
 30
0.0
 11
222.3031200557922
 21
159.6519323505809
 31
0.0
  0
ARC
  5
81F9
330
18
100
AcDbEntity
  8
0
100
AcDbCircle
 10
218.7031200557921
 20
161.2819323505808
 30
0.0
 40
1.400000000000012
100
AcDbArc
 50
55.28656061147445
 51
180.0
  0
ARC
  5
81FA
330
18
100
AcDbEntity
  8
0
100
AcDbCircle
 10
218.7031200557921
 20
161.2819323505808
 30
0.0
 40
1.450000000000028
100
AcDbArc
 50
0.0
 51
180.0
  0
LINE
  5
81FB
330
18
100
AcDbEntity
  8
0
100
AcDbLine
 10
217.9150006034722
 20
168.3819323505808
 30
0.0
 11
218.4033052253509
 21
168.3819323505808
 31
0.0
  0
LINE
  5
81FC
330
18
100
AcDbEntity
  8
0
100
AcDbLine
 10
220.9031200557922
 20
163.5819323505808
 30
0.0
 11
215.4031200557922
 21
163.5819323505808
 31
0.0
  0
LINE
  5
81FD
330
18
100
AcDbEntity
  8
0
100
AcDbLine
 10
215.4031200557922
 20
163.8319323505809
 30
0.0
 11
215.4031200557922
 21
167.3819323505808
 31
0.0
  0
LINE
  5
81FE
330
18
100
AcDbEntity
  8
0
100
AcDbLine
 10
214.8031200557921
 20
163.5819323505808
 30
0.0
 11
214.0031200557921
 21
163.5819323505808
 31
0.0
  0
LINE
  5
81FF
330
18
100
AcDbEntity
  8
0
100
AcDbLine
 10
213.1031200557922
 20
163.5819323505808
 30
0.0
 11
213.3031200557922
 21
163.5819323505808
 31
0.0
  0
LINE
  5
8200
330
18
100
AcDbEntity
  8
0
100
AcDbLine
 10
214.0031200557921
 20
163.5819323505808
 30
0.0
 11
213.4031200557923
 21
163.5819323505808
 31
0.0
  0
LINE
  5
8201
330
18
100
AcDbEntity
  8
0
100
AcDbLine
 10
213.4031200557923
 20
163.5819323505808
 30
0.0
 11
213.3031200557922
 21
163.5819323505808
 31
0.0
  0
LINE
  5
8202
330
18
100
AcDbEntity
  8
0
100
AcDbLine
 10
213.1031200557922
 20
163.5819323505808
 30
0.0
 11
212.8031200557922
 21
163.5819323505808
 31
0.0
  0
LINE
  5
8203
330
18
100
AcDbEntity
  8
0
100
AcDbLine
 10
215.4031200557922
 20
163.5819323505808
 30
0.0
 11
215.4031200557922
 21
163.8319323505809
 31
0.0
  0
LINE
  5
8204
330
18
100
AcDbEntity
  8
0
100
AcDbLine
 10
215.0213269870306
 20
163.5819323505808
 30
0.0
 11
214.8031200557921
 21
163.5819323505808
 31
0.0
  0
LINE
  5
8205
330
18
100
AcDbEntity
  8
0
100
AcDbLine
 10
215.0213269870306
 20
163.5819323505808
 30
0.0
 11
215.1031200557921
 21
163.5819323505808
 31
0.0
  0
LINE
  5
8206
330
18
100
AcDbEntity
  8
0
100
AcDbLine
 10
215.1031200557921
 20
163.5819323505808
 30
0.0
 11
215.4031200557922
 21
163.5819323505808
 31
0.0
  0
LINE
  5
8207
330
18
100
AcDbEntity
  8
0
100
AcDbLine
 10
215.4031200557922
 20
168.3819323505808
 30
0.0
 11
215.4031200557922
 21
167.7319323505809
 31
0.0
  0
LINE
  5
8208
330
18
100
AcDbEntity
  8
0
100
AcDbLine
 10
215.4031200557922
 20
167.7319323505809
 30
0.0
 11
215.4031200557922
 21
167.3819323505808
 31
0.0
  0
LINE
  5
8209
330
18
100
AcDbEntity
  8
0
100
AcDbLine
 10
217.7266857765098
 20
168.3819323505808
 30
0.0
 11
217.9150006034722
 21
168.3819323505808
 31
0.0
  0
LINE
  5
820A
330
18
100
AcDbEntity
  8
0
100
AcDbLine
 10
217.6866384731795
 20
168.3819323505808
 30
0.0
 11
217.7266857765098
 21
168.3819323505808
 31
0.0
  0
LINE
  5
820B
330
18
100
AcDbEntity
  8
0
100
AcDbLine
 10
217.5685889170765
 20
168.3819323505808
 30
0.0
 11
217.6576662078639
 21
168.3819323505808
 31
0.0
  0
LINE
  5
820C
330
18
100
AcDbEntity
  8
0
100
AcDbLine
 10
217.347963768697
 20
168.3819323505808
 30
0.0
 11
217.5685889170765
 21
168.3819323505808
 31
0.0
  0
LINE
  5
820D
330
18
100
AcDbEntity
  8
0
100
AcDbLine
 10
217.6576662078639
 20
168.3819323505808
 30
0.0
 11
217.6866384731795
 21
168.3819323505808
 31
0.0
  0
LINE
  5
820E
330
18
100
AcDbEntity
  8
0
100
AcDbLine
 10
217.2588864779096
 20
168.3819323505808
 30
0.0
 11
217.347963768697
 21
168.3819323505808
 31
0.0
  0
LINE
  5
820F
330
18
100
AcDbEntity
  8
0
100
AcDbLine
 10
217.1898669092635
 20
168.3819323505808
 30
0.0
 11
217.2299142125939
 21
168.3819323505808
 31
0.0
  0
LINE
  5
8210
330
18
100
AcDbEntity
  8
0
100
AcDbLine
 10
216.2260316854043
 20
168.3819323505808
 30
0.0
 11
217.0015520823013
 21
168.3819323505808
 31
0.0
  0
LINE
  5
8211
330
18
100
AcDbEntity
  8
0
100
AcDbLine
 10
216.1139158683701
 20
168.3819323505808
 30
0.0
 11
216.2260316854043
 21
168.3819323505808
 31
0.0
  0
LINE
  5
8212
330
18
100
AcDbEntity
  8
0
100
AcDbLine
 10
217.0015520823013
 20
168.3819323505808
 30
0.0
 11
217.1772152594495
 21
168.3819323505808
 31
0.0
  0
LINE
  5
8213
330
18
100
AcDbEntity
  8
0
100
AcDbLine
 10
217.1772152594495
 20
168.3819323505808
 30
0.0
 11
217.1898669092635
 21
168.3819323505808
 31
0.0
  0
LINE
  5
8214
330
18
100
AcDbEntity
  8
0
100
AcDbLine
 10
217.2299142125939
 20
168.3819323505808
 30
0.0
 11
217.2588864779096
 21
168.3819323505808
 31
0.0
  0
LINE
  5
8215
330
18
100
AcDbEntity
  8
0
100
AcDbLine
 10
215.4031200557922
 20
168.3819323505808
 30
0.0
 11
215.9031200557921
 21
168.3819323505808
 31
0.0
  0
LINE
  5
8216
330
18
100
AcDbEntity
  8
0
100
AcDbLine
 10
215.9031200557921
 20
168.3819323505808
 30
0.0
 11
216.1139158683701
 21
168.3819323505808
 31
0.0
  0
LINE
  5
8217
330
18
100
AcDbEntity
  8
0
100
AcDbLine
 10
222.3031200557922
 20
167.0319323505808
 30
0.0
 11
222.3031200557922
 21
167.3819323505808
 31
0.0
  0
ARC
  5
8218
330
18
100
AcDbEntity
  8
0
100
AcDbCircle
 10
218.7031200557921
 20
161.2819323505808
 30
0.0
 40
1.400000000000012
100
AcDbArc
 50
34.71343938852555
 51
55.28656061147445
  0
ARC
  5
8219
330
18
100
AcDbEntity
  8
0
100
AcDbCircle
 10
220.8031200557921
 20
161.2819323505808
 30
0.0
 40
0.4999999999999998
100
AcDbArc
 50
263.1628588318638
 51
0.0
  0
ARC
  5
821A
330
18
100
AcDbEntity
  8
0
100
AcDbCircle
 10
220.8031200557921
 20
161.2819323505808
 30
0.0
 40
0.5
100
AcDbArc
 50
0.0
 51
96.83714116813618
  0
ARC
  5
821B
330
18
100
AcDbEntity
  8
0
100
AcDbCircle
 10
218.7031200557921
 20
161.2819323505808
 30
0.0
 40
2.100000000000008
100
AcDbArc
 50
346.3257176637284
 51
0.0
  0
ARC
  5
821C
330
18
100
AcDbEntity
  8
0
100
AcDbCircle
 10
218.7031200557921
 20
161.2819323505808
 30
0.0
 40
2.100000000000008
100
AcDbArc
 50
0.0
 51
13.6742823362715
  0
ARC
  5
821D
330
18
100
AcDbEntity
  8
0
100
AcDbCircle
 10
218.7031200557921
 20
161.2819323505808
 30
0.0
 40
2.100000000000006
100
AcDbArc
 50
13.6742823362715
 51
39.94450518981471
  0
LINE
  5
821E
330
18
100
AcDbEntity
  8
0
100
AcDbLine
 10
222.3031200557922
 20
162.7569323505808
 30
0.0
 11
222.3031200557922
 21
163.5819323505808
 31
0.0
  0
LINE
  5
821F
330
18
100
AcDbEntity
  8
0
100
AcDbLine
 10
222.3031200557922
 20
162.2306156486313
 30
0.0
 11
222.3031200557922
 21
162.7569323505808
 31
0.0
  0
LINE
  5
8220
330
18
100
AcDbEntity
  8
0
100
AcDbLine
 10
222.3031200557922
 20
163.5819323505808
 30
0.0
 11
222.3031200557922
 21
164.5319323505809
 31
0.0
  0
LINE
  5
8221
330
18
100
AcDbEntity
  8
0
100
AcDbLine
 10
221.4031200557922
 20
163.5819323505808
 30
0.0
 11
220.9031200557922
 21
163.5819323505808
 31
0.0
  0
LINE
  5
8222
330
18
100
AcDbEntity
  8
0
100
AcDbLine
 10
221.4031200557922
 20
162.7819323505808
 30
0.0
 11
221.4031200557922
 21
163.5819323505808
 31
0.0
  0
LINE
  5
8223
330
18
100
AcDbEntity
  8
0
100
AcDbLine
 10
219.8131200557921
 20
162.7819323505808
 30
0.0
 11
220.3131200557921
 21
162.7819323505808
 31
0.0
  0
LINE
  5
8224
330
18
100
AcDbEntity
  8
0
100
AcDbLine
 10
220.3131200557921
 20
162.6302275704789
 30
0.0
 11
220.3131200557921
 21
162.7819323505808
 31
0.0
  0
LINE
  5
8225
330
18
100
AcDbEntity
  8
0
100
AcDbLine
 10
220.3131200557921
 20
162.7819323505808
 30
0.0
 11
220.9031200557922
 21
162.7819323505808
 31
0.0
  0
LINE
  5
8226
330
18
100
AcDbEntity
  8
0
100
AcDbLine
 10
220.9031200557922
 20
162.7819323505808
 30
0.0
 11
221.4031200557922
 21
162.7819323505808
 31
0.0
  0
LINE
  5
8227
330
18
100
AcDbEntity
  8
0
100
AcDbLine
 10
222.3031200557922
 20
167.3819323505808
 30
0.0
 11
222.3031200557922
 21
168.0960751934351
 31
0.0
  0
LINE
  5
8228
330
18
100
AcDbEntity
  8
0
100
AcDbLine
 10
218.6923242432141
 20
168.3819323505808
 30
0.0
 11
218.9031200557921
 21
168.3819323505808
 31
0.0
  0
LINE
  5
8229
330
18
100
AcDbEntity
  8
0
100
AcDbLine
 10
218.4033052253509
 20
168.3819323505808
 30
0.0
 11
218.5614020847844
 21
168.3819323505808
 31
0.0
  0
LINE
  5
822A
330
18
100
AcDbEntity
  8
0
100
AcDbLine
 10
218.5614020847844
 20
168.3819323505808
 30
0.0
 11
218.6923242432141
 21
168.3819323505808
 31
0.0
  0
LINE
  5
822B
330
18
100
AcDbEntity
  8
0
100
AcDbLine
 10
218.9031200557921
 20
168.3819323505808
 30
0.0
 11
222.3031200557922
 21
168.3819323505808
 31
0.0
  0
LINE
  5
822C
330
18
100
AcDbEntity
  8
0
100
AcDbLine
 10
222.3031200557922
 20
168.3819323505808
 30
0.0
 11
222.3031200557922
 21
168.0960751934351
 31
0.0
  0
ARC
  5
827C
330
18
100
AcDbEntity
  8
0
100
AcDbCircle
 10
217.1772151254752
 20
282.660079433979
 30
0.0
 40
0.951183574045199
100
AcDbArc
 50
90.0
 51
270.0
  0
LINE
  5
827D
330
18
100
AcDbEntity
  8
0
100
AcDbLine
 10
212.8031199218179
 20
283.2838873337531
 30
0.0
 11
212.8031199218179
 21
283.083887333753
 31
0.0
  0
LINE
  5
827E
330
18
100
AcDbEntity
  8
0
100
AcDbLine
 10
215.9031199218178
 20
284.1730915211752
 30
0.0
 11
215.9031199218178
 21
281.5946831463311
 31
0.0
  0
LINE
  5
827F
330
18
100
AcDbEntity
  8
0
100
AcDbLine
 10
217.3479636347227
 20
283.4531661485907
 30
0.0
 11
217.3479636347227
 21
283.2132171976178
 31
0.0
  0
LINE
  5
8280
330
18
100
AcDbEntity
  8
0
100
AcDbLine
 10
218.5614019508102
 20
283.9007819481313
 30
0.0
 11
218.5614019508102
 21
281.8669927193672
 31
0.0
  0
LINE
  5
8281
330
18
100
AcDbEntity
  8
0
100
AcDbLine
 10
217.5685887831023
 20
283.2132171976178
 30
0.0
 11
217.5685887831023
 21
283.9007819481313
 31
0.0
  0
LINE
  5
8282
330
18
100
AcDbEntity
  8
0
100
AcDbLine
 10
218.9031199218179
 20
284.1730915211752
 30
0.0
 11
218.9031199218179
 21
281.5946831463311
 31
0.0
  0
LINE
  5
8283
330
18
100
AcDbEntity
  8
0
100
AcDbLine
 10
215.4031199218179
 20
284.6838873337532
 30
0.0
 11
215.4031199218179
 21
281.0838873337532
 31
0.0
  0
LINE
  5
8284
330
18
100
AcDbEntity
  8
0
100
AcDbLine
 10
217.2531199218179
 20
278.1838873337532
 30
0.0
 11
219.8131199218178
 21
278.1838873337532
 31
0.0
  0
LINE
  5
8285
330
18
100
AcDbEntity
  8
0
100
AcDbLine
 10
215.4031199218179
 20
280.0838873337531
 30
0.0
 11
220.3131199218179
 21
280.0838873337531
 31
0.0
  0
LINE
  5
8286
330
18
100
AcDbEntity
  8
0
100
AcDbLine
 10
218.4033050913767
 20
281.7088958599338
 30
0.0
 11
217.7266856425356
 21
281.7088958599338
 31
0.0
  0
LINE
  5
8287
330
18
100
AcDbEntity
  8
0
100
AcDbLine
 10
218.6923241092399
 20
281.3838873337532
 30
0.0
 11
216.1139157343959
 21
281.3838873337532
 31
0.0
  0
LINE
  5
8288
330
18
100
AcDbEntity
  8
0
100
AcDbLine
 10
215.0213268530563
 20
278.7838873337532
 30
0.0
 11
214.0031199218179
 21
282.5838873337531
 31
0.0
  0
ARC
  5
8289
330
18
100
AcDbEntity
  8
0
100
AcDbCircle
 10
213.3031199218179
 20
283.0838873337532
 30
0.0
 40
0.5000000000000107
100
AcDbArc
 50
180.000000000013
 51
270.0
  0
LINE
  5
828A
330
18
100
AcDbEntity
  8
0
100
AcDbLine
 10
214.0031199218179
 20
282.5838873337531
 30
0.0
 11
213.303119921818
 21
282.5838873337531
 31
0.0
  0
CIRCLE
  5
828B
330
18
100
AcDbEntity
  8
0
100
AcDbCircle
 10
217.4582762089125
 20
282.660079433979
 30
0.0
 40
0.2283621302927905
  0
ARC
  5
828C
330
18
100
AcDbEntity
  8
0
100
AcDbCircle
 10
215.1031199218179
 20
278.4838873337532
 30
0.0
 40
0.3000000000000007
100
AcDbArc
 50
180.0
 51
270.0
  0
ARC
  5
828D
330
18
100
AcDbEntity
  8
0
100
AcDbCircle
 10
216.1139157343959
 20
281.5946831463311
 30
0.0
 40
0.2107958125779987
100
AcDbArc
 50
180.0
 51
270.0
  0
ARC
  5
828E
330
18
100
AcDbEntity
  8
0
100
AcDbCircle
 10
217.7266856425356
 20
283.2132171976178
 30
0.0
 40
0.1580968594333001
100
AcDbArc
 50
180.0
 51
244.1150755424403
  0
ARC
  5
828F
330
18
100
AcDbEntity
  8
0
100
AcDbCircle
 10
217.1898667752893
 20
283.2132171976178
 30
0.0
 40
0.1580968594334404
100
AcDbArc
 50
295.8849244575836
 51
0.0
  0
ARC
  5
8290
330
18
100
AcDbEntity
  8
0
100
AcDbCircle
 10
217.1898667752893
 20
281.8669927193672
 30
0.0
 40
0.1580968594334315
100
AcDbArc
 50
270.0
 51
0.0
  0
ARC
  5
8291
330
18
100
AcDbEntity
  8
0
100
AcDbCircle
 10
217.7266856425356
 20
282.1069416703401
 30
0.0
 40
0.1580968594334207
100
AcDbArc
 50
115.8849244575544
 51
180.0
  0
ARC
  5
8292
330
18
100
AcDbEntity
  8
0
100
AcDbCircle
 10
217.7266856425356
 20
281.8669927193672
 30
0.0
 40
0.1580968594336198
100
AcDbArc
 50
180.0
 51
270.0
  0
ARC
  5
8293
330
18
100
AcDbEntity
  8
0
100
AcDbCircle
 10
217.1898667752893
 20
282.1069416703401
 30
0.0
 40
0.1580968594335808
100
AcDbArc
 50
0.0
 51
64.11507554241637
  0
ARC
  5
8294
330
18
100
AcDbEntity
  8
0
100
AcDbCircle
 10
217.4582762089125
 20
282.660079433979
 30
0.0
 40
0.4567242605854639
100
AcDbArc
 50
115.8849244575763
 51
244.1150755424272
  0
ARC
  5
8295
330
18
100
AcDbEntity
  8
0
100
AcDbCircle
 10
217.4582762089125
 20
282.660079433979
 30
0.0
 40
0.4567242605855182
100
AcDbArc
 50
295.8849244575727
 51
64.11507554242366
  0
LINE
  5
8296
330
18
100
AcDbEntity
  8
0
100
AcDbLine
 10
215.1031199218179
 20
278.1838873337532
 30
0.0
 11
217.2531199218179
 21
278.1838873337532
 31
0.0
  0
LINE
  5
8297
330
18
100
AcDbEntity
  8
0
100
AcDbLine
 10
214.8031199218179
 20
278.4838873337532
 30
0.0
 11
214.8031199218179
 21
278.7838873337532
 31
0.0
  0
LINE
  5
8298
330
18
100
AcDbEntity
  8
0
100
AcDbLine
 10
214.8031199218179
 20
278.7838873337532
 30
0.0
 11
215.0213268530563
 21
278.7838873337532
 31
0.0
  0
LINE
  5
8299
330
18
100
AcDbEntity
  8
0
100
AcDbLine
 10
215.4031199218179
 20
281.0838873337532
 30
0.0
 11
215.4031199218179
 21
280.9338873337532
 31
0.0
  0
LINE
  5
829A
330
18
100
AcDbEntity
  8
0
100
AcDbLine
 10
215.4031199218179
 20
280.9338873337532
 30
0.0
 11
215.4031199218179
 21
280.0838873337531
 31
0.0
  0
LINE
  5
829B
330
18
100
AcDbEntity
  8
0
100
AcDbLine
 10
217.1898667752893
 20
281.7088958599338
 30
0.0
 11
217.1772151254752
 21
281.7088958599338
 31
0.0
  0
LINE
  5
829C
330
18
100
AcDbEntity
  8
0
100
AcDbLine
 10
217.5685887831019
 20
281.8669927193673
 30
0.0
 11
217.5685887831019
 21
282.1069416703401
 31
0.0
  0
LINE
  5
829D
330
18
100
AcDbEntity
  8
0
100
AcDbLine
 10
217.3479636347229
 20
282.1069416703401
 30
0.0
 11
217.3479636347229
 21
281.8669927193673
 31
0.0
  0
ARC
  5
829E
330
18
100
AcDbEntity
  8
0
100
AcDbCircle
 10
222.0031199218179
 20
280.3838873337531
 30
0.0
 40
0.2999999999999901
100
AcDbArc
 50
270.0
 51
0.0
  0
ARC
  5
829F
330
18
100
AcDbEntity
  8
0
100
AcDbCircle
 10
220.9031199218179
 20
278.6838873337531
 30
0.0
 40
0.4999999999999893
100
AcDbArc
 50
270.0
 51
0.0
  0
ARC
  5
82A0
330
18
100
AcDbEntity
  8
0
100
AcDbCircle
 10
218.6923241092399
 20
281.5946831463311
 30
0.0
 40
0.2107958125779206
100
AcDbArc
 50
270.0
 51
0.0
  0
ARC
  5
82A1
330
18
100
AcDbEntity
  8
0
100
AcDbCircle
 10
218.4033050913767
 20
281.8669927193672
 30
0.0
 40
0.1580968594334387
100
AcDbArc
 50
270.0
 51
0.0
  0
LINE
  5
82A2
330
18
100
AcDbEntity
  8
0
100
AcDbLine
 10
220.1531199218179
 20
278.1838873337532
 30
0.0
 11
219.8131199218178
 21
278.1838873337532
 31
0.0
  0
LINE
  5
82A3
330
18
100
AcDbEntity
  8
0
100
AcDbLine
 10
220.3031199218179
 20
278.1838873337532
 30
0.0
 11
220.1531199218179
 21
278.1838873337532
 31
0.0
  0
LINE
  5
82A4
330
18
100
AcDbEntity
  8
0
100
AcDbLine
 10
220.3031199218179
 20
278.1838873337532
 30
0.0
 11
220.9031199218179
 21
278.1838873337532
 31
0.0
  0
LINE
  5
82A5
330
18
100
AcDbEntity
  8
0
100
AcDbLine
 10
221.4031199218179
 20
278.6838873337531
 30
0.0
 11
221.4031199218179
 21
280.0838873337531
 31
0.0
  0
LINE
  5
82A6
330
18
100
AcDbEntity
  8
0
100
AcDbLine
 10
222.3031199218179
 20
280.3838873337531
 30
0.0
 11
222.3031189218179
 21
280.1838873337532
 31
0.0
  0
LINE
  5
82A7
330
18
100
AcDbEntity
  8
0
100
AcDbLine
 10
220.3131199218179
 20
280.0838873337531
 30
0.0
 11
220.7435961122941
 21
280.0838873337531
 31
0.0
  0
LINE
  5
82A8
330
18
100
AcDbEntity
  8
0
100
AcDbLine
 10
221.3031199218179
 20
280.0838873337531
 30
0.0
 11
221.4031199218179
 21
280.0838873337531
 31
0.0
  0
LINE
  5
82A9
330
18
100
AcDbEntity
  8
0
100
AcDbLine
 10
221.4031199218179
 20
280.0838873337531
 30
0.0
 11
221.5531189218179
 21
280.0838873337531
 31
0.0
  0
LINE
  5
82AA
330
18
100
AcDbEntity
  8
0
100
AcDbLine
 10
221.5531189218179
 20
280.0838873337531
 30
0.0
 11
222.0031199218179
 21
280.0838873337531
 31
0.0
  0
LINE
  5
82AB
330
18
100
AcDbEntity
  8
0
100
AcDbLine
 10
222.0031199218179
 20
280.0838873337531
 30
0.0
 11
222.3031189218179
 21
280.0838873337531
 31
0.0
  0
LINE
  5
82AC
330
18
100
AcDbEntity
  8
0
100
AcDbLine
 10
222.3031189218179
 20
280.1838873337532
 30
0.0
 11
222.3031189218179
 21
280.0838873337531
 31
0.0
  0
LINE
  5
82AD
330
18
100
AcDbEntity
  8
0
100
AcDbLine
 10
221.3031199218179
 20
280.0838873337531
 30
0.0
 11
220.7435961122941
 21
280.0838873337531
 31
0.0
  0
LINE
  5
82AE
330
18
100
AcDbEntity
  8
0
100
AcDbLine
 10
222.3031199218179
 20
280.9838873337532
 30
0.0
 11
222.3031199218179
 21
280.3838873337531
 31
0.0
  0
LINE
  5
82AF
330
18
100
AcDbEntity
  8
0
100
AcDbLine
 10
213.403119921818
 20
289.2838873337532
 30
0.0
 11
221.4031199218179
 21
289.2838873337532
 31
0.0
  0
LINE
  5
82B0
330
18
100
AcDbEntity
  8
0
100
AcDbLine
 10
216.1139157343959
 20
284.3838873337531
 30
0.0
 11
218.6923241092399
 21
284.3838873337531
 31
0.0
  0
LINE
  5
82B1
330
18
100
AcDbEntity
  8
0
100
AcDbLine
 10
217.7266856425356
 20
284.0588788075647
 30
0.0
 11
218.4033050913767
 21
284.0588788075647
 31
0.0
  0
LINE
  5
82B2
330
18
100
AcDbEntity
  8
0
100
AcDbLine
 10
222.3031199218179
 20
285.6838873337532
 30
0.0
 11
215.4031199218179
 21
285.6838873337532
 31
0.0
  0
ARC
  5
82B3
330
18
100
AcDbEntity
  8
0
100
AcDbCircle
 10
213.1031199218179
 20
283.2838873337532
 30
0.0
 40
0.300000000000022
100
AcDbArc
 50
90.0
 51
180.0
  0
LINE
  5
82B4
330
18
100
AcDbEntity
  8
0
100
AcDbLine
 10
213.4031199218179
 20
288.4197857186154
 30
0.0
 11
213.403119921818
 21
289.2838873337532
 31
0.0
  0
LINE
  5
82B5
330
18
100
AcDbEntity
  8
0
100
AcDbLine
 10
213.4031199218174
 20
283.5838873337531
 30
0.0
 11
213.1031199218179
 21
283.5838873337532
 31
0.0
  0
LINE
  5
82B6
330
18
100
AcDbEntity
  8
0
100
AcDbLine
 10
213.4031199218174
 20
283.5838873337531
 30
0.0
 11
213.4031199218179
 21
288.4197857186154
 31
0.0
  0
ARC
  5
82B7
330
18
100
AcDbEntity
  8
0
100
AcDbCircle
 10
216.1139157343959
 20
284.1730915211752
 30
0.0
 40
0.2107958125779206
100
AcDbArc
 50
90.0
 51
180.0
  0
ARC
  5
82B8
330
18
100
AcDbEntity
  8
0
100
AcDbCircle
 10
217.1898667752893
 20
283.4531661485907
 30
0.0
 40
0.1580968594333889
100
AcDbArc
 50
0.0
 51
90.0
  0
ARC
  5
82B9
330
18
100
AcDbEntity
  8
0
100
AcDbCircle
 10
217.7266856425356
 20
283.9007819481313
 30
0.0
 40
0.1580968594334387
100
AcDbArc
 50
90.0
 51
180.0
  0
LINE
  5
82BA
330
18
100
AcDbEntity
  8
0
100
AcDbLine
 10
217.1772151254752
 20
283.6112630080242
 30
0.0
 11
217.1898667752893
 21
283.6112630080242
 31
0.0
  0
LINE
  5
82BB
330
18
100
AcDbEntity
  8
0
100
AcDbLine
 10
215.4031199218179
 20
284.6838873337532
 30
0.0
 11
215.4031199218179
 21
284.8338873337532
 31
0.0
  0
LINE
  5
82BC
330
18
100
AcDbEntity
  8
0
100
AcDbLine
 10
215.4031199218179
 20
284.8338873337532
 30
0.0
 11
215.4031199218179
 21
285.6838873337532
 31
0.0
  0
ARC
  5
82BD
330
18
100
AcDbEntity
  8
0
100
AcDbCircle
 10
222.0031199218179
 20
288.1838873337532
 30
0.0
 40
0.2999999999999794
100
AcDbArc
 50
0.0
 51
90.0
  0
ARC
  5
82BE
330
18
100
AcDbEntity
  8
0
100
AcDbCircle
 10
218.4033050913767
 20
283.9007819481313
 30
0.0
 40
0.1580968594334919
100
AcDbArc
 50
0.0
 51
90.0
  0
ARC
  5
82BF
330
18
100
AcDbEntity
  8
0
100
AcDbCircle
 10
218.6923241092399
 20
284.1730915211752
 30
0.0
 40
0.2107958125779987
100
AcDbArc
 50
0.0
 51
90.0
  0
LINE
  5
82C0
330
18
100
AcDbEntity
  8
0
100
AcDbLine
 10
221.4031199218179
 20
289.2838873337532
 30
0.0
 11
221.4031199218179
 21
288.4838873337532
 31
0.0
  0
LINE
  5
82C1
330
18
100
AcDbEntity
  8
0
100
AcDbLine
 10
222.3031199218179
 20
284.6838873337532
 30
0.0
 11
222.3031199218179
 21
284.1338873337532
 31
0.0
  0
LINE
  5
82C2
330
18
100
AcDbEntity
  8
0
100
AcDbLine
 10
222.3031199218179
 20
285.6838873337532
 30
0.0
 11
222.3031199218179
 21
288.1838873337532
 31
0.0
  0
LINE
  5
82C3
330
18
100
AcDbEntity
  8
0
100
AcDbLine
 10
222.3031199218179
 20
285.0838873337532
 30
0.0
 11
222.3031199218179
 21
285.6838873337532
 31
0.0
  0
LINE
  5
82C4
330
18
100
AcDbEntity
  8
0
100
AcDbLine
 10
222.3031199218179
 20
284.7838873337532
 30
0.0
 11
222.3031199218179
 21
285.0838873337532
 31
0.0
  0
LINE
  5
82C5
330
18
100
AcDbEntity
  8
0
100
AcDbLine
 10
222.3031199218179
 20
284.6838873337532
 30
0.0
 11
222.3031199218179
 21
284.7838873337532
 31
0.0
  0
LINE
  5
82C6
330
18
100
AcDbEntity
  8
0
100
AcDbLine
 10
221.4031199218179
 20
288.4838873337532
 30
0.0
 11
222.0031199218179
 21
288.4838873337532
 31
0.0
  0
CIRCLE
  5
82D8
330
18
100
AcDbEntity
  8
0
100
AcDbCircle
 10
64.71469927035343
 20
38.88193258263197
 30
0.0
 40
3.333333333333333
  0
CIRCLE
  5
82D9
330
18
100
AcDbEntity
  8
0
100
AcDbCircle
 10
64.71469927035343
 20
38.88193258263197
 30
0.0
 40
4.0
  0
ARC
  5
82DA
330
18
100
AcDbEntity
  8
0
100
AcDbCircle
 10
64.71469927035343
 20
38.88193258263197
 30
0.0
 40
2.666666666666666
100
AcDbArc
 50
75.52248781407172
 51
104.4775121859282
  0
ARC
  5
82DB
330
18
100
AcDbEntity
  8
0
100
AcDbCircle
 10
64.71469927035343
 20
38.88193258263197
 30
0.0
 40
2.666666666666666
100
AcDbArc
 50
255.5224878140716
 51
284.4775121859282
  0
LINE
  5
82DC
330
18
100
AcDbEntity
  8
0
100
AcDbLine
 10
62.13271037288234
 20
38.21526591596528
 30
0.0
 11
64.0480326036868
 21
38.21526591596528
 31
0.0
  0
LINE
  5
82DD
330
18
100
AcDbEntity
  8
0
100
AcDbLine
 10
62.13271037288234
 20
39.54859924929866
 30
0.0
 11
64.0480326036868
 21
39.54859924929866
 31
0.0
  0
ARC
  5
82DE
330
18
100
AcDbEntity
  8
0
100
AcDbCircle
 10
64.71469927035343
 20
38.88193258263197
 30
0.0
 40
2.666666666666666
100
AcDbArc
 50
165.5224878140701
 51
194.4775121859299
  0
LINE
  5
82DF
330
18
100
AcDbEntity
  8
0
100
AcDbLine
 10
64.0480326036868
 20
39.54859924929866
 30
0.0
 11
64.0480326036868
 21
41.46392148010369
 31
0.0
  0
LINE
  5
82E0
330
18
100
AcDbEntity
  8
0
100
AcDbLine
 10
64.0480326036868
 20
36.29994368516026
 30
0.0
 11
64.0480326036868
 21
38.21526591596528
 31
0.0
  0
ARC
  5
82E1
330
18
100
AcDbEntity
  8
0
100
AcDbCircle
 10
64.71469927035343
 20
38.88193258263197
 30
0.0
 40
2.666666666666666
100
AcDbArc
 50
345.52248781407
 51
14.47751218592991
  0
LINE
  5
82E2
330
18
100
AcDbEntity
  8
0
100
AcDbLine
 10
65.38136593702017
 20
38.21526591596528
 30
0.0
 11
67.2966881678252
 21
38.21526591596528
 31
0.0
  0
LINE
  5
82E3
330
18
100
AcDbEntity
  8
0
100
AcDbLine
 10
65.38136593702017
 20
39.54859924929866
 30
0.0
 11
65.38136593702017
 21
41.46392148010369
 31
0.0
  0
LINE
  5
82E4
330
18
100
AcDbEntity
  8
0
100
AcDbLine
 10
65.38136593702017
 20
39.54859924929866
 30
0.0
 11
67.2966881678252
 21
39.54859924929866
 31
0.0
  0
LINE
  5
82E5
330
18
100
AcDbEntity
  8
0
100
AcDbLine
 10
65.38136593702017
 20
36.29994368516026
 30
0.0
 11
65.38136593702017
 21
38.21526591596528
 31
0.0
  0
LWPOLYLINE
  5
830C
330
18
100
AcDbEntity
  8
0
100
AcDbPolyline
 90
        4
 70
     1
 43
0.0
 10
272.3489892996776
 20
251.0805550992793
 10
302.3489892996776
 20
251.0805550992793
 10
302.3489892996776
 20
259.0805550992793
 10
272.3489892996776
 20
259.0805550992793
  0
LINE
  5
830D
330
18
100
AcDbEntity
  8
0
100
AcDbLine
 10
270.3031199218175
 20
249.2838876017024
 30
0.0
 11
303.3031199218177
 21
249.2838876017024
 31
0.0
  0
LINE
  5
830E
330
18
100
AcDbEntity
  8
0
100
AcDbLine
 10
270.3031199218175
 20
250.8838876017025
 30
0.0
 11
303.3031199218177
 21
250.8838876017025
 31
0.0
  0
HATCH
  5
830F
330
18
100
AcDbEntity
  8
0
100
AcDbHatch
 10
0.0
 20
0.0
 30
0.0
210
0.0
220
0.0
230
1.0
  2
SOLID
 70
     1
 71
     0
 91
       20
 92
        7
 72
     1
 73
     1
 93
        2
 10
276.5989892996776
 20
256.5805550992793
 42
1.0
 10
275.5989892996776
 20
256.5805550992793
 42
1.0
 97
        0
 92
        7
 72
     1
 73
     1
 93
        2
 10
279.0989892996776
 20
256.5805550992793
 42
1.0
 10
278.0989892996776
 20
256.5805550992793
 42
1.0
 97
        0
 92
        7
 72
     1
 73
     1
 93
        2
 10
280.5989892996776
 20
256.5805550992793
 42
1.0
 10
281.5989892996776
 20
256.5805550992793
 42
1.0
 97
        0
 92
        7
 72
     1
 73
     1
 93
        2
 10
284.0989892996777
 20
256.5805550992793
 42
1.0
 10
283.0989892996776
 20
256.5805550992793
 42
1.0
 97
        0
 92
        7
 72
     1
 73
     1
 93
        2
 10
286.5989892996776
 20
256.5805550992793
 42
1.0
 10
285.5989892996776
 20
256.5805550992793
 42
1.0
 97
        0
 92
        7
 72
     1
 73
     1
 93
        2
 10
289.0989892996776
 20
256.5805550992793
 42
1.0
 10
288.0989892996776
 20
256.5805550992793
 42
1.0
 97
        0
 92
        7
 72
     1
 73
     1
 93
        2
 10
291.5989892996776
 20
256.5805550992793
 42
1.0
 10
290.5989892996776
 20
256.5805550992793
 42
1.0
 97
        0
 92
        7
 72
     1
 73
     1
 93
        2
 10
294.0989892996776
 20
256.5805550992793
 42
1.0
 10
293.0989892996776
 20
256.5805550992793
 42
1.0
 97
        0
 92
        7
 72
     1
 73
     1
 93
        2
 10
296.5989892996777
 20
256.5805550992793
 42
1.0
 10
295.5989892996776
 20
256.5805550992793
 42
1.0
 97
        0
 92
        7
 72
     1
 73
     1
 93
        2
 10
299.0989892996776
 20
256.5805550992793
 42
1.0
 10
298.0989892996776
 20
256.5805550992793
 42
1.0
 97
        0
 92
        7
 72
     1
 73
     1
 93
        2
 10
299.0989892996776
 20
253.0805550992793
 42
1.0
 10
298.0989892996776
 20
253.0805550992793
 42
1.0
 97
        0
 92
        7
 72
     1
 73
     1
 93
        2
 10
296.5989892996777
 20
253.0805550992793
 42
1.0
 10
295.5989892996776
 20
253.0805550992793
 42
1.0
 97
        0
 92
        7
 72
     1
 73
     1
 93
        2
 10
294.0989892996776
 20
253.0805550992793
 42
1.0
 10
293.0989892996776
 20
253.0805550992793
 42
1.0
 97
        0
 92
        7
 72
     1
 73
     1
 93
        2
 10
291.5989892996776
 20
253.0805550992793
 42
1.0
 10
290.5989892996776
 20
253.0805550992793
 42
1.0
 97
        0
 92
        7
 72
     1
 73
     1
 93
        2
 10
289.0989892996776
 20
253.0805550992793
 42
1.0
 10
288.0989892996776
 20
253.0805550992793
 42
1.0
 97
        0
 92
        7
 72
     1
 73
     1
 93
        2
 10
286.5989892996776
 20
253.0805550992793
 42
1.0
 10
285.5989892996776
 20
253.0805550992793
 42
1.0
 97
        0
 92
        7
 72
     1
 73
     1
 93
        2
 10
284.0989892996777
 20
253.0805550992793
 42
1.0
 10
283.0989892996776
 20
253.0805550992793
 42
1.0
 97
        0
 92
        7
 72
     1
 73
     1
 93
        2
 10
281.5989892996776
 20
253.0805550992793
 42
1.0
 10
280.5989892996776
 20
253.0805550992793
 42
1.0
 97
        0
 92
        7
 72
     1
 73
     1
 93
        2
 10
279.0989892996776
 20
253.0805550992793
 42
1.0
 10
278.0989892996776
 20
253.0805550992793
 42
1.0
 97
        0
 92
        7
 72
     1
 73
     1
 93
        2
 10
276.5989892996776
 20
253.0805550992793
 42
1.0
 10
275.5989892996776
 20
253.0805550992793
 42
1.0
 97
        0
 75
     0
 76
     1
 47
0.0523552323646742
 98
       20
 10
276.1483975990898
 20
256.4808326439067
 10
278.7682676458266
 20
256.585542988118
 10
281.3881376925633
 20
256.585542988118
 10
283.5888284842517
 20
256.6378981602237
 10
286.051506161687
 20
256.4808326439067
 10
288.8285685777252
 20
256.4808326439067
 10
291.1340550751249
 20
256.585542988118
 10
293.5443348997046
 20
256.4808326439067
 10
296.1642049464415
 20
256.4284774718012
 10
298.5744859602866
 20
256.4284774718012
 10
298.731678329588
 20
253.0777424799439
 10
296.0594104299957
 20
253.0777424799439
 10
293.5443348997046
 20
252.8683217915214
 10
290.9244648529677
 20
253.0777424799439
 10
288.6189795448337
 20
253.0777424799439
 10
286.1039040145426
 20
252.9730321357326
 10
283.484033967806
 20
253.1300976520495
 10
281.1785486596718
 20
252.8683217915214
 10
278.4014862436338
 20
253.0253873078383
 10
276.1483975990898
 20
253.0777424799439
  0
CIRCLE
  5
8310
330
18
100
AcDbEntity
  8
0
100
AcDbCircle
 10
276.0989892996776
 20
256.5805550992793
 30
0.0
 40
0.5
  0
CIRCLE
  5
8311
330
18
100
AcDbEntity
  8
0
100
AcDbCircle
 10
276.0989892996776
 20
253.0805550992793
 30
0.0
 40
0.5
  0
CIRCLE
  5
8312
330
18
100
AcDbEntity
  8
0
100
AcDbCircle
 10
278.5989892996776
 20
256.5805550992793
 30
0.0
 40
0.5
  0
CIRCLE
  5
8313
330
18
100
AcDbEntity
  8
0
100
AcDbCircle
 10
278.5989892996776
 20
253.0805550992793
 30
0.0
 40
0.5
  0
CIRCLE
  5
8314
330
18
100
AcDbEntity
  8
0
100
AcDbCircle
 10
283.5989892996776
 20
256.5805550992793
 30
0.0
 40
0.5
  0
CIRCLE
  5
8315
330
18
100
AcDbEntity
  8
0
100
AcDbCircle
 10
281.0989892996776
 20
256.5805550992793
 30
0.0
 40
0.5
  0
CIRCLE
  5
8316
330
18
100
AcDbEntity
  8
0
100
AcDbCircle
 10
283.5989892996776
 20
253.0805550992793
 30
0.0
 40
0.5
  0
CIRCLE
  5
8317
330
18
100
AcDbEntity
  8
0
100
AcDbCircle
 10
281.0989892996776
 20
253.0805550992793
 30
0.0
 40
0.5
  0
CIRCLE
  5
8318
330
18
100
AcDbEntity
  8
0
100
AcDbCircle
 10
293.5989892996776
 20
256.5805550992793
 30
0.0
 40
0.5
  0
CIRCLE
  5
8319
330
18
100
AcDbEntity
  8
0
100
AcDbCircle
 10
293.5989892996776
 20
253.0805550992793
 30
0.0
 40
0.5
  0
CIRCLE
  5
831A
330
18
100
AcDbEntity
  8
0
100
AcDbCircle
 10
288.5989892996776
 20
256.5805550992793
 30
0.0
 40
0.5
  0
CIRCLE
  5
831B
330
18
100
AcDbEntity
  8
0
100
AcDbCircle
 10
286.0989892996776
 20
256.5805550992793
 30
0.0
 40
0.5
  0
CIRCLE
  5
831C
330
18
100
AcDbEntity
  8
0
100
AcDbCircle
 10
288.5989892996776
 20
253.0805550992793
 30
0.0
 40
0.5
  0
CIRCLE
  5
831D
330
18
100
AcDbEntity
  8
0
100
AcDbCircle
 10
286.0989892996776
 20
253.0805550992793
 30
0.0
 40
0.5
  0
CIRCLE
  5
831E
330
18
100
AcDbEntity
  8
0
100
AcDbCircle
 10
291.0989892996776
 20
256.5805550992793
 30
0.0
 40
0.5
  0
CIRCLE
  5
831F
330
18
100
AcDbEntity
  8
0
100
AcDbCircle
 10
291.0989892996776
 20
253.0805550992793
 30
0.0
 40
0.5
  0
CIRCLE
  5
8320
330
18
100
AcDbEntity
  8
0
100
AcDbCircle
 10
296.0989892996776
 20
256.5805550992793
 30
0.0
 40
0.5
  0
CIRCLE
  5
8321
330
18
100
AcDbEntity
  8
0
100
AcDbCircle
 10
296.0989892996776
 20
253.0805550992793
 30
0.0
 40
0.5
  0
CIRCLE
  5
8322
330
18
100
AcDbEntity
  8
0
100
AcDbCircle
 10
298.5989892996776
 20
256.5805550992793
 30
0.0
 40
0.5
  0
CIRCLE
  5
8323
330
18
100
AcDbEntity
  8
0
100
AcDbCircle
 10
298.5989892996776
 20
253.0805550992793
 30
0.0
 40
0.5
  0
LWPOLYLINE
  5
8324
330
18
100
AcDbEntity
  8
0
100
AcDbPolyline
 90
        4
 70
     1
 43
0.0
 10
267.5531199218176
 20
250.7338876017026
 10
266.0531199218176
 20
250.7338876017026
 10
266.0531199218176
 20
252.2338876017026
 10
267.5531199218176
 20
252.2338876017026
  0
LWPOLYLINE
  5
8325
330
18
100
AcDbEntity
  8
0
100
AcDbPolyline
 90
        4
 70
     1
 43
0.0
 10
262.8031199218176
 20
250.4838876017026
 10
267.8031199218176
 20
250.4838876017026
 10
267.8031199218176
 20
252.4838876017026
 10
262.8031199218176
 20
252.4838876017026
  0
LINE
  5
8348
330
18
100
AcDbEntity
  8
0
100
AcDbLine
 10
46.61469927035352
 20
163.5819325826316
 30
0.0
 11
46.61469927035352
 21
169.8769325826317
 31
0.0
  0
LINE
  5
8349
330
18
100
AcDbEntity
  8
0
100
AcDbLine
 10
46.61469927035352
 20
148.8769325826317
 30
0.0
 11
46.61469927035352
 21
155.1719325826317
 31
0.0
  0
LINE
  5
834A
330
18
100
AcDbEntity
  8
0
100
AcDbLine
 10
47.61469927035355
 20
163.5819325826316
 30
0.0
 11
47.61469927035355
 21
169.8769325826317
 31
0.0
  0
LINE
  5
834B
330
18
100
AcDbEntity
  8
0
100
AcDbLine
 10
47.61469927035355
 20
148.8769325826317
 30
0.0
 11
47.61469927035355
 21
155.1719325826317
 31
0.0
  0
LINE
  5
8364
330
18
100
AcDbEntity
  8
0
100
AcDbLine
 10
58.61469927035352
 20
148.8769325826317
 30
0.0
 11
58.61469927035352
 21
169.8769325826317
 31
0.0
  0
LINE
  5
8365
330
18
100
AcDbEntity
  8
0
100
AcDbLine
 10
46.61469927035352
 20
169.8769325826317
 30
0.0
 11
58.61469927035352
 21
169.8769325826317
 31
0.0
  0
LINE
  5
8366
330
18
100
AcDbEntity
  8
0
100
AcDbLine
 10
46.61469927035352
 20
148.8769325826317
 30
0.0
 11
58.61469927035352
 21
148.8769325826317
 31
0.0
  0
LWPOLYLINE
  5
8408
330
18
100
AcDbEntity
  8
0
100
AcDbPolyline
 90
        4
 70
     1
 43
0.0
 10
78.16469927035362
 20
96.15693258263178
 10
77.81469927035361
 20
96.15693258263178
 10
77.81469927035361
 20
95.18193258263165
 10
78.16469927035362
 20
95.18193258263165
  0
LWPOLYLINE
  5
8409
330
18
100
AcDbEntity
  8
0
100
AcDbPolyline
 90
        4
 70
     1
 43
0.0
 10
80.93969927035361
 20
96.15693258263178
 10
80.58969927035361
 20
96.15693258263178
 10
80.58969927035361
 20
95.18193258263165
 10
80.93969927035361
 20
95.18193258263165
  0
LWPOLYLINE
  5
840A
330
18
100
AcDbEntity
  8
0
100
AcDbPolyline
 90
        4
 70
     1
 43
0.0
 10
81.28969927035361
 20
103.5569325826316
 10
77.58969927035362
 20
103.5569325826316
 10
77.58969927035362
 20
89.40693258263179
 10
81.28969927035361
 20
89.40693258263179
  0
LINE
  5
840B
330
18
100
AcDbEntity
  8
0
100
AcDbLine
 10
82.46469927035361
 20
89.3569325826316
 30
0.0
 11
82.46469927035361
 21
103.4819325826316
 31
0.0
  0
LINE
  5
840C
330
18
100
AcDbEntity
  8
0
100
AcDbLine
 10
76.33969927035362
 20
104.4069325826317
 30
0.0
 11
76.33969927035362
 21
88.30693258263165
 31
0.0
  0
LWPOLYLINE
  5
840D
330
18
100
AcDbEntity
  8
0
100
AcDbPolyline
 90
        4
 70
     1
 43
0.2
 10
74.78969927035362
 20
112.8819325826316
 10
74.78969927035362
 20
79.55693258263164
 10
84.01469927035362
 20
79.55693258263164
 10
84.01469927035362
 20
112.8819325826316
  0
LWPOLYLINE
  5
840E
330
18
100
AcDbEntity
  8
0
100
AcDbPolyline
 90
        4
 70
     1
 43
0.0
 10
78.13969927035362
 20
91.33193258263174
 10
77.78969927035362
 20
91.33193258263174
 10
77.78969927035362
 20
90.3569325826316
 10
78.13969927035362
 20
90.3569325826316
  0
LWPOLYLINE
  5
840F
330
18
100
AcDbEntity
  8
0
100
AcDbPolyline
 90
        4
 70
     1
 43
0.0
 10
80.91469927035362
 20
91.33193258263174
 10
80.56469927035362
 20
91.33193258263174
 10
80.56469927035362
 20
90.3569325826316
 10
80.91469927035362
 20
90.3569325826316
  0
LWPOLYLINE
  5
8410
330
18
100
AcDbEntity
  8
0
100
AcDbPolyline
 90
        4
 70
     1
 43
0.0
 10
78.13969927035362
 20
92.53193258263179
 10
77.78969927035362
 20
92.53193258263179
 10
77.78969927035362
 20
91.55693258263164
 10
78.13969927035362
 20
91.55693258263164
  0
LWPOLYLINE
  5
8411
330
18
100
AcDbEntity
  8
0
100
AcDbPolyline
 90
        4
 70
     1
 43
0.0
 10
80.91469927035362
 20
92.53193258263179
 10
80.56469927035362
 20
92.53193258263179
 10
80.56469927035362
 20
91.55693258263164
 10
80.91469927035362
 20
91.55693258263164
  0
LWPOLYLINE
  5
8412
330
18
100
AcDbEntity
  8
0
100
AcDbPolyline
 90
        4
 70
     1
 43
0.0
 10
78.16469927035362
 20
93.7319325826316
 10
77.81469927035361
 20
93.7319325826316
 10
77.81469927035361
 20
92.75693258263169
 10
78.16469927035362
 20
92.75693258263169
  0
LWPOLYLINE
  5
8413
330
18
100
AcDbEntity
  8
0
100
AcDbPolyline
 90
        4
 70
     1
 43
0.0
 10
80.93969927035361
 20
93.7319325826316
 10
80.58969927035361
 20
93.7319325826316
 10
80.58969927035361
 20
92.75693258263169
 10
80.93969927035361
 20
92.75693258263169
  0
LINE
  5
8414
330
18
100
AcDbEntity
  8
0
100
AcDbLine
 10
75.58969927035362
 20
83.7319325826316
 30
0.0
 11
75.58969927035362
 21
85.80693258263165
 31
0.0
  0
LINE
  5
8415
330
18
100
AcDbEntity
  8
0
100
AcDbLine
 10
83.21469927035362
 20
83.7319325826316
 30
0.0
 11
83.21469927035362
 21
85.80693258263165
 31
0.0
  0
LINE
  5
8416
330
18
100
AcDbEntity
  8
0
100
AcDbLine
 10
81.28969927035361
 20
83.70693258263173
 30
0.0
 11
81.28969927035361
 21
84.68193258263164
 31
0.0
  0
LINE
  5
8417
330
18
100
AcDbEntity
  8
0
100
AcDbLine
 10
81.28969927035361
 20
84.70693258263173
 30
0.0
 11
77.71469927035361
 21
84.70693258263173
 31
0.0
  0
LINE
  5
8418
330
18
100
AcDbEntity
  8
0
100
AcDbLine
 10
77.71469927035361
 20
83.7319325826316
 30
0.0
 11
77.71469927035361
 21
84.70693258263173
 31
0.0
  0
LINE
  5
8419
330
18
100
AcDbEntity
  8
0
100
AcDbLine
 10
77.71469927035361
 20
83.7319325826316
 30
0.0
 11
75.58969927035362
 21
83.7319325826316
 31
0.0
  0
LINE
  5
841A
330
18
100
AcDbEntity
  8
0
100
AcDbLine
 10
83.21469927035362
 20
83.7319325826316
 30
0.0
 11
81.28969927035361
 21
83.7319325826316
 31
0.0
  0
LINE
  5
841B
330
18
100
AcDbEntity
  8
0
100
AcDbLine
 10
83.21469927035362
 20
85.80693258263165
 30
0.0
 11
75.58969927035362
 21
85.80693258263165
 31
0.0
  0
LWPOLYLINE
  5
841C
330
18
100
AcDbEntity
  8
0
100
AcDbPolyline
 90
        4
 70
     1
 43
0.0
 10
78.16469927035362
 20
94.9819325826316
 10
77.81469927035361
 20
94.9819325826316
 10
77.81469927035361
 20
94.00693258263169
 10
78.16469927035362
 20
94.00693258263169
  0
LWPOLYLINE
  5
841D
330
18
100
AcDbEntity
  8
0
100
AcDbPolyline
 90
        4
 70
     1
 43
0.0
 10
80.93969927035361
 20
94.9819325826316
 10
80.58969927035361
 20
94.9819325826316
 10
80.58969927035361
 20
94.00693258263169
 10
80.93969927035361
 20
94.00693258263169
  0
ELLIPSE
  5
841E
330
18
100
AcDbEntity
  8
0
100
AcDbEllipse
 10
81.23969927035361
 20
89.45693258263174
 30
0.0
 11
0.0
 21
1.25
 31
0.0
210
0.0
220
0.0
230
1.0
 40
0.98
 41
3.380894
 42
4.528311
  0
ELLIPSE
  5
841F
330
18
100
AcDbEntity
  8
0
100
AcDbEllipse
 10
77.56469927035361
 20
88.4819325826316
 30
0.0
 11
0.0
 21
1.25
 31
0.0
210
0.0
220
0.0
230
1.0
 40
0.98
 41
1.708854999999999
 42
3.380894
  0
LINE
  5
8420
330
18
100
AcDbEntity
  8
0
100
AcDbLine
 10
77.83969927035362
 20
87.2319325826316
 30
0.0
 11
81.53969927035362
 21
88.20693258263174
 31
0.0
  0
ELLIPSE
  5
8421
330
18
100
AcDbEntity
  8
0
100
AcDbEllipse
 10
79.41469927035362
 20
82.83193258263173
 30
0.0
 11
0.0
 21
0.775
 31
0.0
210
0.0
220
0.0
230
1.0
 40
0.9677419999999999
 41
0.0
 42
6.283184999999999
  0
LINE
  5
8422
330
18
100
AcDbEntity
  8
0
100
AcDbLine
 10
75.58969927035362
 20
109.2819325826317
 30
0.0
 11
75.58969927035362
 21
107.2069325826317
 31
0.0
  0
LINE
  5
8423
330
18
100
AcDbEntity
  8
0
100
AcDbLine
 10
83.21469927035362
 20
109.2819325826317
 30
0.0
 11
83.21469927035362
 21
107.2069325826317
 31
0.0
  0
LINE
  5
8424
330
18
100
AcDbEntity
  8
0
100
AcDbLine
 10
81.28969927035361
 20
109.3069325826316
 30
0.0
 11
81.28969927035361
 21
108.3319325826317
 31
0.0
  0
LINE
  5
8425
330
18
100
AcDbEntity
  8
0
100
AcDbLine
 10
81.28969927035361
 20
108.3069325826316
 30
0.0
 11
77.71469927035361
 21
108.3069325826316
 31
0.0
  0
LINE
  5
8426
330
18
100
AcDbEntity
  8
0
100
AcDbLine
 10
77.71469927035361
 20
109.2819325826317
 30
0.0
 11
77.71469927035361
 21
108.3069325826316
 31
0.0
  0
LINE
  5
8427
330
18
100
AcDbEntity
  8
0
100
AcDbLine
 10
77.71469927035361
 20
109.2819325826317
 30
0.0
 11
75.58969927035362
 21
109.2819325826317
 31
0.0
  0
LINE
  5
8428
330
18
100
AcDbEntity
  8
0
100
AcDbLine
 10
83.21469927035362
 20
109.2819325826317
 30
0.0
 11
81.28969927035361
 21
109.2819325826317
 31
0.0
  0
LWPOLYLINE
  5
8429
330
18
100
AcDbEntity
  8
0
100
AcDbPolyline
 90
        4
 70
     1
 43
0.0
 10
78.16469927035362
 20
97.43193258263165
 10
77.81469927035361
 20
97.43193258263165
 10
77.81469927035361
 20
96.45693258263174
 10
78.16469927035362
 20
96.45693258263174
  0
LWPOLYLINE
  5
842A
330
18
100
AcDbEntity
  8
0
100
AcDbPolyline
 90
        4
 70
     1
 43
0.0
 10
78.16469927035362
 20
98.75693258263169
 10
77.81469927035361
 20
98.75693258263169
 10
77.81469927035361
 20
97.80693258263164
 10
78.16469927035362
 20
97.80693258263164
  0
LWPOLYLINE
  5
842B
330
18
100
AcDbEntity
  8
0
100
AcDbPolyline
 90
        4
 70
     1
 43
0.0
 10
78.16469927035362
 20
100.0319325826317
 10
77.81469927035361
 20
100.0319325826317
 10
77.81469927035361
 20
99.05693258263164
 10
78.16469927035362
 20
99.05693258263164
  0
LWPOLYLINE
  5
842C
330
18
100
AcDbEntity
  8
0
100
AcDbPolyline
 90
        4
 70
     1
 43
0.0
 10
78.16469927035362
 20
101.2569325826316
 10
77.81469927035361
 20
101.2569325826316
 10
77.81469927035361
 20
100.2819325826317
 10
78.16469927035362
 20
100.2819325826317
  0
LWPOLYLINE
  5
842D
330
18
100
AcDbEntity
  8
0
100
AcDbPolyline
 90
        4
 70
     1
 43
0.0
 10
78.16469927035362
 20
102.5319325826317
 10
77.81469927035361
 20
102.5319325826317
 10
77.81469927035361
 20
101.5319325826317
 10
78.16469927035362
 20
101.5319325826317
  0
LWPOLYLINE
  5
842E
330
18
100
AcDbEntity
  8
0
100
AcDbPolyline
 90
        4
 70
     1
 43
0.0
 10
80.93969927035361
 20
97.43193258263165
 10
80.58969927035361
 20
97.43193258263165
 10
80.58969927035361
 20
96.45693258263174
 10
80.93969927035361
 20
96.45693258263174
  0
LWPOLYLINE
  5
842F
330
18
100
AcDbEntity
  8
0
100
AcDbPolyline
 90
        4
 70
     1
 43
0.0
 10
80.93969927035361
 20
98.75693258263169
 10
80.58969927035361
 20
98.75693258263169
 10
80.58969927035361
 20
97.80693258263164
 10
80.93969927035361
 20
97.80693258263164
  0
LWPOLYLINE
  5
8430
330
18
100
AcDbEntity
  8
0
100
AcDbPolyline
 90
        4
 70
     1
 43
0.0
 10
80.93969927035361
 20
100.0319325826317
 10
80.58969927035361
 20
100.0319325826317
 10
80.58969927035361
 20
99.05693258263164
 10
80.93969927035361
 20
99.05693258263164
  0
LWPOLYLINE
  5
8431
330
18
100
AcDbEntity
  8
0
100
AcDbPolyline
 90
        4
 70
     1
 43
0.0
 10
80.93969927035361
 20
101.2569325826316
 10
80.58969927035361
 20
101.2569325826316
 10
80.58969927035361
 20
100.2819325826317
 10
80.93969927035361
 20
100.2819325826317
  0
LWPOLYLINE
  5
8432
330
18
100
AcDbEntity
  8
0
100
AcDbPolyline
 90
        4
 70
     1
 43
0.0
 10
80.93969927035361
 20
102.5319325826317
 10
80.58969927035361
 20
102.5319325826317
 10
80.58969927035361
 20
101.5319325826317
 10
80.93969927035361
 20
101.5319325826317
  0
ELLIPSE
  5
8433
330
18
100
AcDbEntity
  8
0
100
AcDbEllipse
 10
81.23969927035361
 20
103.4819325826316
 30
0.0
 11
0.0
 21
1.25
 31
0.0
210
0.0
220
0.0
230
1.0
 40
0.98
 41
4.509903999999999
 42
6.059223999999999
  0
ELLIPSE
  5
8434
330
18
100
AcDbEntity
  8
0
100
AcDbEllipse
 10
77.56469927035361
 20
104.4069325826317
 30
0.0
 11
0.0
 21
1.25
 31
0.0
210
0.0
220
0.0
230
1.0
 40
0.98
 41
6.03468
 42
8.053399307179585
  0
LINE
  5
8435
330
18
100
AcDbEntity
  8
0
100
AcDbLine
 10
81.53969927035362
 20
104.6569325826317
 30
0.0
 11
77.83969927035362
 21
105.5819325826317
 31
0.0
  0
ELLIPSE
  5
8436
330
18
100
AcDbEntity
  8
0
100
AcDbEllipse
 10
79.41469927035362
 20
110.5069325826316
 30
0.0
 11
0.0
 21
0.775
 31
0.0
210
0.0
220
0.0
230
1.0
 40
0.9677419999999999
 41
0.0
 42
6.283184999999999
  0
LINE
  5
8437
330
18
100
AcDbEntity
  8
0
100
AcDbLine
 10
83.21469927035362
 20
107.2069325826317
 30
0.0
 11
75.58969927035362
 21
107.2069325826317
 31
0.0
  0
LWPOLYLINE
  5
8438
330
18
100
AcDbEntity
  8
0
100
AcDbPolyline
 90
        4
 70
     1
 43
0.2
 10
76.48969927035361
 20
172.8819325826317
 10
84.01469927035362
 20
172.8819325826317
 10
84.01469927035362
 20
159.8819325826317
 10
76.48969927035361
 20
159.8819325826317
  0
ELLIPSE
  5
8439
330
18
100
AcDbEntity
  8
0
100
AcDbEllipse
 10
82.51469927035362
 20
162.8569325826316
 30
0.0
 11
0.5
 21
0.0
 31
0.0
210
0.0
220
0.0
230
1.0
 40
0.95
 41
0.0
 42
6.283184999999999
  0
LWPOLYLINE
  5
843A
330
18
100
AcDbEntity
  8
0
100
AcDbPolyline
 90
        6
 70
     1
 43
0.2
 10
78.56469927035361
 20
163.3069325826317
 10
78.11469927035361
 20
162.8819325826317
 10
78.56469927035361
 20
162.4819325826316
 10
80.66469927035361
 20
162.4819325826316
 10
81.08969927035362
 20
162.8819325826317
 10
80.66469927035361
 20
163.3069325826317
  0
LWPOLYLINE
  5
843B
330
18
100
AcDbEntity
  8
0
100
AcDbPolyline
 90
        6
 70
     1
 43
0.2
 10
79.63969927035361
 20
170.5819325826317
 10
79.21469927035362
 20
170.2069325826317
 10
79.63969927035361
 20
169.7819325826318
 10
81.76469927035361
 20
169.7819325826318
 10
82.16469927035362
 20
170.2069325826317
 10
81.76469927035361
 20
170.5819325826317
  0
LWPOLYLINE
  5
843C
330
18
100
AcDbEntity
  8
0
100
AcDbPolyline
 90
        6
 70
     1
 43
0.2
 10
81.91469927035361
 20
166.4819325826316
 10
81.51469927035362
 20
166.0569325826316
 10
81.08969927035362
 20
163.2819325826318
 10
81.51469927035362
 20
162.8819325826317
 10
81.91469927035361
 20
163.2819325826318
 10
82.36469927035361
 20
166.0569325826316
  0
LWPOLYLINE
  5
843D
330
18
100
AcDbEntity
  8
0
100
AcDbPolyline
 90
        6
 70
     1
 43
0.2
 10
82.48969927035361
 20
170.2069325826317
 10
82.06469927035362
 20
169.8069325826317
 10
81.66469927035363
 20
167.0069325826317
 10
82.06469927035362
 20
166.6069325826316
 10
82.48969927035361
 20
167.0069325826317
 10
82.91469927035363
 20
169.8069325826317
  0
LWPOLYLINE
  5
843E
330
18
100
AcDbEntity
  8
0
100
AcDbPolyline
 90
        6
 70
     1
 43
0.2
 10
78.26469927035361
 20
166.4819325826316
 10
77.83969927035362
 20
166.0569325826316
 10
77.43969927035362
 20
163.2819325826318
 10
77.83969927035362
 20
162.8819325826317
 10
78.26469927035361
 20
163.2819325826318
 10
78.68969927035362
 20
166.0569325826316
  0
LWPOLYLINE
  5
843F
330
18
100
AcDbEntity
  8
0
100
AcDbPolyline
 90
        6
 70
     1
 43
0.2
 10
79.11469927035361
 20
167.0069325826317
 10
78.66469927035362
 20
166.6069325826316
 10
79.11469927035361
 20
166.2069325826317
 10
81.21469927035361
 20
166.2069325826317
 10
81.6146992703536
 20
166.6069325826316
 10
81.21469927035361
 20
167.0069325826317
  0
LWPOLYLINE
  5
8440
330
18
100
AcDbEntity
  8
0
100
AcDbPolyline
 90
        6
 70
     1
 43
0.2
 10
78.81469927035361
 20
170.2069325826317
 10
78.41469927035362
 20
169.8069325826317
 10
77.98969927035361
 20
167.0069325826317
 10
78.41469927035362
 20
166.6069325826316
 10
78.81469927035361
 20
167.0069325826317
 10
79.26469927035362
 20
169.8069325826317
  0
LINE
  5
8441
330
18
100
AcDbEntity
  8
0
100
AcDbLine
 10
69.01469927035361
 20
113.0319325826316
 30
0.0
 11
73.01469927035362
 21
113.0319325826316
 31
0.0
  0
LINE
  5
8442
330
18
100
AcDbEntity
  8
0
100
AcDbLine
 10
69.01469927035361
 20
126.8069325826316
 30
0.0
 11
73.01469927035362
 21
126.8069325826316
 31
0.0
  0
LWPOLYLINE
  5
8443
330
18
100
AcDbEntity
  8
0
100
AcDbPolyline
 90
        4
 70
     1
 43
0.2
 10
83.01469927035361
 20
126.3819325826316
 10
83.01469927035361
 20
113.3819325826316
 10
68.01469927035362
 20
113.3819325826316
 10
68.01469927035362
 20
126.3819325826316
  0
LWPOLYLINE
  5
8444
330
18
100
AcDbEntity
  8
0
100
AcDbPolyline
 90
        4
 70
     1
 43
0.2
 10
69.01469927035361
 20
125.3819325826316
 10
71.01469927035362
 20
125.3819325826316
 10
71.01469927035362
 20
114.3819325826316
 10
69.01469927035361
 20
114.3819325826316
  0
LWPOLYLINE
  5
8445
330
18
100
AcDbEntity
  8
0
100
AcDbPolyline
 90
        4
 70
     1
 43
0.2
 10
71.56469927035361
 20
116.3819325826316
 10
71.56469927035361
 20
115.3819325826316
 10
71.01469927035362
 20
115.3819325826316
 10
71.01469927035362
 20
116.3819325826316
  0
LWPOLYLINE
  5
8446
330
18
100
AcDbEntity
  8
0
100
AcDbPolyline
 90
        4
 70
     1
 43
0.2
 10
71.56469927035361
 20
118.7819325826316
 10
71.56469927035361
 20
117.7819325826316
 10
71.01469927035362
 20
117.7819325826316
 10
71.01469927035362
 20
118.7819325826316
  0
LINE
  5
8447
330
18
100
AcDbEntity
  8
0
100
AcDbLine
 10
67.61469927035361
 20
114.3819325826316
 30
0.0
 11
67.61469927035361
 21
118.3819325826316
 31
0.0
  0
LWPOLYLINE
  5
8448
330
18
100
AcDbEntity
  8
0
100
AcDbPolyline
 90
        4
 70
     1
 43
0.2
 10
71.56469927035361
 20
121.9819325826317
 10
71.56469927035361
 20
120.9819325826317
 10
71.01469927035362
 20
120.9819325826317
 10
71.01469927035362
 20
121.9819325826317
  0
LWPOLYLINE
  5
8449
330
18
100
AcDbEntity
  8
0
100
AcDbPolyline
 90
        4
 70
     1
 43
0.2
 10
71.56469927035361
 20
124.3819325826317
 10
71.56469927035361
 20
123.3819325826317
 10
71.01469927035362
 20
123.3819325826317
 10
71.01469927035362
 20
124.3819325826317
  0
LINE
  5
844A
330
18
100
AcDbEntity
  8
0
100
AcDbLine
 10
67.61469927035361
 20
125.3819325826316
 30
0.0
 11
67.61469927035361
 21
121.3819325826317
 31
0.0
  0
LWPOLYLINE
  5
844B
330
18
100
AcDbEntity
  8
0
100
AcDbPolyline
 90
        4
 70
     1
 43
0.2
 10
78.01469927035362
 20
125.3819325826316
 10
80.01469927035362
 20
125.3819325826316
 10
80.01469927035362
 20
114.3819325826316
 10
78.01469927035362
 20
114.3819325826316
  0
LINE
  5
844C
330
18
100
AcDbEntity
  8
0
100
AcDbLine
 10
77.01469927035361
 20
126.3819325826316
 30
0.0
 11
77.01469927035361
 21
113.3819325826316
 31
0.0
  0
LINE
  5
844D
330
18
100
AcDbEntity
  8
0
100
AcDbLine
 10
74.01469927035361
 20
126.3819325826316
 30
0.0
 11
74.01469927035361
 21
113.3819325826316
 31
0.0
  0
LWPOLYLINE
  5
844E
330
18
100
AcDbEntity
  8
0
100
AcDbPolyline
 90
        4
 70
     1
 43
0.2
 10
80.56469927035362
 20
116.3819325826316
 10
80.56469927035362
 20
115.3819325826316
 10
80.01469927035362
 20
115.3819325826316
 10
80.01469927035362
 20
116.3819325826316
  0
LWPOLYLINE
  5
844F
330
18
100
AcDbEntity
  8
0
100
AcDbPolyline
 90
        4
 70
     1
 43
0.2
 10
80.56469927035362
 20
118.7819325826316
 10
80.56469927035362
 20
117.7819325826316
 10
80.01469927035362
 20
117.7819325826316
 10
80.01469927035362
 20
118.7819325826316
  0
LINE
  5
8450
330
18
100
AcDbEntity
  8
0
100
AcDbLine
 10
82.01469927035361
 20
113.0319325826316
 30
0.0
 11
78.01469927035362
 21
113.0319325826316
 31
0.0
  0
LINE
  5
8451
330
18
100
AcDbEntity
  8
0
100
AcDbLine
 10
83.41469927035362
 20
114.3819325826316
 30
0.0
 11
83.41469927035362
 21
118.3819325826316
 31
0.0
  0
LWPOLYLINE
  5
8452
330
18
100
AcDbEntity
  8
0
100
AcDbPolyline
 90
        4
 70
     1
 43
0.2
 10
80.56469927035362
 20
121.9819325826317
 10
80.56469927035362
 20
120.9819325826317
 10
80.01469927035362
 20
120.9819325826317
 10
80.01469927035362
 20
121.9819325826317
  0
LWPOLYLINE
  5
8453
330
18
100
AcDbEntity
  8
0
100
AcDbPolyline
 90
        4
 70
     1
 43
0.2
 10
80.56469927035362
 20
124.3819325826317
 10
80.56469927035362
 20
123.3819325826317
 10
80.01469927035362
 20
123.3819325826317
 10
80.01469927035362
 20
124.3819325826317
  0
LINE
  5
8454
330
18
100
AcDbEntity
  8
0
100
AcDbLine
 10
82.01469927035361
 20
126.8069325826316
 30
0.0
 11
78.01469927035362
 21
126.8069325826316
 31
0.0
  0
LINE
  5
8455
330
18
100
AcDbEntity
  8
0
100
AcDbLine
 10
83.41469927035362
 20
125.3819325826316
 30
0.0
 11
83.41469927035362
 21
121.3819325826317
 31
0.0
  0
LWPOLYLINE
  5
8456
330
18
100
AcDbEntity
  8
0
100
AcDbPolyline
 90
        4
 70
     1
 43
0.0
 10
78.13969927035362
 20
51.4319325826317
 10
77.78969927035362
 20
51.4319325826317
 10
77.78969927035362
 20
50.45693258263179
 10
78.13969927035362
 20
50.45693258263179
  0
LWPOLYLINE
  5
8457
330
18
100
AcDbEntity
  8
0
100
AcDbPolyline
 90
        4
 70
     1
 43
0.0
 10
80.91469927035362
 20
51.4319325826317
 10
80.56469927035362
 20
51.4319325826317
 10
80.56469927035362
 20
50.45693258263179
 10
80.91469927035362
 20
50.45693258263179
  0
LWPOLYLINE
  5
8458
330
18
100
AcDbEntity
  8
0
100
AcDbPolyline
 90
        4
 70
     1
 43
0.0
 10
81.28969927035361
 20
69.5569325826317
 10
77.58969927035362
 20
69.5569325826317
 10
77.58969927035362
 20
45.75693258263174
 10
81.28969927035361
 20
45.75693258263174
  0
LINE
  5
8459
330
18
100
AcDbEntity
  8
0
100
AcDbLine
 10
82.46469927035361
 20
45.3069325826317
 30
0.0
 11
82.46469927035361
 21
69.48193258263166
 31
0.0
  0
LINE
  5
845A
330
18
100
AcDbEntity
  8
0
100
AcDbLine
 10
76.33969927035362
 20
70.40693258263184
 30
0.0
 11
76.33969927035362
 21
44.38193258263175
 31
0.0
  0
LWPOLYLINE
  5
845B
330
18
100
AcDbEntity
  8
0
100
AcDbPolyline
 90
        4
 70
     1
 43
0.2
 10
74.78969927035362
 20
78.88193258263175
 10
74.78969927035362
 20
35.58193258263179
 10
84.01469927035362
 20
35.58193258263179
 10
84.01469927035362
 20
78.88193258263175
  0
LWPOLYLINE
  5
845C
330
18
100
AcDbEntity
  8
0
100
AcDbPolyline
 90
        4
 70
     1
 43
0.0
 10
78.13969927035362
 20
47.78193258263184
 10
77.78969927035362
 20
47.78193258263184
 10
77.78969927035362
 20
46.8069325826317
 10
78.13969927035362
 20
46.8069325826317
  0
LWPOLYLINE
  5
845D
330
18
100
AcDbEntity
  8
0
100
AcDbPolyline
 90
        4
 70
     1
 43
0.0
 10
80.91469927035362
 20
47.78193258263184
 10
80.56469927035362
 20
47.78193258263184
 10
80.56469927035362
 20
46.8069325826317
 10
80.91469927035362
 20
46.8069325826317
  0
LWPOLYLINE
  5
845E
330
18
100
AcDbEntity
  8
0
100
AcDbPolyline
 90
        4
 70
     1
 43
0.0
 10
78.13969927035362
 20
49.00693258263174
 10
77.78969927035362
 20
49.00693258263174
 10
77.78969927035362
 20
48.03193258263184
 10
78.13969927035362
 20
48.03193258263184
  0
LWPOLYLINE
  5
845F
330
18
100
AcDbEntity
  8
0
100
AcDbPolyline
 90
        4
 70
     1
 43
0.0
 10
80.91469927035362
 20
49.00693258263174
 10
80.56469927035362
 20
49.00693258263174
 10
80.56469927035362
 20
48.03193258263184
 10
80.91469927035362
 20
48.03193258263184
  0
LWPOLYLINE
  5
8460
330
18
100
AcDbEntity
  8
0
100
AcDbPolyline
 90
        4
 70
     1
 43
0.0
 10
78.13969927035362
 20
50.23193258263166
 10
77.78969927035362
 20
50.23193258263166
 10
77.78969927035362
 20
49.25693258263175
 10
78.13969927035362
 20
49.25693258263175
  0
LWPOLYLINE
  5
8461
330
18
100
AcDbEntity
  8
0
100
AcDbPolyline
 90
        4
 70
     1
 43
0.0
 10
80.91469927035362
 20
50.23193258263166
 10
80.56469927035362
 20
50.23193258263166
 10
80.56469927035362
 20
49.25693258263175
 10
80.91469927035362
 20
49.25693258263175
  0
LINE
  5
8462
330
18
100
AcDbEntity
  8
0
100
AcDbLine
 10
75.58969927035362
 20
39.85693258263177
 30
0.0
 11
75.58969927035362
 21
41.9319325826317
 31
0.0
  0
LINE
  5
8463
330
18
100
AcDbEntity
  8
0
100
AcDbLine
 10
83.21469927035362
 20
39.85693258263177
 30
0.0
 11
83.21469927035362
 21
41.9319325826317
 31
0.0
  0
LINE
  5
8464
330
18
100
AcDbEntity
  8
0
100
AcDbLine
 10
81.28969927035361
 20
39.83193258263179
 30
0.0
 11
81.28969927035361
 21
40.8069325826317
 31
0.0
  0
LINE
  5
8465
330
18
100
AcDbEntity
  8
0
100
AcDbLine
 10
81.28969927035361
 20
40.83193258263179
 30
0.0
 11
77.71469927035361
 21
40.83193258263179
 31
0.0
  0
LINE
  5
8466
330
18
100
AcDbEntity
  8
0
100
AcDbLine
 10
77.71469927035361
 20
39.85693258263177
 30
0.0
 11
77.71469927035361
 21
40.83193258263179
 31
0.0
  0
LINE
  5
8467
330
18
100
AcDbEntity
  8
0
100
AcDbLine
 10
77.71469927035361
 20
39.85693258263177
 30
0.0
 11
75.58969927035362
 21
39.85693258263177
 31
0.0
  0
LINE
  5
8468
330
18
100
AcDbEntity
  8
0
100
AcDbLine
 10
83.21469927035362
 20
39.85693258263177
 30
0.0
 11
81.28969927035361
 21
39.85693258263177
 31
0.0
  0
LINE
  5
8469
330
18
100
AcDbEntity
  8
0
100
AcDbLine
 10
83.21469927035362
 20
41.9319325826317
 30
0.0
 11
75.58969927035362
 21
41.9319325826317
 31
0.0
  0
ELLIPSE
  5
846A
330
18
100
AcDbEntity
  8
0
100
AcDbEllipse
 10
81.23969927035361
 20
45.53193258263184
 30
0.0
 11
0.0
 21
1.25
 31
0.0
210
0.0
220
0.0
230
1.0
 40
0.98
 41
3.380894
 42
4.528311
  0
ELLIPSE
  5
846B
330
18
100
AcDbEntity
  8
0
100
AcDbEllipse
 10
77.56469927035361
 20
44.5569325826317
 30
0.0
 11
0.0
 21
1.25
 31
0.0
210
0.0
220
0.0
230
1.0
 40
0.98
 41
1.708854999999999
 42
3.380894
  0
LINE
  5
846C
330
18
100
AcDbEntity
  8
0
100
AcDbLine
 10
77.83969927035362
 20
43.3069325826317
 30
0.0
 11
81.53969927035362
 21
44.28193258263184
 31
0.0
  0
ELLIPSE
  5
846D
330
18
100
AcDbEntity
  8
0
100
AcDbEllipse
 10
79.41469927035362
 20
38.95693258263179
 30
0.0
 11
0.0
 21
0.775
 31
0.0
210
0.0
220
0.0
230
1.0
 40
0.9677419999999999
 41
0.0
 42
6.283184999999999
  0
LINE
  5
846E
330
18
100
AcDbEntity
  8
0
100
AcDbLine
 10
75.58969927035362
 20
75.28193258263184
 30
0.0
 11
75.58969927035362
 21
73.2069325826318
 31
0.0
  0
LINE
  5
846F
330
18
100
AcDbEntity
  8
0
100
AcDbLine
 10
83.21469927035362
 20
75.28193258263184
 30
0.0
 11
83.21469927035362
 21
73.2069325826318
 31
0.0
  0
LWPOLYLINE
  5
8470
330
18
100
AcDbEntity
  8
0
100
AcDbPolyline
 90
        4
 70
     1
 43
0.0
 10
78.13969927035362
 20
52.60693258263166
 10
77.78969927035362
 20
52.60693258263166
 10
77.78969927035362
 20
51.63193258263174
 10
78.13969927035362
 20
51.63193258263174
  0
LWPOLYLINE
  5
8471
330
18
100
AcDbEntity
  8
0
100
AcDbPolyline
 90
        4
 70
     1
 43
0.0
 10
80.91469927035362
 20
52.60693258263166
 10
80.56469927035362
 20
52.60693258263166
 10
80.56469927035362
 20
51.63193258263174
 10
80.91469927035362
 20
51.63193258263174
  0
LWPOLYLINE
  5
8472
330
18
100
AcDbEntity
  8
0
100
AcDbPolyline
 90
        4
 70
     1
 43
0.0
 10
78.13969927035362
 20
53.78193258263184
 10
77.78969927035362
 20
53.78193258263184
 10
77.78969927035362
 20
52.8069325826317
 10
78.13969927035362
 20
52.8069325826317
  0
LWPOLYLINE
  5
8473
330
18
100
AcDbEntity
  8
0
100
AcDbPolyline
 90
        4
 70
     1
 43
0.0
 10
80.91469927035362
 20
53.78193258263184
 10
80.56469927035362
 20
53.78193258263184
 10
80.56469927035362
 20
52.8069325826317
 10
80.91469927035362
 20
52.8069325826317
  0
LWPOLYLINE
  5
8474
330
18
100
AcDbEntity
  8
0
100
AcDbPolyline
 90
        4
 70
     1
 43
0.0
 10
78.13969927035362
 20
54.95693258263179
 10
77.78969927035362
 20
54.95693258263179
 10
77.78969927035362
 20
53.98193258263166
 10
78.13969927035362
 20
53.98193258263166
  0
LWPOLYLINE
  5
8475
330
18
100
AcDbEntity
  8
0
100
AcDbPolyline
 90
        4
 70
     1
 43
0.0
 10
80.91469927035362
 20
54.95693258263179
 10
80.56469927035362
 20
54.95693258263179
 10
80.56469927035362
 20
53.98193258263166
 10
80.91469927035362
 20
53.98193258263166
  0
LWPOLYLINE
  5
8476
330
18
100
AcDbEntity
  8
0
100
AcDbPolyline
 90
        4
 70
     1
 43
0.0
 10
78.13969927035362
 20
56.15693258263184
 10
77.78969927035362
 20
56.15693258263184
 10
77.78969927035362
 20
55.1819325826317
 10
78.13969927035362
 20
55.1819325826317
  0
LWPOLYLINE
  5
8477
330
18
100
AcDbEntity
  8
0
100
AcDbPolyline
 90
        4
 70
     1
 43
0.0
 10
80.91469927035362
 20
56.15693258263184
 10
80.56469927035362
 20
56.15693258263184
 10
80.56469927035362
 20
55.1819325826317
 10
80.91469927035362
 20
55.1819325826317
  0
LWPOLYLINE
  5
8478
330
18
100
AcDbEntity
  8
0
100
AcDbPolyline
 90
        4
 70
     1
 43
0.0
 10
78.13969927035362
 20
57.33193258263179
 10
77.78969927035362
 20
57.33193258263179
 10
77.78969927035362
 20
56.35693258263166
 10
78.13969927035362
 20
56.35693258263166
  0
LWPOLYLINE
  5
8479
330
18
100
AcDbEntity
  8
0
100
AcDbPolyline
 90
        4
 70
     1
 43
0.0
 10
80.91469927035362
 20
57.33193258263179
 10
80.56469927035362
 20
57.33193258263179
 10
80.56469927035362
 20
56.35693258263166
 10
80.91469927035362
 20
56.35693258263166
  0
LWPOLYLINE
  5
847A
330
18
100
AcDbEntity
  8
0
100
AcDbPolyline
 90
        4
 70
     1
 43
0.0
 10
78.13969927035362
 20
58.53193258263184
 10
77.78969927035362
 20
58.53193258263184
 10
77.78969927035362
 20
57.5569325826317
 10
78.13969927035362
 20
57.5569325826317
  0
LWPOLYLINE
  5
847B
330
18
100
AcDbEntity
  8
0
100
AcDbPolyline
 90
        4
 70
     1
 43
0.0
 10
80.91469927035362
 20
58.53193258263184
 10
80.56469927035362
 20
58.53193258263184
 10
80.56469927035362
 20
57.5569325826317
 10
80.91469927035362
 20
57.5569325826317
  0
LWPOLYLINE
  5
847C
330
18
100
AcDbEntity
  8
0
100
AcDbPolyline
 90
        4
 70
     1
 43
0.0
 10
78.16469927035362
 20
59.73193258263165
 10
77.81469927035361
 20
59.73193258263165
 10
77.81469927035361
 20
58.75693258263175
 10
78.16469927035362
 20
58.75693258263175
  0
LWPOLYLINE
  5
847D
330
18
100
AcDbEntity
  8
0
100
AcDbPolyline
 90
        4
 70
     1
 43
0.0
 10
80.93969927035361
 20
59.73193258263165
 10
80.58969927035361
 20
59.73193258263165
 10
80.58969927035361
 20
58.75693258263175
 10
80.93969927035361
 20
58.75693258263175
  0
LWPOLYLINE
  5
847E
330
18
100
AcDbEntity
  8
0
100
AcDbPolyline
 90
        4
 70
     1
 43
0.0
 10
78.16469927035362
 20
60.98193258263165
 10
77.81469927035361
 20
60.98193258263165
 10
77.81469927035361
 20
60.00693258263175
 10
78.16469927035362
 20
60.00693258263175
  0
LWPOLYLINE
  5
847F
330
18
100
AcDbEntity
  8
0
100
AcDbPolyline
 90
        4
 70
     1
 43
0.0
 10
78.16469927035362
 20
62.15693258263184
 10
77.81469927035361
 20
62.15693258263184
 10
77.81469927035361
 20
61.1819325826317
 10
78.16469927035362
 20
61.1819325826317
  0
LWPOLYLINE
  5
8480
330
18
100
AcDbEntity
  8
0
100
AcDbPolyline
 90
        4
 70
     1
 43
0.0
 10
78.16469927035362
 20
63.4319325826317
 10
77.81469927035361
 20
63.4319325826317
 10
77.81469927035361
 20
62.45693258263179
 10
78.16469927035362
 20
62.45693258263179
  0
LWPOLYLINE
  5
8481
330
18
100
AcDbEntity
  8
0
100
AcDbPolyline
 90
        4
 70
     1
 43
0.0
 10
78.16469927035362
 20
64.75693258263174
 10
77.81469927035361
 20
64.75693258263174
 10
77.81469927035361
 20
63.8069325826317
 10
78.16469927035362
 20
63.8069325826317
  0
LWPOLYLINE
  5
8482
330
18
100
AcDbEntity
  8
0
100
AcDbPolyline
 90
        4
 70
     1
 43
0.0
 10
78.16469927035362
 20
66.03193258263184
 10
77.81469927035361
 20
66.03193258263184
 10
77.81469927035361
 20
65.0569325826317
 10
78.16469927035362
 20
65.0569325826317
  0
LWPOLYLINE
  5
8483
330
18
100
AcDbEntity
  8
0
100
AcDbPolyline
 90
        4
 70
     1
 43
0.0
 10
78.16469927035362
 20
67.25693258263174
 10
77.81469927035361
 20
67.25693258263174
 10
77.81469927035361
 20
66.28193258263184
 10
78.16469927035362
 20
66.28193258263184
  0
LWPOLYLINE
  5
8484
330
18
100
AcDbEntity
  8
0
100
AcDbPolyline
 90
        4
 70
     1
 43
0.0
 10
78.16469927035362
 20
68.53193258263184
 10
77.81469927035361
 20
68.53193258263184
 10
77.81469927035361
 20
67.53193258263184
 10
78.16469927035362
 20
67.53193258263184
  0
LWPOLYLINE
  5
8485
330
18
100
AcDbEntity
  8
0
100
AcDbPolyline
 90
        4
 70
     1
 43
0.0
 10
80.93969927035361
 20
60.98193258263165
 10
80.58969927035361
 20
60.98193258263165
 10
80.58969927035361
 20
60.00693258263175
 10
80.93969927035361
 20
60.00693258263175
  0
LWPOLYLINE
  5
8486
330
18
100
AcDbEntity
  8
0
100
AcDbPolyline
 90
        4
 70
     1
 43
0.0
 10
80.93969927035361
 20
62.15693258263184
 10
80.58969927035361
 20
62.15693258263184
 10
80.58969927035361
 20
61.1819325826317
 10
80.93969927035361
 20
61.1819325826317
  0
LWPOLYLINE
  5
8487
330
18
100
AcDbEntity
  8
0
100
AcDbPolyline
 90
        4
 70
     1
 43
0.0
 10
80.93969927035361
 20
63.4319325826317
 10
80.58969927035361
 20
63.4319325826317
 10
80.58969927035361
 20
62.45693258263179
 10
80.93969927035361
 20
62.45693258263179
  0
LWPOLYLINE
  5
8488
330
18
100
AcDbEntity
  8
0
100
AcDbPolyline
 90
        4
 70
     1
 43
0.0
 10
80.93969927035361
 20
64.75693258263174
 10
80.58969927035361
 20
64.75693258263174
 10
80.58969927035361
 20
63.8069325826317
 10
80.93969927035361
 20
63.8069325826317
  0
LWPOLYLINE
  5
8489
330
18
100
AcDbEntity
  8
0
100
AcDbPolyline
 90
        4
 70
     1
 43
0.0
 10
80.93969927035361
 20
66.03193258263184
 10
80.58969927035361
 20
66.03193258263184
 10
80.58969927035361
 20
65.0569325826317
 10
80.93969927035361
 20
65.0569325826317
  0
LWPOLYLINE
  5
848A
330
18
100
AcDbEntity
  8
0
100
AcDbPolyline
 90
        4
 70
     1
 43
0.0
 10
80.93969927035361
 20
67.25693258263174
 10
80.58969927035361
 20
67.25693258263174
 10
80.58969927035361
 20
66.28193258263184
 10
80.93969927035361
 20
66.28193258263184
  0
LWPOLYLINE
  5
848B
330
18
100
AcDbEntity
  8
0
100
AcDbPolyline
 90
        4
 70
     1
 43
0.0
 10
80.93969927035361
 20
68.53193258263184
 10
80.58969927035361
 20
68.53193258263184
 10
80.58969927035361
 20
67.53193258263184
 10
80.93969927035361
 20
67.53193258263184
  0
ELLIPSE
  5
848C
330
18
100
AcDbEntity
  8
0
100
AcDbEllipse
 10
81.23969927035361
 20
69.48193258263166
 30
0.0
 11
0.0
 21
1.25
 31
0.0
210
0.0
220
0.0
230
1.0
 40
0.98
 41
4.509903999999999
 42
6.059223999999999
  0
ELLIPSE
  5
848D
330
18
100
AcDbEntity
  8
0
100
AcDbEllipse
 10
77.56469927035361
 20
70.40693258263184
 30
0.0
 11
0.0
 21
1.25
 31
0.0
210
0.0
220
0.0
230
1.0
 40
0.98
 41
6.03468
 42
8.053399307179585
  0
LINE
  5
848E
330
18
100
AcDbEntity
  8
0
100
AcDbLine
 10
81.53969927035362
 20
70.65693258263184
 30
0.0
 11
77.83969927035362
 21
71.58193258263179
 31
0.0
  0
LINE
  5
848F
330
18
100
AcDbEntity
  8
0
100
AcDbLine
 10
83.21469927035362
 20
73.2069325826318
 30
0.0
 11
75.58969927035362
 21
73.2069325826318
 31
0.0
  0
LINE
  5
8490
330
18
100
AcDbEntity
  8
0
100
AcDbLine
 10
81.28969927035361
 20
75.3069325826317
 30
0.0
 11
81.28969927035361
 21
74.33193258263179
 31
0.0
  0
LINE
  5
8491
330
18
100
AcDbEntity
  8
0
100
AcDbLine
 10
81.28969927035361
 20
74.3069325826317
 30
0.0
 11
77.71469927035361
 21
74.3069325826317
 31
0.0
  0
LINE
  5
8492
330
18
100
AcDbEntity
  8
0
100
AcDbLine
 10
77.71469927035361
 20
75.28193258263184
 30
0.0
 11
77.71469927035361
 21
74.3069325826317
 31
0.0
  0
LINE
  5
8493
330
18
100
AcDbEntity
  8
0
100
AcDbLine
 10
77.71469927035361
 20
75.28193258263184
 30
0.0
 11
75.58969927035362
 21
75.28193258263184
 31
0.0
  0
LINE
  5
8494
330
18
100
AcDbEntity
  8
0
100
AcDbLine
 10
83.21469927035362
 20
75.28193258263184
 30
0.0
 11
81.28969927035361
 21
75.28193258263184
 31
0.0
  0
ELLIPSE
  5
8495
330
18
100
AcDbEntity
  8
0
100
AcDbEllipse
 10
79.41469927035362
 20
76.50693258263174
 30
0.0
 11
0.0
 21
0.775
 31
0.0
210
0.0
220
0.0
230
1.0
 40
0.9677419999999999
 41
0.0
 42
6.283184999999999
  0
ELLIPSE
  5
8496
330
18
100
AcDbEntity
  8
0
100
AcDbEllipse
 10
79.41469927035362
 20
154.0069325826316
 30
0.0
 11
0.0
 21
0.775
 31
0.0
210
0.0
220
0.0
230
1.0
 40
0.9677419999999999
 41
0.0
 42
6.283184999999999
  0
LWPOLYLINE
  5
8497
330
18
100
AcDbEntity
  8
0
100
AcDbPolyline
 90
        4
 70
     1
 43
0.2
 10
74.78969927035362
 20
156.3819325826316
 10
74.78969927035362
 20
127.7069325826317
 10
84.01469927035362
 20
127.7069325826317
 10
84.01469927035362
 20
156.3819325826316
  0
ELLIPSE
  5
8498
330
18
100
AcDbEntity
  8
0
100
AcDbEllipse
 10
79.41469927035362
 20
131.0069325826316
 30
0.0
 11
0.0
 21
0.775
 31
0.0
210
0.0
220
0.0
230
1.0
 40
0.9677419999999999
 41
0.0
 42
6.283184999999999
  0
LINE
  5
8499
330
18
100
AcDbEntity
  8
0
100
AcDbLine
 10
75.58969927035362
 20
131.9069325826317
 30
0.0
 11
75.58969927035362
 21
133.9819325826316
 31
0.0
  0
LINE
  5
849A
330
18
100
AcDbEntity
  8
0
100
AcDbLine
 10
83.21469927035362
 20
131.9069325826317
 30
0.0
 11
83.21469927035362
 21
133.9819325826316
 31
0.0
  0
LINE
  5
849B
330
18
100
AcDbEntity
  8
0
100
AcDbLine
 10
81.28969927035361
 20
131.8819325826317
 30
0.0
 11
81.28969927035361
 21
132.8569325826316
 31
0.0
  0
LINE
  5
849C
330
18
100
AcDbEntity
  8
0
100
AcDbLine
 10
81.28969927035361
 20
132.8819325826317
 30
0.0
 11
77.71469927035361
 21
132.8819325826317
 31
0.0
  0
LINE
  5
849D
330
18
100
AcDbEntity
  8
0
100
AcDbLine
 10
77.71469927035361
 20
131.9069325826317
 30
0.0
 11
77.71469927035361
 21
132.8819325826317
 31
0.0
  0
LINE
  5
849E
330
18
100
AcDbEntity
  8
0
100
AcDbLine
 10
77.71469927035361
 20
131.9069325826317
 30
0.0
 11
75.58969927035362
 21
131.9069325826317
 31
0.0
  0
LINE
  5
849F
330
18
100
AcDbEntity
  8
0
100
AcDbLine
 10
83.21469927035362
 20
131.9069325826317
 30
0.0
 11
81.28969927035361
 21
131.9069325826317
 31
0.0
  0
LINE
  5
84A0
330
18
100
AcDbEntity
  8
0
100
AcDbLine
 10
83.21469927035362
 20
133.9819325826316
 30
0.0
 11
75.58969927035362
 21
133.9819325826316
 31
0.0
  0
LINE
  5
84A1
330
18
100
AcDbEntity
  8
0
100
AcDbLine
 10
75.58969927035362
 20
152.7819325826317
 30
0.0
 11
75.58969927035362
 21
150.7069325826317
 31
0.0
  0
LINE
  5
84A2
330
18
100
AcDbEntity
  8
0
100
AcDbLine
 10
83.21469927035362
 20
152.7819325826317
 30
0.0
 11
83.21469927035362
 21
150.7069325826317
 31
0.0
  0
LINE
  5
84A3
330
18
100
AcDbEntity
  8
0
100
AcDbLine
 10
81.28969927035361
 20
152.8069325826316
 30
0.0
 11
81.28969927035361
 21
151.8319325826317
 31
0.0
  0
LINE
  5
84A4
330
18
100
AcDbEntity
  8
0
100
AcDbLine
 10
81.28969927035361
 20
151.8069325826316
 30
0.0
 11
77.71469927035361
 21
151.8069325826316
 31
0.0
  0
LINE
  5
84A5
330
18
100
AcDbEntity
  8
0
100
AcDbLine
 10
77.71469927035361
 20
152.7819325826317
 30
0.0
 11
77.71469927035361
 21
151.8069325826316
 31
0.0
  0
LINE
  5
84A6
330
18
100
AcDbEntity
  8
0
100
AcDbLine
 10
77.71469927035361
 20
152.7819325826317
 30
0.0
 11
75.58969927035362
 21
152.7819325826317
 31
0.0
  0
LINE
  5
84A7
330
18
100
AcDbEntity
  8
0
100
AcDbLine
 10
83.21469927035362
 20
152.7819325826317
 30
0.0
 11
81.28969927035361
 21
152.7819325826317
 31
0.0
  0
LWPOLYLINE
  5
84A8
330
18
100
AcDbEntity
  8
0
100
AcDbPolyline
 90
        4
 70
     1
 43
0.0
 10
78.16469927035362
 20
138.9069325826317
 10
77.81469927035361
 20
138.9069325826317
 10
77.81469927035361
 20
137.9319325826316
 10
78.16469927035362
 20
137.9319325826316
  0
LWPOLYLINE
  5
84A9
330
18
100
AcDbEntity
  8
0
100
AcDbPolyline
 90
        4
 70
     1
 43
0.0
 10
78.16469927035362
 20
140.0819325826317
 10
77.81469927035361
 20
140.0819325826317
 10
77.81469927035361
 20
139.1069325826316
 10
78.16469927035362
 20
139.1069325826316
  0
LWPOLYLINE
  5
84AA
330
18
100
AcDbEntity
  8
0
100
AcDbPolyline
 90
        4
 70
     1
 43
0.0
 10
78.16469927035362
 20
141.3569325826316
 10
77.81469927035361
 20
141.3569325826316
 10
77.81469927035361
 20
140.3819325826316
 10
78.16469927035362
 20
140.3819325826316
  0
LWPOLYLINE
  5
84AB
330
18
100
AcDbEntity
  8
0
100
AcDbPolyline
 90
        4
 70
     1
 43
0.0
 10
78.16469927035362
 20
142.6819325826316
 10
77.81469927035361
 20
142.6819325826316
 10
77.81469927035361
 20
141.7319325826315
 10
78.16469927035362
 20
141.7319325826315
  0
LWPOLYLINE
  5
84AC
330
18
100
AcDbEntity
  8
0
100
AcDbPolyline
 90
        4
 70
     1
 43
0.0
 10
78.16469927035362
 20
143.9569325826317
 10
77.81469927035361
 20
143.9569325826317
 10
77.81469927035361
 20
142.9819325826316
 10
78.16469927035362
 20
142.9819325826316
  0
LWPOLYLINE
  5
84AD
330
18
100
AcDbEntity
  8
0
100
AcDbPolyline
 90
        4
 70
     1
 43
0.0
 10
78.16469927035362
 20
145.1819325826316
 10
77.81469927035361
 20
145.1819325826316
 10
77.81469927035361
 20
144.2069325826317
 10
78.16469927035362
 20
144.2069325826317
  0
LWPOLYLINE
  5
84AE
330
18
100
AcDbEntity
  8
0
100
AcDbPolyline
 90
        4
 70
     1
 43
0.0
 10
78.16469927035362
 20
146.4569325826317
 10
77.81469927035361
 20
146.4569325826317
 10
77.81469927035361
 20
145.4569325826317
 10
78.16469927035362
 20
145.4569325826317
  0
LWPOLYLINE
  5
84AF
330
18
100
AcDbEntity
  8
0
100
AcDbPolyline
 90
        4
 70
     1
 43
0.0
 10
80.93969927035361
 20
138.9069325826317
 10
80.58969927035361
 20
138.9069325826317
 10
80.58969927035361
 20
137.9319325826316
 10
80.93969927035361
 20
137.9319325826316
  0
LWPOLYLINE
  5
84B0
330
18
100
AcDbEntity
  8
0
100
AcDbPolyline
 90
        4
 70
     1
 43
0.0
 10
80.93969927035361
 20
140.0819325826317
 10
80.58969927035361
 20
140.0819325826317
 10
80.58969927035361
 20
139.1069325826316
 10
80.93969927035361
 20
139.1069325826316
  0
LWPOLYLINE
  5
84B1
330
18
100
AcDbEntity
  8
0
100
AcDbPolyline
 90
        4
 70
     1
 43
0.0
 10
80.93969927035361
 20
141.3569325826316
 10
80.58969927035361
 20
141.3569325826316
 10
80.58969927035361
 20
140.3819325826316
 10
80.93969927035361
 20
140.3819325826316
  0
LWPOLYLINE
  5
84B2
330
18
100
AcDbEntity
  8
0
100
AcDbPolyline
 90
        4
 70
     1
 43
0.0
 10
80.93969927035361
 20
142.6819325826316
 10
80.58969927035361
 20
142.6819325826316
 10
80.58969927035361
 20
141.7319325826315
 10
80.93969927035361
 20
141.7319325826315
  0
LWPOLYLINE
  5
84B3
330
18
100
AcDbEntity
  8
0
100
AcDbPolyline
 90
        4
 70
     1
 43
0.0
 10
80.93969927035361
 20
143.9569325826317
 10
80.58969927035361
 20
143.9569325826317
 10
80.58969927035361
 20
142.9819325826316
 10
80.93969927035361
 20
142.9819325826316
  0
LWPOLYLINE
  5
84B4
330
18
100
AcDbEntity
  8
0
100
AcDbPolyline
 90
        4
 70
     1
 43
0.0
 10
80.93969927035361
 20
145.1819325826316
 10
80.58969927035361
 20
145.1819325826316
 10
80.58969927035361
 20
144.2069325826317
 10
80.93969927035361
 20
144.2069325826317
  0
LWPOLYLINE
  5
84B5
330
18
100
AcDbEntity
  8
0
100
AcDbPolyline
 90
        4
 70
     1
 43
0.0
 10
80.93969927035361
 20
146.4569325826317
 10
80.58969927035361
 20
146.4569325826317
 10
80.58969927035361
 20
145.4569325826317
 10
80.93969927035361
 20
145.4569325826317
  0
LWPOLYLINE
  5
84B6
330
18
100
AcDbEntity
  8
0
100
AcDbPolyline
 90
        4
 70
     1
 43
0.0
 10
81.28969927035361
 20
147.3069325826316
 10
77.58969927035362
 20
147.3069325826316
 10
77.58969927035362
 20
137.0819325826317
 10
81.28969927035361
 20
137.0819325826317
  0
ELLIPSE
  5
84B7
330
18
100
AcDbEntity
  8
0
100
AcDbEllipse
 10
81.23969927035361
 20
137.6319325826316
 30
0.0
 11
0.0
 21
1.25
 31
0.0
210
0.0
220
0.0
230
1.0
 40
0.98
 41
3.380894
 42
4.528311
  0
ELLIPSE
  5
84B8
330
18
100
AcDbEntity
  8
0
100
AcDbEllipse
 10
81.23969927035361
 20
146.9819325826316
 30
0.0
 11
0.0
 21
1.25
 31
0.0
210
0.0
220
0.0
230
1.0
 40
0.98
 41
4.509903999999999
 42
6.059223999999999
  0
ELLIPSE
  5
84B9
330
18
100
AcDbEntity
  8
0
100
AcDbEllipse
 10
77.56469927035361
 20
136.6569325826317
 30
0.0
 11
0.0
 21
1.25
 31
0.0
210
0.0
220
0.0
230
1.0
 40
0.98
 41
1.708854999999999
 42
3.380894
  0
ELLIPSE
  5
84BA
330
18
100
AcDbEntity
  8
0
100
AcDbEllipse
 10
77.56469927035361
 20
147.9069325826317
 30
0.0
 11
0.0
 21
1.25
 31
0.0
210
0.0
220
0.0
230
1.0
 40
0.98
 41
6.03468
 42
8.053399307179585
  0
LINE
  5
84BB
330
18
100
AcDbEntity
  8
0
100
AcDbLine
 10
81.53969927035362
 20
148.1569325826317
 30
0.0
 11
77.83969927035362
 21
149.0819325826317
 31
0.0
  0
LINE
  5
84BC
330
18
100
AcDbEntity
  8
0
100
AcDbLine
 10
82.46469927035361
 20
137.6319325826316
 30
0.0
 11
82.46469927035361
 21
146.9819325826316
 31
0.0
  0
LINE
  5
84BD
330
18
100
AcDbEntity
  8
0
100
AcDbLine
 10
77.83969927035362
 20
135.4069325826317
 30
0.0
 11
81.53969927035362
 21
136.3819325826316
 31
0.0
  0
LINE
  5
84BE
330
18
100
AcDbEntity
  8
0
100
AcDbLine
 10
76.33969927035362
 20
147.9069325826317
 30
0.0
 11
76.33969927035362
 21
136.5569325826316
 31
0.0
  0
LINE
  5
84BF
330
18
100
AcDbEntity
  8
0
100
AcDbLine
 10
83.21469927035362
 20
150.7069325826317
 30
0.0
 11
75.58969927035362
 21
150.7069325826317
 31
0.0
  0
TEXT
  5
84C0
330
18
100
AcDbEntity
  8
0
100
AcDbText
 10
63.39472722424648
 20
55.97640231147659
 30
0.0
 40
2.0
  1
ＣＮ１
  7
MSｺﾞｼｯｸ
100
AcDbText
  0
TEXT
  5
84C1
330
18
100
AcDbEntity
  8
0
100
AcDbText
 10
63.60509761708613
 20
94.89903591156258
 30
0.0
 40
2.0
  1
ＣＮ２
  7
MSｺﾞｼｯｸ
100
AcDbText
  0
TEXT
  5
84C2
330
18
100
AcDbEntity
  8
0
100
AcDbText
 10
65.70026388397659
 20
131.0663557386253
 30
0.0
 40
2.0
  1
Ｊ２
  7
MSｺﾞｼｯｸ
100
AcDbText
  0
TEXT
  5
84C3
330
18
100
AcDbEntity
  8
0
100
AcDbText
 10
65.88481303803812
 20
149.4231698982574
 30
0.0
 40
2.0
  1
Ｊ１
  7
MSｺﾞｼｯｸ
100
AcDbText
  0
TEXT
  5
84D4
330
18
100
AcDbEntity
  8
0
100
AcDbText
 10
359.6360098275632
 20
-17.31148393633958
 30
0.0
 40
6.0
  1
VC外形図(AC400V仕様)　拡張I/O付
  7
MSｺﾞｼｯｸ
100
AcDbText
  0
TEXT
  5
84D5
330
18
100
AcDbEntity
  8
0
100
AcDbText
 10
381.2797592783316
 20
0.5749237336669353
 30
0.0
 40
6.0
  1
ＮＣＲ－＊Ａ＊＊Ａ３＊－７５１＊
 41
0.6
  7
MSｺﾞｼｯｸ
100
AcDbText
  0
TEXT
  5
84D6
330
18
100
AcDbEntity
  8
0
100
AcDbText
 10
401.4424903178779
 20
-28.66939070418669
 30
0.0
 40
7.0
  1
ＳＥ－３４２４０Ｃ
 41
0.9529999999999999
  7
MSｺﾞｼｯｸ
100
AcDbText
  0
TEXT
  5
84D7
330
18
100
AcDbEntity
  8
0
100
AcDbText
 10
371.4823933149292
 20
-7.443997006605115
 30
0.0
 40
6.0
  1
＋　ＮＣＲ－ＸＡＡ２（３）Ｄ１＊－７５１
 41
0.6
  7
MSｺﾞｼｯｸ
100
AcDbText
  0
VIEWPORT
  5
8537
330
8533
100
AcDbEntity
 67
     1
  8
0
100
AcDbViewport
 10
202.4999999999999
 20
128.4999999999999
 30
0.0
 40
486.0
 41
308.3999999999999
 68
     1
 69
     1
 12
202.4999999999999
 22
128.4999999999999
 13
0.0
 23
0.0
 14
0.5
 24
0.5
 15
0.0
 25
0.0
 16
0.0
 26
0.0
 36
1.0
 17
0.0
 27
0.0
 37
0.0
 42
50.0
 43
0.0
 44
0.0
 45
308.3999999999999
 50
0.0
 51
0.0
 72
   100
 90
    32864
  1

281
     0
 71
     1
 74
     0
110
0.0
120
0.0
130
0.0
111
1.0
121
0.0
131
0.0
112
0.0
122
1.0
132
0.0
 79
     0
146
0.0
  0
VIEWPORT
  5
8538
330
8533
100
AcDbEntity
 67
     1
  8
0
100
AcDbViewport
 10
202.4999999999999
 20
128.4999999999999
 30
0.0
 40
324.0
 41
205.6
 68
     2
 69
     2
 12
240.8443545489583
 22
152.4072484487579
 13
0.0
 23
0.0
 14
0.5
 24
0.5
 15
0.0
 25
0.0
 16
0.0
 26
0.0
 36
1.0
 17
0.0
 27
0.0
 37
0.0
 42
50.0
 43
0.0
 44
0.0
 45
369.3963438720069
 50
0.0
 51
0.0
 72
   100
 90
    32864
  1

281
     0
 71
     1
 74
     0
110
0.0
120
0.0
130
0.0
111
1.0
121
0.0
131
0.0
112
0.0
122
1.0
132
0.0
 79
     0
146
0.0
  0
ENDSEC
  0
SECTION
  2
OBJECTS
  0
DICTIONARY
  5
C
330
0
100
AcDbDictionary
281
     1
  3
ACAD_GROUP
350
D
  3
ACAD_IMAGE_VARS
350
8531
  3
ACAD_LAYOUT
350
73F
  3
ACAD_MLINESTYLE
350
1B
  3
ACAD_PLOTSETTINGS
350
740
  3
ACAD_PLOTSTYLENAME
350
73D
  3
ACAD_SCALELIST
350
8505
  3
AcadDim
350
61D4
  3
AcDbVariableDictionary
350
7046
  3
APPDATA
350
852F
  3
DWGPROPS
350
853D
  0
DICTIONARY
  5
D
102
{ACAD_REACTORS
330
C
102
}
330
C
100
AcDbDictionary
281
     1
  0
RASTERVARIABLES
  5
8531
102
{ACAD_REACTORS
330
C
102
}
330
C
100
AcDbRasterVariables
 90
        0
 70
     1
 71
     1
 72
     0
  0
DICTIONARY
  5
73F
102
{ACAD_REACTORS
330
C
102
}
330
C
100
AcDbDictionary
281
     1
  3
Model
350
741
  3
Sheet1
350
8534
  0
DICTIONARY
  5
1B
102
{ACAD_REACTORS
330
C
102
}
330
C
100
AcDbDictionary
281
     1
  3
STANDARD
350
1C
  0
DICTIONARY
  5
740
102
{ACAD_REACTORS
330
C
102
}
330
C
100
AcDbDictionary
281
     1
  0
ACDBDICTIONARYWDFLT
  5
73D
102
{ACAD_REACTORS
330
C
102
}
330
C
100
AcDbDictionary
281
     1
  3
Normal
350
73E
100
AcDbDictionaryWithDefault
340
73E
  0
DICTIONARY
  5
8505
102
{ACAD_REACTORS
330
C
102
}
330
C
100
AcDbDictionary
281
     1
  3
A0
350
8506
  3
A1
350
8507
  3
A2
350
8508
  3
A3
350
8509
  3
A4
350
850A
  3
A5
350
850B
  3
A6
350
850C
  3
A7
350
850D
  3
A8
350
850E
  3
A9
350
850F
  3
B0
350
8510
  3
B1
350
8511
  3
B2
350
8512
  3
B3
350
8513
  3
B4
350
8514
  3
B5
350
8515
  3
B6
350
8516
  3
B7
350
8517
  3
B8
350
8518
  3
B9
350
8519
  3
C0
350
851A
  3
C1
350
851B
  3
C2
350
851C
  3
C3
350
851D
  3
C4
350
851E
  3
C5
350
851F
  3
C6
350
8520
  3
C7
350
8521
  3
C8
350
8522
  3
C9
350
8523
  3
D0
350
8524
  3
D1
350
8525
  3
D2
350
8526
  0
XRECORD
  5
61D4
102
{ACAD_REACTORS
330
C
102
}
330
C
100
AcDbXrecord
280
     1
 90
   990106
  3

 60
     0
 61
     0
 62
     1
 63
     3
 64
     0
 65
     0
 66
     0
 67
     3
 68
     1
 69
     0
 70
     0
 71
     0
 72
     0
 40
0.0
170
     0
  0
DICTIONARY
  5
7046
102
{ACAD_REACTORS
330
C
102
}
330
C
100
AcDbDictionary
281
     1
  3
DIMASSOC
350
7047
  0
DICTIONARY
  5
852F
102
{ACAD_REACTORS
330
C
102
}
330
C
100
AcDbDictionary
281
     1
  0
XRECORD
  5
853D
102
{ACAD_REACTORS
330
C
102
}
330
C
100
AcDbXrecord
280
     1
  1
DWGPROPS COOKIE
  2

  3

  4

  6

  7

  8
k-yoshida
  9

300
=
301
=
302
=
303
=
304
=
305
=
306
=
307
=
308
=
309
=
 40
0.0
 41
2451224.285162384
 42
2457317.276476481
  1

 90
        0
  0
LAYOUT
  5
741
102
{ACAD_REACTORS
330
73F
102
}
330
73F
100
AcDbPlotSettings
  1

  2
HP DesignJet 750C (D/A1) Color
  4
ISO_A3_(420.00_x_297.00_MM)
  6

 40
7.5
 41
20.0
 42
7.5
 43
20.0
 44
420.0
 45
297.0
 46
0.0
 47
0.0
 48
0.0
 49
0.0
140
0.0
141
0.0
142
1.0
143
1.863272761853935
 70
  1712
 72
     1
 73
     0
 74
     0
  7

 75
     0
147
0.5366900759097727
148
0.0483989629167923
149
68.44832791801732
100
AcDbLayout
  1
Model
 70
     1
 71
     0
 10
0.0
 20
0.0
 11
12.0
 21
9.0
 12
0.0
 22
0.0
 32
0.0
 14
1.000000000000000E+20
 24
1.000000000000000E+20
 34
1.000000000000000E+20
 15
-1.000000000000000E+20
 25
-1.000000000000000E+20
 35
-1.000000000000000E+20
146
0.0
 13
0.0
 23
0.0
 33
0.0
 16
1.0
 26
0.0
 36
0.0
 17
0.0
 27
1.0
 37
0.0
 76
     0
330
18
  0
LAYOUT
  5
8534
102
{ACAD_REACTORS
330
73F
102
}
330
73F
100
AcDbPlotSettings
  1

  2
none_device
  4
ISO_A3_(420.00_x_297.00_MM)
  6

 40
7.5
 41
20.0
 42
7.5
 43
20.0
 44
420.0
 45
297.0
 46
0.0
 47
0.0
 48
0.0
 49
0.0
140
0.0
141
0.0
142
1.0
143
1.0
 70
   688
 72
     1
 73
     0
 74
     5
  7

 75
    16
147
1.0
148
0.0
149
0.0
100
AcDbLayout
  1
Sheet1
 70
     1
 71
     1
 10
0.0
 20
0.0
 11
0.0
 21
0.0
 12
0.0
 22
0.0
 32
0.0
 14
40.49999999999999
 24
25.69999999999998
 34
0.0
 15
364.5
 25
231.3
 35
0.0
146
0.0
 13
0.0
 23
0.0
 33
0.0
 16
1.0
 26
0.0
 36
0.0
 17
0.0
 27
1.0
 37
0.0
 76
     0
330
8533
331
8537
  0
MLINESTYLE
  5
1C
102
{ACAD_REACTORS
330
1B
102
}
330
1B
100
AcDbMlineStyle
  2
STANDARD
 70
     0
  3

 62
   256
 51
90.0
 52
90.0
 71
     2
 49
0.5
 62
   256
  6
BYLAYER
 49
-0.5
 62
   256
  6
BYLAYER
  0
ACDBPLACEHOLDER
  5
73E
102
{ACAD_REACTORS
330
73D
102
}
330
73D
  0
ACAD_PROXY_OBJECT
  5
8506
102
{ACAD_REACTORS
330
8505
102
}
330
8505
100
AcDbProxyObject
 90
      499
 91
      507
 95
   655383
 70
     0
 93
       41
310
903313A31581
 94
        0
  0
ACAD_PROXY_OBJECT
  5
8507
102
{ACAD_REACTORS
330
8505
102
}
330
8505
100
AcDbProxyObject
 90
      499
 91
      507
 95
   655383
 70
     0
 93
      105
310
903313A324000000000000004042
 94
        0
  0
ACAD_PROXY_OBJECT
  5
8508
102
{ACAD_REACTORS
330
8505
102
}
330
8505
100
AcDbProxyObject
 90
      499
 91
      507
 95
   655383
 70
     0
 93
      105
310
903313A344000000000000104042
 94
        0
  0
ACAD_PROXY_OBJECT
  5
8509
102
{ACAD_REACTORS
330
8505
102
}
330
8505
100
AcDbProxyObject
 90
      499
 91
      507
 95
   655383
 70
     0
 93
      105
310
903313A354000000000000144042
 94
        0
  0
ACAD_PROXY_OBJECT
  5
850A
102
{ACAD_REACTORS
330
8505
102
}
330
8505
100
AcDbProxyObject
 90
      499
 91
      507
 95
   655383
 70
     0
 93
      105
310
903313A384000000000000204042
 94
        0
  0
ACAD_PROXY_OBJECT
  5
850B
102
{ACAD_REACTORS
330
8505
102
}
330
8505
100
AcDbProxyObject
 90
      499
 91
      507
 95
   655383
 70
     0
 93
      113
310
904313A31304000000000000244000
 94
        0
  0
ACAD_PROXY_OBJECT
  5
850C
102
{ACAD_REACTORS
330
8505
102
}
330
8505
100
AcDbProxyObject
 90
      499
 91
      507
 95
   655383
 70
     0
 93
      113
310
904313A31364000000000000304000
 94
        0
  0
ACAD_PROXY_OBJECT
  5
850D
102
{ACAD_REACTORS
330
8505
102
}
330
8505
100
AcDbProxyObject
 90
      499
 91
      507
 95
   655383
 70
     0
 93
      113
310
904313A32304000000000000344000
 94
        0
  0
ACAD_PROXY_OBJECT
  5
850E
102
{ACAD_REACTORS
330
8505
102
}
330
8505
100
AcDbProxyObject
 90
      499
 91
      507
 95
   655383
 70
     0
 93
      113
310
904313A333040000000000003E4000
 94
        0
  0
ACAD_PROXY_OBJECT
  5
850F
102
{ACAD_REACTORS
330
8505
102
}
330
8505
100
AcDbProxyObject
 90
      499
 91
      507
 95
   655383
 70
     0
 93
      113
310
904313A34304000000000000444000
 94
        0
  0
ACAD_PROXY_OBJECT
  5
8510
102
{ACAD_REACTORS
330
8505
102
}
330
8505
100
AcDbProxyObject
 90
      499
 91
      507
 95
   655383
 70
     0
 93
      113
310
904313A35304000000000000494000
 94
        0
  0
ACAD_PROXY_OBJECT
  5
8511
102
{ACAD_REACTORS
330
8505
102
}
330
8505
100
AcDbProxyObject
 90
      499
 91
      507
 95
   655383
 70
     0
 93
      121
310
905313A3130304000000000000594000
 94
        0
  0
ACAD_PROXY_OBJECT
  5
8512
102
{ACAD_REACTORS
330
8505
102
}
330
8505
100
AcDbProxyObject
 90
      499
 91
      507
 95
   655383
 70
     0
 93
      105
310
903323A310000000000000010159
 94
        0
  0
ACAD_PROXY_OBJECT
  5
8513
102
{ACAD_REACTORS
330
8505
102
}
330
8505
100
AcDbProxyObject
 90
      499
 91
      507
 95
   655383
 70
     0
 93
      105
310
903343A310000000000000410159
 94
        0
  0
ACAD_PROXY_OBJECT
  5
8514
102
{ACAD_REACTORS
330
8505
102
}
330
8505
100
AcDbProxyObject
 90
      499
 91
      507
 95
   655383
 70
     0
 93
      105
310
903383A310000000000000810159
 94
        0
  0
ACAD_PROXY_OBJECT
  5
8515
102
{ACAD_REACTORS
330
8505
102
}
330
8505
100
AcDbProxyObject
 90
      499
 91
      507
 95
   655383
 70
     0
 93
      113
310
90431303A310000000000000910140
 94
        0
  0
ACAD_PROXY_OBJECT
  5
8516
102
{ACAD_REACTORS
330
8505
102
}
330
8505
100
AcDbProxyObject
 90
      499
 91
      507
 95
   655383
 70
     0
 93
      121
310
9053130303A310000000000001650100
 94
        0
  0
ACAD_PROXY_OBJECT
  5
8517
102
{ACAD_REACTORS
330
8505
102
}
330
8505
100
AcDbProxyObject
 90
      499
 91
      507
 95
   655383
 70
     0
 93
      257
310
90E312F31323822203D2031272D3022000000000000200FC000000000000284000
 94
        0
  0
ACAD_PROXY_OBJECT
  5
8518
102
{ACAD_REACTORS
330
8505
102
}
330
8505
100
AcDbProxyObject
 90
      499
 91
      507
 95
   655383
 70
     0
 93
      249
310
90D312F363422203D2031272D3022000000000000240FC000000000000284040
 94
        0
  0
ACAD_PROXY_OBJECT
  5
8519
102
{ACAD_REACTORS
330
8505
102
}
330
8505
100
AcDbProxyObject
 90
      499
 91
      507
 95
   655383
 70
     0
 93
      249
310
90D312F333222203D2031272D3022000000000000280FC000000000000284040
 94
        0
  0
ACAD_PROXY_OBJECT
  5
851A
102
{ACAD_REACTORS
330
8505
102
}
330
8505
100
AcDbProxyObject
 90
      499
 91
      507
 95
   655383
 70
     0
 93
      249
310
90D312F313622203D2031272D30220000000000002C0FC000000000000284040
 94
        0
  0
ACAD_PROXY_OBJECT
  5
851B
102
{ACAD_REACTORS
330
8505
102
}
330
8505
100
AcDbProxyObject
 90
      499
 91
      507
 95
   655383
 70
     0
 93
      249
310
90D332F333222203D2031272D30220000000000002E0FC000000000000284040
 94
        0
  0
ACAD_PROXY_OBJECT
  5
851C
102
{ACAD_REACTORS
330
8505
102
}
330
8505
100
AcDbProxyObject
 90
      499
 91
      507
 95
   655383
 70
     0
 93
      241
310
90C312F3822203D2031272D3022000000000000300FC000000000000284040
 94
        0
  0
ACAD_PROXY_OBJECT
  5
851D
102
{ACAD_REACTORS
330
8505
102
}
330
8505
100
AcDbProxyObject
 90
      499
 91
      507
 95
   655383
 70
     0
 93
      249
310
90D332F313622203D2031272D3022000000000000320FC000000000000284040
 94
        0
  0
ACAD_PROXY_OBJECT
  5
851E
102
{ACAD_REACTORS
330
8505
102
}
330
8505
100
AcDbProxyObject
 90
      499
 91
      507
 95
   655383
 70
     0
 93
      241
310
90C312F3422203D2031272D3022000000000000340FC000000000000284040
 94
        0
  0
ACAD_PROXY_OBJECT
  5
851F
102
{ACAD_REACTORS
330
8505
102
}
330
8505
100
AcDbProxyObject
 90
      499
 91
      507
 95
   655383
 70
     0
 93
      241
310
90C332F3822203D2031272D3022000000000000360FC000000000000284040
 94
        0
  0
ACAD_PROXY_OBJECT
  5
8520
102
{ACAD_REACTORS
330
8505
102
}
330
8505
100
AcDbProxyObject
 90
      499
 91
      507
 95
   655383
 70
     0
 93
      241
310
90C312F3222203D2031272D3022000000000000380FC000000000000284040
 94
        0
  0
ACAD_PROXY_OBJECT
  5
8521
102
{ACAD_REACTORS
330
8505
102
}
330
8505
100
AcDbProxyObject
 90
      499
 91
      507
 95
   655383
 70
     0
 93
      241
310
90C332F3422203D2031272D30220000000000003A0FC000000000000284040
 94
        0
  0
ACAD_PROXY_OBJECT
  5
8522
102
{ACAD_REACTORS
330
8505
102
}
330
8505
100
AcDbProxyObject
 90
      499
 91
      507
 95
   655383
 70
     0
 93
      161
310
90A3122203D2031272D30224000000000000284020
 94
        0
  0
ACAD_PROXY_OBJECT
  5
8523
102
{ACAD_REACTORS
330
8505
102
}
330
8505
100
AcDbProxyObject
 90
      499
 91
      507
 95
   655383
 70
     0
 93
      257
310
90E312D312F3222203D2031272D30220000000000003E0FC000000000000284000
 94
        0
  0
ACAD_PROXY_OBJECT
  5
8524
102
{ACAD_REACTORS
330
8505
102
}
330
8505
100
AcDbProxyObject
 90
      499
 91
      507
 95
   655383
 70
     0
 93
      225
310
90A3322203D2031272D302200000000000002100000000000000284000
 94
        0
  0
ACAD_PROXY_OBJECT
  5
8525
102
{ACAD_REACTORS
330
8505
102
}
330
8505
100
AcDbProxyObject
 90
      499
 91
      507
 95
   655383
 70
     0
 93
      225
310
90A3622203D2031272D302200000000000006100000000000000284000
 94
        0
  0
ACAD_PROXY_OBJECT
  5
8526
102
{ACAD_REACTORS
330
8505
102
}
330
8505
100
AcDbProxyObject
 90
      499
 91
      507
 95
   655383
 70
     0
 93
      249
310
90D31272D3022203D2031272D30220000000000000A100000000000000284040
 94
        0
  0
DICTIONARYVAR
  5
7047
102
{ACAD_REACTORS
330
7046
102
}
330
7046
100
DictionaryVariables
280
     0
  1
1
  0
ENDSEC
  0
EOF
