  0
SECTION
  2
HEADER
  9
$ACADVER
  1
AC1015
  9
$ACADMAINTVER
 70
    10
  9
$DWGCODEPAGE
  3
ANSI_932
  9
$INSBASE
 10
0.0
 20
0.0
 30
0.0
  9
$EXTMIN
 10
-241.1707076761158
 20
201.285976304499
 30
0.0
  9
$EXTMAX
 10
344.7870226591377
 20
684.2476860759274
 30
1.004996417558615E+99
  9
$LIMMIN
 10
0.0
 20
0.0
  9
$LIMMAX
 10
420.0
 20
297.0
  9
$ORTHOMODE
 70
     1
  9
$REGENMODE
 70
     1
  9
$FILLMODE
 70
     1
  9
$QTEXTMODE
 70
     0
  9
$MIRRTEXT
 70
     1
  9
$LTSCALE
 40
1.0
  9
$ATTMODE
 70
     1
  9
$TEXTSIZE
 40
3.0
  9
$TRACEWID
 40
1.0
  9
$TEXTSTYLE
  7
STANDARD
  9
$CLAYER
  8
0
  9
$CELTYPE
  6
BYLAYER
  9
$CECOLOR
 62
   256
  9
$CELTSCALE
 40
1.0
  9
$DISPSILH
 70
     0
  9
$DIMSCALE
 40
1.0
  9
$DIMASZ
 40
3.0
  9
$DIMEXO
 40
1.5
  9
$DIMDLI
 40
5.0
  9
$DIMRND
 40
0.0
  9
$DIMDLE
 40
0.0
  9
$DIMEXE
 40
0.75
  9
$DIMTP
 40
0.0
  9
$DIMTM
 40
0.0
  9
$DIMTXT
 40
6.0
  9
$DIMCEN
 40
2.5
  9
$DIMTSZ
 40
0.0
  9
$DIMTOL
 70
     0
  9
$DIMLIM
 70
     0
  9
$DIMTIH
 70
     0
  9
$DIMTOH
 70
     0
  9
$DIMSE1
 70
     0
  9
$DIMSE2
 70
     0
  9
$DIMTAD
 70
     1
  9
$DIMZIN
 70
     9
  9
$DIMBLK
  1

  9
$DIMASO
 70
     1
  9
$DIMSHO
 70
     1
  9
$DIMPOST
  1

  9
$DIMAPOST
  1

  9
$DIMALT
 70
     0
  9
$DIMALTD
 70
     4
  9
$DIMALTF
 40
0.0394
  9
$DIMLFAC
 40
1.0
  9
$DIMTOFL
 70
     1
  9
$DIMTVP
 40
0.0
  9
$DIMTIX
 70
     0
  9
$DIMSOXD
 70
     0
  9
$DIMSAH
 70
     1
  9
$DIMBLK1
  1
OPEN
  9
$DIMBLK2
  1
OPEN
  9
$DIMSTYLE
  2
STANDARD
  9
$DIMCLRD
 70
     0
  9
$DIMCLRE
 70
     0
  9
$DIMCLRT
 70
     7
  9
$DIMTFAC
 40
1.0
  9
$DIMGAP
 40
1.5
  9
$DIMJUST
 70
     0
  9
$DIMSD1
 70
     0
  9
$DIMSD2
 70
     0
  9
$DIMTOLJ
 70
     1
  9
$DIMTZIN
 70
     9
  9
$DIMALTZ
 70
     0
  9
$DIMALTTZ
 70
     0
  9
$DIMUPT
 70
     0
  9
$DIMDEC
 70
     4
  9
$DIMTDEC
 70
     4
  9
$DIMALTU
 70
     8
  9
$DIMALTTD
 70
     4
  9
$DIMTXSTY
  7
STANDARD
  9
$DIMAUNIT
 70
     0
  9
$DIMADEC
 70
     0
  9
$DIMALTRND
 40
0.0
  9
$DIMAZIN
 70
     2
  9
$DIMDSEP
 70
    46
  9
$DIMATFIT
 70
     3
  9
$DIMFRAC
 70
     0
  9
$DIMLDRBLK
  1
OPEN
  9
$DIMLUNIT
 70
     2
  9
$DIMLWD
 70
    -2
  9
$DIMLWE
 70
    -2
  9
$DIMTMOVE
 70
     2
  9
$LUNITS
 70
     2
  9
$LUPREC
 70
     4
  9
$SKETCHINC
 40
1.0
  9
$FILLETRAD
 40
10.0
  9
$AUNITS
 70
     0
  9
$AUPREC
 70
     0
  9
$MENU
  1
.
  9
$ELEVATION
 40
0.0
  9
$PELEVATION
 40
0.0
  9
$THICKNESS
 40
0.0
  9
$LIMCHECK
 70
     0
  9
$CHAMFERA
 40
0.0
  9
$CHAMFERB
 40
0.0
  9
$CHAMFERC
 40
20.0
  9
$CHAMFERD
 40
0.0
  9
$SKPOLY
 70
     0
  9
$TDCREATE
 40
2451224.660162384
  9
$TDUCREATE
 40
2451224.285162384
  9
$TDUPDATE
 40
2457366.476721817
  9
$TDUUPDATE
 40
2457366.101721817
  9
$TDINDWG
 40
1.0732245949
  9
$TDUSRTIMER
 40
2457315.125288831
  9
$USRTIMER
 70
     1
  9
$ANGBASE
 50
0.0
  9
$ANGDIR
 70
     0
  9
$PDMODE
 70
     0
  9
$PDSIZE
 40
0.0
  9
$PLINEWID
 40
0.0
  9
$SPLFRAME
 70
     0
  9
$SPLINETYPE
 70
     6
  9
$SPLINESEGS
 70
     8
  9
$HANDSEED
  5
96D2
  9
$SURFTAB1
 70
     6
  9
$SURFTAB2
 70
     6
  9
$SURFTYPE
 70
     6
  9
$SURFU
 70
     6
  9
$SURFV
 70
     6
  9
$UCSBASE
  2

  9
$UCSNAME
  2

  9
$UCSORG
 10
0.0
 20
0.0
 30
0.0
  9
$UCSXDIR
 10
1.0
 20
0.0
 30
0.0
  9
$UCSYDIR
 10
0.0
 20
1.0
 30
0.0
  9
$UCSORTHOREF
  2

  9
$UCSORTHOVIEW
 70
     0
  9
$UCSORGTOP
 10
0.0
 20
0.0
 30
0.0
  9
$UCSORGBOTTOM
 10
0.0
 20
0.0
 30
0.0
  9
$UCSORGLEFT
 10
0.0
 20
0.0
 30
0.0
  9
$UCSORGRIGHT
 10
0.0
 20
0.0
 30
0.0
  9
$UCSORGFRONT
 10
0.0
 20
0.0
 30
0.0
  9
$UCSORGBACK
 10
0.0
 20
0.0
 30
0.0
  9
$PUCSBASE
  2

  9
$PUCSNAME
  2

  9
$PUCSORG
 10
0.0
 20
0.0
 30
0.0
  9
$PUCSXDIR
 10
1.0
 20
0.0
 30
0.0
  9
$PUCSYDIR
 10
0.0
 20
1.0
 30
0.0
  9
$PUCSORTHOREF
  2

  9
$PUCSORTHOVIEW
 70
     0
  9
$PUCSORGTOP
 10
0.0
 20
0.0
 30
0.0
  9
$PUCSORGBOTTOM
 10
0.0
 20
0.0
 30
0.0
  9
$PUCSORGLEFT
 10
0.0
 20
0.0
 30
0.0
  9
$PUCSORGRIGHT
 10
0.0
 20
0.0
 30
0.0
  9
$PUCSORGFRONT
 10
0.0
 20
0.0
 30
0.0
  9
$PUCSORGBACK
 10
0.0
 20
0.0
 30
0.0
  9
$USERI1
 70
     0
  9
$USERI2
 70
     0
  9
$USERI3
 70
     0
  9
$USERI4
 70
     0
  9
$USERI5
 70
     0
  9
$USERR1
 40
0.0
  9
$USERR2
 40
0.0
  9
$USERR3
 40
0.0
  9
$USERR4
 40
0.0
  9
$USERR5
 40
0.0
  9
$WORLDVIEW
 70
     1
  9
$SHADEDGE
 70
     3
  9
$SHADEDIF
 70
    70
  9
$TILEMODE
 70
     1
  9
$MAXACTVP
 70
    48
  9
$PINSBASE
 10
0.0
 20
0.0
 30
0.0
  9
$PLIMCHECK
 70
     0
  9
$PEXTMIN
 10
40.49999999999999
 20
25.69999999999998
 30
0.0
  9
$PEXTMAX
 10
364.5
 20
231.3
 30
0.0
  9
$PLIMMIN
 10
0.0
 20
0.0
  9
$PLIMMAX
 10
0.0
 20
0.0
  9
$UNITMODE
 70
     0
  9
$VISRETAIN
 70
     1
  9
$PLINEGEN
 70
     0
  9
$PSLTSCALE
 70
     1
  9
$TREEDEPTH
 70
  3020
  9
$CMLSTYLE
  2
STANDARD
  9
$CMLJUST
 70
     0
  9
$CMLSCALE
 40
20.0
  9
$PROXYGRAPHICS
 70
     1
  9
$MEASUREMENT
 70
     1
  9
$CELWEIGHT
370
    -1
  9
$ENDCAPS
280
     0
  9
$JOINSTYLE
280
     0
  9
$LWDISPLAY
290
     0
  9
$INSUNITS
 70
     0
  9
$HYPERLINKBASE
  1

  9
$STYLESHEET
  1

  9
$XEDIT
290
     1
  9
$CEPSNTYPE
380
     0
  9
$PSTYLEMODE
290
     1
  9
$FINGERPRINTGUID
  2
{6B368F64-F7EB-11D4-BFBA-00004C030E53}
  9
$VERSIONGUID
  2
{6B395A59-E5D1-4D9B-95EE-5396FEC27398}
  9
$EXTNAMES
290
     1
  9
$PSVPSCALE
 40
0.0
  9
$OLESTARTUP
290
     0
  0
ENDSEC
  0
SECTION
  2
CLASSES
  0
CLASS
  1
HATCH
  2
AcDbHatch
  3
AutoCAD 2000
 90
    32768
280
     0
281
     1
  0
CLASS
  1
LWPOLYLINE
  2
AcDbPolyline
  3
AutoCAD 2000
 90
    32768
280
     0
281
     1
  0
CLASS
  1
ACDBDICTIONARYWDFLT
  2
AcDbDictionaryWithDefault
  3
AutoCAD 2000
 90
        0
280
     0
281
     0
  0
CLASS
  1
ACDBPLACEHOLDER
  2
AcDbPlaceHolder
  3
AutoCAD 2000
 90
        0
280
     0
281
     0
  0
CLASS
  1
LAYOUT
  2
AcDbLayout
  3
AutoCAD 2000
 90
        0
280
     0
281
     0
  0
CLASS
  1
VISUALSTYLE
  2
AcDbVisualStyle
  3
ObjectDBX Classes
 90
    36863
280
     0
281
     0
  0
CLASS
  1
SCALE
  2
AcDbScale
  3
ObjectDBX Classes
 90
     1153
280
     0
281
     0
  0
CLASS
  1
MATERIAL
  2
AcDbMaterial
  3
ObjectDBX Classes
 90
    33921
280
     0
281
     0
  0
CLASS
  1
TABLESTYLE
  2
AcDbTableStyle
  3
ObjectDBX Classes
 90
    36863
280
     0
281
     0
  0
CLASS
  1
MLEADERSTYLE
  2
AcDbMLeaderStyle
  3
ACDB_MLEADERSTYLE_CLASS
 90
    36863
280
     0
281
     0
  0
CLASS
  1
SUN
  2
AcDbSun
  3
SCENEOE
 90
     1153
280
     0
281
     0
  0
CLASS
  1
RASTERVARIABLES
  2
AcDbRasterVariables
  3
ISM
 90
        0
280
     0
281
     0
  0
ENDSEC
  0
SECTION
  2
TABLES
  0
TABLE
  2
VPORT
  5
8
330
0
100
AcDbSymbolTable
 70
     2
  0
VPORT
  5
96D1
330
8
100
AcDbSymbolTableRecord
100
AcDbViewportTableRecord
  2
*Active
 70
     0
 10
0.0
 20
0.0
 11
1.0
 21
1.0
 12
216.9192389967988
 22
468.7574506643708
 13
0.0
 23
0.0
 14
10.0
 24
10.0
 15
10.0
 25
10.0
 16
0.0
 26
0.0
 36
1.0
 17
0.0
 27
0.0
 37
0.0
 40
589.0706860386138
 41
1.562182741116751
 42
50.0
 43
0.0
 44
0.0
 50
0.0
 51
0.0
 71
     0
 72
   100
 73
     1
 74
     0
 75
     0
 76
     0
 77
     0
 78
     0
281
     0
 65
     1
110
0.0
120
0.0
130
0.0
111
1.0
121
0.0
131
0.0
112
0.0
122
1.0
132
0.0
 79
     0
146
0.0
  0
ENDTAB
  0
TABLE
  2
LTYPE
  5
5
330
0
100
AcDbSymbolTable
 70
     1
  0
LTYPE
  5
12
330
5
100
AcDbSymbolTableRecord
100
AcDbLinetypeTableRecord
  2
BYBLOCK
 70
     0
  3

 72
    65
 73
     0
 40
0.0
  0
LTYPE
  5
13
330
5
100
AcDbSymbolTableRecord
100
AcDbLinetypeTableRecord
  2
BYLAYER
 70
     0
  3

 72
    65
 73
     0
 40
0.0
  0
LTYPE
  5
14
330
5
100
AcDbSymbolTableRecord
100
AcDbLinetypeTableRecord
  2
CONTINUOUS
 70
     0
  3
Solid line
 72
    65
 73
     0
 40
0.0
  0
ENDTAB
  0
TABLE
  2
LAYER
  5
2
330
0
100
AcDbSymbolTable
 70
     1
  0
LAYER
  5
E
330
2
100
AcDbSymbolTableRecord
100
AcDbLayerTableRecord
  2
0
 70
     0
 62
     7
  6
CONTINUOUS
370
    -3
390
73E
  0
ENDTAB
  0
TABLE
  2
STYLE
  5
3
330
0
100
AcDbSymbolTable
 70
     2
  0
STYLE
  5
F
330
3
100
AcDbSymbolTableRecord
100
AcDbTextStyleTableRecord
  2
STANDARD
 70
     0
 40
0.0
 41
1.0
 50
0.0
 71
     0
 42
3.0
  3
isocp.shx
  4
bigfont.shx
  0
STYLE
  5
35
330
3
100
AcDbSymbolTableRecord
100
AcDbTextStyleTableRecord
  2
MSｺﾞｼｯｸ
 70
     0
 40
0.0
 41
1.0
 50
0.0
 71
     0
 42
5.0
  3
MS Gothic.ttf
  4

1001
ACAD
1000
MS Gothic
1071
    32817
  0
ENDTAB
  0
TABLE
  2
VIEW
  5
6
330
0
100
AcDbSymbolTable
 70
     0
  0
ENDTAB
  0
TABLE
  2
UCS
  5
7
330
0
100
AcDbSymbolTable
 70
     0
  0
ENDTAB
  0
TABLE
  2
APPID
  5
9
330
0
100
AcDbSymbolTable
 70
     1
  0
APPID
  5
10
330
9
100
AcDbSymbolTableRecord
100
AcDbRegAppTableRecord
  2
ACAD
 70
     0
  0
ENDTAB
  0
TABLE
  2
DIMSTYLE
  5
A
330
0
100
AcDbSymbolTable
 70
     1
100
AcDbDimStyleTable
 71
     0
  0
DIMSTYLE
105
1D
330
A
100
AcDbSymbolTableRecord
100
AcDbDimStyleTableRecord
  2
STANDARD
 70
     0
 78
     8
 79
     2
140
3.0
340
F
341
89E
342
89E
  0
ENDTAB
  0
TABLE
  2
BLOCK_RECORD
  5
1
330
0
100
AcDbSymbolTable
 70
     4
  0
BLOCK_RECORD
  5
18
330
1
100
AcDbSymbolTableRecord
100
AcDbBlockTableRecord
  2
*MODEL_SPACE
340
741
  0
BLOCK_RECORD
  5
96C3
330
1
100
AcDbSymbolTableRecord
100
AcDbBlockTableRecord
  2
*Paper_Space
340
96C4
  0
BLOCK_RECORD
  5
24
330
1
100
AcDbSymbolTableRecord
100
AcDbBlockTableRecord
  2
_OPEN
340
0
  0
BLOCK_RECORD
  5
89E
330
1
100
AcDbSymbolTableRecord
100
AcDbBlockTableRecord
  2
_Open30
340
0
  0
BLOCK_RECORD
  5
9208
330
1
100
AcDbSymbolTableRecord
100
AcDbBlockTableRecord
  2
MC_1_5-2-STF-3_81__6
340
0
102
{BLKREFS
331
92CA
102
}
  0
BLOCK_RECORD
  5
92C9
330
1
100
AcDbSymbolTableRecord
100
AcDbBlockTableRecord
  2
VORDANS1
340
0
102
{BLKREFS
331
92DD
102
}
  0
ENDTAB
  0
ENDSEC
  0
SECTION
  2
BLOCKS
  0
BLOCK
  5
19
330
18
100
AcDbEntity
  8
0
100
AcDbBlockBegin
  2
*MODEL_SPACE
 70
     0
 10
0.0
 20
0.0
 30
0.0
  3
*MODEL_SPACE
  1

  0
ENDBLK
  5
1A
330
18
100
AcDbEntity
  8
0
100
AcDbBlockEnd
  0
BLOCK
  5
96C5
330
96C3
100
AcDbEntity
 67
     1
  8
0
100
AcDbBlockBegin
  2
*Paper_Space
 70
     0
 10
0.0
 20
0.0
 30
0.0
  3
*Paper_Space
  1

  0
ENDBLK
  5
96C6
330
96C3
100
AcDbEntity
 67
     1
  8
0
100
AcDbBlockEnd
  0
BLOCK
  5
25
330
24
100
AcDbEntity
  8
0
100
AcDbBlockBegin
  2
_OPEN
 70
     0
 10
0.0
 20
0.0
 30
0.0
  3
_OPEN
  1

  0
LINE
  5
26
330
24
100
AcDbEntity
  8
0
  6
ByBlock
 62
     0
100
AcDbLine
 10
-1.0
 20
0.1666666666666666
 30
0.0
 11
0.0
 21
0.0
 31
0.0
  0
LINE
  5
27
330
24
100
AcDbEntity
  8
0
  6
ByBlock
 62
     0
100
AcDbLine
 10
0.0
 20
0.0
 30
0.0
 11
-1.0
 21
-0.1666666666666666
 31
0.0
  0
LINE
  5
28
330
24
100
AcDbEntity
  8
0
  6
ByBlock
 62
     0
100
AcDbLine
 10
0.0
 20
0.0
 30
0.0
 11
-1.0
 21
0.0
 31
0.0
  0
ENDBLK
  5
29
330
24
100
AcDbEntity
  8
0
100
AcDbBlockEnd
  0
BLOCK
  5
8A2
330
89E
100
AcDbEntity
  8
0
100
AcDbBlockBegin
  2
_Open30
 70
     0
 10
0.0
 20
0.0
 30
0.0
  3
_Open30
  1

  0
LINE
  5
89F
330
89E
100
AcDbEntity
  8
0
  6
ByBlock
 62
     0
370
    -2
100
AcDbLine
 10
-1.0
 20
0.26794919
 30
0.0
 11
0.0
 21
0.0
 31
0.0
  0
LINE
  5
8A0
330
89E
100
AcDbEntity
  8
0
  6
ByBlock
 62
     0
370
    -2
100
AcDbLine
 10
0.0
 20
0.0
 30
0.0
 11
-1.0
 21
-0.26794919
 31
0.0
  0
LINE
  5
8A1
330
89E
100
AcDbEntity
  8
0
  6
ByBlock
 62
     0
370
    -2
100
AcDbLine
 10
0.0
 20
0.0
 30
0.0
 11
-1.0
 21
0.0
 31
0.0
  0
ENDBLK
  5
8A3
330
89E
100
AcDbEntity
  8
0
100
AcDbBlockEnd
  0
BLOCK
  5
92C7
330
9208
100
AcDbEntity
  8
0
100
AcDbBlockBegin
  2
MC_1_5-2-STF-3_81__6
 70
     0
 10
11.65200479999999
 20
-9.005000000000009
 30
0.0
  3
MC_1_5-2-STF-3_81__6
  1

  0
LINE
  5
9209
330
9208
100
AcDbEntity
  8
0
 62
     7
100
AcDbLine
 10
22.45200479999998
 20
4.204999999999998
 30
0.0
 11
22.2520048
 21
4.204999999999998
 31
0.0
  0
LINE
  5
920A
330
9208
100
AcDbEntity
  8
0
 62
     7
100
AcDbLine
 10
22.75200479999999
 20
3.405000000000001
 30
0.0
 11
22.7520048
 21
4.204999999999998
 31
0.0
  0
LINE
  5
920B
330
9208
100
AcDbEntity
  8
0
 62
     7
100
AcDbLine
 10
22.7520048
 20
-4.204999999999998
 30
0.0
 11
22.75200479999999
 21
-3.405000000000001
 31
0.0
  0
LINE
  5
920C
330
9208
100
AcDbEntity
  8
0
 62
     7
100
AcDbLine
 10
22.45200479999998
 20
-4.204999999999998
 30
0.0
 11
22.2520048
 21
-4.204999999999998
 31
0.0
  0
LINE
  5
920D
330
9208
100
AcDbEntity
  8
0
 62
     7
100
AcDbLine
 10
22.7520048
 20
4.204999999999998
 30
0.0
 11
22.45200479999998
 21
4.204999999999998
 31
0.0
  0
LINE
  5
920E
330
9208
100
AcDbEntity
  8
0
 62
     7
100
AcDbLine
 10
22.7520048
 20
-4.204999999999998
 30
0.0
 11
22.45200479999998
 21
-4.204999999999998
 31
0.0
  0
LINE
  5
920F
330
9208
100
AcDbEntity
  8
0
 62
     7
100
AcDbLine
 10
16.22700479999998
 20
5.718068416798288
 30
0.0
 11
16.22700479999998
 21
7.091931583201727
 31
0.0
  0
LINE
  5
9210
330
9208
100
AcDbEntity
  8
0
 62
     7
100
AcDbLine
 10
19.12502869120912
 20
4.837001361960294
 30
0.0
 11
16.48400616196027
 21
7.478023891209136
 31
0.0
  0
LINE
  5
9211
330
9208
100
AcDbEntity
  8
0
 62
     7
100
AcDbLine
 10
16.97898090879087
 20
7.972998638039726
 30
0.0
 11
19.6200034380397
 21
5.331976108790883
 31
0.0
  0
LINE
  5
9212
330
9208
100
AcDbEntity
  8
0
 62
     7
100
AcDbLine
 10
20.85200480000001
 20
4.204999999999998
 30
0.0
 11
20.85200480000001
 21
8.005000000000009
 31
0.0
  0
LINE
  5
9213
330
9208
100
AcDbEntity
  8
0
 62
     7
100
AcDbLine
 10
17.35200480000009
 20
3.268050143491976
 30
0.0
 11
17.35200480000001
 21
4.204999999999998
 31
0.0
  0
LINE
  5
9214
330
9208
100
AcDbEntity
  8
0
 62
     7
100
AcDbLine
 10
18.35200480000003
 20
4.204999999999998
 30
0.0
 11
18.35200480000001
 21
-4.204999999999998
 31
0.0
  0
LINE
  5
9215
330
9208
100
AcDbEntity
  8
0
 62
     7
100
AcDbLine
 10
17.35200480000002
 20
-0.5419498565080297
 30
0.0
 11
17.35200480000009
 21
0.5419498565080261
 31
0.0
  0
LINE
  5
9216
330
9208
100
AcDbEntity
  8
0
 62
     7
100
AcDbLine
 10
17.35200480000001
 20
-3.268050143491976
 30
0.0
 11
17.35200480000002
 21
-0.5419498565080297
 31
0.0
  0
LINE
  5
9217
330
9208
100
AcDbEntity
  8
0
 62
     7
100
AcDbLine
 10
17.35200480000001
 20
-4.204999999999998
 30
0.0
 11
17.35200480000001
 21
-3.268050143491976
 31
0.0
  0
LINE
  5
9218
330
9208
100
AcDbEntity
  8
0
 62
     7
100
AcDbLine
 10
17.35200480000001
 20
-4.204999999999998
 30
0.0
 11
17.65200480000006
 21
-4.204999999999998
 31
0.0
  0
LINE
  5
9219
330
9208
100
AcDbEntity
  8
0
 62
     7
100
AcDbLine
 10
17.85200480000012
 20
-4.204999999999998
 30
0.0
 11
18.35200480000001
 21
-4.204999999999998
 31
0.0
  0
LINE
  5
921A
330
9208
100
AcDbEntity
  8
0
 62
     7
100
AcDbLine
 10
18.35200480000001
 20
-4.204999999999998
 30
0.0
 11
20.85200480000001
 21
-4.204999999999998
 31
0.0
  0
LINE
  5
921B
330
9208
100
AcDbEntity
  8
0
 62
     7
100
AcDbLine
 10
17.65200480000006
 20
-4.204999999999998
 30
0.0
 11
17.85200480000012
 21
-4.204999999999998
 31
0.0
  0
LINE
  5
921C
330
9208
100
AcDbEntity
  8
0
 62
     7
100
AcDbLine
 10
18.7389363832017
 20
4.580000000000012
 30
0.0
 11
17.36507321679829
 21
4.580000000000012
 31
0.0
  0
LINE
  5
921D
330
9208
100
AcDbEntity
  8
0
 62
     7
100
AcDbLine
 10
19.87700479999998
 20
5.718068416798288
 30
0.0
 11
19.87700479999998
 21
7.091931583201727
 31
0.0
  0
LINE
  5
921E
330
9208
100
AcDbEntity
  8
0
 62
     7
100
AcDbLine
 10
17.35200480000001
 20
4.204999999999998
 30
0.0
 11
17.65200480000006
 21
4.204999999999998
 31
0.0
  0
LINE
  5
921F
330
9208
100
AcDbEntity
  8
0
 62
     7
100
AcDbLine
 10
17.35200480000009
 20
0.5419498565080261
 30
0.0
 11
17.35200480000009
 21
3.268050143491976
 31
0.0
  0
LINE
  5
9220
330
9208
100
AcDbEntity
  8
0
 62
     7
100
AcDbLine
 10
17.85200480000012
 20
4.204999999999998
 30
0.0
 11
18.35200480000003
 21
4.204999999999998
 31
0.0
  0
LINE
  5
9221
330
9208
100
AcDbEntity
  8
0
 62
     7
100
AcDbLine
 10
17.65200480000006
 20
4.204999999999998
 30
0.0
 11
17.85200480000012
 21
4.204999999999998
 31
0.0
  0
LINE
  5
9222
330
9208
100
AcDbEntity
  8
0
 62
     7
100
AcDbLine
 10
18.7389363832017
 20
8.230000000000003
 30
0.0
 11
17.36507321679828
 21
8.230000000000003
 31
0.0
  0
LINE
  5
9223
330
9208
100
AcDbEntity
  8
0
 62
     7
100
AcDbLine
 10
22.15200480000001
 20
4.204999999999998
 30
0.0
 11
22.15200480000001
 21
-4.204999999999998
 31
0.0
  0
LINE
  5
9224
330
9208
100
AcDbEntity
  8
0
 62
     7
100
AcDbLine
 10
15.25200480000002
 20
-4.204999999999998
 30
0.0
 11
12.7520048
 21
-4.204999999999998
 31
0.0
  0
LINE
  5
9225
330
9208
100
AcDbEntity
  8
0
 62
     7
100
AcDbLine
 10
15.25200480000002
 20
4.204999999999998
 30
0.0
 11
17.35200480000001
 21
4.204999999999998
 31
0.0
  0
LINE
  5
9226
330
9208
100
AcDbEntity
  8
0
 62
     7
100
AcDbLine
 10
15.25200480000002
 20
-4.204999999999998
 30
0.0
 11
17.35200480000001
 21
-4.204999999999998
 31
0.0
  0
LINE
  5
9227
330
9208
100
AcDbEntity
  8
0
 62
     7
100
AcDbLine
 10
20.85200480000001
 20
4.204999999999998
 30
0.0
 11
18.35200480000003
 21
4.204999999999998
 31
0.0
  0
LINE
  5
9228
330
9208
100
AcDbEntity
  8
0
 62
     7
100
AcDbLine
 10
22.15200480000001
 20
4.204999999999998
 30
0.0
 11
20.85200480000001
 21
4.204999999999998
 31
0.0
  0
LINE
  5
9229
330
9208
100
AcDbEntity
  8
0
 62
     7
100
AcDbLine
 10
20.85200480000001
 20
-4.204999999999998
 30
0.0
 11
22.15200480000001
 21
-4.204999999999998
 31
0.0
  0
LINE
  5
922A
330
9208
100
AcDbEntity
  8
0
 62
     7
100
AcDbLine
 10
22.2520048
 20
4.204999999999998
 30
0.0
 11
22.15200480000001
 21
4.204999999999998
 31
0.0
  0
LINE
  5
922B
330
9208
100
AcDbEntity
  8
0
 62
     7
100
AcDbLine
 10
22.2520048
 20
-4.204999999999998
 30
0.0
 11
22.15200480000001
 21
-4.204999999999998
 31
0.0
  0
LINE
  5
922C
330
9208
100
AcDbEntity
  8
0
 62
     7
100
AcDbLine
 10
22.75200479999999
 20
-3.355000000000017
 30
0.0
 11
22.75200479999999
 21
-3.405000000000001
 31
0.0
  0
LINE
  5
922D
330
9208
100
AcDbEntity
  8
0
 62
     7
100
AcDbLine
 10
22.75200479999999
 20
-3.057345434320807
 30
0.0
 11
22.75200479999999
 21
-3.355000000000017
 31
0.0
  0
LINE
  5
922E
330
9208
100
AcDbEntity
  8
0
 62
     7
100
AcDbLine
 10
15.25200480000002
 20
4.204999999999998
 30
0.0
 11
12.7520048
 21
4.204999999999998
 31
0.0
  0
LINE
  5
922F
330
9208
100
AcDbEntity
  8
0
 62
     7
100
AcDbLine
 10
12.51610641513737
 20
-3.268549682463004
 30
0.0
 11
12.51610641513737
 21
-0.5414503175369987
 31
0.0
  0
LINE
  5
9230
330
9208
100
AcDbEntity
  8
0
 62
     7
100
AcDbLine
 10
22.75200479999999
 20
-3.057345434320807
 30
0.0
 11
22.75200479999999
 21
-0.7526545656791513
 31
0.0
  0
LINE
  5
9231
330
9208
100
AcDbEntity
  8
0
 62
     7
100
AcDbLine
 10
22.75200479999999
 20
-0.4549999999999841
 30
0.0
 11
22.75200479999999
 21
-0.7526545656791513
 31
0.0
  0
LINE
  5
9232
330
9208
100
AcDbEntity
  8
0
 62
     7
100
AcDbLine
 10
22.75200479999999
 20
0.4549999999999841
 30
0.0
 11
22.75200479999999
 21
-0.4549999999999841
 31
0.0
  0
LINE
  5
9233
330
9208
100
AcDbEntity
  8
0
 62
     7
100
AcDbLine
 10
12.51610641513737
 20
0.5414503175369987
 30
0.0
 11
12.51610641513737
 21
3.268549682463004
 31
0.0
  0
LINE
  5
9234
330
9208
100
AcDbEntity
  8
0
 62
     7
100
AcDbLine
 10
13.05200480000026
 20
2.765000000000071
 30
0.0
 11
13.01578513557523
 21
2.765000000000128
 31
0.0
  0
LINE
  5
9235
330
9208
100
AcDbEntity
  8
0
 62
     7
100
AcDbLine
 10
15.80200480000035
 20
2.765000000000071
 30
0.0
 11
13.05200480000026
 21
2.765000000000071
 31
0.0
  0
LINE
  5
9236
330
9208
100
AcDbEntity
  8
0
 62
     7
100
AcDbLine
 10
15.97876816497175
 20
2.76500000000008
 30
0.0
 11
15.80200480000035
 21
2.765000000000071
 31
0.0
  0
LINE
  5
9237
330
9208
100
AcDbEntity
  8
0
 62
     7
100
AcDbLine
 10
13.05200480000026
 20
2.765000000000071
 30
0.0
 11
13.05200480000026
 21
1.045000000000044
 31
0.0
  0
LINE
  5
9238
330
9208
100
AcDbEntity
  8
0
 62
     7
100
AcDbLine
 10
15.80200480000035
 20
1.045000000000045
 30
0.0
 11
15.80200480000035
 21
2.765000000000071
 31
0.0
  0
LINE
  5
9239
330
9208
100
AcDbEntity
  8
0
 62
     7
100
AcDbLine
 10
13.05200480000026
 20
1.045000000000044
 30
0.0
 11
13.01578513557525
 21
1.044999999999945
 31
0.0
  0
LINE
  5
923A
330
9208
100
AcDbEntity
  8
0
 62
     7
100
AcDbLine
 10
13.05200480000026
 20
1.045000000000044
 30
0.0
 11
15.80200480000035
 21
1.045000000000045
 31
0.0
  0
LINE
  5
923B
330
9208
100
AcDbEntity
  8
0
 62
     7
100
AcDbLine
 10
15.97876816497182
 20
1.044999999999959
 30
0.0
 11
15.80200480000035
 21
1.045000000000045
 31
0.0
  0
LINE
  5
923C
330
9208
100
AcDbEntity
  8
0
 62
     7
100
AcDbLine
 10
22.75200479999999
 20
3.355000000000017
 30
0.0
 11
22.75200479999999
 21
3.405000000000001
 31
0.0
  0
LINE
  5
923D
330
9208
100
AcDbEntity
  8
0
 62
     7
100
AcDbLine
 10
22.75200479999999
 20
3.057345434320807
 30
0.0
 11
22.75200479999999
 21
3.355000000000017
 31
0.0
  0
LINE
  5
923E
330
9208
100
AcDbEntity
  8
0
 62
     7
100
AcDbLine
 10
22.75200479999999
 20
0.7526545656791939
 30
0.0
 11
22.75200479999999
 21
3.057345434320807
 31
0.0
  0
LINE
  5
923F
330
9208
100
AcDbEntity
  8
0
 62
     7
100
AcDbLine
 10
22.75200479999999
 20
0.7526545656791939
 30
0.0
 11
22.75200479999999
 21
0.4549999999999841
 31
0.0
  0
LINE
  5
9240
330
9208
100
AcDbEntity
  8
0
 62
     7
100
AcDbLine
 10
15.80200480000034
 20
-1.044999999999922
 30
0.0
 11
15.80200480000034
 21
-2.764999999999958
 31
0.0
  0
LINE
  5
9241
330
9208
100
AcDbEntity
  8
0
 62
     7
100
AcDbLine
 10
15.97876816497185
 20
-1.044999999999945
 30
0.0
 11
15.80200480000034
 21
-1.044999999999922
 31
0.0
  0
LINE
  5
9242
330
9208
100
AcDbEntity
  8
0
 62
     7
100
AcDbLine
 10
15.97876816497185
 20
-2.764999999999949
 30
0.0
 11
15.80200480000034
 21
-2.764999999999958
 31
0.0
  0
LINE
  5
9243
330
9208
100
AcDbEntity
  8
0
 62
     7
100
AcDbLine
 10
13.01578513557523
 20
-1.044999999999874
 30
0.0
 11
13.05200480000026
 21
-1.04499999999993
 31
0.0
  0
LINE
  5
9244
330
9208
100
AcDbEntity
  8
0
 62
     7
100
AcDbLine
 10
13.05200480000026
 20
-1.04499999999993
 30
0.0
 11
13.05200480000026
 21
-2.764999999999958
 31
0.0
  0
LINE
  5
9245
330
9208
100
AcDbEntity
  8
0
 62
     7
100
AcDbLine
 10
13.05200480000026
 20
-2.764999999999958
 30
0.0
 11
13.01578513557525
 21
-2.764999999999949
 31
0.0
  0
LINE
  5
9246
330
9208
100
AcDbEntity
  8
0
 62
     7
100
AcDbLine
 10
15.80200480000034
 20
-2.764999999999958
 30
0.0
 11
13.05200480000026
 21
-2.764999999999958
 31
0.0
  0
LINE
  5
9247
330
9208
100
AcDbEntity
  8
0
 62
     7
100
AcDbLine
 10
15.80200480000034
 20
-1.044999999999922
 30
0.0
 11
13.05200480000026
 21
-1.04499999999993
 31
0.0
  0
LINE
  5
9248
330
9208
100
AcDbEntity
  8
0
 62
     7
100
AcDbLine
 10
17.86491036107106
 20
9.005000000000009
 30
0.0
 11
17.72267493613536
 21
9.005000000000009
 31
0.0
  0
LINE
  5
9249
330
9208
100
AcDbEntity
  8
0
 62
     7
100
AcDbLine
 10
17.48272598516249
 20
9.005000000000009
 30
0.0
 11
17.72267493613536
 21
9.005000000000009
 31
0.0
  0
LINE
  5
924A
330
9208
100
AcDbEntity
  8
0
 62
     7
100
AcDbLine
 10
18.82895046341312
 20
9.005000000000009
 30
0.0
 11
19.06889941438586
 21
9.005000000000009
 31
0.0
  0
LINE
  5
924B
330
9208
100
AcDbEntity
  8
0
 62
     7
100
AcDbLine
 10
19.06889941438586
 20
9.005000000000009
 30
0.0
 11
19.22699627381939
 21
9.005000000000009
 31
0.0
  0
LINE
  5
924C
330
9208
100
AcDbEntity
  8
0
 62
     7
100
AcDbLine
 10
17.324629125729
 20
9.005000000000009
 30
0.0
 11
17.48272598516249
 21
9.005000000000009
 31
0.0
  0
LINE
  5
924D
330
9208
100
AcDbEntity
  8
0
 62
     7
100
AcDbLine
 10
18.68671503847739
 20
9.005000000000009
 30
0.0
 11
18.82895046341312
 21
9.005000000000009
 31
0.0
  0
LINE
  5
924E
330
9208
100
AcDbEntity
  8
0
 62
     7
100
AcDbLine
 10
18.50417483006699
 20
9.005000000000009
 30
0.0
 11
18.68671503847739
 21
9.005000000000009
 31
0.0
  0
LINE
  5
924F
330
9208
100
AcDbEntity
  8
0
 62
     7
100
AcDbLine
 10
18.0474505694814
 20
9.005000000000009
 30
0.0
 11
18.2758126997742
 21
9.005000000000009
 31
0.0
  0
LINE
  5
9250
330
9208
100
AcDbEntity
  8
0
 62
     7
100
AcDbLine
 10
17.86491036107106
 20
9.005000000000009
 30
0.0
 11
18.0474505694814
 21
9.005000000000009
 31
0.0
  0
LINE
  5
9251
330
9208
100
AcDbEntity
  8
0
 62
     7
100
AcDbLine
 10
18.2758126997742
 20
9.005000000000009
 30
0.0
 11
18.50417483006699
 21
9.005000000000009
 31
0.0
  0
LINE
  5
9252
330
9208
100
AcDbEntity
  8
0
 62
     7
100
AcDbLine
 10
17.324629125729
 20
9.005000000000009
 30
0.0
 11
17.03511018562189
 21
9.005000000000009
 31
0.0
  0
LINE
  5
9253
330
9208
100
AcDbEntity
  8
0
 62
     7
100
AcDbLine
 10
17.03511018562189
 20
9.005000000000009
 30
0.0
 11
16.8770133261884
 21
9.005000000000009
 31
0.0
  0
LINE
  5
9254
330
9208
100
AcDbEntity
  8
0
 62
     7
100
AcDbLine
 10
16.76280061257794
 20
9.005000000000009
 30
0.0
 11
16.8770133261884
 21
9.005000000000009
 31
0.0
  0
LINE
  5
9255
330
9208
100
AcDbEntity
  8
0
 62
     7
100
AcDbLine
 10
19.22699627381939
 20
9.005000000000009
 30
0.0
 11
19.3412089874221
 21
9.005000000000009
 31
0.0
  0
LINE
  5
9256
330
9208
100
AcDbEntity
  8
0
 62
     7
100
AcDbLine
 10
19.3412089874221
 20
9.005000000000009
 30
0.0
 11
19.55200480000002
 21
9.005000000000009
 31
0.0
  0
LINE
  5
9257
330
9208
100
AcDbEntity
  8
0
 62
     7
100
AcDbLine
 10
16.55200479999994
 20
9.005000000000009
 30
0.0
 11
16.76280061257794
 21
9.005000000000009
 31
0.0
  0
LINE
  5
9258
330
9208
100
AcDbEntity
  8
0
 62
     7
100
AcDbLine
 10
19.55200480000002
 20
9.005000000000009
 30
0.0
 11
19.85200480000001
 21
9.005000000000009
 31
0.0
  0
LINE
  5
9259
330
9208
100
AcDbEntity
  8
0
 62
     7
100
AcDbLine
 10
16.25200480000001
 20
9.005000000000009
 30
0.0
 11
16.55200479999994
 21
9.005000000000009
 31
0.0
  0
LINE
  5
925A
330
9208
100
AcDbEntity
  8
0
 62
     7
100
AcDbLine
 10
15.25200480000002
 20
4.204999999999998
 30
0.0
 11
15.25200480000002
 21
8.005000000000009
 31
0.0
  0
LINE
  5
925B
330
9208
100
AcDbEntity
  8
0
 62
     7
100
AcDbLine
 10
11.65200479999999
 20
4.204999999999998
 30
0.0
 11
12.4520048
 21
4.204999999999998
 31
0.0
  0
LINE
  5
925C
330
9208
100
AcDbEntity
  8
0
 62
     7
100
AcDbLine
 10
12.4520048
 20
-4.204999999999998
 30
0.0
 11
11.65200479999999
 21
-4.204999999999998
 31
0.0
  0
LINE
  5
925D
330
9208
100
AcDbEntity
  8
0
 62
     7
100
AcDbLine
 10
11.65200479999999
 20
-4.204999999999998
 30
0.0
 11
11.65200479999999
 21
4.204999999999998
 31
0.0
  0
LINE
  5
925E
330
9208
100
AcDbEntity
  8
0
 62
     7
100
AcDbLine
 10
12.7520048
 20
-4.204999999999998
 30
0.0
 11
12.4520048
 21
-4.204999999999998
 31
0.0
  0
LINE
  5
925F
330
9208
100
AcDbEntity
  8
0
 62
     7
100
AcDbLine
 10
12.7520048
 20
4.204999999999998
 30
0.0
 11
12.4520048
 21
4.204999999999998
 31
0.0
  0
LINE
  5
9260
330
9208
100
AcDbEntity
  8
0
 62
     7
100
AcDbLine
 10
20.85200480000001
 20
-4.204999999999998
 30
0.0
 11
20.85200480000001
 21
-8.005000000000009
 31
0.0
  0
LINE
  5
9261
330
9208
100
AcDbEntity
  8
0
 62
     7
100
AcDbLine
 10
15.25200480000002
 20
-4.204999999999998
 30
0.0
 11
15.25200480000002
 21
-8.005000000000009
 31
0.0
  0
LINE
  5
9262
330
9208
100
AcDbEntity
  8
0
 62
     7
100
AcDbLine
 10
18.73893638320173
 20
-4.579999999999998
 30
0.0
 11
17.36507321679825
 21
-4.579999999999998
 31
0.0
  0
LINE
  5
9263
330
9208
100
AcDbEntity
  8
0
 62
     7
100
AcDbLine
 10
19.87700479999998
 20
-5.718068416798275
 30
0.0
 11
19.87700479999998
 21
-7.091931583201699
 31
0.0
  0
LINE
  5
9264
330
9208
100
AcDbEntity
  8
0
 62
     7
100
AcDbLine
 10
19.12502869120912
 20
-7.972998638039709
 30
0.0
 11
16.48400616196028
 21
-5.331976108790865
 31
0.0
  0
LINE
  5
9265
330
9208
100
AcDbEntity
  8
0
 62
     7
100
AcDbLine
 10
16.97898090879085
 20
-4.837001361960271
 30
0.0
 11
19.6200034380397
 21
-7.478023891209117
 31
0.0
  0
LINE
  5
9266
330
9208
100
AcDbEntity
  8
0
 62
     7
100
AcDbLine
 10
16.22700479999998
 20
-5.718068416798261
 30
0.0
 11
16.22700479999998
 21
-7.091931583201699
 31
0.0
  0
LINE
  5
9267
330
9208
100
AcDbEntity
  8
0
 62
     7
100
AcDbLine
 10
18.73893638320166
 20
-8.229999999999989
 30
0.0
 11
17.36507321679831
 21
-8.229999999999989
 31
0.0
  0
LINE
  5
9268
330
9208
100
AcDbEntity
  8
0
 62
     7
100
AcDbLine
 10
16.25200480000001
 20
-9.005000000000009
 30
0.0
 11
19.85200480000001
 21
-9.005000000000009
 31
0.0
  0
ARC
  5
9269
330
9208
100
AcDbEntity
  8
0
 62
     7
100
AcDbCircle
 10
14.9320048000011
 20
20.39499999999989
 30
0.0
 40
20.00000000000011
100
AcDbArc
 50
263.6465784957678
 51
276.8921252520984
  0
ARC
  5
926A
330
9208
100
AcDbEntity
  8
0
 62
     7
100
AcDbCircle
 10
18.05200479999998
 20
6.405000000000014
 30
0.0
 40
1.949999999999999
100
AcDbArc
 50
9.617477116202456
 51
15.00000000000011
  0
ARC
  5
926B
330
9208
100
AcDbEntity
  8
0
 62
     7
100
AcDbCircle
 10
18.05200479999998
 20
6.405000000000014
 30
0.0
 40
1.949999999999996
100
AcDbArc
 50
339.3736189501979
 51
350.3825228837971
  0
ARC
  5
926C
330
9208
100
AcDbEntity
  8
0
 62
     7
100
AcDbCircle
 10
18.05200479999998
 20
6.405000000000014
 30
0.0
 40
1.950000000000004
100
AcDbArc
 50
290.6263810498014
 51
339.3736189501979
  0
ARC
  5
926D
330
9208
100
AcDbEntity
  8
0
 62
     7
100
AcDbCircle
 10
18.05200479999998
 20
6.405000000000014
 30
0.0
 40
1.950000000000006
100
AcDbArc
 50
159.3736189501985
 51
170.3825228837962
  0
ARC
  5
926E
330
9208
100
AcDbEntity
  8
0
 62
     7
100
AcDbCircle
 10
18.05200479999998
 20
6.405000000000014
 30
0.0
 40
1.95
100
AcDbArc
 50
189.6174771162041
 51
200.6263810498018
  0
ARC
  5
926F
330
9208
100
AcDbEntity
  8
0
 62
     7
100
AcDbCircle
 10
18.05200479999998
 20
6.405000000000014
 30
0.0
 40
1.899999999999996
100
AcDbArc
 50
45.00000000000003
 51
73.84784348690004
  0
ARC
  5
9270
330
9208
100
AcDbEntity
  8
0
 62
     7
100
AcDbCircle
 10
18.05200479999998
 20
6.405000000000014
 30
0.0
 40
1.899999999999988
100
AcDbArc
 50
124.3848921492918
 51
145.6151078507083
  0
ARC
  5
9271
330
9208
100
AcDbEntity
  8
0
 62
     7
100
AcDbCircle
 10
18.05200479999998
 20
6.405000000000014
 30
0.0
 40
1.899999999999995
100
AcDbArc
 50
145.6151078507083
 51
163.8478434869018
  0
ARC
  5
9272
330
9208
100
AcDbEntity
  8
0
 62
     7
100
AcDbCircle
 10
18.05200479999998
 20
6.405000000000014
 30
0.0
 40
1.899999999999997
100
AcDbArc
 50
196.1521565130981
 51
253.8478434869018
  0
ARC
  5
9273
330
9208
100
AcDbEntity
  8
0
 62
     7
100
AcDbCircle
 10
18.05200479999998
 20
6.405000000000014
 30
0.0
 40
1.95
100
AcDbArc
 50
249.3736189501989
 51
260.382522883796
  0
ARC
  5
9274
330
9208
100
AcDbEntity
  8
0
 62
     7
100
AcDbCircle
 10
18.05200479999998
 20
6.405000000000014
 30
0.0
 40
1.95000000000001
100
AcDbArc
 50
200.6263810498018
 51
249.3736189501989
  0
ARC
  5
9275
330
9208
100
AcDbEntity
  8
0
 62
     7
100
AcDbCircle
 10
18.05200479999998
 20
6.405000000000014
 30
0.0
 40
1.949999999999992
100
AcDbArc
 50
110.6263810498015
 51
159.3736189501985
  0
ARC
  5
9276
330
9208
100
AcDbEntity
  8
0
 62
     7
100
AcDbCircle
 10
18.05200479999998
 20
6.405000000000014
 30
0.0
 40
1.899999999999997
100
AcDbArc
 50
106.1521565130997
 51
124.3848921492918
  0
ARC
  5
9277
330
9208
100
AcDbEntity
  8
0
 62
     7
100
AcDbCircle
 10
19.85200480000001
 20
8.005000000000009
 30
0.0
 40
1.0
100
AcDbArc
 50
0.0
 51
45.57299599919454
  0
ARC
  5
9278
330
9208
100
AcDbEntity
  8
0
 62
     7
100
AcDbCircle
 10
18.05200479999998
 20
6.405000000000014
 30
0.0
 40
1.949999999999991
100
AcDbArc
 50
69.37361895019858
 51
80.3825228837967
  0
ARC
  5
9279
330
9208
100
AcDbEntity
  8
0
 62
     7
100
AcDbCircle
 10
18.05200479999998
 20
6.405000000000014
 30
0.0
 40
1.949999999999996
100
AcDbArc
 50
99.61747711620342
 51
110.6263810498015
  0
ARC
  5
927A
330
9208
100
AcDbEntity
  8
0
 62
     7
100
AcDbCircle
 10
18.05200479999998
 20
6.405000000000014
 30
0.0
 40
1.949999999999992
100
AcDbArc
 50
20.62638104980153
 51
69.37361895019858
  0
ARC
  5
927B
330
9208
100
AcDbEntity
  8
0
 62
     7
100
AcDbCircle
 10
18.05200479999998
 20
6.405000000000014
 30
0.0
 40
1.899999999999998
100
AcDbArc
 50
325.6151078507081
 51
343.8478434869001
  0
ARC
  5
927C
330
9208
100
AcDbEntity
  8
0
 62
     7
100
AcDbCircle
 10
14.93200480000109
 20
-16.58499999999989
 30
0.0
 40
19.99999999999993
100
AcDbArc
 50
83.05018107851344
 51
83.10787474790149
  0
ARC
  5
927D
330
9208
100
AcDbEntity
  8
0
 62
     7
100
AcDbCircle
 10
18.05200479999998
 20
6.405000000000014
 30
0.0
 40
1.950000000000011
100
AcDbArc
 50
279.6174771162034
 51
290.6263810498014
  0
ARC
  5
927E
330
9208
100
AcDbEntity
  8
0
 62
     7
100
AcDbCircle
 10
18.05200479999998
 20
6.405000000000014
 30
0.0
 40
1.899999999999998
100
AcDbArc
 50
286.1521565130983
 51
304.3848921492918
  0
ARC
  5
927F
330
9208
100
AcDbEntity
  8
0
 62
     7
100
AcDbCircle
 10
18.05200479999998
 20
6.405000000000014
 30
0.0
 40
1.949999999999995
100
AcDbArc
 50
15.00000000000011
 51
20.62638104980153
  0
ARC
  5
9280
330
9208
100
AcDbEntity
  8
0
 62
     7
100
AcDbCircle
 10
18.05200479999998
 20
6.405000000000014
 30
0.0
 40
1.949999999999999
100
AcDbArc
 50
0.0
 51
9.617477116202456
  0
ARC
  5
9281
330
9208
100
AcDbEntity
  8
0
 62
     7
100
AcDbCircle
 10
18.05200479999998
 20
6.405000000000014
 30
0.0
 40
1.95
100
AcDbArc
 50
350.3825228837971
 51
0.0
  0
ARC
  5
9282
330
9208
100
AcDbEntity
  8
0
 62
     7
100
AcDbCircle
 10
18.05200479999998
 20
6.405000000000014
 30
0.0
 40
1.950000000000014
100
AcDbArc
 50
260.382522883796
 51
279.6174771162034
  0
ARC
  5
9283
330
9208
100
AcDbEntity
  8
0
 62
     7
100
AcDbCircle
 10
18.05200479999998
 20
6.405000000000014
 30
0.0
 40
1.899999999999998
100
AcDbArc
 50
304.3848921492918
 51
325.6151078507081
  0
ARC
  5
9284
330
9208
100
AcDbEntity
  8
0
 62
     7
100
AcDbCircle
 10
14.9320048000011
 20
20.39499999999989
 30
0.0
 40
19.99999999999987
100
AcDbArc
 50
276.8921252520984
 51
276.9498189214866
  0
ARC
  5
9285
330
9208
100
AcDbEntity
  8
0
 62
     7
100
AcDbCircle
 10
14.93200480000002
 20
-20.39499999999989
 30
0.0
 40
20.00000000000006
100
AcDbArc
 50
83.05018107851052
 51
83.10787474789842
  0
ARC
  5
9286
330
9208
100
AcDbEntity
  8
0
 62
     7
100
AcDbCircle
 10
14.93200480000002
 20
16.58499999999989
 30
0.0
 40
20.00000000000001
100
AcDbArc
 50
276.8921252521029
 51
276.9498189214893
  0
ARC
  5
9287
330
9208
100
AcDbEntity
  8
0
 62
     7
100
AcDbCircle
 10
18.05200479999998
 20
6.405000000000014
 30
0.0
 40
1.899999999999998
100
AcDbArc
 50
16.15215651309982
 51
45.00000000000003
  0
ARC
  5
9288
330
9208
100
AcDbEntity
  8
0
 62
     7
100
AcDbCircle
 10
18.05200479999998
 20
6.405000000000014
 30
0.0
 40
1.949999999999995
100
AcDbArc
 50
80.3825228837967
 51
99.61747711620342
  0
ARC
  5
9289
330
9208
100
AcDbEntity
  8
0
 62
     7
100
AcDbCircle
 10
18.05200479999998
 20
6.405000000000014
 30
0.0
 40
1.949999999999997
100
AcDbArc
 50
170.3825228837962
 51
189.6174771162041
  0
ARC
  5
928A
330
9208
100
AcDbEntity
  8
0
 62
     7
100
AcDbCircle
 10
14.93200480000002
 20
16.58499999999989
 30
0.0
 40
19.99999999999999
100
AcDbArc
 50
263.6465784957709
 51
276.8921252521029
  0
ARC
  5
928B
330
9208
100
AcDbEntity
  8
0
 62
     7
100
AcDbCircle
 10
14.93200480000109
 20
-16.58499999999989
 30
0.0
 40
19.99999999999987
100
AcDbArc
 50
83.10787474790149
 51
90.00000000000277
  0
ARC
  5
928C
330
9208
100
AcDbEntity
  8
0
 62
     7
100
AcDbCircle
 10
14.93200480000109
 20
-16.58499999999989
 30
0.0
 40
20.0
100
AcDbArc
 50
90.00000000000277
 51
96.35342150423221
  0
ARC
  5
928D
330
9208
100
AcDbEntity
  8
0
 62
     7
100
AcDbCircle
 10
14.93200480000002
 20
-20.39499999999989
 30
0.0
 40
19.99999999999999
100
AcDbArc
 50
96.35342150422914
 51
96.93798183461964
  0
ARC
  5
928E
330
9208
100
AcDbEntity
  8
0
 62
     7
100
AcDbCircle
 10
14.93200480000002
 20
-20.39499999999989
 30
0.0
 40
20.0
100
AcDbArc
 50
89.99999999999968
 51
96.35342150422914
  0
ARC
  5
928F
330
9208
100
AcDbEntity
  8
0
 62
     7
100
AcDbCircle
 10
14.93200480000002
 20
-20.39499999999989
 30
0.0
 40
20.0
100
AcDbArc
 50
83.10787474789842
 51
89.99999999999968
  0
ARC
  5
9290
330
9208
100
AcDbEntity
  8
0
 62
     7
100
AcDbCircle
 10
14.93200480000109
 20
-16.58499999999989
 30
0.0
 40
20.0000000000001
100
AcDbArc
 50
96.35342150423221
 51
96.93798183462273
  0
ARC
  5
9291
330
9208
100
AcDbEntity
  8
0
 62
     7
100
AcDbCircle
 10
14.9320048000011
 20
20.39499999999989
 30
0.0
 40
20.00000000000024
100
AcDbArc
 50
263.0620181653773
 51
263.6465784957678
  0
ARC
  5
9292
330
9208
100
AcDbEntity
  8
0
 62
     7
100
AcDbCircle
 10
14.93200480000002
 20
16.58499999999989
 30
0.0
 40
20.00000000000011
100
AcDbArc
 50
263.0620181653803
 51
263.6465784957709
  0
ARC
  5
9293
330
9208
100
AcDbEntity
  8
0
 62
     7
100
AcDbCircle
 10
19.85200480000001
 20
8.005000000000009
 30
0.0
 40
0.9999999999999779
100
AcDbArc
 50
45.57299599919454
 51
90.0
  0
ARC
  5
9294
330
9208
100
AcDbEntity
  8
0
 62
     7
100
AcDbCircle
 10
19.85200480000001
 20
-8.005000000000009
 30
0.0
 40
1.000000000000001
100
AcDbArc
 50
314.4270040008046
 51
0.0
  0
ARC
  5
9295
330
9208
100
AcDbEntity
  8
0
 62
     7
100
AcDbCircle
 10
16.25200480000001
 20
8.005000000000009
 30
0.0
 40
1.0
100
AcDbArc
 50
90.0
 51
180.0
  0
ARC
  5
9296
330
9208
100
AcDbEntity
  8
0
 62
     7
100
AcDbCircle
 10
18.05200479999998
 20
-6.404999999999986
 30
0.0
 40
1.95
100
AcDbArc
 50
350.3825228837971
 51
0.0
  0
ARC
  5
9297
330
9208
100
AcDbEntity
  8
0
 62
     7
100
AcDbCircle
 10
18.05200479999998
 20
-6.404999999999986
 30
0.0
 40
1.949999999999992
100
AcDbArc
 50
339.3736189501986
 51
345.0000000000001
  0
ARC
  5
9298
330
9208
100
AcDbEntity
  8
0
 62
     7
100
AcDbCircle
 10
18.05200479999998
 20
-6.404999999999986
 30
0.0
 40
1.950000000000006
100
AcDbArc
 50
200.6263810498014
 51
249.3736189501996
  0
ARC
  5
9299
330
9208
100
AcDbEntity
  8
0
 62
     7
100
AcDbCircle
 10
18.05200479999998
 20
-6.404999999999986
 30
0.0
 40
1.95000000000001
100
AcDbArc
 50
99.61747711620569
 51
110.6263810498023
  0
ARC
  5
929A
330
9208
100
AcDbEntity
  8
0
 62
     7
100
AcDbCircle
 10
18.05200479999998
 20
-6.404999999999986
 30
0.0
 40
1.899999999999996
100
AcDbArc
 50
45.00000000000002
 51
73.84784348690004
  0
ARC
  5
929B
330
9208
100
AcDbEntity
  8
0
 62
     7
100
AcDbCircle
 10
18.05200479999998
 20
-6.404999999999986
 30
0.0
 40
1.899999999999997
100
AcDbArc
 50
325.6151078507081
 51
343.8478434869003
  0
ARC
  5
929C
330
9208
100
AcDbEntity
  8
0
 62
     7
100
AcDbCircle
 10
18.05200479999998
 20
-6.404999999999986
 30
0.0
 40
1.899999999999997
100
AcDbArc
 50
16.15215651309974
 51
45.00000000000002
  0
ARC
  5
929D
330
9208
100
AcDbEntity
  8
0
 62
     7
100
AcDbCircle
 10
18.05200479999998
 20
-6.404999999999986
 30
0.0
 40
1.950000000000002
100
AcDbArc
 50
110.6263810498023
 51
159.3736189501982
  0
ARC
  5
929E
330
9208
100
AcDbEntity
  8
0
 62
     7
100
AcDbCircle
 10
18.05200479999998
 20
-6.404999999999986
 30
0.0
 40
1.949999999999991
100
AcDbArc
 50
290.6263810498001
 51
339.3736189501986
  0
ARC
  5
929F
330
9208
100
AcDbEntity
  8
0
 62
     7
100
AcDbCircle
 10
18.05200479999998
 20
-6.404999999999986
 30
0.0
 40
1.899999999999996
100
AcDbArc
 50
124.384892149292
 51
145.6151078507081
  0
ARC
  5
92A0
330
9208
100
AcDbEntity
  8
0
 62
     7
100
AcDbCircle
 10
18.05200479999998
 20
-6.404999999999986
 30
0.0
 40
1.899999999999988
100
AcDbArc
 50
145.6151078507081
 51
163.8478434869015
  0
ARC
  5
92A1
330
9208
100
AcDbEntity
  8
0
 62
     7
100
AcDbCircle
 10
18.05200479999998
 20
-6.404999999999986
 30
0.0
 40
1.9
100
AcDbArc
 50
304.3848921492918
 51
325.6151078507081
  0
ARC
  5
92A2
330
9208
100
AcDbEntity
  8
0
 62
     7
100
AcDbCircle
 10
18.05200479999998
 20
-6.404999999999986
 30
0.0
 40
1.9
100
AcDbArc
 50
286.1521565130983
 51
304.3848921492918
  0
ARC
  5
92A3
330
9208
100
AcDbEntity
  8
0
 62
     7
100
AcDbCircle
 10
18.05200479999998
 20
-6.404999999999986
 30
0.0
 40
1.9
100
AcDbArc
 50
196.1521565130984
 51
253.8478434869018
  0
ARC
  5
92A4
330
9208
100
AcDbEntity
  8
0
 62
     7
100
AcDbCircle
 10
18.05200479999998
 20
-6.404999999999986
 30
0.0
 40
1.899999999999997
100
AcDbArc
 50
106.1521565130997
 51
124.384892149292
  0
ARC
  5
92A5
330
9208
100
AcDbEntity
  8
0
 62
     7
100
AcDbCircle
 10
18.05200479999998
 20
-6.404999999999986
 30
0.0
 40
1.950000000000003
100
AcDbArc
 50
9.617477116203307
 51
20.62638104980153
  0
ARC
  5
92A6
330
9208
100
AcDbEntity
  8
0
 62
     7
100
AcDbCircle
 10
18.05200479999998
 20
-6.404999999999986
 30
0.0
 40
1.949999999999999
100
AcDbArc
 50
0.0
 51
9.617477116203307
  0
ARC
  5
92A7
330
9208
100
AcDbEntity
  8
0
 62
     7
100
AcDbCircle
 10
18.05200479999998
 20
-6.404999999999986
 30
0.0
 40
1.949999999999992
100
AcDbArc
 50
345.0000000000001
 51
350.3825228837971
  0
ARC
  5
92A8
330
9208
100
AcDbEntity
  8
0
 62
     7
100
AcDbCircle
 10
18.05200479999998
 20
-6.404999999999986
 30
0.0
 40
1.950000000000004
100
AcDbArc
 50
69.37361895019749
 51
80.38252288379444
  0
ARC
  5
92A9
330
9208
100
AcDbEntity
  8
0
 62
     7
100
AcDbCircle
 10
18.05200479999998
 20
-6.404999999999986
 30
0.0
 40
1.949999999999992
100
AcDbArc
 50
20.62638104980153
 51
69.37361895019749
  0
ARC
  5
92AA
330
9208
100
AcDbEntity
  8
0
 62
     7
100
AcDbCircle
 10
18.05200479999998
 20
-6.404999999999986
 30
0.0
 40
1.95
100
AcDbArc
 50
189.6174771162041
 51
200.6263810498014
  0
ARC
  5
92AB
330
9208
100
AcDbEntity
  8
0
 62
     7
100
AcDbCircle
 10
18.05200479999998
 20
-6.404999999999986
 30
0.0
 40
1.95000000000001
100
AcDbArc
 50
159.3736189501982
 51
170.3825228837958
  0
ARC
  5
92AC
330
9208
100
AcDbEntity
  8
0
 62
     7
100
AcDbCircle
 10
18.05200479999998
 20
-6.404999999999986
 30
0.0
 40
1.950000000000008
100
AcDbArc
 50
80.38252288379444
 51
99.61747711620569
  0
ARC
  5
92AD
330
9208
100
AcDbEntity
  8
0
 62
     7
100
AcDbCircle
 10
18.05200479999998
 20
-6.404999999999986
 30
0.0
 40
1.95
100
AcDbArc
 50
170.3825228837958
 51
189.6174771162041
  0
ARC
  5
92AE
330
9208
100
AcDbEntity
  8
0
 62
     7
100
AcDbCircle
 10
18.05200479999998
 20
-6.404999999999986
 30
0.0
 40
1.949999999999995
100
AcDbArc
 50
279.6174771162005
 51
290.6263810498001
  0
ARC
  5
92AF
330
9208
100
AcDbEntity
  8
0
 62
     7
100
AcDbCircle
 10
18.05200479999998
 20
-6.404999999999986
 30
0.0
 40
1.949999999999992
100
AcDbArc
 50
249.3736189501996
 51
260.3825228837994
  0
ARC
  5
92B0
330
9208
100
AcDbEntity
  8
0
 62
     7
100
AcDbCircle
 10
18.05200479999998
 20
-6.404999999999986
 30
0.0
 40
1.949999999999995
100
AcDbArc
 50
260.3825228837994
 51
279.6174771162005
  0
ARC
  5
92B1
330
9208
100
AcDbEntity
  8
0
 62
     7
100
AcDbCircle
 10
19.85200480000001
 20
-8.005000000000009
 30
0.0
 40
1.0
100
AcDbArc
 50
270.0
 51
314.4270040008046
  0
ARC
  5
92B2
330
9208
100
AcDbEntity
  8
0
 62
     7
100
AcDbCircle
 10
16.25200480000001
 20
-8.005000000000009
 30
0.0
 40
1.0
100
AcDbArc
 50
180.0
 51
270.0
  0
LWPOLYLINE
  5
92B3
330
9208
100
AcDbEntity
  8
0
 62
     7
100
AcDbPolyline
 90
        8
 70
     0
 43
0.0
 10
17.33201265709492
 20
3.270476883869775
 42
0.0335310637653838
 10
17.31329089504755
 20
3.271318850572598
 42
0.0156165892135584
 10
17.28941606510463
 20
3.270301414414703
 42
0.0071889415064502
 10
17.26096723987685
 20
3.267894183712745
 10
17.24520853922197
 20
3.266316148006695
 42
0.0004735704562555
 10
17.20263031056757
 20
3.261820140191021
 42
-0.0032656780077607
 10
17.15475467428841
 20
3.257047853800718
 42
-0.0060397432882063
 10
17.10200480000014
 20
3.252767990508274
  0
LWPOLYLINE
  5
92B4
330
9208
100
AcDbEntity
  8
0
 62
     7
100
AcDbPolyline
 90
        8
 70
     0
 43
0.0
 38
1.004996417558615E+99
 10
17.10200480000016
 20
-3.252767990508261
 42
-0.0057841437119752
 10
17.15475467428849
 20
-3.257047853800721
 42
-0.0030986770794639
 10
17.20263031056765
 20
-3.261820140191028
 42
0.0004438508909904
 10
17.24520853922196
 20
-3.266316148006695
 10
17.26096723987798
 20
-3.26789418371285
 42
0.0066594803953065
 10
17.28941606510647
 20
-3.270301414414806
 42
0.0140857367880889
 10
17.31329089504882
 20
-3.271318850572584
 42
0.029075955183634
 10
17.33201265709538
 20
-3.27047688386973
  0
LWPOLYLINE
  5
92B5
330
9208
100
AcDbEntity
  8
0
 62
     7
100
AcDbPolyline
 90
        8
 70
     0
 43
0.0
 38
1.004996417558615E+99
 10
17.33201265709492
 20
-0.5395231161302263
 42
0.0335310637654514
 10
17.31329089504755
 20
-0.5386811494274043
 42
0.0156165892136423
 10
17.28941606510463
 20
-0.5396985855852991
 42
0.0071889415065424
 10
17.26096723987685
 20
-0.5421058162872582
 10
17.24520853922197
 20
-0.5436838519933076
 42
0.000473570456253
 10
17.20263031056757
 20
-0.5481798598089815
 42
-0.0032656780077582
 10
17.15475467428841
 20
-0.5529521461992828
 42
-0.0060397432882149
 10
17.10200480000014
 20
-0.5572320094917274
  0
LWPOLYLINE
  5
92B6
330
9208
100
AcDbEntity
  8
0
 62
     7
100
AcDbPolyline
 90
        7
 70
     0
 43
0.0
 38
1.004996417558615E+99
 10
16.616100821069
 20
-3.162470935450638
 42
0.0142366455524767
 10
16.71847418368156
 20
-3.191985082742943
 42
0.0120695717613071
 10
16.81329986998719
 20
-3.21388240731759
 10
16.85709152197306
 20
-3.222370470715873
 42
0.0109464766023359
 10
16.94590726101023
 20
-3.23663611128645
 42
0.0117619100328867
 10
17.04699139911177
 20
-3.248331995093447
 10
17.10200480000016
 20
-3.252767990508261
  0
LWPOLYLINE
  5
92B7
330
9208
100
AcDbEntity
  8
0
 62
     7
100
AcDbPolyline
 90
        7
 70
     0
 43
0.0
 38
1.004996417558615E+99
 10
17.10200480000014
 20
-0.5572320094917274
 42
0.0114955886726863
 10
16.99494164454427
 20
-0.5671050695806743
 42
0.010693155915218
 10
16.89993997955839
 20
-0.580265146700024
 10
16.85709152380381
 20
-0.587629528949833
 42
0.0132133522827158
 10
16.74997761891906
 20
-0.6101877167674827
 42
0.012315081278624
 10
16.65713327402092
 20
-0.6349225981987328
 10
16.61610082105868
 20
-0.6475290645263101
  0
LWPOLYLINE
  5
92B8
330
9208
100
AcDbEntity
  8
0
 62
     7
100
AcDbPolyline
 90
       10
 70
     0
 43
0.0
 38
1.004996417558615E+99
 10
12.71878452584433
 20
-3.292164184512589
 42
0.0713896900981334
 10
12.73912646990165
 20
-3.291515258092779
 42
0.0666714301192336
 10
12.75931935202005
 20
-3.285058393107493
 42
0.0553520163103628
 10
12.77927648011357
 20
-3.272838617559158
 42
0.0432324602286106
 10
12.79891116209622
 20
-3.254900959450196
 10
12.80956552699472
 20
-3.242584230898982
 42
0.0279507230419066
 10
12.82857928705096
 20
-3.215784155475322
 10
12.83691288690262
 20
-3.201967815856306
 42
0.0205298851605054
 10
12.85509923991141
 20
-3.167032021894308
 42
0.016567694174159
 10
12.87247386876198
 20
-3.126852274657494
  0
LWPOLYLINE
  5
92B9
330
9208
100
AcDbEntity
  8
0
 62
     7
100
AcDbPolyline
 90
        8
 70
     0
 43
0.0
 38
1.004996417558615E+99
 10
16.55200479999989
 20
-3.141833507019384
 42
-0.0172357152741053
 10
16.45363200812228
 20
-3.106123295177748
 42
-0.0156206511984958
 10
16.37121760425574
 20
-3.069661539308611
 10
16.2907379072175
 20
-3.027361546687111
 10
16.21532243007297
 20
-2.980605332479683
 42
-0.0289969906790955
 10
16.11019173680183
 20
-2.900816274056373
 42
-0.0309858041169319
 10
16.01892463016775
 20
-2.812265826742595
 10
15.97876816497185
 20
-2.764999999999949
  0
LWPOLYLINE
  5
92BA
330
9208
100
AcDbEntity
  8
0
 62
     7
100
AcDbPolyline
 90
        4
 70
     0
 43
0.0
 38
1.004996417558615E+99
 10
12.87247386876198
 20
-3.126852274657494
 42
0.0000672453982348
 10
12.94413775952127
 20
-2.945977117000836
 10
12.97994661263786
 20
-2.855544234353944
 10
13.01578513557525
 20
-2.764999999999949
  0
LWPOLYLINE
  5
92BB
330
9208
100
AcDbEntity
  8
0
 62
     7
100
AcDbPolyline
 90
       13
 70
     0
 43
0.0
 38
1.004996417558615E+99
 10
12.71878452584433
 20
-0.5178358154874161
 42
-0.0540737045845098
 10
12.73373645593272
 20
-0.5177442886678304
 42
-0.0584544106834491
 10
12.75038643120335
 20
-0.5213637008600364
 10
12.75928426185442
 20
-0.5249252922323393
 42
-0.0430322370880051
 10
12.77401265121024
 20
-0.533362369981703
 42
-0.0397710223195412
 10
12.7902793546071
 20
-0.5464696695280157
 10
12.79891116277707
 20
-0.5550990412774582
 42
-0.0259639365893202
 10
12.81314111282177
 20
-0.5719740014074884
 42
-0.0236660583852533
 10
12.82871446065355
 20
-0.5944295456982303
 10
12.83691288664194
 20
-0.6080321836908241
 42
-0.0132121325114661
 10
12.84801734031893
 20
-0.6285501157737668
 42
-0.0126137944452103
 10
12.8599357948471
 20
-0.6534447134590642
 42
-0.0118616736523889
 10
12.87247386876198
 20
-0.6831477253424936
  0
LWPOLYLINE
  5
92BC
330
9208
100
AcDbEntity
  8
0
 62
     7
100
AcDbPolyline
 90
        6
 70
     0
 43
0.0
 38
1.004996417558615E+99
 10
15.97876816497175
 20
2.76500000000008
 42
-0.0325977349406635
 10
16.06276956961641
 20
2.857577224051703
 42
-0.030522221758657
 10
16.16107974477825
 20
2.941864930859147
 10
16.21532237832621
 20
2.980605297711776
 42
-0.0365061160130735
 10
16.37398103609807
 20
3.070990548300478
 42
-0.0339342447692767
 10
16.55200480000024
 20
3.141833507019082
  0
LWPOLYLINE
  5
92BD
330
9208
100
AcDbEntity
  8
0
 62
     7
100
AcDbPolyline
 90
        4
 70
     0
 43
0.0
 38
1.004996417558615E+99
 10
13.01578513557523
 20
2.765000000000128
 42
0.0000688030150836
 10
12.94413775952126
 20
2.945977117000865
 10
12.90847227567684
 20
3.036012270361933
 10
12.87247386876221
 20
3.126852274657494
  0
LWPOLYLINE
  5
92BE
330
9208
100
AcDbEntity
  8
0
 62
     7
100
AcDbPolyline
 90
        7
 70
     0
 43
0.0
 38
1.004996417558615E+99
 10
17.10200480000014
 20
3.252767990508274
 42
0.0103287961059071
 10
17.01053164590373
 20
3.244652098382688
 42
0.0118254457483567
 10
16.91010503245275
 20
3.231348856690711
 10
16.85709152380381
 20
3.222370471050168
 42
0.0117303694242514
 10
16.76698865005261
 20
3.203806706214678
 42
0.0137357288488717
 10
16.66807279980443
 20
3.178259253991158
 10
16.61610082105868
 20
3.162470935473691
  0
LWPOLYLINE
  5
92BF
330
9208
100
AcDbEntity
  8
0
 62
     7
100
AcDbPolyline
 90
       13
 70
     0
 43
0.0
 38
1.004996417558615E+99
 10
12.71878452584433
 20
3.292164184512586
 42
-0.0601256924076704
 10
12.73631142739282
 20
3.291953258094934
 42
-0.0520112694679805
 10
12.75209506241659
 20
3.288040995659616
 10
12.75928426185442
 20
3.285074707767662
 42
-0.0430322370962311
 10
12.77401265121556
 20
3.276637630014683
 42
-0.0397710223088454
 10
12.79027935461039
 20
3.263530330468931
 10
12.79891116277707
 20
3.254900958722543
 42
-0.0259639365891621
 10
12.8131411128218
 20
3.238025998592486
 42
-0.0236660583851113
 10
12.82871446065356
 20
3.21557045430175
 10
12.83691288664194
 20
3.201967816309178
 42
-0.0132121325112643
 10
12.84801734031893
 20
3.181449884226243
 42
-0.0126137944444185
 10
12.85993579484715
 20
3.156555286540943
 42
-0.0118616736517415
 10
12.87247386876221
 20
3.126852274657494
  0
LWPOLYLINE
  5
92C0
330
9208
100
AcDbEntity
  8
0
 62
     7
100
AcDbPolyline
 90
        8
 70
     0
 43
0.0
 38
1.004996417558615E+99
 10
17.10200480000016
 20
0.5572320094917416
 42
-0.0057841437119978
 10
17.15475467428849
 20
0.552952146199281
 42
-0.0030986770794661
 10
17.20263031056765
 20
0.5481798598089736
 42
0.0004438508909754
 10
17.24520853922196
 20
0.5436838519933076
 10
17.26096723987798
 20
0.5421058162871527
 42
0.0066594803952394
 10
17.28941606510644
 20
0.5396985855851913
 42
0.014085736787834
 10
17.31329089504864
 20
0.5386811494274003
 42
0.0290759551837512
 10
17.33201265709493
 20
0.5395231161302263
  0
LWPOLYLINE
  5
92C1
330
9208
100
AcDbEntity
  8
0
 62
     7
100
AcDbPolyline
 90
        7
 70
     0
 43
0.0
 38
1.004996417558615E+99
 10
16.61610082105863
 20
0.6475290645263101
 42
0.012718828706105
 10
16.70176402404458
 20
0.6223985178213073
 42
0.0136497241492148
 10
16.80175860193109
 20
0.5985210895394429
 10
16.85709152197306
 20
0.5876295292841292
 42
0.0121332295909498
 10
16.96132605154292
 20
0.5712748021562968
 42
0.010540646941768
 10
17.05749887415354
 20
0.560717838625227
 10
17.10200480000016
 20
0.5572320094917416
  0
LWPOLYLINE
  5
92C2
330
9208
100
AcDbEntity
  8
0
 62
     7
100
AcDbPolyline
 90
       12
 70
     0
 43
0.0
 38
1.004996417558615E+99
 10
12.71878452584433
 20
0.5178358154874161
 42
0.0601256927789293
 10
12.73631142750432
 20
0.5180467419202018
 42
0.052011269696002
 10
12.7520950626132
 20
0.5219590044113075
 10
12.75928426208257
 20
0.5249252923383665
 42
0.0430322361030259
 10
12.77401265113331
 20
0.5333623699292321
 42
0.0397710214533923
 10
12.79027935414378
 20
0.5464696690965148
 10
12.79891116209622
 20
0.5550990405498056
 42
0.0333357694253342
 10
12.81820299616752
 20
0.5788021820716362
 42
0.0257926327426025
 10
12.83691288690262
 20
0.6080321841436956
 10
12.84610256449348
 20
0.6248338765137564
 42
0.0183835902305781
 10
12.86389298428892
 20
0.6624130680145124
 10
12.87247386876198
 20
0.6831477253425078
  0
LWPOLYLINE
  5
92C3
330
9208
100
AcDbEntity
  8
0
 62
     7
100
AcDbPolyline
 90
        4
 70
     0
 43
0.0
 38
1.004996417558615E+99
 10
12.87247386876198
 20
0.6831477253425078
 42
0.0000672453982339
 10
12.94413775952127
 20
0.8640228829991656
 10
12.97994661263786
 20
0.9544557656460435
 10
13.01578513557525
 20
1.044999999999945
  0
LWPOLYLINE
  5
92C4
330
9208
100
AcDbEntity
  8
0
 62
     7
100
AcDbPolyline
 90
        8
 70
     0
 43
0.0
 38
1.004996417558615E+99
 10
16.55200479999989
 20
0.6681664929806175
 42
-0.0331237740553586
 10
16.37398106560044
 20
0.7390094375523257
 42
-0.0356503627170927
 10
16.21532243007297
 20
0.8293946675203187
 10
16.16929927013764
 20
0.861954730083339
 42
-0.0251001891186864
 10
16.08441178188682
 20
0.9320250238870215
 10
16.05334326000975
 20
0.961688945321976
 42
-0.0191265343849438
 10
16.00068070039764
 20
1.018430545385189
 10
15.97876816497182
 20
1.044999999999959
  0
LWPOLYLINE
  5
92C5
330
9208
100
AcDbEntity
  8
0
 62
     7
100
AcDbPolyline
 90
       10
 70
     0
 43
0.0
 38
1.004996417558615E+99
 10
15.97876816497185
 20
-1.044999999999945
 42
-0.0269308923277117
 10
16.0498429944254
 20
-0.9651923061939241
 10
16.08441180061221
 20
-0.9320250067404174
 42
-0.0255080698581152
 10
16.17328480058137
 20
-0.8589996628881911
 10
16.21532237832621
 20
-0.8293947022882264
 42
-0.0177011673951069
 10
16.28585099047542
 20
-0.7854453872855803
 42
-0.0191866721761406
 10
16.37121763347848
 20
-0.7403384465963683
 10
16.41043714169405
 20
-0.7221855390639375
 42
-0.0177512161237768
 10
16.50081650472401
 20
-0.6857557426047415
 10
16.55200479999993
 20
-0.6681664929806317
  0
LWPOLYLINE
  5
92C6
330
9208
100
AcDbEntity
  8
0
 62
     7
100
AcDbPolyline
 90
        4
 70
     0
 43
0.0
 38
1.004996417558615E+99
 10
13.01578513557523
 20
-1.044999999999874
 42
0.0000688030150844
 10
12.94413775952126
 20
-0.8640228829991372
 10
12.90847226417216
 20
-0.7739877006010056
 10
12.87247386876198
 20
-0.6831477253424936
  0
ENDBLK
  5
92C8
330
9208
100
AcDbEntity
  8
0
100
AcDbBlockEnd
  0
BLOCK
  5
92CB
330
92C9
100
AcDbEntity
  8
0
100
AcDbBlockBegin
  2
VORDANS1
 70
     0
 10
11.65200479999999
 20
-9.005000000000009
 30
0.0
  3
VORDANS1
  1

  0
INSERT
  5
92CA
330
92C9
100
AcDbEntity
  8
0
100
AcDbBlockReference
  2
MC_1_5-2-STF-3_81__6
 10
11.65200479999999
 20
-9.005000000000009
 30
0.0
  0
ENDBLK
  5
92CC
330
92C9
100
AcDbEntity
  8
0
100
AcDbBlockEnd
  0
ENDSEC
  0
SECTION
  2
ENTITIES
  0
LINE
  5
7749
330
18
100
AcDbEntity
  8
0
100
AcDbLine
 10
-115.3707076761156
 20
253.9182125074963
 30
0.0
 11
-115.3707076761156
 21
394.9182125074961
 31
0.0
  0
LINE
  5
774A
330
18
100
AcDbEntity
  8
0
100
AcDbLine
 10
-130.3707076761161
 20
332.4182125074959
 30
0.0
 11
-130.3707076761156
 21
253.9182125074963
 31
0.0
  0
LINE
  5
774E
330
18
100
AcDbEntity
  8
0
100
AcDbLine
 10
-162.5707076761157
 20
311.9182125074961
 30
0.0
 11
-162.5707076761157
 21
313.9182125074963
 31
0.0
  0
LINE
  5
774F
330
18
100
AcDbEntity
  8
0
100
AcDbLine
 10
-183.5707076761156
 20
311.9182125074962
 30
0.0
 11
-183.5707076761156
 21
313.9182125074964
 31
0.0
  0
LINE
  5
7750
330
18
100
AcDbEntity
  8
0
100
AcDbLine
 10
-184.5707076761157
 20
404.4182125074966
 30
0.0
 11
-184.5707076761157
 21
309.4182125074966
 31
0.0
  0
LINE
  5
7751
330
18
100
AcDbEntity
  8
0
100
AcDbLine
 10
-160.5707076761157
 20
404.4182125074962
 30
0.0
 11
-160.5707076761157
 21
309.4182125074961
 31
0.0
  0
LINE
  5
7755
330
18
100
AcDbEntity
  8
0
100
AcDbLine
 10
-241.1707076761158
 20
477.4182125074964
 30
0.0
 11
-241.1707076761156
 21
244.4182125074962
 31
0.0
  0
LINE
  5
7758
330
18
100
AcDbEntity
  8
0
100
AcDbLine
 10
-160.9707076761158
 20
404.4182125074962
 30
0.0
 11
-160.9707076761156
 21
309.4182125074961
 31
0.0
  0
LINE
  5
7759
330
18
100
AcDbEntity
  8
0
100
AcDbLine
 10
-162.5707076761157
 20
404.4182125074962
 30
0.0
 11
-162.5707076761157
 21
309.4182125074962
 31
0.0
  0
LINE
  5
775B
330
18
100
AcDbEntity
  8
0
100
AcDbLine
 10
-111.1707076761158
 20
493.4182125074971
 30
0.0
 11
-111.1707076761156
 21
228.4182125074966
 31
0.0
  0
LINE
  5
775C
330
18
100
AcDbEntity
  8
0
100
AcDbLine
 10
-236.1707076761156
 20
493.4182125074971
 30
0.0
 11
-228.9207076761154
 21
493.4182125074971
 31
0.0
  0
LINE
  5
775E
330
18
100
AcDbEntity
  8
0
100
AcDbLine
 10
-86.17070767611584
 20
478.4182125074966
 30
0.0
 11
-239.5707076761158
 21
478.4182125074966
 31
0.0
  0
LINE
  5
7761
330
18
100
AcDbEntity
  8
0
100
AcDbLine
 10
-236.1707076761155
 20
478.4182125074967
 30
0.0
 11
-236.1707076761156
 21
493.4182125074971
 31
0.0
  0
LINE
  5
7762
330
18
100
AcDbEntity
  8
0
100
AcDbLine
 10
-239.5707076761158
 20
477.4182125074966
 30
0.0
 11
-239.5707076761158
 21
478.4182125074966
 31
0.0
  0
LINE
  5
7768
330
18
100
AcDbEntity
  8
0
100
AcDbLine
 10
-223.4207076761156
 20
493.4182125074971
 30
0.0
 11
-128.9207076761155
 21
493.4182125074975
 31
0.0
  0
ARC
  5
7773
330
18
100
AcDbEntity
  8
0
100
AcDbCircle
 10
-226.1707076761156
 20
488.418212507497
 30
0.0
 40
2.75
100
AcDbArc
 50
180.0
 51
0.0
  0
LINE
  5
7774
330
18
100
AcDbEntity
  8
0
100
AcDbLine
 10
-223.4207076761156
 20
488.418212507497
 30
0.0
 11
-223.4207076761156
 21
493.4182125074971
 31
0.0
  0
LINE
  5
7775
330
18
100
AcDbEntity
  8
0
100
AcDbLine
 10
-228.9207076761156
 20
488.418212507497
 30
0.0
 11
-228.9207076761154
 21
493.4182125074971
 31
0.0
  0
LINE
  5
7788
330
18
100
AcDbEntity
  8
0
100
AcDbLine
 10
-128.9207076761156
 20
488.4182125074976
 30
0.0
 11
-128.9207076761155
 21
493.4182125074975
 31
0.0
  0
LINE
  5
7789
330
18
100
AcDbEntity
  8
0
100
AcDbLine
 10
-123.4207076761156
 20
488.4182125074973
 30
0.0
 11
-123.4207076761156
 21
493.4182125074973
 31
0.0
  0
ARC
  5
778A
330
18
100
AcDbEntity
  8
0
100
AcDbCircle
 10
-126.1707076761156
 20
488.4182125074973
 30
0.0
 40
2.75
100
AcDbArc
 50
180.0
 51
0.0
  0
LINE
  5
778B
330
18
100
AcDbEntity
  8
0
100
AcDbLine
 10
-123.4207076761156
 20
493.4182125074975
 30
0.0
 11
-111.1707076761158
 21
493.4182125074971
 31
0.0
  0
CIRCLE
  5
779A
330
18
100
AcDbEntity
  8
0
100
AcDbCircle
 10
-173.0707076761157
 20
318.4182125074964
 30
0.0
 40
4.0
  0
LINE
  5
779B
330
18
100
AcDbEntity
  8
0
100
AcDbLine
 10
-183.5707076761157
 20
313.9182125074966
 30
0.0
 11
-162.5707076761157
 21
313.9182125074963
 31
0.0
  0
LINE
  5
779C
330
18
100
AcDbEntity
  8
0
100
AcDbLine
 10
-183.5707076761157
 20
322.9182125074964
 30
0.0
 11
-162.5707076761157
 21
322.9182125074961
 31
0.0
  0
CIRCLE
  5
779D
330
18
100
AcDbEntity
  8
0
100
AcDbCircle
 10
-173.0707076761157
 20
340.4182125074964
 30
0.0
 40
4.0
  0
CIRCLE
  5
779E
330
18
100
AcDbEntity
  8
0
100
AcDbCircle
 10
-173.0707076761157
 20
329.4182125074964
 30
0.0
 40
4.0
  0
CIRCLE
  5
779F
330
18
100
AcDbEntity
  8
0
100
AcDbCircle
 10
-173.0707076761157
 20
351.4182125074964
 30
0.0
 40
4.0
  0
CIRCLE
  5
77A0
330
18
100
AcDbEntity
  8
0
100
AcDbCircle
 10
-173.0707076761157
 20
362.4182125074964
 30
0.0
 40
4.0
  0
LINE
  5
77A1
330
18
100
AcDbEntity
  8
0
100
AcDbLine
 10
-183.5707076761157
 20
344.9182125074964
 30
0.0
 11
-162.5707076761157
 21
344.9182125074962
 31
0.0
  0
LINE
  5
77A2
330
18
100
AcDbEntity
  8
0
100
AcDbLine
 10
-183.5707076761157
 20
346.9182125074966
 30
0.0
 11
-162.5707076761157
 21
346.9182125074964
 31
0.0
  0
LINE
  5
77A3
330
18
100
AcDbEntity
  8
0
100
AcDbLine
 10
-183.5707076761157
 20
335.9182125074966
 30
0.0
 11
-162.5707076761157
 21
335.9182125074963
 31
0.0
  0
LINE
  5
77A4
330
18
100
AcDbEntity
  8
0
100
AcDbLine
 10
-183.5707076761157
 20
333.9182125074964
 30
0.0
 11
-162.5707076761157
 21
333.9182125074961
 31
0.0
  0
LINE
  5
77A5
330
18
100
AcDbEntity
  8
0
100
AcDbLine
 10
-183.5707076761157
 20
355.9182125074964
 30
0.0
 11
-162.5707076761157
 21
355.9182125074962
 31
0.0
  0
LINE
  5
77A6
330
18
100
AcDbEntity
  8
0
100
AcDbLine
 10
-183.5707076761157
 20
357.9182125074966
 30
0.0
 11
-162.5707076761157
 21
357.9182125074964
 31
0.0
  0
LINE
  5
77A7
330
18
100
AcDbEntity
  8
0
100
AcDbLine
 10
-183.5707076761157
 20
366.9182125074964
 30
0.0
 11
-162.5707076761157
 21
366.9182125074962
 31
0.0
  0
LINE
  5
77A8
330
18
100
AcDbEntity
  8
0
100
AcDbLine
 10
-183.5707076761157
 20
324.9182125074966
 30
0.0
 11
-162.5707076761157
 21
324.9182125074963
 31
0.0
  0
CIRCLE
  5
77A9
330
18
100
AcDbEntity
  8
0
100
AcDbCircle
 10
-173.0707076761157
 20
384.4182125074964
 30
0.0
 40
4.0
  0
CIRCLE
  5
77AA
330
18
100
AcDbEntity
  8
0
100
AcDbCircle
 10
-173.0707076761157
 20
373.4182125074964
 30
0.0
 40
4.0
  0
LINE
  5
77AB
330
18
100
AcDbEntity
  8
0
100
AcDbLine
 10
-181.0707076761157
 20
402.2182125074966
 30
0.0
 11
-165.0707076761157
 21
402.2182125074959
 31
0.0
  0
CIRCLE
  5
77AC
330
18
100
AcDbEntity
  8
0
100
AcDbCircle
 10
-173.0707076761157
 20
395.4182125074964
 30
0.0
 40
4.0
  0
LINE
  5
77AD
330
18
100
AcDbEntity
  8
0
100
AcDbLine
 10
-183.5707076761157
 20
377.9182125074964
 30
0.0
 11
-162.5707076761157
 21
377.9182125074961
 31
0.0
  0
LINE
  5
77AE
330
18
100
AcDbEntity
  8
0
100
AcDbLine
 10
-183.5707076761157
 20
379.9182125074966
 30
0.0
 11
-162.5707076761157
 21
379.9182125074964
 31
0.0
  0
LINE
  5
77AF
330
18
100
AcDbEntity
  8
0
100
AcDbLine
 10
-183.5707076761157
 20
390.9182125074966
 30
0.0
 11
-162.5707076761157
 21
390.9182125074964
 31
0.0
  0
LINE
  5
77B0
330
18
100
AcDbEntity
  8
0
100
AcDbLine
 10
-183.5707076761157
 20
388.9182125074964
 30
0.0
 11
-162.5707076761157
 21
388.9182125074962
 31
0.0
  0
LINE
  5
77B1
330
18
100
AcDbEntity
  8
0
100
AcDbLine
 10
-183.5707076761157
 20
399.9182125074964
 30
0.0
 11
-162.5707076761157
 21
399.9182125074962
 31
0.0
  0
LINE
  5
77B2
330
18
100
AcDbEntity
  8
0
100
AcDbLine
 10
-183.5707076761157
 20
401.9182125074967
 30
0.0
 11
-162.5707076761157
 21
401.9182125074964
 31
0.0
  0
LINE
  5
77B3
330
18
100
AcDbEntity
  8
0
100
AcDbLine
 10
-183.5707076761157
 20
368.9182125074966
 30
0.0
 11
-162.5707076761157
 21
368.9182125074964
 31
0.0
  0
LINE
  5
77B4
330
18
100
AcDbEntity
  8
0
100
AcDbLine
 10
-160.5707076761157
 20
404.4182125074962
 30
0.0
 11
-184.5707076761157
 21
404.4182125074966
 31
0.0
  0
LINE
  5
77B6
330
18
100
AcDbEntity
  8
0
100
AcDbLine
 10
-181.0707076761156
 20
357.9182125074966
 30
0.0
 11
-181.0707076761154
 21
366.9182125074964
 31
0.0
  0
LINE
  5
77B7
330
18
100
AcDbEntity
  8
0
100
AcDbLine
 10
-181.0707076761156
 20
379.9182125074966
 30
0.0
 11
-181.0707076761157
 21
388.9182125074962
 31
0.0
  0
LINE
  5
77B8
330
18
100
AcDbEntity
  8
0
100
AcDbLine
 10
-181.0707076761157
 20
401.9182125074967
 30
0.0
 11
-181.0707076761157
 21
402.2182125074963
 31
0.0
  0
LINE
  5
77B9
330
18
100
AcDbEntity
  8
0
100
AcDbLine
 10
-181.0707076761157
 20
390.9182125074964
 30
0.0
 11
-181.0707076761157
 21
399.9182125074964
 31
0.0
  0
LINE
  5
77BA
330
18
100
AcDbEntity
  8
0
100
AcDbLine
 10
-183.5707076761156
 20
399.9182125074962
 30
0.0
 11
-183.5707076761156
 21
401.9182125074964
 31
0.0
  0
LINE
  5
77BB
330
18
100
AcDbEntity
  8
0
100
AcDbLine
 10
-183.5707076761156
 20
388.9182125074962
 30
0.0
 11
-183.5707076761156
 21
390.9182125074964
 31
0.0
  0
LINE
  5
77BC
330
18
100
AcDbEntity
  8
0
100
AcDbLine
 10
-181.0707076761154
 20
368.9182125074964
 30
0.0
 11
-181.0707076761156
 21
377.9182125074964
 31
0.0
  0
LINE
  5
77BD
330
18
100
AcDbEntity
  8
0
100
AcDbLine
 10
-183.5707076761156
 20
377.9182125074961
 30
0.0
 11
-183.5707076761156
 21
379.9182125074964
 31
0.0
  0
LINE
  5
77BE
330
18
100
AcDbEntity
  8
0
100
AcDbLine
 10
-183.5707076761156
 20
366.9182125074962
 30
0.0
 11
-183.5707076761156
 21
368.9182125074964
 31
0.0
  0
LINE
  5
77BF
330
18
100
AcDbEntity
  8
0
100
AcDbLine
 10
-181.0707076761156
 20
335.9182125074969
 30
0.0
 11
-181.0707076761156
 21
344.9182125074966
 31
0.0
  0
LINE
  5
77C0
330
18
100
AcDbEntity
  8
0
100
AcDbLine
 10
-181.0707076761156
 20
346.9182125074966
 30
0.0
 11
-181.0707076761156
 21
355.9182125074964
 31
0.0
  0
LINE
  5
77C1
330
18
100
AcDbEntity
  8
0
100
AcDbLine
 10
-183.5707076761156
 20
355.9182125074962
 30
0.0
 11
-183.5707076761156
 21
357.9182125074964
 31
0.0
  0
LINE
  5
77C2
330
18
100
AcDbEntity
  8
0
100
AcDbLine
 10
-183.5707076761156
 20
344.9182125074962
 30
0.0
 11
-183.5707076761156
 21
346.9182125074964
 31
0.0
  0
LINE
  5
77C3
330
18
100
AcDbEntity
  8
0
100
AcDbLine
 10
-181.0707076761157
 20
313.9182125074966
 30
0.0
 11
-181.0707076761156
 21
322.9182125074964
 31
0.0
  0
LINE
  5
77C4
330
18
100
AcDbEntity
  8
0
100
AcDbLine
 10
-181.0707076761156
 20
324.9182125074964
 30
0.0
 11
-181.0707076761156
 21
333.9182125074964
 31
0.0
  0
LINE
  5
77C5
330
18
100
AcDbEntity
  8
0
100
AcDbLine
 10
-183.5707076761156
 20
333.9182125074962
 30
0.0
 11
-183.5707076761156
 21
335.9182125074964
 31
0.0
  0
LINE
  5
77C6
330
18
100
AcDbEntity
  8
0
100
AcDbLine
 10
-183.5707076761156
 20
322.9182125074962
 30
0.0
 11
-183.5707076761156
 21
324.9182125074964
 31
0.0
  0
LINE
  5
77C7
330
18
100
AcDbEntity
  8
0
100
AcDbLine
 10
-130.3707076761156
 20
348.9182125074959
 30
0.0
 11
-130.3707076761156
 21
394.9182125074962
 31
0.0
  0
LINE
  5
77C9
330
18
100
AcDbEntity
  8
0
100
AcDbLine
 10
-165.0707076761156
 20
357.9182125074964
 30
0.0
 11
-165.0707076761156
 21
366.9182125074962
 31
0.0
  0
LINE
  5
77CB
330
18
100
AcDbEntity
  8
0
100
AcDbLine
 10
-165.0707076761157
 20
379.9182125074964
 30
0.0
 11
-165.0707076761157
 21
388.9182125074962
 31
0.0
  0
LINE
  5
77CE
330
18
100
AcDbEntity
  8
0
100
AcDbLine
 10
-162.5707076761156
 20
386.4182125074966
 30
0.0
 11
-165.0707076761157
 21
386.4182125074968
 31
0.0
  0
LINE
  5
77D1
330
18
100
AcDbEntity
  8
0
100
AcDbLine
 10
-165.0707076761157
 20
401.9182125074964
 30
0.0
 11
-165.0707076761157
 21
402.2182125074959
 31
0.0
  0
LINE
  5
77D6
330
18
100
AcDbEntity
  8
0
100
AcDbLine
 10
-162.5707076761156
 20
393.4182125074966
 30
0.0
 11
-165.0707076761157
 21
393.4182125074966
 31
0.0
  0
LINE
  5
77D7
330
18
100
AcDbEntity
  8
0
100
AcDbLine
 10
-162.5707076761156
 20
397.4182125074966
 30
0.0
 11
-165.0707076761157
 21
397.4182125074968
 31
0.0
  0
LINE
  5
77D8
330
18
100
AcDbEntity
  8
0
100
AcDbLine
 10
-162.5707076761157
 20
399.9182125074962
 30
0.0
 11
-162.5707076761157
 21
401.9182125074964
 31
0.0
  0
LINE
  5
77D9
330
18
100
AcDbEntity
  8
0
100
AcDbLine
 10
-165.0707076761157
 20
390.9182125074962
 30
0.0
 11
-165.0707076761157
 21
399.9182125074962
 31
0.0
  0
LINE
  5
77DA
330
18
100
AcDbEntity
  8
0
100
AcDbLine
 10
-162.5707076761157
 20
388.9182125074962
 30
0.0
 11
-162.5707076761157
 21
390.9182125074964
 31
0.0
  0
LINE
  5
77DE
330
18
100
AcDbEntity
  8
0
100
AcDbLine
 10
-162.5707076761156
 20
364.4182125074966
 30
0.0
 11
-165.0707076761157
 21
364.4182125074968
 31
0.0
  0
LINE
  5
77E3
330
18
100
AcDbEntity
  8
0
100
AcDbLine
 10
-162.5707076761156
 20
371.4182125074966
 30
0.0
 11
-165.0707076761157
 21
371.4182125074966
 31
0.0
  0
LINE
  5
77E4
330
18
100
AcDbEntity
  8
0
100
AcDbLine
 10
-162.5707076761156
 20
375.4182125074966
 30
0.0
 11
-165.0707076761157
 21
375.4182125074969
 31
0.0
  0
LINE
  5
77E5
330
18
100
AcDbEntity
  8
0
100
AcDbLine
 10
-162.5707076761156
 20
382.4182125074966
 30
0.0
 11
-165.0707076761157
 21
382.4182125074966
 31
0.0
  0
LINE
  5
77E8
330
18
100
AcDbEntity
  8
0
100
AcDbLine
 10
-162.5707076761157
 20
377.9182125074961
 30
0.0
 11
-162.5707076761157
 21
379.9182125074964
 31
0.0
  0
LINE
  5
77E9
330
18
100
AcDbEntity
  8
0
100
AcDbLine
 10
-165.0707076761156
 20
368.9182125074964
 30
0.0
 11
-165.0707076761157
 21
377.9182125074964
 31
0.0
  0
LINE
  5
77EA
330
18
100
AcDbEntity
  8
0
100
AcDbLine
 10
-162.5707076761157
 20
366.9182125074962
 30
0.0
 11
-162.5707076761157
 21
368.9182125074964
 31
0.0
  0
LINE
  5
77ED
330
18
100
AcDbEntity
  8
0
100
AcDbLine
 10
-130.3707076761156
 20
394.9182125074962
 30
0.0
 11
-115.3707076761156
 21
394.9182125074961
 31
0.0
  0
LINE
  5
77F2
330
18
100
AcDbEntity
  8
0
100
AcDbLine
 10
-165.0707076761154
 20
335.9182125074964
 30
0.0
 11
-165.0707076761156
 21
344.9182125074962
 31
0.0
  0
LINE
  5
77F7
330
18
100
AcDbEntity
  8
0
100
AcDbLine
 10
-162.5707076761156
 20
338.4182125074965
 30
0.0
 11
-165.0707076761157
 21
338.4182125074966
 31
0.0
  0
LINE
  5
77F8
330
18
100
AcDbEntity
  8
0
100
AcDbLine
 10
-162.5707076761156
 20
342.4182125074965
 30
0.0
 11
-165.0707076761157
 21
342.4182125074969
 31
0.0
  0
LINE
  5
77FD
330
18
100
AcDbEntity
  8
0
100
AcDbLine
 10
-162.5707076761156
 20
349.4182125074966
 30
0.0
 11
-165.0707076761157
 21
349.4182125074966
 31
0.0
  0
LINE
  5
77FE
330
18
100
AcDbEntity
  8
0
100
AcDbLine
 10
-162.5707076761156
 20
353.4182125074966
 30
0.0
 11
-165.0707076761157
 21
353.4182125074968
 31
0.0
  0
LINE
  5
7801
330
18
100
AcDbEntity
  8
0
100
AcDbLine
 10
-162.5707076761156
 20
360.4182125074966
 30
0.0
 11
-165.0707076761157
 21
360.4182125074966
 31
0.0
  0
LINE
  5
7802
330
18
100
AcDbEntity
  8
0
100
AcDbLine
 10
-162.5707076761157
 20
355.9182125074962
 30
0.0
 11
-162.5707076761157
 21
357.9182125074964
 31
0.0
  0
LINE
  5
7803
330
18
100
AcDbEntity
  8
0
100
AcDbLine
 10
-165.0707076761156
 20
346.9182125074961
 30
0.0
 11
-165.0707076761156
 21
355.9182125074962
 31
0.0
  0
LINE
  5
7804
330
18
100
AcDbEntity
  8
0
100
AcDbLine
 10
-162.5707076761157
 20
344.9182125074962
 30
0.0
 11
-162.5707076761157
 21
346.9182125074964
 31
0.0
  0
LINE
  5
7807
330
18
100
AcDbEntity
  8
0
100
AcDbLine
 10
-165.0707076761157
 20
313.9182125074962
 30
0.0
 11
-165.0707076761157
 21
322.9182125074962
 31
0.0
  0
LINE
  5
780C
330
18
100
AcDbEntity
  8
0
100
AcDbLine
 10
-162.5707076761156
 20
316.4182125074966
 30
0.0
 11
-165.0707076761157
 21
316.4182125074966
 31
0.0
  0
LINE
  5
780D
330
18
100
AcDbEntity
  8
0
100
AcDbLine
 10
-162.5707076761156
 20
320.4182125074966
 30
0.0
 11
-165.0707076761157
 21
320.4182125074968
 31
0.0
  0
LINE
  5
7812
330
18
100
AcDbEntity
  8
0
100
AcDbLine
 10
-162.5707076761156
 20
327.4182125074966
 30
0.0
 11
-165.0707076761157
 21
327.4182125074966
 31
0.0
  0
LINE
  5
7813
330
18
100
AcDbEntity
  8
0
100
AcDbLine
 10
-162.5707076761156
 20
331.4182125074966
 30
0.0
 11
-165.0707076761157
 21
331.4182125074968
 31
0.0
  0
LINE
  5
7814
330
18
100
AcDbEntity
  8
0
100
AcDbLine
 10
-162.5707076761157
 20
333.9182125074961
 30
0.0
 11
-162.5707076761157
 21
335.9182125074963
 31
0.0
  0
LINE
  5
7815
330
18
100
AcDbEntity
  8
0
100
AcDbLine
 10
-165.0707076761157
 20
324.9182125074964
 30
0.0
 11
-165.0707076761154
 21
333.9182125074964
 31
0.0
  0
LINE
  5
7816
330
18
100
AcDbEntity
  8
0
100
AcDbLine
 10
-162.5707076761157
 20
322.9182125074961
 30
0.0
 11
-162.5707076761157
 21
324.9182125074963
 31
0.0
  0
LINE
  5
7819
330
18
100
AcDbEntity
  8
0
100
AcDbLine
 10
-135.3707076761156
 20
332.4182125074959
 30
0.0
 11
-135.3707076761156
 21
348.9182125074959
 31
0.0
  0
LINE
  5
781D
330
18
100
AcDbEntity
  8
0
100
AcDbLine
 10
-135.3707076761156
 20
348.9182125074959
 30
0.0
 11
-130.3707076761156
 21
348.9182125074959
 31
0.0
  0
LINE
  5
7820
330
18
100
AcDbEntity
  8
0
100
AcDbLine
 10
-135.3707076761161
 20
332.4182125074959
 30
0.0
 11
-130.3707076761161
 21
332.4182125074959
 31
0.0
  0
LINE
  5
7821
330
18
100
AcDbEntity
  8
0
100
AcDbLine
 10
-236.1707076761156
 20
228.4182125074966
 30
0.0
 11
-228.9207076761156
 21
228.4182125074966
 31
0.0
  0
LINE
  5
7823
330
18
100
AcDbEntity
  8
0
100
AcDbLine
 10
-86.17070767611586
 20
243.4182125074966
 30
0.0
 11
-239.5707076761155
 21
243.4182125074966
 31
0.0
  0
LINE
  5
7826
330
18
100
AcDbEntity
  8
0
100
AcDbLine
 10
-236.1707076761155
 20
243.4182125074966
 30
0.0
 11
-236.1707076761156
 21
228.4182125074966
 31
0.0
  0
LINE
  5
7828
330
18
100
AcDbEntity
  8
0
100
AcDbLine
 10
-239.5707076761155
 20
244.4182125074966
 30
0.0
 11
-239.5707076761155
 21
243.4182125074966
 31
0.0
  0
LINE
  5
782A
330
18
100
AcDbEntity
  8
0
100
AcDbLine
 10
-223.4207076761156
 20
228.4182125074966
 30
0.0
 11
-128.9207076761156
 21
228.4182125074961
 31
0.0
  0
LINE
  5
782B
330
18
100
AcDbEntity
  8
0
100
AcDbLine
 10
-181.0707076761195
 20
311.6182125074967
 30
0.0
 11
-165.0707076761195
 21
311.618212507496
 31
0.0
  0
LINE
  5
782C
330
18
100
AcDbEntity
  8
0
100
AcDbLine
 10
-183.5707076761157
 20
311.9182125074964
 30
0.0
 11
-162.5707076761157
 21
311.9182125074961
 31
0.0
  0
LINE
  5
782D
330
18
100
AcDbEntity
  8
0
100
AcDbLine
 10
-160.5707076761157
 20
309.4182125074961
 30
0.0
 11
-184.5707076761157
 21
309.4182125074966
 31
0.0
  0
LINE
  5
782E
330
18
100
AcDbEntity
  8
0
100
AcDbLine
 10
-181.0707076761157
 20
311.6182125074967
 30
0.0
 11
-181.0707076761157
 21
311.9182125074964
 31
0.0
  0
ARC
  5
782F
330
18
100
AcDbEntity
  8
0
100
AcDbCircle
 10
-226.1707076761156
 20
233.4182125074967
 30
0.0
 40
2.75
100
AcDbArc
 50
0.0
 51
180.0
  0
LINE
  5
7830
330
18
100
AcDbEntity
  8
0
100
AcDbLine
 10
-228.9207076761156
 20
233.4182125074966
 30
0.0
 11
-228.9207076761156
 21
228.4182125074966
 31
0.0
  0
LINE
  5
7831
330
18
100
AcDbEntity
  8
0
100
AcDbLine
 10
-223.4207076761156
 20
233.4182125074966
 30
0.0
 11
-223.4207076761156
 21
228.4182125074966
 31
0.0
  0
LINE
  5
7849
330
18
100
AcDbEntity
  8
0
100
AcDbLine
 10
-165.0707076761157
 20
311.6182125074962
 30
0.0
 11
-165.0707076761157
 21
311.9182125074962
 31
0.0
  0
LINE
  5
7869
330
18
100
AcDbEntity
  8
0
100
AcDbLine
 10
-130.3707076761156
 20
253.9182125074963
 30
0.0
 11
-115.3707076761156
 21
253.9182125074963
 31
0.0
  0
LINE
  5
786C
330
18
100
AcDbEntity
  8
0
100
AcDbLine
 10
-128.9207076761156
 20
233.4182125074963
 30
0.0
 11
-128.9207076761156
 21
228.4182125074964
 31
0.0
  0
LINE
  5
786D
330
18
100
AcDbEntity
  8
0
100
AcDbLine
 10
-123.4207076761156
 20
233.4182125074963
 30
0.0
 11
-123.4207076761156
 21
228.4182125074964
 31
0.0
  0
ARC
  5
786E
330
18
100
AcDbEntity
  8
0
100
AcDbCircle
 10
-126.1707076761156
 20
233.4182125074964
 30
0.0
 40
2.75
100
AcDbArc
 50
0.0
 51
180.0
  0
LINE
  5
786F
330
18
100
AcDbEntity
  8
0
100
AcDbLine
 10
-123.4207076761157
 20
228.4182125074961
 30
0.0
 11
-111.1707076761156
 21
228.4182125074966
 31
0.0
  0
LINE
  5
7870
330
18
100
AcDbEntity
  8
0
100
AcDbLine
 10
172.3563198071535
 20
620.6476860759274
 30
0.0
 11
49.35631980715368
 21
620.6476860759273
 31
0.0
  0
LINE
  5
7871
330
18
100
AcDbEntity
  8
0
100
AcDbLine
 10
125.3563198071536
 20
560.2476860759272
 30
0.0
 11
120.3563198071536
 21
560.2476860759273
 31
0.0
  0
LINE
  5
7872
330
18
100
AcDbEntity
  8
0
100
AcDbLine
 10
125.3563198071536
 20
610.2476860759269
 30
0.0
 11
120.3563198071536
 21
610.2476860759269
 31
0.0
  0
LINE
  5
7873
330
18
100
AcDbEntity
  8
0
100
AcDbLine
 10
49.35631980715368
 20
622.6476860759275
 30
0.0
 11
172.3563198071535
 21
622.6476860759275
 31
0.0
  0
LINE
  5
787A
330
18
100
AcDbEntity
  8
0
100
AcDbLine
 10
172.7563198071536
 20
682.6476860759272
 30
0.0
 11
48.75631980715354
 21
682.6476860759272
 31
0.0
  0
LINE
  5
787B
330
18
100
AcDbEntity
  8
0
100
AcDbLine
 10
239.1563198071535
 20
682.6476860759274
 30
0.0
 11
32.35631980715368
 21
682.6476860759272
 31
0.0
  0
LINE
  5
787C
330
18
100
AcDbEntity
  8
0
100
AcDbLine
 10
240.7563198071537
 20
684.2476860759274
 30
0.0
 11
30.75631980715366
 21
684.2476860759274
 31
0.0
  0
LINE
  5
787D
330
18
100
AcDbEntity
  8
0
100
AcDbLine
 10
49.35631980715368
 20
620.6476860759273
 30
0.0
 11
49.35631980715368
 21
682.6476860759274
 31
0.0
  0
LINE
  5
787E
330
18
100
AcDbEntity
  8
0
100
AcDbLine
 10
85.25631980715354
 20
628.6476860759274
 30
0.0
 11
85.25631980715354
 21
678.6476860759272
 31
0.0
  0
LINE
  5
787F
330
18
100
AcDbEntity
  8
0
100
AcDbLine
 10
88.25631980715355
 20
628.6476860759274
 30
0.0
 11
88.25631980715355
 21
678.6476860759272
 31
0.0
  0
LINE
  5
7880
330
18
100
AcDbEntity
  8
0
100
AcDbLine
 10
109.2563198071535
 20
628.6476860759274
 30
0.0
 11
109.2563198071535
 21
678.6476860759272
 31
0.0
  0
LINE
  5
7881
330
18
100
AcDbEntity
  8
0
100
AcDbLine
 10
112.2563198071535
 20
628.6476860759274
 30
0.0
 11
112.2563198071535
 21
678.6476860759272
 31
0.0
  0
LINE
  5
7882
330
18
100
AcDbEntity
  8
0
100
AcDbLine
 10
97.25631980715355
 20
628.6476860759274
 30
0.0
 11
97.25631980715355
 21
678.6476860759272
 31
0.0
  0
LINE
  5
7883
330
18
100
AcDbEntity
  8
0
100
AcDbLine
 10
100.2563198071535
 20
628.6476860759274
 30
0.0
 11
100.2563198071535
 21
678.6476860759272
 31
0.0
  0
LINE
  5
7884
330
18
100
AcDbEntity
  8
0
100
AcDbLine
 10
121.2563198071535
 20
628.6476860759274
 30
0.0
 11
121.2563198071536
 21
678.6476860759272
 31
0.0
  0
LINE
  5
7885
330
18
100
AcDbEntity
  8
0
100
AcDbLine
 10
73.25631980715354
 20
628.6476860759274
 30
0.0
 11
73.25631980715354
 21
678.6476860759272
 31
0.0
  0
LINE
  5
7886
330
18
100
AcDbEntity
  8
0
100
AcDbLine
 10
76.25631980715354
 20
628.6476860759274
 30
0.0
 11
76.25631980715354
 21
678.6476860759272
 31
0.0
  0
LINE
  5
7887
330
18
100
AcDbEntity
  8
0
100
AcDbLine
 10
52.25631980715355
 20
628.6476860759274
 30
0.0
 11
52.25631980715355
 21
678.6476860759272
 31
0.0
  0
LINE
  5
7888
330
18
100
AcDbEntity
  8
0
100
AcDbLine
 10
61.25631980715354
 20
628.6476860759274
 30
0.0
 11
61.25631980715354
 21
678.6476860759272
 31
0.0
  0
LINE
  5
7889
330
18
100
AcDbEntity
  8
0
100
AcDbLine
 10
64.25631980715355
 20
628.6476860759274
 30
0.0
 11
64.25631980715355
 21
678.6476860759272
 31
0.0
  0
LINE
  5
788A
330
18
100
AcDbEntity
  8
0
100
AcDbLine
 10
32.35631980715368
 20
529.2476860759271
 30
0.0
 11
32.35631980715368
 21
682.6476860759272
 31
0.0
  0
LINE
  5
788D
330
18
100
AcDbEntity
  8
0
100
AcDbLine
 10
32.35631980715368
 20
682.6476860759272
 30
0.0
 11
32.35631980715368
 21
554.2476860759274
 31
0.0
  0
LINE
  5
788E
330
18
100
AcDbEntity
  8
0
100
AcDbLine
 10
30.75631980715366
 20
684.2476860759274
 30
0.0
 11
30.75631980715366
 21
554.2476860759274
 31
0.0
  0
LINE
  5
788F
330
18
100
AcDbEntity
  8
0
100
AcDbLine
 10
52.25631980715355
 20
678.6476860759272
 30
0.0
 11
61.25631980715354
 21
678.6476860759272
 31
0.0
  0
LINE
  5
7890
330
18
100
AcDbEntity
  8
0
100
AcDbLine
 10
49.35631980715368
 20
682.6476860759274
 30
0.0
 11
32.35631980715368
 21
682.6476860759272
 31
0.0
  0
LINE
  5
7894
330
18
100
AcDbEntity
  8
0
100
AcDbLine
 10
88.25631980715355
 20
678.6476860759272
 30
0.0
 11
97.25631980715355
 21
678.6476860759272
 31
0.0
  0
LINE
  5
7895
330
18
100
AcDbEntity
  8
0
100
AcDbLine
 10
64.25631980715355
 20
678.6476860759272
 30
0.0
 11
73.25631980715354
 21
678.6476860759272
 31
0.0
  0
LINE
  5
7896
330
18
100
AcDbEntity
  8
0
100
AcDbLine
 10
76.25631980715354
 20
678.6476860759272
 30
0.0
 11
85.25631980715354
 21
678.6476860759272
 31
0.0
  0
LINE
  5
7897
330
18
100
AcDbEntity
  8
0
100
AcDbLine
 10
112.2563198071535
 20
678.6476860759272
 30
0.0
 11
121.2563198071536
 21
678.6476860759272
 31
0.0
  0
LINE
  5
7898
330
18
100
AcDbEntity
  8
0
100
AcDbLine
 10
100.2563198071535
 20
678.6476860759272
 30
0.0
 11
109.2563198071535
 21
678.6476860759272
 31
0.0
  0
LINE
  5
7899
330
18
100
AcDbEntity
  8
0
100
AcDbLine
 10
52.25631980715355
 20
628.6476860759274
 30
0.0
 11
61.25631980715354
 21
628.6476860759274
 31
0.0
  0
LINE
  5
789A
330
18
100
AcDbEntity
  8
0
100
AcDbLine
 10
55.35631980715368
 20
610.2476860759269
 30
0.0
 11
55.35631980715368
 21
560.2476860759272
 31
0.0
  0
LINE
  5
789B
330
18
100
AcDbEntity
  8
0
100
AcDbLine
 10
50.35631980715368
 20
610.2476860759269
 30
0.0
 11
50.35631980715368
 21
560.2476860759273
 31
0.0
  0
LINE
  5
78AB
330
18
100
AcDbEntity
  8
0
100
AcDbLine
 10
55.35631980715368
 20
610.2476860759269
 30
0.0
 11
50.35631980715368
 21
610.2476860759269
 31
0.0
  0
LINE
  5
78BB
330
18
100
AcDbEntity
  8
0
100
AcDbLine
 10
55.35631980715368
 20
560.2476860759272
 30
0.0
 11
50.35631980715368
 21
560.2476860759273
 31
0.0
  0
LINE
  5
78BD
330
18
100
AcDbEntity
  8
0
100
AcDbLine
 10
32.35631980715368
 20
554.2476860759271
 30
0.0
 11
30.75631980715366
 21
554.2476860759274
 31
0.0
  0
LINE
  5
78BE
330
18
100
AcDbEntity
  8
0
100
AcDbLine
 10
80.35631980715368
 20
610.2476860759269
 30
0.0
 11
80.35631980715368
 21
560.2476860759273
 31
0.0
  0
LINE
  5
78BF
330
18
100
AcDbEntity
  8
0
100
AcDbLine
 10
85.35631980715368
 20
610.2476860759269
 30
0.0
 11
85.35631980715368
 21
560.2476860759272
 31
0.0
  0
LINE
  5
78C0
330
18
100
AcDbEntity
  8
0
100
AcDbLine
 10
65.35631980715368
 20
610.2476860759269
 30
0.0
 11
65.35631980715368
 21
560.2476860759272
 31
0.0
  0
LINE
  5
78C1
330
18
100
AcDbEntity
  8
0
100
AcDbLine
 10
60.35631980715368
 20
610.2476860759269
 30
0.0
 11
60.35631980715368
 21
560.2476860759273
 31
0.0
  0
LINE
  5
78C2
330
18
100
AcDbEntity
  8
0
100
AcDbLine
 10
70.35631980715368
 20
610.2476860759269
 30
0.0
 11
70.35631980715368
 21
560.2476860759273
 31
0.0
  0
LINE
  5
78C3
330
18
100
AcDbEntity
  8
0
100
AcDbLine
 10
75.35631980715368
 20
610.2476860759269
 30
0.0
 11
75.35631980715368
 21
560.2476860759272
 31
0.0
  0
LINE
  5
78C4
330
18
100
AcDbEntity
  8
0
100
AcDbLine
 10
105.3563198071536
 20
610.2476860759269
 30
0.0
 11
105.3563198071536
 21
560.2476860759272
 31
0.0
  0
LINE
  5
78C5
330
18
100
AcDbEntity
  8
0
100
AcDbLine
 10
100.3563198071536
 20
610.2476860759269
 30
0.0
 11
100.3563198071536
 21
560.2476860759273
 31
0.0
  0
LINE
  5
78C6
330
18
100
AcDbEntity
  8
0
100
AcDbLine
 10
90.35631980715368
 20
610.2476860759269
 30
0.0
 11
90.35631980715368
 21
560.2476860759273
 31
0.0
  0
LINE
  5
78C7
330
18
100
AcDbEntity
  8
0
100
AcDbLine
 10
95.35631980715368
 20
610.2476860759269
 30
0.0
 11
95.35631980715368
 21
560.2476860759272
 31
0.0
  0
LINE
  5
78C8
330
18
100
AcDbEntity
  8
0
100
AcDbLine
 10
115.3563198071536
 20
610.2476860759269
 30
0.0
 11
115.3563198071536
 21
560.2476860759272
 31
0.0
  0
LINE
  5
78C9
330
18
100
AcDbEntity
  8
0
100
AcDbLine
 10
110.3563198071536
 20
610.2476860759269
 30
0.0
 11
110.3563198071536
 21
560.2476860759273
 31
0.0
  0
LINE
  5
78CA
330
18
100
AcDbEntity
  8
0
100
AcDbLine
 10
120.3563198071536
 20
610.2476860759269
 30
0.0
 11
120.3563198071536
 21
560.2476860759273
 31
0.0
  0
LINE
  5
78CB
330
18
100
AcDbEntity
  8
0
100
AcDbLine
 10
88.25631980715355
 20
628.6476860759274
 30
0.0
 11
97.25631980715355
 21
628.6476860759274
 31
0.0
  0
LINE
  5
78CC
330
18
100
AcDbEntity
  8
0
100
AcDbLine
 10
64.25631980715355
 20
628.6476860759274
 30
0.0
 11
73.25631980715354
 21
628.6476860759274
 31
0.0
  0
LINE
  5
78CD
330
18
100
AcDbEntity
  8
0
100
AcDbLine
 10
76.25631980715354
 20
628.6476860759274
 30
0.0
 11
85.25631980715354
 21
628.6476860759274
 31
0.0
  0
LINE
  5
78CE
330
18
100
AcDbEntity
  8
0
100
AcDbLine
 10
85.35631980715368
 20
610.2476860759269
 30
0.0
 11
80.35631980715368
 21
610.2476860759269
 31
0.0
  0
LINE
  5
78CF
330
18
100
AcDbEntity
  8
0
100
AcDbLine
 10
65.35631980715368
 20
610.2476860759269
 30
0.0
 11
60.35631980715368
 21
610.2476860759269
 31
0.0
  0
LINE
  5
78D0
330
18
100
AcDbEntity
  8
0
100
AcDbLine
 10
75.35631980715368
 20
610.2476860759269
 30
0.0
 11
70.35631980715368
 21
610.2476860759269
 31
0.0
  0
LINE
  5
78D1
330
18
100
AcDbEntity
  8
0
100
AcDbLine
 10
112.2563198071535
 20
628.6476860759274
 30
0.0
 11
121.2563198071535
 21
628.6476860759274
 31
0.0
  0
LINE
  5
78D2
330
18
100
AcDbEntity
  8
0
100
AcDbLine
 10
100.2563198071535
 20
628.6476860759274
 30
0.0
 11
109.2563198071535
 21
628.6476860759274
 31
0.0
  0
LINE
  5
78D3
330
18
100
AcDbEntity
  8
0
100
AcDbLine
 10
105.3563198071536
 20
610.2476860759269
 30
0.0
 11
100.3563198071536
 21
610.2476860759269
 31
0.0
  0
LINE
  5
78D4
330
18
100
AcDbEntity
  8
0
100
AcDbLine
 10
95.35631980715368
 20
610.2476860759269
 30
0.0
 11
90.35631980715368
 21
610.2476860759269
 31
0.0
  0
LINE
  5
78D5
330
18
100
AcDbEntity
  8
0
100
AcDbLine
 10
115.3563198071536
 20
610.2476860759269
 30
0.0
 11
110.3563198071536
 21
610.2476860759269
 31
0.0
  0
LINE
  5
78D9
330
18
100
AcDbEntity
  8
0
100
AcDbLine
 10
85.35631980715368
 20
560.2476860759272
 30
0.0
 11
80.35631980715368
 21
560.2476860759273
 31
0.0
  0
LINE
  5
78DA
330
18
100
AcDbEntity
  8
0
100
AcDbLine
 10
65.35631980715368
 20
560.2476860759272
 30
0.0
 11
60.35631980715368
 21
560.2476860759273
 31
0.0
  0
LINE
  5
78DB
330
18
100
AcDbEntity
  8
0
100
AcDbLine
 10
75.35631980715368
 20
560.2476860759272
 30
0.0
 11
70.35631980715368
 21
560.2476860759273
 31
0.0
  0
LINE
  5
78DD
330
18
100
AcDbEntity
  8
0
100
AcDbLine
 10
105.3563198071536
 20
560.2476860759272
 30
0.0
 11
100.3563198071536
 21
560.2476860759273
 31
0.0
  0
LINE
  5
78DE
330
18
100
AcDbEntity
  8
0
100
AcDbLine
 10
95.35631980715368
 20
560.2476860759272
 30
0.0
 11
90.35631980715368
 21
560.2476860759273
 31
0.0
  0
LINE
  5
78DF
330
18
100
AcDbEntity
  8
0
100
AcDbLine
 10
115.3563198071536
 20
560.2476860759272
 30
0.0
 11
110.3563198071536
 21
560.2476860759273
 31
0.0
  0
LINE
  5
78E0
330
18
100
AcDbEntity
  8
0
100
AcDbLine
 10
172.3563198071535
 20
620.6476860759274
 30
0.0
 11
172.3563198071536
 21
682.6476860759274
 31
0.0
  0
LINE
  5
78E1
330
18
100
AcDbEntity
  8
0
100
AcDbLine
 10
220.3563198071538
 20
675.2476860759274
 30
0.0
 11
220.3563198071538
 21
625.2476860759278
 31
0.0
  0
LINE
  5
78E2
330
18
100
AcDbEntity
  8
0
100
AcDbLine
 10
225.3563198071538
 20
675.2476860759274
 30
0.0
 11
225.3563198071536
 21
625.2476860759276
 31
0.0
  0
LINE
  5
78E3
330
18
100
AcDbEntity
  8
0
100
AcDbLine
 10
215.3563198071538
 20
675.2476860759274
 30
0.0
 11
215.3563198071537
 21
625.2476860759276
 31
0.0
  0
LINE
  5
78E4
330
18
100
AcDbEntity
  8
0
100
AcDbLine
 10
210.3563198071538
 20
675.2476860759274
 30
0.0
 11
210.3563198071538
 21
625.2476860759278
 31
0.0
  0
LINE
  5
78E5
330
18
100
AcDbEntity
  8
0
100
AcDbLine
 10
200.3563198071538
 20
675.2476860759274
 30
0.0
 11
200.3563198071538
 21
625.2476860759278
 31
0.0
  0
LINE
  5
78E6
330
18
100
AcDbEntity
  8
0
100
AcDbLine
 10
205.3563198071538
 20
675.2476860759274
 30
0.0
 11
205.3563198071536
 21
625.2476860759276
 31
0.0
  0
LINE
  5
78E7
330
18
100
AcDbEntity
  8
0
100
AcDbLine
 10
195.3563198071538
 20
675.2476860759274
 30
0.0
 11
195.3563198071536
 21
625.2476860759276
 31
0.0
  0
LINE
  5
78E8
330
18
100
AcDbEntity
  8
0
100
AcDbLine
 10
190.3563198071538
 20
675.2476860759274
 30
0.0
 11
190.3563198071537
 21
625.2476860759278
 31
0.0
  0
LINE
  5
78E9
330
18
100
AcDbEntity
  8
0
100
AcDbLine
 10
180.3563198071538
 20
675.2476860759271
 30
0.0
 11
180.3563198071538
 21
625.2476860759276
 31
0.0
  0
LINE
  5
78EA
330
18
100
AcDbEntity
  8
0
100
AcDbLine
 10
185.3563198071538
 20
675.2476860759271
 30
0.0
 11
185.3563198071536
 21
625.2476860759274
 31
0.0
  0
LINE
  5
78EB
330
18
100
AcDbEntity
  8
0
100
AcDbLine
 10
133.2563198071535
 20
628.6476860759274
 30
0.0
 11
133.2563198071536
 21
678.6476860759272
 31
0.0
  0
LINE
  5
78EC
330
18
100
AcDbEntity
  8
0
100
AcDbLine
 10
136.2563198071535
 20
628.6476860759274
 30
0.0
 11
136.2563198071536
 21
678.6476860759272
 31
0.0
  0
LINE
  5
78ED
330
18
100
AcDbEntity
  8
0
100
AcDbLine
 10
157.2563198071535
 20
628.6476860759274
 30
0.0
 11
157.2563198071535
 21
678.6476860759272
 31
0.0
  0
LINE
  5
78EE
330
18
100
AcDbEntity
  8
0
100
AcDbLine
 10
160.2563198071535
 20
628.6476860759274
 30
0.0
 11
160.2563198071536
 21
678.6476860759272
 31
0.0
  0
LINE
  5
78EF
330
18
100
AcDbEntity
  8
0
100
AcDbLine
 10
169.2563198071535
 20
628.6476860759274
 30
0.0
 11
169.2563198071536
 21
678.6476860759272
 31
0.0
  0
LINE
  5
78F0
330
18
100
AcDbEntity
  8
0
100
AcDbLine
 10
145.2563198071535
 20
628.6476860759274
 30
0.0
 11
145.2563198071536
 21
678.6476860759272
 31
0.0
  0
LINE
  5
78F1
330
18
100
AcDbEntity
  8
0
100
AcDbLine
 10
148.2563198071535
 20
628.6476860759274
 30
0.0
 11
148.2563198071536
 21
678.6476860759272
 31
0.0
  0
LINE
  5
78F2
330
18
100
AcDbEntity
  8
0
100
AcDbLine
 10
124.2563198071535
 20
628.6476860759274
 30
0.0
 11
124.2563198071536
 21
678.6476860759272
 31
0.0
  0
LINE
  5
78F3
330
18
100
AcDbEntity
  8
0
100
AcDbLine
 10
239.1563198071536
 20
529.2476860759272
 30
0.0
 11
239.1563198071537
 21
682.6476860759272
 31
0.0
  0
LINE
  5
78F5
330
18
100
AcDbEntity
  8
0
100
AcDbLine
 10
239.1563198071535
 20
682.6476860759274
 30
0.0
 11
239.1563198071536
 21
554.2476860759274
 31
0.0
  0
LINE
  5
78F6
330
18
100
AcDbEntity
  8
0
100
AcDbLine
 10
240.7563198071537
 20
684.2476860759274
 30
0.0
 11
240.7563198071536
 21
554.2476860759274
 31
0.0
  0
LINE
  5
78F8
330
18
100
AcDbEntity
  8
0
100
AcDbLine
 10
239.1563198071537
 20
682.6476860759272
 30
0.0
 11
172.3563198071536
 21
682.6476860759274
 31
0.0
  0
LINE
  5
78FA
330
18
100
AcDbEntity
  8
0
100
AcDbLine
 10
148.2563198071536
 20
678.6476860759272
 30
0.0
 11
157.2563198071535
 21
678.6476860759272
 31
0.0
  0
LINE
  5
78FB
330
18
100
AcDbEntity
  8
0
100
AcDbLine
 10
136.2563198071536
 20
678.6476860759272
 30
0.0
 11
145.2563198071536
 21
678.6476860759272
 31
0.0
  0
LINE
  5
78FC
330
18
100
AcDbEntity
  8
0
100
AcDbLine
 10
124.2563198071536
 20
678.6476860759272
 30
0.0
 11
133.2563198071536
 21
678.6476860759272
 31
0.0
  0
LINE
  5
78FD
330
18
100
AcDbEntity
  8
0
100
AcDbLine
 10
185.3563198071538
 20
675.2476860759271
 30
0.0
 11
180.3563198071537
 21
675.2476860759271
 31
0.0
  0
LINE
  5
78FE
330
18
100
AcDbEntity
  8
0
100
AcDbLine
 10
160.2563198071536
 20
678.6476860759272
 30
0.0
 11
169.2563198071536
 21
678.6476860759272
 31
0.0
  0
LINE
  5
7900
330
18
100
AcDbEntity
  8
0
100
AcDbLine
 10
215.3563198071538
 20
675.2476860759274
 30
0.0
 11
210.3563198071537
 21
675.2476860759274
 31
0.0
  0
LINE
  5
7901
330
18
100
AcDbEntity
  8
0
100
AcDbLine
 10
205.3563198071538
 20
675.2476860759274
 30
0.0
 11
200.3563198071537
 21
675.2476860759274
 31
0.0
  0
LINE
  5
7902
330
18
100
AcDbEntity
  8
0
100
AcDbLine
 10
195.3563198071538
 20
675.2476860759274
 30
0.0
 11
190.3563198071537
 21
675.2476860759274
 31
0.0
  0
LINE
  5
7903
330
18
100
AcDbEntity
  8
0
100
AcDbLine
 10
225.3563198071538
 20
675.2476860759274
 30
0.0
 11
220.3563198071537
 21
675.2476860759274
 31
0.0
  0
LINE
  5
7904
330
18
100
AcDbEntity
  8
0
100
AcDbLine
 10
175.3563198071538
 20
610.2476860759272
 30
0.0
 11
175.3563198071536
 21
560.2476860759273
 31
0.0
  0
LINE
  5
7905
330
18
100
AcDbEntity
  8
0
100
AcDbLine
 10
170.3563198071537
 20
610.2476860759272
 30
0.0
 11
170.3563198071537
 21
560.2476860759276
 31
0.0
  0
LINE
  5
7906
330
18
100
AcDbEntity
  8
0
100
AcDbLine
 10
180.3563198071538
 20
610.2476860759272
 30
0.0
 11
180.3563198071538
 21
560.2476860759276
 31
0.0
  0
LINE
  5
7907
330
18
100
AcDbEntity
  8
0
100
AcDbLine
 10
185.3563198071537
 20
610.2476860759272
 30
0.0
 11
185.3563198071536
 21
560.2476860759273
 31
0.0
  0
LINE
  5
7908
330
18
100
AcDbEntity
  8
0
100
AcDbLine
 10
160.3563198071536
 20
610.2476860759272
 30
0.0
 11
160.3563198071536
 21
560.2476860759276
 31
0.0
  0
LINE
  5
7909
330
18
100
AcDbEntity
  8
0
100
AcDbLine
 10
165.3563198071536
 20
610.2476860759272
 30
0.0
 11
165.3563198071536
 21
560.2476860759273
 31
0.0
  0
LINE
  5
790A
330
18
100
AcDbEntity
  8
0
100
AcDbLine
 10
155.3563198071536
 20
610.2476860759272
 30
0.0
 11
155.3563198071536
 21
560.2476860759273
 31
0.0
  0
LINE
  5
790B
330
18
100
AcDbEntity
  8
0
100
AcDbLine
 10
150.3563198071536
 20
610.2476860759272
 30
0.0
 11
150.3563198071536
 21
560.2476860759276
 31
0.0
  0
LINE
  5
790C
330
18
100
AcDbEntity
  8
0
100
AcDbLine
 10
140.3563198071536
 20
610.2476860759272
 30
0.0
 11
140.3563198071536
 21
560.2476860759276
 31
0.0
  0
LINE
  5
790D
330
18
100
AcDbEntity
  8
0
100
AcDbLine
 10
145.3563198071536
 20
610.2476860759272
 30
0.0
 11
145.3563198071536
 21
560.2476860759273
 31
0.0
  0
LINE
  5
790E
330
18
100
AcDbEntity
  8
0
100
AcDbLine
 10
125.3563198071536
 20
610.2476860759269
 30
0.0
 11
125.3563198071536
 21
560.2476860759272
 31
0.0
  0
LINE
  5
790F
330
18
100
AcDbEntity
  8
0
100
AcDbLine
 10
135.3563198071536
 20
610.2476860759269
 30
0.0
 11
135.3563198071536
 21
560.2476860759272
 31
0.0
  0
LINE
  5
7910
330
18
100
AcDbEntity
  8
0
100
AcDbLine
 10
130.3563198071536
 20
610.2476860759269
 30
0.0
 11
130.3563198071536
 21
560.2476860759273
 31
0.0
  0
LINE
  5
7911
330
18
100
AcDbEntity
  8
0
100
AcDbLine
 10
155.3563198071536
 20
610.2476860759272
 30
0.0
 11
150.3563198071536
 21
610.2476860759272
 31
0.0
  0
LINE
  5
7912
330
18
100
AcDbEntity
  8
0
100
AcDbLine
 10
148.2563198071535
 20
628.6476860759274
 30
0.0
 11
157.2563198071535
 21
628.6476860759274
 31
0.0
  0
LINE
  5
7913
330
18
100
AcDbEntity
  8
0
100
AcDbLine
 10
136.2563198071535
 20
628.6476860759274
 30
0.0
 11
145.2563198071535
 21
628.6476860759274
 31
0.0
  0
LINE
  5
7914
330
18
100
AcDbEntity
  8
0
100
AcDbLine
 10
124.2563198071535
 20
628.6476860759274
 30
0.0
 11
133.2563198071535
 21
628.6476860759274
 31
0.0
  0
LINE
  5
7915
330
18
100
AcDbEntity
  8
0
100
AcDbLine
 10
145.3563198071536
 20
610.2476860759272
 30
0.0
 11
140.3563198071536
 21
610.2476860759272
 31
0.0
  0
LINE
  5
7916
330
18
100
AcDbEntity
  8
0
100
AcDbLine
 10
135.3563198071536
 20
610.2476860759269
 30
0.0
 11
130.3563198071536
 21
610.2476860759269
 31
0.0
  0
LINE
  5
7917
330
18
100
AcDbEntity
  8
0
100
AcDbLine
 10
185.3563198071536
 20
625.2476860759274
 30
0.0
 11
180.3563198071538
 21
625.2476860759276
 31
0.0
  0
LINE
  5
7918
330
18
100
AcDbEntity
  8
0
100
AcDbLine
 10
160.2563198071535
 20
628.6476860759274
 30
0.0
 11
169.2563198071535
 21
628.6476860759274
 31
0.0
  0
LINE
  5
7919
330
18
100
AcDbEntity
  8
0
100
AcDbLine
 10
175.3563198071538
 20
610.2476860759272
 30
0.0
 11
170.3563198071536
 21
610.2476860759272
 31
0.0
  0
LINE
  5
791A
330
18
100
AcDbEntity
  8
0
100
AcDbLine
 10
185.3563198071537
 20
610.2476860759272
 30
0.0
 11
180.3563198071536
 21
610.2476860759272
 31
0.0
  0
LINE
  5
791B
330
18
100
AcDbEntity
  8
0
100
AcDbLine
 10
165.3563198071536
 20
610.2476860759272
 30
0.0
 11
160.3563198071536
 21
610.2476860759272
 31
0.0
  0
LINE
  5
791D
330
18
100
AcDbEntity
  8
0
100
AcDbLine
 10
155.3563198071536
 20
560.2476860759273
 30
0.0
 11
150.3563198071536
 21
560.2476860759276
 31
0.0
  0
LINE
  5
791E
330
18
100
AcDbEntity
  8
0
100
AcDbLine
 10
145.3563198071536
 20
560.2476860759273
 30
0.0
 11
140.3563198071536
 21
560.2476860759276
 31
0.0
  0
LINE
  5
791F
330
18
100
AcDbEntity
  8
0
100
AcDbLine
 10
135.3563198071536
 20
560.2476860759272
 30
0.0
 11
130.3563198071536
 21
560.2476860759273
 31
0.0
  0
LINE
  5
7920
330
18
100
AcDbEntity
  8
0
100
AcDbLine
 10
175.3563198071536
 20
560.2476860759273
 30
0.0
 11
170.3563198071537
 21
560.2476860759276
 31
0.0
  0
LINE
  5
7921
330
18
100
AcDbEntity
  8
0
100
AcDbLine
 10
185.3563198071536
 20
560.2476860759273
 30
0.0
 11
180.3563198071538
 21
560.2476860759276
 31
0.0
  0
LINE
  5
7922
330
18
100
AcDbEntity
  8
0
100
AcDbLine
 10
165.3563198071536
 20
560.2476860759273
 30
0.0
 11
160.3563198071536
 21
560.2476860759276
 31
0.0
  0
LINE
  5
7924
330
18
100
AcDbEntity
  8
0
100
AcDbLine
 10
220.3563198071538
 20
610.2476860759272
 30
0.0
 11
220.3563198071538
 21
560.2476860759276
 31
0.0
  0
LINE
  5
7925
330
18
100
AcDbEntity
  8
0
100
AcDbLine
 10
225.3563198071538
 20
610.2476860759272
 30
0.0
 11
225.3563198071536
 21
560.2476860759273
 31
0.0
  0
LINE
  5
7926
330
18
100
AcDbEntity
  8
0
100
AcDbLine
 10
215.3563198071537
 20
610.2476860759272
 30
0.0
 11
215.3563198071537
 21
560.2476860759273
 31
0.0
  0
LINE
  5
7927
330
18
100
AcDbEntity
  8
0
100
AcDbLine
 10
210.3563198071538
 20
610.2476860759272
 30
0.0
 11
210.3563198071538
 21
560.2476860759276
 31
0.0
  0
LINE
  5
7928
330
18
100
AcDbEntity
  8
0
100
AcDbLine
 10
200.3563198071538
 20
610.2476860759272
 30
0.0
 11
200.3563198071538
 21
560.2476860759276
 31
0.0
  0
LINE
  5
7929
330
18
100
AcDbEntity
  8
0
100
AcDbLine
 10
205.3563198071537
 20
610.2476860759272
 30
0.0
 11
205.3563198071536
 21
560.2476860759273
 31
0.0
  0
LINE
  5
792A
330
18
100
AcDbEntity
  8
0
100
AcDbLine
 10
195.3563198071537
 20
610.2476860759272
 30
0.0
 11
195.3563198071536
 21
560.2476860759273
 31
0.0
  0
LINE
  5
792B
330
18
100
AcDbEntity
  8
0
100
AcDbLine
 10
190.3563198071537
 20
610.2476860759272
 30
0.0
 11
190.3563198071537
 21
560.2476860759276
 31
0.0
  0
LINE
  5
792C
330
18
100
AcDbEntity
  8
0
100
AcDbLine
 10
215.3563198071537
 20
625.2476860759276
 30
0.0
 11
210.3563198071538
 21
625.2476860759278
 31
0.0
  0
LINE
  5
792D
330
18
100
AcDbEntity
  8
0
100
AcDbLine
 10
205.3563198071536
 20
625.2476860759276
 30
0.0
 11
200.3563198071538
 21
625.2476860759278
 31
0.0
  0
LINE
  5
792E
330
18
100
AcDbEntity
  8
0
100
AcDbLine
 10
195.3563198071536
 20
625.2476860759276
 30
0.0
 11
190.3563198071537
 21
625.2476860759278
 31
0.0
  0
LINE
  5
792F
330
18
100
AcDbEntity
  8
0
100
AcDbLine
 10
215.3563198071537
 20
610.2476860759272
 30
0.0
 11
210.3563198071536
 21
610.2476860759272
 31
0.0
  0
LINE
  5
7930
330
18
100
AcDbEntity
  8
0
100
AcDbLine
 10
205.3563198071537
 20
610.2476860759272
 30
0.0
 11
200.3563198071536
 21
610.2476860759272
 31
0.0
  0
LINE
  5
7931
330
18
100
AcDbEntity
  8
0
100
AcDbLine
 10
195.3563198071537
 20
610.2476860759272
 30
0.0
 11
190.3563198071536
 21
610.2476860759272
 31
0.0
  0
LINE
  5
7932
330
18
100
AcDbEntity
  8
0
100
AcDbLine
 10
225.3563198071536
 20
625.2476860759276
 30
0.0
 11
220.3563198071538
 21
625.2476860759278
 31
0.0
  0
LINE
  5
7933
330
18
100
AcDbEntity
  8
0
100
AcDbLine
 10
225.3563198071538
 20
610.2476860759272
 30
0.0
 11
220.3563198071536
 21
610.2476860759272
 31
0.0
  0
LINE
  5
7934
330
18
100
AcDbEntity
  8
0
100
AcDbLine
 10
215.3563198071537
 20
560.2476860759273
 30
0.0
 11
210.3563198071538
 21
560.2476860759276
 31
0.0
  0
LINE
  5
7935
330
18
100
AcDbEntity
  8
0
100
AcDbLine
 10
205.3563198071536
 20
560.2476860759273
 30
0.0
 11
200.3563198071538
 21
560.2476860759276
 31
0.0
  0
LINE
  5
7936
330
18
100
AcDbEntity
  8
0
100
AcDbLine
 10
195.3563198071536
 20
560.2476860759273
 30
0.0
 11
190.3563198071537
 21
560.2476860759276
 31
0.0
  0
LINE
  5
7937
330
18
100
AcDbEntity
  8
0
100
AcDbLine
 10
225.3563198071536
 20
560.2476860759273
 30
0.0
 11
220.3563198071538
 21
560.2476860759276
 31
0.0
  0
LINE
  5
7938
330
18
100
AcDbEntity
  8
0
100
AcDbLine
 10
240.7563198071536
 20
554.2476860759274
 30
0.0
 11
239.1563198071535
 21
554.2476860759276
 31
0.0
  0
LINE
  5
7987
330
18
100
AcDbEntity
  8
0
100
AcDbLine
 10
239.1563198071534
 20
243.4182125074964
 30
0.0
 11
239.1563198071533
 21
478.4182125074965
 31
0.0
  0
LINE
  5
7989
330
18
100
AcDbEntity
  8
0
100
AcDbLine
 10
239.1563198071533
 20
493.4182125074973
 30
0.0
 11
239.1563198071537
 21
228.4182125074963
 31
0.0
  0
LINE
  5
798A
330
18
100
AcDbEntity
  8
0
100
AcDbLine
 10
240.7563198071534
 20
493.4182125074973
 30
0.0
 11
240.7563198071536
 21
228.4182125074963
 31
0.0
  0
LINE
  5
7994
330
18
100
AcDbEntity
  8
0
100
AcDbLine
 10
9.256319807154341
 20
311.9182125074956
 30
0.0
 11
9.256319807154341
 21
313.9182125074959
 31
0.0
  0
LINE
  5
7996
330
18
100
AcDbEntity
  8
0
100
AcDbLine
 10
30.75631980715479
 20
311.6182125074957
 30
0.0
 11
30.75631980715423
 21
402.2182125074956
 31
0.0
  0
LINE
  5
7997
330
18
100
AcDbEntity
  8
0
100
AcDbLine
 10
32.35631980715368
 20
243.4182125074961
 30
0.0
 11
32.35631980715368
 21
478.4182125074965
 31
0.0
  0
LINE
  5
7999
330
18
100
AcDbEntity
  8
0
100
AcDbLine
 10
30.75631980715343
 20
477.4182125074966
 30
0.0
 11
30.75631980715366
 21
244.4182125074964
 31
0.0
  0
LINE
  5
799D
330
18
100
AcDbEntity
  8
0
100
AcDbLine
 10
239.1563198071533
 20
478.4182125074965
 30
0.0
 11
32.35631980715368
 21
478.4182125074965
 31
0.0
  0
LINE
  5
799F
330
18
100
AcDbEntity
  8
0
100
AcDbLine
 10
32.35631980715368
 20
477.4182125074964
 30
0.0
 11
30.75631980715366
 21
477.4182125074964
 31
0.0
  0
LINE
  5
79D6
330
18
100
AcDbEntity
  8
0
100
AcDbLine
 10
21.25631980715457
 20
357.9182125074959
 30
0.0
 11
21.25631980715434
 21
366.9182125074959
 31
0.0
  0
LINE
  5
79D7
330
18
100
AcDbEntity
  8
0
100
AcDbLine
 10
20.25631980715411
 20
358.4182125074959
 30
0.0
 11
20.25631980715411
 21
366.4182125074959
 31
0.0
  0
LINE
  5
79D8
330
18
100
AcDbEntity
  8
0
100
AcDbLine
 10
17.25631980715411
 20
360.4182125074961
 30
0.0
 11
17.25631980715411
 21
364.4182125074959
 31
0.0
  0
LINE
  5
79D9
330
18
100
AcDbEntity
  8
0
100
AcDbLine
 10
9.256319807154341
 20
366.9182125074961
 30
0.0
 11
30.75631980715434
 21
366.9182125074959
 31
0.0
  0
LINE
  5
79DA
330
18
100
AcDbEntity
  8
0
100
AcDbLine
 10
9.256319807154341
 20
366.9182125074961
 30
0.0
 11
30.75631980715434
 21
366.9182125074959
 31
0.0
  0
LINE
  5
79DB
330
18
100
AcDbEntity
  8
0
100
AcDbLine
 10
9.256319807154341
 20
377.9182125074961
 30
0.0
 11
30.75631980715434
 21
377.9182125074959
 31
0.0
  0
LINE
  5
79DC
330
18
100
AcDbEntity
  8
0
100
AcDbLine
 10
9.256319807154341
 20
379.9182125074963
 30
0.0
 11
30.75631980715434
 21
379.9182125074961
 31
0.0
  0
LINE
  5
79DD
330
18
100
AcDbEntity
  8
0
100
AcDbLine
 10
9.256319807154341
 20
388.9182125074961
 30
0.0
 11
30.75631980715434
 21
388.9182125074959
 31
0.0
  0
LINE
  5
79DE
330
18
100
AcDbEntity
  8
0
100
AcDbLine
 10
9.256319807154341
 20
368.9182125074963
 30
0.0
 11
30.75631980715434
 21
368.9182125074961
 31
0.0
  0
LINE
  5
79DF
330
18
100
AcDbEntity
  8
0
100
AcDbLine
 10
9.256319807154341
 20
368.9182125074963
 30
0.0
 11
30.75631980715434
 21
368.9182125074961
 31
0.0
  0
LINE
  5
79E0
330
18
100
AcDbEntity
  8
0
100
AcDbLine
 10
21.25631980715411
 20
402.2182125074956
 30
0.0
 11
30.75631980715423
 21
402.2182125074956
 31
0.0
  0
LINE
  5
79E1
330
18
100
AcDbEntity
  8
0
100
AcDbLine
 10
9.256319807154341
 20
399.9182125074961
 30
0.0
 11
30.75631980715434
 21
399.9182125074959
 31
0.0
  0
LINE
  5
79E2
330
18
100
AcDbEntity
  8
0
100
AcDbLine
 10
9.256319807154341
 20
401.9182125074963
 30
0.0
 11
30.75631980715434
 21
401.9182125074961
 31
0.0
  0
LINE
  5
79E3
330
18
100
AcDbEntity
  8
0
100
AcDbLine
 10
9.256319807154341
 20
390.9182125074963
 30
0.0
 11
30.75631980715434
 21
390.9182125074961
 31
0.0
  0
LINE
  5
79E4
330
18
100
AcDbEntity
  8
0
100
AcDbLine
 10
21.25631980715434
 20
379.9182125074961
 30
0.0
 11
21.25631980715434
 21
388.9182125074956
 31
0.0
  0
LINE
  5
79E5
330
18
100
AcDbEntity
  8
0
100
AcDbLine
 10
17.25631980715411
 20
382.4182125074961
 30
0.0
 11
17.25631980715411
 21
386.4182125074959
 31
0.0
  0
LINE
  5
79E6
330
18
100
AcDbEntity
  8
0
100
AcDbLine
 10
20.25631980715411
 20
380.4182125074959
 30
0.0
 11
20.25631980715411
 21
388.4182125074959
 31
0.0
  0
LINE
  5
79E7
330
18
100
AcDbEntity
  8
0
100
AcDbLine
 10
20.25631980715434
 20
388.4182125074959
 30
0.0
 11
21.25631980715411
 21
388.4182125074959
 31
0.0
  0
ARC
  5
79E8
330
18
100
AcDbEntity
  8
0
100
AcDbCircle
 10
21.6220390242961
 20
383.1196336817835
 30
0.0
 40
5.471757172276427
100
AcDbArc
 50
104.4535042664253
 51
142.9266307855393
  0
LINE
  5
79E9
330
18
100
AcDbEntity
  8
0
100
AcDbLine
 10
21.25631980715434
 20
401.9182125074961
 30
0.0
 11
21.25631980715411
 21
402.2182125074956
 31
0.0
  0
LINE
  5
79EA
330
18
100
AcDbEntity
  8
0
100
AcDbLine
 10
17.25631980715411
 20
393.4182125074961
 30
0.0
 11
17.25631980715411
 21
397.4182125074959
 31
0.0
  0
ARC
  5
79EB
330
18
100
AcDbEntity
  8
0
100
AcDbCircle
 10
21.6220390242961
 20
394.1196336817835
 30
0.0
 40
5.471757172276427
100
AcDbArc
 50
104.4535042664253
 51
142.9266307855393
  0
LINE
  5
79EC
330
18
100
AcDbEntity
  8
0
100
AcDbLine
 10
20.25631980715434
 20
399.4182125074959
 30
0.0
 11
21.25631980715411
 21
399.4182125074959
 31
0.0
  0
LINE
  5
79ED
330
18
100
AcDbEntity
  8
0
100
AcDbLine
 10
9.256319807154454
 20
399.9182125074959
 30
0.0
 11
9.256319807154454
 21
401.9182125074961
 31
0.0
  0
LINE
  5
79EE
330
18
100
AcDbEntity
  8
0
100
AcDbLine
 10
20.25631980715434
 20
391.4182125074963
 30
0.0
 11
21.25631980715411
 21
391.4182125074963
 31
0.0
  0
LINE
  5
79EF
330
18
100
AcDbEntity
  8
0
100
AcDbLine
 10
21.25631980715434
 20
390.9182125074961
 30
0.0
 11
21.25631980715434
 21
399.9182125074961
 31
0.0
  0
ARC
  5
79F0
330
18
100
AcDbEntity
  8
0
100
AcDbCircle
 10
21.6220390242961
 20
396.7167913332083
 30
0.0
 40
5.471757172276427
100
AcDbArc
 50
217.0733692144606
 51
255.5464957335746
  0
LINE
  5
79F1
330
18
100
AcDbEntity
  8
0
100
AcDbLine
 10
20.25631980715411
 20
391.4182125074959
 30
0.0
 11
20.25631980715411
 21
399.4182125074959
 31
0.0
  0
LINE
  5
79F2
330
18
100
AcDbEntity
  8
0
100
AcDbLine
 10
9.256319807154341
 20
388.9182125074959
 30
0.0
 11
9.256319807154341
 21
390.9182125074961
 31
0.0
  0
ARC
  5
79F3
330
18
100
AcDbEntity
  8
0
100
AcDbCircle
 10
21.6220390242961
 20
361.1196336817835
 30
0.0
 40
5.471757172276427
100
AcDbArc
 50
104.4535042664253
 51
142.9266307855393
  0
LINE
  5
79F4
330
18
100
AcDbEntity
  8
0
100
AcDbLine
 10
20.25631980715434
 20
366.4182125074959
 30
0.0
 11
21.25631980715411
 21
366.4182125074959
 31
0.0
  0
LINE
  5
79F5
330
18
100
AcDbEntity
  8
0
100
AcDbLine
 10
17.25631980715411
 20
371.4182125074961
 30
0.0
 11
17.25631980715411
 21
375.4182125074959
 31
0.0
  0
ARC
  5
79F6
330
18
100
AcDbEntity
  8
0
100
AcDbCircle
 10
21.6220390242961
 20
372.1196336817835
 30
0.0
 40
5.471757172276427
100
AcDbArc
 50
104.4535042664253
 51
142.9266307855393
  0
LINE
  5
79F7
330
18
100
AcDbEntity
  8
0
100
AcDbLine
 10
20.25631980715434
 20
377.4182125074959
 30
0.0
 11
21.25631980715411
 21
377.4182125074959
 31
0.0
  0
LINE
  5
79F8
330
18
100
AcDbEntity
  8
0
100
AcDbLine
 10
9.256319807154341
 20
377.9182125074959
 30
0.0
 11
9.256319807154341
 21
379.9182125074961
 31
0.0
  0
LINE
  5
79F9
330
18
100
AcDbEntity
  8
0
100
AcDbLine
 10
20.25631980715434
 20
380.4182125074963
 30
0.0
 11
21.25631980715411
 21
380.4182125074963
 31
0.0
  0
ARC
  5
79FA
330
18
100
AcDbEntity
  8
0
100
AcDbCircle
 10
21.6220390242961
 20
385.7167913332084
 30
0.0
 40
5.471757172276427
100
AcDbArc
 50
217.0733692144606
 51
255.5464957335746
  0
LINE
  5
79FB
330
18
100
AcDbEntity
  8
0
100
AcDbLine
 10
20.25631980715434
 20
369.4182125074963
 30
0.0
 11
21.25631980715411
 21
369.4182125074963
 31
0.0
  0
LINE
  5
79FC
330
18
100
AcDbEntity
  8
0
100
AcDbLine
 10
21.25631980715434
 20
368.9182125074961
 30
0.0
 11
21.25631980715434
 21
377.9182125074959
 31
0.0
  0
ARC
  5
79FD
330
18
100
AcDbEntity
  8
0
100
AcDbCircle
 10
21.6220390242961
 20
374.7167913332083
 30
0.0
 40
5.471757172276427
100
AcDbArc
 50
217.0733692144606
 51
255.5464957335746
  0
LINE
  5
79FE
330
18
100
AcDbEntity
  8
0
100
AcDbLine
 10
20.25631980715411
 20
369.4182125074959
 30
0.0
 11
20.25631980715411
 21
377.4182125074959
 31
0.0
  0
LINE
  5
79FF
330
18
100
AcDbEntity
  8
0
100
AcDbLine
 10
9.256319807154341
 20
366.9182125074959
 30
0.0
 11
9.256319807154341
 21
368.9182125074961
 31
0.0
  0
LINE
  5
7A00
330
18
100
AcDbEntity
  8
0
100
AcDbLine
 10
9.256319807154341
 20
366.9182125074959
 30
0.0
 11
9.256319807154341
 21
368.9182125074961
 31
0.0
  0
LINE
  5
7A22
330
18
100
AcDbEntity
  8
0
100
AcDbLine
 10
9.256319807154341
 20
313.9182125074961
 30
0.0
 11
30.75631980715434
 21
313.9182125074959
 31
0.0
  0
LINE
  5
7A23
330
18
100
AcDbEntity
  8
0
100
AcDbLine
 10
9.256319807154341
 20
322.9182125074961
 30
0.0
 11
30.75631980715434
 21
322.9182125074959
 31
0.0
  0
LINE
  5
7A24
330
18
100
AcDbEntity
  8
0
100
AcDbLine
 10
9.256319807154341
 20
333.9182125074961
 30
0.0
 11
30.75631980715434
 21
333.9182125074959
 31
0.0
  0
LINE
  5
7A25
330
18
100
AcDbEntity
  8
0
100
AcDbLine
 10
9.256319807154341
 20
335.9182125074963
 30
0.0
 11
30.75631980715434
 21
335.9182125074961
 31
0.0
  0
LINE
  5
7A26
330
18
100
AcDbEntity
  8
0
100
AcDbLine
 10
9.256319807154341
 20
344.9182125074961
 30
0.0
 11
30.75631980715434
 21
344.9182125074959
 31
0.0
  0
LINE
  5
7A27
330
18
100
AcDbEntity
  8
0
100
AcDbLine
 10
9.256319807154341
 20
324.9182125074963
 30
0.0
 11
30.75631980715434
 21
324.9182125074961
 31
0.0
  0
LINE
  5
7A28
330
18
100
AcDbEntity
  8
0
100
AcDbLine
 10
9.256319807154341
 20
357.9182125074964
 30
0.0
 11
30.75631980715434
 21
357.9182125074961
 31
0.0
  0
LINE
  5
7A29
330
18
100
AcDbEntity
  8
0
100
AcDbLine
 10
9.256319807154341
 20
355.9182125074961
 30
0.0
 11
30.75631980715434
 21
355.9182125074959
 31
0.0
  0
LINE
  5
7A2A
330
18
100
AcDbEntity
  8
0
100
AcDbLine
 10
9.256319807154341
 20
346.9182125074963
 30
0.0
 11
30.75631980715434
 21
346.9182125074961
 31
0.0
  0
LINE
  5
7A2B
330
18
100
AcDbEntity
  8
0
100
AcDbLine
 10
21.25631980715457
 20
335.9182125074961
 30
0.0
 11
21.25631980715457
 21
344.9182125074959
 31
0.0
  0
LINE
  5
7A2C
330
18
100
AcDbEntity
  8
0
100
AcDbLine
 10
20.25631980715411
 20
336.4182125074959
 30
0.0
 11
20.25631980715411
 21
344.4182125074959
 31
0.0
  0
ARC
  5
7A2D
330
18
100
AcDbEntity
  8
0
100
AcDbCircle
 10
21.6220390242961
 20
341.7167913332083
 30
0.0
 40
5.471757172276427
100
AcDbArc
 50
217.0733692144606
 51
255.5464957335746
  0
LINE
  5
7A2E
330
18
100
AcDbEntity
  8
0
100
AcDbLine
 10
20.25631980715434
 20
344.4182125074959
 30
0.0
 11
21.25631980715411
 21
344.4182125074959
 31
0.0
  0
ARC
  5
7A2F
330
18
100
AcDbEntity
  8
0
100
AcDbCircle
 10
21.6220390242961
 20
339.1196336817835
 30
0.0
 40
5.471757172276427
100
AcDbArc
 50
104.4535042664253
 51
142.9266307855393
  0
LINE
  5
7A30
330
18
100
AcDbEntity
  8
0
100
AcDbLine
 10
17.25631980715411
 20
338.4182125074961
 30
0.0
 11
17.25631980715411
 21
342.4182125074959
 31
0.0
  0
ARC
  5
7A31
330
18
100
AcDbEntity
  8
0
100
AcDbCircle
 10
21.6220390242961
 20
363.7167913332084
 30
0.0
 40
5.471757172276427
100
AcDbArc
 50
217.0733692144606
 51
255.5464957335746
  0
LINE
  5
7A32
330
18
100
AcDbEntity
  8
0
100
AcDbLine
 10
20.25631980715434
 20
358.4182125074963
 30
0.0
 11
21.25631980715411
 21
358.4182125074963
 31
0.0
  0
LINE
  5
7A33
330
18
100
AcDbEntity
  8
0
100
AcDbLine
 10
9.256319807154341
 20
355.9182125074959
 30
0.0
 11
9.256319807154341
 21
357.9182125074961
 31
0.0
  0
LINE
  5
7A34
330
18
100
AcDbEntity
  8
0
100
AcDbLine
 10
20.25631980715434
 20
355.4182125074959
 30
0.0
 11
21.25631980715411
 21
355.4182125074959
 31
0.0
  0
ARC
  5
7A35
330
18
100
AcDbEntity
  8
0
100
AcDbCircle
 10
21.6220390242961
 20
350.1196336817835
 30
0.0
 40
5.471757172276427
100
AcDbArc
 50
104.4535042664253
 51
142.9266307855393
  0
LINE
  5
7A36
330
18
100
AcDbEntity
  8
0
100
AcDbLine
 10
17.25631980715411
 20
349.4182125074961
 30
0.0
 11
17.25631980715411
 21
353.4182125074959
 31
0.0
  0
LINE
  5
7A37
330
18
100
AcDbEntity
  8
0
100
AcDbLine
 10
20.25631980715434
 20
347.4182125074964
 30
0.0
 11
21.25631980715411
 21
347.4182125074964
 31
0.0
  0
LINE
  5
7A38
330
18
100
AcDbEntity
  8
0
100
AcDbLine
 10
21.25631980715457
 20
346.9182125074961
 30
0.0
 11
21.25631980715457
 21
355.9182125074956
 31
0.0
  0
LINE
  5
7A39
330
18
100
AcDbEntity
  8
0
100
AcDbLine
 10
20.25631980715411
 20
347.4182125074959
 30
0.0
 11
20.25631980715411
 21
355.4182125074959
 31
0.0
  0
ARC
  5
7A3A
330
18
100
AcDbEntity
  8
0
100
AcDbCircle
 10
21.6220390242961
 20
352.7167913332084
 30
0.0
 40
5.471757172276427
100
AcDbArc
 50
217.0733692144606
 51
255.5464957335746
  0
LINE
  5
7A3B
330
18
100
AcDbEntity
  8
0
100
AcDbLine
 10
9.256319807154341
 20
344.9182125074959
 30
0.0
 11
9.256319807154341
 21
346.9182125074961
 31
0.0
  0
LINE
  5
7A3C
330
18
100
AcDbEntity
  8
0
100
AcDbLine
 10
21.25631980715457
 20
313.9182125074959
 30
0.0
 11
21.25631980715434
 21
322.9182125074959
 31
0.0
  0
LINE
  5
7A3D
330
18
100
AcDbEntity
  8
0
100
AcDbLine
 10
20.25631980715434
 20
322.4182125074956
 30
0.0
 11
21.25631980715411
 21
322.4182125074956
 31
0.0
  0
ARC
  5
7A3E
330
18
100
AcDbEntity
  8
0
100
AcDbCircle
 10
21.62203902429604
 20
317.1196336817833
 30
0.0
 40
5.471757172276427
100
AcDbArc
 50
104.4535042664253
 51
142.9266307855393
  0
LINE
  5
7A3F
330
18
100
AcDbEntity
  8
0
100
AcDbLine
 10
17.25631980715411
 20
316.4182125074959
 30
0.0
 11
17.25631980715411
 21
320.4182125074956
 31
0.0
  0
LINE
  5
7A40
330
18
100
AcDbEntity
  8
0
100
AcDbLine
 10
20.25631980715434
 20
314.4182125074961
 30
0.0
 11
21.25631980715411
 21
314.4182125074961
 31
0.0
  0
LINE
  5
7A41
330
18
100
AcDbEntity
  8
0
100
AcDbLine
 10
20.25631980715411
 20
314.4182125074956
 30
0.0
 11
20.25631980715411
 21
322.4182125074956
 31
0.0
  0
ARC
  5
7A42
330
18
100
AcDbEntity
  8
0
100
AcDbCircle
 10
21.62203902429604
 20
319.7167913332081
 30
0.0
 40
5.471757172276427
100
AcDbArc
 50
217.0733692144606
 51
255.5464957335746
  0
LINE
  5
7A43
330
18
100
AcDbEntity
  8
0
100
AcDbLine
 10
17.25631980715411
 20
327.4182125074961
 30
0.0
 11
17.25631980715411
 21
331.4182125074959
 31
0.0
  0
ARC
  5
7A44
330
18
100
AcDbEntity
  8
0
100
AcDbCircle
 10
21.62203902429604
 20
328.1196336817835
 30
0.0
 40
5.471757172276427
100
AcDbArc
 50
104.4535042664253
 51
142.9266307855393
  0
LINE
  5
7A45
330
18
100
AcDbEntity
  8
0
100
AcDbLine
 10
20.25631980715434
 20
333.4182125074959
 30
0.0
 11
21.25631980715411
 21
333.4182125074959
 31
0.0
  0
LINE
  5
7A46
330
18
100
AcDbEntity
  8
0
100
AcDbLine
 10
9.256319807154341
 20
333.9182125074959
 30
0.0
 11
9.256319807154341
 21
335.9182125074961
 31
0.0
  0
LINE
  5
7A47
330
18
100
AcDbEntity
  8
0
100
AcDbLine
 10
20.25631980715434
 20
336.4182125074963
 30
0.0
 11
21.25631980715411
 21
336.4182125074963
 31
0.0
  0
LINE
  5
7A48
330
18
100
AcDbEntity
  8
0
100
AcDbLine
 10
20.25631980715434
 20
325.4182125074963
 30
0.0
 11
21.25631980715411
 21
325.4182125074963
 31
0.0
  0
LINE
  5
7A49
330
18
100
AcDbEntity
  8
0
100
AcDbLine
 10
21.25631980715434
 20
324.9182125074961
 30
0.0
 11
21.25631980715457
 21
333.9182125074959
 31
0.0
  0
ARC
  5
7A4A
330
18
100
AcDbEntity
  8
0
100
AcDbCircle
 10
21.62203902429604
 20
330.7167913332083
 30
0.0
 40
5.471757172276427
100
AcDbArc
 50
217.0733692144606
 51
255.5464957335746
  0
LINE
  5
7A4B
330
18
100
AcDbEntity
  8
0
100
AcDbLine
 10
20.25631980715411
 20
325.4182125074959
 30
0.0
 11
20.25631980715411
 21
333.4182125074959
 31
0.0
  0
LINE
  5
7A4C
330
18
100
AcDbEntity
  8
0
100
AcDbLine
 10
9.256319807154341
 20
322.9182125074959
 30
0.0
 11
9.256319807154341
 21
324.9182125074961
 31
0.0
  0
LINE
  5
7A7D
330
18
100
AcDbEntity
  8
0
100
AcDbLine
 10
240.7563198071533
 20
493.4182125074973
 30
0.0
 11
239.1563198071533
 21
493.418212507497
 31
0.0
  0
LINE
  5
7AA0
330
18
100
AcDbEntity
  8
0
100
AcDbLine
 10
239.1563198071534
 20
243.4182125074964
 30
0.0
 11
32.35631980715368
 21
243.4182125074961
 31
0.0
  0
LINE
  5
7AA5
330
18
100
AcDbEntity
  8
0
100
AcDbLine
 10
32.35631980715362
 20
244.4182125074963
 30
0.0
 11
30.75631980715366
 21
244.4182125074964
 31
0.0
  0
LINE
  5
7AA8
330
18
100
AcDbEntity
  8
0
100
AcDbLine
 10
21.25631980715479
 20
311.6182125074957
 30
0.0
 11
30.75631980715479
 21
311.6182125074957
 31
0.0
  0
LINE
  5
7AA9
330
18
100
AcDbEntity
  8
0
100
AcDbLine
 10
9.256319807154341
 20
311.9182125074959
 30
0.0
 11
30.75631980715434
 21
311.9182125074956
 31
0.0
  0
LINE
  5
7AAA
330
18
100
AcDbEntity
  8
0
100
AcDbLine
 10
21.25631980715479
 20
311.6182125074957
 30
0.0
 11
21.25631980715479
 21
311.9182125074956
 31
0.0
  0
LINE
  5
7B74
330
18
100
AcDbEntity
  8
0
100
AcDbLine
 10
240.7563198071536
 20
228.4182125074963
 30
0.0
 11
239.1563198071535
 21
228.4182125074963
 31
0.0
  0
LINE
  5
7C83
330
18
100
AcDbEntity
  8
0
100
AcDbLine
 10
-111.1707076761158
 20
477.4182125074964
 30
0.0
 11
-241.1707076761158
 21
477.4182125074964
 31
0.0
  0
LINE
  5
7C84
330
18
100
AcDbEntity
  8
0
100
AcDbLine
 10
-111.1707076761156
 20
244.4182125075331
 30
0.0
 11
-241.1707076761156
 21
244.4182125074962
 31
0.0
  0
LINE
  5
7C8A
330
18
100
AcDbEntity
  8
0
100
AcDbLine
 10
9.256319807153715
 20
626.6476860759278
 30
0.0
 11
30.75631980715371
 21
626.6476860759279
 31
0.0
  0
LINE
  5
7C8B
330
18
100
AcDbEntity
  8
0
100
AcDbLine
 10
9.256319807153488
 20
605.6476860759278
 30
0.0
 11
30.75631980715348
 21
605.6476860759279
 31
0.0
  0
LINE
  5
7C8C
330
18
100
AcDbEntity
  8
0
100
AcDbLine
 10
9.256319807153715
 20
626.6476860759278
 30
0.0
 11
9.256319807153488
 21
605.6476860759278
 31
0.0
  0
LINE
  5
7C8D
330
18
100
AcDbEntity
  8
0
100
AcDbLine
 10
30.75631980715371
 20
626.6476860759279
 30
0.0
 11
30.75631980715348
 21
605.6476860759279
 31
0.0
  0
ARC
  5
7CB1
330
18
100
AcDbEntity
  8
0
100
AcDbCircle
 10
-141.9707076761157
 20
395.4182125074964
 30
0.0
 40
2.0
100
AcDbArc
 50
345.5224878140701
 51
14.47751218592986
  0
ARC
  5
7CB2
330
18
100
AcDbEntity
  8
0
100
AcDbCircle
 10
-141.9707076761157
 20
395.4182125074964
 30
0.0
 40
2.0
100
AcDbArc
 50
165.5224878140701
 51
194.4775121859298
  0
CIRCLE
  5
7CB3
330
18
100
AcDbEntity
  8
0
100
AcDbCircle
 10
-141.9707076761157
 20
395.4182125074964
 30
0.0
 40
2.5
  0
CIRCLE
  5
7CB4
330
18
100
AcDbEntity
  8
0
100
AcDbCircle
 10
-141.9707076761157
 20
395.4182125074964
 30
0.0
 40
3.0
  0
LINE
  5
7CB5
330
18
100
AcDbEntity
  8
0
100
AcDbLine
 10
-143.907199349219
 20
394.9182125074964
 30
0.0
 11
-142.4707076761156
 21
394.9182125074964
 31
0.0
  0
LINE
  5
7CB6
330
18
100
AcDbEntity
  8
0
100
AcDbLine
 10
-141.4707076761156
 20
393.4817208343926
 30
0.0
 11
-141.4707076761156
 21
394.9182125074964
 31
0.0
  0
LINE
  5
7CB7
330
18
100
AcDbEntity
  8
0
100
AcDbLine
 10
-142.4707076761156
 20
393.4817208343926
 30
0.0
 11
-142.4707076761156
 21
394.9182125074964
 31
0.0
  0
ARC
  5
7CB8
330
18
100
AcDbEntity
  8
0
100
AcDbCircle
 10
-141.9707076761157
 20
395.4182125074964
 30
0.0
 40
2.0
100
AcDbArc
 50
255.5224878140713
 51
284.4775121859278
  0
LINE
  5
7CB9
330
18
100
AcDbEntity
  8
0
100
AcDbLine
 10
-141.4707076761156
 20
394.9182125074964
 30
0.0
 11
-140.0342160030119
 21
394.9182125074964
 31
0.0
  0
LINE
  5
7CBA
330
18
100
AcDbEntity
  8
0
100
AcDbLine
 10
-143.907199349219
 20
395.9182125074964
 30
0.0
 11
-142.4707076761156
 21
395.9182125074964
 31
0.0
  0
ARC
  5
7CBB
330
18
100
AcDbEntity
  8
0
100
AcDbCircle
 10
-141.9707076761157
 20
395.4182125074964
 30
0.0
 40
2.0
100
AcDbArc
 50
75.52248781407134
 51
104.4775121859278
  0
LINE
  5
7CBC
330
18
100
AcDbEntity
  8
0
100
AcDbLine
 10
-142.4707076761156
 20
395.9182125074964
 30
0.0
 11
-142.4707076761156
 21
397.3547041806002
 31
0.0
  0
LINE
  5
7CBD
330
18
100
AcDbEntity
  8
0
100
AcDbLine
 10
-141.4707076761156
 20
395.9182125074964
 30
0.0
 11
-141.4707076761156
 21
397.3547041806002
 31
0.0
  0
LINE
  5
7CBE
330
18
100
AcDbEntity
  8
0
100
AcDbLine
 10
-141.4707076761156
 20
395.9182125074964
 30
0.0
 11
-140.0342160030119
 21
395.9182125074964
 31
0.0
  0
ARC
  5
7CBF
330
18
100
AcDbEntity
  8
0
100
AcDbCircle
 10
-141.9707076761155
 20
255.4182125074964
 30
0.0
 40
2.0
100
AcDbArc
 50
345.5224878140701
 51
14.47751218592986
  0
ARC
  5
7CC0
330
18
100
AcDbEntity
  8
0
100
AcDbCircle
 10
-141.9707076761155
 20
255.4182125074964
 30
0.0
 40
2.0
100
AcDbArc
 50
165.5224878140701
 51
194.4775121859298
  0
CIRCLE
  5
7CC1
330
18
100
AcDbEntity
  8
0
100
AcDbCircle
 10
-141.9707076761155
 20
255.4182125074964
 30
0.0
 40
2.5
  0
CIRCLE
  5
7CC2
330
18
100
AcDbEntity
  8
0
100
AcDbCircle
 10
-141.9707076761155
 20
255.4182125074964
 30
0.0
 40
3.0
  0
LINE
  5
7CC3
330
18
100
AcDbEntity
  8
0
100
AcDbLine
 10
-143.9071993492188
 20
254.9182125074964
 30
0.0
 11
-142.4707076761155
 21
254.9182125074964
 31
0.0
  0
LINE
  5
7CC4
330
18
100
AcDbEntity
  8
0
100
AcDbLine
 10
-141.4707076761155
 20
253.4817208343926
 30
0.0
 11
-141.4707076761155
 21
254.9182125074964
 31
0.0
  0
LINE
  5
7CC5
330
18
100
AcDbEntity
  8
0
100
AcDbLine
 10
-142.4707076761155
 20
253.4817208343926
 30
0.0
 11
-142.4707076761155
 21
254.9182125074964
 31
0.0
  0
ARC
  5
7CC6
330
18
100
AcDbEntity
  8
0
100
AcDbCircle
 10
-141.9707076761155
 20
255.4182125074964
 30
0.0
 40
2.0
100
AcDbArc
 50
255.5224878140713
 51
284.4775121859278
  0
LINE
  5
7CC7
330
18
100
AcDbEntity
  8
0
100
AcDbLine
 10
-141.4707076761155
 20
254.9182125074964
 30
0.0
 11
-140.0342160030118
 21
254.9182125074964
 31
0.0
  0
LINE
  5
7CC8
330
18
100
AcDbEntity
  8
0
100
AcDbLine
 10
-143.9071993492188
 20
255.9182125074964
 30
0.0
 11
-142.4707076761155
 21
255.9182125074964
 31
0.0
  0
ARC
  5
7CC9
330
18
100
AcDbEntity
  8
0
100
AcDbCircle
 10
-141.9707076761155
 20
255.4182125074964
 30
0.0
 40
2.0
100
AcDbArc
 50
75.52248781407134
 51
104.4775121859278
  0
LINE
  5
7CCA
330
18
100
AcDbEntity
  8
0
100
AcDbLine
 10
-142.4707076761155
 20
255.9182125074964
 30
0.0
 11
-142.4707076761155
 21
257.3547041806002
 31
0.0
  0
LINE
  5
7CCB
330
18
100
AcDbEntity
  8
0
100
AcDbLine
 10
-141.4707076761155
 20
255.9182125074964
 30
0.0
 11
-141.4707076761155
 21
257.3547041806002
 31
0.0
  0
LINE
  5
7CCC
330
18
100
AcDbEntity
  8
0
100
AcDbLine
 10
-141.4707076761155
 20
255.9182125074964
 30
0.0
 11
-140.0342160030118
 21
255.9182125074964
 31
0.0
  0
CIRCLE
  5
7CE9
330
18
100
AcDbEntity
  8
0
100
AcDbCircle
 10
-156.4707076761155
 20
256.4182125074959
 30
0.0
 40
3.333333333333333
  0
CIRCLE
  5
7CEA
330
18
100
AcDbEntity
  8
0
100
AcDbCircle
 10
-156.4707076761155
 20
256.4182125074959
 30
0.0
 40
4.0
  0
LINE
  5
7CEB
330
18
100
AcDbEntity
  8
0
100
AcDbLine
 10
-159.0526965735866
 20
255.7515458408293
 30
0.0
 11
-157.1373743427822
 21
255.7515458408293
 31
0.0
  0
LINE
  5
7CEC
330
18
100
AcDbEntity
  8
0
100
AcDbLine
 10
-159.0526965735866
 20
257.0848791741626
 30
0.0
 11
-157.1373743427822
 21
257.0848791741626
 31
0.0
  0
ARC
  5
7CED
330
18
100
AcDbEntity
  8
0
100
AcDbCircle
 10
-156.4707076761155
 20
256.4182125074959
 30
0.0
 40
2.666666666666666
100
AcDbArc
 50
165.5224878140701
 51
194.4775121859298
  0
ARC
  5
7CEE
330
18
100
AcDbEntity
  8
0
100
AcDbCircle
 10
-156.4707076761155
 20
256.4182125074959
 30
0.0
 40
2.666666666666666
100
AcDbArc
 50
345.5224878140701
 51
14.47751218592986
  0
LINE
  5
7CEF
330
18
100
AcDbEntity
  8
0
100
AcDbLine
 10
-155.8040410094488
 20
253.8362236100242
 30
0.0
 11
-155.8040410094488
 21
255.7515458408293
 31
0.0
  0
LINE
  5
7CF0
330
18
100
AcDbEntity
  8
0
100
AcDbLine
 10
-157.1373743427822
 20
253.8362236100242
 30
0.0
 11
-157.1373743427822
 21
255.7515458408293
 31
0.0
  0
ARC
  5
7CF1
330
18
100
AcDbEntity
  8
0
100
AcDbCircle
 10
-156.4707076761155
 20
256.4182125074959
 30
0.0
 40
2.666666666666666
100
AcDbArc
 50
255.5224878140713
 51
284.4775121859278
  0
LINE
  5
7CF2
330
18
100
AcDbEntity
  8
0
100
AcDbLine
 10
-155.8040410094488
 20
255.7515458408293
 30
0.0
 11
-153.8887187786438
 21
255.7515458408293
 31
0.0
  0
ARC
  5
7CF3
330
18
100
AcDbEntity
  8
0
100
AcDbCircle
 10
-156.4707076761155
 20
256.4182125074959
 30
0.0
 40
2.666666666666666
100
AcDbArc
 50
75.52248781407134
 51
104.4775121859278
  0
LINE
  5
7CF4
330
18
100
AcDbEntity
  8
0
100
AcDbLine
 10
-157.1373743427822
 20
257.0848791741626
 30
0.0
 11
-157.1373743427822
 21
259.0002014049677
 31
0.0
  0
LINE
  5
7CF5
330
18
100
AcDbEntity
  8
0
100
AcDbLine
 10
-155.8040410094488
 20
257.0848791741626
 30
0.0
 11
-155.8040410094488
 21
259.0002014049677
 31
0.0
  0
LINE
  5
7CF6
330
18
100
AcDbEntity
  8
0
100
AcDbLine
 10
-155.8040410094488
 20
257.0848791741626
 30
0.0
 11
-153.8887187786438
 21
257.0848791741626
 31
0.0
  0
ELLIPSE
  5
7D5B
330
18
100
AcDbEntity
  8
0
100
AcDbEllipse
 10
-119.4707076761155
 20
383.893212507496
 30
0.0
 11
0.5
 21
0.0
 31
0.0
210
0.0
220
0.0
230
1.0
 40
0.95
 41
0.0
 42
6.283184999999999
  0
ELLIPSE
  5
7D5C
330
18
100
AcDbEntity
  8
0
100
AcDbEllipse
 10
-122.5707076761155
 20
375.0432125074961
 30
0.0
 11
0.0
 21
0.775
 31
0.0
210
0.0
220
0.0
230
1.0
 40
0.9677419999999999
 41
0.0
 42
6.283184999999999
  0
ELLIPSE
  5
7D5D
330
18
100
AcDbEntity
  8
0
100
AcDbEllipse
 10
-122.5707076761155
 20
352.0432125074961
 30
0.0
 11
0.0
 21
0.775
 31
0.0
210
0.0
220
0.0
230
1.0
 40
0.9677419999999999
 41
0.0
 42
6.283184999999999
  0
ELLIPSE
  5
7D5E
330
18
100
AcDbEntity
  8
0
100
AcDbEllipse
 10
-120.7457076761155
 20
358.6682125074961
 30
0.0
 11
0.0
 21
1.25
 31
0.0
210
0.0
220
0.0
230
1.0
 40
0.98
 41
3.380894
 42
4.528311
  0
ELLIPSE
  5
7D5F
330
18
100
AcDbEntity
  8
0
100
AcDbEllipse
 10
-120.7457076761155
 20
368.018212507496
 30
0.0
 11
0.0
 21
1.25
 31
0.0
210
0.0
220
0.0
230
1.0
 40
0.98
 41
4.509903999999999
 42
6.059223999999999
  0
ELLIPSE
  5
7D60
330
18
100
AcDbEntity
  8
0
100
AcDbEllipse
 10
-124.4207076761155
 20
357.6932125074961
 30
0.0
 11
0.0
 21
1.25
 31
0.0
210
0.0
220
0.0
230
1.0
 40
0.98
 41
1.708854999999999
 42
3.380894
  0
ELLIPSE
  5
7D61
330
18
100
AcDbEntity
  8
0
100
AcDbEllipse
 10
-124.4207076761155
 20
368.9432125074961
 30
0.0
 11
0.0
 21
1.25
 31
0.0
210
0.0
220
0.0
230
1.0
 40
0.98
 41
6.03468
 42
8.053399307179585
  0
ELLIPSE
  5
7D62
330
18
100
AcDbEntity
  8
0
100
AcDbEllipse
 10
-120.7457076761155
 20
310.4932125074961
 30
0.0
 11
0.0
 21
1.25
 31
0.0
210
0.0
220
0.0
230
1.0
 40
0.98
 41
3.380894
 42
4.528311
  0
ELLIPSE
  5
7D63
330
18
100
AcDbEntity
  8
0
100
AcDbEllipse
 10
-124.4207076761155
 20
309.518212507496
 30
0.0
 11
0.0
 21
1.25
 31
0.0
210
0.0
220
0.0
230
1.0
 40
0.98
 41
1.708854999999999
 42
3.380894
  0
ELLIPSE
  5
7D64
330
18
100
AcDbEntity
  8
0
100
AcDbEllipse
 10
-122.5707076761155
 20
303.8682125074961
 30
0.0
 11
0.0
 21
0.775
 31
0.0
210
0.0
220
0.0
230
1.0
 40
0.9677419999999999
 41
0.0
 42
6.283184999999999
  0
ELLIPSE
  5
7D65
330
18
100
AcDbEntity
  8
0
100
AcDbEllipse
 10
-120.7457076761155
 20
324.5182125074959
 30
0.0
 11
0.0
 21
1.25
 31
0.0
210
0.0
220
0.0
230
1.0
 40
0.98
 41
4.509903999999999
 42
6.059223999999999
  0
ELLIPSE
  5
7D66
330
18
100
AcDbEntity
  8
0
100
AcDbEllipse
 10
-124.4207076761155
 20
325.4432125074961
 30
0.0
 11
0.0
 21
1.25
 31
0.0
210
0.0
220
0.0
230
1.0
 40
0.98
 41
6.03468
 42
8.053399307179585
  0
ELLIPSE
  5
7D67
330
18
100
AcDbEntity
  8
0
100
AcDbEllipse
 10
-122.5707076761155
 20
331.543212507496
 30
0.0
 11
0.0
 21
0.775
 31
0.0
210
0.0
220
0.0
230
1.0
 40
0.9677419999999999
 41
0.0
 42
6.283184999999999
  0
ELLIPSE
  5
7D68
330
18
100
AcDbEntity
  8
0
100
AcDbEllipse
 10
-120.7457076761155
 20
266.5682125074962
 30
0.0
 11
0.0
 21
1.25
 31
0.0
210
0.0
220
0.0
230
1.0
 40
0.98
 41
3.380894
 42
4.528311
  0
ELLIPSE
  5
7D69
330
18
100
AcDbEntity
  8
0
100
AcDbEllipse
 10
-124.4207076761155
 20
265.5932125074961
 30
0.0
 11
0.0
 21
1.25
 31
0.0
210
0.0
220
0.0
230
1.0
 40
0.98
 41
1.708854999999999
 42
3.380894
  0
ELLIPSE
  5
7D6A
330
18
100
AcDbEntity
  8
0
100
AcDbEllipse
 10
-122.5707076761155
 20
259.9932125074961
 30
0.0
 11
0.0
 21
0.775
 31
0.0
210
0.0
220
0.0
230
1.0
 40
0.9677419999999999
 41
0.0
 42
6.283184999999999
  0
ELLIPSE
  5
7D6B
330
18
100
AcDbEntity
  8
0
100
AcDbEllipse
 10
-120.7457076761155
 20
290.518212507496
 30
0.0
 11
0.0
 21
1.25
 31
0.0
210
0.0
220
0.0
230
1.0
 40
0.98
 41
4.509903999999999
 42
6.059223999999999
  0
ELLIPSE
  5
7D6C
330
18
100
AcDbEntity
  8
0
100
AcDbEllipse
 10
-124.4207076761155
 20
291.4432125074962
 30
0.0
 11
0.0
 21
1.25
 31
0.0
210
0.0
220
0.0
230
1.0
 40
0.98
 41
6.03468
 42
8.053399307179585
  0
ELLIPSE
  5
7D6D
330
18
100
AcDbEntity
  8
0
100
AcDbEllipse
 10
-122.5707076761155
 20
297.5432125074961
 30
0.0
 11
0.0
 21
0.775
 31
0.0
210
0.0
220
0.0
230
1.0
 40
0.9677419999999999
 41
0.0
 42
6.283184999999999
  0
LINE
  5
7D6E
330
18
100
AcDbEntity
  8
0
100
AcDbLine
 10
-121.3957076761155
 20
366.218212507496
 30
0.0
 11
-121.3957076761155
 21
365.2432125074961
 31
0.0
  0
LINE
  5
7D6F
330
18
100
AcDbEntity
  8
0
100
AcDbLine
 10
-121.0457076761156
 20
365.2432125074961
 30
0.0
 11
-121.0457076761156
 21
366.218212507496
 31
0.0
  0
LINE
  5
7D70
330
18
100
AcDbEntity
  8
0
100
AcDbLine
 10
-124.1707076761156
 20
366.218212507496
 30
0.0
 11
-124.1707076761156
 21
365.2432125074961
 31
0.0
  0
LINE
  5
7D71
330
18
100
AcDbEntity
  8
0
100
AcDbLine
 10
-123.8207076761156
 20
365.2432125074961
 30
0.0
 11
-123.8207076761156
 21
366.218212507496
 31
0.0
  0
LWPOLYLINE
  5
7D72
330
18
100
AcDbEntity
  8
0
100
AcDbPolyline
 90
        4
 70
     1
 43
0.0
 10
-120.6957076761155
 20
368.343212507496
 10
-124.3957076761155
 20
368.343212507496
 10
-124.3957076761155
 20
358.1182125074961
 10
-120.6957076761155
 20
358.1182125074961
  0
LINE
  5
7D73
330
18
100
AcDbEntity
  8
0
100
AcDbLine
 10
-119.5207076761155
 20
358.6682125074961
 30
0.0
 11
-119.5207076761155
 21
368.018212507496
 31
0.0
  0
LINE
  5
7D74
330
18
100
AcDbEntity
  8
0
100
AcDbLine
 10
-125.6457076761155
 20
368.9432125074961
 30
0.0
 11
-125.6457076761155
 21
357.593212507496
 31
0.0
  0
LINE
  5
7D75
330
18
100
AcDbEntity
  8
0
100
AcDbLine
 10
-127.1957076761156
 20
377.4182125074961
 30
0.0
 11
-127.1957076761156
 21
348.7432125074961
 31
0.0
  0
LINE
  5
7D76
330
18
100
AcDbEntity
  8
0
100
AcDbLine
 10
-117.9707076761155
 20
348.7432125074961
 30
0.0
 11
-117.9707076761155
 21
377.4182125074961
 31
0.0
  0
LINE
  5
7D79
330
18
100
AcDbEntity
  8
0
100
AcDbLine
 10
-121.3957076761155
 20
288.2932125074961
 30
0.0
 11
-121.3957076761155
 21
287.3182125074962
 31
0.0
  0
LINE
  5
7D7A
330
18
100
AcDbEntity
  8
0
100
AcDbLine
 10
-121.0457076761156
 20
287.3182125074962
 30
0.0
 11
-121.0457076761156
 21
288.2932125074961
 31
0.0
  0
LINE
  5
7D7B
330
18
100
AcDbEntity
  8
0
100
AcDbLine
 10
-124.1707076761156
 20
288.2932125074961
 30
0.0
 11
-124.1707076761156
 21
287.3182125074962
 31
0.0
  0
LINE
  5
7D7C
330
18
100
AcDbEntity
  8
0
100
AcDbLine
 10
-123.8207076761156
 20
287.3182125074962
 30
0.0
 11
-123.8207076761156
 21
288.2932125074961
 31
0.0
  0
LWPOLYLINE
  5
7D7D
330
18
100
AcDbEntity
  8
0
100
AcDbPolyline
 90
        4
 70
     1
 43
0.0
 10
-120.6957076761155
 20
290.5932125074961
 10
-124.3957076761155
 20
290.5932125074961
 10
-124.3957076761155
 20
266.7932125074961
 10
-120.6957076761155
 20
266.7932125074961
  0
LINE
  5
7D7E
330
18
100
AcDbEntity
  8
0
100
AcDbLine
 10
-119.5207076761155
 20
266.3432125074961
 30
0.0
 11
-119.5207076761155
 21
290.518212507496
 31
0.0
  0
LINE
  5
7D7F
330
18
100
AcDbEntity
  8
0
100
AcDbLine
 10
-125.6457076761155
 20
291.4432125074962
 30
0.0
 11
-125.6457076761155
 21
265.4182125074961
 31
0.0
  0
LINE
  5
7D80
330
18
100
AcDbEntity
  8
0
100
AcDbLine
 10
-127.1957076761156
 20
299.9182125074961
 30
0.0
 11
-127.1957076761156
 21
256.6182125074961
 31
0.0
  0
LINE
  5
7D81
330
18
100
AcDbEntity
  8
0
100
AcDbLine
 10
-117.9707076761155
 20
256.6182125074961
 30
0.0
 11
-117.9707076761155
 21
299.9182125074961
 31
0.0
  0
LINE
  5
7D83
330
18
100
AcDbEntity
  8
0
100
AcDbLine
 10
-124.2707076761155
 20
260.8932125074961
 30
0.0
 11
-126.3957076761155
 21
260.8932125074961
 31
0.0
  0
LINE
  5
7D84
330
18
100
AcDbEntity
  8
0
100
AcDbLine
 10
-118.7707076761155
 20
262.968212507496
 30
0.0
 11
-126.3957076761155
 21
262.968212507496
 31
0.0
  0
LINE
  5
7D85
330
18
100
AcDbEntity
  8
0
100
AcDbLine
 10
-127.1957076761156
 20
256.6182125074961
 30
0.0
 11
-117.9707076761155
 21
256.6182125074961
 31
0.0
  0
LINE
  5
7D86
330
18
100
AcDbEntity
  8
0
100
AcDbLine
 10
-126.3957076761155
 20
260.8932125074961
 30
0.0
 11
-126.3957076761155
 21
262.968212507496
 31
0.0
  0
LINE
  5
7D87
330
18
100
AcDbEntity
  8
0
100
AcDbLine
 10
-121.4207076761156
 20
268.8182125074962
 30
0.0
 11
-121.4207076761156
 21
267.843212507496
 31
0.0
  0
LINE
  5
7D88
330
18
100
AcDbEntity
  8
0
100
AcDbLine
 10
-121.0707076761156
 20
267.843212507496
 30
0.0
 11
-121.0707076761156
 21
268.8182125074962
 31
0.0
  0
LINE
  5
7D89
330
18
100
AcDbEntity
  8
0
100
AcDbLine
 10
-124.1957076761156
 20
268.8182125074962
 30
0.0
 11
-124.1957076761156
 21
267.843212507496
 31
0.0
  0
LINE
  5
7D8A
330
18
100
AcDbEntity
  8
0
100
AcDbLine
 10
-123.8457076761155
 20
267.843212507496
 30
0.0
 11
-123.8457076761155
 21
268.8182125074962
 31
0.0
  0
LINE
  5
7D8B
330
18
100
AcDbEntity
  8
0
100
AcDbLine
 10
-121.4207076761156
 20
267.843212507496
 30
0.0
 11
-121.0707076761156
 21
267.843212507496
 31
0.0
  0
LINE
  5
7D8C
330
18
100
AcDbEntity
  8
0
100
AcDbLine
 10
-124.1957076761156
 20
267.843212507496
 30
0.0
 11
-123.8457076761155
 21
267.843212507496
 31
0.0
  0
LINE
  5
7D8D
330
18
100
AcDbEntity
  8
0
100
AcDbLine
 10
-118.7707076761155
 20
260.8932125074961
 30
0.0
 11
-118.7707076761155
 21
262.968212507496
 31
0.0
  0
LINE
  5
7D8E
330
18
100
AcDbEntity
  8
0
100
AcDbLine
 10
-120.6957076761156
 20
260.8682125074961
 30
0.0
 11
-120.6957076761156
 21
261.843212507496
 31
0.0
  0
LINE
  5
7D8F
330
18
100
AcDbEntity
  8
0
100
AcDbLine
 10
-118.7707076761155
 20
260.8932125074961
 30
0.0
 11
-120.6957076761156
 21
260.8932125074961
 31
0.0
  0
LINE
  5
7D90
330
18
100
AcDbEntity
  8
0
100
AcDbLine
 10
-124.2707076761155
 20
260.8932125074961
 30
0.0
 11
-124.2707076761155
 21
261.8682125074962
 31
0.0
  0
LINE
  5
7D91
330
18
100
AcDbEntity
  8
0
100
AcDbLine
 10
-120.6957076761156
 20
261.8682125074962
 30
0.0
 11
-124.2707076761155
 21
261.8682125074962
 31
0.0
  0
LINE
  5
7D92
330
18
100
AcDbEntity
  8
0
100
AcDbLine
 10
-124.1457076761155
 20
264.3432125074961
 30
0.0
 11
-120.4457076761155
 21
265.3182125074962
 31
0.0
  0
LINE
  5
7D93
330
18
100
AcDbEntity
  8
0
100
AcDbLine
 10
-121.3957076761155
 20
287.3182125074962
 30
0.0
 11
-121.0457076761156
 21
287.3182125074962
 31
0.0
  0
LINE
  5
7D94
330
18
100
AcDbEntity
  8
0
100
AcDbLine
 10
-121.0457076761156
 20
287.0682125074962
 30
0.0
 11
-121.3957076761155
 21
287.0682125074962
 31
0.0
  0
LINE
  5
7D95
330
18
100
AcDbEntity
  8
0
100
AcDbLine
 10
-121.3957076761155
 20
287.0682125074962
 30
0.0
 11
-121.3957076761155
 21
286.0932125074961
 31
0.0
  0
LINE
  5
7D96
330
18
100
AcDbEntity
  8
0
100
AcDbLine
 10
-121.3957076761155
 20
286.0932125074961
 30
0.0
 11
-121.0457076761156
 21
286.0932125074961
 31
0.0
  0
LINE
  5
7D97
330
18
100
AcDbEntity
  8
0
100
AcDbLine
 10
-121.0457076761156
 20
286.0932125074961
 30
0.0
 11
-121.0457076761156
 21
287.0682125074962
 31
0.0
  0
LINE
  5
7D98
330
18
100
AcDbEntity
  8
0
100
AcDbLine
 10
-121.0457076761156
 20
285.7932125074961
 30
0.0
 11
-121.3957076761155
 21
285.7932125074961
 31
0.0
  0
LINE
  5
7D99
330
18
100
AcDbEntity
  8
0
100
AcDbLine
 10
-121.3957076761155
 20
285.7932125074961
 30
0.0
 11
-121.3957076761155
 21
284.843212507496
 31
0.0
  0
LINE
  5
7D9A
330
18
100
AcDbEntity
  8
0
100
AcDbLine
 10
-121.3957076761155
 20
284.843212507496
 30
0.0
 11
-121.0457076761156
 21
284.843212507496
 31
0.0
  0
LINE
  5
7D9B
330
18
100
AcDbEntity
  8
0
100
AcDbLine
 10
-121.0457076761156
 20
284.843212507496
 30
0.0
 11
-121.0457076761156
 21
285.7932125074961
 31
0.0
  0
LINE
  5
7D9C
330
18
100
AcDbEntity
  8
0
100
AcDbLine
 10
-121.0457076761156
 20
284.4682125074961
 30
0.0
 11
-121.3957076761155
 21
284.4682125074961
 31
0.0
  0
LINE
  5
7D9D
330
18
100
AcDbEntity
  8
0
100
AcDbLine
 10
-121.3957076761155
 20
284.4682125074961
 30
0.0
 11
-121.3957076761155
 21
283.4932125074962
 31
0.0
  0
LINE
  5
7D9E
330
18
100
AcDbEntity
  8
0
100
AcDbLine
 10
-121.3957076761155
 20
283.4932125074962
 30
0.0
 11
-121.0457076761156
 21
283.4932125074962
 31
0.0
  0
LINE
  5
7D9F
330
18
100
AcDbEntity
  8
0
100
AcDbLine
 10
-121.0457076761156
 20
283.4932125074962
 30
0.0
 11
-121.0457076761156
 21
284.4682125074961
 31
0.0
  0
LINE
  5
7DA0
330
18
100
AcDbEntity
  8
0
100
AcDbLine
 10
-124.1707076761156
 20
287.3182125074962
 30
0.0
 11
-123.8207076761156
 21
287.3182125074962
 31
0.0
  0
LINE
  5
7DA1
330
18
100
AcDbEntity
  8
0
100
AcDbLine
 10
-123.8207076761156
 20
287.0682125074962
 30
0.0
 11
-124.1707076761156
 21
287.0682125074962
 31
0.0
  0
LINE
  5
7DA2
330
18
100
AcDbEntity
  8
0
100
AcDbLine
 10
-124.1707076761156
 20
287.0682125074962
 30
0.0
 11
-124.1707076761156
 21
286.0932125074961
 31
0.0
  0
LINE
  5
7DA3
330
18
100
AcDbEntity
  8
0
100
AcDbLine
 10
-124.1707076761156
 20
286.0932125074961
 30
0.0
 11
-123.8207076761156
 21
286.0932125074961
 31
0.0
  0
LINE
  5
7DA4
330
18
100
AcDbEntity
  8
0
100
AcDbLine
 10
-123.8207076761156
 20
286.0932125074961
 30
0.0
 11
-123.8207076761156
 21
287.0682125074962
 31
0.0
  0
LINE
  5
7DA5
330
18
100
AcDbEntity
  8
0
100
AcDbLine
 10
-123.8207076761156
 20
285.7932125074961
 30
0.0
 11
-124.1707076761156
 21
285.7932125074961
 31
0.0
  0
LINE
  5
7DA6
330
18
100
AcDbEntity
  8
0
100
AcDbLine
 10
-124.1707076761156
 20
285.7932125074961
 30
0.0
 11
-124.1707076761156
 21
284.843212507496
 31
0.0
  0
LINE
  5
7DA7
330
18
100
AcDbEntity
  8
0
100
AcDbLine
 10
-124.1707076761156
 20
284.843212507496
 30
0.0
 11
-123.8207076761156
 21
284.843212507496
 31
0.0
  0
LINE
  5
7DA8
330
18
100
AcDbEntity
  8
0
100
AcDbLine
 10
-123.8207076761156
 20
284.843212507496
 30
0.0
 11
-123.8207076761156
 21
285.7932125074961
 31
0.0
  0
LINE
  5
7DA9
330
18
100
AcDbEntity
  8
0
100
AcDbLine
 10
-123.8207076761156
 20
284.4682125074961
 30
0.0
 11
-124.1707076761156
 21
284.4682125074961
 31
0.0
  0
LINE
  5
7DAA
330
18
100
AcDbEntity
  8
0
100
AcDbLine
 10
-124.1707076761156
 20
284.4682125074961
 30
0.0
 11
-124.1707076761156
 21
283.4932125074962
 31
0.0
  0
LINE
  5
7DAB
330
18
100
AcDbEntity
  8
0
100
AcDbLine
 10
-124.1707076761156
 20
283.4932125074962
 30
0.0
 11
-123.8207076761156
 21
283.4932125074962
 31
0.0
  0
LINE
  5
7DAC
330
18
100
AcDbEntity
  8
0
100
AcDbLine
 10
-123.8207076761156
 20
283.4932125074962
 30
0.0
 11
-123.8207076761156
 21
284.4682125074961
 31
0.0
  0
LINE
  5
7DAD
330
18
100
AcDbEntity
  8
0
100
AcDbLine
 10
-121.0707076761156
 20
278.3682125074962
 30
0.0
 11
-121.4207076761156
 21
278.3682125074962
 31
0.0
  0
LINE
  5
7DAE
330
18
100
AcDbEntity
  8
0
100
AcDbLine
 10
-121.0457076761156
 20
283.1932125074962
 30
0.0
 11
-121.3957076761155
 21
283.1932125074962
 31
0.0
  0
LINE
  5
7DAF
330
18
100
AcDbEntity
  8
0
100
AcDbLine
 10
-121.3957076761155
 20
283.1932125074962
 30
0.0
 11
-121.3957076761155
 21
282.2182125074961
 31
0.0
  0
LINE
  5
7DB0
330
18
100
AcDbEntity
  8
0
100
AcDbLine
 10
-121.3957076761155
 20
282.2182125074961
 30
0.0
 11
-121.0457076761156
 21
282.2182125074961
 31
0.0
  0
LINE
  5
7DB1
330
18
100
AcDbEntity
  8
0
100
AcDbLine
 10
-121.0457076761156
 20
282.2182125074961
 30
0.0
 11
-121.0457076761156
 21
283.1932125074962
 31
0.0
  0
LINE
  5
7DB2
330
18
100
AcDbEntity
  8
0
100
AcDbLine
 10
-121.0457076761156
 20
282.018212507496
 30
0.0
 11
-121.3957076761155
 21
282.018212507496
 31
0.0
  0
LINE
  5
7DB3
330
18
100
AcDbEntity
  8
0
100
AcDbLine
 10
-121.3957076761155
 20
282.018212507496
 30
0.0
 11
-121.3957076761155
 21
281.0432125074961
 31
0.0
  0
LINE
  5
7DB4
330
18
100
AcDbEntity
  8
0
100
AcDbLine
 10
-121.3957076761155
 20
281.0432125074961
 30
0.0
 11
-121.0457076761156
 21
281.0432125074961
 31
0.0
  0
LINE
  5
7DB5
330
18
100
AcDbEntity
  8
0
100
AcDbLine
 10
-121.0457076761156
 20
281.0432125074961
 30
0.0
 11
-121.0457076761156
 21
282.018212507496
 31
0.0
  0
LINE
  5
7DB6
330
18
100
AcDbEntity
  8
0
100
AcDbLine
 10
-121.0457076761156
 20
280.768212507496
 30
0.0
 11
-121.3957076761155
 21
280.768212507496
 31
0.0
  0
LINE
  5
7DB7
330
18
100
AcDbEntity
  8
0
100
AcDbLine
 10
-121.3957076761155
 20
280.768212507496
 30
0.0
 11
-121.3957076761155
 21
279.7932125074961
 31
0.0
  0
LINE
  5
7DB8
330
18
100
AcDbEntity
  8
0
100
AcDbLine
 10
-121.3957076761155
 20
279.7932125074961
 30
0.0
 11
-121.0457076761156
 21
279.7932125074961
 31
0.0
  0
LINE
  5
7DB9
330
18
100
AcDbEntity
  8
0
100
AcDbLine
 10
-121.0457076761156
 20
279.7932125074961
 30
0.0
 11
-121.0457076761156
 21
280.768212507496
 31
0.0
  0
LINE
  5
7DBA
330
18
100
AcDbEntity
  8
0
100
AcDbLine
 10
-121.0707076761156
 20
279.5682125074962
 30
0.0
 11
-121.4207076761156
 21
279.5682125074962
 31
0.0
  0
LINE
  5
7DBB
330
18
100
AcDbEntity
  8
0
100
AcDbLine
 10
-121.4207076761156
 20
279.5682125074962
 30
0.0
 11
-121.4207076761156
 21
278.593212507496
 31
0.0
  0
LINE
  5
7DBC
330
18
100
AcDbEntity
  8
0
100
AcDbLine
 10
-121.4207076761156
 20
278.593212507496
 30
0.0
 11
-121.0707076761156
 21
278.593212507496
 31
0.0
  0
LINE
  5
7DBD
330
18
100
AcDbEntity
  8
0
100
AcDbLine
 10
-121.0707076761156
 20
278.593212507496
 30
0.0
 11
-121.0707076761156
 21
279.5682125074962
 31
0.0
  0
LINE
  5
7DBE
330
18
100
AcDbEntity
  8
0
100
AcDbLine
 10
-121.4207076761156
 20
277.393212507496
 30
0.0
 11
-121.0707076761156
 21
277.393212507496
 31
0.0
  0
LINE
  5
7DBF
330
18
100
AcDbEntity
  8
0
100
AcDbLine
 10
-121.0707076761156
 20
277.1932125074962
 30
0.0
 11
-121.4207076761156
 21
277.1932125074962
 31
0.0
  0
LINE
  5
7DC0
330
18
100
AcDbEntity
  8
0
100
AcDbLine
 10
-121.4207076761156
 20
278.3682125074962
 30
0.0
 11
-121.4207076761156
 21
277.393212507496
 31
0.0
  0
LINE
  5
7DC1
330
18
100
AcDbEntity
  8
0
100
AcDbLine
 10
-121.0707076761156
 20
277.393212507496
 30
0.0
 11
-121.0707076761156
 21
278.3682125074962
 31
0.0
  0
LINE
  5
7DC2
330
18
100
AcDbEntity
  8
0
100
AcDbLine
 10
-123.8457076761155
 20
278.3682125074962
 30
0.0
 11
-124.1957076761156
 21
278.3682125074962
 31
0.0
  0
LINE
  5
7DC3
330
18
100
AcDbEntity
  8
0
100
AcDbLine
 10
-123.8207076761156
 20
283.1932125074962
 30
0.0
 11
-124.1707076761156
 21
283.1932125074962
 31
0.0
  0
LINE
  5
7DC4
330
18
100
AcDbEntity
  8
0
100
AcDbLine
 10
-124.1707076761156
 20
283.1932125074962
 30
0.0
 11
-124.1707076761156
 21
282.2182125074961
 31
0.0
  0
LINE
  5
7DC5
330
18
100
AcDbEntity
  8
0
100
AcDbLine
 10
-124.1707076761156
 20
282.2182125074961
 30
0.0
 11
-123.8207076761156
 21
282.2182125074961
 31
0.0
  0
LINE
  5
7DC6
330
18
100
AcDbEntity
  8
0
100
AcDbLine
 10
-123.8207076761156
 20
282.2182125074961
 30
0.0
 11
-123.8207076761156
 21
283.1932125074962
 31
0.0
  0
LINE
  5
7DC7
330
18
100
AcDbEntity
  8
0
100
AcDbLine
 10
-123.8207076761156
 20
282.018212507496
 30
0.0
 11
-124.1707076761156
 21
282.018212507496
 31
0.0
  0
LINE
  5
7DC8
330
18
100
AcDbEntity
  8
0
100
AcDbLine
 10
-124.1707076761156
 20
282.018212507496
 30
0.0
 11
-124.1707076761156
 21
281.0432125074961
 31
0.0
  0
LINE
  5
7DC9
330
18
100
AcDbEntity
  8
0
100
AcDbLine
 10
-124.1707076761156
 20
281.0432125074961
 30
0.0
 11
-123.8207076761156
 21
281.0432125074961
 31
0.0
  0
LINE
  5
7DCA
330
18
100
AcDbEntity
  8
0
100
AcDbLine
 10
-123.8207076761156
 20
281.0432125074961
 30
0.0
 11
-123.8207076761156
 21
282.018212507496
 31
0.0
  0
LINE
  5
7DCB
330
18
100
AcDbEntity
  8
0
100
AcDbLine
 10
-123.8207076761156
 20
280.768212507496
 30
0.0
 11
-124.1707076761156
 21
280.768212507496
 31
0.0
  0
LINE
  5
7DCC
330
18
100
AcDbEntity
  8
0
100
AcDbLine
 10
-124.1707076761156
 20
280.768212507496
 30
0.0
 11
-124.1707076761156
 21
279.7932125074961
 31
0.0
  0
LINE
  5
7DCD
330
18
100
AcDbEntity
  8
0
100
AcDbLine
 10
-124.1707076761156
 20
279.7932125074961
 30
0.0
 11
-123.8207076761156
 21
279.7932125074961
 31
0.0
  0
LINE
  5
7DCE
330
18
100
AcDbEntity
  8
0
100
AcDbLine
 10
-123.8207076761156
 20
279.7932125074961
 30
0.0
 11
-123.8207076761156
 21
280.768212507496
 31
0.0
  0
LINE
  5
7DCF
330
18
100
AcDbEntity
  8
0
100
AcDbLine
 10
-123.8457076761155
 20
279.5682125074962
 30
0.0
 11
-124.1957076761156
 21
279.5682125074962
 31
0.0
  0
LINE
  5
7DD0
330
18
100
AcDbEntity
  8
0
100
AcDbLine
 10
-124.1957076761156
 20
279.5682125074962
 30
0.0
 11
-124.1957076761156
 21
278.593212507496
 31
0.0
  0
LINE
  5
7DD1
330
18
100
AcDbEntity
  8
0
100
AcDbLine
 10
-124.1957076761156
 20
278.593212507496
 30
0.0
 11
-123.8457076761155
 21
278.593212507496
 31
0.0
  0
LINE
  5
7DD2
330
18
100
AcDbEntity
  8
0
100
AcDbLine
 10
-123.8457076761155
 20
278.593212507496
 30
0.0
 11
-123.8457076761155
 21
279.5682125074962
 31
0.0
  0
LINE
  5
7DD3
330
18
100
AcDbEntity
  8
0
100
AcDbLine
 10
-124.1957076761156
 20
277.393212507496
 30
0.0
 11
-123.8457076761155
 21
277.393212507496
 31
0.0
  0
LINE
  5
7DD4
330
18
100
AcDbEntity
  8
0
100
AcDbLine
 10
-123.8457076761155
 20
277.1932125074962
 30
0.0
 11
-124.1957076761156
 21
277.1932125074962
 31
0.0
  0
LINE
  5
7DD5
330
18
100
AcDbEntity
  8
0
100
AcDbLine
 10
-124.1957076761156
 20
278.3682125074962
 30
0.0
 11
-124.1957076761156
 21
277.393212507496
 31
0.0
  0
LINE
  5
7DD6
330
18
100
AcDbEntity
  8
0
100
AcDbLine
 10
-123.8457076761155
 20
277.393212507496
 30
0.0
 11
-123.8457076761155
 21
278.3682125074962
 31
0.0
  0
LINE
  5
7DD7
330
18
100
AcDbEntity
  8
0
100
AcDbLine
 10
-121.0707076761156
 20
272.4682125074961
 30
0.0
 11
-121.4207076761156
 21
272.4682125074961
 31
0.0
  0
LINE
  5
7DD8
330
18
100
AcDbEntity
  8
0
100
AcDbLine
 10
-121.4207076761156
 20
276.2182125074961
 30
0.0
 11
-121.0707076761156
 21
276.2182125074961
 31
0.0
  0
LINE
  5
7DD9
330
18
100
AcDbEntity
  8
0
100
AcDbLine
 10
-121.0707076761156
 20
275.9932125074961
 30
0.0
 11
-121.4207076761156
 21
275.9932125074961
 31
0.0
  0
LINE
  5
7DDA
330
18
100
AcDbEntity
  8
0
100
AcDbLine
 10
-121.4207076761156
 20
275.9932125074961
 30
0.0
 11
-121.4207076761156
 21
275.018212507496
 31
0.0
  0
LINE
  5
7DDB
330
18
100
AcDbEntity
  8
0
100
AcDbLine
 10
-121.4207076761156
 20
275.018212507496
 30
0.0
 11
-121.0707076761156
 21
275.018212507496
 31
0.0
  0
LINE
  5
7DDC
330
18
100
AcDbEntity
  8
0
100
AcDbLine
 10
-121.0707076761156
 20
275.018212507496
 30
0.0
 11
-121.0707076761156
 21
275.9932125074961
 31
0.0
  0
LINE
  5
7DDD
330
18
100
AcDbEntity
  8
0
100
AcDbLine
 10
-121.0707076761156
 20
274.8182125074962
 30
0.0
 11
-121.4207076761156
 21
274.8182125074962
 31
0.0
  0
LINE
  5
7DDE
330
18
100
AcDbEntity
  8
0
100
AcDbLine
 10
-121.4207076761156
 20
274.8182125074962
 30
0.0
 11
-121.4207076761156
 21
273.8432125074961
 31
0.0
  0
LINE
  5
7DDF
330
18
100
AcDbEntity
  8
0
100
AcDbLine
 10
-121.4207076761156
 20
273.8432125074961
 30
0.0
 11
-121.0707076761156
 21
273.8432125074961
 31
0.0
  0
LINE
  5
7DE0
330
18
100
AcDbEntity
  8
0
100
AcDbLine
 10
-121.0707076761156
 20
273.8432125074961
 30
0.0
 11
-121.0707076761156
 21
274.8182125074962
 31
0.0
  0
LINE
  5
7DE1
330
18
100
AcDbEntity
  8
0
100
AcDbLine
 10
-121.0707076761156
 20
273.643212507496
 30
0.0
 11
-121.4207076761156
 21
273.643212507496
 31
0.0
  0
LINE
  5
7DE2
330
18
100
AcDbEntity
  8
0
100
AcDbLine
 10
-121.4207076761156
 20
273.643212507496
 30
0.0
 11
-121.4207076761156
 21
272.6682125074961
 31
0.0
  0
LINE
  5
7DE3
330
18
100
AcDbEntity
  8
0
100
AcDbLine
 10
-121.4207076761156
 20
272.6682125074961
 30
0.0
 11
-121.0707076761156
 21
272.6682125074961
 31
0.0
  0
LINE
  5
7DE4
330
18
100
AcDbEntity
  8
0
100
AcDbLine
 10
-121.0707076761156
 20
272.6682125074961
 30
0.0
 11
-121.0707076761156
 21
273.643212507496
 31
0.0
  0
LINE
  5
7DE5
330
18
100
AcDbEntity
  8
0
100
AcDbLine
 10
-123.8457076761155
 20
272.4682125074961
 30
0.0
 11
-124.1957076761156
 21
272.4682125074961
 31
0.0
  0
LINE
  5
7DE6
330
18
100
AcDbEntity
  8
0
100
AcDbLine
 10
-124.1957076761156
 20
276.2182125074961
 30
0.0
 11
-123.8457076761155
 21
276.2182125074961
 31
0.0
  0
LINE
  5
7DE7
330
18
100
AcDbEntity
  8
0
100
AcDbLine
 10
-123.8457076761155
 20
275.9932125074961
 30
0.0
 11
-124.1957076761156
 21
275.9932125074961
 31
0.0
  0
LINE
  5
7DE8
330
18
100
AcDbEntity
  8
0
100
AcDbLine
 10
-124.1957076761156
 20
275.9932125074961
 30
0.0
 11
-124.1957076761156
 21
275.018212507496
 31
0.0
  0
LINE
  5
7DE9
330
18
100
AcDbEntity
  8
0
100
AcDbLine
 10
-124.1957076761156
 20
275.018212507496
 30
0.0
 11
-123.8457076761155
 21
275.018212507496
 31
0.0
  0
LINE
  5
7DEA
330
18
100
AcDbEntity
  8
0
100
AcDbLine
 10
-123.8457076761155
 20
275.018212507496
 30
0.0
 11
-123.8457076761155
 21
275.9932125074961
 31
0.0
  0
LINE
  5
7DEB
330
18
100
AcDbEntity
  8
0
100
AcDbLine
 10
-123.8457076761155
 20
274.8182125074962
 30
0.0
 11
-124.1957076761156
 21
274.8182125074962
 31
0.0
  0
LINE
  5
7DEC
330
18
100
AcDbEntity
  8
0
100
AcDbLine
 10
-124.1957076761156
 20
274.8182125074962
 30
0.0
 11
-124.1957076761156
 21
273.8432125074961
 31
0.0
  0
LINE
  5
7DED
330
18
100
AcDbEntity
  8
0
100
AcDbLine
 10
-124.1957076761156
 20
273.8432125074961
 30
0.0
 11
-123.8457076761155
 21
273.8432125074961
 31
0.0
  0
LINE
  5
7DEE
330
18
100
AcDbEntity
  8
0
100
AcDbLine
 10
-123.8457076761155
 20
273.8432125074961
 30
0.0
 11
-123.8457076761155
 21
274.8182125074962
 31
0.0
  0
LINE
  5
7DEF
330
18
100
AcDbEntity
  8
0
100
AcDbLine
 10
-123.8457076761155
 20
273.643212507496
 30
0.0
 11
-124.1957076761156
 21
273.643212507496
 31
0.0
  0
LINE
  5
7DF0
330
18
100
AcDbEntity
  8
0
100
AcDbLine
 10
-124.1957076761156
 20
273.643212507496
 30
0.0
 11
-124.1957076761156
 21
272.6682125074961
 31
0.0
  0
LINE
  5
7DF1
330
18
100
AcDbEntity
  8
0
100
AcDbLine
 10
-124.1957076761156
 20
272.6682125074961
 30
0.0
 11
-123.8457076761155
 21
272.6682125074961
 31
0.0
  0
LINE
  5
7DF2
330
18
100
AcDbEntity
  8
0
100
AcDbLine
 10
-123.8457076761155
 20
272.6682125074961
 30
0.0
 11
-123.8457076761155
 21
273.643212507496
 31
0.0
  0
LINE
  5
7DF3
330
18
100
AcDbEntity
  8
0
100
AcDbLine
 10
-121.4207076761156
 20
277.1932125074962
 30
0.0
 11
-121.4207076761156
 21
276.2182125074961
 31
0.0
  0
LINE
  5
7DF4
330
18
100
AcDbEntity
  8
0
100
AcDbLine
 10
-121.0707076761156
 20
276.2182125074961
 30
0.0
 11
-121.0707076761156
 21
277.1932125074962
 31
0.0
  0
LINE
  5
7DF5
330
18
100
AcDbEntity
  8
0
100
AcDbLine
 10
-124.1957076761156
 20
277.1932125074962
 30
0.0
 11
-124.1957076761156
 21
276.2182125074961
 31
0.0
  0
LINE
  5
7DF6
330
18
100
AcDbEntity
  8
0
100
AcDbLine
 10
-123.8457076761155
 20
276.2182125074961
 30
0.0
 11
-123.8457076761155
 21
277.1932125074962
 31
0.0
  0
LINE
  5
7DF7
330
18
100
AcDbEntity
  8
0
100
AcDbLine
 10
-121.4207076761156
 20
271.4932125074962
 30
0.0
 11
-121.0707076761156
 21
271.4932125074962
 31
0.0
  0
LINE
  5
7DF8
330
18
100
AcDbEntity
  8
0
100
AcDbLine
 10
-121.0707076761156
 20
271.268212507496
 30
0.0
 11
-121.4207076761156
 21
271.268212507496
 31
0.0
  0
LINE
  5
7DF9
330
18
100
AcDbEntity
  8
0
100
AcDbLine
 10
-124.1957076761156
 20
271.4932125074962
 30
0.0
 11
-123.8457076761155
 21
271.4932125074962
 31
0.0
  0
LINE
  5
7DFA
330
18
100
AcDbEntity
  8
0
100
AcDbLine
 10
-123.8457076761155
 20
271.268212507496
 30
0.0
 11
-124.1957076761156
 21
271.268212507496
 31
0.0
  0
LINE
  5
7DFB
330
18
100
AcDbEntity
  8
0
100
AcDbLine
 10
-121.4207076761156
 20
270.2932125074961
 30
0.0
 11
-121.0707076761156
 21
270.2932125074961
 31
0.0
  0
LINE
  5
7DFC
330
18
100
AcDbEntity
  8
0
100
AcDbLine
 10
-121.0707076761156
 20
270.0432125074961
 30
0.0
 11
-121.4207076761156
 21
270.0432125074961
 31
0.0
  0
LINE
  5
7DFD
330
18
100
AcDbEntity
  8
0
100
AcDbLine
 10
-124.1957076761156
 20
270.2932125074961
 30
0.0
 11
-123.8457076761155
 21
270.2932125074961
 31
0.0
  0
LINE
  5
7DFE
330
18
100
AcDbEntity
  8
0
100
AcDbLine
 10
-123.8457076761155
 20
270.0432125074961
 30
0.0
 11
-124.1957076761156
 21
270.0432125074961
 31
0.0
  0
LINE
  5
7DFF
330
18
100
AcDbEntity
  8
0
100
AcDbLine
 10
-121.4207076761156
 20
271.268212507496
 30
0.0
 11
-121.4207076761156
 21
270.2932125074961
 31
0.0
  0
LINE
  5
7E00
330
18
100
AcDbEntity
  8
0
100
AcDbLine
 10
-121.0707076761156
 20
270.2932125074961
 30
0.0
 11
-121.0707076761156
 21
271.268212507496
 31
0.0
  0
LINE
  5
7E01
330
18
100
AcDbEntity
  8
0
100
AcDbLine
 10
-124.1957076761156
 20
271.268212507496
 30
0.0
 11
-124.1957076761156
 21
270.2932125074961
 31
0.0
  0
LINE
  5
7E02
330
18
100
AcDbEntity
  8
0
100
AcDbLine
 10
-123.8457076761155
 20
270.2932125074961
 30
0.0
 11
-123.8457076761155
 21
271.268212507496
 31
0.0
  0
LINE
  5
7E03
330
18
100
AcDbEntity
  8
0
100
AcDbLine
 10
-121.4207076761156
 20
269.0682125074962
 30
0.0
 11
-121.0707076761156
 21
269.0682125074962
 31
0.0
  0
LINE
  5
7E04
330
18
100
AcDbEntity
  8
0
100
AcDbLine
 10
-121.0707076761156
 20
268.8182125074962
 30
0.0
 11
-121.4207076761156
 21
268.8182125074962
 31
0.0
  0
LINE
  5
7E05
330
18
100
AcDbEntity
  8
0
100
AcDbLine
 10
-124.1957076761156
 20
269.0682125074962
 30
0.0
 11
-123.8457076761155
 21
269.0682125074962
 31
0.0
  0
LINE
  5
7E06
330
18
100
AcDbEntity
  8
0
100
AcDbLine
 10
-123.8457076761155
 20
268.8182125074962
 30
0.0
 11
-124.1957076761156
 21
268.8182125074962
 31
0.0
  0
LINE
  5
7E07
330
18
100
AcDbEntity
  8
0
100
AcDbLine
 10
-121.4207076761156
 20
270.0432125074961
 30
0.0
 11
-121.4207076761156
 21
269.0682125074962
 31
0.0
  0
LINE
  5
7E08
330
18
100
AcDbEntity
  8
0
100
AcDbLine
 10
-121.0707076761156
 20
269.0682125074962
 30
0.0
 11
-121.0707076761156
 21
270.0432125074961
 31
0.0
  0
LINE
  5
7E09
330
18
100
AcDbEntity
  8
0
100
AcDbLine
 10
-124.1957076761156
 20
270.0432125074961
 30
0.0
 11
-124.1957076761156
 21
269.0682125074962
 31
0.0
  0
LINE
  5
7E0A
330
18
100
AcDbEntity
  8
0
100
AcDbLine
 10
-123.8457076761155
 20
269.0682125074962
 30
0.0
 11
-123.8457076761155
 21
270.0432125074961
 31
0.0
  0
LINE
  5
7E0B
330
18
100
AcDbEntity
  8
0
100
AcDbLine
 10
-121.4207076761156
 20
272.4682125074961
 30
0.0
 11
-121.4207076761156
 21
271.4932125074962
 31
0.0
  0
LINE
  5
7E0C
330
18
100
AcDbEntity
  8
0
100
AcDbLine
 10
-121.0707076761156
 20
271.4932125074962
 30
0.0
 11
-121.0707076761156
 21
272.4682125074961
 31
0.0
  0
LINE
  5
7E0D
330
18
100
AcDbEntity
  8
0
100
AcDbLine
 10
-124.1957076761156
 20
272.4682125074961
 30
0.0
 11
-124.1957076761156
 21
271.4932125074962
 31
0.0
  0
LINE
  5
7E0E
330
18
100
AcDbEntity
  8
0
100
AcDbLine
 10
-123.8457076761155
 20
271.4932125074962
 30
0.0
 11
-123.8457076761155
 21
272.4682125074961
 31
0.0
  0
LINE
  5
7E0F
330
18
100
AcDbEntity
  8
0
100
AcDbLine
 10
-127.1957076761156
 20
333.9182125074961
 30
0.0
 11
-127.1957076761156
 21
300.593212507496
 31
0.0
  0
LINE
  5
7E10
330
18
100
AcDbEntity
  8
0
100
AcDbLine
 10
-117.9707076761155
 20
300.593212507496
 30
0.0
 11
-117.9707076761155
 21
333.9182125074961
 31
0.0
  0
LINE
  5
7E11
330
18
100
AcDbEntity
  8
0
100
AcDbLine
 10
-124.2707076761155
 20
304.768212507496
 30
0.0
 11
-126.3957076761155
 21
304.768212507496
 31
0.0
  0
LINE
  5
7E12
330
18
100
AcDbEntity
  8
0
100
AcDbLine
 10
-118.7707076761155
 20
306.843212507496
 30
0.0
 11
-126.3957076761155
 21
306.843212507496
 31
0.0
  0
LINE
  5
7E13
330
18
100
AcDbEntity
  8
0
100
AcDbLine
 10
-124.2707076761155
 20
296.3182125074962
 30
0.0
 11
-126.3957076761155
 21
296.3182125074962
 31
0.0
  0
LINE
  5
7E14
330
18
100
AcDbEntity
  8
0
100
AcDbLine
 10
-127.1957076761156
 20
300.593212507496
 30
0.0
 11
-117.9707076761155
 21
300.593212507496
 31
0.0
  0
LINE
  5
7E15
330
18
100
AcDbEntity
  8
0
100
AcDbLine
 10
-117.9707076761155
 20
299.9182125074961
 30
0.0
 11
-127.1957076761156
 21
299.9182125074961
 31
0.0
  0
LINE
  5
7E16
330
18
100
AcDbEntity
  8
0
100
AcDbLine
 10
-118.7707076761155
 20
294.2432125074962
 30
0.0
 11
-126.3957076761155
 21
294.2432125074962
 31
0.0
  0
LINE
  5
7E17
330
18
100
AcDbEntity
  8
0
100
AcDbLine
 10
-126.3957076761155
 20
304.768212507496
 30
0.0
 11
-126.3957076761155
 21
306.843212507496
 31
0.0
  0
LINE
  5
7E18
330
18
100
AcDbEntity
  8
0
100
AcDbLine
 10
-126.3957076761155
 20
296.3182125074962
 30
0.0
 11
-126.3957076761155
 21
294.2432125074962
 31
0.0
  0
LINE
  5
7E19
330
18
100
AcDbEntity
  8
0
100
AcDbLine
 10
-125.6457076761155
 20
325.4432125074961
 30
0.0
 11
-125.6457076761155
 21
309.343212507496
 31
0.0
  0
LINE
  5
7E1A
330
18
100
AcDbEntity
  8
0
100
AcDbLine
 10
-118.7707076761155
 20
304.768212507496
 30
0.0
 11
-118.7707076761155
 21
306.843212507496
 31
0.0
  0
LINE
  5
7E1B
330
18
100
AcDbEntity
  8
0
100
AcDbLine
 10
-120.6957076761156
 20
304.7432125074961
 30
0.0
 11
-120.6957076761156
 21
305.718212507496
 31
0.0
  0
LINE
  5
7E1C
330
18
100
AcDbEntity
  8
0
100
AcDbLine
 10
-118.7707076761155
 20
304.768212507496
 30
0.0
 11
-120.6957076761156
 21
304.768212507496
 31
0.0
  0
LINE
  5
7E1D
330
18
100
AcDbEntity
  8
0
100
AcDbLine
 10
-124.2707076761155
 20
304.768212507496
 30
0.0
 11
-124.2707076761155
 21
305.7432125074961
 31
0.0
  0
LINE
  5
7E1E
330
18
100
AcDbEntity
  8
0
100
AcDbLine
 10
-120.6957076761156
 20
305.7432125074961
 30
0.0
 11
-124.2707076761155
 21
305.7432125074961
 31
0.0
  0
LINE
  5
7E1F
330
18
100
AcDbEntity
  8
0
100
AcDbLine
 10
-118.7707076761155
 20
296.3182125074962
 30
0.0
 11
-120.6957076761156
 21
296.3182125074962
 31
0.0
  0
LINE
  5
7E20
330
18
100
AcDbEntity
  8
0
100
AcDbLine
 10
-120.6957076761156
 20
295.343212507496
 30
0.0
 11
-124.2707076761155
 21
295.343212507496
 31
0.0
  0
LINE
  5
7E21
330
18
100
AcDbEntity
  8
0
100
AcDbLine
 10
-120.6957076761156
 20
296.3432125074961
 30
0.0
 11
-120.6957076761156
 21
295.3682125074962
 31
0.0
  0
LINE
  5
7E22
330
18
100
AcDbEntity
  8
0
100
AcDbLine
 10
-124.2707076761155
 20
296.3182125074962
 30
0.0
 11
-124.2707076761155
 21
295.343212507496
 31
0.0
  0
LINE
  5
7E23
330
18
100
AcDbEntity
  8
0
100
AcDbLine
 10
-118.7707076761155
 20
296.3182125074962
 30
0.0
 11
-118.7707076761155
 21
294.2432125074962
 31
0.0
  0
LINE
  5
7E24
330
18
100
AcDbEntity
  8
0
100
AcDbLine
 10
-121.0457076761156
 20
289.5682125074962
 30
0.0
 11
-121.3957076761155
 21
289.5682125074962
 31
0.0
  0
LINE
  5
7E25
330
18
100
AcDbEntity
  8
0
100
AcDbLine
 10
-121.3957076761155
 20
289.5682125074962
 30
0.0
 11
-121.3957076761155
 21
288.5682125074962
 31
0.0
  0
LINE
  5
7E26
330
18
100
AcDbEntity
  8
0
100
AcDbLine
 10
-121.3957076761155
 20
288.5682125074962
 30
0.0
 11
-121.0457076761156
 21
288.5682125074962
 31
0.0
  0
LINE
  5
7E27
330
18
100
AcDbEntity
  8
0
100
AcDbLine
 10
-121.0457076761156
 20
288.5682125074962
 30
0.0
 11
-121.0457076761156
 21
289.5682125074962
 31
0.0
  0
LINE
  5
7E28
330
18
100
AcDbEntity
  8
0
100
AcDbLine
 10
-121.0457076761156
 20
288.2932125074961
 30
0.0
 11
-121.3957076761155
 21
288.2932125074961
 31
0.0
  0
LINE
  5
7E29
330
18
100
AcDbEntity
  8
0
100
AcDbLine
 10
-123.8207076761156
 20
289.5682125074962
 30
0.0
 11
-124.1707076761156
 21
289.5682125074962
 31
0.0
  0
LINE
  5
7E2A
330
18
100
AcDbEntity
  8
0
100
AcDbLine
 10
-124.1707076761156
 20
289.5682125074962
 30
0.0
 11
-124.1707076761156
 21
288.5682125074962
 31
0.0
  0
LINE
  5
7E2B
330
18
100
AcDbEntity
  8
0
100
AcDbLine
 10
-124.1707076761156
 20
288.5682125074962
 30
0.0
 11
-123.8207076761156
 21
288.5682125074962
 31
0.0
  0
LINE
  5
7E2C
330
18
100
AcDbEntity
  8
0
100
AcDbLine
 10
-123.8207076761156
 20
288.5682125074962
 30
0.0
 11
-123.8207076761156
 21
289.5682125074962
 31
0.0
  0
LINE
  5
7E2D
330
18
100
AcDbEntity
  8
0
100
AcDbLine
 10
-123.8207076761156
 20
288.2932125074961
 30
0.0
 11
-124.1707076761156
 21
288.2932125074961
 31
0.0
  0
LINE
  5
7E2E
330
18
100
AcDbEntity
  8
0
100
AcDbLine
 10
-120.4457076761155
 20
291.6932125074962
 30
0.0
 11
-124.1457076761155
 21
292.6182125074962
 31
0.0
  0
LINE
  5
7E2F
330
18
100
AcDbEntity
  8
0
100
AcDbLine
 10
-121.0457076761156
 20
323.5682125074962
 30
0.0
 11
-121.3957076761155
 21
323.5682125074962
 31
0.0
  0
LINE
  5
7E30
330
18
100
AcDbEntity
  8
0
100
AcDbLine
 10
-121.3957076761155
 20
322.5682125074961
 30
0.0
 11
-121.0457076761156
 21
322.5682125074961
 31
0.0
  0
LINE
  5
7E31
330
18
100
AcDbEntity
  8
0
100
AcDbLine
 10
-121.0457076761156
 20
322.2932125074961
 30
0.0
 11
-121.3957076761155
 21
322.2932125074961
 31
0.0
  0
LINE
  5
7E32
330
18
100
AcDbEntity
  8
0
100
AcDbLine
 10
-121.3957076761155
 20
323.5682125074962
 30
0.0
 11
-121.3957076761155
 21
322.5682125074961
 31
0.0
  0
LINE
  5
7E33
330
18
100
AcDbEntity
  8
0
100
AcDbLine
 10
-121.0457076761156
 20
322.5682125074961
 30
0.0
 11
-121.0457076761156
 21
323.5682125074962
 31
0.0
  0
LINE
  5
7E34
330
18
100
AcDbEntity
  8
0
100
AcDbLine
 10
-123.8207076761156
 20
323.5682125074962
 30
0.0
 11
-124.1707076761156
 21
323.5682125074962
 31
0.0
  0
LINE
  5
7E35
330
18
100
AcDbEntity
  8
0
100
AcDbLine
 10
-124.1707076761156
 20
322.5682125074961
 30
0.0
 11
-123.8207076761156
 21
322.5682125074961
 31
0.0
  0
LINE
  5
7E36
330
18
100
AcDbEntity
  8
0
100
AcDbLine
 10
-123.8207076761156
 20
322.2932125074961
 30
0.0
 11
-124.1707076761156
 21
322.2932125074961
 31
0.0
  0
LINE
  5
7E37
330
18
100
AcDbEntity
  8
0
100
AcDbLine
 10
-124.1707076761156
 20
323.5682125074962
 30
0.0
 11
-124.1707076761156
 21
322.5682125074961
 31
0.0
  0
LINE
  5
7E38
330
18
100
AcDbEntity
  8
0
100
AcDbLine
 10
-123.8207076761156
 20
322.5682125074961
 30
0.0
 11
-123.8207076761156
 21
323.5682125074962
 31
0.0
  0
LINE
  5
7E39
330
18
100
AcDbEntity
  8
0
100
AcDbLine
 10
-120.4457076761155
 20
325.6932125074961
 30
0.0
 11
-124.1457076761155
 21
326.6182125074961
 31
0.0
  0
LINE
  5
7E3A
330
18
100
AcDbEntity
  8
0
100
AcDbLine
 10
-121.3957076761155
 20
321.3182125074961
 30
0.0
 11
-121.0457076761156
 21
321.3182125074961
 31
0.0
  0
LINE
  5
7E3B
330
18
100
AcDbEntity
  8
0
100
AcDbLine
 10
-121.0457076761156
 20
321.0682125074961
 30
0.0
 11
-121.3957076761155
 21
321.0682125074961
 31
0.0
  0
LINE
  5
7E3C
330
18
100
AcDbEntity
  8
0
100
AcDbLine
 10
-124.1707076761156
 20
321.3182125074961
 30
0.0
 11
-123.8207076761156
 21
321.3182125074961
 31
0.0
  0
LINE
  5
7E3D
330
18
100
AcDbEntity
  8
0
100
AcDbLine
 10
-123.8207076761156
 20
321.0682125074961
 30
0.0
 11
-124.1707076761156
 21
321.0682125074961
 31
0.0
  0
LINE
  5
7E3E
330
18
100
AcDbEntity
  8
0
100
AcDbLine
 10
-121.3957076761155
 20
322.2932125074961
 30
0.0
 11
-121.3957076761155
 21
321.3182125074961
 31
0.0
  0
LINE
  5
7E3F
330
18
100
AcDbEntity
  8
0
100
AcDbLine
 10
-121.0457076761156
 20
321.3182125074961
 30
0.0
 11
-121.0457076761156
 21
322.2932125074961
 31
0.0
  0
LINE
  5
7E40
330
18
100
AcDbEntity
  8
0
100
AcDbLine
 10
-124.1707076761156
 20
322.2932125074961
 30
0.0
 11
-124.1707076761156
 21
321.3182125074961
 31
0.0
  0
LINE
  5
7E41
330
18
100
AcDbEntity
  8
0
100
AcDbLine
 10
-123.8207076761156
 20
321.3182125074961
 30
0.0
 11
-123.8207076761156
 21
322.2932125074961
 31
0.0
  0
LINE
  5
7E42
330
18
100
AcDbEntity
  8
0
100
AcDbLine
 10
-121.0457076761156
 20
317.1932125074961
 30
0.0
 11
-121.3957076761155
 21
317.1932125074961
 31
0.0
  0
LINE
  5
7E43
330
18
100
AcDbEntity
  8
0
100
AcDbLine
 10
-121.3957076761155
 20
320.093212507496
 30
0.0
 11
-121.0457076761156
 21
320.093212507496
 31
0.0
  0
LINE
  5
7E44
330
18
100
AcDbEntity
  8
0
100
AcDbLine
 10
-121.0457076761156
 20
319.793212507496
 30
0.0
 11
-121.3957076761155
 21
319.793212507496
 31
0.0
  0
LINE
  5
7E45
330
18
100
AcDbEntity
  8
0
100
AcDbLine
 10
-121.3957076761155
 20
319.793212507496
 30
0.0
 11
-121.3957076761155
 21
318.843212507496
 31
0.0
  0
LINE
  5
7E46
330
18
100
AcDbEntity
  8
0
100
AcDbLine
 10
-121.3957076761155
 20
318.843212507496
 30
0.0
 11
-121.0457076761156
 21
318.843212507496
 31
0.0
  0
LINE
  5
7E47
330
18
100
AcDbEntity
  8
0
100
AcDbLine
 10
-121.0457076761156
 20
318.843212507496
 30
0.0
 11
-121.0457076761156
 21
319.793212507496
 31
0.0
  0
LINE
  5
7E48
330
18
100
AcDbEntity
  8
0
100
AcDbLine
 10
-121.0457076761156
 20
318.468212507496
 30
0.0
 11
-121.3957076761155
 21
318.468212507496
 31
0.0
  0
LINE
  5
7E49
330
18
100
AcDbEntity
  8
0
100
AcDbLine
 10
-121.3957076761155
 20
318.468212507496
 30
0.0
 11
-121.3957076761155
 21
317.4932125074961
 31
0.0
  0
LINE
  5
7E4A
330
18
100
AcDbEntity
  8
0
100
AcDbLine
 10
-121.3957076761155
 20
317.4932125074961
 30
0.0
 11
-121.0457076761156
 21
317.4932125074961
 31
0.0
  0
LINE
  5
7E4B
330
18
100
AcDbEntity
  8
0
100
AcDbLine
 10
-121.0457076761156
 20
317.4932125074961
 30
0.0
 11
-121.0457076761156
 21
318.468212507496
 31
0.0
  0
LINE
  5
7E4C
330
18
100
AcDbEntity
  8
0
100
AcDbLine
 10
-121.3957076761155
 20
316.218212507496
 30
0.0
 11
-121.0457076761156
 21
316.218212507496
 31
0.0
  0
LINE
  5
7E4D
330
18
100
AcDbEntity
  8
0
100
AcDbLine
 10
-121.0457076761156
 20
316.0182125074959
 30
0.0
 11
-121.3957076761155
 21
316.0182125074959
 31
0.0
  0
LINE
  5
7E4E
330
18
100
AcDbEntity
  8
0
100
AcDbLine
 10
-121.3957076761155
 20
317.1932125074961
 30
0.0
 11
-121.3957076761155
 21
316.218212507496
 31
0.0
  0
LINE
  5
7E4F
330
18
100
AcDbEntity
  8
0
100
AcDbLine
 10
-121.0457076761156
 20
316.218212507496
 30
0.0
 11
-121.0457076761156
 21
317.1932125074961
 31
0.0
  0
LINE
  5
7E50
330
18
100
AcDbEntity
  8
0
100
AcDbLine
 10
-123.8207076761156
 20
317.1932125074961
 30
0.0
 11
-124.1707076761156
 21
317.1932125074961
 31
0.0
  0
LINE
  5
7E51
330
18
100
AcDbEntity
  8
0
100
AcDbLine
 10
-124.1707076761156
 20
320.093212507496
 30
0.0
 11
-123.8207076761156
 21
320.093212507496
 31
0.0
  0
LINE
  5
7E52
330
18
100
AcDbEntity
  8
0
100
AcDbLine
 10
-123.8207076761156
 20
319.793212507496
 30
0.0
 11
-124.1707076761156
 21
319.793212507496
 31
0.0
  0
LINE
  5
7E53
330
18
100
AcDbEntity
  8
0
100
AcDbLine
 10
-124.1707076761156
 20
319.793212507496
 30
0.0
 11
-124.1707076761156
 21
318.843212507496
 31
0.0
  0
LINE
  5
7E54
330
18
100
AcDbEntity
  8
0
100
AcDbLine
 10
-124.1707076761156
 20
318.843212507496
 30
0.0
 11
-123.8207076761156
 21
318.843212507496
 31
0.0
  0
LINE
  5
7E55
330
18
100
AcDbEntity
  8
0
100
AcDbLine
 10
-123.8207076761156
 20
318.843212507496
 30
0.0
 11
-123.8207076761156
 21
319.793212507496
 31
0.0
  0
LINE
  5
7E56
330
18
100
AcDbEntity
  8
0
100
AcDbLine
 10
-123.8207076761156
 20
318.468212507496
 30
0.0
 11
-124.1707076761156
 21
318.468212507496
 31
0.0
  0
LINE
  5
7E57
330
18
100
AcDbEntity
  8
0
100
AcDbLine
 10
-124.1707076761156
 20
318.468212507496
 30
0.0
 11
-124.1707076761156
 21
317.4932125074961
 31
0.0
  0
LINE
  5
7E58
330
18
100
AcDbEntity
  8
0
100
AcDbLine
 10
-124.1707076761156
 20
317.4932125074961
 30
0.0
 11
-123.8207076761156
 21
317.4932125074961
 31
0.0
  0
LINE
  5
7E59
330
18
100
AcDbEntity
  8
0
100
AcDbLine
 10
-123.8207076761156
 20
317.4932125074961
 30
0.0
 11
-123.8207076761156
 21
318.468212507496
 31
0.0
  0
LINE
  5
7E5A
330
18
100
AcDbEntity
  8
0
100
AcDbLine
 10
-124.1707076761156
 20
316.218212507496
 30
0.0
 11
-123.8207076761156
 21
316.218212507496
 31
0.0
  0
LINE
  5
7E5B
330
18
100
AcDbEntity
  8
0
100
AcDbLine
 10
-123.8207076761156
 20
316.0182125074959
 30
0.0
 11
-124.1707076761156
 21
316.0182125074959
 31
0.0
  0
LINE
  5
7E5C
330
18
100
AcDbEntity
  8
0
100
AcDbLine
 10
-124.1707076761156
 20
317.1932125074961
 30
0.0
 11
-124.1707076761156
 21
316.218212507496
 31
0.0
  0
LINE
  5
7E5D
330
18
100
AcDbEntity
  8
0
100
AcDbLine
 10
-123.8207076761156
 20
316.218212507496
 30
0.0
 11
-123.8207076761156
 21
317.1932125074961
 31
0.0
  0
LINE
  5
7E5E
330
18
100
AcDbEntity
  8
0
100
AcDbLine
 10
-121.3957076761155
 20
315.043212507496
 30
0.0
 11
-121.0457076761156
 21
315.043212507496
 31
0.0
  0
LINE
  5
7E5F
330
18
100
AcDbEntity
  8
0
100
AcDbLine
 10
-121.0457076761156
 20
314.768212507496
 30
0.0
 11
-121.3957076761155
 21
314.768212507496
 31
0.0
  0
LINE
  5
7E60
330
18
100
AcDbEntity
  8
0
100
AcDbLine
 10
-121.3957076761155
 20
314.768212507496
 30
0.0
 11
-121.3957076761155
 21
313.7932125074961
 31
0.0
  0
LINE
  5
7E61
330
18
100
AcDbEntity
  8
0
100
AcDbLine
 10
-121.3957076761155
 20
313.7932125074961
 30
0.0
 11
-121.0457076761156
 21
313.7932125074961
 31
0.0
  0
LINE
  5
7E62
330
18
100
AcDbEntity
  8
0
100
AcDbLine
 10
-121.0457076761156
 20
313.7932125074961
 30
0.0
 11
-121.0457076761156
 21
314.768212507496
 31
0.0
  0
LINE
  5
7E63
330
18
100
AcDbEntity
  8
0
100
AcDbLine
 10
-121.0707076761156
 20
313.5682125074962
 30
0.0
 11
-121.4207076761156
 21
313.5682125074962
 31
0.0
  0
LINE
  5
7E64
330
18
100
AcDbEntity
  8
0
100
AcDbLine
 10
-121.4207076761156
 20
313.5682125074962
 30
0.0
 11
-121.4207076761156
 21
312.593212507496
 31
0.0
  0
LINE
  5
7E65
330
18
100
AcDbEntity
  8
0
100
AcDbLine
 10
-121.4207076761156
 20
312.593212507496
 30
0.0
 11
-121.0707076761156
 21
312.593212507496
 31
0.0
  0
LINE
  5
7E66
330
18
100
AcDbEntity
  8
0
100
AcDbLine
 10
-121.0707076761156
 20
312.593212507496
 30
0.0
 11
-121.0707076761156
 21
313.5682125074962
 31
0.0
  0
LINE
  5
7E67
330
18
100
AcDbEntity
  8
0
100
AcDbLine
 10
-121.0707076761156
 20
312.3682125074961
 30
0.0
 11
-121.4207076761156
 21
312.3682125074961
 31
0.0
  0
LINE
  5
7E68
330
18
100
AcDbEntity
  8
0
100
AcDbLine
 10
-124.1707076761156
 20
315.043212507496
 30
0.0
 11
-123.8207076761156
 21
315.043212507496
 31
0.0
  0
LINE
  5
7E69
330
18
100
AcDbEntity
  8
0
100
AcDbLine
 10
-123.8207076761156
 20
314.768212507496
 30
0.0
 11
-124.1707076761156
 21
314.768212507496
 31
0.0
  0
LINE
  5
7E6A
330
18
100
AcDbEntity
  8
0
100
AcDbLine
 10
-124.1707076761156
 20
314.768212507496
 30
0.0
 11
-124.1707076761156
 21
313.7932125074961
 31
0.0
  0
LINE
  5
7E6B
330
18
100
AcDbEntity
  8
0
100
AcDbLine
 10
-124.1707076761156
 20
313.7932125074961
 30
0.0
 11
-123.8207076761156
 21
313.7932125074961
 31
0.0
  0
LINE
  5
7E6C
330
18
100
AcDbEntity
  8
0
100
AcDbLine
 10
-123.8207076761156
 20
313.7932125074961
 30
0.0
 11
-123.8207076761156
 21
314.768212507496
 31
0.0
  0
LINE
  5
7E6D
330
18
100
AcDbEntity
  8
0
100
AcDbLine
 10
-123.8457076761155
 20
313.5682125074962
 30
0.0
 11
-124.1957076761156
 21
313.5682125074962
 31
0.0
  0
LINE
  5
7E6E
330
18
100
AcDbEntity
  8
0
100
AcDbLine
 10
-124.1957076761156
 20
313.5682125074962
 30
0.0
 11
-124.1957076761156
 21
312.593212507496
 31
0.0
  0
LINE
  5
7E6F
330
18
100
AcDbEntity
  8
0
100
AcDbLine
 10
-124.1957076761156
 20
312.593212507496
 30
0.0
 11
-123.8457076761155
 21
312.593212507496
 31
0.0
  0
LINE
  5
7E70
330
18
100
AcDbEntity
  8
0
100
AcDbLine
 10
-123.8457076761155
 20
312.593212507496
 30
0.0
 11
-123.8457076761155
 21
313.5682125074962
 31
0.0
  0
LINE
  5
7E71
330
18
100
AcDbEntity
  8
0
100
AcDbLine
 10
-123.8457076761155
 20
312.3682125074961
 30
0.0
 11
-124.1957076761156
 21
312.3682125074961
 31
0.0
  0
LINE
  5
7E72
330
18
100
AcDbEntity
  8
0
100
AcDbLine
 10
-121.3957076761155
 20
316.0182125074959
 30
0.0
 11
-121.3957076761155
 21
315.043212507496
 31
0.0
  0
LINE
  5
7E73
330
18
100
AcDbEntity
  8
0
100
AcDbLine
 10
-121.0457076761156
 20
315.043212507496
 30
0.0
 11
-121.0457076761156
 21
316.0182125074959
 31
0.0
  0
LINE
  5
7E74
330
18
100
AcDbEntity
  8
0
100
AcDbLine
 10
-124.1707076761156
 20
316.0182125074959
 30
0.0
 11
-124.1707076761156
 21
315.043212507496
 31
0.0
  0
LINE
  5
7E75
330
18
100
AcDbEntity
  8
0
100
AcDbLine
 10
-123.8207076761156
 20
315.043212507496
 30
0.0
 11
-123.8207076761156
 21
316.0182125074959
 31
0.0
  0
LINE
  5
7E76
330
18
100
AcDbEntity
  8
0
100
AcDbLine
 10
-121.3957076761155
 20
321.0682125074961
 30
0.0
 11
-121.3957076761155
 21
320.093212507496
 31
0.0
  0
LINE
  5
7E77
330
18
100
AcDbEntity
  8
0
100
AcDbLine
 10
-121.0457076761156
 20
320.093212507496
 30
0.0
 11
-121.0457076761156
 21
321.0682125074961
 31
0.0
  0
LINE
  5
7E78
330
18
100
AcDbEntity
  8
0
100
AcDbLine
 10
-124.1707076761156
 20
321.0682125074961
 30
0.0
 11
-124.1707076761156
 21
320.093212507496
 31
0.0
  0
LINE
  5
7E79
330
18
100
AcDbEntity
  8
0
100
AcDbLine
 10
-123.8207076761156
 20
320.093212507496
 30
0.0
 11
-123.8207076761156
 21
321.0682125074961
 31
0.0
  0
LINE
  5
7E7A
330
18
100
AcDbEntity
  8
0
100
AcDbLine
 10
-121.4207076761156
 20
311.393212507496
 30
0.0
 11
-121.0707076761156
 21
311.393212507496
 31
0.0
  0
LINE
  5
7E7B
330
18
100
AcDbEntity
  8
0
100
AcDbLine
 10
-124.1957076761156
 20
311.393212507496
 30
0.0
 11
-123.8457076761155
 21
311.393212507496
 31
0.0
  0
LINE
  5
7E7C
330
18
100
AcDbEntity
  8
0
100
AcDbLine
 10
-124.1457076761155
 20
308.268212507496
 30
0.0
 11
-120.4457076761155
 21
309.2432125074961
 31
0.0
  0
LINE
  5
7E7D
330
18
100
AcDbEntity
  8
0
100
AcDbLine
 10
-121.4207076761156
 20
312.3682125074961
 30
0.0
 11
-121.4207076761156
 21
311.393212507496
 31
0.0
  0
LINE
  5
7E7E
330
18
100
AcDbEntity
  8
0
100
AcDbLine
 10
-121.0707076761156
 20
311.393212507496
 30
0.0
 11
-121.0707076761156
 21
312.3682125074961
 31
0.0
  0
LINE
  5
7E7F
330
18
100
AcDbEntity
  8
0
100
AcDbLine
 10
-124.1957076761156
 20
312.3682125074961
 30
0.0
 11
-124.1957076761156
 21
311.393212507496
 31
0.0
  0
LINE
  5
7E80
330
18
100
AcDbEntity
  8
0
100
AcDbLine
 10
-123.8457076761155
 20
311.393212507496
 30
0.0
 11
-123.8457076761155
 21
312.3682125074961
 31
0.0
  0
LWPOLYLINE
  5
7E81
330
18
100
AcDbEntity
  8
0
100
AcDbPolyline
 90
        4
 70
     1
 43
0.0
 10
-120.6957076761155
 20
324.593212507496
 10
-124.3957076761155
 20
324.593212507496
 10
-124.3957076761155
 20
310.4432125074962
 10
-120.6957076761155
 20
310.4432125074962
  0
LINE
  5
7E82
330
18
100
AcDbEntity
  8
0
100
AcDbLine
 10
-119.5207076761155
 20
310.393212507496
 30
0.0
 11
-119.5207076761155
 21
324.5182125074959
 31
0.0
  0
LINE
  5
7E83
330
18
100
AcDbEntity
  8
0
100
AcDbLine
 10
-118.7707076761155
 20
355.018212507496
 30
0.0
 11
-126.3957076761155
 21
355.018212507496
 31
0.0
  0
LINE
  5
7E84
330
18
100
AcDbEntity
  8
0
100
AcDbLine
 10
-124.2707076761155
 20
352.9432125074961
 30
0.0
 11
-126.3957076761155
 21
352.9432125074961
 31
0.0
  0
LINE
  5
7E85
330
18
100
AcDbEntity
  8
0
100
AcDbLine
 10
-127.1957076761156
 20
348.7432125074961
 30
0.0
 11
-117.9707076761155
 21
348.7432125074961
 31
0.0
  0
LINE
  5
7E86
330
18
100
AcDbEntity
  8
0
100
AcDbLine
 10
-133.9707076761155
 20
347.418212507496
 30
0.0
 11
-118.9707076761155
 21
347.418212507496
 31
0.0
  0
LINE
  5
7E87
330
18
100
AcDbEntity
  8
0
100
AcDbLine
 10
-117.9707076761155
 20
333.9182125074961
 30
0.0
 11
-127.1957076761156
 21
333.9182125074961
 31
0.0
  0
LINE
  5
7E88
330
18
100
AcDbEntity
  8
0
100
AcDbLine
 10
-118.9707076761155
 20
334.4182125074961
 30
0.0
 11
-133.9707076761155
 21
334.4182125074961
 31
0.0
  0
LINE
  5
7E89
330
18
100
AcDbEntity
  8
0
100
AcDbLine
 10
-124.2707076761155
 20
330.3182125074962
 30
0.0
 11
-126.3957076761155
 21
330.3182125074962
 31
0.0
  0
LINE
  5
7E8A
330
18
100
AcDbEntity
  8
0
100
AcDbLine
 10
-118.7707076761155
 20
328.2432125074961
 30
0.0
 11
-126.3957076761155
 21
328.2432125074961
 31
0.0
  0
LINE
  5
7E8B
330
18
100
AcDbEntity
  8
0
100
AcDbLine
 10
-124.9707076761155
 20
347.418212507496
 30
0.0
 11
-124.9707076761155
 21
334.4182125074961
 31
0.0
  0
LINE
  5
7E8C
330
18
100
AcDbEntity
  8
0
100
AcDbLine
 10
-127.9707076761155
 20
347.418212507496
 30
0.0
 11
-127.9707076761155
 21
334.4182125074961
 31
0.0
  0
LINE
  5
7E8D
330
18
100
AcDbEntity
  8
0
100
AcDbLine
 10
-130.9707076761155
 20
346.4182125074961
 30
0.0
 11
-130.9707076761155
 21
335.418212507496
 31
0.0
  0
LINE
  5
7E8E
330
18
100
AcDbEntity
  8
0
100
AcDbLine
 10
-134.3707076761155
 20
346.4182125074961
 30
0.0
 11
-134.3707076761155
 21
342.4182125074961
 31
0.0
  0
LINE
  5
7E90
330
18
100
AcDbEntity
  8
0
100
AcDbLine
 10
-133.9707076761155
 20
334.4182125074961
 30
0.0
 11
-133.9707076761155
 21
347.418212507496
 31
0.0
  0
LINE
  5
7E91
330
18
100
AcDbEntity
  8
0
100
AcDbLine
 10
-132.9707076761155
 20
335.418212507496
 30
0.0
 11
-132.9707076761155
 21
346.4182125074961
 31
0.0
  0
LINE
  5
7E92
330
18
100
AcDbEntity
  8
0
100
AcDbLine
 10
-130.9707076761155
 20
335.418212507496
 30
0.0
 11
-132.9707076761155
 21
335.418212507496
 31
0.0
  0
LINE
  5
7E93
330
18
100
AcDbEntity
  8
0
100
AcDbLine
 10
-132.9707076761155
 20
334.068212507496
 30
0.0
 11
-128.9707076761155
 21
334.068212507496
 31
0.0
  0
LINE
  5
7E95
330
18
100
AcDbEntity
  8
0
100
AcDbLine
 10
-134.3707076761155
 20
335.418212507496
 30
0.0
 11
-134.3707076761155
 21
339.418212507496
 31
0.0
  0
LINE
  5
7E96
330
18
100
AcDbEntity
  8
0
100
AcDbLine
 10
-130.4207076761156
 20
345.418212507496
 30
0.0
 11
-130.4207076761156
 21
344.4182125074961
 31
0.0
  0
LINE
  5
7E97
330
18
100
AcDbEntity
  8
0
100
AcDbLine
 10
-130.4207076761156
 20
344.4182125074961
 30
0.0
 11
-130.9707076761155
 21
344.4182125074961
 31
0.0
  0
LINE
  5
7E98
330
18
100
AcDbEntity
  8
0
100
AcDbLine
 10
-130.9707076761155
 20
344.4182125074961
 30
0.0
 11
-130.9707076761155
 21
345.418212507496
 31
0.0
  0
LINE
  5
7E99
330
18
100
AcDbEntity
  8
0
100
AcDbLine
 10
-130.9707076761155
 20
345.418212507496
 30
0.0
 11
-130.4207076761156
 21
345.418212507496
 31
0.0
  0
LINE
  5
7E9A
330
18
100
AcDbEntity
  8
0
100
AcDbLine
 10
-130.4207076761156
 20
343.0182125074961
 30
0.0
 11
-130.4207076761156
 21
342.0182125074961
 31
0.0
  0
LINE
  5
7E9B
330
18
100
AcDbEntity
  8
0
100
AcDbLine
 10
-130.4207076761156
 20
342.0182125074961
 30
0.0
 11
-130.9707076761155
 21
342.0182125074961
 31
0.0
  0
LINE
  5
7E9C
330
18
100
AcDbEntity
  8
0
100
AcDbLine
 10
-130.9707076761155
 20
342.0182125074961
 30
0.0
 11
-130.9707076761155
 21
343.0182125074961
 31
0.0
  0
LINE
  5
7E9D
330
18
100
AcDbEntity
  8
0
100
AcDbLine
 10
-130.9707076761155
 20
343.0182125074961
 30
0.0
 11
-130.4207076761156
 21
343.0182125074961
 31
0.0
  0
LINE
  5
7E9E
330
18
100
AcDbEntity
  8
0
100
AcDbLine
 10
-130.4207076761156
 20
339.818212507496
 30
0.0
 11
-130.4207076761156
 21
338.818212507496
 31
0.0
  0
LINE
  5
7E9F
330
18
100
AcDbEntity
  8
0
100
AcDbLine
 10
-130.4207076761156
 20
338.818212507496
 30
0.0
 11
-130.9707076761155
 21
338.818212507496
 31
0.0
  0
LINE
  5
7EA0
330
18
100
AcDbEntity
  8
0
100
AcDbLine
 10
-130.9707076761155
 20
338.818212507496
 30
0.0
 11
-130.9707076761155
 21
339.818212507496
 31
0.0
  0
LINE
  5
7EA1
330
18
100
AcDbEntity
  8
0
100
AcDbLine
 10
-130.9707076761155
 20
339.818212507496
 30
0.0
 11
-130.4207076761156
 21
339.818212507496
 31
0.0
  0
LINE
  5
7EA2
330
18
100
AcDbEntity
  8
0
100
AcDbLine
 10
-130.4207076761156
 20
337.418212507496
 30
0.0
 11
-130.4207076761156
 21
336.4182125074961
 31
0.0
  0
LINE
  5
7EA3
330
18
100
AcDbEntity
  8
0
100
AcDbLine
 10
-130.4207076761156
 20
336.4182125074961
 30
0.0
 11
-130.9707076761155
 21
336.4182125074961
 31
0.0
  0
LINE
  5
7EA4
330
18
100
AcDbEntity
  8
0
100
AcDbLine
 10
-130.9707076761155
 20
336.4182125074961
 30
0.0
 11
-130.9707076761155
 21
337.418212507496
 31
0.0
  0
LINE
  5
7EA5
330
18
100
AcDbEntity
  8
0
100
AcDbLine
 10
-130.9707076761155
 20
337.418212507496
 30
0.0
 11
-130.4207076761156
 21
337.418212507496
 31
0.0
  0
LINE
  5
7EA6
330
18
100
AcDbEntity
  8
0
100
AcDbLine
 10
-126.3957076761155
 20
330.3182125074962
 30
0.0
 11
-126.3957076761155
 21
328.2432125074961
 31
0.0
  0
LINE
  5
7EA7
330
18
100
AcDbEntity
  8
0
100
AcDbLine
 10
-132.9707076761155
 20
347.843212507496
 30
0.0
 11
-128.9707076761155
 21
347.843212507496
 31
0.0
  0
LINE
  5
7EA9
330
18
100
AcDbEntity
  8
0
100
AcDbLine
 10
-132.9707076761155
 20
346.4182125074961
 30
0.0
 11
-130.9707076761155
 21
346.4182125074961
 31
0.0
  0
LINE
  5
7EAA
330
18
100
AcDbEntity
  8
0
100
AcDbLine
 10
-126.3957076761155
 20
352.9432125074961
 30
0.0
 11
-126.3957076761155
 21
355.018212507496
 31
0.0
  0
LINE
  5
7EAB
330
18
100
AcDbEntity
  8
0
100
AcDbLine
 10
-118.5707076761156
 20
346.4182125074961
 30
0.0
 11
-118.5707076761156
 21
342.4182125074961
 31
0.0
  0
LINE
  5
7EAC
330
18
100
AcDbEntity
  8
0
100
AcDbLine
 10
-118.9707076761155
 20
347.418212507496
 30
0.0
 11
-118.9707076761155
 21
334.4182125074961
 31
0.0
  0
LINE
  5
7EAD
330
18
100
AcDbEntity
  8
0
100
AcDbLine
 10
-121.9707076761155
 20
346.4182125074961
 30
0.0
 11
-121.9707076761155
 21
335.418212507496
 31
0.0
  0
LINE
  5
7EAE
330
18
100
AcDbEntity
  8
0
100
AcDbLine
 10
-123.9707076761155
 20
335.418212507496
 30
0.0
 11
-123.9707076761155
 21
346.4182125074961
 31
0.0
  0
LINE
  5
7EAF
330
18
100
AcDbEntity
  8
0
100
AcDbLine
 10
-121.4207076761156
 20
345.418212507496
 30
0.0
 11
-121.4207076761156
 21
344.4182125074961
 31
0.0
  0
LINE
  5
7EB0
330
18
100
AcDbEntity
  8
0
100
AcDbLine
 10
-121.4207076761156
 20
344.4182125074961
 30
0.0
 11
-121.9707076761155
 21
344.4182125074961
 31
0.0
  0
LINE
  5
7EB1
330
18
100
AcDbEntity
  8
0
100
AcDbLine
 10
-121.9707076761155
 20
344.4182125074961
 30
0.0
 11
-121.9707076761155
 21
345.418212507496
 31
0.0
  0
LINE
  5
7EB2
330
18
100
AcDbEntity
  8
0
100
AcDbLine
 10
-121.9707076761155
 20
345.418212507496
 30
0.0
 11
-121.4207076761156
 21
345.418212507496
 31
0.0
  0
LINE
  5
7EB3
330
18
100
AcDbEntity
  8
0
100
AcDbLine
 10
-121.4207076761156
 20
343.0182125074961
 30
0.0
 11
-121.4207076761156
 21
342.0182125074961
 31
0.0
  0
LINE
  5
7EB4
330
18
100
AcDbEntity
  8
0
100
AcDbLine
 10
-121.4207076761156
 20
342.0182125074961
 30
0.0
 11
-121.9707076761155
 21
342.0182125074961
 31
0.0
  0
LINE
  5
7EB5
330
18
100
AcDbEntity
  8
0
100
AcDbLine
 10
-121.9707076761155
 20
342.0182125074961
 30
0.0
 11
-121.9707076761155
 21
343.0182125074961
 31
0.0
  0
LINE
  5
7EB6
330
18
100
AcDbEntity
  8
0
100
AcDbLine
 10
-121.9707076761155
 20
343.0182125074961
 30
0.0
 11
-121.4207076761156
 21
343.0182125074961
 31
0.0
  0
LINE
  5
7EB7
330
18
100
AcDbEntity
  8
0
100
AcDbLine
 10
-121.4207076761156
 20
339.818212507496
 30
0.0
 11
-121.4207076761156
 21
338.818212507496
 31
0.0
  0
LINE
  5
7EB8
330
18
100
AcDbEntity
  8
0
100
AcDbLine
 10
-121.4207076761156
 20
338.818212507496
 30
0.0
 11
-121.9707076761155
 21
338.818212507496
 31
0.0
  0
LINE
  5
7EB9
330
18
100
AcDbEntity
  8
0
100
AcDbLine
 10
-121.9707076761155
 20
338.818212507496
 30
0.0
 11
-121.9707076761155
 21
339.818212507496
 31
0.0
  0
LINE
  5
7EBA
330
18
100
AcDbEntity
  8
0
100
AcDbLine
 10
-121.9707076761155
 20
339.818212507496
 30
0.0
 11
-121.4207076761156
 21
339.818212507496
 31
0.0
  0
LINE
  5
7EBB
330
18
100
AcDbEntity
  8
0
100
AcDbLine
 10
-121.4207076761156
 20
337.418212507496
 30
0.0
 11
-121.4207076761156
 21
336.4182125074961
 31
0.0
  0
LINE
  5
7EBC
330
18
100
AcDbEntity
  8
0
100
AcDbLine
 10
-121.4207076761156
 20
336.4182125074961
 30
0.0
 11
-121.9707076761155
 21
336.4182125074961
 31
0.0
  0
LINE
  5
7EBD
330
18
100
AcDbEntity
  8
0
100
AcDbLine
 10
-121.9707076761155
 20
336.4182125074961
 30
0.0
 11
-121.9707076761155
 21
337.418212507496
 31
0.0
  0
LINE
  5
7EBE
330
18
100
AcDbEntity
  8
0
100
AcDbLine
 10
-121.9707076761155
 20
337.418212507496
 30
0.0
 11
-121.4207076761156
 21
337.418212507496
 31
0.0
  0
LINE
  5
7EBF
330
18
100
AcDbEntity
  8
0
100
AcDbLine
 10
-118.5707076761156
 20
335.418212507496
 30
0.0
 11
-118.5707076761156
 21
339.418212507496
 31
0.0
  0
LINE
  5
7EC0
330
18
100
AcDbEntity
  8
0
100
AcDbLine
 10
-121.9707076761155
 20
335.418212507496
 30
0.0
 11
-123.9707076761155
 21
335.418212507496
 31
0.0
  0
LINE
  5
7EC1
330
18
100
AcDbEntity
  8
0
100
AcDbLine
 10
-119.9707076761155
 20
334.068212507496
 30
0.0
 11
-123.9707076761155
 21
334.068212507496
 31
0.0
  0
LINE
  5
7EC2
330
18
100
AcDbEntity
  8
0
100
AcDbLine
 10
-120.6957076761156
 20
330.343212507496
 30
0.0
 11
-120.6957076761156
 21
329.3682125074961
 31
0.0
  0
LINE
  5
7EC3
330
18
100
AcDbEntity
  8
0
100
AcDbLine
 10
-118.7707076761155
 20
330.3182125074962
 30
0.0
 11
-120.6957076761156
 21
330.3182125074962
 31
0.0
  0
LINE
  5
7EC4
330
18
100
AcDbEntity
  8
0
100
AcDbLine
 10
-118.7707076761155
 20
330.3182125074962
 30
0.0
 11
-118.7707076761155
 21
328.2432125074961
 31
0.0
  0
LINE
  5
7EC5
330
18
100
AcDbEntity
  8
0
100
AcDbLine
 10
-124.2707076761155
 20
330.3182125074962
 30
0.0
 11
-124.2707076761155
 21
329.343212507496
 31
0.0
  0
LINE
  5
7EC6
330
18
100
AcDbEntity
  8
0
100
AcDbLine
 10
-120.6957076761156
 20
329.343212507496
 30
0.0
 11
-124.2707076761155
 21
329.343212507496
 31
0.0
  0
LINE
  5
7EC7
330
18
100
AcDbEntity
  8
0
100
AcDbLine
 10
-121.0457076761156
 20
361.1182125074961
 30
0.0
 11
-121.3957076761155
 21
361.1182125074961
 31
0.0
  0
LINE
  5
7EC8
330
18
100
AcDbEntity
  8
0
100
AcDbLine
 10
-121.3957076761155
 20
365.2432125074961
 30
0.0
 11
-121.0457076761156
 21
365.2432125074961
 31
0.0
  0
LINE
  5
7EC9
330
18
100
AcDbEntity
  8
0
100
AcDbLine
 10
-121.0457076761156
 20
364.9932125074961
 30
0.0
 11
-121.3957076761155
 21
364.9932125074961
 31
0.0
  0
LINE
  5
7ECA
330
18
100
AcDbEntity
  8
0
100
AcDbLine
 10
-121.3957076761155
 20
364.9932125074961
 30
0.0
 11
-121.3957076761155
 21
364.0182125074959
 31
0.0
  0
LINE
  5
7ECB
330
18
100
AcDbEntity
  8
0
100
AcDbLine
 10
-121.3957076761155
 20
364.0182125074959
 30
0.0
 11
-121.0457076761156
 21
364.0182125074959
 31
0.0
  0
LINE
  5
7ECC
330
18
100
AcDbEntity
  8
0
100
AcDbLine
 10
-121.0457076761156
 20
364.0182125074959
 30
0.0
 11
-121.0457076761156
 21
364.9932125074961
 31
0.0
  0
LINE
  5
7ECD
330
18
100
AcDbEntity
  8
0
100
AcDbLine
 10
-121.0457076761156
 20
363.718212507496
 30
0.0
 11
-121.3957076761155
 21
363.718212507496
 31
0.0
  0
LINE
  5
7ECE
330
18
100
AcDbEntity
  8
0
100
AcDbLine
 10
-121.3957076761155
 20
363.718212507496
 30
0.0
 11
-121.3957076761155
 21
362.768212507496
 31
0.0
  0
LINE
  5
7ECF
330
18
100
AcDbEntity
  8
0
100
AcDbLine
 10
-121.3957076761155
 20
362.768212507496
 30
0.0
 11
-121.0457076761156
 21
362.768212507496
 31
0.0
  0
LINE
  5
7ED0
330
18
100
AcDbEntity
  8
0
100
AcDbLine
 10
-121.0457076761156
 20
362.768212507496
 30
0.0
 11
-121.0457076761156
 21
363.718212507496
 31
0.0
  0
LINE
  5
7ED1
330
18
100
AcDbEntity
  8
0
100
AcDbLine
 10
-121.0457076761156
 20
362.393212507496
 30
0.0
 11
-121.3957076761155
 21
362.393212507496
 31
0.0
  0
LINE
  5
7ED2
330
18
100
AcDbEntity
  8
0
100
AcDbLine
 10
-121.3957076761155
 20
362.393212507496
 30
0.0
 11
-121.3957076761155
 21
361.4182125074961
 31
0.0
  0
LINE
  5
7ED3
330
18
100
AcDbEntity
  8
0
100
AcDbLine
 10
-121.3957076761155
 20
361.4182125074961
 30
0.0
 11
-121.0457076761156
 21
361.4182125074961
 31
0.0
  0
LINE
  5
7ED4
330
18
100
AcDbEntity
  8
0
100
AcDbLine
 10
-121.0457076761156
 20
361.4182125074961
 30
0.0
 11
-121.0457076761156
 21
362.393212507496
 31
0.0
  0
LINE
  5
7ED5
330
18
100
AcDbEntity
  8
0
100
AcDbLine
 10
-121.3957076761155
 20
360.143212507496
 30
0.0
 11
-121.0457076761156
 21
360.143212507496
 31
0.0
  0
LINE
  5
7ED6
330
18
100
AcDbEntity
  8
0
100
AcDbLine
 10
-121.0457076761156
 20
359.9432125074962
 30
0.0
 11
-121.3957076761155
 21
359.9432125074962
 31
0.0
  0
LINE
  5
7ED7
330
18
100
AcDbEntity
  8
0
100
AcDbLine
 10
-121.3957076761155
 20
361.1182125074961
 30
0.0
 11
-121.3957076761155
 21
360.143212507496
 31
0.0
  0
LINE
  5
7ED8
330
18
100
AcDbEntity
  8
0
100
AcDbLine
 10
-121.0457076761156
 20
360.143212507496
 30
0.0
 11
-121.0457076761156
 21
361.1182125074961
 31
0.0
  0
LINE
  5
7ED9
330
18
100
AcDbEntity
  8
0
100
AcDbLine
 10
-123.8207076761156
 20
361.1182125074961
 30
0.0
 11
-124.1707076761156
 21
361.1182125074961
 31
0.0
  0
LINE
  5
7EDA
330
18
100
AcDbEntity
  8
0
100
AcDbLine
 10
-124.1707076761156
 20
365.2432125074961
 30
0.0
 11
-123.8207076761156
 21
365.2432125074961
 31
0.0
  0
LINE
  5
7EDB
330
18
100
AcDbEntity
  8
0
100
AcDbLine
 10
-123.8207076761156
 20
364.9932125074961
 30
0.0
 11
-124.1707076761156
 21
364.9932125074961
 31
0.0
  0
LINE
  5
7EDC
330
18
100
AcDbEntity
  8
0
100
AcDbLine
 10
-124.1707076761156
 20
364.9932125074961
 30
0.0
 11
-124.1707076761156
 21
364.0182125074959
 31
0.0
  0
LINE
  5
7EDD
330
18
100
AcDbEntity
  8
0
100
AcDbLine
 10
-124.1707076761156
 20
364.0182125074959
 30
0.0
 11
-123.8207076761156
 21
364.0182125074959
 31
0.0
  0
LINE
  5
7EDE
330
18
100
AcDbEntity
  8
0
100
AcDbLine
 10
-123.8207076761156
 20
364.0182125074959
 30
0.0
 11
-123.8207076761156
 21
364.9932125074961
 31
0.0
  0
LINE
  5
7EDF
330
18
100
AcDbEntity
  8
0
100
AcDbLine
 10
-123.8207076761156
 20
363.718212507496
 30
0.0
 11
-124.1707076761156
 21
363.718212507496
 31
0.0
  0
LINE
  5
7EE0
330
18
100
AcDbEntity
  8
0
100
AcDbLine
 10
-124.1707076761156
 20
363.718212507496
 30
0.0
 11
-124.1707076761156
 21
362.768212507496
 31
0.0
  0
LINE
  5
7EE1
330
18
100
AcDbEntity
  8
0
100
AcDbLine
 10
-124.1707076761156
 20
362.768212507496
 30
0.0
 11
-123.8207076761156
 21
362.768212507496
 31
0.0
  0
LINE
  5
7EE2
330
18
100
AcDbEntity
  8
0
100
AcDbLine
 10
-123.8207076761156
 20
362.768212507496
 30
0.0
 11
-123.8207076761156
 21
363.718212507496
 31
0.0
  0
LINE
  5
7EE3
330
18
100
AcDbEntity
  8
0
100
AcDbLine
 10
-123.8207076761156
 20
362.393212507496
 30
0.0
 11
-124.1707076761156
 21
362.393212507496
 31
0.0
  0
LINE
  5
7EE4
330
18
100
AcDbEntity
  8
0
100
AcDbLine
 10
-124.1707076761156
 20
362.393212507496
 30
0.0
 11
-124.1707076761156
 21
361.4182125074961
 31
0.0
  0
LINE
  5
7EE5
330
18
100
AcDbEntity
  8
0
100
AcDbLine
 10
-124.1707076761156
 20
361.4182125074961
 30
0.0
 11
-123.8207076761156
 21
361.4182125074961
 31
0.0
  0
LINE
  5
7EE6
330
18
100
AcDbEntity
  8
0
100
AcDbLine
 10
-123.8207076761156
 20
361.4182125074961
 30
0.0
 11
-123.8207076761156
 21
362.393212507496
 31
0.0
  0
LINE
  5
7EE7
330
18
100
AcDbEntity
  8
0
100
AcDbLine
 10
-124.1707076761156
 20
360.143212507496
 30
0.0
 11
-123.8207076761156
 21
360.143212507496
 31
0.0
  0
LINE
  5
7EE8
330
18
100
AcDbEntity
  8
0
100
AcDbLine
 10
-123.8207076761156
 20
359.9432125074962
 30
0.0
 11
-124.1707076761156
 21
359.9432125074962
 31
0.0
  0
LINE
  5
7EE9
330
18
100
AcDbEntity
  8
0
100
AcDbLine
 10
-124.1707076761156
 20
361.1182125074961
 30
0.0
 11
-124.1707076761156
 21
360.143212507496
 31
0.0
  0
LINE
  5
7EEA
330
18
100
AcDbEntity
  8
0
100
AcDbLine
 10
-123.8207076761156
 20
360.143212507496
 30
0.0
 11
-123.8207076761156
 21
361.1182125074961
 31
0.0
  0
LINE
  5
7EEB
330
18
100
AcDbEntity
  8
0
100
AcDbLine
 10
-121.3957076761155
 20
358.968212507496
 30
0.0
 11
-121.0457076761156
 21
358.968212507496
 31
0.0
  0
LINE
  5
7EEC
330
18
100
AcDbEntity
  8
0
100
AcDbLine
 10
-124.1707076761156
 20
358.968212507496
 30
0.0
 11
-123.8207076761156
 21
358.968212507496
 31
0.0
  0
LINE
  5
7EED
330
18
100
AcDbEntity
  8
0
100
AcDbLine
 10
-124.1457076761155
 20
356.4432125074961
 30
0.0
 11
-120.4457076761155
 21
357.4182125074961
 31
0.0
  0
LINE
  5
7EEE
330
18
100
AcDbEntity
  8
0
100
AcDbLine
 10
-120.6957076761156
 20
353.918212507496
 30
0.0
 11
-124.2707076761155
 21
353.918212507496
 31
0.0
  0
LINE
  5
7EEF
330
18
100
AcDbEntity
  8
0
100
AcDbLine
 10
-121.3957076761155
 20
359.9432125074962
 30
0.0
 11
-121.3957076761155
 21
358.968212507496
 31
0.0
  0
LINE
  5
7EF0
330
18
100
AcDbEntity
  8
0
100
AcDbLine
 10
-121.0457076761156
 20
358.968212507496
 30
0.0
 11
-121.0457076761156
 21
359.9432125074962
 31
0.0
  0
LINE
  5
7EF1
330
18
100
AcDbEntity
  8
0
100
AcDbLine
 10
-124.1707076761156
 20
359.9432125074962
 30
0.0
 11
-124.1707076761156
 21
358.968212507496
 31
0.0
  0
LINE
  5
7EF2
330
18
100
AcDbEntity
  8
0
100
AcDbLine
 10
-123.8207076761156
 20
358.968212507496
 30
0.0
 11
-123.8207076761156
 21
359.9432125074962
 31
0.0
  0
LINE
  5
7EF3
330
18
100
AcDbEntity
  8
0
100
AcDbLine
 10
-118.7707076761155
 20
352.9432125074961
 30
0.0
 11
-120.6957076761156
 21
352.9432125074961
 31
0.0
  0
LINE
  5
7EF4
330
18
100
AcDbEntity
  8
0
100
AcDbLine
 10
-120.6957076761156
 20
352.9182125074961
 30
0.0
 11
-120.6957076761156
 21
353.893212507496
 31
0.0
  0
LINE
  5
7EF5
330
18
100
AcDbEntity
  8
0
100
AcDbLine
 10
-124.2707076761155
 20
352.9432125074961
 30
0.0
 11
-124.2707076761155
 21
353.918212507496
 31
0.0
  0
LINE
  5
7EF6
330
18
100
AcDbEntity
  8
0
100
AcDbLine
 10
-118.7707076761155
 20
352.9432125074961
 30
0.0
 11
-118.7707076761155
 21
355.018212507496
 31
0.0
  0
LINE
  5
7EF7
330
18
100
AcDbEntity
  8
0
100
AcDbLine
 10
-119.9707076761155
 20
347.843212507496
 30
0.0
 11
-123.9707076761155
 21
347.843212507496
 31
0.0
  0
LINE
  5
7EF8
330
18
100
AcDbEntity
  8
0
100
AcDbLine
 10
-123.9707076761155
 20
346.4182125074961
 30
0.0
 11
-121.9707076761155
 21
346.4182125074961
 31
0.0
  0
LINE
  5
7EF9
330
18
100
AcDbEntity
  8
0
100
AcDbLine
 10
-125.4957076761155
 20
393.9182125074961
 30
0.0
 11
-117.9707076761155
 21
393.9182125074961
 31
0.0
  0
LINE
  5
7EFB
330
18
100
AcDbEntity
  8
0
100
AcDbLine
 10
-117.9707076761155
 20
380.9182125074961
 30
0.0
 11
-125.4957076761155
 21
380.9182125074961
 31
0.0
  0
LINE
  5
7EFC
330
18
100
AcDbEntity
  8
0
100
AcDbLine
 10
-124.2707076761155
 20
373.8182125074962
 30
0.0
 11
-126.3957076761155
 21
373.8182125074962
 31
0.0
  0
LINE
  5
7EFD
330
18
100
AcDbEntity
  8
0
100
AcDbLine
 10
-117.9707076761155
 20
377.4182125074961
 30
0.0
 11
-127.1957076761156
 21
377.4182125074961
 31
0.0
  0
LINE
  5
7EFE
330
18
100
AcDbEntity
  8
0
100
AcDbLine
 10
-118.7707076761155
 20
371.7432125074961
 30
0.0
 11
-126.3957076761155
 21
371.7432125074961
 31
0.0
  0
LINE
  5
7EFF
330
18
100
AcDbEntity
  8
0
100
AcDbLine
 10
-125.4957076761155
 20
380.9182125074961
 30
0.0
 11
-125.4957076761155
 21
393.9182125074961
 31
0.0
  0
LINE
  5
7F00
330
18
100
AcDbEntity
  8
0
100
AcDbLine
 10
-126.3957076761155
 20
373.8182125074962
 30
0.0
 11
-126.3957076761155
 21
371.7432125074961
 31
0.0
  0
LINE
  5
7F01
330
18
100
AcDbEntity
  8
0
100
AcDbLine
 10
-124.1457076761155
 20
387.0932125074961
 30
0.0
 11
-124.5457076761156
 21
384.3182125074962
 31
0.0
  0
LINE
  5
7F02
330
18
100
AcDbEntity
  8
0
100
AcDbLine
 10
-123.7207076761155
 20
384.3182125074962
 30
0.0
 11
-123.2957076761156
 21
387.0932125074961
 31
0.0
  0
LINE
  5
7F03
330
18
100
AcDbEntity
  8
0
100
AcDbLine
 10
-120.4707076761155
 20
387.0932125074961
 30
0.0
 11
-120.8957076761155
 21
384.3182125074962
 31
0.0
  0
LINE
  5
7F04
330
18
100
AcDbEntity
  8
0
100
AcDbLine
 10
-120.0707076761156
 20
384.3182125074962
 30
0.0
 11
-119.6207076761155
 21
387.0932125074961
 31
0.0
  0
LINE
  5
7F05
330
18
100
AcDbEntity
  8
0
100
AcDbLine
 10
-117.9707076761155
 20
393.9182125074961
 30
0.0
 11
-117.9707076761155
 21
380.9182125074961
 31
0.0
  0
LINE
  5
7F06
330
18
100
AcDbEntity
  8
0
100
AcDbLine
 10
-121.3207076761156
 20
383.518212507496
 30
0.0
 11
-120.8957076761155
 21
383.9182125074961
 31
0.0
  0
LINE
  5
7F07
330
18
100
AcDbEntity
  8
0
100
AcDbLine
 10
-120.8957076761155
 20
383.9182125074961
 30
0.0
 11
-121.3207076761156
 21
384.3432125074961
 31
0.0
  0
LINE
  5
7F08
330
18
100
AcDbEntity
  8
0
100
AcDbLine
 10
-120.8957076761155
 20
384.3182125074962
 30
0.0
 11
-120.4707076761155
 21
383.9182125074961
 31
0.0
  0
LINE
  5
7F09
330
18
100
AcDbEntity
  8
0
100
AcDbLine
 10
-120.4707076761155
 20
383.9182125074961
 30
0.0
 11
-120.0707076761156
 21
384.3182125074962
 31
0.0
  0
LINE
  5
7F0A
330
18
100
AcDbEntity
  8
0
100
AcDbLine
 10
-123.4207076761156
 20
384.3432125074961
 30
0.0
 11
-123.8707076761155
 21
383.9182125074961
 31
0.0
  0
LINE
  5
7F0B
330
18
100
AcDbEntity
  8
0
100
AcDbLine
 10
-123.8707076761155
 20
383.9182125074961
 30
0.0
 11
-123.4207076761156
 21
383.518212507496
 31
0.0
  0
LINE
  5
7F0C
330
18
100
AcDbEntity
  8
0
100
AcDbLine
 10
-124.5457076761156
 20
384.3182125074962
 30
0.0
 11
-124.1457076761155
 21
383.9182125074961
 31
0.0
  0
LINE
  5
7F0D
330
18
100
AcDbEntity
  8
0
100
AcDbLine
 10
-124.1457076761155
 20
383.9182125074961
 30
0.0
 11
-123.7207076761155
 21
384.3182125074962
 31
0.0
  0
LINE
  5
7F0E
330
18
100
AcDbEntity
  8
0
100
AcDbLine
 10
-123.4207076761156
 20
383.518212507496
 30
0.0
 11
-121.3207076761156
 21
383.518212507496
 31
0.0
  0
LINE
  5
7F0F
330
18
100
AcDbEntity
  8
0
100
AcDbLine
 10
-121.3207076761156
 20
384.3432125074961
 30
0.0
 11
-123.4207076761156
 21
384.3432125074961
 31
0.0
  0
LINE
  5
7F10
330
18
100
AcDbEntity
  8
0
100
AcDbLine
 10
-118.7707076761155
 20
373.8182125074962
 30
0.0
 11
-120.6957076761156
 21
373.8182125074962
 31
0.0
  0
LINE
  5
7F11
330
18
100
AcDbEntity
  8
0
100
AcDbLine
 10
-120.6957076761156
 20
373.843212507496
 30
0.0
 11
-120.6957076761156
 21
372.8682125074961
 31
0.0
  0
LINE
  5
7F12
330
18
100
AcDbEntity
  8
0
100
AcDbLine
 10
-124.2707076761155
 20
373.8182125074962
 30
0.0
 11
-124.2707076761155
 21
372.843212507496
 31
0.0
  0
LINE
  5
7F13
330
18
100
AcDbEntity
  8
0
100
AcDbLine
 10
-120.6957076761156
 20
372.843212507496
 30
0.0
 11
-124.2707076761155
 21
372.843212507496
 31
0.0
  0
LINE
  5
7F14
330
18
100
AcDbEntity
  8
0
100
AcDbLine
 10
-121.0457076761156
 20
367.4932125074961
 30
0.0
 11
-121.3957076761155
 21
367.4932125074961
 31
0.0
  0
LINE
  5
7F15
330
18
100
AcDbEntity
  8
0
100
AcDbLine
 10
-121.3957076761155
 20
366.4932125074961
 30
0.0
 11
-121.0457076761156
 21
366.4932125074961
 31
0.0
  0
LINE
  5
7F16
330
18
100
AcDbEntity
  8
0
100
AcDbLine
 10
-121.3957076761155
 20
367.4932125074961
 30
0.0
 11
-121.3957076761155
 21
366.4932125074961
 31
0.0
  0
LINE
  5
7F17
330
18
100
AcDbEntity
  8
0
100
AcDbLine
 10
-121.0457076761156
 20
366.4932125074961
 30
0.0
 11
-121.0457076761156
 21
367.4932125074961
 31
0.0
  0
LINE
  5
7F18
330
18
100
AcDbEntity
  8
0
100
AcDbLine
 10
-123.8207076761156
 20
367.4932125074961
 30
0.0
 11
-124.1707076761156
 21
367.4932125074961
 31
0.0
  0
LINE
  5
7F19
330
18
100
AcDbEntity
  8
0
100
AcDbLine
 10
-124.1707076761156
 20
366.4932125074961
 30
0.0
 11
-123.8207076761156
 21
366.4932125074961
 31
0.0
  0
LINE
  5
7F1A
330
18
100
AcDbEntity
  8
0
100
AcDbLine
 10
-124.1707076761156
 20
367.4932125074961
 30
0.0
 11
-124.1707076761156
 21
366.4932125074961
 31
0.0
  0
LINE
  5
7F1B
330
18
100
AcDbEntity
  8
0
100
AcDbLine
 10
-123.8207076761156
 20
366.4932125074961
 30
0.0
 11
-123.8207076761156
 21
367.4932125074961
 31
0.0
  0
LINE
  5
7F1C
330
18
100
AcDbEntity
  8
0
100
AcDbLine
 10
-120.4457076761155
 20
369.1932125074961
 30
0.0
 11
-124.1457076761155
 21
370.1182125074961
 31
0.0
  0
LINE
  5
7F1D
330
18
100
AcDbEntity
  8
0
100
AcDbLine
 10
-121.0457076761156
 20
366.218212507496
 30
0.0
 11
-121.3957076761155
 21
366.218212507496
 31
0.0
  0
LINE
  5
7F1E
330
18
100
AcDbEntity
  8
0
100
AcDbLine
 10
-123.8207076761156
 20
366.218212507496
 30
0.0
 11
-124.1707076761156
 21
366.218212507496
 31
0.0
  0
LINE
  5
7F1F
330
18
100
AcDbEntity
  8
0
100
AcDbLine
 10
-118.7707076761155
 20
373.8182125074962
 30
0.0
 11
-118.7707076761155
 21
371.7432125074961
 31
0.0
  0
LINE
  5
7F20
330
18
100
AcDbEntity
  8
0
100
AcDbLine
 10
-122.8707076761155
 20
387.2432125074962
 30
0.0
 11
-120.7707076761155
 21
387.2432125074962
 31
0.0
  0
LINE
  5
7F21
330
18
100
AcDbEntity
  8
0
100
AcDbLine
 10
-120.7707076761155
 20
387.2432125074962
 30
0.0
 11
-120.3707076761155
 21
387.643212507496
 31
0.0
  0
LINE
  5
7F22
330
18
100
AcDbEntity
  8
0
100
AcDbLine
 10
-120.3707076761155
 20
387.643212507496
 30
0.0
 11
-120.7707076761155
 21
388.0432125074961
 31
0.0
  0
LINE
  5
7F23
330
18
100
AcDbEntity
  8
0
100
AcDbLine
 10
-120.7707076761155
 20
388.0432125074961
 30
0.0
 11
-122.8707076761155
 21
388.0432125074961
 31
0.0
  0
LINE
  5
7F24
330
18
100
AcDbEntity
  8
0
100
AcDbLine
 10
-122.3457076761155
 20
391.6182125074961
 30
0.0
 11
-122.7707076761155
 21
391.2432125074961
 31
0.0
  0
LINE
  5
7F25
330
18
100
AcDbEntity
  8
0
100
AcDbLine
 10
-122.7707076761155
 20
391.2432125074961
 30
0.0
 11
-122.3457076761155
 21
390.8182125074962
 31
0.0
  0
LINE
  5
7F26
330
18
100
AcDbEntity
  8
0
100
AcDbLine
 10
-122.3457076761155
 20
390.8182125074962
 30
0.0
 11
-120.2207076761155
 21
390.8182125074962
 31
0.0
  0
LINE
  5
7F27
330
18
100
AcDbEntity
  8
0
100
AcDbLine
 10
-120.2207076761155
 20
390.8182125074962
 30
0.0
 11
-119.8207076761156
 21
391.2432125074961
 31
0.0
  0
LINE
  5
7F28
330
18
100
AcDbEntity
  8
0
100
AcDbLine
 10
-119.8207076761156
 20
391.2432125074961
 30
0.0
 11
-120.2207076761155
 21
391.6182125074961
 31
0.0
  0
LINE
  5
7F29
330
18
100
AcDbEntity
  8
0
100
AcDbLine
 10
-120.2207076761155
 20
391.6182125074961
 30
0.0
 11
-122.3457076761155
 21
391.6182125074961
 31
0.0
  0
LINE
  5
7F2A
330
18
100
AcDbEntity
  8
0
100
AcDbLine
 10
-120.0707076761156
 20
387.518212507496
 30
0.0
 11
-120.4707076761155
 21
387.0932125074961
 31
0.0
  0
LINE
  5
7F2B
330
18
100
AcDbEntity
  8
0
100
AcDbLine
 10
-119.6207076761155
 20
387.0932125074961
 30
0.0
 11
-120.0707076761156
 21
387.518212507496
 31
0.0
  0
LINE
  5
7F2C
330
18
100
AcDbEntity
  8
0
100
AcDbLine
 10
-119.4957076761155
 20
391.2432125074961
 30
0.0
 11
-119.9207076761156
 21
390.8432125074961
 31
0.0
  0
LINE
  5
7F2D
330
18
100
AcDbEntity
  8
0
100
AcDbLine
 10
-119.9207076761156
 20
390.8432125074961
 30
0.0
 11
-120.3207076761156
 21
388.0432125074961
 31
0.0
  0
LINE
  5
7F2E
330
18
100
AcDbEntity
  8
0
100
AcDbLine
 10
-120.3207076761156
 20
388.0432125074961
 30
0.0
 11
-119.9207076761156
 21
387.643212507496
 31
0.0
  0
LINE
  5
7F2F
330
18
100
AcDbEntity
  8
0
100
AcDbLine
 10
-119.9207076761156
 20
387.643212507496
 30
0.0
 11
-119.4957076761155
 21
388.0432125074961
 31
0.0
  0
LINE
  5
7F30
330
18
100
AcDbEntity
  8
0
100
AcDbLine
 10
-119.4957076761155
 20
388.0432125074961
 30
0.0
 11
-119.0707076761156
 21
390.8432125074961
 31
0.0
  0
LINE
  5
7F31
330
18
100
AcDbEntity
  8
0
100
AcDbLine
 10
-119.0707076761156
 20
390.8432125074961
 30
0.0
 11
-119.4957076761155
 21
391.2432125074961
 31
0.0
  0
LINE
  5
7F32
330
18
100
AcDbEntity
  8
0
100
AcDbLine
 10
-123.7207076761155
 20
387.518212507496
 30
0.0
 11
-124.1457076761155
 21
387.0932125074961
 31
0.0
  0
LINE
  5
7F33
330
18
100
AcDbEntity
  8
0
100
AcDbLine
 10
-123.2957076761156
 20
387.0932125074961
 30
0.0
 11
-123.7207076761155
 21
387.518212507496
 31
0.0
  0
LINE
  5
7F34
330
18
100
AcDbEntity
  8
0
100
AcDbLine
 10
-123.1707076761156
 20
391.2432125074961
 30
0.0
 11
-123.5707076761155
 21
390.8432125074961
 31
0.0
  0
LINE
  5
7F35
330
18
100
AcDbEntity
  8
0
100
AcDbLine
 10
-123.5707076761155
 20
390.8432125074961
 30
0.0
 11
-123.9957076761155
 21
388.0432125074961
 31
0.0
  0
LINE
  5
7F36
330
18
100
AcDbEntity
  8
0
100
AcDbLine
 10
-123.9957076761155
 20
388.0432125074961
 30
0.0
 11
-123.5707076761155
 21
387.643212507496
 31
0.0
  0
LINE
  5
7F37
330
18
100
AcDbEntity
  8
0
100
AcDbLine
 10
-123.5707076761155
 20
387.643212507496
 30
0.0
 11
-123.1707076761156
 21
388.0432125074961
 31
0.0
  0
LINE
  5
7F38
330
18
100
AcDbEntity
  8
0
100
AcDbLine
 10
-122.8707076761155
 20
388.0432125074961
 30
0.0
 11
-123.3207076761156
 21
387.643212507496
 31
0.0
  0
LINE
  5
7F39
330
18
100
AcDbEntity
  8
0
100
AcDbLine
 10
-123.3207076761156
 20
387.643212507496
 30
0.0
 11
-122.8707076761155
 21
387.2432125074962
 31
0.0
  0
LINE
  5
7F3A
330
18
100
AcDbEntity
  8
0
100
AcDbLine
 10
-123.1707076761156
 20
388.0432125074961
 30
0.0
 11
-122.7207076761155
 21
390.8432125074961
 31
0.0
  0
LINE
  5
7F3B
330
18
100
AcDbEntity
  8
0
100
AcDbLine
 10
-122.7207076761155
 20
390.8432125074961
 30
0.0
 11
-123.1707076761156
 21
391.2432125074961
 31
0.0
  0
MTEXT
  5
7F46
330
18
100
AcDbEntity
  8
0
100
AcDbMText
 10
-200.2185562306633
 20
398.9263045576989
 30
0.0
 40
5.5
 41
0.0
 71
     1
 72
     5
  1
Ｒ\PＳ\PＴ\PＢ１\PＢ２\PＵ\PＶ\PＷ
  7
MSｺﾞｼｯｸ
 73
     1
 44
1.219999999999999
  0
MTEXT
  5
7F47
330
18
100
AcDbEntity
  8
0
100
AcDbMText
 10
-158.9904100890637
 20
273.01633146858
 30
0.0
 40
5.5
 41
0.0
 71
     1
 72
     5
  1
Ｅ
  7
MSｺﾞｼｯｸ
 73
     1
 44
1.0
  0
LINE
  5
7F48
330
18
100
AcDbEntity
  8
0
100
AcDbLine
 10
-128.1707076761157
 20
469.4182125074966
 30
0.0
 11
-128.1707076761158
 21
409.4182125074966
 31
0.0
  0
LINE
  5
7F49
330
18
100
AcDbEntity
  8
0
100
AcDbLine
 10
-184.1707076761157
 20
469.4182125074966
 30
0.0
 11
-184.1707076761158
 21
409.4182125074967
 31
0.0
  0
LWPOLYLINE
  5
7F4A
330
18
100
AcDbEntity
  8
0
100
AcDbPolyline
 90
        8
 70
     1
 43
0.0
 10
-136.1707076761157
 20
454.4182125074966
 10
-136.1707076761157
 20
429.4182125074966
 42
-0.4142135623730951
 10
-137.1707076761157
 20
428.4182125074966
 10
-175.1707076761157
 20
428.4182125074966
 42
-0.4142135623730951
 10
-176.1707076761157
 20
429.4182125074966
 10
-176.1707076761157
 20
454.4182125074967
 42
-0.4142135623730951
 10
-175.1707076761157
 20
455.4182125074967
 10
-137.1707076761157
 20
455.4182125074966
 42
-0.4142135623730951
  0
HATCH
  5
7F4B
330
18
100
AcDbEntity
  8
0
100
AcDbHatch
 10
0.0
 20
0.0
 30
0.0
210
0.0
220
0.0
230
1.0
  2
SOLID
 70
     1
 71
     0
 91
        2
 92
        7
 72
     1
 73
     1
 93
        8
 10
-136.7746489221495
 20
455.3364376778153
 42
0.0
 10
-175.5667664300817
 20
455.3364376778154
 42
0.1885055804394898
 10
-176.0844889312449
 20
454.8244191270566
 42
0.0
 10
-176.0844889312449
 20
429.0120058879367
 42
0.2963712537857847
 10
-175.1707076761157
 20
428.4182125074966
 42
0.0
 10
-137.1707076761157
 20
428.4182125074966
 42
0.4142135623730951
 10
-136.1707076761157
 20
429.4182125074966
 42
0.0
 10
-136.1707076761157
 20
454.4182125074966
 42
0.299386580726798
 97
        0
 92
       22
 72
     1
 73
     1
 93
        8
 10
-138.1707076761157
 20
454.4182125074966
 42
-0.4142135623730953
 10
-137.1707076761157
 20
453.4182125074966
 42
0.0
 10
-137.1707076761157
 20
430.4182125074966
 42
-0.4142135623730951
 10
-138.1707076761157
 20
429.4182125074966
 42
0.0
 10
-174.1707076761157
 20
429.4182125074966
 42
-0.4142135623730951
 10
-175.1707076761157
 20
430.4182125074966
 42
0.0
 10
-175.1707076761157
 20
453.4182125074967
 42
-0.4142135623730949
 10
-174.1707076761157
 20
454.4182125074967
 42
0.0
 97
        0
 75
     0
 76
     1
 47
0.1122686005965
 98
        2
 10
-166.3382280694814
 20
455.0384809031597
 10
-166.3382280694814
 20
455.0384809031597
  0
LINE
  5
7F4C
330
18
100
AcDbEntity
  8
0
100
AcDbLine
 10
-182.1707076761158
 20
407.4182125074967
 30
0.0
 11
-130.1707076761158
 21
407.4182125074966
 31
0.0
  0
HATCH
  5
7F4D
330
18
100
AcDbEntity
  8
0
100
AcDbHatch
 10
0.0
 20
0.0
 30
0.0
210
0.0
220
0.0
230
1.0
  2
SOLID
 70
     1
 71
     0
 91
        5
 92
        7
 72
     1
 73
     1
 93
        8
 10
-146.6707076761157
 20
422.1682376778153
 42
0.4142135623730951
 10
-147.6707076761157
 20
423.1682376778152
 42
0.0
 10
-153.6707076761157
 20
423.1682376778152
 42
0.4142135623730951
 10
-154.6707076761157
 20
422.1682376778153
 42
0.0
 10
-154.6707076761157
 20
416.1682376778152
 42
0.4142135623730951
 10
-153.6707076761157
 20
415.1682376778152
 42
0.0
 10
-147.6707076761157
 20
415.1682376778152
 42
0.4142135623730951
 10
-146.6707076761157
 20
416.1682376778152
 42
0.0
 97
        0
 92
       22
 72
     1
 73
     1
 93
        8
 10
-147.1707076761157
 20
416.1682376778152
 42
-0.4142135623730951
 10
-147.6707076761157
 20
415.6682376778152
 42
0.0
 10
-153.6707076761157
 20
415.6682376778152
 42
-0.4142135623730951
 10
-154.1707076761157
 20
416.1682376778152
 42
0.0
 10
-154.1707076761157
 20
422.1682376778153
 42
-0.4142135623730951
 10
-153.6707076761157
 20
422.6682376778152
 42
0.0
 10
-147.6707076761157
 20
422.6682376778152
 42
-0.4142135623730951
 10
-147.1707076761157
 20
422.1682376778153
 42
0.0
 97
        0
 92
        6
 72
     0
 73
     1
 93
        3
 10
-147.9299880512371
 20
417.3856143446989
 10
-149.6620388588056
 20
416.3856143446991
 10
-149.6620388588056
 20
418.3856143446988
 97
        0
 92
        6
 72
     0
 73
     1
 93
        4
 10
-148.7384780401078
 20
419.9826518305262
 10
-152.5381791085317
 20
417.7508090862392
 10
-152.6647960572179
 20
417.9663738057678
 10
-148.8650949887938
 20
420.1982165500545
 97
        0
 92
      136
 93
        4
 72
     1
 10
-153.836110656901
 20
419.7995971682409
 11
-148.554860656901
 21
419.7995971682409
 72
     1
 10
-148.554860656901
 20
419.7995971682409
 11
-148.554860656901
 21
422.119909668241
 72
     1
 10
-148.554860656901
 20
422.119909668241
 11
-153.836110656901
 21
422.119909668241
 72
     1
 10
-153.836110656901
 20
422.119909668241
 11
-153.836110656901
 21
419.7995971682409
 97
        0
 75
     0
 76
     1
 47
0.0316320572239519
 98
        4
 10
-147.029594342193
 20
419.0361754168024
 10
-147.029594342193
 20
419.0361754168024
 10
-147.029594342193
 20
419.0361754168024
 10
-147.029594342193
 20
419.0361754168024
  0
LWPOLYLINE
  5
7F4E
330
18
100
AcDbEntity
  8
0
100
AcDbPolyline
 90
        8
 70
     1
 43
0.0
 10
-146.6707076761157
 20
422.1682376778153
 10
-146.6707076761157
 20
416.1682376778152
 42
-0.4142135623730951
 10
-147.6707076761157
 20
415.1682376778152
 10
-153.6707076761157
 20
415.1682376778152
 42
-0.4142135623730951
 10
-154.6707076761157
 20
416.1682376778152
 10
-154.6707076761157
 20
422.1682376778153
 42
-0.4142135623730951
 10
-153.6707076761157
 20
423.1682376778152
 10
-147.6707076761157
 20
423.1682376778152
 42
-0.4142135623730951
  0
LWPOLYLINE
  5
7F4F
330
18
100
AcDbEntity
  8
0
100
AcDbPolyline
 90
        8
 70
     1
 43
0.0
 10
-147.1707076761157
 20
422.1682376778153
 10
-147.1707076761157
 20
416.1682376778152
 42
-0.4142135623730951
 10
-147.6707076761157
 20
415.6682376778152
 10
-153.6707076761157
 20
415.6682376778152
 42
-0.4142135623730951
 10
-154.1707076761157
 20
416.1682376778152
 10
-154.1707076761157
 20
422.1682376778153
 42
-0.4142135623730951
 10
-153.6707076761157
 20
422.6682376778152
 10
-147.6707076761157
 20
422.6682376778152
 42
-0.4142135623730951
  0
LWPOLYLINE
  5
7F50
330
18
100
AcDbEntity
  8
0
100
AcDbPolyline
 90
        4
 70
     1
 43
0.0
 10
-148.7384780401075
 20
419.9826518305264
 10
-152.5381791085317
 20
417.7508090862392
 10
-152.664796057218
 20
417.9663738057676
 10
-148.8650949887938
 20
420.1982165500548
  0
TEXT
  5
7F51
330
18
100
AcDbEntity
  8
0
100
AcDbText
 10
-153.566579406901
 20
420.2019409182409
 30
0.0
 40
1.5
  1
MOD
  7
MSｺﾞｼｯｸ
100
AcDbText
  0
LWPOLYLINE
  5
7F52
330
18
100
AcDbEntity
  8
0
100
AcDbPolyline
 90
        8
 70
     1
 43
0.0
 10
-168.6707076761157
 20
422.1682376778153
 10
-168.6707076761157
 20
416.1682376778153
 42
-0.4142135623730951
 10
-169.6707076761157
 20
415.1682376778153
 10
-175.6707076761157
 20
415.1682376778153
 42
-0.4142135623730951
 10
-176.6707076761157
 20
416.1682376778153
 10
-176.6707076761157
 20
422.1682376778153
 42
-0.4142135623730951
 10
-175.6707076761157
 20
423.1682376778152
 10
-169.6707076761157
 20
423.1682376778152
 42
-0.4142135623730951
  0
LWPOLYLINE
  5
7F53
330
18
100
AcDbEntity
  8
0
100
AcDbPolyline
 90
        8
 70
     1
 43
0.0
 10
-169.1707076761157
 20
422.1682376778153
 10
-169.1707076761157
 20
416.1682376778153
 42
-0.4142135623730951
 10
-169.6707076761157
 20
415.6682376778153
 10
-175.6707076761157
 20
415.6682376778153
 42
-0.4142135623730951
 10
-176.1707076761157
 20
416.1682376778153
 10
-176.1707076761157
 20
422.1682376778153
 42
-0.4142135623730951
 10
-175.6707076761157
 20
422.6682376778152
 10
-169.6707076761157
 20
422.6682376778152
 42
-0.4142135623730951
  0
HATCH
  5
7F54
330
18
100
AcDbEntity
  8
0
100
AcDbHatch
 10
0.0
 20
0.0
 30
0.0
210
0.0
220
0.0
230
1.0
  2
SOLID
 70
     1
 71
     0
 91
        6
 92
        7
 72
     1
 73
     1
 93
        8
 10
-158.6707076761157
 20
423.1682376778152
 42
0.0
 10
-164.6707076761157
 20
423.1682376778152
 42
0.4142135623730951
 10
-165.6707076761157
 20
422.1682376778153
 42
0.0
 10
-165.6707076761157
 20
416.1682376778153
 42
0.4142135623730951
 10
-164.6707076761157
 20
415.1682376778153
 42
0.0
 10
-158.6707076761157
 20
415.1682376778152
 42
0.4142135623730951
 10
-157.6707076761157
 20
416.1682376778152
 42
0.0
 10
-157.6707076761157
 20
422.1682376778153
 42
0.4142135623730951
 97
        0
 92
       22
 72
     1
 73
     1
 93
        8
 10
-158.6707076761157
 20
422.6682376778152
 42
-0.4142135623730951
 10
-158.1707076761157
 20
422.1682376778153
 42
0.0
 10
-158.1707076761157
 20
416.1682376778152
 42
-0.4142135623730951
 10
-158.6707076761157
 20
415.6682376778152
 42
0.0
 10
-164.6707076761157
 20
415.6682376778153
 42
-0.4142135623730951
 10
-165.1707076761157
 20
416.1682376778153
 42
0.0
 10
-165.1707076761157
 20
422.1682376778153
 42
-0.4142135623730951
 10
-164.6707076761157
 20
422.6682376778152
 42
0.0
 97
        0
 92
        6
 72
     0
 73
     1
 93
        3
 10
-163.670706743615
 20
420.9002887545736
 10
-159.6707086086155
 20
420.9002887545734
 10
-161.6707076761152
 20
417.4361887545733
 97
        0
 92
        7
 72
     1
 73
     1
 93
        8
 10
-169.6707076761157
 20
423.1682376778152
 42
0.0
 10
-175.6707076761157
 20
423.1682376778152
 42
0.4142135623730951
 10
-176.6707076761157
 20
422.1682376778153
 42
0.0
 10
-176.6707076761157
 20
416.1682376778153
 42
0.4142135623730951
 10
-175.6707076761157
 20
415.1682376778153
 42
0.0
 10
-169.6707076761157
 20
415.1682376778153
 42
0.4142135623730951
 10
-168.6707076761157
 20
416.1682376778153
 42
0.0
 10
-168.6707076761157
 20
422.1682376778153
 42
0.4142135623730951
 97
        0
 92
       22
 72
     1
 73
     1
 93
        8
 10
-169.6707076761157
 20
422.6682376778152
 42
-0.4142135623730951
 10
-169.1707076761157
 20
422.1682376778153
 42
0.0
 10
-169.1707076761157
 20
416.1682376778153
 42
-0.4142135623730951
 10
-169.6707076761157
 20
415.6682376778153
 42
0.0
 10
-175.6707076761157
 20
415.6682376778153
 42
-0.4142135623730951
 10
-176.1707076761157
 20
416.1682376778153
 42
0.0
 10
-176.1707076761157
 20
422.1682376778153
 42
-0.4142135623730951
 10
-175.6707076761157
 20
422.6682376778152
 42
0.0
 97
        0
 92
        6
 72
     0
 73
     1
 93
        3
 10
-172.6707076761153
 20
420.9002876778151
 10
-170.6707086086154
 20
417.4361876778149
 10
-174.6707067436151
 20
417.4361876778152
 97
        0
 75
     0
 76
     1
 47
0.0188367729183999
 98
        6
 10
-163.9992805821449
 20
422.8827074480913
 10
-163.9992805821449
 20
422.8827074480913
 10
-163.9992805821449
 20
422.8827074480913
 10
-171.423588953845
 20
422.8827074480913
 10
-171.423588953845
 20
422.8827074480913
 10
-171.423588953845
 20
422.8827074480913
  0
ARC
  5
7F55
330
18
100
AcDbEntity
  8
0
100
AcDbCircle
 10
-182.1707076761159
 20
409.4182125074967
 30
0.0
 40
2.0
100
AcDbArc
 50
180.0
 51
270.0
  0
LWPOLYLINE
  5
7F56
330
18
100
AcDbEntity
  8
0
100
AcDbPolyline
 90
        3
 70
     1
 43
0.0
 10
-161.6707076761152
 20
417.4361887545733
 10
-163.670706743615
 20
420.9002887545734
 10
-159.6707086086155
 20
420.9002887545734
  0
LWPOLYLINE
  5
7F57
330
18
100
AcDbEntity
  8
0
100
AcDbPolyline
 90
        8
 70
     1
 43
0.0
 10
-158.1707076761157
 20
422.1682376778153
 10
-158.1707076761157
 20
416.1682376778152
 42
-0.4142135623730951
 10
-158.6707076761157
 20
415.6682376778152
 10
-164.6707076761157
 20
415.6682376778153
 42
-0.4142135623730951
 10
-165.1707076761157
 20
416.1682376778153
 10
-165.1707076761157
 20
422.1682376778153
 42
-0.4142135623730951
 10
-164.6707076761157
 20
422.6682376778152
 10
-158.6707076761157
 20
422.6682376778152
 42
-0.4142135623730951
  0
LWPOLYLINE
  5
7F58
330
18
100
AcDbEntity
  8
0
100
AcDbPolyline
 90
        8
 70
     1
 43
0.0
 10
-157.6707076761157
 20
422.1682376778153
 10
-157.6707076761157
 20
416.1682376778152
 42
-0.4142135623730951
 10
-158.6707076761157
 20
415.1682376778152
 10
-164.6707076761157
 20
415.1682376778153
 42
-0.4142135623730951
 10
-165.6707076761157
 20
416.1682376778153
 10
-165.6707076761157
 20
422.1682376778153
 42
-0.4142135623730951
 10
-164.6707076761157
 20
423.1682376778152
 10
-158.6707076761157
 20
423.1682376778152
 42
-0.4142135623730951
  0
HATCH
  5
7F59
330
18
100
AcDbEntity
  8
0
100
AcDbHatch
 10
0.0
 20
0.0
 30
0.0
210
0.0
220
0.0
230
1.0
  2
SOLID
 70
     1
 71
     0
 91
        2
 92
        7
 72
     0
 73
     1
 93
        3
 10
-172.6707076761153
 20
420.9002876778153
 10
-174.670706743615
 20
417.4361876778152
 10
-170.6707086086155
 20
417.4361876778152
 97
        0
 92
        7
 72
     0
 73
     1
 93
        3
 10
-161.6707076761152
 20
417.4361887545733
 10
-159.6707086086155
 20
420.9002887545734
 10
-163.670706743615
 20
420.9002887545734
 97
        0
 75
     0
 76
     1
 47
0.0188367729183999
 98
        2
 10
-172.3092303392614
 20
419.0023279543856
 10
-161.9830340765548
 20
419.3790633332654
  0
LWPOLYLINE
  5
7F5A
330
18
100
AcDbEntity
  8
0
100
AcDbPolyline
 90
        3
 70
     1
 43
0.0
 10
-172.6707076761153
 20
420.9002876778153
 10
-174.670706743615
 20
417.4361876778152
 10
-170.6707086086155
 20
417.4361876778152
  0
TEXT
  5
7F5B
330
18
100
AcDbEntity
  8
0
100
AcDbText
 10
-142.107255899466
 20
417.9182376778152
 30
0.0
 40
2.5
  1
ENT
  7
MSｺﾞｼｯｸ
 72
     1
 11
-139.6707076761157
 21
419.1682376778152
 31
0.0
100
AcDbText
 73
     2
  0
HATCH
  5
7F5C
330
18
100
AcDbEntity
  8
0
100
AcDbHatch
 10
0.0
 20
0.0
 30
0.0
210
0.0
220
0.0
230
1.0
  2
SOLID
 70
     1
 71
     0
 91
        2
 92
        7
 72
     1
 73
     1
 93
        8
 10
-142.6707076761157
 20
423.1682376778152
 42
0.4142135623730951
 10
-143.6707076761157
 20
422.1682376778153
 42
0.0
 10
-143.6707076761157
 20
416.1682376778152
 42
0.4142135623730951
 10
-142.6707076761157
 20
415.1682376778152
 42
0.0
 10
-136.6707076761157
 20
415.1682376778152
 42
0.4142135623730951
 10
-135.6707076761157
 20
416.1682376778152
 42
0.0
 10
-135.6707076761157
 20
422.1682376778153
 42
0.4142135623730951
 10
-136.6707076761157
 20
423.1682376778152
 42
0.0
 97
        0
 92
       22
 72
     1
 73
     1
 93
        8
 10
-136.6707076761157
 20
422.6682376778152
 42
-0.4142135623730951
 10
-136.1707076761157
 20
422.1682376778153
 42
0.0
 10
-136.1707076761157
 20
416.1682376778152
 42
-0.4142135623730951
 10
-136.6707076761157
 20
415.6682376778152
 42
0.0
 10
-142.6707076761157
 20
415.6682376778152
 42
-0.4142135623730951
 10
-143.1707076761157
 20
416.1682376778152
 42
0.0
 10
-143.1707076761157
 20
422.1682376778153
 42
-0.4142135623730951
 10
-142.6707076761157
 20
422.6682376778152
 42
0.0
 97
        0
 75
     0
 76
     1
 47
0.0112091961687951
 98
        2
 10
-138.3382841334806
 20
422.8992285477506
 10
-138.3382841334806
 20
422.8992285477506
  0
LWPOLYLINE
  5
7F5D
330
18
100
AcDbEntity
  8
0
100
AcDbPolyline
 90
        8
 70
     1
 43
0.0
 10
-135.6707076761157
 20
422.1682376778153
 10
-135.6707076761157
 20
416.1682376778152
 42
-0.4142135623730951
 10
-136.6707076761157
 20
415.1682376778152
 10
-142.6707076761157
 20
415.1682376778152
 42
-0.4142135623730951
 10
-143.6707076761157
 20
416.1682376778152
 10
-143.6707076761157
 20
422.1682376778153
 42
-0.4142135623730951
 10
-142.6707076761157
 20
423.1682376778152
 10
-136.6707076761157
 20
423.1682376778152
 42
-0.4142135623730951
  0
LWPOLYLINE
  5
7F5E
330
18
100
AcDbEntity
  8
0
100
AcDbPolyline
 90
        8
 70
     1
 43
0.0
 10
-136.1707076761157
 20
422.1682376778153
 10
-136.1707076761157
 20
416.1682376778152
 42
-0.4142135623730951
 10
-136.6707076761157
 20
415.6682376778152
 10
-142.6707076761157
 20
415.6682376778152
 42
-0.4142135623730951
 10
-143.1707076761157
 20
416.1682376778152
 10
-143.1707076761157
 20
422.1682376778153
 42
-0.4142135623730951
 10
-142.6707076761157
 20
422.6682376778152
 10
-136.6707076761157
 20
422.6682376778152
 42
-0.4142135623730951
  0
LWPOLYLINE
  5
7F5F
330
18
100
AcDbEntity
  8
0
100
AcDbPolyline
 90
        3
 70
     1
 43
0.0
 10
-149.6620388588056
 20
416.3856143446989
 10
-147.9299880512368
 20
417.3856143446989
 10
-149.6620388588056
 20
418.3856143446988
  0
ARC
  5
7F60
330
18
100
AcDbEntity
  8
0
100
AcDbCircle
 10
-130.1707076761159
 20
409.4182125074966
 30
0.0
 40
2.0
100
AcDbArc
 50
270.0
 51
0.0
  0
TEXT
  5
7F61
330
18
100
AcDbEntity
  8
0
100
AcDbText
 10
-177.6469962143054
 20
466.4558831608967
 30
0.0
 40
2.0
  1
AC   SERVO  DRIVER
  7
MSｺﾞｼｯｸ
100
AcDbText
  0
LINE
  5
7F62
330
18
100
AcDbEntity
  8
0
100
AcDbLine
 10
-182.1707076761157
 20
471.4182125074967
 30
0.0
 11
-130.1707076761157
 21
471.4182125074966
 31
0.0
  0
TEXT
  5
7F63
330
18
100
AcDbEntity
  8
0
100
AcDbText
 10
-177.7252527863664
 20
458.8909484769025
 30
0.0
 40
6.5
  1
ACTUS POWER
 41
0.9300774284514798
  7
MSｺﾞｼｯｸ
 72
     5
 11
-134.5167826077474
 21
458.8909484769025
 31
0.0
100
AcDbText
  0
LWPOLYLINE
  5
7F64
330
18
100
AcDbEntity
  8
0
100
AcDbPolyline
 90
        8
 70
     1
 43
0.0
 10
-137.1707076761157
 20
453.4182125074966
 10
-137.1707076761157
 20
430.4182125074966
 42
-0.4142135623730951
 10
-138.1707076761157
 20
429.4182125074966
 10
-174.1707076761157
 20
429.4182125074966
 42
-0.4142135623730951
 10
-175.1707076761157
 20
430.4182125074966
 10
-175.1707076761157
 20
453.4182125074967
 42
-0.4142135623730949
 10
-174.1707076761157
 20
454.4182125074967
 10
-138.1707076761157
 20
454.4182125074966
 42
-0.4142135623730953
  0
ARC
  5
7F65
330
18
100
AcDbEntity
  8
0
100
AcDbCircle
 10
-182.1707076761157
 20
469.4182125074966
 30
0.0
 40
2.0
100
AcDbArc
 50
90.0
 51
180.0
  0
ARC
  5
7F66
330
18
100
AcDbEntity
  8
0
100
AcDbCircle
 10
-130.1707076761157
 20
469.4182125074966
 30
0.0
 40
2.0
100
AcDbArc
 50
0.0
 51
90.0
  0
LINE
  5
7F69
330
18
100
AcDbEntity
  8
0
 48
0.2
100
AcDbLine
 10
-5.243680192846341
 20
265.2682125074961
 30
0.0
 11
-5.243680192846454
 21
291.2682125074961
 31
0.0
  0
LINE
  5
7F6A
330
18
100
AcDbEntity
  8
0
 48
0.2
100
AcDbLine
 10
15.75631980715354
 20
287.2682125074961
 30
0.0
 11
-5.243680192846454
 21
287.2682125074961
 31
0.0
  0
LINE
  5
7F6B
330
18
100
AcDbEntity
  8
0
 48
0.2
100
AcDbLine
 10
15.75631980715366
 20
269.2682125074961
 30
0.0
 11
-5.243680192846341
 21
269.268212507496
 31
0.0
  0
LINE
  5
7F6C
330
18
100
AcDbEntity
  8
0
 48
0.2
100
AcDbLine
 10
5.95631980715359
 20
265.2682125074961
 30
0.0
 11
9.95631980715359
 21
262.1682125074961
 31
0.0
  0
ARC
  5
7F6D
330
18
100
AcDbEntity
  8
0
 48
0.2
100
AcDbCircle
 10
-2.143680192846431
 20
265.2682125074961
 30
0.0
 40
3.100000000000022
100
AcDbArc
 50
180.0
 51
319.1213648534839
  0
LINE
  5
7F6E
330
18
100
AcDbEntity
  8
0
 48
0.2
100
AcDbLine
 10
1.95631980715359
 20
265.2682125074961
 30
0.0
 11
0.2002222461781002
 21
263.2393898547402
 31
0.0
  0
LINE
  5
7F6F
330
18
100
AcDbEntity
  8
0
 48
0.2
100
AcDbLine
 10
5.95631980715359
 20
265.268212507496
 30
0.0
 11
1.956319807153477
 21
265.2682125074961
 31
0.0
  0
LINE
  5
7F70
330
18
100
AcDbEntity
  8
0
 48
0.2
100
AcDbLine
 10
17.86198223985616
 20
265.6832760169572
 30
0.0
 11
20.65065737445115
 21
265.6832760169572
 31
0.0
  0
LINE
  5
7F71
330
18
100
AcDbEntity
  8
0
 48
0.2
100
AcDbLine
 10
18.00631980715365
 20
265.4332760169572
 30
0.0
 11
20.50631980715365
 21
265.4332760169572
 31
0.0
  0
LINE
  5
7F72
330
18
100
AcDbEntity
  8
0
 48
0.2
100
AcDbLine
 10
17.86198223985616
 20
260.8531489980352
 30
0.0
 11
20.65065737445115
 21
260.8531489980352
 31
0.0
  0
LINE
  5
7F73
330
18
100
AcDbEntity
  8
0
 48
0.2
100
AcDbLine
 10
18.00631980715365
 20
261.103148998035
 30
0.0
 11
20.50631980715365
 21
261.103148998035
 31
0.0
  0
LINE
  5
7F74
330
18
100
AcDbEntity
  8
0
 48
0.2
100
AcDbLine
 10
30.7563198071536
 20
256.518212507496
 30
0.0
 11
9.956319807153477
 21
256.5182125074961
 31
0.0
  0
CIRCLE
  5
7F75
330
18
100
AcDbEntity
  8
0
 48
0.2
100
AcDbCircle
 10
19.25631980715365
 20
263.2682125074961
 30
0.0
 40
1.5
  0
LINE
  5
7F76
330
18
100
AcDbEntity
  8
0
 48
0.2
100
AcDbLine
 10
9.956319807153477
 20
256.5182125074961
 30
0.0
 11
9.956319807153477
 21
262.1682125074961
 31
0.0
  0
ARC
  5
7F77
330
18
100
AcDbEntity
  8
0
 48
0.2
100
AcDbCircle
 10
11.12631980715332
 20
259.1182125074961
 30
0.0
 40
2.669999999999886
100
AcDbArc
 50
115.9892335838293
 51
244.0107664161702
  0
LINE
  5
7F78
330
18
100
AcDbEntity
  8
0
 48
0.2
100
AcDbLine
 10
16.46764467255889
 20
263.2682125074961
 30
0.0
 11
17.86198223985616
 21
260.8531489980352
 31
0.0
  0
LINE
  5
7F79
330
18
100
AcDbEntity
  8
0
 48
0.2
100
AcDbLine
 10
16.75631980715365
 20
263.2682125074961
 30
0.0
 11
18.00631980715365
 21
261.103148998035
 31
0.0
  0
LINE
  5
7F7A
330
18
100
AcDbEntity
  8
0
 48
0.2
100
AcDbLine
 10
16.46764467255889
 20
263.2682125074961
 30
0.0
 11
17.86198223985616
 21
265.6832760169572
 31
0.0
  0
LINE
  5
7F7B
330
18
100
AcDbEntity
  8
0
 48
0.2
100
AcDbLine
 10
16.75631980715365
 20
263.2682125074961
 30
0.0
 11
18.00631980715365
 21
265.4332760169572
 31
0.0
  0
LINE
  5
7F7C
330
18
100
AcDbEntity
  8
0
 48
0.2
100
AcDbLine
 10
10.75631980715366
 20
269.2682125074961
 30
0.0
 11
10.75631980715354
 21
287.2682125074961
 31
0.0
  0
LINE
  5
7F7D
330
18
100
AcDbEntity
  8
0
 48
0.2
100
AcDbLine
 10
15.75631980715366
 20
269.2682125074961
 30
0.0
 11
15.75631980715354
 21
287.2682125074961
 31
0.0
  0
LINE
  5
7F7E
330
18
100
AcDbEntity
  8
0
 48
0.2
100
AcDbLine
 10
20.65065737445115
 20
260.8531489980352
 30
0.0
 11
22.04499494174843
 21
263.2682125074962
 31
0.0
  0
LINE
  5
7F7F
330
18
100
AcDbEntity
  8
0
 48
0.2
100
AcDbLine
 10
20.50631980715365
 20
261.103148998035
 30
0.0
 11
21.75631980715365
 21
263.2682125074961
 31
0.0
  0
LINE
  5
7F80
330
18
100
AcDbEntity
  8
0
 48
0.2
100
AcDbLine
 10
22.04499494174843
 20
263.2682125074962
 30
0.0
 11
20.65065737445115
 21
265.6832760169572
 31
0.0
  0
LINE
  5
7F81
330
18
100
AcDbEntity
  8
0
 48
0.2
100
AcDbLine
 10
21.75631980715365
 20
263.2682125074961
 30
0.0
 11
20.50631980715365
 21
265.4332760169572
 31
0.0
  0
LINE
  5
7F82
330
18
100
AcDbEntity
  8
0
 48
0.2
100
AcDbLine
 10
5.95631980715359
 20
291.2682125074961
 30
0.0
 11
9.95631980715359
 21
294.3682125074961
 31
0.0
  0
ARC
  5
7F83
330
18
100
AcDbEntity
  8
0
 48
0.2
100
AcDbCircle
 10
-2.143680192846431
 20
291.2682125074961
 30
0.0
 40
3.100000000000022
100
AcDbArc
 50
40.87863514651606
 51
180.0
  0
LINE
  5
7F84
330
18
100
AcDbEntity
  8
0
 48
0.2
100
AcDbLine
 10
1.95631980715359
 20
291.2682125074961
 30
0.0
 11
0.2002222461781002
 21
293.297035160252
 31
0.0
  0
LINE
  5
7F85
330
18
100
AcDbEntity
  8
0
 48
0.2
100
AcDbLine
 10
5.95631980715359
 20
291.2682125074963
 30
0.0
 11
1.956319807153477
 21
291.2682125074961
 31
0.0
  0
LINE
  5
7F86
330
18
100
AcDbEntity
  8
0
 48
0.2
100
AcDbLine
 10
18.00631980715365
 20
295.4332760169572
 30
0.0
 11
20.50631980715365
 21
295.4332760169572
 31
0.0
  0
LINE
  5
7F87
330
18
100
AcDbEntity
  8
0
 48
0.2
100
AcDbLine
 10
17.86198223985616
 20
295.6832760169571
 30
0.0
 11
20.65065737445115
 21
295.6832760169571
 31
0.0
  0
LINE
  5
7F88
330
18
100
AcDbEntity
  8
0
 48
0.2
100
AcDbLine
 10
30.7563198071536
 20
300.0182125074961
 30
0.0
 11
9.95631980715359
 21
300.0182125074961
 31
0.0
  0
LINE
  5
7F89
330
18
100
AcDbEntity
  8
0
 48
0.2
100
AcDbLine
 10
18.00631980715365
 20
291.103148998035
 30
0.0
 11
20.50631980715365
 21
291.103148998035
 31
0.0
  0
LINE
  5
7F8A
330
18
100
AcDbEntity
  8
0
 48
0.2
100
AcDbLine
 10
17.86198223985616
 20
290.8531489980351
 30
0.0
 11
20.65065737445115
 21
290.8531489980351
 31
0.0
  0
CIRCLE
  5
7F8B
330
18
100
AcDbEntity
  8
0
 48
0.2
100
AcDbCircle
 10
19.25631980715365
 20
293.2682125074961
 30
0.0
 40
1.5
  0
ARC
  5
7F8C
330
18
100
AcDbEntity
  8
0
 48
0.2
100
AcDbCircle
 10
11.12631980715332
 20
297.4182125074961
 30
0.0
 40
2.669999999999886
100
AcDbArc
 50
115.9892335838297
 51
244.0107664161706
  0
LINE
  5
7F8D
330
18
100
AcDbEntity
  8
0
 48
0.2
100
AcDbLine
 10
9.95631980715359
 20
294.3682125074963
 30
0.0
 11
9.95631980715359
 21
300.0182125074961
 31
0.0
  0
LINE
  5
7F8E
330
18
100
AcDbEntity
  8
0
 48
0.2
100
AcDbLine
 10
16.75631980715365
 20
293.2682125074961
 30
0.0
 11
18.00631980715365
 21
295.4332760169572
 31
0.0
  0
LINE
  5
7F8F
330
18
100
AcDbEntity
  8
0
 48
0.2
100
AcDbLine
 10
16.46764467255889
 20
293.2682125074961
 30
0.0
 11
17.86198223985616
 21
295.6832760169571
 31
0.0
  0
LINE
  5
7F90
330
18
100
AcDbEntity
  8
0
 48
0.2
100
AcDbLine
 10
16.75631980715365
 20
293.2682125074961
 30
0.0
 11
18.00631980715365
 21
291.103148998035
 31
0.0
  0
LINE
  5
7F91
330
18
100
AcDbEntity
  8
0
 48
0.2
100
AcDbLine
 10
16.46764467255889
 20
293.2682125074961
 30
0.0
 11
17.86198223985616
 21
290.8531489980351
 31
0.0
  0
LINE
  5
7F92
330
18
100
AcDbEntity
  8
0
 48
0.2
100
AcDbLine
 10
20.50631980715365
 20
295.4332760169572
 30
0.0
 11
21.75631980715365
 21
293.2682125074961
 31
0.0
  0
LINE
  5
7F93
330
18
100
AcDbEntity
  8
0
 48
0.2
100
AcDbLine
 10
20.65065737445115
 20
295.6832760169571
 30
0.0
 11
22.04499494174843
 21
293.268212507496
 31
0.0
  0
LINE
  5
7F94
330
18
100
AcDbEntity
  8
0
 48
0.2
100
AcDbLine
 10
21.75631980715365
 20
293.2682125074961
 30
0.0
 11
20.50631980715365
 21
291.103148998035
 31
0.0
  0
LINE
  5
7F95
330
18
100
AcDbEntity
  8
0
 48
0.2
100
AcDbLine
 10
22.04499494174843
 20
293.268212507496
 30
0.0
 11
20.65065737445115
 21
290.8531489980351
 31
0.0
  0
LINE
  5
7FF1
330
18
100
AcDbEntity
  8
0
 48
0.2
100
AcDbLine
 10
5.956319807153477
 20
325.1557125074959
 30
0.0
 11
9.956319807153477
 21
328.2557125074958
 31
0.0
  0
LINE
  5
7FF2
330
18
100
AcDbEntity
  8
0
 48
0.2
100
AcDbLine
 10
15.75631980715343
 20
325.1557125074959
 30
0.0
 11
-5.243680192846568
 21
325.1557125074959
 31
0.0
  0
LINE
  5
7FF3
330
18
100
AcDbEntity
  8
0
 48
0.2
100
AcDbLine
 10
5.956319807153704
 20
309.3557125074962
 30
0.0
 11
9.956319807153704
 21
306.255712507496
 31
0.0
  0
LINE
  5
7FF4
330
18
100
AcDbEntity
  8
0
 48
0.2
100
AcDbLine
 10
15.75631980715366
 20
309.3557125074962
 30
0.0
 11
-5.243680192846341
 21
309.3557125074959
 31
0.0
  0
LINE
  5
7FF5
330
18
100
AcDbEntity
  8
0
 48
0.2
100
AcDbLine
 10
-5.243680192846341
 20
309.3557125074962
 30
0.0
 11
-5.243680192846568
 21
325.1557125074959
 31
0.0
  0
ARC
  5
7FF6
330
18
100
AcDbEntity
  8
0
 48
0.2
100
AcDbCircle
 10
-2.143680192846204
 20
309.3557125074963
 30
0.0
 40
3.100000000000022
100
AcDbArc
 50
180.0
 51
319.1213648534882
  0
LINE
  5
7FF7
330
18
100
AcDbEntity
  8
0
 48
0.2
100
AcDbLine
 10
1.956319807153704
 20
309.3557125074962
 30
0.0
 11
0.2002222461781002
 21
307.3268898547402
 31
0.0
  0
ARC
  5
7FF8
330
18
100
AcDbEntity
  8
0
 48
0.2
100
AcDbCircle
 10
-2.143680192846431
 20
325.155712507496
 30
0.0
 40
3.100000000000022
100
AcDbArc
 50
40.87863514651173
 51
180.0
  0
LINE
  5
7FF9
330
18
100
AcDbEntity
  8
0
 48
0.2
100
AcDbLine
 10
1.956319807153477
 20
325.1557125074959
 30
0.0
 11
0.2002222461781002
 21
327.1845351602518
 31
0.0
  0
LINE
  5
7FFC
330
18
100
AcDbEntity
  8
0
 48
0.2
100
AcDbLine
 10
30.7563198071536
 20
300.605712507496
 30
0.0
 11
9.956319807153477
 21
300.6057125074962
 31
0.0
  0
LINE
  5
7FFD
330
18
100
AcDbEntity
  8
0
 48
0.2
100
AcDbLine
 10
30.75631980715462
 20
333.9057125074959
 30
0.0
 11
9.956319807153477
 21
333.9057125074959
 31
0.0
  0
LINE
  5
7FFE
330
18
100
AcDbEntity
  8
0
 48
0.2
100
AcDbLine
 10
10.75631980715366
 20
309.3557125074962
 30
0.0
 11
10.75631980715343
 21
325.1557125074959
 31
0.0
  0
LINE
  5
7FFF
330
18
100
AcDbEntity
  8
0
 48
0.2
100
AcDbLine
 10
15.75631980715366
 20
309.3557125074962
 30
0.0
 11
15.75631980715343
 21
325.1557125074959
 31
0.0
  0
LINE
  5
8000
330
18
100
AcDbEntity
  8
0
 48
0.2
100
AcDbLine
 10
16.75631980715365
 20
307.3557125074962
 30
0.0
 11
18.00631980715365
 21
305.1906489980351
 31
0.0
  0
LINE
  5
8001
330
18
100
AcDbEntity
  8
0
 48
0.2
100
AcDbLine
 10
16.75631980715365
 20
307.3557125074962
 30
0.0
 11
18.00631980715365
 21
309.5207760169573
 31
0.0
  0
LINE
  5
8002
330
18
100
AcDbEntity
  8
0
 48
0.2
100
AcDbLine
 10
16.46764467255889
 20
307.3557125074962
 30
0.0
 11
17.86198223985616
 21
309.7707760169573
 31
0.0
  0
LINE
  5
8003
330
18
100
AcDbEntity
  8
0
 48
0.2
100
AcDbLine
 10
16.46764467255889
 20
307.3557125074962
 30
0.0
 11
17.86198223985616
 21
304.9406489980351
 31
0.0
  0
ARC
  5
8004
330
18
100
AcDbEntity
  8
0
 48
0.2
100
AcDbCircle
 10
11.12631980715355
 20
303.2057125074962
 30
0.0
 40
2.669999999999886
100
AcDbArc
 50
115.9892335838293
 51
244.0107664161706
  0
LINE
  5
8005
330
18
100
AcDbEntity
  8
0
 48
0.2
100
AcDbLine
 10
9.956319807153477
 20
300.6057125074962
 30
0.0
 11
9.956319807153477
 21
306.255712507496
 31
0.0
  0
LINE
  5
8006
330
18
100
AcDbEntity
  8
0
 48
0.2
100
AcDbLine
 10
20.65065737445115
 20
304.9406489980351
 30
0.0
 11
22.04499494174843
 21
307.3557125074962
 31
0.0
  0
LINE
  5
8007
330
18
100
AcDbEntity
  8
0
 48
0.2
100
AcDbLine
 10
20.50631980715365
 20
305.1906489980351
 30
0.0
 11
21.75631980715365
 21
307.3557125074962
 31
0.0
  0
LINE
  5
8008
330
18
100
AcDbEntity
  8
0
 48
0.2
100
AcDbLine
 10
21.75631980715365
 20
307.3557125074962
 30
0.0
 11
20.50631980715365
 21
309.5207760169573
 31
0.0
  0
LINE
  5
8009
330
18
100
AcDbEntity
  8
0
 48
0.2
100
AcDbLine
 10
22.04499494174843
 20
307.3557125074962
 30
0.0
 11
20.65065737445115
 21
309.7707760169573
 31
0.0
  0
LINE
  5
800A
330
18
100
AcDbEntity
  8
0
 48
0.2
100
AcDbLine
 10
18.00631980715365
 20
309.5207760169573
 30
0.0
 11
20.50631980715365
 21
309.5207760169573
 31
0.0
  0
LINE
  5
800B
330
18
100
AcDbEntity
  8
0
 48
0.2
100
AcDbLine
 10
17.86198223985616
 20
309.7707760169573
 30
0.0
 11
20.65065737445115
 21
309.7707760169573
 31
0.0
  0
LINE
  5
800C
330
18
100
AcDbEntity
  8
0
 48
0.2
100
AcDbLine
 10
18.00631980715365
 20
305.1906489980351
 30
0.0
 11
20.50631980715365
 21
305.1906489980351
 31
0.0
  0
CIRCLE
  5
800D
330
18
100
AcDbEntity
  8
0
 48
0.2
100
AcDbCircle
 10
19.25631980715365
 20
307.3557125074963
 30
0.0
 40
1.5
  0
LINE
  5
800E
330
18
100
AcDbEntity
  8
0
 48
0.2
100
AcDbLine
 10
17.86198223985616
 20
304.9406489980351
 30
0.0
 11
20.65065737445115
 21
304.9406489980351
 31
0.0
  0
LINE
  5
800F
330
18
100
AcDbEntity
  8
0
 48
0.2
100
AcDbLine
 10
16.75631980715365
 20
327.1557125074959
 30
0.0
 11
18.00631980715365
 21
329.320776016957
 31
0.0
  0
LINE
  5
8010
330
18
100
AcDbEntity
  8
0
 48
0.2
100
AcDbLine
 10
16.75631980715365
 20
327.1557125074959
 30
0.0
 11
18.00631980715365
 21
324.9906489980348
 31
0.0
  0
LINE
  5
8011
330
18
100
AcDbEntity
  8
0
 48
0.2
100
AcDbLine
 10
16.46764467255889
 20
327.1557125074959
 30
0.0
 11
17.86198223985616
 21
329.570776016957
 31
0.0
  0
LINE
  5
8012
330
18
100
AcDbEntity
  8
0
 48
0.2
100
AcDbLine
 10
16.46764467255889
 20
327.1557125074959
 30
0.0
 11
17.86198223985616
 21
324.7406489980348
 31
0.0
  0
LINE
  5
8013
330
18
100
AcDbEntity
  8
0
 48
0.2
100
AcDbLine
 10
9.956319807153477
 20
328.255712507496
 30
0.0
 11
9.956319807153477
 21
333.9057125074959
 31
0.0
  0
ARC
  5
8014
330
18
100
AcDbEntity
  8
0
 48
0.2
100
AcDbCircle
 10
11.12631980715332
 20
331.3057125074961
 30
0.0
 40
2.669999999999886
100
AcDbArc
 50
115.9892335838293
 51
244.0107664161706
  0
LINE
  5
8015
330
18
100
AcDbEntity
  8
0
 48
0.2
100
AcDbLine
 10
20.65065737445115
 20
329.570776016957
 30
0.0
 11
22.04499494174843
 21
327.1557125074959
 31
0.0
  0
LINE
  5
8016
330
18
100
AcDbEntity
  8
0
 48
0.2
100
AcDbLine
 10
22.04499494174843
 20
327.1557125074959
 30
0.0
 11
20.65065737445115
 21
324.7406489980348
 31
0.0
  0
LINE
  5
8017
330
18
100
AcDbEntity
  8
0
 48
0.2
100
AcDbLine
 10
20.50631980715365
 20
329.320776016957
 30
0.0
 11
21.75631980715365
 21
327.1557125074959
 31
0.0
  0
LINE
  5
8018
330
18
100
AcDbEntity
  8
0
 48
0.2
100
AcDbLine
 10
21.75631980715365
 20
327.1557125074959
 30
0.0
 11
20.50631980715365
 21
324.9906489980348
 31
0.0
  0
LINE
  5
8019
330
18
100
AcDbEntity
  8
0
 48
0.2
100
AcDbLine
 10
18.00631980715365
 20
324.9906489980348
 30
0.0
 11
20.50631980715365
 21
324.9906489980348
 31
0.0
  0
LINE
  5
801A
330
18
100
AcDbEntity
  8
0
 48
0.2
100
AcDbLine
 10
18.00631980715365
 20
329.320776016957
 30
0.0
 11
20.50631980715365
 21
329.320776016957
 31
0.0
  0
CIRCLE
  5
801B
330
18
100
AcDbEntity
  8
0
 48
0.2
100
AcDbCircle
 10
19.25631980715365
 20
327.155712507496
 30
0.0
 40
1.5
  0
LINE
  5
801C
330
18
100
AcDbEntity
  8
0
 48
0.2
100
AcDbLine
 10
17.86198223985616
 20
324.7406489980348
 30
0.0
 11
20.65065737445115
 21
324.7406489980348
 31
0.0
  0
LINE
  5
801D
330
18
100
AcDbEntity
  8
0
 48
0.2
100
AcDbLine
 10
17.86198223985616
 20
329.570776016957
 30
0.0
 11
20.65065737445115
 21
329.570776016957
 31
0.0
  0
LINE
  5
819D
330
18
100
AcDbEntity
  8
0
100
AcDbLine
 10
35.81982813405033
 20
574.7476860759272
 30
0.0
 11
37.25631980715366
 21
574.7476860759272
 31
0.0
  0
LINE
  5
819E
330
18
100
AcDbEntity
  8
0
100
AcDbLine
 10
35.81982813405033
 20
573.7476860759272
 30
0.0
 11
37.25631980715366
 21
573.7476860759272
 31
0.0
  0
CIRCLE
  5
819F
330
18
100
AcDbEntity
  8
0
100
AcDbCircle
 10
37.75631980715365
 20
574.2476860759272
 30
0.0
 40
3.0
  0
CIRCLE
  5
81A0
330
18
100
AcDbEntity
  8
0
100
AcDbCircle
 10
37.75631980715365
 20
574.2476860759272
 30
0.0
 40
2.5
  0
ARC
  5
81A1
330
18
100
AcDbEntity
  8
0
100
AcDbCircle
 10
37.75631980715365
 20
574.2476860759272
 30
0.0
 40
2.0
100
AcDbArc
 50
165.5224878140701
 51
194.4775121859298
  0
LINE
  5
81A2
330
18
100
AcDbEntity
  8
0
100
AcDbLine
 10
38.25631980715366
 20
574.7476860759272
 30
0.0
 11
39.69281148025743
 21
574.7476860759272
 31
0.0
  0
LINE
  5
81A3
330
18
100
AcDbEntity
  8
0
100
AcDbLine
 10
38.25631980715366
 20
574.7476860759272
 30
0.0
 11
38.25631980715366
 21
576.184177749031
 31
0.0
  0
LINE
  5
81A4
330
18
100
AcDbEntity
  8
0
100
AcDbLine
 10
37.25631980715366
 20
574.7476860759272
 30
0.0
 11
37.25631980715366
 21
576.184177749031
 31
0.0
  0
ARC
  5
81A5
330
18
100
AcDbEntity
  8
0
100
AcDbCircle
 10
37.75631980715365
 20
574.2476860759272
 30
0.0
 40
2.0
100
AcDbArc
 50
75.52248781407134
 51
104.4775121859278
  0
LINE
  5
81A6
330
18
100
AcDbEntity
  8
0
100
AcDbLine
 10
38.25631980715366
 20
573.7476860759272
 30
0.0
 11
39.69281148025743
 21
573.7476860759272
 31
0.0
  0
ARC
  5
81A7
330
18
100
AcDbEntity
  8
0
100
AcDbCircle
 10
37.75631980715365
 20
574.2476860759272
 30
0.0
 40
2.0
100
AcDbArc
 50
255.5224878140713
 51
284.4775121859278
  0
LINE
  5
81A8
330
18
100
AcDbEntity
  8
0
100
AcDbLine
 10
37.25631980715366
 20
572.3111944028235
 30
0.0
 11
37.25631980715366
 21
573.7476860759272
 31
0.0
  0
LINE
  5
81A9
330
18
100
AcDbEntity
  8
0
100
AcDbLine
 10
38.25631980715366
 20
572.3111944028235
 30
0.0
 11
38.25631980715366
 21
573.7476860759272
 31
0.0
  0
ARC
  5
81AA
330
18
100
AcDbEntity
  8
0
100
AcDbCircle
 10
37.75631980715365
 20
574.2476860759272
 30
0.0
 40
2.0
100
AcDbArc
 50
345.5224878140701
 51
14.47751218592986
  0
CIRCLE
  5
81AB
330
18
100
AcDbEntity
  8
0
100
AcDbCircle
 10
37.75631980715365
 20
664.2476860759273
 30
0.0
 40
3.0
  0
LINE
  5
81AC
330
18
100
AcDbEntity
  8
0
100
AcDbLine
 10
38.25631980715366
 20
664.7476860759272
 30
0.0
 11
39.69281148025743
 21
664.7476860759272
 31
0.0
  0
LINE
  5
81AD
330
18
100
AcDbEntity
  8
0
100
AcDbLine
 10
38.25631980715366
 20
663.7476860759273
 30
0.0
 11
39.69281148025743
 21
663.7476860759273
 31
0.0
  0
CIRCLE
  5
81AE
330
18
100
AcDbEntity
  8
0
100
AcDbCircle
 10
37.75631980715365
 20
664.2476860759273
 30
0.0
 40
2.5
  0
LINE
  5
81AF
330
18
100
AcDbEntity
  8
0
100
AcDbLine
 10
38.25631980715366
 20
664.7476860759272
 30
0.0
 11
38.25631980715366
 21
666.184177749031
 31
0.0
  0
LINE
  5
81B0
330
18
100
AcDbEntity
  8
0
100
AcDbLine
 10
37.25631980715366
 20
664.7476860759272
 30
0.0
 11
37.25631980715366
 21
666.184177749031
 31
0.0
  0
ARC
  5
81B1
330
18
100
AcDbEntity
  8
0
100
AcDbCircle
 10
37.75631980715365
 20
664.2476860759273
 30
0.0
 40
2.0
100
AcDbArc
 50
75.52248781407134
 51
104.4775121859278
  0
ARC
  5
81B2
330
18
100
AcDbEntity
  8
0
100
AcDbCircle
 10
37.75631980715365
 20
664.2476860759273
 30
0.0
 40
2.0
100
AcDbArc
 50
255.5224878140713
 51
284.4775121859278
  0
LINE
  5
81B3
330
18
100
AcDbEntity
  8
0
100
AcDbLine
 10
37.25631980715366
 20
662.3111944028234
 30
0.0
 11
37.25631980715366
 21
663.7476860759273
 31
0.0
  0
LINE
  5
81B4
330
18
100
AcDbEntity
  8
0
100
AcDbLine
 10
38.25631980715366
 20
662.3111944028234
 30
0.0
 11
38.25631980715366
 21
663.7476860759273
 31
0.0
  0
ARC
  5
81B5
330
18
100
AcDbEntity
  8
0
100
AcDbCircle
 10
37.75631980715365
 20
664.2476860759273
 30
0.0
 40
2.0
100
AcDbArc
 50
165.5224878140701
 51
194.4775121859298
  0
LINE
  5
81B6
330
18
100
AcDbEntity
  8
0
100
AcDbLine
 10
35.81982813405033
 20
664.7476860759272
 30
0.0
 11
37.25631980715366
 21
664.7476860759272
 31
0.0
  0
LINE
  5
81B7
330
18
100
AcDbEntity
  8
0
100
AcDbLine
 10
35.81982813405033
 20
663.7476860759273
 30
0.0
 11
37.25631980715366
 21
663.7476860759273
 31
0.0
  0
ARC
  5
81B8
330
18
100
AcDbEntity
  8
0
100
AcDbCircle
 10
37.75631980715365
 20
664.2476860759273
 30
0.0
 40
2.0
100
AcDbArc
 50
345.5224878140701
 51
14.47751218592986
  0
TEXT
  5
81BA
330
18
100
AcDbEntity
  8
0
100
AcDbText
 10
-203.8085620304082
 20
405.4851120011059
 30
0.0
 40
3.0
  1
ＴＢ２
  7
MSｺﾞｼｯｸ
100
AcDbText
  0
LINE
  5
8300
330
18
100
AcDbEntity
  8
0
100
AcDbLine
 10
-87.17070767611572
 20
351.4182125074952
 30
0.0
 11
-110.8707076761157
 21
351.4182125074956
 31
0.0
  0
LINE
  5
8301
330
18
100
AcDbEntity
  8
0
100
AcDbLine
 10
-87.17070767611584
 20
260.4182125074959
 30
0.0
 11
-110.8707076761157
 21
260.4182125074956
 31
0.0
  0
LINE
  5
8302
330
18
100
AcDbEntity
  8
0
100
AcDbLine
 10
-110.3707076761156
 20
260.4182125074956
 30
0.0
 11
-110.3707076761156
 21
351.4182125074956
 31
0.0
  0
LINE
  5
8308
330
18
100
AcDbEntity
  8
0
100
AcDbLine
 10
-87.17070767611572
 20
351.4182125074952
 30
0.0
 11
-87.17070767611584
 21
260.4182125074959
 31
0.0
  0
LINE
  5
8309
330
18
100
AcDbEntity
  8
0
100
AcDbLine
 10
-103.7707076761157
 20
260.4182125074957
 30
0.0
 11
-103.7707076761157
 21
351.4182125074955
 31
0.0
  0
LINE
  5
830A
330
18
100
AcDbEntity
  8
0
100
AcDbLine
 10
-105.3707076761156
 20
351.4182125074956
 30
0.0
 11
-105.3707076761156
 21
260.4182125074957
 31
0.0
  0
LINE
  5
830B
330
18
100
AcDbEntity
  8
0
100
AcDbLine
 10
-91.77070767611571
 20
273.7035639046173
 30
0.0
 11
-103.7707076761157
 21
273.7035639046173
 31
0.0
  0
LINE
  5
830C
330
18
100
AcDbEntity
  8
0
100
AcDbLine
 10
-91.77070767611571
 20
267.7086443449221
 30
0.0
 11
-103.7707076761157
 21
267.7086443449221
 31
0.0
  0
LINE
  5
830D
330
18
100
AcDbEntity
  8
0
100
AcDbLine
 10
-91.77070767611571
 20
268.5723191967425
 30
0.0
 11
-103.7707076761157
 21
268.5723191967426
 31
0.0
  0
LINE
  5
830E
330
18
100
AcDbEntity
  8
0
100
AcDbLine
 10
-91.77070767611571
 20
262.5519974355233
 30
0.0
 11
-103.7707076761157
 21
262.5519974355233
 31
0.0
  0
CIRCLE
  5
830F
330
18
100
AcDbEntity
  8
0
100
AcDbCircle
 10
-101.2707076761157
 20
265.1303208902228
 30
0.0
 40
1.75
  0
CIRCLE
  5
8310
330
18
100
AcDbEntity
  8
0
100
AcDbCircle
 10
-101.2707076761157
 20
271.13794155068
 30
0.0
 40
1.75
  0
LINE
  5
8311
330
18
100
AcDbEntity
  8
0
100
AcDbLine
 10
-91.77070767611571
 20
268.5723191967425
 30
0.0
 11
-91.77070767611571
 21
273.7035639046172
 31
0.0
  0
CIRCLE
  5
8312
330
18
100
AcDbEntity
  8
0
100
AcDbCircle
 10
-94.27070767611571
 20
265.1303208902228
 30
0.0
 40
1.75
  0
LINE
  5
8313
330
18
100
AcDbEntity
  8
0
100
AcDbLine
 10
-91.77070767611571
 20
262.5519974355233
 30
0.0
 11
-91.77070767611571
 21
267.7086443449221
 31
0.0
  0
CIRCLE
  5
8314
330
18
100
AcDbEntity
  8
0
100
AcDbCircle
 10
-94.27070767611571
 20
271.13794155068
 30
0.0
 40
1.75
  0
LINE
  5
8315
330
18
100
AcDbEntity
  8
0
100
AcDbLine
 10
-98.27070767611571
 20
297.1099401448303
 30
0.0
 11
-98.27070767611571
 21
297.6064004837875
 31
0.0
  0
LINE
  5
8316
330
18
100
AcDbEntity
  8
0
100
AcDbLine
 10
-96.77070767611571
 20
288.6064004837875
 30
0.0
 11
-96.77070767611571
 21
308.1064004837875
 31
0.0
  0
LINE
  5
8317
330
18
100
AcDbEntity
  8
0
100
AcDbLine
 10
-103.7707076761157
 20
313.1064004837875
 30
0.0
 11
-103.7707076761157
 21
283.6064004837875
 31
0.0
  0
LWPOLYLINE
  5
8318
330
18
100
AcDbEntity
  8
0
100
AcDbPolyline
 90
        6
 70
     0
 43
0.0
 10
-98.7707076761157
 20
299.1064004837875
 10
-98.7707076761157
 20
300.1064004837875
 10
-103.2707076761157
 20
300.1064004837875
 10
-103.2707076761157
 20
296.6064004837875
 10
-98.7707076761157
 20
296.6064004837875
 10
-98.7707076761157
 20
297.6064004837875
  0
LINE
  5
8319
330
18
100
AcDbEntity
  8
0
100
AcDbLine
 10
-97.27070767611571
 20
296.8564004837875
 30
0.0
 11
-97.27070767611571
 21
299.8564004837875
 31
0.0
  0
LINE
  5
831A
330
18
100
AcDbEntity
  8
0
100
AcDbLine
 10
-97.27070767611571
 20
289.0564004837875
 30
0.0
 11
-98.27070767611571
 21
289.3099401448304
 31
0.0
  0
LINE
  5
831B
330
18
100
AcDbEntity
  8
0
100
AcDbLine
 10
-97.27070767611571
 20
292.0564004837875
 30
0.0
 11
-98.27070767611571
 21
291.8028608227447
 31
0.0
  0
LINE
  5
831C
330
18
100
AcDbEntity
  8
0
100
AcDbLine
 10
-97.27070767611571
 20
295.9564004837875
 30
0.0
 11
-98.27070767611571
 21
295.7028608227446
 31
0.0
  0
LINE
  5
831D
330
18
100
AcDbEntity
  8
0
100
AcDbLine
 10
-97.27070767611571
 20
292.9564004837875
 30
0.0
 11
-98.27070767611571
 21
293.2099401448303
 31
0.0
  0
LINE
  5
831E
330
18
100
AcDbEntity
  8
0
100
AcDbLine
 10
-97.27070767611571
 20
296.8564004837875
 30
0.0
 11
-98.27070767611571
 21
297.1099401448303
 31
0.0
  0
LINE
  5
831F
330
18
100
AcDbEntity
  8
0
100
AcDbLine
 10
-103.7707076761157
 20
283.6064004837875
 30
0.0
 11
-97.7707076761157
 21
283.6064004837875
 31
0.0
  0
CIRCLE
  5
8320
330
18
100
AcDbEntity
  8
0
100
AcDbCircle
 10
-100.7707076761157
 20
286.3564004837875
 30
0.0
 40
2.0
  0
CIRCLE
  5
8321
330
18
100
AcDbEntity
  8
0
100
AcDbCircle
 10
-100.7707076761157
 20
286.3564004837875
 30
0.0
 40
1.3
  0
LWPOLYLINE
  5
8322
330
18
100
AcDbEntity
  8
0
100
AcDbPolyline
 90
        6
 70
     0
 43
0.0
 10
-98.7707076761157
 20
295.2064004837875
 10
-98.7707076761157
 20
296.2064004837875
 10
-103.2707076761157
 20
296.2064004837875
 10
-103.2707076761157
 20
292.7064004837875
 10
-98.7707076761157
 20
292.7064004837875
 10
-98.7707076761157
 20
293.7064004837875
  0
LWPOLYLINE
  5
8323
330
18
100
AcDbEntity
  8
0
100
AcDbPolyline
 90
        6
 70
     0
 43
0.0
 10
-98.7707076761157
 20
291.3064004837875
 10
-98.7707076761157
 20
292.3064004837875
 10
-103.2707076761157
 20
292.3064004837875
 10
-103.2707076761157
 20
288.8064004837875
 10
-98.7707076761157
 20
288.8064004837875
 10
-98.7707076761157
 20
289.8064004837875
  0
CIRCLE
  5
8324
330
18
100
AcDbEntity
  8
0
100
AcDbCircle
 10
-101.0207076761157
 20
290.5564004837875
 30
0.0
 40
0.4
  0
CIRCLE
  5
8325
330
18
100
AcDbEntity
  8
0
100
AcDbCircle
 10
-101.0207076761157
 20
294.4564004837875
 30
0.0
 40
0.4
  0
LINE
  5
8326
330
18
100
AcDbEntity
  8
0
100
AcDbLine
 10
-98.27070767611571
 20
289.8064004837875
 30
0.0
 11
-98.7707076761157
 21
289.8064004837875
 31
0.0
  0
LINE
  5
8327
330
18
100
AcDbEntity
  8
0
100
AcDbLine
 10
-98.27070767611571
 20
289.8064004837875
 30
0.0
 11
-98.7707076761157
 21
289.8064004837875
 31
0.0
  0
LINE
  5
8328
330
18
100
AcDbEntity
  8
0
100
AcDbLine
 10
-98.27070767611571
 20
289.3099401448304
 30
0.0
 11
-98.27070767611571
 21
289.8064004837875
 31
0.0
  0
LINE
  5
8329
330
18
100
AcDbEntity
  8
0
100
AcDbLine
 10
-98.27070767611571
 20
291.8028608227447
 30
0.0
 11
-98.27070767611571
 21
291.3064004837875
 31
0.0
  0
LINE
  5
832A
330
18
100
AcDbEntity
  8
0
100
AcDbLine
 10
-98.27070767611571
 20
291.3064004837875
 30
0.0
 11
-98.7707076761157
 21
291.3064004837875
 31
0.0
  0
LINE
  5
832B
330
18
100
AcDbEntity
  8
0
100
AcDbLine
 10
-98.27070767611571
 20
295.2064004837875
 30
0.0
 11
-98.7707076761157
 21
295.2064004837875
 31
0.0
  0
LINE
  5
832C
330
18
100
AcDbEntity
  8
0
100
AcDbLine
 10
-98.27070767611571
 20
295.7028608227446
 30
0.0
 11
-98.27070767611571
 21
295.2064004837874
 31
0.0
  0
LINE
  5
832D
330
18
100
AcDbEntity
  8
0
100
AcDbLine
 10
-98.27070767611571
 20
293.2099401448303
 30
0.0
 11
-98.27070767611571
 21
293.7064004837876
 31
0.0
  0
LINE
  5
832E
330
18
100
AcDbEntity
  8
0
100
AcDbLine
 10
-98.27070767611571
 20
293.7064004837875
 30
0.0
 11
-98.7707076761157
 21
293.7064004837875
 31
0.0
  0
LINE
  5
832F
330
18
100
AcDbEntity
  8
0
100
AcDbLine
 10
-98.27070767611571
 20
293.7064004837875
 30
0.0
 11
-98.7707076761157
 21
293.7064004837875
 31
0.0
  0
LINE
  5
8330
330
18
100
AcDbEntity
  8
0
100
AcDbLine
 10
-97.7707076761157
 20
288.6064004837875
 30
0.0
 11
-97.7707076761157
 21
283.6064004837875
 31
0.0
  0
LINE
  5
8331
330
18
100
AcDbEntity
  8
0
100
AcDbLine
 10
-97.27070767611571
 20
289.0564004837875
 30
0.0
 11
-97.27070767611571
 21
292.0564004837875
 31
0.0
  0
LINE
  5
8332
330
18
100
AcDbEntity
  8
0
100
AcDbLine
 10
-97.27070767611571
 20
292.9564004837875
 30
0.0
 11
-97.27070767611571
 21
295.9564004837875
 31
0.0
  0
LINE
  5
8333
330
18
100
AcDbEntity
  8
0
100
AcDbLine
 10
-97.7707076761157
 20
288.6064004837875
 30
0.0
 11
-96.77070767611571
 21
288.6064004837875
 31
0.0
  0
LINE
  5
8334
330
18
100
AcDbEntity
  8
0
100
AcDbLine
 10
-97.27070767611571
 20
299.8564004837875
 30
0.0
 11
-98.27070767611571
 21
299.6028608227446
 31
0.0
  0
LINE
  5
8335
330
18
100
AcDbEntity
  8
0
100
AcDbLine
 10
-97.27070767611571
 20
300.7564004837874
 30
0.0
 11
-98.27070767611571
 21
301.0099401448303
 31
0.0
  0
LINE
  5
8336
330
18
100
AcDbEntity
  8
0
100
AcDbLine
 10
-97.27070767611571
 20
304.6564004837875
 30
0.0
 11
-98.27070767611571
 21
304.9099401448303
 31
0.0
  0
LINE
  5
8337
330
18
100
AcDbEntity
  8
0
100
AcDbLine
 10
-97.27070767611571
 20
307.6564004837874
 30
0.0
 11
-98.27070767611571
 21
307.4028608227446
 31
0.0
  0
LINE
  5
8338
330
18
100
AcDbEntity
  8
0
100
AcDbLine
 10
-97.27070767611571
 20
303.7564004837875
 30
0.0
 11
-98.27070767611571
 21
303.5028608227446
 31
0.0
  0
LINE
  5
8339
330
18
100
AcDbEntity
  8
0
100
AcDbLine
 10
-97.7707076761157
 20
313.1064004837875
 30
0.0
 11
-103.7707076761157
 21
313.1064004837875
 31
0.0
  0
LWPOLYLINE
  5
833A
330
18
100
AcDbEntity
  8
0
100
AcDbPolyline
 90
        6
 70
     0
 43
0.0
 10
-98.7707076761157
 20
306.9064004837875
 10
-98.7707076761157
 20
307.9064004837874
 10
-103.2707076761157
 20
307.9064004837874
 10
-103.2707076761157
 20
304.4064004837874
 10
-98.7707076761157
 20
304.4064004837874
 10
-98.7707076761157
 20
305.4064004837874
  0
LINE
  5
833B
330
18
100
AcDbEntity
  8
0
100
AcDbLine
 10
-98.27070767611571
 20
307.4028608227446
 30
0.0
 11
-98.27070767611571
 21
306.9064004837875
 31
0.0
  0
LWPOLYLINE
  5
833C
330
18
100
AcDbEntity
  8
0
100
AcDbPolyline
 90
        6
 70
     0
 43
0.0
 10
-98.7707076761157
 20
303.0064004837875
 10
-98.7707076761157
 20
304.0064004837875
 10
-103.2707076761157
 20
304.0064004837875
 10
-103.2707076761157
 20
300.5064004837874
 10
-98.7707076761157
 20
300.5064004837874
 10
-98.7707076761157
 20
301.5064004837875
  0
LINE
  5
833D
330
18
100
AcDbEntity
  8
0
100
AcDbLine
 10
-98.27070767611571
 20
299.1064004837875
 30
0.0
 11
-98.7707076761157
 21
299.1064004837875
 31
0.0
  0
LINE
  5
833E
330
18
100
AcDbEntity
  8
0
100
AcDbLine
 10
-98.27070767611571
 20
299.6028608227446
 30
0.0
 11
-98.27070767611571
 21
299.1064004837875
 31
0.0
  0
CIRCLE
  5
833F
330
18
100
AcDbEntity
  8
0
100
AcDbCircle
 10
-101.0207076761157
 20
302.2564004837875
 30
0.0
 40
0.4
  0
CIRCLE
  5
8340
330
18
100
AcDbEntity
  8
0
100
AcDbCircle
 10
-101.0207076761157
 20
306.1564004837874
 30
0.0
 40
0.4
  0
LINE
  5
8341
330
18
100
AcDbEntity
  8
0
100
AcDbLine
 10
-98.27070767611571
 20
301.0099401448303
 30
0.0
 11
-98.27070767611571
 21
301.5064004837876
 31
0.0
  0
LINE
  5
8342
330
18
100
AcDbEntity
  8
0
100
AcDbLine
 10
-98.27070767611571
 20
301.5064004837875
 30
0.0
 11
-98.7707076761157
 21
301.5064004837875
 31
0.0
  0
LINE
  5
8343
330
18
100
AcDbEntity
  8
0
100
AcDbLine
 10
-98.27070767611571
 20
301.5064004837875
 30
0.0
 11
-98.7707076761157
 21
301.5064004837875
 31
0.0
  0
LINE
  5
8344
330
18
100
AcDbEntity
  8
0
100
AcDbLine
 10
-98.27070767611571
 20
305.4064004837874
 30
0.0
 11
-98.7707076761157
 21
305.4064004837874
 31
0.0
  0
LINE
  5
8345
330
18
100
AcDbEntity
  8
0
100
AcDbLine
 10
-98.27070767611571
 20
305.4064004837874
 30
0.0
 11
-98.7707076761157
 21
305.4064004837874
 31
0.0
  0
LINE
  5
8346
330
18
100
AcDbEntity
  8
0
100
AcDbLine
 10
-98.27070767611571
 20
304.9099401448303
 30
0.0
 11
-98.27070767611571
 21
305.4064004837874
 31
0.0
  0
LINE
  5
8347
330
18
100
AcDbEntity
  8
0
100
AcDbLine
 10
-98.27070767611571
 20
306.9064004837875
 30
0.0
 11
-98.7707076761157
 21
306.9064004837875
 31
0.0
  0
LINE
  5
8348
330
18
100
AcDbEntity
  8
0
100
AcDbLine
 10
-98.27070767611571
 20
303.0064004837875
 30
0.0
 11
-98.7707076761157
 21
303.0064004837875
 31
0.0
  0
LINE
  5
8349
330
18
100
AcDbEntity
  8
0
100
AcDbLine
 10
-98.27070767611571
 20
303.5028608227446
 30
0.0
 11
-98.27070767611571
 21
303.0064004837873
 31
0.0
  0
LINE
  5
834A
330
18
100
AcDbEntity
  8
0
100
AcDbLine
 10
-98.27070767611571
 20
297.6064004837875
 30
0.0
 11
-98.7707076761157
 21
297.6064004837875
 31
0.0
  0
LINE
  5
834B
330
18
100
AcDbEntity
  8
0
100
AcDbLine
 10
-98.27070767611571
 20
297.6064004837875
 30
0.0
 11
-98.7707076761157
 21
297.6064004837875
 31
0.0
  0
CIRCLE
  5
834C
330
18
100
AcDbEntity
  8
0
100
AcDbCircle
 10
-101.0207076761157
 20
298.3564004837875
 30
0.0
 40
0.4
  0
CIRCLE
  5
834D
330
18
100
AcDbEntity
  8
0
100
AcDbCircle
 10
-100.7707076761157
 20
310.3564004837875
 30
0.0
 40
2.0
  0
CIRCLE
  5
834E
330
18
100
AcDbEntity
  8
0
100
AcDbCircle
 10
-100.7707076761157
 20
310.3564004837875
 30
0.0
 40
1.3
  0
LINE
  5
834F
330
18
100
AcDbEntity
  8
0
100
AcDbLine
 10
-97.27070767611571
 20
304.6564004837875
 30
0.0
 11
-97.27070767611571
 21
307.6564004837874
 31
0.0
  0
LINE
  5
8350
330
18
100
AcDbEntity
  8
0
100
AcDbLine
 10
-97.27070767611571
 20
300.7564004837874
 30
0.0
 11
-97.27070767611571
 21
303.7564004837875
 31
0.0
  0
LINE
  5
8351
330
18
100
AcDbEntity
  8
0
100
AcDbLine
 10
-97.7707076761157
 20
313.1064004837875
 30
0.0
 11
-97.7707076761157
 21
308.1064004837875
 31
0.0
  0
LINE
  5
8352
330
18
100
AcDbEntity
  8
0
100
AcDbLine
 10
-96.77070767611571
 20
308.1064004837875
 30
0.0
 11
-97.7707076761157
 21
308.1064004837875
 31
0.0
  0
LINE
  5
8353
330
18
100
AcDbEntity
  8
0
100
AcDbLine
 10
-93.7707076761157
 20
328.0431066649898
 30
0.0
 11
-93.7707076761157
 21
338.0431066649898
 31
0.0
  0
TEXT
  5
8354
330
18
100
AcDbEntity
  8
0
100
AcDbText
 10
-101.266389267275
 20
334.4809770475547
 30
0.0
 40
1.5
  1
1
 50
54.00000000000539
 41
0.8
 72
     1
 11
-100.9282502927123
 21
334.6061250954087
 31
0.0
100
AcDbText
 73
     1
  0
TEXT
  5
8355
330
18
100
AcDbEntity
  8
0
100
AcDbText
 10
-96.73780500038535
 20
335.1179375799263
 30
0.0
 40
1.5
  1
4
 50
305.9999999999952
 41
0.8
 72
     1
 11
-96.61747147815999
 21
334.6120523721679
 31
0.0
100
AcDbText
 73
     1
  0
LINE
  5
8356
330
18
100
AcDbEntity
  8
0
100
AcDbLine
 10
-101.2707076761157
 20
338.0431066649898
 30
0.0
 11
-103.7707076761157
 21
335.5431066649898
 31
0.0
  0
LINE
  5
8357
330
18
100
AcDbEntity
  8
0
100
AcDbLine
 10
-103.7707076761157
 20
338.0431066649898
 30
0.0
 11
-103.7707076761157
 21
328.0431066649898
 31
0.0
  0
CIRCLE
  5
8358
330
18
100
AcDbEntity
  8
0
100
AcDbCircle
 10
-98.7707076761157
 20
322.0439534050407
 30
0.0
 40
2.330426913141309
  0
LINE
  5
8359
330
18
100
AcDbEntity
  8
0
100
AcDbLine
 10
-96.79941763158007
 20
322.314024802146
 30
0.0
 11
-98.5006362790104
 21
322.314024802146
 31
0.0
  0
LINE
  5
835A
330
18
100
AcDbEntity
  8
0
100
AcDbLine
 10
-98.5006362790104
 20
321.7815216252525
 30
0.0
 11
-96.79941763158007
 21
321.7815216252525
 31
0.0
  0
LINE
  5
835B
330
18
100
AcDbEntity
  8
0
100
AcDbLine
 10
-98.5006362790104
 20
332.7806748852017
 30
0.0
 11
-96.79941763158007
 21
332.7806748852017
 31
0.0
  0
LINE
  5
835C
330
18
100
AcDbEntity
  8
0
100
AcDbLine
 10
-96.79941763158007
 20
333.3131780620951
 30
0.0
 11
-98.5006362790104
 21
333.3131780620951
 31
0.0
  0
CIRCLE
  5
835D
330
18
100
AcDbEntity
  8
0
100
AcDbCircle
 10
-98.7707076761157
 20
333.0431066649898
 30
0.0
 40
2.330426913141309
  0
TEXT
  5
835E
330
18
100
AcDbEntity
  8
0
100
AcDbText
 10
-98.31218291582009
 20
324.9065760099608
 30
0.0
 40
1.5
  1
3
 50
342.0000000000011
 41
0.8
 72
     1
 11
-97.95090614739315
 21
324.5788976272599
 31
0.0
100
AcDbText
 73
     1
  0
LINE
  5
835F
330
18
100
AcDbEntity
  8
0
100
AcDbLine
 10
-103.7707076761157
 20
317.0439534050407
 30
0.0
 11
-93.7707076761157
 21
317.0439534050407
 31
0.0
  0
LINE
  5
8360
330
18
100
AcDbEntity
  8
0
100
AcDbLine
 10
-93.7707076761157
 20
327.0439534050407
 30
0.0
 11
-103.7707076761157
 21
327.0439534050407
 31
0.0
  0
LINE
  5
8361
330
18
100
AcDbEntity
  8
0
100
AcDbLine
 10
-103.7707076761157
 20
328.0431066649898
 30
0.0
 11
-93.7707076761157
 21
328.0431066649898
 31
0.0
  0
LINE
  5
8362
330
18
100
AcDbEntity
  8
0
100
AcDbLine
 10
-103.7707076761157
 20
327.0439534050407
 30
0.0
 11
-103.7707076761157
 21
317.0439534050407
 31
0.0
  0
TEXT
  5
8363
330
18
100
AcDbEntity
  8
0
100
AcDbText
 10
-100.0785054989635
 20
324.6306304644577
 30
0.0
 40
1.5
  1
2
 50
17.99999999999886
 41
0.8
 72
     1
 11
-99.59747713656902
 21
324.5766336089987
 31
0.0
100
AcDbText
 73
     1
  0
LINE
  5
8364
330
18
100
AcDbEntity
  8
0
100
AcDbLine
 10
-101.2707076761157
 20
327.0439534050407
 30
0.0
 11
-103.7707076761157
 21
324.5439534050407
 31
0.0
  0
TEXT
  5
8365
330
18
100
AcDbEntity
  8
0
100
AcDbText
 10
-101.266389267275
 20
323.4818237876054
 30
0.0
 40
1.5
  1
1
 50
54.00000000000539
 41
0.8
 72
     1
 11
-100.9282502927123
 21
323.6069718354595
 31
0.0
100
AcDbText
 73
     1
  0
TEXT
  5
8366
330
18
100
AcDbEntity
  8
0
100
AcDbText
 10
-100.8270042801501
 20
320.0013214700707
 30
0.0
 40
1.5
  1
9
 50
125.9999999999946
 41
0.8
 72
     1
 11
-100.9239438740714
 21
320.4750076978626
 31
0.0
100
AcDbText
 73
     1
  0
TEXT
  5
8367
330
18
100
AcDbEntity
  8
0
100
AcDbText
 10
-101.6349155014919
 20
321.6202901465428
 30
0.0
 40
1.5
  1
0
 50
90.0
 41
0.8
 72
     1
 11
-101.4349155014919
 21
322.0402901465428
 31
0.0
100
AcDbText
 73
     1
  0
LINE
  5
8368
330
18
100
AcDbEntity
  8
0
100
AcDbLine
 10
-99.97716183192864
 20
321.7815216252525
 30
0.0
 11
-99.03313945590383
 21
321.7815216252525
 31
0.0
  0
LINE
  5
8369
330
18
100
AcDbEntity
  8
0
100
AcDbLine
 10
-99.03313945590383
 20
322.314024802146
 30
0.0
 11
-99.97602088686193
 21
322.314024802146
 31
0.0
  0
LINE
  5
836A
330
18
100
AcDbEntity
  8
0
100
AcDbLine
 10
-99.9777192205442
 20
321.5213765776462
 30
0.0
 11
-99.97716183192864
 21
321.7815216252525
 31
0.0
  0
LINE
  5
836B
330
18
100
AcDbEntity
  8
0
100
AcDbLine
 10
-99.97602088686193
 20
322.314024802146
 30
0.0
 11
-99.97548263367974
 21
322.5652389384068
 31
0.0
  0
TEXT
  5
836C
330
18
100
AcDbEntity
  8
0
100
AcDbText
 10
-99.25286886686929
 20
319.1890107419248
 30
0.0
 40
1.5
  1
8
 50
162.0000000000011
 41
0.8
 72
     1
 11
-99.59050920483827
 21
319.5090091828213
 31
0.0
100
AcDbText
 73
     1
  0
LINE
  5
836D
330
18
100
AcDbEntity
  8
0
100
AcDbLine
 10
-99.03313945590383
 20
323.9583881631084
 30
0.0
 11
-99.03313945590383
 21
322.314024802146
 31
0.0
  0
LINE
  5
836E
330
18
100
AcDbEntity
  8
0
100
AcDbLine
 10
-98.5006362790104
 20
323.9583881631084
 30
0.0
 11
-99.03313945590383
 21
323.9583881631084
 31
0.0
  0
LINE
  5
836F
330
18
100
AcDbEntity
  8
0
100
AcDbLine
 10
-98.5006362790104
 20
322.314024802146
 30
0.0
 11
-98.5006362790104
 21
323.9583881631084
 31
0.0
  0
LINE
  5
8370
330
18
100
AcDbEntity
  8
0
100
AcDbLine
 10
-98.5006362790104
 20
320.0726633605051
 30
0.0
 11
-98.5006362790104
 21
321.7815216252525
 31
0.0
  0
LINE
  5
8371
330
18
100
AcDbEntity
  8
0
100
AcDbLine
 10
-99.03313945590383
 20
320.0726633605051
 30
0.0
 11
-98.5006362790104
 21
320.0726633605051
 31
0.0
  0
LINE
  5
8372
330
18
100
AcDbEntity
  8
0
100
AcDbLine
 10
-99.03313945590383
 20
321.7815216252525
 30
0.0
 11
-99.03313945590383
 21
320.0726633605051
 31
0.0
  0
LINE
  5
8373
330
18
100
AcDbEntity
  8
0
100
AcDbLine
 10
-100.8806122495852
 20
322.045244699069
 30
0.0
 11
-99.9777192205442
 21
321.5213765776462
 31
0.0
  0
LINE
  5
8374
330
18
100
AcDbEntity
  8
0
100
AcDbLine
 10
-99.97548263367974
 20
322.5652389384068
 30
0.0
 11
-100.8806122495852
 21
322.045244699069
 31
0.0
  0
TEXT
  5
8375
330
18
100
AcDbEntity
  8
0
100
AcDbText
 10
-100.8270042801501
 20
331.0004747300199
 30
0.0
 40
1.5
  1
9
 50
125.9999999999946
 41
0.8
 72
     1
 11
-100.9239438740714
 21
331.4741609578118
 31
0.0
100
AcDbText
 73
     1
  0
TEXT
  5
8376
330
18
100
AcDbEntity
  8
0
100
AcDbText
 10
-101.6349155014919
 20
332.6194434064919
 30
0.0
 40
1.5
  1
0
 50
90.0
 41
0.8
 72
     1
 11
-101.4349155014919
 21
333.0394434064919
 31
0.0
100
AcDbText
 73
     1
  0
LINE
  5
8377
330
18
100
AcDbEntity
  8
0
100
AcDbLine
 10
-99.03313945590383
 20
333.3131780620951
 30
0.0
 11
-99.97602088686193
 21
333.3131780620951
 31
0.0
  0
LINE
  5
8378
330
18
100
AcDbEntity
  8
0
100
AcDbLine
 10
-99.97716183192864
 20
332.7806748852017
 30
0.0
 11
-99.03313945590383
 21
332.7806748852017
 31
0.0
  0
LINE
  5
8379
330
18
100
AcDbEntity
  8
0
100
AcDbLine
 10
-99.97602088686193
 20
333.3131780620951
 30
0.0
 11
-99.97548263367974
 21
333.564392198356
 31
0.0
  0
LINE
  5
837A
330
18
100
AcDbEntity
  8
0
100
AcDbLine
 10
-99.9777192205442
 20
332.5205298375954
 30
0.0
 11
-99.97716183192864
 21
332.7806748852017
 31
0.0
  0
LINE
  5
837B
330
18
100
AcDbEntity
  8
0
100
AcDbLine
 10
-99.03313945590383
 20
332.7806748852017
 30
0.0
 11
-99.03313945590383
 21
331.0718166204542
 31
0.0
  0
LINE
  5
837C
330
18
100
AcDbEntity
  8
0
100
AcDbLine
 10
-99.03313945590383
 20
331.0718166204542
 30
0.0
 11
-98.5006362790104
 21
331.0718166204542
 31
0.0
  0
LINE
  5
837D
330
18
100
AcDbEntity
  8
0
100
AcDbLine
 10
-98.5006362790104
 20
331.0718166204542
 30
0.0
 11
-98.5006362790104
 21
332.7806748852017
 31
0.0
  0
LINE
  5
837E
330
18
100
AcDbEntity
  8
0
100
AcDbLine
 10
-98.5006362790104
 20
333.3131780620951
 30
0.0
 11
-98.5006362790104
 21
334.9575414230575
 31
0.0
  0
LINE
  5
837F
330
18
100
AcDbEntity
  8
0
100
AcDbLine
 10
-98.5006362790104
 20
334.9575414230575
 30
0.0
 11
-99.03313945590383
 21
334.9575414230575
 31
0.0
  0
LINE
  5
8380
330
18
100
AcDbEntity
  8
0
100
AcDbLine
 10
-99.03313945590383
 20
334.9575414230575
 30
0.0
 11
-99.03313945590383
 21
333.3131780620951
 31
0.0
  0
LINE
  5
8381
330
18
100
AcDbEntity
  8
0
100
AcDbLine
 10
-99.97548263367974
 20
333.564392198356
 30
0.0
 11
-100.8806122495852
 21
333.0443979590181
 31
0.0
  0
LINE
  5
8382
330
18
100
AcDbEntity
  8
0
100
AcDbLine
 10
-100.8806122495852
 20
333.0443979590181
 30
0.0
 11
-99.9777192205442
 21
332.5205298375954
 31
0.0
  0
TEXT
  5
8383
330
18
100
AcDbEntity
  8
0
100
AcDbText
 10
-99.25286886686929
 20
330.188164001874
 30
0.0
 40
1.5
  1
8
 50
162.0000000000011
 41
0.8
 72
     1
 11
-99.59050920483827
 21
330.5081624427706
 31
0.0
100
AcDbText
 73
     1
  0
LINE
  5
8384
330
18
100
AcDbEntity
  8
0
100
AcDbLine
 10
-93.7707076761157
 20
317.0439534050407
 30
0.0
 11
-93.7707076761157
 21
327.0439534050407
 31
0.0
  0
TEXT
  5
8385
330
18
100
AcDbEntity
  8
0
100
AcDbText
 10
-96.73780500038535
 20
324.1187843199771
 30
0.0
 40
1.5
  1
4
 50
305.9999999999952
 41
0.8
 72
     1
 11
-96.61747147815999
 21
323.6128991122186
 31
0.0
100
AcDbText
 73
     1
  0
LINE
  5
8386
330
18
100
AcDbEntity
  8
0
100
AcDbLine
 10
-96.79941763158007
 20
321.7815216252525
 30
0.0
 11
-96.79941763158007
 21
322.314024802146
 31
0.0
  0
TEXT
  5
8387
330
18
100
AcDbEntity
  8
0
100
AcDbText
 10
-96.20810187434125
 20
320.6981962960089
 30
0.0
 40
1.5
  1
6
 50
234.0000000000047
 41
0.8
 72
     1
 11
-96.6131650595193
 21
320.480934974622
 31
0.0
100
AcDbText
 73
     1
  0
TEXT
  5
8388
330
18
100
AcDbEntity
  8
0
100
AcDbText
 10
-95.90649985073945
 20
322.492469477281
 30
0.0
 40
1.5
  1
5
 50
270.0
 41
0.8
 72
     1
 11
-96.10649985073946
 21
322.0476166635386
 31
0.0
100
AcDbText
 73
     1
  0
TEXT
  5
8389
330
18
100
AcDbEntity
  8
0
100
AcDbText
 10
-97.48269107994346
 20
319.4508490354611
 30
0.0
 40
1.5
  1
7
 50
197.9999999999988
 41
0.8
 72
     1
 11
-97.9439382156624
 21
319.5112732010827
 31
0.0
100
AcDbText
 73
     1
  0
TEXT
  5
838A
330
18
100
AcDbEntity
  8
0
100
AcDbText
 10
-95.90649985073945
 20
333.4916227372301
 30
0.0
 40
1.5
  1
5
 50
270.0
 41
0.8
 72
     1
 11
-96.10649985073946
 21
333.0467699234877
 31
0.0
100
AcDbText
 73
     1
  0
TEXT
  5
838B
330
18
100
AcDbEntity
  8
0
100
AcDbText
 10
-96.20810187434125
 20
331.697349555958
 30
0.0
 40
1.5
  1
6
 50
234.0000000000047
 41
0.8
 72
     1
 11
-96.6131650595193
 21
331.4800882345712
 31
0.0
100
AcDbText
 73
     1
  0
LINE
  5
838C
330
18
100
AcDbEntity
  8
0
100
AcDbLine
 10
-96.79941763158007
 20
332.7806748852017
 30
0.0
 11
-96.79941763158007
 21
333.3131780620951
 31
0.0
  0
TEXT
  5
838D
330
18
100
AcDbEntity
  8
0
100
AcDbText
 10
-97.48269107994346
 20
330.4500022954104
 30
0.0
 40
1.5
  1
7
 50
197.9999999999988
 41
0.8
 72
     1
 11
-97.9439382156624
 21
330.510426461032
 31
0.0
100
AcDbText
 73
     1
  0
TEXT
  5
838E
330
18
100
AcDbEntity
  8
0
100
AcDbText
 10
-98.31218291582009
 20
346.9048825298591
 30
0.0
 40
1.5
  1
3
 50
342.0000000000011
 41
0.8
 72
     1
 11
-97.95090614739315
 21
346.5772041471582
 31
0.0
100
AcDbText
 73
     1
  0
LINE
  5
838F
330
18
100
AcDbEntity
  8
0
100
AcDbLine
 10
-96.79941763158007
 20
344.3123313220443
 30
0.0
 11
-98.5006362790104
 21
344.3123313220443
 31
0.0
  0
LINE
  5
8390
330
18
100
AcDbEntity
  8
0
100
AcDbLine
 10
-93.7707076761157
 20
349.042259924939
 30
0.0
 11
-103.7707076761157
 21
349.042259924939
 31
0.0
  0
LINE
  5
8391
330
18
100
AcDbEntity
  8
0
100
AcDbLine
 10
-98.5006362790104
 20
343.7798281451508
 30
0.0
 11
-96.79941763158007
 21
343.7798281451508
 31
0.0
  0
TEXT
  5
8392
330
18
100
AcDbEntity
  8
0
100
AcDbText
 10
-98.31218291582009
 20
335.9057292699101
 30
0.0
 40
1.5
  1
3
 50
342.0000000000011
 41
0.8
 72
     1
 11
-97.95090614739315
 21
335.5780508872092
 31
0.0
100
AcDbText
 73
     1
  0
LINE
  5
8393
330
18
100
AcDbEntity
  8
0
100
AcDbLine
 10
-93.7707076761157
 20
338.0431066649898
 30
0.0
 11
-103.7707076761157
 21
338.0431066649898
 31
0.0
  0
LINE
  5
8394
330
18
100
AcDbEntity
  8
0
100
AcDbLine
 10
-103.7707076761157
 20
339.042259924939
 30
0.0
 11
-93.7707076761157
 21
339.042259924939
 31
0.0
  0
CIRCLE
  5
8395
330
18
100
AcDbEntity
  8
0
100
AcDbCircle
 10
-98.7707076761157
 20
344.0422599249389
 30
0.0
 40
2.330426913141309
  0
LINE
  5
8396
330
18
100
AcDbEntity
  8
0
100
AcDbLine
 10
-99.03313945590383
 20
345.9566946830067
 30
0.0
 11
-99.03313945590383
 21
344.3123313220443
 31
0.0
  0
LINE
  5
8397
330
18
100
AcDbEntity
  8
0
100
AcDbLine
 10
-98.5006362790104
 20
344.3123313220443
 30
0.0
 11
-98.5006362790104
 21
345.9566946830067
 31
0.0
  0
LINE
  5
8398
330
18
100
AcDbEntity
  8
0
100
AcDbLine
 10
-103.7707076761157
 20
349.042259924939
 30
0.0
 11
-103.7707076761157
 21
339.042259924939
 31
0.0
  0
LINE
  5
8399
330
18
100
AcDbEntity
  8
0
100
AcDbLine
 10
-99.03313945590383
 20
344.3123313220443
 30
0.0
 11
-99.97602088686193
 21
344.3123313220443
 31
0.0
  0
LINE
  5
839A
330
18
100
AcDbEntity
  8
0
100
AcDbLine
 10
-99.97602088686193
 20
344.3123313220443
 30
0.0
 11
-99.97548263367974
 21
344.5635454583051
 31
0.0
  0
TEXT
  5
839B
330
18
100
AcDbEntity
  8
0
100
AcDbText
 10
-101.6349155014919
 20
343.618596666441
 30
0.0
 40
1.5
  1
0
 50
90.0
 41
0.8
 72
     1
 11
-101.4349155014919
 21
344.0385966664411
 31
0.0
100
AcDbText
 73
     1
  0
LINE
  5
839C
330
18
100
AcDbEntity
  8
0
100
AcDbLine
 10
-99.97716183192864
 20
343.7798281451508
 30
0.0
 11
-99.03313945590383
 21
343.7798281451508
 31
0.0
  0
LINE
  5
839D
330
18
100
AcDbEntity
  8
0
100
AcDbLine
 10
-99.9777192205442
 20
343.5196830975445
 30
0.0
 11
-99.97716183192864
 21
343.7798281451508
 31
0.0
  0
LINE
  5
839E
330
18
100
AcDbEntity
  8
0
100
AcDbLine
 10
-100.8806122495852
 20
344.0435512189673
 30
0.0
 11
-99.9777192205442
 21
343.5196830975445
 31
0.0
  0
LINE
  5
839F
330
18
100
AcDbEntity
  8
0
100
AcDbLine
 10
-99.97548263367974
 20
344.5635454583051
 30
0.0
 11
-100.8806122495852
 21
344.0435512189673
 31
0.0
  0
TEXT
  5
83A0
330
18
100
AcDbEntity
  8
0
100
AcDbText
 10
-100.8270042801501
 20
341.999627989969
 30
0.0
 40
1.5
  1
9
 50
125.9999999999946
 41
0.8
 72
     1
 11
-100.9239438740714
 21
342.4733142177609
 31
0.0
100
AcDbText
 73
     1
  0
TEXT
  5
83A1
330
18
100
AcDbEntity
  8
0
100
AcDbText
 10
-99.25286886686929
 20
341.1873172618232
 30
0.0
 40
1.5
  1
8
 50
162.0000000000011
 41
0.8
 72
     1
 11
-99.59050920483827
 21
341.5073157027197
 31
0.0
100
AcDbText
 73
     1
  0
LINE
  5
83A2
330
18
100
AcDbEntity
  8
0
100
AcDbLine
 10
-99.03313945590383
 20
342.0709698804033
 30
0.0
 11
-98.5006362790104
 21
342.0709698804033
 31
0.0
  0
TEXT
  5
83A3
330
18
100
AcDbEntity
  8
0
100
AcDbText
 10
-100.0785054989635
 20
335.629783724407
 30
0.0
 40
1.5
  1
2
 50
17.99999999999886
 41
0.8
 72
     1
 11
-99.59747713656902
 21
335.5757868689479
 31
0.0
100
AcDbText
 73
     1
  0
LINE
  5
83A4
330
18
100
AcDbEntity
  8
0
100
AcDbLine
 10
-98.5006362790104
 20
342.0709698804033
 30
0.0
 11
-98.5006362790104
 21
343.7798281451508
 31
0.0
  0
LINE
  5
83A5
330
18
100
AcDbEntity
  8
0
100
AcDbLine
 10
-99.03313945590383
 20
343.7798281451508
 30
0.0
 11
-99.03313945590383
 21
342.0709698804033
 31
0.0
  0
LINE
  5
83A6
330
18
100
AcDbEntity
  8
0
100
AcDbLine
 10
-101.2707076761157
 20
349.042259924939
 30
0.0
 11
-103.7707076761157
 21
346.5422599249389
 31
0.0
  0
TEXT
  5
83A7
330
18
100
AcDbEntity
  8
0
100
AcDbText
 10
-101.266389267275
 20
345.4801303075037
 30
0.0
 40
1.5
  1
1
 50
54.00000000000539
 41
0.8
 72
     1
 11
-100.9282502927123
 21
345.6052783553577
 31
0.0
100
AcDbText
 73
     1
  0
TEXT
  5
83A8
330
18
100
AcDbEntity
  8
0
100
AcDbText
 10
-100.0785054989635
 20
346.628936984356
 30
0.0
 40
1.5
  1
2
 50
17.99999999999886
 41
0.8
 72
     1
 11
-99.59747713656902
 21
346.5749401288969
 31
0.0
100
AcDbText
 73
     1
  0
LINE
  5
83A9
330
18
100
AcDbEntity
  8
0
100
AcDbLine
 10
-98.5006362790104
 20
345.9566946830067
 30
0.0
 11
-99.03313945590383
 21
345.9566946830067
 31
0.0
  0
LINE
  5
83AA
330
18
100
AcDbEntity
  8
0
100
AcDbLine
 10
-93.7707076761157
 20
339.042259924939
 30
0.0
 11
-93.7707076761157
 21
349.042259924939
 31
0.0
  0
LINE
  5
83AB
330
18
100
AcDbEntity
  8
0
100
AcDbLine
 10
-96.79941763158007
 20
343.7798281451508
 30
0.0
 11
-96.79941763158007
 21
344.3123313220443
 31
0.0
  0
TEXT
  5
83AC
330
18
100
AcDbEntity
  8
0
100
AcDbText
 10
-95.90649985073945
 20
344.4907759971793
 30
0.0
 40
1.5
  1
5
 50
270.0
 41
0.8
 72
     1
 11
-96.10649985073946
 21
344.0459231834369
 31
0.0
100
AcDbText
 73
     1
  0
TEXT
  5
83AD
330
18
100
AcDbEntity
  8
0
100
AcDbText
 10
-96.20810187434125
 20
342.696502815907
 30
0.0
 40
1.5
  1
6
 50
234.0000000000047
 41
0.8
 72
     1
 11
-96.6131650595193
 21
342.4792414945202
 31
0.0
100
AcDbText
 73
     1
  0
TEXT
  5
83AE
330
18
100
AcDbEntity
  8
0
100
AcDbText
 10
-97.48269107994346
 20
341.4491555553595
 30
0.0
 40
1.5
  1
7
 50
197.9999999999988
 41
0.8
 72
     1
 11
-97.9439382156624
 21
341.509579720981
 31
0.0
100
AcDbText
 73
     1
  0
TEXT
  5
83AF
330
18
100
AcDbEntity
  8
0
100
AcDbText
 10
-96.73780500038535
 20
346.1170908398754
 30
0.0
 40
1.5
  1
4
 50
305.9999999999952
 41
0.8
 72
     1
 11
-96.61747147815999
 21
345.6112056321169
 31
0.0
100
AcDbText
 73
     1
  0
LINE
  5
83B2
330
18
100
AcDbEntity
  8
0
100
AcDbLine
 10
-86.17070767611584
 20
478.4182125074966
 30
0.0
 11
-86.17070767611586
 21
243.4182125074966
 31
0.0
  0
LINE
  5
83B3
330
18
100
AcDbEntity
  8
0
100
AcDbLine
 10
32.35631980715368
 20
529.2476860759271
 30
0.0
 11
239.1563198071536
 21
529.2476860759272
 31
0.0
  0
LINE
  5
83C7
330
18
100
AcDbEntity
  8
0
100
AcDbLine
 10
-222.3544176655342
 20
258.3557903987043
 30
0.0
 11
-207.3544176655342
 21
258.3557903987043
 31
0.0
  0
LWPOLYLINE
  5
83C8
330
18
100
AcDbEntity
  8
0
100
AcDbPolyline
 90
        8
 70
     1
 43
0.0
 10
-221.8544176655342
 20
252.3557903987043
 10
-207.8544176655342
 20
252.3557903987039
 42
0.4142135623730951
 10
-207.3544176655342
 20
252.8557903987039
 10
-207.3544176655342
 20
261.8557903987039
 42
0.4142135623730951
 10
-207.8544176655342
 20
262.3557903987038
 10
-221.8544176655342
 20
262.3557903987038
 42
0.4142135623730996
 10
-222.3544176655342
 20
261.8557903987039
 10
-222.3544176655342
 20
252.8557903987043
 42
0.4142135623730904
  0
TEXT
  5
83C9
330
18
100
AcDbEntity
  8
0
100
AcDbText
 10
-221.1396991863276
 20
259.0410433304305
 30
0.0
 40
2.0
  1
Certificate
  7
MSｺﾞｼｯｸ
 11
-221.1396991863276
 21
258.675561096928
 31
0.0
100
AcDbText
 73
     1
  0
ARC
  5
83CA
102
{ACAD_REACTORS
330
83D3
102
}
330
18
100
AcDbEntity
  8
0
100
AcDbCircle
 10
-218.6934128685681
 20
255.057897270015
 30
0.0
 40
1.00311322310025
100
AcDbArc
 50
113.5897772726146
 51
269.9468005913759
  0
LINE
  5
83CB
102
{ACAD_REACTORS
330
83D3
102
}
330
18
100
AcDbEntity
  8
0
100
AcDbLine
 10
-220.6968442639155
 20
256.8582844793172
 30
0.0
 11
-216.2913442639165
 21
256.8582844793172
 31
0.0
  0
LINE
  5
83CC
102
{ACAD_REACTORS
330
83D3
102
}
330
18
100
AcDbEntity
  8
0
100
AcDbLine
 10
-221.097344263917
 20
253.6542844793175
 30
0.0
 11
-216.6918442639163
 21
253.6542844793175
 31
0.0
  0
LINE
  5
83CD
102
{ACAD_REACTORS
330
83D3
102
}
330
18
100
AcDbEntity
  8
0
100
AcDbLine
 10
-221.097344263917
 20
253.6542844793175
 30
0.0
 11
-220.6968442639155
 21
256.8582844793172
 31
0.0
  0
CIRCLE
  5
83CE
102
{ACAD_REACTORS
330
83D3
102
}
330
18
100
AcDbEntity
  8
0
100
AcDbCircle
 10
-218.6943442639168
 20
255.0560344793166
 30
0.0
 40
0.6007500000000002
  0
ARC
  5
83CF
102
{ACAD_REACTORS
330
83D3
102
}
330
18
100
AcDbEntity
  8
0
100
AcDbCircle
 10
-218.6943442639168
 20
254.8557844793167
 30
0.0
 40
0.8009999999999999
100
AcDbArc
 50
270.0
 51
90.0
  0
LINE
  5
83D0
102
{ACAD_REACTORS
330
83D3
102
}
330
18
100
AcDbEntity
  8
0
100
AcDbLine
 10
-216.2913442639165
 20
256.8582844793172
 30
0.0
 11
-219.0948442639165
 21
255.9771844793167
 31
0.0
  0
LINE
  5
83D1
102
{ACAD_REACTORS
330
83D3
102
}
330
18
100
AcDbEntity
  8
0
100
AcDbLine
 10
-218.6943442639168
 20
255.6567844793171
 30
0.0
 11
-216.4515442639168
 21
255.6567844793171
 31
0.0
  0
LINE
  5
83D2
102
{ACAD_REACTORS
330
83D3
102
}
330
18
100
AcDbEntity
  8
0
100
AcDbLine
 10
-216.6918442639163
 20
253.6542844793175
 30
0.0
 11
-216.4515442639168
 21
255.6567844793171
 31
0.0
  0
HATCH
  5
83D3
330
18
100
AcDbEntity
  8
0
100
AcDbHatch
 10
0.0
 20
0.0
 30
0.0
210
0.0
220
0.0
230
1.0
  2
SOLID
 70
     1
 71
     1
 91
        2
 92
       17
 93
        1
 72
     2
 10
-218.6943442639168
 20
255.0560344793166
 40
0.6007500000000002
 50
0.0
 51
360.0
 73
     1
 97
        1
330
83CE
 92
        1
 93
        8
 72
     2
 10
-218.6934128685681
 20
255.057897270015
 40
1.00311322310025
 50
113.5897772726146
 51
269.9468005913759
 73
     1
 72
     2
 10
-218.6943442639168
 20
254.8557844793167
 40
0.8009999999999999
 50
270.0
 51
450.0
 73
     1
 72
     1
 10
-218.6943442639168
 20
255.6567844793171
 11
-216.4515442639168
 21
255.6567844793171
 72
     1
 10
-216.4515442639168
 20
255.6567844793171
 11
-216.6918442639163
 21
253.6542844793175
 72
     1
 10
-216.6918442639163
 20
253.6542844793175
 11
-221.097344263917
 21
253.6542844793175
 72
     1
 10
-221.097344263917
 20
253.6542844793175
 11
-220.6968442639155
 21
256.8582844793172
 72
     1
 10
-220.6968442639155
 20
256.8582844793172
 11
-216.2913442639165
 21
256.8582844793172
 72
     1
 10
-216.2913442639165
 20
256.8582844793172
 11
-219.0948442639165
 21
255.9771844793167
 97
        8
330
83CA
330
83CF
330
83D1
330
83D2
330
83CC
330
83CD
330
83CB
330
83D0
 75
     0
 76
     1
 98
        1
 10
-420.1720543581524
 20
257.5355092950767
  0
TEXT
  5
83D4
330
18
100
AcDbEntity
  8
0
100
AcDbText
 10
-215.4752450395282
 20
253.7020186179006
 30
0.0
 40
1.44
  1
DENSO
  7
MSｺﾞｼｯｸ
100
AcDbText
  0
TEXT
  5
83D5
330
18
100
AcDbEntity
  8
0
100
AcDbText
 10
-215.3538319293894
 20
255.3987810268863
 30
0.0
 40
1.44
  1
NIKKI
  7
MSｺﾞｼｯｸ
100
AcDbText
  0
LINE
  5
859D
330
18
100
AcDbEntity
  8
0
100
AcDbLine
 10
153.6716923703929
 20
297.604059807963
 30
0.0
 11
153.6716923703929
 21
259.604059807963
 31
0.0
  0
LINE
  5
859E
330
18
100
AcDbEntity
  8
0
100
AcDbLine
 10
151.6716923703929
 20
285.604059807963
 30
0.0
 11
151.6716923703929
 21
266.604059807963
 31
0.0
  0
LINE
  5
859F
330
18
100
AcDbEntity
  8
0
100
AcDbLine
 10
123.6716923703929
 20
297.604059807963
 30
0.0
 11
123.6716923703929
 21
259.604059807963
 31
0.0
  0
LINE
  5
85A0
330
18
100
AcDbEntity
  8
0
100
AcDbLine
 10
125.6716923703929
 20
266.604059807963
 30
0.0
 11
125.6716923703929
 21
285.604059807963
 31
0.0
  0
TEXT
  5
85A1
330
18
100
AcDbEntity
  8
0
100
AcDbText
 10
131.714415720005
 20
259.9960667764762
 30
0.0
 40
2.7
  1
MADE IN JAPAN
 41
0.8
  7
MSｺﾞｼｯｸ
100
AcDbText
  0
LINE
  5
85A2
330
18
100
AcDbEntity
  8
0
100
AcDbLine
 10
152.6716923703929
 20
258.604059807963
 30
0.0
 11
124.6716923703929
 21
258.604059807963
 31
0.0
  0
LINE
  5
85A3
330
18
100
AcDbEntity
  8
0
100
AcDbLine
 10
151.6716923703929
 20
266.604059807963
 30
0.0
 11
125.6716923703929
 21
266.604059807963
 31
0.0
  0
TEXT
  5
85A4
330
18
100
AcDbEntity
  8
0
100
AcDbText
 10
125.3352388857651
 20
263.1608623020015
 30
0.0
 40
2.7
  1
NIKKI DENSO CO.,LTD
 41
0.8
  7
MSｺﾞｼｯｸ
100
AcDbText
  0
ARC
  5
85A5
330
18
100
AcDbEntity
  8
0
100
AcDbCircle
 10
124.6716923703929
 20
259.604059807963
 30
0.0
 40
1.0
100
AcDbArc
 50
180.0
 51
270.0
  0
ARC
  5
85A6
330
18
100
AcDbEntity
  8
0
100
AcDbCircle
 10
152.6716923703929
 20
259.604059807963
 30
0.0
 40
1.0
100
AcDbArc
 50
270.0
 51
0.0
  0
ARC
  5
85A7
330
18
100
AcDbEntity
  8
0
100
AcDbCircle
 10
155.6716923703929
 20
311.604059807963
 30
0.0
 40
0.5
100
AcDbArc
 50
0.0
 51
90.0
  0
ARC
  5
85A8
330
18
100
AcDbEntity
  8
0
100
AcDbCircle
 10
155.6716923703929
 20
300.604059807963
 30
0.0
 40
0.5
100
AcDbArc
 50
270.0
 51
0.0
  0
LINE
  5
85A9
330
18
100
AcDbEntity
  8
0
100
AcDbLine
 10
121.1716923703929
 20
305.104059807963
 30
0.0
 11
156.1716923703929
 21
305.104059807963
 31
0.0
  0
LINE
  5
85AA
330
18
100
AcDbEntity
  8
0
100
AcDbLine
 10
121.1716923703929
 20
311.604059807963
 30
0.0
 11
121.1716923703929
 21
300.604059807963
 31
0.0
  0
TEXT
  5
85AB
330
18
100
AcDbEntity
  8
0
100
AcDbText
 10
122.2674891456276
 20
305.66293860721
 30
0.0
 40
2.0
  1
SER No.******
 41
1.199999999999999
  7
MSｺﾞｼｯｸ
 11
122.2674891456276
 21
305.2974563737075
 31
0.0
100
AcDbText
 73
     1
  0
TEXT
  5
85AC
330
18
100
AcDbEntity
  8
0
100
AcDbText
 10
128.7432674494616
 20
287.5740849717772
 30
0.0
 40
3.299999999999999
  1
＊＊＊
 41
0.8
  7
MSｺﾞｼｯｸ
100
AcDbText
  0
TEXT
  5
85AD
330
18
100
AcDbEntity
  8
0
100
AcDbText
 10
129.3398380958583
 20
301.0053173645478
 30
0.0
 40
1.44
  1
DENSO
 41
1.3
  7
MSｺﾞｼｯｸ
100
AcDbText
  0
TEXT
  5
85AE
330
18
100
AcDbEntity
  8
0
100
AcDbText
 10
129.461251205997
 20
302.7020797735335
 30
0.0
 40
1.44
  1
NIKKI
 41
1.25
  7
MSｺﾞｼｯｸ
100
AcDbText
  0
TEXT
  5
85AF
330
18
100
AcDbEntity
  8
0
100
AcDbText
 10
129.2729096855978
 20
292.9457803546638
 30
0.0
 40
3.299999999999999
  1
NCR-*A**
  7
MSｺﾞｼｯｸ
100
AcDbText
  0
TEXT
  5
85B0
330
18
100
AcDbEntity
  8
0
100
AcDbText
 10
134.65668961656
 20
268.6981013451759
 30
0.0
 40
5.0
  1
＊＊＊
 41
0.45
  7
MSｺﾞｼｯｸ
100
AcDbText
  0
LINE
  5
85B1
330
18
100
AcDbEntity
  8
0
100
AcDbLine
 10
124.6716923703929
 20
298.604059807963
 30
0.0
 11
152.6716923703929
 21
298.604059807963
 31
0.0
  0
TEXT
  5
85B2
330
18
100
AcDbEntity
  8
0
100
AcDbText
 10
126.315474904391
 20
274.2411978148338
 30
0.0
 40
2.5
  1
ＳＯＵＲＣＥ
 41
0.6
  7
MSｺﾞｼｯｸ
100
AcDbText
  0
TEXT
  5
85B3
330
18
100
AcDbEntity
  8
0
100
AcDbText
 10
126.315474904391
 20
282.2411978148338
 30
0.0
 40
2.5
  1
ＣＯＮＴ.ＡＭＰＳ    *** Ａ
 41
0.6
  7
MSｺﾞｼｯｸ
100
AcDbText
  0
LINE
  5
85B4
330
18
100
AcDbEntity
  8
0
100
AcDbLine
 10
125.6716923703929
 20
285.604059807963
 30
0.0
 11
151.6716923703929
 21
285.604059807963
 31
0.0
  0
LINE
  5
85B5
330
18
100
AcDbEntity
  8
0
100
AcDbLine
 10
151.6716923703929
 20
277.604059807963
 30
0.0
 11
125.6716923703929
 21
277.604059807963
 31
0.0
  0
TEXT
  5
85B6
330
18
100
AcDbEntity
  8
0
100
AcDbText
 10
126.315474904391
 20
278.2411978148338
 30
0.0
 40
2.5
  1
ＰＥＡＫ.ＡＭＰＳ    *** Ａ
 41
0.6
  7
MSｺﾞｼｯｸ
100
AcDbText
  0
LINE
  5
85B7
330
18
100
AcDbEntity
  8
0
100
AcDbLine
 10
125.6716923703929
 20
281.604059807963
 30
0.0
 11
151.6716923703929
 21
281.604059807963
 31
0.0
  0
LINE
  5
85B8
330
18
100
AcDbEntity
  8
0
100
AcDbLine
 10
140.1716923703929
 20
286.604059807963
 30
0.0
 11
125.6716923703929
 21
286.604059807963
 31
0.0
  0
LINE
  5
85B9
330
18
100
AcDbEntity
  8
0
100
AcDbLine
 10
125.6716923703929
 20
292.104059807963
 30
0.0
 11
140.1716923703929
 21
292.104059807963
 31
0.0
  0
LINE
  5
85BA
330
18
100
AcDbEntity
  8
0
100
AcDbLine
 10
121.6716923703929
 20
300.104059807963
 30
0.0
 11
155.6716923703929
 21
300.104059807963
 31
0.0
  0
LINE
  5
85BB
102
{ACAD_REACTORS
330
85BD
102
}
330
18
100
AcDbEntity
  8
0
100
AcDbLine
 10
124.118238871471
 20
304.1615832259644
 30
0.0
 11
128.5237388714699
 21
304.1615832259644
 31
0.0
  0
LINE
  5
85BC
102
{ACAD_REACTORS
330
85BD
102
}
330
18
100
AcDbEntity
  8
0
100
AcDbLine
 10
123.7177388714694
 20
300.9575832259647
 30
0.0
 11
128.1232388714702
 21
300.9575832259647
 31
0.0
  0
HATCH
  5
85BD
330
18
100
AcDbEntity
  8
0
100
AcDbHatch
 10
0.0
 20
0.0
 30
0.0
210
0.0
220
0.0
230
1.0
  2
SOLID
 70
     1
 71
     1
 91
        2
 92
       17
 93
        1
 72
     2
 10
126.1207388714697
 20
302.3593332259638
 40
0.6007500000000002
 50
0.0
 51
360.0
 73
     1
 97
        1
330
85C4
 92
        1
 93
        8
 72
     2
 10
126.1216702668184
 20
302.3611960166622
 40
1.00311322310025
 50
113.589777272614
 51
269.9468005913759
 73
     1
 72
     2
 10
126.1207388714697
 20
302.1590832259639
 40
0.8009999999999999
 50
270.0
 51
450.0
 73
     1
 72
     1
 10
126.1207388714697
 20
302.9600832259643
 11
128.3635388714696
 21
302.9600832259643
 72
     1
 10
128.3635388714696
 20
302.9600832259643
 11
128.1232388714702
 21
300.9575832259647
 72
     1
 10
128.1232388714702
 20
300.9575832259647
 11
123.7177388714694
 21
300.9575832259647
 72
     1
 10
123.7177388714694
 20
300.9575832259647
 11
124.118238871471
 21
304.1615832259644
 72
     1
 10
124.118238871471
 20
304.1615832259644
 11
128.5237388714699
 21
304.1615832259644
 72
     1
 10
128.5237388714699
 20
304.1615832259644
 11
125.7202388714699
 21
303.2804832259639
 97
        8
330
85C3
330
85C5
330
85C7
330
85C2
330
85BC
330
85BF
330
85BB
330
85C6
 75
     0
 76
     1
 98
        1
 10
-75.35697122276587
 20
304.8388080417239
  0
ARC
  5
85BE
330
18
100
AcDbEntity
  8
0
100
AcDbCircle
 10
124.6716923703929
 20
297.604059807963
 30
0.0
 40
1.0
100
AcDbArc
 50
90.0
 51
180.0
  0
LINE
  5
85BF
102
{ACAD_REACTORS
330
85BD
102
}
330
18
100
AcDbEntity
  8
0
100
AcDbLine
 10
123.7177388714694
 20
300.9575832259647
 30
0.0
 11
124.118238871471
 21
304.1615832259644
 31
0.0
  0
ARC
  5
85C0
330
18
100
AcDbEntity
  8
0
100
AcDbCircle
 10
121.6716923703929
 20
300.604059807963
 30
0.0
 40
0.5
100
AcDbArc
 50
180.0
 51
270.0
  0
LINE
  5
85C1
330
18
100
AcDbEntity
  8
0
100
AcDbLine
 10
125.6716923703929
 20
286.604059807963
 30
0.0
 11
125.6716923703929
 21
292.104059807963
 31
0.0
  0
LINE
  5
85C2
102
{ACAD_REACTORS
330
85BD
102
}
330
18
100
AcDbEntity
  8
0
100
AcDbLine
 10
128.1232388714702
 20
300.9575832259647
 30
0.0
 11
128.3635388714696
 21
302.9600832259643
 31
0.0
  0
ARC
  5
85C3
102
{ACAD_REACTORS
330
85BD
102
}
330
18
100
AcDbEntity
  8
0
100
AcDbCircle
 10
126.1216702668184
 20
302.3611960166622
 30
0.0
 40
1.00311322310025
100
AcDbArc
 50
113.589777272614
 51
269.9468005913759
  0
CIRCLE
  5
85C4
102
{ACAD_REACTORS
330
85BD
102
}
330
18
100
AcDbEntity
  8
0
100
AcDbCircle
 10
126.1207388714697
 20
302.3593332259638
 30
0.0
 40
0.6007500000000002
  0
ARC
  5
85C5
102
{ACAD_REACTORS
330
85BD
102
}
330
18
100
AcDbEntity
  8
0
100
AcDbCircle
 10
126.1207388714697
 20
302.1590832259639
 30
0.0
 40
0.8009999999999999
100
AcDbArc
 50
270.0
 51
90.0
  0
LINE
  5
85C6
102
{ACAD_REACTORS
330
85BD
102
}
330
18
100
AcDbEntity
  8
0
100
AcDbLine
 10
128.5237388714699
 20
304.1615832259644
 30
0.0
 11
125.7202388714699
 21
303.2804832259639
 31
0.0
  0
LINE
  5
85C7
102
{ACAD_REACTORS
330
85BD
102
}
330
18
100
AcDbEntity
  8
0
100
AcDbLine
 10
126.1207388714697
 20
302.9600832259643
 30
0.0
 11
128.3635388714696
 21
302.9600832259643
 31
0.0
  0
LINE
  5
85C8
330
18
100
AcDbEntity
  8
0
100
AcDbLine
 10
142.1716923703929
 20
292.104059807963
 30
0.0
 11
151.6716923703929
 21
292.104059807963
 31
0.0
  0
LINE
  5
85C9
330
18
100
AcDbEntity
  8
0
100
AcDbLine
 10
151.6716923703929
 20
286.604059807963
 30
0.0
 11
142.1716923703929
 21
286.604059807963
 31
0.0
  0
LINE
  5
85CA
330
18
100
AcDbEntity
  8
0
100
AcDbLine
 10
140.1716923703929
 20
292.104059807963
 30
0.0
 11
140.1716923703929
 21
286.604059807963
 31
0.0
  0
LINE
  5
85CB
330
18
100
AcDbEntity
  8
0
100
AcDbLine
 10
142.1716923703929
 20
286.604059807963
 30
0.0
 11
142.1716923703929
 21
292.104059807963
 31
0.0
  0
LINE
  5
85CC
330
18
100
AcDbEntity
  8
0
100
AcDbLine
 10
140.4216923703929
 20
289.354059807963
 30
0.0
 11
141.9216923703929
 21
289.354059807963
 31
0.0
  0
LINE
  5
85CD
330
18
100
AcDbEntity
  8
0
100
AcDbLine
 10
151.6716923703929
 20
292.104059807963
 30
0.0
 11
151.6716923703929
 21
286.604059807963
 31
0.0
  0
ARC
  5
85CE
330
18
100
AcDbEntity
  8
0
100
AcDbCircle
 10
152.6716923703929
 20
297.604059807963
 30
0.0
 40
1.0
100
AcDbArc
 50
0.0
 51
90.0
  0
TEXT
  5
85CF
330
18
100
AcDbEntity
  8
0
100
AcDbText
 10
122.2946157184392
 20
308.3773272855906
 30
0.0
 40
2.0
  1
MODEL:NCR-*A**
 41
1.199999999999999
  7
MSｺﾞｼｯｸ
 11
122.2946157184392
 21
308.0118450520881
 31
0.0
100
AcDbText
 73
     1
  0
LINE
  5
85D0
330
18
100
AcDbEntity
  8
0
100
AcDbLine
 10
155.6716923703929
 20
312.104059807963
 30
0.0
 11
121.6716923703929
 21
312.104059807963
 31
0.0
  0
ARC
  5
85D1
330
18
100
AcDbEntity
  8
0
100
AcDbCircle
 10
121.6716923703929
 20
311.604059807963
 30
0.0
 40
0.5
100
AcDbArc
 50
90.0
 51
180.0
  0
LINE
  5
85D2
330
18
100
AcDbEntity
  8
0
100
AcDbLine
 10
156.1716923703929
 20
300.604059807963
 30
0.0
 11
156.1716923703929
 21
311.604059807963
 31
0.0
  0
TEXT
  5
85D3
330
18
100
AcDbEntity
  8
0
100
AcDbText
 10
140.7933527649434
 20
300.7388690340146
 30
137.5
 40
1.5
  1
MADE IN JAPAN
  7
MSｺﾞｼｯｸ
 11
140.7933527649434
 21
300.4647573588877
 31
137.5
100
AcDbText
 73
     1
  0
TEXT
  5
85D4
330
18
100
AcDbEntity
  8
0
100
AcDbText
 10
140.7933527649434
 20
302.6086550843999
 30
137.5
 40
1.5
  1
SN-16140
  7
MSｺﾞｼｯｸ
 11
140.7933527649434
 21
302.334543409273
 31
137.5
100
AcDbText
 73
     1
  0
LWPOLYLINE
  5
869A
330
18
100
AcDbEntity
  8
0
100
AcDbPolyline
 90
        8
 70
     1
 43
0.0
 10
-105.6998516122589
 20
471.9865984747436
 10
-90.79672071842606
 20
471.9865984747436
 42
-0.4142135623730951
 10
-89.59672071842533
 20
470.7865984747436
 10
-89.59672071842533
 20
464.4038538261901
 42
-0.4142135623730906
 10
-90.79672071842606
 20
463.2038538261901
 10
-105.6998516122589
 20
463.2038538261901
 42
-0.4142135623730951
 10
-106.8998516122587
 20
464.40385382619
 10
-106.8998516122596
 20
470.7865984747436
 42
-0.4142135623730984
  0
MTEXT
  5
869B
330
18
100
AcDbEntity
  8
0
100
AcDbMText
 10
-106.0758937822961
 20
469.3703471407007
 30
0.0
 40
3.5
 41
16.4792
 71
     1
 72
     5
  1
CC-Link
  7
MSｺﾞｼｯｸ
 73
     1
 44
1.0
  0
MTEXT
  5
869C
330
18
100
AcDbEntity
  8
0
100
AcDbMText
 10
-99.59209686472513
 20
386.8160813474714
 30
0.0
 40
2.5
 41
0.0
 71
     5
 72
     5
  1
{\fＭＳ ゴシック|b0|i0|c128|p49;ST No.}
  7
MSｺﾞｼｯｸ
 73
     1
 44
1.0
  0
MTEXT
  5
869D
330
18
100
AcDbEntity
  8
0
100
AcDbMText
 10
-100.1986011766502
 20
354.6271094366216
 30
0.0
 40
2.5
 41
0.0
 71
     5
 72
     5
  1
{\fＭＳ ゴシック|b0|i0|c128|p49;TB3}
  7
MSｺﾞｼｯｸ
 73
     1
 44
1.0
  0
MTEXT
  5
869E
330
18
100
AcDbEntity
  8
0
100
AcDbMText
 10
-99.84561936553655
 20
382.8462003328028
 30
0.0
 40
2.5
 41
0.0
 71
     5
 72
     5
  1
{\fＭＳ ゴシック|b0|i0|c128|p49;x 10}
  7
MSｺﾞｼｯｸ
 73
     1
 44
1.0
  0
MTEXT
  5
869F
330
18
100
AcDbEntity
  8
0
100
AcDbMText
 10
-100.1843917835731
 20
362.9234985522685
 30
0.0
 40
2.5
 41
0.0
 71
     5
 72
     5
  1
{\fＭＳ ゴシック|b0|i0|c128|p49;RATE}
  7
MSｺﾞｼｯｸ
 73
     1
 44
1.0
  0
MTEXT
  5
86A0
330
18
100
AcDbEntity
  8
0
100
AcDbMText
 10
-100.3650882442352
 20
373.0050362443094
 30
0.0
 40
2.5
 41
0.0
 71
     5
 72
     5
  1
{\fＭＳ ゴシック|b0|i0|c128|p49;x 1}
  7
MSｺﾞｼｯｸ
 73
     1
 44
1.0
  0
MTEXT
  5
86A1
330
18
100
AcDbEntity
  8
0
100
AcDbMText
 10
-98.67988981241024
 20
252.0779441417939
 30
0.0
 40
2.5
 41
0.0
 71
     5
 72
     5
  1
{\fＭＳ ゴシック|b0|i0|c128|p49;RD/SD}
  7
MSｺﾞｼｯｸ
 73
     1
 44
1.0
  0
MTEXT
  5
86A2
330
18
100
AcDbEntity
  8
0
100
AcDbMText
 10
-98.83749096641123
 20
256.1893209929978
 30
0.0
 40
2.5
 41
0.0
 71
     5
 72
     5
  1
{\fＭＳ ゴシック|b0|i0|c128|p49;L ERR/L RUN}
  7
MSｺﾞｼｯｸ
 73
     1
 44
1.0
  0
MTEXT
  5
9058
330
18
100
AcDbEntity
  8
0
100
AcDbMText
 10
-171.012093353229
 20
287.9128883476794
 30
0.0
 40
2.5
 41
0.0
 71
     1
 72
     5
  1
０Ｖ
  7
MSｺﾞｼｯｸ
 73
     1
 44
1.0
  0
MTEXT
  5
9059
330
18
100
AcDbEntity
  8
0
100
AcDbMText
 10
-173.9601825546207
 20
293.9868902429018
 30
0.0
 40
2.5
 41
0.0
 71
     1
 72
     5
  1
２４Ｖ
  7
MSｺﾞｼｯｸ
 73
     1
 44
1.0
  0
MTEXT
  5
905A
330
18
100
AcDbEntity
  8
0
100
AcDbMText
 10
-163.3537023921074
 20
305.1557604401371
 30
0.0
 40
3.0
 41
0.0
 71
     1
 72
     5
  1
ＴＢ１
  7
MSｺﾞｼｯｸ
 73
     1
 44
1.0
  0
MTEXT
  5
905B
330
18
100
AcDbEntity
  8
0
100
AcDbMText
 10
-130.1079645848764
 20
399.3712031472873
 30
0.0
 40
2.0
 41
0.0
 71
     1
 72
     5
  1
ＳＴＡＴＵＳ
  7
MSｺﾞｼｯｸ
 73
     1
 44
1.0
  0
MTEXT
  5
905C
330
18
100
AcDbEntity
  8
0
100
AcDbMText
 10
-137.5397897071485
 20
369.6586770129361
 30
0.0
 40
2.0
 41
0.0
 71
     1
 72
     5
  1
Ｊ１
  7
MSｺﾞｼｯｸ
 73
     1
 44
1.0
  0
MTEXT
  5
905D
330
18
100
AcDbEntity
  8
0
100
AcDbMText
 10
-137.3794751168816
 20
352.6806394299601
 30
0.0
 40
2.0
 41
0.0
 71
     1
 72
     5
  1
Ｊ２
  7
MSｺﾞｼｯｸ
 73
     1
 44
1.0
  0
MTEXT
  5
905E
330
18
100
AcDbEntity
  8
0
100
AcDbMText
 10
-138.4400430379572
 20
319.2867805786349
 30
0.0
 40
2.0
 41
0.0
 71
     1
 72
     5
  1
ＣＮ２
  7
MSｺﾞｼｯｸ
 73
     1
 44
1.0
  0
MTEXT
  5
905F
330
18
100
AcDbEntity
  8
0
100
AcDbMText
 10
-137.9606823857255
 20
279.1907129519164
 30
0.0
 40
2.0
 41
0.0
 71
     1
 72
     5
  1
ＣＮ１
  7
MSｺﾞｼｯｸ
 73
     1
 44
1.0
  0
INSERT
  5
92DD
330
18
100
AcDbEntity
  8
0
100
AcDbBlockReference
  2
VORDANS1
 10
-164.3707076761152
 20
281.0082125074956
 30
0.0
  0
CIRCLE
  5
92E2
330
18
100
AcDbEntity
  8
0
100
AcDbCircle
 10
-167.0707076761154
 20
302.4182125074955
 30
0.0
 40
3.0
  0
LINE
  5
92E3
330
18
100
AcDbEntity
  8
0
100
AcDbLine
 10
-167.5707076761154
 20
300.4817208343917
 30
0.0
 11
-167.5707076761154
 21
301.9182125074955
 31
0.0
  0
LINE
  5
92E4
330
18
100
AcDbEntity
  8
0
100
AcDbLine
 10
-166.5707076761155
 20
300.4817208343917
 30
0.0
 11
-166.5707076761155
 21
301.9182125074955
 31
0.0
  0
CIRCLE
  5
92E5
330
18
100
AcDbEntity
  8
0
100
AcDbCircle
 10
-167.0707076761154
 20
302.4182125074955
 30
0.0
 40
3.0
  0
CIRCLE
  5
92E6
330
18
100
AcDbEntity
  8
0
100
AcDbCircle
 10
-167.0707076761154
 20
302.4182125074955
 30
0.0
 40
2.5
  0
ARC
  5
92E7
330
18
100
AcDbEntity
  8
0
100
AcDbCircle
 10
-167.0707076761154
 20
302.4182125074955
 30
0.0
 40
2.0
100
AcDbArc
 50
255.5224878140713
 51
284.4775121859278
  0
LINE
  5
92E8
330
18
100
AcDbEntity
  8
0
100
AcDbLine
 10
-169.0071993492188
 20
302.9182125074955
 30
0.0
 11
-167.5707076761154
 21
302.9182125074955
 31
0.0
  0
LINE
  5
92E9
330
18
100
AcDbEntity
  8
0
100
AcDbLine
 10
-169.0071993492188
 20
301.9182125074955
 30
0.0
 11
-167.5707076761154
 21
301.9182125074955
 31
0.0
  0
ARC
  5
92EA
330
18
100
AcDbEntity
  8
0
100
AcDbCircle
 10
-167.0707076761154
 20
302.4182125074955
 30
0.0
 40
2.0
100
AcDbArc
 50
165.5224878140701
 51
194.4775121859298
  0
LINE
  5
92EB
330
18
100
AcDbEntity
  8
0
100
AcDbLine
 10
-166.5707076761155
 20
302.9182125074955
 30
0.0
 11
-165.1342160030117
 21
302.9182125074955
 31
0.0
  0
LINE
  5
92EC
330
18
100
AcDbEntity
  8
0
100
AcDbLine
 10
-166.5707076761155
 20
302.9182125074955
 30
0.0
 11
-166.5707076761155
 21
304.3547041805993
 31
0.0
  0
LINE
  5
92ED
330
18
100
AcDbEntity
  8
0
100
AcDbLine
 10
-167.5707076761154
 20
302.9182125074955
 30
0.0
 11
-167.5707076761154
 21
304.3547041805993
 31
0.0
  0
ARC
  5
92EE
330
18
100
AcDbEntity
  8
0
100
AcDbCircle
 10
-167.0707076761154
 20
302.4182125074955
 30
0.0
 40
2.0
100
AcDbArc
 50
75.52248781407134
 51
104.4775121859278
  0
LINE
  5
92EF
330
18
100
AcDbEntity
  8
0
100
AcDbLine
 10
-166.5707076761155
 20
301.9182125074955
 30
0.0
 11
-165.1342160030117
 21
301.9182125074955
 31
0.0
  0
ARC
  5
92F0
330
18
100
AcDbEntity
  8
0
100
AcDbCircle
 10
-167.0707076761154
 20
302.4182125074955
 30
0.0
 40
2.0
100
AcDbArc
 50
345.5224878140701
 51
14.47751218592986
  0
LINE
  5
92F1
330
18
100
AcDbEntity
  8
0
100
AcDbLine
 10
-160.9707076761154
 20
300.5132125074957
 30
0.0
 11
-160.9707076761154
 21
294.2182125074956
 31
0.0
  0
LINE
  5
92F2
330
18
100
AcDbEntity
  8
0
100
AcDbLine
 10
-160.9707076761154
 20
285.8082125074957
 30
0.0
 11
-160.9707076761154
 21
279.5132125074951
 31
0.0
  0
LINE
  5
93BD
330
18
100
AcDbEntity
  8
0
100
AcDbLine
 10
30.4563199411281
 20
290.2882122754448
 30
0.0
 11
30.75631994112813
 21
290.2882122754448
 31
0.0
  0
LINE
  5
93BE
330
18
100
AcDbEntity
  8
0
100
AcDbLine
 10
30.7563199411281
 20
290.4432122754448
 30
0.0
 11
30.75631994112809
 21
290.9695289773943
 31
0.0
  0
LINE
  5
93BF
330
18
100
AcDbEntity
  8
0
100
AcDbLine
 10
30.75631994112809
 20
290.9695289773943
 30
0.0
 11
30.75631994112809
 21
292.8668955734953
 31
0.0
  0
LINE
  5
93C0
330
18
100
AcDbEntity
  8
0
100
AcDbLine
 10
30.75631994112809
 20
289.7382122754448
 30
0.0
 11
30.4563199411281
 21
289.7382122754448
 31
0.0
  0
LINE
  5
93C1
330
18
100
AcDbEntity
  8
0
100
AcDbLine
 10
30.75631994112809
 20
289.8122503811215
 30
0.0
 11
30.75631994112809
 21
289.7382122754448
 31
0.0
  0
LINE
  5
93C2
330
18
100
AcDbEntity
  8
0
100
AcDbLine
 10
30.75631994112809
 20
290.2141741697682
 30
0.0
 11
30.75631980715348
 21
290.0132125074956
 31
0.0
  0
LINE
  5
93C3
330
18
100
AcDbEntity
  8
0
100
AcDbLine
 10
30.7563199411281
 20
289.5832122754448
 30
0.0
 11
30.75631994112809
 21
289.0568955734953
 31
0.0
  0
LINE
  5
93C4
330
18
100
AcDbEntity
  8
0
100
AcDbLine
 10
30.75631994112809
 20
289.0568955734953
 30
0.0
 11
30.75631994112809
 21
287.1595289773943
 31
0.0
  0
LINE
  5
93C5
330
18
100
AcDbEntity
  8
0
100
AcDbLine
 10
30.75631994112813
 20
290.2882122754448
 30
0.0
 11
30.75631994112809
 21
290.2141741697682
 31
0.0
  0
LINE
  5
93C6
330
18
100
AcDbEntity
  8
0
100
AcDbLine
 10
30.75631980715348
 20
290.0132125074956
 30
0.0
 11
30.75631994112809
 21
289.8122503811215
 31
0.0
  0
LINE
  5
93C7
330
18
100
AcDbEntity
  8
0
100
AcDbLine
 10
30.75631994112809
 20
289.7382122754448
 30
0.0
 11
30.7563199411281
 21
289.5832122754448
 31
0.0
  0
LINE
  5
93C8
330
18
100
AcDbEntity
  8
0
100
AcDbLine
 10
30.75631994112809
 20
287.1595289773943
 30
0.0
 11
30.7563199411281
 21
286.6332122754448
 31
0.0
  0
LINE
  5
93C9
330
18
100
AcDbEntity
  8
0
100
AcDbLine
 10
30.7563199411281
 20
286.6332122754448
 30
0.0
 11
30.75631994112809
 21
285.8082122754448
 31
0.0
  0
LINE
  5
93CA
330
18
100
AcDbEntity
  8
0
100
AcDbLine
 10
30.75631980715348
 20
290.0132125074956
 30
0.0
 11
30.75631980715348
 21
290.0132125074956
 31
0.0
  0
LINE
  5
93CB
330
18
100
AcDbEntity
  8
0
100
AcDbLine
 10
22.4563199411281
 20
294.2182122754448
 30
0.0
 11
22.45631994112809
 21
285.8082122754448
 31
0.0
  0
LINE
  5
93CC
330
18
100
AcDbEntity
  8
0
100
AcDbLine
 10
23.25631994112808
 20
294.2182122754448
 30
0.0
 11
23.25631994112808
 21
285.8082122754448
 31
0.0
  0
LINE
  5
93CD
330
18
100
AcDbEntity
  8
0
100
AcDbLine
 10
21.25631994112814
 20
285.8082122754448
 30
0.0
 11
21.25631994112814
 21
294.2182122754448
 31
0.0
  0
LINE
  5
93CE
330
18
100
AcDbEntity
  8
0
100
AcDbLine
 10
29.3563199411281
 20
285.8082122754448
 30
0.0
 11
23.85631994112808
 21
285.8082122754448
 31
0.0
  0
LINE
  5
93CF
330
18
100
AcDbEntity
  8
0
100
AcDbLine
 10
28.76631994112949
 20
286.7599170555482
 30
0.0
 11
28.76631994112808
 21
286.6082122754448
 31
0.0
  0
LINE
  5
93D0
330
18
100
AcDbEntity
  8
0
100
AcDbLine
 10
28.76631994112808
 20
286.6082122754448
 30
0.0
 11
28.26631994112808
 21
286.6082122754448
 31
0.0
  0
LINE
  5
93D1
330
18
100
AcDbEntity
  8
0
100
AcDbLine
 10
23.25631994112808
 20
285.8082122754448
 30
0.0
 11
23.47452687236649
 21
285.8082122754448
 31
0.0
  0
LINE
  5
93D2
330
18
100
AcDbEntity
  8
0
100
AcDbLine
 10
22.45631994112809
 20
285.8082122754448
 30
0.0
 11
23.25631994112808
 21
285.8082122754448
 31
0.0
  0
LINE
  5
93D3
330
18
100
AcDbEntity
  8
0
100
AcDbLine
 10
23.55631994112809
 20
285.8082122754448
 30
0.0
 11
23.85631994112808
 21
285.8082122754448
 31
0.0
  0
LINE
  5
93D4
330
18
100
AcDbEntity
  8
0
100
AcDbLine
 10
23.55631994112809
 20
285.8082122754448
 30
0.0
 11
23.47452687236649
 21
285.8082122754448
 31
0.0
  0
LINE
  5
93D5
330
18
100
AcDbEntity
  8
0
100
AcDbLine
 10
29.8563199411281
 20
285.8082122754448
 30
0.0
 11
29.8563199411281
 21
286.6082122754448
 31
0.0
  0
LINE
  5
93D6
330
18
100
AcDbEntity
  8
0
100
AcDbLine
 10
29.3563199411281
 20
286.6082122754448
 30
0.0
 11
29.8563199411281
 21
286.6082122754448
 31
0.0
  0
LINE
  5
93D7
330
18
100
AcDbEntity
  8
0
100
AcDbLine
 10
28.76631994112808
 20
286.6082122754448
 30
0.0
 11
29.3563199411281
 21
286.6082122754448
 31
0.0
  0
LINE
  5
93D8
330
18
100
AcDbEntity
  8
0
100
AcDbLine
 10
29.8563199411281
 20
285.8082122754448
 30
0.0
 11
29.3563199411281
 21
285.8082122754448
 31
0.0
  0
LINE
  5
93D9
330
18
100
AcDbEntity
  8
0
100
AcDbLine
 10
21.85631994112825
 20
285.8082122754448
 30
0.0
 11
22.45631994112809
 21
285.8082122754448
 31
0.0
  0
LINE
  5
93DA
330
18
100
AcDbEntity
  8
0
100
AcDbLine
 10
21.75631994112819
 20
285.8082122754448
 30
0.0
 11
21.85631994112825
 21
285.8082122754448
 31
0.0
  0
LINE
  5
93DB
330
18
100
AcDbEntity
  8
0
100
AcDbLine
 10
21.55631994112813
 20
285.8082122754448
 30
0.0
 11
21.25631994112814
 21
285.8082122754448
 31
0.0
  0
LINE
  5
93DC
330
18
100
AcDbEntity
  8
0
100
AcDbLine
 10
21.55631994112813
 20
285.8082122754448
 30
0.0
 11
21.75631994112819
 21
285.8082122754448
 31
0.0
  0
LINE
  5
93DD
330
18
100
AcDbEntity
  8
0
100
AcDbLine
 10
21.55631994112813
 20
294.2182122754448
 30
0.0
 11
21.25631994112814
 21
294.2182122754448
 31
0.0
  0
LINE
  5
93DE
330
18
100
AcDbEntity
  8
0
100
AcDbLine
 10
21.85631994112825
 20
294.2182122754448
 30
0.0
 11
21.75631994112819
 21
294.2182122754448
 31
0.0
  0
LINE
  5
93DF
330
18
100
AcDbEntity
  8
0
100
AcDbLine
 10
30.75631980715348
 20
290.0132125074956
 30
0.0
 11
30.00631894112811
 21
289.8122503811215
 31
0.0
  0
LINE
  5
93E0
330
18
100
AcDbEntity
  8
0
100
AcDbLine
 10
30.75631980715348
 20
290.0132125074956
 30
0.0
 11
30.0063189411281
 21
290.2141741697682
 31
0.0
  0
LINE
  5
93E1
330
18
100
AcDbEntity
  8
0
100
AcDbLine
 10
30.0063189411281
 20
290.2141741697682
 30
0.0
 11
30.00631894112811
 21
289.8122503811215
 31
0.0
  0
LINE
  5
93E2
330
18
100
AcDbEntity
  8
0
100
AcDbLine
 10
29.3563199411281
 20
293.4182122754448
 30
0.0
 11
29.8563199411281
 21
293.4182122754448
 31
0.0
  0
LINE
  5
93E3
330
18
100
AcDbEntity
  8
0
100
AcDbLine
 10
28.76631994112808
 20
293.4182122754448
 30
0.0
 11
29.3563199411281
 21
293.4182122754448
 31
0.0
  0
LINE
  5
93E4
330
18
100
AcDbEntity
  8
0
100
AcDbLine
 10
26.3590586494858
 20
286.9573975932092
 30
0.0
 11
28.30713462336363
 21
288.9054735670871
 31
0.0
  0
LINE
  5
93E5
330
18
100
AcDbEntity
  8
0
100
AcDbLine
 10
28.76631994112808
 20
293.2665074953429
 30
0.0
 11
28.76631994112808
 21
293.4182122754448
 31
0.0
  0
LINE
  5
93E6
330
18
100
AcDbEntity
  8
0
100
AcDbLine
 10
28.26631994112808
 20
293.4182122754448
 30
0.0
 11
28.76631994112808
 21
293.4182122754448
 31
0.0
  0
LINE
  5
93E7
330
18
100
AcDbEntity
  8
0
100
AcDbLine
 10
28.76631994112808
 20
289.4565074953429
 30
0.0
 11
28.76631994113575
 21
290.569917055555
 31
0.0
  0
LINE
  5
93E8
330
18
100
AcDbEntity
  8
0
100
AcDbLine
 10
27.95358123277036
 20
289.2590269576804
 30
0.0
 11
26.00550525889252
 21
287.3109509838025
 31
0.0
  0
LINE
  5
93E9
330
18
100
AcDbEntity
  8
0
100
AcDbLine
 10
22.4563199411281
 20
294.2182122754448
 30
0.0
 11
21.85631994112825
 21
294.2182122754448
 31
0.0
  0
LINE
  5
93EA
330
18
100
AcDbEntity
  8
0
100
AcDbLine
 10
29.8563199411281
 20
293.4182122754448
 30
0.0
 11
29.8563199411281
 21
294.2182122754448
 31
0.0
  0
LINE
  5
93EB
330
18
100
AcDbEntity
  8
0
100
AcDbLine
 10
29.8563199411281
 20
294.2182122754448
 30
0.0
 11
29.3563199411281
 21
294.2182122754448
 31
0.0
  0
LINE
  5
93EC
330
18
100
AcDbEntity
  8
0
100
AcDbLine
 10
23.55631994112809
 20
294.2182122754448
 30
0.0
 11
23.85631994112808
 21
294.2182122754448
 31
0.0
  0
LINE
  5
93ED
330
18
100
AcDbEntity
  8
0
100
AcDbLine
 10
23.47452687236649
 20
294.2182122754448
 30
0.0
 11
23.55631994112809
 21
294.2182122754448
 31
0.0
  0
LINE
  5
93EE
330
18
100
AcDbEntity
  8
0
100
AcDbLine
 10
23.25631994112808
 20
294.2182122754448
 30
0.0
 11
22.4563199411281
 21
294.2182122754448
 31
0.0
  0
LINE
  5
93EF
330
18
100
AcDbEntity
  8
0
100
AcDbLine
 10
23.47452687236649
 20
291.1459224419682
 30
0.0
 11
23.25631994112808
 21
291.1459224419682
 31
0.0
  0
LINE
  5
93F0
330
18
100
AcDbEntity
  8
0
100
AcDbLine
 10
21.55631994112813
 20
294.2182122754448
 30
0.0
 11
21.75631994112819
 21
294.2182122754448
 31
0.0
  0
LINE
  5
93F1
330
18
100
AcDbEntity
  8
0
100
AcDbLine
 10
23.85631994112808
 20
294.2182122754448
 30
0.0
 11
23.85631994112808
 21
294.4682122754448
 31
0.0
  0
LINE
  5
93F2
330
18
100
AcDbEntity
  8
0
100
AcDbLine
 10
30.75631994112809
 20
299.0182122754448
 30
0.0
 11
30.75631994112809
 21
298.7323551182991
 31
0.0
  0
LINE
  5
93F3
330
18
100
AcDbEntity
  8
0
100
AcDbLine
 10
29.3563199411281
 20
294.2182122754448
 30
0.0
 11
23.85631994112808
 21
294.2182122754448
 31
0.0
  0
LINE
  5
93F4
330
18
100
AcDbEntity
  8
0
100
AcDbLine
 10
23.85631994112808
 20
294.4682122754448
 30
0.0
 11
23.85631994112808
 21
298.0182122754448
 31
0.0
  0
LINE
  5
93F5
330
18
100
AcDbEntity
  8
0
100
AcDbLine
 10
26.35905864948579
 20
290.7673975932092
 30
0.0
 11
28.30713462336362
 21
292.7154735670871
 31
0.0
  0
LINE
  5
93F6
330
18
100
AcDbEntity
  8
0
100
AcDbLine
 10
27.95358123277035
 20
293.0690269576804
 30
0.0
 11
26.00550525889252
 21
291.1209509838025
 31
0.0
  0
LINE
  5
93F7
330
18
100
AcDbEntity
  8
0
100
AcDbLine
 10
27.35631994112807
 20
299.0182122754448
 30
0.0
 11
30.75631994112809
 21
299.0182122754448
 31
0.0
  0
LINE
  5
93F8
330
18
100
AcDbEntity
  8
0
100
AcDbLine
 10
27.01460197012034
 20
299.0182122754448
 30
0.0
 11
27.14552412855008
 21
299.0182122754448
 31
0.0
  0
LINE
  5
93F9
330
18
100
AcDbEntity
  8
0
100
AcDbLine
 10
24.35631994112807
 20
299.0182122754448
 30
0.0
 11
24.56711575370607
 21
299.0182122754448
 31
0.0
  0
LINE
  5
93FA
330
18
100
AcDbEntity
  8
0
100
AcDbLine
 10
23.85631994112808
 20
299.0182122754448
 30
0.0
 11
24.35631994112807
 21
299.0182122754448
 31
0.0
  0
LINE
  5
93FB
330
18
100
AcDbEntity
  8
0
100
AcDbLine
 10
25.68311409792988
 20
299.0182122754448
 30
0.0
 11
25.71208636324547
 21
299.0182122754448
 31
0.0
  0
LINE
  5
93FC
330
18
100
AcDbEntity
  8
0
100
AcDbLine
 10
25.63041514478547
 20
299.0182122754448
 30
0.0
 11
25.64306679459949
 21
299.0182122754448
 31
0.0
  0
LINE
  5
93FD
330
18
100
AcDbEntity
  8
0
100
AcDbLine
 10
25.45475196763722
 20
299.0182122754448
 30
0.0
 11
25.63041514478547
 21
299.0182122754448
 31
0.0
  0
LINE
  5
93FE
330
18
100
AcDbEntity
  8
0
100
AcDbLine
 10
24.56711575370607
 20
299.0182122754448
 30
0.0
 11
24.67923157074027
 21
299.0182122754448
 31
0.0
  0
LINE
  5
93FF
330
18
100
AcDbEntity
  8
0
100
AcDbLine
 10
24.67923157074027
 20
299.0182122754448
 30
0.0
 11
25.45475196763722
 21
299.0182122754448
 31
0.0
  0
LINE
  5
9400
330
18
100
AcDbEntity
  8
0
100
AcDbLine
 10
25.64306679459949
 20
299.0182122754448
 30
0.0
 11
25.68311409792988
 21
299.0182122754448
 31
0.0
  0
LINE
  5
9401
330
18
100
AcDbEntity
  8
0
100
AcDbLine
 10
25.71208636324547
 20
299.0182122754448
 30
0.0
 11
25.80116365403293
 21
299.0182122754448
 31
0.0
  0
LINE
  5
9402
330
18
100
AcDbEntity
  8
0
100
AcDbLine
 10
26.11086609319988
 20
299.0182122754448
 30
0.0
 11
26.13983835851547
 21
299.0182122754448
 31
0.0
  0
LINE
  5
9403
330
18
100
AcDbEntity
  8
0
100
AcDbLine
 10
25.80116365403293
 20
299.0182122754448
 30
0.0
 11
26.02178880241249
 21
299.0182122754448
 31
0.0
  0
LINE
  5
9404
330
18
100
AcDbEntity
  8
0
100
AcDbLine
 10
26.02178880241249
 20
299.0182122754448
 30
0.0
 11
26.11086609319988
 21
299.0182122754448
 31
0.0
  0
LINE
  5
9405
330
18
100
AcDbEntity
  8
0
100
AcDbLine
 10
26.13983835851547
 20
299.0182122754448
 30
0.0
 11
26.17988566184578
 21
299.0182122754448
 31
0.0
  0
LINE
  5
9406
330
18
100
AcDbEntity
  8
0
100
AcDbLine
 10
26.36820048880819
 20
299.0182122754448
 30
0.0
 11
26.85650511068689
 21
299.0182122754448
 31
0.0
  0
LINE
  5
9407
330
18
100
AcDbEntity
  8
0
100
AcDbLine
 10
26.17988566184578
 20
299.0182122754448
 30
0.0
 11
26.36820048880819
 21
299.0182122754448
 31
0.0
  0
LINE
  5
9408
330
18
100
AcDbEntity
  8
0
100
AcDbLine
 10
26.85650511068689
 20
299.0182122754448
 30
0.0
 11
27.01460197012034
 21
299.0182122754448
 31
0.0
  0
LINE
  5
9409
330
18
100
AcDbEntity
  8
0
100
AcDbLine
 10
27.14552412855008
 20
299.0182122754448
 30
0.0
 11
27.35631994112807
 21
299.0182122754448
 31
0.0
  0
LINE
  5
940A
330
18
100
AcDbEntity
  8
0
100
AcDbLine
 10
23.85631994112808
 20
298.3682122754448
 30
0.0
 11
23.85631994112808
 21
298.0182122754448
 31
0.0
  0
LINE
  5
940B
330
18
100
AcDbEntity
  8
0
100
AcDbLine
 10
23.85631994112808
 20
299.0182122754448
 30
0.0
 11
23.85631994112808
 21
298.3682122754448
 31
0.0
  0
LINE
  5
940C
330
18
100
AcDbEntity
  8
0
100
AcDbLine
 10
30.75631994112809
 20
298.0182122754448
 30
0.0
 11
30.75631994112809
 21
298.7323551182991
 31
0.0
  0
LINE
  5
940D
330
18
100
AcDbEntity
  8
0
100
AcDbLine
 10
30.75631994112809
 20
294.2182122754448
 30
0.0
 11
30.75631994112809
 21
295.1682122754448
 31
0.0
  0
LINE
  5
940E
330
18
100
AcDbEntity
  8
0
100
AcDbLine
 10
30.75631994112809
 20
292.8668955734953
 30
0.0
 11
30.7563199411281
 21
293.3932122754448
 31
0.0
  0
LINE
  5
940F
330
18
100
AcDbEntity
  8
0
100
AcDbLine
 10
30.7563199411281
 20
293.3932122754448
 30
0.0
 11
30.75631994112809
 21
294.2182122754448
 31
0.0
  0
LINE
  5
9410
330
18
100
AcDbEntity
  8
0
100
AcDbLine
 10
30.75631994112809
 20
295.1682122754448
 30
0.0
 11
30.75631994112809
 21
297.6682122754449
 31
0.0
  0
LINE
  5
9411
330
18
100
AcDbEntity
  8
0
100
AcDbLine
 10
30.75631994112809
 20
297.6682122754449
 30
0.0
 11
30.75631994112809
 21
298.0182122754448
 31
0.0
  0
LINE
  5
9412
330
18
100
AcDbEntity
  8
0
100
AcDbLine
 10
30.75631994112813
 20
290.2882122754448
 30
0.0
 11
30.7563199411281
 21
290.4432122754448
 31
0.0
  0
LINE
  5
9413
330
18
100
AcDbEntity
  8
0
100
AcDbLine
 10
23.85631994112808
 20
281.6582122754448
 30
0.0
 11
23.85631994112808
 21
281.0082122754448
 31
0.0
  0
LINE
  5
9414
330
18
100
AcDbEntity
  8
0
100
AcDbLine
 10
30.75631994112809
 20
281.0082122754448
 30
0.0
 11
23.85631994112808
 21
281.0082122754448
 31
0.0
  0
LINE
  5
9415
330
18
100
AcDbEntity
  8
0
100
AcDbLine
 10
30.75631994112809
 20
281.2940694325905
 30
0.0
 11
30.75631994112809
 21
281.0082122754448
 31
0.0
  0
LINE
  5
9416
330
18
100
AcDbEntity
  8
0
100
AcDbLine
 10
30.75631994112809
 20
282.0082122754448
 30
0.0
 11
30.75631994112809
 21
281.2940694325905
 31
0.0
  0
LINE
  5
9417
330
18
100
AcDbEntity
  8
0
100
AcDbLine
 10
23.85631994112808
 20
285.5582122754448
 30
0.0
 11
23.85631994112808
 21
282.0082122754448
 31
0.0
  0
LINE
  5
9435
330
18
100
AcDbEntity
  8
0
100
AcDbLine
 10
30.75631994112809
 20
282.3582122754448
 30
0.0
 11
30.75631994112809
 21
282.0082122754448
 31
0.0
  0
LINE
  5
9436
330
18
100
AcDbEntity
  8
0
100
AcDbLine
 10
30.75631994112809
 20
284.8582122754448
 30
0.0
 11
30.75631994112809
 21
282.3582122754448
 31
0.0
  0
LINE
  5
9437
330
18
100
AcDbEntity
  8
0
100
AcDbLine
 10
30.75631994112809
 20
285.8082122754448
 30
0.0
 11
30.75631994112809
 21
284.8582122754448
 31
0.0
  0
LINE
  5
9453
330
18
100
AcDbEntity
  8
0
100
AcDbLine
 10
23.85631994112808
 20
285.8082122754448
 30
0.0
 11
23.85631994112808
 21
285.5582122754448
 31
0.0
  0
LINE
  5
9454
330
18
100
AcDbEntity
  8
0
100
AcDbLine
 10
23.85631994112808
 20
282.0082122754448
 30
0.0
 11
23.85631994112808
 21
281.6582122754448
 31
0.0
  0
ARC
  5
9455
330
18
100
AcDbEntity
  8
0
100
AcDbCircle
 10
27.15631994112808
 20
288.1082122754449
 30
0.0
 40
1.45000000000002
100
AcDbArc
 50
180.0
 51
0.0
  0
ARC
  5
9456
330
18
100
AcDbEntity
  8
0
100
AcDbCircle
 10
27.15631994112808
 20
288.1082122754449
 30
0.0
 40
2.100000000000111
100
AcDbArc
 50
320.0554948102403
 51
346.3257176637268
  0
ARC
  5
9457
330
18
100
AcDbEntity
  8
0
100
AcDbCircle
 10
27.15631994112808
 20
288.1082122754449
 30
0.0
 40
2.1
100
AcDbArc
 50
346.3257176637268
 51
0.0
  0
ARC
  5
9458
330
18
100
AcDbEntity
  8
0
100
AcDbCircle
 10
29.25631994112808
 20
288.1082122754449
 30
0.0
 40
0.5000000000000011
100
AcDbArc
 50
263.162858831864
 51
96.83714116813618
  0
ARC
  5
9459
330
18
100
AcDbEntity
  8
0
100
AcDbCircle
 10
27.15631994112807
 20
291.9182122754448
 30
0.0
 40
2.100000000000006
100
AcDbArc
 50
13.67428233627318
 51
39.94450518981511
  0
ARC
  5
945A
330
18
100
AcDbEntity
  8
0
100
AcDbCircle
 10
27.15631994112807
 20
291.9182122754448
 30
0.0
 40
2.100000000000008
100
AcDbArc
 50
0.0
 51
13.67428233627318
  0
ARC
  5
945B
330
18
100
AcDbEntity
  8
0
100
AcDbCircle
 10
27.15631994112807
 20
291.9182122754448
 30
0.0
 40
2.100000000000008
100
AcDbArc
 50
346.3257176637268
 51
0.0
  0
ARC
  5
945C
330
18
100
AcDbEntity
  8
0
100
AcDbCircle
 10
27.15631994112808
 20
288.1082122754449
 30
0.0
 40
1.400000000000012
100
AcDbArc
 50
235.2865606114749
 51
34.71343938852433
  0
ARC
  5
945D
330
18
100
AcDbEntity
  8
0
100
AcDbCircle
 10
27.15631994112808
 20
288.1082122754449
 30
0.0
 40
1.45000000000002
100
AcDbArc
 50
0.0
 51
180.0
  0
ARC
  5
945E
330
18
100
AcDbEntity
  8
0
100
AcDbCircle
 10
27.15631994112808
 20
288.1082122754449
 30
0.0
 40
2.1
100
AcDbArc
 50
0.0
 51
13.67428233627318
  0
ARC
  5
945F
330
18
100
AcDbEntity
  8
0
100
AcDbCircle
 10
27.15631994112807
 20
291.9182122754448
 30
0.0
 40
1.450000000000028
100
AcDbArc
 50
0.0
 51
180.0
  0
ARC
  5
9460
330
18
100
AcDbEntity
  8
0
100
AcDbCircle
 10
27.15631994112807
 20
291.9182122754448
 30
0.0
 40
1.450000000000014
100
AcDbArc
 50
180.0
 51
0.0
  0
ARC
  5
9461
330
18
100
AcDbEntity
  8
0
100
AcDbCircle
 10
27.15631994112807
 20
291.9182122754448
 30
0.0
 40
1.400000000000012
100
AcDbArc
 50
55.28656061147495
 51
180.0
  0
ARC
  5
9462
330
18
100
AcDbEntity
  8
0
100
AcDbCircle
 10
27.15631994112807
 20
291.9182122754448
 30
0.0
 40
1.400000000000012
100
AcDbArc
 50
180.0
 51
214.7134393885242
  0
ARC
  5
9463
330
18
100
AcDbEntity
  8
0
100
AcDbCircle
 10
27.15631994112808
 20
288.1082122754449
 30
0.0
 40
1.400000000000012
100
AcDbArc
 50
34.71343938852433
 51
55.28656061147495
  0
ARC
  5
9464
330
18
100
AcDbEntity
  8
0
100
AcDbCircle
 10
27.15631994112807
 20
291.9182122754448
 30
0.0
 40
2.100000000000624
100
AcDbArc
 50
320.0554948104907
 51
346.3257176637268
  0
ARC
  5
9465
330
18
100
AcDbEntity
  8
0
100
AcDbCircle
 10
27.15631994112808
 20
288.1082122754449
 30
0.0
 40
2.1
100
AcDbArc
 50
13.67428233627318
 51
39.94450518981524
  0
ARC
  5
9466
330
18
100
AcDbEntity
  8
0
100
AcDbCircle
 10
27.15631994112808
 20
288.1082122754449
 30
0.0
 40
1.400000000000023
100
AcDbArc
 50
55.28656061147495
 51
180.0
  0
ARC
  5
9467
330
18
100
AcDbEntity
  8
0
100
AcDbCircle
 10
27.15631994112808
 20
288.1082122754449
 30
0.0
 40
1.400000000000012
100
AcDbArc
 50
180.0
 51
214.7134393885242
  0
ARC
  5
9468
330
18
100
AcDbEntity
  8
0
100
AcDbCircle
 10
27.15631994112808
 20
288.1082122754449
 30
0.0
 40
1.400000000000024
100
AcDbArc
 50
214.7134393885242
 51
235.2865606114749
  0
ARC
  5
9469
330
18
100
AcDbEntity
  8
0
100
AcDbCircle
 10
29.25631994112808
 20
291.9182122754448
 30
0.0
 40
0.5
100
AcDbArc
 50
0.0
 51
96.83714116813618
  0
ARC
  5
946A
330
18
100
AcDbEntity
  8
0
100
AcDbCircle
 10
29.25631994112808
 20
291.9182122754448
 30
0.0
 40
0.4999999999999998
100
AcDbArc
 50
263.1628588318638
 51
0.0
  0
ARC
  5
946B
330
18
100
AcDbEntity
  8
0
100
AcDbCircle
 10
27.15631994112807
 20
291.9182122754448
 30
0.0
 40
1.400000000000011
100
AcDbArc
 50
235.2865606114749
 51
34.71343938852433
  0
ARC
  5
946C
330
18
100
AcDbEntity
  8
0
100
AcDbCircle
 10
27.15631994112807
 20
291.9182122754448
 30
0.0
 40
1.400000000000008
100
AcDbArc
 50
214.7134393885242
 51
235.2865606114749
  0
ARC
  5
946D
330
18
100
AcDbEntity
  8
0
100
AcDbCircle
 10
27.15631994112807
 20
291.9182122754448
 30
0.0
 40
1.400000000000012
100
AcDbArc
 50
34.71343938852433
 51
55.28656061147495
  0
LWPOLYLINE
  5
946E
330
18
100
AcDbEntity
  8
0
100
AcDbPolyline
 90
        7
 70
     0
 43
0.0
 10
28.76631994112949
 20
286.7599170555482
 42
-0.0010357402252054
 10
28.71954077536917
 20
286.7770261811829
 10
28.66581085351867
 20
286.7969529211816
 10
28.61295998115161
 20
286.8168535959049
 42
-0.0054101641983534
 10
28.40664856664776
 20
286.8976660958179
 10
28.33575957262123
 20
286.926708640722
 10
28.26631994112808
 20
286.955866841124
  0
LWPOLYLINE
  5
946F
330
18
100
AcDbEntity
  8
0
100
AcDbPolyline
 90
        7
 70
     0
 43
0.0
 38
1.004996417558615E+99
 10
28.26631994112808
 20
290.765866841124
 42
0.0044011835197963
 10
28.40667683231344
 20
290.7076546546099
 10
28.50820567072104
 20
290.667233452682
 10
28.61296428320526
 20
290.6268519635118
 42
0.0025073429045212
 10
28.71955173331969
 20
290.5870221476465
 10
28.74292698112687
 20
290.5784453875268
 10
28.76631994113575
 20
290.569917055555
  0
LWPOLYLINE
  5
9470
330
18
100
AcDbEntity
  8
0
100
AcDbPolyline
 90
        7
 70
     0
 43
0.0
 38
1.004996417558615E+99
 10
28.26631994112808
 20
293.0705577097656
 42
-0.0043862742691308
 10
28.40615641372276
 20
293.1285592270016
 10
28.50782493190035
 20
293.1690419564793
 10
28.61288454909018
 20
293.2095423323253
 42
-0.0025025260483379
 10
28.71934617057093
 20
293.2493267351567
 10
28.74282412055245
 20
293.2579415451696
 10
28.76631994112808
 20
293.2665074953429
  0
LWPOLYLINE
  5
9471
330
18
100
AcDbEntity
  8
0
100
AcDbPolyline
 90
        7
 70
     0
 43
0.0
 38
1.004996417558615E+99
 10
28.76631994112808
 20
289.4565074953429
 42
0.0010354907219746
 10
28.71955178247919
 20
289.4394024213383
 10
28.66589297365672
 20
289.419502316541
 10
28.61296430270572
 20
289.3995725947771
 42
0.0054090623159217
 10
28.40667695936894
 20
289.3187699477083
 10
28.33556396762977
 20
289.2896347849526
 10
28.26631994112808
 20
289.2605577097656
  0
LWPOLYLINE
  5
9472
330
18
100
AcDbEntity
  8
0
100
AcDbPolyline
 90
        8
 70
     0
 43
0.0
 38
1.004996417558615E+99
 10
30.75631994112809
 20
298.7323551182991
 42
-0.0426465887263262
 10
30.75091394891515
 20
298.6719798506005
 10
30.74046390629066
 20
298.6231938068364
 42
-0.0303643048025655
 10
30.70466963948552
 20
298.5142645342345
 42
-0.0178342398264282
 10
30.65144099224876
 20
298.391099511273
 10
30.6078281641388
 20
298.3018519780919
 42
-0.007436110675559
 10
30.50882930798273
 20
298.1143416031345
 10
30.45631994112809
 20
298.0182122754448
  0
LWPOLYLINE
  5
9473
330
18
100
AcDbEntity
  8
0
100
AcDbPolyline
 90
        8
 70
     0
 43
0.0
 38
1.004996417558615E+99
 10
30.45631994112809
 20
282.0082122754448
 42
-0.0034483591116001
 10
30.55962992797224
 20
281.8175236593036
 42
-0.0115542971442169
 10
30.65114233767944
 20
281.6359611620868
 10
30.67979159940594
 20
281.5726339955702
 42
-0.0214451454493749
 10
30.7247549068575
 20
281.4563723003726
 42
-0.0361324550867008
 10
30.75084129850048
 20
281.3548803850719
 10
30.75494364446218
 20
281.323382815302
 10
30.75631994112809
 20
281.2940694325905
  0
LINE
  5
94F3
330
18
100
AcDbEntity
  8
0
100
AcDbLine
 10
21.85631980715313
 20
601.7476860759273
 30
0.0
 11
21.85631980715361
 21
605.6476860759279
 31
0.0
  0
LINE
  5
94F4
330
18
100
AcDbEntity
  8
0
100
AcDbLine
 10
30.75631980715366
 20
599.7976860759274
 30
0.0
 11
30.75631980715366
 21
599.2476860759274
 31
0.0
  0
LINE
  5
94F5
330
18
100
AcDbEntity
  8
0
100
AcDbLine
 10
30.75631980715366
 20
602.8476860759274
 30
0.0
 11
30.75631980715366
 21
602.9476860759274
 31
0.0
  0
LINE
  5
94F6
330
18
100
AcDbEntity
  8
0
100
AcDbLine
 10
30.75631980715366
 20
603.8476860759274
 30
0.0
 11
23.85631980715365
 21
603.8476860759274
 31
0.0
  0
LINE
  5
94F7
330
18
100
AcDbEntity
  8
0
100
AcDbLine
 10
23.85631980715365
 20
602.9976860759274
 30
0.0
 11
23.85631980715365
 21
603.8476860759274
 31
0.0
  0
LINE
  5
94F8
330
18
100
AcDbEntity
  8
0
100
AcDbLine
 10
23.85631980715365
 20
602.8476860759274
 30
0.0
 11
23.85631980715365
 21
602.9976860759274
 31
0.0
  0
LINE
  5
94F9
330
18
100
AcDbEntity
  8
0
100
AcDbLine
 10
30.75631980715366
 20
602.9476860759274
 30
0.0
 11
30.75631980715366
 21
603.2476860759274
 31
0.0
  0
LINE
  5
94FA
330
18
100
AcDbEntity
  8
0
100
AcDbLine
 10
30.75631980715366
 20
603.2476860759274
 30
0.0
 11
30.75631980715366
 21
603.8476860759274
 31
0.0
  0
LINE
  5
94FB
330
18
100
AcDbEntity
  8
0
100
AcDbLine
 10
30.75631980715366
 20
603.8476860759274
 30
0.0
 11
30.75631980715366
 21
606.3476860759274
 31
0.0
  0
LINE
  5
94FC
330
18
100
AcDbEntity
  8
0
100
AcDbLine
 10
23.85631980715365
 20
602.8476860759274
 30
0.0
 11
23.85631980715365
 21
599.2476860759274
 31
0.0
  0
LINE
  5
94FD
330
18
100
AcDbEntity
  8
0
100
AcDbLine
 10
30.75631980715366
 20
600.2976860759274
 30
0.0
 11
30.75631980715366
 21
599.7976860759274
 31
0.0
  0
LINE
  5
94FE
330
18
100
AcDbEntity
  8
0
100
AcDbLine
 10
30.75631980715366
 20
602.8476860759274
 30
0.0
 11
30.75631980715366
 21
602.2976860759274
 31
0.0
  0
LINE
  5
94FF
330
18
100
AcDbEntity
  8
0
100
AcDbLine
 10
30.75631980715366
 20
601.0476860759275
 30
0.0
 11
30.75631980715366
 21
600.2976860759274
 31
0.0
  0
LINE
  5
9500
330
18
100
AcDbEntity
  8
0
100
AcDbLine
 10
30.75631980715366
 20
602.2976860759274
 30
0.0
 11
30.75631980715366
 21
601.0476860759275
 31
0.0
  0
LINE
  5
9501
330
18
100
AcDbEntity
  8
0
100
AcDbLine
 10
27.14552399457565
 20
599.5476860759274
 30
0.0
 11
24.56711561973166
 21
599.5476860759274
 31
0.0
  0
LINE
  5
9502
330
18
100
AcDbEntity
  8
0
100
AcDbLine
 10
27.35631980715365
 20
602.3368902633494
 30
0.0
 11
27.35631980715365
 21
599.7584818885053
 31
0.0
  0
LINE
  5
9503
330
18
100
AcDbEntity
  8
0
100
AcDbLine
 10
26.02178866843806
 20
601.377015939792
 30
0.0
 11
26.02178866843806
 21
602.0645806903055
 31
0.0
  0
LINE
  5
9504
330
18
100
AcDbEntity
  8
0
100
AcDbLine
 10
27.01460183614596
 20
602.0645806903055
 30
0.0
 11
27.01460183614596
 21
600.0307914615413
 31
0.0
  0
LINE
  5
9505
330
18
100
AcDbEntity
  8
0
100
AcDbLine
 10
25.80116352005864
 20
600.2707404125143
 30
0.0
 11
25.80116352005864
 21
600.0307914615415
 31
0.0
  0
LINE
  5
9506
330
18
100
AcDbEntity
  8
0
100
AcDbLine
 10
26.02178866843774
 20
600.0307914615415
 30
0.0
 11
26.02178866843774
 21
600.2707404125143
 31
0.0
  0
LINE
  5
9507
330
18
100
AcDbEntity
  8
0
100
AcDbLine
 10
26.85650497671248
 20
599.872694602108
 30
0.0
 11
26.17988552787137
 21
599.872694602108
 31
0.0
  0
LINE
  5
9508
330
18
100
AcDbEntity
  8
0
100
AcDbLine
 10
25.64306666062506
 20
599.872694602108
 30
0.0
 11
25.63041501081104
 21
599.872694602108
 31
0.0
  0
LINE
  5
9509
330
18
100
AcDbEntity
  8
0
100
AcDbLine
 10
25.80116352005846
 20
601.6169648907649
 30
0.0
 11
25.80116352005846
 21
601.377015939792
 31
0.0
  0
LINE
  5
950A
330
18
100
AcDbEntity
  8
0
100
AcDbLine
 10
25.63041501081104
 20
601.7750617501985
 30
0.0
 11
25.64306666062506
 21
601.7750617501985
 31
0.0
  0
LINE
  5
950B
330
18
100
AcDbEntity
  8
0
100
AcDbLine
 10
26.17988552787137
 20
602.2226775497389
 30
0.0
 11
26.85650497671248
 21
602.2226775497389
 31
0.0
  0
LINE
  5
950C
330
18
100
AcDbEntity
  8
0
100
AcDbLine
 10
24.56711561973166
 20
602.5476860759274
 30
0.0
 11
27.14552399457565
 21
602.5476860759274
 31
0.0
  0
LINE
  5
950D
330
18
100
AcDbEntity
  8
0
100
AcDbLine
 10
24.35631980715365
 20
602.3368902633494
 30
0.0
 11
24.35631980715365
 21
599.7584818885053
 31
0.0
  0
LINE
  5
9510
330
18
100
AcDbEntity
  8
0
100
AcDbLine
 10
30.75631980715368
 20
599.1476860759274
 30
0.0
 11
30.75631980715366
 21
598.5476860759274
 31
0.0
  0
LINE
  5
9511
330
18
100
AcDbEntity
  8
0
100
AcDbLine
 10
29.75631980715366
 20
598.2476860759273
 30
0.0
 11
29.19679599762984
 21
598.2476860759273
 31
0.0
  0
LINE
  5
9512
330
18
100
AcDbEntity
  8
0
100
AcDbLine
 10
30.7563188071537
 20
598.3476860759274
 30
0.0
 11
30.7563188071537
 21
598.2476860759273
 31
0.0
  0
LINE
  5
9513
330
18
100
AcDbEntity
  8
0
100
AcDbLine
 10
30.45631980715366
 20
598.2476860759273
 30
0.0
 11
30.7563188071537
 21
598.2476860759273
 31
0.0
  0
LINE
  5
9514
330
18
100
AcDbEntity
  8
0
100
AcDbLine
 10
30.00631880715369
 20
598.2476860759273
 30
0.0
 11
30.45631980715366
 21
598.2476860759273
 31
0.0
  0
LINE
  5
9515
330
18
100
AcDbEntity
  8
0
100
AcDbLine
 10
29.85631980715367
 20
598.2476860759273
 30
0.0
 11
30.00631880715369
 21
598.2476860759273
 31
0.0
  0
LINE
  5
9516
330
18
100
AcDbEntity
  8
0
100
AcDbLine
 10
29.75631980715366
 20
598.2476860759273
 30
0.0
 11
29.85631980715367
 21
598.2476860759273
 31
0.0
  0
LINE
  5
9517
330
18
100
AcDbEntity
  8
0
100
AcDbLine
 10
23.85631980715365
 20
599.0976860759274
 30
0.0
 11
23.85631980715365
 21
598.2476860759273
 31
0.0
  0
LINE
  5
9518
330
18
100
AcDbEntity
  8
0
100
AcDbLine
 10
23.85631980715365
 20
599.2476860759274
 30
0.0
 11
23.85631980715365
 21
599.0976860759274
 31
0.0
  0
LINE
  5
9519
330
18
100
AcDbEntity
  8
0
100
AcDbLine
 10
28.76631980715366
 20
598.2476860759273
 30
0.0
 11
29.19679599762984
 21
598.2476860759273
 31
0.0
  0
LINE
  5
951A
330
18
100
AcDbEntity
  8
0
100
AcDbLine
 10
23.85631980715365
 20
598.2476860759273
 30
0.0
 11
28.76631980715366
 21
598.2476860759273
 31
0.0
  0
LINE
  5
951B
330
18
100
AcDbEntity
  8
0
100
AcDbLine
 10
30.75631980715366
 20
599.2476860759274
 30
0.0
 11
30.75631980715368
 21
599.1476860759274
 31
0.0
  0
LINE
  5
951C
330
18
100
AcDbEntity
  8
0
100
AcDbLine
 10
30.75631980715366
 20
598.5476860759274
 30
0.0
 11
30.7563188071537
 21
598.3476860759274
 31
0.0
  0
LINE
  5
9534
330
18
100
AcDbEntity
  8
0
100
AcDbLine
 10
29.85631980715367
 20
596.8476860759274
 30
0.0
 11
29.85631980715367
 21
598.2476860759273
 31
0.0
  0
LINE
  5
9535
330
18
100
AcDbEntity
  8
0
100
AcDbLine
 10
28.75631980715366
 20
596.3476860759274
 30
0.0
 11
29.35631980715367
 21
596.3476860759274
 31
0.0
  0
LINE
  5
9536
330
18
100
AcDbEntity
  8
0
100
AcDbLine
 10
21.85631980715313
 20
601.7476860759273
 30
0.0
 11
21.55631980715371
 21
601.7476860759273
 31
0.0
  0
LINE
  5
9537
330
18
100
AcDbEntity
  8
0
100
AcDbLine
 10
22.45631980715367
 20
600.7476860759274
 30
0.0
 11
21.75631980715376
 21
600.7476860759274
 31
0.0
  0
LINE
  5
9538
330
18
100
AcDbEntity
  8
0
100
AcDbLine
 10
23.47452673839206
 20
596.9476860759274
 30
0.0
 11
22.45631980715367
 21
600.7476860759274
 31
0.0
  0
LINE
  5
9539
330
18
100
AcDbEntity
  8
0
100
AcDbLine
 10
23.25631980715366
 20
596.9476860759274
 30
0.0
 11
23.47452673839206
 21
596.9476860759274
 31
0.0
  0
LINE
  5
953A
330
18
100
AcDbEntity
  8
0
100
AcDbLine
 10
28.75631980715366
 20
596.3476860759274
 30
0.0
 11
28.60631980715367
 21
596.3476860759274
 31
0.0
  0
LINE
  5
953B
330
18
100
AcDbEntity
  8
0
100
AcDbLine
 10
23.25631980715366
 20
596.6476860759274
 30
0.0
 11
23.25631980715366
 21
596.9476860759274
 31
0.0
  0
LINE
  5
953C
330
18
100
AcDbEntity
  8
0
100
AcDbLine
 10
28.60631980715367
 20
596.3476860759274
 30
0.0
 11
28.2663198071536
 21
596.3476860759274
 31
0.0
  0
LINE
  5
953D
330
18
100
AcDbEntity
  8
0
100
AcDbLine
 10
25.70631980715363
 20
596.3476860759274
 30
0.0
 11
28.2663198071536
 21
596.3476860759274
 31
0.0
  0
LINE
  5
953E
330
18
100
AcDbEntity
  8
0
100
AcDbLine
 10
23.55631980715366
 20
596.3476860759274
 30
0.0
 11
25.70631980715363
 21
596.3476860759274
 31
0.0
  0
LINE
  5
953F
330
18
100
AcDbEntity
  8
0
100
AcDbLine
 10
21.25631980715371
 20
601.4476860759273
 30
0.0
 11
21.25631980715368
 21
601.2476860759273
 31
0.0
  0
ARC
  5
9544
330
18
100
AcDbEntity
  8
0
100
AcDbCircle
 10
27.14552399457565
 20
602.3368902633494
 30
0.0
 40
0.2107958125779987
100
AcDbArc
 50
0.0
 51
90.0
  0
ARC
  5
9545
330
18
100
AcDbEntity
  8
0
100
AcDbCircle
 10
26.85650497671248
 20
602.0645806903055
 30
0.0
 40
0.1580968594334919
100
AcDbArc
 50
0.0
 51
90.0
  0
ARC
  5
9546
330
18
100
AcDbEntity
  8
0
100
AcDbCircle
 10
26.17988552787137
 20
602.0645806903055
 30
0.0
 40
0.1580968594334387
100
AcDbArc
 50
90.0
 51
180.0
  0
ARC
  5
9547
330
18
100
AcDbEntity
  8
0
100
AcDbCircle
 10
25.63041501081104
 20
600.8238781761532
 30
0.0
 40
0.951183574045199
100
AcDbArc
 50
90.0
 51
270.0
  0
ARC
  5
9548
330
18
100
AcDbEntity
  8
0
100
AcDbCircle
 10
25.91147609424825
 20
600.8238781761532
 30
0.0
 40
0.4567242605855182
100
AcDbArc
 50
295.8849244575727
 51
64.11507554242544
  0
ARC
  5
9549
330
18
100
AcDbEntity
  8
0
100
AcDbCircle
 10
25.91147609424825
 20
600.8238781761532
 30
0.0
 40
0.4567242605854639
100
AcDbArc
 50
115.8849244575753
 51
244.1150755424279
  0
ARC
  5
954A
330
18
100
AcDbEntity
  8
0
100
AcDbCircle
 10
25.64306666062506
 20
600.2707404125143
 30
0.0
 40
0.1580968594335808
100
AcDbArc
 50
0.0
 51
64.11507554241675
  0
ARC
  5
954B
330
18
100
AcDbEntity
  8
0
100
AcDbCircle
 10
26.85650497671248
 20
600.0307914615413
 30
0.0
 40
0.1580968594334387
100
AcDbArc
 50
270.0
 51
0.0
  0
ARC
  5
954C
330
18
100
AcDbEntity
  8
0
100
AcDbCircle
 10
27.14552399457565
 20
599.7584818885053
 30
0.0
 40
0.2107958125779206
100
AcDbArc
 50
270.0
 51
0.0
  0
ARC
  5
954D
330
18
100
AcDbEntity
  8
0
100
AcDbCircle
 10
26.17988552787137
 20
600.0307914615415
 30
0.0
 40
0.1580968594336198
100
AcDbArc
 50
180.0
 51
270.0
  0
ARC
  5
954E
330
18
100
AcDbEntity
  8
0
100
AcDbCircle
 10
26.17988552787137
 20
600.2707404125143
 30
0.0
 40
0.1580968594334207
100
AcDbArc
 50
115.8849244575548
 51
180.0
  0
ARC
  5
954F
330
18
100
AcDbEntity
  8
0
100
AcDbCircle
 10
25.64306666062506
 20
600.0307914615415
 30
0.0
 40
0.1580968594334315
100
AcDbArc
 50
270.0
 51
0.0
  0
ARC
  5
9550
330
18
100
AcDbEntity
  8
0
100
AcDbCircle
 10
25.64306666062506
 20
601.377015939792
 30
0.0
 40
0.1580968594334404
100
AcDbArc
 50
295.8849244575843
 51
0.0
  0
ARC
  5
9551
330
18
100
AcDbEntity
  8
0
100
AcDbCircle
 10
25.64306666062506
 20
601.6169648907649
 30
0.0
 40
0.1580968594333889
100
AcDbArc
 50
0.0
 51
90.0
  0
ARC
  5
9552
330
18
100
AcDbEntity
  8
0
100
AcDbCircle
 10
26.17988552787137
 20
601.377015939792
 30
0.0
 40
0.1580968594333001
100
AcDbArc
 50
180.0
 51
244.115075542441
  0
ARC
  5
9553
330
18
100
AcDbEntity
  8
0
100
AcDbCircle
 10
24.56711561973166
 20
602.3368902633494
 30
0.0
 40
0.2107958125779206
100
AcDbArc
 50
90.0
 51
180.0
  0
ARC
  5
9554
330
18
100
AcDbEntity
  8
0
100
AcDbCircle
 10
24.56711561973166
 20
599.7584818885053
 30
0.0
 40
0.2107958125779987
100
AcDbArc
 50
180.0
 51
270.0
  0
ARC
  5
9555
330
18
100
AcDbEntity
  8
0
100
AcDbCircle
 10
30.45631980715366
 20
598.5476860759274
 30
0.0
 40
0.2999999999999901
100
AcDbArc
 50
270.0
 51
0.0
  0
ARC
  5
9556
330
18
100
AcDbEntity
  8
0
100
AcDbCircle
 10
29.35631980715367
 20
596.8476860759274
 30
0.0
 40
0.4999999999999893
100
AcDbArc
 50
270.0
 51
0.0
  0
ARC
  5
9557
330
18
100
AcDbEntity
  8
0
100
AcDbCircle
 10
23.55631980715366
 20
596.6476860759274
 30
0.0
 40
0.3000000000000007
100
AcDbArc
 50
180.0
 51
270.0
  0
ARC
  5
9558
330
18
100
AcDbEntity
  8
0
100
AcDbCircle
 10
21.75631980715369
 20
601.2476860759274
 30
0.0
 40
0.5000000000000107
100
AcDbArc
 50
180.000000000013
 51
270.0
  0
ARC
  5
9559
330
18
100
AcDbEntity
  8
0
100
AcDbCircle
 10
21.55631980715371
 20
601.4476860759274
 30
0.0
 40
0.300000000000022
100
AcDbArc
 50
90.0
 51
180.0
  0
CIRCLE
  5
955A
330
18
100
AcDbEntity
  8
0
100
AcDbCircle
 10
25.91147609424825
 20
600.8238781761532
 30
0.0
 40
0.2283621302927905
  0
LINE
  5
9593
330
18
100
AcDbEntity
  8
0
100
AcDbLine
 10
-163.070707676115
 20
300.5132125074956
 30
0.0
 11
-163.0707076761151
 21
294.2182125074956
 31
0.0
  0
LINE
  5
9594
330
18
100
AcDbEntity
  8
0
100
AcDbLine
 10
-163.0707076761153
 20
285.8082125074957
 30
0.0
 11
-163.0707076761155
 21
279.5132125074952
 31
0.0
  0
LINE
  5
9595
330
18
100
AcDbEntity
  8
0
100
AcDbLine
 10
-162.5707076761155
 20
300.5132125074957
 30
0.0
 11
-162.5707076761155
 21
294.2182125074956
 31
0.0
  0
LINE
  5
9596
330
18
100
AcDbEntity
  8
0
100
AcDbLine
 10
-162.5707076761155
 20
285.8082125074957
 30
0.0
 11
-162.5707076761155
 21
279.5132125074951
 31
0.0
  0
LINE
  5
95AB
330
18
100
AcDbEntity
  8
0
100
AcDbLine
 10
-163.070707676115
 20
300.5132125074956
 30
0.0
 11
-151.0707076761154
 21
300.5132125074961
 31
0.0
  0
LINE
  5
95AC
330
18
100
AcDbEntity
  8
0
100
AcDbLine
 10
-163.0707076761155
 20
279.5132125074952
 30
0.0
 11
-151.0707076761154
 21
279.5132125074943
 31
0.0
  0
LINE
  5
95AD
330
18
100
AcDbEntity
  8
0
100
AcDbLine
 10
-151.0707076761154
 20
300.5132125074961
 30
0.0
 11
-151.0707076761154
 21
279.5132125074943
 31
0.0
  0
TEXT
  5
9663
330
18
100
AcDbEntity
  8
0
100
AcDbText
 10
255.655604864376
 20
234.5032080302635
 30
0.0
 40
6.0
  1
ＮＣＲ－＊Ａ＊＊Ａ３＊－４０２＊
 41
0.6
  7
MSｺﾞｼｯｸ
100
AcDbText
  0
TEXT
  5
9664
330
18
100
AcDbEntity
  8
0
100
AcDbText
 10
223.9342307809651
 20
213.923070889605
 30
0.0
 40
6.0
  1
VC外形図(AC400V仕様)　CC-Link付
  7
MSｺﾞｼｯｸ
100
AcDbText
  0
TEXT
  5
9665
330
18
100
AcDbEntity
  8
0
100
AcDbText
 10
263.1584831894426
 20
202.5651641217579
 30
0.0
 40
7.0
  1
ＳＥ－３４２３０Ｄ
 41
0.9529999999999999
  7
MSｺﾞｼｯｸ
100
AcDbText
  0
TEXT
  5
9666
330
18
100
AcDbEntity
  8
0
100
AcDbText
 10
245.0603197761651
 20
225.595580363556
 30
0.0
 40
6.0
  1
＋　ＮＣＲ－ＸＡＢ７Ｄ１＊－４０２ 
 41
0.6
  7
MSｺﾞｼｯｸ
100
AcDbText
  0
VIEWPORT
  5
96C7
330
96C3
100
AcDbEntity
 67
     1
  8
0
100
AcDbViewport
 10
202.4999999999999
 20
128.4999999999999
 30
0.0
 40
486.0
 41
308.3999999999999
 68
     1
 69
     1
 12
202.4999999999999
 22
128.4999999999999
 13
0.0
 23
0.0
 14
0.5
 24
0.5
 15
0.0
 25
0.0
 16
0.0
 26
0.0
 36
1.0
 17
0.0
 27
0.0
 37
0.0
 42
50.0
 43
0.0
 44
0.0
 45
308.3999999999999
 50
0.0
 51
0.0
 72
   100
 90
    32864
  1

281
     0
 71
     1
 74
     0
110
0.0
120
0.0
130
0.0
111
1.0
121
0.0
131
0.0
112
0.0
122
1.0
132
0.0
 79
     0
146
0.0
  0
VIEWPORT
  5
96C8
330
96C3
100
AcDbEntity
 67
     1
  8
0
100
AcDbViewport
 10
202.4999999999999
 20
128.4999999999999
 30
0.0
 40
324.0
 41
205.6
 68
     2
 69
     2
 12
51.60076155242467
 22
443.4064250988426
 13
0.0
 23
0.0
 14
0.5
 24
0.5
 15
0.0
 25
0.0
 16
0.0
 26
0.0
 36
1.0
 17
0.0
 27
0.0
 37
0.0
 42
50.0
 43
0.0
 44
0.0
 45
491.3161723932528
 50
0.0
 51
0.0
 72
   100
 90
    32864
  1

281
     0
 71
     1
 74
     0
110
0.0
120
0.0
130
0.0
111
1.0
121
0.0
131
0.0
112
0.0
122
1.0
132
0.0
 79
     0
146
0.0
  0
ENDSEC
  0
SECTION
  2
OBJECTS
  0
DICTIONARY
  5
C
330
0
100
AcDbDictionary
281
     1
  3
ACAD_GROUP
350
D
  3
ACAD_IMAGE_VARS
350
96C1
  3
ACAD_LAYOUT
350
73F
  3
ACAD_MLINESTYLE
350
1B
  3
ACAD_PLOTSETTINGS
350
740
  3
ACAD_PLOTSTYLENAME
350
73D
  3
ACAD_SCALELIST
350
9695
  3
AcadDim
350
61D4
  3
APPDATA
350
96BF
  3
DWGPROPS
350
96CB
  0
DICTIONARY
  5
D
102
{ACAD_REACTORS
330
C
102
}
330
C
100
AcDbDictionary
281
     1
  0
RASTERVARIABLES
  5
96C1
102
{ACAD_REACTORS
330
C
102
}
330
C
100
AcDbRasterVariables
 90
        0
 70
     1
 71
     1
 72
     0
  0
DICTIONARY
  5
73F
102
{ACAD_REACTORS
330
C
102
}
330
C
100
AcDbDictionary
281
     1
  3
Model
350
741
  3
Sheet1
350
96C4
  0
DICTIONARY
  5
1B
102
{ACAD_REACTORS
330
C
102
}
330
C
100
AcDbDictionary
281
     1
  3
STANDARD
350
1C
  0
DICTIONARY
  5
740
102
{ACAD_REACTORS
330
C
102
}
330
C
100
AcDbDictionary
281
     1
  0
ACDBDICTIONARYWDFLT
  5
73D
102
{ACAD_REACTORS
330
C
102
}
330
C
100
AcDbDictionary
281
     1
  3
Normal
350
73E
100
AcDbDictionaryWithDefault
340
73E
  0
DICTIONARY
  5
9695
102
{ACAD_REACTORS
330
C
102
}
330
C
100
AcDbDictionary
281
     1
  3
A0
350
9696
  3
A1
350
9697
  3
A2
350
9698
  3
A3
350
9699
  3
A4
350
969A
  3
A5
350
969B
  3
A6
350
969C
  3
A7
350
969D
  3
A8
350
969E
  3
A9
350
969F
  3
B0
350
96A0
  3
B1
350
96A1
  3
B2
350
96A2
  3
B3
350
96A3
  3
B4
350
96A4
  3
B5
350
96A5
  3
B6
350
96A6
  3
B7
350
96A7
  3
B8
350
96A8
  3
B9
350
96A9
  3
C0
350
96AA
  3
C1
350
96AB
  3
C2
350
96AC
  3
C3
350
96AD
  3
C4
350
96AE
  3
C5
350
96AF
  3
C6
350
96B0
  3
C7
350
96B1
  3
C8
350
96B2
  3
C9
350
96B3
  3
D0
350
96B4
  3
D1
350
96B5
  3
D2
350
96B6
  0
XRECORD
  5
61D4
102
{ACAD_REACTORS
330
C
102
}
330
C
100
AcDbXrecord
280
     1
 90
   990106
  3

 60
     0
 61
     0
 62
     1
 63
     3
 64
     0
 65
     0
 66
     0
 67
     3
 68
     1
 69
     0
 70
     0
 71
     0
 72
     0
 40
0.0
170
     0
340
0
  0
DICTIONARY
  5
96BF
102
{ACAD_REACTORS
330
C
102
}
330
C
100
AcDbDictionary
281
     1
  0
XRECORD
  5
96CB
102
{ACAD_REACTORS
330
C
102
}
330
C
100
AcDbXrecord
280
     1
  1
DWGPROPS COOKIE
  2

  3

  4

  6

  7

  8
k-yoshida
  9

300
=
301
=
302
=
303
=
304
=
305
=
306
=
307
=
308
=
309
=
 40
0.0
 41
2451224.285162384
 42
2457315.127323958
  1

 90
        0
  0
LAYOUT
  5
741
102
{ACAD_REACTORS
330
73F
102
}
330
73F
100
AcDbPlotSettings
  1

  2
HP DesignJet 750C (D/A1) Color
  4
ISO_A3_(420.00_x_297.00_MM)
  6

 40
7.5
 41
20.0
 42
7.5
 43
20.0
 44
420.0
 45
297.0
 46
0.0
 47
0.0
 48
0.0
 49
0.0
140
0.0
141
0.0
142
1.0
143
2.272187800067473
 70
  1712
 72
     1
 73
     0
 74
     0
  7

 75
     0
147
0.4401044667039866
148
243.1987905168646
149
-174.2221076450639
100
AcDbLayout
  1
Model
 70
     1
 71
     0
 10
0.0
 20
0.0
 11
12.0
 21
9.0
 12
0.0
 22
0.0
 32
0.0
 14
1.000000000000000E+20
 24
1.000000000000000E+20
 34
1.000000000000000E+20
 15
-1.000000000000000E+20
 25
-1.000000000000000E+20
 35
-1.000000000000000E+20
146
0.0
 13
0.0
 23
0.0
 33
0.0
 16
1.0
 26
0.0
 36
0.0
 17
0.0
 27
1.0
 37
0.0
 76
     0
330
18
  0
LAYOUT
  5
96C4
102
{ACAD_REACTORS
330
73F
102
}
330
73F
100
AcDbPlotSettings
  1

  2
none_device
  4
ISO_A3_(420.00_x_297.00_MM)
  6

 40
7.5
 41
20.0
 42
7.5
 43
20.0
 44
420.0
 45
297.0
 46
0.0
 47
0.0
 48
0.0
 49
0.0
140
0.0
141
0.0
142
1.0
143
1.0
 70
   688
 72
     1
 73
     0
 74
     5
  7

 75
    16
147
1.0
148
0.0
149
0.0
100
AcDbLayout
  1
Sheet1
 70
     1
 71
     1
 10
0.0
 20
0.0
 11
0.0
 21
0.0
 12
0.0
 22
0.0
 32
0.0
 14
40.49999999999999
 24
25.69999999999998
 34
0.0
 15
364.5
 25
231.3
 35
0.0
146
0.0
 13
0.0
 23
0.0
 33
0.0
 16
1.0
 26
0.0
 36
0.0
 17
0.0
 27
1.0
 37
0.0
 76
     0
330
96C3
331
96C7
  0
MLINESTYLE
  5
1C
102
{ACAD_REACTORS
330
1B
102
}
330
1B
100
AcDbMlineStyle
  2
STANDARD
 70
     0
  3

 62
   256
 51
90.0
 52
90.0
 71
     2
 49
0.5
 62
   256
  6
BYLAYER
 49
-0.5
 62
   256
  6
BYLAYER
  0
ACDBPLACEHOLDER
  5
73E
102
{ACAD_REACTORS
330
73D
102
}
330
73D
  0
ACAD_PROXY_OBJECT
  5
9696
102
{ACAD_REACTORS
330
9695
102
}
330
9695
100
AcDbProxyObject
 90
      499
 91
      506
 95
   655383
 70
     0
 93
       41
310
903313A31581
 94
        0
  0
ACAD_PROXY_OBJECT
  5
9697
102
{ACAD_REACTORS
330
9695
102
}
330
9695
100
AcDbProxyObject
 90
      499
 91
      506
 95
   655383
 70
     0
 93
      105
310
903313A324000000000000004043
 94
        0
  0
ACAD_PROXY_OBJECT
  5
9698
102
{ACAD_REACTORS
330
9695
102
}
330
9695
100
AcDbProxyObject
 90
      499
 91
      506
 95
   655383
 70
     0
 93
      105
310
903313A344000000000000104043
 94
        0
  0
ACAD_PROXY_OBJECT
  5
9699
102
{ACAD_REACTORS
330
9695
102
}
330
9695
100
AcDbProxyObject
 90
      499
 91
      506
 95
   655383
 70
     0
 93
      105
310
903313A354000000000000144043
 94
        0
  0
ACAD_PROXY_OBJECT
  5
969A
102
{ACAD_REACTORS
330
9695
102
}
330
9695
100
AcDbProxyObject
 90
      499
 91
      506
 95
   655383
 70
     0
 93
      105
310
903313A384000000000000204043
 94
        0
  0
ACAD_PROXY_OBJECT
  5
969B
102
{ACAD_REACTORS
330
9695
102
}
330
9695
100
AcDbProxyObject
 90
      499
 91
      506
 95
   655383
 70
     0
 93
      113
310
904313A31304000000000000244000
 94
        0
  0
ACAD_PROXY_OBJECT
  5
969C
102
{ACAD_REACTORS
330
9695
102
}
330
9695
100
AcDbProxyObject
 90
      499
 91
      506
 95
   655383
 70
     0
 93
      113
310
904313A31364000000000000304000
 94
        0
  0
ACAD_PROXY_OBJECT
  5
969D
102
{ACAD_REACTORS
330
9695
102
}
330
9695
100
AcDbProxyObject
 90
      499
 91
      506
 95
   655383
 70
     0
 93
      113
310
904313A32304000000000000344000
 94
        0
  0
ACAD_PROXY_OBJECT
  5
969E
102
{ACAD_REACTORS
330
9695
102
}
330
9695
100
AcDbProxyObject
 90
      499
 91
      506
 95
   655383
 70
     0
 93
      113
310
904313A333040000000000003E4000
 94
        0
  0
ACAD_PROXY_OBJECT
  5
969F
102
{ACAD_REACTORS
330
9695
102
}
330
9695
100
AcDbProxyObject
 90
      499
 91
      506
 95
   655383
 70
     0
 93
      113
310
904313A34304000000000000444000
 94
        0
  0
ACAD_PROXY_OBJECT
  5
96A0
102
{ACAD_REACTORS
330
9695
102
}
330
9695
100
AcDbProxyObject
 90
      499
 91
      506
 95
   655383
 70
     0
 93
      113
310
904313A35304000000000000494000
 94
        0
  0
ACAD_PROXY_OBJECT
  5
96A1
102
{ACAD_REACTORS
330
9695
102
}
330
9695
100
AcDbProxyObject
 90
      499
 91
      506
 95
   655383
 70
     0
 93
      121
310
905313A3130304000000000000594000
 94
        0
  0
ACAD_PROXY_OBJECT
  5
96A2
102
{ACAD_REACTORS
330
9695
102
}
330
9695
100
AcDbProxyObject
 90
      499
 91
      506
 95
   655383
 70
     0
 93
      105
310
903323A310000000000000010159
 94
        0
  0
ACAD_PROXY_OBJECT
  5
96A3
102
{ACAD_REACTORS
330
9695
102
}
330
9695
100
AcDbProxyObject
 90
      499
 91
      506
 95
   655383
 70
     0
 93
      105
310
903343A310000000000000410159
 94
        0
  0
ACAD_PROXY_OBJECT
  5
96A4
102
{ACAD_REACTORS
330
9695
102
}
330
9695
100
AcDbProxyObject
 90
      499
 91
      506
 95
   655383
 70
     0
 93
      105
310
903383A310000000000000810159
 94
        0
  0
ACAD_PROXY_OBJECT
  5
96A5
102
{ACAD_REACTORS
330
9695
102
}
330
9695
100
AcDbProxyObject
 90
      499
 91
      506
 95
   655383
 70
     0
 93
      113
310
90431303A310000000000000910140
 94
        0
  0
ACAD_PROXY_OBJECT
  5
96A6
102
{ACAD_REACTORS
330
9695
102
}
330
9695
100
AcDbProxyObject
 90
      499
 91
      506
 95
   655383
 70
     0
 93
      121
310
9053130303A310000000000001650100
 94
        0
  0
ACAD_PROXY_OBJECT
  5
96A7
102
{ACAD_REACTORS
330
9695
102
}
330
9695
100
AcDbProxyObject
 90
      499
 91
      506
 95
   655383
 70
     0
 93
      257
310
90E312F31323822203D2031272D3022000000000000200FC000000000000284000
 94
        0
  0
ACAD_PROXY_OBJECT
  5
96A8
102
{ACAD_REACTORS
330
9695
102
}
330
9695
100
AcDbProxyObject
 90
      499
 91
      506
 95
   655383
 70
     0
 93
      249
310
90D312F363422203D2031272D3022000000000000240FC000000000000284040
 94
        0
  0
ACAD_PROXY_OBJECT
  5
96A9
102
{ACAD_REACTORS
330
9695
102
}
330
9695
100
AcDbProxyObject
 90
      499
 91
      506
 95
   655383
 70
     0
 93
      249
310
90D312F333222203D2031272D3022000000000000280FC000000000000284040
 94
        0
  0
ACAD_PROXY_OBJECT
  5
96AA
102
{ACAD_REACTORS
330
9695
102
}
330
9695
100
AcDbProxyObject
 90
      499
 91
      506
 95
   655383
 70
     0
 93
      249
310
90D312F313622203D2031272D30220000000000002C0FC000000000000284040
 94
        0
  0
ACAD_PROXY_OBJECT
  5
96AB
102
{ACAD_REACTORS
330
9695
102
}
330
9695
100
AcDbProxyObject
 90
      499
 91
      506
 95
   655383
 70
     0
 93
      249
310
90D332F333222203D2031272D30220000000000002E0FC000000000000284040
 94
        0
  0
ACAD_PROXY_OBJECT
  5
96AC
102
{ACAD_REACTORS
330
9695
102
}
330
9695
100
AcDbProxyObject
 90
      499
 91
      506
 95
   655383
 70
     0
 93
      241
310
90C312F3822203D2031272D3022000000000000300FC000000000000284040
 94
        0
  0
ACAD_PROXY_OBJECT
  5
96AD
102
{ACAD_REACTORS
330
9695
102
}
330
9695
100
AcDbProxyObject
 90
      499
 91
      506
 95
   655383
 70
     0
 93
      249
310
90D332F313622203D2031272D3022000000000000320FC000000000000284040
 94
        0
  0
ACAD_PROXY_OBJECT
  5
96AE
102
{ACAD_REACTORS
330
9695
102
}
330
9695
100
AcDbProxyObject
 90
      499
 91
      506
 95
   655383
 70
     0
 93
      241
310
90C312F3422203D2031272D3022000000000000340FC000000000000284040
 94
        0
  0
ACAD_PROXY_OBJECT
  5
96AF
102
{ACAD_REACTORS
330
9695
102
}
330
9695
100
AcDbProxyObject
 90
      499
 91
      506
 95
   655383
 70
     0
 93
      241
310
90C332F3822203D2031272D3022000000000000360FC000000000000284040
 94
        0
  0
ACAD_PROXY_OBJECT
  5
96B0
102
{ACAD_REACTORS
330
9695
102
}
330
9695
100
AcDbProxyObject
 90
      499
 91
      506
 95
   655383
 70
     0
 93
      241
310
90C312F3222203D2031272D3022000000000000380FC000000000000284040
 94
        0
  0
ACAD_PROXY_OBJECT
  5
96B1
102
{ACAD_REACTORS
330
9695
102
}
330
9695
100
AcDbProxyObject
 90
      499
 91
      506
 95
   655383
 70
     0
 93
      241
310
90C332F3422203D2031272D30220000000000003A0FC000000000000284040
 94
        0
  0
ACAD_PROXY_OBJECT
  5
96B2
102
{ACAD_REACTORS
330
9695
102
}
330
9695
100
AcDbProxyObject
 90
      499
 91
      506
 95
   655383
 70
     0
 93
      161
310
90A3122203D2031272D30224000000000000284020
 94
        0
  0
ACAD_PROXY_OBJECT
  5
96B3
102
{ACAD_REACTORS
330
9695
102
}
330
9695
100
AcDbProxyObject
 90
      499
 91
      506
 95
   655383
 70
     0
 93
      257
310
90E312D312F3222203D2031272D30220000000000003E0FC000000000000284000
 94
        0
  0
ACAD_PROXY_OBJECT
  5
96B4
102
{ACAD_REACTORS
330
9695
102
}
330
9695
100
AcDbProxyObject
 90
      499
 91
      506
 95
   655383
 70
     0
 93
      225
310
90A3322203D2031272D302200000000000002100000000000000284000
 94
        0
  0
ACAD_PROXY_OBJECT
  5
96B5
102
{ACAD_REACTORS
330
9695
102
}
330
9695
100
AcDbProxyObject
 90
      499
 91
      506
 95
   655383
 70
     0
 93
      225
310
90A3622203D2031272D302200000000000006100000000000000284000
 94
        0
  0
ACAD_PROXY_OBJECT
  5
96B6
102
{ACAD_REACTORS
330
9695
102
}
330
9695
100
AcDbProxyObject
 90
      499
 91
      506
 95
   655383
 70
     0
 93
      249
310
90D31272D3022203D2031272D30220000000000000A100000000000000284040
 94
        0
  0
ENDSEC
  0
EOF
