  0
SECTION
  2
HEADER
  9
$ACADVER
  1
AC1015
  9
$ACADMAINTVER
 70
    10
  9
$DWGCODEPAGE
  3
ANSI_932
  9
$INSBASE
 10
0.0
 20
0.0
 30
0.0
  9
$EXTMIN
 10
-40.0748470525504
 20
243.6144207317969
 30
0.0
  9
$EXTMAX
 10
453.0799549768391
 20
708.5511551362125
 30
1.004996417558615E+99
  9
$LIMMIN
 10
0.0
 20
0.0
  9
$LIMMAX
 10
420.0
 20
297.0
  9
$ORTHOMODE
 70
     1
  9
$REGENMODE
 70
     1
  9
$FILLMODE
 70
     1
  9
$QTEXTMODE
 70
     0
  9
$MIRRTEXT
 70
     1
  9
$LTSCALE
 40
1.0
  9
$ATTMODE
 70
     1
  9
$TEXTSIZE
 40
2.5
  9
$TRACEWID
 40
1.0
  9
$TEXTSTYLE
  7
STANDARD
  9
$CLAYER
  8
0
  9
$CELTYPE
  6
BYLAYER
  9
$CECOLOR
 62
   256
  9
$CELTSCALE
 40
1.0
  9
$DISPSILH
 70
     0
  9
$DIMSCALE
 40
2.0
  9
$DIMASZ
 40
3.0
  9
$DIMEXO
 40
1.0
  9
$DIMDLI
 40
5.0
  9
$DIMRND
 40
0.0
  9
$DIMDLE
 40
0.0
  9
$DIMEXE
 40
0.75
  9
$DIMTP
 40
0.0
  9
$DIMTM
 40
0.0
  9
$DIMTXT
 40
3.0
  9
$DIMCEN
 40
2.5
  9
$DIMTSZ
 40
0.0
  9
$DIMTOL
 70
     0
  9
$DIMLIM
 70
     0
  9
$DIMTIH
 70
     0
  9
$DIMTOH
 70
     0
  9
$DIMSE1
 70
     0
  9
$DIMSE2
 70
     0
  9
$DIMTAD
 70
     1
  9
$DIMZIN
 70
     9
  9
$DIMBLK
  1

  9
$DIMASO
 70
     1
  9
$DIMSHO
 70
     1
  9
$DIMPOST
  1

  9
$DIMAPOST
  1

  9
$DIMALT
 70
     0
  9
$DIMALTD
 70
     4
  9
$DIMALTF
 40
0.0394
  9
$DIMLFAC
 40
1.0
  9
$DIMTOFL
 70
     1
  9
$DIMTVP
 40
0.0
  9
$DIMTIX
 70
     0
  9
$DIMSOXD
 70
     0
  9
$DIMSAH
 70
     0
  9
$DIMBLK1
  1

  9
$DIMBLK2
  1

  9
$DIMSTYLE
  2
STANDARD
  9
$DIMCLRD
 70
     0
  9
$DIMCLRE
 70
     0
  9
$DIMCLRT
 70
     7
  9
$DIMTFAC
 40
1.0
  9
$DIMGAP
 40
0.5
  9
$DIMJUST
 70
     0
  9
$DIMSD1
 70
     0
  9
$DIMSD2
 70
     0
  9
$DIMTOLJ
 70
     1
  9
$DIMTZIN
 70
     9
  9
$DIMALTZ
 70
     0
  9
$DIMALTTZ
 70
     0
  9
$DIMUPT
 70
     0
  9
$DIMDEC
 70
     4
  9
$DIMTDEC
 70
     4
  9
$DIMALTU
 70
     8
  9
$DIMALTTD
 70
     4
  9
$DIMTXSTY
  7
STANDARD
  9
$DIMAUNIT
 70
     0
  9
$DIMADEC
 70
     0
  9
$DIMALTRND
 40
0.0
  9
$DIMAZIN
 70
     2
  9
$DIMDSEP
 70
    46
  9
$DIMATFIT
 70
     3
  9
$DIMFRAC
 70
     0
  9
$DIMLDRBLK
  1
OPEN
  9
$DIMLUNIT
 70
     2
  9
$DIMLWD
 70
    -2
  9
$DIMLWE
 70
    -2
  9
$DIMTMOVE
 70
     2
  9
$LUNITS
 70
     2
  9
$LUPREC
 70
     4
  9
$SKETCHINC
 40
1.0
  9
$FILLETRAD
 40
1.0
  9
$AUNITS
 70
     0
  9
$AUPREC
 70
     0
  9
$MENU
  1
.
  9
$ELEVATION
 40
0.0
  9
$PELEVATION
 40
0.0
  9
$THICKNESS
 40
0.0
  9
$LIMCHECK
 70
     0
  9
$CHAMFERA
 40
10.0
  9
$CHAMFERB
 40
10.0
  9
$CHAMFERC
 40
20.0
  9
$CHAMFERD
 40
0.0
  9
$SKPOLY
 70
     0
  9
$TDCREATE
 40
2451224.660162384
  9
$TDUCREATE
 40
2451224.285162384
  9
$TDUPDATE
 40
2457366.484858032
  9
$TDUUPDATE
 40
2457366.109858032
  9
$TDINDWG
 40
1.1152228588
  9
$TDUSRTIMER
 40
2457317.267566805
  9
$USRTIMER
 70
     1
  9
$ANGBASE
 50
0.0
  9
$ANGDIR
 70
     0
  9
$PDMODE
 70
     0
  9
$PDSIZE
 40
0.0
  9
$PLINEWID
 40
0.0
  9
$SPLFRAME
 70
     0
  9
$SPLINETYPE
 70
     6
  9
$SPLINESEGS
 70
     8
  9
$HANDSEED
  5
63FF
  9
$SURFTAB1
 70
     6
  9
$SURFTAB2
 70
     6
  9
$SURFTYPE
 70
     6
  9
$SURFU
 70
     6
  9
$SURFV
 70
     6
  9
$UCSBASE
  2

  9
$UCSNAME
  2

  9
$UCSORG
 10
0.0
 20
0.0
 30
0.0
  9
$UCSXDIR
 10
1.0
 20
0.0
 30
0.0
  9
$UCSYDIR
 10
0.0
 20
1.0
 30
0.0
  9
$UCSORTHOREF
  2

  9
$UCSORTHOVIEW
 70
     0
  9
$UCSORGTOP
 10
0.0
 20
0.0
 30
0.0
  9
$UCSORGBOTTOM
 10
0.0
 20
0.0
 30
0.0
  9
$UCSORGLEFT
 10
0.0
 20
0.0
 30
0.0
  9
$UCSORGRIGHT
 10
0.0
 20
0.0
 30
0.0
  9
$UCSORGFRONT
 10
0.0
 20
0.0
 30
0.0
  9
$UCSORGBACK
 10
0.0
 20
0.0
 30
0.0
  9
$PUCSBASE
  2

  9
$PUCSNAME
  2

  9
$PUCSORG
 10
0.0
 20
0.0
 30
0.0
  9
$PUCSXDIR
 10
1.0
 20
0.0
 30
0.0
  9
$PUCSYDIR
 10
0.0
 20
1.0
 30
0.0
  9
$PUCSORTHOREF
  2

  9
$PUCSORTHOVIEW
 70
     0
  9
$PUCSORGTOP
 10
0.0
 20
0.0
 30
0.0
  9
$PUCSORGBOTTOM
 10
0.0
 20
0.0
 30
0.0
  9
$PUCSORGLEFT
 10
0.0
 20
0.0
 30
0.0
  9
$PUCSORGRIGHT
 10
0.0
 20
0.0
 30
0.0
  9
$PUCSORGFRONT
 10
0.0
 20
0.0
 30
0.0
  9
$PUCSORGBACK
 10
0.0
 20
0.0
 30
0.0
  9
$USERI1
 70
     0
  9
$USERI2
 70
     0
  9
$USERI3
 70
     0
  9
$USERI4
 70
     0
  9
$USERI5
 70
     0
  9
$USERR1
 40
0.0
  9
$USERR2
 40
0.0
  9
$USERR3
 40
0.0
  9
$USERR4
 40
0.0
  9
$USERR5
 40
0.0
  9
$WORLDVIEW
 70
     1
  9
$SHADEDGE
 70
     3
  9
$SHADEDIF
 70
    70
  9
$TILEMODE
 70
     1
  9
$MAXACTVP
 70
    48
  9
$PINSBASE
 10
0.0
 20
0.0
 30
0.0
  9
$PLIMCHECK
 70
     0
  9
$PEXTMIN
 10
40.49999999999999
 20
25.69999999999998
 30
0.0
  9
$PEXTMAX
 10
364.5
 20
231.3
 30
0.0
  9
$PLIMMIN
 10
0.0
 20
0.0
  9
$PLIMMAX
 10
0.0
 20
0.0
  9
$UNITMODE
 70
     0
  9
$VISRETAIN
 70
     1
  9
$PLINEGEN
 70
     0
  9
$PSLTSCALE
 70
     1
  9
$TREEDEPTH
 70
  3020
  9
$CMLSTYLE
  2
STANDARD
  9
$CMLJUST
 70
     0
  9
$CMLSCALE
 40
20.0
  9
$PROXYGRAPHICS
 70
     1
  9
$MEASUREMENT
 70
     1
  9
$CELWEIGHT
370
    -1
  9
$ENDCAPS
280
     0
  9
$JOINSTYLE
280
     0
  9
$LWDISPLAY
290
     0
  9
$INSUNITS
 70
     0
  9
$HYPERLINKBASE
  1

  9
$STYLESHEET
  1

  9
$XEDIT
290
     1
  9
$CEPSNTYPE
380
     0
  9
$PSTYLEMODE
290
     1
  9
$FINGERPRINTGUID
  2
{6B368F64-F7EB-11D4-BFBA-00004C030E53}
  9
$VERSIONGUID
  2
{F52E8C0F-39EB-4775-9CA4-85EE54D46A91}
  9
$EXTNAMES
290
     1
  9
$PSVPSCALE
 40
0.0
  9
$OLESTARTUP
290
     0
  0
ENDSEC
  0
SECTION
  2
CLASSES
  0
CLASS
  1
HATCH
  2
AcDbHatch
  3
AutoCAD 2000
 90
    32768
280
     0
281
     1
  0
CLASS
  1
LWPOLYLINE
  2
AcDbPolyline
  3
AutoCAD 2000
 90
    32768
280
     0
281
     1
  0
CLASS
  1
ACDBDICTIONARYWDFLT
  2
AcDbDictionaryWithDefault
  3
AutoCAD 2000
 90
        0
280
     0
281
     0
  0
CLASS
  1
ACDBPLACEHOLDER
  2
AcDbPlaceHolder
  3
AutoCAD 2000
 90
        0
280
     0
281
     0
  0
CLASS
  1
LAYOUT
  2
AcDbLayout
  3
AutoCAD 2000
 90
        0
280
     0
281
     0
  0
CLASS
  1
VISUALSTYLE
  2
AcDbVisualStyle
  3
ObjectDBX Classes
 90
    36863
280
     0
281
     0
  0
CLASS
  1
SCALE
  2
AcDbScale
  3
ObjectDBX Classes
 90
     1153
280
     0
281
     0
  0
CLASS
  1
MATERIAL
  2
AcDbMaterial
  3
ObjectDBX Classes
 90
    33921
280
     0
281
     0
  0
CLASS
  1
TABLESTYLE
  2
AcDbTableStyle
  3
ObjectDBX Classes
 90
    36863
280
     0
281
     0
  0
CLASS
  1
MLEADERSTYLE
  2
AcDbMLeaderStyle
  3
ACDB_MLEADERSTYLE_CLASS
 90
    36863
280
     0
281
     0
  0
CLASS
  1
SUN
  2
AcDbSun
  3
SCENEOE
 90
     1153
280
     0
281
     0
  0
CLASS
  1
RASTERVARIABLES
  2
AcDbRasterVariables
  3
ISM
 90
        0
280
     0
281
     0
  0
ENDSEC
  0
SECTION
  2
TABLES
  0
TABLE
  2
VPORT
  5
8
330
0
100
AcDbSymbolTable
 70
     2
  0
VPORT
  5
63FE
330
8
100
AcDbSymbolTableRecord
100
AcDbViewportTableRecord
  2
*Active
 70
     0
 10
0.0
 20
0.0
 11
1.0
 21
1.0
 12
271.542501225071
 22
500.7097690230392
 13
0.0
 23
0.0
 14
10.0
 24
10.0
 15
10.0
 25
10.0
 16
0.0
 26
0.0
 36
1.0
 17
0.0
 27
0.0
 37
0.0
 40
513.8126336476959
 41
1.562182741116751
 42
50.0
 43
0.0
 44
0.0
 50
0.0
 51
0.0
 71
    16
 72
   100
 73
     1
 74
     0
 75
     0
 76
     0
 77
     0
 78
     0
281
     0
 65
     1
110
0.0
120
0.0
130
0.0
111
1.0
121
0.0
131
0.0
112
0.0
122
1.0
132
0.0
 79
     0
146
0.0
  0
ENDTAB
  0
TABLE
  2
LTYPE
  5
5
330
0
100
AcDbSymbolTable
 70
     1
  0
LTYPE
  5
12
330
5
100
AcDbSymbolTableRecord
100
AcDbLinetypeTableRecord
  2
BYBLOCK
 70
     0
  3

 72
    65
 73
     0
 40
0.0
  0
LTYPE
  5
13
330
5
100
AcDbSymbolTableRecord
100
AcDbLinetypeTableRecord
  2
BYLAYER
 70
     0
  3

 72
    65
 73
     0
 40
0.0
  0
LTYPE
  5
14
330
5
100
AcDbSymbolTableRecord
100
AcDbLinetypeTableRecord
  2
CONTINUOUS
 70
     0
  3
Solid line
 72
    65
 73
     0
 40
0.0
  0
ENDTAB
  0
TABLE
  2
LAYER
  5
2
330
0
100
AcDbSymbolTable
 70
     1
  0
LAYER
  5
E
330
2
100
AcDbSymbolTableRecord
100
AcDbLayerTableRecord
  2
0
 70
     2
 62
     7
  6
CONTINUOUS
370
    -3
390
73E
  0
ENDTAB
  0
TABLE
  2
STYLE
  5
3
330
0
100
AcDbSymbolTable
 70
     3
  0
STYLE
  5
F
330
3
100
AcDbSymbolTableRecord
100
AcDbTextStyleTableRecord
  2
STANDARD
 70
     0
 40
0.0
 41
1.0
 50
0.0
 71
     0
 42
2.5
  3
isocp.shx
  4
bigfont.shx
  0
STYLE
  5
35
330
3
100
AcDbSymbolTableRecord
100
AcDbTextStyleTableRecord
  2
MSｺﾞｼｯｸ
 70
     0
 40
0.0
 41
1.0
 50
0.0
 71
     0
 42
5.0
  3
MS Gothic.ttf
  4

1001
ACAD
1000
MS Gothic
1071
    32817
  0
STYLE
  5
9DE
330
3
100
AcDbSymbolTableRecord
100
AcDbTextStyleTableRecord
  2
STYLE4
 70
     0
 40
5.0
 41
1.0
 50
0.0
 71
     0
 42
3.0
  3

  4

1001
ACAD
1000
@ＨＧｺﾞｼｯｸE-PRO
1071
 33587250
  0
ENDTAB
  0
TABLE
  2
VIEW
  5
6
330
0
100
AcDbSymbolTable
 70
     0
  0
ENDTAB
  0
TABLE
  2
UCS
  5
7
330
0
100
AcDbSymbolTable
 70
     0
  0
ENDTAB
  0
TABLE
  2
APPID
  5
9
330
0
100
AcDbSymbolTable
 70
     2
  0
APPID
  5
10
330
9
100
AcDbSymbolTableRecord
100
AcDbRegAppTableRecord
  2
ACAD
 70
     0
  0
APPID
  5
63F6
330
9
100
AcDbSymbolTableRecord
100
AcDbRegAppTableRecord
  2
PLOTTRANSPARENCY
 70
     0
  0
ENDTAB
  0
TABLE
  2
DIMSTYLE
  5
A
330
0
100
AcDbSymbolTable
 70
     1
100
AcDbDimStyleTable
 71
     0
  0
DIMSTYLE
105
1D
330
A
100
AcDbSymbolTableRecord
100
AcDbDimStyleTableRecord
  2
STANDARD
 70
     0
 78
     8
 79
     2
140
3.0
340
F
341
89E
342
89E
  0
ENDTAB
  0
TABLE
  2
BLOCK_RECORD
  5
1
330
0
100
AcDbSymbolTable
 70
     9
  0
BLOCK_RECORD
  5
18
330
1
100
AcDbSymbolTableRecord
100
AcDbBlockTableRecord
  2
*MODEL_SPACE
340
741
  0
BLOCK_RECORD
  5
63ED
330
1
100
AcDbSymbolTableRecord
100
AcDbBlockTableRecord
  2
*Paper_Space
340
63EE
  0
BLOCK_RECORD
  5
24
330
1
100
AcDbSymbolTableRecord
100
AcDbBlockTableRecord
  2
_OPEN
340
0
  0
BLOCK_RECORD
  5
89E
330
1
100
AcDbSymbolTableRecord
100
AcDbBlockTableRecord
  2
_Open30
340
0
  0
BLOCK_RECORD
  5
8DE
330
1
100
AcDbSymbolTableRecord
100
AcDbBlockTableRecord
  2
A$C444F17A9
340
0
102
{BLKREFS
331
2D6D
102
}
  0
BLOCK_RECORD
  5
8EA
330
1
100
AcDbSymbolTableRecord
100
AcDbBlockTableRecord
  2
A$C6C1277F2
340
0
102
{BLKREFS
331
2D66
102
}
  0
BLOCK_RECORD
  5
917
330
1
100
AcDbSymbolTableRecord
100
AcDbBlockTableRecord
  2
A$C2F696F30
340
0
102
{BLKREFS
331
2D68
102
}
  0
BLOCK_RECORD
  5
92F
330
1
100
AcDbSymbolTableRecord
100
AcDbBlockTableRecord
  2
A$C57095CDF
340
0
102
{BLKREFS
331
29C7
102
}
  0
BLOCK_RECORD
  5
962
330
1
100
AcDbSymbolTableRecord
100
AcDbBlockTableRecord
  2
A$C3A6E1F00
340
0
102
{BLKREFS
331
2AA8
102
}
  0
BLOCK_RECORD
  5
6118
330
1
100
AcDbSymbolTableRecord
100
AcDbBlockTableRecord
  2
MC_1_5-2-STF-3_81__6
340
0
102
{BLKREFS
331
61DA
102
}
  0
BLOCK_RECORD
  5
61D9
330
1
100
AcDbSymbolTableRecord
100
AcDbBlockTableRecord
  2
VORDANS1
340
0
102
{BLKREFS
331
61FE
102
}
  0
ENDTAB
  0
ENDSEC
  0
SECTION
  2
BLOCKS
  0
BLOCK
  5
19
330
18
100
AcDbEntity
  8
0
100
AcDbBlockBegin
  2
*MODEL_SPACE
 70
     0
 10
0.0
 20
0.0
 30
0.0
  3
*MODEL_SPACE
  1

  0
ENDBLK
  5
1A
330
18
100
AcDbEntity
  8
0
100
AcDbBlockEnd
  0
BLOCK
  5
63EF
330
63ED
100
AcDbEntity
 67
     1
  8
0
100
AcDbBlockBegin
  2
*Paper_Space
 70
     0
 10
0.0
 20
0.0
 30
0.0
  3
*Paper_Space
  1

  0
ENDBLK
  5
63F0
330
63ED
100
AcDbEntity
 67
     1
  8
0
100
AcDbBlockEnd
  0
BLOCK
  5
25
330
24
100
AcDbEntity
  8
0
100
AcDbBlockBegin
  2
_OPEN
 70
     0
 10
0.0
 20
0.0
 30
0.0
  3
_OPEN
  1

  0
LINE
  5
26
330
24
100
AcDbEntity
  8
0
  6
ByBlock
 62
     0
100
AcDbLine
 10
-1.0
 20
0.1666666666666666
 30
0.0
 11
0.0
 21
0.0
 31
0.0
  0
LINE
  5
27
330
24
100
AcDbEntity
  8
0
  6
ByBlock
 62
     0
100
AcDbLine
 10
0.0
 20
0.0
 30
0.0
 11
-1.0
 21
-0.1666666666666666
 31
0.0
  0
LINE
  5
28
330
24
100
AcDbEntity
  8
0
  6
ByBlock
 62
     0
100
AcDbLine
 10
0.0
 20
0.0
 30
0.0
 11
-1.0
 21
0.0
 31
0.0
  0
ENDBLK
  5
29
330
24
100
AcDbEntity
  8
0
100
AcDbBlockEnd
  0
BLOCK
  5
8A2
330
89E
100
AcDbEntity
  8
0
100
AcDbBlockBegin
  2
_Open30
 70
     0
 10
0.0
 20
0.0
 30
0.0
  3
_Open30
  1

  0
LINE
  5
89F
330
89E
100
AcDbEntity
  8
0
  6
ByBlock
 62
     0
370
    -2
100
AcDbLine
 10
-1.0
 20
0.26794919
 30
0.0
 11
0.0
 21
0.0
 31
0.0
  0
LINE
  5
8A0
330
89E
100
AcDbEntity
  8
0
  6
ByBlock
 62
     0
370
    -2
100
AcDbLine
 10
0.0
 20
0.0
 30
0.0
 11
-1.0
 21
-0.26794919
 31
0.0
  0
LINE
  5
8A1
330
89E
100
AcDbEntity
  8
0
  6
ByBlock
 62
     0
370
    -2
100
AcDbLine
 10
0.0
 20
0.0
 30
0.0
 11
-1.0
 21
0.0
 31
0.0
  0
ENDBLK
  5
8A3
330
89E
100
AcDbEntity
  8
0
100
AcDbBlockEnd
  0
BLOCK
  5
8E8
330
8DE
100
AcDbEntity
  8
0
100
AcDbBlockBegin
  2
A$C444F17A9
 70
     0
 10
0.0
 20
0.0
 30
0.0
  3
A$C444F17A9
  1

  0
LWPOLYLINE
  5
8DF
330
8DE
100
AcDbEntity
  8
0
100
AcDbPolyline
 90
        4
 70
     1
 43
0.2
 10
0.1000006076973037
 20
13.1000004860266
 10
7.625000607697302
 20
13.1000004860266
 10
7.625000607697302
 20
0.1000004860266017
 10
0.1000006076973037
 20
0.1000004860266017
  0
ELLIPSE
  5
8E0
330
8DE
100
AcDbEntity
  8
0
100
AcDbEllipse
 10
6.125000607697302
 20
3.07500048602651
 30
0.0
 11
0.5
 21
0.0
 31
0.0
210
0.0
220
0.0
230
1.0
 40
0.95
 41
0.0
 42
6.283184999999999
  0
LWPOLYLINE
  5
8E1
330
8DE
100
AcDbEntity
  8
0
100
AcDbPolyline
 90
        6
 70
     1
 43
0.2
 10
2.175000607697299
 20
3.525000486026556
 10
1.725000607697296
 20
3.100000486026601
 10
2.175000607697299
 20
2.70000048602651
 10
4.275000607697307
 20
2.70000048602651
 10
4.700000607697305
 20
3.100000486026601
 10
4.275000607697307
 20
3.525000486026556
  0
LWPOLYLINE
  5
8E2
330
8DE
100
AcDbEntity
  8
0
100
AcDbPolyline
 90
        6
 70
     1
 43
0.2
 10
3.250000607697302
 20
10.80000048602664
 10
2.825000607697305
 20
10.42500048602664
 10
3.250000607697302
 20
10.00000048602669
 10
5.375000607697302
 20
10.00000048602669
 10
5.775000607697307
 20
10.42500048602664
 10
5.375000607697302
 20
10.80000048602664
  0
LWPOLYLINE
  5
8E3
330
8DE
100
AcDbEntity
  8
0
100
AcDbPolyline
 90
        6
 70
     1
 43
0.2
 10
5.525000607697307
 20
6.70000048602651
 10
5.125000607697302
 20
6.275000486026556
 10
4.700000607697305
 20
3.500000486026692
 10
5.125000607697302
 20
3.100000486026601
 10
5.525000607697307
 20
3.500000486026692
 10
5.975000607697296
 20
6.275000486026556
  0
LWPOLYLINE
  5
8E4
330
8DE
100
AcDbEntity
  8
0
100
AcDbPolyline
 90
        6
 70
     1
 43
0.2
 10
6.100000607697296
 20
10.42500048602664
 10
5.675000607697299
 20
10.02500048602655
 10
5.275000607697307
 20
7.225000486026601
 10
5.675000607697299
 20
6.82500048602651
 10
6.100000607697296
 20
7.225000486026601
 10
6.525000607697307
 20
10.02500048602655
  0
LWPOLYLINE
  5
8E5
330
8DE
100
AcDbEntity
  8
0
100
AcDbPolyline
 90
        6
 70
     1
 43
0.2
 10
1.875000607697302
 20
6.70000048602651
 10
1.450000607697305
 20
6.275000486026556
 10
1.050000607697299
 20
3.500000486026692
 10
1.450000607697305
 20
3.100000486026601
 10
1.875000607697302
 20
3.500000486026692
 10
2.300000607697299
 20
6.275000486026556
  0
LWPOLYLINE
  5
8E6
330
8DE
100
AcDbEntity
  8
0
100
AcDbPolyline
 90
        6
 70
     1
 43
0.2
 10
2.725000607697296
 20
7.225000486026601
 10
2.275000607697307
 20
6.82500048602651
 10
2.725000607697296
 20
6.425000486026647
 10
4.825000607697305
 20
6.425000486026647
 10
5.225000607697296
 20
6.82500048602651
 10
4.825000607697305
 20
7.225000486026601
  0
LWPOLYLINE
  5
8E7
330
8DE
100
AcDbEntity
  8
0
100
AcDbPolyline
 90
        6
 70
     1
 43
0.2
 10
2.425000607697299
 20
10.42500048602664
 10
2.025000607697307
 20
10.02500048602655
 10
1.600000607697296
 20
7.225000486026601
 10
2.025000607697307
 20
6.82500048602651
 10
2.425000607697299
 20
7.225000486026601
 10
2.875000607697302
 20
10.02500048602655
  0
ENDBLK
  5
8E9
330
8DE
100
AcDbEntity
  8
0
100
AcDbBlockEnd
  0
BLOCK
  5
915
330
8EA
100
AcDbEntity
  8
0
100
AcDbBlockBegin
  2
A$C6C1277F2
 70
     0
 10
0.0
 20
0.0
 30
0.0
  3
A$C6C1277F2
  1

  0
ELLIPSE
  5
8EB
330
8EA
100
AcDbEntity
  8
0
100
AcDbEllipse
 10
4.724999973973268
 20
26.39999951743493
 30
0.0
 11
0.0
 21
0.775
 31
0.0
210
0.0
220
0.0
230
1.0
 40
0.9677419999999999
 41
0.0
 42
6.283184999999999
  0
LWPOLYLINE
  5
8EC
330
8EA
100
AcDbEntity
  8
0
100
AcDbPolyline
 90
        4
 70
     1
 43
0.2
 10
0.0999999739732616
 20
28.77499951743493
 10
0.0999999739732616
 20
0.0999995174349806
 10
9.324999973973262
 20
0.0999995174349806
 10
9.324999973973262
 20
28.77499951743493
  0
ELLIPSE
  5
8ED
330
8EA
100
AcDbEntity
  8
0
100
AcDbEllipse
 10
4.724999973973268
 20
3.399999517434935
 30
0.0
 11
0.0
 21
0.775
 31
0.0
210
0.0
220
0.0
230
1.0
 40
0.9677419999999999
 41
0.0
 42
6.283184999999999
  0
LINE
  5
8EE
330
8EA
100
AcDbEntity
  8
0
100
AcDbLine
 10
0.8999999739732658
 20
4.299999517435026
 30
0.0
 11
0.8999999739732658
 21
6.374999517434844
 31
0.0
  0
LINE
  5
8EF
330
8EA
100
AcDbEntity
  8
0
100
AcDbLine
 10
8.524999973973265
 20
4.299999517435026
 30
0.0
 11
8.524999973973265
 21
6.374999517434844
 31
0.0
  0
LINE
  5
8F0
330
8EA
100
AcDbEntity
  8
0
100
AcDbLine
 10
6.599999973973268
 20
4.274999517434935
 30
0.0
 11
6.599999973973268
 21
5.249999517434844
 31
0.0
  0
LINE
  5
8F1
330
8EA
100
AcDbEntity
  8
0
100
AcDbLine
 10
6.599999973973268
 20
5.274999517434935
 30
0.0
 11
3.024999973973265
 21
5.274999517434935
 31
0.0
  0
LINE
  5
8F2
330
8EA
100
AcDbEntity
  8
0
100
AcDbLine
 10
3.024999973973265
 20
4.299999517435026
 30
0.0
 11
3.024999973973265
 21
5.274999517434935
 31
0.0
  0
LINE
  5
8F3
330
8EA
100
AcDbEntity
  8
0
100
AcDbLine
 10
3.024999973973265
 20
4.299999517435026
 30
0.0
 11
0.8999999739732658
 21
4.299999517435026
 31
0.0
  0
LINE
  5
8F4
330
8EA
100
AcDbEntity
  8
0
100
AcDbLine
 10
8.524999973973265
 20
4.299999517435026
 30
0.0
 11
6.599999973973268
 21
4.299999517435026
 31
0.0
  0
LINE
  5
8F5
330
8EA
100
AcDbEntity
  8
0
100
AcDbLine
 10
8.524999973973265
 20
6.374999517434844
 30
0.0
 11
0.8999999739732658
 21
6.374999517434844
 31
0.0
  0
LINE
  5
8F6
330
8EA
100
AcDbEntity
  8
0
100
AcDbLine
 10
0.8999999739732658
 20
25.17499951743502
 30
0.0
 11
0.8999999739732658
 21
23.09999951743498
 31
0.0
  0
LINE
  5
8F7
330
8EA
100
AcDbEntity
  8
0
100
AcDbLine
 10
8.524999973973265
 20
25.17499951743502
 30
0.0
 11
8.524999973973265
 21
23.09999951743498
 31
0.0
  0
LINE
  5
8F8
330
8EA
100
AcDbEntity
  8
0
100
AcDbLine
 10
6.599999973973268
 20
25.19999951743489
 30
0.0
 11
6.599999973973268
 21
24.22499951743498
 31
0.0
  0
LINE
  5
8F9
330
8EA
100
AcDbEntity
  8
0
100
AcDbLine
 10
6.599999973973268
 20
24.19999951743489
 30
0.0
 11
3.024999973973265
 21
24.19999951743489
 31
0.0
  0
LINE
  5
8FA
330
8EA
100
AcDbEntity
  8
0
100
AcDbLine
 10
3.024999973973265
 20
25.17499951743502
 30
0.0
 11
3.024999973973265
 21
24.19999951743489
 31
0.0
  0
LINE
  5
8FB
330
8EA
100
AcDbEntity
  8
0
100
AcDbLine
 10
3.024999973973265
 20
25.17499951743502
 30
0.0
 11
0.8999999739732658
 21
25.17499951743502
 31
0.0
  0
LINE
  5
8FC
330
8EA
100
AcDbEntity
  8
0
100
AcDbLine
 10
8.524999973973265
 20
25.17499951743502
 30
0.0
 11
6.599999973973268
 21
25.17499951743502
 31
0.0
  0
LWPOLYLINE
  5
8FD
330
8EA
100
AcDbEntity
  8
0
100
AcDbPolyline
 90
        4
 70
     1
 43
0.0
 10
3.474999973973268
 20
11.29999951743502
 10
3.12499997397326
 20
11.29999951743502
 10
3.12499997397326
 20
10.32499951743488
 10
3.474999973973268
 20
10.32499951743488
  0
LWPOLYLINE
  5
8FE
330
8EA
100
AcDbEntity
  8
0
100
AcDbPolyline
 90
        4
 70
     1
 43
0.0
 10
3.474999973973268
 20
12.47499951743498
 10
3.12499997397326
 20
12.47499951743498
 10
3.12499997397326
 20
11.49999951743484
 10
3.474999973973268
 20
11.49999951743484
  0
LWPOLYLINE
  5
8FF
330
8EA
100
AcDbEntity
  8
0
100
AcDbPolyline
 90
        4
 70
     1
 43
0.0
 10
3.474999973973268
 20
13.74999951743484
 10
3.12499997397326
 20
13.74999951743484
 10
3.12499997397326
 20
12.77499951743493
 10
3.474999973973268
 20
12.77499951743493
  0
LWPOLYLINE
  5
900
330
8EA
100
AcDbEntity
  8
0
100
AcDbPolyline
 90
        4
 70
     1
 43
0.0
 10
3.474999973973268
 20
15.07499951743489
 10
3.12499997397326
 20
15.07499951743489
 10
3.12499997397326
 20
14.12499951743484
 10
3.474999973973268
 20
14.12499951743484
  0
LWPOLYLINE
  5
901
330
8EA
100
AcDbEntity
  8
0
100
AcDbPolyline
 90
        4
 70
     1
 43
0.0
 10
3.474999973973268
 20
16.34999951743498
 10
3.12499997397326
 20
16.34999951743498
 10
3.12499997397326
 20
15.37499951743484
 10
3.474999973973268
 20
15.37499951743484
  0
LWPOLYLINE
  5
902
330
8EA
100
AcDbEntity
  8
0
100
AcDbPolyline
 90
        4
 70
     1
 43
0.0
 10
3.474999973973268
 20
17.57499951743489
 10
3.12499997397326
 20
17.57499951743489
 10
3.12499997397326
 20
16.59999951743498
 10
3.474999973973268
 20
16.59999951743498
  0
LWPOLYLINE
  5
903
330
8EA
100
AcDbEntity
  8
0
100
AcDbPolyline
 90
        4
 70
     1
 43
0.0
 10
3.474999973973268
 20
18.84999951743498
 10
3.12499997397326
 20
18.84999951743498
 10
3.12499997397326
 20
17.84999951743498
 10
3.474999973973268
 20
17.84999951743498
  0
LWPOLYLINE
  5
904
330
8EA
100
AcDbEntity
  8
0
100
AcDbPolyline
 90
        4
 70
     1
 43
0.0
 10
6.24999997397326
 20
11.29999951743502
 10
5.899999973973265
 20
11.29999951743502
 10
5.899999973973265
 20
10.32499951743488
 10
6.24999997397326
 20
10.32499951743488
  0
LWPOLYLINE
  5
905
330
8EA
100
AcDbEntity
  8
0
100
AcDbPolyline
 90
        4
 70
     1
 43
0.0
 10
6.24999997397326
 20
12.47499951743498
 10
5.899999973973265
 20
12.47499951743498
 10
5.899999973973265
 20
11.49999951743484
 10
6.24999997397326
 20
11.49999951743484
  0
LWPOLYLINE
  5
906
330
8EA
100
AcDbEntity
  8
0
100
AcDbPolyline
 90
        4
 70
     1
 43
0.0
 10
6.24999997397326
 20
13.74999951743484
 10
5.899999973973265
 20
13.74999951743484
 10
5.899999973973265
 20
12.77499951743493
 10
6.24999997397326
 20
12.77499951743493
  0
LWPOLYLINE
  5
907
330
8EA
100
AcDbEntity
  8
0
100
AcDbPolyline
 90
        4
 70
     1
 43
0.0
 10
6.24999997397326
 20
15.07499951743489
 10
5.899999973973265
 20
15.07499951743489
 10
5.899999973973265
 20
14.12499951743484
 10
6.24999997397326
 20
14.12499951743484
  0
LWPOLYLINE
  5
908
330
8EA
100
AcDbEntity
  8
0
100
AcDbPolyline
 90
        4
 70
     1
 43
0.0
 10
6.24999997397326
 20
16.34999951743498
 10
5.899999973973265
 20
16.34999951743498
 10
5.899999973973265
 20
15.37499951743484
 10
6.24999997397326
 20
15.37499951743484
  0
LWPOLYLINE
  5
909
330
8EA
100
AcDbEntity
  8
0
100
AcDbPolyline
 90
        4
 70
     1
 43
0.0
 10
6.24999997397326
 20
17.57499951743489
 10
5.899999973973265
 20
17.57499951743489
 10
5.899999973973265
 20
16.59999951743498
 10
6.24999997397326
 20
16.59999951743498
  0
LWPOLYLINE
  5
90A
330
8EA
100
AcDbEntity
  8
0
100
AcDbPolyline
 90
        4
 70
     1
 43
0.0
 10
6.24999997397326
 20
18.84999951743498
 10
5.899999973973265
 20
18.84999951743498
 10
5.899999973973265
 20
17.84999951743498
 10
6.24999997397326
 20
17.84999951743498
  0
LWPOLYLINE
  5
90B
330
8EA
100
AcDbEntity
  8
0
100
AcDbPolyline
 90
        4
 70
     1
 43
0.0
 10
6.599999973973268
 20
19.69999951743488
 10
2.899999973973265
 20
19.69999951743488
 10
2.899999973973265
 20
9.47499951743498
 10
6.599999973973268
 20
9.47499951743498
  0
ELLIPSE
  5
90C
330
8EA
100
AcDbEntity
  8
0
100
AcDbEllipse
 10
6.549999973973257
 20
10.02499951743493
 30
0.0
 11
0.0
 21
1.25
 31
0.0
210
0.0
220
0.0
230
1.0
 40
0.98
 41
3.380894
 42
4.528311
  0
ELLIPSE
  5
90D
330
8EA
100
AcDbEntity
  8
0
100
AcDbEllipse
 10
6.549999973973257
 20
19.37499951743484
 30
0.0
 11
0.0
 21
1.25
 31
0.0
210
0.0
220
0.0
230
1.0
 40
0.98
 41
4.509903999999999
 42
6.059223999999999
  0
ELLIPSE
  5
90E
330
8EA
100
AcDbEntity
  8
0
100
AcDbEllipse
 10
2.87499997397326
 20
9.049999517435026
 30
0.0
 11
0.0
 21
1.25
 31
0.0
210
0.0
220
0.0
230
1.0
 40
0.98
 41
1.708854999999999
 42
3.380894
  0
ELLIPSE
  5
90F
330
8EA
100
AcDbEntity
  8
0
100
AcDbEllipse
 10
2.87499997397326
 20
20.29999951743502
 30
0.0
 11
0.0
 21
1.25
 31
0.0
210
0.0
220
0.0
230
1.0
 40
0.98
 41
6.03468
 42
8.053399307179585
  0
LINE
  5
910
330
8EA
100
AcDbEntity
  8
0
100
AcDbLine
 10
6.849999973973268
 20
20.54999951743502
 30
0.0
 11
3.149999973973265
 21
21.47499951743498
 31
0.0
  0
LINE
  5
911
330
8EA
100
AcDbEntity
  8
0
100
AcDbLine
 10
7.774999973973265
 20
10.02499951743493
 30
0.0
 11
7.774999973973265
 21
19.37499951743484
 31
0.0
  0
LINE
  5
912
330
8EA
100
AcDbEntity
  8
0
100
AcDbLine
 10
3.149999973973265
 20
7.799999517435026
 30
0.0
 11
6.849999973973268
 21
8.774999517434935
 31
0.0
  0
LINE
  5
913
330
8EA
100
AcDbEntity
  8
0
100
AcDbLine
 10
1.649999973973265
 20
20.29999951743502
 30
0.0
 11
1.649999973973265
 21
8.949999517434889
 31
0.0
  0
LINE
  5
914
330
8EA
100
AcDbEntity
  8
0
100
AcDbLine
 10
8.524999973973265
 20
23.09999951743498
 30
0.0
 11
0.8999999739732658
 21
23.09999951743498
 31
0.0
  0
ENDBLK
  5
916
330
8EA
100
AcDbEntity
  8
0
100
AcDbBlockEnd
  0
BLOCK
  5
92D
330
917
100
AcDbEntity
  8
0
100
AcDbBlockBegin
  2
A$C2F696F30
 70
     0
 10
0.0
 20
0.0
 30
0.0
  3
A$C2F696F30
  1

  0
LINE
  5
918
330
917
100
AcDbEntity
  8
0
100
AcDbLine
 10
1.400000765164122
 20
-0.0000001933823341
 30
0.0
 11
5.400000765164122
 21
-0.0000001933823341
 31
0.0
  0
LINE
  5
919
330
917
100
AcDbEntity
  8
0
100
AcDbLine
 10
1.400000765164122
 20
13.77499980661764
 30
0.0
 11
5.400000765164122
 21
13.77499980661764
 31
0.0
  0
LWPOLYLINE
  5
91A
330
917
100
AcDbEntity
  8
0
100
AcDbPolyline
 90
        4
 70
     1
 43
0.2
 10
15.40000076516412
 20
13.34999980661768
 10
15.40000076516412
 20
0.3499998066176886
 10
0.4000007651641227
 20
0.3499998066176886
 10
0.4000007651641227
 20
13.34999980661768
  0
LWPOLYLINE
  5
91B
330
917
100
AcDbEntity
  8
0
100
AcDbPolyline
 90
        4
 70
     1
 43
0.2
 10
1.400000765164122
 20
12.34999980661768
 10
3.400000765164122
 20
12.34999980661768
 10
3.400000765164122
 20
1.349999806617688
 10
1.400000765164122
 20
1.349999806617688
  0
LWPOLYLINE
  5
91C
330
917
100
AcDbEntity
  8
0
100
AcDbPolyline
 90
        4
 70
     1
 43
0.2
 10
3.950000765164119
 20
3.349999806617688
 10
3.950000765164119
 20
2.349999806617688
 10
3.400000765164122
 20
2.349999806617688
 10
3.400000765164122
 20
3.349999806617688
  0
LWPOLYLINE
  5
91D
330
917
100
AcDbEntity
  8
0
100
AcDbPolyline
 90
        4
 70
     1
 43
0.2
 10
3.950000765164119
 20
5.749999806617665
 10
3.950000765164119
 20
4.749999806617665
 10
3.400000765164122
 20
4.749999806617665
 10
3.400000765164122
 20
5.749999806617665
  0
LINE
  5
91E
330
917
100
AcDbEntity
  8
0
100
AcDbLine
 10
0.0000007651641241
 20
1.349999806617688
 30
0.0
 11
0.0000007651641241
 21
5.349999806617688
 31
0.0
  0
LWPOLYLINE
  5
91F
330
917
100
AcDbEntity
  8
0
100
AcDbPolyline
 90
        4
 70
     1
 43
0.2
 10
3.950000765164119
 20
8.949999806617711
 10
3.950000765164119
 20
7.949999806617711
 10
3.400000765164122
 20
7.949999806617711
 10
3.400000765164122
 20
8.949999806617711
  0
LWPOLYLINE
  5
920
330
917
100
AcDbEntity
  8
0
100
AcDbPolyline
 90
        4
 70
     1
 43
0.2
 10
3.950000765164119
 20
11.34999980661768
 10
3.950000765164119
 20
10.34999980661768
 10
3.400000765164122
 20
10.34999980661768
 10
3.400000765164122
 20
11.34999980661768
  0
LINE
  5
921
330
917
100
AcDbEntity
  8
0
100
AcDbLine
 10
0.0000007651641241
 20
12.34999980661768
 30
0.0
 11
0.0000007651641241
 21
8.349999806617688
 31
0.0
  0
LWPOLYLINE
  5
922
330
917
100
AcDbEntity
  8
0
100
AcDbPolyline
 90
        4
 70
     1
 43
0.2
 10
10.40000076516412
 20
12.34999980661768
 10
12.40000076516412
 20
12.34999980661768
 10
12.40000076516412
 20
1.349999806617688
 10
10.40000076516412
 20
1.349999806617688
  0
LINE
  5
923
330
917
100
AcDbEntity
  8
0
100
AcDbLine
 10
9.400000765164122
 20
13.34999980661768
 30
0.0
 11
9.400000765164122
 21
0.3499998066176886
 31
0.0
  0
LINE
  5
924
330
917
100
AcDbEntity
  8
0
100
AcDbLine
 10
6.400000765164122
 20
13.34999980661768
 30
0.0
 11
6.400000765164122
 21
0.3499998066176886
 31
0.0
  0
LWPOLYLINE
  5
925
330
917
100
AcDbEntity
  8
0
100
AcDbPolyline
 90
        4
 70
     1
 43
0.2
 10
12.95000076516412
 20
3.349999806617688
 10
12.95000076516412
 20
2.349999806617688
 10
12.40000076516412
 20
2.349999806617688
 10
12.40000076516412
 20
3.349999806617688
  0
LWPOLYLINE
  5
926
330
917
100
AcDbEntity
  8
0
100
AcDbPolyline
 90
        4
 70
     1
 43
0.2
 10
12.95000076516412
 20
5.749999806617665
 10
12.95000076516412
 20
4.749999806617665
 10
12.40000076516412
 20
4.749999806617665
 10
12.40000076516412
 20
5.749999806617665
  0
LINE
  5
927
330
917
100
AcDbEntity
  8
0
100
AcDbLine
 10
14.40000076516412
 20
-0.0000001933823341
 30
0.0
 11
10.40000076516412
 21
-0.0000001933823341
 31
0.0
  0
LINE
  5
928
330
917
100
AcDbEntity
  8
0
100
AcDbLine
 10
15.80000076516412
 20
1.349999806617688
 30
0.0
 11
15.80000076516412
 21
5.349999806617688
 31
0.0
  0
LWPOLYLINE
  5
929
330
917
100
AcDbEntity
  8
0
100
AcDbPolyline
 90
        4
 70
     1
 43
0.2
 10
12.95000076516412
 20
8.949999806617711
 10
12.95000076516412
 20
7.949999806617711
 10
12.40000076516412
 20
7.949999806617711
 10
12.40000076516412
 20
8.949999806617711
  0
LWPOLYLINE
  5
92A
330
917
100
AcDbEntity
  8
0
100
AcDbPolyline
 90
        4
 70
     1
 43
0.2
 10
12.95000076516412
 20
11.34999980661768
 10
12.95000076516412
 20
10.34999980661768
 10
12.40000076516412
 20
10.34999980661768
 10
12.40000076516412
 20
11.34999980661768
  0
LINE
  5
92B
330
917
100
AcDbEntity
  8
0
100
AcDbLine
 10
14.40000076516412
 20
13.77499980661764
 30
0.0
 11
10.40000076516412
 21
13.77499980661764
 31
0.0
  0
LINE
  5
92C
330
917
100
AcDbEntity
  8
0
100
AcDbLine
 10
15.80000076516412
 20
12.34999980661768
 30
0.0
 11
15.80000076516412
 21
8.349999806617688
 31
0.0
  0
ENDBLK
  5
92E
330
917
100
AcDbEntity
  8
0
100
AcDbBlockEnd
  0
BLOCK
  5
960
330
92F
100
AcDbEntity
  8
0
100
AcDbBlockBegin
  2
A$C57095CDF
 70
     0
 10
0.0
 20
0.0
 30
0.0
  3
A$C57095CDF
  1

  0
LWPOLYLINE
  5
930
330
92F
100
AcDbEntity
  8
0
100
AcDbPolyline
 90
        4
 70
     1
 43
0.0
 10
3.474999973973268
 20
16.69999991295117
 10
3.12499997397326
 20
16.69999991295117
 10
3.12499997397326
 20
15.72499991295103
 10
3.474999973973268
 20
15.72499991295103
  0
LWPOLYLINE
  5
931
330
92F
100
AcDbEntity
  8
0
100
AcDbPolyline
 90
        4
 70
     1
 43
0.0
 10
6.24999997397326
 20
16.69999991295117
 10
5.899999973973265
 20
16.69999991295117
 10
5.899999973973265
 20
15.72499991295103
 10
6.24999997397326
 20
15.72499991295103
  0
LWPOLYLINE
  5
932
330
92F
100
AcDbEntity
  8
0
100
AcDbPolyline
 90
        4
 70
     1
 43
0.0
 10
6.599999973973268
 20
24.09999991295103
 10
2.899999973973265
 20
24.09999991295103
 10
2.899999973973265
 20
9.94999991295117
 10
6.599999973973268
 20
9.94999991295117
  0
LINE
  5
933
330
92F
100
AcDbEntity
  8
0
100
AcDbLine
 10
7.774999973973265
 20
9.899999912950988
 30
0.0
 11
7.774999973973265
 21
24.02499991295099
 31
0.0
  0
LINE
  5
934
330
92F
100
AcDbEntity
  8
0
100
AcDbLine
 10
1.649999973973265
 20
24.94999991295117
 30
0.0
 11
1.649999973973265
 21
8.849999912951034
 31
0.0
  0
LWPOLYLINE
  5
935
330
92F
100
AcDbEntity
  8
0
100
AcDbPolyline
 90
        4
 70
     1
 43
0.2
 10
0.0999999739732616
 20
33.42499991295108
 10
0.0999999739732616
 20
0.0999999129510343
 10
9.324999973973262
 20
0.0999999129510343
 10
9.324999973973262
 20
33.42499991295108
  0
LWPOLYLINE
  5
936
330
92F
100
AcDbEntity
  8
0
100
AcDbPolyline
 90
        4
 70
     1
 43
0.0
 10
3.449999973973262
 20
11.87499991295112
 10
3.099999973973261
 20
11.87499991295112
 10
3.099999973973261
 20
10.89999991295098
 10
3.449999973973262
 20
10.89999991295098
  0
LWPOLYLINE
  5
937
330
92F
100
AcDbEntity
  8
0
100
AcDbPolyline
 90
        4
 70
     1
 43
0.0
 10
6.224999973973268
 20
11.87499991295112
 10
5.87499997397326
 20
11.87499991295112
 10
5.87499997397326
 20
10.89999991295098
 10
6.224999973973268
 20
10.89999991295098
  0
LWPOLYLINE
  5
938
330
92F
100
AcDbEntity
  8
0
100
AcDbPolyline
 90
        4
 70
     1
 43
0.0
 10
3.449999973973262
 20
13.07499991295117
 10
3.099999973973261
 20
13.07499991295117
 10
3.099999973973261
 20
12.09999991295103
 10
3.449999973973262
 20
12.09999991295103
  0
LWPOLYLINE
  5
939
330
92F
100
AcDbEntity
  8
0
100
AcDbPolyline
 90
        4
 70
     1
 43
0.0
 10
6.224999973973268
 20
13.07499991295117
 10
5.87499997397326
 20
13.07499991295117
 10
5.87499997397326
 20
12.09999991295103
 10
6.224999973973268
 20
12.09999991295103
  0
LWPOLYLINE
  5
93A
330
92F
100
AcDbEntity
  8
0
100
AcDbPolyline
 90
        4
 70
     1
 43
0.0
 10
3.474999973973268
 20
14.27499991295098
 10
3.12499997397326
 20
14.27499991295098
 10
3.12499997397326
 20
13.29999991295108
 10
3.474999973973268
 20
13.29999991295108
  0
LWPOLYLINE
  5
93B
330
92F
100
AcDbEntity
  8
0
100
AcDbPolyline
 90
        4
 70
     1
 43
0.0
 10
6.24999997397326
 20
14.27499991295098
 10
5.899999973973265
 20
14.27499991295098
 10
5.899999973973265
 20
13.29999991295108
 10
6.24999997397326
 20
13.29999991295108
  0
LINE
  5
93C
330
92F
100
AcDbEntity
  8
0
100
AcDbLine
 10
0.8999999739732658
 20
4.274999912950988
 30
0.0
 11
0.8999999739732658
 21
6.349999912951034
 31
0.0
  0
LINE
  5
93D
330
92F
100
AcDbEntity
  8
0
100
AcDbLine
 10
8.524999973973265
 20
4.274999912950988
 30
0.0
 11
8.524999973973265
 21
6.349999912951034
 31
0.0
  0
LINE
  5
93E
330
92F
100
AcDbEntity
  8
0
100
AcDbLine
 10
6.599999973973268
 20
4.249999912951125
 30
0.0
 11
6.599999973973268
 21
5.224999912951034
 31
0.0
  0
LINE
  5
93F
330
92F
100
AcDbEntity
  8
0
100
AcDbLine
 10
6.599999973973268
 20
5.249999912951125
 30
0.0
 11
3.024999973973265
 21
5.249999912951125
 31
0.0
  0
LINE
  5
940
330
92F
100
AcDbEntity
  8
0
100
AcDbLine
 10
3.024999973973265
 20
4.274999912950988
 30
0.0
 11
3.024999973973265
 21
5.249999912951125
 31
0.0
  0
LINE
  5
941
330
92F
100
AcDbEntity
  8
0
100
AcDbLine
 10
3.024999973973265
 20
4.274999912950988
 30
0.0
 11
0.8999999739732658
 21
4.274999912950988
 31
0.0
  0
LINE
  5
942
330
92F
100
AcDbEntity
  8
0
100
AcDbLine
 10
8.524999973973265
 20
4.274999912950988
 30
0.0
 11
6.599999973973268
 21
4.274999912950988
 31
0.0
  0
LINE
  5
943
330
92F
100
AcDbEntity
  8
0
100
AcDbLine
 10
8.524999973973265
 20
6.349999912951034
 30
0.0
 11
0.8999999739732658
 21
6.349999912951034
 31
0.0
  0
LWPOLYLINE
  5
944
330
92F
100
AcDbEntity
  8
0
100
AcDbPolyline
 90
        4
 70
     1
 43
0.0
 10
3.474999973973268
 20
15.52499991295098
 10
3.12499997397326
 20
15.52499991295098
 10
3.12499997397326
 20
14.54999991295108
 10
3.474999973973268
 20
14.54999991295108
  0
LWPOLYLINE
  5
945
330
92F
100
AcDbEntity
  8
0
100
AcDbPolyline
 90
        4
 70
     1
 43
0.0
 10
6.24999997397326
 20
15.52499991295098
 10
5.899999973973265
 20
15.52499991295098
 10
5.899999973973265
 20
14.54999991295108
 10
6.24999997397326
 20
14.54999991295108
  0
ELLIPSE
  5
946
330
92F
100
AcDbEntity
  8
0
100
AcDbEllipse
 10
6.549999973973257
 20
9.999999912951125
 30
0.0
 11
0.0
 21
1.25
 31
0.0
210
0.0
220
0.0
230
1.0
 40
0.98
 41
3.380894
 42
4.528311
  0
ELLIPSE
  5
947
330
92F
100
AcDbEntity
  8
0
100
AcDbEllipse
 10
2.87499997397326
 20
9.024999912950988
 30
0.0
 11
0.0
 21
1.25
 31
0.0
210
0.0
220
0.0
230
1.0
 40
0.98
 41
1.708854999999999
 42
3.380894
  0
LINE
  5
948
330
92F
100
AcDbEntity
  8
0
100
AcDbLine
 10
3.149999973973265
 20
7.774999912950988
 30
0.0
 11
6.849999973973268
 21
8.749999912951125
 31
0.0
  0
ELLIPSE
  5
949
330
92F
100
AcDbEntity
  8
0
100
AcDbEllipse
 10
4.724999973973268
 20
3.374999912951125
 30
0.0
 11
0.0
 21
0.775
 31
0.0
210
0.0
220
0.0
230
1.0
 40
0.9677419999999999
 41
0.0
 42
6.283184999999999
  0
LINE
  5
94A
330
92F
100
AcDbEntity
  8
0
100
AcDbLine
 10
0.8999999739732658
 20
29.82499991295117
 30
0.0
 11
0.8999999739732658
 21
27.74999991295112
 31
0.0
  0
LINE
  5
94B
330
92F
100
AcDbEntity
  8
0
100
AcDbLine
 10
8.524999973973265
 20
29.82499991295117
 30
0.0
 11
8.524999973973265
 21
27.74999991295112
 31
0.0
  0
LINE
  5
94C
330
92F
100
AcDbEntity
  8
0
100
AcDbLine
 10
6.599999973973268
 20
29.84999991295103
 30
0.0
 11
6.599999973973268
 21
28.87499991295112
 31
0.0
  0
LINE
  5
94D
330
92F
100
AcDbEntity
  8
0
100
AcDbLine
 10
6.599999973973268
 20
28.84999991295103
 30
0.0
 11
3.024999973973265
 21
28.84999991295103
 31
0.0
  0
LINE
  5
94E
330
92F
100
AcDbEntity
  8
0
100
AcDbLine
 10
3.024999973973265
 20
29.82499991295117
 30
0.0
 11
3.024999973973265
 21
28.84999991295103
 31
0.0
  0
LINE
  5
94F
330
92F
100
AcDbEntity
  8
0
100
AcDbLine
 10
3.024999973973265
 20
29.82499991295117
 30
0.0
 11
0.8999999739732658
 21
29.82499991295117
 31
0.0
  0
LINE
  5
950
330
92F
100
AcDbEntity
  8
0
100
AcDbLine
 10
8.524999973973265
 20
29.82499991295117
 30
0.0
 11
6.599999973973268
 21
29.82499991295117
 31
0.0
  0
LWPOLYLINE
  5
951
330
92F
100
AcDbEntity
  8
0
100
AcDbPolyline
 90
        4
 70
     1
 43
0.0
 10
3.474999973973268
 20
17.97499991295103
 10
3.12499997397326
 20
17.97499991295103
 10
3.12499997397326
 20
16.99999991295112
 10
3.474999973973268
 20
16.99999991295112
  0
LWPOLYLINE
  5
952
330
92F
100
AcDbEntity
  8
0
100
AcDbPolyline
 90
        4
 70
     1
 43
0.0
 10
3.474999973973268
 20
19.29999991295107
 10
3.12499997397326
 20
19.29999991295107
 10
3.12499997397326
 20
18.34999991295103
 10
3.474999973973268
 20
18.34999991295103
  0
LWPOLYLINE
  5
953
330
92F
100
AcDbEntity
  8
0
100
AcDbPolyline
 90
        4
 70
     1
 43
0.0
 10
3.474999973973268
 20
20.57499991295117
 10
3.12499997397326
 20
20.57499991295117
 10
3.12499997397326
 20
19.59999991295103
 10
3.474999973973268
 20
19.59999991295103
  0
LWPOLYLINE
  5
954
330
92F
100
AcDbEntity
  8
0
100
AcDbPolyline
 90
        4
 70
     1
 43
0.0
 10
3.474999973973268
 20
21.79999991295108
 10
3.12499997397326
 20
21.79999991295108
 10
3.12499997397326
 20
20.82499991295116
 10
3.474999973973268
 20
20.82499991295116
  0
LWPOLYLINE
  5
955
330
92F
100
AcDbEntity
  8
0
100
AcDbPolyline
 90
        4
 70
     1
 43
0.0
 10
3.474999973973268
 20
23.07499991295117
 10
3.12499997397326
 20
23.07499991295117
 10
3.12499997397326
 20
22.07499991295116
 10
3.474999973973268
 20
22.07499991295116
  0
LWPOLYLINE
  5
956
330
92F
100
AcDbEntity
  8
0
100
AcDbPolyline
 90
        4
 70
     1
 43
0.0
 10
6.24999997397326
 20
17.97499991295103
 10
5.899999973973265
 20
17.97499991295103
 10
5.899999973973265
 20
16.99999991295112
 10
6.24999997397326
 20
16.99999991295112
  0
LWPOLYLINE
  5
957
330
92F
100
AcDbEntity
  8
0
100
AcDbPolyline
 90
        4
 70
     1
 43
0.0
 10
6.24999997397326
 20
19.29999991295107
 10
5.899999973973265
 20
19.29999991295107
 10
5.899999973973265
 20
18.34999991295103
 10
6.24999997397326
 20
18.34999991295103
  0
LWPOLYLINE
  5
958
330
92F
100
AcDbEntity
  8
0
100
AcDbPolyline
 90
        4
 70
     1
 43
0.0
 10
6.24999997397326
 20
20.57499991295117
 10
5.899999973973265
 20
20.57499991295117
 10
5.899999973973265
 20
19.59999991295103
 10
6.24999997397326
 20
19.59999991295103
  0
LWPOLYLINE
  5
959
330
92F
100
AcDbEntity
  8
0
100
AcDbPolyline
 90
        4
 70
     1
 43
0.0
 10
6.24999997397326
 20
21.79999991295108
 10
5.899999973973265
 20
21.79999991295108
 10
5.899999973973265
 20
20.82499991295116
 10
6.24999997397326
 20
20.82499991295116
  0
LWPOLYLINE
  5
95A
330
92F
100
AcDbEntity
  8
0
100
AcDbPolyline
 90
        4
 70
     1
 43
0.0
 10
6.24999997397326
 20
23.07499991295117
 10
5.899999973973265
 20
23.07499991295117
 10
5.899999973973265
 20
22.07499991295116
 10
6.24999997397326
 20
22.07499991295116
  0
ELLIPSE
  5
95B
330
92F
100
AcDbEntity
  8
0
100
AcDbEllipse
 10
6.549999973973257
 20
24.02499991295099
 30
0.0
 11
0.0
 21
1.25
 31
0.0
210
0.0
220
0.0
230
1.0
 40
0.98
 41
4.509903999999999
 42
6.059223999999999
  0
ELLIPSE
  5
95C
330
92F
100
AcDbEntity
  8
0
100
AcDbEllipse
 10
2.87499997397326
 20
24.94999991295117
 30
0.0
 11
0.0
 21
1.25
 31
0.0
210
0.0
220
0.0
230
1.0
 40
0.98
 41
6.03468
 42
8.053399307179585
  0
LINE
  5
95D
330
92F
100
AcDbEntity
  8
0
100
AcDbLine
 10
6.849999973973268
 20
25.19999991295117
 30
0.0
 11
3.149999973973265
 21
26.12499991295112
 31
0.0
  0
ELLIPSE
  5
95E
330
92F
100
AcDbEntity
  8
0
100
AcDbEllipse
 10
4.724999973973268
 20
31.04999991295108
 30
0.0
 11
0.0
 21
0.775
 31
0.0
210
0.0
220
0.0
230
1.0
 40
0.9677419999999999
 41
0.0
 42
6.283184999999999
  0
LINE
  5
95F
330
92F
100
AcDbEntity
  8
0
100
AcDbLine
 10
8.524999973973265
 20
27.74999991295112
 30
0.0
 11
0.8999999739732658
 21
27.74999991295112
 31
0.0
  0
ENDBLK
  5
961
330
92F
100
AcDbEntity
  8
0
100
AcDbBlockEnd
  0
BLOCK
  5
9A3
330
962
100
AcDbEntity
  8
0
100
AcDbBlockBegin
  2
A$C3A6E1F00
 70
     0
 10
0.0
 20
0.0
 30
0.0
  3
A$C3A6E1F00
  1

  0
LWPOLYLINE
  5
963
330
962
100
AcDbEntity
  8
0
100
AcDbPolyline
 90
        4
 70
     1
 43
0.0
 10
3.449999973973262
 20
15.9499995198721
 10
3.099999973973261
 20
15.9499995198721
 10
3.099999973973261
 20
14.9749995198722
 10
3.449999973973262
 20
14.9749995198722
  0
LWPOLYLINE
  5
964
330
962
100
AcDbEntity
  8
0
100
AcDbPolyline
 90
        4
 70
     1
 43
0.0
 10
6.224999973973268
 20
15.9499995198721
 10
5.87499997397326
 20
15.9499995198721
 10
5.87499997397326
 20
14.9749995198722
 10
6.224999973973268
 20
14.9749995198722
  0
LWPOLYLINE
  5
965
330
962
100
AcDbEntity
  8
0
100
AcDbPolyline
 90
        4
 70
     1
 43
0.0
 10
6.599999973973268
 20
34.0749995198721
 10
2.899999973973265
 20
34.0749995198721
 10
2.899999973973265
 20
10.27499951987215
 10
6.599999973973268
 20
10.27499951987215
  0
LINE
  5
966
330
962
100
AcDbEntity
  8
0
100
AcDbLine
 10
7.774999973973265
 20
9.824999519872108
 30
0.0
 11
7.774999973973265
 21
33.99999951987206
 31
0.0
  0
LINE
  5
967
330
962
100
AcDbEntity
  8
0
100
AcDbLine
 10
1.649999973973265
 20
34.92499951987224
 30
0.0
 11
1.649999973973265
 21
8.899999519872153
 31
0.0
  0
LWPOLYLINE
  5
968
330
962
100
AcDbEntity
  8
0
100
AcDbPolyline
 90
        4
 70
     1
 43
0.2
 10
0.0999999739732616
 20
43.39999951987215
 10
0.0999999739732616
 20
0.099999519872199
 10
9.324999973973262
 20
0.099999519872199
 10
9.324999973973262
 20
43.39999951987215
  0
LWPOLYLINE
  5
969
330
962
100
AcDbEntity
  8
0
100
AcDbPolyline
 90
        4
 70
     1
 43
0.0
 10
3.449999973973262
 20
12.29999951987224
 10
3.099999973973261
 20
12.29999951987224
 10
3.099999973973261
 20
11.3249995198721
 10
3.449999973973262
 20
11.3249995198721
  0
LWPOLYLINE
  5
96A
330
962
100
AcDbEntity
  8
0
100
AcDbPolyline
 90
        4
 70
     1
 43
0.0
 10
6.224999973973268
 20
12.29999951987224
 10
5.87499997397326
 20
12.29999951987224
 10
5.87499997397326
 20
11.3249995198721
 10
6.224999973973268
 20
11.3249995198721
  0
LWPOLYLINE
  5
96B
330
962
100
AcDbEntity
  8
0
100
AcDbPolyline
 90
        4
 70
     1
 43
0.0
 10
3.449999973973262
 20
13.52499951987215
 10
3.099999973973261
 20
13.52499951987215
 10
3.099999973973261
 20
12.54999951987224
 10
3.449999973973262
 20
12.54999951987224
  0
LWPOLYLINE
  5
96C
330
962
100
AcDbEntity
  8
0
100
AcDbPolyline
 90
        4
 70
     1
 43
0.0
 10
6.224999973973268
 20
13.52499951987215
 10
5.87499997397326
 20
13.52499951987215
 10
5.87499997397326
 20
12.54999951987224
 10
6.224999973973268
 20
12.54999951987224
  0
LWPOLYLINE
  5
96D
330
962
100
AcDbEntity
  8
0
100
AcDbPolyline
 90
        4
 70
     1
 43
0.0
 10
3.449999973973262
 20
14.74999951987206
 10
3.099999973973261
 20
14.74999951987206
 10
3.099999973973261
 20
13.77499951987215
 10
3.449999973973262
 20
13.77499951987215
  0
LWPOLYLINE
  5
96E
330
962
100
AcDbEntity
  8
0
100
AcDbPolyline
 90
        4
 70
     1
 43
0.0
 10
6.224999973973268
 20
14.74999951987206
 10
5.87499997397326
 20
14.74999951987206
 10
5.87499997397326
 20
13.77499951987215
 10
6.224999973973268
 20
13.77499951987215
  0
LINE
  5
96F
330
962
100
AcDbEntity
  8
0
100
AcDbLine
 10
0.8999999739732658
 20
4.374999519872176
 30
0.0
 11
0.8999999739732658
 21
6.449999519872108
 31
0.0
  0
LINE
  5
970
330
962
100
AcDbEntity
  8
0
100
AcDbLine
 10
8.524999973973265
 20
4.374999519872176
 30
0.0
 11
8.524999973973265
 21
6.449999519872108
 31
0.0
  0
LINE
  5
971
330
962
100
AcDbEntity
  8
0
100
AcDbLine
 10
6.599999973973268
 20
4.349999519872199
 30
0.0
 11
6.599999973973268
 21
5.324999519872108
 31
0.0
  0
LINE
  5
972
330
962
100
AcDbEntity
  8
0
100
AcDbLine
 10
6.599999973973268
 20
5.349999519872199
 30
0.0
 11
3.024999973973265
 21
5.349999519872199
 31
0.0
  0
LINE
  5
973
330
962
100
AcDbEntity
  8
0
100
AcDbLine
 10
3.024999973973265
 20
4.374999519872176
 30
0.0
 11
3.024999973973265
 21
5.349999519872199
 31
0.0
  0
LINE
  5
974
330
962
100
AcDbEntity
  8
0
100
AcDbLine
 10
3.024999973973265
 20
4.374999519872176
 30
0.0
 11
0.8999999739732658
 21
4.374999519872176
 31
0.0
  0
LINE
  5
975
330
962
100
AcDbEntity
  8
0
100
AcDbLine
 10
8.524999973973265
 20
4.374999519872176
 30
0.0
 11
6.599999973973268
 21
4.374999519872176
 31
0.0
  0
LINE
  5
976
330
962
100
AcDbEntity
  8
0
100
AcDbLine
 10
8.524999973973265
 20
6.449999519872108
 30
0.0
 11
0.8999999739732658
 21
6.449999519872108
 31
0.0
  0
ELLIPSE
  5
977
330
962
100
AcDbEntity
  8
0
100
AcDbEllipse
 10
6.549999973973257
 20
10.04999951987224
 30
0.0
 11
0.0
 21
1.25
 31
0.0
210
0.0
220
0.0
230
1.0
 40
0.98
 41
3.380894
 42
4.528311
  0
ELLIPSE
  5
978
330
962
100
AcDbEntity
  8
0
100
AcDbEllipse
 10
2.87499997397326
 20
9.074999519872108
 30
0.0
 11
0.0
 21
1.25
 31
0.0
210
0.0
220
0.0
230
1.0
 40
0.98
 41
1.708854999999999
 42
3.380894
  0
LINE
  5
979
330
962
100
AcDbEntity
  8
0
100
AcDbLine
 10
3.149999973973265
 20
7.824999519872108
 30
0.0
 11
6.849999973973268
 21
8.799999519872244
 31
0.0
  0
ELLIPSE
  5
97A
330
962
100
AcDbEntity
  8
0
100
AcDbEllipse
 10
4.724999973973268
 20
3.474999519872199
 30
0.0
 11
0.0
 21
0.775
 31
0.0
210
0.0
220
0.0
230
1.0
 40
0.9677419999999999
 41
0.0
 42
6.283184999999999
  0
LINE
  5
97B
330
962
100
AcDbEntity
  8
0
100
AcDbLine
 10
0.8999999739732658
 20
39.79999951987224
 30
0.0
 11
0.8999999739732658
 21
37.72499951987219
 31
0.0
  0
LINE
  5
97C
330
962
100
AcDbEntity
  8
0
100
AcDbLine
 10
8.524999973973265
 20
39.79999951987224
 30
0.0
 11
8.524999973973265
 21
37.72499951987219
 31
0.0
  0
LWPOLYLINE
  5
97D
330
962
100
AcDbEntity
  8
0
100
AcDbPolyline
 90
        4
 70
     1
 43
0.0
 10
3.449999973973262
 20
17.12499951987206
 10
3.099999973973261
 20
17.12499951987206
 10
3.099999973973261
 20
16.14999951987215
 10
3.449999973973262
 20
16.14999951987215
  0
LWPOLYLINE
  5
97E
330
962
100
AcDbEntity
  8
0
100
AcDbPolyline
 90
        4
 70
     1
 43
0.0
 10
6.224999973973268
 20
17.12499951987206
 10
5.87499997397326
 20
17.12499951987206
 10
5.87499997397326
 20
16.14999951987215
 10
6.224999973973268
 20
16.14999951987215
  0
LWPOLYLINE
  5
97F
330
962
100
AcDbEntity
  8
0
100
AcDbPolyline
 90
        4
 70
     1
 43
0.0
 10
3.449999973973262
 20
18.29999951987224
 10
3.099999973973261
 20
18.29999951987224
 10
3.099999973973261
 20
17.3249995198721
 10
3.449999973973262
 20
17.3249995198721
  0
LWPOLYLINE
  5
980
330
962
100
AcDbEntity
  8
0
100
AcDbPolyline
 90
        4
 70
     1
 43
0.0
 10
6.224999973973268
 20
18.29999951987224
 10
5.87499997397326
 20
18.29999951987224
 10
5.87499997397326
 20
17.3249995198721
 10
6.224999973973268
 20
17.3249995198721
  0
LWPOLYLINE
  5
981
330
962
100
AcDbEntity
  8
0
100
AcDbPolyline
 90
        4
 70
     1
 43
0.0
 10
3.449999973973262
 20
19.4749995198722
 10
3.099999973973261
 20
19.4749995198722
 10
3.099999973973261
 20
18.49999951987206
 10
3.449999973973262
 20
18.49999951987206
  0
LWPOLYLINE
  5
982
330
962
100
AcDbEntity
  8
0
100
AcDbPolyline
 90
        4
 70
     1
 43
0.0
 10
6.224999973973268
 20
19.4749995198722
 10
5.87499997397326
 20
19.4749995198722
 10
5.87499997397326
 20
18.49999951987206
 10
6.224999973973268
 20
18.49999951987206
  0
LWPOLYLINE
  5
983
330
962
100
AcDbEntity
  8
0
100
AcDbPolyline
 90
        4
 70
     1
 43
0.0
 10
3.449999973973262
 20
20.67499951987224
 10
3.099999973973261
 20
20.67499951987224
 10
3.099999973973261
 20
19.6999995198721
 10
3.449999973973262
 20
19.6999995198721
  0
LWPOLYLINE
  5
984
330
962
100
AcDbEntity
  8
0
100
AcDbPolyline
 90
        4
 70
     1
 43
0.0
 10
6.224999973973268
 20
20.67499951987224
 10
5.87499997397326
 20
20.67499951987224
 10
5.87499997397326
 20
19.6999995198721
 10
6.224999973973268
 20
19.6999995198721
  0
LWPOLYLINE
  5
985
330
962
100
AcDbEntity
  8
0
100
AcDbPolyline
 90
        4
 70
     1
 43
0.0
 10
3.449999973973262
 20
21.8499995198722
 10
3.099999973973261
 20
21.8499995198722
 10
3.099999973973261
 20
20.87499951987206
 10
3.449999973973262
 20
20.87499951987206
  0
LWPOLYLINE
  5
986
330
962
100
AcDbEntity
  8
0
100
AcDbPolyline
 90
        4
 70
     1
 43
0.0
 10
6.224999973973268
 20
21.8499995198722
 10
5.87499997397326
 20
21.8499995198722
 10
5.87499997397326
 20
20.87499951987206
 10
6.224999973973268
 20
20.87499951987206
  0
LWPOLYLINE
  5
987
330
962
100
AcDbEntity
  8
0
100
AcDbPolyline
 90
        4
 70
     1
 43
0.0
 10
3.449999973973262
 20
23.04999951987224
 10
3.099999973973261
 20
23.04999951987224
 10
3.099999973973261
 20
22.0749995198721
 10
3.449999973973262
 20
22.0749995198721
  0
LWPOLYLINE
  5
988
330
962
100
AcDbEntity
  8
0
100
AcDbPolyline
 90
        4
 70
     1
 43
0.0
 10
6.224999973973268
 20
23.04999951987224
 10
5.87499997397326
 20
23.04999951987224
 10
5.87499997397326
 20
22.0749995198721
 10
6.224999973973268
 20
22.0749995198721
  0
LWPOLYLINE
  5
989
330
962
100
AcDbEntity
  8
0
100
AcDbPolyline
 90
        4
 70
     1
 43
0.0
 10
3.474999973973268
 20
24.24999951987206
 10
3.12499997397326
 20
24.24999951987206
 10
3.12499997397326
 20
23.27499951987215
 10
3.474999973973268
 20
23.27499951987215
  0
LWPOLYLINE
  5
98A
330
962
100
AcDbEntity
  8
0
100
AcDbPolyline
 90
        4
 70
     1
 43
0.0
 10
6.24999997397326
 20
24.24999951987206
 10
5.899999973973265
 20
24.24999951987206
 10
5.899999973973265
 20
23.27499951987215
 10
6.24999997397326
 20
23.27499951987215
  0
LWPOLYLINE
  5
98B
330
962
100
AcDbEntity
  8
0
100
AcDbPolyline
 90
        4
 70
     1
 43
0.0
 10
3.474999973973268
 20
25.49999951987206
 10
3.12499997397326
 20
25.49999951987206
 10
3.12499997397326
 20
24.52499951987215
 10
3.474999973973268
 20
24.52499951987215
  0
LWPOLYLINE
  5
98C
330
962
100
AcDbEntity
  8
0
100
AcDbPolyline
 90
        4
 70
     1
 43
0.0
 10
3.474999973973268
 20
26.67499951987224
 10
3.12499997397326
 20
26.67499951987224
 10
3.12499997397326
 20
25.6999995198721
 10
3.474999973973268
 20
25.6999995198721
  0
LWPOLYLINE
  5
98D
330
962
100
AcDbEntity
  8
0
100
AcDbPolyline
 90
        4
 70
     1
 43
0.0
 10
3.474999973973268
 20
27.94999951987211
 10
3.12499997397326
 20
27.94999951987211
 10
3.12499997397326
 20
26.9749995198722
 10
3.474999973973268
 20
26.9749995198722
  0
LWPOLYLINE
  5
98E
330
962
100
AcDbEntity
  8
0
100
AcDbPolyline
 90
        4
 70
     1
 43
0.0
 10
3.474999973973268
 20
29.27499951987215
 10
3.12499997397326
 20
29.27499951987215
 10
3.12499997397326
 20
28.32499951987211
 10
3.474999973973268
 20
28.32499951987211
  0
LWPOLYLINE
  5
98F
330
962
100
AcDbEntity
  8
0
100
AcDbPolyline
 90
        4
 70
     1
 43
0.0
 10
3.474999973973268
 20
30.54999951987224
 10
3.12499997397326
 20
30.54999951987224
 10
3.12499997397326
 20
29.57499951987211
 10
3.474999973973268
 20
29.57499951987211
  0
LWPOLYLINE
  5
990
330
962
100
AcDbEntity
  8
0
100
AcDbPolyline
 90
        4
 70
     1
 43
0.0
 10
3.474999973973268
 20
31.77499951987215
 10
3.12499997397326
 20
31.77499951987215
 10
3.12499997397326
 20
30.79999951987224
 10
3.474999973973268
 20
30.79999951987224
  0
LWPOLYLINE
  5
991
330
962
100
AcDbEntity
  8
0
100
AcDbPolyline
 90
        4
 70
     1
 43
0.0
 10
3.474999973973268
 20
33.04999951987224
 10
3.12499997397326
 20
33.04999951987224
 10
3.12499997397326
 20
32.04999951987224
 10
3.474999973973268
 20
32.04999951987224
  0
LWPOLYLINE
  5
992
330
962
100
AcDbEntity
  8
0
100
AcDbPolyline
 90
        4
 70
     1
 43
0.0
 10
6.24999997397326
 20
25.49999951987206
 10
5.899999973973265
 20
25.49999951987206
 10
5.899999973973265
 20
24.52499951987215
 10
6.24999997397326
 20
24.52499951987215
  0
LWPOLYLINE
  5
993
330
962
100
AcDbEntity
  8
0
100
AcDbPolyline
 90
        4
 70
     1
 43
0.0
 10
6.24999997397326
 20
26.67499951987224
 10
5.899999973973265
 20
26.67499951987224
 10
5.899999973973265
 20
25.6999995198721
 10
6.24999997397326
 20
25.6999995198721
  0
LWPOLYLINE
  5
994
330
962
100
AcDbEntity
  8
0
100
AcDbPolyline
 90
        4
 70
     1
 43
0.0
 10
6.24999997397326
 20
27.94999951987211
 10
5.899999973973265
 20
27.94999951987211
 10
5.899999973973265
 20
26.9749995198722
 10
6.24999997397326
 20
26.9749995198722
  0
LWPOLYLINE
  5
995
330
962
100
AcDbEntity
  8
0
100
AcDbPolyline
 90
        4
 70
     1
 43
0.0
 10
6.24999997397326
 20
29.27499951987215
 10
5.899999973973265
 20
29.27499951987215
 10
5.899999973973265
 20
28.32499951987211
 10
6.24999997397326
 20
28.32499951987211
  0
LWPOLYLINE
  5
996
330
962
100
AcDbEntity
  8
0
100
AcDbPolyline
 90
        4
 70
     1
 43
0.0
 10
6.24999997397326
 20
30.54999951987224
 10
5.899999973973265
 20
30.54999951987224
 10
5.899999973973265
 20
29.57499951987211
 10
6.24999997397326
 20
29.57499951987211
  0
LWPOLYLINE
  5
997
330
962
100
AcDbEntity
  8
0
100
AcDbPolyline
 90
        4
 70
     1
 43
0.0
 10
6.24999997397326
 20
31.77499951987215
 10
5.899999973973265
 20
31.77499951987215
 10
5.899999973973265
 20
30.79999951987224
 10
6.24999997397326
 20
30.79999951987224
  0
LWPOLYLINE
  5
998
330
962
100
AcDbEntity
  8
0
100
AcDbPolyline
 90
        4
 70
     1
 43
0.0
 10
6.24999997397326
 20
33.04999951987224
 10
5.899999973973265
 20
33.04999951987224
 10
5.899999973973265
 20
32.04999951987224
 10
6.24999997397326
 20
32.04999951987224
  0
ELLIPSE
  5
999
330
962
100
AcDbEntity
  8
0
100
AcDbEllipse
 10
6.549999973973257
 20
33.99999951987206
 30
0.0
 11
0.0
 21
1.25
 31
0.0
210
0.0
220
0.0
230
1.0
 40
0.98
 41
4.509903999999999
 42
6.059223999999999
  0
ELLIPSE
  5
99A
330
962
100
AcDbEntity
  8
0
100
AcDbEllipse
 10
2.87499997397326
 20
34.92499951987224
 30
0.0
 11
0.0
 21
1.25
 31
0.0
210
0.0
220
0.0
230
1.0
 40
0.98
 41
6.03468
 42
8.053399307179585
  0
LINE
  5
99B
330
962
100
AcDbEntity
  8
0
100
AcDbLine
 10
6.849999973973268
 20
35.17499951987224
 30
0.0
 11
3.149999973973265
 21
36.09999951987219
 31
0.0
  0
LINE
  5
99C
330
962
100
AcDbEntity
  8
0
100
AcDbLine
 10
8.524999973973265
 20
37.72499951987219
 30
0.0
 11
0.8999999739732658
 21
37.72499951987219
 31
0.0
  0
LINE
  5
99D
330
962
100
AcDbEntity
  8
0
100
AcDbLine
 10
6.599999973973268
 20
39.82499951987211
 30
0.0
 11
6.599999973973268
 21
38.8499995198722
 31
0.0
  0
LINE
  5
99E
330
962
100
AcDbEntity
  8
0
100
AcDbLine
 10
6.599999973973268
 20
38.8249995198721
 30
0.0
 11
3.024999973973265
 21
38.8249995198721
 31
0.0
  0
LINE
  5
99F
330
962
100
AcDbEntity
  8
0
100
AcDbLine
 10
3.024999973973265
 20
39.79999951987224
 30
0.0
 11
3.024999973973265
 21
38.8249995198721
 31
0.0
  0
LINE
  5
9A0
330
962
100
AcDbEntity
  8
0
100
AcDbLine
 10
3.024999973973265
 20
39.79999951987224
 30
0.0
 11
0.8999999739732658
 21
39.79999951987224
 31
0.0
  0
LINE
  5
9A1
330
962
100
AcDbEntity
  8
0
100
AcDbLine
 10
8.524999973973265
 20
39.79999951987224
 30
0.0
 11
6.599999973973268
 21
39.79999951987224
 31
0.0
  0
ELLIPSE
  5
9A2
330
962
100
AcDbEntity
  8
0
100
AcDbEllipse
 10
4.724999973973268
 20
41.02499951987215
 30
0.0
 11
0.0
 21
0.775
 31
0.0
210
0.0
220
0.0
230
1.0
 40
0.9677419999999999
 41
0.0
 42
6.283184999999999
  0
ENDBLK
  5
9A4
330
962
100
AcDbEntity
  8
0
100
AcDbBlockEnd
  0
BLOCK
  5
61D7
330
6118
100
AcDbEntity
  8
0
100
AcDbBlockBegin
  2
MC_1_5-2-STF-3_81__6
 70
     0
 10
11.65200479999999
 20
-9.005000000000009
 30
0.0
  3
MC_1_5-2-STF-3_81__6
  1

  0
LINE
  5
6119
330
6118
100
AcDbEntity
  8
0
 62
     7
100
AcDbLine
 10
22.45200479999998
 20
4.204999999999998
 30
0.0
 11
22.2520048
 21
4.204999999999998
 31
0.0
  0
LINE
  5
611A
330
6118
100
AcDbEntity
  8
0
 62
     7
100
AcDbLine
 10
22.75200479999999
 20
3.405000000000001
 30
0.0
 11
22.7520048
 21
4.204999999999998
 31
0.0
  0
LINE
  5
611B
330
6118
100
AcDbEntity
  8
0
 62
     7
100
AcDbLine
 10
22.7520048
 20
-4.204999999999998
 30
0.0
 11
22.75200479999999
 21
-3.405000000000001
 31
0.0
  0
LINE
  5
611C
330
6118
100
AcDbEntity
  8
0
 62
     7
100
AcDbLine
 10
22.45200479999998
 20
-4.204999999999998
 30
0.0
 11
22.2520048
 21
-4.204999999999998
 31
0.0
  0
LINE
  5
611D
330
6118
100
AcDbEntity
  8
0
 62
     7
100
AcDbLine
 10
22.7520048
 20
4.204999999999998
 30
0.0
 11
22.45200479999998
 21
4.204999999999998
 31
0.0
  0
LINE
  5
611E
330
6118
100
AcDbEntity
  8
0
 62
     7
100
AcDbLine
 10
22.7520048
 20
-4.204999999999998
 30
0.0
 11
22.45200479999998
 21
-4.204999999999998
 31
0.0
  0
LINE
  5
611F
330
6118
100
AcDbEntity
  8
0
 62
     7
100
AcDbLine
 10
16.22700479999998
 20
5.718068416798288
 30
0.0
 11
16.22700479999998
 21
7.091931583201727
 31
0.0
  0
LINE
  5
6120
330
6118
100
AcDbEntity
  8
0
 62
     7
100
AcDbLine
 10
19.12502869120912
 20
4.837001361960294
 30
0.0
 11
16.48400616196027
 21
7.478023891209136
 31
0.0
  0
LINE
  5
6121
330
6118
100
AcDbEntity
  8
0
 62
     7
100
AcDbLine
 10
16.97898090879087
 20
7.972998638039726
 30
0.0
 11
19.6200034380397
 21
5.331976108790883
 31
0.0
  0
LINE
  5
6122
330
6118
100
AcDbEntity
  8
0
 62
     7
100
AcDbLine
 10
20.85200480000001
 20
4.204999999999998
 30
0.0
 11
20.85200480000001
 21
8.005000000000009
 31
0.0
  0
LINE
  5
6123
330
6118
100
AcDbEntity
  8
0
 62
     7
100
AcDbLine
 10
17.35200480000009
 20
3.268050143491976
 30
0.0
 11
17.35200480000001
 21
4.204999999999998
 31
0.0
  0
LINE
  5
6124
330
6118
100
AcDbEntity
  8
0
 62
     7
100
AcDbLine
 10
18.35200480000003
 20
4.204999999999998
 30
0.0
 11
18.35200480000001
 21
-4.204999999999998
 31
0.0
  0
LINE
  5
6125
330
6118
100
AcDbEntity
  8
0
 62
     7
100
AcDbLine
 10
17.35200480000002
 20
-0.5419498565080297
 30
0.0
 11
17.35200480000009
 21
0.5419498565080261
 31
0.0
  0
LINE
  5
6126
330
6118
100
AcDbEntity
  8
0
 62
     7
100
AcDbLine
 10
17.35200480000001
 20
-3.268050143491976
 30
0.0
 11
17.35200480000002
 21
-0.5419498565080297
 31
0.0
  0
LINE
  5
6127
330
6118
100
AcDbEntity
  8
0
 62
     7
100
AcDbLine
 10
17.35200480000001
 20
-4.204999999999998
 30
0.0
 11
17.35200480000001
 21
-3.268050143491976
 31
0.0
  0
LINE
  5
6128
330
6118
100
AcDbEntity
  8
0
 62
     7
100
AcDbLine
 10
17.35200480000001
 20
-4.204999999999998
 30
0.0
 11
17.65200480000006
 21
-4.204999999999998
 31
0.0
  0
LINE
  5
6129
330
6118
100
AcDbEntity
  8
0
 62
     7
100
AcDbLine
 10
17.85200480000012
 20
-4.204999999999998
 30
0.0
 11
18.35200480000001
 21
-4.204999999999998
 31
0.0
  0
LINE
  5
612A
330
6118
100
AcDbEntity
  8
0
 62
     7
100
AcDbLine
 10
18.35200480000001
 20
-4.204999999999998
 30
0.0
 11
20.85200480000001
 21
-4.204999999999998
 31
0.0
  0
LINE
  5
612B
330
6118
100
AcDbEntity
  8
0
 62
     7
100
AcDbLine
 10
17.65200480000006
 20
-4.204999999999998
 30
0.0
 11
17.85200480000012
 21
-4.204999999999998
 31
0.0
  0
LINE
  5
612C
330
6118
100
AcDbEntity
  8
0
 62
     7
100
AcDbLine
 10
18.7389363832017
 20
4.580000000000012
 30
0.0
 11
17.36507321679829
 21
4.580000000000012
 31
0.0
  0
LINE
  5
612D
330
6118
100
AcDbEntity
  8
0
 62
     7
100
AcDbLine
 10
19.87700479999998
 20
5.718068416798288
 30
0.0
 11
19.87700479999998
 21
7.091931583201727
 31
0.0
  0
LINE
  5
612E
330
6118
100
AcDbEntity
  8
0
 62
     7
100
AcDbLine
 10
17.35200480000001
 20
4.204999999999998
 30
0.0
 11
17.65200480000006
 21
4.204999999999998
 31
0.0
  0
LINE
  5
612F
330
6118
100
AcDbEntity
  8
0
 62
     7
100
AcDbLine
 10
17.35200480000009
 20
0.5419498565080261
 30
0.0
 11
17.35200480000009
 21
3.268050143491976
 31
0.0
  0
LINE
  5
6130
330
6118
100
AcDbEntity
  8
0
 62
     7
100
AcDbLine
 10
17.85200480000012
 20
4.204999999999998
 30
0.0
 11
18.35200480000003
 21
4.204999999999998
 31
0.0
  0
LINE
  5
6131
330
6118
100
AcDbEntity
  8
0
 62
     7
100
AcDbLine
 10
17.65200480000006
 20
4.204999999999998
 30
0.0
 11
17.85200480000012
 21
4.204999999999998
 31
0.0
  0
LINE
  5
6132
330
6118
100
AcDbEntity
  8
0
 62
     7
100
AcDbLine
 10
18.7389363832017
 20
8.230000000000003
 30
0.0
 11
17.36507321679828
 21
8.230000000000003
 31
0.0
  0
LINE
  5
6133
330
6118
100
AcDbEntity
  8
0
 62
     7
100
AcDbLine
 10
22.15200480000001
 20
4.204999999999998
 30
0.0
 11
22.15200480000001
 21
-4.204999999999998
 31
0.0
  0
LINE
  5
6134
330
6118
100
AcDbEntity
  8
0
 62
     7
100
AcDbLine
 10
15.25200480000002
 20
-4.204999999999998
 30
0.0
 11
12.7520048
 21
-4.204999999999998
 31
0.0
  0
LINE
  5
6135
330
6118
100
AcDbEntity
  8
0
 62
     7
100
AcDbLine
 10
15.25200480000002
 20
4.204999999999998
 30
0.0
 11
17.35200480000001
 21
4.204999999999998
 31
0.0
  0
LINE
  5
6136
330
6118
100
AcDbEntity
  8
0
 62
     7
100
AcDbLine
 10
15.25200480000002
 20
-4.204999999999998
 30
0.0
 11
17.35200480000001
 21
-4.204999999999998
 31
0.0
  0
LINE
  5
6137
330
6118
100
AcDbEntity
  8
0
 62
     7
100
AcDbLine
 10
20.85200480000001
 20
4.204999999999998
 30
0.0
 11
18.35200480000003
 21
4.204999999999998
 31
0.0
  0
LINE
  5
6138
330
6118
100
AcDbEntity
  8
0
 62
     7
100
AcDbLine
 10
22.15200480000001
 20
4.204999999999998
 30
0.0
 11
20.85200480000001
 21
4.204999999999998
 31
0.0
  0
LINE
  5
6139
330
6118
100
AcDbEntity
  8
0
 62
     7
100
AcDbLine
 10
20.85200480000001
 20
-4.204999999999998
 30
0.0
 11
22.15200480000001
 21
-4.204999999999998
 31
0.0
  0
LINE
  5
613A
330
6118
100
AcDbEntity
  8
0
 62
     7
100
AcDbLine
 10
22.2520048
 20
4.204999999999998
 30
0.0
 11
22.15200480000001
 21
4.204999999999998
 31
0.0
  0
LINE
  5
613B
330
6118
100
AcDbEntity
  8
0
 62
     7
100
AcDbLine
 10
22.2520048
 20
-4.204999999999998
 30
0.0
 11
22.15200480000001
 21
-4.204999999999998
 31
0.0
  0
LINE
  5
613C
330
6118
100
AcDbEntity
  8
0
 62
     7
100
AcDbLine
 10
22.75200479999999
 20
-3.355000000000017
 30
0.0
 11
22.75200479999999
 21
-3.405000000000001
 31
0.0
  0
LINE
  5
613D
330
6118
100
AcDbEntity
  8
0
 62
     7
100
AcDbLine
 10
22.75200479999999
 20
-3.057345434320807
 30
0.0
 11
22.75200479999999
 21
-3.355000000000017
 31
0.0
  0
LINE
  5
613E
330
6118
100
AcDbEntity
  8
0
 62
     7
100
AcDbLine
 10
15.25200480000002
 20
4.204999999999998
 30
0.0
 11
12.7520048
 21
4.204999999999998
 31
0.0
  0
LINE
  5
613F
330
6118
100
AcDbEntity
  8
0
 62
     7
100
AcDbLine
 10
12.51610641513737
 20
-3.268549682463004
 30
0.0
 11
12.51610641513737
 21
-0.5414503175369987
 31
0.0
  0
LINE
  5
6140
330
6118
100
AcDbEntity
  8
0
 62
     7
100
AcDbLine
 10
22.75200479999999
 20
-3.057345434320807
 30
0.0
 11
22.75200479999999
 21
-0.7526545656791513
 31
0.0
  0
LINE
  5
6141
330
6118
100
AcDbEntity
  8
0
 62
     7
100
AcDbLine
 10
22.75200479999999
 20
-0.4549999999999841
 30
0.0
 11
22.75200479999999
 21
-0.7526545656791513
 31
0.0
  0
LINE
  5
6142
330
6118
100
AcDbEntity
  8
0
 62
     7
100
AcDbLine
 10
22.75200479999999
 20
0.4549999999999841
 30
0.0
 11
22.75200479999999
 21
-0.4549999999999841
 31
0.0
  0
LINE
  5
6143
330
6118
100
AcDbEntity
  8
0
 62
     7
100
AcDbLine
 10
12.51610641513737
 20
0.5414503175369987
 30
0.0
 11
12.51610641513737
 21
3.268549682463004
 31
0.0
  0
LINE
  5
6144
330
6118
100
AcDbEntity
  8
0
 62
     7
100
AcDbLine
 10
13.05200480000026
 20
2.765000000000071
 30
0.0
 11
13.01578513557523
 21
2.765000000000128
 31
0.0
  0
LINE
  5
6145
330
6118
100
AcDbEntity
  8
0
 62
     7
100
AcDbLine
 10
15.80200480000035
 20
2.765000000000071
 30
0.0
 11
13.05200480000026
 21
2.765000000000071
 31
0.0
  0
LINE
  5
6146
330
6118
100
AcDbEntity
  8
0
 62
     7
100
AcDbLine
 10
15.97876816497175
 20
2.76500000000008
 30
0.0
 11
15.80200480000035
 21
2.765000000000071
 31
0.0
  0
LINE
  5
6147
330
6118
100
AcDbEntity
  8
0
 62
     7
100
AcDbLine
 10
13.05200480000026
 20
2.765000000000071
 30
0.0
 11
13.05200480000026
 21
1.045000000000044
 31
0.0
  0
LINE
  5
6148
330
6118
100
AcDbEntity
  8
0
 62
     7
100
AcDbLine
 10
15.80200480000035
 20
1.045000000000045
 30
0.0
 11
15.80200480000035
 21
2.765000000000071
 31
0.0
  0
LINE
  5
6149
330
6118
100
AcDbEntity
  8
0
 62
     7
100
AcDbLine
 10
13.05200480000026
 20
1.045000000000044
 30
0.0
 11
13.01578513557525
 21
1.044999999999945
 31
0.0
  0
LINE
  5
614A
330
6118
100
AcDbEntity
  8
0
 62
     7
100
AcDbLine
 10
13.05200480000026
 20
1.045000000000044
 30
0.0
 11
15.80200480000035
 21
1.045000000000045
 31
0.0
  0
LINE
  5
614B
330
6118
100
AcDbEntity
  8
0
 62
     7
100
AcDbLine
 10
15.97876816497182
 20
1.044999999999959
 30
0.0
 11
15.80200480000035
 21
1.045000000000045
 31
0.0
  0
LINE
  5
614C
330
6118
100
AcDbEntity
  8
0
 62
     7
100
AcDbLine
 10
22.75200479999999
 20
3.355000000000017
 30
0.0
 11
22.75200479999999
 21
3.405000000000001
 31
0.0
  0
LINE
  5
614D
330
6118
100
AcDbEntity
  8
0
 62
     7
100
AcDbLine
 10
22.75200479999999
 20
3.057345434320807
 30
0.0
 11
22.75200479999999
 21
3.355000000000017
 31
0.0
  0
LINE
  5
614E
330
6118
100
AcDbEntity
  8
0
 62
     7
100
AcDbLine
 10
22.75200479999999
 20
0.7526545656791939
 30
0.0
 11
22.75200479999999
 21
3.057345434320807
 31
0.0
  0
LINE
  5
614F
330
6118
100
AcDbEntity
  8
0
 62
     7
100
AcDbLine
 10
22.75200479999999
 20
0.7526545656791939
 30
0.0
 11
22.75200479999999
 21
0.4549999999999841
 31
0.0
  0
LINE
  5
6150
330
6118
100
AcDbEntity
  8
0
 62
     7
100
AcDbLine
 10
15.80200480000034
 20
-1.044999999999922
 30
0.0
 11
15.80200480000034
 21
-2.764999999999958
 31
0.0
  0
LINE
  5
6151
330
6118
100
AcDbEntity
  8
0
 62
     7
100
AcDbLine
 10
15.97876816497185
 20
-1.044999999999945
 30
0.0
 11
15.80200480000034
 21
-1.044999999999922
 31
0.0
  0
LINE
  5
6152
330
6118
100
AcDbEntity
  8
0
 62
     7
100
AcDbLine
 10
15.97876816497185
 20
-2.764999999999949
 30
0.0
 11
15.80200480000034
 21
-2.764999999999958
 31
0.0
  0
LINE
  5
6153
330
6118
100
AcDbEntity
  8
0
 62
     7
100
AcDbLine
 10
13.01578513557523
 20
-1.044999999999874
 30
0.0
 11
13.05200480000026
 21
-1.04499999999993
 31
0.0
  0
LINE
  5
6154
330
6118
100
AcDbEntity
  8
0
 62
     7
100
AcDbLine
 10
13.05200480000026
 20
-1.04499999999993
 30
0.0
 11
13.05200480000026
 21
-2.764999999999958
 31
0.0
  0
LINE
  5
6155
330
6118
100
AcDbEntity
  8
0
 62
     7
100
AcDbLine
 10
13.05200480000026
 20
-2.764999999999958
 30
0.0
 11
13.01578513557525
 21
-2.764999999999949
 31
0.0
  0
LINE
  5
6156
330
6118
100
AcDbEntity
  8
0
 62
     7
100
AcDbLine
 10
15.80200480000034
 20
-2.764999999999958
 30
0.0
 11
13.05200480000026
 21
-2.764999999999958
 31
0.0
  0
LINE
  5
6157
330
6118
100
AcDbEntity
  8
0
 62
     7
100
AcDbLine
 10
15.80200480000034
 20
-1.044999999999922
 30
0.0
 11
13.05200480000026
 21
-1.04499999999993
 31
0.0
  0
LINE
  5
6158
330
6118
100
AcDbEntity
  8
0
 62
     7
100
AcDbLine
 10
17.86491036107106
 20
9.005000000000009
 30
0.0
 11
17.72267493613536
 21
9.005000000000009
 31
0.0
  0
LINE
  5
6159
330
6118
100
AcDbEntity
  8
0
 62
     7
100
AcDbLine
 10
17.48272598516249
 20
9.005000000000009
 30
0.0
 11
17.72267493613536
 21
9.005000000000009
 31
0.0
  0
LINE
  5
615A
330
6118
100
AcDbEntity
  8
0
 62
     7
100
AcDbLine
 10
18.82895046341312
 20
9.005000000000009
 30
0.0
 11
19.06889941438586
 21
9.005000000000009
 31
0.0
  0
LINE
  5
615B
330
6118
100
AcDbEntity
  8
0
 62
     7
100
AcDbLine
 10
19.06889941438586
 20
9.005000000000009
 30
0.0
 11
19.22699627381939
 21
9.005000000000009
 31
0.0
  0
LINE
  5
615C
330
6118
100
AcDbEntity
  8
0
 62
     7
100
AcDbLine
 10
17.324629125729
 20
9.005000000000009
 30
0.0
 11
17.48272598516249
 21
9.005000000000009
 31
0.0
  0
LINE
  5
615D
330
6118
100
AcDbEntity
  8
0
 62
     7
100
AcDbLine
 10
18.68671503847739
 20
9.005000000000009
 30
0.0
 11
18.82895046341312
 21
9.005000000000009
 31
0.0
  0
LINE
  5
615E
330
6118
100
AcDbEntity
  8
0
 62
     7
100
AcDbLine
 10
18.50417483006699
 20
9.005000000000009
 30
0.0
 11
18.68671503847739
 21
9.005000000000009
 31
0.0
  0
LINE
  5
615F
330
6118
100
AcDbEntity
  8
0
 62
     7
100
AcDbLine
 10
18.0474505694814
 20
9.005000000000009
 30
0.0
 11
18.2758126997742
 21
9.005000000000009
 31
0.0
  0
LINE
  5
6160
330
6118
100
AcDbEntity
  8
0
 62
     7
100
AcDbLine
 10
17.86491036107106
 20
9.005000000000009
 30
0.0
 11
18.0474505694814
 21
9.005000000000009
 31
0.0
  0
LINE
  5
6161
330
6118
100
AcDbEntity
  8
0
 62
     7
100
AcDbLine
 10
18.2758126997742
 20
9.005000000000009
 30
0.0
 11
18.50417483006699
 21
9.005000000000009
 31
0.0
  0
LINE
  5
6162
330
6118
100
AcDbEntity
  8
0
 62
     7
100
AcDbLine
 10
17.324629125729
 20
9.005000000000009
 30
0.0
 11
17.03511018562189
 21
9.005000000000009
 31
0.0
  0
LINE
  5
6163
330
6118
100
AcDbEntity
  8
0
 62
     7
100
AcDbLine
 10
17.03511018562189
 20
9.005000000000009
 30
0.0
 11
16.8770133261884
 21
9.005000000000009
 31
0.0
  0
LINE
  5
6164
330
6118
100
AcDbEntity
  8
0
 62
     7
100
AcDbLine
 10
16.76280061257794
 20
9.005000000000009
 30
0.0
 11
16.8770133261884
 21
9.005000000000009
 31
0.0
  0
LINE
  5
6165
330
6118
100
AcDbEntity
  8
0
 62
     7
100
AcDbLine
 10
19.22699627381939
 20
9.005000000000009
 30
0.0
 11
19.3412089874221
 21
9.005000000000009
 31
0.0
  0
LINE
  5
6166
330
6118
100
AcDbEntity
  8
0
 62
     7
100
AcDbLine
 10
19.3412089874221
 20
9.005000000000009
 30
0.0
 11
19.55200480000002
 21
9.005000000000009
 31
0.0
  0
LINE
  5
6167
330
6118
100
AcDbEntity
  8
0
 62
     7
100
AcDbLine
 10
16.55200479999994
 20
9.005000000000009
 30
0.0
 11
16.76280061257794
 21
9.005000000000009
 31
0.0
  0
LINE
  5
6168
330
6118
100
AcDbEntity
  8
0
 62
     7
100
AcDbLine
 10
19.55200480000002
 20
9.005000000000009
 30
0.0
 11
19.85200480000001
 21
9.005000000000009
 31
0.0
  0
LINE
  5
6169
330
6118
100
AcDbEntity
  8
0
 62
     7
100
AcDbLine
 10
16.25200480000001
 20
9.005000000000009
 30
0.0
 11
16.55200479999994
 21
9.005000000000009
 31
0.0
  0
LINE
  5
616A
330
6118
100
AcDbEntity
  8
0
 62
     7
100
AcDbLine
 10
15.25200480000002
 20
4.204999999999998
 30
0.0
 11
15.25200480000002
 21
8.005000000000009
 31
0.0
  0
LINE
  5
616B
330
6118
100
AcDbEntity
  8
0
 62
     7
100
AcDbLine
 10
11.65200479999999
 20
4.204999999999998
 30
0.0
 11
12.4520048
 21
4.204999999999998
 31
0.0
  0
LINE
  5
616C
330
6118
100
AcDbEntity
  8
0
 62
     7
100
AcDbLine
 10
12.4520048
 20
-4.204999999999998
 30
0.0
 11
11.65200479999999
 21
-4.204999999999998
 31
0.0
  0
LINE
  5
616D
330
6118
100
AcDbEntity
  8
0
 62
     7
100
AcDbLine
 10
11.65200479999999
 20
-4.204999999999998
 30
0.0
 11
11.65200479999999
 21
4.204999999999998
 31
0.0
  0
LINE
  5
616E
330
6118
100
AcDbEntity
  8
0
 62
     7
100
AcDbLine
 10
12.7520048
 20
-4.204999999999998
 30
0.0
 11
12.4520048
 21
-4.204999999999998
 31
0.0
  0
LINE
  5
616F
330
6118
100
AcDbEntity
  8
0
 62
     7
100
AcDbLine
 10
12.7520048
 20
4.204999999999998
 30
0.0
 11
12.4520048
 21
4.204999999999998
 31
0.0
  0
LINE
  5
6170
330
6118
100
AcDbEntity
  8
0
 62
     7
100
AcDbLine
 10
20.85200480000001
 20
-4.204999999999998
 30
0.0
 11
20.85200480000001
 21
-8.005000000000009
 31
0.0
  0
LINE
  5
6171
330
6118
100
AcDbEntity
  8
0
 62
     7
100
AcDbLine
 10
15.25200480000002
 20
-4.204999999999998
 30
0.0
 11
15.25200480000002
 21
-8.005000000000009
 31
0.0
  0
LINE
  5
6172
330
6118
100
AcDbEntity
  8
0
 62
     7
100
AcDbLine
 10
18.73893638320173
 20
-4.579999999999998
 30
0.0
 11
17.36507321679825
 21
-4.579999999999998
 31
0.0
  0
LINE
  5
6173
330
6118
100
AcDbEntity
  8
0
 62
     7
100
AcDbLine
 10
19.87700479999998
 20
-5.718068416798275
 30
0.0
 11
19.87700479999998
 21
-7.091931583201699
 31
0.0
  0
LINE
  5
6174
330
6118
100
AcDbEntity
  8
0
 62
     7
100
AcDbLine
 10
19.12502869120912
 20
-7.972998638039709
 30
0.0
 11
16.48400616196028
 21
-5.331976108790865
 31
0.0
  0
LINE
  5
6175
330
6118
100
AcDbEntity
  8
0
 62
     7
100
AcDbLine
 10
16.97898090879085
 20
-4.837001361960271
 30
0.0
 11
19.6200034380397
 21
-7.478023891209117
 31
0.0
  0
LINE
  5
6176
330
6118
100
AcDbEntity
  8
0
 62
     7
100
AcDbLine
 10
16.22700479999998
 20
-5.718068416798261
 30
0.0
 11
16.22700479999998
 21
-7.091931583201699
 31
0.0
  0
LINE
  5
6177
330
6118
100
AcDbEntity
  8
0
 62
     7
100
AcDbLine
 10
18.73893638320166
 20
-8.229999999999989
 30
0.0
 11
17.36507321679831
 21
-8.229999999999989
 31
0.0
  0
LINE
  5
6178
330
6118
100
AcDbEntity
  8
0
 62
     7
100
AcDbLine
 10
16.25200480000001
 20
-9.005000000000009
 30
0.0
 11
19.85200480000001
 21
-9.005000000000009
 31
0.0
  0
ARC
  5
6179
330
6118
100
AcDbEntity
  8
0
 62
     7
100
AcDbCircle
 10
14.9320048000011
 20
20.39499999999989
 30
0.0
 40
20.00000000000011
100
AcDbArc
 50
263.6465784957678
 51
276.8921252520984
  0
ARC
  5
617A
330
6118
100
AcDbEntity
  8
0
 62
     7
100
AcDbCircle
 10
18.05200479999998
 20
6.405000000000014
 30
0.0
 40
1.949999999999999
100
AcDbArc
 50
9.617477116202456
 51
15.00000000000011
  0
ARC
  5
617B
330
6118
100
AcDbEntity
  8
0
 62
     7
100
AcDbCircle
 10
18.05200479999998
 20
6.405000000000014
 30
0.0
 40
1.949999999999996
100
AcDbArc
 50
339.3736189501979
 51
350.3825228837971
  0
ARC
  5
617C
330
6118
100
AcDbEntity
  8
0
 62
     7
100
AcDbCircle
 10
18.05200479999998
 20
6.405000000000014
 30
0.0
 40
1.950000000000004
100
AcDbArc
 50
290.6263810498014
 51
339.3736189501979
  0
ARC
  5
617D
330
6118
100
AcDbEntity
  8
0
 62
     7
100
AcDbCircle
 10
18.05200479999998
 20
6.405000000000014
 30
0.0
 40
1.950000000000006
100
AcDbArc
 50
159.3736189501985
 51
170.3825228837962
  0
ARC
  5
617E
330
6118
100
AcDbEntity
  8
0
 62
     7
100
AcDbCircle
 10
18.05200479999998
 20
6.405000000000014
 30
0.0
 40
1.95
100
AcDbArc
 50
189.6174771162041
 51
200.6263810498018
  0
ARC
  5
617F
330
6118
100
AcDbEntity
  8
0
 62
     7
100
AcDbCircle
 10
18.05200479999998
 20
6.405000000000014
 30
0.0
 40
1.899999999999996
100
AcDbArc
 50
45.00000000000003
 51
73.84784348690004
  0
ARC
  5
6180
330
6118
100
AcDbEntity
  8
0
 62
     7
100
AcDbCircle
 10
18.05200479999998
 20
6.405000000000014
 30
0.0
 40
1.899999999999988
100
AcDbArc
 50
124.3848921492918
 51
145.6151078507083
  0
ARC
  5
6181
330
6118
100
AcDbEntity
  8
0
 62
     7
100
AcDbCircle
 10
18.05200479999998
 20
6.405000000000014
 30
0.0
 40
1.899999999999995
100
AcDbArc
 50
145.6151078507083
 51
163.8478434869018
  0
ARC
  5
6182
330
6118
100
AcDbEntity
  8
0
 62
     7
100
AcDbCircle
 10
18.05200479999998
 20
6.405000000000014
 30
0.0
 40
1.899999999999997
100
AcDbArc
 50
196.1521565130981
 51
253.8478434869018
  0
ARC
  5
6183
330
6118
100
AcDbEntity
  8
0
 62
     7
100
AcDbCircle
 10
18.05200479999998
 20
6.405000000000014
 30
0.0
 40
1.95
100
AcDbArc
 50
249.3736189501989
 51
260.382522883796
  0
ARC
  5
6184
330
6118
100
AcDbEntity
  8
0
 62
     7
100
AcDbCircle
 10
18.05200479999998
 20
6.405000000000014
 30
0.0
 40
1.95000000000001
100
AcDbArc
 50
200.6263810498018
 51
249.3736189501989
  0
ARC
  5
6185
330
6118
100
AcDbEntity
  8
0
 62
     7
100
AcDbCircle
 10
18.05200479999998
 20
6.405000000000014
 30
0.0
 40
1.949999999999992
100
AcDbArc
 50
110.6263810498015
 51
159.3736189501985
  0
ARC
  5
6186
330
6118
100
AcDbEntity
  8
0
 62
     7
100
AcDbCircle
 10
18.05200479999998
 20
6.405000000000014
 30
0.0
 40
1.899999999999997
100
AcDbArc
 50
106.1521565130997
 51
124.3848921492918
  0
ARC
  5
6187
330
6118
100
AcDbEntity
  8
0
 62
     7
100
AcDbCircle
 10
19.85200480000001
 20
8.005000000000009
 30
0.0
 40
1.0
100
AcDbArc
 50
0.0
 51
45.57299599919454
  0
ARC
  5
6188
330
6118
100
AcDbEntity
  8
0
 62
     7
100
AcDbCircle
 10
18.05200479999998
 20
6.405000000000014
 30
0.0
 40
1.949999999999991
100
AcDbArc
 50
69.37361895019858
 51
80.3825228837967
  0
ARC
  5
6189
330
6118
100
AcDbEntity
  8
0
 62
     7
100
AcDbCircle
 10
18.05200479999998
 20
6.405000000000014
 30
0.0
 40
1.949999999999996
100
AcDbArc
 50
99.61747711620342
 51
110.6263810498015
  0
ARC
  5
618A
330
6118
100
AcDbEntity
  8
0
 62
     7
100
AcDbCircle
 10
18.05200479999998
 20
6.405000000000014
 30
0.0
 40
1.949999999999992
100
AcDbArc
 50
20.62638104980153
 51
69.37361895019858
  0
ARC
  5
618B
330
6118
100
AcDbEntity
  8
0
 62
     7
100
AcDbCircle
 10
18.05200479999998
 20
6.405000000000014
 30
0.0
 40
1.899999999999998
100
AcDbArc
 50
325.6151078507081
 51
343.8478434869001
  0
ARC
  5
618C
330
6118
100
AcDbEntity
  8
0
 62
     7
100
AcDbCircle
 10
14.93200480000109
 20
-16.58499999999989
 30
0.0
 40
19.99999999999993
100
AcDbArc
 50
83.05018107851344
 51
83.10787474790149
  0
ARC
  5
618D
330
6118
100
AcDbEntity
  8
0
 62
     7
100
AcDbCircle
 10
18.05200479999998
 20
6.405000000000014
 30
0.0
 40
1.950000000000011
100
AcDbArc
 50
279.6174771162034
 51
290.6263810498014
  0
ARC
  5
618E
330
6118
100
AcDbEntity
  8
0
 62
     7
100
AcDbCircle
 10
18.05200479999998
 20
6.405000000000014
 30
0.0
 40
1.899999999999998
100
AcDbArc
 50
286.1521565130983
 51
304.3848921492918
  0
ARC
  5
618F
330
6118
100
AcDbEntity
  8
0
 62
     7
100
AcDbCircle
 10
18.05200479999998
 20
6.405000000000014
 30
0.0
 40
1.949999999999995
100
AcDbArc
 50
15.00000000000011
 51
20.62638104980153
  0
ARC
  5
6190
330
6118
100
AcDbEntity
  8
0
 62
     7
100
AcDbCircle
 10
18.05200479999998
 20
6.405000000000014
 30
0.0
 40
1.949999999999999
100
AcDbArc
 50
0.0
 51
9.617477116202456
  0
ARC
  5
6191
330
6118
100
AcDbEntity
  8
0
 62
     7
100
AcDbCircle
 10
18.05200479999998
 20
6.405000000000014
 30
0.0
 40
1.95
100
AcDbArc
 50
350.3825228837971
 51
0.0
  0
ARC
  5
6192
330
6118
100
AcDbEntity
  8
0
 62
     7
100
AcDbCircle
 10
18.05200479999998
 20
6.405000000000014
 30
0.0
 40
1.950000000000014
100
AcDbArc
 50
260.382522883796
 51
279.6174771162034
  0
ARC
  5
6193
330
6118
100
AcDbEntity
  8
0
 62
     7
100
AcDbCircle
 10
18.05200479999998
 20
6.405000000000014
 30
0.0
 40
1.899999999999998
100
AcDbArc
 50
304.3848921492918
 51
325.6151078507081
  0
ARC
  5
6194
330
6118
100
AcDbEntity
  8
0
 62
     7
100
AcDbCircle
 10
14.9320048000011
 20
20.39499999999989
 30
0.0
 40
19.99999999999987
100
AcDbArc
 50
276.8921252520984
 51
276.9498189214866
  0
ARC
  5
6195
330
6118
100
AcDbEntity
  8
0
 62
     7
100
AcDbCircle
 10
14.93200480000002
 20
-20.39499999999989
 30
0.0
 40
20.00000000000006
100
AcDbArc
 50
83.05018107851052
 51
83.10787474789842
  0
ARC
  5
6196
330
6118
100
AcDbEntity
  8
0
 62
     7
100
AcDbCircle
 10
14.93200480000002
 20
16.58499999999989
 30
0.0
 40
20.00000000000001
100
AcDbArc
 50
276.8921252521029
 51
276.9498189214893
  0
ARC
  5
6197
330
6118
100
AcDbEntity
  8
0
 62
     7
100
AcDbCircle
 10
18.05200479999998
 20
6.405000000000014
 30
0.0
 40
1.899999999999998
100
AcDbArc
 50
16.15215651309982
 51
45.00000000000003
  0
ARC
  5
6198
330
6118
100
AcDbEntity
  8
0
 62
     7
100
AcDbCircle
 10
18.05200479999998
 20
6.405000000000014
 30
0.0
 40
1.949999999999995
100
AcDbArc
 50
80.3825228837967
 51
99.61747711620342
  0
ARC
  5
6199
330
6118
100
AcDbEntity
  8
0
 62
     7
100
AcDbCircle
 10
18.05200479999998
 20
6.405000000000014
 30
0.0
 40
1.949999999999997
100
AcDbArc
 50
170.3825228837962
 51
189.6174771162041
  0
ARC
  5
619A
330
6118
100
AcDbEntity
  8
0
 62
     7
100
AcDbCircle
 10
14.93200480000002
 20
16.58499999999989
 30
0.0
 40
19.99999999999999
100
AcDbArc
 50
263.6465784957709
 51
276.8921252521029
  0
ARC
  5
619B
330
6118
100
AcDbEntity
  8
0
 62
     7
100
AcDbCircle
 10
14.93200480000109
 20
-16.58499999999989
 30
0.0
 40
19.99999999999987
100
AcDbArc
 50
83.10787474790149
 51
90.00000000000277
  0
ARC
  5
619C
330
6118
100
AcDbEntity
  8
0
 62
     7
100
AcDbCircle
 10
14.93200480000109
 20
-16.58499999999989
 30
0.0
 40
20.0
100
AcDbArc
 50
90.00000000000277
 51
96.35342150423221
  0
ARC
  5
619D
330
6118
100
AcDbEntity
  8
0
 62
     7
100
AcDbCircle
 10
14.93200480000002
 20
-20.39499999999989
 30
0.0
 40
19.99999999999999
100
AcDbArc
 50
96.35342150422914
 51
96.93798183461964
  0
ARC
  5
619E
330
6118
100
AcDbEntity
  8
0
 62
     7
100
AcDbCircle
 10
14.93200480000002
 20
-20.39499999999989
 30
0.0
 40
20.0
100
AcDbArc
 50
89.99999999999968
 51
96.35342150422914
  0
ARC
  5
619F
330
6118
100
AcDbEntity
  8
0
 62
     7
100
AcDbCircle
 10
14.93200480000002
 20
-20.39499999999989
 30
0.0
 40
20.0
100
AcDbArc
 50
83.10787474789842
 51
89.99999999999968
  0
ARC
  5
61A0
330
6118
100
AcDbEntity
  8
0
 62
     7
100
AcDbCircle
 10
14.93200480000109
 20
-16.58499999999989
 30
0.0
 40
20.0000000000001
100
AcDbArc
 50
96.35342150423221
 51
96.93798183462273
  0
ARC
  5
61A1
330
6118
100
AcDbEntity
  8
0
 62
     7
100
AcDbCircle
 10
14.9320048000011
 20
20.39499999999989
 30
0.0
 40
20.00000000000024
100
AcDbArc
 50
263.0620181653773
 51
263.6465784957678
  0
ARC
  5
61A2
330
6118
100
AcDbEntity
  8
0
 62
     7
100
AcDbCircle
 10
14.93200480000002
 20
16.58499999999989
 30
0.0
 40
20.00000000000011
100
AcDbArc
 50
263.0620181653803
 51
263.6465784957709
  0
ARC
  5
61A3
330
6118
100
AcDbEntity
  8
0
 62
     7
100
AcDbCircle
 10
19.85200480000001
 20
8.005000000000009
 30
0.0
 40
0.9999999999999779
100
AcDbArc
 50
45.57299599919454
 51
90.0
  0
ARC
  5
61A4
330
6118
100
AcDbEntity
  8
0
 62
     7
100
AcDbCircle
 10
19.85200480000001
 20
-8.005000000000009
 30
0.0
 40
1.000000000000001
100
AcDbArc
 50
314.4270040008046
 51
0.0
  0
ARC
  5
61A5
330
6118
100
AcDbEntity
  8
0
 62
     7
100
AcDbCircle
 10
16.25200480000001
 20
8.005000000000009
 30
0.0
 40
1.0
100
AcDbArc
 50
90.0
 51
180.0
  0
ARC
  5
61A6
330
6118
100
AcDbEntity
  8
0
 62
     7
100
AcDbCircle
 10
18.05200479999998
 20
-6.404999999999986
 30
0.0
 40
1.95
100
AcDbArc
 50
350.3825228837971
 51
0.0
  0
ARC
  5
61A7
330
6118
100
AcDbEntity
  8
0
 62
     7
100
AcDbCircle
 10
18.05200479999998
 20
-6.404999999999986
 30
0.0
 40
1.949999999999992
100
AcDbArc
 50
339.3736189501986
 51
345.0000000000001
  0
ARC
  5
61A8
330
6118
100
AcDbEntity
  8
0
 62
     7
100
AcDbCircle
 10
18.05200479999998
 20
-6.404999999999986
 30
0.0
 40
1.950000000000006
100
AcDbArc
 50
200.6263810498014
 51
249.3736189501996
  0
ARC
  5
61A9
330
6118
100
AcDbEntity
  8
0
 62
     7
100
AcDbCircle
 10
18.05200479999998
 20
-6.404999999999986
 30
0.0
 40
1.95000000000001
100
AcDbArc
 50
99.61747711620569
 51
110.6263810498023
  0
ARC
  5
61AA
330
6118
100
AcDbEntity
  8
0
 62
     7
100
AcDbCircle
 10
18.05200479999998
 20
-6.404999999999986
 30
0.0
 40
1.899999999999996
100
AcDbArc
 50
45.00000000000002
 51
73.84784348690004
  0
ARC
  5
61AB
330
6118
100
AcDbEntity
  8
0
 62
     7
100
AcDbCircle
 10
18.05200479999998
 20
-6.404999999999986
 30
0.0
 40
1.899999999999997
100
AcDbArc
 50
325.6151078507081
 51
343.8478434869003
  0
ARC
  5
61AC
330
6118
100
AcDbEntity
  8
0
 62
     7
100
AcDbCircle
 10
18.05200479999998
 20
-6.404999999999986
 30
0.0
 40
1.899999999999997
100
AcDbArc
 50
16.15215651309974
 51
45.00000000000002
  0
ARC
  5
61AD
330
6118
100
AcDbEntity
  8
0
 62
     7
100
AcDbCircle
 10
18.05200479999998
 20
-6.404999999999986
 30
0.0
 40
1.950000000000002
100
AcDbArc
 50
110.6263810498023
 51
159.3736189501982
  0
ARC
  5
61AE
330
6118
100
AcDbEntity
  8
0
 62
     7
100
AcDbCircle
 10
18.05200479999998
 20
-6.404999999999986
 30
0.0
 40
1.949999999999991
100
AcDbArc
 50
290.6263810498001
 51
339.3736189501986
  0
ARC
  5
61AF
330
6118
100
AcDbEntity
  8
0
 62
     7
100
AcDbCircle
 10
18.05200479999998
 20
-6.404999999999986
 30
0.0
 40
1.899999999999996
100
AcDbArc
 50
124.384892149292
 51
145.6151078507081
  0
ARC
  5
61B0
330
6118
100
AcDbEntity
  8
0
 62
     7
100
AcDbCircle
 10
18.05200479999998
 20
-6.404999999999986
 30
0.0
 40
1.899999999999988
100
AcDbArc
 50
145.6151078507081
 51
163.8478434869015
  0
ARC
  5
61B1
330
6118
100
AcDbEntity
  8
0
 62
     7
100
AcDbCircle
 10
18.05200479999998
 20
-6.404999999999986
 30
0.0
 40
1.9
100
AcDbArc
 50
304.3848921492918
 51
325.6151078507081
  0
ARC
  5
61B2
330
6118
100
AcDbEntity
  8
0
 62
     7
100
AcDbCircle
 10
18.05200479999998
 20
-6.404999999999986
 30
0.0
 40
1.9
100
AcDbArc
 50
286.1521565130983
 51
304.3848921492918
  0
ARC
  5
61B3
330
6118
100
AcDbEntity
  8
0
 62
     7
100
AcDbCircle
 10
18.05200479999998
 20
-6.404999999999986
 30
0.0
 40
1.9
100
AcDbArc
 50
196.1521565130984
 51
253.8478434869018
  0
ARC
  5
61B4
330
6118
100
AcDbEntity
  8
0
 62
     7
100
AcDbCircle
 10
18.05200479999998
 20
-6.404999999999986
 30
0.0
 40
1.899999999999997
100
AcDbArc
 50
106.1521565130997
 51
124.384892149292
  0
ARC
  5
61B5
330
6118
100
AcDbEntity
  8
0
 62
     7
100
AcDbCircle
 10
18.05200479999998
 20
-6.404999999999986
 30
0.0
 40
1.950000000000003
100
AcDbArc
 50
9.617477116203307
 51
20.62638104980153
  0
ARC
  5
61B6
330
6118
100
AcDbEntity
  8
0
 62
     7
100
AcDbCircle
 10
18.05200479999998
 20
-6.404999999999986
 30
0.0
 40
1.949999999999999
100
AcDbArc
 50
0.0
 51
9.617477116203307
  0
ARC
  5
61B7
330
6118
100
AcDbEntity
  8
0
 62
     7
100
AcDbCircle
 10
18.05200479999998
 20
-6.404999999999986
 30
0.0
 40
1.949999999999992
100
AcDbArc
 50
345.0000000000001
 51
350.3825228837971
  0
ARC
  5
61B8
330
6118
100
AcDbEntity
  8
0
 62
     7
100
AcDbCircle
 10
18.05200479999998
 20
-6.404999999999986
 30
0.0
 40
1.950000000000004
100
AcDbArc
 50
69.37361895019749
 51
80.38252288379444
  0
ARC
  5
61B9
330
6118
100
AcDbEntity
  8
0
 62
     7
100
AcDbCircle
 10
18.05200479999998
 20
-6.404999999999986
 30
0.0
 40
1.949999999999992
100
AcDbArc
 50
20.62638104980153
 51
69.37361895019749
  0
ARC
  5
61BA
330
6118
100
AcDbEntity
  8
0
 62
     7
100
AcDbCircle
 10
18.05200479999998
 20
-6.404999999999986
 30
0.0
 40
1.95
100
AcDbArc
 50
189.6174771162041
 51
200.6263810498014
  0
ARC
  5
61BB
330
6118
100
AcDbEntity
  8
0
 62
     7
100
AcDbCircle
 10
18.05200479999998
 20
-6.404999999999986
 30
0.0
 40
1.95000000000001
100
AcDbArc
 50
159.3736189501982
 51
170.3825228837958
  0
ARC
  5
61BC
330
6118
100
AcDbEntity
  8
0
 62
     7
100
AcDbCircle
 10
18.05200479999998
 20
-6.404999999999986
 30
0.0
 40
1.950000000000008
100
AcDbArc
 50
80.38252288379444
 51
99.61747711620569
  0
ARC
  5
61BD
330
6118
100
AcDbEntity
  8
0
 62
     7
100
AcDbCircle
 10
18.05200479999998
 20
-6.404999999999986
 30
0.0
 40
1.95
100
AcDbArc
 50
170.3825228837958
 51
189.6174771162041
  0
ARC
  5
61BE
330
6118
100
AcDbEntity
  8
0
 62
     7
100
AcDbCircle
 10
18.05200479999998
 20
-6.404999999999986
 30
0.0
 40
1.949999999999995
100
AcDbArc
 50
279.6174771162005
 51
290.6263810498001
  0
ARC
  5
61BF
330
6118
100
AcDbEntity
  8
0
 62
     7
100
AcDbCircle
 10
18.05200479999998
 20
-6.404999999999986
 30
0.0
 40
1.949999999999992
100
AcDbArc
 50
249.3736189501996
 51
260.3825228837994
  0
ARC
  5
61C0
330
6118
100
AcDbEntity
  8
0
 62
     7
100
AcDbCircle
 10
18.05200479999998
 20
-6.404999999999986
 30
0.0
 40
1.949999999999995
100
AcDbArc
 50
260.3825228837994
 51
279.6174771162005
  0
ARC
  5
61C1
330
6118
100
AcDbEntity
  8
0
 62
     7
100
AcDbCircle
 10
19.85200480000001
 20
-8.005000000000009
 30
0.0
 40
1.0
100
AcDbArc
 50
270.0
 51
314.4270040008046
  0
ARC
  5
61C2
330
6118
100
AcDbEntity
  8
0
 62
     7
100
AcDbCircle
 10
16.25200480000001
 20
-8.005000000000009
 30
0.0
 40
1.0
100
AcDbArc
 50
180.0
 51
270.0
  0
LWPOLYLINE
  5
61C3
330
6118
100
AcDbEntity
  8
0
 62
     7
100
AcDbPolyline
 90
        8
 70
     0
 43
0.0
 10
17.33201265709492
 20
3.270476883869775
 42
0.0335310637653838
 10
17.31329089504755
 20
3.271318850572598
 42
0.0156165892135584
 10
17.28941606510463
 20
3.270301414414703
 42
0.0071889415064502
 10
17.26096723987685
 20
3.267894183712745
 10
17.24520853922197
 20
3.266316148006695
 42
0.0004735704562555
 10
17.20263031056757
 20
3.261820140191021
 42
-0.0032656780077607
 10
17.15475467428841
 20
3.257047853800718
 42
-0.0060397432882063
 10
17.10200480000014
 20
3.252767990508274
  0
LWPOLYLINE
  5
61C4
330
6118
100
AcDbEntity
  8
0
 62
     7
100
AcDbPolyline
 90
        8
 70
     0
 43
0.0
 38
1.004996417558615E+99
 10
17.10200480000016
 20
-3.252767990508261
 42
-0.0057841437119752
 10
17.15475467428849
 20
-3.257047853800721
 42
-0.0030986770794639
 10
17.20263031056765
 20
-3.261820140191028
 42
0.0004438508909904
 10
17.24520853922196
 20
-3.266316148006695
 10
17.26096723987798
 20
-3.26789418371285
 42
0.0066594803953065
 10
17.28941606510647
 20
-3.270301414414806
 42
0.0140857367880889
 10
17.31329089504882
 20
-3.271318850572584
 42
0.029075955183634
 10
17.33201265709538
 20
-3.27047688386973
  0
LWPOLYLINE
  5
61C5
330
6118
100
AcDbEntity
  8
0
 62
     7
100
AcDbPolyline
 90
        8
 70
     0
 43
0.0
 38
1.004996417558615E+99
 10
17.33201265709492
 20
-0.5395231161302263
 42
0.0335310637654514
 10
17.31329089504755
 20
-0.5386811494274043
 42
0.0156165892136423
 10
17.28941606510463
 20
-0.5396985855852991
 42
0.0071889415065424
 10
17.26096723987685
 20
-0.5421058162872582
 10
17.24520853922197
 20
-0.5436838519933076
 42
0.000473570456253
 10
17.20263031056757
 20
-0.5481798598089815
 42
-0.0032656780077582
 10
17.15475467428841
 20
-0.5529521461992828
 42
-0.0060397432882149
 10
17.10200480000014
 20
-0.5572320094917274
  0
LWPOLYLINE
  5
61C6
330
6118
100
AcDbEntity
  8
0
 62
     7
100
AcDbPolyline
 90
        7
 70
     0
 43
0.0
 38
1.004996417558615E+99
 10
16.616100821069
 20
-3.162470935450638
 42
0.0142366455524767
 10
16.71847418368156
 20
-3.191985082742943
 42
0.0120695717613071
 10
16.81329986998719
 20
-3.21388240731759
 10
16.85709152197306
 20
-3.222370470715873
 42
0.0109464766023359
 10
16.94590726101023
 20
-3.23663611128645
 42
0.0117619100328867
 10
17.04699139911177
 20
-3.248331995093447
 10
17.10200480000016
 20
-3.252767990508261
  0
LWPOLYLINE
  5
61C7
330
6118
100
AcDbEntity
  8
0
 62
     7
100
AcDbPolyline
 90
        7
 70
     0
 43
0.0
 38
1.004996417558615E+99
 10
17.10200480000014
 20
-0.5572320094917274
 42
0.0114955886726863
 10
16.99494164454427
 20
-0.5671050695806743
 42
0.010693155915218
 10
16.89993997955839
 20
-0.580265146700024
 10
16.85709152380381
 20
-0.587629528949833
 42
0.0132133522827158
 10
16.74997761891906
 20
-0.6101877167674827
 42
0.012315081278624
 10
16.65713327402092
 20
-0.6349225981987328
 10
16.61610082105868
 20
-0.6475290645263101
  0
LWPOLYLINE
  5
61C8
330
6118
100
AcDbEntity
  8
0
 62
     7
100
AcDbPolyline
 90
       10
 70
     0
 43
0.0
 38
1.004996417558615E+99
 10
12.71878452584433
 20
-3.292164184512589
 42
0.0713896900981334
 10
12.73912646990165
 20
-3.291515258092779
 42
0.0666714301192336
 10
12.75931935202005
 20
-3.285058393107493
 42
0.0553520163103628
 10
12.77927648011357
 20
-3.272838617559158
 42
0.0432324602286106
 10
12.79891116209622
 20
-3.254900959450196
 10
12.80956552699472
 20
-3.242584230898982
 42
0.0279507230419066
 10
12.82857928705096
 20
-3.215784155475322
 10
12.83691288690262
 20
-3.201967815856306
 42
0.0205298851605054
 10
12.85509923991141
 20
-3.167032021894308
 42
0.016567694174159
 10
12.87247386876198
 20
-3.126852274657494
  0
LWPOLYLINE
  5
61C9
330
6118
100
AcDbEntity
  8
0
 62
     7
100
AcDbPolyline
 90
        8
 70
     0
 43
0.0
 38
1.004996417558615E+99
 10
16.55200479999989
 20
-3.141833507019384
 42
-0.0172357152741053
 10
16.45363200812228
 20
-3.106123295177748
 42
-0.0156206511984958
 10
16.37121760425574
 20
-3.069661539308611
 10
16.2907379072175
 20
-3.027361546687111
 10
16.21532243007297
 20
-2.980605332479683
 42
-0.0289969906790955
 10
16.11019173680183
 20
-2.900816274056373
 42
-0.0309858041169319
 10
16.01892463016775
 20
-2.812265826742595
 10
15.97876816497185
 20
-2.764999999999949
  0
LWPOLYLINE
  5
61CA
330
6118
100
AcDbEntity
  8
0
 62
     7
100
AcDbPolyline
 90
        4
 70
     0
 43
0.0
 38
1.004996417558615E+99
 10
12.87247386876198
 20
-3.126852274657494
 42
0.0000672453982348
 10
12.94413775952127
 20
-2.945977117000836
 10
12.97994661263786
 20
-2.855544234353944
 10
13.01578513557525
 20
-2.764999999999949
  0
LWPOLYLINE
  5
61CB
330
6118
100
AcDbEntity
  8
0
 62
     7
100
AcDbPolyline
 90
       13
 70
     0
 43
0.0
 38
1.004996417558615E+99
 10
12.71878452584433
 20
-0.5178358154874161
 42
-0.0540737045845098
 10
12.73373645593272
 20
-0.5177442886678304
 42
-0.0584544106834491
 10
12.75038643120335
 20
-0.5213637008600364
 10
12.75928426185442
 20
-0.5249252922323393
 42
-0.0430322370880051
 10
12.77401265121024
 20
-0.533362369981703
 42
-0.0397710223195412
 10
12.7902793546071
 20
-0.5464696695280157
 10
12.79891116277707
 20
-0.5550990412774582
 42
-0.0259639365893202
 10
12.81314111282177
 20
-0.5719740014074884
 42
-0.0236660583852533
 10
12.82871446065355
 20
-0.5944295456982303
 10
12.83691288664194
 20
-0.6080321836908241
 42
-0.0132121325114661
 10
12.84801734031893
 20
-0.6285501157737668
 42
-0.0126137944452103
 10
12.8599357948471
 20
-0.6534447134590642
 42
-0.0118616736523889
 10
12.87247386876198
 20
-0.6831477253424936
  0
LWPOLYLINE
  5
61CC
330
6118
100
AcDbEntity
  8
0
 62
     7
100
AcDbPolyline
 90
        6
 70
     0
 43
0.0
 38
1.004996417558615E+99
 10
15.97876816497175
 20
2.76500000000008
 42
-0.0325977349406635
 10
16.06276956961641
 20
2.857577224051703
 42
-0.030522221758657
 10
16.16107974477825
 20
2.941864930859147
 10
16.21532237832621
 20
2.980605297711776
 42
-0.0365061160130735
 10
16.37398103609807
 20
3.070990548300478
 42
-0.0339342447692767
 10
16.55200480000024
 20
3.141833507019082
  0
LWPOLYLINE
  5
61CD
330
6118
100
AcDbEntity
  8
0
 62
     7
100
AcDbPolyline
 90
        4
 70
     0
 43
0.0
 38
1.004996417558615E+99
 10
13.01578513557523
 20
2.765000000000128
 42
0.0000688030150836
 10
12.94413775952126
 20
2.945977117000865
 10
12.90847227567684
 20
3.036012270361933
 10
12.87247386876221
 20
3.126852274657494
  0
LWPOLYLINE
  5
61CE
330
6118
100
AcDbEntity
  8
0
 62
     7
100
AcDbPolyline
 90
        7
 70
     0
 43
0.0
 38
1.004996417558615E+99
 10
17.10200480000014
 20
3.252767990508274
 42
0.0103287961059071
 10
17.01053164590373
 20
3.244652098382688
 42
0.0118254457483567
 10
16.91010503245275
 20
3.231348856690711
 10
16.85709152380381
 20
3.222370471050168
 42
0.0117303694242514
 10
16.76698865005261
 20
3.203806706214678
 42
0.0137357288488717
 10
16.66807279980443
 20
3.178259253991158
 10
16.61610082105868
 20
3.162470935473691
  0
LWPOLYLINE
  5
61CF
330
6118
100
AcDbEntity
  8
0
 62
     7
100
AcDbPolyline
 90
       13
 70
     0
 43
0.0
 38
1.004996417558615E+99
 10
12.71878452584433
 20
3.292164184512586
 42
-0.0601256924076704
 10
12.73631142739282
 20
3.291953258094934
 42
-0.0520112694679805
 10
12.75209506241659
 20
3.288040995659616
 10
12.75928426185442
 20
3.285074707767662
 42
-0.0430322370962311
 10
12.77401265121556
 20
3.276637630014683
 42
-0.0397710223088454
 10
12.79027935461039
 20
3.263530330468931
 10
12.79891116277707
 20
3.254900958722543
 42
-0.0259639365891621
 10
12.8131411128218
 20
3.238025998592486
 42
-0.0236660583851113
 10
12.82871446065356
 20
3.21557045430175
 10
12.83691288664194
 20
3.201967816309178
 42
-0.0132121325112643
 10
12.84801734031893
 20
3.181449884226243
 42
-0.0126137944444185
 10
12.85993579484715
 20
3.156555286540943
 42
-0.0118616736517415
 10
12.87247386876221
 20
3.126852274657494
  0
LWPOLYLINE
  5
61D0
330
6118
100
AcDbEntity
  8
0
 62
     7
100
AcDbPolyline
 90
        8
 70
     0
 43
0.0
 38
1.004996417558615E+99
 10
17.10200480000016
 20
0.5572320094917416
 42
-0.0057841437119978
 10
17.15475467428849
 20
0.552952146199281
 42
-0.0030986770794661
 10
17.20263031056765
 20
0.5481798598089736
 42
0.0004438508909754
 10
17.24520853922196
 20
0.5436838519933076
 10
17.26096723987798
 20
0.5421058162871527
 42
0.0066594803952394
 10
17.28941606510644
 20
0.5396985855851913
 42
0.014085736787834
 10
17.31329089504864
 20
0.5386811494274003
 42
0.0290759551837512
 10
17.33201265709493
 20
0.5395231161302263
  0
LWPOLYLINE
  5
61D1
330
6118
100
AcDbEntity
  8
0
 62
     7
100
AcDbPolyline
 90
        7
 70
     0
 43
0.0
 38
1.004996417558615E+99
 10
16.61610082105863
 20
0.6475290645263101
 42
0.012718828706105
 10
16.70176402404458
 20
0.6223985178213073
 42
0.0136497241492148
 10
16.80175860193109
 20
0.5985210895394429
 10
16.85709152197306
 20
0.5876295292841292
 42
0.0121332295909498
 10
16.96132605154292
 20
0.5712748021562968
 42
0.010540646941768
 10
17.05749887415354
 20
0.560717838625227
 10
17.10200480000016
 20
0.5572320094917416
  0
LWPOLYLINE
  5
61D2
330
6118
100
AcDbEntity
  8
0
 62
     7
100
AcDbPolyline
 90
       12
 70
     0
 43
0.0
 38
1.004996417558615E+99
 10
12.71878452584433
 20
0.5178358154874161
 42
0.0601256927789293
 10
12.73631142750432
 20
0.5180467419202018
 42
0.052011269696002
 10
12.7520950626132
 20
0.5219590044113075
 10
12.75928426208257
 20
0.5249252923383665
 42
0.0430322361030259
 10
12.77401265113331
 20
0.5333623699292321
 42
0.0397710214533923
 10
12.79027935414378
 20
0.5464696690965148
 10
12.79891116209622
 20
0.5550990405498056
 42
0.0333357694253342
 10
12.81820299616752
 20
0.5788021820716362
 42
0.0257926327426025
 10
12.83691288690262
 20
0.6080321841436956
 10
12.84610256449348
 20
0.6248338765137564
 42
0.0183835902305781
 10
12.86389298428892
 20
0.6624130680145124
 10
12.87247386876198
 20
0.6831477253425078
  0
LWPOLYLINE
  5
61D3
330
6118
100
AcDbEntity
  8
0
 62
     7
100
AcDbPolyline
 90
        4
 70
     0
 43
0.0
 38
1.004996417558615E+99
 10
12.87247386876198
 20
0.6831477253425078
 42
0.0000672453982339
 10
12.94413775952127
 20
0.8640228829991656
 10
12.97994661263786
 20
0.9544557656460435
 10
13.01578513557525
 20
1.044999999999945
  0
LWPOLYLINE
  5
61D4
330
6118
100
AcDbEntity
  8
0
 62
     7
100
AcDbPolyline
 90
        8
 70
     0
 43
0.0
 38
1.004996417558615E+99
 10
16.55200479999989
 20
0.6681664929806175
 42
-0.0331237740553586
 10
16.37398106560044
 20
0.7390094375523257
 42
-0.0356503627170927
 10
16.21532243007297
 20
0.8293946675203187
 10
16.16929927013764
 20
0.861954730083339
 42
-0.0251001891186864
 10
16.08441178188682
 20
0.9320250238870215
 10
16.05334326000975
 20
0.961688945321976
 42
-0.0191265343849438
 10
16.00068070039764
 20
1.018430545385189
 10
15.97876816497182
 20
1.044999999999959
  0
LWPOLYLINE
  5
61D5
330
6118
100
AcDbEntity
  8
0
 62
     7
100
AcDbPolyline
 90
       10
 70
     0
 43
0.0
 38
1.004996417558615E+99
 10
15.97876816497185
 20
-1.044999999999945
 42
-0.0269308923277117
 10
16.0498429944254
 20
-0.9651923061939241
 10
16.08441180061221
 20
-0.9320250067404174
 42
-0.0255080698581152
 10
16.17328480058137
 20
-0.8589996628881911
 10
16.21532237832621
 20
-0.8293947022882264
 42
-0.0177011673951069
 10
16.28585099047542
 20
-0.7854453872855803
 42
-0.0191866721761406
 10
16.37121763347848
 20
-0.7403384465963683
 10
16.41043714169405
 20
-0.7221855390639375
 42
-0.0177512161237768
 10
16.50081650472401
 20
-0.6857557426047415
 10
16.55200479999993
 20
-0.6681664929806317
  0
LWPOLYLINE
  5
61D6
330
6118
100
AcDbEntity
  8
0
 62
     7
100
AcDbPolyline
 90
        4
 70
     0
 43
0.0
 38
1.004996417558615E+99
 10
13.01578513557523
 20
-1.044999999999874
 42
0.0000688030150844
 10
12.94413775952126
 20
-0.8640228829991372
 10
12.90847226417216
 20
-0.7739877006010056
 10
12.87247386876198
 20
-0.6831477253424936
  0
ENDBLK
  5
61D8
330
6118
100
AcDbEntity
  8
0
100
AcDbBlockEnd
  0
BLOCK
  5
61DB
330
61D9
100
AcDbEntity
  8
0
100
AcDbBlockBegin
  2
VORDANS1
 70
     0
 10
11.65200479999999
 20
-9.005000000000009
 30
0.0
  3
VORDANS1
  1

  0
INSERT
  5
61DA
330
61D9
100
AcDbEntity
  8
0
100
AcDbBlockReference
  2
MC_1_5-2-STF-3_81__6
 10
11.65200479999999
 20
-9.005000000000009
 30
0.0
  0
ENDBLK
  5
61DC
330
61D9
100
AcDbEntity
  8
0
100
AcDbBlockEnd
  0
ENDSEC
  0
SECTION
  2
ENTITIES
  0
INSERT
  5
29C7
330
18
100
AcDbEntity
  8
0
100
AcDbBlockReference
  2
A$C57095CDF
 10
63.50015297347636
 20
556.6261552232613
 30
0.0
  0
LINE
  5
29C8
330
18
100
AcDbEntity
  8
0
100
AcDbLine
 10
60.42515294744919
 20
588.5511551362121
 30
0.0
 11
60.42515294744958
 21
510.0511551362126
 31
0.0
  0
LINE
  5
29C9
330
18
100
AcDbEntity
  8
0
100
AcDbLine
 10
378.5550029382807
 20
708.5511551362124
 30
0.0
 11
378.5550029382807
 21
468.5511551362123
 31
0.0
  0
LINE
  5
29CA
330
18
100
AcDbEntity
  8
0
100
AcDbLine
 10
381.5550029382807
 20
708.5511551362124
 30
0.0
 11
381.5550029382807
 21
468.5511551362123
 31
0.0
  0
LINE
  5
29CB
330
18
100
AcDbEntity
  8
0
100
AcDbLine
 10
196.5550029382808
 20
693.5511551362123
 30
0.0
 11
196.5550029382808
 21
483.5511551362124
 31
0.0
  0
LINE
  5
29CC
330
18
100
AcDbEntity
  8
0
100
AcDbLine
 10
199.5550029382808
 20
693.5511551362123
 30
0.0
 11
199.5550029382808
 21
483.5511551362124
 31
0.0
  0
LINE
  5
29CD
330
18
100
AcDbEntity
  8
0
100
AcDbLine
 10
-40.07484705255036
 20
693.5511551362123
 30
0.0
 11
-40.0748470525504
 21
483.5511551362124
 31
0.0
  0
LINE
  5
29CE
330
18
100
AcDbEntity
  8
0
100
AcDbLine
 10
79.92515294744959
 20
708.5511551362124
 30
0.0
 11
79.92515294744953
 21
468.5511551362123
 31
0.0
  0
LINE
  5
29CF
330
18
100
AcDbEntity
  8
0
100
AcDbLine
 10
75.42515294744953
 20
510.0511551362126
 30
0.0
 11
75.42515294744953
 21
651.0511551362124
 31
0.0
  0
LINE
  5
29F4
330
18
100
AcDbEntity
  8
0
100
AcDbLine
 10
378.5550029382807
 20
483.5511551362124
 30
0.0
 11
196.5550029382808
 21
483.5511551362124
 31
0.0
  0
LINE
  5
29F5
330
18
100
AcDbEntity
  8
0
100
AcDbLine
 10
66.92515294744953
 20
468.5511551362123
 30
0.0
 11
-17.07484705255041
 21
468.5511551362123
 31
0.0
  0
LINE
  5
29F6
330
18
100
AcDbEntity
  8
0
100
AcDbLine
 10
79.92515294744953
 20
483.5511551362124
 30
0.0
 11
-40.0748470525504
 21
483.5511551362124
 31
0.0
  0
ARC
  5
29F7
330
18
100
AcDbEntity
  8
0
100
AcDbCircle
 10
-20.07484705255046
 20
473.5511551362123
 30
0.0
 40
3.0
100
AcDbArc
 50
0.0
 51
180.0
  0
LINE
  5
29F8
330
18
100
AcDbEntity
  8
0
100
AcDbLine
 10
-30.07484705255041
 20
483.5511551362124
 30
0.0
 11
-30.07484705255041
 21
468.5511551362123
 31
0.0
  0
LINE
  5
29F9
330
18
100
AcDbEntity
  8
0
100
AcDbLine
 10
-23.07484705255041
 20
468.5511551362123
 30
0.0
 11
-30.07484705255041
 21
468.5511551362123
 31
0.0
  0
LINE
  5
29FA
330
18
100
AcDbEntity
  8
0
100
AcDbLine
 10
-23.07484705255041
 20
473.5511551362123
 30
0.0
 11
-23.07484705255041
 21
468.5511551362123
 31
0.0
  0
LINE
  5
29FB
330
18
100
AcDbEntity
  8
0
100
AcDbLine
 10
-17.07484705255041
 20
473.5511551362123
 30
0.0
 11
-17.07484705255041
 21
468.5511551362123
 31
0.0
  0
ARC
  5
29FC
330
18
100
AcDbEntity
  8
0
100
AcDbCircle
 10
-18.07484705255046
 20
490.5511551362123
 30
0.0
 40
2.0
100
AcDbArc
 50
345.5224878140701
 51
14.47751218592986
  0
ARC
  5
29FD
330
18
100
AcDbEntity
  8
0
100
AcDbCircle
 10
-18.07484705255046
 20
490.5511551362123
 30
0.0
 40
2.0
100
AcDbArc
 50
165.5224878140701
 51
194.4775121859298
  0
ARC
  5
29FE
330
18
100
AcDbEntity
  8
0
100
AcDbCircle
 10
-18.07484705255046
 20
490.5511551362123
 30
0.0
 40
2.0
100
AcDbArc
 50
255.52248781407
 51
284.4775121859298
  0
LINE
  5
29FF
330
18
100
AcDbEntity
  8
0
100
AcDbLine
 10
-18.57484705255041
 20
490.0511551362123
 30
0.0
 11
-18.57484705255041
 21
488.6146634631086
 31
0.0
  0
LINE
  5
2A00
330
18
100
AcDbEntity
  8
0
100
AcDbLine
 10
-17.57484705255041
 20
490.0511551362123
 30
0.0
 11
-17.57484705255041
 21
488.6146634631086
 31
0.0
  0
LINE
  5
2A01
330
18
100
AcDbEntity
  8
0
100
AcDbLine
 10
-16.13835537944663
 20
490.0511551362123
 30
0.0
 11
-17.57484705255041
 21
490.0511551362123
 31
0.0
  0
LINE
  5
2A02
330
18
100
AcDbEntity
  8
0
100
AcDbLine
 10
-18.57484705255041
 20
490.0511551362123
 30
0.0
 11
-20.01133872565418
 21
490.0511551362123
 31
0.0
  0
LINE
  5
2A03
330
18
100
AcDbEntity
  8
0
100
AcDbLine
 10
-16.13835537944663
 20
491.0511551362124
 30
0.0
 11
-17.57484705255041
 21
491.0511551362124
 31
0.0
  0
LINE
  5
2A04
330
18
100
AcDbEntity
  8
0
100
AcDbLine
 10
-18.57484705255041
 20
491.0511551362124
 30
0.0
 11
-20.01133872565418
 21
491.0511551362124
 31
0.0
  0
ARC
  5
2A05
330
18
100
AcDbEntity
  8
0
100
AcDbCircle
 10
-18.07484705255046
 20
490.5511551362123
 30
0.0
 40
2.0
100
AcDbArc
 50
75.52248781407015
 51
104.4775121859298
  0
CIRCLE
  5
2A06
330
18
100
AcDbEntity
  8
0
100
AcDbCircle
 10
-18.07484705255046
 20
490.5511551362123
 30
0.0
 40
3.0
  0
CIRCLE
  5
2A07
330
18
100
AcDbEntity
  8
0
100
AcDbCircle
 10
-18.07484705255046
 20
490.5511551362123
 30
0.0
 40
2.5
  0
LINE
  5
2A08
330
18
100
AcDbEntity
  8
0
100
AcDbLine
 10
-18.57484705255041
 20
492.4876468093157
 30
0.0
 11
-18.57484705255041
 21
491.0511551362124
 31
0.0
  0
LINE
  5
2A09
330
18
100
AcDbEntity
  8
0
100
AcDbLine
 10
-17.57484705255041
 20
492.4876468093157
 30
0.0
 11
-17.57484705255041
 21
491.0511551362124
 31
0.0
  0
LINE
  5
2A0A
330
18
100
AcDbEntity
  8
0
100
AcDbLine
 10
53.86164462055337
 20
490.0511551362123
 30
0.0
 11
52.42515294744959
 21
490.0511551362123
 31
0.0
  0
LINE
  5
2A0B
330
18
100
AcDbEntity
  8
0
100
AcDbLine
 10
53.86164462055337
 20
491.0511551362124
 30
0.0
 11
52.42515294744959
 21
491.0511551362124
 31
0.0
  0
CIRCLE
  5
2A0C
330
18
100
AcDbEntity
  8
0
100
AcDbCircle
 10
51.92515294744959
 20
490.5511551362123
 30
0.0
 40
3.0
  0
CIRCLE
  5
2A0D
330
18
100
AcDbEntity
  8
0
100
AcDbCircle
 10
51.92515294744959
 20
490.5511551362123
 30
0.0
 40
2.5
  0
ARC
  5
2A0E
330
18
100
AcDbEntity
  8
0
100
AcDbCircle
 10
51.92515294744959
 20
490.5511551362123
 30
0.0
 40
2.0
100
AcDbArc
 50
165.5224878140701
 51
194.4775121859298
  0
ARC
  5
2A0F
330
18
100
AcDbEntity
  8
0
100
AcDbCircle
 10
51.92515294744959
 20
490.5511551362123
 30
0.0
 40
2.0
100
AcDbArc
 50
255.52248781407
 51
284.4775121859298
  0
LINE
  5
2A10
330
18
100
AcDbEntity
  8
0
100
AcDbLine
 10
51.42515294744959
 20
490.0511551362123
 30
0.0
 11
51.42515294744959
 21
488.6146634631086
 31
0.0
  0
LINE
  5
2A11
330
18
100
AcDbEntity
  8
0
100
AcDbLine
 10
52.42515294744959
 20
490.0511551362123
 30
0.0
 11
52.42515294744959
 21
488.6146634631086
 31
0.0
  0
LINE
  5
2A12
330
18
100
AcDbEntity
  8
0
100
AcDbLine
 10
51.42515294744959
 20
490.0511551362123
 30
0.0
 11
49.98866127434581
 21
490.0511551362123
 31
0.0
  0
LINE
  5
2A13
330
18
100
AcDbEntity
  8
0
100
AcDbLine
 10
51.42515294744959
 20
491.0511551362124
 30
0.0
 11
49.98866127434581
 21
491.0511551362124
 31
0.0
  0
ARC
  5
2A14
330
18
100
AcDbEntity
  8
0
100
AcDbCircle
 10
51.92515294744959
 20
490.5511551362123
 30
0.0
 40
2.0
100
AcDbArc
 50
75.52248781407015
 51
104.4775121859298
  0
LINE
  5
2A15
330
18
100
AcDbEntity
  8
0
100
AcDbLine
 10
51.42515294744959
 20
492.4876468093157
 30
0.0
 11
51.42515294744959
 21
491.0511551362124
 31
0.0
  0
LINE
  5
2A16
330
18
100
AcDbEntity
  8
0
100
AcDbLine
 10
52.42515294744959
 20
492.4876468093157
 30
0.0
 11
52.42515294744959
 21
491.0511551362124
 31
0.0
  0
ARC
  5
2A17
330
18
100
AcDbEntity
  8
0
100
AcDbCircle
 10
69.92515294744953
 20
473.5511551362123
 30
0.0
 40
3.0
100
AcDbArc
 50
0.0
 51
180.0
  0
LINE
  5
2A18
330
18
100
AcDbEntity
  8
0
100
AcDbLine
 10
66.92515294744953
 20
473.5511551362123
 30
0.0
 11
66.92515294744953
 21
468.5511551362123
 31
0.0
  0
LINE
  5
2A19
330
18
100
AcDbEntity
  8
0
100
AcDbLine
 10
72.92515294744953
 20
473.5511551362123
 30
0.0
 11
72.92515294744953
 21
468.5511551362123
 31
0.0
  0
LINE
  5
2A1A
330
18
100
AcDbEntity
  8
0
100
AcDbLine
 10
79.92515294744953
 20
468.5511551362123
 30
0.0
 11
72.92515294744953
 21
468.5511551362123
 31
0.0
  0
ARC
  5
2A1B
330
18
100
AcDbEntity
  8
0
100
AcDbCircle
 10
51.92515294744959
 20
490.5511551362123
 30
0.0
 40
2.0
100
AcDbArc
 50
345.5224878140701
 51
14.47751218592986
  0
MTEXT
  5
2A1C
330
18
100
AcDbEntity
  8
0
100
AcDbMText
 10
51.45823457296581
 20
516.8903150704983
 30
0.0
 40
2.0
 41
0.0
 71
     1
 72
     5
  1
ＣＮ１
  7
MSｺﾞｼｯｸ
 73
     1
 44
1.0
  0
MTEXT
  5
2A1D
330
18
100
AcDbEntity
  8
0
100
AcDbMText
 10
50.97887392073414
 20
582.6990930216538
 30
0.0
 40
2.0
 41
0.0
 71
     1
 72
     5
  1
ＣＮ２
  7
MSｺﾞｼｯｸ
 73
     1
 44
1.0
  0
MTEXT
  5
2A1E
330
18
100
AcDbEntity
  8
0
100
AcDbMText
 10
23.68030552698758
 20
578.5759172865058
 30
0.0
 40
4.45
 41
0.0
 71
     1
 72
     5
  1
Ｒ\PＳ\PＴ\PＢ１\PＢ２\PＵ\PＶ\PＷ
  7
MSｺﾞｼｯｸ
 73
     1
 44
1.0
  0
LINE
  5
2A1F
330
18
100
AcDbEntity
  8
0
100
AcDbLine
 10
51.52515294744955
 20
579.5511551362124
 30
0.0
 11
51.52515294744955
 21
521.5511551362125
 31
0.0
  0
LINE
  5
2A20
330
18
100
AcDbEntity
  8
0
100
AcDbLine
 10
52.52515294744956
 20
579.5511551362125
 30
0.0
 11
52.52515294744956
 21
521.5511551362125
 31
0.0
  0
LINE
  5
2A21
330
18
100
AcDbEntity
  8
0
100
AcDbLine
 10
37.52515294744955
 20
579.5511551362124
 30
0.0
 11
37.52515294744955
 21
521.5511551362124
 31
0.0
  0
LINE
  5
2A22
330
18
100
AcDbEntity
  8
0
100
AcDbLine
 10
45.52515294744956
 20
579.5511551362124
 30
0.0
 11
45.52515294744956
 21
521.5511551362124
 31
0.0
  0
LINE
  5
2A23
330
18
100
AcDbEntity
  8
0
100
AcDbLine
 10
35.52515294744961
 20
581.5511551362123
 30
0.0
 11
35.52515294744961
 21
519.5511551362121
 31
0.0
  0
MTEXT
  5
2A24
330
18
100
AcDbEntity
  8
0
100
AcDbMText
 10
23.6464993053213
 20
514.2063977332107
 30
0.0
 40
4.45
 41
0.0
 71
     1
 72
     5
  1
Ｅ
  7
MSｺﾞｼｯｸ
 73
     1
 44
1.0
  0
ARC
  5
2A28
330
18
100
AcDbEntity
  8
0
100
AcDbCircle
 10
42.02515294744955
 20
500.0511551362124
 30
0.0
 40
2.0
100
AcDbArc
 50
345.5224878140701
 51
14.47751218592986
  0
ARC
  5
2A29
330
18
100
AcDbEntity
  8
0
100
AcDbCircle
 10
42.02515294744955
 20
500.0511551362124
 30
0.0
 40
2.0
100
AcDbArc
 50
165.5224878140701
 51
194.4775121859298
  0
ARC
  5
2A2A
330
18
100
AcDbEntity
  8
0
100
AcDbCircle
 10
42.02515294744955
 20
500.0511551362124
 30
0.0
 40
2.0
100
AcDbArc
 50
255.52248781407
 51
284.4775121859298
  0
LINE
  5
2A2B
330
18
100
AcDbEntity
  8
0
100
AcDbLine
 10
41.52515294744955
 20
499.5511551362124
 30
0.0
 11
41.52515294744955
 21
498.1146634631086
 31
0.0
  0
LINE
  5
2A2C
330
18
100
AcDbEntity
  8
0
100
AcDbLine
 10
42.52515294744955
 20
499.5511551362124
 30
0.0
 11
42.52515294744955
 21
498.1146634631086
 31
0.0
  0
LINE
  5
2A2D
330
18
100
AcDbEntity
  8
0
100
AcDbLine
 10
43.96164462055333
 20
499.5511551362124
 30
0.0
 11
42.52515294744955
 21
499.5511551362124
 31
0.0
  0
LINE
  5
2A2E
330
18
100
AcDbEntity
  8
0
100
AcDbLine
 10
41.52515294744955
 20
499.5511551362124
 30
0.0
 11
40.08866127434578
 21
499.5511551362124
 31
0.0
  0
LINE
  5
2A2F
330
18
100
AcDbEntity
  8
0
100
AcDbLine
 10
43.96164462055333
 20
500.5511551362124
 30
0.0
 11
42.52515294744955
 21
500.5511551362124
 31
0.0
  0
LINE
  5
2A30
330
18
100
AcDbEntity
  8
0
100
AcDbLine
 10
41.52515294744955
 20
500.5511551362124
 30
0.0
 11
40.08866127434578
 21
500.5511551362124
 31
0.0
  0
ARC
  5
2A31
330
18
100
AcDbEntity
  8
0
100
AcDbCircle
 10
42.02515294744955
 20
500.0511551362124
 30
0.0
 40
2.0
100
AcDbArc
 50
75.52248781407015
 51
104.4775121859298
  0
CIRCLE
  5
2A32
330
18
100
AcDbEntity
  8
0
100
AcDbCircle
 10
42.02515294744955
 20
500.0511551362124
 30
0.0
 40
3.0
  0
CIRCLE
  5
2A33
330
18
100
AcDbEntity
  8
0
100
AcDbCircle
 10
42.02515294744955
 20
500.0511551362124
 30
0.0
 40
2.5
  0
LINE
  5
2A34
330
18
100
AcDbEntity
  8
0
100
AcDbLine
 10
41.52515294744955
 20
501.9876468093157
 30
0.0
 11
41.52515294744955
 21
500.5511551362124
 31
0.0
  0
LINE
  5
2A35
330
18
100
AcDbEntity
  8
0
100
AcDbLine
 10
42.52515294744955
 20
501.9876468093157
 30
0.0
 11
42.52515294744955
 21
500.5511551362124
 31
0.0
  0
LINE
  5
2A36
330
18
100
AcDbEntity
  8
0
100
AcDbLine
 10
37.52515294744955
 20
521.5511551362124
 30
0.0
 11
52.52515294744956
 21
521.5511551362125
 31
0.0
  0
LINE
  5
2A37
330
18
100
AcDbEntity
  8
0
100
AcDbLine
 10
50.52515294744961
 20
519.5511551362121
 30
0.0
 11
35.52515294744961
 21
519.5511551362121
 31
0.0
  0
LINE
  5
2A38
330
18
100
AcDbEntity
  8
0
100
AcDbLine
 10
50.52515294744961
 20
521.5511551362125
 30
0.0
 11
50.52515294744961
 21
519.5511551362121
 31
0.0
  0
LINE
  5
2A39
330
18
100
AcDbEntity
  8
0
100
AcDbLine
 10
40.32515294744962
 20
533.3011551362125
 30
0.0
 11
40.32515294744962
 21
530.3011551362124
 31
0.0
  0
LINE
  5
2A3A
330
18
100
AcDbEntity
  8
0
100
AcDbLine
 10
39.32515294744962
 20
533.8011551362125
 30
0.0
 11
39.32515294744951
 21
529.8011551362123
 31
0.0
  0
LINE
  5
2A3B
330
18
100
AcDbEntity
  8
0
100
AcDbLine
 10
40.32515294744962
 20
533.3011551362125
 30
0.0
 11
39.32515294744962
 21
533.8011551362125
 31
0.0
  0
LINE
  5
2A3C
330
18
100
AcDbEntity
  8
0
100
AcDbLine
 10
39.32515294744951
 20
529.8011551362123
 30
0.0
 11
40.32515294744962
 21
530.3011551362124
 31
0.0
  0
LINE
  5
2A3D
330
18
100
AcDbEntity
  8
0
100
AcDbLine
 10
39.32515294744962
 20
533.8011551362125
 30
0.0
 11
45.32515294744962
 21
533.8011551362123
 31
0.0
  0
LINE
  5
2A3E
330
18
100
AcDbEntity
  8
0
100
AcDbLine
 10
40.32515294744962
 20
533.3011551362125
 30
0.0
 11
43.32515294744962
 21
533.3011551362123
 31
0.0
  0
LINE
  5
2A3F
330
18
100
AcDbEntity
  8
0
100
AcDbLine
 10
40.32515294744962
 20
530.3011551362124
 30
0.0
 11
43.32515294744962
 21
530.3011551362124
 31
0.0
  0
LINE
  5
2A40
330
18
100
AcDbEntity
  8
0
100
AcDbLine
 10
39.32515294744951
 20
529.8011551362123
 30
0.0
 11
45.32515294744951
 21
529.8011551362125
 31
0.0
  0
LINE
  5
2A41
330
18
100
AcDbEntity
  8
0
100
AcDbLine
 10
43.32515294744962
 20
533.3011551362123
 30
0.0
 11
43.32515294744962
 21
530.3011551362124
 31
0.0
  0
LINE
  5
2A42
330
18
100
AcDbEntity
  8
0
100
AcDbLine
 10
45.32515294744962
 20
533.8011551362123
 30
0.0
 11
45.32515294744951
 21
529.8011551362125
 31
0.0
  0
LINE
  5
2A43
330
18
100
AcDbEntity
  8
0
100
AcDbLine
 10
43.32515294744962
 20
530.3011551362124
 30
0.0
 11
45.32515294744951
 21
529.8011551362125
 31
0.0
  0
LINE
  5
2A44
330
18
100
AcDbEntity
  8
0
100
AcDbLine
 10
43.32515294744962
 20
533.3011551362123
 30
0.0
 11
45.32515294744962
 21
533.8011551362123
 31
0.0
  0
LINE
  5
2A45
330
18
100
AcDbEntity
  8
0
100
AcDbLine
 10
39.32515294744951
 20
522.3011551362124
 30
0.0
 11
40.32515294744951
 21
522.8011551362124
 31
0.0
  0
LINE
  5
2A46
330
18
100
AcDbEntity
  8
0
100
AcDbLine
 10
40.32515294744951
 20
525.8011551362125
 30
0.0
 11
39.32515294744951
 21
526.3011551362125
 31
0.0
  0
LINE
  5
2A47
330
18
100
AcDbEntity
  8
0
100
AcDbLine
 10
43.32515294744951
 20
525.8011551362123
 30
0.0
 11
45.32515294744951
 21
526.3011551362124
 31
0.0
  0
LINE
  5
2A48
330
18
100
AcDbEntity
  8
0
100
AcDbLine
 10
43.32515294744951
 20
522.8011551362124
 30
0.0
 11
45.32515294744951
 21
522.3011551362125
 31
0.0
  0
LINE
  5
2A49
330
18
100
AcDbEntity
  8
0
100
AcDbLine
 10
39.32515294744951
 20
526.3011551362125
 30
0.0
 11
45.32515294744951
 21
526.3011551362124
 31
0.0
  0
LINE
  5
2A4A
330
18
100
AcDbEntity
  8
0
100
AcDbLine
 10
39.32515294744951
 20
526.3011551362125
 30
0.0
 11
39.32515294744951
 21
522.3011551362124
 31
0.0
  0
LINE
  5
2A4B
330
18
100
AcDbEntity
  8
0
100
AcDbLine
 10
39.32515294744951
 20
522.3011551362124
 30
0.0
 11
45.32515294744951
 21
522.3011551362125
 31
0.0
  0
LINE
  5
2A4C
330
18
100
AcDbEntity
  8
0
100
AcDbLine
 10
45.32515294744951
 20
526.3011551362124
 30
0.0
 11
45.32515294744951
 21
522.3011551362125
 31
0.0
  0
LINE
  5
2A4D
330
18
100
AcDbEntity
  8
0
100
AcDbLine
 10
43.32515294744951
 20
525.8011551362123
 30
0.0
 11
43.32515294744951
 21
522.8011551362124
 31
0.0
  0
LINE
  5
2A4E
330
18
100
AcDbEntity
  8
0
100
AcDbLine
 10
40.32515294744951
 20
522.8011551362124
 30
0.0
 11
43.32515294744951
 21
522.8011551362124
 31
0.0
  0
LINE
  5
2A4F
330
18
100
AcDbEntity
  8
0
100
AcDbLine
 10
40.32515294744951
 20
525.8011551362125
 30
0.0
 11
40.32515294744951
 21
522.8011551362124
 31
0.0
  0
LINE
  5
2A50
330
18
100
AcDbEntity
  8
0
100
AcDbLine
 10
40.32515294744951
 20
525.8011551362125
 30
0.0
 11
43.32515294744951
 21
525.8011551362123
 31
0.0
  0
LINE
  5
2A5D
330
18
100
AcDbEntity
  8
0
100
AcDbLine
 10
40.32515294744962
 20
555.8011551362125
 30
0.0
 11
40.32515294744962
 21
552.8011551362124
 31
0.0
  0
LINE
  5
2A5E
330
18
100
AcDbEntity
  8
0
100
AcDbLine
 10
39.32515294744962
 20
556.3011551362125
 30
0.0
 11
39.32515294744962
 21
552.3011551362124
 31
0.0
  0
LINE
  5
2A5F
330
18
100
AcDbEntity
  8
0
100
AcDbLine
 10
40.32515294744962
 20
555.8011551362125
 30
0.0
 11
39.32515294744962
 21
556.3011551362125
 31
0.0
  0
LINE
  5
2A60
330
18
100
AcDbEntity
  8
0
100
AcDbLine
 10
39.32515294744962
 20
552.3011551362124
 30
0.0
 11
40.32515294744962
 21
552.8011551362124
 31
0.0
  0
LINE
  5
2A61
330
18
100
AcDbEntity
  8
0
100
AcDbLine
 10
39.32515294744962
 20
556.3011551362125
 30
0.0
 11
45.32515294744962
 21
556.3011551362124
 31
0.0
  0
LINE
  5
2A62
330
18
100
AcDbEntity
  8
0
100
AcDbLine
 10
40.32515294744962
 20
555.8011551362125
 30
0.0
 11
43.32515294744962
 21
555.8011551362124
 31
0.0
  0
LINE
  5
2A63
330
18
100
AcDbEntity
  8
0
100
AcDbLine
 10
40.32515294744962
 20
552.8011551362124
 30
0.0
 11
43.32515294744962
 21
552.8011551362124
 31
0.0
  0
LINE
  5
2A64
330
18
100
AcDbEntity
  8
0
100
AcDbLine
 10
39.32515294744962
 20
552.3011551362124
 30
0.0
 11
45.32515294744951
 21
552.3011551362125
 31
0.0
  0
LINE
  5
2A65
330
18
100
AcDbEntity
  8
0
100
AcDbLine
 10
43.32515294744962
 20
555.8011551362124
 30
0.0
 11
43.32515294744962
 21
552.8011551362124
 31
0.0
  0
LINE
  5
2A66
330
18
100
AcDbEntity
  8
0
100
AcDbLine
 10
45.32515294744962
 20
556.3011551362124
 30
0.0
 11
45.32515294744951
 21
552.3011551362125
 31
0.0
  0
LINE
  5
2A67
330
18
100
AcDbEntity
  8
0
100
AcDbLine
 10
43.32515294744962
 20
552.8011551362124
 30
0.0
 11
45.32515294744951
 21
552.3011551362125
 31
0.0
  0
LINE
  5
2A68
330
18
100
AcDbEntity
  8
0
100
AcDbLine
 10
43.32515294744962
 20
555.8011551362124
 30
0.0
 11
45.32515294744962
 21
556.3011551362124
 31
0.0
  0
LINE
  5
2A69
330
18
100
AcDbEntity
  8
0
100
AcDbLine
 10
43.32515294744962
 20
548.3011551362124
 30
0.0
 11
45.32515294744962
 21
548.8011551362124
 31
0.0
  0
LINE
  5
2A6A
330
18
100
AcDbEntity
  8
0
100
AcDbLine
 10
43.32515294744962
 20
545.3011551362124
 30
0.0
 11
45.32515294744951
 21
544.8011551362125
 31
0.0
  0
LINE
  5
2A6B
330
18
100
AcDbEntity
  8
0
100
AcDbLine
 10
45.32515294744962
 20
548.8011551362124
 30
0.0
 11
45.32515294744951
 21
544.8011551362125
 31
0.0
  0
LINE
  5
2A6C
330
18
100
AcDbEntity
  8
0
100
AcDbLine
 10
43.32515294744962
 20
548.3011551362124
 30
0.0
 11
43.32515294744962
 21
545.3011551362124
 31
0.0
  0
LINE
  5
2A6D
330
18
100
AcDbEntity
  8
0
100
AcDbLine
 10
39.32515294744962
 20
544.8011551362124
 30
0.0
 11
45.32515294744951
 21
544.8011551362125
 31
0.0
  0
LINE
  5
2A6E
330
18
100
AcDbEntity
  8
0
100
AcDbLine
 10
40.32515294744962
 20
545.3011551362124
 30
0.0
 11
43.32515294744962
 21
545.3011551362124
 31
0.0
  0
LINE
  5
2A6F
330
18
100
AcDbEntity
  8
0
100
AcDbLine
 10
40.32515294744962
 20
548.3011551362125
 30
0.0
 11
43.32515294744962
 21
548.3011551362124
 31
0.0
  0
LINE
  5
2A70
330
18
100
AcDbEntity
  8
0
100
AcDbLine
 10
39.32515294744962
 20
548.8011551362125
 30
0.0
 11
45.32515294744962
 21
548.8011551362124
 31
0.0
  0
LINE
  5
2A71
330
18
100
AcDbEntity
  8
0
100
AcDbLine
 10
39.32515294744962
 20
544.8011551362124
 30
0.0
 11
40.32515294744962
 21
545.3011551362124
 31
0.0
  0
LINE
  5
2A72
330
18
100
AcDbEntity
  8
0
100
AcDbLine
 10
40.32515294744962
 20
548.3011551362125
 30
0.0
 11
39.32515294744962
 21
548.8011551362125
 31
0.0
  0
LINE
  5
2A73
330
18
100
AcDbEntity
  8
0
100
AcDbLine
 10
39.32515294744962
 20
548.8011551362125
 30
0.0
 11
39.32515294744962
 21
544.8011551362124
 31
0.0
  0
LINE
  5
2A74
330
18
100
AcDbEntity
  8
0
100
AcDbLine
 10
40.32515294744962
 20
548.3011551362125
 30
0.0
 11
40.32515294744962
 21
545.3011551362124
 31
0.0
  0
LINE
  5
2A75
330
18
100
AcDbEntity
  8
0
100
AcDbLine
 10
43.32515294744962
 20
540.8011551362124
 30
0.0
 11
45.32515294744962
 21
541.3011551362123
 31
0.0
  0
LINE
  5
2A76
330
18
100
AcDbEntity
  8
0
100
AcDbLine
 10
43.32515294744962
 20
537.8011551362123
 30
0.0
 11
45.32515294744951
 21
537.3011551362124
 31
0.0
  0
LINE
  5
2A77
330
18
100
AcDbEntity
  8
0
100
AcDbLine
 10
45.32515294744962
 20
541.3011551362123
 30
0.0
 11
45.32515294744951
 21
537.3011551362124
 31
0.0
  0
LINE
  5
2A78
330
18
100
AcDbEntity
  8
0
100
AcDbLine
 10
43.32515294744962
 20
540.8011551362124
 30
0.0
 11
43.32515294744962
 21
537.8011551362123
 31
0.0
  0
LINE
  5
2A79
330
18
100
AcDbEntity
  8
0
100
AcDbLine
 10
39.32515294744962
 20
537.3011551362123
 30
0.0
 11
45.32515294744951
 21
537.3011551362124
 31
0.0
  0
LINE
  5
2A7A
330
18
100
AcDbEntity
  8
0
100
AcDbLine
 10
40.32515294744962
 20
537.8011551362123
 30
0.0
 11
43.32515294744962
 21
537.8011551362123
 31
0.0
  0
LINE
  5
2A7B
330
18
100
AcDbEntity
  8
0
100
AcDbLine
 10
40.32515294744962
 20
540.8011551362124
 30
0.0
 11
43.32515294744962
 21
540.8011551362124
 31
0.0
  0
LINE
  5
2A7C
330
18
100
AcDbEntity
  8
0
100
AcDbLine
 10
39.32515294744962
 20
541.3011551362124
 30
0.0
 11
45.32515294744962
 21
541.3011551362123
 31
0.0
  0
LINE
  5
2A7D
330
18
100
AcDbEntity
  8
0
100
AcDbLine
 10
39.32515294744962
 20
537.3011551362123
 30
0.0
 11
40.32515294744962
 21
537.8011551362123
 31
0.0
  0
LINE
  5
2A7E
330
18
100
AcDbEntity
  8
0
100
AcDbLine
 10
40.32515294744962
 20
540.8011551362124
 30
0.0
 11
39.32515294744962
 21
541.3011551362124
 31
0.0
  0
LINE
  5
2A7F
330
18
100
AcDbEntity
  8
0
100
AcDbLine
 10
39.32515294744962
 20
541.3011551362124
 30
0.0
 11
39.32515294744962
 21
537.3011551362123
 31
0.0
  0
LINE
  5
2A80
330
18
100
AcDbEntity
  8
0
100
AcDbLine
 10
40.32515294744962
 20
540.8011551362124
 30
0.0
 11
40.32515294744962
 21
537.8011551362123
 31
0.0
  0
LINE
  5
2A81
330
18
100
AcDbEntity
  8
0
100
AcDbLine
 10
37.52515294744933
 20
579.5511551362124
 30
0.0
 11
52.52515294744944
 21
579.5511551362124
 31
0.0
  0
LINE
  5
2A82
330
18
100
AcDbEntity
  8
0
100
AcDbLine
 10
50.52515294744961
 20
581.5511551362123
 30
0.0
 11
35.52515294744961
 21
581.5511551362123
 31
0.0
  0
LINE
  5
2A83
330
18
100
AcDbEntity
  8
0
100
AcDbLine
 10
40.32515294744962
 20
578.3011551362124
 30
0.0
 11
40.32515294744962
 21
575.3011551362123
 31
0.0
  0
LINE
  5
2A84
330
18
100
AcDbEntity
  8
0
100
AcDbLine
 10
39.32515294744962
 20
578.8011551362124
 30
0.0
 11
39.32515294744962
 21
574.8011551362123
 31
0.0
  0
LINE
  5
2A85
330
18
100
AcDbEntity
  8
0
100
AcDbLine
 10
40.32515294744962
 20
578.3011551362124
 30
0.0
 11
39.32515294744962
 21
578.8011551362124
 31
0.0
  0
LINE
  5
2A86
330
18
100
AcDbEntity
  8
0
100
AcDbLine
 10
39.32515294744962
 20
574.8011551362123
 30
0.0
 11
40.32515294744962
 21
575.3011551362123
 31
0.0
  0
LINE
  5
2A87
330
18
100
AcDbEntity
  8
0
100
AcDbLine
 10
39.32515294744962
 20
578.8011551362124
 30
0.0
 11
45.32515294744962
 21
578.8011551362123
 31
0.0
  0
LINE
  5
2A88
330
18
100
AcDbEntity
  8
0
100
AcDbLine
 10
40.32515294744962
 20
578.3011551362124
 30
0.0
 11
43.32515294744962
 21
578.3011551362124
 31
0.0
  0
LINE
  5
2A89
330
18
100
AcDbEntity
  8
0
100
AcDbLine
 10
40.32515294744962
 20
575.3011551362123
 30
0.0
 11
43.32515294744962
 21
575.3011551362123
 31
0.0
  0
LINE
  5
2A8A
330
18
100
AcDbEntity
  8
0
100
AcDbLine
 10
39.32515294744962
 20
574.8011551362123
 30
0.0
 11
45.32515294744951
 21
574.8011551362124
 31
0.0
  0
LINE
  5
2A8B
330
18
100
AcDbEntity
  8
0
100
AcDbLine
 10
43.32515294744962
 20
578.3011551362124
 30
0.0
 11
43.32515294744962
 21
575.3011551362123
 31
0.0
  0
LINE
  5
2A8C
330
18
100
AcDbEntity
  8
0
100
AcDbLine
 10
45.32515294744962
 20
578.8011551362123
 30
0.0
 11
45.32515294744951
 21
574.8011551362124
 31
0.0
  0
LINE
  5
2A8D
330
18
100
AcDbEntity
  8
0
100
AcDbLine
 10
43.32515294744962
 20
575.3011551362123
 30
0.0
 11
45.32515294744951
 21
574.8011551362124
 31
0.0
  0
LINE
  5
2A8E
330
18
100
AcDbEntity
  8
0
100
AcDbLine
 10
43.32515294744962
 20
578.3011551362124
 30
0.0
 11
45.32515294744962
 21
578.8011551362123
 31
0.0
  0
LINE
  5
2A8F
330
18
100
AcDbEntity
  8
0
100
AcDbLine
 10
43.32515294744962
 20
570.8011551362123
 30
0.0
 11
45.32515294744962
 21
571.3011551362123
 31
0.0
  0
LINE
  5
2A90
330
18
100
AcDbEntity
  8
0
100
AcDbLine
 10
43.32515294744962
 20
567.8011551362124
 30
0.0
 11
45.32515294744951
 21
567.3011551362125
 31
0.0
  0
LINE
  5
2A91
330
18
100
AcDbEntity
  8
0
100
AcDbLine
 10
45.32515294744962
 20
571.3011551362123
 30
0.0
 11
45.32515294744951
 21
567.3011551362125
 31
0.0
  0
LINE
  5
2A92
330
18
100
AcDbEntity
  8
0
100
AcDbLine
 10
43.32515294744962
 20
570.8011551362123
 30
0.0
 11
43.32515294744962
 21
567.8011551362124
 31
0.0
  0
LINE
  5
2A93
330
18
100
AcDbEntity
  8
0
100
AcDbLine
 10
39.32515294744962
 20
567.3011551362123
 30
0.0
 11
45.32515294744951
 21
567.3011551362125
 31
0.0
  0
LINE
  5
2A94
330
18
100
AcDbEntity
  8
0
100
AcDbLine
 10
40.32515294744962
 20
567.8011551362124
 30
0.0
 11
43.32515294744962
 21
567.8011551362124
 31
0.0
  0
LINE
  5
2A95
330
18
100
AcDbEntity
  8
0
100
AcDbLine
 10
40.32515294744962
 20
570.8011551362125
 30
0.0
 11
43.32515294744962
 21
570.8011551362123
 31
0.0
  0
LINE
  5
2A96
330
18
100
AcDbEntity
  8
0
100
AcDbLine
 10
39.32515294744962
 20
571.3011551362125
 30
0.0
 11
45.32515294744962
 21
571.3011551362123
 31
0.0
  0
LINE
  5
2A97
330
18
100
AcDbEntity
  8
0
100
AcDbLine
 10
39.32515294744962
 20
567.3011551362123
 30
0.0
 11
40.32515294744962
 21
567.8011551362124
 31
0.0
  0
LINE
  5
2A98
330
18
100
AcDbEntity
  8
0
100
AcDbLine
 10
40.32515294744962
 20
570.8011551362125
 30
0.0
 11
39.32515294744962
 21
571.3011551362125
 31
0.0
  0
LINE
  5
2A99
330
18
100
AcDbEntity
  8
0
100
AcDbLine
 10
39.32515294744962
 20
571.3011551362125
 30
0.0
 11
39.32515294744962
 21
567.3011551362123
 31
0.0
  0
LINE
  5
2A9A
330
18
100
AcDbEntity
  8
0
100
AcDbLine
 10
40.32515294744962
 20
570.8011551362125
 30
0.0
 11
40.32515294744962
 21
567.8011551362124
 31
0.0
  0
LINE
  5
2A9B
330
18
100
AcDbEntity
  8
0
100
AcDbLine
 10
40.32515294744962
 20
563.3011551362125
 30
0.0
 11
39.32515294744962
 21
563.8011551362125
 31
0.0
  0
LINE
  5
2A9C
330
18
100
AcDbEntity
  8
0
100
AcDbLine
 10
39.32515294744962
 20
563.8011551362125
 30
0.0
 11
45.32515294744962
 21
563.8011551362124
 31
0.0
  0
LINE
  5
2A9D
330
18
100
AcDbEntity
  8
0
100
AcDbLine
 10
40.32515294744962
 20
563.3011551362125
 30
0.0
 11
43.32515294744962
 21
563.3011551362123
 31
0.0
  0
LINE
  5
2A9E
330
18
100
AcDbEntity
  8
0
100
AcDbLine
 10
43.32515294744962
 20
563.3011551362123
 30
0.0
 11
45.32515294744962
 21
563.8011551362124
 31
0.0
  0
LINE
  5
2A9F
330
18
100
AcDbEntity
  8
0
100
AcDbLine
 10
39.32515294744962
 20
559.8011551362124
 30
0.0
 11
40.32515294744962
 21
560.3011551362124
 31
0.0
  0
LINE
  5
2AA0
330
18
100
AcDbEntity
  8
0
100
AcDbLine
 10
40.32515294744962
 20
560.3011551362124
 30
0.0
 11
43.32515294744962
 21
560.3011551362124
 31
0.0
  0
LINE
  5
2AA1
330
18
100
AcDbEntity
  8
0
100
AcDbLine
 10
39.32515294744962
 20
559.8011551362124
 30
0.0
 11
45.32515294744951
 21
559.8011551362125
 31
0.0
  0
LINE
  5
2AA2
330
18
100
AcDbEntity
  8
0
100
AcDbLine
 10
43.32515294744962
 20
560.3011551362124
 30
0.0
 11
45.32515294744951
 21
559.8011551362125
 31
0.0
  0
LINE
  5
2AA3
330
18
100
AcDbEntity
  8
0
100
AcDbLine
 10
40.32515294744962
 20
563.3011551362125
 30
0.0
 11
40.32515294744962
 21
560.3011551362124
 31
0.0
  0
LINE
  5
2AA4
330
18
100
AcDbEntity
  8
0
100
AcDbLine
 10
39.32515294744962
 20
563.8011551362125
 30
0.0
 11
39.32515294744962
 21
559.8011551362124
 31
0.0
  0
LINE
  5
2AA5
330
18
100
AcDbEntity
  8
0
100
AcDbLine
 10
43.32515294744962
 20
563.3011551362123
 30
0.0
 11
43.32515294744962
 21
560.3011551362124
 31
0.0
  0
LINE
  5
2AA6
330
18
100
AcDbEntity
  8
0
100
AcDbLine
 10
45.32515294744962
 20
563.8011551362124
 30
0.0
 11
45.32515294744951
 21
559.8011551362125
 31
0.0
  0
LINE
  5
2AA7
330
18
100
AcDbEntity
  8
0
100
AcDbLine
 10
50.52515294744961
 20
581.5511551362123
 30
0.0
 11
50.52515294744961
 21
579.5511551362124
 31
0.0
  0
INSERT
  5
2AA8
330
18
100
AcDbEntity
  8
0
100
AcDbBlockReference
  2
A$C3A6E1F00
 10
63.50015297347636
 20
512.6511556163402
 30
0.0
  0
LINE
  5
2AA9
330
18
100
AcDbEntity
  8
0
100
AcDbLine
 10
60.42515294744958
 20
510.0511551362126
 30
0.0
 11
75.42515294744953
 21
510.0511551362126
 31
0.0
  0
LINE
  5
2AAA
330
18
100
AcDbEntity
  8
0
100
AcDbLine
 10
186.6550029382808
 20
579.5511551362125
 30
0.0
 11
186.6550029382808
 21
521.5511551362124
 31
0.0
  0
LINE
  5
2AAB
330
18
100
AcDbEntity
  8
0
100
AcDbLine
 10
196.5550029382807
 20
579.5511551362125
 30
0.0
 11
196.5550029382808
 21
521.5511551362124
 31
0.0
  0
LINE
  5
2AAC
330
18
100
AcDbEntity
  8
0
100
AcDbLine
 10
187.1550029382808
 20
579.5511551362125
 30
0.0
 11
187.1550029382808
 21
521.5511551362124
 31
0.0
  0
LINE
  5
2AAD
330
18
100
AcDbEntity
  8
0
100
AcDbLine
 10
195.7550029382807
 20
579.5511551362125
 30
0.0
 11
195.7550029382808
 21
521.5511551362124
 31
0.0
  0
LINE
  5
2AAE
330
18
100
AcDbEntity
  8
0
100
AcDbLine
 10
186.6550029382808
 20
521.5511551362124
 30
0.0
 11
196.5550029382808
 21
521.5511551362124
 31
0.0
  0
CIRCLE
  5
2AAF
330
18
100
AcDbEntity
  8
0
100
AcDbCircle
 10
191.4550029382808
 20
524.3011551362124
 30
0.0
 40
1.75
  0
CIRCLE
  5
2AB0
330
18
100
AcDbEntity
  8
0
100
AcDbCircle
 10
191.4550029382808
 20
524.3011551362124
 30
0.0
 40
1.5
  0
LINE
  5
2AB1
330
18
100
AcDbEntity
  8
0
100
AcDbLine
 10
192.5951224213596
 20
523.3264102648207
 30
0.0
 11
191.1809088589865
 21
525.7759000076039
 31
0.0
  0
LINE
  5
2AB2
330
18
100
AcDbEntity
  8
0
100
AcDbLine
 10
191.7290970175752
 20
522.8264102648209
 30
0.0
 11
190.3148834552021
 21
525.275900007604
 31
0.0
  0
LINE
  5
2AB3
330
18
100
AcDbEntity
  8
0
100
AcDbLine
 10
191.7290970175752
 20
530.3264102648208
 30
0.0
 11
190.3148834552021
 21
532.775900007604
 31
0.0
  0
LINE
  5
2AB4
330
18
100
AcDbEntity
  8
0
100
AcDbLine
 10
192.5951224213596
 20
530.8264102648207
 30
0.0
 11
191.1809088589865
 21
533.2759000076038
 31
0.0
  0
CIRCLE
  5
2AB5
330
18
100
AcDbEntity
  8
0
100
AcDbCircle
 10
191.4550029382808
 20
531.8011551362124
 30
0.0
 40
1.5
  0
CIRCLE
  5
2AB6
330
18
100
AcDbEntity
  8
0
100
AcDbCircle
 10
191.4550029382808
 20
531.8011551362124
 30
0.0
 40
1.75
  0
LINE
  5
2AB7
330
18
100
AcDbEntity
  8
0
100
AcDbLine
 10
191.7290970175752
 20
537.8264102648208
 30
0.0
 11
190.3148834552021
 21
540.275900007604
 31
0.0
  0
LINE
  5
2AB8
330
18
100
AcDbEntity
  8
0
100
AcDbLine
 10
192.5951224213596
 20
538.3264102648207
 30
0.0
 11
191.1809088589865
 21
540.7759000076039
 31
0.0
  0
CIRCLE
  5
2AB9
330
18
100
AcDbEntity
  8
0
100
AcDbCircle
 10
191.4550029382808
 20
539.3011551362124
 30
0.0
 40
1.5
  0
CIRCLE
  5
2ABA
330
18
100
AcDbEntity
  8
0
100
AcDbCircle
 10
191.4550029382808
 20
539.3011551362124
 30
0.0
 40
1.75
  0
CIRCLE
  5
2ABB
330
18
100
AcDbEntity
  8
0
100
AcDbCircle
 10
191.4550029382808
 20
546.8011551362123
 30
0.0
 40
1.75
  0
CIRCLE
  5
2ABC
330
18
100
AcDbEntity
  8
0
100
AcDbCircle
 10
191.4550029382808
 20
546.8011551362123
 30
0.0
 40
1.5
  0
LINE
  5
2ABD
330
18
100
AcDbEntity
  8
0
100
AcDbLine
 10
192.5951224213596
 20
545.8264102648207
 30
0.0
 11
191.1809088589865
 21
548.2759000076039
 31
0.0
  0
LINE
  5
2ABE
330
18
100
AcDbEntity
  8
0
100
AcDbLine
 10
191.7290970175752
 20
545.3264102648208
 30
0.0
 11
190.3148834552021
 21
547.775900007604
 31
0.0
  0
LINE
  5
2ABF
330
18
100
AcDbEntity
  8
0
100
AcDbLine
 10
191.7290970175752
 20
552.8264102648209
 30
0.0
 11
190.3148834552021
 21
555.275900007604
 31
0.0
  0
CIRCLE
  5
2AC0
330
18
100
AcDbEntity
  8
0
100
AcDbCircle
 10
191.4550029382808
 20
554.3011551362123
 30
0.0
 40
1.75
  0
CIRCLE
  5
2AC1
330
18
100
AcDbEntity
  8
0
100
AcDbCircle
 10
191.4550029382808
 20
554.3011551362123
 30
0.0
 40
1.5
  0
LINE
  5
2AC2
330
18
100
AcDbEntity
  8
0
100
AcDbLine
 10
192.5951224213596
 20
553.3264102648208
 30
0.0
 11
191.1809088589865
 21
555.7759000076039
 31
0.0
  0
CIRCLE
  5
2AC3
330
18
100
AcDbEntity
  8
0
100
AcDbCircle
 10
191.4550029382808
 20
561.8011551362124
 30
0.0
 40
1.75
  0
CIRCLE
  5
2AC4
330
18
100
AcDbEntity
  8
0
100
AcDbCircle
 10
191.4550029382808
 20
561.8011551362124
 30
0.0
 40
1.5
  0
LINE
  5
2AC5
330
18
100
AcDbEntity
  8
0
100
AcDbLine
 10
192.5951224213596
 20
560.8264102648207
 30
0.0
 11
191.1809088589865
 21
563.2759000076039
 31
0.0
  0
LINE
  5
2AC6
330
18
100
AcDbEntity
  8
0
100
AcDbLine
 10
191.7290970175752
 20
560.3264102648209
 30
0.0
 11
190.3148834552021
 21
562.775900007604
 31
0.0
  0
LINE
  5
2AC7
330
18
100
AcDbEntity
  8
0
100
AcDbLine
 10
186.6550029382808
 20
579.5511551362125
 30
0.0
 11
196.5550029382807
 21
579.5511551362125
 31
0.0
  0
CIRCLE
  5
2AC8
330
18
100
AcDbEntity
  8
0
100
AcDbCircle
 10
191.4550029382808
 20
576.8011551362124
 30
0.0
 40
1.75
  0
CIRCLE
  5
2AC9
330
18
100
AcDbEntity
  8
0
100
AcDbCircle
 10
191.4550029382808
 20
576.8011551362124
 30
0.0
 40
1.5
  0
LINE
  5
2ACA
330
18
100
AcDbEntity
  8
0
100
AcDbLine
 10
192.5951224213596
 20
575.8264102648208
 30
0.0
 11
191.1809088589865
 21
578.2759000076039
 31
0.0
  0
LINE
  5
2ACB
330
18
100
AcDbEntity
  8
0
100
AcDbLine
 10
191.7290970175752
 20
575.3264102648208
 30
0.0
 11
190.3148834552021
 21
577.7759000076039
 31
0.0
  0
LINE
  5
2ACC
330
18
100
AcDbEntity
  8
0
100
AcDbLine
 10
191.7290970175752
 20
567.8264102648208
 30
0.0
 11
190.3148834552021
 21
570.2759000076039
 31
0.0
  0
LINE
  5
2ACD
330
18
100
AcDbEntity
  8
0
100
AcDbLine
 10
192.5951224213596
 20
568.3264102648208
 30
0.0
 11
191.1809088589865
 21
570.7759000076038
 31
0.0
  0
CIRCLE
  5
2ACE
330
18
100
AcDbEntity
  8
0
100
AcDbCircle
 10
191.4550029382808
 20
569.3011551362124
 30
0.0
 40
1.5
  0
CIRCLE
  5
2ACF
330
18
100
AcDbEntity
  8
0
100
AcDbCircle
 10
191.4550029382808
 20
569.3011551362124
 30
0.0
 40
1.75
  0
LINE
  5
2AD0
330
18
100
AcDbEntity
  8
0
100
AcDbLine
 10
381.5550029382807
 20
468.5511551362123
 30
0.0
 11
378.5550029382807
 21
468.5511551362123
 31
0.0
  0
LINE
  5
2CC4
330
18
100
AcDbEntity
  8
0
100
AcDbLine
 10
378.5550029382807
 20
693.5511551362123
 30
0.0
 11
196.5550029382808
 21
693.5511551362123
 31
0.0
  0
LINE
  5
2CDD
330
18
100
AcDbEntity
  8
0
100
AcDbLine
 10
-30.07484705255035
 20
664.5511551362126
 30
0.0
 11
21.92515294744964
 21
664.5511551362126
 31
0.0
  0
LWPOLYLINE
  5
2CDE
330
18
100
AcDbEntity
  8
0
100
AcDbPolyline
 90
        3
 70
     1
 43
0.0
 10
-9.574847052549927
 20
610.5691313832892
 10
-11.57484612004969
 20
614.0332313832893
 10
-7.574847985050155
 20
614.0332313832893
  0
LWPOLYLINE
  5
2CDF
330
18
100
AcDbEntity
  8
0
100
AcDbPolyline
 90
        8
 70
     1
 43
0.0
 10
-6.074847052550381
 20
615.3011803065312
 10
-6.074847052550381
 20
609.3011803065312
 42
-0.4142135623730951
 10
-6.574847052550381
 20
608.8011803065312
 10
-12.57484705255038
 20
608.8011803065312
 42
-0.4142135623730951
 10
-13.07484705255038
 20
609.3011803065312
 10
-13.07484705255038
 20
615.3011803065312
 42
-0.4142135623730951
 10
-12.57484705255038
 20
615.8011803065313
 10
-6.574847052550381
 20
615.8011803065313
 42
-0.4142135623730951
  0
LWPOLYLINE
  5
2CE0
330
18
100
AcDbEntity
  8
0
100
AcDbPolyline
 90
        8
 70
     1
 43
0.0
 10
-5.574847052550381
 20
615.3011803065312
 10
-5.574847052550381
 20
609.3011803065312
 42
-0.4142135623730951
 10
-6.574847052550381
 20
608.3011803065312
 10
-12.57484705255038
 20
608.3011803065312
 42
-0.4142135623730951
 10
-13.57484705255038
 20
609.3011803065312
 10
-13.57484705255038
 20
615.3011803065312
 42
-0.4142135623730951
 10
-12.57484705255038
 20
616.3011803065312
 10
-6.574847052550381
 20
616.3011803065312
 42
-0.4142135623730951
  0
LWPOLYLINE
  5
2CE1
330
18
100
AcDbEntity
  8
0
100
AcDbPolyline
 90
        8
 70
     1
 43
0.0
 10
15.92515294744964
 20
647.5511551362126
 10
15.92515294744964
 20
622.5511551362126
 42
-0.4142135623730951
 10
14.92515294744964
 20
621.5511551362126
 10
-23.07484705255038
 20
621.5511551362126
 42
-0.4142135623730951
 10
-24.07484705255038
 20
622.5511551362126
 10
-24.07484705255038
 20
647.5511551362126
 42
-0.4142135623730951
 10
-23.07484705255038
 20
648.5511551362126
 10
14.92515294744964
 20
648.5511551362126
 42
-0.4142135623730951
  0
LWPOLYLINE
  5
2CE2
330
18
100
AcDbEntity
  8
0
100
AcDbPolyline
 90
        8
 70
     1
 43
0.0
 10
14.92515294744964
 20
646.5511551362126
 10
14.92515294744964
 20
623.5511551362126
 42
-0.4142135623730951
 10
13.92515294744964
 20
622.5511551362126
 10
-22.07484705255038
 20
622.5511551362126
 42
-0.4142135623730951
 10
-23.07484705255038
 20
623.5511551362126
 10
-23.07484705255038
 20
646.5511551362126
 42
-0.4142135623730949
 10
-22.07484705255038
 20
647.5511551362126
 10
13.92515294744964
 20
647.5511551362126
 42
-0.4142135623730953
  0
HATCH
  5
2CE3
330
18
100
AcDbEntity
  8
0
100
AcDbHatch
 10
0.0
 20
0.0
 30
0.0
210
0.0
220
0.0
230
1.0
  2
SOLID
 70
     1
 71
     0
 91
        2
 92
        7
 72
     1
 73
     1
 93
        8
 10
15.32121170141579
 20
648.4693803065312
 42
0.0
 10
-23.47090580651641
 20
648.4693803065312
 42
0.1885055804394898
 10
-23.98862830767964
 20
647.9573617557726
 42
0.0
 10
-23.98862830767964
 20
622.1449485166527
 42
0.2963712537857847
 10
-23.07484705255038
 20
621.5511551362126
 42
0.0
 10
14.92515294744964
 20
621.5511551362126
 42
0.4142135623730951
 10
15.92515294744964
 20
622.5511551362126
 42
0.0
 10
15.92515294744964
 20
647.5511551362126
 42
0.299386580726798
 97
        0
 92
       22
 72
     1
 73
     1
 93
        8
 10
13.92515294744964
 20
647.5511551362126
 42
-0.4142135623730953
 10
14.92515294744964
 20
646.5511551362126
 42
0.0
 10
14.92515294744964
 20
623.5511551362126
 42
-0.4142135623730951
 10
13.92515294744964
 20
622.5511551362126
 42
0.0
 10
-22.07484705255038
 20
622.5511551362126
 42
-0.4142135623730951
 10
-23.07484705255038
 20
623.5511551362126
 42
0.0
 10
-23.07484705255038
 20
646.5511551362126
 42
-0.4142135623730949
 10
-22.07484705255038
 20
647.5511551362126
 42
0.0
 97
        0
 75
     0
 76
     1
 47
0.1122686005965
 98
        2
 10
-14.24236744591613
 20
648.1714235318756
 10
-14.24236744591613
 20
648.1714235318756
  0
HATCH
  5
2CE4
330
18
100
AcDbEntity
  8
0
100
AcDbHatch
 10
0.0
 20
0.0
 30
0.0
210
0.0
220
0.0
230
1.0
  2
SOLID
 70
     1
 71
     0
 91
        2
 92
        7
 72
     0
 73
     1
 93
        3
 10
-20.57484705254992
 20
614.0332303065312
 10
-22.57484612004966
 20
610.5691303065311
 10
-18.57484798505015
 20
610.5691303065311
 97
        0
 92
        7
 72
     0
 73
     1
 93
        3
 10
-9.574847052549955
 20
610.5691313832891
 10
-7.574847985050155
 20
614.0332313832894
 10
-11.57484612004981
 20
614.0332313832893
 97
        0
 75
     0
 76
     1
 47
0.0188367729183999
 98
        2
 10
-20.21336971569613
 20
612.1352705831015
 10
-9.887173452989514
 20
612.5120059619814
  0
HATCH
  5
2CE5
330
18
100
AcDbEntity
  8
0
100
AcDbHatch
 10
0.0
 20
0.0
 30
0.0
210
0.0
220
0.0
230
1.0
  2
SOLID
 70
     1
 71
     0
 91
        6
 92
        7
 72
     1
 73
     1
 93
        8
 10
-6.574847052550381
 20
616.3011803065312
 42
0.0
 10
-12.57484705255038
 20
616.3011803065312
 42
0.4142135623730951
 10
-13.57484705255038
 20
615.3011803065312
 42
0.0
 10
-13.57484705255038
 20
609.3011803065312
 42
0.4142135623730951
 10
-12.57484705255038
 20
608.3011803065312
 42
0.0
 10
-6.574847052550381
 20
608.3011803065312
 42
0.4142135623730951
 10
-5.574847052550381
 20
609.3011803065312
 42
0.0
 10
-5.574847052550381
 20
615.3011803065312
 42
0.4142135623730951
 97
        0
 92
       22
 72
     1
 73
     1
 93
        8
 10
-6.574847052550381
 20
615.8011803065313
 42
-0.4142135623730951
 10
-6.074847052550381
 20
615.3011803065312
 42
0.0
 10
-6.074847052550381
 20
609.3011803065312
 42
-0.4142135623730951
 10
-6.574847052550381
 20
608.8011803065312
 42
0.0
 10
-12.57484705255038
 20
608.8011803065312
 42
-0.4142135623730951
 10
-13.07484705255038
 20
609.3011803065312
 42
0.0
 10
-13.07484705255038
 20
615.3011803065312
 42
-0.4142135623730951
 10
-12.57484705255038
 20
615.8011803065313
 42
0.0
 97
        0
 92
        6
 72
     0
 73
     1
 93
        3
 10
-11.57484612004969
 20
614.0332313832896
 10
-7.574847985050212
 20
614.0332313832893
 10
-9.574847052549927
 20
610.5691313832892
 97
        0
 92
        7
 72
     1
 73
     1
 93
        8
 10
-17.57484705255038
 20
616.3011803065312
 42
0.0
 10
-23.57484705255038
 20
616.3011803065312
 42
0.4142135623730951
 10
-24.57484705255038
 20
615.3011803065312
 42
0.0
 10
-24.57484705255038
 20
609.3011803065312
 42
0.4142135623730951
 10
-23.57484705255038
 20
608.3011803065312
 42
0.0
 10
-17.57484705255038
 20
608.3011803065312
 42
0.4142135623730951
 10
-16.57484705255038
 20
609.3011803065312
 42
0.0
 10
-16.57484705255038
 20
615.3011803065312
 42
0.4142135623730951
 97
        0
 92
       22
 72
     1
 73
     1
 93
        8
 10
-17.57484705255038
 20
615.8011803065313
 42
-0.4142135623730951
 10
-17.07484705255038
 20
615.3011803065312
 42
0.0
 10
-17.07484705255038
 20
609.3011803065312
 42
-0.4142135623730951
 10
-17.57484705255038
 20
608.8011803065312
 42
0.0
 10
-23.57484705255038
 20
608.8011803065312
 42
-0.4142135623730951
 10
-24.07484705255038
 20
609.3011803065312
 42
0.0
 10
-24.07484705255038
 20
615.3011803065312
 42
-0.4142135623730951
 10
-23.57484705255038
 20
615.8011803065313
 42
0.0
 97
        0
 92
        6
 72
     0
 73
     1
 93
        3
 10
-20.57484705254998
 20
614.0332303065311
 10
-18.57484798505007
 20
610.5691303065309
 10
-22.57484612004975
 20
610.5691303065311
 97
        0
 75
     0
 76
     1
 47
0.0188367729183999
 98
        6
 10
-11.90341995857957
 20
616.0156500768073
 10
-11.90341995857957
 20
616.0156500768073
 10
-11.90341995857957
 20
616.0156500768073
 10
-19.32772833027971
 20
616.0156500768073
 10
-19.32772833027971
 20
616.0156500768073
 10
-19.32772833027971
 20
616.0156500768073
  0
TEXT
  5
2CE6
330
18
100
AcDbEntity
  8
0
100
AcDbText
 10
-25.62939216280102
 20
652.0238911056185
 30
0.0
 40
6.5
  1
ACTUS POWER
 41
0.9300774284514783
  7
MSｺﾞｼｯｸ
 72
     5
 11
17.57907801581791
 21
652.0238911056185
 31
0.0
100
AcDbText
  0
LINE
  5
2CE7
330
18
100
AcDbEntity
  8
0
100
AcDbLine
 10
-30.07484705255047
 20
600.5511551362125
 30
0.0
 11
21.92515294744953
 21
600.5511551362125
 31
0.0
  0
TEXT
  5
2CE8
330
18
100
AcDbEntity
  8
0
100
AcDbText
 10
-25.55113559073999
 20
659.5888257896127
 30
0.0
 40
2.0
  1
AC   SERVO  DRIVER
  7
MSｺﾞｼｯｸ
100
AcDbText
  0
LINE
  5
2CE9
330
18
100
AcDbEntity
  8
0
100
AcDbLine
 10
66.92515294744959
 20
708.5511551362124
 30
0.0
 11
-17.07484705255035
 21
708.5511551362125
 31
0.0
  0
LINE
  5
2CEA
330
18
100
AcDbEntity
  8
0
100
AcDbLine
 10
79.92515294744959
 20
693.5511551362123
 30
0.0
 11
-40.07484705255035
 21
693.5511551362123
 31
0.0
  0
LINE
  5
2CED
330
18
100
AcDbEntity
  8
0
100
AcDbLine
 10
-32.07484705255035
 20
662.5511551362126
 30
0.0
 11
-32.07484705255046
 21
602.5511551362126
 31
0.0
  0
ARC
  5
2CEE
330
18
100
AcDbEntity
  8
0
100
AcDbCircle
 10
-30.07484705255052
 20
602.5511551362126
 30
0.0
 40
2.0
100
AcDbArc
 50
180.0
 51
270.0
  0
LWPOLYLINE
  5
2CEF
330
18
100
AcDbEntity
  8
0
100
AcDbPolyline
 90
        3
 70
     1
 43
0.0
 10
-20.57484705254992
 20
614.0332303065313
 10
-22.5748461200497
 20
610.5691303065311
 10
-18.57484798505015
 20
610.5691303065311
  0
LWPOLYLINE
  5
2CF0
330
18
100
AcDbEntity
  8
0
100
AcDbPolyline
 90
        8
 70
     1
 43
0.0
 10
-16.57484705255038
 20
615.3011803065312
 10
-16.57484705255038
 20
609.3011803065312
 42
-0.4142135623730951
 10
-17.57484705255038
 20
608.3011803065312
 10
-23.57484705255038
 20
608.3011803065312
 42
-0.4142135623730951
 10
-24.57484705255038
 20
609.3011803065312
 10
-24.57484705255038
 20
615.3011803065312
 42
-0.4142135623730951
 10
-23.57484705255038
 20
616.3011803065312
 10
-17.57484705255038
 20
616.3011803065312
 42
-0.4142135623730951
  0
LWPOLYLINE
  5
2CF1
330
18
100
AcDbEntity
  8
0
100
AcDbPolyline
 90
        8
 70
     1
 43
0.0
 10
-17.07484705255038
 20
615.3011803065312
 10
-17.07484705255038
 20
609.3011803065312
 42
-0.4142135623730951
 10
-17.57484705255038
 20
608.8011803065312
 10
-23.57484705255038
 20
608.8011803065312
 42
-0.4142135623730951
 10
-24.07484705255038
 20
609.3011803065312
 10
-24.07484705255038
 20
615.3011803065312
 42
-0.4142135623730951
 10
-23.57484705255038
 20
615.8011803065313
 10
-17.57484705255038
 20
615.8011803065313
 42
-0.4142135623730951
  0
ARC
  5
2CF2
330
18
100
AcDbEntity
  8
0
100
AcDbCircle
 10
-30.07484705255041
 20
662.5511551362126
 30
0.0
 40
2.0
100
AcDbArc
 50
90.0
 51
180.0
  0
LINE
  5
2CF3
330
18
100
AcDbEntity
  8
0
100
AcDbLine
 10
-30.07484705255035
 20
693.5511551362123
 30
0.0
 11
-30.07484705255035
 21
708.5511551362125
 31
0.0
  0
ARC
  5
2CF4
330
18
100
AcDbEntity
  8
0
100
AcDbCircle
 10
-18.07484705255035
 20
686.5511551362124
 30
0.0
 40
2.0
100
AcDbArc
 50
345.5224878140701
 51
14.47751218592986
  0
ARC
  5
2CF5
330
18
100
AcDbEntity
  8
0
100
AcDbCircle
 10
-18.07484705255035
 20
686.5511551362124
 30
0.0
 40
2.0
100
AcDbArc
 50
165.5224878140701
 51
194.4775121859298
  0
ARC
  5
2CF6
330
18
100
AcDbEntity
  8
0
100
AcDbCircle
 10
-18.07484705255035
 20
686.5511551362124
 30
0.0
 40
2.0
100
AcDbArc
 50
255.52248781407
 51
284.4775121859298
  0
LINE
  5
2CF7
330
18
100
AcDbEntity
  8
0
100
AcDbLine
 10
-18.57484705255035
 20
686.0511551362123
 30
0.0
 11
-18.57484705255035
 21
684.6146634631086
 31
0.0
  0
LINE
  5
2CF8
330
18
100
AcDbEntity
  8
0
100
AcDbLine
 10
-17.57484705255035
 20
686.0511551362123
 30
0.0
 11
-17.57484705255035
 21
684.6146634631086
 31
0.0
  0
LINE
  5
2CF9
330
18
100
AcDbEntity
  8
0
100
AcDbLine
 10
-16.13835537944658
 20
686.0511551362123
 30
0.0
 11
-17.57484705255035
 21
686.0511551362123
 31
0.0
  0
LINE
  5
2CFA
330
18
100
AcDbEntity
  8
0
100
AcDbLine
 10
-18.57484705255035
 20
686.0511551362123
 30
0.0
 11
-20.01133872565412
 21
686.0511551362123
 31
0.0
  0
LINE
  5
2CFB
330
18
100
AcDbEntity
  8
0
100
AcDbLine
 10
-16.13835537944658
 20
687.0511551362124
 30
0.0
 11
-17.57484705255035
 21
687.0511551362124
 31
0.0
  0
LINE
  5
2CFC
330
18
100
AcDbEntity
  8
0
100
AcDbLine
 10
-18.57484705255035
 20
687.0511551362124
 30
0.0
 11
-20.01133872565412
 21
687.0511551362124
 31
0.0
  0
ARC
  5
2CFD
330
18
100
AcDbEntity
  8
0
100
AcDbCircle
 10
-18.07484705255035
 20
686.5511551362124
 30
0.0
 40
2.0
100
AcDbArc
 50
75.52248781407015
 51
104.4775121859298
  0
CIRCLE
  5
2CFE
330
18
100
AcDbEntity
  8
0
100
AcDbCircle
 10
-18.07484705255035
 20
686.5511551362124
 30
0.0
 40
3.0
  0
CIRCLE
  5
2CFF
330
18
100
AcDbEntity
  8
0
100
AcDbCircle
 10
-18.07484705255035
 20
686.5511551362124
 30
0.0
 40
2.5
  0
LINE
  5
2D00
330
18
100
AcDbEntity
  8
0
100
AcDbLine
 10
-18.57484705255035
 20
688.4876468093157
 30
0.0
 11
-18.57484705255035
 21
687.0511551362124
 31
0.0
  0
LINE
  5
2D01
330
18
100
AcDbEntity
  8
0
100
AcDbLine
 10
-17.57484705255035
 20
688.4876468093157
 30
0.0
 11
-17.57484705255035
 21
687.0511551362124
 31
0.0
  0
LINE
  5
2D02
330
18
100
AcDbEntity
  8
0
100
AcDbLine
 10
-23.07484705255035
 20
708.5511551362125
 30
0.0
 11
-30.07484705255035
 21
708.5511551362125
 31
0.0
  0
ARC
  5
2D03
330
18
100
AcDbEntity
  8
0
100
AcDbCircle
 10
-20.07484705255035
 20
703.5511551362124
 30
0.0
 40
3.0
100
AcDbArc
 50
180.0
 51
0.0
  0
LINE
  5
2D04
330
18
100
AcDbEntity
  8
0
100
AcDbLine
 10
-23.07484705255035
 20
703.5511551362124
 30
0.0
 11
-23.07484705255035
 21
708.5511551362125
 31
0.0
  0
LINE
  5
2D05
330
18
100
AcDbEntity
  8
0
100
AcDbLine
 10
-17.07484705255035
 20
703.5511551362124
 30
0.0
 11
-17.07484705255035
 21
708.5511551362125
 31
0.0
  0
MTEXT
  5
2D23
330
18
100
AcDbEntity
  8
0
100
AcDbMText
 10
51.87912725154285
 20
625.8483191446587
 30
0.0
 40
2.0
 41
0.0
 71
     1
 72
     5
  1
Ｊ１
  7
MSｺﾞｼｯｸ
 73
     1
 44
1.0
  0
MTEXT
  5
2D24
330
18
100
AcDbEntity
  8
0
100
AcDbMText
 10
52.03944184180977
 20
608.8702815616827
 30
0.0
 40
2.0
 41
0.0
 71
     1
 72
     5
  1
Ｊ２
  7
MSｺﾞｼｯｸ
 73
     1
 44
1.0
  0
LINE
  5
2D25
330
18
100
AcDbEntity
  8
0
100
AcDbLine
 10
23.92515294744964
 20
662.5511551362126
 30
0.0
 11
23.92515294744953
 21
602.5511551362126
 31
0.0
  0
LWPOLYLINE
  5
2D26
330
18
100
AcDbEntity
  8
0
100
AcDbPolyline
 90
        3
 70
     1
 43
0.0
 10
2.433821764759727
 20
609.5185569734148
 10
4.165872572328567
 20
610.5185569734149
 10
2.433821764759727
 20
611.5185569734149
  0
TEXT
  5
2D27
330
18
100
AcDbEntity
  8
0
100
AcDbText
 10
-1.470718783335712
 20
613.3348835469568
 30
0.0
 40
1.5
  1
MOD
  7
STYLE4
100
AcDbText
  0
LWPOLYLINE
  5
2D28
330
18
100
AcDbEntity
  8
0
100
AcDbPolyline
 90
        4
 70
     1
 43
0.0
 10
3.35738258345782
 20
613.1155944592424
 10
-0.4423184849663642
 20
610.8837517149552
 10
-0.5689354336526833
 20
611.0993164344836
 10
3.230765634771501
 20
613.3311591787708
  0
HATCH
  5
2D29
330
18
100
AcDbEntity
  8
0
100
AcDbHatch
 10
0.0
 20
0.0
 30
0.0
210
0.0
220
0.0
230
1.0
  2
SOLID
 70
     1
 71
     0
 91
        5
 92
        7
 72
     1
 73
     1
 93
        8
 10
5.425152947449646
 20
615.3011803065312
 42
0.4142135623730951
 10
4.425152947449646
 20
616.3011803065312
 42
0.0
 10
-1.574847052550381
 20
616.3011803065312
 42
0.4142135623730951
 10
-2.574847052550381
 20
615.3011803065312
 42
0.0
 10
-2.574847052550381
 20
609.3011803065312
 42
0.4142135623730951
 10
-1.574847052550381
 20
608.3011803065312
 42
0.0
 10
4.425152947449646
 20
608.3011803065312
 42
0.4142135623730951
 10
5.425152947449646
 20
609.3011803065312
 42
0.0
 97
        0
 92
       22
 72
     1
 73
     1
 93
        8
 10
4.925152947449646
 20
609.3011803065312
 42
-0.4142135623730951
 10
4.425152947449646
 20
608.8011803065312
 42
0.0
 10
-1.574847052550381
 20
608.8011803065312
 42
-0.4142135623730951
 10
-2.074847052550381
 20
609.3011803065312
 42
0.0
 10
-2.074847052550381
 20
615.3011803065312
 42
-0.4142135623730951
 10
-1.574847052550381
 20
615.8011803065313
 42
0.0
 10
4.425152947449646
 20
615.8011803065313
 42
-0.4142135623730951
 10
4.925152947449646
 20
615.3011803065312
 42
0.0
 97
        0
 92
        6
 72
     0
 73
     1
 93
        3
 10
4.165872572328225
 20
610.5185569734149
 10
2.433821764759727
 20
609.5185569734151
 10
2.433821764759727
 20
611.5185569734149
 97
        0
 92
        6
 72
     0
 73
     1
 93
        4
 10
3.357382583457535
 20
613.1155944592421
 10
-0.4423184849663926
 20
610.8837517149552
 10
-0.5689354336525696
 20
611.0993164344838
 10
3.230765634771501
 20
613.3311591787705
 97
        0
 92
      136
 93
        4
 72
     1
 10
-1.740250033335684
 20
612.9325397969568
 11
3.540999966664344
 21
612.9325397969568
 72
     1
 10
3.540999966664344
 20
612.9325397969568
 11
3.540999966664344
 21
615.2528522969569
 72
     1
 10
3.540999966664344
 20
615.2528522969569
 11
-1.740250033335655
 21
615.2528522969569
 72
     1
 10
-1.740250033335684
 20
615.2528522969569
 11
-1.740250033335684
 21
612.9325397969568
 97
        0
 75
     0
 76
     1
 47
0.0316320572239519
 98
        4
 10
5.06626628137235
 20
612.1691180455184
 10
5.06626628137235
 20
612.1691180455184
 10
5.06626628137235
 20
612.1691180455184
 10
5.06626628137235
 20
612.1691180455184
  0
LWPOLYLINE
  5
2D2A
330
18
100
AcDbEntity
  8
0
100
AcDbPolyline
 90
        8
 70
     1
 43
0.0
 10
5.425152947449646
 20
615.3011803065312
 10
5.425152947449646
 20
609.3011803065312
 42
-0.4142135623730951
 10
4.425152947449646
 20
608.3011803065312
 10
-1.574847052550381
 20
608.3011803065312
 42
-0.4142135623730951
 10
-2.574847052550381
 20
609.3011803065312
 10
-2.574847052550381
 20
615.3011803065312
 42
-0.4142135623730951
 10
-1.574847052550381
 20
616.3011803065312
 10
4.425152947449646
 20
616.3011803065312
 42
-0.4142135623730951
  0
LWPOLYLINE
  5
2D2B
330
18
100
AcDbEntity
  8
0
100
AcDbPolyline
 90
        8
 70
     1
 43
0.0
 10
4.925152947449646
 20
615.3011803065312
 10
4.925152947449646
 20
609.3011803065312
 42
-0.4142135623730951
 10
4.425152947449646
 20
608.8011803065312
 10
-1.574847052550381
 20
608.8011803065312
 42
-0.4142135623730951
 10
-2.074847052550381
 20
609.3011803065312
 10
-2.074847052550381
 20
615.3011803065312
 42
-0.4142135623730951
 10
-1.574847052550381
 20
615.8011803065313
 10
4.425152947449646
 20
615.8011803065313
 42
-0.4142135623730951
  0
TEXT
  5
2D2C
330
18
100
AcDbEntity
  8
0
100
AcDbText
 10
9.151343423640065
 20
611.0511803065312
 30
0.0
 40
2.5
  1
ENT
  7
STYLE4
 72
     1
 11
12.42515294744959
 21
612.3011803065312
 31
0.0
100
AcDbText
 73
     2
  0
HATCH
  5
2D2D
330
18
100
AcDbEntity
  8
0
100
AcDbHatch
 10
0.0
 20
0.0
 30
0.0
210
0.0
220
0.0
230
1.0
  2
SOLID
 70
     1
 71
     0
 91
        2
 92
        7
 72
     1
 73
     1
 93
        8
 10
9.425152947449646
 20
616.3011803065312
 42
0.4142135623730951
 10
8.425152947449646
 20
615.3011803065312
 42
0.0
 10
8.425152947449646
 20
609.3011803065312
 42
0.4142135623730951
 10
9.425152947449646
 20
608.3011803065312
 42
0.0
 10
15.42515294744964
 20
608.3011803065312
 42
0.4142135623730951
 10
16.42515294744964
 20
609.3011803065312
 42
0.0
 10
16.42515294744964
 20
615.3011803065312
 42
0.4142135623730951
 10
15.42515294744964
 20
616.3011803065312
 42
0.0
 97
        0
 92
       22
 72
     1
 73
     1
 93
        8
 10
15.42515294744964
 20
615.8011803065313
 42
-0.4142135623730951
 10
15.92515294744964
 20
615.3011803065312
 42
0.0
 10
15.92515294744964
 20
609.3011803065312
 42
-0.4142135623730951
 10
15.42515294744964
 20
608.8011803065312
 42
0.0
 10
9.425152947449646
 20
608.8011803065312
 42
-0.4142135623730951
 10
8.925152947449646
 20
609.3011803065312
 42
0.0
 10
8.925152947449646
 20
615.3011803065312
 42
-0.4142135623730951
 10
9.425152947449646
 20
615.8011803065313
 42
0.0
 97
        0
 75
     0
 76
     1
 47
0.0112091961687951
 98
        2
 10
13.75757649008471
 20
616.0321711764666
 10
13.75757649008471
 20
616.0321711764666
  0
LWPOLYLINE
  5
2D2E
330
18
100
AcDbEntity
  8
0
100
AcDbPolyline
 90
        8
 70
     1
 43
0.0
 10
16.42515294744964
 20
615.3011803065312
 10
16.42515294744964
 20
609.3011803065312
 42
-0.4142135623730951
 10
15.42515294744964
 20
608.3011803065312
 10
9.425152947449646
 20
608.3011803065312
 42
-0.4142135623730951
 10
8.425152947449646
 20
609.3011803065312
 10
8.425152947449646
 20
615.3011803065312
 42
-0.4142135623730951
 10
9.425152947449646
 20
616.3011803065312
 10
15.42515294744964
 20
616.3011803065312
 42
-0.4142135623730951
  0
LWPOLYLINE
  5
2D2F
330
18
100
AcDbEntity
  8
0
100
AcDbPolyline
 90
        8
 70
     1
 43
0.0
 10
15.92515294744964
 20
615.3011803065312
 10
15.92515294744964
 20
609.3011803065312
 42
-0.4142135623730951
 10
15.42515294744964
 20
608.8011803065312
 10
9.425152947449646
 20
608.8011803065312
 42
-0.4142135623730951
 10
8.925152947449646
 20
609.3011803065312
 10
8.925152947449646
 20
615.3011803065312
 42
-0.4142135623730951
 10
9.425152947449646
 20
615.8011803065313
 10
15.42515294744964
 20
615.8011803065313
 42
-0.4142135623730951
  0
ARC
  5
2D30
330
18
100
AcDbEntity
  8
0
100
AcDbCircle
 10
21.92515294744947
 20
602.5511551362126
 30
0.0
 40
2.0
100
AcDbArc
 50
270.0
 51
0.0
  0
MTEXT
  5
2D31
330
18
100
AcDbEntity
  8
0
100
AcDbMText
 10
37.85034036360491
 20
586.7380145636154
 30
0.0
 40
3.0
 41
0.0
 71
     1
 72
     5
  1
ＴＢ２
  7
MSｺﾞｼｯｸ
 73
     1
 44
1.0
  0
ARC
  5
2D32
330
18
100
AcDbEntity
  8
0
100
AcDbCircle
 10
42.02515294744955
 20
604.0511551362124
 30
0.0
 40
2.0
100
AcDbArc
 50
345.5224878140701
 51
14.47751218592986
  0
ARC
  5
2D33
330
18
100
AcDbEntity
  8
0
100
AcDbCircle
 10
42.02515294744955
 20
604.0511551362124
 30
0.0
 40
2.0
100
AcDbArc
 50
165.5224878140701
 51
194.4775121859298
  0
ARC
  5
2D34
330
18
100
AcDbEntity
  8
0
100
AcDbCircle
 10
42.02515294744955
 20
604.0511551362124
 30
0.0
 40
2.0
100
AcDbArc
 50
255.52248781407
 51
284.4775121859298
  0
LINE
  5
2D35
330
18
100
AcDbEntity
  8
0
100
AcDbLine
 10
41.52515294744955
 20
603.5511551362124
 30
0.0
 11
41.52515294744955
 21
602.1146634631086
 31
0.0
  0
LINE
  5
2D36
330
18
100
AcDbEntity
  8
0
100
AcDbLine
 10
42.52515294744955
 20
603.5511551362124
 30
0.0
 11
42.52515294744955
 21
602.1146634631086
 31
0.0
  0
LINE
  5
2D37
330
18
100
AcDbEntity
  8
0
100
AcDbLine
 10
43.96164462055333
 20
603.5511551362124
 30
0.0
 11
42.52515294744955
 21
603.5511551362124
 31
0.0
  0
LINE
  5
2D38
330
18
100
AcDbEntity
  8
0
100
AcDbLine
 10
41.52515294744955
 20
603.5511551362124
 30
0.0
 11
40.08866127434578
 21
603.5511551362124
 31
0.0
  0
LINE
  5
2D39
330
18
100
AcDbEntity
  8
0
100
AcDbLine
 10
43.96164462055333
 20
604.5511551362124
 30
0.0
 11
42.52515294744955
 21
604.5511551362124
 31
0.0
  0
LINE
  5
2D3A
330
18
100
AcDbEntity
  8
0
100
AcDbLine
 10
41.52515294744955
 20
604.5511551362124
 30
0.0
 11
40.08866127434578
 21
604.5511551362124
 31
0.0
  0
ARC
  5
2D3B
330
18
100
AcDbEntity
  8
0
100
AcDbCircle
 10
42.02515294744955
 20
604.0511551362124
 30
0.0
 40
2.0
100
AcDbArc
 50
75.52248781407015
 51
104.4775121859298
  0
CIRCLE
  5
2D3C
330
18
100
AcDbEntity
  8
0
100
AcDbCircle
 10
42.02515294744955
 20
604.0511551362124
 30
0.0
 40
3.0
  0
CIRCLE
  5
2D3D
330
18
100
AcDbEntity
  8
0
100
AcDbCircle
 10
42.02515294744955
 20
604.0511551362124
 30
0.0
 40
2.5
  0
LINE
  5
2D3E
330
18
100
AcDbEntity
  8
0
100
AcDbLine
 10
41.52515294744955
 20
605.9876468093157
 30
0.0
 11
41.52515294744955
 21
604.5511551362124
 31
0.0
  0
LINE
  5
2D3F
330
18
100
AcDbEntity
  8
0
100
AcDbLine
 10
42.52515294744955
 20
605.9876468093157
 30
0.0
 11
42.52515294744955
 21
604.5511551362124
 31
0.0
  0
MTEXT
  5
2D4C
330
18
100
AcDbEntity
  8
0
100
AcDbMText
 10
25.86773681271654
 20
653.7554971011324
 30
0.0
 40
2.5
 41
0.0
 71
     1
 72
     5
  1
０Ｖ
  7
MSｺﾞｼｯｸ
 73
     1
 44
1.0
  0
MTEXT
  5
2D4D
330
18
100
AcDbEntity
  8
0
100
AcDbMText
 10
23.07706757160338
 20
665.935405350785
 30
0.0
 40
2.5
 41
0.0
 71
     1
 72
     5
  1
２４Ｖ
  7
MSｺﾞｼｯｸ
 73
     1
 44
1.0
  0
MTEXT
  5
2D59
330
18
100
AcDbEntity
  8
0
100
AcDbMText
 10
33.69894525442339
 20
673.05896361125
 30
0.0
 40
3.0
 41
0.0
 71
     1
 72
     5
  1
ＴＢ１
  7
MSｺﾞｼｯｸ
 73
     1
 44
1.0
  0
ARC
  5
2D65
330
18
100
AcDbEntity
  8
0
100
AcDbCircle
 10
21.92515294744964
 20
662.5511551362126
 30
0.0
 40
2.0
100
AcDbArc
 50
0.0
 51
90.0
  0
INSERT
  5
2D66
330
18
100
AcDbEntity
  8
0
100
AcDbBlockReference
  2
A$C6C1277F2
 10
63.50015297347636
 20
604.7761556187774
 30
0.0
  0
LINE
  5
2D67
330
18
100
AcDbEntity
  8
0
100
AcDbLine
 10
60.42515294744958
 20
605.0511551362121
 30
0.0
 11
60.42515294744965
 21
651.0511551362124
 31
0.0
  0
INSERT
  5
2D68
330
18
100
AcDbEntity
  8
0
100
AcDbBlockReference
  2
A$C2F696F30
 10
56.4251521822855
 20
590.2011553295947
 30
0.0
  0
LINE
  5
2D69
330
18
100
AcDbEntity
  8
0
100
AcDbLine
 10
55.42515294744919
 20
588.5511551362121
 30
0.0
 11
60.42515294744919
 21
588.5511551362121
 31
0.0
  0
LINE
  5
2D6A
330
18
100
AcDbEntity
  8
0
100
AcDbLine
 10
55.42515294744958
 20
605.0511551362121
 30
0.0
 11
60.42515294744958
 21
605.0511551362121
 31
0.0
  0
LINE
  5
2D6B
330
18
100
AcDbEntity
  8
0
100
AcDbLine
 10
55.42515294744958
 20
588.5511551362121
 30
0.0
 11
55.42515294744958
 21
605.0511551362121
 31
0.0
  0
MTEXT
  5
2D6C
330
18
100
AcDbEntity
  8
0
100
AcDbMText
 10
59.31095237381498
 20
655.5608452790099
 30
0.0
 40
2.0
 41
0.0
 71
     1
 72
     5
  1
ＳＴＡＴＵＳ
  7
MSｺﾞｼｯｸ
 73
     1
 44
1.0
  0
INSERT
  5
2D6D
330
18
100
AcDbEntity
  8
0
100
AcDbBlockReference
  2
A$C444F17A9
 10
65.20015233975232
 20
636.9511546501858
 30
0.0
  0
LINE
  5
2D6E
330
18
100
AcDbEntity
  8
0
100
AcDbLine
 10
60.42515294744965
 20
651.0511551362124
 30
0.0
 11
75.42515294744953
 21
651.0511551362124
 31
0.0
  0
LINE
  5
2D6F
330
18
100
AcDbEntity
  8
0
100
AcDbLine
 10
53.86164462055342
 20
686.0511551362123
 30
0.0
 11
52.42515294744965
 21
686.0511551362123
 31
0.0
  0
LINE
  5
2D70
330
18
100
AcDbEntity
  8
0
100
AcDbLine
 10
53.86164462055342
 20
687.0511551362124
 30
0.0
 11
52.42515294744965
 21
687.0511551362124
 31
0.0
  0
CIRCLE
  5
2D71
330
18
100
AcDbEntity
  8
0
100
AcDbCircle
 10
51.92515294744964
 20
686.5511551362124
 30
0.0
 40
3.0
  0
CIRCLE
  5
2D72
330
18
100
AcDbEntity
  8
0
100
AcDbCircle
 10
51.92515294744964
 20
686.5511551362124
 30
0.0
 40
2.5
  0
ARC
  5
2D80
330
18
100
AcDbEntity
  8
0
100
AcDbCircle
 10
51.92515294744964
 20
686.5511551362124
 30
0.0
 40
2.0
100
AcDbArc
 50
165.5224878140701
 51
194.4775121859298
  0
ARC
  5
2D81
330
18
100
AcDbEntity
  8
0
100
AcDbCircle
 10
51.92515294744964
 20
686.5511551362124
 30
0.0
 40
2.0
100
AcDbArc
 50
255.52248781407
 51
284.4775121859298
  0
LINE
  5
2D82
330
18
100
AcDbEntity
  8
0
100
AcDbLine
 10
51.42515294744964
 20
686.0511551362123
 30
0.0
 11
51.42515294744964
 21
684.6146634631086
 31
0.0
  0
LINE
  5
2D83
330
18
100
AcDbEntity
  8
0
100
AcDbLine
 10
52.42515294744965
 20
686.0511551362123
 30
0.0
 11
52.42515294744965
 21
684.6146634631086
 31
0.0
  0
LINE
  5
2D84
330
18
100
AcDbEntity
  8
0
100
AcDbLine
 10
51.42515294744964
 20
686.0511551362123
 30
0.0
 11
49.98866127434587
 21
686.0511551362123
 31
0.0
  0
LINE
  5
2D85
330
18
100
AcDbEntity
  8
0
100
AcDbLine
 10
51.42515294744964
 20
687.0511551362124
 30
0.0
 11
49.98866127434587
 21
687.0511551362124
 31
0.0
  0
ARC
  5
2D86
330
18
100
AcDbEntity
  8
0
100
AcDbCircle
 10
51.92515294744964
 20
686.5511551362124
 30
0.0
 40
2.0
100
AcDbArc
 50
75.52248781407015
 51
104.4775121859298
  0
LINE
  5
2D87
330
18
100
AcDbEntity
  8
0
100
AcDbLine
 10
51.42515294744964
 20
688.4876468093157
 30
0.0
 11
51.42515294744964
 21
687.0511551362124
 31
0.0
  0
LINE
  5
2D88
330
18
100
AcDbEntity
  8
0
100
AcDbLine
 10
52.42515294744965
 20
688.4876468093157
 30
0.0
 11
52.42515294744965
 21
687.0511551362124
 31
0.0
  0
ARC
  5
2D97
330
18
100
AcDbEntity
  8
0
100
AcDbCircle
 10
51.92515294744964
 20
686.5511551362124
 30
0.0
 40
2.0
100
AcDbArc
 50
345.5224878140701
 51
14.47751218592986
  0
ARC
  5
2D98
330
18
100
AcDbEntity
  8
0
100
AcDbCircle
 10
69.92515294744959
 20
703.5511551362124
 30
0.0
 40
3.0
100
AcDbArc
 50
180.0
 51
0.0
  0
LINE
  5
2D99
330
18
100
AcDbEntity
  8
0
100
AcDbLine
 10
66.92515294744959
 20
703.5511551362124
 30
0.0
 11
66.92515294744959
 21
708.5511551362124
 31
0.0
  0
LINE
  5
2D9A
330
18
100
AcDbEntity
  8
0
100
AcDbLine
 10
72.92515294744958
 20
703.5511551362124
 30
0.0
 11
72.92515294744958
 21
708.5511551362124
 31
0.0
  0
LINE
  5
2D9B
330
18
100
AcDbEntity
  8
0
100
AcDbLine
 10
79.92515294744959
 20
708.5511551362124
 30
0.0
 11
72.92515294744958
 21
708.5511551362124
 31
0.0
  0
LINE
  5
2E89
330
18
100
AcDbEntity
  8
0
100
AcDbLine
 10
381.5550029382807
 20
708.5511551362124
 30
0.0
 11
378.5550029382807
 21
708.5511551362124
 31
0.0
  0
LINE
  5
51A9
330
18
100
AcDbEntity
  8
0
100
AcDbLine
 10
97.42515294744947
 20
642.5511551362124
 30
0.0
 11
97.42515294744936
 21
615.0511551362117
 31
0.0
  0
LINE
  5
51AD
330
18
100
AcDbEntity
  8
0
100
AcDbLine
 10
102.9251529474494
 20
693.5511551362123
 30
0.0
 11
102.9251529474493
 21
483.5511551362119
 31
0.0
  0
LINE
  5
51B1
330
18
100
AcDbEntity
  8
0
100
AcDbLine
 10
97.42515294744936
 20
594.0511551362126
 30
0.0
 11
97.42515294744947
 21
525.0511551362124
 31
0.0
  0
LINE
  5
51B7
330
18
100
AcDbEntity
  8
0
100
AcDbLine
 10
102.9251529474493
 20
483.5511551362119
 30
0.0
 11
79.92515294744936
 21
483.5511551362119
 31
0.0
  0
LINE
  5
51B8
330
18
100
AcDbEntity
  8
0
100
AcDbLine
 10
102.9251529474494
 20
693.5511551362123
 30
0.0
 11
79.92515294744959
 21
693.5511551362123
 31
0.0
  0
LINE
  5
51BA
330
18
100
AcDbEntity
  8
0
100
AcDbLine
 10
79.92515294744953
 20
642.5511551362123
 30
0.0
 11
97.42515294744947
 21
642.5511551362124
 31
0.0
  0
LINE
  5
51BB
330
18
100
AcDbEntity
  8
0
100
AcDbLine
 10
97.42515294744936
 20
615.0511551362117
 30
0.0
 11
79.92515294744953
 21
615.0511551362122
 31
0.0
  0
LINE
  5
51BC
330
18
100
AcDbEntity
  8
0
100
AcDbLine
 10
97.42515294744936
 20
594.0511551362123
 30
0.0
 11
79.92515294744953
 21
594.0511551362122
 31
0.0
  0
LINE
  5
51BD
330
18
100
AcDbEntity
  8
0
100
AcDbLine
 10
97.42515294744936
 20
525.0511551362124
 30
0.0
 11
79.92515294744953
 21
525.0511551362122
 31
0.0
  0
LINE
  5
524E
330
18
100
AcDbEntity
  8
0
100
AcDbLine
 10
85.02515294744966
 20
615.0511551362119
 30
0.0
 11
85.02515294744966
 21
642.5511551362123
 31
0.0
  0
LINE
  5
524F
330
18
100
AcDbEntity
  8
0
100
AcDbLine
 10
83.42515294745021
 20
615.0511551362119
 30
0.0
 11
83.42515294745021
 21
642.5511551362123
 31
0.0
  0
MTEXT
  5
5250
330
18
100
AcDbEntity
  8
0
100
AcDbMText
 10
86.52062205951166
 20
647.8641550414177
 30
0.0
 40
4.0
 41
0.0
 71
     1
 72
     5
  1
P1
  7
MSｺﾞｼｯｸ
 73
     1
 44
1.0
  0
CIRCLE
  5
5251
330
18
100
AcDbEntity
  8
0
100
AcDbCircle
 10
89.02515294744967
 20
630.3265551362123
 30
0.0
 40
0.5
  0
CIRCLE
  5
5252
330
18
100
AcDbEntity
  8
0
100
AcDbCircle
 10
89.02515294744967
 20
632.8265551362123
 30
0.0
 40
0.5
  0
CIRCLE
  5
5253
330
18
100
AcDbEntity
  8
0
100
AcDbCircle
 10
89.02515294744967
 20
627.8265551362124
 30
0.0
 40
0.5
  0
CIRCLE
  5
5254
330
18
100
AcDbEntity
  8
0
100
AcDbCircle
 10
89.02515294744967
 20
625.3265551362123
 30
0.0
 40
0.5
  0
LINE
  5
5255
330
18
100
AcDbEntity
  8
0
100
AcDbLine
 10
91.52515294744967
 20
634.3265551362123
 30
0.0
 11
91.52515294744967
 21
623.8265551362124
 31
0.0
  0
LINE
  5
5256
330
18
100
AcDbEntity
  8
0
100
AcDbLine
 10
92.02515294744967
 20
634.3265551362123
 30
0.0
 11
92.02515294744967
 21
623.8265551362124
 31
0.0
  0
LINE
  5
5257
330
18
100
AcDbEntity
  8
0
100
AcDbLine
 10
85.02515294744966
 20
634.3265551362123
 30
0.0
 11
85.02515294744966
 21
623.8265551362124
 31
0.0
  0
LINE
  5
5258
330
18
100
AcDbEntity
  8
0
100
AcDbLine
 10
92.02515294744967
 20
634.3265551362123
 30
0.0
 11
85.02515294744966
 21
634.3265551362123
 31
0.0
  0
LINE
  5
5259
330
18
100
AcDbEntity
  8
0
100
AcDbLine
 10
92.02515294744967
 20
623.8265551362124
 30
0.0
 11
85.02515294744966
 21
623.8265551362124
 31
0.0
  0
LINE
  5
525A
330
18
100
AcDbEntity
  8
0
100
AcDbLine
 10
83.42515294745016
 20
525.0511551362122
 30
0.0
 11
83.42515294745016
 21
594.0511551362122
 31
0.0
  0
LINE
  5
525B
330
18
100
AcDbEntity
  8
0
370
    15
100
AcDbLine
 10
84.22515294744949
 20
591.3265551362123
 30
0.0
 11
84.22515294744949
 21
527.3265551362125
 31
0.0
  0
LINE
  5
525C
330
18
100
AcDbEntity
  8
0
370
    15
100
AcDbLine
 10
94.72515294744949
 20
591.3265551362123
 30
0.0
 11
94.72515294744949
 21
527.3265551362125
 31
0.0
  0
LINE
  5
525D
330
18
100
AcDbEntity
  8
0
100
AcDbLine
 10
83.42515294745021
 20
589.0765551362123
 30
0.0
 11
83.42515294745021
 21
583.5765551362124
 31
0.0
  0
LINE
  5
525E
330
18
100
AcDbEntity
  8
0
370
    15
100
AcDbLine
 10
86.22515294744948
 20
581.3265551362124
 30
0.0
 11
86.22515294744948
 21
537.3265551362124
 31
0.0
  0
LINE
  5
525F
330
18
100
AcDbEntity
  8
0
370
    15
100
AcDbLine
 10
92.72515294744948
 20
582.8265551362123
 30
0.0
 11
92.72515294744948
 21
535.8265551362125
 31
0.0
  0
LINE
  5
5260
330
18
100
AcDbEntity
  8
0
370
    15
100
AcDbLine
 10
92.20029654643871
 20
530.3265551362125
 30
0.0
 11
90.83772474694411
 21
532.6865987218976
 31
0.0
  0
LINE
  5
5261
330
18
100
AcDbEntity
  8
0
370
    15
100
AcDbLine
 10
90.83772474694411
 20
532.6865987218976
 30
0.0
 11
88.11258114795487
 21
532.6865987218976
 31
0.0
  0
LINE
  5
5262
330
18
100
AcDbEntity
  8
0
370
    15
100
AcDbLine
 10
86.22515294744948
 20
537.3265551362124
 30
0.0
 11
92.72515294744948
 21
535.8265551362125
 31
0.0
  0
LINE
  5
5263
330
18
100
AcDbEntity
  8
0
370
    15
100
AcDbLine
 10
88.11258114795487
 20
532.6865987218976
 30
0.0
 11
86.75000934846025
 21
530.3265551362125
 31
0.0
  0
LINE
  5
5264
330
18
100
AcDbEntity
  8
0
370
    15
100
AcDbLine
 10
90.83772474694411
 20
527.9665115505273
 30
0.0
 11
88.11258114795487
 21
527.9665115505273
 31
0.0
  0
LINE
  5
5265
330
18
100
AcDbEntity
  8
0
100
AcDbLine
 10
85.02515294744972
 20
525.0511551362122
 30
0.0
 11
85.02515294744966
 21
527.3265551362125
 31
0.0
  0
LINE
  5
5266
330
18
100
AcDbEntity
  8
0
370
    15
100
AcDbLine
 10
94.72515294744949
 20
527.3265551362125
 30
0.0
 11
84.22515294744949
 21
527.3265551362125
 31
0.0
  0
CIRCLE
  5
5267
330
18
100
AcDbEntity
  8
0
370
    15
100
AcDbCircle
 10
89.47515294744949
 20
530.3265551362125
 30
0.0
 40
1.5
  0
LINE
  5
5268
330
18
100
AcDbEntity
  8
0
370
    15
100
AcDbLine
 10
90.83772474694411
 20
527.9665115505273
 30
0.0
 11
92.20029654643871
 21
530.3265551362125
 31
0.0
  0
LINE
  5
5269
330
18
100
AcDbEntity
  8
0
370
    15
100
AcDbLine
 10
86.75000934846025
 20
530.3265551362125
 30
0.0
 11
88.11258114795487
 21
527.9665115505273
 31
0.0
  0
LINE
  5
526A
330
18
100
AcDbEntity
  8
0
370
    15
100
AcDbLine
 10
86.22515294744948
 20
581.3265551362124
 30
0.0
 11
92.72515294744948
 21
582.8265551362123
 31
0.0
  0
MTEXT
  5
526B
330
18
100
AcDbEntity
  8
0
100
AcDbMText
 10
89.19620069838742
 20
597.3884386557473
 30
0.0
 40
4.0
 41
0.0
 71
     5
 72
     5
  1
CN3
  7
MSｺﾞｼｯｸ
 73
     1
 44
1.0
  0
LINE
  5
526C
330
18
100
AcDbEntity
  8
0
370
    15
100
AcDbLine
 10
92.20029654643871
 20
588.3265551362123
 30
0.0
 11
90.83772474694411
 21
585.9665115505272
 31
0.0
  0
CIRCLE
  5
526D
330
18
100
AcDbEntity
  8
0
370
    15
100
AcDbCircle
 10
89.47515294744949
 20
588.3265551362123
 30
0.0
 40
1.5
  0
LINE
  5
526E
330
18
100
AcDbEntity
  8
0
370
    15
100
AcDbLine
 10
90.83772474694411
 20
590.6865987218975
 30
0.0
 11
92.20029654643871
 21
588.3265551362123
 31
0.0
  0
LINE
  5
526F
330
18
100
AcDbEntity
  8
0
370
    15
100
AcDbLine
 10
90.83772474694411
 20
590.6865987218975
 30
0.0
 11
88.11258114795487
 21
590.6865987218975
 31
0.0
  0
LINE
  5
5270
330
18
100
AcDbEntity
  8
0
370
    15
100
AcDbLine
 10
90.83772474694411
 20
585.9665115505272
 30
0.0
 11
88.11258114795487
 21
585.9665115505272
 31
0.0
  0
LINE
  5
5271
330
18
100
AcDbEntity
  8
0
100
AcDbLine
 10
85.02515294744966
 20
591.3265551362123
 30
0.0
 11
85.02515294744972
 21
594.0511551362122
 31
0.0
  0
LINE
  5
5272
330
18
100
AcDbEntity
  8
0
370
    15
100
AcDbLine
 10
94.72515294744949
 20
591.3265551362123
 30
0.0
 11
84.22515294744949
 21
591.3265551362123
 31
0.0
  0
LINE
  5
5273
330
18
100
AcDbEntity
  8
0
370
    15
100
AcDbLine
 10
88.11258114795487
 20
585.9665115505272
 30
0.0
 11
86.75000934846025
 21
588.3265551362123
 31
0.0
  0
LINE
  5
5274
330
18
100
AcDbEntity
  8
0
370
    15
100
AcDbLine
 10
86.75000934846025
 20
588.3265551362123
 30
0.0
 11
88.11258114795487
 21
590.6865987218975
 31
0.0
  0
LINE
  5
52C4
330
18
100
AcDbEntity
  8
0
 48
0.2
100
AcDbLine
 10
178.5550029382808
 20
612.8011551362125
 30
0.0
 11
178.5550029382808
 21
624.8011551362123
 31
0.0
  0
LINE
  5
52C5
330
18
100
AcDbEntity
  8
0
 48
0.2
100
AcDbLine
 10
173.5550029382808
 20
612.8011551362125
 30
0.0
 11
173.5550029382808
 21
624.8011551362123
 31
0.0
  0
LINE
  5
52C6
330
18
100
AcDbEntity
  8
0
 48
0.2
100
AcDbLine
 10
157.5550029382808
 20
612.8011551362125
 30
0.0
 11
157.5550029382808
 21
624.8011551362123
 31
0.0
  0
LINE
  5
52C7
330
18
100
AcDbEntity
  8
0
 48
0.2
100
AcDbLine
 10
196.5550029382808
 20
604.0511551362122
 30
0.0
 11
196.5550029382808
 21
633.5511551362123
 31
0.0
  0
LINE
  5
52C8
330
18
100
AcDbEntity
  8
0
 48
0.2
100
AcDbLine
 10
196.5550029382808
 20
604.0511551362122
 30
0.0
 11
172.7550029382806
 21
604.0511551362125
 31
0.0
  0
LINE
  5
52C9
330
18
100
AcDbEntity
  8
0
 48
0.2
100
AcDbLine
 10
184.5550029382808
 20
610.8011551362125
 30
0.0
 11
183.3050029382808
 21
612.9662186456735
 31
0.0
  0
LINE
  5
52CA
330
18
100
AcDbEntity
  8
0
 48
0.2
100
AcDbLine
 10
184.8436780728758
 20
610.8011551362125
 30
0.0
 11
183.4493405055787
 21
613.2162186456736
 31
0.0
  0
LINE
  5
52CB
330
18
100
AcDbEntity
  8
0
 48
0.2
100
AcDbLine
 10
183.3050029382808
 20
608.6360916267514
 30
0.0
 11
184.5550029382808
 21
610.8011551362125
 31
0.0
  0
LINE
  5
52CC
330
18
100
AcDbEntity
  8
0
 48
0.2
100
AcDbLine
 10
183.4493405055787
 20
608.3860916267513
 30
0.0
 11
184.8436780728758
 21
610.8011551362125
 31
0.0
  0
LINE
  5
52CD
330
18
100
AcDbEntity
  8
0
 48
0.2
100
AcDbLine
 10
179.5550029382808
 20
610.8011551362125
 30
0.0
 11
180.8050029382808
 21
612.9662186456735
 31
0.0
  0
LINE
  5
52CE
330
18
100
AcDbEntity
  8
0
 48
0.2
100
AcDbLine
 10
179.2663278036867
 20
610.8011551362125
 30
0.0
 11
180.6606653709837
 21
613.2162186456736
 31
0.0
  0
LINE
  5
52CF
330
18
100
AcDbEntity
  8
0
 48
0.2
100
AcDbLine
 10
179.5550029382808
 20
610.8011551362125
 30
0.0
 11
180.8050029382808
 21
608.6360916267514
 31
0.0
  0
LINE
  5
52D0
330
18
100
AcDbEntity
  8
0
 48
0.2
100
AcDbLine
 10
179.2663278036867
 20
610.8011551362125
 30
0.0
 11
180.6606653709837
 21
608.3860916267513
 31
0.0
  0
LINE
  5
52D1
330
18
100
AcDbEntity
  8
0
 48
0.2
100
AcDbLine
 10
164.7550029382815
 20
612.8011551362125
 30
0.0
 11
162.9989053773057
 21
610.7723324834566
 31
0.0
  0
LINE
  5
52D2
330
18
100
AcDbEntity
  8
0
 48
0.2
100
AcDbLine
 10
168.7550029382815
 20
612.8011551362125
 30
0.0
 11
172.7550029382815
 21
609.7011551362124
 31
0.0
  0
ARC
  5
52D3
330
18
100
AcDbEntity
  8
0
 48
0.2
100
AcDbCircle
 10
173.9250029382807
 20
606.6511551362125
 30
0.0
 40
2.669999999999886
100
AcDbArc
 50
115.9892335838272
 51
244.0107664161727
  0
LINE
  5
52D4
330
18
100
AcDbEntity
  8
0
 48
0.2
100
AcDbLine
 10
172.7550029382806
 20
604.0511551362125
 30
0.0
 11
172.7550029382806
 21
609.7011551362124
 31
0.0
  0
LINE
  5
52D5
330
18
100
AcDbEntity
  8
0
 48
0.2
100
AcDbLine
 10
178.5550029382808
 20
612.8011551362125
 30
0.0
 11
157.5550029382808
 21
612.8011551362122
 31
0.0
  0
ARC
  5
52D6
330
18
100
AcDbEntity
  8
0
 48
0.2
100
AcDbCircle
 10
160.6550029382812
 20
612.8011551362126
 30
0.0
 40
3.100000000000022
100
AcDbArc
 50
180.0
 51
319.1213648534977
  0
CIRCLE
  5
52D7
330
18
100
AcDbEntity
  8
0
 48
0.2
100
AcDbCircle
 10
182.0550029382808
 20
610.8011551362126
 30
0.0
 40
1.5
  0
LINE
  5
52D8
330
18
100
AcDbEntity
  8
0
 48
0.2
100
AcDbLine
 10
180.8050029382808
 20
608.6360916267514
 30
0.0
 11
183.3050029382808
 21
608.6360916267514
 31
0.0
  0
LINE
  5
52D9
330
18
100
AcDbEntity
  8
0
 48
0.2
100
AcDbLine
 10
180.8050029382808
 20
612.9662186456735
 30
0.0
 11
183.3050029382808
 21
612.9662186456735
 31
0.0
  0
LINE
  5
52DA
330
18
100
AcDbEntity
  8
0
 48
0.2
100
AcDbLine
 10
180.6606653709837
 20
613.2162186456736
 30
0.0
 11
183.4493405055787
 21
613.2162186456736
 31
0.0
  0
LINE
  5
52DB
330
18
100
AcDbEntity
  8
0
 48
0.2
100
AcDbLine
 10
180.6606653709837
 20
608.3860916267513
 30
0.0
 11
183.4493405055787
 21
608.3860916267513
 31
0.0
  0
LINE
  5
52DC
330
18
100
AcDbEntity
  8
0
 48
0.2
100
AcDbLine
 10
196.5550029382808
 20
633.5511551362123
 30
0.0
 11
172.7550029382806
 21
633.5511551362123
 31
0.0
  0
LINE
  5
52DD
330
18
100
AcDbEntity
  8
0
 48
0.2
100
AcDbLine
 10
183.4493405055787
 20
629.2162186456733
 30
0.0
 11
184.8436780728758
 21
626.8011551362122
 31
0.0
  0
LINE
  5
52DE
330
18
100
AcDbEntity
  8
0
 48
0.2
100
AcDbLine
 10
183.3050029382808
 20
628.9662186456734
 30
0.0
 11
184.5550029382808
 21
626.8011551362122
 31
0.0
  0
LINE
  5
52DF
330
18
100
AcDbEntity
  8
0
 48
0.2
100
AcDbLine
 10
184.8436780728758
 20
626.8011551362122
 30
0.0
 11
183.4493405055787
 21
624.3860916267512
 31
0.0
  0
LINE
  5
52E0
330
18
100
AcDbEntity
  8
0
 48
0.2
100
AcDbLine
 10
184.5550029382808
 20
626.8011551362122
 30
0.0
 11
183.3050029382808
 21
624.6360916267511
 31
0.0
  0
LINE
  5
52E1
330
18
100
AcDbEntity
  8
0
 48
0.2
100
AcDbLine
 10
179.2663278036867
 20
626.8011551362122
 30
0.0
 11
180.6606653709837
 21
629.2162186456733
 31
0.0
  0
LINE
  5
52E2
330
18
100
AcDbEntity
  8
0
 48
0.2
100
AcDbLine
 10
179.5550029382808
 20
626.8011551362122
 30
0.0
 11
180.8050029382808
 21
628.9662186456734
 31
0.0
  0
LINE
  5
52E3
330
18
100
AcDbEntity
  8
0
 48
0.2
100
AcDbLine
 10
179.2663278036867
 20
626.8011551362122
 30
0.0
 11
180.6606653709837
 21
624.3860916267512
 31
0.0
  0
LINE
  5
52E4
330
18
100
AcDbEntity
  8
0
 48
0.2
100
AcDbLine
 10
179.5550029382808
 20
626.8011551362122
 30
0.0
 11
180.8050029382808
 21
624.6360916267511
 31
0.0
  0
LINE
  5
52E5
330
18
100
AcDbEntity
  8
0
 48
0.2
100
AcDbLine
 10
164.7550029382806
 20
624.8011551362123
 30
0.0
 11
162.9989053773057
 21
626.8299777889682
 31
0.0
  0
LINE
  5
52E6
330
18
100
AcDbEntity
  8
0
 48
0.2
100
AcDbLine
 10
168.7550029382806
 20
624.8011551362123
 30
0.0
 11
172.7550029382806
 21
627.9011551362121
 31
0.0
  0
LINE
  5
52E7
330
18
100
AcDbEntity
  8
0
 48
0.2
100
AcDbLine
 10
178.5550029382808
 20
624.8011551362123
 30
0.0
 11
157.5550029382808
 21
624.8011551362123
 31
0.0
  0
ARC
  5
52E8
330
18
100
AcDbEntity
  8
0
 48
0.2
100
AcDbCircle
 10
160.6550029382812
 20
624.8011551362123
 30
0.0
 40
3.100000000000022
100
AcDbArc
 50
40.87863514650228
 51
180.0
  0
CIRCLE
  5
52E9
330
18
100
AcDbEntity
  8
0
 48
0.2
100
AcDbCircle
 10
182.0550029382808
 20
626.8011551362124
 30
0.0
 40
1.5
  0
LINE
  5
52EA
330
18
100
AcDbEntity
  8
0
 48
0.2
100
AcDbLine
 10
180.6606653709837
 20
629.2162186456733
 30
0.0
 11
183.4493405055787
 21
629.2162186456733
 31
0.0
  0
LINE
  5
52EB
330
18
100
AcDbEntity
  8
0
 48
0.2
100
AcDbLine
 10
180.8050029382808
 20
628.9662186456734
 30
0.0
 11
183.3050029382808
 21
628.9662186456734
 31
0.0
  0
LINE
  5
52EC
330
18
100
AcDbEntity
  8
0
 48
0.2
100
AcDbLine
 10
180.6606653709837
 20
624.3860916267512
 30
0.0
 11
183.4493405055787
 21
624.3860916267512
 31
0.0
  0
LINE
  5
52ED
330
18
100
AcDbEntity
  8
0
 48
0.2
100
AcDbLine
 10
180.8050029382808
 20
624.6360916267511
 30
0.0
 11
183.3050029382808
 21
624.6360916267511
 31
0.0
  0
LINE
  5
52EE
330
18
100
AcDbEntity
  8
0
 48
0.2
100
AcDbLine
 10
172.7550029382806
 20
627.9011551362124
 30
0.0
 11
172.7550029382806
 21
633.5511551362123
 31
0.0
  0
ARC
  5
52EF
330
18
100
AcDbEntity
  8
0
 48
0.2
100
AcDbCircle
 10
173.9250029382807
 20
630.9511551362125
 30
0.0
 40
2.669999999999886
100
AcDbArc
 50
115.9892335838272
 51
244.0107664161727
  0
LINE
  5
535C
330
18
100
AcDbEntity
  8
0
100
AcDbLine
 10
286.2683164429254
 20
487.843784356778
 30
0.0
 11
258.2683164429254
 21
487.843784356778
 31
0.0
  0
LINE
  5
535D
330
18
100
AcDbEntity
  8
0
100
AcDbLine
 10
259.2683164429254
 20
495.843784356778
 30
0.0
 11
259.2683164429254
 21
514.8437843567781
 31
0.0
  0
LINE
  5
535E
330
18
100
AcDbEntity
  8
0
100
AcDbLine
 10
257.2683164429254
 20
526.843784356778
 30
0.0
 11
257.2683164429254
 21
488.843784356778
 31
0.0
  0
LINE
  5
535F
330
18
100
AcDbEntity
  8
0
100
AcDbLine
 10
285.2683164429254
 20
514.8437843567781
 30
0.0
 11
285.2683164429254
 21
495.843784356778
 31
0.0
  0
LINE
  5
5360
330
18
100
AcDbEntity
  8
0
100
AcDbLine
 10
287.2683164429254
 20
526.843784356778
 30
0.0
 11
287.2683164429254
 21
488.843784356778
 31
0.0
  0
LINE
  5
5361
330
18
100
AcDbEntity
  8
0
100
AcDbLine
 10
259.2683164429254
 20
510.8437843567781
 30
0.0
 11
285.2683164429254
 21
510.8437843567781
 31
0.0
  0
TEXT
  5
5362
330
18
100
AcDbEntity
  8
0
100
AcDbText
 10
259.9120989769235
 20
507.4809223636489
 30
0.0
 40
2.5
  1
ＰＥＡＫ.ＡＭＰＳ    *** Ａ
 41
0.6
  7
MSｺﾞｼｯｸ
100
AcDbText
  0
TEXT
  5
5363
330
18
100
AcDbEntity
  8
0
100
AcDbText
 10
258.9318629582976
 20
492.4005868508166
 30
0.0
 40
2.7
  1
NIKKI DENSO CO.,LTD
 41
0.8
  7
MSｺﾞｼｯｸ
100
AcDbText
  0
LINE
  5
5364
330
18
100
AcDbEntity
  8
0
100
AcDbLine
 10
285.2683164429254
 20
495.843784356778
 30
0.0
 11
259.2683164429254
 21
495.843784356778
 31
0.0
  0
TEXT
  5
5365
330
18
100
AcDbEntity
  8
0
100
AcDbText
 10
265.3110397925374
 20
489.2357913252912
 30
0.0
 40
2.7
  1
MADE IN JAPAN
 41
0.8
  7
MSｺﾞｼｯｸ
100
AcDbText
  0
LINE
  5
5366
330
18
100
AcDbEntity
  8
0
100
AcDbLine
 10
285.2683164429254
 20
506.8437843567781
 30
0.0
 11
259.2683164429254
 21
506.8437843567781
 31
0.0
  0
TEXT
  5
5367
330
18
100
AcDbEntity
  8
0
100
AcDbText
 10
259.9120989769235
 20
503.4809223636488
 30
0.0
 40
2.5
  1
ＳＯＵＲＣＥ
 41
0.6
  7
MSｺﾞｼｯｸ
100
AcDbText
  0
ARC
  5
5368
330
18
100
AcDbEntity
  8
0
100
AcDbCircle
 10
258.2683164429254
 20
488.843784356778
 30
0.0
 40
1.0
100
AcDbArc
 50
180.0
 51
270.0
  0
TEXT
  5
5369
330
18
100
AcDbEntity
  8
0
100
AcDbText
 10
268.2533136890924
 20
497.937825893991
 30
0.0
 40
5.0
  1
＊＊＊
 41
0.45
  7
MSｺﾞｼｯｸ
100
AcDbText
  0
ARC
  5
536A
330
18
100
AcDbEntity
  8
0
100
AcDbCircle
 10
286.2683164429254
 20
488.843784356778
 30
0.0
 40
1.0
100
AcDbArc
 50
270.0
 51
0.0
  0
LINE
  5
536B
330
18
100
AcDbEntity
  8
0
100
AcDbLine
 10
258.2683164429254
 20
527.8437843567781
 30
0.0
 11
286.2683164429254
 21
527.8437843567781
 31
0.0
  0
LINE
  5
536C
330
18
100
AcDbEntity
  8
0
100
AcDbLine
 10
259.2683164429254
 20
514.8437843567781
 30
0.0
 11
285.2683164429254
 21
514.8437843567781
 31
0.0
  0
TEXT
  5
536D
330
18
100
AcDbEntity
  8
0
100
AcDbText
 10
259.9120989769235
 20
511.4809223636489
 30
0.0
 40
2.5
  1
ＣＯＮＴ.ＡＭＰＳ    *** Ａ
 41
0.6
  7
MSｺﾞｼｯｸ
100
AcDbText
  0
LINE
  5
536E
330
18
100
AcDbEntity
  8
0
100
AcDbLine
 10
285.2683164429254
 20
515.8437843567781
 30
0.0
 11
275.7683164429254
 21
515.8437843567781
 31
0.0
  0
LINE
  5
536F
330
18
100
AcDbEntity
  8
0
100
AcDbLine
 10
275.7683164429254
 20
521.343784356778
 30
0.0
 11
285.2683164429254
 21
521.343784356778
 31
0.0
  0
TEXT
  5
5370
330
18
100
AcDbEntity
  8
0
100
AcDbText
 10
262.8695337581302
 20
522.1855049034789
 30
0.0
 40
3.299999999999999
  1
NCR-*A**
  7
MSｺﾞｼｯｸ
100
AcDbText
  0
LINE
  5
5371
330
18
100
AcDbEntity
  8
0
100
AcDbLine
 10
274.0183164429254
 20
518.593784356778
 30
0.0
 11
275.5183164429254
 21
518.593784356778
 31
0.0
  0
ARC
  5
5372
330
18
100
AcDbEntity
  8
0
100
AcDbCircle
 10
258.2683164429254
 20
526.843784356778
 30
0.0
 40
1.0
100
AcDbArc
 50
90.0
 51
180.0
  0
TEXT
  5
5373
330
18
100
AcDbEntity
  8
0
100
AcDbText
 10
262.3398915219941
 20
516.8138095205923
 30
0.0
 40
3.299999999999999
  1
＊＊＊
 41
0.8
  7
MSｺﾞｼｯｸ
100
AcDbText
  0
LINE
  5
5374
330
18
100
AcDbEntity
  8
0
100
AcDbLine
 10
259.2683164429254
 20
521.343784356778
 30
0.0
 11
273.7683164429254
 21
521.343784356778
 31
0.0
  0
LINE
  5
5375
330
18
100
AcDbEntity
  8
0
100
AcDbLine
 10
273.7683164429254
 20
515.8437843567781
 30
0.0
 11
259.2683164429254
 21
515.8437843567781
 31
0.0
  0
LINE
  5
5376
330
18
100
AcDbEntity
  8
0
100
AcDbLine
 10
275.7683164429254
 20
515.8437843567781
 30
0.0
 11
275.7683164429254
 21
521.343784356778
 31
0.0
  0
LINE
  5
5377
330
18
100
AcDbEntity
  8
0
100
AcDbLine
 10
273.7683164429254
 20
521.343784356778
 30
0.0
 11
273.7683164429254
 21
515.8437843567781
 31
0.0
  0
LINE
  5
5378
330
18
100
AcDbEntity
  8
0
100
AcDbLine
 10
259.2683164429254
 20
515.8437843567781
 30
0.0
 11
259.2683164429254
 21
521.343784356778
 31
0.0
  0
ARC
  5
5379
330
18
100
AcDbEntity
  8
0
100
AcDbCircle
 10
286.2683164429254
 20
526.843784356778
 30
0.0
 40
1.0
100
AcDbArc
 50
0.0
 51
90.0
  0
LINE
  5
537A
330
18
100
AcDbEntity
  8
0
100
AcDbLine
 10
285.2683164429254
 20
521.343784356778
 30
0.0
 11
285.2683164429254
 21
515.8437843567781
 31
0.0
  0
LINE
  5
537B
330
18
100
AcDbEntity
  8
0
100
AcDbLine
 10
255.2683164429254
 20
529.343784356778
 30
0.0
 11
289.2683164429254
 21
529.343784356778
 31
0.0
  0
LINE
  5
537C
330
18
100
AcDbEntity
  8
0
100
AcDbLine
 10
254.7683164429254
 20
534.343784356778
 30
0.0
 11
289.7683164429254
 21
534.343784356778
 31
0.0
  0
LINE
  5
537D
330
18
100
AcDbEntity
  8
0
100
AcDbLine
 10
289.2683164429254
 20
541.3437843567781
 30
0.0
 11
255.2683164429254
 21
541.3437843567781
 31
0.0
  0
ARC
  5
537E
102
{ACAD_REACTORS
330
537F
102
}
330
18
100
AcDbEntity
  8
0
100
AcDbCircle
 10
259.7182943393509
 20
531.6009205654772
 30
0.0
 40
1.00311322310025
100
AcDbArc
 50
113.5897772726151
 51
269.9468005913759
  0
HATCH
  5
537F
330
18
100
AcDbEntity
  8
0
100
AcDbHatch
 10
0.0
 20
0.0
 30
0.0
210
0.0
220
0.0
230
1.0
  2
SOLID
 70
     1
 71
     1
 91
        2
 92
       17
 93
        1
 72
     2
 10
259.7173629440021
 20
531.5990577747789
 40
0.6007500000000002
 50
0.0
 51
360.0
 73
     1
 97
        1
330
5384
 92
        1
 93
        8
 72
     2
 10
259.7182943393509
 20
531.6009205654772
 40
1.00311322310025
 50
113.5897772726151
 51
269.9468005913759
 73
     1
 72
     2
 10
259.7173629440021
 20
531.398807774779
 40
0.8009999999999999
 50
270.0
 51
450.0
 73
     1
 72
     1
 10
259.7173629440021
 20
532.1998077747793
 11
261.9601629440021
 21
532.1998077747793
 72
     1
 10
261.9601629440021
 20
532.1998077747793
 11
261.7198629440026
 21
530.1973077747797
 72
     1
 10
261.7198629440026
 20
530.1973077747797
 11
257.3143629440019
 21
530.1973077747797
 72
     1
 10
257.3143629440019
 20
530.1973077747797
 11
257.7148629440034
 21
533.4013077747795
 72
     1
 10
257.7148629440034
 20
533.4013077747795
 11
262.1203629440024
 21
533.4013077747795
 72
     1
 10
262.1203629440024
 20
533.4013077747795
 11
259.3168629440024
 21
532.520207774779
 97
        8
330
537E
330
5385
330
5387
330
5383
330
5381
330
5382
330
5380
330
5386
 75
     0
 76
     1
 98
        1
 10
58.23965284976657
 20
534.078532590539
  0
LINE
  5
5380
102
{ACAD_REACTORS
330
537F
102
}
330
18
100
AcDbEntity
  8
0
100
AcDbLine
 10
257.7148629440034
 20
533.4013077747795
 30
0.0
 11
262.1203629440024
 21
533.4013077747795
 31
0.0
  0
LINE
  5
5381
102
{ACAD_REACTORS
330
537F
102
}
330
18
100
AcDbEntity
  8
0
100
AcDbLine
 10
257.3143629440019
 20
530.1973077747797
 30
0.0
 11
261.7198629440026
 21
530.1973077747797
 31
0.0
  0
LINE
  5
5382
102
{ACAD_REACTORS
330
537F
102
}
330
18
100
AcDbEntity
  8
0
100
AcDbLine
 10
257.3143629440019
 20
530.1973077747797
 30
0.0
 11
257.7148629440034
 21
533.4013077747795
 31
0.0
  0
LINE
  5
5383
102
{ACAD_REACTORS
330
537F
102
}
330
18
100
AcDbEntity
  8
0
100
AcDbLine
 10
261.7198629440026
 20
530.1973077747797
 30
0.0
 11
261.9601629440021
 21
532.1998077747793
 31
0.0
  0
CIRCLE
  5
5384
102
{ACAD_REACTORS
330
537F
102
}
330
18
100
AcDbEntity
  8
0
100
AcDbCircle
 10
259.7173629440021
 20
531.5990577747789
 30
0.0
 40
0.6007500000000002
  0
ARC
  5
5385
102
{ACAD_REACTORS
330
537F
102
}
330
18
100
AcDbEntity
  8
0
100
AcDbCircle
 10
259.7173629440021
 20
531.398807774779
 30
0.0
 40
0.8009999999999999
100
AcDbArc
 50
270.0
 51
90.0
  0
LINE
  5
5386
102
{ACAD_REACTORS
330
537F
102
}
330
18
100
AcDbEntity
  8
0
100
AcDbLine
 10
262.1203629440024
 20
533.4013077747795
 30
0.0
 11
259.3168629440024
 21
532.520207774779
 31
0.0
  0
LINE
  5
5387
102
{ACAD_REACTORS
330
537F
102
}
330
18
100
AcDbEntity
  8
0
100
AcDbLine
 10
259.7173629440021
 20
532.1998077747793
 30
0.0
 11
261.9601629440021
 21
532.1998077747793
 31
0.0
  0
ARC
  5
5388
330
18
100
AcDbEntity
  8
0
100
AcDbCircle
 10
255.2683164429254
 20
540.8437843567781
 30
0.0
 40
0.5
100
AcDbArc
 50
90.0
 51
180.0
  0
ARC
  5
5389
330
18
100
AcDbEntity
  8
0
100
AcDbCircle
 10
255.2683164429254
 20
529.843784356778
 30
0.0
 40
0.5
100
AcDbArc
 50
180.0
 51
270.0
  0
TEXT
  5
538A
330
18
100
AcDbEntity
  8
0
100
AcDbText
 10
262.9364621683908
 20
530.2450419133629
 30
0.0
 40
1.44
  1
DENSO
 41
1.3
  7
MSｺﾞｼｯｸ
100
AcDbText
  0
TEXT
  5
538B
330
18
100
AcDbEntity
  8
0
100
AcDbText
 10
263.0578752785295
 20
531.9418043223485
 30
0.0
 40
1.44
  1
NIKKI
 41
1.25
  7
MSｺﾞｼｯｸ
100
AcDbText
  0
TEXT
  5
538C
330
18
100
AcDbEntity
  8
0
100
AcDbText
 10
255.8641132181601
 20
534.9026631560251
 30
0.0
 40
2.0
  1
SER No.******
 41
1.199999999999999
  7
MSｺﾞｼｯｸ
 11
255.8641132181601
 21
534.5371809225225
 31
0.0
100
AcDbText
 73
     1
  0
TEXT
  5
538D
330
18
100
AcDbEntity
  8
0
100
AcDbText
 10
255.8912397909716
 20
537.6170518344057
 30
0.0
 40
2.0
  1
MODEL:NCR-*A**
 41
1.199999999999999
  7
MSｺﾞｼｯｸ
 11
255.8912397909716
 21
537.2515696009031
 31
0.0
100
AcDbText
 73
     1
  0
LINE
  5
538E
330
18
100
AcDbEntity
  8
0
100
AcDbLine
 10
254.7683164429254
 20
540.8437843567781
 30
0.0
 11
254.7683164429254
 21
529.843784356778
 31
0.0
  0
ARC
  5
538F
330
18
100
AcDbEntity
  8
0
100
AcDbCircle
 10
289.2683164429254
 20
540.8437843567781
 30
0.0
 40
0.5
100
AcDbArc
 50
0.0
 51
90.0
  0
ARC
  5
5390
330
18
100
AcDbEntity
  8
0
100
AcDbCircle
 10
289.2683164429254
 20
529.843784356778
 30
0.0
 40
0.5
100
AcDbArc
 50
270.0
 51
0.0
  0
LINE
  5
5391
330
18
100
AcDbEntity
  8
0
100
AcDbLine
 10
289.7683164429254
 20
529.843784356778
 30
0.0
 11
289.7683164429254
 21
540.8437843567781
 31
0.0
  0
TEXT
  5
5392
330
18
100
AcDbEntity
  8
0
100
AcDbText
 10
274.3899768374758
 20
529.9785935828297
 30
137.5
 40
1.5
  1
MADE IN JAPAN
  7
MSｺﾞｼｯｸ
 11
274.3899768374758
 21
529.7044819077028
 31
137.5
100
AcDbText
 73
     1
  0
TEXT
  5
5393
330
18
100
AcDbEntity
  8
0
100
AcDbText
 10
274.3899768374758
 20
531.848379633215
 30
137.5
 40
1.5
  1
SN-16140
  7
MSｺﾞｼｯｸ
 11
274.3899768374758
 21
531.574267958088
 31
137.5
100
AcDbText
 73
     1
  0
LWPOLYLINE
  5
5394
330
18
100
AcDbEntity
  8
0
100
AcDbPolyline
 90
        8
 70
     1
 43
0.0
 10
-26.8717739983723
 20
497.9102188059382
 10
-12.8717739983723
 20
497.9102188059377
 42
0.4142135623730951
 10
-12.3717739983723
 20
498.4102188059377
 10
-12.3717739983723
 20
507.4102188059377
 42
0.4142135623730951
 10
-12.8717739983723
 20
507.9102188059378
 10
-26.8717739983723
 20
507.9102188059378
 42
0.4142135623730996
 10
-27.3717739983723
 20
507.4102188059377
 10
-27.3717739983723
 20
498.4102188059382
 42
0.4142135623730904
  0
TEXT
  5
5395
330
18
100
AcDbEntity
  8
0
100
AcDbText
 10
-20.49260137236626
 20
499.2564470251345
 30
0.0
 40
1.44
  1
DENSO
  7
MSｺﾞｼｯｸ
100
AcDbText
  0
TEXT
  5
5396
330
18
100
AcDbEntity
  8
0
100
AcDbText
 10
-26.15705551916573
 20
504.5954717376644
 30
0.0
 40
2.0
  1
Certificate
  7
MSｺﾞｼｯｸ
 11
-26.15705551916573
 21
504.2299895041619
 31
0.0
100
AcDbText
 73
     1
  0
LINE
  5
5397
330
18
100
AcDbEntity
  8
0
100
AcDbLine
 10
-27.3717739983723
 20
503.9102188059382
 30
0.0
 11
-12.3717739983723
 21
503.9102188059382
 31
0.0
  0
ARC
  5
5398
102
{ACAD_REACTORS
330
53A2
102
}
330
18
100
AcDbEntity
  8
0
100
AcDbCircle
 10
-23.71076920140615
 20
500.6123256772489
 30
0.0
 40
1.00311322310025
100
AcDbArc
 50
113.5897772726151
 51
269.9468005913759
  0
LINE
  5
5399
102
{ACAD_REACTORS
330
53A2
102
}
330
18
100
AcDbEntity
  8
0
100
AcDbLine
 10
-25.71420059675358
 20
502.4127128865512
 30
0.0
 11
-21.30870059675464
 21
502.4127128865512
 31
0.0
  0
LINE
  5
539A
102
{ACAD_REACTORS
330
53A2
102
}
330
18
100
AcDbEntity
  8
0
100
AcDbLine
 10
-26.11470059675514
 20
499.2087128865514
 30
0.0
 11
-21.70920059675438
 21
499.2087128865514
 31
0.0
  0
LINE
  5
539B
102
{ACAD_REACTORS
330
53A2
102
}
330
18
100
AcDbEntity
  8
0
100
AcDbLine
 10
-26.11470059675514
 20
499.2087128865514
 30
0.0
 11
-25.71420059675358
 21
502.4127128865512
 31
0.0
  0
CIRCLE
  5
539C
102
{ACAD_REACTORS
330
53A2
102
}
330
18
100
AcDbEntity
  8
0
100
AcDbCircle
 10
-23.71170059675489
 20
500.6104628865505
 30
0.0
 40
0.6007500000000002
  0
ARC
  5
539D
102
{ACAD_REACTORS
330
53A2
102
}
330
18
100
AcDbEntity
  8
0
100
AcDbCircle
 10
-23.71170059675489
 20
500.4102128865506
 30
0.0
 40
0.8009999999999999
100
AcDbArc
 50
270.0
 51
90.0
  0
LINE
  5
539E
102
{ACAD_REACTORS
330
53A2
102
}
330
18
100
AcDbEntity
  8
0
100
AcDbLine
 10
-21.30870059675464
 20
502.4127128865512
 30
0.0
 11
-24.11220059675463
 21
501.5316128865506
 31
0.0
  0
LINE
  5
539F
102
{ACAD_REACTORS
330
53A2
102
}
330
18
100
AcDbEntity
  8
0
100
AcDbLine
 10
-23.71170059675489
 20
501.211212886551
 30
0.0
 11
-21.4689005967549
 21
501.211212886551
 31
0.0
  0
LINE
  5
53A0
102
{ACAD_REACTORS
330
53A2
102
}
330
18
100
AcDbEntity
  8
0
100
AcDbLine
 10
-21.70920059675438
 20
499.2087128865514
 30
0.0
 11
-21.4689005967549
 21
501.211212886551
 31
0.0
  0
TEXT
  5
53A1
330
18
100
AcDbEntity
  8
0
100
AcDbText
 10
-20.37118826222751
 20
500.9532094341202
 30
0.0
 40
1.44
  1
NIKKI
  7
MSｺﾞｼｯｸ
100
AcDbText
  0
HATCH
  5
53A2
330
18
100
AcDbEntity
  8
0
100
AcDbHatch
 10
0.0
 20
0.0
 30
0.0
210
0.0
220
0.0
230
1.0
  2
SOLID
 70
     1
 71
     1
 91
        2
 92
       17
 93
        1
 72
     2
 10
-23.71170059675489
 20
500.6104628865505
 40
0.6007500000000002
 50
0.0
 51
360.0
 73
     1
 97
        1
330
539C
 92
        1
 93
        8
 72
     2
 10
-23.71076920140615
 20
500.6123256772489
 40
1.00311322310025
 50
113.5897772726151
 51
269.9468005913759
 73
     1
 72
     2
 10
-23.71170059675489
 20
500.4102128865506
 40
0.8009999999999999
 50
270.0
 51
450.0
 73
     1
 72
     1
 10
-23.71170059675489
 20
501.211212886551
 11
-21.4689005967549
 21
501.211212886551
 72
     1
 10
-21.4689005967549
 20
501.211212886551
 11
-21.70920059675438
 21
499.2087128865514
 72
     1
 10
-21.70920059675438
 20
499.2087128865514
 11
-26.11470059675514
 21
499.2087128865514
 72
     1
 10
-26.11470059675514
 20
499.2087128865514
 11
-25.71420059675358
 21
502.4127128865512
 72
     1
 10
-25.71420059675358
 20
502.4127128865512
 11
-21.30870059675464
 21
502.4127128865512
 72
     1
 10
-21.30870059675464
 20
502.4127128865512
 11
-24.11220059675463
 21
501.5316128865506
 97
        8
330
5398
330
539D
330
539F
330
53A0
330
539A
330
539B
330
5399
330
539E
 75
     0
 76
     1
 98
        1
 10
-225.1894106909904
 20
503.0899377023106
  0
LINE
  5
55E9
330
18
100
AcDbEntity
  8
0
100
AcDbLine
 10
196.5550029382808
 20
407.5511551362124
 30
0.0
 11
196.5550029382807
 21
290.5511551362123
 31
0.0
  0
LINE
  5
55EA
330
18
100
AcDbEntity
  8
0
100
AcDbLine
 10
193.5550029382808
 20
407.5511551362124
 30
0.0
 11
193.5550029382807
 21
287.5511551362123
 31
0.0
  0
LINE
  5
55FE
330
18
100
AcDbEntity
  8
0
100
AcDbLine
 10
378.5550029382805
 20
407.5511551362124
 30
0.0
 11
378.5550029382805
 21
287.5511551362123
 31
0.0
  0
LINE
  5
560B
330
18
100
AcDbEntity
  8
0
100
AcDbLine
 10
375.5550029382805
 20
407.5511551362124
 30
0.0
 11
375.5550029382805
 21
290.5511551362123
 31
0.0
  0
LINE
  5
5643
330
18
100
AcDbEntity
  8
0
100
AcDbLine
 10
196.5550029382808
 20
407.5511551362124
 30
0.0
 11
193.5550029382808
 21
407.5511551362124
 31
0.0
  0
LINE
  5
5740
330
18
100
AcDbEntity
  8
0
100
AcDbLine
 10
378.5550029382805
 20
407.5511551362124
 30
0.0
 11
375.5550029382805
 21
407.5511551362124
 31
0.0
  0
LINE
  5
5787
330
18
100
AcDbEntity
  8
0
100
AcDbLine
 10
375.5550029382805
 20
290.5511551362123
 30
0.0
 11
196.5550029382807
 21
290.5511551362123
 31
0.0
  0
LINE
  5
5788
330
18
100
AcDbEntity
  8
0
100
AcDbLine
 10
378.5550029382805
 20
287.5511551362123
 30
0.0
 11
193.5550029382807
 21
287.5511551362123
 31
0.0
  0
LINE
  5
57A5
330
18
100
AcDbEntity
  8
0
100
AcDbLine
 10
373.4550029382804
 20
290.6511551362131
 30
0.0
 11
313.4550029382804
 21
290.6511551362131
 31
0.0
  0
LINE
  5
57BA
330
18
100
AcDbEntity
  8
0
100
AcDbLine
 10
312.9550029382804
 20
290.6511551362127
 30
0.0
 11
252.9550029382805
 21
290.6511551362127
 31
0.0
  0
LINE
  5
57D8
330
18
100
AcDbEntity
  8
0
100
AcDbLine
 10
378.5550029382805
 20
297.5511551362123
 30
0.0
 11
375.5550029382805
 21
297.5511551362123
 31
0.0
  0
LINE
  5
590F
330
18
100
AcDbEntity
  8
0
100
AcDbLine
 10
186.6550029382809
 20
380.1511551362124
 30
0.0
 11
186.6550029382809
 21
365.1511551362124
 31
0.0
  0
LINE
  5
5910
330
18
100
AcDbEntity
  8
0
100
AcDbLine
 10
193.5550029382808
 20
380.1511551362124
 30
0.0
 11
186.6550029382809
 21
380.1511551362124
 31
0.0
  0
LINE
  5
5911
330
18
100
AcDbEntity
  8
0
100
AcDbLine
 10
193.5550029382808
 20
365.1511551362124
 30
0.0
 11
186.6550029382809
 21
365.1511551362124
 31
0.0
  0
LINE
  5
5E24
330
18
100
AcDbEntity
  8
0
100
AcDbLine
 10
196.5550029382808
 20
402.5511551362123
 30
0.0
 11
197.5550029382808
 21
402.5511551362123
 31
0.0
  0
LINE
  5
5E25
330
18
100
AcDbEntity
  8
0
100
AcDbLine
 10
196.5550029382808
 20
400.5511551362124
 30
0.0
 11
199.5550029382808
 21
400.5511551362124
 31
0.0
  0
LINE
  5
5E26
330
18
100
AcDbEntity
  8
0
100
AcDbLine
 10
375.5550029382809
 20
292.5511551362128
 30
0.0
 11
196.5550029382808
 21
292.5511551362128
 31
0.0
  0
LINE
  5
5E27
330
18
100
AcDbEntity
  8
0
100
AcDbLine
 10
196.5550029382808
 20
430.5511551362124
 30
0.0
 11
375.5550029382806
 21
430.5511551362124
 31
0.0
  0
LINE
  5
5E28
330
18
100
AcDbEntity
  8
0
100
AcDbLine
 10
365.5550029382806
 20
302.5511551362124
 30
0.0
 11
365.5550029382806
 21
322.5511551362123
 31
0.0
  0
LINE
  5
5E29
330
18
100
AcDbEntity
  8
0
100
AcDbLine
 10
370.5550029382806
 20
302.5511551362124
 30
0.0
 11
370.5550029382806
 21
322.5511551362123
 31
0.0
  0
LINE
  5
5E2A
330
18
100
AcDbEntity
  8
0
100
AcDbLine
 10
335.5550029382806
 20
302.5511551362124
 30
0.0
 11
335.5550029382806
 21
322.5511551362123
 31
0.0
  0
LINE
  5
5E2B
330
18
100
AcDbEntity
  8
0
100
AcDbLine
 10
330.5550029382806
 20
302.5511551362124
 30
0.0
 11
330.5550029382806
 21
322.5511551362123
 31
0.0
  0
LINE
  5
5E2C
330
18
100
AcDbEntity
  8
0
100
AcDbLine
 10
340.5550029382806
 20
302.5511551362124
 30
0.0
 11
340.5550029382806
 21
322.5511551362123
 31
0.0
  0
LINE
  5
5E2D
330
18
100
AcDbEntity
  8
0
100
AcDbLine
 10
345.5550029382806
 20
302.5511551362124
 30
0.0
 11
345.5550029382806
 21
322.5511551362123
 31
0.0
  0
LINE
  5
5E2E
330
18
100
AcDbEntity
  8
0
100
AcDbLine
 10
320.5550029382806
 20
302.5511551362124
 30
0.0
 11
320.5550029382806
 21
322.5511551362123
 31
0.0
  0
LINE
  5
5E2F
330
18
100
AcDbEntity
  8
0
100
AcDbLine
 10
315.5550029382806
 20
302.5511551362124
 30
0.0
 11
315.5550029382806
 21
322.5511551362123
 31
0.0
  0
LINE
  5
5E30
330
18
100
AcDbEntity
  8
0
100
AcDbLine
 10
325.5550029382806
 20
302.5511551362124
 30
0.0
 11
325.5550029382806
 21
322.5511551362123
 31
0.0
  0
LINE
  5
5E31
330
18
100
AcDbEntity
  8
0
100
AcDbLine
 10
305.5550029382806
 20
302.5511551362124
 30
0.0
 11
305.5550029382806
 21
322.5511551362123
 31
0.0
  0
LINE
  5
5E32
330
18
100
AcDbEntity
  8
0
100
AcDbLine
 10
310.5550029382806
 20
302.5511551362124
 30
0.0
 11
310.5550029382806
 21
322.5511551362123
 31
0.0
  0
LINE
  5
5E33
330
18
100
AcDbEntity
  8
0
100
AcDbLine
 10
280.5550029382806
 20
302.5511551362124
 30
0.0
 11
280.5550029382806
 21
322.5511551362123
 31
0.0
  0
LINE
  5
5E34
330
18
100
AcDbEntity
  8
0
100
AcDbLine
 10
275.5550029382806
 20
302.5511551362124
 30
0.0
 11
275.5550029382806
 21
322.5511551362123
 31
0.0
  0
LINE
  5
5E35
330
18
100
AcDbEntity
  8
0
100
AcDbLine
 10
285.5550029382806
 20
302.5511551362124
 30
0.0
 11
285.5550029382806
 21
322.5511551362123
 31
0.0
  0
LINE
  5
5E36
330
18
100
AcDbEntity
  8
0
100
AcDbLine
 10
300.5550029382806
 20
302.5511551362124
 30
0.0
 11
300.5550029382806
 21
322.5511551362123
 31
0.0
  0
LINE
  5
5E37
330
18
100
AcDbEntity
  8
0
100
AcDbLine
 10
290.5550029382806
 20
302.5511551362124
 30
0.0
 11
290.5550029382806
 21
322.5511551362123
 31
0.0
  0
LINE
  5
5E38
330
18
100
AcDbEntity
  8
0
100
AcDbLine
 10
295.5550029382806
 20
302.5511551362124
 30
0.0
 11
295.5550029382806
 21
322.5511551362123
 31
0.0
  0
LINE
  5
5E39
330
18
100
AcDbEntity
  8
0
100
AcDbLine
 10
270.5550029382806
 20
302.5511551362124
 30
0.0
 11
270.5550029382806
 21
322.5511551362123
 31
0.0
  0
LINE
  5
5E3A
330
18
100
AcDbEntity
  8
0
100
AcDbLine
 10
255.5550029382806
 20
302.5511551362124
 30
0.0
 11
255.5550029382806
 21
322.5511551362123
 31
0.0
  0
LINE
  5
5E3B
330
18
100
AcDbEntity
  8
0
100
AcDbLine
 10
250.5550029382806
 20
302.5511551362124
 30
0.0
 11
250.5550029382806
 21
322.5511551362123
 31
0.0
  0
LINE
  5
5E3C
330
18
100
AcDbEntity
  8
0
100
AcDbLine
 10
265.5550029382806
 20
302.5511551362124
 30
0.0
 11
265.5550029382806
 21
322.5511551362123
 31
0.0
  0
LINE
  5
5E3D
330
18
100
AcDbEntity
  8
0
100
AcDbLine
 10
260.5550029382806
 20
302.5511551362124
 30
0.0
 11
260.5550029382806
 21
322.5511551362123
 31
0.0
  0
LINE
  5
5E3E
330
18
100
AcDbEntity
  8
0
100
AcDbLine
 10
245.5550029382806
 20
302.5511551362124
 30
0.0
 11
245.5550029382806
 21
322.5511551362123
 31
0.0
  0
LINE
  5
5E3F
330
18
100
AcDbEntity
  8
0
100
AcDbLine
 10
360.5550029382806
 20
302.5511551362124
 30
0.0
 11
360.5550029382806
 21
322.5511551362123
 31
0.0
  0
LINE
  5
5E40
330
18
100
AcDbEntity
  8
0
100
AcDbLine
 10
350.5550029382806
 20
302.5511551362124
 30
0.0
 11
350.5550029382806
 21
322.5511551362123
 31
0.0
  0
LINE
  5
5E41
330
18
100
AcDbEntity
  8
0
100
AcDbLine
 10
355.5550029382806
 20
302.5511551362124
 30
0.0
 11
355.5550029382806
 21
322.5511551362123
 31
0.0
  0
LINE
  5
5E42
330
18
100
AcDbEntity
  8
0
100
AcDbLine
 10
210.5550029382806
 20
302.5511551362124
 30
0.0
 11
210.5550029382806
 21
322.5511551362123
 31
0.0
  0
LINE
  5
5E43
330
18
100
AcDbEntity
  8
0
100
AcDbLine
 10
205.5550029382806
 20
302.5511551362124
 30
0.0
 11
205.5550029382806
 21
322.5511551362123
 31
0.0
  0
LINE
  5
5E44
330
18
100
AcDbEntity
  8
0
100
AcDbLine
 10
235.5550029382806
 20
302.5511551362124
 30
0.0
 11
235.5550029382806
 21
322.5511551362123
 31
0.0
  0
LINE
  5
5E45
330
18
100
AcDbEntity
  8
0
100
AcDbLine
 10
240.5550029382806
 20
302.5511551362124
 30
0.0
 11
240.5550029382806
 21
322.5511551362123
 31
0.0
  0
LINE
  5
5E46
330
18
100
AcDbEntity
  8
0
100
AcDbLine
 10
220.5550029382806
 20
302.5511551362124
 30
0.0
 11
220.5550029382806
 21
322.5511551362123
 31
0.0
  0
LINE
  5
5E47
330
18
100
AcDbEntity
  8
0
100
AcDbLine
 10
215.5550029382806
 20
302.5511551362124
 30
0.0
 11
215.5550029382806
 21
322.5511551362123
 31
0.0
  0
LINE
  5
5E48
330
18
100
AcDbEntity
  8
0
100
AcDbLine
 10
230.5550029382806
 20
302.5511551362124
 30
0.0
 11
230.5550029382806
 21
322.5511551362123
 31
0.0
  0
LINE
  5
5E49
330
18
100
AcDbEntity
  8
0
100
AcDbLine
 10
225.5550029382806
 20
302.5511551362124
 30
0.0
 11
225.5550029382806
 21
322.5511551362123
 31
0.0
  0
LINE
  5
5E4C
330
18
100
AcDbEntity
  8
0
100
AcDbLine
 10
375.5550029382806
 20
400.5511551362124
 30
0.0
 11
375.5550029382809
 21
292.5511551362128
 31
0.0
  0
LINE
  5
5E4D
330
18
100
AcDbEntity
  8
0
100
AcDbLine
 10
290.5550029382806
 20
302.5511551362124
 30
0.0
 11
285.5550029382806
 21
302.5511551362124
 31
0.0
  0
LINE
  5
5E4E
330
18
100
AcDbEntity
  8
0
100
AcDbLine
 10
370.5550029382806
 20
302.5511551362124
 30
0.0
 11
365.5550029382806
 21
302.5511551362124
 31
0.0
  0
LINE
  5
5E4F
330
18
100
AcDbEntity
  8
0
100
AcDbLine
 10
360.5550029382806
 20
302.5511551362124
 30
0.0
 11
355.5550029382806
 21
302.5511551362124
 31
0.0
  0
LINE
  5
5E50
330
18
100
AcDbEntity
  8
0
100
AcDbLine
 10
340.5550029382806
 20
302.5511551362124
 30
0.0
 11
335.5550029382806
 21
302.5511551362124
 31
0.0
  0
LINE
  5
5E51
330
18
100
AcDbEntity
  8
0
100
AcDbLine
 10
350.5550029382806
 20
302.5511551362124
 30
0.0
 11
345.5550029382806
 21
302.5511551362124
 31
0.0
  0
LINE
  5
5E52
330
18
100
AcDbEntity
  8
0
100
AcDbLine
 10
310.5550029382806
 20
302.5511551362124
 30
0.0
 11
305.5550029382806
 21
302.5511551362124
 31
0.0
  0
LINE
  5
5E53
330
18
100
AcDbEntity
  8
0
100
AcDbLine
 10
320.5550029382806
 20
302.5511551362124
 30
0.0
 11
315.5550029382806
 21
302.5511551362124
 31
0.0
  0
LINE
  5
5E54
330
18
100
AcDbEntity
  8
0
100
AcDbLine
 10
330.5550029382806
 20
302.5511551362124
 30
0.0
 11
325.5550029382806
 21
302.5511551362124
 31
0.0
  0
LINE
  5
5E55
330
18
100
AcDbEntity
  8
0
100
AcDbLine
 10
300.5550029382806
 20
302.5511551362124
 30
0.0
 11
295.5550029382806
 21
302.5511551362124
 31
0.0
  0
LINE
  5
5E56
330
18
100
AcDbEntity
  8
0
100
AcDbLine
 10
280.5550029382806
 20
302.5511551362124
 30
0.0
 11
275.5550029382806
 21
302.5511551362124
 31
0.0
  0
LINE
  5
5E57
330
18
100
AcDbEntity
  8
0
100
AcDbLine
 10
270.5550029382806
 20
302.5511551362124
 30
0.0
 11
265.5550029382806
 21
302.5511551362124
 31
0.0
  0
LINE
  5
5E58
330
18
100
AcDbEntity
  8
0
100
AcDbLine
 10
250.5550029382806
 20
302.5511551362124
 30
0.0
 11
245.5550029382806
 21
302.5511551362124
 31
0.0
  0
LINE
  5
5E59
330
18
100
AcDbEntity
  8
0
100
AcDbLine
 10
260.5550029382806
 20
302.5511551362124
 30
0.0
 11
255.5550029382806
 21
302.5511551362124
 31
0.0
  0
LINE
  5
5E5A
330
18
100
AcDbEntity
  8
0
100
AcDbLine
 10
220.5550029382806
 20
302.5511551362124
 30
0.0
 11
215.5550029382806
 21
302.5511551362124
 31
0.0
  0
LINE
  5
5E5B
330
18
100
AcDbEntity
  8
0
100
AcDbLine
 10
240.5550029382806
 20
302.5511551362124
 30
0.0
 11
235.5550029382806
 21
302.5511551362124
 31
0.0
  0
LINE
  5
5E5C
330
18
100
AcDbEntity
  8
0
100
AcDbLine
 10
230.5550029382806
 20
302.5511551362124
 30
0.0
 11
225.5550029382806
 21
302.5511551362124
 31
0.0
  0
LINE
  5
5E5D
330
18
100
AcDbEntity
  8
0
100
AcDbLine
 10
210.5550029382806
 20
302.5511551362124
 30
0.0
 11
205.5550029382806
 21
302.5511551362124
 31
0.0
  0
LINE
  5
5E5E
330
18
100
AcDbEntity
  8
0
100
AcDbLine
 10
290.5550029382806
 20
347.5511551362123
 30
0.0
 11
285.5550029382806
 21
347.5511551362123
 31
0.0
  0
LINE
  5
5E5F
330
18
100
AcDbEntity
  8
0
100
AcDbLine
 10
290.5550029382806
 20
322.5511551362123
 30
0.0
 11
285.5550029382806
 21
322.5511551362123
 31
0.0
  0
LINE
  5
5E60
330
18
100
AcDbEntity
  8
0
100
AcDbLine
 10
290.5550029382806
 20
327.5511551362124
 30
0.0
 11
285.5550029382806
 21
327.5511551362124
 31
0.0
  0
LINE
  5
5E61
330
18
100
AcDbEntity
  8
0
100
AcDbLine
 10
290.5550029382806
 20
402.5511551362123
 30
0.0
 11
285.5550029382806
 21
402.5511551362123
 31
0.0
  0
LINE
  5
5E62
330
18
100
AcDbEntity
  8
0
100
AcDbLine
 10
290.5550029382806
 20
382.5511551362124
 30
0.0
 11
285.5550029382806
 21
382.5511551362124
 31
0.0
  0
LINE
  5
5E63
330
18
100
AcDbEntity
  8
0
100
AcDbLine
 10
290.5550029382806
 20
377.5511551362124
 30
0.0
 11
285.5550029382806
 21
377.5511551362124
 31
0.0
  0
LINE
  5
5E64
330
18
100
AcDbEntity
  8
0
100
AcDbLine
 10
290.5550029382806
 20
357.5511551362124
 30
0.0
 11
285.5550029382806
 21
357.5511551362124
 31
0.0
  0
LINE
  5
5E66
330
18
100
AcDbEntity
  8
0
100
AcDbLine
 10
295.5550029382806
 20
382.5511551362124
 30
0.0
 11
295.5550029382806
 21
402.5511551362123
 31
0.0
  0
LINE
  5
5E67
330
18
100
AcDbEntity
  8
0
100
AcDbLine
 10
290.5550029382806
 20
382.5511551362124
 30
0.0
 11
290.5550029382806
 21
402.5511551362123
 31
0.0
  0
LINE
  5
5E68
330
18
100
AcDbEntity
  8
0
100
AcDbLine
 10
300.5550029382806
 20
382.5511551362124
 30
0.0
 11
300.5550029382806
 21
402.5511551362123
 31
0.0
  0
LINE
  5
5E69
330
18
100
AcDbEntity
  8
0
100
AcDbLine
 10
325.5550029382806
 20
382.5511551362124
 30
0.0
 11
325.5550029382806
 21
402.5511551362123
 31
0.0
  0
LINE
  5
5E6A
330
18
100
AcDbEntity
  8
0
100
AcDbLine
 10
315.5550029382806
 20
382.5511551362124
 30
0.0
 11
315.5550029382806
 21
402.5511551362123
 31
0.0
  0
LINE
  5
5E6B
330
18
100
AcDbEntity
  8
0
100
AcDbLine
 10
320.5550029382806
 20
382.5511551362124
 30
0.0
 11
320.5550029382806
 21
402.5511551362123
 31
0.0
  0
LINE
  5
5E6C
330
18
100
AcDbEntity
  8
0
100
AcDbLine
 10
310.5550029382806
 20
382.5511551362124
 30
0.0
 11
310.5550029382806
 21
402.5511551362123
 31
0.0
  0
LINE
  5
5E6D
330
18
100
AcDbEntity
  8
0
100
AcDbLine
 10
305.5550029382806
 20
382.5511551362124
 30
0.0
 11
305.5550029382806
 21
402.5511551362123
 31
0.0
  0
LINE
  5
5E6E
330
18
100
AcDbEntity
  8
0
100
AcDbLine
 10
345.5550029382806
 20
382.5511551362124
 30
0.0
 11
345.5550029382806
 21
402.5511551362123
 31
0.0
  0
LINE
  5
5E6F
330
18
100
AcDbEntity
  8
0
100
AcDbLine
 10
340.5550029382806
 20
382.5511551362124
 30
0.0
 11
340.5550029382806
 21
402.5511551362123
 31
0.0
  0
LINE
  5
5E70
330
18
100
AcDbEntity
  8
0
100
AcDbLine
 10
330.5550029382806
 20
382.5511551362124
 30
0.0
 11
330.5550029382806
 21
402.5511551362123
 31
0.0
  0
LINE
  5
5E71
330
18
100
AcDbEntity
  8
0
100
AcDbLine
 10
335.5550029382806
 20
382.5511551362124
 30
0.0
 11
335.5550029382806
 21
402.5511551362123
 31
0.0
  0
LINE
  5
5E72
330
18
100
AcDbEntity
  8
0
100
AcDbLine
 10
355.5550029382806
 20
382.5511551362124
 30
0.0
 11
355.5550029382806
 21
402.5511551362123
 31
0.0
  0
LINE
  5
5E73
330
18
100
AcDbEntity
  8
0
100
AcDbLine
 10
350.5550029382806
 20
382.5511551362124
 30
0.0
 11
350.5550029382806
 21
402.5511551362123
 31
0.0
  0
LINE
  5
5E74
330
18
100
AcDbEntity
  8
0
100
AcDbLine
 10
365.5550029382806
 20
382.5511551362124
 30
0.0
 11
365.5550029382806
 21
402.5511551362123
 31
0.0
  0
LINE
  5
5E75
330
18
100
AcDbEntity
  8
0
100
AcDbLine
 10
370.5550029382806
 20
382.5511551362124
 30
0.0
 11
370.5550029382806
 21
402.5511551362123
 31
0.0
  0
LINE
  5
5E76
330
18
100
AcDbEntity
  8
0
100
AcDbLine
 10
360.5550029382806
 20
382.5511551362124
 30
0.0
 11
360.5550029382806
 21
402.5511551362123
 31
0.0
  0
LINE
  5
5E77
330
18
100
AcDbEntity
  8
0
100
AcDbLine
 10
365.5550029382806
 20
327.5511551362124
 30
0.0
 11
365.5550029382806
 21
347.5511551362123
 31
0.0
  0
LINE
  5
5E78
330
18
100
AcDbEntity
  8
0
100
AcDbLine
 10
370.5550029382806
 20
327.5511551362124
 30
0.0
 11
370.5550029382806
 21
347.5511551362123
 31
0.0
  0
LINE
  5
5E79
330
18
100
AcDbEntity
  8
0
100
AcDbLine
 10
360.5550029382806
 20
327.5511551362124
 30
0.0
 11
360.5550029382806
 21
347.5511551362123
 31
0.0
  0
LINE
  5
5E7A
330
18
100
AcDbEntity
  8
0
100
AcDbLine
 10
355.5550029382806
 20
327.5511551362124
 30
0.0
 11
355.5550029382806
 21
347.5511551362123
 31
0.0
  0
LINE
  5
5E7B
330
18
100
AcDbEntity
  8
0
100
AcDbLine
 10
370.5550029382806
 20
327.5511551362124
 30
0.0
 11
365.5550029382806
 21
327.5511551362124
 31
0.0
  0
LINE
  5
5E7C
330
18
100
AcDbEntity
  8
0
100
AcDbLine
 10
370.5550029382806
 20
322.5511551362123
 30
0.0
 11
365.5550029382806
 21
322.5511551362123
 31
0.0
  0
LINE
  5
5E7D
330
18
100
AcDbEntity
  8
0
100
AcDbLine
 10
360.5550029382806
 20
322.5511551362123
 30
0.0
 11
355.5550029382806
 21
322.5511551362123
 31
0.0
  0
LINE
  5
5E7E
330
18
100
AcDbEntity
  8
0
100
AcDbLine
 10
360.5550029382806
 20
327.5511551362124
 30
0.0
 11
355.5550029382806
 21
327.5511551362124
 31
0.0
  0
LINE
  5
5E82
330
18
100
AcDbEntity
  8
0
100
AcDbLine
 10
370.5550029382806
 20
347.5511551362123
 30
0.0
 11
365.5550029382806
 21
347.5511551362123
 31
0.0
  0
LINE
  5
5E83
330
18
100
AcDbEntity
  8
0
100
AcDbLine
 10
360.5550029382806
 20
347.5511551362123
 30
0.0
 11
355.5550029382806
 21
347.5511551362123
 31
0.0
  0
LINE
  5
5E84
330
18
100
AcDbEntity
  8
0
100
AcDbLine
 10
335.5550029382806
 20
327.5511551362124
 30
0.0
 11
335.5550029382806
 21
347.5511551362123
 31
0.0
  0
LINE
  5
5E85
330
18
100
AcDbEntity
  8
0
100
AcDbLine
 10
340.5550029382806
 20
327.5511551362124
 30
0.0
 11
340.5550029382806
 21
347.5511551362123
 31
0.0
  0
LINE
  5
5E86
330
18
100
AcDbEntity
  8
0
100
AcDbLine
 10
345.5550029382806
 20
327.5511551362124
 30
0.0
 11
345.5550029382806
 21
347.5511551362123
 31
0.0
  0
LINE
  5
5E87
330
18
100
AcDbEntity
  8
0
100
AcDbLine
 10
350.5550029382806
 20
327.5511551362124
 30
0.0
 11
350.5550029382806
 21
347.5511551362123
 31
0.0
  0
LINE
  5
5E88
330
18
100
AcDbEntity
  8
0
100
AcDbLine
 10
340.5550029382806
 20
322.5511551362123
 30
0.0
 11
335.5550029382806
 21
322.5511551362123
 31
0.0
  0
LINE
  5
5E89
330
18
100
AcDbEntity
  8
0
100
AcDbLine
 10
340.5550029382806
 20
327.5511551362124
 30
0.0
 11
335.5550029382806
 21
327.5511551362124
 31
0.0
  0
LINE
  5
5E8A
330
18
100
AcDbEntity
  8
0
100
AcDbLine
 10
350.5550029382806
 20
322.5511551362123
 30
0.0
 11
345.5550029382806
 21
322.5511551362123
 31
0.0
  0
LINE
  5
5E8B
330
18
100
AcDbEntity
  8
0
100
AcDbLine
 10
350.5550029382806
 20
327.5511551362124
 30
0.0
 11
345.5550029382806
 21
327.5511551362124
 31
0.0
  0
LINE
  5
5E8C
330
18
100
AcDbEntity
  8
0
100
AcDbLine
 10
340.5550029382806
 20
347.5511551362123
 30
0.0
 11
335.5550029382806
 21
347.5511551362123
 31
0.0
  0
LINE
  5
5E8D
330
18
100
AcDbEntity
  8
0
100
AcDbLine
 10
350.5550029382806
 20
347.5511551362123
 30
0.0
 11
345.5550029382806
 21
347.5511551362123
 31
0.0
  0
LINE
  5
5E8E
330
18
100
AcDbEntity
  8
0
100
AcDbLine
 10
355.5550029382806
 20
357.5511551362124
 30
0.0
 11
355.5550029382806
 21
377.5511551362124
 31
0.0
  0
LINE
  5
5E8F
330
18
100
AcDbEntity
  8
0
100
AcDbLine
 10
360.5550029382806
 20
357.5511551362124
 30
0.0
 11
360.5550029382806
 21
377.5511551362124
 31
0.0
  0
LINE
  5
5E90
330
18
100
AcDbEntity
  8
0
100
AcDbLine
 10
365.5550029382806
 20
357.5511551362124
 30
0.0
 11
365.5550029382806
 21
377.5511551362124
 31
0.0
  0
LINE
  5
5E91
330
18
100
AcDbEntity
  8
0
100
AcDbLine
 10
370.5550029382806
 20
357.5511551362124
 30
0.0
 11
370.5550029382806
 21
377.5511551362124
 31
0.0
  0
LINE
  5
5E92
330
18
100
AcDbEntity
  8
0
100
AcDbLine
 10
360.5550029382806
 20
357.5511551362124
 30
0.0
 11
355.5550029382806
 21
357.5511551362124
 31
0.0
  0
LINE
  5
5E93
330
18
100
AcDbEntity
  8
0
100
AcDbLine
 10
370.5550029382806
 20
357.5511551362124
 30
0.0
 11
365.5550029382806
 21
357.5511551362124
 31
0.0
  0
LINE
  5
5E94
330
18
100
AcDbEntity
  8
0
100
AcDbLine
 10
360.5550029382806
 20
382.5511551362124
 30
0.0
 11
355.5550029382806
 21
382.5511551362124
 31
0.0
  0
LINE
  5
5E95
330
18
100
AcDbEntity
  8
0
100
AcDbLine
 10
370.5550029382806
 20
382.5511551362124
 30
0.0
 11
365.5550029382806
 21
382.5511551362124
 31
0.0
  0
LINE
  5
5E99
330
18
100
AcDbEntity
  8
0
100
AcDbLine
 10
360.5550029382806
 20
377.5511551362124
 30
0.0
 11
355.5550029382806
 21
377.5511551362124
 31
0.0
  0
LINE
  5
5E9A
330
18
100
AcDbEntity
  8
0
100
AcDbLine
 10
370.5550029382806
 20
377.5511551362124
 30
0.0
 11
365.5550029382806
 21
377.5511551362124
 31
0.0
  0
LINE
  5
5E9B
330
18
100
AcDbEntity
  8
0
100
AcDbLine
 10
345.5550029382806
 20
357.5511551362124
 30
0.0
 11
345.5550029382806
 21
377.5511551362124
 31
0.0
  0
LINE
  5
5E9C
330
18
100
AcDbEntity
  8
0
100
AcDbLine
 10
340.5550029382806
 20
357.5511551362124
 30
0.0
 11
340.5550029382806
 21
377.5511551362124
 31
0.0
  0
LINE
  5
5E9D
330
18
100
AcDbEntity
  8
0
100
AcDbLine
 10
335.5550029382806
 20
357.5511551362124
 30
0.0
 11
335.5550029382806
 21
377.5511551362124
 31
0.0
  0
LINE
  5
5E9E
330
18
100
AcDbEntity
  8
0
100
AcDbLine
 10
350.5550029382806
 20
357.5511551362124
 30
0.0
 11
350.5550029382806
 21
377.5511551362124
 31
0.0
  0
LINE
  5
5E9F
330
18
100
AcDbEntity
  8
0
100
AcDbLine
 10
340.5550029382806
 20
357.5511551362124
 30
0.0
 11
335.5550029382806
 21
357.5511551362124
 31
0.0
  0
LINE
  5
5EA0
330
18
100
AcDbEntity
  8
0
100
AcDbLine
 10
350.5550029382806
 20
357.5511551362124
 30
0.0
 11
345.5550029382806
 21
357.5511551362124
 31
0.0
  0
LINE
  5
5EA1
330
18
100
AcDbEntity
  8
0
100
AcDbLine
 10
340.5550029382806
 20
382.5511551362124
 30
0.0
 11
335.5550029382806
 21
382.5511551362124
 31
0.0
  0
LINE
  5
5EA2
330
18
100
AcDbEntity
  8
0
100
AcDbLine
 10
340.5550029382806
 20
377.5511551362124
 30
0.0
 11
335.5550029382806
 21
377.5511551362124
 31
0.0
  0
LINE
  5
5EA3
330
18
100
AcDbEntity
  8
0
100
AcDbLine
 10
350.5550029382806
 20
382.5511551362124
 30
0.0
 11
345.5550029382806
 21
382.5511551362124
 31
0.0
  0
LINE
  5
5EA4
330
18
100
AcDbEntity
  8
0
100
AcDbLine
 10
350.5550029382806
 20
377.5511551362124
 30
0.0
 11
345.5550029382806
 21
377.5511551362124
 31
0.0
  0
LINE
  5
5EA5
330
18
100
AcDbEntity
  8
0
100
AcDbLine
 10
310.5550029382806
 20
347.5511551362123
 30
0.0
 11
305.5550029382806
 21
347.5511551362123
 31
0.0
  0
LINE
  5
5EA6
330
18
100
AcDbEntity
  8
0
100
AcDbLine
 10
310.5550029382806
 20
322.5511551362123
 30
0.0
 11
305.5550029382806
 21
322.5511551362123
 31
0.0
  0
LINE
  5
5EA7
330
18
100
AcDbEntity
  8
0
100
AcDbLine
 10
310.5550029382806
 20
327.5511551362124
 30
0.0
 11
305.5550029382806
 21
327.5511551362124
 31
0.0
  0
LINE
  5
5EA8
330
18
100
AcDbEntity
  8
0
100
AcDbLine
 10
330.5550029382806
 20
327.5511551362124
 30
0.0
 11
330.5550029382806
 21
347.5511551362123
 31
0.0
  0
LINE
  5
5EA9
330
18
100
AcDbEntity
  8
0
100
AcDbLine
 10
310.5550029382806
 20
327.5511551362124
 30
0.0
 11
310.5550029382806
 21
347.5511551362123
 31
0.0
  0
LINE
  5
5EAA
330
18
100
AcDbEntity
  8
0
100
AcDbLine
 10
320.5550029382806
 20
327.5511551362124
 30
0.0
 11
320.5550029382806
 21
347.5511551362123
 31
0.0
  0
LINE
  5
5EAB
330
18
100
AcDbEntity
  8
0
100
AcDbLine
 10
315.5550029382806
 20
327.5511551362124
 30
0.0
 11
315.5550029382806
 21
347.5511551362123
 31
0.0
  0
LINE
  5
5EAC
330
18
100
AcDbEntity
  8
0
100
AcDbLine
 10
325.5550029382806
 20
327.5511551362124
 30
0.0
 11
325.5550029382806
 21
347.5511551362123
 31
0.0
  0
LINE
  5
5EAD
330
18
100
AcDbEntity
  8
0
100
AcDbLine
 10
320.5550029382806
 20
322.5511551362123
 30
0.0
 11
315.5550029382806
 21
322.5511551362123
 31
0.0
  0
LINE
  5
5EAE
330
18
100
AcDbEntity
  8
0
100
AcDbLine
 10
330.5550029382806
 20
322.5511551362123
 30
0.0
 11
325.5550029382806
 21
322.5511551362123
 31
0.0
  0
LINE
  5
5EAF
330
18
100
AcDbEntity
  8
0
100
AcDbLine
 10
320.5550029382806
 20
327.5511551362124
 30
0.0
 11
315.5550029382806
 21
327.5511551362124
 31
0.0
  0
LINE
  5
5EB0
330
18
100
AcDbEntity
  8
0
100
AcDbLine
 10
330.5550029382806
 20
327.5511551362124
 30
0.0
 11
325.5550029382806
 21
327.5511551362124
 31
0.0
  0
LINE
  5
5EB1
330
18
100
AcDbEntity
  8
0
100
AcDbLine
 10
320.5550029382806
 20
347.5511551362123
 30
0.0
 11
315.5550029382806
 21
347.5511551362123
 31
0.0
  0
LINE
  5
5EB2
330
18
100
AcDbEntity
  8
0
100
AcDbLine
 10
330.5550029382806
 20
347.5511551362123
 30
0.0
 11
325.5550029382806
 21
347.5511551362123
 31
0.0
  0
LINE
  5
5EB3
330
18
100
AcDbEntity
  8
0
100
AcDbLine
 10
305.5550029382806
 20
327.5511551362124
 30
0.0
 11
305.5550029382806
 21
347.5511551362123
 31
0.0
  0
LINE
  5
5EB4
330
18
100
AcDbEntity
  8
0
100
AcDbLine
 10
300.5550029382806
 20
327.5511551362124
 30
0.0
 11
300.5550029382806
 21
347.5511551362123
 31
0.0
  0
LINE
  5
5EB5
330
18
100
AcDbEntity
  8
0
100
AcDbLine
 10
290.5550029382806
 20
327.5511551362124
 30
0.0
 11
290.5550029382806
 21
347.5511551362123
 31
0.0
  0
LINE
  5
5EB6
330
18
100
AcDbEntity
  8
0
100
AcDbLine
 10
295.5550029382806
 20
327.5511551362124
 30
0.0
 11
295.5550029382806
 21
347.5511551362123
 31
0.0
  0
LINE
  5
5EB7
330
18
100
AcDbEntity
  8
0
100
AcDbLine
 10
300.5550029382806
 20
322.5511551362123
 30
0.0
 11
295.5550029382806
 21
322.5511551362123
 31
0.0
  0
LINE
  5
5EB8
330
18
100
AcDbEntity
  8
0
100
AcDbLine
 10
300.5550029382806
 20
327.5511551362124
 30
0.0
 11
295.5550029382806
 21
327.5511551362124
 31
0.0
  0
LINE
  5
5EB9
330
18
100
AcDbEntity
  8
0
100
AcDbLine
 10
300.5550029382806
 20
347.5511551362123
 30
0.0
 11
295.5550029382806
 21
347.5511551362123
 31
0.0
  0
LINE
  5
5EBA
330
18
100
AcDbEntity
  8
0
100
AcDbLine
 10
310.5550029382806
 20
382.5511551362124
 30
0.0
 11
305.5550029382806
 21
382.5511551362124
 31
0.0
  0
LINE
  5
5EBB
330
18
100
AcDbEntity
  8
0
100
AcDbLine
 10
310.5550029382806
 20
377.5511551362124
 30
0.0
 11
305.5550029382806
 21
377.5511551362124
 31
0.0
  0
LINE
  5
5EBC
330
18
100
AcDbEntity
  8
0
100
AcDbLine
 10
310.5550029382806
 20
357.5511551362124
 30
0.0
 11
305.5550029382806
 21
357.5511551362124
 31
0.0
  0
LINE
  5
5EBD
330
18
100
AcDbEntity
  8
0
100
AcDbLine
 10
310.5550029382806
 20
357.5511551362124
 30
0.0
 11
310.5550029382806
 21
377.5511551362124
 31
0.0
  0
LINE
  5
5EBE
330
18
100
AcDbEntity
  8
0
100
AcDbLine
 10
325.5550029382806
 20
357.5511551362124
 30
0.0
 11
325.5550029382806
 21
377.5511551362124
 31
0.0
  0
LINE
  5
5EBF
330
18
100
AcDbEntity
  8
0
100
AcDbLine
 10
315.5550029382806
 20
357.5511551362124
 30
0.0
 11
315.5550029382806
 21
377.5511551362124
 31
0.0
  0
LINE
  5
5EC0
330
18
100
AcDbEntity
  8
0
100
AcDbLine
 10
320.5550029382806
 20
357.5511551362124
 30
0.0
 11
320.5550029382806
 21
377.5511551362124
 31
0.0
  0
LINE
  5
5EC1
330
18
100
AcDbEntity
  8
0
100
AcDbLine
 10
330.5550029382806
 20
357.5511551362124
 30
0.0
 11
330.5550029382806
 21
377.5511551362124
 31
0.0
  0
LINE
  5
5EC2
330
18
100
AcDbEntity
  8
0
100
AcDbLine
 10
330.5550029382806
 20
357.5511551362124
 30
0.0
 11
325.5550029382806
 21
357.5511551362124
 31
0.0
  0
LINE
  5
5EC3
330
18
100
AcDbEntity
  8
0
100
AcDbLine
 10
320.5550029382806
 20
357.5511551362124
 30
0.0
 11
315.5550029382806
 21
357.5511551362124
 31
0.0
  0
LINE
  5
5EC4
330
18
100
AcDbEntity
  8
0
100
AcDbLine
 10
330.5550029382806
 20
382.5511551362124
 30
0.0
 11
325.5550029382806
 21
382.5511551362124
 31
0.0
  0
LINE
  5
5EC5
330
18
100
AcDbEntity
  8
0
100
AcDbLine
 10
320.5550029382806
 20
382.5511551362124
 30
0.0
 11
315.5550029382806
 21
382.5511551362124
 31
0.0
  0
LINE
  5
5EC6
330
18
100
AcDbEntity
  8
0
100
AcDbLine
 10
330.5550029382806
 20
377.5511551362124
 30
0.0
 11
325.5550029382806
 21
377.5511551362124
 31
0.0
  0
LINE
  5
5EC7
330
18
100
AcDbEntity
  8
0
100
AcDbLine
 10
320.5550029382806
 20
377.5511551362124
 30
0.0
 11
315.5550029382806
 21
377.5511551362124
 31
0.0
  0
LINE
  5
5EC8
330
18
100
AcDbEntity
  8
0
100
AcDbLine
 10
295.5550029382806
 20
357.5511551362124
 30
0.0
 11
295.5550029382806
 21
377.5511551362124
 31
0.0
  0
LINE
  5
5EC9
330
18
100
AcDbEntity
  8
0
100
AcDbLine
 10
290.5550029382806
 20
357.5511551362124
 30
0.0
 11
290.5550029382806
 21
377.5511551362124
 31
0.0
  0
LINE
  5
5ECA
330
18
100
AcDbEntity
  8
0
100
AcDbLine
 10
300.5550029382806
 20
357.5511551362124
 30
0.0
 11
300.5550029382806
 21
377.5511551362124
 31
0.0
  0
LINE
  5
5ECB
330
18
100
AcDbEntity
  8
0
100
AcDbLine
 10
305.5550029382806
 20
357.5511551362124
 30
0.0
 11
305.5550029382806
 21
377.5511551362124
 31
0.0
  0
LINE
  5
5ECC
330
18
100
AcDbEntity
  8
0
100
AcDbLine
 10
300.5550029382806
 20
357.5511551362124
 30
0.0
 11
295.5550029382806
 21
357.5511551362124
 31
0.0
  0
LINE
  5
5ECD
330
18
100
AcDbEntity
  8
0
100
AcDbLine
 10
300.5550029382806
 20
382.5511551362124
 30
0.0
 11
295.5550029382806
 21
382.5511551362124
 31
0.0
  0
LINE
  5
5ECE
330
18
100
AcDbEntity
  8
0
100
AcDbLine
 10
300.5550029382806
 20
377.5511551362124
 30
0.0
 11
295.5550029382806
 21
377.5511551362124
 31
0.0
  0
LINE
  5
5ECF
330
18
100
AcDbEntity
  8
0
100
AcDbLine
 10
375.5550029382806
 20
430.5511551362124
 30
0.0
 11
375.5550029382806
 21
407.5511551362124
 31
0.0
  0
LINE
  5
5ED0
330
18
100
AcDbEntity
  8
0
100
AcDbLine
 10
374.5550029382806
 20
429.5511551362128
 30
0.0
 11
374.5550029382806
 21
402.5511551362123
 31
0.0
  0
LINE
  5
5ED1
330
18
100
AcDbEntity
  8
0
100
AcDbLine
 10
372.5550029382806
 20
400.5511551362124
 30
0.0
 11
372.5550029382806
 21
429.5511551362124
 31
0.0
  0
LINE
  5
5ED2
330
18
100
AcDbEntity
  8
0
100
AcDbLine
 10
360.5550029382806
 20
402.5511551362123
 30
0.0
 11
355.5550029382806
 21
402.5511551362123
 31
0.0
  0
LINE
  5
5ED3
330
18
100
AcDbEntity
  8
0
100
AcDbLine
 10
375.5550029382806
 20
407.5511551362124
 30
0.0
 11
375.5550029382806
 21
402.5511551362123
 31
0.0
  0
LINE
  5
5ED4
330
18
100
AcDbEntity
  8
0
100
AcDbLine
 10
370.5550029382806
 20
402.5511551362123
 30
0.0
 11
365.5550029382806
 21
402.5511551362123
 31
0.0
  0
LINE
  5
5ED5
330
18
100
AcDbEntity
  8
0
100
AcDbLine
 10
375.5550029382806
 20
400.5511551362124
 30
0.0
 11
372.5550029382806
 21
400.5511551362124
 31
0.0
  0
LINE
  5
5ED6
330
18
100
AcDbEntity
  8
0
100
AcDbLine
 10
375.5550029382806
 20
402.5511551362123
 30
0.0
 11
374.5550029382806
 21
402.5511551362123
 31
0.0
  0
LINE
  5
5ED7
330
18
100
AcDbEntity
  8
0
100
AcDbLine
 10
372.5550029382806
 20
429.5511551362124
 30
0.0
 11
374.5550029382806
 21
429.5511551362128
 31
0.0
  0
LINE
  5
5ED8
330
18
100
AcDbEntity
  8
0
100
AcDbLine
 10
340.5550029382806
 20
402.5511551362123
 30
0.0
 11
335.5550029382806
 21
402.5511551362123
 31
0.0
  0
LINE
  5
5ED9
330
18
100
AcDbEntity
  8
0
100
AcDbLine
 10
350.5550029382806
 20
402.5511551362123
 30
0.0
 11
345.5550029382806
 21
402.5511551362123
 31
0.0
  0
LINE
  5
5EDA
330
18
100
AcDbEntity
  8
0
100
AcDbLine
 10
310.5550029382806
 20
402.5511551362123
 30
0.0
 11
305.5550029382806
 21
402.5511551362123
 31
0.0
  0
LINE
  5
5EDB
330
18
100
AcDbEntity
  8
0
100
AcDbLine
 10
330.5550029382806
 20
402.5511551362123
 30
0.0
 11
325.5550029382806
 21
402.5511551362123
 31
0.0
  0
LINE
  5
5EDC
330
18
100
AcDbEntity
  8
0
100
AcDbLine
 10
320.5550029382806
 20
402.5511551362123
 30
0.0
 11
315.5550029382806
 21
402.5511551362123
 31
0.0
  0
LINE
  5
5EDD
330
18
100
AcDbEntity
  8
0
100
AcDbLine
 10
300.5550029382806
 20
402.5511551362123
 30
0.0
 11
295.5550029382806
 21
402.5511551362123
 31
0.0
  0
LINE
  5
5EDE
330
18
100
AcDbEntity
  8
0
100
AcDbLine
 10
210.5550029382806
 20
382.5511551362124
 30
0.0
 11
210.5550029382806
 21
402.5511551362123
 31
0.0
  0
LINE
  5
5EDF
330
18
100
AcDbEntity
  8
0
100
AcDbLine
 10
215.5550029382806
 20
382.5511551362124
 30
0.0
 11
215.5550029382806
 21
402.5511551362123
 31
0.0
  0
LINE
  5
5EE0
330
18
100
AcDbEntity
  8
0
100
AcDbLine
 10
205.5550029382806
 20
382.5511551362124
 30
0.0
 11
205.5550029382806
 21
402.5511551362123
 31
0.0
  0
LINE
  5
5EE1
330
18
100
AcDbEntity
  8
0
100
AcDbLine
 10
245.5550029382806
 20
382.5511551362124
 30
0.0
 11
245.5550029382806
 21
402.5511551362123
 31
0.0
  0
LINE
  5
5EE2
330
18
100
AcDbEntity
  8
0
100
AcDbLine
 10
240.5550029382806
 20
382.5511551362124
 30
0.0
 11
240.5550029382806
 21
402.5511551362123
 31
0.0
  0
LINE
  5
5EE3
330
18
100
AcDbEntity
  8
0
100
AcDbLine
 10
235.5550029382806
 20
382.5511551362124
 30
0.0
 11
235.5550029382806
 21
402.5511551362123
 31
0.0
  0
LINE
  5
5EE4
330
18
100
AcDbEntity
  8
0
100
AcDbLine
 10
225.5550029382806
 20
382.5511551362124
 30
0.0
 11
225.5550029382806
 21
402.5511551362123
 31
0.0
  0
LINE
  5
5EE5
330
18
100
AcDbEntity
  8
0
100
AcDbLine
 10
230.5550029382806
 20
382.5511551362124
 30
0.0
 11
230.5550029382806
 21
402.5511551362123
 31
0.0
  0
LINE
  5
5EE6
330
18
100
AcDbEntity
  8
0
100
AcDbLine
 10
220.5550029382806
 20
382.5511551362124
 30
0.0
 11
220.5550029382806
 21
402.5511551362123
 31
0.0
  0
LINE
  5
5EE7
330
18
100
AcDbEntity
  8
0
100
AcDbLine
 10
250.5550029382806
 20
382.5511551362124
 30
0.0
 11
250.5550029382806
 21
402.5511551362123
 31
0.0
  0
LINE
  5
5EE8
330
18
100
AcDbEntity
  8
0
100
AcDbLine
 10
255.5550029382806
 20
382.5511551362124
 30
0.0
 11
255.5550029382806
 21
402.5511551362123
 31
0.0
  0
LINE
  5
5EE9
330
18
100
AcDbEntity
  8
0
100
AcDbLine
 10
270.5550029382806
 20
382.5511551362124
 30
0.0
 11
270.5550029382806
 21
402.5511551362123
 31
0.0
  0
LINE
  5
5EEA
330
18
100
AcDbEntity
  8
0
100
AcDbLine
 10
260.5550029382806
 20
382.5511551362124
 30
0.0
 11
260.5550029382806
 21
402.5511551362123
 31
0.0
  0
LINE
  5
5EEB
330
18
100
AcDbEntity
  8
0
100
AcDbLine
 10
265.5550029382806
 20
382.5511551362124
 30
0.0
 11
265.5550029382806
 21
402.5511551362123
 31
0.0
  0
LINE
  5
5EEC
330
18
100
AcDbEntity
  8
0
100
AcDbLine
 10
285.5550029382806
 20
382.5511551362124
 30
0.0
 11
285.5550029382806
 21
402.5511551362123
 31
0.0
  0
LINE
  5
5EED
330
18
100
AcDbEntity
  8
0
100
AcDbLine
 10
275.5550029382806
 20
382.5511551362124
 30
0.0
 11
275.5550029382806
 21
402.5511551362123
 31
0.0
  0
LINE
  5
5EEE
330
18
100
AcDbEntity
  8
0
100
AcDbLine
 10
280.5550029382806
 20
382.5511551362124
 30
0.0
 11
280.5550029382806
 21
402.5511551362123
 31
0.0
  0
LINE
  5
5EEF
330
18
100
AcDbEntity
  8
0
100
AcDbLine
 10
280.5550029382806
 20
327.5511551362124
 30
0.0
 11
280.5550029382806
 21
347.5511551362123
 31
0.0
  0
LINE
  5
5EF0
330
18
100
AcDbEntity
  8
0
100
AcDbLine
 10
275.5550029382806
 20
327.5511551362124
 30
0.0
 11
275.5550029382806
 21
347.5511551362123
 31
0.0
  0
LINE
  5
5EF1
330
18
100
AcDbEntity
  8
0
100
AcDbLine
 10
285.5550029382806
 20
327.5511551362124
 30
0.0
 11
285.5550029382806
 21
347.5511551362123
 31
0.0
  0
LINE
  5
5EF2
330
18
100
AcDbEntity
  8
0
100
AcDbLine
 10
265.5550029382806
 20
327.5511551362124
 30
0.0
 11
265.5550029382806
 21
347.5511551362123
 31
0.0
  0
LINE
  5
5EF3
330
18
100
AcDbEntity
  8
0
100
AcDbLine
 10
270.5550029382806
 20
327.5511551362124
 30
0.0
 11
270.5550029382806
 21
347.5511551362123
 31
0.0
  0
LINE
  5
5EF4
330
18
100
AcDbEntity
  8
0
100
AcDbLine
 10
280.5550029382806
 20
322.5511551362123
 30
0.0
 11
275.5550029382806
 21
322.5511551362123
 31
0.0
  0
LINE
  5
5EF5
330
18
100
AcDbEntity
  8
0
100
AcDbLine
 10
270.5550029382806
 20
322.5511551362123
 30
0.0
 11
265.5550029382806
 21
322.5511551362123
 31
0.0
  0
LINE
  5
5EF6
330
18
100
AcDbEntity
  8
0
100
AcDbLine
 10
280.5550029382806
 20
327.5511551362124
 30
0.0
 11
275.5550029382806
 21
327.5511551362124
 31
0.0
  0
LINE
  5
5EF7
330
18
100
AcDbEntity
  8
0
100
AcDbLine
 10
270.5550029382806
 20
327.5511551362124
 30
0.0
 11
265.5550029382806
 21
327.5511551362124
 31
0.0
  0
LINE
  5
5EF8
330
18
100
AcDbEntity
  8
0
100
AcDbLine
 10
280.5550029382806
 20
347.5511551362123
 30
0.0
 11
275.5550029382806
 21
347.5511551362123
 31
0.0
  0
LINE
  5
5EF9
330
18
100
AcDbEntity
  8
0
100
AcDbLine
 10
270.5550029382806
 20
347.5511551362123
 30
0.0
 11
265.5550029382806
 21
347.5511551362123
 31
0.0
  0
LINE
  5
5EFA
330
18
100
AcDbEntity
  8
0
100
AcDbLine
 10
255.5550029382806
 20
327.5511551362124
 30
0.0
 11
255.5550029382806
 21
347.5511551362123
 31
0.0
  0
LINE
  5
5EFB
330
18
100
AcDbEntity
  8
0
100
AcDbLine
 10
250.5550029382806
 20
327.5511551362124
 30
0.0
 11
250.5550029382806
 21
347.5511551362123
 31
0.0
  0
LINE
  5
5EFC
330
18
100
AcDbEntity
  8
0
100
AcDbLine
 10
245.5550029382806
 20
327.5511551362124
 30
0.0
 11
245.5550029382806
 21
347.5511551362123
 31
0.0
  0
LINE
  5
5EFD
330
18
100
AcDbEntity
  8
0
100
AcDbLine
 10
260.5550029382806
 20
327.5511551362124
 30
0.0
 11
260.5550029382806
 21
347.5511551362123
 31
0.0
  0
LINE
  5
5EFE
330
18
100
AcDbEntity
  8
0
100
AcDbLine
 10
250.5550029382806
 20
322.5511551362123
 30
0.0
 11
245.5550029382806
 21
322.5511551362123
 31
0.0
  0
LINE
  5
5EFF
330
18
100
AcDbEntity
  8
0
100
AcDbLine
 10
250.5550029382806
 20
327.5511551362124
 30
0.0
 11
245.5550029382806
 21
327.5511551362124
 31
0.0
  0
LINE
  5
5F00
330
18
100
AcDbEntity
  8
0
100
AcDbLine
 10
260.5550029382806
 20
322.5511551362123
 30
0.0
 11
255.5550029382806
 21
322.5511551362123
 31
0.0
  0
LINE
  5
5F01
330
18
100
AcDbEntity
  8
0
100
AcDbLine
 10
260.5550029382806
 20
327.5511551362124
 30
0.0
 11
255.5550029382806
 21
327.5511551362124
 31
0.0
  0
LINE
  5
5F02
330
18
100
AcDbEntity
  8
0
100
AcDbLine
 10
250.5550029382806
 20
347.5511551362123
 30
0.0
 11
245.5550029382806
 21
347.5511551362123
 31
0.0
  0
LINE
  5
5F03
330
18
100
AcDbEntity
  8
0
100
AcDbLine
 10
260.5550029382806
 20
347.5511551362123
 30
0.0
 11
255.5550029382806
 21
347.5511551362123
 31
0.0
  0
LINE
  5
5F04
330
18
100
AcDbEntity
  8
0
100
AcDbLine
 10
265.5550029382806
 20
357.5511551362124
 30
0.0
 11
265.5550029382806
 21
377.5511551362124
 31
0.0
  0
LINE
  5
5F05
330
18
100
AcDbEntity
  8
0
100
AcDbLine
 10
270.5550029382806
 20
357.5511551362124
 30
0.0
 11
270.5550029382806
 21
377.5511551362124
 31
0.0
  0
LINE
  5
5F06
330
18
100
AcDbEntity
  8
0
100
AcDbLine
 10
285.5550029382806
 20
357.5511551362124
 30
0.0
 11
285.5550029382806
 21
377.5511551362124
 31
0.0
  0
LINE
  5
5F07
330
18
100
AcDbEntity
  8
0
100
AcDbLine
 10
275.5550029382806
 20
357.5511551362124
 30
0.0
 11
275.5550029382806
 21
377.5511551362124
 31
0.0
  0
LINE
  5
5F08
330
18
100
AcDbEntity
  8
0
100
AcDbLine
 10
280.5550029382806
 20
357.5511551362124
 30
0.0
 11
280.5550029382806
 21
377.5511551362124
 31
0.0
  0
LINE
  5
5F09
330
18
100
AcDbEntity
  8
0
100
AcDbLine
 10
270.5550029382806
 20
357.5511551362124
 30
0.0
 11
265.5550029382806
 21
357.5511551362124
 31
0.0
  0
LINE
  5
5F0A
330
18
100
AcDbEntity
  8
0
100
AcDbLine
 10
280.5550029382806
 20
357.5511551362124
 30
0.0
 11
275.5550029382806
 21
357.5511551362124
 31
0.0
  0
LINE
  5
5F0B
330
18
100
AcDbEntity
  8
0
100
AcDbLine
 10
270.5550029382806
 20
382.5511551362124
 30
0.0
 11
265.5550029382806
 21
382.5511551362124
 31
0.0
  0
LINE
  5
5F0C
330
18
100
AcDbEntity
  8
0
100
AcDbLine
 10
280.5550029382806
 20
382.5511551362124
 30
0.0
 11
275.5550029382806
 21
382.5511551362124
 31
0.0
  0
LINE
  5
5F0D
330
18
100
AcDbEntity
  8
0
100
AcDbLine
 10
270.5550029382806
 20
377.5511551362124
 30
0.0
 11
265.5550029382806
 21
377.5511551362124
 31
0.0
  0
LINE
  5
5F0E
330
18
100
AcDbEntity
  8
0
100
AcDbLine
 10
280.5550029382806
 20
377.5511551362124
 30
0.0
 11
275.5550029382806
 21
377.5511551362124
 31
0.0
  0
LINE
  5
5F0F
330
18
100
AcDbEntity
  8
0
100
AcDbLine
 10
245.5550029382806
 20
357.5511551362124
 30
0.0
 11
245.5550029382806
 21
377.5511551362124
 31
0.0
  0
LINE
  5
5F10
330
18
100
AcDbEntity
  8
0
100
AcDbLine
 10
260.5550029382806
 20
357.5511551362124
 30
0.0
 11
260.5550029382806
 21
377.5511551362124
 31
0.0
  0
LINE
  5
5F11
330
18
100
AcDbEntity
  8
0
100
AcDbLine
 10
250.5550029382806
 20
357.5511551362124
 30
0.0
 11
250.5550029382806
 21
377.5511551362124
 31
0.0
  0
LINE
  5
5F12
330
18
100
AcDbEntity
  8
0
100
AcDbLine
 10
255.5550029382806
 20
357.5511551362124
 30
0.0
 11
255.5550029382806
 21
377.5511551362124
 31
0.0
  0
LINE
  5
5F13
330
18
100
AcDbEntity
  8
0
100
AcDbLine
 10
250.5550029382806
 20
357.5511551362124
 30
0.0
 11
245.5550029382806
 21
357.5511551362124
 31
0.0
  0
LINE
  5
5F14
330
18
100
AcDbEntity
  8
0
100
AcDbLine
 10
260.5550029382806
 20
357.5511551362124
 30
0.0
 11
255.5550029382806
 21
357.5511551362124
 31
0.0
  0
LINE
  5
5F15
330
18
100
AcDbEntity
  8
0
100
AcDbLine
 10
250.5550029382806
 20
382.5511551362124
 30
0.0
 11
245.5550029382806
 21
382.5511551362124
 31
0.0
  0
LINE
  5
5F16
330
18
100
AcDbEntity
  8
0
100
AcDbLine
 10
250.5550029382806
 20
377.5511551362124
 30
0.0
 11
245.5550029382806
 21
377.5511551362124
 31
0.0
  0
LINE
  5
5F17
330
18
100
AcDbEntity
  8
0
100
AcDbLine
 10
260.5550029382806
 20
382.5511551362124
 30
0.0
 11
255.5550029382806
 21
382.5511551362124
 31
0.0
  0
LINE
  5
5F18
330
18
100
AcDbEntity
  8
0
100
AcDbLine
 10
260.5550029382806
 20
377.5511551362124
 30
0.0
 11
255.5550029382806
 21
377.5511551362124
 31
0.0
  0
LINE
  5
5F19
330
18
100
AcDbEntity
  8
0
100
AcDbLine
 10
220.5550029382806
 20
347.5511551362123
 30
0.0
 11
215.5550029382806
 21
347.5511551362123
 31
0.0
  0
LINE
  5
5F1A
330
18
100
AcDbEntity
  8
0
100
AcDbLine
 10
220.5550029382806
 20
327.5511551362124
 30
0.0
 11
215.5550029382806
 21
327.5511551362124
 31
0.0
  0
LINE
  5
5F1B
330
18
100
AcDbEntity
  8
0
100
AcDbLine
 10
220.5550029382806
 20
322.5511551362123
 30
0.0
 11
215.5550029382806
 21
322.5511551362123
 31
0.0
  0
LINE
  5
5F1C
330
18
100
AcDbEntity
  8
0
100
AcDbLine
 10
240.5550029382806
 20
327.5511551362124
 30
0.0
 11
240.5550029382806
 21
347.5511551362123
 31
0.0
  0
LINE
  5
5F1D
330
18
100
AcDbEntity
  8
0
100
AcDbLine
 10
235.5550029382806
 20
327.5511551362124
 30
0.0
 11
235.5550029382806
 21
347.5511551362123
 31
0.0
  0
LINE
  5
5F1E
330
18
100
AcDbEntity
  8
0
100
AcDbLine
 10
225.5550029382806
 20
327.5511551362124
 30
0.0
 11
225.5550029382806
 21
347.5511551362123
 31
0.0
  0
LINE
  5
5F1F
330
18
100
AcDbEntity
  8
0
100
AcDbLine
 10
230.5550029382806
 20
327.5511551362124
 30
0.0
 11
230.5550029382806
 21
347.5511551362123
 31
0.0
  0
LINE
  5
5F20
330
18
100
AcDbEntity
  8
0
100
AcDbLine
 10
220.5550029382806
 20
327.5511551362124
 30
0.0
 11
220.5550029382806
 21
347.5511551362123
 31
0.0
  0
LINE
  5
5F21
330
18
100
AcDbEntity
  8
0
100
AcDbLine
 10
240.5550029382806
 20
327.5511551362124
 30
0.0
 11
235.5550029382806
 21
327.5511551362124
 31
0.0
  0
LINE
  5
5F22
330
18
100
AcDbEntity
  8
0
100
AcDbLine
 10
230.5550029382806
 20
327.5511551362124
 30
0.0
 11
225.5550029382806
 21
327.5511551362124
 31
0.0
  0
LINE
  5
5F23
330
18
100
AcDbEntity
  8
0
100
AcDbLine
 10
240.5550029382806
 20
322.5511551362123
 30
0.0
 11
235.5550029382806
 21
322.5511551362123
 31
0.0
  0
LINE
  5
5F24
330
18
100
AcDbEntity
  8
0
100
AcDbLine
 10
230.5550029382806
 20
322.5511551362123
 30
0.0
 11
225.5550029382806
 21
322.5511551362123
 31
0.0
  0
LINE
  5
5F25
330
18
100
AcDbEntity
  8
0
100
AcDbLine
 10
240.5550029382806
 20
347.5511551362123
 30
0.0
 11
235.5550029382806
 21
347.5511551362123
 31
0.0
  0
LINE
  5
5F26
330
18
100
AcDbEntity
  8
0
100
AcDbLine
 10
230.5550029382806
 20
347.5511551362123
 30
0.0
 11
225.5550029382806
 21
347.5511551362123
 31
0.0
  0
LINE
  5
5F27
330
18
100
AcDbEntity
  8
0
100
AcDbLine
 10
205.5550029382806
 20
327.5511551362124
 30
0.0
 11
205.5550029382806
 21
347.5511551362123
 31
0.0
  0
LINE
  5
5F28
330
18
100
AcDbEntity
  8
0
100
AcDbLine
 10
210.5550029382806
 20
327.5511551362124
 30
0.0
 11
210.5550029382806
 21
347.5511551362123
 31
0.0
  0
LINE
  5
5F29
330
18
100
AcDbEntity
  8
0
100
AcDbLine
 10
215.5550029382806
 20
327.5511551362124
 30
0.0
 11
215.5550029382806
 21
347.5511551362123
 31
0.0
  0
LINE
  5
5F2A
330
18
100
AcDbEntity
  8
0
100
AcDbLine
 10
210.5550029382806
 20
327.5511551362124
 30
0.0
 11
205.5550029382806
 21
327.5511551362124
 31
0.0
  0
LINE
  5
5F2B
330
18
100
AcDbEntity
  8
0
100
AcDbLine
 10
210.5550029382806
 20
322.5511551362123
 30
0.0
 11
205.5550029382806
 21
322.5511551362123
 31
0.0
  0
LINE
  5
5F2F
330
18
100
AcDbEntity
  8
0
100
AcDbLine
 10
210.5550029382806
 20
347.5511551362123
 30
0.0
 11
205.5550029382806
 21
347.5511551362123
 31
0.0
  0
LINE
  5
5F30
330
18
100
AcDbEntity
  8
0
100
AcDbLine
 10
220.5550029382806
 20
382.5511551362124
 30
0.0
 11
215.5550029382806
 21
382.5511551362124
 31
0.0
  0
LINE
  5
5F31
330
18
100
AcDbEntity
  8
0
100
AcDbLine
 10
220.5550029382806
 20
377.5511551362124
 30
0.0
 11
215.5550029382806
 21
377.5511551362124
 31
0.0
  0
LINE
  5
5F32
330
18
100
AcDbEntity
  8
0
100
AcDbLine
 10
220.5550029382806
 20
357.5511551362124
 30
0.0
 11
215.5550029382806
 21
357.5511551362124
 31
0.0
  0
LINE
  5
5F33
330
18
100
AcDbEntity
  8
0
100
AcDbLine
 10
240.5550029382806
 20
357.5511551362124
 30
0.0
 11
240.5550029382806
 21
377.5511551362124
 31
0.0
  0
LINE
  5
5F34
330
18
100
AcDbEntity
  8
0
100
AcDbLine
 10
235.5550029382806
 20
357.5511551362124
 30
0.0
 11
235.5550029382806
 21
377.5511551362124
 31
0.0
  0
LINE
  5
5F35
330
18
100
AcDbEntity
  8
0
100
AcDbLine
 10
225.5550029382806
 20
357.5511551362124
 30
0.0
 11
225.5550029382806
 21
377.5511551362124
 31
0.0
  0
LINE
  5
5F36
330
18
100
AcDbEntity
  8
0
100
AcDbLine
 10
230.5550029382806
 20
357.5511551362124
 30
0.0
 11
230.5550029382806
 21
377.5511551362124
 31
0.0
  0
LINE
  5
5F37
330
18
100
AcDbEntity
  8
0
100
AcDbLine
 10
220.5550029382806
 20
357.5511551362124
 30
0.0
 11
220.5550029382806
 21
377.5511551362124
 31
0.0
  0
LINE
  5
5F38
330
18
100
AcDbEntity
  8
0
100
AcDbLine
 10
240.5550029382806
 20
357.5511551362124
 30
0.0
 11
235.5550029382806
 21
357.5511551362124
 31
0.0
  0
LINE
  5
5F39
330
18
100
AcDbEntity
  8
0
100
AcDbLine
 10
230.5550029382806
 20
357.5511551362124
 30
0.0
 11
225.5550029382806
 21
357.5511551362124
 31
0.0
  0
LINE
  5
5F3A
330
18
100
AcDbEntity
  8
0
100
AcDbLine
 10
240.5550029382806
 20
382.5511551362124
 30
0.0
 11
235.5550029382806
 21
382.5511551362124
 31
0.0
  0
LINE
  5
5F3B
330
18
100
AcDbEntity
  8
0
100
AcDbLine
 10
230.5550029382806
 20
382.5511551362124
 30
0.0
 11
225.5550029382806
 21
382.5511551362124
 31
0.0
  0
LINE
  5
5F3C
330
18
100
AcDbEntity
  8
0
100
AcDbLine
 10
240.5550029382806
 20
377.5511551362124
 30
0.0
 11
235.5550029382806
 21
377.5511551362124
 31
0.0
  0
LINE
  5
5F3D
330
18
100
AcDbEntity
  8
0
100
AcDbLine
 10
230.5550029382806
 20
377.5511551362124
 30
0.0
 11
225.5550029382806
 21
377.5511551362124
 31
0.0
  0
LINE
  5
5F3E
330
18
100
AcDbEntity
  8
0
100
AcDbLine
 10
210.5550029382806
 20
357.5511551362124
 30
0.0
 11
210.5550029382806
 21
377.5511551362124
 31
0.0
  0
LINE
  5
5F3F
330
18
100
AcDbEntity
  8
0
100
AcDbLine
 10
215.5550029382806
 20
357.5511551362124
 30
0.0
 11
215.5550029382806
 21
377.5511551362124
 31
0.0
  0
LINE
  5
5F40
330
18
100
AcDbEntity
  8
0
100
AcDbLine
 10
205.5550029382806
 20
357.5511551362124
 30
0.0
 11
205.5550029382806
 21
377.5511551362124
 31
0.0
  0
LINE
  5
5F41
330
18
100
AcDbEntity
  8
0
100
AcDbLine
 10
210.5550029382806
 20
357.5511551362124
 30
0.0
 11
205.5550029382806
 21
357.5511551362124
 31
0.0
  0
LINE
  5
5F42
330
18
100
AcDbEntity
  8
0
100
AcDbLine
 10
210.5550029382806
 20
382.5511551362124
 30
0.0
 11
205.5550029382806
 21
382.5511551362124
 31
0.0
  0
LINE
  5
5F46
330
18
100
AcDbEntity
  8
0
100
AcDbLine
 10
210.5550029382806
 20
377.5511551362124
 30
0.0
 11
205.5550029382806
 21
377.5511551362124
 31
0.0
  0
LINE
  5
5F47
330
18
100
AcDbEntity
  8
0
100
AcDbLine
 10
270.5550029382806
 20
402.5511551362123
 30
0.0
 11
265.5550029382806
 21
402.5511551362123
 31
0.0
  0
LINE
  5
5F48
330
18
100
AcDbEntity
  8
0
100
AcDbLine
 10
280.5550029382806
 20
402.5511551362123
 30
0.0
 11
275.5550029382806
 21
402.5511551362123
 31
0.0
  0
LINE
  5
5F49
330
18
100
AcDbEntity
  8
0
100
AcDbLine
 10
250.5550029382806
 20
402.5511551362123
 30
0.0
 11
245.5550029382806
 21
402.5511551362123
 31
0.0
  0
LINE
  5
5F4A
330
18
100
AcDbEntity
  8
0
100
AcDbLine
 10
260.5550029382806
 20
402.5511551362123
 30
0.0
 11
255.5550029382806
 21
402.5511551362123
 31
0.0
  0
LINE
  5
5F4B
330
18
100
AcDbEntity
  8
0
100
AcDbLine
 10
220.5550029382806
 20
402.5511551362123
 30
0.0
 11
215.5550029382806
 21
402.5511551362123
 31
0.0
  0
LINE
  5
5F4C
330
18
100
AcDbEntity
  8
0
100
AcDbLine
 10
240.5550029382806
 20
402.5511551362123
 30
0.0
 11
235.5550029382806
 21
402.5511551362123
 31
0.0
  0
LINE
  5
5F4D
330
18
100
AcDbEntity
  8
0
100
AcDbLine
 10
230.5550029382806
 20
402.5511551362123
 30
0.0
 11
225.5550029382806
 21
402.5511551362123
 31
0.0
  0
LINE
  5
5F4E
330
18
100
AcDbEntity
  8
0
100
AcDbLine
 10
197.5550029382809
 20
429.5511551362124
 30
0.0
 11
197.5550029382808
 21
402.5511551362123
 31
0.0
  0
LINE
  5
5F4F
330
18
100
AcDbEntity
  8
0
100
AcDbLine
 10
199.5550029382808
 20
400.5511551362124
 30
0.0
 11
199.5550029382808
 21
429.5511551362124
 31
0.0
  0
LINE
  5
5F50
330
18
100
AcDbEntity
  8
0
100
AcDbLine
 10
210.5550029382806
 20
402.5511551362123
 30
0.0
 11
205.5550029382806
 21
402.5511551362123
 31
0.0
  0
LINE
  5
5F51
330
18
100
AcDbEntity
  8
0
100
AcDbLine
 10
197.5550029382808
 20
429.5511551362128
 30
0.0
 11
199.5550029382808
 21
429.5511551362124
 31
0.0
  0
LINE
  5
5F52
330
18
100
AcDbEntity
  8
0
100
AcDbLine
 10
196.5550029382808
 20
400.5511551362124
 30
0.0
 11
196.5550029382808
 21
292.5511551362128
 31
0.0
  0
LINE
  5
5F53
330
18
100
AcDbEntity
  8
0
100
AcDbLine
 10
196.5550029382808
 20
430.5511551362124
 30
0.0
 11
196.5550029382808
 21
407.5511551362124
 31
0.0
  0
LINE
  5
5F54
330
18
100
AcDbEntity
  8
0
100
AcDbLine
 10
196.5550029382808
 20
407.5511551362124
 30
0.0
 11
196.5550029382808
 21
402.5511551362123
 31
0.0
  0
LINE
  5
5F99
330
18
100
AcDbEntity
  8
0
100
AcDbLine
 10
41.35848628078292
 20
510.4691662387407
 30
0.0
 11
41.35848628078292
 21
512.3844884695456
 31
0.0
  0
LINE
  5
5F9A
330
18
100
AcDbEntity
  8
0
100
AcDbLine
 10
42.69181961411629
 20
510.4691662387407
 30
0.0
 11
42.69181961411629
 21
512.3844884695456
 31
0.0
  0
CIRCLE
  5
5F9B
330
18
100
AcDbEntity
  8
0
100
AcDbCircle
 10
42.02515294744955
 20
513.0511551362124
 30
0.0
 40
4.0
  0
CIRCLE
  5
5F9C
330
18
100
AcDbEntity
  8
0
100
AcDbCircle
 10
42.02515294744955
 20
513.0511551362124
 30
0.0
 40
3.333333333333333
  0
ARC
  5
5F9D
330
18
100
AcDbEntity
  8
0
100
AcDbCircle
 10
42.02515294744955
 20
513.0511551362124
 30
0.0
 40
2.666666666666666
100
AcDbArc
 50
255.5224878140721
 51
284.4775121859278
  0
ARC
  5
5F9E
330
18
100
AcDbEntity
  8
0
100
AcDbCircle
 10
42.02515294744955
 20
513.0511551362124
 30
0.0
 40
2.666666666666666
100
AcDbArc
 50
75.52248781407212
 51
104.4775121859278
  0
LINE
  5
5F9F
330
18
100
AcDbEntity
  8
0
100
AcDbLine
 10
41.35848628078292
 20
513.7178218028791
 30
0.0
 11
41.35848628078292
 21
515.6331440336841
 31
0.0
  0
ARC
  5
5FA0
330
18
100
AcDbEntity
  8
0
100
AcDbCircle
 10
42.02515294744955
 20
513.0511551362124
 30
0.0
 40
2.666666666666666
100
AcDbArc
 50
165.5224878140701
 51
194.4775121859299
  0
LINE
  5
5FA1
330
18
100
AcDbEntity
  8
0
100
AcDbLine
 10
39.44316404997846
 20
513.7178218028791
 30
0.0
 11
41.35848628078292
 21
513.7178218028791
 31
0.0
  0
LINE
  5
5FA2
330
18
100
AcDbEntity
  8
0
100
AcDbLine
 10
39.44316404997846
 20
512.3844884695456
 30
0.0
 11
41.35848628078292
 21
512.3844884695456
 31
0.0
  0
LINE
  5
5FA3
330
18
100
AcDbEntity
  8
0
100
AcDbLine
 10
42.69181961411629
 20
513.7178218028791
 30
0.0
 11
44.60714184492132
 21
513.7178218028791
 31
0.0
  0
LINE
  5
5FA4
330
18
100
AcDbEntity
  8
0
100
AcDbLine
 10
42.69181961411629
 20
513.7178218028791
 30
0.0
 11
42.69181961411629
 21
515.6331440336841
 31
0.0
  0
LINE
  5
5FA5
330
18
100
AcDbEntity
  8
0
100
AcDbLine
 10
42.69181961411629
 20
512.3844884695456
 30
0.0
 11
44.60714184492132
 21
512.3844884695456
 31
0.0
  0
ARC
  5
5FA6
330
18
100
AcDbEntity
  8
0
100
AcDbCircle
 10
42.02515294744955
 20
513.0511551362124
 30
0.0
 40
2.666666666666666
100
AcDbArc
 50
345.52248781407
 51
14.47751218592991
  0
LINE
  5
61F8
330
18
100
AcDbEntity
  8
0
100
AcDbLine
 10
34.12515294744959
 20
662.8511551362123
 30
0.0
 11
34.12515294744958
 21
669.1461551362115
 31
0.0
  0
LINE
  5
61F9
330
18
100
AcDbEntity
  8
0
100
AcDbLine
 10
32.52515294744955
 20
669.1461551362114
 30
0.0
 11
32.52515294744955
 21
662.8511551362123
 31
0.0
  0
LINE
  5
61FA
330
18
100
AcDbEntity
  8
0
100
AcDbLine
 10
32.52515294744955
 20
648.1461551362133
 30
0.0
 11
44.12515294744943
 21
648.1461551362124
 31
0.0
  0
LINE
  5
61FB
330
18
100
AcDbEntity
  8
0
100
AcDbLine
 10
32.52515294744955
 20
654.4411551362125
 30
0.0
 11
32.52515294744955
 21
648.1461551362133
 31
0.0
  0
LINE
  5
61FC
330
18
100
AcDbEntity
  8
0
100
AcDbLine
 10
34.12515294744959
 20
648.1461551362132
 30
0.0
 11
34.12515294744959
 21
654.4411551362125
 31
0.0
  0
LINE
  5
61FD
330
18
100
AcDbEntity
  8
0
100
AcDbLine
 10
32.52515294744955
 20
669.1461551362114
 30
0.0
 11
44.12515294744968
 21
669.1461551362124
 31
0.0
  0
INSERT
  5
61FE
330
18
100
AcDbEntity
  8
0
100
AcDbBlockReference
  2
VORDANS1
 10
30.7251529474496
 20
649.6411551362124
 30
0.0
  0
CIRCLE
  5
61FF
330
18
100
AcDbEntity
  8
0
100
AcDbCircle
 10
31.42515294744955
 20
675.0511551362124
 30
0.0
 40
2.5
  0
ARC
  5
6200
330
18
100
AcDbEntity
  8
0
100
AcDbCircle
 10
31.42515294744955
 20
675.0511551362124
 30
0.0
 40
2.0
100
AcDbArc
 50
165.52248781407
 51
194.4775121859299
  0
ARC
  5
6201
330
18
100
AcDbEntity
  8
0
100
AcDbCircle
 10
31.42515294744955
 20
675.0511551362124
 30
0.0
 40
2.0
100
AcDbArc
 50
345.52248781407
 51
14.47751218592996
  0
CIRCLE
  5
6202
330
18
100
AcDbEntity
  8
0
100
AcDbCircle
 10
31.42515294744955
 20
675.0511551362124
 30
0.0
 40
3.0
  0
LINE
  5
6203
330
18
100
AcDbEntity
  8
0
100
AcDbLine
 10
33.36164462055332
 20
674.5511551362124
 30
0.0
 11
31.92515294744955
 21
674.5511551362124
 31
0.0
  0
LINE
  5
6204
330
18
100
AcDbEntity
  8
0
100
AcDbLine
 10
31.92515294744955
 20
674.5511551362124
 30
0.0
 11
31.92515294744955
 21
673.1146634631086
 31
0.0
  0
LINE
  5
6205
330
18
100
AcDbEntity
  8
0
100
AcDbLine
 10
30.92515294744955
 20
674.5511551362124
 30
0.0
 11
30.92515294744955
 21
673.1146634631086
 31
0.0
  0
ARC
  5
6206
330
18
100
AcDbEntity
  8
0
100
AcDbCircle
 10
31.42515294744955
 20
675.0511551362124
 30
0.0
 40
2.0
100
AcDbArc
 50
255.5224878140701
 51
284.4775121859298
  0
LINE
  5
6207
330
18
100
AcDbEntity
  8
0
100
AcDbLine
 10
30.92515294744955
 20
674.5511551362124
 30
0.0
 11
29.48866127434578
 21
674.5511551362124
 31
0.0
  0
LINE
  5
6208
330
18
100
AcDbEntity
  8
0
100
AcDbLine
 10
33.36164462055332
 20
675.5511551362124
 30
0.0
 11
31.92515294744955
 21
675.5511551362124
 31
0.0
  0
LINE
  5
6209
330
18
100
AcDbEntity
  8
0
100
AcDbLine
 10
31.92515294744955
 20
676.9876468093157
 30
0.0
 11
31.92515294744955
 21
675.5511551362124
 31
0.0
  0
LINE
  5
620A
330
18
100
AcDbEntity
  8
0
100
AcDbLine
 10
30.92515294744955
 20
676.9876468093157
 30
0.0
 11
30.92515294744955
 21
675.5511551362124
 31
0.0
  0
ARC
  5
620B
330
18
100
AcDbEntity
  8
0
100
AcDbCircle
 10
31.42515294744955
 20
675.0511551362124
 30
0.0
 40
2.0
100
AcDbArc
 50
75.52248781407016
 51
104.4775121859298
  0
LINE
  5
620C
330
18
100
AcDbEntity
  8
0
100
AcDbLine
 10
30.92515294744955
 20
675.5511551362124
 30
0.0
 11
29.48866127434578
 21
675.5511551362124
 31
0.0
  0
LWPOLYLINE
  5
6280
330
18
100
AcDbEntity
  8
0
100
AcDbPolyline
 90
        8
 70
     0
 43
0.0
 38
1.004996417558615E+99
 10
196.2550030722554
 20
650.6411549041615
 42
-0.0034483591116001
 10
196.3583130590996
 20
650.4504662880203
 42
-0.0115542971442169
 10
196.4498254688068
 20
650.2689037908035
 10
196.4784747305333
 20
650.205576624287
 42
-0.0214451454493749
 10
196.5234380379849
 20
650.0893149290893
 42
-0.0361324550867008
 10
196.5495244296278
 20
649.9878230137887
 10
196.5536267755895
 20
649.9563254440187
 10
196.5550030722554
 20
649.9270120613073
  0
LWPOLYLINE
  5
6281
330
18
100
AcDbEntity
  8
0
100
AcDbPolyline
 90
        8
 70
     0
 43
0.0
 38
1.004996417558615E+99
 10
196.5550030722554
 20
667.3652977470157
 42
-0.0426465887263262
 10
196.5495970800425
 20
667.3049224793173
 10
196.539147037418
 20
667.2561364355531
 42
-0.0303643048025655
 10
196.5033527706129
 20
667.1472071629511
 42
-0.0178342398264282
 10
196.4501241233761
 20
667.0240421399897
 10
196.4065112952662
 20
666.9347946068087
 42
-0.007436110675559
 10
196.3075124391101
 20
666.7472842318512
 10
196.2550030722554
 20
666.6511549041615
  0
LWPOLYLINE
  5
6282
330
18
100
AcDbEntity
  8
0
100
AcDbPolyline
 90
        7
 70
     0
 43
0.0
 38
1.004996417558615E+99
 10
194.5650030722554
 20
658.0894501240595
 42
0.0010354907219746
 10
194.5182349136065
 20
658.0723450500551
 10
194.4645761047841
 20
658.0524449452577
 10
194.4116474338331
 20
658.0325152234938
 42
0.0054090623159217
 10
194.2053600904963
 20
657.951712576425
 10
194.1342470987571
 20
657.9225774136694
 10
194.0650030722554
 20
657.8935003384823
  0
LWPOLYLINE
  5
6283
330
18
100
AcDbEntity
  8
0
100
AcDbPolyline
 90
        7
 70
     0
 43
0.0
 38
1.004996417558615E+99
 10
194.0650030722554
 20
661.7035003384824
 42
-0.0043862742691308
 10
194.2048395448501
 20
661.7615018557184
 10
194.3065080630277
 20
661.8019845851961
 10
194.4115676802175
 20
661.842484961042
 42
-0.0025025260483379
 10
194.5180293016983
 20
661.8822693638734
 10
194.5415072516798
 20
661.8908841738864
 10
194.5650030722554
 20
661.8994501240596
  0
LWPOLYLINE
  5
6284
330
18
100
AcDbEntity
  8
0
100
AcDbPolyline
 90
        7
 70
     0
 43
0.0
 38
1.004996417558615E+99
 10
194.0650030722554
 20
659.3988094698407
 42
0.0044011835197963
 10
194.2053599634408
 20
659.3405972833266
 10
194.3068888018484
 20
659.3001760813987
 10
194.4116474143326
 20
659.2597945922285
 42
0.0025073429045212
 10
194.518234864447
 20
659.2199647763631
 10
194.5416101122542
 20
659.2113880162435
 10
194.5650030722631
 20
659.2028596842717
  0
LINE
  5
6285
330
18
100
AcDbEntity
  8
0
100
AcDbLine
 10
193.1550030722554
 20
667.6511549041615
 30
0.0
 11
196.5550030722554
 21
667.6511549041615
 31
0.0
  0
LINE
  5
6286
330
18
100
AcDbEntity
  8
0
100
AcDbLine
 10
192.1577417806131
 20
659.4003402219259
 30
0.0
 11
194.105817754491
 21
661.3484161958037
 31
0.0
  0
LINE
  5
6287
330
18
100
AcDbEntity
  8
0
100
AcDbLine
 10
192.1577417806131
 20
655.590340221926
 30
0.0
 11
194.105817754491
 21
657.5384161958038
 31
0.0
  0
ARC
  5
6288
330
18
100
AcDbEntity
  8
0
100
AcDbCircle
 10
192.9550030722554
 20
660.5511549041615
 30
0.0
 40
1.400000000000012
100
AcDbArc
 50
34.71343938852689
 51
55.28656061147445
  0
ARC
  5
6289
330
18
100
AcDbEntity
  8
0
100
AcDbCircle
 10
192.9550030722554
 20
660.5511549041615
 30
0.0
 40
1.400000000000011
100
AcDbArc
 50
235.2865606114744
 51
34.71343938852689
  0
ARC
  5
628A
330
18
100
AcDbEntity
  8
0
100
AcDbCircle
 10
192.9550030722554
 20
656.7411549041615
 30
0.0
 40
1.400000000000012
100
AcDbArc
 50
34.71343938852689
 51
55.28656061147445
  0
LINE
  5
628B
330
18
100
AcDbEntity
  8
0
100
AcDbLine
 10
195.1550030722555
 20
662.8511549041616
 30
0.0
 11
189.6550030722554
 21
662.8511549041616
 31
0.0
  0
ARC
  5
628C
330
18
100
AcDbEntity
  8
0
100
AcDbCircle
 10
192.9550030722554
 20
660.5511549041615
 30
0.0
 40
1.450000000000014
100
AcDbArc
 50
180.0
 51
0.0
  0
ARC
  5
628D
330
18
100
AcDbEntity
  8
0
100
AcDbCircle
 10
192.9550030722554
 20
660.5511549041615
 30
0.0
 40
1.450000000000028
100
AcDbArc
 50
0.0
 51
180.0
  0
ARC
  5
628E
330
18
100
AcDbEntity
  8
0
100
AcDbCircle
 10
192.9550030722554
 20
656.7411549041615
 30
0.0
 40
1.45000000000002
100
AcDbArc
 50
0.0
 51
180.0
  0
ARC
  5
628F
330
18
100
AcDbEntity
  8
0
100
AcDbCircle
 10
192.9550030722554
 20
656.7411549041615
 30
0.0
 40
1.45000000000002
100
AcDbArc
 50
180.0
 51
0.0
  0
LINE
  5
6290
330
18
100
AcDbEntity
  8
0
100
AcDbLine
 10
196.5550030722554
 20
649.6411549041615
 30
0.0
 11
189.6550030722554
 21
649.6411549041615
 31
0.0
  0
LINE
  5
6291
330
18
100
AcDbEntity
  8
0
100
AcDbLine
 10
195.1550030722555
 20
654.4411549041615
 30
0.0
 11
189.6550030722554
 21
654.4411549041615
 31
0.0
  0
ARC
  5
6292
330
18
100
AcDbEntity
  8
0
100
AcDbCircle
 10
192.9550030722554
 20
656.7411549041615
 30
0.0
 40
1.400000000000012
100
AcDbArc
 50
235.2865606114744
 51
34.71343938852689
  0
LINE
  5
6293
330
18
100
AcDbEntity
  8
0
100
AcDbLine
 10
189.6550030722554
 20
663.1011549041616
 30
0.0
 11
189.6550030722554
 21
666.6511549041615
 31
0.0
  0
LINE
  5
6294
330
18
100
AcDbEntity
  8
0
100
AcDbLine
 10
189.0550030722554
 20
662.8511549041616
 30
0.0
 11
189.0550030722554
 21
654.4411549041615
 31
0.0
  0
LINE
  5
6295
330
18
100
AcDbEntity
  8
0
100
AcDbLine
 10
188.2550030722554
 20
662.8511549041616
 30
0.0
 11
188.2550030722554
 21
654.4411549041615
 31
0.0
  0
LINE
  5
6296
330
18
100
AcDbEntity
  8
0
100
AcDbLine
 10
187.0550030722555
 20
654.4411549041615
 30
0.0
 11
187.0550030722555
 21
662.8511549041616
 31
0.0
  0
LINE
  5
6297
330
18
100
AcDbEntity
  8
0
100
AcDbLine
 10
189.3550030722554
 20
654.4411549041615
 30
0.0
 11
189.6550030722554
 21
654.4411549041615
 31
0.0
  0
LINE
  5
6298
330
18
100
AcDbEntity
  8
0
100
AcDbLine
 10
187.3550030722555
 20
654.4411549041615
 30
0.0
 11
187.5550030722555
 21
654.4411549041615
 31
0.0
  0
LINE
  5
6299
330
18
100
AcDbEntity
  8
0
100
AcDbLine
 10
187.5550030722555
 20
654.4411549041615
 30
0.0
 11
187.6550030722556
 21
654.4411549041615
 31
0.0
  0
LINE
  5
629A
330
18
100
AcDbEntity
  8
0
100
AcDbLine
 10
187.6550030722556
 20
654.4411549041615
 30
0.0
 11
188.2550030722554
 21
654.4411549041615
 31
0.0
  0
LINE
  5
629B
330
18
100
AcDbEntity
  8
0
100
AcDbLine
 10
189.3550030722554
 20
654.4411549041615
 30
0.0
 11
189.2732100034938
 21
654.4411549041615
 31
0.0
  0
LINE
  5
629C
330
18
100
AcDbEntity
  8
0
100
AcDbLine
 10
188.2550030722554
 20
654.4411549041615
 30
0.0
 11
189.0550030722554
 21
654.4411549041615
 31
0.0
  0
LINE
  5
629D
330
18
100
AcDbEntity
  8
0
100
AcDbLine
 10
189.0550030722554
 20
654.4411549041615
 30
0.0
 11
189.2732100034938
 21
654.4411549041615
 31
0.0
  0
LINE
  5
629E
330
18
100
AcDbEntity
  8
0
100
AcDbLine
 10
187.3550030722555
 20
654.4411549041615
 30
0.0
 11
187.0550030722555
 21
654.4411549041615
 31
0.0
  0
LINE
  5
629F
330
18
100
AcDbEntity
  8
0
100
AcDbLine
 10
189.6550030722554
 20
654.1911549041615
 30
0.0
 11
189.6550030722554
 21
650.6411549041615
 31
0.0
  0
LINE
  5
62A0
330
18
100
AcDbEntity
  8
0
100
AcDbLine
 10
189.6550030722554
 20
650.2911549041615
 30
0.0
 11
189.6550030722554
 21
649.6411549041615
 31
0.0
  0
LINE
  5
62A1
330
18
100
AcDbEntity
  8
0
100
AcDbLine
 10
189.6550030722554
 20
650.6411549041615
 30
0.0
 11
189.6550030722554
 21
650.2911549041615
 31
0.0
  0
LINE
  5
62A2
330
18
100
AcDbEntity
  8
0
100
AcDbLine
 10
189.6550030722554
 20
654.4411549041615
 30
0.0
 11
189.6550030722554
 21
654.1911549041615
 31
0.0
  0
LINE
  5
62A3
330
18
100
AcDbEntity
  8
0
100
AcDbLine
 10
189.3550030722554
 20
662.8511549041616
 30
0.0
 11
189.6550030722554
 21
662.8511549041616
 31
0.0
  0
LINE
  5
62A4
330
18
100
AcDbEntity
  8
0
100
AcDbLine
 10
187.3550030722555
 20
662.8511549041616
 30
0.0
 11
187.5550030722555
 21
662.8511549041616
 31
0.0
  0
LINE
  5
62A5
330
18
100
AcDbEntity
  8
0
100
AcDbLine
 10
189.2732100034938
 20
662.8511549041616
 30
0.0
 11
189.0550030722554
 21
662.8511549041616
 31
0.0
  0
LINE
  5
62A6
330
18
100
AcDbEntity
  8
0
100
AcDbLine
 10
189.0550030722554
 20
662.8511549041616
 30
0.0
 11
188.2550030722554
 21
662.8511549041616
 31
0.0
  0
LINE
  5
62A7
330
18
100
AcDbEntity
  8
0
100
AcDbLine
 10
189.2732100034938
 20
662.8511549041616
 30
0.0
 11
189.3550030722554
 21
662.8511549041616
 31
0.0
  0
LINE
  5
62A8
330
18
100
AcDbEntity
  8
0
100
AcDbLine
 10
188.2550030722554
 20
662.8511549041616
 30
0.0
 11
187.6550030722556
 21
662.8511549041616
 31
0.0
  0
LINE
  5
62A9
330
18
100
AcDbEntity
  8
0
100
AcDbLine
 10
187.6550030722556
 20
662.8511549041616
 30
0.0
 11
187.5550030722555
 21
662.8511549041616
 31
0.0
  0
LINE
  5
62AA
330
18
100
AcDbEntity
  8
0
100
AcDbLine
 10
187.3550030722555
 20
662.8511549041616
 30
0.0
 11
187.0550030722555
 21
662.8511549041616
 31
0.0
  0
LINE
  5
62AB
330
18
100
AcDbEntity
  8
0
100
AcDbLine
 10
189.6550030722554
 20
662.8511549041616
 30
0.0
 11
189.6550030722554
 21
663.1011549041616
 31
0.0
  0
ARC
  5
62AC
330
18
100
AcDbEntity
  8
0
100
AcDbCircle
 10
192.9550030722554
 20
656.7411549041615
 30
0.0
 40
1.400000000000012
100
AcDbArc
 50
180.0
 51
214.7134393885268
  0
ARC
  5
62AD
330
18
100
AcDbEntity
  8
0
100
AcDbCircle
 10
192.9550030722554
 20
660.5511549041615
 30
0.0
 40
1.400000000000012
100
AcDbArc
 50
180.0
 51
214.7134393885268
  0
LINE
  5
62AE
330
18
100
AcDbEntity
  8
0
100
AcDbLine
 10
193.7522643638977
 20
661.7019695863971
 30
0.0
 11
191.8041883900199
 21
659.7538936125192
 31
0.0
  0
LINE
  5
62AF
330
18
100
AcDbEntity
  8
0
100
AcDbLine
 10
193.7522643638977
 20
657.8919695863971
 30
0.0
 11
191.8041883900199
 21
655.9438936125193
 31
0.0
  0
ARC
  5
62B0
330
18
100
AcDbEntity
  8
0
100
AcDbCircle
 10
192.9550030722554
 20
660.5511549041615
 30
0.0
 40
1.400000000000008
100
AcDbArc
 50
214.7134393885268
 51
235.2865606114744
  0
ARC
  5
62B1
330
18
100
AcDbEntity
  8
0
100
AcDbCircle
 10
192.9550030722554
 20
656.7411549041615
 30
0.0
 40
1.400000000000024
100
AcDbArc
 50
214.7134393885268
 51
235.2865606114744
  0
ARC
  5
62B2
330
18
100
AcDbEntity
  8
0
100
AcDbCircle
 10
192.9550030722554
 20
656.7411549041615
 30
0.0
 40
1.400000000000023
100
AcDbArc
 50
55.28656061147445
 51
180.0
  0
ARC
  5
62B3
330
18
100
AcDbEntity
  8
0
100
AcDbCircle
 10
192.9550030722554
 20
660.5511549041615
 30
0.0
 40
1.400000000000012
100
AcDbArc
 50
55.28656061147445
 51
180.0
  0
LINE
  5
62B4
330
18
100
AcDbEntity
  8
0
100
AcDbLine
 10
192.9442072596774
 20
667.6511549041615
 30
0.0
 11
193.1550030722554
 21
667.6511549041615
 31
0.0
  0
LINE
  5
62B5
330
18
100
AcDbEntity
  8
0
100
AcDbLine
 10
192.6551882418142
 20
667.6511549041615
 30
0.0
 11
192.8132851012477
 21
667.6511549041615
 31
0.0
  0
LINE
  5
62B6
330
18
100
AcDbEntity
  8
0
100
AcDbLine
 10
191.9785687929731
 20
667.6511549041615
 30
0.0
 11
192.1668836199355
 21
667.6511549041615
 31
0.0
  0
LINE
  5
62B7
330
18
100
AcDbEntity
  8
0
100
AcDbLine
 10
192.1668836199355
 20
667.6511549041615
 30
0.0
 11
192.6551882418142
 21
667.6511549041615
 31
0.0
  0
LINE
  5
62B8
330
18
100
AcDbEntity
  8
0
100
AcDbLine
 10
192.8132851012477
 20
667.6511549041615
 30
0.0
 11
192.9442072596774
 21
667.6511549041615
 31
0.0
  0
LINE
  5
62B9
330
18
100
AcDbEntity
  8
0
100
AcDbLine
 10
189.6550030722554
 20
667.6511549041615
 30
0.0
 11
189.6550030722554
 21
667.0011549041616
 31
0.0
  0
LINE
  5
62BA
330
18
100
AcDbEntity
  8
0
100
AcDbLine
 10
189.6550030722554
 20
667.0011549041616
 30
0.0
 11
189.6550030722554
 21
666.6511549041615
 31
0.0
  0
LINE
  5
62BB
330
18
100
AcDbEntity
  8
0
100
AcDbLine
 10
191.8204719335398
 20
667.6511549041615
 30
0.0
 11
191.9095492243272
 21
667.6511549041615
 31
0.0
  0
LINE
  5
62BC
330
18
100
AcDbEntity
  8
0
100
AcDbLine
 10
191.5998467851603
 20
667.6511549041615
 30
0.0
 11
191.8204719335398
 21
667.6511549041615
 31
0.0
  0
LINE
  5
62BD
330
18
100
AcDbEntity
  8
0
100
AcDbLine
 10
191.9095492243272
 20
667.6511549041615
 30
0.0
 11
191.9385214896428
 21
667.6511549041615
 31
0.0
  0
LINE
  5
62BE
330
18
100
AcDbEntity
  8
0
100
AcDbLine
 10
191.5107694943728
 20
667.6511549041615
 30
0.0
 11
191.5998467851603
 21
667.6511549041615
 31
0.0
  0
LINE
  5
62BF
330
18
100
AcDbEntity
  8
0
100
AcDbLine
 10
191.4417499257268
 20
667.6511549041615
 30
0.0
 11
191.4817972290572
 21
667.6511549041615
 31
0.0
  0
LINE
  5
62C0
330
18
100
AcDbEntity
  8
0
100
AcDbLine
 10
190.4779147018676
 20
667.6511549041615
 30
0.0
 11
191.2534350987646
 21
667.6511549041615
 31
0.0
  0
LINE
  5
62C1
330
18
100
AcDbEntity
  8
0
100
AcDbLine
 10
190.3657988848334
 20
667.6511549041615
 30
0.0
 11
190.4779147018676
 21
667.6511549041615
 31
0.0
  0
LINE
  5
62C2
330
18
100
AcDbEntity
  8
0
100
AcDbLine
 10
191.2534350987646
 20
667.6511549041615
 30
0.0
 11
191.4290982759128
 21
667.6511549041615
 31
0.0
  0
LINE
  5
62C3
330
18
100
AcDbEntity
  8
0
100
AcDbLine
 10
191.4290982759128
 20
667.6511549041615
 30
0.0
 11
191.4417499257268
 21
667.6511549041615
 31
0.0
  0
LINE
  5
62C4
330
18
100
AcDbEntity
  8
0
100
AcDbLine
 10
191.4817972290572
 20
667.6511549041615
 30
0.0
 11
191.5107694943728
 21
667.6511549041615
 31
0.0
  0
LINE
  5
62C5
330
18
100
AcDbEntity
  8
0
100
AcDbLine
 10
189.6550030722554
 20
667.6511549041615
 30
0.0
 11
190.1550030722554
 21
667.6511549041615
 31
0.0
  0
LINE
  5
62C6
330
18
100
AcDbEntity
  8
0
100
AcDbLine
 10
190.1550030722554
 20
667.6511549041615
 30
0.0
 11
190.3657988848334
 21
667.6511549041615
 31
0.0
  0
LINE
  5
62C7
330
18
100
AcDbEntity
  8
0
100
AcDbLine
 10
191.9385214896428
 20
667.6511549041615
 30
0.0
 11
191.9785687929731
 21
667.6511549041615
 31
0.0
  0
LINE
  5
62C8
330
18
100
AcDbEntity
  8
0
100
AcDbLine
 10
195.6550030722555
 20
654.4411549041615
 30
0.0
 11
195.6550030722555
 21
655.2411549041615
 31
0.0
  0
LINE
  5
62C9
330
18
100
AcDbEntity
  8
0
100
AcDbLine
 10
196.5550030722554
 20
655.2661549041616
 30
0.0
 11
196.5550030722554
 21
654.4411549041615
 31
0.0
  0
LINE
  5
62CA
330
18
100
AcDbEntity
  8
0
100
AcDbLine
 10
196.5550030722554
 20
650.6411549041615
 30
0.0
 11
196.5550030722554
 21
649.9270120613073
 31
0.0
  0
LINE
  5
62CB
330
18
100
AcDbEntity
  8
0
100
AcDbLine
 10
196.5550030722554
 20
649.9270120613073
 30
0.0
 11
196.5550030722554
 21
649.6411549041615
 31
0.0
  0
LINE
  5
62CC
330
18
100
AcDbEntity
  8
0
100
AcDbLine
 10
195.6550030722555
 20
654.4411549041615
 30
0.0
 11
195.1550030722555
 21
654.4411549041615
 31
0.0
  0
LINE
  5
62CD
330
18
100
AcDbEntity
  8
0
100
AcDbLine
 10
196.5550030722554
 20
654.4411549041615
 30
0.0
 11
196.5550030722554
 21
653.4911549041615
 31
0.0
  0
LINE
  5
62CE
330
18
100
AcDbEntity
  8
0
100
AcDbLine
 10
196.5550030722554
 20
650.9911549041616
 30
0.0
 11
196.5550030722554
 21
650.6411549041615
 31
0.0
  0
LINE
  5
62CF
330
18
100
AcDbEntity
  8
0
100
AcDbLine
 10
196.5550030722554
 20
662.0261549041615
 30
0.0
 11
196.5550030722554
 21
662.8511549041616
 31
0.0
  0
LINE
  5
62D0
330
18
100
AcDbEntity
  8
0
100
AcDbLine
 10
196.5550030722554
 20
662.8511549041616
 30
0.0
 11
196.5550030722554
 21
663.8011549041616
 31
0.0
  0
LINE
  5
62D1
330
18
100
AcDbEntity
  8
0
100
AcDbLine
 10
195.6550030722555
 20
662.8511549041616
 30
0.0
 11
195.1550030722555
 21
662.8511549041616
 31
0.0
  0
LINE
  5
62D2
330
18
100
AcDbEntity
  8
0
100
AcDbLine
 10
195.6550030722555
 20
662.0511549041615
 30
0.0
 11
195.6550030722555
 21
662.8511549041616
 31
0.0
  0
LINE
  5
62D3
330
18
100
AcDbEntity
  8
0
100
AcDbLine
 10
194.5650030722554
 20
658.0894501240595
 30
0.0
 11
194.5650030722631
 21
659.2028596842717
 31
0.0
  0
LINE
  5
62D4
330
18
100
AcDbEntity
  8
0
100
AcDbLine
 10
194.0650030722554
 20
662.0511549041615
 30
0.0
 11
194.5650030722554
 21
662.0511549041615
 31
0.0
  0
LINE
  5
62D5
330
18
100
AcDbEntity
  8
0
100
AcDbLine
 10
194.5650030722554
 20
661.8994501240596
 30
0.0
 11
194.5650030722554
 21
662.0511549041615
 31
0.0
  0
LINE
  5
62D6
330
18
100
AcDbEntity
  8
0
100
AcDbLine
 10
194.5650030722554
 20
662.0511549041615
 30
0.0
 11
195.1550030722555
 21
662.0511549041615
 31
0.0
  0
LINE
  5
62D7
330
18
100
AcDbEntity
  8
0
100
AcDbLine
 10
195.1550030722555
 20
662.0511549041615
 30
0.0
 11
195.6550030722555
 21
662.0511549041615
 31
0.0
  0
LINE
  5
62D8
330
18
100
AcDbEntity
  8
0
100
AcDbLine
 10
195.8050020722554
 20
658.8471167984849
 30
0.0
 11
195.8050020722554
 21
658.4451930098382
 31
0.0
  0
LINE
  5
62D9
330
18
100
AcDbEntity
  8
0
100
AcDbLine
 10
196.5550029382808
 20
658.6461551362124
 30
0.0
 11
195.8050020722554
 21
658.8471167984849
 31
0.0
  0
LINE
  5
62DA
330
18
100
AcDbEntity
  8
0
100
AcDbLine
 10
196.5550029382808
 20
658.6461551362124
 30
0.0
 11
195.8050020722554
 21
658.4451930098382
 31
0.0
  0
LINE
  5
62DB
330
18
100
AcDbEntity
  8
0
100
AcDbLine
 10
194.5650030722554
 20
655.2411549041615
 30
0.0
 11
195.1550030722555
 21
655.2411549041615
 31
0.0
  0
LINE
  5
62DC
330
18
100
AcDbEntity
  8
0
100
AcDbLine
 10
195.1550030722555
 20
655.2411549041615
 30
0.0
 11
195.6550030722555
 21
655.2411549041615
 31
0.0
  0
LINE
  5
62DD
330
18
100
AcDbEntity
  8
0
100
AcDbLine
 10
194.5650030722554
 20
655.2411549041615
 30
0.0
 11
194.0650030722554
 21
655.2411549041615
 31
0.0
  0
LINE
  5
62DE
330
18
100
AcDbEntity
  8
0
100
AcDbLine
 10
194.5650030722568
 20
655.3928596842649
 30
0.0
 11
194.5650030722554
 21
655.2411549041615
 31
0.0
  0
LINE
  5
62DF
330
18
100
AcDbEntity
  8
0
100
AcDbLine
 10
196.5550030722554
 20
658.3711549041615
 30
0.0
 11
196.2550030722555
 21
658.3711549041615
 31
0.0
  0
LINE
  5
62E0
330
18
100
AcDbEntity
  8
0
100
AcDbLine
 10
196.2550030722555
 20
658.9211549041615
 30
0.0
 11
196.5550030722555
 21
658.9211549041615
 31
0.0
  0
LWPOLYLINE
  5
62E1
330
18
100
AcDbEntity
  8
0
100
AcDbPolyline
 90
        7
 70
     0
 43
0.0
 10
194.5650030722568
 20
655.3928596842649
 42
-0.0010357402252054
 10
194.5182239064965
 20
655.4099688098996
 10
194.464493984646
 20
655.4298955498983
 10
194.411643112279
 20
655.4497962246216
 42
-0.0054101641983534
 10
194.2053316977751
 20
655.5306087245346
 10
194.1344427037486
 20
655.5596512694387
 10
194.0650030722554
 20
655.5888094698407
  0
ARC
  5
62E2
330
18
100
AcDbEntity
  8
0
100
AcDbCircle
 10
195.0550030722554
 20
660.5511549041615
 30
0.0
 40
0.4999999999999998
100
AcDbArc
 50
263.1628588318633
 51
0.0
  0
ARC
  5
62E3
330
18
100
AcDbEntity
  8
0
100
AcDbCircle
 10
195.0550030722554
 20
660.5511549041615
 30
0.0
 40
0.5
100
AcDbArc
 50
0.0
 51
96.83714116813657
  0
ARC
  5
62E4
330
18
100
AcDbEntity
  8
0
100
AcDbCircle
 10
192.9550030722554
 20
656.7411549041615
 30
0.0
 40
2.1
100
AcDbArc
 50
13.67428233626992
 51
39.94450518981471
  0
ARC
  5
62E5
330
18
100
AcDbEntity
  8
0
100
AcDbCircle
 10
192.9550030722554
 20
660.5511549041615
 30
0.0
 40
2.100000000000624
100
AcDbArc
 50
320.0554948104905
 51
346.32571766373
  0
ARC
  5
62E6
330
18
100
AcDbEntity
  8
0
100
AcDbCircle
 10
192.9550030722554
 20
656.7411549041615
 30
0.0
 40
2.1
100
AcDbArc
 50
0.0
 51
13.67428233626992
  0
ARC
  5
62E7
330
18
100
AcDbEntity
  8
0
100
AcDbCircle
 10
192.9550030722554
 20
660.5511549041615
 30
0.0
 40
2.100000000000008
100
AcDbArc
 50
346.32571766373
 51
0.0
  0
ARC
  5
62E8
330
18
100
AcDbEntity
  8
0
100
AcDbCircle
 10
192.9550030722554
 20
660.5511549041615
 30
0.0
 40
2.100000000000008
100
AcDbArc
 50
0.0
 51
13.67428233626992
  0
ARC
  5
62E9
330
18
100
AcDbEntity
  8
0
100
AcDbCircle
 10
192.9550030722554
 20
660.5511549041615
 30
0.0
 40
2.100000000000006
100
AcDbArc
 50
13.67428233626992
 51
39.94450518981471
  0
ARC
  5
62EA
330
18
100
AcDbEntity
  8
0
100
AcDbCircle
 10
195.0550030722554
 20
656.7411549041615
 30
0.0
 40
0.5000000000000011
100
AcDbArc
 50
263.1628588318633
 51
96.83714116813657
  0
ARC
  5
62EB
330
18
100
AcDbEntity
  8
0
100
AcDbCircle
 10
192.9550030722554
 20
656.7411549041615
 30
0.0
 40
2.1
100
AcDbArc
 50
346.32571766373
 51
0.0
  0
ARC
  5
62EC
330
18
100
AcDbEntity
  8
0
100
AcDbCircle
 10
192.9550030722554
 20
656.7411549041615
 30
0.0
 40
2.100000000000111
100
AcDbArc
 50
320.0554948102372
 51
346.32571766373
  0
LINE
  5
62ED
330
18
100
AcDbEntity
  8
0
100
AcDbLine
 10
196.5550030722554
 20
666.6511549041615
 30
0.0
 11
196.5550030722554
 21
667.3652977470157
 31
0.0
  0
LINE
  5
62EE
330
18
100
AcDbEntity
  8
0
100
AcDbLine
 10
196.5550030722554
 20
667.6511549041615
 30
0.0
 11
196.5550030722554
 21
667.3652977470157
 31
0.0
  0
LINE
  5
630B
330
18
100
AcDbEntity
  8
0
100
AcDbLine
 10
193.5550029382808
 20
361.9511551362123
 30
0.0
 11
186.6550029382808
 21
361.9511551362123
 31
0.0
  0
LINE
  5
630C
330
18
100
AcDbEntity
  8
0
100
AcDbLine
 10
186.6550029382808
 20
362.9511551362123
 30
0.0
 11
186.6550029382808
 21
366.5511551362123
 31
0.0
  0
LINE
  5
630D
330
18
100
AcDbEntity
  8
0
100
AcDbLine
 10
186.6550029382808
 20
362.9511551362123
 30
0.0
 11
186.6550029382808
 21
362.8011551362123
 31
0.0
  0
LINE
  5
630E
330
18
100
AcDbEntity
  8
0
100
AcDbLine
 10
186.6550029382808
 20
362.8011551362123
 30
0.0
 11
186.6550029382808
 21
361.9511551362123
 31
0.0
  0
LINE
  5
630F
330
18
100
AcDbEntity
  8
0
100
AcDbLine
 10
185.2550029382808
 20
365.0511551362124
 30
0.0
 11
184.5550029382809
 21
365.0511551362124
 31
0.0
  0
ARC
  5
6310
330
18
100
AcDbEntity
  8
0
100
AcDbCircle
 10
184.3550029382808
 20
364.3511551362123
 30
0.0
 40
0.2999999999999901
100
AcDbArc
 50
180.0
 51
270.0
  0
ARC
  5
6311
330
18
100
AcDbEntity
  8
0
100
AcDbCircle
 10
184.5550029382808
 20
364.5511551362123
 30
0.0
 40
0.5
100
AcDbArc
 50
90.0
 51
179.9999999999869
  0
LINE
  5
6312
330
18
100
AcDbEntity
  8
0
100
AcDbLine
 10
184.0550029382809
 20
364.3511551362124
 30
0.0
 11
184.0550029382808
 21
364.5511551362125
 31
0.0
  0
LINE
  5
6313
330
18
100
AcDbEntity
  8
0
100
AcDbLine
 10
184.6550029382803
 20
364.0511551362124
 30
0.0
 11
184.3550029382808
 21
364.0511551362123
 31
0.0
  0
LINE
  5
6314
330
18
100
AcDbEntity
  8
0
100
AcDbLine
 10
186.6550029382808
 20
366.5511551362123
 30
0.0
 11
186.6550029382808
 21
366.7011551362123
 31
0.0
  0
LINE
  5
6315
330
18
100
AcDbEntity
  8
0
100
AcDbLine
 10
186.6550029382808
 20
366.7011551362123
 30
0.0
 11
186.6550029382808
 21
367.5511551362124
 31
0.0
  0
LINE
  5
6316
330
18
100
AcDbEntity
  8
0
100
AcDbLine
 10
186.3550029382808
 20
369.4511551362123
 30
0.0
 11
186.6550029382809
 21
369.4511551362123
 31
0.0
  0
ARC
  5
6317
330
18
100
AcDbEntity
  8
0
100
AcDbCircle
 10
186.3550029382808
 20
369.1511551362123
 30
0.0
 40
0.3000000000000007
100
AcDbArc
 50
90.0
 51
180.0
  0
LINE
  5
6318
330
18
100
AcDbEntity
  8
0
100
AcDbLine
 10
186.0550029382808
 20
369.1511551362123
 30
0.0
 11
186.0550029382808
 21
368.8511551362123
 31
0.0
  0
LINE
  5
6319
330
18
100
AcDbEntity
  8
0
100
AcDbLine
 10
186.0550029382808
 20
368.8511551362123
 30
0.0
 11
186.2732098695192
 21
368.8511551362123
 31
0.0
  0
LINE
  5
631A
330
18
100
AcDbEntity
  8
0
100
AcDbLine
 10
186.2732098695192
 20
368.8511551362123
 30
0.0
 11
185.2550029382808
 21
365.0511551362124
 31
0.0
  0
LINE
  5
631B
330
18
100
AcDbEntity
  8
0
100
AcDbLine
 10
193.5550029382808
 20
361.9511551362123
 30
0.0
 11
193.5550029382808
 21
359.4511551362123
 31
0.0
  0
LINE
  5
631C
330
18
100
AcDbEntity
  8
0
100
AcDbLine
 10
184.655002938281
 20
358.3511551362123
 30
0.0
 11
192.6550029382808
 21
358.3511551362123
 31
0.0
  0
LINE
  5
631D
330
18
100
AcDbEntity
  8
0
100
AcDbLine
 10
184.6550029382808
 20
359.2152567513501
 30
0.0
 11
184.655002938281
 21
358.3511551362123
 31
0.0
  0
ARC
  5
631E
330
18
100
AcDbEntity
  8
0
100
AcDbCircle
 10
193.2550029382808
 20
359.4511551362123
 30
0.0
 40
0.2999999999999901
100
AcDbArc
 50
270.0
 51
0.0
  0
LINE
  5
631F
330
18
100
AcDbEntity
  8
0
100
AcDbLine
 10
192.6550029382808
 20
358.3511551362123
 30
0.0
 11
192.6550029382808
 21
359.1511551362123
 31
0.0
  0
LINE
  5
6320
330
18
100
AcDbEntity
  8
0
100
AcDbLine
 10
192.6550029382808
 20
359.1511551362123
 30
0.0
 11
193.2550029382808
 21
359.1511551362123
 31
0.0
  0
LINE
  5
6321
330
18
100
AcDbEntity
  8
0
100
AcDbLine
 10
193.5550029382808
 20
362.5511551362123
 30
0.0
 11
193.5550029382808
 21
361.9511551362123
 31
0.0
  0
LINE
  5
6322
330
18
100
AcDbEntity
  8
0
100
AcDbLine
 10
184.6550029382803
 20
364.0511551362124
 30
0.0
 11
184.6550029382808
 21
359.2152567513501
 31
0.0
  0
LINE
  5
635B
330
18
100
AcDbEntity
  8
0
100
AcDbLine
 10
44.12515294744968
 20
669.1461551362124
 30
0.0
 11
44.12515294744943
 21
648.1461551362124
 31
0.0
  0
TEXT
  5
638C
330
18
100
AcDbEntity
  8
0
100
AcDbText
 10
332.2271630986665
 20
256.2515153169028
 30
0.0
 40
6.0
  1
VC外形図(AC400V仕様)　拡張I/O付
  7
MSｺﾞｼｯｸ
100
AcDbText
  0
TEXT
  5
638D
330
18
100
AcDbEntity
  8
0
100
AcDbText
 10
359.0950576403947
 20
275.645978948125
 30
0.0
 40
6.0
  1
ＮＣＲ－＊Ａ＊＊Ａ３＊－２６２＊
 41
0.6
  7
MSｺﾞｼｯｸ
100
AcDbText
  0
TEXT
  5
638E
330
18
100
AcDbEntity
  8
0
100
AcDbText
 10
377.5000695393452
 20
244.8936085490557
 30
0.0
 40
7.0
  1
ＳＥ－３４２５０C
 41
0.9529999999999999
  7
MSｺﾞｼｯｸ
100
AcDbText
  0
TEXT
  5
638F
330
18
100
AcDbEntity
  8
0
100
AcDbText
 10
349.2648709066659
 20
267.3940723693592
 30
0.0
 40
6.0
  1
＋　ＮＣＲ－ＸＡＡ２（３）Ｄ１＊－２６２
 41
0.6
  7
MSｺﾞｼｯｸ
100
AcDbText
  0
VIEWPORT
  5
63F1
330
63ED
100
AcDbEntity
 67
     1
  8
0
100
AcDbViewport
 10
202.4999999999999
 20
128.4999999999999
 30
0.0
 40
486.0
 41
308.3999999999999
 68
     1
 69
     1
 12
202.4999999999999
 22
128.4999999999999
 13
0.0
 23
0.0
 14
0.5
 24
0.5
 15
0.0
 25
0.0
 16
0.0
 26
0.0
 36
1.0
 17
0.0
 27
0.0
 37
0.0
 42
50.0
 43
0.0
 44
0.0
 45
308.3999999999999
 50
0.0
 51
0.0
 72
   100
 90
    32864
  1

281
     0
 71
     1
 74
     0
110
0.0
120
0.0
130
0.0
111
1.0
121
0.0
131
0.0
112
0.0
122
1.0
132
0.0
 79
     0
146
0.0
  0
VIEWPORT
  5
63F2
330
63ED
100
AcDbEntity
 67
     1
  8
0
100
AcDbViewport
 10
202.4999999999999
 20
128.4999999999999
 30
0.0
 40
324.0
 41
205.6
 68
     2
 69
     2
 12
210.0
 22
148.5
 13
0.0
 23
0.0
 14
0.5
 24
0.5
 15
0.0
 25
0.0
 16
0.0
 26
0.0
 36
1.0
 17
0.0
 27
0.0
 37
0.0
 42
50.0
 43
0.0
 44
0.0
 45
302.9399999999999
 50
0.0
 51
0.0
 72
   100
341
E
 90
    32864
  1

281
     0
 71
     1
 74
     0
110
0.0
120
0.0
130
0.0
111
1.0
121
0.0
131
0.0
112
0.0
122
1.0
132
0.0
 79
     0
146
0.0
  0
ENDSEC
  0
SECTION
  2
OBJECTS
  0
DICTIONARY
  5
C
330
0
100
AcDbDictionary
281
     1
  3
ACAD_GROUP
350
D
  3
ACAD_IMAGE_VARS
350
63EB
  3
ACAD_LAYOUT
350
73F
  3
ACAD_MLINESTYLE
350
1B
  3
ACAD_PLOTSETTINGS
350
740
  3
ACAD_PLOTSTYLENAME
350
73D
  3
ACAD_SCALELIST
350
63BF
  3
AcadDim
350
4FB9
  3
APPDATA
350
63E9
  3
DWGPROPS
350
63F8
  0
DICTIONARY
  5
D
102
{ACAD_REACTORS
330
C
102
}
330
C
100
AcDbDictionary
281
     1
  0
RASTERVARIABLES
  5
63EB
102
{ACAD_REACTORS
330
C
102
}
330
C
100
AcDbRasterVariables
 90
        0
 70
     1
 71
     1
 72
     0
  0
DICTIONARY
  5
73F
102
{ACAD_REACTORS
330
C
102
}
330
C
100
AcDbDictionary
281
     1
  3
Model
350
741
  3
Sheet1
350
63EE
  0
DICTIONARY
  5
1B
102
{ACAD_REACTORS
330
C
102
}
330
C
100
AcDbDictionary
281
     1
  3
STANDARD
350
1C
  0
DICTIONARY
  5
740
102
{ACAD_REACTORS
330
C
102
}
330
C
100
AcDbDictionary
281
     1
  0
ACDBDICTIONARYWDFLT
  5
73D
102
{ACAD_REACTORS
330
C
102
}
330
C
100
AcDbDictionary
281
     1
  3
Normal
350
73E
100
AcDbDictionaryWithDefault
340
73E
  0
DICTIONARY
  5
63BF
102
{ACAD_REACTORS
330
C
102
}
330
C
100
AcDbDictionary
281
     1
  3
A0
350
63C0
  3
A1
350
63C1
  3
A2
350
63C2
  3
A3
350
63C3
  3
A4
350
63C4
  3
A5
350
63C5
  3
A6
350
63C6
  3
A7
350
63C7
  3
A8
350
63C8
  3
A9
350
63C9
  3
B0
350
63CA
  3
B1
350
63CB
  3
B2
350
63CC
  3
B3
350
63CD
  3
B4
350
63CE
  3
B5
350
63CF
  3
B6
350
63D0
  3
B7
350
63D1
  3
B8
350
63D2
  3
B9
350
63D3
  3
C0
350
63D4
  3
C1
350
63D5
  3
C2
350
63D6
  3
C3
350
63D7
  3
C4
350
63D8
  3
C5
350
63D9
  3
C6
350
63DA
  3
C7
350
63DB
  3
C8
350
63DC
  3
C9
350
63DD
  3
D0
350
63DE
  3
D1
350
63DF
  3
D2
350
63E0
  0
XRECORD
  5
4FB9
102
{ACAD_REACTORS
330
C
102
}
330
C
100
AcDbXrecord
280
     1
 90
   990106
  3

 60
     0
 61
     0
 62
     1
 63
     3
 64
     0
 65
     0
 66
     0
 67
     3
 68
     1
 69
     0
 70
     0
 71
     0
 72
     0
 40
0.0
170
     0
  0
DICTIONARY
  5
63E9
102
{ACAD_REACTORS
330
C
102
}
330
C
100
AcDbDictionary
281
     1
  0
XRECORD
  5
63F8
102
{ACAD_REACTORS
330
C
102
}
330
C
100
AcDbXrecord
280
     1
  1
DWGPROPS COOKIE
  2

  3

  4

  6

  7

  8
k-yoshida
  9

300
=
301
=
302
=
303
=
304
=
305
=
306
=
307
=
308
=
309
=
 40
0.0
 41
2451224.285162384
 42
2457317.270254155
  1

 90
        0
  0
LAYOUT
  5
741
102
{ACAD_REACTORS
330
73F
102
}
330
73F
100
AcDbPlotSettings
  1

  2
HP DesignJet 750C (D/A1) Color
  4
ISO_A3_(420.00_x_297.00_MM)
  6

 40
7.5
 41
20.0
 42
7.5
 43
20.0
 44
420.0
 45
297.0
 46
0.0
 47
0.0
 48
0.0
 49
0.0
140
0.0
141
0.0
142
1.0
143
1.981899329511542
 70
  1712
 72
     1
 73
     0
 74
     0
  7

 75
     0
147
0.5045664959412744
148
129.7921130010163
149
-243.8034521991912
100
AcDbLayout
  1
Model
 70
     1
 71
     0
 10
0.0
 20
0.0
 11
12.0
 21
9.0
 12
0.0
 22
0.0
 32
0.0
 14
1.000000000000000E+20
 24
1.000000000000000E+20
 34
1.000000000000000E+20
 15
-1.000000000000000E+20
 25
-1.000000000000000E+20
 35
-1.000000000000000E+20
146
0.0
 13
0.0
 23
0.0
 33
0.0
 16
1.0
 26
0.0
 36
0.0
 17
0.0
 27
1.0
 37
0.0
 76
     0
330
18
1001
PLOTTRANSPARENCY
1071
        0
  0
LAYOUT
  5
63EE
102
{ACAD_REACTORS
330
73F
102
}
330
73F
100
AcDbPlotSettings
  1

  2
none_device
  4
ISO_A3_(420.00_x_297.00_MM)
  6

 40
7.5
 41
20.0
 42
7.5
 43
20.0
 44
420.0
 45
297.0
 46
0.0
 47
0.0
 48
0.0
 49
0.0
140
0.0
141
0.0
142
1.0
143
1.0
 70
   688
 72
     1
 73
     0
 74
     5
  7

 75
    16
147
1.0
148
0.0
149
0.0
100
AcDbLayout
  1
Sheet1
 70
     1
 71
     1
 10
0.0
 20
0.0
 11
0.0
 21
0.0
 12
0.0
 22
0.0
 32
0.0
 14
40.49999999999999
 24
25.69999999999998
 34
0.0
 15
364.5
 25
231.3
 35
0.0
146
0.0
 13
0.0
 23
0.0
 33
0.0
 16
1.0
 26
0.0
 36
0.0
 17
0.0
 27
1.0
 37
0.0
 76
     0
330
63ED
331
63F1
  0
MLINESTYLE
  5
1C
102
{ACAD_REACTORS
330
1B
102
}
330
1B
100
AcDbMlineStyle
  2
STANDARD
 70
     0
  3

 62
   256
 51
90.0
 52
90.0
 71
     2
 49
0.5
 62
   256
  6
BYLAYER
 49
-0.5
 62
   256
  6
BYLAYER
  0
ACDBPLACEHOLDER
  5
73E
102
{ACAD_REACTORS
330
73D
102
}
330
73D
  0
ACAD_PROXY_OBJECT
  5
63C0
102
{ACAD_REACTORS
330
63BF
102
}
330
63BF
100
AcDbProxyObject
 90
      499
 91
      506
 95
   655383
 70
     0
 93
       41
310
903313A31581
 94
        0
  0
ACAD_PROXY_OBJECT
  5
63C1
102
{ACAD_REACTORS
330
63BF
102
}
330
63BF
100
AcDbProxyObject
 90
      499
 91
      506
 95
   655383
 70
     0
 93
      105
310
903313A324000000000000004000
 94
        0
  0
ACAD_PROXY_OBJECT
  5
63C2
102
{ACAD_REACTORS
330
63BF
102
}
330
63BF
100
AcDbProxyObject
 90
      499
 91
      506
 95
   655383
 70
     0
 93
      105
310
903313A344000000000000104000
 94
        0
  0
ACAD_PROXY_OBJECT
  5
63C3
102
{ACAD_REACTORS
330
63BF
102
}
330
63BF
100
AcDbProxyObject
 90
      499
 91
      506
 95
   655383
 70
     0
 93
      105
310
903313A354000000000000144000
 94
        0
  0
ACAD_PROXY_OBJECT
  5
63C4
102
{ACAD_REACTORS
330
63BF
102
}
330
63BF
100
AcDbProxyObject
 90
      499
 91
      506
 95
   655383
 70
     0
 93
      105
310
903313A384000000000000204000
 94
        0
  0
ACAD_PROXY_OBJECT
  5
63C5
102
{ACAD_REACTORS
330
63BF
102
}
330
63BF
100
AcDbProxyObject
 90
      499
 91
      506
 95
   655383
 70
     0
 93
      113
310
904313A31304000000000000244000
 94
        0
  0
ACAD_PROXY_OBJECT
  5
63C6
102
{ACAD_REACTORS
330
63BF
102
}
330
63BF
100
AcDbProxyObject
 90
      499
 91
      506
 95
   655383
 70
     0
 93
      113
310
904313A31364000000000000304000
 94
        0
  0
ACAD_PROXY_OBJECT
  5
63C7
102
{ACAD_REACTORS
330
63BF
102
}
330
63BF
100
AcDbProxyObject
 90
      499
 91
      506
 95
   655383
 70
     0
 93
      113
310
904313A32304000000000000344000
 94
        0
  0
ACAD_PROXY_OBJECT
  5
63C8
102
{ACAD_REACTORS
330
63BF
102
}
330
63BF
100
AcDbProxyObject
 90
      499
 91
      506
 95
   655383
 70
     0
 93
      113
310
904313A333040000000000003E4000
 94
        0
  0
ACAD_PROXY_OBJECT
  5
63C9
102
{ACAD_REACTORS
330
63BF
102
}
330
63BF
100
AcDbProxyObject
 90
      499
 91
      506
 95
   655383
 70
     0
 93
      113
310
904313A34304000000000000444000
 94
        0
  0
ACAD_PROXY_OBJECT
  5
63CA
102
{ACAD_REACTORS
330
63BF
102
}
330
63BF
100
AcDbProxyObject
 90
      499
 91
      506
 95
   655383
 70
     0
 93
      113
310
904313A35304000000000000494000
 94
        0
  0
ACAD_PROXY_OBJECT
  5
63CB
102
{ACAD_REACTORS
330
63BF
102
}
330
63BF
100
AcDbProxyObject
 90
      499
 91
      506
 95
   655383
 70
     0
 93
      121
310
905313A3130304000000000000594000
 94
        0
  0
ACAD_PROXY_OBJECT
  5
63CC
102
{ACAD_REACTORS
330
63BF
102
}
330
63BF
100
AcDbProxyObject
 90
      499
 91
      506
 95
   655383
 70
     0
 93
      105
310
903323A310000000000000010159
 94
        0
  0
ACAD_PROXY_OBJECT
  5
63CD
102
{ACAD_REACTORS
330
63BF
102
}
330
63BF
100
AcDbProxyObject
 90
      499
 91
      506
 95
   655383
 70
     0
 93
      105
310
903343A310000000000000410159
 94
        0
  0
ACAD_PROXY_OBJECT
  5
63CE
102
{ACAD_REACTORS
330
63BF
102
}
330
63BF
100
AcDbProxyObject
 90
      499
 91
      506
 95
   655383
 70
     0
 93
      105
310
903383A310000000000000810159
 94
        0
  0
ACAD_PROXY_OBJECT
  5
63CF
102
{ACAD_REACTORS
330
63BF
102
}
330
63BF
100
AcDbProxyObject
 90
      499
 91
      506
 95
   655383
 70
     0
 93
      113
310
90431303A310000000000000910140
 94
        0
  0
ACAD_PROXY_OBJECT
  5
63D0
102
{ACAD_REACTORS
330
63BF
102
}
330
63BF
100
AcDbProxyObject
 90
      499
 91
      506
 95
   655383
 70
     0
 93
      121
310
9053130303A310000000000001650100
 94
        0
  0
ACAD_PROXY_OBJECT
  5
63D1
102
{ACAD_REACTORS
330
63BF
102
}
330
63BF
100
AcDbProxyObject
 90
      499
 91
      506
 95
   655383
 70
     0
 93
      257
310
90E312F31323822203D2031272D3022000000000000200FC000000000000284000
 94
        0
  0
ACAD_PROXY_OBJECT
  5
63D2
102
{ACAD_REACTORS
330
63BF
102
}
330
63BF
100
AcDbProxyObject
 90
      499
 91
      506
 95
   655383
 70
     0
 93
      249
310
90D312F363422203D2031272D3022000000000000240FC000000000000284040
 94
        0
  0
ACAD_PROXY_OBJECT
  5
63D3
102
{ACAD_REACTORS
330
63BF
102
}
330
63BF
100
AcDbProxyObject
 90
      499
 91
      506
 95
   655383
 70
     0
 93
      249
310
90D312F333222203D2031272D3022000000000000280FC000000000000284040
 94
        0
  0
ACAD_PROXY_OBJECT
  5
63D4
102
{ACAD_REACTORS
330
63BF
102
}
330
63BF
100
AcDbProxyObject
 90
      499
 91
      506
 95
   655383
 70
     0
 93
      249
310
90D312F313622203D2031272D30220000000000002C0FC000000000000284040
 94
        0
  0
ACAD_PROXY_OBJECT
  5
63D5
102
{ACAD_REACTORS
330
63BF
102
}
330
63BF
100
AcDbProxyObject
 90
      499
 91
      506
 95
   655383
 70
     0
 93
      249
310
90D332F333222203D2031272D30220000000000002E0FC000000000000284040
 94
        0
  0
ACAD_PROXY_OBJECT
  5
63D6
102
{ACAD_REACTORS
330
63BF
102
}
330
63BF
100
AcDbProxyObject
 90
      499
 91
      506
 95
   655383
 70
     0
 93
      241
310
90C312F3822203D2031272D3022000000000000300FC000000000000284040
 94
        0
  0
ACAD_PROXY_OBJECT
  5
63D7
102
{ACAD_REACTORS
330
63BF
102
}
330
63BF
100
AcDbProxyObject
 90
      499
 91
      506
 95
   655383
 70
     0
 93
      249
310
90D332F313622203D2031272D3022000000000000320FC000000000000284040
 94
        0
  0
ACAD_PROXY_OBJECT
  5
63D8
102
{ACAD_REACTORS
330
63BF
102
}
330
63BF
100
AcDbProxyObject
 90
      499
 91
      506
 95
   655383
 70
     0
 93
      241
310
90C312F3422203D2031272D3022000000000000340FC000000000000284040
 94
        0
  0
ACAD_PROXY_OBJECT
  5
63D9
102
{ACAD_REACTORS
330
63BF
102
}
330
63BF
100
AcDbProxyObject
 90
      499
 91
      506
 95
   655383
 70
     0
 93
      241
310
90C332F3822203D2031272D3022000000000000360FC000000000000284040
 94
        0
  0
ACAD_PROXY_OBJECT
  5
63DA
102
{ACAD_REACTORS
330
63BF
102
}
330
63BF
100
AcDbProxyObject
 90
      499
 91
      506
 95
   655383
 70
     0
 93
      241
310
90C312F3222203D2031272D3022000000000000380FC000000000000284040
 94
        0
  0
ACAD_PROXY_OBJECT
  5
63DB
102
{ACAD_REACTORS
330
63BF
102
}
330
63BF
100
AcDbProxyObject
 90
      499
 91
      506
 95
   655383
 70
     0
 93
      241
310
90C332F3422203D2031272D30220000000000003A0FC000000000000284040
 94
        0
  0
ACAD_PROXY_OBJECT
  5
63DC
102
{ACAD_REACTORS
330
63BF
102
}
330
63BF
100
AcDbProxyObject
 90
      499
 91
      506
 95
   655383
 70
     0
 93
      161
310
90A3122203D2031272D30224000000000000284020
 94
        0
  0
ACAD_PROXY_OBJECT
  5
63DD
102
{ACAD_REACTORS
330
63BF
102
}
330
63BF
100
AcDbProxyObject
 90
      499
 91
      506
 95
   655383
 70
     0
 93
      257
310
90E312D312F3222203D2031272D30220000000000003E0FC000000000000284000
 94
        0
  0
ACAD_PROXY_OBJECT
  5
63DE
102
{ACAD_REACTORS
330
63BF
102
}
330
63BF
100
AcDbProxyObject
 90
      499
 91
      506
 95
   655383
 70
     0
 93
      225
310
90A3322203D2031272D302200000000000002100000000000000284000
 94
        0
  0
ACAD_PROXY_OBJECT
  5
63DF
102
{ACAD_REACTORS
330
63BF
102
}
330
63BF
100
AcDbProxyObject
 90
      499
 91
      506
 95
   655383
 70
     0
 93
      225
310
90A3622203D2031272D302200000000000006100000000000000284000
 94
        0
  0
ACAD_PROXY_OBJECT
  5
63E0
102
{ACAD_REACTORS
330
63BF
102
}
330
63BF
100
AcDbProxyObject
 90
      499
 91
      506
 95
   655383
 70
     0
 93
      249
310
90D31272D3022203D2031272D30220000000000000A100000000000000284040
 94
        0
  0
ENDSEC
  0
EOF
