  0
SECTION
  2
HEADER
  9
$ACADVER
  1
AC1015
  9
$ACADMAINTVER
 70
    10
  9
$DWGCODEPAGE
  3
ANSI_932
  9
$INSBASE
 10
0.0
 20
0.0
 30
0.0
  9
$EXTMIN
 10
-50.23591727989418
 20
1.260814162778796
 30
0.0
  9
$EXTMAX
 10
451.9787314667496
 20
455.2896644818066
 30
1.004996417558615E+99
  9
$LIMMIN
 10
0.0
 20
0.0
  9
$LIMMAX
 10
420.0
 20
297.0
  9
$ORTHOMODE
 70
     1
  9
$REGENMODE
 70
     1
  9
$FILLMODE
 70
     1
  9
$QTEXTMODE
 70
     0
  9
$MIRRTEXT
 70
     1
  9
$LTSCALE
 40
1.0
  9
$ATTMODE
 70
     1
  9
$TEXTSIZE
 40
2.5
  9
$TRACEWID
 40
1.0
  9
$TEXTSTYLE
  7
STANDARD
  9
$CLAYER
  8
0
  9
$CELTYPE
  6
BYLAYER
  9
$CECOLOR
 62
   256
  9
$CELTSCALE
 40
1.0
  9
$DISPSILH
 70
     0
  9
$DIMSCALE
 40
3.0
  9
$DIMASZ
 40
2.0
  9
$DIMEXO
 40
1.0
  9
$DIMDLI
 40
5.0
  9
$DIMRND
 40
0.0
  9
$DIMDLE
 40
0.0
  9
$DIMEXE
 40
0.75
  9
$DIMTP
 40
0.0
  9
$DIMTM
 40
0.0
  9
$DIMTXT
 40
2.0
  9
$DIMCEN
 40
2.5
  9
$DIMTSZ
 40
0.0
  9
$DIMTOL
 70
     0
  9
$DIMLIM
 70
     0
  9
$DIMTIH
 70
     0
  9
$DIMTOH
 70
     0
  9
$DIMSE1
 70
     0
  9
$DIMSE2
 70
     0
  9
$DIMTAD
 70
     1
  9
$DIMZIN
 70
     9
  9
$DIMBLK
  1

  9
$DIMASO
 70
     1
  9
$DIMSHO
 70
     1
  9
$DIMPOST
  1

  9
$DIMAPOST
  1

  9
$DIMALT
 70
     0
  9
$DIMALTD
 70
     4
  9
$DIMALTF
 40
0.0394
  9
$DIMLFAC
 40
1.0
  9
$DIMTOFL
 70
     1
  9
$DIMTVP
 40
0.0
  9
$DIMTIX
 70
     0
  9
$DIMSOXD
 70
     0
  9
$DIMSAH
 70
     0
  9
$DIMBLK1
  1

  9
$DIMBLK2
  1

  9
$DIMSTYLE
  2
STANDARD
  9
$DIMCLRD
 70
     0
  9
$DIMCLRE
 70
     0
  9
$DIMCLRT
 70
     7
  9
$DIMTFAC
 40
1.0
  9
$DIMGAP
 40
0.5
  9
$DIMJUST
 70
     0
  9
$DIMSD1
 70
     0
  9
$DIMSD2
 70
     0
  9
$DIMTOLJ
 70
     1
  9
$DIMTZIN
 70
     9
  9
$DIMALTZ
 70
     0
  9
$DIMALTTZ
 70
     0
  9
$DIMUPT
 70
     0
  9
$DIMDEC
 70
     4
  9
$DIMTDEC
 70
     4
  9
$DIMALTU
 70
     8
  9
$DIMALTTD
 70
     4
  9
$DIMTXSTY
  7
STANDARD
  9
$DIMAUNIT
 70
     0
  9
$DIMADEC
 70
     0
  9
$DIMALTRND
 40
0.0
  9
$DIMAZIN
 70
     2
  9
$DIMDSEP
 70
    46
  9
$DIMATFIT
 70
     3
  9
$DIMFRAC
 70
     0
  9
$DIMLDRBLK
  1
OPEN
  9
$DIMLUNIT
 70
     2
  9
$DIMLWD
 70
    -2
  9
$DIMLWE
 70
    -2
  9
$DIMTMOVE
 70
     2
  9
$LUNITS
 70
     2
  9
$LUPREC
 70
     4
  9
$SKETCHINC
 40
1.0
  9
$FILLETRAD
 40
1.0
  9
$AUNITS
 70
     0
  9
$AUPREC
 70
     0
  9
$MENU
  1
.
  9
$ELEVATION
 40
0.0
  9
$PELEVATION
 40
0.0
  9
$THICKNESS
 40
0.0
  9
$LIMCHECK
 70
     0
  9
$CHAMFERA
 40
10.0
  9
$CHAMFERB
 40
10.0
  9
$CHAMFERC
 40
20.0
  9
$CHAMFERD
 40
0.0
  9
$SKPOLY
 70
     0
  9
$TDCREATE
 40
2451224.660162384
  9
$TDUCREATE
 40
2451224.285162384
  9
$TDUPDATE
 40
2457366.476592338
  9
$TDUUPDATE
 40
2457366.101592338
  9
$TDINDWG
 40
1.2324567593
  9
$TDUSRTIMER
 40
2457315.119154039
  9
$USRTIMER
 70
     1
  9
$ANGBASE
 50
0.0
  9
$ANGDIR
 70
     0
  9
$PDMODE
 70
     0
  9
$PDSIZE
 40
0.0
  9
$PLINEWID
 40
0.0
  9
$SPLFRAME
 70
     0
  9
$SPLINETYPE
 70
     6
  9
$SPLINESEGS
 70
     8
  9
$HANDSEED
  5
79C3
  9
$SURFTAB1
 70
     6
  9
$SURFTAB2
 70
     6
  9
$SURFTYPE
 70
     6
  9
$SURFU
 70
     6
  9
$SURFV
 70
     6
  9
$UCSBASE
  2

  9
$UCSNAME
  2

  9
$UCSORG
 10
0.0
 20
0.0
 30
0.0
  9
$UCSXDIR
 10
1.0
 20
0.0
 30
0.0
  9
$UCSYDIR
 10
0.0
 20
1.0
 30
0.0
  9
$UCSORTHOREF
  2

  9
$UCSORTHOVIEW
 70
     0
  9
$UCSORGTOP
 10
0.0
 20
0.0
 30
0.0
  9
$UCSORGBOTTOM
 10
0.0
 20
0.0
 30
0.0
  9
$UCSORGLEFT
 10
0.0
 20
0.0
 30
0.0
  9
$UCSORGRIGHT
 10
0.0
 20
0.0
 30
0.0
  9
$UCSORGFRONT
 10
0.0
 20
0.0
 30
0.0
  9
$UCSORGBACK
 10
0.0
 20
0.0
 30
0.0
  9
$PUCSBASE
  2

  9
$PUCSNAME
  2

  9
$PUCSORG
 10
0.0
 20
0.0
 30
0.0
  9
$PUCSXDIR
 10
1.0
 20
0.0
 30
0.0
  9
$PUCSYDIR
 10
0.0
 20
1.0
 30
0.0
  9
$PUCSORTHOREF
  2

  9
$PUCSORTHOVIEW
 70
     0
  9
$PUCSORGTOP
 10
0.0
 20
0.0
 30
0.0
  9
$PUCSORGBOTTOM
 10
0.0
 20
0.0
 30
0.0
  9
$PUCSORGLEFT
 10
0.0
 20
0.0
 30
0.0
  9
$PUCSORGRIGHT
 10
0.0
 20
0.0
 30
0.0
  9
$PUCSORGFRONT
 10
0.0
 20
0.0
 30
0.0
  9
$PUCSORGBACK
 10
0.0
 20
0.0
 30
0.0
  9
$USERI1
 70
     0
  9
$USERI2
 70
     0
  9
$USERI3
 70
     0
  9
$USERI4
 70
     0
  9
$USERI5
 70
     0
  9
$USERR1
 40
0.0
  9
$USERR2
 40
0.0
  9
$USERR3
 40
0.0
  9
$USERR4
 40
0.0
  9
$USERR5
 40
0.0
  9
$WORLDVIEW
 70
     1
  9
$SHADEDGE
 70
     3
  9
$SHADEDIF
 70
    70
  9
$TILEMODE
 70
     1
  9
$MAXACTVP
 70
    48
  9
$PINSBASE
 10
0.0
 20
0.0
 30
0.0
  9
$PLIMCHECK
 70
     0
  9
$PEXTMIN
 10
40.49999999999999
 20
25.69999999999998
 30
0.0
  9
$PEXTMAX
 10
364.5
 20
231.3
 30
0.0
  9
$PLIMMIN
 10
0.0
 20
0.0
  9
$PLIMMAX
 10
0.0
 20
0.0
  9
$UNITMODE
 70
     0
  9
$VISRETAIN
 70
     1
  9
$PLINEGEN
 70
     0
  9
$PSLTSCALE
 70
     1
  9
$TREEDEPTH
 70
  3020
  9
$CMLSTYLE
  2
STANDARD
  9
$CMLJUST
 70
     0
  9
$CMLSCALE
 40
20.0
  9
$PROXYGRAPHICS
 70
     1
  9
$MEASUREMENT
 70
     1
  9
$CELWEIGHT
370
    -1
  9
$ENDCAPS
280
     0
  9
$JOINSTYLE
280
     0
  9
$LWDISPLAY
290
     1
  9
$INSUNITS
 70
     0
  9
$HYPERLINKBASE
  1

  9
$STYLESHEET
  1

  9
$XEDIT
290
     1
  9
$CEPSNTYPE
380
     0
  9
$PSTYLEMODE
290
     1
  9
$FINGERPRINTGUID
  2
{6B368F64-F7EB-11D4-BFBA-00004C030E53}
  9
$VERSIONGUID
  2
{6DD18104-BF02-4B29-8ED0-7E5ECD9AD29E}
  9
$EXTNAMES
290
     1
  9
$PSVPSCALE
 40
0.0
  9
$OLESTARTUP
290
     0
  0
ENDSEC
  0
SECTION
  2
CLASSES
  0
CLASS
  1
HATCH
  2
AcDbHatch
  3
AutoCAD 2000
 90
    32768
280
     0
281
     1
  0
CLASS
  1
LWPOLYLINE
  2
AcDbPolyline
  3
AutoCAD 2000
 90
    32768
280
     0
281
     1
  0
CLASS
  1
ACDBDICTIONARYWDFLT
  2
AcDbDictionaryWithDefault
  3
AutoCAD 2000
 90
        0
280
     0
281
     0
  0
CLASS
  1
ACDBPLACEHOLDER
  2
AcDbPlaceHolder
  3
AutoCAD 2000
 90
        0
280
     0
281
     0
  0
CLASS
  1
LAYOUT
  2
AcDbLayout
  3
AutoCAD 2000
 90
        0
280
     0
281
     0
  0
CLASS
  1
VISUALSTYLE
  2
AcDbVisualStyle
  3
ObjectDBX Classes
 90
    36863
280
     0
281
     0
  0
CLASS
  1
SCALE
  2
AcDbScale
  3
ObjectDBX Classes
 90
     1153
280
     0
281
     0
  0
CLASS
  1
MATERIAL
  2
AcDbMaterial
  3
ObjectDBX Classes
 90
    33921
280
     0
281
     0
  0
CLASS
  1
TABLESTYLE
  2
AcDbTableStyle
  3
ObjectDBX Classes
 90
    36863
280
     0
281
     0
  0
CLASS
  1
MLEADERSTYLE
  2
AcDbMLeaderStyle
  3
ACDB_MLEADERSTYLE_CLASS
 90
    36863
280
     0
281
     0
  0
CLASS
  1
SUN
  2
AcDbSun
  3
SCENEOE
 90
     1153
280
     0
281
     0
  0
CLASS
  1
RASTERVARIABLES
  2
AcDbRasterVariables
  3
ISM
 90
        0
280
     0
281
     0
  0
ENDSEC
  0
SECTION
  2
TABLES
  0
TABLE
  2
VPORT
  5
8
330
0
100
AcDbSymbolTable
 70
     2
  0
VPORT
  5
79C2
330
8
100
AcDbSymbolTableRecord
100
AcDbViewportTableRecord
  2
*Active
 70
     0
 10
0.0
 20
0.0
 11
1.0
 21
1.0
 12
164.9142286212295
 22
253.2081435681186
 13
0.0
 23
0.0
 14
10.0
 24
10.0
 15
10.0
 25
10.0
 16
0.0
 26
0.0
 36
1.0
 17
0.0
 27
0.0
 37
0.0
 40
507.3346014759947
 41
1.562182741116751
 42
50.0
 43
0.0
 44
0.0
 50
0.0
 51
0.0
 71
    16
 72
   100
 73
     1
 74
     0
 75
     0
 76
     0
 77
     0
 78
     0
281
     0
 65
     1
110
0.0
120
0.0
130
0.0
111
1.0
121
0.0
131
0.0
112
0.0
122
1.0
132
0.0
 79
     0
146
0.0
  0
ENDTAB
  0
TABLE
  2
LTYPE
  5
5
330
0
100
AcDbSymbolTable
 70
     1
  0
LTYPE
  5
12
330
5
100
AcDbSymbolTableRecord
100
AcDbLinetypeTableRecord
  2
BYBLOCK
 70
     0
  3

 72
    65
 73
     0
 40
0.0
  0
LTYPE
  5
13
330
5
100
AcDbSymbolTableRecord
100
AcDbLinetypeTableRecord
  2
BYLAYER
 70
     0
  3

 72
    65
 73
     0
 40
0.0
  0
LTYPE
  5
14
330
5
100
AcDbSymbolTableRecord
100
AcDbLinetypeTableRecord
  2
CONTINUOUS
 70
     0
  3
Solid line
 72
    65
 73
     0
 40
0.0
  0
ENDTAB
  0
TABLE
  2
LAYER
  5
2
330
0
100
AcDbSymbolTable
 70
     1
  0
LAYER
  5
E
330
2
100
AcDbSymbolTableRecord
100
AcDbLayerTableRecord
  2
0
 70
     2
 62
     7
  6
CONTINUOUS
370
    -3
390
73E
  0
ENDTAB
  0
TABLE
  2
STYLE
  5
3
330
0
100
AcDbSymbolTable
 70
     2
  0
STYLE
  5
F
330
3
100
AcDbSymbolTableRecord
100
AcDbTextStyleTableRecord
  2
STANDARD
 70
     0
 40
0.0
 41
1.0
 50
0.0
 71
     0
 42
2.5
  3
isocp.shx
  4
bigfont.shx
  0
STYLE
  5
35
330
3
100
AcDbSymbolTableRecord
100
AcDbTextStyleTableRecord
  2
MSｺﾞｼｯｸ
 70
     0
 40
0.0
 41
1.0
 50
0.0
 71
     0
 42
5.0
  3
MS Gothic.ttf
  4

1001
ACAD
1000
MS Gothic
1071
    32817
  0
ENDTAB
  0
TABLE
  2
VIEW
  5
6
330
0
100
AcDbSymbolTable
 70
     0
  0
ENDTAB
  0
TABLE
  2
UCS
  5
7
330
0
100
AcDbSymbolTable
 70
     0
  0
ENDTAB
  0
TABLE
  2
APPID
  5
9
330
0
100
AcDbSymbolTable
 70
     1
  0
APPID
  5
10
330
9
100
AcDbSymbolTableRecord
100
AcDbRegAppTableRecord
  2
ACAD
 70
     0
  0
ENDTAB
  0
TABLE
  2
DIMSTYLE
  5
A
330
0
100
AcDbSymbolTable
 70
     1
100
AcDbDimStyleTable
 71
     0
  0
DIMSTYLE
105
1D
330
A
100
AcDbSymbolTableRecord
100
AcDbDimStyleTableRecord
  2
STANDARD
 70
     0
 78
     8
 79
     2
140
3.0
340
F
341
89E
342
89E
  0
ENDTAB
  0
TABLE
  2
BLOCK_RECORD
  5
1
330
0
100
AcDbSymbolTable
 70
     9
  0
BLOCK_RECORD
  5
18
330
1
100
AcDbSymbolTableRecord
100
AcDbBlockTableRecord
  2
*MODEL_SPACE
340
741
  0
BLOCK_RECORD
  5
79B4
330
1
100
AcDbSymbolTableRecord
100
AcDbBlockTableRecord
  2
*Paper_Space
340
79B5
  0
BLOCK_RECORD
  5
24
330
1
100
AcDbSymbolTableRecord
100
AcDbBlockTableRecord
  2
_OPEN
340
0
  0
BLOCK_RECORD
  5
89E
330
1
100
AcDbSymbolTableRecord
100
AcDbBlockTableRecord
  2
_Open30
340
0
  0
BLOCK_RECORD
  5
8DE
330
1
100
AcDbSymbolTableRecord
100
AcDbBlockTableRecord
  2
A$C444F17A9
340
0
102
{BLKREFS
331
698E
102
}
  0
BLOCK_RECORD
  5
8EA
330
1
100
AcDbSymbolTableRecord
100
AcDbBlockTableRecord
  2
A$C6C1277F2
340
0
102
{BLKREFS
331
6794
102
}
  0
BLOCK_RECORD
  5
917
330
1
100
AcDbSymbolTableRecord
100
AcDbBlockTableRecord
  2
A$C2F696F30
340
0
102
{BLKREFS
331
689E
102
}
  0
BLOCK_RECORD
  5
92F
330
1
100
AcDbSymbolTableRecord
100
AcDbBlockTableRecord
  2
A$C57095CDF
340
0
102
{BLKREFS
331
6843
102
}
  0
BLOCK_RECORD
  5
962
330
1
100
AcDbSymbolTableRecord
100
AcDbBlockTableRecord
  2
A$C3A6E1F00
340
0
102
{BLKREFS
331
67E0
102
}
  0
BLOCK_RECORD
  5
75D5
330
1
100
AcDbSymbolTableRecord
100
AcDbBlockTableRecord
  2
MC_1_5-2-STF-3_81__6
340
0
102
{BLKREFS
331
7697
102
}
  0
BLOCK_RECORD
  5
7696
330
1
100
AcDbSymbolTableRecord
100
AcDbBlockTableRecord
  2
VORDANS1
340
0
102
{BLKREFS
331
76AB
102
}
  0
ENDTAB
  0
ENDSEC
  0
SECTION
  2
BLOCKS
  0
BLOCK
  5
19
330
18
100
AcDbEntity
  8
0
100
AcDbBlockBegin
  2
*MODEL_SPACE
 70
     0
 10
0.0
 20
0.0
 30
0.0
  3
*MODEL_SPACE
  1

  0
ENDBLK
  5
1A
330
18
100
AcDbEntity
  8
0
100
AcDbBlockEnd
  0
BLOCK
  5
79B6
330
79B4
100
AcDbEntity
 67
     1
  8
0
100
AcDbBlockBegin
  2
*Paper_Space
 70
     0
 10
0.0
 20
0.0
 30
0.0
  3
*Paper_Space
  1

  0
ENDBLK
  5
79B7
330
79B4
100
AcDbEntity
 67
     1
  8
0
100
AcDbBlockEnd
  0
BLOCK
  5
25
330
24
100
AcDbEntity
  8
0
100
AcDbBlockBegin
  2
_OPEN
 70
     0
 10
0.0
 20
0.0
 30
0.0
  3
_OPEN
  1

  0
LINE
  5
26
330
24
100
AcDbEntity
  8
0
  6
ByBlock
 62
     0
100
AcDbLine
 10
-1.0
 20
0.1666666666666666
 30
0.0
 11
0.0
 21
0.0
 31
0.0
  0
LINE
  5
27
330
24
100
AcDbEntity
  8
0
  6
ByBlock
 62
     0
100
AcDbLine
 10
0.0
 20
0.0
 30
0.0
 11
-1.0
 21
-0.1666666666666666
 31
0.0
  0
LINE
  5
28
330
24
100
AcDbEntity
  8
0
  6
ByBlock
 62
     0
100
AcDbLine
 10
0.0
 20
0.0
 30
0.0
 11
-1.0
 21
0.0
 31
0.0
  0
ENDBLK
  5
29
330
24
100
AcDbEntity
  8
0
100
AcDbBlockEnd
  0
BLOCK
  5
8A2
330
89E
100
AcDbEntity
  8
0
100
AcDbBlockBegin
  2
_Open30
 70
     0
 10
0.0
 20
0.0
 30
0.0
  3
_Open30
  1

  0
LINE
  5
89F
330
89E
100
AcDbEntity
  8
0
  6
ByBlock
 62
     0
370
    -2
100
AcDbLine
 10
-1.0
 20
0.26794919
 30
0.0
 11
0.0
 21
0.0
 31
0.0
  0
LINE
  5
8A0
330
89E
100
AcDbEntity
  8
0
  6
ByBlock
 62
     0
370
    -2
100
AcDbLine
 10
0.0
 20
0.0
 30
0.0
 11
-1.0
 21
-0.26794919
 31
0.0
  0
LINE
  5
8A1
330
89E
100
AcDbEntity
  8
0
  6
ByBlock
 62
     0
370
    -2
100
AcDbLine
 10
0.0
 20
0.0
 30
0.0
 11
-1.0
 21
0.0
 31
0.0
  0
ENDBLK
  5
8A3
330
89E
100
AcDbEntity
  8
0
100
AcDbBlockEnd
  0
BLOCK
  5
8E8
330
8DE
100
AcDbEntity
  8
0
100
AcDbBlockBegin
  2
A$C444F17A9
 70
     0
 10
0.0
 20
0.0
 30
0.0
  3
A$C444F17A9
  1

  0
LWPOLYLINE
  5
8DF
330
8DE
100
AcDbEntity
  8
0
100
AcDbPolyline
 90
        4
 70
     1
 43
0.2
 10
0.1000006076973037
 20
13.1000004860266
 10
7.625000607697302
 20
13.1000004860266
 10
7.625000607697302
 20
0.1000004860266017
 10
0.1000006076973037
 20
0.1000004860266017
  0
ELLIPSE
  5
8E0
330
8DE
100
AcDbEntity
  8
0
100
AcDbEllipse
 10
6.125000607697302
 20
3.07500048602651
 30
0.0
 11
0.5
 21
0.0
 31
0.0
210
0.0
220
0.0
230
1.0
 40
0.95
 41
0.0
 42
6.283184999999999
  0
LWPOLYLINE
  5
8E1
330
8DE
100
AcDbEntity
  8
0
100
AcDbPolyline
 90
        6
 70
     1
 43
0.2
 10
2.175000607697299
 20
3.525000486026556
 10
1.725000607697296
 20
3.100000486026601
 10
2.175000607697299
 20
2.70000048602651
 10
4.275000607697307
 20
2.70000048602651
 10
4.700000607697305
 20
3.100000486026601
 10
4.275000607697307
 20
3.525000486026556
  0
LWPOLYLINE
  5
8E2
330
8DE
100
AcDbEntity
  8
0
100
AcDbPolyline
 90
        6
 70
     1
 43
0.2
 10
3.250000607697302
 20
10.80000048602664
 10
2.825000607697305
 20
10.42500048602664
 10
3.250000607697302
 20
10.00000048602669
 10
5.375000607697302
 20
10.00000048602669
 10
5.775000607697307
 20
10.42500048602664
 10
5.375000607697302
 20
10.80000048602664
  0
LWPOLYLINE
  5
8E3
330
8DE
100
AcDbEntity
  8
0
100
AcDbPolyline
 90
        6
 70
     1
 43
0.2
 10
5.525000607697307
 20
6.70000048602651
 10
5.125000607697302
 20
6.275000486026556
 10
4.700000607697305
 20
3.500000486026692
 10
5.125000607697302
 20
3.100000486026601
 10
5.525000607697307
 20
3.500000486026692
 10
5.975000607697296
 20
6.275000486026556
  0
LWPOLYLINE
  5
8E4
330
8DE
100
AcDbEntity
  8
0
100
AcDbPolyline
 90
        6
 70
     1
 43
0.2
 10
6.100000607697296
 20
10.42500048602664
 10
5.675000607697299
 20
10.02500048602655
 10
5.275000607697307
 20
7.225000486026601
 10
5.675000607697299
 20
6.82500048602651
 10
6.100000607697296
 20
7.225000486026601
 10
6.525000607697307
 20
10.02500048602655
  0
LWPOLYLINE
  5
8E5
330
8DE
100
AcDbEntity
  8
0
100
AcDbPolyline
 90
        6
 70
     1
 43
0.2
 10
1.875000607697302
 20
6.70000048602651
 10
1.450000607697305
 20
6.275000486026556
 10
1.050000607697299
 20
3.500000486026692
 10
1.450000607697305
 20
3.100000486026601
 10
1.875000607697302
 20
3.500000486026692
 10
2.300000607697299
 20
6.275000486026556
  0
LWPOLYLINE
  5
8E6
330
8DE
100
AcDbEntity
  8
0
100
AcDbPolyline
 90
        6
 70
     1
 43
0.2
 10
2.725000607697296
 20
7.225000486026601
 10
2.275000607697307
 20
6.82500048602651
 10
2.725000607697296
 20
6.425000486026647
 10
4.825000607697305
 20
6.425000486026647
 10
5.225000607697296
 20
6.82500048602651
 10
4.825000607697305
 20
7.225000486026601
  0
LWPOLYLINE
  5
8E7
330
8DE
100
AcDbEntity
  8
0
100
AcDbPolyline
 90
        6
 70
     1
 43
0.2
 10
2.425000607697299
 20
10.42500048602664
 10
2.025000607697307
 20
10.02500048602655
 10
1.600000607697296
 20
7.225000486026601
 10
2.025000607697307
 20
6.82500048602651
 10
2.425000607697299
 20
7.225000486026601
 10
2.875000607697302
 20
10.02500048602655
  0
ENDBLK
  5
8E9
330
8DE
100
AcDbEntity
  8
0
100
AcDbBlockEnd
  0
BLOCK
  5
915
330
8EA
100
AcDbEntity
  8
0
100
AcDbBlockBegin
  2
A$C6C1277F2
 70
     0
 10
0.0
 20
0.0
 30
0.0
  3
A$C6C1277F2
  1

  0
ELLIPSE
  5
8EB
330
8EA
100
AcDbEntity
  8
0
100
AcDbEllipse
 10
4.724999973973268
 20
26.39999951743493
 30
0.0
 11
0.0
 21
0.775
 31
0.0
210
0.0
220
0.0
230
1.0
 40
0.9677419999999999
 41
0.0
 42
6.283184999999999
  0
LWPOLYLINE
  5
8EC
330
8EA
100
AcDbEntity
  8
0
100
AcDbPolyline
 90
        4
 70
     1
 43
0.2
 10
0.0999999739732616
 20
28.77499951743493
 10
0.0999999739732616
 20
0.0999995174349806
 10
9.324999973973262
 20
0.0999995174349806
 10
9.324999973973262
 20
28.77499951743493
  0
ELLIPSE
  5
8ED
330
8EA
100
AcDbEntity
  8
0
100
AcDbEllipse
 10
4.724999973973268
 20
3.399999517434935
 30
0.0
 11
0.0
 21
0.775
 31
0.0
210
0.0
220
0.0
230
1.0
 40
0.9677419999999999
 41
0.0
 42
6.283184999999999
  0
LINE
  5
8EE
330
8EA
100
AcDbEntity
  8
0
100
AcDbLine
 10
0.8999999739732658
 20
4.299999517435026
 30
0.0
 11
0.8999999739732658
 21
6.374999517434844
 31
0.0
  0
LINE
  5
8EF
330
8EA
100
AcDbEntity
  8
0
100
AcDbLine
 10
8.524999973973265
 20
4.299999517435026
 30
0.0
 11
8.524999973973265
 21
6.374999517434844
 31
0.0
  0
LINE
  5
8F0
330
8EA
100
AcDbEntity
  8
0
100
AcDbLine
 10
6.599999973973268
 20
4.274999517434935
 30
0.0
 11
6.599999973973268
 21
5.249999517434844
 31
0.0
  0
LINE
  5
8F1
330
8EA
100
AcDbEntity
  8
0
100
AcDbLine
 10
6.599999973973268
 20
5.274999517434935
 30
0.0
 11
3.024999973973265
 21
5.274999517434935
 31
0.0
  0
LINE
  5
8F2
330
8EA
100
AcDbEntity
  8
0
100
AcDbLine
 10
3.024999973973265
 20
4.299999517435026
 30
0.0
 11
3.024999973973265
 21
5.274999517434935
 31
0.0
  0
LINE
  5
8F3
330
8EA
100
AcDbEntity
  8
0
100
AcDbLine
 10
3.024999973973265
 20
4.299999517435026
 30
0.0
 11
0.8999999739732658
 21
4.299999517435026
 31
0.0
  0
LINE
  5
8F4
330
8EA
100
AcDbEntity
  8
0
100
AcDbLine
 10
8.524999973973265
 20
4.299999517435026
 30
0.0
 11
6.599999973973268
 21
4.299999517435026
 31
0.0
  0
LINE
  5
8F5
330
8EA
100
AcDbEntity
  8
0
100
AcDbLine
 10
8.524999973973265
 20
6.374999517434844
 30
0.0
 11
0.8999999739732658
 21
6.374999517434844
 31
0.0
  0
LINE
  5
8F6
330
8EA
100
AcDbEntity
  8
0
100
AcDbLine
 10
0.8999999739732658
 20
25.17499951743502
 30
0.0
 11
0.8999999739732658
 21
23.09999951743498
 31
0.0
  0
LINE
  5
8F7
330
8EA
100
AcDbEntity
  8
0
100
AcDbLine
 10
8.524999973973265
 20
25.17499951743502
 30
0.0
 11
8.524999973973265
 21
23.09999951743498
 31
0.0
  0
LINE
  5
8F8
330
8EA
100
AcDbEntity
  8
0
100
AcDbLine
 10
6.599999973973268
 20
25.19999951743489
 30
0.0
 11
6.599999973973268
 21
24.22499951743498
 31
0.0
  0
LINE
  5
8F9
330
8EA
100
AcDbEntity
  8
0
100
AcDbLine
 10
6.599999973973268
 20
24.19999951743489
 30
0.0
 11
3.024999973973265
 21
24.19999951743489
 31
0.0
  0
LINE
  5
8FA
330
8EA
100
AcDbEntity
  8
0
100
AcDbLine
 10
3.024999973973265
 20
25.17499951743502
 30
0.0
 11
3.024999973973265
 21
24.19999951743489
 31
0.0
  0
LINE
  5
8FB
330
8EA
100
AcDbEntity
  8
0
100
AcDbLine
 10
3.024999973973265
 20
25.17499951743502
 30
0.0
 11
0.8999999739732658
 21
25.17499951743502
 31
0.0
  0
LINE
  5
8FC
330
8EA
100
AcDbEntity
  8
0
100
AcDbLine
 10
8.524999973973265
 20
25.17499951743502
 30
0.0
 11
6.599999973973268
 21
25.17499951743502
 31
0.0
  0
LWPOLYLINE
  5
8FD
330
8EA
100
AcDbEntity
  8
0
100
AcDbPolyline
 90
        4
 70
     1
 43
0.0
 10
3.474999973973268
 20
11.29999951743502
 10
3.12499997397326
 20
11.29999951743502
 10
3.12499997397326
 20
10.32499951743488
 10
3.474999973973268
 20
10.32499951743488
  0
LWPOLYLINE
  5
8FE
330
8EA
100
AcDbEntity
  8
0
100
AcDbPolyline
 90
        4
 70
     1
 43
0.0
 10
3.474999973973268
 20
12.47499951743498
 10
3.12499997397326
 20
12.47499951743498
 10
3.12499997397326
 20
11.49999951743484
 10
3.474999973973268
 20
11.49999951743484
  0
LWPOLYLINE
  5
8FF
330
8EA
100
AcDbEntity
  8
0
100
AcDbPolyline
 90
        4
 70
     1
 43
0.0
 10
3.474999973973268
 20
13.74999951743484
 10
3.12499997397326
 20
13.74999951743484
 10
3.12499997397326
 20
12.77499951743493
 10
3.474999973973268
 20
12.77499951743493
  0
LWPOLYLINE
  5
900
330
8EA
100
AcDbEntity
  8
0
100
AcDbPolyline
 90
        4
 70
     1
 43
0.0
 10
3.474999973973268
 20
15.07499951743489
 10
3.12499997397326
 20
15.07499951743489
 10
3.12499997397326
 20
14.12499951743484
 10
3.474999973973268
 20
14.12499951743484
  0
LWPOLYLINE
  5
901
330
8EA
100
AcDbEntity
  8
0
100
AcDbPolyline
 90
        4
 70
     1
 43
0.0
 10
3.474999973973268
 20
16.34999951743498
 10
3.12499997397326
 20
16.34999951743498
 10
3.12499997397326
 20
15.37499951743484
 10
3.474999973973268
 20
15.37499951743484
  0
LWPOLYLINE
  5
902
330
8EA
100
AcDbEntity
  8
0
100
AcDbPolyline
 90
        4
 70
     1
 43
0.0
 10
3.474999973973268
 20
17.57499951743489
 10
3.12499997397326
 20
17.57499951743489
 10
3.12499997397326
 20
16.59999951743498
 10
3.474999973973268
 20
16.59999951743498
  0
LWPOLYLINE
  5
903
330
8EA
100
AcDbEntity
  8
0
100
AcDbPolyline
 90
        4
 70
     1
 43
0.0
 10
3.474999973973268
 20
18.84999951743498
 10
3.12499997397326
 20
18.84999951743498
 10
3.12499997397326
 20
17.84999951743498
 10
3.474999973973268
 20
17.84999951743498
  0
LWPOLYLINE
  5
904
330
8EA
100
AcDbEntity
  8
0
100
AcDbPolyline
 90
        4
 70
     1
 43
0.0
 10
6.24999997397326
 20
11.29999951743502
 10
5.899999973973265
 20
11.29999951743502
 10
5.899999973973265
 20
10.32499951743488
 10
6.24999997397326
 20
10.32499951743488
  0
LWPOLYLINE
  5
905
330
8EA
100
AcDbEntity
  8
0
100
AcDbPolyline
 90
        4
 70
     1
 43
0.0
 10
6.24999997397326
 20
12.47499951743498
 10
5.899999973973265
 20
12.47499951743498
 10
5.899999973973265
 20
11.49999951743484
 10
6.24999997397326
 20
11.49999951743484
  0
LWPOLYLINE
  5
906
330
8EA
100
AcDbEntity
  8
0
100
AcDbPolyline
 90
        4
 70
     1
 43
0.0
 10
6.24999997397326
 20
13.74999951743484
 10
5.899999973973265
 20
13.74999951743484
 10
5.899999973973265
 20
12.77499951743493
 10
6.24999997397326
 20
12.77499951743493
  0
LWPOLYLINE
  5
907
330
8EA
100
AcDbEntity
  8
0
100
AcDbPolyline
 90
        4
 70
     1
 43
0.0
 10
6.24999997397326
 20
15.07499951743489
 10
5.899999973973265
 20
15.07499951743489
 10
5.899999973973265
 20
14.12499951743484
 10
6.24999997397326
 20
14.12499951743484
  0
LWPOLYLINE
  5
908
330
8EA
100
AcDbEntity
  8
0
100
AcDbPolyline
 90
        4
 70
     1
 43
0.0
 10
6.24999997397326
 20
16.34999951743498
 10
5.899999973973265
 20
16.34999951743498
 10
5.899999973973265
 20
15.37499951743484
 10
6.24999997397326
 20
15.37499951743484
  0
LWPOLYLINE
  5
909
330
8EA
100
AcDbEntity
  8
0
100
AcDbPolyline
 90
        4
 70
     1
 43
0.0
 10
6.24999997397326
 20
17.57499951743489
 10
5.899999973973265
 20
17.57499951743489
 10
5.899999973973265
 20
16.59999951743498
 10
6.24999997397326
 20
16.59999951743498
  0
LWPOLYLINE
  5
90A
330
8EA
100
AcDbEntity
  8
0
100
AcDbPolyline
 90
        4
 70
     1
 43
0.0
 10
6.24999997397326
 20
18.84999951743498
 10
5.899999973973265
 20
18.84999951743498
 10
5.899999973973265
 20
17.84999951743498
 10
6.24999997397326
 20
17.84999951743498
  0
LWPOLYLINE
  5
90B
330
8EA
100
AcDbEntity
  8
0
100
AcDbPolyline
 90
        4
 70
     1
 43
0.0
 10
6.599999973973268
 20
19.69999951743488
 10
2.899999973973265
 20
19.69999951743488
 10
2.899999973973265
 20
9.47499951743498
 10
6.599999973973268
 20
9.47499951743498
  0
ELLIPSE
  5
90C
330
8EA
100
AcDbEntity
  8
0
100
AcDbEllipse
 10
6.549999973973257
 20
10.02499951743493
 30
0.0
 11
0.0
 21
1.25
 31
0.0
210
0.0
220
0.0
230
1.0
 40
0.98
 41
3.380894
 42
4.528311
  0
ELLIPSE
  5
90D
330
8EA
100
AcDbEntity
  8
0
100
AcDbEllipse
 10
6.549999973973257
 20
19.37499951743484
 30
0.0
 11
0.0
 21
1.25
 31
0.0
210
0.0
220
0.0
230
1.0
 40
0.98
 41
4.509903999999999
 42
6.059223999999999
  0
ELLIPSE
  5
90E
330
8EA
100
AcDbEntity
  8
0
100
AcDbEllipse
 10
2.87499997397326
 20
9.049999517435026
 30
0.0
 11
0.0
 21
1.25
 31
0.0
210
0.0
220
0.0
230
1.0
 40
0.98
 41
1.708854999999999
 42
3.380894
  0
ELLIPSE
  5
90F
330
8EA
100
AcDbEntity
  8
0
100
AcDbEllipse
 10
2.87499997397326
 20
20.29999951743502
 30
0.0
 11
0.0
 21
1.25
 31
0.0
210
0.0
220
0.0
230
1.0
 40
0.98
 41
6.03468
 42
8.053399307179585
  0
LINE
  5
910
330
8EA
100
AcDbEntity
  8
0
100
AcDbLine
 10
6.849999973973268
 20
20.54999951743502
 30
0.0
 11
3.149999973973265
 21
21.47499951743498
 31
0.0
  0
LINE
  5
911
330
8EA
100
AcDbEntity
  8
0
100
AcDbLine
 10
7.774999973973265
 20
10.02499951743493
 30
0.0
 11
7.774999973973265
 21
19.37499951743484
 31
0.0
  0
LINE
  5
912
330
8EA
100
AcDbEntity
  8
0
100
AcDbLine
 10
3.149999973973265
 20
7.799999517435026
 30
0.0
 11
6.849999973973268
 21
8.774999517434935
 31
0.0
  0
LINE
  5
913
330
8EA
100
AcDbEntity
  8
0
100
AcDbLine
 10
1.649999973973265
 20
20.29999951743502
 30
0.0
 11
1.649999973973265
 21
8.949999517434889
 31
0.0
  0
LINE
  5
914
330
8EA
100
AcDbEntity
  8
0
100
AcDbLine
 10
8.524999973973265
 20
23.09999951743498
 30
0.0
 11
0.8999999739732658
 21
23.09999951743498
 31
0.0
  0
ENDBLK
  5
916
330
8EA
100
AcDbEntity
  8
0
100
AcDbBlockEnd
  0
BLOCK
  5
92D
330
917
100
AcDbEntity
  8
0
100
AcDbBlockBegin
  2
A$C2F696F30
 70
     0
 10
0.0
 20
0.0
 30
0.0
  3
A$C2F696F30
  1

  0
LINE
  5
918
330
917
100
AcDbEntity
  8
0
100
AcDbLine
 10
1.400000765164122
 20
-0.0000001933823341
 30
0.0
 11
5.400000765164122
 21
-0.0000001933823341
 31
0.0
  0
LINE
  5
919
330
917
100
AcDbEntity
  8
0
100
AcDbLine
 10
1.400000765164122
 20
13.77499980661764
 30
0.0
 11
5.400000765164122
 21
13.77499980661764
 31
0.0
  0
LWPOLYLINE
  5
91A
330
917
100
AcDbEntity
  8
0
100
AcDbPolyline
 90
        4
 70
     1
 43
0.2
 10
15.40000076516412
 20
13.34999980661768
 10
15.40000076516412
 20
0.3499998066176886
 10
0.4000007651641227
 20
0.3499998066176886
 10
0.4000007651641227
 20
13.34999980661768
  0
LWPOLYLINE
  5
91B
330
917
100
AcDbEntity
  8
0
100
AcDbPolyline
 90
        4
 70
     1
 43
0.2
 10
1.400000765164122
 20
12.34999980661768
 10
3.400000765164122
 20
12.34999980661768
 10
3.400000765164122
 20
1.349999806617688
 10
1.400000765164122
 20
1.349999806617688
  0
LWPOLYLINE
  5
91C
330
917
100
AcDbEntity
  8
0
100
AcDbPolyline
 90
        4
 70
     1
 43
0.2
 10
3.950000765164119
 20
3.349999806617688
 10
3.950000765164119
 20
2.349999806617688
 10
3.400000765164122
 20
2.349999806617688
 10
3.400000765164122
 20
3.349999806617688
  0
LWPOLYLINE
  5
91D
330
917
100
AcDbEntity
  8
0
100
AcDbPolyline
 90
        4
 70
     1
 43
0.2
 10
3.950000765164119
 20
5.749999806617665
 10
3.950000765164119
 20
4.749999806617665
 10
3.400000765164122
 20
4.749999806617665
 10
3.400000765164122
 20
5.749999806617665
  0
LINE
  5
91E
330
917
100
AcDbEntity
  8
0
100
AcDbLine
 10
0.0000007651641241
 20
1.349999806617688
 30
0.0
 11
0.0000007651641241
 21
5.349999806617688
 31
0.0
  0
LWPOLYLINE
  5
91F
330
917
100
AcDbEntity
  8
0
100
AcDbPolyline
 90
        4
 70
     1
 43
0.2
 10
3.950000765164119
 20
8.949999806617711
 10
3.950000765164119
 20
7.949999806617711
 10
3.400000765164122
 20
7.949999806617711
 10
3.400000765164122
 20
8.949999806617711
  0
LWPOLYLINE
  5
920
330
917
100
AcDbEntity
  8
0
100
AcDbPolyline
 90
        4
 70
     1
 43
0.2
 10
3.950000765164119
 20
11.34999980661768
 10
3.950000765164119
 20
10.34999980661768
 10
3.400000765164122
 20
10.34999980661768
 10
3.400000765164122
 20
11.34999980661768
  0
LINE
  5
921
330
917
100
AcDbEntity
  8
0
100
AcDbLine
 10
0.0000007651641241
 20
12.34999980661768
 30
0.0
 11
0.0000007651641241
 21
8.349999806617688
 31
0.0
  0
LWPOLYLINE
  5
922
330
917
100
AcDbEntity
  8
0
100
AcDbPolyline
 90
        4
 70
     1
 43
0.2
 10
10.40000076516412
 20
12.34999980661768
 10
12.40000076516412
 20
12.34999980661768
 10
12.40000076516412
 20
1.349999806617688
 10
10.40000076516412
 20
1.349999806617688
  0
LINE
  5
923
330
917
100
AcDbEntity
  8
0
100
AcDbLine
 10
9.400000765164122
 20
13.34999980661768
 30
0.0
 11
9.400000765164122
 21
0.3499998066176886
 31
0.0
  0
LINE
  5
924
330
917
100
AcDbEntity
  8
0
100
AcDbLine
 10
6.400000765164122
 20
13.34999980661768
 30
0.0
 11
6.400000765164122
 21
0.3499998066176886
 31
0.0
  0
LWPOLYLINE
  5
925
330
917
100
AcDbEntity
  8
0
100
AcDbPolyline
 90
        4
 70
     1
 43
0.2
 10
12.95000076516412
 20
3.349999806617688
 10
12.95000076516412
 20
2.349999806617688
 10
12.40000076516412
 20
2.349999806617688
 10
12.40000076516412
 20
3.349999806617688
  0
LWPOLYLINE
  5
926
330
917
100
AcDbEntity
  8
0
100
AcDbPolyline
 90
        4
 70
     1
 43
0.2
 10
12.95000076516412
 20
5.749999806617665
 10
12.95000076516412
 20
4.749999806617665
 10
12.40000076516412
 20
4.749999806617665
 10
12.40000076516412
 20
5.749999806617665
  0
LINE
  5
927
330
917
100
AcDbEntity
  8
0
100
AcDbLine
 10
14.40000076516412
 20
-0.0000001933823341
 30
0.0
 11
10.40000076516412
 21
-0.0000001933823341
 31
0.0
  0
LINE
  5
928
330
917
100
AcDbEntity
  8
0
100
AcDbLine
 10
15.80000076516412
 20
1.349999806617688
 30
0.0
 11
15.80000076516412
 21
5.349999806617688
 31
0.0
  0
LWPOLYLINE
  5
929
330
917
100
AcDbEntity
  8
0
100
AcDbPolyline
 90
        4
 70
     1
 43
0.2
 10
12.95000076516412
 20
8.949999806617711
 10
12.95000076516412
 20
7.949999806617711
 10
12.40000076516412
 20
7.949999806617711
 10
12.40000076516412
 20
8.949999806617711
  0
LWPOLYLINE
  5
92A
330
917
100
AcDbEntity
  8
0
100
AcDbPolyline
 90
        4
 70
     1
 43
0.2
 10
12.95000076516412
 20
11.34999980661768
 10
12.95000076516412
 20
10.34999980661768
 10
12.40000076516412
 20
10.34999980661768
 10
12.40000076516412
 20
11.34999980661768
  0
LINE
  5
92B
330
917
100
AcDbEntity
  8
0
100
AcDbLine
 10
14.40000076516412
 20
13.77499980661764
 30
0.0
 11
10.40000076516412
 21
13.77499980661764
 31
0.0
  0
LINE
  5
92C
330
917
100
AcDbEntity
  8
0
100
AcDbLine
 10
15.80000076516412
 20
12.34999980661768
 30
0.0
 11
15.80000076516412
 21
8.349999806617688
 31
0.0
  0
ENDBLK
  5
92E
330
917
100
AcDbEntity
  8
0
100
AcDbBlockEnd
  0
BLOCK
  5
960
330
92F
100
AcDbEntity
  8
0
100
AcDbBlockBegin
  2
A$C57095CDF
 70
     0
 10
0.0
 20
0.0
 30
0.0
  3
A$C57095CDF
  1

  0
LWPOLYLINE
  5
930
330
92F
100
AcDbEntity
  8
0
100
AcDbPolyline
 90
        4
 70
     1
 43
0.0
 10
3.474999973973268
 20
16.69999991295117
 10
3.12499997397326
 20
16.69999991295117
 10
3.12499997397326
 20
15.72499991295103
 10
3.474999973973268
 20
15.72499991295103
  0
LWPOLYLINE
  5
931
330
92F
100
AcDbEntity
  8
0
100
AcDbPolyline
 90
        4
 70
     1
 43
0.0
 10
6.24999997397326
 20
16.69999991295117
 10
5.899999973973265
 20
16.69999991295117
 10
5.899999973973265
 20
15.72499991295103
 10
6.24999997397326
 20
15.72499991295103
  0
LWPOLYLINE
  5
932
330
92F
100
AcDbEntity
  8
0
100
AcDbPolyline
 90
        4
 70
     1
 43
0.0
 10
6.599999973973268
 20
24.09999991295103
 10
2.899999973973265
 20
24.09999991295103
 10
2.899999973973265
 20
9.94999991295117
 10
6.599999973973268
 20
9.94999991295117
  0
LINE
  5
933
330
92F
100
AcDbEntity
  8
0
100
AcDbLine
 10
7.774999973973265
 20
9.899999912950988
 30
0.0
 11
7.774999973973265
 21
24.02499991295099
 31
0.0
  0
LINE
  5
934
330
92F
100
AcDbEntity
  8
0
100
AcDbLine
 10
1.649999973973265
 20
24.94999991295117
 30
0.0
 11
1.649999973973265
 21
8.849999912951034
 31
0.0
  0
LWPOLYLINE
  5
935
330
92F
100
AcDbEntity
  8
0
100
AcDbPolyline
 90
        4
 70
     1
 43
0.2
 10
0.0999999739732616
 20
33.42499991295108
 10
0.0999999739732616
 20
0.0999999129510343
 10
9.324999973973262
 20
0.0999999129510343
 10
9.324999973973262
 20
33.42499991295108
  0
LWPOLYLINE
  5
936
330
92F
100
AcDbEntity
  8
0
100
AcDbPolyline
 90
        4
 70
     1
 43
0.0
 10
3.449999973973262
 20
11.87499991295112
 10
3.099999973973261
 20
11.87499991295112
 10
3.099999973973261
 20
10.89999991295098
 10
3.449999973973262
 20
10.89999991295098
  0
LWPOLYLINE
  5
937
330
92F
100
AcDbEntity
  8
0
100
AcDbPolyline
 90
        4
 70
     1
 43
0.0
 10
6.224999973973268
 20
11.87499991295112
 10
5.87499997397326
 20
11.87499991295112
 10
5.87499997397326
 20
10.89999991295098
 10
6.224999973973268
 20
10.89999991295098
  0
LWPOLYLINE
  5
938
330
92F
100
AcDbEntity
  8
0
100
AcDbPolyline
 90
        4
 70
     1
 43
0.0
 10
3.449999973973262
 20
13.07499991295117
 10
3.099999973973261
 20
13.07499991295117
 10
3.099999973973261
 20
12.09999991295103
 10
3.449999973973262
 20
12.09999991295103
  0
LWPOLYLINE
  5
939
330
92F
100
AcDbEntity
  8
0
100
AcDbPolyline
 90
        4
 70
     1
 43
0.0
 10
6.224999973973268
 20
13.07499991295117
 10
5.87499997397326
 20
13.07499991295117
 10
5.87499997397326
 20
12.09999991295103
 10
6.224999973973268
 20
12.09999991295103
  0
LWPOLYLINE
  5
93A
330
92F
100
AcDbEntity
  8
0
100
AcDbPolyline
 90
        4
 70
     1
 43
0.0
 10
3.474999973973268
 20
14.27499991295098
 10
3.12499997397326
 20
14.27499991295098
 10
3.12499997397326
 20
13.29999991295108
 10
3.474999973973268
 20
13.29999991295108
  0
LWPOLYLINE
  5
93B
330
92F
100
AcDbEntity
  8
0
100
AcDbPolyline
 90
        4
 70
     1
 43
0.0
 10
6.24999997397326
 20
14.27499991295098
 10
5.899999973973265
 20
14.27499991295098
 10
5.899999973973265
 20
13.29999991295108
 10
6.24999997397326
 20
13.29999991295108
  0
LINE
  5
93C
330
92F
100
AcDbEntity
  8
0
100
AcDbLine
 10
0.8999999739732658
 20
4.274999912950988
 30
0.0
 11
0.8999999739732658
 21
6.349999912951034
 31
0.0
  0
LINE
  5
93D
330
92F
100
AcDbEntity
  8
0
100
AcDbLine
 10
8.524999973973265
 20
4.274999912950988
 30
0.0
 11
8.524999973973265
 21
6.349999912951034
 31
0.0
  0
LINE
  5
93E
330
92F
100
AcDbEntity
  8
0
100
AcDbLine
 10
6.599999973973268
 20
4.249999912951125
 30
0.0
 11
6.599999973973268
 21
5.224999912951034
 31
0.0
  0
LINE
  5
93F
330
92F
100
AcDbEntity
  8
0
100
AcDbLine
 10
6.599999973973268
 20
5.249999912951125
 30
0.0
 11
3.024999973973265
 21
5.249999912951125
 31
0.0
  0
LINE
  5
940
330
92F
100
AcDbEntity
  8
0
100
AcDbLine
 10
3.024999973973265
 20
4.274999912950988
 30
0.0
 11
3.024999973973265
 21
5.249999912951125
 31
0.0
  0
LINE
  5
941
330
92F
100
AcDbEntity
  8
0
100
AcDbLine
 10
3.024999973973265
 20
4.274999912950988
 30
0.0
 11
0.8999999739732658
 21
4.274999912950988
 31
0.0
  0
LINE
  5
942
330
92F
100
AcDbEntity
  8
0
100
AcDbLine
 10
8.524999973973265
 20
4.274999912950988
 30
0.0
 11
6.599999973973268
 21
4.274999912950988
 31
0.0
  0
LINE
  5
943
330
92F
100
AcDbEntity
  8
0
100
AcDbLine
 10
8.524999973973265
 20
6.349999912951034
 30
0.0
 11
0.8999999739732658
 21
6.349999912951034
 31
0.0
  0
LWPOLYLINE
  5
944
330
92F
100
AcDbEntity
  8
0
100
AcDbPolyline
 90
        4
 70
     1
 43
0.0
 10
3.474999973973268
 20
15.52499991295098
 10
3.12499997397326
 20
15.52499991295098
 10
3.12499997397326
 20
14.54999991295108
 10
3.474999973973268
 20
14.54999991295108
  0
LWPOLYLINE
  5
945
330
92F
100
AcDbEntity
  8
0
100
AcDbPolyline
 90
        4
 70
     1
 43
0.0
 10
6.24999997397326
 20
15.52499991295098
 10
5.899999973973265
 20
15.52499991295098
 10
5.899999973973265
 20
14.54999991295108
 10
6.24999997397326
 20
14.54999991295108
  0
ELLIPSE
  5
946
330
92F
100
AcDbEntity
  8
0
100
AcDbEllipse
 10
6.549999973973257
 20
9.999999912951125
 30
0.0
 11
0.0
 21
1.25
 31
0.0
210
0.0
220
0.0
230
1.0
 40
0.98
 41
3.380894
 42
4.528311
  0
ELLIPSE
  5
947
330
92F
100
AcDbEntity
  8
0
100
AcDbEllipse
 10
2.87499997397326
 20
9.024999912950988
 30
0.0
 11
0.0
 21
1.25
 31
0.0
210
0.0
220
0.0
230
1.0
 40
0.98
 41
1.708854999999999
 42
3.380894
  0
LINE
  5
948
330
92F
100
AcDbEntity
  8
0
100
AcDbLine
 10
3.149999973973265
 20
7.774999912950988
 30
0.0
 11
6.849999973973268
 21
8.749999912951125
 31
0.0
  0
ELLIPSE
  5
949
330
92F
100
AcDbEntity
  8
0
100
AcDbEllipse
 10
4.724999973973268
 20
3.374999912951125
 30
0.0
 11
0.0
 21
0.775
 31
0.0
210
0.0
220
0.0
230
1.0
 40
0.9677419999999999
 41
0.0
 42
6.283184999999999
  0
LINE
  5
94A
330
92F
100
AcDbEntity
  8
0
100
AcDbLine
 10
0.8999999739732658
 20
29.82499991295117
 30
0.0
 11
0.8999999739732658
 21
27.74999991295112
 31
0.0
  0
LINE
  5
94B
330
92F
100
AcDbEntity
  8
0
100
AcDbLine
 10
8.524999973973265
 20
29.82499991295117
 30
0.0
 11
8.524999973973265
 21
27.74999991295112
 31
0.0
  0
LINE
  5
94C
330
92F
100
AcDbEntity
  8
0
100
AcDbLine
 10
6.599999973973268
 20
29.84999991295103
 30
0.0
 11
6.599999973973268
 21
28.87499991295112
 31
0.0
  0
LINE
  5
94D
330
92F
100
AcDbEntity
  8
0
100
AcDbLine
 10
6.599999973973268
 20
28.84999991295103
 30
0.0
 11
3.024999973973265
 21
28.84999991295103
 31
0.0
  0
LINE
  5
94E
330
92F
100
AcDbEntity
  8
0
100
AcDbLine
 10
3.024999973973265
 20
29.82499991295117
 30
0.0
 11
3.024999973973265
 21
28.84999991295103
 31
0.0
  0
LINE
  5
94F
330
92F
100
AcDbEntity
  8
0
100
AcDbLine
 10
3.024999973973265
 20
29.82499991295117
 30
0.0
 11
0.8999999739732658
 21
29.82499991295117
 31
0.0
  0
LINE
  5
950
330
92F
100
AcDbEntity
  8
0
100
AcDbLine
 10
8.524999973973265
 20
29.82499991295117
 30
0.0
 11
6.599999973973268
 21
29.82499991295117
 31
0.0
  0
LWPOLYLINE
  5
951
330
92F
100
AcDbEntity
  8
0
100
AcDbPolyline
 90
        4
 70
     1
 43
0.0
 10
3.474999973973268
 20
17.97499991295103
 10
3.12499997397326
 20
17.97499991295103
 10
3.12499997397326
 20
16.99999991295112
 10
3.474999973973268
 20
16.99999991295112
  0
LWPOLYLINE
  5
952
330
92F
100
AcDbEntity
  8
0
100
AcDbPolyline
 90
        4
 70
     1
 43
0.0
 10
3.474999973973268
 20
19.29999991295107
 10
3.12499997397326
 20
19.29999991295107
 10
3.12499997397326
 20
18.34999991295103
 10
3.474999973973268
 20
18.34999991295103
  0
LWPOLYLINE
  5
953
330
92F
100
AcDbEntity
  8
0
100
AcDbPolyline
 90
        4
 70
     1
 43
0.0
 10
3.474999973973268
 20
20.57499991295117
 10
3.12499997397326
 20
20.57499991295117
 10
3.12499997397326
 20
19.59999991295103
 10
3.474999973973268
 20
19.59999991295103
  0
LWPOLYLINE
  5
954
330
92F
100
AcDbEntity
  8
0
100
AcDbPolyline
 90
        4
 70
     1
 43
0.0
 10
3.474999973973268
 20
21.79999991295108
 10
3.12499997397326
 20
21.79999991295108
 10
3.12499997397326
 20
20.82499991295116
 10
3.474999973973268
 20
20.82499991295116
  0
LWPOLYLINE
  5
955
330
92F
100
AcDbEntity
  8
0
100
AcDbPolyline
 90
        4
 70
     1
 43
0.0
 10
3.474999973973268
 20
23.07499991295117
 10
3.12499997397326
 20
23.07499991295117
 10
3.12499997397326
 20
22.07499991295116
 10
3.474999973973268
 20
22.07499991295116
  0
LWPOLYLINE
  5
956
330
92F
100
AcDbEntity
  8
0
100
AcDbPolyline
 90
        4
 70
     1
 43
0.0
 10
6.24999997397326
 20
17.97499991295103
 10
5.899999973973265
 20
17.97499991295103
 10
5.899999973973265
 20
16.99999991295112
 10
6.24999997397326
 20
16.99999991295112
  0
LWPOLYLINE
  5
957
330
92F
100
AcDbEntity
  8
0
100
AcDbPolyline
 90
        4
 70
     1
 43
0.0
 10
6.24999997397326
 20
19.29999991295107
 10
5.899999973973265
 20
19.29999991295107
 10
5.899999973973265
 20
18.34999991295103
 10
6.24999997397326
 20
18.34999991295103
  0
LWPOLYLINE
  5
958
330
92F
100
AcDbEntity
  8
0
100
AcDbPolyline
 90
        4
 70
     1
 43
0.0
 10
6.24999997397326
 20
20.57499991295117
 10
5.899999973973265
 20
20.57499991295117
 10
5.899999973973265
 20
19.59999991295103
 10
6.24999997397326
 20
19.59999991295103
  0
LWPOLYLINE
  5
959
330
92F
100
AcDbEntity
  8
0
100
AcDbPolyline
 90
        4
 70
     1
 43
0.0
 10
6.24999997397326
 20
21.79999991295108
 10
5.899999973973265
 20
21.79999991295108
 10
5.899999973973265
 20
20.82499991295116
 10
6.24999997397326
 20
20.82499991295116
  0
LWPOLYLINE
  5
95A
330
92F
100
AcDbEntity
  8
0
100
AcDbPolyline
 90
        4
 70
     1
 43
0.0
 10
6.24999997397326
 20
23.07499991295117
 10
5.899999973973265
 20
23.07499991295117
 10
5.899999973973265
 20
22.07499991295116
 10
6.24999997397326
 20
22.07499991295116
  0
ELLIPSE
  5
95B
330
92F
100
AcDbEntity
  8
0
100
AcDbEllipse
 10
6.549999973973257
 20
24.02499991295099
 30
0.0
 11
0.0
 21
1.25
 31
0.0
210
0.0
220
0.0
230
1.0
 40
0.98
 41
4.509903999999999
 42
6.059223999999999
  0
ELLIPSE
  5
95C
330
92F
100
AcDbEntity
  8
0
100
AcDbEllipse
 10
2.87499997397326
 20
24.94999991295117
 30
0.0
 11
0.0
 21
1.25
 31
0.0
210
0.0
220
0.0
230
1.0
 40
0.98
 41
6.03468
 42
8.053399307179585
  0
LINE
  5
95D
330
92F
100
AcDbEntity
  8
0
100
AcDbLine
 10
6.849999973973268
 20
25.19999991295117
 30
0.0
 11
3.149999973973265
 21
26.12499991295112
 31
0.0
  0
ELLIPSE
  5
95E
330
92F
100
AcDbEntity
  8
0
100
AcDbEllipse
 10
4.724999973973268
 20
31.04999991295108
 30
0.0
 11
0.0
 21
0.775
 31
0.0
210
0.0
220
0.0
230
1.0
 40
0.9677419999999999
 41
0.0
 42
6.283184999999999
  0
LINE
  5
95F
330
92F
100
AcDbEntity
  8
0
100
AcDbLine
 10
8.524999973973265
 20
27.74999991295112
 30
0.0
 11
0.8999999739732658
 21
27.74999991295112
 31
0.0
  0
ENDBLK
  5
961
330
92F
100
AcDbEntity
  8
0
100
AcDbBlockEnd
  0
BLOCK
  5
9A3
330
962
100
AcDbEntity
  8
0
100
AcDbBlockBegin
  2
A$C3A6E1F00
 70
     0
 10
0.0
 20
0.0
 30
0.0
  3
A$C3A6E1F00
  1

  0
LWPOLYLINE
  5
963
330
962
100
AcDbEntity
  8
0
100
AcDbPolyline
 90
        4
 70
     1
 43
0.0
 10
3.449999973973262
 20
15.9499995198721
 10
3.099999973973261
 20
15.9499995198721
 10
3.099999973973261
 20
14.9749995198722
 10
3.449999973973262
 20
14.9749995198722
  0
LWPOLYLINE
  5
964
330
962
100
AcDbEntity
  8
0
100
AcDbPolyline
 90
        4
 70
     1
 43
0.0
 10
6.224999973973268
 20
15.9499995198721
 10
5.87499997397326
 20
15.9499995198721
 10
5.87499997397326
 20
14.9749995198722
 10
6.224999973973268
 20
14.9749995198722
  0
LWPOLYLINE
  5
965
330
962
100
AcDbEntity
  8
0
100
AcDbPolyline
 90
        4
 70
     1
 43
0.0
 10
6.599999973973268
 20
34.0749995198721
 10
2.899999973973265
 20
34.0749995198721
 10
2.899999973973265
 20
10.27499951987215
 10
6.599999973973268
 20
10.27499951987215
  0
LINE
  5
966
330
962
100
AcDbEntity
  8
0
100
AcDbLine
 10
7.774999973973265
 20
9.824999519872108
 30
0.0
 11
7.774999973973265
 21
33.99999951987206
 31
0.0
  0
LINE
  5
967
330
962
100
AcDbEntity
  8
0
100
AcDbLine
 10
1.649999973973265
 20
34.92499951987224
 30
0.0
 11
1.649999973973265
 21
8.899999519872153
 31
0.0
  0
LWPOLYLINE
  5
968
330
962
100
AcDbEntity
  8
0
100
AcDbPolyline
 90
        4
 70
     1
 43
0.2
 10
0.0999999739732616
 20
43.39999951987215
 10
0.0999999739732616
 20
0.099999519872199
 10
9.324999973973262
 20
0.099999519872199
 10
9.324999973973262
 20
43.39999951987215
  0
LWPOLYLINE
  5
969
330
962
100
AcDbEntity
  8
0
100
AcDbPolyline
 90
        4
 70
     1
 43
0.0
 10
3.449999973973262
 20
12.29999951987224
 10
3.099999973973261
 20
12.29999951987224
 10
3.099999973973261
 20
11.3249995198721
 10
3.449999973973262
 20
11.3249995198721
  0
LWPOLYLINE
  5
96A
330
962
100
AcDbEntity
  8
0
100
AcDbPolyline
 90
        4
 70
     1
 43
0.0
 10
6.224999973973268
 20
12.29999951987224
 10
5.87499997397326
 20
12.29999951987224
 10
5.87499997397326
 20
11.3249995198721
 10
6.224999973973268
 20
11.3249995198721
  0
LWPOLYLINE
  5
96B
330
962
100
AcDbEntity
  8
0
100
AcDbPolyline
 90
        4
 70
     1
 43
0.0
 10
3.449999973973262
 20
13.52499951987215
 10
3.099999973973261
 20
13.52499951987215
 10
3.099999973973261
 20
12.54999951987224
 10
3.449999973973262
 20
12.54999951987224
  0
LWPOLYLINE
  5
96C
330
962
100
AcDbEntity
  8
0
100
AcDbPolyline
 90
        4
 70
     1
 43
0.0
 10
6.224999973973268
 20
13.52499951987215
 10
5.87499997397326
 20
13.52499951987215
 10
5.87499997397326
 20
12.54999951987224
 10
6.224999973973268
 20
12.54999951987224
  0
LWPOLYLINE
  5
96D
330
962
100
AcDbEntity
  8
0
100
AcDbPolyline
 90
        4
 70
     1
 43
0.0
 10
3.449999973973262
 20
14.74999951987206
 10
3.099999973973261
 20
14.74999951987206
 10
3.099999973973261
 20
13.77499951987215
 10
3.449999973973262
 20
13.77499951987215
  0
LWPOLYLINE
  5
96E
330
962
100
AcDbEntity
  8
0
100
AcDbPolyline
 90
        4
 70
     1
 43
0.0
 10
6.224999973973268
 20
14.74999951987206
 10
5.87499997397326
 20
14.74999951987206
 10
5.87499997397326
 20
13.77499951987215
 10
6.224999973973268
 20
13.77499951987215
  0
LINE
  5
96F
330
962
100
AcDbEntity
  8
0
100
AcDbLine
 10
0.8999999739732658
 20
4.374999519872176
 30
0.0
 11
0.8999999739732658
 21
6.449999519872108
 31
0.0
  0
LINE
  5
970
330
962
100
AcDbEntity
  8
0
100
AcDbLine
 10
8.524999973973265
 20
4.374999519872176
 30
0.0
 11
8.524999973973265
 21
6.449999519872108
 31
0.0
  0
LINE
  5
971
330
962
100
AcDbEntity
  8
0
100
AcDbLine
 10
6.599999973973268
 20
4.349999519872199
 30
0.0
 11
6.599999973973268
 21
5.324999519872108
 31
0.0
  0
LINE
  5
972
330
962
100
AcDbEntity
  8
0
100
AcDbLine
 10
6.599999973973268
 20
5.349999519872199
 30
0.0
 11
3.024999973973265
 21
5.349999519872199
 31
0.0
  0
LINE
  5
973
330
962
100
AcDbEntity
  8
0
100
AcDbLine
 10
3.024999973973265
 20
4.374999519872176
 30
0.0
 11
3.024999973973265
 21
5.349999519872199
 31
0.0
  0
LINE
  5
974
330
962
100
AcDbEntity
  8
0
100
AcDbLine
 10
3.024999973973265
 20
4.374999519872176
 30
0.0
 11
0.8999999739732658
 21
4.374999519872176
 31
0.0
  0
LINE
  5
975
330
962
100
AcDbEntity
  8
0
100
AcDbLine
 10
8.524999973973265
 20
4.374999519872176
 30
0.0
 11
6.599999973973268
 21
4.374999519872176
 31
0.0
  0
LINE
  5
976
330
962
100
AcDbEntity
  8
0
100
AcDbLine
 10
8.524999973973265
 20
6.449999519872108
 30
0.0
 11
0.8999999739732658
 21
6.449999519872108
 31
0.0
  0
ELLIPSE
  5
977
330
962
100
AcDbEntity
  8
0
100
AcDbEllipse
 10
6.549999973973257
 20
10.04999951987224
 30
0.0
 11
0.0
 21
1.25
 31
0.0
210
0.0
220
0.0
230
1.0
 40
0.98
 41
3.380894
 42
4.528311
  0
ELLIPSE
  5
978
330
962
100
AcDbEntity
  8
0
100
AcDbEllipse
 10
2.87499997397326
 20
9.074999519872108
 30
0.0
 11
0.0
 21
1.25
 31
0.0
210
0.0
220
0.0
230
1.0
 40
0.98
 41
1.708854999999999
 42
3.380894
  0
LINE
  5
979
330
962
100
AcDbEntity
  8
0
100
AcDbLine
 10
3.149999973973265
 20
7.824999519872108
 30
0.0
 11
6.849999973973268
 21
8.799999519872244
 31
0.0
  0
ELLIPSE
  5
97A
330
962
100
AcDbEntity
  8
0
100
AcDbEllipse
 10
4.724999973973268
 20
3.474999519872199
 30
0.0
 11
0.0
 21
0.775
 31
0.0
210
0.0
220
0.0
230
1.0
 40
0.9677419999999999
 41
0.0
 42
6.283184999999999
  0
LINE
  5
97B
330
962
100
AcDbEntity
  8
0
100
AcDbLine
 10
0.8999999739732658
 20
39.79999951987224
 30
0.0
 11
0.8999999739732658
 21
37.72499951987219
 31
0.0
  0
LINE
  5
97C
330
962
100
AcDbEntity
  8
0
100
AcDbLine
 10
8.524999973973265
 20
39.79999951987224
 30
0.0
 11
8.524999973973265
 21
37.72499951987219
 31
0.0
  0
LWPOLYLINE
  5
97D
330
962
100
AcDbEntity
  8
0
100
AcDbPolyline
 90
        4
 70
     1
 43
0.0
 10
3.449999973973262
 20
17.12499951987206
 10
3.099999973973261
 20
17.12499951987206
 10
3.099999973973261
 20
16.14999951987215
 10
3.449999973973262
 20
16.14999951987215
  0
LWPOLYLINE
  5
97E
330
962
100
AcDbEntity
  8
0
100
AcDbPolyline
 90
        4
 70
     1
 43
0.0
 10
6.224999973973268
 20
17.12499951987206
 10
5.87499997397326
 20
17.12499951987206
 10
5.87499997397326
 20
16.14999951987215
 10
6.224999973973268
 20
16.14999951987215
  0
LWPOLYLINE
  5
97F
330
962
100
AcDbEntity
  8
0
100
AcDbPolyline
 90
        4
 70
     1
 43
0.0
 10
3.449999973973262
 20
18.29999951987224
 10
3.099999973973261
 20
18.29999951987224
 10
3.099999973973261
 20
17.3249995198721
 10
3.449999973973262
 20
17.3249995198721
  0
LWPOLYLINE
  5
980
330
962
100
AcDbEntity
  8
0
100
AcDbPolyline
 90
        4
 70
     1
 43
0.0
 10
6.224999973973268
 20
18.29999951987224
 10
5.87499997397326
 20
18.29999951987224
 10
5.87499997397326
 20
17.3249995198721
 10
6.224999973973268
 20
17.3249995198721
  0
LWPOLYLINE
  5
981
330
962
100
AcDbEntity
  8
0
100
AcDbPolyline
 90
        4
 70
     1
 43
0.0
 10
3.449999973973262
 20
19.4749995198722
 10
3.099999973973261
 20
19.4749995198722
 10
3.099999973973261
 20
18.49999951987206
 10
3.449999973973262
 20
18.49999951987206
  0
LWPOLYLINE
  5
982
330
962
100
AcDbEntity
  8
0
100
AcDbPolyline
 90
        4
 70
     1
 43
0.0
 10
6.224999973973268
 20
19.4749995198722
 10
5.87499997397326
 20
19.4749995198722
 10
5.87499997397326
 20
18.49999951987206
 10
6.224999973973268
 20
18.49999951987206
  0
LWPOLYLINE
  5
983
330
962
100
AcDbEntity
  8
0
100
AcDbPolyline
 90
        4
 70
     1
 43
0.0
 10
3.449999973973262
 20
20.67499951987224
 10
3.099999973973261
 20
20.67499951987224
 10
3.099999973973261
 20
19.6999995198721
 10
3.449999973973262
 20
19.6999995198721
  0
LWPOLYLINE
  5
984
330
962
100
AcDbEntity
  8
0
100
AcDbPolyline
 90
        4
 70
     1
 43
0.0
 10
6.224999973973268
 20
20.67499951987224
 10
5.87499997397326
 20
20.67499951987224
 10
5.87499997397326
 20
19.6999995198721
 10
6.224999973973268
 20
19.6999995198721
  0
LWPOLYLINE
  5
985
330
962
100
AcDbEntity
  8
0
100
AcDbPolyline
 90
        4
 70
     1
 43
0.0
 10
3.449999973973262
 20
21.8499995198722
 10
3.099999973973261
 20
21.8499995198722
 10
3.099999973973261
 20
20.87499951987206
 10
3.449999973973262
 20
20.87499951987206
  0
LWPOLYLINE
  5
986
330
962
100
AcDbEntity
  8
0
100
AcDbPolyline
 90
        4
 70
     1
 43
0.0
 10
6.224999973973268
 20
21.8499995198722
 10
5.87499997397326
 20
21.8499995198722
 10
5.87499997397326
 20
20.87499951987206
 10
6.224999973973268
 20
20.87499951987206
  0
LWPOLYLINE
  5
987
330
962
100
AcDbEntity
  8
0
100
AcDbPolyline
 90
        4
 70
     1
 43
0.0
 10
3.449999973973262
 20
23.04999951987224
 10
3.099999973973261
 20
23.04999951987224
 10
3.099999973973261
 20
22.0749995198721
 10
3.449999973973262
 20
22.0749995198721
  0
LWPOLYLINE
  5
988
330
962
100
AcDbEntity
  8
0
100
AcDbPolyline
 90
        4
 70
     1
 43
0.0
 10
6.224999973973268
 20
23.04999951987224
 10
5.87499997397326
 20
23.04999951987224
 10
5.87499997397326
 20
22.0749995198721
 10
6.224999973973268
 20
22.0749995198721
  0
LWPOLYLINE
  5
989
330
962
100
AcDbEntity
  8
0
100
AcDbPolyline
 90
        4
 70
     1
 43
0.0
 10
3.474999973973268
 20
24.24999951987206
 10
3.12499997397326
 20
24.24999951987206
 10
3.12499997397326
 20
23.27499951987215
 10
3.474999973973268
 20
23.27499951987215
  0
LWPOLYLINE
  5
98A
330
962
100
AcDbEntity
  8
0
100
AcDbPolyline
 90
        4
 70
     1
 43
0.0
 10
6.24999997397326
 20
24.24999951987206
 10
5.899999973973265
 20
24.24999951987206
 10
5.899999973973265
 20
23.27499951987215
 10
6.24999997397326
 20
23.27499951987215
  0
LWPOLYLINE
  5
98B
330
962
100
AcDbEntity
  8
0
100
AcDbPolyline
 90
        4
 70
     1
 43
0.0
 10
3.474999973973268
 20
25.49999951987206
 10
3.12499997397326
 20
25.49999951987206
 10
3.12499997397326
 20
24.52499951987215
 10
3.474999973973268
 20
24.52499951987215
  0
LWPOLYLINE
  5
98C
330
962
100
AcDbEntity
  8
0
100
AcDbPolyline
 90
        4
 70
     1
 43
0.0
 10
3.474999973973268
 20
26.67499951987224
 10
3.12499997397326
 20
26.67499951987224
 10
3.12499997397326
 20
25.6999995198721
 10
3.474999973973268
 20
25.6999995198721
  0
LWPOLYLINE
  5
98D
330
962
100
AcDbEntity
  8
0
100
AcDbPolyline
 90
        4
 70
     1
 43
0.0
 10
3.474999973973268
 20
27.94999951987211
 10
3.12499997397326
 20
27.94999951987211
 10
3.12499997397326
 20
26.9749995198722
 10
3.474999973973268
 20
26.9749995198722
  0
LWPOLYLINE
  5
98E
330
962
100
AcDbEntity
  8
0
100
AcDbPolyline
 90
        4
 70
     1
 43
0.0
 10
3.474999973973268
 20
29.27499951987215
 10
3.12499997397326
 20
29.27499951987215
 10
3.12499997397326
 20
28.32499951987211
 10
3.474999973973268
 20
28.32499951987211
  0
LWPOLYLINE
  5
98F
330
962
100
AcDbEntity
  8
0
100
AcDbPolyline
 90
        4
 70
     1
 43
0.0
 10
3.474999973973268
 20
30.54999951987224
 10
3.12499997397326
 20
30.54999951987224
 10
3.12499997397326
 20
29.57499951987211
 10
3.474999973973268
 20
29.57499951987211
  0
LWPOLYLINE
  5
990
330
962
100
AcDbEntity
  8
0
100
AcDbPolyline
 90
        4
 70
     1
 43
0.0
 10
3.474999973973268
 20
31.77499951987215
 10
3.12499997397326
 20
31.77499951987215
 10
3.12499997397326
 20
30.79999951987224
 10
3.474999973973268
 20
30.79999951987224
  0
LWPOLYLINE
  5
991
330
962
100
AcDbEntity
  8
0
100
AcDbPolyline
 90
        4
 70
     1
 43
0.0
 10
3.474999973973268
 20
33.04999951987224
 10
3.12499997397326
 20
33.04999951987224
 10
3.12499997397326
 20
32.04999951987224
 10
3.474999973973268
 20
32.04999951987224
  0
LWPOLYLINE
  5
992
330
962
100
AcDbEntity
  8
0
100
AcDbPolyline
 90
        4
 70
     1
 43
0.0
 10
6.24999997397326
 20
25.49999951987206
 10
5.899999973973265
 20
25.49999951987206
 10
5.899999973973265
 20
24.52499951987215
 10
6.24999997397326
 20
24.52499951987215
  0
LWPOLYLINE
  5
993
330
962
100
AcDbEntity
  8
0
100
AcDbPolyline
 90
        4
 70
     1
 43
0.0
 10
6.24999997397326
 20
26.67499951987224
 10
5.899999973973265
 20
26.67499951987224
 10
5.899999973973265
 20
25.6999995198721
 10
6.24999997397326
 20
25.6999995198721
  0
LWPOLYLINE
  5
994
330
962
100
AcDbEntity
  8
0
100
AcDbPolyline
 90
        4
 70
     1
 43
0.0
 10
6.24999997397326
 20
27.94999951987211
 10
5.899999973973265
 20
27.94999951987211
 10
5.899999973973265
 20
26.9749995198722
 10
6.24999997397326
 20
26.9749995198722
  0
LWPOLYLINE
  5
995
330
962
100
AcDbEntity
  8
0
100
AcDbPolyline
 90
        4
 70
     1
 43
0.0
 10
6.24999997397326
 20
29.27499951987215
 10
5.899999973973265
 20
29.27499951987215
 10
5.899999973973265
 20
28.32499951987211
 10
6.24999997397326
 20
28.32499951987211
  0
LWPOLYLINE
  5
996
330
962
100
AcDbEntity
  8
0
100
AcDbPolyline
 90
        4
 70
     1
 43
0.0
 10
6.24999997397326
 20
30.54999951987224
 10
5.899999973973265
 20
30.54999951987224
 10
5.899999973973265
 20
29.57499951987211
 10
6.24999997397326
 20
29.57499951987211
  0
LWPOLYLINE
  5
997
330
962
100
AcDbEntity
  8
0
100
AcDbPolyline
 90
        4
 70
     1
 43
0.0
 10
6.24999997397326
 20
31.77499951987215
 10
5.899999973973265
 20
31.77499951987215
 10
5.899999973973265
 20
30.79999951987224
 10
6.24999997397326
 20
30.79999951987224
  0
LWPOLYLINE
  5
998
330
962
100
AcDbEntity
  8
0
100
AcDbPolyline
 90
        4
 70
     1
 43
0.0
 10
6.24999997397326
 20
33.04999951987224
 10
5.899999973973265
 20
33.04999951987224
 10
5.899999973973265
 20
32.04999951987224
 10
6.24999997397326
 20
32.04999951987224
  0
ELLIPSE
  5
999
330
962
100
AcDbEntity
  8
0
100
AcDbEllipse
 10
6.549999973973257
 20
33.99999951987206
 30
0.0
 11
0.0
 21
1.25
 31
0.0
210
0.0
220
0.0
230
1.0
 40
0.98
 41
4.509903999999999
 42
6.059223999999999
  0
ELLIPSE
  5
99A
330
962
100
AcDbEntity
  8
0
100
AcDbEllipse
 10
2.87499997397326
 20
34.92499951987224
 30
0.0
 11
0.0
 21
1.25
 31
0.0
210
0.0
220
0.0
230
1.0
 40
0.98
 41
6.03468
 42
8.053399307179585
  0
LINE
  5
99B
330
962
100
AcDbEntity
  8
0
100
AcDbLine
 10
6.849999973973268
 20
35.17499951987224
 30
0.0
 11
3.149999973973265
 21
36.09999951987219
 31
0.0
  0
LINE
  5
99C
330
962
100
AcDbEntity
  8
0
100
AcDbLine
 10
8.524999973973265
 20
37.72499951987219
 30
0.0
 11
0.8999999739732658
 21
37.72499951987219
 31
0.0
  0
LINE
  5
99D
330
962
100
AcDbEntity
  8
0
100
AcDbLine
 10
6.599999973973268
 20
39.82499951987211
 30
0.0
 11
6.599999973973268
 21
38.8499995198722
 31
0.0
  0
LINE
  5
99E
330
962
100
AcDbEntity
  8
0
100
AcDbLine
 10
6.599999973973268
 20
38.8249995198721
 30
0.0
 11
3.024999973973265
 21
38.8249995198721
 31
0.0
  0
LINE
  5
99F
330
962
100
AcDbEntity
  8
0
100
AcDbLine
 10
3.024999973973265
 20
39.79999951987224
 30
0.0
 11
3.024999973973265
 21
38.8249995198721
 31
0.0
  0
LINE
  5
9A0
330
962
100
AcDbEntity
  8
0
100
AcDbLine
 10
3.024999973973265
 20
39.79999951987224
 30
0.0
 11
0.8999999739732658
 21
39.79999951987224
 31
0.0
  0
LINE
  5
9A1
330
962
100
AcDbEntity
  8
0
100
AcDbLine
 10
8.524999973973265
 20
39.79999951987224
 30
0.0
 11
6.599999973973268
 21
39.79999951987224
 31
0.0
  0
ELLIPSE
  5
9A2
330
962
100
AcDbEntity
  8
0
100
AcDbEllipse
 10
4.724999973973268
 20
41.02499951987215
 30
0.0
 11
0.0
 21
0.775
 31
0.0
210
0.0
220
0.0
230
1.0
 40
0.9677419999999999
 41
0.0
 42
6.283184999999999
  0
ENDBLK
  5
9A4
330
962
100
AcDbEntity
  8
0
100
AcDbBlockEnd
  0
BLOCK
  5
7694
330
75D5
100
AcDbEntity
  8
0
100
AcDbBlockBegin
  2
MC_1_5-2-STF-3_81__6
 70
     0
 10
11.65200479999999
 20
-9.005000000000009
 30
0.0
  3
MC_1_5-2-STF-3_81__6
  1

  0
LINE
  5
75D6
330
75D5
100
AcDbEntity
  8
0
 62
     7
100
AcDbLine
 10
22.45200479999998
 20
4.204999999999998
 30
0.0
 11
22.2520048
 21
4.204999999999998
 31
0.0
  0
LINE
  5
75D7
330
75D5
100
AcDbEntity
  8
0
 62
     7
100
AcDbLine
 10
22.75200479999999
 20
3.405000000000001
 30
0.0
 11
22.7520048
 21
4.204999999999998
 31
0.0
  0
LINE
  5
75D8
330
75D5
100
AcDbEntity
  8
0
 62
     7
100
AcDbLine
 10
22.7520048
 20
-4.204999999999998
 30
0.0
 11
22.75200479999999
 21
-3.405000000000001
 31
0.0
  0
LINE
  5
75D9
330
75D5
100
AcDbEntity
  8
0
 62
     7
100
AcDbLine
 10
22.45200479999998
 20
-4.204999999999998
 30
0.0
 11
22.2520048
 21
-4.204999999999998
 31
0.0
  0
LINE
  5
75DA
330
75D5
100
AcDbEntity
  8
0
 62
     7
100
AcDbLine
 10
22.7520048
 20
4.204999999999998
 30
0.0
 11
22.45200479999998
 21
4.204999999999998
 31
0.0
  0
LINE
  5
75DB
330
75D5
100
AcDbEntity
  8
0
 62
     7
100
AcDbLine
 10
22.7520048
 20
-4.204999999999998
 30
0.0
 11
22.45200479999998
 21
-4.204999999999998
 31
0.0
  0
LINE
  5
75DC
330
75D5
100
AcDbEntity
  8
0
 62
     7
100
AcDbLine
 10
16.22700479999998
 20
5.718068416798288
 30
0.0
 11
16.22700479999998
 21
7.091931583201727
 31
0.0
  0
LINE
  5
75DD
330
75D5
100
AcDbEntity
  8
0
 62
     7
100
AcDbLine
 10
19.12502869120912
 20
4.837001361960294
 30
0.0
 11
16.48400616196027
 21
7.478023891209136
 31
0.0
  0
LINE
  5
75DE
330
75D5
100
AcDbEntity
  8
0
 62
     7
100
AcDbLine
 10
16.97898090879087
 20
7.972998638039726
 30
0.0
 11
19.6200034380397
 21
5.331976108790883
 31
0.0
  0
LINE
  5
75DF
330
75D5
100
AcDbEntity
  8
0
 62
     7
100
AcDbLine
 10
20.85200480000001
 20
4.204999999999998
 30
0.0
 11
20.85200480000001
 21
8.005000000000009
 31
0.0
  0
LINE
  5
75E0
330
75D5
100
AcDbEntity
  8
0
 62
     7
100
AcDbLine
 10
17.35200480000009
 20
3.268050143491976
 30
0.0
 11
17.35200480000001
 21
4.204999999999998
 31
0.0
  0
LINE
  5
75E1
330
75D5
100
AcDbEntity
  8
0
 62
     7
100
AcDbLine
 10
18.35200480000003
 20
4.204999999999998
 30
0.0
 11
18.35200480000001
 21
-4.204999999999998
 31
0.0
  0
LINE
  5
75E2
330
75D5
100
AcDbEntity
  8
0
 62
     7
100
AcDbLine
 10
17.35200480000002
 20
-0.5419498565080297
 30
0.0
 11
17.35200480000009
 21
0.5419498565080261
 31
0.0
  0
LINE
  5
75E3
330
75D5
100
AcDbEntity
  8
0
 62
     7
100
AcDbLine
 10
17.35200480000001
 20
-3.268050143491976
 30
0.0
 11
17.35200480000002
 21
-0.5419498565080297
 31
0.0
  0
LINE
  5
75E4
330
75D5
100
AcDbEntity
  8
0
 62
     7
100
AcDbLine
 10
17.35200480000001
 20
-4.204999999999998
 30
0.0
 11
17.35200480000001
 21
-3.268050143491976
 31
0.0
  0
LINE
  5
75E5
330
75D5
100
AcDbEntity
  8
0
 62
     7
100
AcDbLine
 10
17.35200480000001
 20
-4.204999999999998
 30
0.0
 11
17.65200480000006
 21
-4.204999999999998
 31
0.0
  0
LINE
  5
75E6
330
75D5
100
AcDbEntity
  8
0
 62
     7
100
AcDbLine
 10
17.85200480000012
 20
-4.204999999999998
 30
0.0
 11
18.35200480000001
 21
-4.204999999999998
 31
0.0
  0
LINE
  5
75E7
330
75D5
100
AcDbEntity
  8
0
 62
     7
100
AcDbLine
 10
18.35200480000001
 20
-4.204999999999998
 30
0.0
 11
20.85200480000001
 21
-4.204999999999998
 31
0.0
  0
LINE
  5
75E8
330
75D5
100
AcDbEntity
  8
0
 62
     7
100
AcDbLine
 10
17.65200480000006
 20
-4.204999999999998
 30
0.0
 11
17.85200480000012
 21
-4.204999999999998
 31
0.0
  0
LINE
  5
75E9
330
75D5
100
AcDbEntity
  8
0
 62
     7
100
AcDbLine
 10
18.7389363832017
 20
4.580000000000012
 30
0.0
 11
17.36507321679829
 21
4.580000000000012
 31
0.0
  0
LINE
  5
75EA
330
75D5
100
AcDbEntity
  8
0
 62
     7
100
AcDbLine
 10
19.87700479999998
 20
5.718068416798288
 30
0.0
 11
19.87700479999998
 21
7.091931583201727
 31
0.0
  0
LINE
  5
75EB
330
75D5
100
AcDbEntity
  8
0
 62
     7
100
AcDbLine
 10
17.35200480000001
 20
4.204999999999998
 30
0.0
 11
17.65200480000006
 21
4.204999999999998
 31
0.0
  0
LINE
  5
75EC
330
75D5
100
AcDbEntity
  8
0
 62
     7
100
AcDbLine
 10
17.35200480000009
 20
0.5419498565080261
 30
0.0
 11
17.35200480000009
 21
3.268050143491976
 31
0.0
  0
LINE
  5
75ED
330
75D5
100
AcDbEntity
  8
0
 62
     7
100
AcDbLine
 10
17.85200480000012
 20
4.204999999999998
 30
0.0
 11
18.35200480000003
 21
4.204999999999998
 31
0.0
  0
LINE
  5
75EE
330
75D5
100
AcDbEntity
  8
0
 62
     7
100
AcDbLine
 10
17.65200480000006
 20
4.204999999999998
 30
0.0
 11
17.85200480000012
 21
4.204999999999998
 31
0.0
  0
LINE
  5
75EF
330
75D5
100
AcDbEntity
  8
0
 62
     7
100
AcDbLine
 10
18.7389363832017
 20
8.230000000000003
 30
0.0
 11
17.36507321679828
 21
8.230000000000003
 31
0.0
  0
LINE
  5
75F0
330
75D5
100
AcDbEntity
  8
0
 62
     7
100
AcDbLine
 10
22.15200480000001
 20
4.204999999999998
 30
0.0
 11
22.15200480000001
 21
-4.204999999999998
 31
0.0
  0
LINE
  5
75F1
330
75D5
100
AcDbEntity
  8
0
 62
     7
100
AcDbLine
 10
15.25200480000002
 20
-4.204999999999998
 30
0.0
 11
12.7520048
 21
-4.204999999999998
 31
0.0
  0
LINE
  5
75F2
330
75D5
100
AcDbEntity
  8
0
 62
     7
100
AcDbLine
 10
15.25200480000002
 20
4.204999999999998
 30
0.0
 11
17.35200480000001
 21
4.204999999999998
 31
0.0
  0
LINE
  5
75F3
330
75D5
100
AcDbEntity
  8
0
 62
     7
100
AcDbLine
 10
15.25200480000002
 20
-4.204999999999998
 30
0.0
 11
17.35200480000001
 21
-4.204999999999998
 31
0.0
  0
LINE
  5
75F4
330
75D5
100
AcDbEntity
  8
0
 62
     7
100
AcDbLine
 10
20.85200480000001
 20
4.204999999999998
 30
0.0
 11
18.35200480000003
 21
4.204999999999998
 31
0.0
  0
LINE
  5
75F5
330
75D5
100
AcDbEntity
  8
0
 62
     7
100
AcDbLine
 10
22.15200480000001
 20
4.204999999999998
 30
0.0
 11
20.85200480000001
 21
4.204999999999998
 31
0.0
  0
LINE
  5
75F6
330
75D5
100
AcDbEntity
  8
0
 62
     7
100
AcDbLine
 10
20.85200480000001
 20
-4.204999999999998
 30
0.0
 11
22.15200480000001
 21
-4.204999999999998
 31
0.0
  0
LINE
  5
75F7
330
75D5
100
AcDbEntity
  8
0
 62
     7
100
AcDbLine
 10
22.2520048
 20
4.204999999999998
 30
0.0
 11
22.15200480000001
 21
4.204999999999998
 31
0.0
  0
LINE
  5
75F8
330
75D5
100
AcDbEntity
  8
0
 62
     7
100
AcDbLine
 10
22.2520048
 20
-4.204999999999998
 30
0.0
 11
22.15200480000001
 21
-4.204999999999998
 31
0.0
  0
LINE
  5
75F9
330
75D5
100
AcDbEntity
  8
0
 62
     7
100
AcDbLine
 10
22.75200479999999
 20
-3.355000000000017
 30
0.0
 11
22.75200479999999
 21
-3.405000000000001
 31
0.0
  0
LINE
  5
75FA
330
75D5
100
AcDbEntity
  8
0
 62
     7
100
AcDbLine
 10
22.75200479999999
 20
-3.057345434320807
 30
0.0
 11
22.75200479999999
 21
-3.355000000000017
 31
0.0
  0
LINE
  5
75FB
330
75D5
100
AcDbEntity
  8
0
 62
     7
100
AcDbLine
 10
15.25200480000002
 20
4.204999999999998
 30
0.0
 11
12.7520048
 21
4.204999999999998
 31
0.0
  0
LINE
  5
75FC
330
75D5
100
AcDbEntity
  8
0
 62
     7
100
AcDbLine
 10
12.51610641513737
 20
-3.268549682463004
 30
0.0
 11
12.51610641513737
 21
-0.5414503175369987
 31
0.0
  0
LINE
  5
75FD
330
75D5
100
AcDbEntity
  8
0
 62
     7
100
AcDbLine
 10
22.75200479999999
 20
-3.057345434320807
 30
0.0
 11
22.75200479999999
 21
-0.7526545656791513
 31
0.0
  0
LINE
  5
75FE
330
75D5
100
AcDbEntity
  8
0
 62
     7
100
AcDbLine
 10
22.75200479999999
 20
-0.4549999999999841
 30
0.0
 11
22.75200479999999
 21
-0.7526545656791513
 31
0.0
  0
LINE
  5
75FF
330
75D5
100
AcDbEntity
  8
0
 62
     7
100
AcDbLine
 10
22.75200479999999
 20
0.4549999999999841
 30
0.0
 11
22.75200479999999
 21
-0.4549999999999841
 31
0.0
  0
LINE
  5
7600
330
75D5
100
AcDbEntity
  8
0
 62
     7
100
AcDbLine
 10
12.51610641513737
 20
0.5414503175369987
 30
0.0
 11
12.51610641513737
 21
3.268549682463004
 31
0.0
  0
LINE
  5
7601
330
75D5
100
AcDbEntity
  8
0
 62
     7
100
AcDbLine
 10
13.05200480000026
 20
2.765000000000071
 30
0.0
 11
13.01578513557523
 21
2.765000000000128
 31
0.0
  0
LINE
  5
7602
330
75D5
100
AcDbEntity
  8
0
 62
     7
100
AcDbLine
 10
15.80200480000035
 20
2.765000000000071
 30
0.0
 11
13.05200480000026
 21
2.765000000000071
 31
0.0
  0
LINE
  5
7603
330
75D5
100
AcDbEntity
  8
0
 62
     7
100
AcDbLine
 10
15.97876816497175
 20
2.76500000000008
 30
0.0
 11
15.80200480000035
 21
2.765000000000071
 31
0.0
  0
LINE
  5
7604
330
75D5
100
AcDbEntity
  8
0
 62
     7
100
AcDbLine
 10
13.05200480000026
 20
2.765000000000071
 30
0.0
 11
13.05200480000026
 21
1.045000000000044
 31
0.0
  0
LINE
  5
7605
330
75D5
100
AcDbEntity
  8
0
 62
     7
100
AcDbLine
 10
15.80200480000035
 20
1.045000000000045
 30
0.0
 11
15.80200480000035
 21
2.765000000000071
 31
0.0
  0
LINE
  5
7606
330
75D5
100
AcDbEntity
  8
0
 62
     7
100
AcDbLine
 10
13.05200480000026
 20
1.045000000000044
 30
0.0
 11
13.01578513557525
 21
1.044999999999945
 31
0.0
  0
LINE
  5
7607
330
75D5
100
AcDbEntity
  8
0
 62
     7
100
AcDbLine
 10
13.05200480000026
 20
1.045000000000044
 30
0.0
 11
15.80200480000035
 21
1.045000000000045
 31
0.0
  0
LINE
  5
7608
330
75D5
100
AcDbEntity
  8
0
 62
     7
100
AcDbLine
 10
15.97876816497182
 20
1.044999999999959
 30
0.0
 11
15.80200480000035
 21
1.045000000000045
 31
0.0
  0
LINE
  5
7609
330
75D5
100
AcDbEntity
  8
0
 62
     7
100
AcDbLine
 10
22.75200479999999
 20
3.355000000000017
 30
0.0
 11
22.75200479999999
 21
3.405000000000001
 31
0.0
  0
LINE
  5
760A
330
75D5
100
AcDbEntity
  8
0
 62
     7
100
AcDbLine
 10
22.75200479999999
 20
3.057345434320807
 30
0.0
 11
22.75200479999999
 21
3.355000000000017
 31
0.0
  0
LINE
  5
760B
330
75D5
100
AcDbEntity
  8
0
 62
     7
100
AcDbLine
 10
22.75200479999999
 20
0.7526545656791939
 30
0.0
 11
22.75200479999999
 21
3.057345434320807
 31
0.0
  0
LINE
  5
760C
330
75D5
100
AcDbEntity
  8
0
 62
     7
100
AcDbLine
 10
22.75200479999999
 20
0.7526545656791939
 30
0.0
 11
22.75200479999999
 21
0.4549999999999841
 31
0.0
  0
LINE
  5
760D
330
75D5
100
AcDbEntity
  8
0
 62
     7
100
AcDbLine
 10
15.80200480000034
 20
-1.044999999999922
 30
0.0
 11
15.80200480000034
 21
-2.764999999999958
 31
0.0
  0
LINE
  5
760E
330
75D5
100
AcDbEntity
  8
0
 62
     7
100
AcDbLine
 10
15.97876816497185
 20
-1.044999999999945
 30
0.0
 11
15.80200480000034
 21
-1.044999999999922
 31
0.0
  0
LINE
  5
760F
330
75D5
100
AcDbEntity
  8
0
 62
     7
100
AcDbLine
 10
15.97876816497185
 20
-2.764999999999949
 30
0.0
 11
15.80200480000034
 21
-2.764999999999958
 31
0.0
  0
LINE
  5
7610
330
75D5
100
AcDbEntity
  8
0
 62
     7
100
AcDbLine
 10
13.01578513557523
 20
-1.044999999999874
 30
0.0
 11
13.05200480000026
 21
-1.04499999999993
 31
0.0
  0
LINE
  5
7611
330
75D5
100
AcDbEntity
  8
0
 62
     7
100
AcDbLine
 10
13.05200480000026
 20
-1.04499999999993
 30
0.0
 11
13.05200480000026
 21
-2.764999999999958
 31
0.0
  0
LINE
  5
7612
330
75D5
100
AcDbEntity
  8
0
 62
     7
100
AcDbLine
 10
13.05200480000026
 20
-2.764999999999958
 30
0.0
 11
13.01578513557525
 21
-2.764999999999949
 31
0.0
  0
LINE
  5
7613
330
75D5
100
AcDbEntity
  8
0
 62
     7
100
AcDbLine
 10
15.80200480000034
 20
-2.764999999999958
 30
0.0
 11
13.05200480000026
 21
-2.764999999999958
 31
0.0
  0
LINE
  5
7614
330
75D5
100
AcDbEntity
  8
0
 62
     7
100
AcDbLine
 10
15.80200480000034
 20
-1.044999999999922
 30
0.0
 11
13.05200480000026
 21
-1.04499999999993
 31
0.0
  0
LINE
  5
7615
330
75D5
100
AcDbEntity
  8
0
 62
     7
100
AcDbLine
 10
17.86491036107106
 20
9.005000000000009
 30
0.0
 11
17.72267493613536
 21
9.005000000000009
 31
0.0
  0
LINE
  5
7616
330
75D5
100
AcDbEntity
  8
0
 62
     7
100
AcDbLine
 10
17.48272598516249
 20
9.005000000000009
 30
0.0
 11
17.72267493613536
 21
9.005000000000009
 31
0.0
  0
LINE
  5
7617
330
75D5
100
AcDbEntity
  8
0
 62
     7
100
AcDbLine
 10
18.82895046341312
 20
9.005000000000009
 30
0.0
 11
19.06889941438586
 21
9.005000000000009
 31
0.0
  0
LINE
  5
7618
330
75D5
100
AcDbEntity
  8
0
 62
     7
100
AcDbLine
 10
19.06889941438586
 20
9.005000000000009
 30
0.0
 11
19.22699627381939
 21
9.005000000000009
 31
0.0
  0
LINE
  5
7619
330
75D5
100
AcDbEntity
  8
0
 62
     7
100
AcDbLine
 10
17.324629125729
 20
9.005000000000009
 30
0.0
 11
17.48272598516249
 21
9.005000000000009
 31
0.0
  0
LINE
  5
761A
330
75D5
100
AcDbEntity
  8
0
 62
     7
100
AcDbLine
 10
18.68671503847739
 20
9.005000000000009
 30
0.0
 11
18.82895046341312
 21
9.005000000000009
 31
0.0
  0
LINE
  5
761B
330
75D5
100
AcDbEntity
  8
0
 62
     7
100
AcDbLine
 10
18.50417483006699
 20
9.005000000000009
 30
0.0
 11
18.68671503847739
 21
9.005000000000009
 31
0.0
  0
LINE
  5
761C
330
75D5
100
AcDbEntity
  8
0
 62
     7
100
AcDbLine
 10
18.0474505694814
 20
9.005000000000009
 30
0.0
 11
18.2758126997742
 21
9.005000000000009
 31
0.0
  0
LINE
  5
761D
330
75D5
100
AcDbEntity
  8
0
 62
     7
100
AcDbLine
 10
17.86491036107106
 20
9.005000000000009
 30
0.0
 11
18.0474505694814
 21
9.005000000000009
 31
0.0
  0
LINE
  5
761E
330
75D5
100
AcDbEntity
  8
0
 62
     7
100
AcDbLine
 10
18.2758126997742
 20
9.005000000000009
 30
0.0
 11
18.50417483006699
 21
9.005000000000009
 31
0.0
  0
LINE
  5
761F
330
75D5
100
AcDbEntity
  8
0
 62
     7
100
AcDbLine
 10
17.324629125729
 20
9.005000000000009
 30
0.0
 11
17.03511018562189
 21
9.005000000000009
 31
0.0
  0
LINE
  5
7620
330
75D5
100
AcDbEntity
  8
0
 62
     7
100
AcDbLine
 10
17.03511018562189
 20
9.005000000000009
 30
0.0
 11
16.8770133261884
 21
9.005000000000009
 31
0.0
  0
LINE
  5
7621
330
75D5
100
AcDbEntity
  8
0
 62
     7
100
AcDbLine
 10
16.76280061257794
 20
9.005000000000009
 30
0.0
 11
16.8770133261884
 21
9.005000000000009
 31
0.0
  0
LINE
  5
7622
330
75D5
100
AcDbEntity
  8
0
 62
     7
100
AcDbLine
 10
19.22699627381939
 20
9.005000000000009
 30
0.0
 11
19.3412089874221
 21
9.005000000000009
 31
0.0
  0
LINE
  5
7623
330
75D5
100
AcDbEntity
  8
0
 62
     7
100
AcDbLine
 10
19.3412089874221
 20
9.005000000000009
 30
0.0
 11
19.55200480000002
 21
9.005000000000009
 31
0.0
  0
LINE
  5
7624
330
75D5
100
AcDbEntity
  8
0
 62
     7
100
AcDbLine
 10
16.55200479999994
 20
9.005000000000009
 30
0.0
 11
16.76280061257794
 21
9.005000000000009
 31
0.0
  0
LINE
  5
7625
330
75D5
100
AcDbEntity
  8
0
 62
     7
100
AcDbLine
 10
19.55200480000002
 20
9.005000000000009
 30
0.0
 11
19.85200480000001
 21
9.005000000000009
 31
0.0
  0
LINE
  5
7626
330
75D5
100
AcDbEntity
  8
0
 62
     7
100
AcDbLine
 10
16.25200480000001
 20
9.005000000000009
 30
0.0
 11
16.55200479999994
 21
9.005000000000009
 31
0.0
  0
LINE
  5
7627
330
75D5
100
AcDbEntity
  8
0
 62
     7
100
AcDbLine
 10
15.25200480000002
 20
4.204999999999998
 30
0.0
 11
15.25200480000002
 21
8.005000000000009
 31
0.0
  0
LINE
  5
7628
330
75D5
100
AcDbEntity
  8
0
 62
     7
100
AcDbLine
 10
11.65200479999999
 20
4.204999999999998
 30
0.0
 11
12.4520048
 21
4.204999999999998
 31
0.0
  0
LINE
  5
7629
330
75D5
100
AcDbEntity
  8
0
 62
     7
100
AcDbLine
 10
12.4520048
 20
-4.204999999999998
 30
0.0
 11
11.65200479999999
 21
-4.204999999999998
 31
0.0
  0
LINE
  5
762A
330
75D5
100
AcDbEntity
  8
0
 62
     7
100
AcDbLine
 10
11.65200479999999
 20
-4.204999999999998
 30
0.0
 11
11.65200479999999
 21
4.204999999999998
 31
0.0
  0
LINE
  5
762B
330
75D5
100
AcDbEntity
  8
0
 62
     7
100
AcDbLine
 10
12.7520048
 20
-4.204999999999998
 30
0.0
 11
12.4520048
 21
-4.204999999999998
 31
0.0
  0
LINE
  5
762C
330
75D5
100
AcDbEntity
  8
0
 62
     7
100
AcDbLine
 10
12.7520048
 20
4.204999999999998
 30
0.0
 11
12.4520048
 21
4.204999999999998
 31
0.0
  0
LINE
  5
762D
330
75D5
100
AcDbEntity
  8
0
 62
     7
100
AcDbLine
 10
20.85200480000001
 20
-4.204999999999998
 30
0.0
 11
20.85200480000001
 21
-8.005000000000009
 31
0.0
  0
LINE
  5
762E
330
75D5
100
AcDbEntity
  8
0
 62
     7
100
AcDbLine
 10
15.25200480000002
 20
-4.204999999999998
 30
0.0
 11
15.25200480000002
 21
-8.005000000000009
 31
0.0
  0
LINE
  5
762F
330
75D5
100
AcDbEntity
  8
0
 62
     7
100
AcDbLine
 10
18.73893638320173
 20
-4.579999999999998
 30
0.0
 11
17.36507321679825
 21
-4.579999999999998
 31
0.0
  0
LINE
  5
7630
330
75D5
100
AcDbEntity
  8
0
 62
     7
100
AcDbLine
 10
19.87700479999998
 20
-5.718068416798275
 30
0.0
 11
19.87700479999998
 21
-7.091931583201699
 31
0.0
  0
LINE
  5
7631
330
75D5
100
AcDbEntity
  8
0
 62
     7
100
AcDbLine
 10
19.12502869120912
 20
-7.972998638039709
 30
0.0
 11
16.48400616196028
 21
-5.331976108790865
 31
0.0
  0
LINE
  5
7632
330
75D5
100
AcDbEntity
  8
0
 62
     7
100
AcDbLine
 10
16.97898090879085
 20
-4.837001361960271
 30
0.0
 11
19.6200034380397
 21
-7.478023891209117
 31
0.0
  0
LINE
  5
7633
330
75D5
100
AcDbEntity
  8
0
 62
     7
100
AcDbLine
 10
16.22700479999998
 20
-5.718068416798261
 30
0.0
 11
16.22700479999998
 21
-7.091931583201699
 31
0.0
  0
LINE
  5
7634
330
75D5
100
AcDbEntity
  8
0
 62
     7
100
AcDbLine
 10
18.73893638320166
 20
-8.229999999999989
 30
0.0
 11
17.36507321679831
 21
-8.229999999999989
 31
0.0
  0
LINE
  5
7635
330
75D5
100
AcDbEntity
  8
0
 62
     7
100
AcDbLine
 10
16.25200480000001
 20
-9.005000000000009
 30
0.0
 11
19.85200480000001
 21
-9.005000000000009
 31
0.0
  0
ARC
  5
7636
330
75D5
100
AcDbEntity
  8
0
 62
     7
100
AcDbCircle
 10
14.9320048000011
 20
20.39499999999989
 30
0.0
 40
20.00000000000011
100
AcDbArc
 50
263.6465784957678
 51
276.8921252520984
  0
ARC
  5
7637
330
75D5
100
AcDbEntity
  8
0
 62
     7
100
AcDbCircle
 10
18.05200479999998
 20
6.405000000000014
 30
0.0
 40
1.949999999999999
100
AcDbArc
 50
9.617477116202456
 51
15.00000000000011
  0
ARC
  5
7638
330
75D5
100
AcDbEntity
  8
0
 62
     7
100
AcDbCircle
 10
18.05200479999998
 20
6.405000000000014
 30
0.0
 40
1.949999999999996
100
AcDbArc
 50
339.3736189501979
 51
350.3825228837971
  0
ARC
  5
7639
330
75D5
100
AcDbEntity
  8
0
 62
     7
100
AcDbCircle
 10
18.05200479999998
 20
6.405000000000014
 30
0.0
 40
1.950000000000004
100
AcDbArc
 50
290.6263810498014
 51
339.3736189501979
  0
ARC
  5
763A
330
75D5
100
AcDbEntity
  8
0
 62
     7
100
AcDbCircle
 10
18.05200479999998
 20
6.405000000000014
 30
0.0
 40
1.950000000000006
100
AcDbArc
 50
159.3736189501985
 51
170.3825228837962
  0
ARC
  5
763B
330
75D5
100
AcDbEntity
  8
0
 62
     7
100
AcDbCircle
 10
18.05200479999998
 20
6.405000000000014
 30
0.0
 40
1.95
100
AcDbArc
 50
189.6174771162041
 51
200.6263810498018
  0
ARC
  5
763C
330
75D5
100
AcDbEntity
  8
0
 62
     7
100
AcDbCircle
 10
18.05200479999998
 20
6.405000000000014
 30
0.0
 40
1.899999999999996
100
AcDbArc
 50
45.00000000000003
 51
73.84784348690004
  0
ARC
  5
763D
330
75D5
100
AcDbEntity
  8
0
 62
     7
100
AcDbCircle
 10
18.05200479999998
 20
6.405000000000014
 30
0.0
 40
1.899999999999988
100
AcDbArc
 50
124.3848921492918
 51
145.6151078507083
  0
ARC
  5
763E
330
75D5
100
AcDbEntity
  8
0
 62
     7
100
AcDbCircle
 10
18.05200479999998
 20
6.405000000000014
 30
0.0
 40
1.899999999999995
100
AcDbArc
 50
145.6151078507083
 51
163.8478434869018
  0
ARC
  5
763F
330
75D5
100
AcDbEntity
  8
0
 62
     7
100
AcDbCircle
 10
18.05200479999998
 20
6.405000000000014
 30
0.0
 40
1.899999999999997
100
AcDbArc
 50
196.1521565130981
 51
253.8478434869018
  0
ARC
  5
7640
330
75D5
100
AcDbEntity
  8
0
 62
     7
100
AcDbCircle
 10
18.05200479999998
 20
6.405000000000014
 30
0.0
 40
1.95
100
AcDbArc
 50
249.3736189501989
 51
260.382522883796
  0
ARC
  5
7641
330
75D5
100
AcDbEntity
  8
0
 62
     7
100
AcDbCircle
 10
18.05200479999998
 20
6.405000000000014
 30
0.0
 40
1.95000000000001
100
AcDbArc
 50
200.6263810498018
 51
249.3736189501989
  0
ARC
  5
7642
330
75D5
100
AcDbEntity
  8
0
 62
     7
100
AcDbCircle
 10
18.05200479999998
 20
6.405000000000014
 30
0.0
 40
1.949999999999992
100
AcDbArc
 50
110.6263810498015
 51
159.3736189501985
  0
ARC
  5
7643
330
75D5
100
AcDbEntity
  8
0
 62
     7
100
AcDbCircle
 10
18.05200479999998
 20
6.405000000000014
 30
0.0
 40
1.899999999999997
100
AcDbArc
 50
106.1521565130997
 51
124.3848921492918
  0
ARC
  5
7644
330
75D5
100
AcDbEntity
  8
0
 62
     7
100
AcDbCircle
 10
19.85200480000001
 20
8.005000000000009
 30
0.0
 40
1.0
100
AcDbArc
 50
0.0
 51
45.57299599919454
  0
ARC
  5
7645
330
75D5
100
AcDbEntity
  8
0
 62
     7
100
AcDbCircle
 10
18.05200479999998
 20
6.405000000000014
 30
0.0
 40
1.949999999999991
100
AcDbArc
 50
69.37361895019858
 51
80.3825228837967
  0
ARC
  5
7646
330
75D5
100
AcDbEntity
  8
0
 62
     7
100
AcDbCircle
 10
18.05200479999998
 20
6.405000000000014
 30
0.0
 40
1.949999999999996
100
AcDbArc
 50
99.61747711620342
 51
110.6263810498015
  0
ARC
  5
7647
330
75D5
100
AcDbEntity
  8
0
 62
     7
100
AcDbCircle
 10
18.05200479999998
 20
6.405000000000014
 30
0.0
 40
1.949999999999992
100
AcDbArc
 50
20.62638104980153
 51
69.37361895019858
  0
ARC
  5
7648
330
75D5
100
AcDbEntity
  8
0
 62
     7
100
AcDbCircle
 10
18.05200479999998
 20
6.405000000000014
 30
0.0
 40
1.899999999999998
100
AcDbArc
 50
325.6151078507081
 51
343.8478434869001
  0
ARC
  5
7649
330
75D5
100
AcDbEntity
  8
0
 62
     7
100
AcDbCircle
 10
14.93200480000109
 20
-16.58499999999989
 30
0.0
 40
19.99999999999993
100
AcDbArc
 50
83.05018107851344
 51
83.10787474790149
  0
ARC
  5
764A
330
75D5
100
AcDbEntity
  8
0
 62
     7
100
AcDbCircle
 10
18.05200479999998
 20
6.405000000000014
 30
0.0
 40
1.950000000000011
100
AcDbArc
 50
279.6174771162034
 51
290.6263810498014
  0
ARC
  5
764B
330
75D5
100
AcDbEntity
  8
0
 62
     7
100
AcDbCircle
 10
18.05200479999998
 20
6.405000000000014
 30
0.0
 40
1.899999999999998
100
AcDbArc
 50
286.1521565130983
 51
304.3848921492918
  0
ARC
  5
764C
330
75D5
100
AcDbEntity
  8
0
 62
     7
100
AcDbCircle
 10
18.05200479999998
 20
6.405000000000014
 30
0.0
 40
1.949999999999995
100
AcDbArc
 50
15.00000000000011
 51
20.62638104980153
  0
ARC
  5
764D
330
75D5
100
AcDbEntity
  8
0
 62
     7
100
AcDbCircle
 10
18.05200479999998
 20
6.405000000000014
 30
0.0
 40
1.949999999999999
100
AcDbArc
 50
0.0
 51
9.617477116202456
  0
ARC
  5
764E
330
75D5
100
AcDbEntity
  8
0
 62
     7
100
AcDbCircle
 10
18.05200479999998
 20
6.405000000000014
 30
0.0
 40
1.95
100
AcDbArc
 50
350.3825228837971
 51
0.0
  0
ARC
  5
764F
330
75D5
100
AcDbEntity
  8
0
 62
     7
100
AcDbCircle
 10
18.05200479999998
 20
6.405000000000014
 30
0.0
 40
1.950000000000014
100
AcDbArc
 50
260.382522883796
 51
279.6174771162034
  0
ARC
  5
7650
330
75D5
100
AcDbEntity
  8
0
 62
     7
100
AcDbCircle
 10
18.05200479999998
 20
6.405000000000014
 30
0.0
 40
1.899999999999998
100
AcDbArc
 50
304.3848921492918
 51
325.6151078507081
  0
ARC
  5
7651
330
75D5
100
AcDbEntity
  8
0
 62
     7
100
AcDbCircle
 10
14.9320048000011
 20
20.39499999999989
 30
0.0
 40
19.99999999999987
100
AcDbArc
 50
276.8921252520984
 51
276.9498189214866
  0
ARC
  5
7652
330
75D5
100
AcDbEntity
  8
0
 62
     7
100
AcDbCircle
 10
14.93200480000002
 20
-20.39499999999989
 30
0.0
 40
20.00000000000006
100
AcDbArc
 50
83.05018107851052
 51
83.10787474789842
  0
ARC
  5
7653
330
75D5
100
AcDbEntity
  8
0
 62
     7
100
AcDbCircle
 10
14.93200480000002
 20
16.58499999999989
 30
0.0
 40
20.00000000000001
100
AcDbArc
 50
276.8921252521029
 51
276.9498189214893
  0
ARC
  5
7654
330
75D5
100
AcDbEntity
  8
0
 62
     7
100
AcDbCircle
 10
18.05200479999998
 20
6.405000000000014
 30
0.0
 40
1.899999999999998
100
AcDbArc
 50
16.15215651309982
 51
45.00000000000003
  0
ARC
  5
7655
330
75D5
100
AcDbEntity
  8
0
 62
     7
100
AcDbCircle
 10
18.05200479999998
 20
6.405000000000014
 30
0.0
 40
1.949999999999995
100
AcDbArc
 50
80.3825228837967
 51
99.61747711620342
  0
ARC
  5
7656
330
75D5
100
AcDbEntity
  8
0
 62
     7
100
AcDbCircle
 10
18.05200479999998
 20
6.405000000000014
 30
0.0
 40
1.949999999999997
100
AcDbArc
 50
170.3825228837962
 51
189.6174771162041
  0
ARC
  5
7657
330
75D5
100
AcDbEntity
  8
0
 62
     7
100
AcDbCircle
 10
14.93200480000002
 20
16.58499999999989
 30
0.0
 40
19.99999999999999
100
AcDbArc
 50
263.6465784957709
 51
276.8921252521029
  0
ARC
  5
7658
330
75D5
100
AcDbEntity
  8
0
 62
     7
100
AcDbCircle
 10
14.93200480000109
 20
-16.58499999999989
 30
0.0
 40
19.99999999999987
100
AcDbArc
 50
83.10787474790149
 51
90.00000000000277
  0
ARC
  5
7659
330
75D5
100
AcDbEntity
  8
0
 62
     7
100
AcDbCircle
 10
14.93200480000109
 20
-16.58499999999989
 30
0.0
 40
20.0
100
AcDbArc
 50
90.00000000000277
 51
96.35342150423221
  0
ARC
  5
765A
330
75D5
100
AcDbEntity
  8
0
 62
     7
100
AcDbCircle
 10
14.93200480000002
 20
-20.39499999999989
 30
0.0
 40
19.99999999999999
100
AcDbArc
 50
96.35342150422914
 51
96.93798183461964
  0
ARC
  5
765B
330
75D5
100
AcDbEntity
  8
0
 62
     7
100
AcDbCircle
 10
14.93200480000002
 20
-20.39499999999989
 30
0.0
 40
20.0
100
AcDbArc
 50
89.99999999999968
 51
96.35342150422914
  0
ARC
  5
765C
330
75D5
100
AcDbEntity
  8
0
 62
     7
100
AcDbCircle
 10
14.93200480000002
 20
-20.39499999999989
 30
0.0
 40
20.0
100
AcDbArc
 50
83.10787474789842
 51
89.99999999999968
  0
ARC
  5
765D
330
75D5
100
AcDbEntity
  8
0
 62
     7
100
AcDbCircle
 10
14.93200480000109
 20
-16.58499999999989
 30
0.0
 40
20.0000000000001
100
AcDbArc
 50
96.35342150423221
 51
96.93798183462273
  0
ARC
  5
765E
330
75D5
100
AcDbEntity
  8
0
 62
     7
100
AcDbCircle
 10
14.9320048000011
 20
20.39499999999989
 30
0.0
 40
20.00000000000024
100
AcDbArc
 50
263.0620181653773
 51
263.6465784957678
  0
ARC
  5
765F
330
75D5
100
AcDbEntity
  8
0
 62
     7
100
AcDbCircle
 10
14.93200480000002
 20
16.58499999999989
 30
0.0
 40
20.00000000000011
100
AcDbArc
 50
263.0620181653803
 51
263.6465784957709
  0
ARC
  5
7660
330
75D5
100
AcDbEntity
  8
0
 62
     7
100
AcDbCircle
 10
19.85200480000001
 20
8.005000000000009
 30
0.0
 40
0.9999999999999779
100
AcDbArc
 50
45.57299599919454
 51
90.0
  0
ARC
  5
7661
330
75D5
100
AcDbEntity
  8
0
 62
     7
100
AcDbCircle
 10
19.85200480000001
 20
-8.005000000000009
 30
0.0
 40
1.000000000000001
100
AcDbArc
 50
314.4270040008046
 51
0.0
  0
ARC
  5
7662
330
75D5
100
AcDbEntity
  8
0
 62
     7
100
AcDbCircle
 10
16.25200480000001
 20
8.005000000000009
 30
0.0
 40
1.0
100
AcDbArc
 50
90.0
 51
180.0
  0
ARC
  5
7663
330
75D5
100
AcDbEntity
  8
0
 62
     7
100
AcDbCircle
 10
18.05200479999998
 20
-6.404999999999986
 30
0.0
 40
1.95
100
AcDbArc
 50
350.3825228837971
 51
0.0
  0
ARC
  5
7664
330
75D5
100
AcDbEntity
  8
0
 62
     7
100
AcDbCircle
 10
18.05200479999998
 20
-6.404999999999986
 30
0.0
 40
1.949999999999992
100
AcDbArc
 50
339.3736189501986
 51
345.0000000000001
  0
ARC
  5
7665
330
75D5
100
AcDbEntity
  8
0
 62
     7
100
AcDbCircle
 10
18.05200479999998
 20
-6.404999999999986
 30
0.0
 40
1.950000000000006
100
AcDbArc
 50
200.6263810498014
 51
249.3736189501996
  0
ARC
  5
7666
330
75D5
100
AcDbEntity
  8
0
 62
     7
100
AcDbCircle
 10
18.05200479999998
 20
-6.404999999999986
 30
0.0
 40
1.95000000000001
100
AcDbArc
 50
99.61747711620569
 51
110.6263810498023
  0
ARC
  5
7667
330
75D5
100
AcDbEntity
  8
0
 62
     7
100
AcDbCircle
 10
18.05200479999998
 20
-6.404999999999986
 30
0.0
 40
1.899999999999996
100
AcDbArc
 50
45.00000000000002
 51
73.84784348690004
  0
ARC
  5
7668
330
75D5
100
AcDbEntity
  8
0
 62
     7
100
AcDbCircle
 10
18.05200479999998
 20
-6.404999999999986
 30
0.0
 40
1.899999999999997
100
AcDbArc
 50
325.6151078507081
 51
343.8478434869003
  0
ARC
  5
7669
330
75D5
100
AcDbEntity
  8
0
 62
     7
100
AcDbCircle
 10
18.05200479999998
 20
-6.404999999999986
 30
0.0
 40
1.899999999999997
100
AcDbArc
 50
16.15215651309974
 51
45.00000000000002
  0
ARC
  5
766A
330
75D5
100
AcDbEntity
  8
0
 62
     7
100
AcDbCircle
 10
18.05200479999998
 20
-6.404999999999986
 30
0.0
 40
1.950000000000002
100
AcDbArc
 50
110.6263810498023
 51
159.3736189501982
  0
ARC
  5
766B
330
75D5
100
AcDbEntity
  8
0
 62
     7
100
AcDbCircle
 10
18.05200479999998
 20
-6.404999999999986
 30
0.0
 40
1.949999999999991
100
AcDbArc
 50
290.6263810498001
 51
339.3736189501986
  0
ARC
  5
766C
330
75D5
100
AcDbEntity
  8
0
 62
     7
100
AcDbCircle
 10
18.05200479999998
 20
-6.404999999999986
 30
0.0
 40
1.899999999999996
100
AcDbArc
 50
124.384892149292
 51
145.6151078507081
  0
ARC
  5
766D
330
75D5
100
AcDbEntity
  8
0
 62
     7
100
AcDbCircle
 10
18.05200479999998
 20
-6.404999999999986
 30
0.0
 40
1.899999999999988
100
AcDbArc
 50
145.6151078507081
 51
163.8478434869015
  0
ARC
  5
766E
330
75D5
100
AcDbEntity
  8
0
 62
     7
100
AcDbCircle
 10
18.05200479999998
 20
-6.404999999999986
 30
0.0
 40
1.9
100
AcDbArc
 50
304.3848921492918
 51
325.6151078507081
  0
ARC
  5
766F
330
75D5
100
AcDbEntity
  8
0
 62
     7
100
AcDbCircle
 10
18.05200479999998
 20
-6.404999999999986
 30
0.0
 40
1.9
100
AcDbArc
 50
286.1521565130983
 51
304.3848921492918
  0
ARC
  5
7670
330
75D5
100
AcDbEntity
  8
0
 62
     7
100
AcDbCircle
 10
18.05200479999998
 20
-6.404999999999986
 30
0.0
 40
1.9
100
AcDbArc
 50
196.1521565130984
 51
253.8478434869018
  0
ARC
  5
7671
330
75D5
100
AcDbEntity
  8
0
 62
     7
100
AcDbCircle
 10
18.05200479999998
 20
-6.404999999999986
 30
0.0
 40
1.899999999999997
100
AcDbArc
 50
106.1521565130997
 51
124.384892149292
  0
ARC
  5
7672
330
75D5
100
AcDbEntity
  8
0
 62
     7
100
AcDbCircle
 10
18.05200479999998
 20
-6.404999999999986
 30
0.0
 40
1.950000000000003
100
AcDbArc
 50
9.617477116203307
 51
20.62638104980153
  0
ARC
  5
7673
330
75D5
100
AcDbEntity
  8
0
 62
     7
100
AcDbCircle
 10
18.05200479999998
 20
-6.404999999999986
 30
0.0
 40
1.949999999999999
100
AcDbArc
 50
0.0
 51
9.617477116203307
  0
ARC
  5
7674
330
75D5
100
AcDbEntity
  8
0
 62
     7
100
AcDbCircle
 10
18.05200479999998
 20
-6.404999999999986
 30
0.0
 40
1.949999999999992
100
AcDbArc
 50
345.0000000000001
 51
350.3825228837971
  0
ARC
  5
7675
330
75D5
100
AcDbEntity
  8
0
 62
     7
100
AcDbCircle
 10
18.05200479999998
 20
-6.404999999999986
 30
0.0
 40
1.950000000000004
100
AcDbArc
 50
69.37361895019749
 51
80.38252288379444
  0
ARC
  5
7676
330
75D5
100
AcDbEntity
  8
0
 62
     7
100
AcDbCircle
 10
18.05200479999998
 20
-6.404999999999986
 30
0.0
 40
1.949999999999992
100
AcDbArc
 50
20.62638104980153
 51
69.37361895019749
  0
ARC
  5
7677
330
75D5
100
AcDbEntity
  8
0
 62
     7
100
AcDbCircle
 10
18.05200479999998
 20
-6.404999999999986
 30
0.0
 40
1.95
100
AcDbArc
 50
189.6174771162041
 51
200.6263810498014
  0
ARC
  5
7678
330
75D5
100
AcDbEntity
  8
0
 62
     7
100
AcDbCircle
 10
18.05200479999998
 20
-6.404999999999986
 30
0.0
 40
1.95000000000001
100
AcDbArc
 50
159.3736189501982
 51
170.3825228837958
  0
ARC
  5
7679
330
75D5
100
AcDbEntity
  8
0
 62
     7
100
AcDbCircle
 10
18.05200479999998
 20
-6.404999999999986
 30
0.0
 40
1.950000000000008
100
AcDbArc
 50
80.38252288379444
 51
99.61747711620569
  0
ARC
  5
767A
330
75D5
100
AcDbEntity
  8
0
 62
     7
100
AcDbCircle
 10
18.05200479999998
 20
-6.404999999999986
 30
0.0
 40
1.95
100
AcDbArc
 50
170.3825228837958
 51
189.6174771162041
  0
ARC
  5
767B
330
75D5
100
AcDbEntity
  8
0
 62
     7
100
AcDbCircle
 10
18.05200479999998
 20
-6.404999999999986
 30
0.0
 40
1.949999999999995
100
AcDbArc
 50
279.6174771162005
 51
290.6263810498001
  0
ARC
  5
767C
330
75D5
100
AcDbEntity
  8
0
 62
     7
100
AcDbCircle
 10
18.05200479999998
 20
-6.404999999999986
 30
0.0
 40
1.949999999999992
100
AcDbArc
 50
249.3736189501996
 51
260.3825228837994
  0
ARC
  5
767D
330
75D5
100
AcDbEntity
  8
0
 62
     7
100
AcDbCircle
 10
18.05200479999998
 20
-6.404999999999986
 30
0.0
 40
1.949999999999995
100
AcDbArc
 50
260.3825228837994
 51
279.6174771162005
  0
ARC
  5
767E
330
75D5
100
AcDbEntity
  8
0
 62
     7
100
AcDbCircle
 10
19.85200480000001
 20
-8.005000000000009
 30
0.0
 40
1.0
100
AcDbArc
 50
270.0
 51
314.4270040008046
  0
ARC
  5
767F
330
75D5
100
AcDbEntity
  8
0
 62
     7
100
AcDbCircle
 10
16.25200480000001
 20
-8.005000000000009
 30
0.0
 40
1.0
100
AcDbArc
 50
180.0
 51
270.0
  0
LWPOLYLINE
  5
7680
330
75D5
100
AcDbEntity
  8
0
 62
     7
100
AcDbPolyline
 90
        8
 70
     0
 43
0.0
 10
17.33201265709492
 20
3.270476883869775
 42
0.0335310637653838
 10
17.31329089504755
 20
3.271318850572598
 42
0.0156165892135584
 10
17.28941606510463
 20
3.270301414414703
 42
0.0071889415064502
 10
17.26096723987685
 20
3.267894183712745
 10
17.24520853922197
 20
3.266316148006695
 42
0.0004735704562555
 10
17.20263031056757
 20
3.261820140191021
 42
-0.0032656780077607
 10
17.15475467428841
 20
3.257047853800718
 42
-0.0060397432882063
 10
17.10200480000014
 20
3.252767990508274
  0
LWPOLYLINE
  5
7681
330
75D5
100
AcDbEntity
  8
0
 62
     7
100
AcDbPolyline
 90
        8
 70
     0
 43
0.0
 38
1.004996417558615E+99
 10
17.10200480000016
 20
-3.252767990508261
 42
-0.0057841437119752
 10
17.15475467428849
 20
-3.257047853800721
 42
-0.0030986770794639
 10
17.20263031056765
 20
-3.261820140191028
 42
0.0004438508909904
 10
17.24520853922196
 20
-3.266316148006695
 10
17.26096723987798
 20
-3.26789418371285
 42
0.0066594803953065
 10
17.28941606510647
 20
-3.270301414414806
 42
0.0140857367880889
 10
17.31329089504882
 20
-3.271318850572584
 42
0.029075955183634
 10
17.33201265709538
 20
-3.27047688386973
  0
LWPOLYLINE
  5
7682
330
75D5
100
AcDbEntity
  8
0
 62
     7
100
AcDbPolyline
 90
        8
 70
     0
 43
0.0
 38
1.004996417558615E+99
 10
17.33201265709492
 20
-0.5395231161302263
 42
0.0335310637654514
 10
17.31329089504755
 20
-0.5386811494274043
 42
0.0156165892136423
 10
17.28941606510463
 20
-0.5396985855852991
 42
0.0071889415065424
 10
17.26096723987685
 20
-0.5421058162872582
 10
17.24520853922197
 20
-0.5436838519933076
 42
0.000473570456253
 10
17.20263031056757
 20
-0.5481798598089815
 42
-0.0032656780077582
 10
17.15475467428841
 20
-0.5529521461992828
 42
-0.0060397432882149
 10
17.10200480000014
 20
-0.5572320094917274
  0
LWPOLYLINE
  5
7683
330
75D5
100
AcDbEntity
  8
0
 62
     7
100
AcDbPolyline
 90
        7
 70
     0
 43
0.0
 38
1.004996417558615E+99
 10
16.616100821069
 20
-3.162470935450638
 42
0.0142366455524767
 10
16.71847418368156
 20
-3.191985082742943
 42
0.0120695717613071
 10
16.81329986998719
 20
-3.21388240731759
 10
16.85709152197306
 20
-3.222370470715873
 42
0.0109464766023359
 10
16.94590726101023
 20
-3.23663611128645
 42
0.0117619100328867
 10
17.04699139911177
 20
-3.248331995093447
 10
17.10200480000016
 20
-3.252767990508261
  0
LWPOLYLINE
  5
7684
330
75D5
100
AcDbEntity
  8
0
 62
     7
100
AcDbPolyline
 90
        7
 70
     0
 43
0.0
 38
1.004996417558615E+99
 10
17.10200480000014
 20
-0.5572320094917274
 42
0.0114955886726863
 10
16.99494164454427
 20
-0.5671050695806743
 42
0.010693155915218
 10
16.89993997955839
 20
-0.580265146700024
 10
16.85709152380381
 20
-0.587629528949833
 42
0.0132133522827158
 10
16.74997761891906
 20
-0.6101877167674827
 42
0.012315081278624
 10
16.65713327402092
 20
-0.6349225981987328
 10
16.61610082105868
 20
-0.6475290645263101
  0
LWPOLYLINE
  5
7685
330
75D5
100
AcDbEntity
  8
0
 62
     7
100
AcDbPolyline
 90
       10
 70
     0
 43
0.0
 38
1.004996417558615E+99
 10
12.71878452584433
 20
-3.292164184512589
 42
0.0713896900981334
 10
12.73912646990165
 20
-3.291515258092779
 42
0.0666714301192336
 10
12.75931935202005
 20
-3.285058393107493
 42
0.0553520163103628
 10
12.77927648011357
 20
-3.272838617559158
 42
0.0432324602286106
 10
12.79891116209622
 20
-3.254900959450196
 10
12.80956552699472
 20
-3.242584230898982
 42
0.0279507230419066
 10
12.82857928705096
 20
-3.215784155475322
 10
12.83691288690262
 20
-3.201967815856306
 42
0.0205298851605054
 10
12.85509923991141
 20
-3.167032021894308
 42
0.016567694174159
 10
12.87247386876198
 20
-3.126852274657494
  0
LWPOLYLINE
  5
7686
330
75D5
100
AcDbEntity
  8
0
 62
     7
100
AcDbPolyline
 90
        8
 70
     0
 43
0.0
 38
1.004996417558615E+99
 10
16.55200479999989
 20
-3.141833507019384
 42
-0.0172357152741053
 10
16.45363200812228
 20
-3.106123295177748
 42
-0.0156206511984958
 10
16.37121760425574
 20
-3.069661539308611
 10
16.2907379072175
 20
-3.027361546687111
 10
16.21532243007297
 20
-2.980605332479683
 42
-0.0289969906790955
 10
16.11019173680183
 20
-2.900816274056373
 42
-0.0309858041169319
 10
16.01892463016775
 20
-2.812265826742595
 10
15.97876816497185
 20
-2.764999999999949
  0
LWPOLYLINE
  5
7687
330
75D5
100
AcDbEntity
  8
0
 62
     7
100
AcDbPolyline
 90
        4
 70
     0
 43
0.0
 38
1.004996417558615E+99
 10
12.87247386876198
 20
-3.126852274657494
 42
0.0000672453982348
 10
12.94413775952127
 20
-2.945977117000836
 10
12.97994661263786
 20
-2.855544234353944
 10
13.01578513557525
 20
-2.764999999999949
  0
LWPOLYLINE
  5
7688
330
75D5
100
AcDbEntity
  8
0
 62
     7
100
AcDbPolyline
 90
       13
 70
     0
 43
0.0
 38
1.004996417558615E+99
 10
12.71878452584433
 20
-0.5178358154874161
 42
-0.0540737045845098
 10
12.73373645593272
 20
-0.5177442886678304
 42
-0.0584544106834491
 10
12.75038643120335
 20
-0.5213637008600364
 10
12.75928426185442
 20
-0.5249252922323393
 42
-0.0430322370880051
 10
12.77401265121024
 20
-0.533362369981703
 42
-0.0397710223195412
 10
12.7902793546071
 20
-0.5464696695280157
 10
12.79891116277707
 20
-0.5550990412774582
 42
-0.0259639365893202
 10
12.81314111282177
 20
-0.5719740014074884
 42
-0.0236660583852533
 10
12.82871446065355
 20
-0.5944295456982303
 10
12.83691288664194
 20
-0.6080321836908241
 42
-0.0132121325114661
 10
12.84801734031893
 20
-0.6285501157737668
 42
-0.0126137944452103
 10
12.8599357948471
 20
-0.6534447134590642
 42
-0.0118616736523889
 10
12.87247386876198
 20
-0.6831477253424936
  0
LWPOLYLINE
  5
7689
330
75D5
100
AcDbEntity
  8
0
 62
     7
100
AcDbPolyline
 90
        6
 70
     0
 43
0.0
 38
1.004996417558615E+99
 10
15.97876816497175
 20
2.76500000000008
 42
-0.0325977349406635
 10
16.06276956961641
 20
2.857577224051703
 42
-0.030522221758657
 10
16.16107974477825
 20
2.941864930859147
 10
16.21532237832621
 20
2.980605297711776
 42
-0.0365061160130735
 10
16.37398103609807
 20
3.070990548300478
 42
-0.0339342447692767
 10
16.55200480000024
 20
3.141833507019082
  0
LWPOLYLINE
  5
768A
330
75D5
100
AcDbEntity
  8
0
 62
     7
100
AcDbPolyline
 90
        4
 70
     0
 43
0.0
 38
1.004996417558615E+99
 10
13.01578513557523
 20
2.765000000000128
 42
0.0000688030150836
 10
12.94413775952126
 20
2.945977117000865
 10
12.90847227567684
 20
3.036012270361933
 10
12.87247386876221
 20
3.126852274657494
  0
LWPOLYLINE
  5
768B
330
75D5
100
AcDbEntity
  8
0
 62
     7
100
AcDbPolyline
 90
        7
 70
     0
 43
0.0
 38
1.004996417558615E+99
 10
17.10200480000014
 20
3.252767990508274
 42
0.0103287961059071
 10
17.01053164590373
 20
3.244652098382688
 42
0.0118254457483567
 10
16.91010503245275
 20
3.231348856690711
 10
16.85709152380381
 20
3.222370471050168
 42
0.0117303694242514
 10
16.76698865005261
 20
3.203806706214678
 42
0.0137357288488717
 10
16.66807279980443
 20
3.178259253991158
 10
16.61610082105868
 20
3.162470935473691
  0
LWPOLYLINE
  5
768C
330
75D5
100
AcDbEntity
  8
0
 62
     7
100
AcDbPolyline
 90
       13
 70
     0
 43
0.0
 38
1.004996417558615E+99
 10
12.71878452584433
 20
3.292164184512586
 42
-0.0601256924076704
 10
12.73631142739282
 20
3.291953258094934
 42
-0.0520112694679805
 10
12.75209506241659
 20
3.288040995659616
 10
12.75928426185442
 20
3.285074707767662
 42
-0.0430322370962311
 10
12.77401265121556
 20
3.276637630014683
 42
-0.0397710223088454
 10
12.79027935461039
 20
3.263530330468931
 10
12.79891116277707
 20
3.254900958722543
 42
-0.0259639365891621
 10
12.8131411128218
 20
3.238025998592486
 42
-0.0236660583851113
 10
12.82871446065356
 20
3.21557045430175
 10
12.83691288664194
 20
3.201967816309178
 42
-0.0132121325112643
 10
12.84801734031893
 20
3.181449884226243
 42
-0.0126137944444185
 10
12.85993579484715
 20
3.156555286540943
 42
-0.0118616736517415
 10
12.87247386876221
 20
3.126852274657494
  0
LWPOLYLINE
  5
768D
330
75D5
100
AcDbEntity
  8
0
 62
     7
100
AcDbPolyline
 90
        8
 70
     0
 43
0.0
 38
1.004996417558615E+99
 10
17.10200480000016
 20
0.5572320094917416
 42
-0.0057841437119978
 10
17.15475467428849
 20
0.552952146199281
 42
-0.0030986770794661
 10
17.20263031056765
 20
0.5481798598089736
 42
0.0004438508909754
 10
17.24520853922196
 20
0.5436838519933076
 10
17.26096723987798
 20
0.5421058162871527
 42
0.0066594803952394
 10
17.28941606510644
 20
0.5396985855851913
 42
0.014085736787834
 10
17.31329089504864
 20
0.5386811494274003
 42
0.0290759551837512
 10
17.33201265709493
 20
0.5395231161302263
  0
LWPOLYLINE
  5
768E
330
75D5
100
AcDbEntity
  8
0
 62
     7
100
AcDbPolyline
 90
        7
 70
     0
 43
0.0
 38
1.004996417558615E+99
 10
16.61610082105863
 20
0.6475290645263101
 42
0.012718828706105
 10
16.70176402404458
 20
0.6223985178213073
 42
0.0136497241492148
 10
16.80175860193109
 20
0.5985210895394429
 10
16.85709152197306
 20
0.5876295292841292
 42
0.0121332295909498
 10
16.96132605154292
 20
0.5712748021562968
 42
0.010540646941768
 10
17.05749887415354
 20
0.560717838625227
 10
17.10200480000016
 20
0.5572320094917416
  0
LWPOLYLINE
  5
768F
330
75D5
100
AcDbEntity
  8
0
 62
     7
100
AcDbPolyline
 90
       12
 70
     0
 43
0.0
 38
1.004996417558615E+99
 10
12.71878452584433
 20
0.5178358154874161
 42
0.0601256927789293
 10
12.73631142750432
 20
0.5180467419202018
 42
0.052011269696002
 10
12.7520950626132
 20
0.5219590044113075
 10
12.75928426208257
 20
0.5249252923383665
 42
0.0430322361030259
 10
12.77401265113331
 20
0.5333623699292321
 42
0.0397710214533923
 10
12.79027935414378
 20
0.5464696690965148
 10
12.79891116209622
 20
0.5550990405498056
 42
0.0333357694253342
 10
12.81820299616752
 20
0.5788021820716362
 42
0.0257926327426025
 10
12.83691288690262
 20
0.6080321841436956
 10
12.84610256449348
 20
0.6248338765137564
 42
0.0183835902305781
 10
12.86389298428892
 20
0.6624130680145124
 10
12.87247386876198
 20
0.6831477253425078
  0
LWPOLYLINE
  5
7690
330
75D5
100
AcDbEntity
  8
0
 62
     7
100
AcDbPolyline
 90
        4
 70
     0
 43
0.0
 38
1.004996417558615E+99
 10
12.87247386876198
 20
0.6831477253425078
 42
0.0000672453982339
 10
12.94413775952127
 20
0.8640228829991656
 10
12.97994661263786
 20
0.9544557656460435
 10
13.01578513557525
 20
1.044999999999945
  0
LWPOLYLINE
  5
7691
330
75D5
100
AcDbEntity
  8
0
 62
     7
100
AcDbPolyline
 90
        8
 70
     0
 43
0.0
 38
1.004996417558615E+99
 10
16.55200479999989
 20
0.6681664929806175
 42
-0.0331237740553586
 10
16.37398106560044
 20
0.7390094375523257
 42
-0.0356503627170927
 10
16.21532243007297
 20
0.8293946675203187
 10
16.16929927013764
 20
0.861954730083339
 42
-0.0251001891186864
 10
16.08441178188682
 20
0.9320250238870215
 10
16.05334326000975
 20
0.961688945321976
 42
-0.0191265343849438
 10
16.00068070039764
 20
1.018430545385189
 10
15.97876816497182
 20
1.044999999999959
  0
LWPOLYLINE
  5
7692
330
75D5
100
AcDbEntity
  8
0
 62
     7
100
AcDbPolyline
 90
       10
 70
     0
 43
0.0
 38
1.004996417558615E+99
 10
15.97876816497185
 20
-1.044999999999945
 42
-0.0269308923277117
 10
16.0498429944254
 20
-0.9651923061939241
 10
16.08441180061221
 20
-0.9320250067404174
 42
-0.0255080698581152
 10
16.17328480058137
 20
-0.8589996628881911
 10
16.21532237832621
 20
-0.8293947022882264
 42
-0.0177011673951069
 10
16.28585099047542
 20
-0.7854453872855803
 42
-0.0191866721761406
 10
16.37121763347848
 20
-0.7403384465963683
 10
16.41043714169405
 20
-0.7221855390639375
 42
-0.0177512161237768
 10
16.50081650472401
 20
-0.6857557426047415
 10
16.55200479999993
 20
-0.6681664929806317
  0
LWPOLYLINE
  5
7693
330
75D5
100
AcDbEntity
  8
0
 62
     7
100
AcDbPolyline
 90
        4
 70
     0
 43
0.0
 38
1.004996417558615E+99
 10
13.01578513557523
 20
-1.044999999999874
 42
0.0000688030150844
 10
12.94413775952126
 20
-0.8640228829991372
 10
12.90847226417216
 20
-0.7739877006010056
 10
12.87247386876198
 20
-0.6831477253424936
  0
ENDBLK
  5
7695
330
75D5
100
AcDbEntity
  8
0
100
AcDbBlockEnd
  0
BLOCK
  5
7698
330
7696
100
AcDbEntity
  8
0
100
AcDbBlockBegin
  2
VORDANS1
 70
     0
 10
11.65200479999999
 20
-9.005000000000009
 30
0.0
  3
VORDANS1
  1

  0
INSERT
  5
7697
330
7696
100
AcDbEntity
  8
0
100
AcDbBlockReference
  2
MC_1_5-2-STF-3_81__6
 10
11.65200479999999
 20
-9.005000000000009
 30
0.0
  0
ENDBLK
  5
7699
330
7696
100
AcDbEntity
  8
0
100
AcDbBlockEnd
  0
ENDSEC
  0
SECTION
  2
ENTITIES
  0
HATCH
  5
6748
330
18
100
AcDbEntity
  8
0
100
AcDbHatch
 10
0.0
 20
0.0
 30
0.0
210
0.0
220
0.0
230
1.0
  2
SOLID
 70
     1
 71
     1
 91
        2
 92
       17
 93
        1
 72
     2
 10
249.5562927166584
 20
278.337567120373
 40
0.6007500000000002
 50
0.0
 51
360.0
 73
     1
 97
        1
330
674E
 92
        1
 93
        8
 72
     2
 10
249.5572241120071
 20
278.3394299110714
 40
1.00311322310025
 50
113.5897772726145
 51
269.9468005913759
 73
     1
 72
     2
 10
249.5562927166584
 20
278.1373171203731
 40
0.8009999999999999
 50
270.0
 51
450.0
 73
     1
 72
     1
 10
249.5562927166584
 20
278.9383171203735
 11
251.7990927166583
 21
278.9383171203735
 72
     1
 10
251.7990927166583
 20
278.9383171203735
 11
251.5587927166588
 21
276.9358171203739
 72
     1
 10
251.5587927166588
 20
276.9358171203739
 11
247.1532927166581
 21
276.9358171203739
 72
     1
 10
247.1532927166581
 20
276.9358171203739
 11
247.5537927166596
 21
280.1398171203736
 72
     1
 10
247.5537927166596
 20
280.1398171203736
 11
251.9592927166586
 21
280.1398171203736
 72
     1
 10
251.9592927166586
 20
280.1398171203736
 11
249.1557927166586
 21
279.2587171203731
 97
        8
330
693C
330
674D
330
6749
330
6AD3
330
674B
330
693B
330
674C
330
674A
 75
     0
 76
     1
 98
        1
 10
48.0785826224228
 20
280.8170419361331
  0
LINE
  5
6749
102
{ACAD_REACTORS
330
6748
102
}
330
18
100
AcDbEntity
  8
0
100
AcDbLine
 10
249.5562927166584
 20
278.9383171203735
 30
0.0
 11
251.7990927166583
 21
278.9383171203735
 31
0.0
  0
LINE
  5
674A
102
{ACAD_REACTORS
330
6748
102
}
330
18
100
AcDbEntity
  8
0
100
AcDbLine
 10
251.9592927166586
 20
280.1398171203736
 30
0.0
 11
249.1557927166586
 21
279.2587171203731
 31
0.0
  0
LINE
  5
674B
102
{ACAD_REACTORS
330
6748
102
}
330
18
100
AcDbEntity
  8
0
100
AcDbLine
 10
247.1532927166581
 20
276.9358171203739
 30
0.0
 11
251.5587927166588
 21
276.9358171203739
 31
0.0
  0
LINE
  5
674C
102
{ACAD_REACTORS
330
6748
102
}
330
18
100
AcDbEntity
  8
0
100
AcDbLine
 10
247.5537927166596
 20
280.1398171203736
 30
0.0
 11
251.9592927166586
 21
280.1398171203736
 31
0.0
  0
ARC
  5
674D
102
{ACAD_REACTORS
330
6748
102
}
330
18
100
AcDbEntity
  8
0
100
AcDbCircle
 10
249.5562927166584
 20
278.1373171203731
 30
0.0
 40
0.8009999999999999
100
AcDbArc
 50
270.0
 51
90.0
  0
CIRCLE
  5
674E
102
{ACAD_REACTORS
330
6748
102
}
330
18
100
AcDbEntity
  8
0
100
AcDbCircle
 10
249.5562927166584
 20
278.337567120373
 30
0.0
 40
0.6007500000000002
  0
LINE
  5
674F
330
18
100
AcDbEntity
  8
0
100
AcDbLine
 10
279.1072462155816
 20
288.0822937023722
 30
0.0
 11
245.1072462155816
 21
288.0822937023722
 31
0.0
  0
TEXT
  5
6750
330
18
100
AcDbEntity
  8
0
100
AcDbText
 10
245.7301695636278
 20
284.3555611799998
 30
0.0
 40
2.0
  1
MODEL:NCR-*A**
 41
1.199999999999999
  7
MSｺﾞｼｯｸ
 11
245.7301695636278
 21
283.9900789464973
 31
0.0
100
AcDbText
 73
     1
  0
TEXT
  5
6751
330
18
100
AcDbEntity
  8
0
100
AcDbText
 10
245.7030429908163
 20
281.6411725016192
 30
0.0
 40
2.0
  1
SER No.******
 41
1.199999999999999
  7
MSｺﾞｼｯｸ
 11
245.7030429908163
 21
281.2756902681167
 31
0.0
100
AcDbText
 73
     1
  0
LINE
  5
6752
330
18
100
AcDbEntity
  8
0
100
AcDbLine
 10
244.6072462155816
 20
281.0822937023722
 30
0.0
 11
279.6072462155816
 21
281.0822937023722
 31
0.0
  0
LINE
  5
6753
330
18
100
AcDbEntity
  8
0
100
AcDbLine
 10
245.1072462155816
 20
276.0822937023722
 30
0.0
 11
279.1072462155816
 21
276.0822937023722
 31
0.0
  0
LINE
  5
6754
330
18
100
AcDbEntity
  8
0
100
AcDbLine
 10
249.1072462155816
 20
268.0822937023722
 30
0.0
 11
263.6072462155816
 21
268.0822937023722
 31
0.0
  0
LINE
  5
6755
330
18
100
AcDbEntity
  8
0
100
AcDbLine
 10
263.6072462155816
 20
262.5822937023722
 30
0.0
 11
249.1072462155816
 21
262.5822937023722
 31
0.0
  0
LINE
  5
6756
330
18
100
AcDbEntity
  8
0
100
AcDbLine
 10
249.1072462155816
 20
257.5822937023722
 30
0.0
 11
275.1072462155816
 21
257.5822937023722
 31
0.0
  0
TEXT
  5
6757
330
18
100
AcDbEntity
  8
0
100
AcDbText
 10
249.7510287495797
 20
254.219431709243
 30
0.0
 40
2.5
  1
ＰＥＡＫ.ＡＭＰＳ    *** Ａ
 41
0.6
  7
MSｺﾞｼｯｸ
100
AcDbText
  0
LINE
  5
6758
330
18
100
AcDbEntity
  8
0
100
AcDbLine
 10
275.1072462155816
 20
253.5822937023722
 30
0.0
 11
249.1072462155816
 21
253.5822937023722
 31
0.0
  0
LINE
  5
6759
330
18
100
AcDbEntity
  8
0
100
AcDbLine
 10
249.1072462155816
 20
261.5822937023722
 30
0.0
 11
275.1072462155816
 21
261.5822937023722
 31
0.0
  0
TEXT
  5
675A
330
18
100
AcDbEntity
  8
0
100
AcDbText
 10
249.7510287495797
 20
258.219431709243
 30
0.0
 40
2.5
  1
ＣＯＮＴ.ＡＭＰＳ    *** Ａ
 41
0.6
  7
MSｺﾞｼｯｸ
100
AcDbText
  0
TEXT
  5
675B
330
18
100
AcDbEntity
  8
0
100
AcDbText
 10
249.7510287495797
 20
250.219431709243
 30
0.0
 40
2.5
  1
ＳＯＵＲＣＥ
 41
0.6
  7
MSｺﾞｼｯｸ
100
AcDbText
  0
TEXT
  5
675C
330
18
100
AcDbEntity
  8
0
100
AcDbText
 10
248.7707927309538
 20
239.1390961964107
 30
0.0
 40
2.7
  1
NIKKI DENSO CO.,LTD
 41
0.8
  7
MSｺﾞｼｯｸ
100
AcDbText
  0
LINE
  5
675D
330
18
100
AcDbEntity
  8
0
100
AcDbLine
 10
275.1072462155816
 20
242.5822937023722
 30
0.0
 11
249.1072462155816
 21
242.5822937023722
 31
0.0
  0
LINE
  5
675E
330
18
100
AcDbEntity
  8
0
100
AcDbLine
 10
276.1072462155816
 20
234.5822937023722
 30
0.0
 11
248.1072462155816
 21
234.5822937023722
 31
0.0
  0
LINE
  5
675F
330
18
100
AcDbEntity
  8
0
100
AcDbLine
 10
248.1072462155816
 20
274.5822937023722
 30
0.0
 11
276.1072462155816
 21
274.5822937023722
 31
0.0
  0
LINE
  5
676A
330
18
100
AcDbEntity
  8
0
100
AcDbLine
 10
302.7939327109367
 20
43.85347429657616
 30
0.0
 11
242.7939327109367
 21
43.85347429657616
 31
0.0
  0
LINE
  5
676B
330
18
100
AcDbEntity
  8
0
100
AcDbLine
 10
368.3939327109367
 20
40.7534742965758
 30
0.0
 11
183.3939327109369
 21
40.7534742965758
 31
0.0
  0
LINE
  5
676C
330
18
100
AcDbEntity
  8
0
100
AcDbLine
 10
365.3939327109367
 20
43.7534742965758
 30
0.0
 11
186.393932710937
 21
43.7534742965758
 31
0.0
  0
LINE
  5
6775
330
18
100
AcDbEntity
  8
0
100
AcDbLine
 10
368.393932710937
 20
440.2896644818065
 30
0.0
 11
186.393932710937
 21
440.2896644818065
 31
0.0
  0
LINE
  5
6776
330
18
100
AcDbEntity
  8
0
100
AcDbLine
 10
368.393932710937
 20
230.2896644818065
 30
0.0
 11
186.393932710937
 21
230.2896644818065
 31
0.0
  0
LINE
  5
677D
330
18
100
AcDbEntity
  8
0
100
AcDbLine
 10
69.76408272010582
 20
440.2896644818065
 30
0.0
 11
-50.23591727989412
 21
440.2896644818065
 31
0.0
  0
LINE
  5
677E
330
18
100
AcDbEntity
  8
0
100
AcDbLine
 10
69.76408272010576
 20
230.2896644818065
 30
0.0
 11
-50.23591727989418
 21
230.2896644818065
 31
0.0
  0
LINE
  5
6780
330
18
100
AcDbEntity
  8
0
100
AcDbLine
 10
-50.23591727989412
 20
440.2896644818065
 30
0.0
 11
-50.23591727989418
 21
230.2896644818065
 31
0.0
  0
CIRCLE
  5
6783
330
18
100
AcDbEntity
  8
0
 48
0.2
100
AcDbCircle
 10
171.893932710937
 20
373.5396644818065
 30
0.0
 40
1.5
  0
ARC
  5
6784
330
18
100
AcDbEntity
  8
0
 48
0.2
100
AcDbCircle
 10
150.4939327109374
 20
371.5396644818065
 30
0.0
 40
3.100000000000022
100
AcDbArc
 50
40.87863514650228
 51
180.0
  0
LINE
  5
6785
330
18
100
AcDbEntity
  8
0
 48
0.2
100
AcDbLine
 10
158.5939327109368
 20
371.5396644818064
 30
0.0
 11
162.5939327109368
 21
374.6396644818063
 31
0.0
  0
LINE
  5
6786
330
18
100
AcDbEntity
  8
0
 48
0.2
100
AcDbLine
 10
154.5939327109368
 20
371.5396644818064
 30
0.0
 11
152.8378351499619
 21
373.5684871345623
 31
0.0
  0
LINE
  5
6787
330
18
100
AcDbEntity
  8
0
 48
0.2
100
AcDbLine
 10
169.393932710937
 20
373.5396644818064
 30
0.0
 11
170.643932710937
 21
371.3746009723453
 31
0.0
  0
LINE
  5
6788
330
18
100
AcDbEntity
  8
0
 48
0.2
100
AcDbLine
 10
169.1052575763429
 20
373.5396644818064
 30
0.0
 11
170.49959514364
 21
371.1246009723453
 31
0.0
  0
LINE
  5
6789
330
18
100
AcDbEntity
  8
0
 48
0.2
100
AcDbLine
 10
174.393932710937
 20
373.5396644818064
 30
0.0
 11
173.143932710937
 21
371.3746009723453
 31
0.0
  0
LINE
  5
678A
330
18
100
AcDbEntity
  8
0
 48
0.2
100
AcDbLine
 10
174.682607845532
 20
373.5396644818064
 30
0.0
 11
173.288270278235
 21
371.1246009723453
 31
0.0
  0
LINE
  5
678B
330
18
100
AcDbEntity
  8
0
 48
0.2
100
AcDbLine
 10
186.393932710937
 20
350.7896644818064
 30
0.0
 11
186.393932710937
 21
380.2896644818064
 31
0.0
  0
LINE
  5
6793
330
18
100
AcDbEntity
  8
0
100
AcDbLine
 10
50.26408272010582
 20
351.7896644818063
 30
0.0
 11
50.26408272010588
 21
397.7896644818065
 31
0.0
  0
INSERT
  5
6794
330
18
100
AcDbEntity
  8
0
100
AcDbBlockReference
  2
A$C6C1277F2
 10
53.33908274613259
 20
351.5146649643716
 30
0.0
  0
LINE
  5
6795
330
18
100
AcDbEntity
  8
0
100
AcDbLine
 10
13.76408272010587
 20
409.2896644818067
 30
0.0
 11
13.76408272010576
 21
349.2896644818067
 31
0.0
  0
MTEXT
  5
6796
330
18
100
AcDbEntity
  8
0
100
AcDbMText
 10
41.71805702419908
 20
372.5868284902528
 30
0.0
 40
2.0
 41
0.0
 71
     1
 72
     5
  1
Ｊ１
  7
MSｺﾞｼｯｸ
 73
     1
 44
1.0
  0
LINE
  5
6797
330
18
100
AcDbEntity
  8
0
100
AcDbLine
 10
-42.23591727989412
 20
409.2896644818067
 30
0.0
 11
-42.23591727989424
 21
349.2896644818067
 31
0.0
  0
HATCH
  5
6798
330
18
100
AcDbEntity
  8
0
100
AcDbHatch
 10
0.0
 20
0.0
 30
0.0
210
0.0
220
0.0
230
1.0
  2
SOLID
 70
     1
 71
     0
 91
        2
 92
        7
 72
     1
 73
     1
 93
        8
 10
5.16014147407202
 20
395.2078896521254
 42
0.0
 10
-33.63197603386018
 20
395.2078896521254
 42
0.1885055804394898
 10
-34.14969853502341
 20
394.6958711013667
 42
0.0
 10
-34.14969853502341
 20
368.8834578622468
 42
0.2963712537857847
 10
-33.23591727989415
 20
368.2896644818067
 42
0.0
 10
4.764082720105875
 20
368.2896644818067
 42
0.4142135623730951
 10
5.764082720105875
 20
369.2896644818067
 42
0.0
 10
5.764082720105875
 20
394.2896644818067
 42
0.299386580726798
 97
        0
 92
       22
 72
     1
 73
     1
 93
        8
 10
3.764082720105875
 20
394.2896644818067
 42
-0.4142135623730953
 10
4.764082720105875
 20
393.2896644818067
 42
0.0
 10
4.764082720105875
 20
370.2896644818067
 42
-0.4142135623730951
 10
3.764082720105875
 20
369.2896644818067
 42
0.0
 10
-32.23591727989415
 20
369.2896644818067
 42
-0.4142135623730951
 10
-33.23591727989415
 20
370.2896644818067
 42
0.0
 10
-33.23591727989415
 20
393.2896644818067
 42
-0.4142135623730949
 10
-32.23591727989415
 20
394.2896644818067
 42
0.0
 97
        0
 75
     0
 76
     1
 47
0.1122686005965
 98
        2
 10
-24.4034376732599
 20
394.9099328774698
 10
-24.4034376732599
 20
394.9099328774698
  0
LWPOLYLINE
  5
6799
330
18
100
AcDbEntity
  8
0
100
AcDbPolyline
 90
        8
 70
     1
 43
0.0
 10
4.764082720105875
 20
393.2896644818067
 10
4.764082720105875
 20
370.2896644818067
 42
-0.4142135623730951
 10
3.764082720105875
 20
369.2896644818067
 10
-32.23591727989415
 20
369.2896644818067
 42
-0.4142135623730951
 10
-33.23591727989415
 20
370.2896644818067
 10
-33.23591727989415
 20
393.2896644818067
 42
-0.4142135623730949
 10
-32.23591727989415
 20
394.2896644818067
 10
3.764082720105875
 20
394.2896644818067
 42
-0.4142135623730953
  0
LWPOLYLINE
  5
679A
330
18
100
AcDbEntity
  8
0
100
AcDbPolyline
 90
        8
 70
     1
 43
0.0
 10
5.764082720105875
 20
394.2896644818067
 10
5.764082720105875
 20
369.2896644818067
 42
-0.4142135623730951
 10
4.764082720105875
 20
368.2896644818067
 10
-33.23591727989415
 20
368.2896644818067
 42
-0.4142135623730951
 10
-34.23591727989415
 20
369.2896644818067
 10
-34.23591727989415
 20
394.2896644818067
 42
-0.4142135623730951
 10
-33.23591727989415
 20
395.2896644818067
 10
4.764082720105875
 20
395.2896644818067
 42
-0.4142135623730951
  0
LINE
  5
679B
330
18
100
AcDbEntity
  8
0
100
AcDbLine
 10
65.26408272010576
 20
256.7896644818067
 30
0.0
 11
65.26408272010576
 21
397.7896644818065
 31
0.0
  0
LINE
  5
679C
330
18
100
AcDbEntity
  8
0
100
AcDbLine
 10
69.76408272010582
 20
455.2896644818065
 30
0.0
 11
69.76408272010576
 21
215.2896644818065
 31
0.0
  0
LINE
  5
679D
330
18
100
AcDbEntity
  8
0
100
AcDbLine
 10
189.393932710937
 20
440.2896644818065
 30
0.0
 11
189.393932710937
 21
230.2896644818065
 31
0.0
  0
LINE
  5
679E
330
18
100
AcDbEntity
  8
0
100
AcDbLine
 10
186.393932710937
 20
440.2896644818065
 30
0.0
 11
186.393932710937
 21
230.2896644818065
 31
0.0
  0
LINE
  5
679F
330
18
100
AcDbEntity
  8
0
100
AcDbLine
 10
56.76408272010576
 20
215.2896644818065
 30
0.0
 11
-27.23591727989418
 21
215.2896644818065
 31
0.0
  0
MTEXT
  5
67A0
330
18
100
AcDbEntity
  8
0
100
AcDbMText
 10
13.51923529964381
 20
325.3144266320999
 30
0.0
 40
4.45
 41
0.0
 71
     1
 72
     5
  1
Ｒ\PＳ\PＴ\PＢ１\PＢ２\PＵ\PＶ\PＷ
  7
MSｺﾞｼｯｸ
 73
     1
 44
1.0
  0
TEXT
  5
67A1
330
18
100
AcDbEntity
  8
0
100
AcDbText
 10
-36.3181257465095
 20
251.3339810832586
 30
0.0
 40
2.0
  1
Certificate
  7
MSｺﾞｼｯｸ
 11
-36.3181257465095
 21
250.968498849756
 31
0.0
100
AcDbText
 73
     1
  0
LWPOLYLINE
  5
67A2
330
18
100
AcDbEntity
  8
0
100
AcDbPolyline
 90
        8
 70
     1
 43
0.0
 10
-37.03284422571607
 20
244.6487281515323
 10
-23.03284422571607
 20
244.6487281515319
 42
0.4142135623730951
 10
-22.53284422571607
 20
245.1487281515319
 10
-22.53284422571607
 20
254.1487281515319
 42
0.4142135623730951
 10
-23.03284422571607
 20
254.6487281515319
 10
-37.03284422571607
 20
254.6487281515319
 42
0.4142135623730996
 10
-37.53284422571607
 20
254.1487281515319
 10
-37.53284422571607
 20
245.1487281515324
 42
0.4142135623730904
  0
LINE
  5
67A3
330
18
100
AcDbEntity
  8
0
100
AcDbLine
 10
-37.53284422571607
 20
250.6487281515323
 30
0.0
 11
-22.53284422571607
 21
250.6487281515323
 31
0.0
  0
CIRCLE
  5
67A4
330
18
100
AcDbEntity
  8
0
100
AcDbCircle
 10
-28.23591727989423
 20
237.2896644818065
 30
0.0
 40
3.0
  0
ARC
  5
67A5
330
18
100
AcDbEntity
  8
0
100
AcDbCircle
 10
-30.23591727989423
 20
220.2896644818065
 30
0.0
 40
3.0
100
AcDbArc
 50
0.0
 51
180.0
  0
HATCH
  5
67A6
330
18
100
AcDbEntity
  8
0
100
AcDbHatch
 10
0.0
 20
0.0
 30
0.0
210
0.0
220
0.0
230
1.0
  2
SOLID
 70
     1
 71
     1
 91
        2
 92
       17
 93
        1
 72
     2
 10
-33.87277082409866
 20
247.3489722321446
 40
0.6007500000000002
 50
0.0
 51
360.0
 73
     1
 97
        1
330
67AB
 92
        1
 93
        8
 72
     2
 10
-33.87183942874992
 20
247.350835022843
 40
1.00311322310025
 50
113.5897772726145
 51
269.9468005913759
 73
     1
 72
     2
 10
-33.87277082409866
 20
247.1487222321448
 40
0.8009999999999999
 50
270.0
 51
450.0
 73
     1
 72
     1
 10
-33.87277082409866
 20
247.9497222321451
 11
-31.62997082409868
 21
247.9497222321451
 72
     1
 10
-31.62997082409868
 20
247.9497222321451
 11
-31.87027082409815
 21
245.9472222321455
 72
     1
 10
-31.87027082409815
 20
245.9472222321455
 11
-36.27577082409891
 21
245.9472222321455
 72
     1
 10
-36.27577082409891
 20
245.9472222321455
 11
-35.87527082409735
 21
249.1512222321452
 72
     1
 10
-35.87527082409735
 20
249.1512222321452
 11
-31.46977082409842
 21
249.1512222321452
 72
     1
 10
-31.46977082409842
 20
249.1512222321452
 11
-34.2732708240984
 21
248.2701222321447
 97
        8
330
67AF
330
67AA
330
67A8
330
67A7
330
67AD
330
67AC
330
67AE
330
67A9
 75
     0
 76
     1
 98
        1
 10
-235.3504809183342
 20
249.8284470479047
  0
LINE
  5
67A7
102
{ACAD_REACTORS
330
67A6
102
}
330
18
100
AcDbEntity
  8
0
100
AcDbLine
 10
-31.87027082409815
 20
245.9472222321455
 30
0.0
 11
-31.62997082409868
 21
247.9497222321451
 31
0.0
  0
LINE
  5
67A8
102
{ACAD_REACTORS
330
67A6
102
}
330
18
100
AcDbEntity
  8
0
100
AcDbLine
 10
-33.87277082409866
 20
247.9497222321451
 30
0.0
 11
-31.62997082409868
 21
247.9497222321451
 31
0.0
  0
LINE
  5
67A9
102
{ACAD_REACTORS
330
67A6
102
}
330
18
100
AcDbEntity
  8
0
100
AcDbLine
 10
-31.46977082409842
 20
249.1512222321452
 30
0.0
 11
-34.2732708240984
 21
248.2701222321447
 31
0.0
  0
ARC
  5
67AA
102
{ACAD_REACTORS
330
67A6
102
}
330
18
100
AcDbEntity
  8
0
100
AcDbCircle
 10
-33.87277082409866
 20
247.1487222321448
 30
0.0
 40
0.8009999999999999
100
AcDbArc
 50
270.0
 51
90.0
  0
CIRCLE
  5
67AB
102
{ACAD_REACTORS
330
67A6
102
}
330
18
100
AcDbEntity
  8
0
100
AcDbCircle
 10
-33.87277082409866
 20
247.3489722321446
 30
0.0
 40
0.6007500000000002
  0
LINE
  5
67AC
102
{ACAD_REACTORS
330
67A6
102
}
330
18
100
AcDbEntity
  8
0
100
AcDbLine
 10
-36.27577082409891
 20
245.9472222321455
 30
0.0
 11
-35.87527082409735
 21
249.1512222321452
 31
0.0
  0
LINE
  5
67AD
102
{ACAD_REACTORS
330
67A6
102
}
330
18
100
AcDbEntity
  8
0
100
AcDbLine
 10
-36.27577082409891
 20
245.9472222321455
 30
0.0
 11
-31.87027082409815
 21
245.9472222321455
 31
0.0
  0
LINE
  5
67AE
102
{ACAD_REACTORS
330
67A6
102
}
330
18
100
AcDbEntity
  8
0
100
AcDbLine
 10
-35.87527082409735
 20
249.1512222321452
 30
0.0
 11
-31.46977082409842
 21
249.1512222321452
 31
0.0
  0
ARC
  5
67AF
102
{ACAD_REACTORS
330
67A6
102
}
330
18
100
AcDbEntity
  8
0
100
AcDbCircle
 10
-33.87183942874992
 20
247.350835022843
 30
0.0
 40
1.00311322310025
100
AcDbArc
 50
113.5897772726145
 51
269.9468005913759
  0
LINE
  5
67B0
330
18
100
AcDbEntity
  8
0
100
AcDbLine
 10
-33.23591727989418
 20
220.2896644818065
 30
0.0
 11
-33.23591727989418
 21
215.2896644818065
 31
0.0
  0
LINE
  5
67B1
330
18
100
AcDbEntity
  8
0
100
AcDbLine
 10
-33.23591727989418
 20
215.2896644818065
 30
0.0
 11
-40.23591727989418
 21
215.2896644818065
 31
0.0
  0
LINE
  5
67B2
330
18
100
AcDbEntity
  8
0
100
AcDbLine
 10
-40.23591727989418
 20
230.2896644818065
 30
0.0
 11
-40.23591727989418
 21
215.2896644818065
 31
0.0
  0
TEXT
  5
67B3
330
18
100
AcDbEntity
  8
0
100
AcDbText
 10
-30.53225848957129
 20
247.6917187797143
 30
0.0
 40
1.44
  1
NIKKI
  7
MSｺﾞｼｯｸ
100
AcDbText
  0
TEXT
  5
67B4
330
18
100
AcDbEntity
  8
0
100
AcDbText
 10
-30.65367159971003
 20
245.9949563707287
 30
0.0
 40
1.44
  1
DENSO
  7
MSｺﾞｼｯｸ
100
AcDbText
  0
LINE
  5
67B5
330
18
100
AcDbEntity
  8
0
100
AcDbLine
 10
-27.73591727989418
 20
239.2261561549098
 30
0.0
 11
-27.73591727989418
 21
237.7896644818065
 31
0.0
  0
LINE
  5
67B6
330
18
100
AcDbEntity
  8
0
100
AcDbLine
 10
-28.73591727989418
 20
239.2261561549098
 30
0.0
 11
-28.73591727989418
 21
237.7896644818065
 31
0.0
  0
CIRCLE
  5
67B7
330
18
100
AcDbEntity
  8
0
100
AcDbCircle
 10
-28.23591727989423
 20
237.2896644818065
 30
0.0
 40
2.5
  0
ARC
  5
67B8
330
18
100
AcDbEntity
  8
0
100
AcDbCircle
 10
-28.23591727989423
 20
237.2896644818065
 30
0.0
 40
2.0
100
AcDbArc
 50
75.52248781407005
 51
104.4775121859299
  0
LINE
  5
67B9
330
18
100
AcDbEntity
  8
0
100
AcDbLine
 10
-28.73591727989418
 20
237.7896644818065
 30
0.0
 11
-30.17240895299795
 21
237.7896644818065
 31
0.0
  0
LINE
  5
67BA
330
18
100
AcDbEntity
  8
0
100
AcDbLine
 10
-26.2994256067904
 20
237.7896644818065
 30
0.0
 11
-27.73591727989418
 21
237.7896644818065
 31
0.0
  0
LINE
  5
67BB
330
18
100
AcDbEntity
  8
0
100
AcDbLine
 10
-28.73591727989418
 20
236.7896644818065
 30
0.0
 11
-30.17240895299795
 21
236.7896644818065
 31
0.0
  0
LINE
  5
67BC
330
18
100
AcDbEntity
  8
0
100
AcDbLine
 10
-26.2994256067904
 20
236.7896644818065
 30
0.0
 11
-27.73591727989418
 21
236.7896644818065
 31
0.0
  0
LINE
  5
67BD
330
18
100
AcDbEntity
  8
0
100
AcDbLine
 10
-27.73591727989418
 20
236.7896644818065
 30
0.0
 11
-27.73591727989418
 21
235.3531728087027
 31
0.0
  0
LINE
  5
67BE
330
18
100
AcDbEntity
  8
0
100
AcDbLine
 10
-28.73591727989418
 20
236.7896644818065
 30
0.0
 11
-28.73591727989418
 21
235.3531728087027
 31
0.0
  0
ARC
  5
67BF
330
18
100
AcDbEntity
  8
0
100
AcDbCircle
 10
-28.23591727989423
 20
237.2896644818065
 30
0.0
 40
2.0
100
AcDbArc
 50
255.52248781407
 51
284.4775121859299
  0
ARC
  5
67C0
330
18
100
AcDbEntity
  8
0
100
AcDbCircle
 10
-28.23591727989423
 20
237.2896644818065
 30
0.0
 40
2.0
100
AcDbArc
 50
165.5224878140701
 51
194.4775121859298
  0
ARC
  5
67C1
330
18
100
AcDbEntity
  8
0
100
AcDbCircle
 10
-28.23591727989423
 20
237.2896644818065
 30
0.0
 40
2.0
100
AcDbArc
 50
345.5224878140701
 51
14.47751218592986
  0
LINE
  5
67C2
330
18
100
AcDbEntity
  8
0
100
AcDbLine
 10
-27.23591727989418
 20
220.2896644818065
 30
0.0
 11
-27.23591727989418
 21
215.2896644818065
 31
0.0
  0
MTEXT
  5
67C4
330
18
100
AcDbEntity
  8
0
100
AcDbMText
 10
13.86767576761406
 20
260.9449070788049
 30
0.0
 40
4.45
 41
0.0
 71
     1
 72
     5
  1
Ｅ
 73
     1
 44
1.0
  0
LWPOLYLINE
  5
67C5
330
18
100
AcDbEntity
  8
0
100
AcDbPolyline
 90
        8
 70
     1
 43
0.0
 10
-4.735917279894124
 20
362.0396896521254
 10
-4.735917279894124
 20
356.0396896521254
 42
-0.4142135623730951
 10
-5.735917279894124
 20
355.0396896521253
 10
-11.73591727989415
 20
355.0396896521253
 42
-0.4142135623730951
 10
-12.73591727989415
 20
356.0396896521254
 10
-12.73591727989415
 20
362.0396896521254
 42
-0.4142135623730951
 10
-11.73591727989415
 20
363.0396896521253
 10
-5.735917279894124
 20
363.0396896521253
 42
-0.4142135623730951
  0
HATCH
  5
67C6
330
18
100
AcDbEntity
  8
0
100
AcDbHatch
 10
0.0
 20
0.0
 30
0.0
210
0.0
220
0.0
230
1.0
  2
SOLID
 70
     1
 71
     0
 91
        5
 92
        7
 72
     1
 73
     1
 93
        8
 10
-4.735917279894124
 20
362.0396896521254
 42
0.4142135623730951
 10
-5.735917279894124
 20
363.0396896521253
 42
0.0
 10
-11.73591727989415
 20
363.0396896521253
 42
0.4142135623730951
 10
-12.73591727989415
 20
362.0396896521254
 42
0.0
 10
-12.73591727989415
 20
356.0396896521254
 42
0.4142135623730951
 10
-11.73591727989415
 20
355.0396896521253
 42
0.0
 10
-5.735917279894124
 20
355.0396896521253
 42
0.4142135623730951
 10
-4.735917279894124
 20
356.0396896521254
 42
0.0
 97
        0
 92
       22
 72
     1
 73
     1
 93
        8
 10
-5.235917279894124
 20
356.0396896521254
 42
-0.4142135623730951
 10
-5.735917279894124
 20
355.5396896521254
 42
0.0
 10
-11.73591727989415
 20
355.5396896521254
 42
-0.4142135623730951
 10
-12.23591727989415
 20
356.0396896521254
 42
0.0
 10
-12.23591727989415
 20
362.0396896521254
 42
-0.4142135623730951
 10
-11.73591727989415
 20
362.5396896521253
 42
0.0
 10
-5.735917279894124
 20
362.5396896521253
 42
-0.4142135623730951
 10
-5.235917279894124
 20
362.0396896521254
 42
0.0
 97
        0
 92
        6
 72
     0
 73
     1
 93
        3
 10
-5.995197655015545
 20
357.257066319009
 10
-7.727248462584043
 20
356.2570663190092
 10
-7.727248462584043
 20
358.257066319009
 97
        0
 92
        6
 72
     0
 73
     1
 93
        4
 10
-6.803687643886235
 20
359.8541038048363
 10
-10.60338871231016
 20
357.6222610605493
 10
-10.73000566099634
 20
357.837825780078
 10
-6.930304592572269
 20
360.0696685243647
 97
        0
 92
      136
 93
        4
 72
     1
 10
-11.90132026067945
 20
359.671049142551
 11
-6.620070260679426
 21
359.671049142551
 72
     1
 10
-6.620070260679426
 20
359.671049142551
 11
-6.620070260679426
 21
361.991361642551
 72
     1
 10
-6.620070260679426
 20
361.991361642551
 11
-11.90132026067942
 21
361.991361642551
 72
     1
 10
-11.90132026067945
 20
361.991361642551
 11
-11.90132026067945
 21
359.671049142551
 97
        0
 75
     0
 76
     1
 47
0.0316320572239519
 98
        4
 10
-5.09480394597142
 20
358.9076273911125
 10
-5.09480394597142
 20
358.9076273911125
 10
-5.09480394597142
 20
358.9076273911125
 10
-5.09480394597142
 20
358.9076273911125
  0
LINE
  5
67C7
330
18
100
AcDbEntity
  8
0
100
AcDbLine
 10
-40.23591727989423
 20
347.2896644818067
 30
0.0
 11
11.76408272010576
 21
347.2896644818067
 31
0.0
  0
LWPOLYLINE
  5
67C8
330
18
100
AcDbEntity
  8
0
100
AcDbPolyline
 90
        8
 70
     1
 43
0.0
 10
-27.23591727989415
 20
362.0396896521254
 10
-27.23591727989415
 20
356.0396896521254
 42
-0.4142135623730951
 10
-27.73591727989415
 20
355.5396896521254
 10
-33.73591727989415
 20
355.5396896521254
 42
-0.4142135623730951
 10
-34.23591727989415
 20
356.0396896521254
 10
-34.23591727989415
 20
362.0396896521254
 42
-0.4142135623730951
 10
-33.73591727989415
 20
362.5396896521253
 10
-27.73591727989415
 20
362.5396896521253
 42
-0.4142135623730951
  0
LWPOLYLINE
  5
67C9
330
18
100
AcDbEntity
  8
0
100
AcDbPolyline
 90
        8
 70
     1
 43
0.0
 10
-26.73591727989415
 20
362.0396896521254
 10
-26.73591727989415
 20
356.0396896521254
 42
-0.4142135623730951
 10
-27.73591727989415
 20
355.0396896521253
 10
-33.73591727989415
 20
355.0396896521253
 42
-0.4142135623730951
 10
-34.73591727989415
 20
356.0396896521254
 10
-34.73591727989415
 20
362.0396896521254
 42
-0.4142135623730951
 10
-33.73591727989415
 20
363.0396896521253
 10
-27.73591727989415
 20
363.0396896521253
 42
-0.4142135623730951
  0
LWPOLYLINE
  5
67CA
330
18
100
AcDbEntity
  8
0
100
AcDbPolyline
 90
        3
 70
     1
 43
0.0
 10
-30.7359172798937
 20
360.7717396521254
 10
-32.73591634739347
 20
357.3076396521253
 10
-28.73591821239392
 20
357.3076396521253
  0
HATCH
  5
67CB
330
18
100
AcDbEntity
  8
0
100
AcDbHatch
 10
0.0
 20
0.0
 30
0.0
210
0.0
220
0.0
230
1.0
  2
SOLID
 70
     1
 71
     0
 91
        6
 92
        7
 72
     1
 73
     1
 93
        8
 10
-16.73591727989415
 20
363.0396896521253
 42
0.0
 10
-22.73591727989415
 20
363.0396896521253
 42
0.4142135623730951
 10
-23.73591727989415
 20
362.0396896521254
 42
0.0
 10
-23.73591727989415
 20
356.0396896521254
 42
0.4142135623730951
 10
-22.73591727989415
 20
355.0396896521253
 42
0.0
 10
-16.73591727989415
 20
355.0396896521253
 42
0.4142135623730951
 10
-15.73591727989415
 20
356.0396896521254
 42
0.0
 10
-15.73591727989415
 20
362.0396896521254
 42
0.4142135623730951
 97
        0
 92
       22
 72
     1
 73
     1
 93
        8
 10
-16.73591727989415
 20
362.5396896521253
 42
-0.4142135623730951
 10
-16.23591727989415
 20
362.0396896521254
 42
0.0
 10
-16.23591727989415
 20
356.0396896521254
 42
-0.4142135623730951
 10
-16.73591727989415
 20
355.5396896521254
 42
0.0
 10
-22.73591727989415
 20
355.5396896521254
 42
-0.4142135623730951
 10
-23.23591727989415
 20
356.0396896521254
 42
0.0
 10
-23.23591727989415
 20
362.0396896521254
 42
-0.4142135623730951
 10
-22.73591727989415
 20
362.5396896521253
 42
0.0
 97
        0
 92
        6
 72
     0
 73
     1
 93
        3
 10
-21.73591634739346
 20
360.7717407288837
 10
-17.73591821239398
 20
360.7717407288835
 10
-19.73591727989369
 20
357.3076407288833
 97
        0
 92
        7
 72
     1
 73
     1
 93
        8
 10
-27.73591727989415
 20
363.0396896521253
 42
0.0
 10
-33.73591727989415
 20
363.0396896521253
 42
0.4142135623730951
 10
-34.73591727989415
 20
362.0396896521254
 42
0.0
 10
-34.73591727989415
 20
356.0396896521254
 42
0.4142135623730951
 10
-33.73591727989415
 20
355.0396896521253
 42
0.0
 10
-27.73591727989415
 20
355.0396896521253
 42
0.4142135623730951
 10
-26.73591727989415
 20
356.0396896521254
 42
0.0
 10
-26.73591727989415
 20
362.0396896521254
 42
0.4142135623730951
 97
        0
 92
       22
 72
     1
 73
     1
 93
        8
 10
-27.73591727989415
 20
362.5396896521253
 42
-0.4142135623730951
 10
-27.23591727989415
 20
362.0396896521254
 42
0.0
 10
-27.23591727989415
 20
356.0396896521254
 42
-0.4142135623730951
 10
-27.73591727989415
 20
355.5396896521254
 42
0.0
 10
-33.73591727989415
 20
355.5396896521254
 42
-0.4142135623730951
 10
-34.23591727989415
 20
356.0396896521254
 42
0.0
 10
-34.23591727989415
 20
362.0396896521254
 42
-0.4142135623730951
 10
-33.73591727989415
 20
362.5396896521253
 42
0.0
 97
        0
 92
        6
 72
     0
 73
     1
 93
        3
 10
-30.73591727989375
 20
360.7717396521252
 10
-28.73591821239384
 20
357.307639652125
 10
-32.73591634739352
 20
357.3076396521253
 97
        0
 75
     0
 76
     1
 47
0.0188367729183999
 98
        6
 10
-22.06449018592334
 20
362.7541594224014
 10
-22.06449018592334
 20
362.7541594224014
 10
-22.06449018592334
 20
362.7541594224014
 10
-29.48879855762348
 20
362.7541594224014
 10
-29.48879855762348
 20
362.7541594224014
 10
-29.48879855762348
 20
362.7541594224014
  0
HATCH
  5
67CC
330
18
100
AcDbEntity
  8
0
100
AcDbHatch
 10
0.0
 20
0.0
 30
0.0
210
0.0
220
0.0
230
1.0
  2
SOLID
 70
     1
 71
     0
 91
        2
 92
        7
 72
     0
 73
     1
 93
        3
 10
-30.7359172798937
 20
360.7717396521253
 10
-32.73591634739344
 20
357.3076396521253
 10
-28.73591821239392
 20
357.3076396521253
 97
        0
 92
        7
 72
     0
 73
     1
 93
        3
 10
-19.73591727989372
 20
357.3076407288832
 10
-17.73591821239392
 20
360.7717407288836
 10
-21.73591634739358
 20
360.7717407288835
 97
        0
 75
     0
 76
     1
 47
0.0188367729183999
 98
        2
 10
-30.3744399430399
 20
358.8737799286957
 10
-20.04824368033328
 20
359.2505153075756
  0
ARC
  5
67CD
330
18
100
AcDbEntity
  8
0
100
AcDbCircle
 10
-40.23591727989429
 20
349.2896644818067
 30
0.0
 40
2.0
100
AcDbArc
 50
180.0
 51
270.0
  0
LWPOLYLINE
  5
67CE
330
18
100
AcDbEntity
  8
0
100
AcDbPolyline
 90
        8
 70
     1
 43
0.0
 10
-15.73591727989415
 20
362.0396896521254
 10
-15.73591727989415
 20
356.0396896521254
 42
-0.4142135623730951
 10
-16.73591727989415
 20
355.0396896521253
 10
-22.73591727989415
 20
355.0396896521253
 42
-0.4142135623730951
 10
-23.73591727989415
 20
356.0396896521254
 10
-23.73591727989415
 20
362.0396896521254
 42
-0.4142135623730951
 10
-22.73591727989415
 20
363.0396896521253
 10
-16.73591727989415
 20
363.0396896521253
 42
-0.4142135623730951
  0
LWPOLYLINE
  5
67CF
330
18
100
AcDbEntity
  8
0
100
AcDbPolyline
 90
        8
 70
     1
 43
0.0
 10
-16.23591727989415
 20
362.0396896521254
 10
-16.23591727989415
 20
356.0396896521254
 42
-0.4142135623730951
 10
-16.73591727989415
 20
355.5396896521254
 10
-22.73591727989415
 20
355.5396896521254
 42
-0.4142135623730951
 10
-23.23591727989415
 20
356.0396896521254
 10
-23.23591727989415
 20
362.0396896521254
 42
-0.4142135623730951
 10
-22.73591727989415
 20
362.5396896521253
 10
-16.73591727989415
 20
362.5396896521253
 42
-0.4142135623730951
  0
LWPOLYLINE
  5
67D0
330
18
100
AcDbEntity
  8
0
100
AcDbPolyline
 90
        3
 70
     1
 43
0.0
 10
-19.73591727989369
 20
357.3076407288833
 10
-21.73591634739346
 20
360.7717407288835
 10
-17.73591821239392
 20
360.7717407288835
  0
LWPOLYLINE
  5
67D1
330
18
100
AcDbEntity
  8
0
100
AcDbPolyline
 90
        8
 70
     1
 43
0.0
 10
6.264082720105875
 20
362.0396896521254
 10
6.264082720105875
 20
356.0396896521254
 42
-0.4142135623730951
 10
5.264082720105875
 20
355.0396896521253
 10
-0.7359172798941245
 20
355.0396896521253
 42
-0.4142135623730951
 10
-1.735917279894124
 20
356.0396896521254
 10
-1.735917279894124
 20
362.0396896521254
 42
-0.4142135623730951
 10
-0.7359172798941245
 20
363.0396896521253
 10
5.264082720105875
 20
363.0396896521253
 42
-0.4142135623730951
  0
LWPOLYLINE
  5
67D2
330
18
100
AcDbEntity
  8
0
100
AcDbPolyline
 90
        8
 70
     1
 43
0.0
 10
5.764082720105875
 20
362.0396896521254
 10
5.764082720105875
 20
356.0396896521254
 42
-0.4142135623730951
 10
5.264082720105875
 20
355.5396896521254
 10
-0.7359172798941245
 20
355.5396896521254
 42
-0.4142135623730951
 10
-1.235917279894124
 20
356.0396896521254
 10
-1.235917279894124
 20
362.0396896521254
 42
-0.4142135623730951
 10
-0.7359172798941245
 20
362.5396896521253
 10
5.264082720105875
 20
362.5396896521253
 42
-0.4142135623730951
  0
HATCH
  5
67D3
330
18
100
AcDbEntity
  8
0
100
AcDbHatch
 10
0.0
 20
0.0
 30
0.0
210
0.0
220
0.0
230
1.0
  2
SOLID
 70
     1
 71
     0
 91
        2
 92
        7
 72
     1
 73
     1
 93
        8
 10
-0.7359172798941245
 20
363.0396896521253
 42
0.4142135623730951
 10
-1.735917279894124
 20
362.0396896521254
 42
0.0
 10
-1.735917279894124
 20
356.0396896521254
 42
0.4142135623730951
 10
-0.7359172798941245
 20
355.0396896521253
 42
0.0
 10
5.264082720105875
 20
355.0396896521253
 42
0.4142135623730951
 10
6.264082720105875
 20
356.0396896521254
 42
0.0
 10
6.264082720105875
 20
362.0396896521254
 42
0.4142135623730951
 10
5.264082720105875
 20
363.0396896521253
 42
0.0
 97
        0
 92
       22
 72
     1
 73
     1
 93
        8
 10
5.264082720105875
 20
362.5396896521253
 42
-0.4142135623730951
 10
5.764082720105875
 20
362.0396896521254
 42
0.0
 10
5.764082720105875
 20
356.0396896521254
 42
-0.4142135623730951
 10
5.264082720105875
 20
355.5396896521254
 42
0.0
 10
-0.7359172798941245
 20
355.5396896521254
 42
-0.4142135623730951
 10
-1.235917279894124
 20
356.0396896521254
 42
0.0
 10
-1.235917279894124
 20
362.0396896521254
 42
-0.4142135623730951
 10
-0.7359172798941245
 20
362.5396896521253
 42
0.0
 97
        0
 75
     0
 76
     1
 47
0.0112091961687951
 98
        2
 10
3.596506262740945
 20
362.7706805220607
 10
3.596506262740945
 20
362.7706805220607
  0
TEXT
  5
67D4
330
18
100
AcDbEntity
  8
0
100
AcDbText
 10
-0.172465503244435
 20
357.7896896521254
 30
0.0
 40
2.5
  1
ENT
  7
MSｺﾞｼｯｸ
 72
     1
 11
2.264082720105818
 21
359.0396896521253
 31
0.0
100
AcDbText
 73
     2
  0
LWPOLYLINE
  5
67D5
330
18
100
AcDbEntity
  8
0
100
AcDbPolyline
 90
        8
 70
     1
 43
0.0
 10
-5.235917279894124
 20
362.0396896521254
 10
-5.235917279894124
 20
356.0396896521254
 42
-0.4142135623730951
 10
-5.735917279894124
 20
355.5396896521254
 10
-11.73591727989415
 20
355.5396896521254
 42
-0.4142135623730951
 10
-12.23591727989415
 20
356.0396896521254
 10
-12.23591727989415
 20
362.0396896521254
 42
-0.4142135623730951
 10
-11.73591727989415
 20
362.5396896521253
 10
-5.735917279894124
 20
362.5396896521253
 42
-0.4142135623730951
  0
LWPOLYLINE
  5
67D6
330
18
100
AcDbEntity
  8
0
100
AcDbPolyline
 90
        4
 70
     1
 43
0.0
 10
-6.80368764388595
 20
359.8541038048365
 10
-10.60338871231013
 20
357.6222610605493
 10
-10.73000566099645
 20
357.8378257800777
 10
-6.930304592572269
 20
360.0696685243649
  0
TEXT
  5
67D7
330
18
100
AcDbEntity
  8
0
100
AcDbText
 10
-11.63178901067948
 20
360.073392892551
 30
0.0
 40
1.5
  1
MOD
  7
MSｺﾞｼｯｸ
100
AcDbText
  0
LWPOLYLINE
  5
67D8
330
18
100
AcDbEntity
  8
0
100
AcDbPolyline
 90
        3
 70
     1
 43
0.0
 10
-7.727248462584043
 20
356.257066319009
 10
-5.995197655015203
 20
357.257066319009
 10
-7.727248462584043
 20
358.257066319009
  0
ARC
  5
67D9
330
18
100
AcDbEntity
  8
0
100
AcDbCircle
 10
11.7640827201057
 20
349.2896644818067
 30
0.0
 40
2.0
100
AcDbArc
 50
270.0
 51
0.0
  0
INSERT
  5
67E0
330
18
100
AcDbEntity
  8
0
100
AcDbBlockReference
  2
A$C3A6E1F00
 10
53.33908274613259
 20
259.3896649619344
 30
0.0
  0
LINE
  5
67E1
330
18
100
AcDbEntity
  8
0
100
AcDbLine
 10
29.16408272010585
 20
288.0396644818066
 30
0.0
 11
29.16408272010585
 21
284.0396644818065
 31
0.0
  0
LINE
  5
67E2
330
18
100
AcDbEntity
  8
0
100
AcDbLine
 10
29.16408272010585
 20
284.0396644818065
 30
0.0
 11
30.16408272010585
 21
284.5396644818065
 31
0.0
  0
LINE
  5
67E3
330
18
100
AcDbEntity
  8
0
100
AcDbLine
 10
35.16408272010585
 20
288.0396644818065
 30
0.0
 11
35.16408272010574
 21
284.0396644818066
 31
0.0
  0
LINE
  5
67E4
330
18
100
AcDbEntity
  8
0
100
AcDbLine
 10
33.16408272010585
 20
284.5396644818065
 30
0.0
 11
35.16408272010574
 21
284.0396644818066
 31
0.0
  0
LINE
  5
67E5
330
18
100
AcDbEntity
  8
0
100
AcDbLine
 10
25.36408272010584
 20
328.2896644818065
 30
0.0
 11
25.36408272010584
 21
266.2896644818063
 31
0.0
  0
LINE
  5
67E6
330
18
100
AcDbEntity
  8
0
100
AcDbLine
 10
35.36408272010578
 20
326.2896644818065
 30
0.0
 11
35.36408272010578
 21
268.2896644818065
 31
0.0
  0
LINE
  5
67E7
330
18
100
AcDbEntity
  8
0
100
AcDbLine
 10
27.36408272010578
 20
326.2896644818065
 30
0.0
 11
27.36408272010578
 21
268.2896644818065
 31
0.0
  0
LINE
  5
67E8
330
18
100
AcDbEntity
  8
0
100
AcDbLine
 10
42.36408272010578
 20
326.2896644818066
 30
0.0
 11
42.36408272010578
 21
268.2896644818066
 31
0.0
  0
LINE
  5
67E9
330
18
100
AcDbEntity
  8
0
100
AcDbLine
 10
41.36408272010578
 20
326.2896644818065
 30
0.0
 11
41.36408272010578
 21
268.2896644818066
 31
0.0
  0
LINE
  5
67EA
330
18
100
AcDbEntity
  8
0
100
AcDbLine
 10
50.26408272010542
 20
335.2896644818063
 30
0.0
 11
50.26408272010582
 21
256.7896644818067
 31
0.0
  0
LINE
  5
67EB
330
18
100
AcDbEntity
  8
0
100
AcDbLine
 10
50.26408272010582
 20
256.7896644818067
 30
0.0
 11
65.26408272010576
 21
256.7896644818067
 31
0.0
  0
ARC
  5
67EC
330
18
100
AcDbEntity
  8
0
100
AcDbCircle
 10
59.76408272010576
 20
220.2896644818065
 30
0.0
 40
3.0
100
AcDbArc
 50
0.0
 51
180.0
  0
CIRCLE
  5
67ED
330
18
100
AcDbEntity
  8
0
100
AcDbCircle
 10
41.76408272010582
 20
237.2896644818065
 30
0.0
 40
2.5
  0
CIRCLE
  5
67EE
330
18
100
AcDbEntity
  8
0
100
AcDbCircle
 10
41.76408272010582
 20
237.2896644818065
 30
0.0
 40
3.0
  0
ARC
  5
67EF
330
18
100
AcDbEntity
  8
0
100
AcDbCircle
 10
41.76408272010582
 20
237.2896644818065
 30
0.0
 40
2.0
100
AcDbArc
 50
345.5224878140701
 51
14.47751218592986
  0
LINE
  5
67F0
330
18
100
AcDbEntity
  8
0
100
AcDbLine
 10
42.26408272010582
 20
239.2261561549098
 30
0.0
 11
42.26408272010582
 21
237.7896644818065
 31
0.0
  0
LINE
  5
67F1
330
18
100
AcDbEntity
  8
0
100
AcDbLine
 10
41.26408272010581
 20
239.2261561549098
 30
0.0
 11
41.26408272010581
 21
237.7896644818065
 31
0.0
  0
ARC
  5
67F2
330
18
100
AcDbEntity
  8
0
100
AcDbCircle
 10
41.76408272010582
 20
237.2896644818065
 30
0.0
 40
2.0
100
AcDbArc
 50
75.52248781407005
 51
104.4775121859299
  0
LINE
  5
67F3
330
18
100
AcDbEntity
  8
0
100
AcDbLine
 10
41.26408272010581
 20
237.7896644818065
 30
0.0
 11
39.82759104700204
 21
237.7896644818065
 31
0.0
  0
LINE
  5
67F4
330
18
100
AcDbEntity
  8
0
100
AcDbLine
 10
41.26408272010581
 20
236.7896644818065
 30
0.0
 11
39.82759104700204
 21
236.7896644818065
 31
0.0
  0
LINE
  5
67F5
330
18
100
AcDbEntity
  8
0
100
AcDbLine
 10
42.26408272010582
 20
236.7896644818065
 30
0.0
 11
42.26408272010582
 21
235.3531728087027
 31
0.0
  0
LINE
  5
67F6
330
18
100
AcDbEntity
  8
0
100
AcDbLine
 10
41.26408272010581
 20
236.7896644818065
 30
0.0
 11
41.26408272010581
 21
235.3531728087027
 31
0.0
  0
ARC
  5
67F7
330
18
100
AcDbEntity
  8
0
100
AcDbCircle
 10
41.76408272010582
 20
237.2896644818065
 30
0.0
 40
2.0
100
AcDbArc
 50
255.52248781407
 51
284.4775121859299
  0
ARC
  5
67F8
330
18
100
AcDbEntity
  8
0
100
AcDbCircle
 10
41.76408272010582
 20
237.2896644818065
 30
0.0
 40
2.0
100
AcDbArc
 50
165.5224878140701
 51
194.4775121859298
  0
LINE
  5
67F9
330
18
100
AcDbEntity
  8
0
100
AcDbLine
 10
43.70057439320959
 20
237.7896644818065
 30
0.0
 11
42.26408272010582
 21
237.7896644818065
 31
0.0
  0
LINE
  5
67FA
330
18
100
AcDbEntity
  8
0
100
AcDbLine
 10
43.70057439320959
 20
236.7896644818065
 30
0.0
 11
42.26408272010582
 21
236.7896644818065
 31
0.0
  0
LINE
  5
67FB
330
18
100
AcDbEntity
  8
0
100
AcDbLine
 10
56.76408272010576
 20
220.2896644818065
 30
0.0
 11
56.76408272010576
 21
215.2896644818065
 31
0.0
  0
MTEXT
  5
67FC
330
18
100
AcDbEntity
  8
0
100
AcDbMText
 10
41.29716434562204
 20
263.6288244160924
 30
0.0
 40
2.0
 41
0.0
 71
     1
 72
     5
  1
ＣＮ１
  7
MSｺﾞｼｯｸ
 73
     1
 44
1.0
  0
LINE
  5
67FD
330
18
100
AcDbEntity
  8
0
100
AcDbLine
 10
29.16408272010585
 20
284.0396644818065
 30
0.0
 11
35.16408272010574
 21
284.0396644818066
 31
0.0
  0
LINE
  5
680A
330
18
100
AcDbEntity
  8
0
100
AcDbLine
 10
30.16408272010574
 20
272.5396644818066
 30
0.0
 11
33.16408272010574
 21
272.5396644818065
 31
0.0
  0
LINE
  5
680B
330
18
100
AcDbEntity
  8
0
100
AcDbLine
 10
30.16408272010574
 20
272.5396644818066
 30
0.0
 11
30.16408272010574
 21
269.5396644818065
 31
0.0
  0
LINE
  5
680C
330
18
100
AcDbEntity
  8
0
100
AcDbLine
 10
30.16408272010574
 20
269.5396644818065
 30
0.0
 11
33.16408272010574
 21
269.5396644818065
 31
0.0
  0
LINE
  5
680D
330
18
100
AcDbEntity
  8
0
100
AcDbLine
 10
33.16408272010574
 20
272.5396644818065
 30
0.0
 11
33.16408272010574
 21
269.5396644818065
 31
0.0
  0
LINE
  5
680E
330
18
100
AcDbEntity
  8
0
100
AcDbLine
 10
35.16408272010574
 20
273.0396644818065
 30
0.0
 11
35.16408272010574
 21
269.0396644818066
 31
0.0
  0
LINE
  5
680F
330
18
100
AcDbEntity
  8
0
100
AcDbLine
 10
29.16408272010574
 20
269.0396644818065
 30
0.0
 11
35.16408272010574
 21
269.0396644818066
 31
0.0
  0
LINE
  5
6810
330
18
100
AcDbEntity
  8
0
100
AcDbLine
 10
29.16408272010574
 20
273.0396644818066
 30
0.0
 11
29.16408272010574
 21
269.0396644818065
 31
0.0
  0
LINE
  5
6811
330
18
100
AcDbEntity
  8
0
100
AcDbLine
 10
29.16408272010574
 20
273.0396644818066
 30
0.0
 11
35.16408272010574
 21
273.0396644818065
 31
0.0
  0
LINE
  5
6812
330
18
100
AcDbEntity
  8
0
100
AcDbLine
 10
33.16408272010574
 20
269.5396644818065
 30
0.0
 11
35.16408272010574
 21
269.0396644818066
 31
0.0
  0
LINE
  5
6813
330
18
100
AcDbEntity
  8
0
100
AcDbLine
 10
33.16408272010574
 20
272.5396644818065
 30
0.0
 11
35.16408272010574
 21
273.0396644818065
 31
0.0
  0
LINE
  5
6814
330
18
100
AcDbEntity
  8
0
100
AcDbLine
 10
30.16408272010574
 20
272.5396644818066
 30
0.0
 11
29.16408272010574
 21
273.0396644818066
 31
0.0
  0
LINE
  5
6815
330
18
100
AcDbEntity
  8
0
100
AcDbLine
 10
29.16408272010574
 20
269.0396644818065
 30
0.0
 11
30.16408272010574
 21
269.5396644818065
 31
0.0
  0
LINE
  5
6816
330
18
100
AcDbEntity
  8
0
100
AcDbLine
 10
33.16408272010585
 20
280.0396644818065
 30
0.0
 11
35.16408272010585
 21
280.5396644818065
 31
0.0
  0
LINE
  5
6817
330
18
100
AcDbEntity
  8
0
100
AcDbLine
 10
33.16408272010585
 20
277.0396644818065
 30
0.0
 11
35.16408272010574
 21
276.5396644818066
 31
0.0
  0
LINE
  5
6818
330
18
100
AcDbEntity
  8
0
100
AcDbLine
 10
35.16408272010585
 20
280.5396644818065
 30
0.0
 11
35.16408272010574
 21
276.5396644818066
 31
0.0
  0
LINE
  5
6819
330
18
100
AcDbEntity
  8
0
100
AcDbLine
 10
33.16408272010585
 20
280.0396644818065
 30
0.0
 11
33.16408272010585
 21
277.0396644818065
 31
0.0
  0
LINE
  5
681A
330
18
100
AcDbEntity
  8
0
100
AcDbLine
 10
29.16408272010574
 20
276.5396644818065
 30
0.0
 11
35.16408272010574
 21
276.5396644818066
 31
0.0
  0
LINE
  5
681B
330
18
100
AcDbEntity
  8
0
100
AcDbLine
 10
30.16408272010585
 20
277.0396644818065
 30
0.0
 11
33.16408272010585
 21
277.0396644818065
 31
0.0
  0
LINE
  5
681C
330
18
100
AcDbEntity
  8
0
100
AcDbLine
 10
30.16408272010585
 20
280.0396644818066
 30
0.0
 11
33.16408272010585
 21
280.0396644818065
 31
0.0
  0
LINE
  5
681D
330
18
100
AcDbEntity
  8
0
100
AcDbLine
 10
29.16408272010585
 20
280.5396644818066
 30
0.0
 11
35.16408272010585
 21
280.5396644818065
 31
0.0
  0
LINE
  5
681E
330
18
100
AcDbEntity
  8
0
100
AcDbLine
 10
29.16408272010574
 20
276.5396644818065
 30
0.0
 11
30.16408272010585
 21
277.0396644818065
 31
0.0
  0
LINE
  5
681F
330
18
100
AcDbEntity
  8
0
100
AcDbLine
 10
30.16408272010585
 20
280.0396644818066
 30
0.0
 11
29.16408272010585
 21
280.5396644818066
 31
0.0
  0
LINE
  5
6820
330
18
100
AcDbEntity
  8
0
100
AcDbLine
 10
29.16408272010585
 20
280.5396644818066
 30
0.0
 11
29.16408272010574
 21
276.5396644818065
 31
0.0
  0
LINE
  5
6821
330
18
100
AcDbEntity
  8
0
100
AcDbLine
 10
30.16408272010585
 20
280.0396644818066
 30
0.0
 11
30.16408272010585
 21
277.0396644818065
 31
0.0
  0
LINE
  5
6822
330
18
100
AcDbEntity
  8
0
100
AcDbLine
 10
40.36408272010584
 20
268.2896644818066
 30
0.0
 11
40.36408272010584
 21
266.2896644818063
 31
0.0
  0
LINE
  5
6823
330
18
100
AcDbEntity
  8
0
100
AcDbLine
 10
40.36408272010584
 20
266.2896644818063
 30
0.0
 11
25.36408272010584
 21
266.2896644818063
 31
0.0
  0
LINE
  5
6824
330
18
100
AcDbEntity
  8
0
100
AcDbLine
 10
27.36408272010578
 20
268.2896644818065
 30
0.0
 11
42.36408272010578
 21
268.2896644818066
 31
0.0
  0
LINE
  5
6825
330
18
100
AcDbEntity
  8
0
100
AcDbLine
 10
32.36408272010578
 20
248.7261561549098
 30
0.0
 11
32.36408272010578
 21
247.2896644818065
 31
0.0
  0
LINE
  5
6826
330
18
100
AcDbEntity
  8
0
100
AcDbLine
 10
31.36408272010578
 20
248.7261561549098
 30
0.0
 11
31.36408272010578
 21
247.2896644818065
 31
0.0
  0
CIRCLE
  5
6827
330
18
100
AcDbEntity
  8
0
100
AcDbCircle
 10
31.86408272010578
 20
246.7896644818065
 30
0.0
 40
2.5
  0
CIRCLE
  5
6828
330
18
100
AcDbEntity
  8
0
100
AcDbCircle
 10
31.86408272010578
 20
246.7896644818065
 30
0.0
 40
3.0
  0
ARC
  5
6829
330
18
100
AcDbEntity
  8
0
100
AcDbCircle
 10
31.86408272010578
 20
246.7896644818065
 30
0.0
 40
2.0
100
AcDbArc
 50
75.52248781407005
 51
104.4775121859299
  0
LINE
  5
682A
330
18
100
AcDbEntity
  8
0
100
AcDbLine
 10
31.36408272010578
 20
247.2896644818065
 30
0.0
 11
29.92759104700201
 21
247.2896644818065
 31
0.0
  0
LINE
  5
682B
330
18
100
AcDbEntity
  8
0
100
AcDbLine
 10
33.80057439320955
 20
247.2896644818065
 30
0.0
 11
32.36408272010578
 21
247.2896644818065
 31
0.0
  0
LINE
  5
682C
330
18
100
AcDbEntity
  8
0
100
AcDbLine
 10
31.36408272010578
 20
246.2896644818065
 30
0.0
 11
29.92759104700201
 21
246.2896644818065
 31
0.0
  0
LINE
  5
682D
330
18
100
AcDbEntity
  8
0
100
AcDbLine
 10
33.80057439320955
 20
246.2896644818065
 30
0.0
 11
32.36408272010578
 21
246.2896644818065
 31
0.0
  0
LINE
  5
682E
330
18
100
AcDbEntity
  8
0
100
AcDbLine
 10
32.36408272010578
 20
246.2896644818065
 30
0.0
 11
32.36408272010578
 21
244.8531728087027
 31
0.0
  0
LINE
  5
682F
330
18
100
AcDbEntity
  8
0
100
AcDbLine
 10
31.36408272010578
 20
246.2896644818065
 30
0.0
 11
31.36408272010578
 21
244.8531728087027
 31
0.0
  0
ARC
  5
6830
330
18
100
AcDbEntity
  8
0
100
AcDbCircle
 10
31.86408272010578
 20
246.7896644818065
 30
0.0
 40
2.0
100
AcDbArc
 50
255.52248781407
 51
284.4775121859299
  0
ARC
  5
6831
330
18
100
AcDbEntity
  8
0
100
AcDbCircle
 10
31.86408272010578
 20
246.7896644818065
 30
0.0
 40
2.0
100
AcDbArc
 50
165.5224878140701
 51
194.4775121859298
  0
ARC
  5
6832
330
18
100
AcDbEntity
  8
0
100
AcDbCircle
 10
31.86408272010578
 20
246.7896644818065
 30
0.0
 40
2.0
100
AcDbArc
 50
345.5224878140701
 51
14.47751218592986
  0
LINE
  5
6836
330
18
100
AcDbEntity
  8
0
100
AcDbLine
 10
69.76408272010576
 20
215.2896644818065
 30
0.0
 11
62.76408272010576
 21
215.2896644818065
 31
0.0
  0
LINE
  5
6837
330
18
100
AcDbEntity
  8
0
100
AcDbLine
 10
62.76408272010576
 20
220.2896644818065
 30
0.0
 11
62.76408272010576
 21
215.2896644818065
 31
0.0
  0
INSERT
  5
6843
330
18
100
AcDbEntity
  8
0
100
AcDbBlockReference
  2
A$C57095CDF
 10
53.33908274613259
 20
303.3646645688554
 30
0.0
  0
MTEXT
  5
6844
330
18
100
AcDbEntity
  8
0
100
AcDbMText
 10
40.81780369339037
 20
329.437602367248
 30
0.0
 40
2.0
 41
0.0
 71
     1
 72
     5
  1
ＣＮ２
  7
MSｺﾞｼｯｸ
 73
     1
 44
1.0
  0
LINE
  5
6845
330
18
100
AcDbEntity
  8
0
100
AcDbLine
 10
40.36408272010584
 20
328.2896644818065
 30
0.0
 11
40.36408272010584
 21
326.2896644818065
 31
0.0
  0
LINE
  5
6846
330
18
100
AcDbEntity
  8
0
100
AcDbLine
 10
35.16408272010585
 20
310.5396644818065
 30
0.0
 11
35.16408272010574
 21
306.5396644818066
 31
0.0
  0
LINE
  5
6847
330
18
100
AcDbEntity
  8
0
100
AcDbLine
 10
33.16408272010585
 20
310.0396644818065
 30
0.0
 11
33.16408272010585
 21
307.0396644818065
 31
0.0
  0
LINE
  5
6848
330
18
100
AcDbEntity
  8
0
100
AcDbLine
 10
29.16408272010585
 20
310.5396644818066
 30
0.0
 11
29.16408272010585
 21
306.5396644818065
 31
0.0
  0
LINE
  5
6849
330
18
100
AcDbEntity
  8
0
100
AcDbLine
 10
30.16408272010585
 20
310.0396644818066
 30
0.0
 11
30.16408272010585
 21
307.0396644818065
 31
0.0
  0
LINE
  5
684A
330
18
100
AcDbEntity
  8
0
100
AcDbLine
 10
33.16408272010585
 20
307.0396644818065
 30
0.0
 11
35.16408272010574
 21
306.5396644818066
 31
0.0
  0
LINE
  5
684B
330
18
100
AcDbEntity
  8
0
100
AcDbLine
 10
29.16408272010585
 20
306.5396644818065
 30
0.0
 11
35.16408272010574
 21
306.5396644818066
 31
0.0
  0
LINE
  5
684C
330
18
100
AcDbEntity
  8
0
100
AcDbLine
 10
30.16408272010585
 20
307.0396644818065
 30
0.0
 11
33.16408272010585
 21
307.0396644818065
 31
0.0
  0
LINE
  5
684D
330
18
100
AcDbEntity
  8
0
100
AcDbLine
 10
29.16408272010585
 20
306.5396644818065
 30
0.0
 11
30.16408272010585
 21
307.0396644818065
 31
0.0
  0
LINE
  5
684E
330
18
100
AcDbEntity
  8
0
100
AcDbLine
 10
33.16408272010585
 20
310.0396644818065
 30
0.0
 11
35.16408272010585
 21
310.5396644818065
 31
0.0
  0
LINE
  5
684F
330
18
100
AcDbEntity
  8
0
100
AcDbLine
 10
30.16408272010585
 20
310.0396644818066
 30
0.0
 11
33.16408272010585
 21
310.0396644818065
 31
0.0
  0
LINE
  5
6850
330
18
100
AcDbEntity
  8
0
100
AcDbLine
 10
29.16408272010585
 20
310.5396644818066
 30
0.0
 11
35.16408272010585
 21
310.5396644818065
 31
0.0
  0
LINE
  5
6851
330
18
100
AcDbEntity
  8
0
100
AcDbLine
 10
30.16408272010585
 20
310.0396644818066
 30
0.0
 11
29.16408272010585
 21
310.5396644818066
 31
0.0
  0
LINE
  5
6852
330
18
100
AcDbEntity
  8
0
100
AcDbLine
 10
30.16408272010585
 20
317.5396644818066
 30
0.0
 11
30.16408272010585
 21
314.5396644818065
 31
0.0
  0
LINE
  5
6853
330
18
100
AcDbEntity
  8
0
100
AcDbLine
 10
29.16408272010585
 20
318.0396644818066
 30
0.0
 11
29.16408272010585
 21
314.0396644818065
 31
0.0
  0
LINE
  5
6854
330
18
100
AcDbEntity
  8
0
100
AcDbLine
 10
30.16408272010585
 20
317.5396644818066
 30
0.0
 11
29.16408272010585
 21
318.0396644818066
 31
0.0
  0
LINE
  5
6855
330
18
100
AcDbEntity
  8
0
100
AcDbLine
 10
29.16408272010585
 20
314.0396644818065
 30
0.0
 11
30.16408272010585
 21
314.5396644818065
 31
0.0
  0
LINE
  5
6856
330
18
100
AcDbEntity
  8
0
100
AcDbLine
 10
29.16408272010585
 20
318.0396644818066
 30
0.0
 11
35.16408272010585
 21
318.0396644818065
 31
0.0
  0
LINE
  5
6857
330
18
100
AcDbEntity
  8
0
100
AcDbLine
 10
30.16408272010585
 20
317.5396644818066
 30
0.0
 11
33.16408272010585
 21
317.5396644818065
 31
0.0
  0
LINE
  5
6858
330
18
100
AcDbEntity
  8
0
100
AcDbLine
 10
30.16408272010585
 20
314.5396644818065
 30
0.0
 11
33.16408272010585
 21
314.5396644818065
 31
0.0
  0
LINE
  5
6859
330
18
100
AcDbEntity
  8
0
100
AcDbLine
 10
29.16408272010585
 20
314.0396644818065
 30
0.0
 11
35.16408272010574
 21
314.0396644818066
 31
0.0
  0
LINE
  5
685A
330
18
100
AcDbEntity
  8
0
100
AcDbLine
 10
33.16408272010585
 20
317.5396644818065
 30
0.0
 11
33.16408272010585
 21
314.5396644818065
 31
0.0
  0
LINE
  5
685B
330
18
100
AcDbEntity
  8
0
100
AcDbLine
 10
35.16408272010585
 20
318.0396644818065
 30
0.0
 11
35.16408272010574
 21
314.0396644818066
 31
0.0
  0
LINE
  5
685C
330
18
100
AcDbEntity
  8
0
100
AcDbLine
 10
33.16408272010585
 20
314.5396644818065
 30
0.0
 11
35.16408272010574
 21
314.0396644818066
 31
0.0
  0
LINE
  5
685D
330
18
100
AcDbEntity
  8
0
100
AcDbLine
 10
33.16408272010585
 20
317.5396644818065
 30
0.0
 11
35.16408272010585
 21
318.0396644818065
 31
0.0
  0
LINE
  5
685E
330
18
100
AcDbEntity
  8
0
100
AcDbLine
 10
33.16408272010585
 20
325.0396644818065
 30
0.0
 11
35.16408272010585
 21
325.5396644818065
 31
0.0
  0
LINE
  5
685F
330
18
100
AcDbEntity
  8
0
100
AcDbLine
 10
33.16408272010585
 20
322.0396644818065
 30
0.0
 11
35.16408272010574
 21
321.5396644818066
 31
0.0
  0
LINE
  5
6860
330
18
100
AcDbEntity
  8
0
100
AcDbLine
 10
35.16408272010585
 20
325.5396644818065
 30
0.0
 11
35.16408272010574
 21
321.5396644818066
 31
0.0
  0
LINE
  5
6861
330
18
100
AcDbEntity
  8
0
100
AcDbLine
 10
33.16408272010585
 20
325.0396644818065
 30
0.0
 11
33.16408272010585
 21
322.0396644818065
 31
0.0
  0
LINE
  5
6862
330
18
100
AcDbEntity
  8
0
100
AcDbLine
 10
29.16408272010585
 20
321.5396644818065
 30
0.0
 11
35.16408272010574
 21
321.5396644818066
 31
0.0
  0
LINE
  5
6863
330
18
100
AcDbEntity
  8
0
100
AcDbLine
 10
30.16408272010585
 20
322.0396644818065
 30
0.0
 11
33.16408272010585
 21
322.0396644818065
 31
0.0
  0
LINE
  5
6864
330
18
100
AcDbEntity
  8
0
100
AcDbLine
 10
30.16408272010585
 20
325.0396644818066
 30
0.0
 11
33.16408272010585
 21
325.0396644818065
 31
0.0
  0
LINE
  5
6865
330
18
100
AcDbEntity
  8
0
100
AcDbLine
 10
29.16408272010585
 20
325.5396644818066
 30
0.0
 11
35.16408272010585
 21
325.5396644818065
 31
0.0
  0
LINE
  5
6866
330
18
100
AcDbEntity
  8
0
100
AcDbLine
 10
29.16408272010585
 20
321.5396644818065
 30
0.0
 11
30.16408272010585
 21
322.0396644818065
 31
0.0
  0
LINE
  5
6867
330
18
100
AcDbEntity
  8
0
100
AcDbLine
 10
30.16408272010585
 20
325.0396644818066
 30
0.0
 11
29.16408272010585
 21
325.5396644818066
 31
0.0
  0
LINE
  5
6868
330
18
100
AcDbEntity
  8
0
100
AcDbLine
 10
29.16408272010585
 20
325.5396644818066
 30
0.0
 11
29.16408272010585
 21
321.5396644818065
 31
0.0
  0
LINE
  5
6869
330
18
100
AcDbEntity
  8
0
100
AcDbLine
 10
30.16408272010585
 20
325.0396644818066
 30
0.0
 11
30.16408272010585
 21
322.0396644818065
 31
0.0
  0
LINE
  5
686A
330
18
100
AcDbEntity
  8
0
100
AcDbLine
 10
40.36408272010584
 20
328.2896644818065
 30
0.0
 11
25.36408272010584
 21
328.2896644818065
 31
0.0
  0
LINE
  5
686B
330
18
100
AcDbEntity
  8
0
100
AcDbLine
 10
27.36408272010555
 20
326.2896644818065
 30
0.0
 11
42.36408272010566
 21
326.2896644818065
 31
0.0
  0
LINE
  5
686C
330
18
100
AcDbEntity
  8
0
100
AcDbLine
 10
30.16408272010585
 20
287.5396644818066
 30
0.0
 11
30.16408272010585
 21
284.5396644818065
 31
0.0
  0
LINE
  5
686D
330
18
100
AcDbEntity
  8
0
100
AcDbLine
 10
30.16408272010585
 20
287.5396644818066
 30
0.0
 11
29.16408272010585
 21
288.0396644818066
 31
0.0
  0
LINE
  5
686E
330
18
100
AcDbEntity
  8
0
100
AcDbLine
 10
29.16408272010585
 20
288.0396644818066
 30
0.0
 11
35.16408272010585
 21
288.0396644818065
 31
0.0
  0
LINE
  5
686F
330
18
100
AcDbEntity
  8
0
100
AcDbLine
 10
30.16408272010585
 20
287.5396644818066
 30
0.0
 11
33.16408272010585
 21
287.5396644818065
 31
0.0
  0
LINE
  5
6870
330
18
100
AcDbEntity
  8
0
100
AcDbLine
 10
30.16408272010585
 20
284.5396644818065
 30
0.0
 11
33.16408272010585
 21
284.5396644818065
 31
0.0
  0
LINE
  5
6871
330
18
100
AcDbEntity
  8
0
100
AcDbLine
 10
33.16408272010585
 20
287.5396644818065
 30
0.0
 11
33.16408272010585
 21
284.5396644818065
 31
0.0
  0
LINE
  5
6872
330
18
100
AcDbEntity
  8
0
100
AcDbLine
 10
33.16408272010585
 20
287.5396644818065
 30
0.0
 11
35.16408272010585
 21
288.0396644818065
 31
0.0
  0
LINE
  5
6873
330
18
100
AcDbEntity
  8
0
100
AcDbLine
 10
30.16408272010585
 20
295.0396644818066
 30
0.0
 11
30.16408272010585
 21
292.0396644818065
 31
0.0
  0
LINE
  5
6874
330
18
100
AcDbEntity
  8
0
100
AcDbLine
 10
29.16408272010585
 20
295.5396644818066
 30
0.0
 11
29.16408272010585
 21
291.5396644818065
 31
0.0
  0
LINE
  5
6875
330
18
100
AcDbEntity
  8
0
100
AcDbLine
 10
30.16408272010585
 20
295.0396644818066
 30
0.0
 11
29.16408272010585
 21
295.5396644818066
 31
0.0
  0
LINE
  5
6876
330
18
100
AcDbEntity
  8
0
100
AcDbLine
 10
29.16408272010585
 20
291.5396644818065
 30
0.0
 11
30.16408272010585
 21
292.0396644818065
 31
0.0
  0
LINE
  5
6877
330
18
100
AcDbEntity
  8
0
100
AcDbLine
 10
29.16408272010585
 20
295.5396644818066
 30
0.0
 11
35.16408272010585
 21
295.5396644818065
 31
0.0
  0
LINE
  5
6878
330
18
100
AcDbEntity
  8
0
100
AcDbLine
 10
30.16408272010585
 20
295.0396644818066
 30
0.0
 11
33.16408272010585
 21
295.0396644818065
 31
0.0
  0
LINE
  5
6879
330
18
100
AcDbEntity
  8
0
100
AcDbLine
 10
30.16408272010585
 20
292.0396644818065
 30
0.0
 11
33.16408272010585
 21
292.0396644818065
 31
0.0
  0
LINE
  5
687A
330
18
100
AcDbEntity
  8
0
100
AcDbLine
 10
29.16408272010585
 20
291.5396644818065
 30
0.0
 11
35.16408272010574
 21
291.5396644818066
 31
0.0
  0
LINE
  5
687B
330
18
100
AcDbEntity
  8
0
100
AcDbLine
 10
33.16408272010585
 20
295.0396644818065
 30
0.0
 11
33.16408272010585
 21
292.0396644818065
 31
0.0
  0
LINE
  5
687C
330
18
100
AcDbEntity
  8
0
100
AcDbLine
 10
35.16408272010585
 20
295.5396644818065
 30
0.0
 11
35.16408272010574
 21
291.5396644818066
 31
0.0
  0
LINE
  5
687D
330
18
100
AcDbEntity
  8
0
100
AcDbLine
 10
33.16408272010585
 20
292.0396644818065
 30
0.0
 11
35.16408272010574
 21
291.5396644818066
 31
0.0
  0
LINE
  5
687E
330
18
100
AcDbEntity
  8
0
100
AcDbLine
 10
33.16408272010585
 20
295.0396644818065
 30
0.0
 11
35.16408272010585
 21
295.5396644818065
 31
0.0
  0
LINE
  5
687F
330
18
100
AcDbEntity
  8
0
100
AcDbLine
 10
33.16408272010585
 20
302.5396644818065
 30
0.0
 11
35.16408272010585
 21
303.0396644818065
 31
0.0
  0
LINE
  5
6880
330
18
100
AcDbEntity
  8
0
100
AcDbLine
 10
33.16408272010585
 20
299.5396644818065
 30
0.0
 11
35.16408272010574
 21
299.0396644818066
 31
0.0
  0
LINE
  5
6881
330
18
100
AcDbEntity
  8
0
100
AcDbLine
 10
35.16408272010585
 20
303.0396644818065
 30
0.0
 11
35.16408272010574
 21
299.0396644818066
 31
0.0
  0
LINE
  5
6882
330
18
100
AcDbEntity
  8
0
100
AcDbLine
 10
33.16408272010585
 20
302.5396644818065
 30
0.0
 11
33.16408272010585
 21
299.5396644818065
 31
0.0
  0
LINE
  5
6883
330
18
100
AcDbEntity
  8
0
100
AcDbLine
 10
29.16408272010585
 20
299.0396644818065
 30
0.0
 11
35.16408272010574
 21
299.0396644818066
 31
0.0
  0
LINE
  5
6884
330
18
100
AcDbEntity
  8
0
100
AcDbLine
 10
30.16408272010585
 20
299.5396644818065
 30
0.0
 11
33.16408272010585
 21
299.5396644818065
 31
0.0
  0
LINE
  5
6885
330
18
100
AcDbEntity
  8
0
100
AcDbLine
 10
30.16408272010585
 20
302.5396644818066
 30
0.0
 11
33.16408272010585
 21
302.5396644818065
 31
0.0
  0
LINE
  5
6886
330
18
100
AcDbEntity
  8
0
100
AcDbLine
 10
29.16408272010585
 20
303.0396644818066
 30
0.0
 11
35.16408272010585
 21
303.0396644818065
 31
0.0
  0
LINE
  5
6887
330
18
100
AcDbEntity
  8
0
100
AcDbLine
 10
29.16408272010585
 20
299.0396644818065
 30
0.0
 11
30.16408272010585
 21
299.5396644818065
 31
0.0
  0
LINE
  5
6888
330
18
100
AcDbEntity
  8
0
100
AcDbLine
 10
30.16408272010585
 20
302.5396644818066
 30
0.0
 11
29.16408272010585
 21
303.0396644818066
 31
0.0
  0
LINE
  5
6889
330
18
100
AcDbEntity
  8
0
100
AcDbLine
 10
29.16408272010585
 20
303.0396644818066
 30
0.0
 11
29.16408272010585
 21
299.0396644818065
 31
0.0
  0
LINE
  5
688A
330
18
100
AcDbEntity
  8
0
100
AcDbLine
 10
30.16408272010585
 20
302.5396644818066
 30
0.0
 11
30.16408272010585
 21
299.5396644818065
 31
0.0
  0
MTEXT
  5
688B
330
18
100
AcDbEntity
  8
0
100
AcDbMText
 10
41.87837161446601
 20
355.6087909072768
 30
0.0
 40
2.0
 41
0.0
 71
     1
 72
     5
  1
Ｊ２
  7
MSｺﾞｼｯｸ
 73
     1
 44
1.0
  0
LINE
  5
688C
330
18
100
AcDbEntity
  8
0
100
AcDbLine
 10
32.36408272010578
 20
352.7261561549098
 30
0.0
 11
32.36408272010578
 21
351.2896644818065
 31
0.0
  0
LINE
  5
688D
330
18
100
AcDbEntity
  8
0
100
AcDbLine
 10
31.36408272010578
 20
352.7261561549098
 30
0.0
 11
31.36408272010578
 21
351.2896644818065
 31
0.0
  0
CIRCLE
  5
688E
330
18
100
AcDbEntity
  8
0
100
AcDbCircle
 10
31.86408272010578
 20
350.7896644818065
 30
0.0
 40
2.5
  0
CIRCLE
  5
688F
330
18
100
AcDbEntity
  8
0
100
AcDbCircle
 10
31.86408272010578
 20
350.7896644818065
 30
0.0
 40
3.0
  0
ARC
  5
6890
330
18
100
AcDbEntity
  8
0
100
AcDbCircle
 10
31.86408272010578
 20
350.7896644818065
 30
0.0
 40
2.0
100
AcDbArc
 50
75.52248781407005
 51
104.4775121859299
  0
LINE
  5
6891
330
18
100
AcDbEntity
  8
0
100
AcDbLine
 10
31.36408272010578
 20
351.2896644818065
 30
0.0
 11
29.92759104700201
 21
351.2896644818065
 31
0.0
  0
LINE
  5
6892
330
18
100
AcDbEntity
  8
0
100
AcDbLine
 10
33.80057439320955
 20
351.2896644818065
 30
0.0
 11
32.36408272010578
 21
351.2896644818065
 31
0.0
  0
LINE
  5
6893
330
18
100
AcDbEntity
  8
0
100
AcDbLine
 10
31.36408272010578
 20
350.2896644818065
 30
0.0
 11
29.92759104700201
 21
350.2896644818065
 31
0.0
  0
LINE
  5
6894
330
18
100
AcDbEntity
  8
0
100
AcDbLine
 10
33.80057439320955
 20
350.2896644818065
 30
0.0
 11
32.36408272010578
 21
350.2896644818065
 31
0.0
  0
LINE
  5
6895
330
18
100
AcDbEntity
  8
0
100
AcDbLine
 10
32.36408272010578
 20
350.2896644818065
 30
0.0
 11
32.36408272010578
 21
348.8531728087027
 31
0.0
  0
LINE
  5
6896
330
18
100
AcDbEntity
  8
0
100
AcDbLine
 10
31.36408272010578
 20
350.2896644818065
 30
0.0
 11
31.36408272010578
 21
348.8531728087027
 31
0.0
  0
ARC
  5
6897
330
18
100
AcDbEntity
  8
0
100
AcDbCircle
 10
31.86408272010578
 20
350.7896644818065
 30
0.0
 40
2.0
100
AcDbArc
 50
255.52248781407
 51
284.4775121859299
  0
ARC
  5
6898
330
18
100
AcDbEntity
  8
0
100
AcDbCircle
 10
31.86408272010578
 20
350.7896644818065
 30
0.0
 40
2.0
100
AcDbArc
 50
165.5224878140701
 51
194.4775121859298
  0
ARC
  5
6899
330
18
100
AcDbEntity
  8
0
100
AcDbCircle
 10
31.86408272010578
 20
350.7896644818065
 30
0.0
 40
2.0
100
AcDbArc
 50
345.5224878140701
 51
14.47751218592986
  0
MTEXT
  5
689A
330
18
100
AcDbEntity
  8
0
100
AcDbMText
 10
27.68927013626114
 20
333.4765239092096
 30
0.0
 40
3.0
 41
0.0
 71
     1
 72
     5
  1
ＴＢ２
  7
MSｺﾞｼｯｸ
 73
     1
 44
1.0
  0
LINE
  5
689B
330
18
100
AcDbEntity
  8
0
100
AcDbLine
 10
45.26408272010582
 20
335.2896644818063
 30
0.0
 11
45.26408272010582
 21
351.7896644818063
 31
0.0
  0
LINE
  5
689C
330
18
100
AcDbEntity
  8
0
100
AcDbLine
 10
45.26408272010582
 20
351.7896644818063
 30
0.0
 11
50.26408272010582
 21
351.7896644818063
 31
0.0
  0
LINE
  5
689D
330
18
100
AcDbEntity
  8
0
100
AcDbLine
 10
45.26408272010542
 20
335.2896644818063
 30
0.0
 11
50.26408272010542
 21
335.2896644818063
 31
0.0
  0
INSERT
  5
689E
330
18
100
AcDbEntity
  8
0
100
AcDbBlockReference
  2
A$C2F696F30
 10
46.26408195494173
 20
336.9396646751888
 30
0.0
  0
LINE
  5
68BA
330
18
100
AcDbEntity
  8
0
100
AcDbLine
 10
183.393932710937
 20
160.7534742965758
 30
0.0
 11
183.3939327109369
 21
40.7534742965758
 31
0.0
  0
LINE
  5
68BB
330
18
100
AcDbEntity
  8
0
100
AcDbLine
 10
186.393932710937
 20
160.7534742965758
 30
0.0
 11
186.393932710937
 21
43.7534742965758
 31
0.0
  0
LINE
  5
68EC
330
18
100
AcDbEntity
  8
0
100
AcDbLine
 10
183.393932710937
 20
118.3534742965758
 30
0.0
 11
176.4939327109371
 21
118.3534742965758
 31
0.0
  0
LINE
  5
68ED
330
18
100
AcDbEntity
  8
0
100
AcDbLine
 10
183.393932710937
 20
133.3534742965758
 30
0.0
 11
176.4939327109371
 21
133.3534742965758
 31
0.0
  0
LINE
  5
68EE
330
18
100
AcDbEntity
  8
0
100
AcDbLine
 10
176.4939327109371
 20
133.3534742965758
 30
0.0
 11
176.4939327109371
 21
118.3534742965758
 31
0.0
  0
LINE
  5
68FB
330
18
100
AcDbEntity
  8
0
100
AcDbLine
 10
186.393932710937
 20
160.7534742965758
 30
0.0
 11
183.393932710937
 21
160.7534742965758
 31
0.0
  0
LINE
  5
690D
330
18
100
AcDbEntity
  8
0
 48
0.2
100
AcDbLine
 10
186.393932710937
 20
350.7896644818064
 30
0.0
 11
162.5939327109368
 21
350.7896644818066
 31
0.0
  0
LINE
  5
690E
330
18
100
AcDbEntity
  8
0
 48
0.2
100
AcDbLine
 10
168.393932710937
 20
371.5396644818064
 30
0.0
 11
147.393932710937
 21
371.5396644818064
 31
0.0
  0
LINE
  5
690F
330
18
100
AcDbEntity
  8
0
 48
0.2
100
AcDbLine
 10
168.393932710937
 20
359.5396644818066
 30
0.0
 11
147.393932710937
 21
359.5396644818064
 31
0.0
  0
ARC
  5
6910
330
18
100
AcDbEntity
  8
0
 48
0.2
100
AcDbCircle
 10
150.4939327109374
 20
359.5396644818067
 30
0.0
 40
3.100000000000022
100
AcDbArc
 50
180.0
 51
319.1213648534977
  0
LINE
  5
6911
330
18
100
AcDbEntity
  8
0
 48
0.2
100
AcDbLine
 10
154.5939327109377
 20
359.5396644818066
 30
0.0
 11
152.8378351499619
 21
357.5108418290507
 31
0.0
  0
LINE
  5
6912
330
18
100
AcDbEntity
  8
0
 48
0.2
100
AcDbLine
 10
147.393932710937
 20
359.5396644818066
 30
0.0
 11
147.393932710937
 21
371.5396644818064
 31
0.0
  0
LINE
  5
6913
330
18
100
AcDbEntity
  8
0
 48
0.2
100
AcDbLine
 10
170.643932710937
 20
371.3746009723453
 30
0.0
 11
173.143932710937
 21
371.3746009723453
 31
0.0
  0
LINE
  5
6914
330
18
100
AcDbEntity
  8
0
 48
0.2
100
AcDbLine
 10
170.49959514364
 20
371.1246009723453
 30
0.0
 11
173.288270278235
 21
371.1246009723453
 31
0.0
  0
LINE
  5
6915
330
18
100
AcDbEntity
  8
0
 48
0.2
100
AcDbLine
 10
170.49959514364
 20
355.1246009723455
 30
0.0
 11
173.288270278235
 21
355.1246009723455
 31
0.0
  0
LINE
  5
6916
330
18
100
AcDbEntity
  8
0
 48
0.2
100
AcDbLine
 10
170.49959514364
 20
359.9547279912677
 30
0.0
 11
173.288270278235
 21
359.9547279912677
 31
0.0
  0
LINE
  5
6917
330
18
100
AcDbEntity
  8
0
 48
0.2
100
AcDbLine
 10
170.643932710937
 20
359.7047279912677
 30
0.0
 11
173.143932710937
 21
359.7047279912677
 31
0.0
  0
LINE
  5
6918
330
18
100
AcDbEntity
  8
0
 48
0.2
100
AcDbLine
 10
170.643932710937
 20
355.3746009723455
 30
0.0
 11
173.143932710937
 21
355.3746009723455
 31
0.0
  0
CIRCLE
  5
6919
330
18
100
AcDbEntity
  8
0
 48
0.2
100
AcDbCircle
 10
171.893932710937
 20
357.5396644818067
 30
0.0
 40
1.5
  0
LINE
  5
691A
330
18
100
AcDbEntity
  8
0
 48
0.2
100
AcDbLine
 10
162.5939327109368
 20
350.7896644818066
 30
0.0
 11
162.5939327109368
 21
356.4396644818065
 31
0.0
  0
ARC
  5
691B
330
18
100
AcDbEntity
  8
0
 48
0.2
100
AcDbCircle
 10
163.7639327109369
 20
353.3896644818066
 30
0.0
 40
2.669999999999886
100
AcDbArc
 50
115.9892335838268
 51
244.0107664161731
  0
LINE
  5
691C
330
18
100
AcDbEntity
  8
0
 48
0.2
100
AcDbLine
 10
158.5939327109378
 20
359.5396644818066
 30
0.0
 11
162.5939327109378
 21
356.4396644818065
 31
0.0
  0
LINE
  5
691D
330
18
100
AcDbEntity
  8
0
 48
0.2
100
AcDbLine
 10
169.1052575763429
 20
357.5396644818066
 30
0.0
 11
170.49959514364
 21
355.1246009723455
 31
0.0
  0
LINE
  5
691E
330
18
100
AcDbEntity
  8
0
 48
0.2
100
AcDbLine
 10
169.393932710937
 20
357.5396644818066
 30
0.0
 11
170.643932710937
 21
355.3746009723455
 31
0.0
  0
LINE
  5
691F
330
18
100
AcDbEntity
  8
0
 48
0.2
100
AcDbLine
 10
169.1052575763429
 20
357.5396644818066
 30
0.0
 11
170.49959514364
 21
359.9547279912677
 31
0.0
  0
LINE
  5
6920
330
18
100
AcDbEntity
  8
0
 48
0.2
100
AcDbLine
 10
169.393932710937
 20
357.5396644818066
 30
0.0
 11
170.643932710937
 21
359.7047279912677
 31
0.0
  0
LINE
  5
6921
330
18
100
AcDbEntity
  8
0
 48
0.2
100
AcDbLine
 10
173.288270278235
 20
355.1246009723455
 30
0.0
 11
174.682607845532
 21
357.5396644818066
 31
0.0
  0
LINE
  5
6922
330
18
100
AcDbEntity
  8
0
 48
0.2
100
AcDbLine
 10
173.143932710937
 20
355.3746009723455
 30
0.0
 11
174.393932710937
 21
357.5396644818066
 31
0.0
  0
LINE
  5
6923
330
18
100
AcDbEntity
  8
0
 48
0.2
100
AcDbLine
 10
174.682607845532
 20
357.5396644818066
 30
0.0
 11
173.288270278235
 21
359.9547279912677
 31
0.0
  0
LINE
  5
6924
330
18
100
AcDbEntity
  8
0
 48
0.2
100
AcDbLine
 10
174.393932710937
 20
357.5396644818066
 30
0.0
 11
173.143932710937
 21
359.7047279912677
 31
0.0
  0
LINE
  5
6925
330
18
100
AcDbEntity
  8
0
 48
0.2
100
AcDbLine
 10
163.393932710937
 20
359.5396644818066
 30
0.0
 11
163.393932710937
 21
371.5396644818064
 31
0.0
  0
LINE
  5
6926
330
18
100
AcDbEntity
  8
0
 48
0.2
100
AcDbLine
 10
168.393932710937
 20
359.5396644818066
 30
0.0
 11
168.393932710937
 21
371.5396644818064
 31
0.0
  0
CIRCLE
  5
6927
330
18
100
AcDbEntity
  8
0
100
AcDbCircle
 10
181.293932710937
 20
286.0396644818065
 30
0.0
 40
1.75
  0
LINE
  5
6928
330
18
100
AcDbEntity
  8
0
100
AcDbLine
 10
185.593932710937
 20
326.2896644818066
 30
0.0
 11
185.593932710937
 21
268.2896644818065
 31
0.0
  0
LINE
  5
6929
330
18
100
AcDbEntity
  8
0
100
AcDbLine
 10
176.993932710937
 20
326.2896644818066
 30
0.0
 11
176.993932710937
 21
268.2896644818065
 31
0.0
  0
LINE
  5
692A
330
18
100
AcDbEntity
  8
0
100
AcDbLine
 10
186.393932710937
 20
326.2896644818066
 30
0.0
 11
186.393932710937
 21
268.2896644818065
 31
0.0
  0
LINE
  5
692B
330
18
100
AcDbEntity
  8
0
100
AcDbLine
 10
176.493932710937
 20
326.2896644818066
 30
0.0
 11
176.493932710937
 21
268.2896644818065
 31
0.0
  0
CIRCLE
  5
692C
330
18
100
AcDbEntity
  8
0
100
AcDbCircle
 10
181.293932710937
 20
278.5396644818065
 30
0.0
 40
1.75
  0
CIRCLE
  5
692D
330
18
100
AcDbEntity
  8
0
100
AcDbCircle
 10
181.293932710937
 20
278.5396644818065
 30
0.0
 40
1.5
  0
LINE
  5
692E
330
18
100
AcDbEntity
  8
0
100
AcDbLine
 10
182.4340521940158
 20
277.5649196104148
 30
0.0
 11
181.0198386316427
 21
280.014409353198
 31
0.0
  0
LINE
  5
692F
330
18
100
AcDbEntity
  8
0
100
AcDbLine
 10
181.5680267902314
 20
277.064919610415
 30
0.0
 11
180.1538132278583
 21
279.5144093531981
 31
0.0
  0
LINE
  5
6930
330
18
100
AcDbEntity
  8
0
100
AcDbLine
 10
181.5680267902314
 20
269.564919610415
 30
0.0
 11
180.1538132278583
 21
272.0144093531981
 31
0.0
  0
LINE
  5
6931
330
18
100
AcDbEntity
  8
0
100
AcDbLine
 10
182.4340521940158
 20
270.0649196104149
 30
0.0
 11
181.0198386316427
 21
272.514409353198
 31
0.0
  0
CIRCLE
  5
6932
330
18
100
AcDbEntity
  8
0
100
AcDbCircle
 10
181.293932710937
 20
271.0396644818065
 30
0.0
 40
1.5
  0
CIRCLE
  5
6933
330
18
100
AcDbEntity
  8
0
100
AcDbCircle
 10
181.293932710937
 20
271.0396644818065
 30
0.0
 40
1.75
  0
LINE
  5
6934
330
18
100
AcDbEntity
  8
0
100
AcDbLine
 10
176.493932710937
 20
268.2896644818065
 30
0.0
 11
186.393932710937
 21
268.2896644818065
 31
0.0
  0
LINE
  5
6935
330
18
100
AcDbEntity
  8
0
100
AcDbLine
 10
249.1072462155816
 20
242.5822937023722
 30
0.0
 11
249.1072462155816
 21
261.5822937023722
 31
0.0
  0
LINE
  5
6936
330
18
100
AcDbEntity
  8
0
100
AcDbLine
 10
247.1072462155816
 20
273.5822937023722
 30
0.0
 11
247.1072462155816
 21
235.5822937023722
 31
0.0
  0
ARC
  5
6937
330
18
100
AcDbEntity
  8
0
100
AcDbCircle
 10
248.1072462155816
 20
235.5822937023722
 30
0.0
 40
1.0
100
AcDbArc
 50
180.0
 51
270.0
  0
LINE
  5
6938
330
18
100
AcDbEntity
  8
0
100
AcDbLine
 10
244.6072462155816
 20
287.5822937023722
 30
0.0
 11
244.6072462155816
 21
276.5822937023722
 31
0.0
  0
ARC
  5
6939
330
18
100
AcDbEntity
  8
0
100
AcDbCircle
 10
245.1072462155816
 20
276.5822937023722
 30
0.0
 40
0.5
100
AcDbArc
 50
180.0
 51
270.0
  0
ARC
  5
693A
330
18
100
AcDbEntity
  8
0
100
AcDbCircle
 10
245.1072462155816
 20
287.5822937023722
 30
0.0
 40
0.5
100
AcDbArc
 50
90.0
 51
180.0
  0
LINE
  5
693B
102
{ACAD_REACTORS
330
6748
102
}
330
18
100
AcDbEntity
  8
0
100
AcDbLine
 10
247.1532927166581
 20
276.9358171203739
 30
0.0
 11
247.5537927166596
 21
280.1398171203736
 31
0.0
  0
ARC
  5
693C
102
{ACAD_REACTORS
330
6748
102
}
330
18
100
AcDbEntity
  8
0
100
AcDbCircle
 10
249.5572241120071
 20
278.3394299110714
 30
0.0
 40
1.00311322310025
100
AcDbArc
 50
113.5897772726145
 51
269.9468005913759
  0
LINE
  5
693D
330
18
100
AcDbEntity
  8
0
100
AcDbLine
 10
249.1072462155816
 20
262.5822937023722
 30
0.0
 11
249.1072462155816
 21
268.0822937023722
 31
0.0
  0
ARC
  5
693E
330
18
100
AcDbEntity
  8
0
100
AcDbCircle
 10
248.1072462155816
 20
273.5822937023722
 30
0.0
 40
1.0
100
AcDbArc
 50
90.0
 51
180.0
  0
CIRCLE
  5
693F
330
18
100
AcDbEntity
  8
0
100
AcDbCircle
 10
181.293932710937
 20
316.0396644818065
 30
0.0
 40
1.75
  0
CIRCLE
  5
6940
330
18
100
AcDbEntity
  8
0
100
AcDbCircle
 10
181.293932710937
 20
316.0396644818065
 30
0.0
 40
1.5
  0
LINE
  5
6941
330
18
100
AcDbEntity
  8
0
100
AcDbLine
 10
182.4340521940158
 20
315.064919610415
 30
0.0
 11
181.0198386316427
 21
317.514409353198
 31
0.0
  0
LINE
  5
6942
330
18
100
AcDbEntity
  8
0
100
AcDbLine
 10
181.5680267902314
 20
314.564919610415
 30
0.0
 11
180.1538132278583
 21
317.014409353198
 31
0.0
  0
LINE
  5
6943
330
18
100
AcDbEntity
  8
0
100
AcDbLine
 10
181.5680267902314
 20
322.064919610415
 30
0.0
 11
180.1538132278583
 21
324.514409353198
 31
0.0
  0
LINE
  5
6944
330
18
100
AcDbEntity
  8
0
100
AcDbLine
 10
182.4340521940158
 20
322.564919610415
 30
0.0
 11
181.0198386316427
 21
325.014409353198
 31
0.0
  0
CIRCLE
  5
6945
330
18
100
AcDbEntity
  8
0
100
AcDbCircle
 10
181.293932710937
 20
323.5396644818065
 30
0.0
 40
1.5
  0
CIRCLE
  5
6946
330
18
100
AcDbEntity
  8
0
100
AcDbCircle
 10
181.293932710937
 20
323.5396644818065
 30
0.0
 40
1.75
  0
LINE
  5
6947
330
18
100
AcDbEntity
  8
0
100
AcDbLine
 10
176.493932710937
 20
326.2896644818066
 30
0.0
 11
186.393932710937
 21
326.2896644818066
 31
0.0
  0
LINE
  5
6948
330
18
100
AcDbEntity
  8
0
100
AcDbLine
 10
181.5680267902314
 20
307.064919610415
 30
0.0
 11
180.1538132278583
 21
309.5144093531981
 31
0.0
  0
LINE
  5
6949
330
18
100
AcDbEntity
  8
0
100
AcDbLine
 10
182.4340521940158
 20
307.5649196104149
 30
0.0
 11
181.0198386316427
 21
310.014409353198
 31
0.0
  0
CIRCLE
  5
694A
330
18
100
AcDbEntity
  8
0
100
AcDbCircle
 10
181.293932710937
 20
308.5396644818065
 30
0.0
 40
1.5
  0
CIRCLE
  5
694B
330
18
100
AcDbEntity
  8
0
100
AcDbCircle
 10
181.293932710937
 20
308.5396644818065
 30
0.0
 40
1.75
  0
LINE
  5
694C
330
18
100
AcDbEntity
  8
0
100
AcDbLine
 10
182.4340521940158
 20
300.0649196104149
 30
0.0
 11
181.0198386316427
 21
302.514409353198
 31
0.0
  0
CIRCLE
  5
694D
330
18
100
AcDbEntity
  8
0
100
AcDbCircle
 10
181.293932710937
 20
301.0396644818065
 30
0.0
 40
1.5
  0
CIRCLE
  5
694E
330
18
100
AcDbEntity
  8
0
100
AcDbCircle
 10
181.293932710937
 20
301.0396644818065
 30
0.0
 40
1.75
  0
LINE
  5
694F
330
18
100
AcDbEntity
  8
0
100
AcDbLine
 10
181.5680267902314
 20
299.564919610415
 30
0.0
 11
180.1538132278583
 21
302.0144093531981
 31
0.0
  0
LINE
  5
6950
330
18
100
AcDbEntity
  8
0
100
AcDbLine
 10
181.5680267902314
 20
292.064919610415
 30
0.0
 11
180.1538132278583
 21
294.5144093531981
 31
0.0
  0
LINE
  5
6951
330
18
100
AcDbEntity
  8
0
100
AcDbLine
 10
182.4340521940158
 20
292.5649196104149
 30
0.0
 11
181.0198386316427
 21
295.014409353198
 31
0.0
  0
CIRCLE
  5
6952
330
18
100
AcDbEntity
  8
0
100
AcDbCircle
 10
181.293932710937
 20
293.5396644818065
 30
0.0
 40
1.5
  0
CIRCLE
  5
6953
330
18
100
AcDbEntity
  8
0
100
AcDbCircle
 10
181.293932710937
 20
293.5396644818065
 30
0.0
 40
1.75
  0
CIRCLE
  5
6954
330
18
100
AcDbEntity
  8
0
100
AcDbCircle
 10
181.293932710937
 20
286.0396644818065
 30
0.0
 40
1.5
  0
LINE
  5
6955
330
18
100
AcDbEntity
  8
0
100
AcDbLine
 10
182.4340521940158
 20
285.0649196104149
 30
0.0
 11
181.0198386316427
 21
287.514409353198
 31
0.0
  0
LINE
  5
6956
330
18
100
AcDbEntity
  8
0
100
AcDbLine
 10
181.5680267902314
 20
284.564919610415
 30
0.0
 11
180.1538132278583
 21
287.0144093531981
 31
0.0
  0
LINE
  5
6963
330
18
100
AcDbEntity
  8
0
100
AcDbLine
 10
56.76408272010582
 20
455.2896644818065
 30
0.0
 11
-27.23591727989412
 21
455.2896644818066
 31
0.0
  0
LINE
  5
6964
330
18
100
AcDbEntity
  8
0
100
AcDbLine
 10
-27.23591727989412
 20
450.2896644818065
 30
0.0
 11
-27.23591727989412
 21
455.2896644818066
 31
0.0
  0
LINE
  5
6965
330
18
100
AcDbEntity
  8
0
100
AcDbLine
 10
-33.23591727989412
 20
450.2896644818065
 30
0.0
 11
-33.23591727989412
 21
455.2896644818066
 31
0.0
  0
LINE
  5
6966
330
18
100
AcDbEntity
  8
0
100
AcDbLine
 10
-40.23591727989412
 20
440.2896644818065
 30
0.0
 11
-40.23591727989412
 21
455.2896644818066
 31
0.0
  0
TEXT
  5
6967
330
18
100
AcDbEntity
  8
0
100
AcDbText
 10
-35.71220581808375
 20
406.3273351352068
 30
0.0
 40
2.0
  1
AC   SERVO  DRIVER
  7
MSｺﾞｼｯｸ
100
AcDbText
  0
TEXT
  5
6968
330
18
100
AcDbEntity
  8
0
100
AcDbText
 10
-35.79046239014479
 20
398.7624004512126
 30
0.0
 40
6.5
  1
ACTUS POWER
 41
0.9300774284514783
  7
MSｺﾞｼｯｸ
 72
     5
 11
7.418007788474142
 21
398.7624004512126
 31
0.0
100
AcDbText
  0
LINE
  5
6969
330
18
100
AcDbEntity
  8
0
100
AcDbLine
 10
-40.23591727989412
 20
411.2896644818067
 30
0.0
 11
11.76408272010587
 21
411.2896644818067
 31
0.0
  0
ARC
  5
696A
330
18
100
AcDbEntity
  8
0
100
AcDbCircle
 10
-40.23591727989418
 20
409.2896644818067
 30
0.0
 40
2.0
100
AcDbArc
 50
90.0
 51
180.0
  0
ARC
  5
696C
330
18
100
AcDbEntity
  8
0
100
AcDbCircle
 10
-30.23591727989412
 20
450.2896644818065
 30
0.0
 40
3.0
100
AcDbArc
 50
180.0
 51
0.0
  0
CIRCLE
  5
696D
330
18
100
AcDbEntity
  8
0
100
AcDbCircle
 10
-28.23591727989412
 20
433.2896644818065
 30
0.0
 40
3.0
  0
LINE
  5
696E
330
18
100
AcDbEntity
  8
0
100
AcDbLine
 10
-27.73591727989412
 20
435.2261561549098
 30
0.0
 11
-27.73591727989412
 21
433.7896644818065
 31
0.0
  0
LINE
  5
696F
330
18
100
AcDbEntity
  8
0
100
AcDbLine
 10
-28.73591727989412
 20
435.2261561549098
 30
0.0
 11
-28.73591727989412
 21
433.7896644818065
 31
0.0
  0
CIRCLE
  5
6970
330
18
100
AcDbEntity
  8
0
100
AcDbCircle
 10
-28.23591727989412
 20
433.2896644818065
 30
0.0
 40
2.5
  0
ARC
  5
6971
330
18
100
AcDbEntity
  8
0
100
AcDbCircle
 10
-28.23591727989412
 20
433.2896644818065
 30
0.0
 40
2.0
100
AcDbArc
 50
75.52248781407005
 51
104.4775121859299
  0
LINE
  5
6972
330
18
100
AcDbEntity
  8
0
100
AcDbLine
 10
-28.73591727989412
 20
433.7896644818065
 30
0.0
 11
-30.1724089529979
 21
433.7896644818065
 31
0.0
  0
LINE
  5
6973
330
18
100
AcDbEntity
  8
0
100
AcDbLine
 10
-26.29942560679035
 20
433.7896644818065
 30
0.0
 11
-27.73591727989412
 21
433.7896644818065
 31
0.0
  0
LINE
  5
6974
330
18
100
AcDbEntity
  8
0
100
AcDbLine
 10
-28.73591727989412
 20
432.7896644818065
 30
0.0
 11
-30.1724089529979
 21
432.7896644818065
 31
0.0
  0
LINE
  5
6975
330
18
100
AcDbEntity
  8
0
100
AcDbLine
 10
-26.29942560679035
 20
432.7896644818065
 30
0.0
 11
-27.73591727989412
 21
432.7896644818065
 31
0.0
  0
LINE
  5
6976
330
18
100
AcDbEntity
  8
0
100
AcDbLine
 10
-27.73591727989412
 20
432.7896644818065
 30
0.0
 11
-27.73591727989412
 21
431.3531728087027
 31
0.0
  0
LINE
  5
6977
330
18
100
AcDbEntity
  8
0
100
AcDbLine
 10
-28.73591727989412
 20
432.7896644818065
 30
0.0
 11
-28.73591727989412
 21
431.3531728087027
 31
0.0
  0
ARC
  5
6978
330
18
100
AcDbEntity
  8
0
100
AcDbCircle
 10
-28.23591727989412
 20
433.2896644818065
 30
0.0
 40
2.0
100
AcDbArc
 50
255.52248781407
 51
284.4775121859299
  0
ARC
  5
6979
330
18
100
AcDbEntity
  8
0
100
AcDbCircle
 10
-28.23591727989412
 20
433.2896644818065
 30
0.0
 40
2.0
100
AcDbArc
 50
165.5224878140701
 51
194.4775121859298
  0
ARC
  5
697A
330
18
100
AcDbEntity
  8
0
100
AcDbCircle
 10
-28.23591727989412
 20
433.2896644818065
 30
0.0
 40
2.0
100
AcDbArc
 50
345.5224878140701
 51
14.47751218592986
  0
ARC
  5
697B
330
18
100
AcDbEntity
  8
0
100
AcDbCircle
 10
11.76408272010587
 20
409.2896644818067
 30
0.0
 40
2.0
100
AcDbArc
 50
0.0
 51
90.0
  0
MTEXT
  5
6985
330
18
100
AcDbEntity
  8
0
100
AcDbMText
 10
12.99827536709187
 20
412.5271775844614
 30
0.0
 40
2.5
 41
0.0
 71
     1
 72
     5
  1
２４Ｖ
  7
MSｺﾞｼｯｸ
 73
     1
 44
1.0
  0
MTEXT
  5
6986
330
18
100
AcDbEntity
  8
0
100
AcDbMText
 10
15.70666658537277
 20
400.7644115375783
 30
0.0
 40
2.5
 41
0.0
 71
     1
 72
     5
  1
０Ｖ
  7
MSｺﾞｼｯｸ
 73
     1
 44
1.0
  0
LINE
  5
6987
330
18
100
AcDbEntity
  8
0
100
AcDbLine
 10
-33.23591727989412
 20
455.2896644818066
 30
0.0
 11
-40.23591727989412
 21
455.2896644818066
 31
0.0
  0
LINE
  5
698A
330
18
100
AcDbEntity
  8
0
100
AcDbLine
 10
62.76408272010582
 20
450.2896644818065
 30
0.0
 11
62.76408272010582
 21
455.2896644818065
 31
0.0
  0
LINE
  5
698B
330
18
100
AcDbEntity
  8
0
100
AcDbLine
 10
56.76408272010582
 20
450.2896644818065
 30
0.0
 11
56.76408272010582
 21
455.2896644818065
 31
0.0
  0
ARC
  5
698C
330
18
100
AcDbEntity
  8
0
100
AcDbCircle
 10
59.76408272010582
 20
450.2896644818065
 30
0.0
 40
3.0
100
AcDbArc
 50
180.0
 51
0.0
  0
LINE
  5
698D
330
18
100
AcDbEntity
  8
0
100
AcDbLine
 10
50.26408272010588
 20
397.7896644818065
 30
0.0
 11
65.26408272010576
 21
397.7896644818065
 31
0.0
  0
INSERT
  5
698E
330
18
100
AcDbEntity
  8
0
100
AcDbBlockReference
  2
A$C444F17A9
 10
55.03908211240855
 20
383.6896639957799
 30
0.0
  0
MTEXT
  5
698F
330
18
100
AcDbEntity
  8
0
100
AcDbMText
 10
49.14988214647121
 20
402.299354624604
 30
0.0
 40
2.0
 41
0.0
 71
     1
 72
     5
  1
ＳＴＡＴＵＳ
  7
MSｺﾞｼｯｸ
 73
     1
 44
1.0
  0
MTEXT
  5
699B
330
18
100
AcDbEntity
  8
0
100
AcDbMText
 10
23.82769375804662
 20
419.8751592862207
 30
0.0
 40
3.0
 41
0.0
 71
     1
 72
     5
  1
ＴＢ１
  7
MSｺﾞｼｯｸ
 73
     1
 44
1.0
  0
CIRCLE
  5
69A0
330
18
100
AcDbEntity
  8
0
100
AcDbCircle
 10
41.76408272010587
 20
433.2896644818065
 30
0.0
 40
2.5
  0
CIRCLE
  5
69A1
330
18
100
AcDbEntity
  8
0
100
AcDbCircle
 10
41.76408272010587
 20
433.2896644818065
 30
0.0
 40
3.0
  0
ARC
  5
69A2
330
18
100
AcDbEntity
  8
0
100
AcDbCircle
 10
41.76408272010587
 20
433.2896644818065
 30
0.0
 40
2.0
100
AcDbArc
 50
345.5224878140701
 51
14.47751218592986
  0
LINE
  5
69A3
330
18
100
AcDbEntity
  8
0
100
AcDbLine
 10
42.26408272010587
 20
435.2261561549098
 30
0.0
 11
42.26408272010587
 21
433.7896644818065
 31
0.0
  0
LINE
  5
69A4
330
18
100
AcDbEntity
  8
0
100
AcDbLine
 10
41.26408272010587
 20
435.2261561549098
 30
0.0
 11
41.26408272010587
 21
433.7896644818065
 31
0.0
  0
ARC
  5
69A5
330
18
100
AcDbEntity
  8
0
100
AcDbCircle
 10
41.76408272010587
 20
433.2896644818065
 30
0.0
 40
2.0
100
AcDbArc
 50
75.52248781407005
 51
104.4775121859299
  0
LINE
  5
69A6
330
18
100
AcDbEntity
  8
0
100
AcDbLine
 10
41.26408272010587
 20
433.7896644818065
 30
0.0
 11
39.8275910470021
 21
433.7896644818065
 31
0.0
  0
LINE
  5
69A7
330
18
100
AcDbEntity
  8
0
100
AcDbLine
 10
41.26408272010587
 20
432.7896644818065
 30
0.0
 11
39.8275910470021
 21
432.7896644818065
 31
0.0
  0
LINE
  5
69A8
330
18
100
AcDbEntity
  8
0
100
AcDbLine
 10
42.26408272010587
 20
432.7896644818065
 30
0.0
 11
42.26408272010587
 21
431.3531728087027
 31
0.0
  0
LINE
  5
69A9
330
18
100
AcDbEntity
  8
0
100
AcDbLine
 10
41.26408272010587
 20
432.7896644818065
 30
0.0
 11
41.26408272010587
 21
431.3531728087027
 31
0.0
  0
ARC
  5
69AA
330
18
100
AcDbEntity
  8
0
100
AcDbCircle
 10
41.76408272010587
 20
433.2896644818065
 30
0.0
 40
2.0
100
AcDbArc
 50
255.52248781407
 51
284.4775121859299
  0
ARC
  5
69AB
330
18
100
AcDbEntity
  8
0
100
AcDbCircle
 10
41.76408272010587
 20
433.2896644818065
 30
0.0
 40
2.0
100
AcDbArc
 50
165.5224878140701
 51
194.4775121859298
  0
LINE
  5
69AC
330
18
100
AcDbEntity
  8
0
100
AcDbLine
 10
21.76408272010578
 20
423.7261561549098
 30
0.0
 11
21.76408272010578
 21
422.2896644818065
 31
0.0
  0
LINE
  5
69AD
330
18
100
AcDbEntity
  8
0
100
AcDbLine
 10
20.76408272010578
 20
423.7261561549098
 30
0.0
 11
20.76408272010578
 21
422.2896644818065
 31
0.0
  0
CIRCLE
  5
69AE
330
18
100
AcDbEntity
  8
0
100
AcDbCircle
 10
21.26408272010578
 20
421.7896644818065
 30
0.0
 40
2.5
  0
ARC
  5
69AF
330
18
100
AcDbEntity
  8
0
100
AcDbCircle
 10
21.26408272010578
 20
421.7896644818065
 30
0.0
 40
2.0
100
AcDbArc
 50
75.52248781407005
 51
104.4775121859299
  0
LINE
  5
69B0
330
18
100
AcDbEntity
  8
0
100
AcDbLine
 10
20.76408272010578
 20
422.2896644818065
 30
0.0
 11
19.32759104700201
 21
422.2896644818065
 31
0.0
  0
LINE
  5
69B1
330
18
100
AcDbEntity
  8
0
100
AcDbLine
 10
23.20057439320955
 20
422.2896644818065
 30
0.0
 11
21.76408272010578
 21
422.2896644818065
 31
0.0
  0
LINE
  5
69B2
330
18
100
AcDbEntity
  8
0
100
AcDbLine
 10
20.76408272010578
 20
421.2896644818065
 30
0.0
 11
19.32759104700201
 21
421.2896644818065
 31
0.0
  0
LINE
  5
69B3
330
18
100
AcDbEntity
  8
0
100
AcDbLine
 10
23.20057439320955
 20
421.2896644818065
 30
0.0
 11
21.76408272010578
 21
421.2896644818065
 31
0.0
  0
LINE
  5
69B4
330
18
100
AcDbEntity
  8
0
100
AcDbLine
 10
21.76408272010578
 20
421.2896644818065
 30
0.0
 11
21.76408272010578
 21
419.8531728087028
 31
0.0
  0
LINE
  5
69B5
330
18
100
AcDbEntity
  8
0
100
AcDbLine
 10
20.76408272010578
 20
421.2896644818065
 30
0.0
 11
20.76408272010578
 21
419.8531728087028
 31
0.0
  0
ARC
  5
69B6
330
18
100
AcDbEntity
  8
0
100
AcDbCircle
 10
21.26408272010578
 20
421.7896644818065
 30
0.0
 40
2.0
100
AcDbArc
 50
255.52248781407
 51
284.4775121859299
  0
ARC
  5
69B7
330
18
100
AcDbEntity
  8
0
100
AcDbCircle
 10
21.26408272010578
 20
421.7896644818065
 30
0.0
 40
2.0
100
AcDbArc
 50
165.5224878140701
 51
194.4775121859298
  0
ARC
  5
69B8
330
18
100
AcDbEntity
  8
0
100
AcDbCircle
 10
21.26408272010578
 20
421.7896644818065
 30
0.0
 40
2.0
100
AcDbArc
 50
345.5224878140701
 51
14.47751218592986
  0
LINE
  5
69B9
330
18
100
AcDbEntity
  8
0
100
AcDbLine
 10
43.70057439320965
 20
433.7896644818065
 30
0.0
 11
42.26408272010587
 21
433.7896644818065
 31
0.0
  0
LINE
  5
69BA
330
18
100
AcDbEntity
  8
0
100
AcDbLine
 10
43.70057439320965
 20
432.7896644818065
 30
0.0
 11
42.26408272010587
 21
432.7896644818065
 31
0.0
  0
CIRCLE
  5
69BB
330
18
100
AcDbEntity
  8
0
100
AcDbCircle
 10
21.26408272010578
 20
421.7896644818065
 30
0.0
 40
3.0
  0
LINE
  5
69C3
330
18
100
AcDbEntity
  8
0
100
AcDbLine
 10
69.76408272010582
 20
455.2896644818065
 30
0.0
 11
62.76408272010582
 21
455.2896644818065
 31
0.0
  0
LINE
  5
69C4
330
18
100
AcDbEntity
  8
0
 48
0.2
100
AcDbLine
 10
186.393932710937
 20
380.2896644818064
 30
0.0
 11
162.5939327109368
 21
380.2896644818064
 31
0.0
  0
ARC
  5
69C5
330
18
100
AcDbEntity
  8
0
 48
0.2
100
AcDbCircle
 10
163.7639327109369
 20
377.6896644818066
 30
0.0
 40
2.669999999999886
100
AcDbArc
 50
115.9892335838268
 51
244.0107664161731
  0
LINE
  5
69C6
330
18
100
AcDbEntity
  8
0
 48
0.2
100
AcDbLine
 10
162.5939327109368
 20
374.6396644818065
 30
0.0
 11
162.5939327109368
 21
380.2896644818064
 31
0.0
  0
LINE
  5
69C7
330
18
100
AcDbEntity
  8
0
 48
0.2
100
AcDbLine
 10
170.643932710937
 20
375.7047279912675
 30
0.0
 11
173.143932710937
 21
375.7047279912675
 31
0.0
  0
LINE
  5
69C8
330
18
100
AcDbEntity
  8
0
 48
0.2
100
AcDbLine
 10
170.49959514364
 20
375.9547279912675
 30
0.0
 11
173.288270278235
 21
375.9547279912675
 31
0.0
  0
LINE
  5
69C9
330
18
100
AcDbEntity
  8
0
 48
0.2
100
AcDbLine
 10
169.393932710937
 20
373.5396644818064
 30
0.0
 11
170.643932710937
 21
375.7047279912675
 31
0.0
  0
LINE
  5
69CA
330
18
100
AcDbEntity
  8
0
 48
0.2
100
AcDbLine
 10
169.1052575763429
 20
373.5396644818064
 30
0.0
 11
170.49959514364
 21
375.9547279912675
 31
0.0
  0
LINE
  5
69CB
330
18
100
AcDbEntity
  8
0
 48
0.2
100
AcDbLine
 10
173.143932710937
 20
375.7047279912675
 30
0.0
 11
174.393932710937
 21
373.5396644818064
 31
0.0
  0
LINE
  5
69CC
330
18
100
AcDbEntity
  8
0
 48
0.2
100
AcDbLine
 10
173.288270278235
 20
375.9547279912675
 30
0.0
 11
174.682607845532
 21
373.5396644818064
 31
0.0
  0
LINE
  5
69D9
330
18
100
AcDbEntity
  8
0
100
AcDbLine
 10
371.393932710937
 20
455.2896644818065
 30
0.0
 11
371.393932710937
 21
215.2896644818065
 31
0.0
  0
LINE
  5
69DA
330
18
100
AcDbEntity
  8
0
100
AcDbLine
 10
368.393932710937
 20
455.2896644818065
 30
0.0
 11
368.393932710937
 21
215.2896644818065
 31
0.0
  0
LINE
  5
69E9
330
18
100
AcDbEntity
  8
0
100
AcDbLine
 10
363.2939327109366
 20
43.85347429657662
 30
0.0
 11
303.2939327109366
 21
43.85347429657662
 31
0.0
  0
LINE
  5
6A7E
330
18
100
AcDbEntity
  8
0
100
AcDbLine
 10
365.3939327109367
 20
160.7534742965758
 30
0.0
 11
365.3939327109367
 21
43.7534742965758
 31
0.0
  0
LINE
  5
6A7F
330
18
100
AcDbEntity
  8
0
100
AcDbLine
 10
368.3939327109367
 20
160.7534742965758
 30
0.0
 11
368.3939327109367
 21
40.7534742965758
 31
0.0
  0
LINE
  5
6AAC
330
18
100
AcDbEntity
  8
0
100
AcDbLine
 10
363.2939327109366
 20
103.8534742965762
 30
0.0
 11
363.2939327109366
 21
43.85347429657662
 31
0.0
  0
LINE
  5
6AAD
330
18
100
AcDbEntity
  8
0
100
AcDbLine
 10
368.3939327109367
 20
50.7534742965758
 30
0.0
 11
365.3939327109367
 21
50.7534742965758
 31
0.0
  0
LINE
  5
6AC7
330
18
100
AcDbEntity
  8
0
100
AcDbLine
 10
368.3939327109367
 20
160.7534742965758
 30
0.0
 11
365.3939327109367
 21
160.7534742965758
 31
0.0
  0
LINE
  5
6AC9
330
18
100
AcDbEntity
  8
0
100
AcDbLine
 10
275.1072462155816
 20
261.5822937023722
 30
0.0
 11
275.1072462155816
 21
242.5822937023722
 31
0.0
  0
LINE
  5
6ACA
330
18
100
AcDbEntity
  8
0
100
AcDbLine
 10
277.1072462155816
 20
273.5822937023722
 30
0.0
 11
277.1072462155816
 21
235.5822937023722
 31
0.0
  0
TEXT
  5
6ACB
330
18
100
AcDbEntity
  8
0
100
AcDbText
 10
255.1499695651937
 20
235.9743006708854
 30
0.0
 40
2.7
  1
MADE IN JAPAN
 41
0.8
  7
MSｺﾞｼｯｸ
100
AcDbText
  0
TEXT
  5
6ACC
330
18
100
AcDbEntity
  8
0
100
AcDbText
 10
258.0922434617487
 20
244.6763352395851
 30
0.0
 40
5.0
  1
＊＊＊
 41
0.45
  7
MSｺﾞｼｯｸ
100
AcDbText
  0
ARC
  5
6ACD
330
18
100
AcDbEntity
  8
0
100
AcDbCircle
 10
276.1072462155816
 20
235.5822937023722
 30
0.0
 40
1.0
100
AcDbArc
 50
270.0
 51
0.0
  0
LINE
  5
6ACE
330
18
100
AcDbEntity
  8
0
100
AcDbLine
 10
275.1072462155816
 20
262.5822937023722
 30
0.0
 11
265.6072462155816
 21
262.5822937023722
 31
0.0
  0
LINE
  5
6ACF
330
18
100
AcDbEntity
  8
0
100
AcDbLine
 10
265.6072462155816
 20
268.0822937023722
 30
0.0
 11
275.1072462155816
 21
268.0822937023722
 31
0.0
  0
TEXT
  5
6AD0
330
18
100
AcDbEntity
  8
0
100
AcDbText
 10
252.7084635307864
 20
268.924014249073
 30
0.0
 40
3.299999999999999
  1
NCR-*A**
  7
MSｺﾞｼｯｸ
100
AcDbText
  0
TEXT
  5
6AD1
330
18
100
AcDbEntity
  8
0
100
AcDbText
 10
252.8968050511857
 20
278.6803136679427
 30
0.0
 40
1.44
  1
NIKKI
 41
1.25
  7
MSｺﾞｼｯｸ
100
AcDbText
  0
TEXT
  5
6AD2
330
18
100
AcDbEntity
  8
0
100
AcDbText
 10
252.775391941047
 20
276.983551258957
 30
0.0
 40
1.44
  1
DENSO
 41
1.3
  7
MSｺﾞｼｯｸ
100
AcDbText
  0
LINE
  5
6AD3
102
{ACAD_REACTORS
330
6748
102
}
330
18
100
AcDbEntity
  8
0
100
AcDbLine
 10
251.5587927166588
 20
276.9358171203739
 30
0.0
 11
251.7990927166583
 21
278.9383171203735
 31
0.0
  0
LINE
  5
6AD4
330
18
100
AcDbEntity
  8
0
100
AcDbLine
 10
263.8572462155816
 20
265.3322937023722
 30
0.0
 11
265.3572462155816
 21
265.3322937023722
 31
0.0
  0
TEXT
  5
6AD5
330
18
100
AcDbEntity
  8
0
100
AcDbText
 10
252.1788212946503
 20
263.5523188661863
 30
0.0
 40
3.299999999999999
  1
＊＊＊
 41
0.8
  7
MSｺﾞｼｯｸ
100
AcDbText
  0
LINE
  5
6AD6
330
18
100
AcDbEntity
  8
0
100
AcDbLine
 10
265.6072462155816
 20
262.5822937023722
 30
0.0
 11
265.6072462155816
 21
268.0822937023722
 31
0.0
  0
LINE
  5
6AD7
330
18
100
AcDbEntity
  8
0
100
AcDbLine
 10
263.6072462155816
 20
268.0822937023722
 30
0.0
 11
263.6072462155816
 21
262.5822937023722
 31
0.0
  0
LINE
  5
6AD8
330
18
100
AcDbEntity
  8
0
100
AcDbLine
 10
279.6072462155816
 20
276.5822937023722
 30
0.0
 11
279.6072462155816
 21
287.5822937023722
 31
0.0
  0
ARC
  5
6AD9
330
18
100
AcDbEntity
  8
0
100
AcDbCircle
 10
279.1072462155816
 20
276.5822937023722
 30
0.0
 40
0.5
100
AcDbArc
 50
270.0
 51
0.0
  0
ARC
  5
6ADA
330
18
100
AcDbEntity
  8
0
100
AcDbCircle
 10
279.1072462155816
 20
287.5822937023722
 30
0.0
 40
0.5
100
AcDbArc
 50
0.0
 51
90.0
  0
ARC
  5
6ADB
330
18
100
AcDbEntity
  8
0
100
AcDbCircle
 10
276.1072462155816
 20
273.5822937023722
 30
0.0
 40
1.0
100
AcDbArc
 50
0.0
 51
90.0
  0
LINE
  5
6ADC
330
18
100
AcDbEntity
  8
0
100
AcDbLine
 10
275.1072462155816
 20
268.0822937023722
 30
0.0
 11
275.1072462155816
 21
262.5822937023722
 31
0.0
  0
LINE
  5
6ADD
330
18
100
AcDbEntity
  8
0
100
AcDbLine
 10
371.393932710937
 20
215.2896644818065
 30
0.0
 11
368.393932710937
 21
215.2896644818065
 31
0.0
  0
LINE
  5
6ADE
330
18
100
AcDbEntity
  8
0
100
AcDbLine
 10
371.393932710937
 20
455.2896644818065
 30
0.0
 11
368.393932710937
 21
455.2896644818065
 31
0.0
  0
TEXT
  5
6ADF
330
18
100
AcDbEntity
  8
0
100
AcDbText
 10
264.228906610132
 20
278.586888978809
 30
137.5
 40
1.5
  1
SN-16140
  7
MSｺﾞｼｯｸ
 11
264.228906610132
 21
278.3127773036822
 31
137.5
100
AcDbText
 73
     1
  0
TEXT
  5
6AE0
330
18
100
AcDbEntity
  8
0
100
AcDbText
 10
264.228906610132
 20
276.7171029284237
 30
137.5
 40
1.5
  1
MADE IN JAPAN
  7
MSｺﾞｼｯｸ
 11
264.228906610132
 21
276.4429912532968
 31
137.5
100
AcDbText
 73
     1
  0
LINE
  5
6C02
330
18
100
AcDbEntity
  8
0
100
AcDbLine
 10
75.26408272010582
 20
354.2896644818059
 30
0.0
 11
75.26408272010582
 21
311.2278524580979
 31
0.0
  0
LINE
  5
6C03
330
18
100
AcDbEntity
  8
0
100
AcDbLine
 10
76.86408272010573
 20
263.2896644818061
 30
0.0
 11
76.86408272010573
 21
291.2278524580979
 31
0.0
  0
LINE
  5
6C04
330
18
100
AcDbEntity
  8
0
100
AcDbLine
 10
93.7640827201057
 20
354.2896644818056
 30
0.0
 11
93.76408272010559
 21
263.2896644818063
 31
0.0
  0
LINE
  5
6C05
330
18
100
AcDbEntity
  8
0
100
AcDbLine
 10
94.76408272010582
 20
440.2896644818065
 30
0.0
 11
94.76408272010571
 21
230.289664481806
 31
0.0
  0
LINE
  5
6C06
330
18
100
AcDbEntity
  8
0
100
AcDbLine
 10
70.26408272010582
 20
263.289664481806
 30
0.0
 11
70.26408272010576
 21
354.2896644818059
 31
0.0
  0
LINE
  5
6C07
330
18
100
AcDbEntity
  8
0
100
AcDbLine
 10
94.76408272010571
 20
230.289664481806
 30
0.0
 11
69.7640827201057
 21
230.2896644818065
 31
0.0
  0
LINE
  5
6C09
330
18
100
AcDbEntity
  8
0
100
AcDbLine
 10
88.86408272010573
 20
265.4234494098338
 30
0.0
 11
76.86408272010573
 21
265.4234494098338
 31
0.0
  0
LINE
  5
6C0A
330
18
100
AcDbEntity
  8
0
100
AcDbLine
 10
88.86408272010573
 20
271.4437711710529
 30
0.0
 11
76.86408272010573
 21
271.443771171053
 31
0.0
  0
LINE
  5
6C0B
330
18
100
AcDbEntity
  8
0
100
AcDbLine
 10
88.86408272010573
 20
270.5800963192325
 30
0.0
 11
76.86408272010573
 21
270.5800963192325
 31
0.0
  0
CIRCLE
  5
6C0C
330
18
100
AcDbEntity
  8
0
100
AcDbCircle
 10
86.36408272010573
 20
268.0017728645332
 30
0.0
 40
1.75
  0
LINE
  5
6C0D
330
18
100
AcDbEntity
  8
0
100
AcDbLine
 10
93.76408272010559
 20
263.2896644818063
 30
0.0
 11
69.7640827201057
 21
263.289664481806
 31
0.0
  0
CIRCLE
  5
6C0E
330
18
100
AcDbEntity
  8
0
100
AcDbCircle
 10
79.36408272010573
 20
268.0017728645332
 30
0.0
 40
1.75
  0
LINE
  5
6C0F
330
18
100
AcDbEntity
  8
0
100
AcDbLine
 10
88.86408272010573
 20
271.4437711710529
 30
0.0
 11
88.86408272010573
 21
276.5750158789276
 31
0.0
  0
LINE
  5
6C10
330
18
100
AcDbEntity
  8
0
100
AcDbLine
 10
88.86408272010573
 20
265.4234494098338
 30
0.0
 11
88.86408272010573
 21
270.5800963192325
 31
0.0
  0
CIRCLE
  5
6C11
330
18
100
AcDbEntity
  8
0
100
AcDbCircle
 10
81.86408272010572
 20
346.9137118992493
 30
0.0
 40
2.330426913141309
  0
LINE
  5
6C12
330
18
100
AcDbEntity
  8
0
100
AcDbLine
 10
81.60165094031759
 20
346.6512801194612
 30
0.0
 11
81.60165094031759
 21
344.9424218547137
 31
0.0
  0
LINE
  5
6C13
330
18
100
AcDbEntity
  8
0
100
AcDbLine
 10
82.13415411721104
 20
344.9424218547137
 30
0.0
 11
82.13415411721104
 21
346.6512801194612
 31
0.0
  0
LINE
  5
6C14
330
18
100
AcDbEntity
  8
0
100
AcDbLine
 10
76.86408272010573
 20
351.9137118992493
 30
0.0
 11
76.86408272010573
 21
341.9137118992494
 31
0.0
  0
LINE
  5
6C15
330
18
100
AcDbEntity
  8
0
100
AcDbLine
 10
86.86408272010572
 20
341.9137118992494
 30
0.0
 11
86.86408272010572
 21
351.9137118992493
 31
0.0
  0
LINE
  5
6C19
330
18
100
AcDbEntity
  8
0
100
AcDbLine
 10
76.86408272010573
 20
315.9778524580979
 30
0.0
 11
76.86408272010573
 21
311.2278524580979
 31
0.0
  0
LINE
  5
6C1B
330
18
100
AcDbEntity
  8
0
100
AcDbLine
 10
88.86408272010573
 20
276.5750158789277
 30
0.0
 11
76.86408272010573
 21
276.5750158789277
 31
0.0
  0
CIRCLE
  5
6C1C
330
18
100
AcDbEntity
  8
0
100
AcDbCircle
 10
86.36408272010573
 20
274.0093935249904
 30
0.0
 40
1.75
  0
LINE
  5
6C1D
330
18
100
AcDbEntity
  8
0
100
AcDbLine
 10
76.86408272010573
 20
286.4778524580979
 30
0.0
 11
82.86408272010573
 21
286.4778524580979
 31
0.0
  0
LINE
  5
6C1F
330
18
100
AcDbEntity
  8
0
100
AcDbLine
 10
82.86408272010573
 20
291.2278524580979
 30
0.0
 11
82.86408272010573
 21
286.4778524580979
 31
0.0
  0
CIRCLE
  5
6C35
330
18
100
AcDbEntity
  8
0
100
AcDbCircle
 10
79.86408272010573
 20
289.2278524580979
 30
0.0
 40
2.0
  0
CIRCLE
  5
6C3A
330
18
100
AcDbEntity
  8
0
100
AcDbCircle
 10
79.36408272010573
 20
274.0093935249904
 30
0.0
 40
1.75
  0
LINE
  5
6C3B
330
18
100
AcDbEntity
  8
0
100
AcDbLine
 10
76.86408272010573
 20
341.9137118992494
 30
0.0
 11
86.86408272010572
 21
341.9137118992494
 31
0.0
  0
LINE
  5
6C3C
330
18
100
AcDbEntity
  8
0
100
AcDbLine
 10
86.86408272010572
 20
340.9145586393002
 30
0.0
 11
76.86408272010573
 21
340.9145586393002
 31
0.0
  0
LINE
  5
6C3D
330
18
100
AcDbEntity
  8
0
100
AcDbLine
 10
76.86408272010573
 20
330.9145586393002
 30
0.0
 11
86.86408272010572
 21
330.9145586393002
 31
0.0
  0
LINE
  5
6C3E
330
18
100
AcDbEntity
  8
0
100
AcDbLine
 10
86.86408272010572
 20
329.9154053793511
 30
0.0
 11
76.86408272010573
 21
329.9154053793511
 31
0.0
  0
LINE
  5
6C3F
330
18
100
AcDbEntity
  8
0
100
AcDbLine
 10
76.86408272010573
 20
319.9154053793511
 30
0.0
 11
86.86408272010572
 21
319.9154053793511
 31
0.0
  0
LINE
  5
6C40
330
18
100
AcDbEntity
  8
0
100
AcDbLine
 10
76.86408272010573
 20
340.9145586393002
 30
0.0
 11
76.86408272010573
 21
330.9145586393002
 31
0.0
  0
LINE
  5
6C41
330
18
100
AcDbEntity
  8
0
100
AcDbLine
 10
79.36408272010573
 20
340.9145586393002
 30
0.0
 11
76.86408272010573
 21
338.4145586393002
 31
0.0
  0
LINE
  5
6C42
330
18
100
AcDbEntity
  8
0
100
AcDbLine
 10
79.36408272010573
 20
329.9154053793511
 30
0.0
 11
76.86408272010573
 21
327.4154053793511
 31
0.0
  0
TEXT
  5
6C43
330
18
100
AcDbEntity
  8
0
100
AcDbText
 10
83.14632455694336
 20
333.2416523099011
 30
0.0
 40
1.5
  1
7
 50
197.9999999999984
 41
0.8
  7
MSｺﾞｼｯｸ
 72
     1
 11
82.69085218055904
 21
333.3818784353423
 31
0.0
100
AcDbText
 73
     1
  0
TEXT
  5
6C44
330
18
100
AcDbEntity
  8
0
100
AcDbText
 10
81.33034323582592
 20
332.9984491528783
 30
0.0
 40
1.5
  1
8
 50
162.0000000000015
 41
0.8
  7
MSｺﾞｼｯｸ
 72
     1
 11
81.04428119138317
 21
333.379614417081
 31
0.0
100
AcDbText
 73
     1
  0
TEXT
  5
6C45
330
18
100
AcDbEntity
  8
0
100
AcDbText
 10
82.39782220438554
 20
327.831514865773
 30
0.0
 40
1.5
  1
3
 50
342.0000000000015
 41
0.8
  7
MSｺﾞｼｯｸ
 72
     1
 11
82.68388424882829
 21
327.4503496015703
 31
0.0
100
AcDbText
 73
     1
  0
TEXT
  5
6C46
330
18
100
AcDbEntity
  8
0
100
AcDbText
 10
80.58184088326809
 20
327.5883117087504
 30
0.0
 40
1.5
  1
2
 50
17.99999999999848
 41
0.8
  7
MSｺﾞｼｯｸ
 72
     1
 11
81.03731325965242
 21
327.448085583309
 31
0.0
100
AcDbText
 73
     1
  0
CIRCLE
  5
6C47
330
18
100
AcDbEntity
  8
0
100
AcDbCircle
 10
81.86408272010572
 20
335.9145586393002
 30
0.0
 40
2.330426913141309
  0
LINE
  5
6C48
330
18
100
AcDbEntity
  8
0
100
AcDbLine
 10
83.83537276464137
 20
336.1846300364055
 30
0.0
 11
82.13415411721104
 21
336.1846300364055
 31
0.0
  0
LINE
  5
6C49
330
18
100
AcDbEntity
  8
0
100
AcDbLine
 10
82.13415411721104
 20
335.6521268595121
 30
0.0
 11
83.83537276464137
 21
335.6521268595121
 31
0.0
  0
LINE
  5
6C4A
330
18
100
AcDbEntity
  8
0
100
AcDbLine
 10
79.75417814663621
 20
335.9158499333285
 30
0.0
 11
80.65707117567724
 21
335.3919818119058
 31
0.0
  0
LINE
  5
6C4B
330
18
100
AcDbEntity
  8
0
100
AcDbLine
 10
80.65930776254168
 20
336.4358441726664
 30
0.0
 11
79.75417814663621
 21
335.9158499333285
 31
0.0
  0
TEXT
  5
6C4C
330
18
100
AcDbEntity
  8
0
100
AcDbText
 10
82.39782220438554
 20
338.8306681257223
 30
0.0
 40
1.5
  1
3
 50
342.0000000000015
 41
0.8
  7
MSｺﾞｼｯｸ
 72
     1
 11
82.68388424882829
 21
338.4495028615195
 31
0.0
100
AcDbText
 73
     1
  0
TEXT
  5
6C4D
330
18
100
AcDbEntity
  8
0
100
AcDbText
 10
80.58184088326809
 20
338.5874649686996
 30
0.0
 40
1.5
  1
2
 50
17.99999999999848
 41
0.8
  7
MSｺﾞｼｯｸ
 72
     1
 11
81.03731325965242
 21
338.4472388432583
 31
0.0
100
AcDbText
 73
     1
  0
LINE
  5
6C4E
330
18
100
AcDbEntity
  8
0
100
AcDbLine
 10
81.60165094031759
 20
337.8289933973679
 30
0.0
 11
81.60165094031759
 21
336.1846300364055
 31
0.0
  0
LINE
  5
6C4F
330
18
100
AcDbEntity
  8
0
100
AcDbLine
 10
82.13415411721104
 20
337.8289933973679
 30
0.0
 11
81.60165094031759
 21
337.8289933973679
 31
0.0
  0
LINE
  5
6C50
330
18
100
AcDbEntity
  8
0
100
AcDbLine
 10
82.13415411721104
 20
336.1846300364055
 30
0.0
 11
82.13415411721104
 21
337.8289933973679
 31
0.0
  0
LINE
  5
6C51
330
18
100
AcDbEntity
  8
0
100
AcDbLine
 10
82.13415411721104
 20
333.9432685947646
 30
0.0
 11
82.13415411721104
 21
335.6521268595121
 31
0.0
  0
LINE
  5
6C52
330
18
100
AcDbEntity
  8
0
100
AcDbLine
 10
81.60165094031759
 20
333.9432685947646
 30
0.0
 11
82.13415411721104
 21
333.9432685947646
 31
0.0
  0
LINE
  5
6C53
330
18
100
AcDbEntity
  8
0
100
AcDbLine
 10
81.60165094031759
 20
335.6521268595121
 30
0.0
 11
81.60165094031759
 21
333.9432685947646
 31
0.0
  0
LINE
  5
6C54
330
18
100
AcDbEntity
  8
0
100
AcDbLine
 10
80.65707117567724
 20
335.3919818119058
 30
0.0
 11
80.65762856429278
 21
335.6521268595121
 31
0.0
  0
LINE
  5
6C55
330
18
100
AcDbEntity
  8
0
100
AcDbLine
 10
80.65876950935949
 20
336.1846300364055
 30
0.0
 11
80.65930776254168
 21
336.4358441726664
 31
0.0
  0
LINE
  5
6C56
330
18
100
AcDbEntity
  8
0
100
AcDbLine
 10
80.65762856429278
 20
335.6521268595121
 30
0.0
 11
81.60165094031759
 21
335.6521268595121
 31
0.0
  0
LINE
  5
6C57
330
18
100
AcDbEntity
  8
0
100
AcDbLine
 10
81.60165094031759
 20
336.1846300364055
 30
0.0
 11
80.65876950935949
 21
336.1846300364055
 31
0.0
  0
TEXT
  5
6C58
330
18
100
AcDbEntity
  8
0
100
AcDbText
 10
83.14632455694336
 20
344.2408055698501
 30
0.0
 40
1.5
  1
7
 50
197.9999999999984
 41
0.8
  7
MSｺﾞｼｯｸ
 72
     1
 11
82.69085218055904
 21
344.3810316952914
 31
0.0
100
AcDbText
 73
     1
  0
LINE
  5
6C59
330
18
100
AcDbEntity
  8
0
100
AcDbLine
 10
81.60165094031759
 20
344.9424218547137
 30
0.0
 11
82.13415411721104
 21
344.9424218547137
 31
0.0
  0
TEXT
  5
6C5A
330
18
100
AcDbEntity
  8
0
100
AcDbText
 10
81.33034323582592
 20
343.9976024128274
 30
0.0
 40
1.5
  1
8
 50
162.0000000000015
 41
0.8
  7
MSｺﾞｼｯｸ
 72
     1
 11
81.04428119138317
 21
344.3787676770301
 31
0.0
100
AcDbText
 73
     1
  0
LINE
  5
6C5B
330
18
100
AcDbEntity
  8
0
100
AcDbLine
 10
83.83537276464137
 20
335.6521268595121
 30
0.0
 11
83.83537276464137
 21
336.1846300364055
 31
0.0
  0
TEXT
  5
6C5C
330
18
100
AcDbEntity
  8
0
100
AcDbText
 10
84.47253307818591
 20
334.5058148360096
 30
0.0
 40
1.5
  1
6
 50
234.0000000000063
 41
0.8
  7
MSｺﾞｼｯｸ
 72
     1
 11
84.02162533670212
 21
334.3515402088816
 31
0.0
100
AcDbText
 73
     1
  0
TEXT
  5
6C5D
330
18
100
AcDbEntity
  8
0
100
AcDbText
 10
84.80240222060889
 20
336.3080696135341
 30
0.0
 40
1.5
  1
5
 50
270.0
 41
0.8
  7
MSｺﾞｼｯｸ
 72
     1
 11
84.52829054548198
 21
335.9182218977981
 31
0.0
100
AcDbText
 73
     1
  0
TEXT
  5
6C5E
330
18
100
AcDbEntity
  8
0
100
AcDbText
 10
84.00993318364619
 20
337.9600165738477
 30
0.0
 40
1.5
  1
4
 50
305.9999999999936
 41
0.8
  7
MSｺﾞｼｯｸ
 72
     1
 11
84.01731891806145
 21
337.4835043464782
 31
0.0
100
AcDbText
 73
     1
  0
TEXT
  5
6C5F
330
18
100
AcDbEntity
  8
0
100
AcDbText
 10
84.47253307818591
 20
345.5049680959586
 30
0.0
 40
1.5
  1
6
 50
234.0000000000063
 41
0.8
  7
MSｺﾞｼｯｸ
 72
     1
 11
84.02162533670212
 21
345.3506934688306
 31
0.0
100
AcDbText
 73
     1
  0
TEXT
  5
6C60
330
18
100
AcDbEntity
  8
0
100
AcDbText
 10
78.92576321960257
 20
335.5210476650662
 30
0.0
 40
1.5
  1
0
 50
90.0
 41
0.8
  7
MSｺﾞｼｯｸ
 72
     1
 11
79.19987489472948
 21
335.9108953808023
 31
0.0
100
AcDbText
 73
     1
  0
TEXT
  5
6C61
330
18
100
AcDbEntity
  8
0
100
AcDbText
 10
79.25563236202531
 20
337.323302442591
 30
0.0
 40
1.5
  1
1
 50
54.00000000000632
 41
0.8
  7
MSｺﾞｼｯｸ
 72
     1
 11
79.7065401035091
 21
337.4775770697191
 31
0.0
100
AcDbText
 73
     1
  0
TEXT
  5
6C62
330
18
100
AcDbEntity
  8
0
100
AcDbText
 10
79.71823225656526
 20
333.8691007047527
 30
0.0
 40
1.5
  1
9
 50
125.9999999999936
 41
0.8
  7
MSｺﾞｼｯｸ
 72
     1
 11
79.71084652215001
 21
334.3456129321221
 31
0.0
100
AcDbText
 73
     1
  0
TEXT
  5
6C63
330
18
100
AcDbEntity
  8
0
100
AcDbText
 10
79.71823225656526
 20
344.8682539647018
 30
0.0
 40
1.5
  1
9
 50
125.9999999999936
 41
0.8
  7
MSｺﾞｼｯｸ
 72
     1
 11
79.71084652215001
 21
345.3447661920713
 31
0.0
100
AcDbText
 73
     1
  0
LINE
  5
6C64
330
18
100
AcDbEntity
  8
0
100
AcDbLine
 10
82.86408272010573
 20
315.9778524580979
 30
0.0
 11
76.86408272010573
 21
315.9778524580979
 31
0.0
  0
LINE
  5
6C66
330
18
100
AcDbEntity
  8
0
100
AcDbLine
 10
82.13415411721104
 20
324.6529735995629
 30
0.0
 11
83.83537276464137
 21
324.6529735995629
 31
0.0
  0
LINE
  5
6C67
330
18
100
AcDbEntity
  8
0
100
AcDbLine
 10
83.83537276464137
 20
325.1854767764564
 30
0.0
 11
82.13415411721104
 21
325.1854767764564
 31
0.0
  0
LINE
  5
6C68
330
18
100
AcDbEntity
  8
0
100
AcDbLine
 10
80.65930776254168
 20
325.4366909127172
 30
0.0
 11
79.75417814663621
 21
324.9166966733794
 31
0.0
  0
LINE
  5
6C69
330
18
100
AcDbEntity
  8
0
100
AcDbLine
 10
79.75417814663621
 20
324.9166966733794
 30
0.0
 11
80.65707117567724
 21
324.3928285519566
 31
0.0
  0
LINE
  5
6C75
330
18
100
AcDbEntity
  8
0
100
AcDbLine
 10
82.86408272010573
 20
315.9778524580979
 30
0.0
 11
82.86408272010573
 21
311.2278524580979
 31
0.0
  0
TEXT
  5
6C7B
330
18
100
AcDbEntity
  8
0
100
AcDbText
 10
83.14632455694336
 20
322.2424990499518
 30
0.0
 40
1.5
  1
7
 50
197.9999999999984
 41
0.8
  7
MSｺﾞｼｯｸ
 72
     1
 11
82.69085218055904
 21
322.3827251753931
 31
0.0
100
AcDbText
 73
     1
  0
LINE
  5
6C7C
330
18
100
AcDbEntity
  8
0
100
AcDbLine
 10
81.60165094031759
 20
324.6529735995629
 30
0.0
 11
81.60165094031759
 21
322.9441153348155
 31
0.0
  0
LINE
  5
6C7D
330
18
100
AcDbEntity
  8
0
100
AcDbLine
 10
81.60165094031759
 20
322.9441153348155
 30
0.0
 11
82.13415411721104
 21
322.9441153348155
 31
0.0
  0
LINE
  5
6C7E
330
18
100
AcDbEntity
  8
0
100
AcDbLine
 10
82.13415411721104
 20
322.9441153348155
 30
0.0
 11
82.13415411721104
 21
324.6529735995629
 31
0.0
  0
LINE
  5
6C7F
330
18
100
AcDbEntity
  8
0
100
AcDbLine
 10
82.13415411721104
 20
325.1854767764564
 30
0.0
 11
82.13415411721104
 21
326.8298401374188
 31
0.0
  0
LINE
  5
6C80
330
18
100
AcDbEntity
  8
0
100
AcDbLine
 10
82.13415411721104
 20
326.8298401374188
 30
0.0
 11
81.60165094031759
 21
326.8298401374188
 31
0.0
  0
LINE
  5
6C81
330
18
100
AcDbEntity
  8
0
100
AcDbLine
 10
81.60165094031759
 20
326.8298401374188
 30
0.0
 11
81.60165094031759
 21
325.1854767764564
 31
0.0
  0
TEXT
  5
6C82
330
18
100
AcDbEntity
  8
0
100
AcDbText
 10
81.33034323582592
 20
321.999295892929
 30
0.0
 40
1.5
  1
8
 50
162.0000000000015
 41
0.8
  7
MSｺﾞｼｯｸ
 72
     1
 11
81.04428119138317
 21
322.3804611571317
 31
0.0
100
AcDbText
 73
     1
  0
LINE
  5
6C83
330
18
100
AcDbEntity
  8
0
100
AcDbLine
 10
80.65876950935949
 20
325.1854767764564
 30
0.0
 11
80.65930776254168
 21
325.4366909127172
 31
0.0
  0
LINE
  5
6C84
330
18
100
AcDbEntity
  8
0
100
AcDbLine
 10
80.65707117567724
 20
324.3928285519566
 30
0.0
 11
80.65762856429278
 21
324.6529735995629
 31
0.0
  0
LINE
  5
6C85
330
18
100
AcDbEntity
  8
0
100
AcDbLine
 10
81.60165094031759
 20
325.1854767764564
 30
0.0
 11
80.65876950935949
 21
325.1854767764564
 31
0.0
  0
LINE
  5
6C86
330
18
100
AcDbEntity
  8
0
100
AcDbLine
 10
80.65762856429278
 20
324.6529735995629
 30
0.0
 11
81.60165094031759
 21
324.6529735995629
 31
0.0
  0
TEXT
  5
6C87
330
18
100
AcDbEntity
  8
0
100
AcDbText
 10
84.80240222060889
 20
325.308916353585
 30
0.0
 40
1.5
  1
5
 50
270.0
 41
0.8
  7
MSｺﾞｼｯｸ
 72
     1
 11
84.52829054548198
 21
324.919068637849
 31
0.0
100
AcDbText
 73
     1
  0
TEXT
  5
6C88
330
18
100
AcDbEntity
  8
0
100
AcDbText
 10
84.47253307818591
 20
323.5066615760604
 30
0.0
 40
1.5
  1
6
 50
234.0000000000063
 41
0.8
  7
MSｺﾞｼｯｸ
 72
     1
 11
84.02162533670212
 21
323.3523869489324
 31
0.0
100
AcDbText
 73
     1
  0
LINE
  5
6C89
330
18
100
AcDbEntity
  8
0
100
AcDbLine
 10
83.83537276464137
 20
324.6529735995629
 30
0.0
 11
83.83537276464137
 21
325.1854767764564
 31
0.0
  0
TEXT
  5
6C8A
330
18
100
AcDbEntity
  8
0
100
AcDbText
 10
78.92576321960257
 20
324.5218944051171
 30
0.0
 40
1.5
  1
0
 50
90.0
 41
0.8
  7
MSｺﾞｼｯｸ
 72
     1
 11
79.19987489472948
 21
324.9117421208532
 31
0.0
100
AcDbText
 73
     1
  0
CIRCLE
  5
6C8D
330
18
100
AcDbEntity
  8
0
100
AcDbCircle
 10
79.86408272010573
 20
313.2278524580978
 30
0.0
 40
2.0
  0
TEXT
  5
6C91
330
18
100
AcDbEntity
  8
0
100
AcDbText
 10
79.71823225656526
 20
322.8699474448035
 30
0.0
 40
1.5
  1
9
 50
125.9999999999936
 41
0.8
  7
MSｺﾞｼｯｸ
 72
     1
 11
79.71084652215001
 21
323.346459672173
 31
0.0
100
AcDbText
 73
     1
  0
LINE
  5
6C92
330
18
100
AcDbEntity
  8
0
100
AcDbLine
 10
76.86408272010573
 20
329.9154053793511
 30
0.0
 11
76.86408272010573
 21
319.9154053793511
 31
0.0
  0
CIRCLE
  5
6C93
330
18
100
AcDbEntity
  8
0
100
AcDbCircle
 10
81.86408272010572
 20
324.9154053793511
 30
0.0
 40
2.330426913141309
  0
TEXT
  5
6C94
330
18
100
AcDbEntity
  8
0
100
AcDbText
 10
84.00993318364619
 20
326.9608633138985
 30
0.0
 40
1.5
  1
4
 50
305.9999999999936
 41
0.8
  7
MSｺﾞｼｯｸ
 72
     1
 11
84.01731891806145
 21
326.484351086529
 31
0.0
100
AcDbText
 73
     1
  0
TEXT
  5
6C95
330
18
100
AcDbEntity
  8
0
100
AcDbText
 10
79.25563236202531
 20
326.3241491826418
 30
0.0
 40
1.5
  1
1
 50
54.00000000000632
 41
0.8
  7
MSｺﾞｼｯｸ
 72
     1
 11
79.7065401035091
 21
326.4784238097699
 31
0.0
100
AcDbText
 73
     1
  0
LINE
  5
6C99
330
18
100
AcDbEntity
  8
0
100
AcDbLine
 10
86.86408272010572
 20
330.9145586393002
 30
0.0
 11
86.86408272010572
 21
340.9145586393002
 31
0.0
  0
LINE
  5
6C9A
330
18
100
AcDbEntity
  8
0
100
AcDbLine
 10
86.86408272010572
 20
319.9154053793511
 30
0.0
 11
86.86408272010572
 21
329.9154053793511
 31
0.0
  0
LINE
  5
6C9B
330
18
100
AcDbEntity
  8
0
100
AcDbLine
 10
82.13415411721104
 20
346.6512801194612
 30
0.0
 11
83.83537276464137
 21
346.6512801194612
 31
0.0
  0
LINE
  5
6C9C
330
18
100
AcDbEntity
  8
0
100
AcDbLine
 10
80.65930776254168
 20
347.4349974326155
 30
0.0
 11
79.75417814663621
 21
346.9150031932777
 31
0.0
  0
LINE
  5
6C9D
330
18
100
AcDbEntity
  8
0
100
AcDbLine
 10
79.75417814663621
 20
346.9150031932777
 30
0.0
 11
80.65707117567724
 21
346.3911350718549
 31
0.0
  0
LINE
  5
6C9E
330
18
100
AcDbEntity
  8
0
100
AcDbLine
 10
80.65707117567724
 20
346.3911350718549
 30
0.0
 11
80.65762856429278
 21
346.6512801194612
 31
0.0
  0
LINE
  5
6C9F
330
18
100
AcDbEntity
  8
0
100
AcDbLine
 10
80.65762856429278
 20
346.6512801194612
 30
0.0
 11
81.60165094031759
 21
346.6512801194612
 31
0.0
  0
TEXT
  5
6CA0
330
18
100
AcDbEntity
  8
0
100
AcDbText
 10
84.80240222060889
 20
347.3072228734833
 30
0.0
 40
1.5
  1
5
 50
270.0
 41
0.8
  7
MSｺﾞｼｯｸ
 72
     1
 11
84.52829054548198
 21
346.9173751577473
 31
0.0
100
AcDbText
 73
     1
  0
LINE
  5
6CA1
330
18
100
AcDbEntity
  8
0
100
AcDbLine
 10
83.83537276464137
 20
346.6512801194612
 30
0.0
 11
83.83537276464137
 21
347.1837832963547
 31
0.0
  0
TEXT
  5
6CA2
330
18
100
AcDbEntity
  8
0
100
AcDbText
 10
78.92576321960257
 20
346.5202009250154
 30
0.0
 40
1.5
  1
0
 50
90.0
 41
0.8
  7
MSｺﾞｼｯｸ
 72
     1
 11
79.19987489472948
 21
346.9100486407514
 31
0.0
100
AcDbText
 73
     1
  0
LINE
  5
6CA3
330
18
100
AcDbEntity
  8
0
100
AcDbLine
 10
86.86408272010572
 20
351.9137118992493
 30
0.0
 11
76.86408272010573
 21
351.9137118992493
 31
0.0
  0
LINE
  5
6CA4
330
18
100
AcDbEntity
  8
0
100
AcDbLine
 10
93.7640827201057
 20
354.2896644818056
 30
0.0
 11
69.7640827201057
 21
354.289664481806
 31
0.0
  0
LINE
  5
6CA5
330
18
100
AcDbEntity
  8
0
100
AcDbLine
 10
83.83537276464137
 20
347.1837832963547
 30
0.0
 11
82.13415411721104
 21
347.1837832963547
 31
0.0
  0
TEXT
  5
6CA6
330
18
100
AcDbEntity
  8
0
100
AcDbText
 10
82.39782220438554
 20
349.8298213856713
 30
0.0
 40
1.5
  1
3
 50
342.0000000000015
 41
0.8
  7
MSｺﾞｼｯｸ
 72
     1
 11
82.68388424882829
 21
349.4486561214686
 31
0.0
100
AcDbText
 73
     1
  0
LINE
  5
6CA7
330
18
100
AcDbEntity
  8
0
100
AcDbLine
 10
82.13415411721104
 20
347.1837832963547
 30
0.0
 11
82.13415411721104
 21
348.8281466573171
 31
0.0
  0
LINE
  5
6CA8
330
18
100
AcDbEntity
  8
0
100
AcDbLine
 10
82.13415411721104
 20
348.8281466573171
 30
0.0
 11
81.60165094031759
 21
348.8281466573171
 31
0.0
  0
LINE
  5
6CA9
330
18
100
AcDbEntity
  8
0
100
AcDbLine
 10
81.60165094031759
 20
348.8281466573171
 30
0.0
 11
81.60165094031759
 21
347.1837832963547
 31
0.0
  0
TEXT
  5
6CAA
330
18
100
AcDbEntity
  8
0
100
AcDbText
 10
80.58184088326809
 20
349.5866182286486
 30
0.0
 40
1.5
  1
2
 50
17.99999999999848
 41
0.8
  7
MSｺﾞｼｯｸ
 72
     1
 11
81.03731325965242
 21
349.4463921032073
 31
0.0
100
AcDbText
 73
     1
  0
LINE
  5
6CAB
330
18
100
AcDbEntity
  8
0
100
AcDbLine
 10
80.65876950935949
 20
347.1837832963547
 30
0.0
 11
80.65930776254168
 21
347.4349974326155
 31
0.0
  0
LINE
  5
6CAC
330
18
100
AcDbEntity
  8
0
100
AcDbLine
 10
81.60165094031759
 20
347.1837832963547
 30
0.0
 11
80.65876950935949
 21
347.1837832963547
 31
0.0
  0
TEXT
  5
6CAD
330
18
100
AcDbEntity
  8
0
100
AcDbText
 10
84.00993318364619
 20
348.9591698337968
 30
0.0
 40
1.5
  1
4
 50
305.9999999999936
 41
0.8
  7
MSｺﾞｼｯｸ
 72
     1
 11
84.01731891806145
 21
348.4826576064273
 31
0.0
100
AcDbText
 73
     1
  0
TEXT
  5
6CAE
330
18
100
AcDbEntity
  8
0
100
AcDbText
 10
79.25563236202531
 20
348.3224557025401
 30
0.0
 40
1.5
  1
1
 50
54.00000000000632
 41
0.8
  7
MSｺﾞｼｯｸ
 72
     1
 11
79.7065401035091
 21
348.4767303296681
 31
0.0
100
AcDbText
 73
     1
  0
LINE
  5
6CAF
330
18
100
AcDbEntity
  8
0
100
AcDbLine
 10
79.36408272010573
 20
351.9137118992493
 30
0.0
 11
76.86408272010573
 21
349.4137118992493
 31
0.0
  0
LINE
  5
6CB1
330
18
100
AcDbEntity
  8
0
100
AcDbLine
 10
94.76408272010582
 20
440.2896644818065
 30
0.0
 11
69.76408272010582
 21
440.2896644818065
 31
0.0
  0
LINE
  5
6EF7
330
18
100
AcDbEntity
  8
0
100
AcDbLine
 10
280.3939327109369
 20
155.7534742965758
 30
0.0
 11
275.3939327109369
 21
155.7534742965758
 31
0.0
  0
LINE
  5
6EF8
330
18
100
AcDbEntity
  8
0
100
AcDbLine
 10
280.3939327109369
 20
135.7534742965758
 30
0.0
 11
275.3939327109369
 21
135.7534742965758
 31
0.0
  0
LINE
  5
6EF9
330
18
100
AcDbEntity
  8
0
100
AcDbLine
 10
280.3939327109369
 20
130.7534742965758
 30
0.0
 11
275.3939327109369
 21
130.7534742965758
 31
0.0
  0
LINE
  5
6EFA
330
18
100
AcDbEntity
  8
0
100
AcDbLine
 10
280.3939327109369
 20
110.7534742965758
 30
0.0
 11
275.3939327109369
 21
110.7534742965758
 31
0.0
  0
LINE
  5
6EFB
330
18
100
AcDbEntity
  8
0
100
AcDbLine
 10
280.3939327109369
 20
100.7534742965758
 30
0.0
 11
275.3939327109369
 21
100.7534742965758
 31
0.0
  0
LINE
  5
6EFC
330
18
100
AcDbEntity
  8
0
100
AcDbLine
 10
280.3939327109369
 20
75.75347429657586
 30
0.0
 11
275.3939327109369
 21
75.75347429657586
 31
0.0
  0
LINE
  5
6EFD
330
18
100
AcDbEntity
  8
0
100
AcDbLine
 10
280.3939327109369
 20
80.75347429657586
 30
0.0
 11
275.3939327109369
 21
80.75347429657586
 31
0.0
  0
LINE
  5
6EFE
330
18
100
AcDbEntity
  8
0
100
AcDbLine
 10
280.3939327109369
 20
55.75347429657586
 30
0.0
 11
275.3939327109369
 21
55.75347429657586
 31
0.0
  0
LINE
  5
6F00
330
18
100
AcDbEntity
  8
0
100
AcDbLine
 10
186.393932710937
 20
185.7534742965758
 30
0.0
 11
365.3939327109369
 21
185.7534742965758
 31
0.0
  0
LINE
  5
6F01
330
18
100
AcDbEntity
  8
0
100
AcDbLine
 10
365.3939327109367
 20
45.75347429657631
 30
0.0
 11
186.3939327109369
 21
45.75347429657631
 31
0.0
  0
LINE
  5
6F02
330
18
100
AcDbEntity
  8
0
100
AcDbLine
 10
186.393932710937
 20
153.753474296576
 30
0.0
 11
186.3939327109369
 21
45.75347429657631
 31
0.0
  0
LINE
  5
6F04
330
18
100
AcDbEntity
  8
0
100
AcDbLine
 10
210.3939327109369
 20
100.7534742965758
 30
0.0
 11
205.3939327109369
 21
100.7534742965758
 31
0.0
  0
LINE
  5
6F05
330
18
100
AcDbEntity
  8
0
100
AcDbLine
 10
210.3939327109368
 20
75.75347429657586
 30
0.0
 11
205.3939327109368
 21
75.75347429657586
 31
0.0
  0
LINE
  5
6F06
330
18
100
AcDbEntity
  8
0
100
AcDbLine
 10
210.3939327109368
 20
80.75347429657586
 30
0.0
 11
205.3939327109368
 21
80.75347429657586
 31
0.0
  0
LINE
  5
6F07
330
18
100
AcDbEntity
  8
0
100
AcDbLine
 10
210.3939327109368
 20
55.75347429657586
 30
0.0
 11
205.3939327109368
 21
55.75347429657586
 31
0.0
  0
LINE
  5
6F08
330
18
100
AcDbEntity
  8
0
100
AcDbLine
 10
205.3939327109368
 20
55.75347429657586
 30
0.0
 11
205.3939327109368
 21
75.75347429657586
 31
0.0
  0
LINE
  5
6F09
330
18
100
AcDbEntity
  8
0
100
AcDbLine
 10
200.3939327109368
 20
55.75347429657586
 30
0.0
 11
200.3939327109368
 21
75.75347429657586
 31
0.0
  0
LINE
  5
6F0A
330
18
100
AcDbEntity
  8
0
100
AcDbLine
 10
195.3939327109368
 20
55.75347429657586
 30
0.0
 11
195.3939327109368
 21
75.75347429657586
 31
0.0
  0
LINE
  5
6F0B
330
18
100
AcDbEntity
  8
0
100
AcDbLine
 10
200.3939327109368
 20
55.75347429657586
 30
0.0
 11
195.3939327109368
 21
55.75347429657586
 31
0.0
  0
LINE
  5
6F0C
330
18
100
AcDbEntity
  8
0
100
AcDbLine
 10
205.3939327109368
 20
80.75347429657586
 30
0.0
 11
205.3939327109369
 21
100.7534742965758
 31
0.0
  0
LINE
  5
6F0D
330
18
100
AcDbEntity
  8
0
100
AcDbLine
 10
195.3939327109368
 20
80.75347429657586
 30
0.0
 11
195.3939327109369
 21
100.7534742965758
 31
0.0
  0
LINE
  5
6F0E
330
18
100
AcDbEntity
  8
0
100
AcDbLine
 10
200.3939327109368
 20
80.75347429657586
 30
0.0
 11
200.3939327109369
 21
100.7534742965758
 31
0.0
  0
LINE
  5
6F10
330
18
100
AcDbEntity
  8
0
100
AcDbLine
 10
200.3939327109368
 20
75.75347429657586
 30
0.0
 11
195.3939327109368
 21
75.75347429657586
 31
0.0
  0
LINE
  5
6F11
330
18
100
AcDbEntity
  8
0
100
AcDbLine
 10
200.3939327109368
 20
80.75347429657586
 30
0.0
 11
195.3939327109368
 21
80.75347429657586
 31
0.0
  0
LINE
  5
6F12
330
18
100
AcDbEntity
  8
0
100
AcDbLine
 10
200.3939327109369
 20
100.7534742965758
 30
0.0
 11
195.3939327109369
 21
100.7534742965758
 31
0.0
  0
LINE
  5
6F13
330
18
100
AcDbEntity
  8
0
100
AcDbLine
 10
245.3939327109369
 20
55.75347429657586
 30
0.0
 11
245.3939327109369
 21
75.75347429657586
 31
0.0
  0
LINE
  5
6F14
330
18
100
AcDbEntity
  8
0
100
AcDbLine
 10
240.3939327109369
 20
55.75347429657586
 30
0.0
 11
240.3939327109369
 21
75.75347429657586
 31
0.0
  0
LINE
  5
6F15
330
18
100
AcDbEntity
  8
0
100
AcDbLine
 10
255.3939327109369
 20
55.75347429657586
 30
0.0
 11
255.3939327109369
 21
75.75347429657586
 31
0.0
  0
LINE
  5
6F16
330
18
100
AcDbEntity
  8
0
100
AcDbLine
 10
250.3939327109369
 20
55.75347429657586
 30
0.0
 11
250.3939327109369
 21
75.75347429657586
 31
0.0
  0
LINE
  5
6F17
330
18
100
AcDbEntity
  8
0
100
AcDbLine
 10
270.3939327109369
 20
55.75347429657586
 30
0.0
 11
270.3939327109369
 21
75.75347429657586
 31
0.0
  0
LINE
  5
6F18
330
18
100
AcDbEntity
  8
0
100
AcDbLine
 10
260.3939327109369
 20
55.75347429657586
 30
0.0
 11
260.3939327109369
 21
75.75347429657586
 31
0.0
  0
LINE
  5
6F19
330
18
100
AcDbEntity
  8
0
100
AcDbLine
 10
265.3939327109369
 20
55.75347429657586
 30
0.0
 11
265.3939327109369
 21
75.75347429657586
 31
0.0
  0
LINE
  5
6F1A
330
18
100
AcDbEntity
  8
0
100
AcDbLine
 10
275.3939327109369
 20
55.75347429657586
 30
0.0
 11
275.3939327109369
 21
75.75347429657586
 31
0.0
  0
LINE
  5
6F1B
330
18
100
AcDbEntity
  8
0
100
AcDbLine
 10
235.3939327109369
 20
55.75347429657586
 30
0.0
 11
235.3939327109369
 21
75.75347429657586
 31
0.0
  0
LINE
  5
6F1C
330
18
100
AcDbEntity
  8
0
100
AcDbLine
 10
210.3939327109368
 20
55.75347429657586
 30
0.0
 11
210.3939327109368
 21
75.75347429657586
 31
0.0
  0
LINE
  5
6F1D
330
18
100
AcDbEntity
  8
0
100
AcDbLine
 10
215.3939327109368
 20
55.75347429657586
 30
0.0
 11
215.3939327109368
 21
75.75347429657586
 31
0.0
  0
LINE
  5
6F1E
330
18
100
AcDbEntity
  8
0
100
AcDbLine
 10
225.3939327109368
 20
55.75347429657586
 30
0.0
 11
225.3939327109368
 21
75.75347429657586
 31
0.0
  0
LINE
  5
6F1F
330
18
100
AcDbEntity
  8
0
100
AcDbLine
 10
230.3939327109368
 20
55.75347429657586
 30
0.0
 11
230.3939327109368
 21
75.75347429657586
 31
0.0
  0
LINE
  5
6F20
330
18
100
AcDbEntity
  8
0
100
AcDbLine
 10
220.3939327109368
 20
55.75347429657586
 30
0.0
 11
220.3939327109368
 21
75.75347429657586
 31
0.0
  0
LINE
  5
6F21
330
18
100
AcDbEntity
  8
0
100
AcDbLine
 10
230.3939327109368
 20
55.75347429657586
 30
0.0
 11
225.3939327109368
 21
55.75347429657586
 31
0.0
  0
LINE
  5
6F22
330
18
100
AcDbEntity
  8
0
100
AcDbLine
 10
220.3939327109368
 20
55.75347429657586
 30
0.0
 11
215.3939327109368
 21
55.75347429657586
 31
0.0
  0
LINE
  5
6F23
330
18
100
AcDbEntity
  8
0
100
AcDbLine
 10
240.3939327109369
 20
55.75347429657586
 30
0.0
 11
235.3939327109369
 21
55.75347429657586
 31
0.0
  0
LINE
  5
6F24
330
18
100
AcDbEntity
  8
0
100
AcDbLine
 10
250.3939327109369
 20
55.75347429657586
 30
0.0
 11
245.3939327109369
 21
55.75347429657586
 31
0.0
  0
LINE
  5
6F25
330
18
100
AcDbEntity
  8
0
100
AcDbLine
 10
260.3939327109369
 20
55.75347429657586
 30
0.0
 11
255.3939327109369
 21
55.75347429657586
 31
0.0
  0
LINE
  5
6F26
330
18
100
AcDbEntity
  8
0
100
AcDbLine
 10
270.3939327109369
 20
55.75347429657586
 30
0.0
 11
265.3939327109369
 21
55.75347429657586
 31
0.0
  0
LINE
  5
6F27
330
18
100
AcDbEntity
  8
0
100
AcDbLine
 10
240.3939327109369
 20
80.75347429657586
 30
0.0
 11
240.3939327109369
 21
100.7534742965758
 31
0.0
  0
LINE
  5
6F28
330
18
100
AcDbEntity
  8
0
100
AcDbLine
 10
235.3939327109369
 20
80.75347429657586
 30
0.0
 11
235.3939327109369
 21
100.7534742965758
 31
0.0
  0
LINE
  5
6F29
330
18
100
AcDbEntity
  8
0
100
AcDbLine
 10
230.3939327109368
 20
80.75347429657586
 30
0.0
 11
230.3939327109369
 21
100.7534742965758
 31
0.0
  0
LINE
  5
6F2A
330
18
100
AcDbEntity
  8
0
100
AcDbLine
 10
225.3939327109368
 20
80.75347429657586
 30
0.0
 11
225.3939327109369
 21
100.7534742965758
 31
0.0
  0
LINE
  5
6F2B
330
18
100
AcDbEntity
  8
0
100
AcDbLine
 10
215.3939327109368
 20
80.75347429657586
 30
0.0
 11
215.3939327109369
 21
100.7534742965758
 31
0.0
  0
LINE
  5
6F2C
330
18
100
AcDbEntity
  8
0
100
AcDbLine
 10
220.3939327109368
 20
80.75347429657586
 30
0.0
 11
220.3939327109369
 21
100.7534742965758
 31
0.0
  0
LINE
  5
6F2D
330
18
100
AcDbEntity
  8
0
100
AcDbLine
 10
210.3939327109368
 20
80.75347429657586
 30
0.0
 11
210.3939327109369
 21
100.7534742965758
 31
0.0
  0
LINE
  5
6F2E
330
18
100
AcDbEntity
  8
0
100
AcDbLine
 10
230.3939327109368
 20
75.75347429657586
 30
0.0
 11
225.3939327109368
 21
75.75347429657586
 31
0.0
  0
LINE
  5
6F2F
330
18
100
AcDbEntity
  8
0
100
AcDbLine
 10
230.3939327109368
 20
80.75347429657586
 30
0.0
 11
225.3939327109368
 21
80.75347429657586
 31
0.0
  0
LINE
  5
6F30
330
18
100
AcDbEntity
  8
0
100
AcDbLine
 10
220.3939327109368
 20
75.75347429657586
 30
0.0
 11
215.3939327109368
 21
75.75347429657586
 31
0.0
  0
LINE
  5
6F31
330
18
100
AcDbEntity
  8
0
100
AcDbLine
 10
220.3939327109368
 20
80.75347429657586
 30
0.0
 11
215.3939327109368
 21
80.75347429657586
 31
0.0
  0
LINE
  5
6F32
330
18
100
AcDbEntity
  8
0
100
AcDbLine
 10
240.3939327109369
 20
75.75347429657586
 30
0.0
 11
235.3939327109369
 21
75.75347429657586
 31
0.0
  0
LINE
  5
6F33
330
18
100
AcDbEntity
  8
0
100
AcDbLine
 10
240.3939327109369
 20
80.75347429657586
 30
0.0
 11
235.3939327109369
 21
80.75347429657586
 31
0.0
  0
LINE
  5
6F34
330
18
100
AcDbEntity
  8
0
100
AcDbLine
 10
230.3939327109369
 20
100.7534742965758
 30
0.0
 11
225.3939327109369
 21
100.7534742965758
 31
0.0
  0
LINE
  5
6F35
330
18
100
AcDbEntity
  8
0
100
AcDbLine
 10
220.3939327109369
 20
100.7534742965758
 30
0.0
 11
215.3939327109369
 21
100.7534742965758
 31
0.0
  0
LINE
  5
6F36
330
18
100
AcDbEntity
  8
0
100
AcDbLine
 10
240.3939327109369
 20
100.7534742965758
 30
0.0
 11
235.3939327109369
 21
100.7534742965758
 31
0.0
  0
LINE
  5
6F37
330
18
100
AcDbEntity
  8
0
100
AcDbLine
 10
275.3939327109369
 20
80.75347429657586
 30
0.0
 11
275.3939327109369
 21
100.7534742965758
 31
0.0
  0
LINE
  5
6F38
330
18
100
AcDbEntity
  8
0
100
AcDbLine
 10
245.3939327109369
 20
80.75347429657586
 30
0.0
 11
245.3939327109369
 21
100.7534742965758
 31
0.0
  0
LINE
  5
6F39
330
18
100
AcDbEntity
  8
0
100
AcDbLine
 10
255.3939327109369
 20
80.75347429657586
 30
0.0
 11
255.3939327109369
 21
100.7534742965758
 31
0.0
  0
LINE
  5
6F3A
330
18
100
AcDbEntity
  8
0
100
AcDbLine
 10
250.3939327109369
 20
80.75347429657586
 30
0.0
 11
250.3939327109369
 21
100.7534742965758
 31
0.0
  0
LINE
  5
6F3B
330
18
100
AcDbEntity
  8
0
100
AcDbLine
 10
270.3939327109369
 20
80.75347429657586
 30
0.0
 11
270.3939327109369
 21
100.7534742965758
 31
0.0
  0
LINE
  5
6F3C
330
18
100
AcDbEntity
  8
0
100
AcDbLine
 10
260.3939327109369
 20
80.75347429657586
 30
0.0
 11
260.3939327109369
 21
100.7534742965758
 31
0.0
  0
LINE
  5
6F3D
330
18
100
AcDbEntity
  8
0
100
AcDbLine
 10
265.3939327109369
 20
80.75347429657586
 30
0.0
 11
265.3939327109369
 21
100.7534742965758
 31
0.0
  0
LINE
  5
6F3E
330
18
100
AcDbEntity
  8
0
100
AcDbLine
 10
250.3939327109369
 20
75.75347429657586
 30
0.0
 11
245.3939327109369
 21
75.75347429657586
 31
0.0
  0
LINE
  5
6F3F
330
18
100
AcDbEntity
  8
0
100
AcDbLine
 10
250.3939327109369
 20
80.75347429657586
 30
0.0
 11
245.3939327109369
 21
80.75347429657586
 31
0.0
  0
LINE
  5
6F40
330
18
100
AcDbEntity
  8
0
100
AcDbLine
 10
260.3939327109369
 20
75.75347429657586
 30
0.0
 11
255.3939327109369
 21
75.75347429657586
 31
0.0
  0
LINE
  5
6F41
330
18
100
AcDbEntity
  8
0
100
AcDbLine
 10
260.3939327109369
 20
80.75347429657586
 30
0.0
 11
255.3939327109369
 21
80.75347429657586
 31
0.0
  0
LINE
  5
6F42
330
18
100
AcDbEntity
  8
0
100
AcDbLine
 10
270.3939327109369
 20
75.75347429657586
 30
0.0
 11
265.3939327109369
 21
75.75347429657586
 31
0.0
  0
LINE
  5
6F43
330
18
100
AcDbEntity
  8
0
100
AcDbLine
 10
270.3939327109369
 20
80.75347429657586
 30
0.0
 11
265.3939327109369
 21
80.75347429657586
 31
0.0
  0
LINE
  5
6F44
330
18
100
AcDbEntity
  8
0
100
AcDbLine
 10
250.3939327109369
 20
100.7534742965758
 30
0.0
 11
245.3939327109369
 21
100.7534742965758
 31
0.0
  0
LINE
  5
6F45
330
18
100
AcDbEntity
  8
0
100
AcDbLine
 10
260.3939327109369
 20
100.7534742965758
 30
0.0
 11
255.3939327109369
 21
100.7534742965758
 31
0.0
  0
LINE
  5
6F46
330
18
100
AcDbEntity
  8
0
100
AcDbLine
 10
270.3939327109369
 20
100.7534742965758
 30
0.0
 11
265.3939327109369
 21
100.7534742965758
 31
0.0
  0
LINE
  5
6F47
330
18
100
AcDbEntity
  8
0
100
AcDbLine
 10
210.3939327109369
 20
155.7534742965758
 30
0.0
 11
205.3939327109369
 21
155.7534742965758
 31
0.0
  0
LINE
  5
6F48
330
18
100
AcDbEntity
  8
0
100
AcDbLine
 10
210.3939327109369
 20
135.7534742965758
 30
0.0
 11
205.3939327109369
 21
135.7534742965758
 31
0.0
  0
LINE
  5
6F49
330
18
100
AcDbEntity
  8
0
100
AcDbLine
 10
210.3939327109369
 20
130.7534742965758
 30
0.0
 11
205.3939327109369
 21
130.7534742965758
 31
0.0
  0
LINE
  5
6F4A
330
18
100
AcDbEntity
  8
0
100
AcDbLine
 10
210.3939327109369
 20
110.7534742965758
 30
0.0
 11
205.3939327109369
 21
110.7534742965758
 31
0.0
  0
LINE
  5
6F4B
330
18
100
AcDbEntity
  8
0
100
AcDbLine
 10
186.393932710937
 20
185.7534742965758
 30
0.0
 11
186.393932710937
 21
155.7534742965758
 31
0.0
  0
LINE
  5
6F4C
330
18
100
AcDbEntity
  8
0
100
AcDbLine
 10
187.393932710937
 20
184.7534742965756
 30
0.0
 11
187.3939327109369
 21
155.7534742965758
 31
0.0
  0
LINE
  5
6F4D
330
18
100
AcDbEntity
  8
0
100
AcDbLine
 10
189.393932710937
 20
184.7534742965756
 30
0.0
 11
189.393932710937
 21
153.7534742965756
 31
0.0
  0
LINE
  5
6F4F
330
18
100
AcDbEntity
  8
0
100
AcDbLine
 10
200.3939327109369
 20
110.7534742965758
 30
0.0
 11
200.3939327109369
 21
130.7534742965758
 31
0.0
  0
LINE
  5
6F50
330
18
100
AcDbEntity
  8
0
100
AcDbLine
 10
205.3939327109369
 20
110.7534742965758
 30
0.0
 11
205.3939327109369
 21
130.7534742965758
 31
0.0
  0
LINE
  5
6F51
330
18
100
AcDbEntity
  8
0
100
AcDbLine
 10
195.3939327109369
 20
110.7534742965758
 30
0.0
 11
195.3939327109369
 21
130.7534742965758
 31
0.0
  0
LINE
  5
6F52
330
18
100
AcDbEntity
  8
0
100
AcDbLine
 10
200.3939327109369
 20
110.7534742965758
 30
0.0
 11
195.3939327109369
 21
110.7534742965758
 31
0.0
  0
LINE
  5
6F53
330
18
100
AcDbEntity
  8
0
100
AcDbLine
 10
200.3939327109369
 20
130.7534742965758
 30
0.0
 11
195.3939327109369
 21
130.7534742965758
 31
0.0
  0
LINE
  5
6F54
330
18
100
AcDbEntity
  8
0
100
AcDbLine
 10
186.393932710937
 20
155.7534742965758
 30
0.0
 11
187.393932710937
 21
155.7534742965758
 31
0.0
  0
LINE
  5
6F55
330
18
100
AcDbEntity
  8
0
100
AcDbLine
 10
189.393932710937
 20
153.7534742965756
 30
0.0
 11
186.393932710937
 21
153.753474296576
 31
0.0
  0
LINE
  5
6F56
330
18
100
AcDbEntity
  8
0
100
AcDbLine
 10
205.3939327109369
 20
135.7534742965758
 30
0.0
 11
205.3939327109369
 21
155.7534742965758
 31
0.0
  0
LINE
  5
6F57
330
18
100
AcDbEntity
  8
0
100
AcDbLine
 10
200.3939327109369
 20
135.7534742965758
 30
0.0
 11
200.3939327109369
 21
155.7534742965758
 31
0.0
  0
LINE
  5
6F58
330
18
100
AcDbEntity
  8
0
100
AcDbLine
 10
195.3939327109369
 20
135.7534742965758
 30
0.0
 11
195.3939327109369
 21
155.7534742965758
 31
0.0
  0
LINE
  5
6F59
330
18
100
AcDbEntity
  8
0
100
AcDbLine
 10
200.3939327109369
 20
135.7534742965758
 30
0.0
 11
195.3939327109369
 21
135.7534742965758
 31
0.0
  0
LINE
  5
6F5A
330
18
100
AcDbEntity
  8
0
100
AcDbLine
 10
200.3939327109369
 20
155.7534742965758
 30
0.0
 11
195.3939327109369
 21
155.7534742965758
 31
0.0
  0
LINE
  5
6F5B
330
18
100
AcDbEntity
  8
0
100
AcDbLine
 10
186.393932710937
 20
184.7534742965758
 30
0.0
 11
187.3939327109371
 21
184.7534742965758
 31
0.0
  0
LINE
  5
6F5C
330
18
100
AcDbEntity
  8
0
100
AcDbLine
 10
187.393932710937
 20
184.7534742965756
 30
0.0
 11
189.393932710937
 21
184.7534742965758
 31
0.0
  0
LINE
  5
6F5D
330
18
100
AcDbEntity
  8
0
100
AcDbLine
 10
230.3939327109369
 20
130.7534742965758
 30
0.0
 11
225.3939327109369
 21
130.7534742965758
 31
0.0
  0
LINE
  5
6F5E
330
18
100
AcDbEntity
  8
0
100
AcDbLine
 10
230.3939327109369
 20
110.7534742965758
 30
0.0
 11
225.3939327109369
 21
110.7534742965758
 31
0.0
  0
LINE
  5
6F5F
330
18
100
AcDbEntity
  8
0
100
AcDbLine
 10
215.3939327109369
 20
110.7534742965758
 30
0.0
 11
215.3939327109369
 21
130.7534742965758
 31
0.0
  0
LINE
  5
6F60
330
18
100
AcDbEntity
  8
0
100
AcDbLine
 10
210.3939327109369
 20
110.7534742965758
 30
0.0
 11
210.3939327109369
 21
130.7534742965758
 31
0.0
  0
LINE
  5
6F61
330
18
100
AcDbEntity
  8
0
100
AcDbLine
 10
225.3939327109369
 20
110.7534742965758
 30
0.0
 11
225.3939327109369
 21
130.7534742965758
 31
0.0
  0
LINE
  5
6F62
330
18
100
AcDbEntity
  8
0
100
AcDbLine
 10
220.3939327109369
 20
110.7534742965758
 30
0.0
 11
220.3939327109369
 21
130.7534742965758
 31
0.0
  0
LINE
  5
6F63
330
18
100
AcDbEntity
  8
0
100
AcDbLine
 10
220.3939327109369
 20
110.7534742965758
 30
0.0
 11
215.3939327109369
 21
110.7534742965758
 31
0.0
  0
LINE
  5
6F64
330
18
100
AcDbEntity
  8
0
100
AcDbLine
 10
220.3939327109369
 20
130.7534742965758
 30
0.0
 11
215.3939327109369
 21
130.7534742965758
 31
0.0
  0
LINE
  5
6F65
330
18
100
AcDbEntity
  8
0
100
AcDbLine
 10
240.3939327109369
 20
110.7534742965758
 30
0.0
 11
240.3939327109369
 21
130.7534742965758
 31
0.0
  0
LINE
  5
6F66
330
18
100
AcDbEntity
  8
0
100
AcDbLine
 10
230.3939327109369
 20
110.7534742965758
 30
0.0
 11
230.3939327109369
 21
130.7534742965758
 31
0.0
  0
LINE
  5
6F67
330
18
100
AcDbEntity
  8
0
100
AcDbLine
 10
235.3939327109369
 20
110.7534742965758
 30
0.0
 11
235.3939327109369
 21
130.7534742965758
 31
0.0
  0
LINE
  5
6F68
330
18
100
AcDbEntity
  8
0
100
AcDbLine
 10
240.3939327109369
 20
110.7534742965758
 30
0.0
 11
235.3939327109369
 21
110.7534742965758
 31
0.0
  0
LINE
  5
6F69
330
18
100
AcDbEntity
  8
0
100
AcDbLine
 10
240.3939327109369
 20
130.7534742965758
 30
0.0
 11
235.3939327109369
 21
130.7534742965758
 31
0.0
  0
LINE
  5
6F6A
330
18
100
AcDbEntity
  8
0
100
AcDbLine
 10
230.3939327109369
 20
155.7534742965758
 30
0.0
 11
225.3939327109369
 21
155.7534742965758
 31
0.0
  0
LINE
  5
6F6B
330
18
100
AcDbEntity
  8
0
100
AcDbLine
 10
230.3939327109369
 20
135.7534742965758
 30
0.0
 11
225.3939327109369
 21
135.7534742965758
 31
0.0
  0
LINE
  5
6F6C
330
18
100
AcDbEntity
  8
0
100
AcDbLine
 10
215.3939327109369
 20
135.7534742965758
 30
0.0
 11
215.3939327109369
 21
155.7534742965758
 31
0.0
  0
LINE
  5
6F6D
330
18
100
AcDbEntity
  8
0
100
AcDbLine
 10
210.3939327109369
 20
135.7534742965758
 30
0.0
 11
210.3939327109369
 21
155.7534742965758
 31
0.0
  0
LINE
  5
6F6E
330
18
100
AcDbEntity
  8
0
100
AcDbLine
 10
225.3939327109369
 20
135.7534742965758
 30
0.0
 11
225.3939327109369
 21
155.7534742965758
 31
0.0
  0
LINE
  5
6F6F
330
18
100
AcDbEntity
  8
0
100
AcDbLine
 10
220.3939327109369
 20
135.7534742965758
 30
0.0
 11
220.3939327109369
 21
155.7534742965758
 31
0.0
  0
LINE
  5
6F70
330
18
100
AcDbEntity
  8
0
100
AcDbLine
 10
220.3939327109369
 20
135.7534742965758
 30
0.0
 11
215.3939327109369
 21
135.7534742965758
 31
0.0
  0
LINE
  5
6F71
330
18
100
AcDbEntity
  8
0
100
AcDbLine
 10
220.3939327109369
 20
155.7534742965758
 30
0.0
 11
215.3939327109369
 21
155.7534742965758
 31
0.0
  0
LINE
  5
6F72
330
18
100
AcDbEntity
  8
0
100
AcDbLine
 10
240.3939327109369
 20
135.7534742965758
 30
0.0
 11
240.3939327109369
 21
155.7534742965758
 31
0.0
  0
LINE
  5
6F73
330
18
100
AcDbEntity
  8
0
100
AcDbLine
 10
230.3939327109369
 20
135.7534742965758
 30
0.0
 11
230.3939327109369
 21
155.7534742965758
 31
0.0
  0
LINE
  5
6F74
330
18
100
AcDbEntity
  8
0
100
AcDbLine
 10
235.3939327109369
 20
135.7534742965758
 30
0.0
 11
235.3939327109369
 21
155.7534742965758
 31
0.0
  0
LINE
  5
6F75
330
18
100
AcDbEntity
  8
0
100
AcDbLine
 10
240.3939327109369
 20
135.7534742965758
 30
0.0
 11
235.3939327109369
 21
135.7534742965758
 31
0.0
  0
LINE
  5
6F76
330
18
100
AcDbEntity
  8
0
100
AcDbLine
 10
240.3939327109369
 20
155.7534742965758
 30
0.0
 11
235.3939327109369
 21
155.7534742965758
 31
0.0
  0
LINE
  5
6F77
330
18
100
AcDbEntity
  8
0
100
AcDbLine
 10
250.3939327109369
 20
110.7534742965758
 30
0.0
 11
250.3939327109369
 21
130.7534742965758
 31
0.0
  0
LINE
  5
6F78
330
18
100
AcDbEntity
  8
0
100
AcDbLine
 10
255.3939327109369
 20
110.7534742965758
 30
0.0
 11
255.3939327109369
 21
130.7534742965758
 31
0.0
  0
LINE
  5
6F79
330
18
100
AcDbEntity
  8
0
100
AcDbLine
 10
245.3939327109369
 20
110.7534742965758
 30
0.0
 11
245.3939327109369
 21
130.7534742965758
 31
0.0
  0
LINE
  5
6F7A
330
18
100
AcDbEntity
  8
0
100
AcDbLine
 10
260.3939327109369
 20
110.7534742965758
 30
0.0
 11
260.3939327109369
 21
130.7534742965758
 31
0.0
  0
LINE
  5
6F7B
330
18
100
AcDbEntity
  8
0
100
AcDbLine
 10
250.3939327109369
 20
110.7534742965758
 30
0.0
 11
245.3939327109369
 21
110.7534742965758
 31
0.0
  0
LINE
  5
6F7C
330
18
100
AcDbEntity
  8
0
100
AcDbLine
 10
260.3939327109369
 20
110.7534742965758
 30
0.0
 11
255.3939327109369
 21
110.7534742965758
 31
0.0
  0
LINE
  5
6F7D
330
18
100
AcDbEntity
  8
0
100
AcDbLine
 10
250.3939327109369
 20
130.7534742965758
 30
0.0
 11
245.3939327109369
 21
130.7534742965758
 31
0.0
  0
LINE
  5
6F7E
330
18
100
AcDbEntity
  8
0
100
AcDbLine
 10
260.3939327109369
 20
130.7534742965758
 30
0.0
 11
255.3939327109369
 21
130.7534742965758
 31
0.0
  0
LINE
  5
6F7F
330
18
100
AcDbEntity
  8
0
100
AcDbLine
 10
275.3939327109369
 20
110.7534742965758
 30
0.0
 11
275.3939327109369
 21
130.7534742965758
 31
0.0
  0
LINE
  5
6F80
330
18
100
AcDbEntity
  8
0
100
AcDbLine
 10
265.3939327109369
 20
110.7534742965758
 30
0.0
 11
265.3939327109369
 21
130.7534742965758
 31
0.0
  0
LINE
  5
6F81
330
18
100
AcDbEntity
  8
0
100
AcDbLine
 10
270.3939327109369
 20
110.7534742965758
 30
0.0
 11
270.3939327109369
 21
130.7534742965758
 31
0.0
  0
LINE
  5
6F82
330
18
100
AcDbEntity
  8
0
100
AcDbLine
 10
270.3939327109369
 20
110.7534742965758
 30
0.0
 11
265.3939327109369
 21
110.7534742965758
 31
0.0
  0
LINE
  5
6F83
330
18
100
AcDbEntity
  8
0
100
AcDbLine
 10
270.3939327109369
 20
130.7534742965758
 30
0.0
 11
265.3939327109369
 21
130.7534742965758
 31
0.0
  0
LINE
  5
6F84
330
18
100
AcDbEntity
  8
0
100
AcDbLine
 10
250.3939327109369
 20
135.7534742965758
 30
0.0
 11
250.3939327109369
 21
155.7534742965758
 31
0.0
  0
LINE
  5
6F85
330
18
100
AcDbEntity
  8
0
100
AcDbLine
 10
255.3939327109369
 20
135.7534742965758
 30
0.0
 11
255.3939327109369
 21
155.7534742965758
 31
0.0
  0
LINE
  5
6F86
330
18
100
AcDbEntity
  8
0
100
AcDbLine
 10
245.3939327109369
 20
135.7534742965758
 30
0.0
 11
245.3939327109369
 21
155.7534742965758
 31
0.0
  0
LINE
  5
6F87
330
18
100
AcDbEntity
  8
0
100
AcDbLine
 10
260.3939327109369
 20
135.7534742965758
 30
0.0
 11
260.3939327109369
 21
155.7534742965758
 31
0.0
  0
LINE
  5
6F88
330
18
100
AcDbEntity
  8
0
100
AcDbLine
 10
250.3939327109369
 20
135.7534742965758
 30
0.0
 11
245.3939327109369
 21
135.7534742965758
 31
0.0
  0
LINE
  5
6F89
330
18
100
AcDbEntity
  8
0
100
AcDbLine
 10
260.3939327109369
 20
135.7534742965758
 30
0.0
 11
255.3939327109369
 21
135.7534742965758
 31
0.0
  0
LINE
  5
6F8A
330
18
100
AcDbEntity
  8
0
100
AcDbLine
 10
250.3939327109369
 20
155.7534742965758
 30
0.0
 11
245.3939327109369
 21
155.7534742965758
 31
0.0
  0
LINE
  5
6F8B
330
18
100
AcDbEntity
  8
0
100
AcDbLine
 10
260.3939327109369
 20
155.7534742965758
 30
0.0
 11
255.3939327109369
 21
155.7534742965758
 31
0.0
  0
LINE
  5
6F8C
330
18
100
AcDbEntity
  8
0
100
AcDbLine
 10
275.3939327109369
 20
135.7534742965758
 30
0.0
 11
275.3939327109369
 21
155.7534742965758
 31
0.0
  0
LINE
  5
6F8D
330
18
100
AcDbEntity
  8
0
100
AcDbLine
 10
265.3939327109369
 20
135.7534742965758
 30
0.0
 11
265.3939327109369
 21
155.7534742965758
 31
0.0
  0
LINE
  5
6F8E
330
18
100
AcDbEntity
  8
0
100
AcDbLine
 10
270.3939327109369
 20
135.7534742965758
 30
0.0
 11
270.3939327109369
 21
155.7534742965758
 31
0.0
  0
LINE
  5
6F8F
330
18
100
AcDbEntity
  8
0
100
AcDbLine
 10
270.3939327109369
 20
135.7534742965758
 30
0.0
 11
265.3939327109369
 21
135.7534742965758
 31
0.0
  0
LINE
  5
6F90
330
18
100
AcDbEntity
  8
0
100
AcDbLine
 10
270.3939327109369
 20
155.7534742965758
 30
0.0
 11
265.3939327109369
 21
155.7534742965758
 31
0.0
  0
LINE
  5
6F91
330
18
100
AcDbEntity
  8
0
100
AcDbLine
 10
365.3939327109369
 20
153.7534742965758
 30
0.0
 11
365.3939327109367
 21
45.75347429657631
 31
0.0
  0
LINE
  5
6F93
330
18
100
AcDbEntity
  8
0
100
AcDbLine
 10
350.3939327109369
 20
100.7534742965758
 30
0.0
 11
345.3939327109369
 21
100.7534742965758
 31
0.0
  0
LINE
  5
6F94
330
18
100
AcDbEntity
  8
0
100
AcDbLine
 10
350.3939327109369
 20
75.75347429657586
 30
0.0
 11
345.3939327109369
 21
75.75347429657586
 31
0.0
  0
LINE
  5
6F95
330
18
100
AcDbEntity
  8
0
100
AcDbLine
 10
350.3939327109369
 20
80.75347429657586
 30
0.0
 11
345.3939327109369
 21
80.75347429657586
 31
0.0
  0
LINE
  5
6F96
330
18
100
AcDbEntity
  8
0
100
AcDbLine
 10
350.3939327109369
 20
55.75347429657586
 30
0.0
 11
345.3939327109369
 21
55.75347429657586
 31
0.0
  0
LINE
  5
6F97
330
18
100
AcDbEntity
  8
0
100
AcDbLine
 10
340.3939327109369
 20
55.75347429657586
 30
0.0
 11
340.3939327109369
 21
75.75347429657586
 31
0.0
  0
LINE
  5
6F98
330
18
100
AcDbEntity
  8
0
100
AcDbLine
 10
335.3939327109369
 20
55.75347429657586
 30
0.0
 11
335.3939327109369
 21
75.75347429657586
 31
0.0
  0
LINE
  5
6F99
330
18
100
AcDbEntity
  8
0
100
AcDbLine
 10
345.3939327109369
 20
55.75347429657586
 30
0.0
 11
345.3939327109369
 21
75.75347429657586
 31
0.0
  0
LINE
  5
6F9A
330
18
100
AcDbEntity
  8
0
100
AcDbLine
 10
310.3939327109369
 20
55.75347429657586
 30
0.0
 11
310.3939327109369
 21
75.75347429657586
 31
0.0
  0
LINE
  5
6F9B
330
18
100
AcDbEntity
  8
0
100
AcDbLine
 10
325.3939327109369
 20
55.75347429657586
 30
0.0
 11
325.3939327109369
 21
75.75347429657586
 31
0.0
  0
LINE
  5
6F9C
330
18
100
AcDbEntity
  8
0
100
AcDbLine
 10
315.3939327109369
 20
55.75347429657586
 30
0.0
 11
315.3939327109369
 21
75.75347429657586
 31
0.0
  0
LINE
  5
6F9D
330
18
100
AcDbEntity
  8
0
100
AcDbLine
 10
320.3939327109369
 20
55.75347429657586
 30
0.0
 11
320.3939327109369
 21
75.75347429657586
 31
0.0
  0
LINE
  5
6F9E
330
18
100
AcDbEntity
  8
0
100
AcDbLine
 10
330.3939327109369
 20
55.75347429657586
 30
0.0
 11
330.3939327109369
 21
75.75347429657586
 31
0.0
  0
LINE
  5
6F9F
330
18
100
AcDbEntity
  8
0
100
AcDbLine
 10
305.3939327109369
 20
55.75347429657586
 30
0.0
 11
305.3939327109369
 21
75.75347429657586
 31
0.0
  0
LINE
  5
6FA0
330
18
100
AcDbEntity
  8
0
100
AcDbLine
 10
295.3939327109369
 20
55.75347429657586
 30
0.0
 11
295.3939327109369
 21
75.75347429657586
 31
0.0
  0
LINE
  5
6FA1
330
18
100
AcDbEntity
  8
0
100
AcDbLine
 10
290.3939327109369
 20
55.75347429657586
 30
0.0
 11
290.3939327109369
 21
75.75347429657586
 31
0.0
  0
LINE
  5
6FA2
330
18
100
AcDbEntity
  8
0
100
AcDbLine
 10
285.3939327109369
 20
55.75347429657586
 30
0.0
 11
285.3939327109369
 21
75.75347429657586
 31
0.0
  0
LINE
  5
6FA3
330
18
100
AcDbEntity
  8
0
100
AcDbLine
 10
300.3939327109369
 20
55.75347429657586
 30
0.0
 11
300.3939327109369
 21
75.75347429657586
 31
0.0
  0
LINE
  5
6FA4
330
18
100
AcDbEntity
  8
0
100
AcDbLine
 10
280.3939327109369
 20
55.75347429657586
 30
0.0
 11
280.3939327109369
 21
75.75347429657586
 31
0.0
  0
LINE
  5
6FA5
330
18
100
AcDbEntity
  8
0
100
AcDbLine
 10
300.3939327109369
 20
55.75347429657586
 30
0.0
 11
295.3939327109369
 21
55.75347429657586
 31
0.0
  0
LINE
  5
6FA6
330
18
100
AcDbEntity
  8
0
100
AcDbLine
 10
290.3939327109369
 20
55.75347429657586
 30
0.0
 11
285.3939327109369
 21
55.75347429657586
 31
0.0
  0
LINE
  5
6FA7
330
18
100
AcDbEntity
  8
0
100
AcDbLine
 10
310.3939327109369
 20
55.75347429657586
 30
0.0
 11
305.3939327109369
 21
55.75347429657586
 31
0.0
  0
LINE
  5
6FA8
330
18
100
AcDbEntity
  8
0
100
AcDbLine
 10
320.3939327109369
 20
55.75347429657586
 30
0.0
 11
315.3939327109369
 21
55.75347429657586
 31
0.0
  0
LINE
  5
6FA9
330
18
100
AcDbEntity
  8
0
100
AcDbLine
 10
330.3939327109369
 20
55.75347429657586
 30
0.0
 11
325.3939327109369
 21
55.75347429657586
 31
0.0
  0
LINE
  5
6FAA
330
18
100
AcDbEntity
  8
0
100
AcDbLine
 10
340.3939327109369
 20
55.75347429657586
 30
0.0
 11
335.3939327109369
 21
55.75347429657586
 31
0.0
  0
LINE
  5
6FAB
330
18
100
AcDbEntity
  8
0
100
AcDbLine
 10
310.3939327109369
 20
80.75347429657586
 30
0.0
 11
310.3939327109369
 21
100.7534742965758
 31
0.0
  0
LINE
  5
6FAC
330
18
100
AcDbEntity
  8
0
100
AcDbLine
 10
305.3939327109369
 20
80.75347429657586
 30
0.0
 11
305.3939327109369
 21
100.7534742965758
 31
0.0
  0
LINE
  5
6FAD
330
18
100
AcDbEntity
  8
0
100
AcDbLine
 10
295.3939327109369
 20
80.75347429657586
 30
0.0
 11
295.3939327109369
 21
100.7534742965758
 31
0.0
  0
LINE
  5
6FAE
330
18
100
AcDbEntity
  8
0
100
AcDbLine
 10
290.3939327109369
 20
80.75347429657586
 30
0.0
 11
290.3939327109369
 21
100.7534742965758
 31
0.0
  0
LINE
  5
6FAF
330
18
100
AcDbEntity
  8
0
100
AcDbLine
 10
285.3939327109369
 20
80.75347429657586
 30
0.0
 11
285.3939327109369
 21
100.7534742965758
 31
0.0
  0
LINE
  5
6FB0
330
18
100
AcDbEntity
  8
0
100
AcDbLine
 10
300.3939327109369
 20
80.75347429657586
 30
0.0
 11
300.3939327109369
 21
100.7534742965758
 31
0.0
  0
LINE
  5
6FB1
330
18
100
AcDbEntity
  8
0
100
AcDbLine
 10
280.3939327109369
 20
80.75347429657586
 30
0.0
 11
280.3939327109369
 21
100.7534742965758
 31
0.0
  0
LINE
  5
6FB2
330
18
100
AcDbEntity
  8
0
100
AcDbLine
 10
300.3939327109369
 20
75.75347429657586
 30
0.0
 11
295.3939327109369
 21
75.75347429657586
 31
0.0
  0
LINE
  5
6FB3
330
18
100
AcDbEntity
  8
0
100
AcDbLine
 10
300.3939327109369
 20
80.75347429657586
 30
0.0
 11
295.3939327109369
 21
80.75347429657586
 31
0.0
  0
LINE
  5
6FB4
330
18
100
AcDbEntity
  8
0
100
AcDbLine
 10
290.3939327109369
 20
75.75347429657586
 30
0.0
 11
285.3939327109369
 21
75.75347429657586
 31
0.0
  0
LINE
  5
6FB5
330
18
100
AcDbEntity
  8
0
100
AcDbLine
 10
290.3939327109369
 20
80.75347429657586
 30
0.0
 11
285.3939327109369
 21
80.75347429657586
 31
0.0
  0
LINE
  5
6FB6
330
18
100
AcDbEntity
  8
0
100
AcDbLine
 10
310.3939327109369
 20
75.75347429657586
 30
0.0
 11
305.3939327109369
 21
75.75347429657586
 31
0.0
  0
LINE
  5
6FB7
330
18
100
AcDbEntity
  8
0
100
AcDbLine
 10
310.3939327109369
 20
80.75347429657586
 30
0.0
 11
305.3939327109369
 21
80.75347429657586
 31
0.0
  0
LINE
  5
6FB8
330
18
100
AcDbEntity
  8
0
100
AcDbLine
 10
300.3939327109369
 20
100.7534742965758
 30
0.0
 11
295.3939327109369
 21
100.7534742965758
 31
0.0
  0
LINE
  5
6FB9
330
18
100
AcDbEntity
  8
0
100
AcDbLine
 10
290.3939327109369
 20
100.7534742965758
 30
0.0
 11
285.3939327109369
 21
100.7534742965758
 31
0.0
  0
LINE
  5
6FBA
330
18
100
AcDbEntity
  8
0
100
AcDbLine
 10
310.3939327109369
 20
100.7534742965758
 30
0.0
 11
305.3939327109369
 21
100.7534742965758
 31
0.0
  0
LINE
  5
6FBB
330
18
100
AcDbEntity
  8
0
100
AcDbLine
 10
345.3939327109369
 20
80.75347429657586
 30
0.0
 11
345.3939327109369
 21
100.7534742965758
 31
0.0
  0
LINE
  5
6FBC
330
18
100
AcDbEntity
  8
0
100
AcDbLine
 10
340.3939327109369
 20
80.75347429657586
 30
0.0
 11
340.3939327109369
 21
100.7534742965758
 31
0.0
  0
LINE
  5
6FBD
330
18
100
AcDbEntity
  8
0
100
AcDbLine
 10
335.3939327109369
 20
80.75347429657586
 30
0.0
 11
335.3939327109369
 21
100.7534742965758
 31
0.0
  0
LINE
  5
6FBE
330
18
100
AcDbEntity
  8
0
100
AcDbLine
 10
315.3939327109369
 20
80.75347429657586
 30
0.0
 11
315.3939327109369
 21
100.7534742965758
 31
0.0
  0
LINE
  5
6FBF
330
18
100
AcDbEntity
  8
0
100
AcDbLine
 10
320.3939327109369
 20
80.75347429657586
 30
0.0
 11
320.3939327109369
 21
100.7534742965758
 31
0.0
  0
LINE
  5
6FC0
330
18
100
AcDbEntity
  8
0
100
AcDbLine
 10
325.3939327109369
 20
80.75347429657586
 30
0.0
 11
325.3939327109369
 21
100.7534742965758
 31
0.0
  0
LINE
  5
6FC1
330
18
100
AcDbEntity
  8
0
100
AcDbLine
 10
330.3939327109369
 20
80.75347429657586
 30
0.0
 11
330.3939327109369
 21
100.7534742965758
 31
0.0
  0
LINE
  5
6FC2
330
18
100
AcDbEntity
  8
0
100
AcDbLine
 10
320.3939327109369
 20
75.75347429657586
 30
0.0
 11
315.3939327109369
 21
75.75347429657586
 31
0.0
  0
LINE
  5
6FC3
330
18
100
AcDbEntity
  8
0
100
AcDbLine
 10
320.3939327109369
 20
80.75347429657586
 30
0.0
 11
315.3939327109369
 21
80.75347429657586
 31
0.0
  0
LINE
  5
6FC4
330
18
100
AcDbEntity
  8
0
100
AcDbLine
 10
330.3939327109369
 20
75.75347429657586
 30
0.0
 11
325.3939327109369
 21
75.75347429657586
 31
0.0
  0
LINE
  5
6FC5
330
18
100
AcDbEntity
  8
0
100
AcDbLine
 10
330.3939327109369
 20
80.75347429657586
 30
0.0
 11
325.3939327109369
 21
80.75347429657586
 31
0.0
  0
LINE
  5
6FC6
330
18
100
AcDbEntity
  8
0
100
AcDbLine
 10
340.3939327109369
 20
75.75347429657586
 30
0.0
 11
335.3939327109369
 21
75.75347429657586
 31
0.0
  0
LINE
  5
6FC7
330
18
100
AcDbEntity
  8
0
100
AcDbLine
 10
340.3939327109369
 20
80.75347429657586
 30
0.0
 11
335.3939327109369
 21
80.75347429657586
 31
0.0
  0
LINE
  5
6FC8
330
18
100
AcDbEntity
  8
0
100
AcDbLine
 10
320.3939327109369
 20
100.7534742965758
 30
0.0
 11
315.3939327109369
 21
100.7534742965758
 31
0.0
  0
LINE
  5
6FC9
330
18
100
AcDbEntity
  8
0
100
AcDbLine
 10
330.3939327109369
 20
100.7534742965758
 30
0.0
 11
325.3939327109369
 21
100.7534742965758
 31
0.0
  0
LINE
  5
6FCA
330
18
100
AcDbEntity
  8
0
100
AcDbLine
 10
340.3939327109369
 20
100.7534742965758
 30
0.0
 11
335.3939327109369
 21
100.7534742965758
 31
0.0
  0
LINE
  5
6FCB
330
18
100
AcDbEntity
  8
0
100
AcDbLine
 10
350.3939327109369
 20
55.75347429657586
 30
0.0
 11
350.3939327109369
 21
75.75347429657586
 31
0.0
  0
LINE
  5
6FCC
330
18
100
AcDbEntity
  8
0
100
AcDbLine
 10
355.3939327109369
 20
55.75347429657586
 30
0.0
 11
355.3939327109369
 21
75.75347429657586
 31
0.0
  0
LINE
  5
6FCD
330
18
100
AcDbEntity
  8
0
100
AcDbLine
 10
360.3939327109369
 20
55.75347429657586
 30
0.0
 11
360.3939327109369
 21
75.75347429657586
 31
0.0
  0
LINE
  5
6FCE
330
18
100
AcDbEntity
  8
0
100
AcDbLine
 10
360.3939327109369
 20
55.75347429657586
 30
0.0
 11
355.3939327109369
 21
55.75347429657586
 31
0.0
  0
LINE
  5
6FCF
330
18
100
AcDbEntity
  8
0
100
AcDbLine
 10
360.3939327109369
 20
80.75347429657586
 30
0.0
 11
360.3939327109369
 21
100.7534742965758
 31
0.0
  0
LINE
  5
6FD0
330
18
100
AcDbEntity
  8
0
100
AcDbLine
 10
350.3939327109369
 20
80.75347429657586
 30
0.0
 11
350.3939327109369
 21
100.7534742965758
 31
0.0
  0
LINE
  5
6FD1
330
18
100
AcDbEntity
  8
0
100
AcDbLine
 10
355.3939327109369
 20
80.75347429657586
 30
0.0
 11
355.3939327109369
 21
100.7534742965758
 31
0.0
  0
LINE
  5
6FD3
330
18
100
AcDbEntity
  8
0
100
AcDbLine
 10
360.3939327109369
 20
75.75347429657586
 30
0.0
 11
355.3939327109369
 21
75.75347429657586
 31
0.0
  0
LINE
  5
6FD4
330
18
100
AcDbEntity
  8
0
100
AcDbLine
 10
360.3939327109369
 20
80.75347429657586
 30
0.0
 11
355.3939327109369
 21
80.75347429657586
 31
0.0
  0
LINE
  5
6FD5
330
18
100
AcDbEntity
  8
0
100
AcDbLine
 10
360.3939327109369
 20
100.7534742965758
 30
0.0
 11
355.3939327109369
 21
100.7534742965758
 31
0.0
  0
LINE
  5
6FD6
330
18
100
AcDbEntity
  8
0
100
AcDbLine
 10
350.3939327109369
 20
155.7534742965758
 30
0.0
 11
345.3939327109369
 21
155.7534742965758
 31
0.0
  0
LINE
  5
6FD7
330
18
100
AcDbEntity
  8
0
100
AcDbLine
 10
350.3939327109369
 20
135.7534742965758
 30
0.0
 11
345.3939327109369
 21
135.7534742965758
 31
0.0
  0
LINE
  5
6FD8
330
18
100
AcDbEntity
  8
0
100
AcDbLine
 10
350.3939327109369
 20
130.7534742965758
 30
0.0
 11
345.3939327109369
 21
130.7534742965758
 31
0.0
  0
LINE
  5
6FD9
330
18
100
AcDbEntity
  8
0
100
AcDbLine
 10
350.3939327109369
 20
110.7534742965758
 30
0.0
 11
345.3939327109369
 21
110.7534742965758
 31
0.0
  0
LINE
  5
6FDA
330
18
100
AcDbEntity
  8
0
100
AcDbLine
 10
300.3939327109369
 20
130.7534742965758
 30
0.0
 11
295.3939327109369
 21
130.7534742965758
 31
0.0
  0
LINE
  5
6FDB
330
18
100
AcDbEntity
  8
0
100
AcDbLine
 10
300.3939327109369
 20
110.7534742965758
 30
0.0
 11
295.3939327109369
 21
110.7534742965758
 31
0.0
  0
LINE
  5
6FDC
330
18
100
AcDbEntity
  8
0
100
AcDbLine
 10
280.3939327109369
 20
110.7534742965758
 30
0.0
 11
280.3939327109369
 21
130.7534742965758
 31
0.0
  0
LINE
  5
6FDD
330
18
100
AcDbEntity
  8
0
100
AcDbLine
 10
285.3939327109369
 20
110.7534742965758
 30
0.0
 11
285.3939327109369
 21
130.7534742965758
 31
0.0
  0
LINE
  5
6FDE
330
18
100
AcDbEntity
  8
0
100
AcDbLine
 10
290.3939327109369
 20
110.7534742965758
 30
0.0
 11
290.3939327109369
 21
130.7534742965758
 31
0.0
  0
LINE
  5
6FDF
330
18
100
AcDbEntity
  8
0
100
AcDbLine
 10
295.3939327109369
 20
110.7534742965758
 30
0.0
 11
295.3939327109369
 21
130.7534742965758
 31
0.0
  0
LINE
  5
6FE0
330
18
100
AcDbEntity
  8
0
100
AcDbLine
 10
290.3939327109369
 20
110.7534742965758
 30
0.0
 11
285.3939327109369
 21
110.7534742965758
 31
0.0
  0
LINE
  5
6FE1
330
18
100
AcDbEntity
  8
0
100
AcDbLine
 10
290.3939327109369
 20
130.7534742965758
 30
0.0
 11
285.3939327109369
 21
130.7534742965758
 31
0.0
  0
LINE
  5
6FE2
330
18
100
AcDbEntity
  8
0
100
AcDbLine
 10
300.3939327109369
 20
110.7534742965758
 30
0.0
 11
300.3939327109369
 21
130.7534742965758
 31
0.0
  0
LINE
  5
6FE3
330
18
100
AcDbEntity
  8
0
100
AcDbLine
 10
305.3939327109369
 20
110.7534742965758
 30
0.0
 11
305.3939327109369
 21
130.7534742965758
 31
0.0
  0
LINE
  5
6FE4
330
18
100
AcDbEntity
  8
0
100
AcDbLine
 10
310.3939327109369
 20
110.7534742965758
 30
0.0
 11
310.3939327109369
 21
130.7534742965758
 31
0.0
  0
LINE
  5
6FE5
330
18
100
AcDbEntity
  8
0
100
AcDbLine
 10
310.3939327109369
 20
110.7534742965758
 30
0.0
 11
305.3939327109369
 21
110.7534742965758
 31
0.0
  0
LINE
  5
6FE6
330
18
100
AcDbEntity
  8
0
100
AcDbLine
 10
310.3939327109369
 20
130.7534742965758
 30
0.0
 11
305.3939327109369
 21
130.7534742965758
 31
0.0
  0
LINE
  5
6FE7
330
18
100
AcDbEntity
  8
0
100
AcDbLine
 10
300.3939327109369
 20
155.7534742965758
 30
0.0
 11
295.3939327109369
 21
155.7534742965758
 31
0.0
  0
LINE
  5
6FE8
330
18
100
AcDbEntity
  8
0
100
AcDbLine
 10
300.3939327109369
 20
135.7534742965758
 30
0.0
 11
295.3939327109369
 21
135.7534742965758
 31
0.0
  0
LINE
  5
6FE9
330
18
100
AcDbEntity
  8
0
100
AcDbLine
 10
280.3939327109369
 20
135.7534742965758
 30
0.0
 11
280.3939327109369
 21
155.7534742965758
 31
0.0
  0
LINE
  5
6FEA
330
18
100
AcDbEntity
  8
0
100
AcDbLine
 10
285.3939327109369
 20
135.7534742965758
 30
0.0
 11
285.3939327109369
 21
155.7534742965758
 31
0.0
  0
LINE
  5
6FEB
330
18
100
AcDbEntity
  8
0
100
AcDbLine
 10
290.3939327109369
 20
135.7534742965758
 30
0.0
 11
290.3939327109369
 21
155.7534742965758
 31
0.0
  0
LINE
  5
6FEC
330
18
100
AcDbEntity
  8
0
100
AcDbLine
 10
295.3939327109369
 20
135.7534742965758
 30
0.0
 11
295.3939327109369
 21
155.7534742965758
 31
0.0
  0
LINE
  5
6FED
330
18
100
AcDbEntity
  8
0
100
AcDbLine
 10
290.3939327109369
 20
135.7534742965758
 30
0.0
 11
285.3939327109369
 21
135.7534742965758
 31
0.0
  0
LINE
  5
6FEE
330
18
100
AcDbEntity
  8
0
100
AcDbLine
 10
290.3939327109369
 20
155.7534742965758
 30
0.0
 11
285.3939327109369
 21
155.7534742965758
 31
0.0
  0
LINE
  5
6FEF
330
18
100
AcDbEntity
  8
0
100
AcDbLine
 10
310.3939327109369
 20
135.7534742965758
 30
0.0
 11
310.3939327109369
 21
155.7534742965758
 31
0.0
  0
LINE
  5
6FF0
330
18
100
AcDbEntity
  8
0
100
AcDbLine
 10
300.3939327109369
 20
135.7534742965758
 30
0.0
 11
300.3939327109369
 21
155.7534742965758
 31
0.0
  0
LINE
  5
6FF1
330
18
100
AcDbEntity
  8
0
100
AcDbLine
 10
305.3939327109369
 20
135.7534742965758
 30
0.0
 11
305.3939327109369
 21
155.7534742965758
 31
0.0
  0
LINE
  5
6FF2
330
18
100
AcDbEntity
  8
0
100
AcDbLine
 10
310.3939327109369
 20
135.7534742965758
 30
0.0
 11
305.3939327109369
 21
135.7534742965758
 31
0.0
  0
LINE
  5
6FF3
330
18
100
AcDbEntity
  8
0
100
AcDbLine
 10
310.3939327109369
 20
155.7534742965758
 30
0.0
 11
305.3939327109369
 21
155.7534742965758
 31
0.0
  0
LINE
  5
6FF4
330
18
100
AcDbEntity
  8
0
100
AcDbLine
 10
330.3939327109369
 20
110.7534742965758
 30
0.0
 11
330.3939327109369
 21
130.7534742965758
 31
0.0
  0
LINE
  5
6FF5
330
18
100
AcDbEntity
  8
0
100
AcDbLine
 10
320.3939327109369
 20
110.7534742965758
 30
0.0
 11
320.3939327109369
 21
130.7534742965758
 31
0.0
  0
LINE
  5
6FF6
330
18
100
AcDbEntity
  8
0
100
AcDbLine
 10
315.3939327109369
 20
110.7534742965758
 30
0.0
 11
315.3939327109369
 21
130.7534742965758
 31
0.0
  0
LINE
  5
6FF7
330
18
100
AcDbEntity
  8
0
100
AcDbLine
 10
325.3939327109369
 20
110.7534742965758
 30
0.0
 11
325.3939327109369
 21
130.7534742965758
 31
0.0
  0
LINE
  5
6FF8
330
18
100
AcDbEntity
  8
0
100
AcDbLine
 10
320.3939327109369
 20
110.7534742965758
 30
0.0
 11
315.3939327109369
 21
110.7534742965758
 31
0.0
  0
LINE
  5
6FF9
330
18
100
AcDbEntity
  8
0
100
AcDbLine
 10
330.3939327109369
 20
110.7534742965758
 30
0.0
 11
325.3939327109369
 21
110.7534742965758
 31
0.0
  0
LINE
  5
6FFA
330
18
100
AcDbEntity
  8
0
100
AcDbLine
 10
320.3939327109369
 20
130.7534742965758
 30
0.0
 11
315.3939327109369
 21
130.7534742965758
 31
0.0
  0
LINE
  5
6FFB
330
18
100
AcDbEntity
  8
0
100
AcDbLine
 10
330.3939327109369
 20
130.7534742965758
 30
0.0
 11
325.3939327109369
 21
130.7534742965758
 31
0.0
  0
LINE
  5
6FFC
330
18
100
AcDbEntity
  8
0
100
AcDbLine
 10
345.3939327109369
 20
110.7534742965758
 30
0.0
 11
345.3939327109369
 21
130.7534742965758
 31
0.0
  0
LINE
  5
6FFD
330
18
100
AcDbEntity
  8
0
100
AcDbLine
 10
335.3939327109369
 20
110.7534742965758
 30
0.0
 11
335.3939327109369
 21
130.7534742965758
 31
0.0
  0
LINE
  5
6FFE
330
18
100
AcDbEntity
  8
0
100
AcDbLine
 10
340.3939327109369
 20
110.7534742965758
 30
0.0
 11
340.3939327109369
 21
130.7534742965758
 31
0.0
  0
LINE
  5
6FFF
330
18
100
AcDbEntity
  8
0
100
AcDbLine
 10
340.3939327109369
 20
110.7534742965758
 30
0.0
 11
335.3939327109369
 21
110.7534742965758
 31
0.0
  0
LINE
  5
7000
330
18
100
AcDbEntity
  8
0
100
AcDbLine
 10
340.3939327109369
 20
130.7534742965758
 30
0.0
 11
335.3939327109369
 21
130.7534742965758
 31
0.0
  0
LINE
  5
7001
330
18
100
AcDbEntity
  8
0
100
AcDbLine
 10
320.3939327109369
 20
135.7534742965758
 30
0.0
 11
320.3939327109369
 21
155.7534742965758
 31
0.0
  0
LINE
  5
7002
330
18
100
AcDbEntity
  8
0
100
AcDbLine
 10
315.3939327109369
 20
135.7534742965758
 30
0.0
 11
315.3939327109369
 21
155.7534742965758
 31
0.0
  0
LINE
  5
7003
330
18
100
AcDbEntity
  8
0
100
AcDbLine
 10
330.3939327109369
 20
135.7534742965758
 30
0.0
 11
330.3939327109369
 21
155.7534742965758
 31
0.0
  0
LINE
  5
7004
330
18
100
AcDbEntity
  8
0
100
AcDbLine
 10
325.3939327109369
 20
135.7534742965758
 30
0.0
 11
325.3939327109369
 21
155.7534742965758
 31
0.0
  0
LINE
  5
7005
330
18
100
AcDbEntity
  8
0
100
AcDbLine
 10
320.3939327109369
 20
135.7534742965758
 30
0.0
 11
315.3939327109369
 21
135.7534742965758
 31
0.0
  0
LINE
  5
7006
330
18
100
AcDbEntity
  8
0
100
AcDbLine
 10
330.3939327109369
 20
135.7534742965758
 30
0.0
 11
325.3939327109369
 21
135.7534742965758
 31
0.0
  0
LINE
  5
7007
330
18
100
AcDbEntity
  8
0
100
AcDbLine
 10
320.3939327109369
 20
155.7534742965758
 30
0.0
 11
315.3939327109369
 21
155.7534742965758
 31
0.0
  0
LINE
  5
7008
330
18
100
AcDbEntity
  8
0
100
AcDbLine
 10
330.3939327109369
 20
155.7534742965758
 30
0.0
 11
325.3939327109369
 21
155.7534742965758
 31
0.0
  0
LINE
  5
7009
330
18
100
AcDbEntity
  8
0
100
AcDbLine
 10
345.3939327109369
 20
135.7534742965758
 30
0.0
 11
345.3939327109369
 21
155.7534742965758
 31
0.0
  0
LINE
  5
700A
330
18
100
AcDbEntity
  8
0
100
AcDbLine
 10
335.3939327109369
 20
135.7534742965758
 30
0.0
 11
335.3939327109369
 21
155.7534742965758
 31
0.0
  0
LINE
  5
700B
330
18
100
AcDbEntity
  8
0
100
AcDbLine
 10
340.3939327109369
 20
135.7534742965758
 30
0.0
 11
340.3939327109369
 21
155.7534742965758
 31
0.0
  0
LINE
  5
700C
330
18
100
AcDbEntity
  8
0
100
AcDbLine
 10
340.3939327109369
 20
135.7534742965758
 30
0.0
 11
335.3939327109369
 21
135.7534742965758
 31
0.0
  0
LINE
  5
700D
330
18
100
AcDbEntity
  8
0
100
AcDbLine
 10
340.3939327109369
 20
155.7534742965758
 30
0.0
 11
335.3939327109369
 21
155.7534742965758
 31
0.0
  0
LINE
  5
700E
330
18
100
AcDbEntity
  8
0
100
AcDbLine
 10
365.3939327109369
 20
185.7534742965758
 30
0.0
 11
365.3939327109369
 21
155.7534742965758
 31
0.0
  0
LINE
  5
700F
330
18
100
AcDbEntity
  8
0
100
AcDbLine
 10
364.3939327109369
 20
184.7534742965756
 30
0.0
 11
364.3939327109369
 21
155.7534742965758
 31
0.0
  0
LINE
  5
7010
330
18
100
AcDbEntity
  8
0
100
AcDbLine
 10
362.3939327109369
 20
184.7534742965758
 30
0.0
 11
362.3939327109369
 21
153.7534742965758
 31
0.0
  0
LINE
  5
7011
330
18
100
AcDbEntity
  8
0
100
AcDbLine
 10
350.3939327109369
 20
110.7534742965758
 30
0.0
 11
350.3939327109369
 21
130.7534742965758
 31
0.0
  0
LINE
  5
7012
330
18
100
AcDbEntity
  8
0
100
AcDbLine
 10
355.3939327109369
 20
110.7534742965758
 30
0.0
 11
355.3939327109369
 21
130.7534742965758
 31
0.0
  0
LINE
  5
7013
330
18
100
AcDbEntity
  8
0
100
AcDbLine
 10
360.3939327109369
 20
110.7534742965758
 30
0.0
 11
360.3939327109369
 21
130.7534742965758
 31
0.0
  0
LINE
  5
7014
330
18
100
AcDbEntity
  8
0
100
AcDbLine
 10
360.3939327109369
 20
110.7534742965758
 30
0.0
 11
355.3939327109369
 21
110.7534742965758
 31
0.0
  0
LINE
  5
7015
330
18
100
AcDbEntity
  8
0
100
AcDbLine
 10
360.3939327109369
 20
130.7534742965758
 30
0.0
 11
355.3939327109369
 21
130.7534742965758
 31
0.0
  0
LINE
  5
7017
330
18
100
AcDbEntity
  8
0
100
AcDbLine
 10
355.3939327109369
 20
135.7534742965758
 30
0.0
 11
355.3939327109369
 21
155.7534742965758
 31
0.0
  0
LINE
  5
7018
330
18
100
AcDbEntity
  8
0
100
AcDbLine
 10
350.3939327109369
 20
135.7534742965758
 30
0.0
 11
350.3939327109369
 21
155.7534742965758
 31
0.0
  0
LINE
  5
7019
330
18
100
AcDbEntity
  8
0
100
AcDbLine
 10
360.3939327109369
 20
135.7534742965758
 30
0.0
 11
360.3939327109369
 21
155.7534742965758
 31
0.0
  0
LINE
  5
701A
330
18
100
AcDbEntity
  8
0
100
AcDbLine
 10
360.3939327109369
 20
135.7534742965758
 30
0.0
 11
355.3939327109369
 21
135.7534742965758
 31
0.0
  0
LINE
  5
701B
330
18
100
AcDbEntity
  8
0
100
AcDbLine
 10
360.3939327109369
 20
155.7534742965758
 30
0.0
 11
355.3939327109369
 21
155.7534742965758
 31
0.0
  0
LINE
  5
701C
330
18
100
AcDbEntity
  8
0
100
AcDbLine
 10
365.3939327109369
 20
155.7534742965758
 30
0.0
 11
364.3939327109369
 21
155.7534742965758
 31
0.0
  0
LINE
  5
701D
330
18
100
AcDbEntity
  8
0
100
AcDbLine
 10
362.3939327109369
 20
153.7534742965758
 30
0.0
 11
365.3939327109369
 21
153.7534742965758
 31
0.0
  0
LINE
  5
701E
330
18
100
AcDbEntity
  8
0
100
AcDbLine
 10
364.3939327109369
 20
184.7534742965758
 30
0.0
 11
365.3939327109369
 21
184.7534742965758
 31
0.0
  0
LINE
  5
701F
330
18
100
AcDbEntity
  8
0
100
AcDbLine
 10
362.3939327109369
 20
184.7534742965758
 30
0.0
 11
364.3939327109369
 21
184.7534742965756
 31
0.0
  0
LINE
  5
7199
330
18
100
AcDbEntity
  8
0
370
    15
100
AcDbLine
 10
79.86408272010573
 20
311.2278524580979
 30
0.0
 11
79.86408272010573
 21
291.2278524580979
 31
0.0
  0
LINE
  5
719A
330
18
100
AcDbEntity
  8
0
370
    15
100
AcDbLine
 10
72.86408272010572
 20
291.2278524580979
 30
0.0
 11
72.86408272010572
 21
311.2278524580979
 31
0.0
  0
LINE
  5
719B
330
18
100
AcDbEntity
  8
0
370
    15
100
AcDbLine
 10
84.86408272010573
 20
291.2278524580979
 30
0.0
 11
84.86408272010573
 21
311.2278524580979
 31
0.0
  0
LINE
  5
719C
330
18
100
AcDbEntity
  8
0
370
    15
100
AcDbLine
 10
82.86408272010573
 20
291.2278524580979
 30
0.0
 11
76.86408272010573
 21
291.2278524580979
 31
0.0
  0
LINE
  5
719E
330
18
100
AcDbEntity
  8
0
370
    15
100
AcDbLine
 10
78.13476533218869
 20
290.2941248513852
 30
0.0
 11
80.96319245693536
 21
287.465697726639
 31
0.0
  0
LINE
  5
719F
330
18
100
AcDbEntity
  8
0
370
    15
100
AcDbLine
 10
78.84187211337536
 20
291.0012316325719
 30
0.0
 11
81.67029923812203
 21
288.1728045078257
 31
0.0
  0
LWPOLYLINE
  5
71A2
330
18
100
AcDbEntity
  8
0
370
    15
100
AcDbPolyline
 90
        4
 70
     1
 43
0.0
 10
73.86408272010573
 20
298.7278524580979
 10
78.86408272010573
 20
298.7278524580979
 10
78.86408272010573
 20
295.7278524580979
 10
73.86408272010573
 20
295.7278524580979
  0
LINE
  5
71A3
330
18
100
AcDbEntity
  8
0
370
    15
100
AcDbLine
 10
74.36408272010573
 20
298.2278524580978
 30
0.0
 11
74.36408272010573
 21
296.2278524580979
 31
0.0
  0
LINE
  5
71A4
330
18
100
AcDbEntity
  8
0
370
    15
100
AcDbLine
 10
77.36408272010573
 20
296.2278524580979
 30
0.0
 11
77.36408272010573
 21
298.2278524580978
 31
0.0
  0
LINE
  5
71A5
330
18
100
AcDbEntity
  8
0
370
    15
100
AcDbLine
 10
77.36408272010573
 20
294.2278524580979
 30
0.0
 11
74.36408272010573
 21
294.2278524580979
 31
0.0
  0
LINE
  5
71A6
330
18
100
AcDbEntity
  8
0
370
    15
100
AcDbLine
 10
74.36408272010573
 20
292.2278524580979
 30
0.0
 11
77.36408272010573
 21
292.2278524580979
 31
0.0
  0
LINE
  5
71A7
330
18
100
AcDbEntity
  8
0
370
    15
100
AcDbLine
 10
74.36408272010573
 20
296.2278524580979
 30
0.0
 11
77.36408272010573
 21
296.2278524580979
 31
0.0
  0
LINE
  5
71A8
330
18
100
AcDbEntity
  8
0
370
    15
100
AcDbLine
 10
76.86408272010573
 20
291.2278524580979
 30
0.0
 11
72.86408272010572
 21
291.2278524580979
 31
0.0
  0
LWPOLYLINE
  5
71A9
330
18
100
AcDbEntity
  8
0
370
    15
100
AcDbPolyline
 90
        4
 70
     1
 43
0.0
 10
73.86408272010573
 20
294.7278524580979
 10
78.86408272010573
 20
294.7278524580979
 10
78.86408272010573
 20
291.7278524580979
 10
73.86408272010573
 20
291.7278524580979
  0
LINE
  5
71AA
330
18
100
AcDbEntity
  8
0
370
    15
100
AcDbLine
 10
73.86408272010573
 20
294.7278524580979
 30
0.0
 11
74.36408272010573
 21
294.2278524580979
 31
0.0
  0
LINE
  5
71AB
330
18
100
AcDbEntity
  8
0
370
    15
100
AcDbLine
 10
73.86408272010573
 20
295.7278524580979
 30
0.0
 11
74.36408272010573
 21
296.2278524580979
 31
0.0
  0
LINE
  5
71AC
330
18
100
AcDbEntity
  8
0
370
    15
100
AcDbLine
 10
74.36408272010573
 20
294.2278524580979
 30
0.0
 11
74.36408272010573
 21
292.2278524580979
 31
0.0
  0
LINE
  5
71AD
330
18
100
AcDbEntity
  8
0
370
    15
100
AcDbLine
 10
73.86408272010573
 20
291.7278524580979
 30
0.0
 11
74.36408272010573
 21
292.2278524580979
 31
0.0
  0
LINE
  5
71AE
330
18
100
AcDbEntity
  8
0
370
    15
100
AcDbLine
 10
77.36408272010573
 20
294.2278524580979
 30
0.0
 11
78.86408272010573
 21
294.7278524580979
 31
0.0
  0
LINE
  5
71AF
330
18
100
AcDbEntity
  8
0
370
    15
100
AcDbLine
 10
77.36408272010573
 20
296.2278524580979
 30
0.0
 11
78.86408272010573
 21
295.7278524580979
 31
0.0
  0
LINE
  5
71B0
330
18
100
AcDbEntity
  8
0
370
    15
100
AcDbLine
 10
77.36408272010573
 20
292.2278524580979
 30
0.0
 11
77.36408272010573
 21
294.2278524580979
 31
0.0
  0
LINE
  5
71B1
330
18
100
AcDbEntity
  8
0
370
    15
100
AcDbLine
 10
77.36408272010573
 20
292.2278524580979
 30
0.0
 11
78.86408272010573
 21
291.7278524580979
 31
0.0
  0
LWPOLYLINE
  5
71B2
330
18
100
AcDbEntity
  8
0
370
    15
100
AcDbPolyline
 90
        4
 70
     1
 43
0.0
 10
73.86408272010573
 20
302.7278524580979
 10
78.86408272010573
 20
302.7278524580979
 10
78.86408272010573
 20
299.7278524580979
 10
73.86408272010573
 20
299.7278524580979
  0
LINE
  5
71B3
330
18
100
AcDbEntity
  8
0
370
    15
100
AcDbLine
 10
74.36408272010573
 20
300.2278524580979
 30
0.0
 11
77.36408272010573
 21
300.2278524580979
 31
0.0
  0
LINE
  5
71B4
330
18
100
AcDbEntity
  8
0
370
    15
100
AcDbLine
 10
77.36408272010573
 20
298.2278524580978
 30
0.0
 11
74.36408272010573
 21
298.2278524580978
 31
0.0
  0
LWPOLYLINE
  5
71B5
330
18
100
AcDbEntity
  8
0
370
    15
100
AcDbPolyline
 90
        4
 70
     1
 43
0.0
 10
73.86408272010573
 20
306.7278524580979
 10
78.86408272010573
 20
306.7278524580979
 10
78.86408272010573
 20
303.7278524580979
 10
73.86408272010573
 20
303.7278524580979
  0
LINE
  5
71B6
330
18
100
AcDbEntity
  8
0
370
    15
100
AcDbLine
 10
77.36408272010573
 20
306.2278524580979
 30
0.0
 11
74.36408272010573
 21
306.2278524580979
 31
0.0
  0
LINE
  5
71B7
330
18
100
AcDbEntity
  8
0
370
    15
100
AcDbLine
 10
74.36408272010573
 20
304.2278524580979
 30
0.0
 11
77.36408272010573
 21
304.2278524580979
 31
0.0
  0
LINE
  5
71B8
330
18
100
AcDbEntity
  8
0
370
    15
100
AcDbLine
 10
77.36408272010573
 20
302.2278524580979
 30
0.0
 11
74.36408272010573
 21
302.2278524580979
 31
0.0
  0
LINE
  5
71B9
330
18
100
AcDbEntity
  8
0
370
    15
100
AcDbLine
 10
74.36408272010573
 20
302.2278524580979
 30
0.0
 11
74.36408272010573
 21
300.2278524580979
 31
0.0
  0
LINE
  5
71BA
330
18
100
AcDbEntity
  8
0
370
    15
100
AcDbLine
 10
73.86408272010573
 20
298.7278524580979
 30
0.0
 11
74.36408272010573
 21
298.2278524580978
 31
0.0
  0
LINE
  5
71BB
330
18
100
AcDbEntity
  8
0
370
    15
100
AcDbLine
 10
73.86408272010573
 20
299.7278524580979
 30
0.0
 11
74.36408272010573
 21
300.2278524580979
 31
0.0
  0
LINE
  5
71BC
330
18
100
AcDbEntity
  8
0
370
    15
100
AcDbLine
 10
73.86408272010573
 20
302.7278524580979
 30
0.0
 11
74.36408272010573
 21
302.2278524580979
 31
0.0
  0
LINE
  5
71BD
330
18
100
AcDbEntity
  8
0
370
    15
100
AcDbLine
 10
73.86408272010573
 20
303.7278524580979
 30
0.0
 11
74.36408272010573
 21
304.2278524580979
 31
0.0
  0
LINE
  5
71BE
330
18
100
AcDbEntity
  8
0
370
    15
100
AcDbLine
 10
73.86408272010573
 20
306.7278524580979
 30
0.0
 11
74.36408272010573
 21
306.2278524580979
 31
0.0
  0
LINE
  5
71BF
330
18
100
AcDbEntity
  8
0
370
    15
100
AcDbLine
 10
74.36408272010573
 20
306.2278524580979
 30
0.0
 11
74.36408272010573
 21
304.2278524580979
 31
0.0
  0
LINE
  5
71C0
330
18
100
AcDbEntity
  8
0
370
    15
100
AcDbLine
 10
77.36408272010573
 20
300.2278524580979
 30
0.0
 11
77.36408272010573
 21
302.2278524580979
 31
0.0
  0
LINE
  5
71C1
330
18
100
AcDbEntity
  8
0
370
    15
100
AcDbLine
 10
77.36408272010573
 20
298.2278524580978
 30
0.0
 11
78.86408272010573
 21
298.7278524580979
 31
0.0
  0
LINE
  5
71C2
330
18
100
AcDbEntity
  8
0
370
    15
100
AcDbLine
 10
77.36408272010573
 20
300.2278524580979
 30
0.0
 11
78.86408272010573
 21
299.7278524580979
 31
0.0
  0
LINE
  5
71C3
330
18
100
AcDbEntity
  8
0
370
    15
100
AcDbLine
 10
77.36408272010573
 20
302.2278524580979
 30
0.0
 11
78.86408272010573
 21
302.7278524580979
 31
0.0
  0
LINE
  5
71C4
330
18
100
AcDbEntity
  8
0
370
    15
100
AcDbLine
 10
77.36408272010573
 20
304.2278524580979
 30
0.0
 11
78.86408272010573
 21
303.7278524580979
 31
0.0
  0
LINE
  5
71C5
330
18
100
AcDbEntity
  8
0
370
    15
100
AcDbLine
 10
77.36408272010573
 20
306.2278524580979
 30
0.0
 11
78.86408272010573
 21
306.7278524580979
 31
0.0
  0
LINE
  5
71C6
330
18
100
AcDbEntity
  8
0
370
    15
100
AcDbLine
 10
77.36408272010573
 20
304.2278524580979
 30
0.0
 11
77.36408272010573
 21
306.2278524580979
 31
0.0
  0
LINE
  5
71C8
330
18
100
AcDbEntity
  8
0
370
    15
100
AcDbLine
 10
82.86408272010573
 20
291.2278524580979
 30
0.0
 11
84.86408272010573
 21
291.2278524580979
 31
0.0
  0
LINE
  5
71C9
330
18
100
AcDbEntity
  8
0
370
    15
100
AcDbLine
 10
82.86408272010573
 20
311.2278524580979
 30
0.0
 11
76.86408272010573
 21
311.2278524580979
 31
0.0
  0
LINE
  5
71CB
330
18
100
AcDbEntity
  8
0
370
    15
100
AcDbLine
 10
78.13476533218869
 20
314.2373023306276
 30
0.0
 11
80.96319245693536
 21
311.4088752058814
 31
0.0
  0
LINE
  5
71CC
330
18
100
AcDbEntity
  8
0
370
    15
100
AcDbLine
 10
78.84187211337536
 20
314.9444091118143
 30
0.0
 11
81.67029923812203
 21
312.1159819870681
 31
0.0
  0
LWPOLYLINE
  5
71CE
330
18
100
AcDbEntity
  8
0
370
    15
100
AcDbPolyline
 90
        4
 70
     1
 43
0.0
 10
73.86408272010573
 20
310.7278524580979
 10
78.86408272010573
 20
310.7278524580979
 10
78.86408272010573
 20
307.7278524580979
 10
73.86408272010573
 20
307.7278524580979
  0
LINE
  5
71CF
330
18
100
AcDbEntity
  8
0
370
    15
100
AcDbLine
 10
77.36408272010573
 20
310.2278524580979
 30
0.0
 11
74.36408272010573
 21
310.2278524580979
 31
0.0
  0
LINE
  5
71D0
330
18
100
AcDbEntity
  8
0
370
    15
100
AcDbLine
 10
74.36408272010573
 20
308.2278524580979
 30
0.0
 11
77.36408272010573
 21
308.2278524580979
 31
0.0
  0
LINE
  5
71D1
330
18
100
AcDbEntity
  8
0
370
    15
100
AcDbLine
 10
72.86408272010572
 20
311.2278524580979
 30
0.0
 11
76.86408272010573
 21
311.2278524580979
 31
0.0
  0
LINE
  5
71D2
330
18
100
AcDbEntity
  8
0
370
    15
100
AcDbLine
 10
73.86408272010573
 20
307.7278524580979
 30
0.0
 11
74.36408272010573
 21
308.2278524580979
 31
0.0
  0
LINE
  5
71D3
330
18
100
AcDbEntity
  8
0
370
    15
100
AcDbLine
 10
73.86408272010573
 20
310.7278524580979
 30
0.0
 11
74.36408272010573
 21
310.2278524580979
 31
0.0
  0
LINE
  5
71D4
330
18
100
AcDbEntity
  8
0
370
    15
100
AcDbLine
 10
74.36408272010573
 20
310.2278524580979
 30
0.0
 11
74.36408272010573
 21
308.2278524580979
 31
0.0
  0
LINE
  5
71D6
330
18
100
AcDbEntity
  8
0
370
    15
100
AcDbLine
 10
77.36408272010573
 20
308.2278524580979
 30
0.0
 11
78.86408272010573
 21
307.7278524580979
 31
0.0
  0
LINE
  5
71D7
330
18
100
AcDbEntity
  8
0
370
    15
100
AcDbLine
 10
77.36408272010573
 20
310.2278524580979
 30
0.0
 11
78.86408272010573
 21
310.7278524580979
 31
0.0
  0
LINE
  5
71D8
330
18
100
AcDbEntity
  8
0
370
    15
100
AcDbLine
 10
77.36408272010573
 20
308.2278524580979
 30
0.0
 11
77.36408272010573
 21
310.2278524580979
 31
0.0
  0
LINE
  5
71DA
330
18
100
AcDbEntity
  8
0
370
    15
100
AcDbLine
 10
84.86408272010573
 20
311.2278524580979
 30
0.0
 11
82.86408272010573
 21
311.2278524580979
 31
0.0
  0
MTEXT
  5
71E6
330
18
100
AcDbEntity
  8
0
100
AcDbMText
 10
81.94564127587979
 20
386.0957529809896
 30
0.0
 40
2.5
 41
0.0
 71
     5
 72
     5
  1
{\fＭＳ ゴシック|b0|i0|c128|p49;x 10}
  7
MSｺﾞｼｯｸ
 73
     1
 44
1.0
  0
MTEXT
  5
71E7
330
18
100
AcDbEntity
  8
0
100
AcDbMText
 10
81.6068688578432
 20
366.1730512004553
 30
0.0
 40
2.5
 41
5.8155
 71
     5
 72
     5
  1
{\fＭＳ ゴシック|b0|i0|c128|p49;RATE}
  7
MSｺﾞｼｯｸ
 73
     1
 44
1.0
  0
MTEXT
  5
71E8
330
18
100
AcDbEntity
  8
0
100
AcDbMText
 10
81.59265946476603
 20
357.8766620848084
 30
0.0
 40
2.5
 41
7.504299999999999
 71
     5
 72
     5
  1
{\fＭＳ ゴシック|b0|i0|c128|p49;TB3}
  7
MSｺﾞｼｯｸ
 73
     1
 44
1.0
  0
MTEXT
  5
71E9
330
18
100
AcDbEntity
  8
0
100
AcDbMText
 10
81.42617239718106
 20
376.2545888924963
 30
0.0
 40
2.5
 41
0.0
 71
     5
 72
     5
  1
{\fＭＳ ゴシック|b0|i0|c128|p49;x 1}
  7
MSｺﾞｼｯｸ
 73
     1
 44
1.0
  0
MTEXT
  5
71EA
330
18
100
AcDbEntity
  8
0
100
AcDbMText
 10
74.81473721988891
 20
411.5876044289952
 30
0.0
 40
3.5
 41
16.4792
 71
     1
 72
     5
  1
CC-Link
  7
MSｺﾞｼｯｸ
 73
     1
 44
1.0
  0
LWPOLYLINE
  5
71EB
330
18
100
AcDbEntity
  8
0
100
AcDbPolyline
 90
        8
 70
     1
 43
0.0
 10
75.19077938992609
 20
414.2038557630379
 10
90.09391028375899
 20
414.2038557630379
 42
-0.4142135623730951
 10
91.29391028375971
 20
413.0038557630379
 10
91.29391028375971
 20
406.6211111144845
 42
-0.4142135623730906
 10
90.09391028375899
 20
405.4211111144844
 10
75.19077938992609
 20
405.4211111144844
 42
-0.4142135623730951
 10
73.99077938992627
 20
406.6211111144843
 10
73.99077938992537
 20
413.0038557630379
 42
-0.4142135623730984
  0
MTEXT
  5
71EC
330
18
100
AcDbEntity
  8
0
100
AcDbMText
 10
82.09124888447536
 20
394.7036195523073
 30
0.0
 40
2.5
 41
0.0
 71
     5
 72
     5
  1
{\fＭＳ ゴシック|b0|i0|c128|p49;ST No.}
  7
MSｺﾞｼｯｸ
 73
     1
 44
1.0
  0
MTEXT
  5
71F3
330
18
100
AcDbEntity
  8
0
100
AcDbMText
 10
80.88621291879462
 20
250.7268233839959
 30
0.0
 40
2.5
 41
0.0
 71
     5
 72
     5
  1
{\fＭＳ ゴシック|b0|i0|c128|p49;RD/SD}
  7
MSｺﾞｼｯｸ
 73
     1
 44
1.0
  0
MTEXT
  5
71F4
330
18
100
AcDbEntity
  8
0
100
AcDbMText
 10
82.22677813074847
 20
256.635104780342
 30
0.0
 40
2.5
 41
0.0
 71
     5
 72
     5
  1
{\fＭＳ ゴシック|b0|i0|c128|p49;L ERR/L RUN}
  7
MSｺﾞｼｯｸ
 73
     1
 44
1.0
  0
LINE
  5
71F7
330
18
100
AcDbEntity
  8
0
100
AcDbLine
 10
76.86408272010573
 20
311.2278524580979
 30
0.0
 11
76.86408272010573
 21
354.2896644818059
 31
0.0
  0
LINE
  5
71F8
330
18
100
AcDbEntity
  8
0
100
AcDbLine
 10
75.26408272010582
 20
291.2278524580979
 30
0.0
 11
75.26408272010582
 21
263.2896644818061
 31
0.0
  0
LINE
  5
71F9
330
18
100
AcDbEntity
  8
0
100
AcDbLine
 10
76.86408272010573
 20
291.2278524580979
 30
0.0
 11
76.86408272010573
 21
286.4778524580979
 31
0.0
  0
LINE
  5
733A
330
18
100
AcDbEntity
  8
0
100
AcDbLine
 10
31.19741605343915
 20
257.2076755843348
 30
0.0
 11
31.19741605343915
 21
259.1229978151398
 31
0.0
  0
LINE
  5
733B
330
18
100
AcDbEntity
  8
0
100
AcDbLine
 10
32.53074938677253
 20
257.2076755843348
 30
0.0
 11
32.53074938677253
 21
259.1229978151398
 31
0.0
  0
CIRCLE
  5
733C
330
18
100
AcDbEntity
  8
0
100
AcDbCircle
 10
31.86408272010578
 20
259.7896644818065
 30
0.0
 40
4.0
  0
CIRCLE
  5
733D
330
18
100
AcDbEntity
  8
0
100
AcDbCircle
 10
31.86408272010578
 20
259.7896644818065
 30
0.0
 40
3.333333333333333
  0
ARC
  5
733E
330
18
100
AcDbEntity
  8
0
100
AcDbCircle
 10
31.86408272010578
 20
259.7896644818065
 30
0.0
 40
2.666666666666666
100
AcDbArc
 50
255.5224878140716
 51
284.4775121859282
  0
ARC
  5
733F
330
18
100
AcDbEntity
  8
0
100
AcDbCircle
 10
31.86408272010578
 20
259.7896644818065
 30
0.0
 40
2.666666666666666
100
AcDbArc
 50
75.52248781407172
 51
104.4775121859282
  0
LINE
  5
7340
330
18
100
AcDbEntity
  8
0
100
AcDbLine
 10
31.19741605343915
 20
260.4563311484732
 30
0.0
 11
31.19741605343915
 21
262.3716533792782
 31
0.0
  0
ARC
  5
7341
330
18
100
AcDbEntity
  8
0
100
AcDbCircle
 10
31.86408272010578
 20
259.7896644818065
 30
0.0
 40
2.666666666666666
100
AcDbArc
 50
165.5224878140701
 51
194.4775121859299
  0
LINE
  5
7342
330
18
100
AcDbEntity
  8
0
100
AcDbLine
 10
29.28209382263469
 20
260.4563311484732
 30
0.0
 11
31.19741605343915
 21
260.4563311484732
 31
0.0
  0
LINE
  5
7343
330
18
100
AcDbEntity
  8
0
100
AcDbLine
 10
29.28209382263469
 20
259.1229978151398
 30
0.0
 11
31.19741605343915
 21
259.1229978151398
 31
0.0
  0
LINE
  5
7344
330
18
100
AcDbEntity
  8
0
100
AcDbLine
 10
32.53074938677253
 20
260.4563311484732
 30
0.0
 11
34.44607161757756
 21
260.4563311484732
 31
0.0
  0
LINE
  5
7345
330
18
100
AcDbEntity
  8
0
100
AcDbLine
 10
32.53074938677253
 20
260.4563311484732
 30
0.0
 11
32.53074938677253
 21
262.3716533792782
 31
0.0
  0
LINE
  5
7346
330
18
100
AcDbEntity
  8
0
100
AcDbLine
 10
32.53074938677253
 20
259.1229978151398
 30
0.0
 11
34.44607161757756
 21
259.1229978151398
 31
0.0
  0
ARC
  5
7347
330
18
100
AcDbEntity
  8
0
100
AcDbCircle
 10
31.86408272010578
 20
259.7896644818065
 30
0.0
 40
2.666666666666666
100
AcDbArc
 50
345.52248781407
 51
14.47751218592991
  0
LINE
  5
76A6
330
18
100
AcDbEntity
  8
0
100
AcDbLine
 10
22.36408272010578
 20
415.8846644818055
 30
0.0
 11
33.96408272010591
 21
415.8846644818066
 31
0.0
  0
LINE
  5
76A8
330
18
100
AcDbEntity
  8
0
100
AcDbLine
 10
22.36408272010578
 20
415.8846644818055
 30
0.0
 11
22.36408272010578
 21
409.5896644818065
 31
0.0
  0
LINE
  5
76A9
330
18
100
AcDbEntity
  8
0
100
AcDbLine
 10
22.36408272010578
 20
394.8846644818075
 30
0.0
 11
33.96408272010566
 21
394.8846644818065
 31
0.0
  0
INSERT
  5
76AB
330
18
100
AcDbEntity
  8
0
100
AcDbBlockReference
  2
VORDANS1
 10
20.56408272010583
 20
396.3796644818065
 30
0.0
  0
LINE
  5
76AC
330
18
100
AcDbEntity
  8
0
100
AcDbLine
 10
22.36408272010578
 20
401.1796644818065
 30
0.0
 11
22.36408272010578
 21
394.8846644818075
 31
0.0
  0
LINE
  5
76B5
330
18
100
AcDbEntity
  8
0
100
AcDbLine
 10
23.96408272010583
 20
394.8846644818073
 30
0.0
 11
23.96408272010582
 21
401.1796644818065
 31
0.0
  0
LINE
  5
76B6
330
18
100
AcDbEntity
  8
0
100
AcDbLine
 10
23.96408272010581
 20
409.5896644818065
 30
0.0
 11
23.96408272010581
 21
415.8846644818057
 31
0.0
  0
LINE
  5
7780
330
18
100
AcDbEntity
  8
0
100
AcDbLine
 10
186.0939328449117
 20
405.6596642497557
 30
0.0
 11
186.3939328449117
 21
405.6596642497557
 31
0.0
  0
LINE
  5
7783
330
18
100
AcDbEntity
  8
0
100
AcDbLine
 10
186.3939328449117
 20
405.1096642497557
 30
0.0
 11
186.0939328449117
 21
405.1096642497557
 31
0.0
  0
LINE
  5
778C
330
18
100
AcDbEntity
  8
0
100
AcDbLine
 10
186.3939328449117
 20
402.0046642497557
 30
0.0
 11
186.3939328449117
 21
401.1796642497556
 31
0.0
  0
LINE
  5
778E
330
18
100
AcDbEntity
  8
0
100
AcDbLine
 10
178.0939328449117
 20
409.5896642497557
 30
0.0
 11
178.0939328449117
 21
401.1796642497556
 31
0.0
  0
LINE
  5
778F
330
18
100
AcDbEntity
  8
0
100
AcDbLine
 10
178.8939328449117
 20
409.5896642497557
 30
0.0
 11
178.8939328449117
 21
401.1796642497556
 31
0.0
  0
LINE
  5
7790
330
18
100
AcDbEntity
  8
0
100
AcDbLine
 10
176.8939328449117
 20
401.1796642497556
 30
0.0
 11
176.8939328449117
 21
409.5896642497557
 31
0.0
  0
LINE
  5
7791
330
18
100
AcDbEntity
  8
0
100
AcDbLine
 10
184.9939328449117
 20
401.1796642497556
 30
0.0
 11
179.4939328449117
 21
401.1796642497556
 31
0.0
  0
LINE
  5
7792
330
18
100
AcDbEntity
  8
0
100
AcDbLine
 10
184.4039328449131
 20
402.131369029859
 30
0.0
 11
184.4039328449117
 21
401.9796642497557
 31
0.0
  0
LINE
  5
7793
330
18
100
AcDbEntity
  8
0
100
AcDbLine
 10
184.4039328449117
 20
401.9796642497557
 30
0.0
 11
183.9039328449117
 21
401.9796642497557
 31
0.0
  0
LINE
  5
7794
330
18
100
AcDbEntity
  8
0
100
AcDbLine
 10
178.8939328449117
 20
401.1796642497556
 30
0.0
 11
179.1121397761501
 21
401.1796642497556
 31
0.0
  0
LINE
  5
7795
330
18
100
AcDbEntity
  8
0
100
AcDbLine
 10
178.0939328449117
 20
401.1796642497556
 30
0.0
 11
178.8939328449117
 21
401.1796642497556
 31
0.0
  0
LINE
  5
7796
330
18
100
AcDbEntity
  8
0
100
AcDbLine
 10
179.1939328449117
 20
401.1796642497556
 30
0.0
 11
179.4939328449117
 21
401.1796642497556
 31
0.0
  0
LINE
  5
7797
330
18
100
AcDbEntity
  8
0
100
AcDbLine
 10
179.1939328449117
 20
401.1796642497556
 30
0.0
 11
179.1121397761501
 21
401.1796642497556
 31
0.0
  0
LINE
  5
7798
330
18
100
AcDbEntity
  8
0
100
AcDbLine
 10
185.4939328449117
 20
401.1796642497556
 30
0.0
 11
185.4939328449117
 21
401.9796642497557
 31
0.0
  0
LINE
  5
7799
330
18
100
AcDbEntity
  8
0
100
AcDbLine
 10
184.9939328449117
 20
401.9796642497557
 30
0.0
 11
185.4939328449117
 21
401.9796642497557
 31
0.0
  0
LINE
  5
779A
330
18
100
AcDbEntity
  8
0
100
AcDbLine
 10
184.4039328449117
 20
401.9796642497557
 30
0.0
 11
184.9939328449117
 21
401.9796642497557
 31
0.0
  0
LINE
  5
779B
330
18
100
AcDbEntity
  8
0
100
AcDbLine
 10
185.4939328449117
 20
401.1796642497556
 30
0.0
 11
184.9939328449117
 21
401.1796642497556
 31
0.0
  0
LINE
  5
779C
330
18
100
AcDbEntity
  8
0
100
AcDbLine
 10
177.4939328449118
 20
401.1796642497556
 30
0.0
 11
178.0939328449117
 21
401.1796642497556
 31
0.0
  0
LINE
  5
779D
330
18
100
AcDbEntity
  8
0
100
AcDbLine
 10
177.3939328449118
 20
401.1796642497556
 30
0.0
 11
177.4939328449118
 21
401.1796642497556
 31
0.0
  0
LINE
  5
779E
330
18
100
AcDbEntity
  8
0
100
AcDbLine
 10
177.1939328449117
 20
401.1796642497556
 30
0.0
 11
176.8939328449117
 21
401.1796642497556
 31
0.0
  0
LINE
  5
779F
330
18
100
AcDbEntity
  8
0
100
AcDbLine
 10
177.1939328449117
 20
401.1796642497556
 30
0.0
 11
177.3939328449118
 21
401.1796642497556
 31
0.0
  0
LINE
  5
77A0
330
18
100
AcDbEntity
  8
0
100
AcDbLine
 10
177.1939328449117
 20
409.5896642497557
 30
0.0
 11
176.8939328449117
 21
409.5896642497557
 31
0.0
  0
LINE
  5
77A1
330
18
100
AcDbEntity
  8
0
100
AcDbLine
 10
177.4939328449118
 20
409.5896642497557
 30
0.0
 11
177.3939328449118
 21
409.5896642497557
 31
0.0
  0
LINE
  5
77A2
330
18
100
AcDbEntity
  8
0
100
AcDbLine
 10
186.393932710937
 20
405.3846644818064
 30
0.0
 11
185.6439318449117
 21
405.1837023554323
 31
0.0
  0
LINE
  5
77A3
330
18
100
AcDbEntity
  8
0
100
AcDbLine
 10
186.393932710937
 20
405.3846644818064
 30
0.0
 11
185.6439318449117
 21
405.5856261440791
 31
0.0
  0
LINE
  5
77A4
330
18
100
AcDbEntity
  8
0
100
AcDbLine
 10
185.6439318449117
 20
405.5856261440791
 30
0.0
 11
185.6439318449117
 21
405.1837023554323
 31
0.0
  0
LINE
  5
77A5
330
18
100
AcDbEntity
  8
0
100
AcDbLine
 10
184.9939328449117
 20
408.7896642497557
 30
0.0
 11
185.4939328449117
 21
408.7896642497557
 31
0.0
  0
LINE
  5
77A6
330
18
100
AcDbEntity
  8
0
100
AcDbLine
 10
184.4039328449117
 20
408.7896642497557
 30
0.0
 11
184.9939328449117
 21
408.7896642497557
 31
0.0
  0
LINE
  5
77A7
330
18
100
AcDbEntity
  8
0
100
AcDbLine
 10
181.9966715532694
 20
402.3288495675201
 30
0.0
 11
183.9447475271472
 21
404.2769255413979
 31
0.0
  0
LINE
  5
77A8
330
18
100
AcDbEntity
  8
0
100
AcDbLine
 10
184.4039328449117
 20
408.6379594696537
 30
0.0
 11
184.4039328449117
 21
408.7896642497557
 31
0.0
  0
LINE
  5
77A9
330
18
100
AcDbEntity
  8
0
100
AcDbLine
 10
183.9039328449117
 20
408.7896642497557
 30
0.0
 11
184.4039328449117
 21
408.7896642497557
 31
0.0
  0
LINE
  5
77AA
330
18
100
AcDbEntity
  8
0
100
AcDbLine
 10
184.4039328449117
 20
404.8279594696537
 30
0.0
 11
184.4039328449193
 21
405.9413690298658
 31
0.0
  0
LINE
  5
77AB
330
18
100
AcDbEntity
  8
0
100
AcDbLine
 10
183.5911941365539
 20
404.6304789319912
 30
0.0
 11
181.6431181626761
 21
402.6824029581134
 31
0.0
  0
LINE
  5
77AC
330
18
100
AcDbEntity
  8
0
100
AcDbLine
 10
178.0939328449117
 20
409.5896642497557
 30
0.0
 11
177.4939328449118
 21
409.5896642497557
 31
0.0
  0
LINE
  5
77AD
330
18
100
AcDbEntity
  8
0
100
AcDbLine
 10
185.4939328449117
 20
408.7896642497557
 30
0.0
 11
185.4939328449117
 21
409.5896642497557
 31
0.0
  0
LINE
  5
77AE
330
18
100
AcDbEntity
  8
0
100
AcDbLine
 10
185.4939328449117
 20
409.5896642497557
 30
0.0
 11
184.9939328449117
 21
409.5896642497557
 31
0.0
  0
LINE
  5
77AF
330
18
100
AcDbEntity
  8
0
100
AcDbLine
 10
179.1939328449117
 20
409.5896642497557
 30
0.0
 11
179.4939328449117
 21
409.5896642497557
 31
0.0
  0
LINE
  5
77B0
330
18
100
AcDbEntity
  8
0
100
AcDbLine
 10
179.1121397761501
 20
409.5896642497557
 30
0.0
 11
179.1939328449117
 21
409.5896642497557
 31
0.0
  0
LINE
  5
77B1
330
18
100
AcDbEntity
  8
0
100
AcDbLine
 10
178.8939328449117
 20
409.5896642497557
 30
0.0
 11
178.0939328449117
 21
409.5896642497557
 31
0.0
  0
LINE
  5
77B2
330
18
100
AcDbEntity
  8
0
100
AcDbLine
 10
179.1121397761501
 20
409.5896642497557
 30
0.0
 11
178.8939328449117
 21
409.5896642497557
 31
0.0
  0
LINE
  5
77B3
330
18
100
AcDbEntity
  8
0
100
AcDbLine
 10
177.1939328449117
 20
409.5896642497557
 30
0.0
 11
177.3939328449118
 21
409.5896642497557
 31
0.0
  0
LINE
  5
77B4
330
18
100
AcDbEntity
  8
0
100
AcDbLine
 10
179.4939328449117
 20
409.5896642497557
 30
0.0
 11
179.4939328449117
 21
409.8396642497557
 31
0.0
  0
LINE
  5
77B5
330
18
100
AcDbEntity
  8
0
100
AcDbLine
 10
186.3939328449117
 20
414.3896642497557
 30
0.0
 11
186.3939328449117
 21
414.1038070926099
 31
0.0
  0
LINE
  5
77B6
330
18
100
AcDbEntity
  8
0
100
AcDbLine
 10
184.9939328449117
 20
409.5896642497557
 30
0.0
 11
179.4939328449117
 21
409.5896642497557
 31
0.0
  0
LINE
  5
77B7
330
18
100
AcDbEntity
  8
0
100
AcDbLine
 10
179.4939328449117
 20
409.8396642497557
 30
0.0
 11
179.4939328449117
 21
413.3896642497557
 31
0.0
  0
LINE
  5
77B8
330
18
100
AcDbEntity
  8
0
100
AcDbLine
 10
181.9966715532694
 20
406.1388495675201
 30
0.0
 11
183.9447475271472
 21
408.0869255413979
 31
0.0
  0
LINE
  5
77B9
330
18
100
AcDbEntity
  8
0
100
AcDbLine
 10
183.5911941365539
 20
408.4404789319912
 30
0.0
 11
181.6431181626761
 21
406.4924029581134
 31
0.0
  0
LINE
  5
77BA
330
18
100
AcDbEntity
  8
0
100
AcDbLine
 10
182.9939328449117
 20
414.3896642497557
 30
0.0
 11
186.3939328449117
 21
414.3896642497557
 31
0.0
  0
LINE
  5
77BB
330
18
100
AcDbEntity
  8
0
100
AcDbLine
 10
182.6522148739039
 20
414.3896642497557
 30
0.0
 11
182.7831370323336
 21
414.3896642497557
 31
0.0
  0
LINE
  5
77BC
330
18
100
AcDbEntity
  8
0
100
AcDbLine
 10
179.9939328449116
 20
414.3896642497557
 30
0.0
 11
180.2047286574896
 21
414.3896642497557
 31
0.0
  0
LINE
  5
77BD
330
18
100
AcDbEntity
  8
0
100
AcDbLine
 10
179.4939328449117
 20
414.3896642497557
 30
0.0
 11
179.9939328449116
 21
414.3896642497557
 31
0.0
  0
LINE
  5
77BE
330
18
100
AcDbEntity
  8
0
100
AcDbLine
 10
181.3207270017134
 20
414.3896642497557
 30
0.0
 11
181.3496992670291
 21
414.3896642497557
 31
0.0
  0
LINE
  5
77BF
330
18
100
AcDbEntity
  8
0
100
AcDbLine
 10
181.2680280485691
 20
414.3896642497557
 30
0.0
 11
181.2806796983831
 21
414.3896642497557
 31
0.0
  0
LINE
  5
77C0
330
18
100
AcDbEntity
  8
0
100
AcDbLine
 10
181.0923648714208
 20
414.3896642497557
 30
0.0
 11
181.2680280485691
 21
414.3896642497557
 31
0.0
  0
LINE
  5
77C1
330
18
100
AcDbEntity
  8
0
100
AcDbLine
 10
180.2047286574896
 20
414.3896642497557
 30
0.0
 11
180.3168444745239
 21
414.3896642497557
 31
0.0
  0
LINE
  5
77C2
330
18
100
AcDbEntity
  8
0
100
AcDbLine
 10
180.3168444745239
 20
414.3896642497557
 30
0.0
 11
181.0923648714208
 21
414.3896642497557
 31
0.0
  0
LINE
  5
77C3
330
18
100
AcDbEntity
  8
0
100
AcDbLine
 10
181.2806796983831
 20
414.3896642497557
 30
0.0
 11
181.3207270017134
 21
414.3896642497557
 31
0.0
  0
LINE
  5
77C4
330
18
100
AcDbEntity
  8
0
100
AcDbLine
 10
181.3496992670291
 20
414.3896642497557
 30
0.0
 11
181.4387765578165
 21
414.3896642497557
 31
0.0
  0
LINE
  5
77C5
330
18
100
AcDbEntity
  8
0
100
AcDbLine
 10
181.7484789969834
 20
414.3896642497557
 30
0.0
 11
181.7774512622991
 21
414.3896642497557
 31
0.0
  0
LINE
  5
77C6
330
18
100
AcDbEntity
  8
0
100
AcDbLine
 10
181.4387765578165
 20
414.3896642497557
 30
0.0
 11
181.659401706196
 21
414.3896642497557
 31
0.0
  0
LINE
  5
77C7
330
18
100
AcDbEntity
  8
0
100
AcDbLine
 10
181.659401706196
 20
414.3896642497557
 30
0.0
 11
181.7484789969834
 21
414.3896642497557
 31
0.0
  0
LINE
  5
77C8
330
18
100
AcDbEntity
  8
0
100
AcDbLine
 10
181.7774512622991
 20
414.3896642497557
 30
0.0
 11
181.8174985656294
 21
414.3896642497557
 31
0.0
  0
LINE
  5
77C9
330
18
100
AcDbEntity
  8
0
100
AcDbLine
 10
182.0058133925918
 20
414.3896642497557
 30
0.0
 11
182.4941180144705
 21
414.3896642497557
 31
0.0
  0
LINE
  5
77CA
330
18
100
AcDbEntity
  8
0
100
AcDbLine
 10
181.8174985656294
 20
414.3896642497557
 30
0.0
 11
182.0058133925918
 21
414.3896642497557
 31
0.0
  0
LINE
  5
77CB
330
18
100
AcDbEntity
  8
0
100
AcDbLine
 10
182.4941180144705
 20
414.3896642497557
 30
0.0
 11
182.6522148739039
 21
414.3896642497557
 31
0.0
  0
LINE
  5
77CC
330
18
100
AcDbEntity
  8
0
100
AcDbLine
 10
182.7831370323336
 20
414.3896642497557
 30
0.0
 11
182.9939328449117
 21
414.3896642497557
 31
0.0
  0
LINE
  5
77CD
330
18
100
AcDbEntity
  8
0
100
AcDbLine
 10
179.4939328449117
 20
413.7396642497557
 30
0.0
 11
179.4939328449117
 21
413.3896642497557
 31
0.0
  0
LINE
  5
77CE
330
18
100
AcDbEntity
  8
0
100
AcDbLine
 10
179.4939328449117
 20
414.3896642497557
 30
0.0
 11
179.4939328449117
 21
413.7396642497557
 31
0.0
  0
LINE
  5
77CF
330
18
100
AcDbEntity
  8
0
100
AcDbLine
 10
186.3939328449117
 20
413.3896642497557
 30
0.0
 11
186.3939328449117
 21
414.1038070926099
 31
0.0
  0
LINE
  5
77D0
330
18
100
AcDbEntity
  8
0
100
AcDbLine
 10
186.3939328449117
 20
409.5896642497557
 30
0.0
 11
186.3939328449117
 21
410.5396642497557
 31
0.0
  0
LINE
  5
77D2
330
18
100
AcDbEntity
  8
0
100
AcDbLine
 10
186.3939328449117
 20
408.7646642497556
 30
0.0
 11
186.3939328449117
 21
409.5896642497557
 31
0.0
  0
LINE
  5
77D6
330
18
100
AcDbEntity
  8
0
100
AcDbLine
 10
179.4939328449117
 20
397.0296642497556
 30
0.0
 11
179.4939328449117
 21
396.3796642497557
 31
0.0
  0
LINE
  5
77D7
330
18
100
AcDbEntity
  8
0
100
AcDbLine
 10
186.3939328449117
 20
396.3796642497557
 30
0.0
 11
179.4939328449117
 21
396.3796642497557
 31
0.0
  0
LINE
  5
77D8
330
18
100
AcDbEntity
  8
0
100
AcDbLine
 10
186.3939328449117
 20
396.6655214069014
 30
0.0
 11
186.3939328449117
 21
396.3796642497557
 31
0.0
  0
LINE
  5
77D9
330
18
100
AcDbEntity
  8
0
100
AcDbLine
 10
186.3939328449117
 20
397.3796642497557
 30
0.0
 11
186.3939328449117
 21
396.6655214069014
 31
0.0
  0
LINE
  5
77DA
330
18
100
AcDbEntity
  8
0
100
AcDbLine
 10
179.4939328449117
 20
400.9296642497557
 30
0.0
 11
179.4939328449117
 21
397.3796642497557
 31
0.0
  0
LINE
  5
77F8
330
18
100
AcDbEntity
  8
0
100
AcDbLine
 10
186.3939328449117
 20
397.7296642497557
 30
0.0
 11
186.3939328449117
 21
397.3796642497557
 31
0.0
  0
LINE
  5
77FA
330
18
100
AcDbEntity
  8
0
100
AcDbLine
 10
186.3939328449117
 20
401.1796642497556
 30
0.0
 11
186.3939328449117
 21
400.2296642497557
 31
0.0
  0
LINE
  5
7816
330
18
100
AcDbEntity
  8
0
100
AcDbLine
 10
179.4939328449117
 20
401.1796642497556
 30
0.0
 11
179.4939328449117
 21
400.9296642497557
 31
0.0
  0
LINE
  5
7817
330
18
100
AcDbEntity
  8
0
100
AcDbLine
 10
179.4939328449117
 20
397.3796642497557
 30
0.0
 11
179.4939328449117
 21
397.0296642497556
 31
0.0
  0
ARC
  5
7818
330
18
100
AcDbEntity
  8
0
100
AcDbCircle
 10
182.7939328449117
 20
403.4796642497557
 30
0.0
 40
1.45000000000002
100
AcDbArc
 50
180.0
 51
0.0
  0
ARC
  5
7819
330
18
100
AcDbEntity
  8
0
100
AcDbCircle
 10
182.7939328449117
 20
403.4796642497557
 30
0.0
 40
2.100000000000111
100
AcDbArc
 50
320.0554948102407
 51
346.3257176637269
  0
ARC
  5
781A
330
18
100
AcDbEntity
  8
0
100
AcDbCircle
 10
182.7939328449117
 20
403.4796642497557
 30
0.0
 40
2.1
100
AcDbArc
 50
346.3257176637269
 51
0.0
  0
ARC
  5
781B
330
18
100
AcDbEntity
  8
0
100
AcDbCircle
 10
184.8939328449116
 20
403.4796642497557
 30
0.0
 40
0.5000000000000011
100
AcDbArc
 50
263.1628588318638
 51
96.83714116813618
  0
ARC
  5
781C
330
18
100
AcDbEntity
  8
0
100
AcDbCircle
 10
182.7939328449117
 20
407.2896642497556
 30
0.0
 40
2.100000000000006
100
AcDbArc
 50
13.67428233627308
 51
39.94450518981471
  0
ARC
  5
781D
330
18
100
AcDbEntity
  8
0
100
AcDbCircle
 10
182.7939328449117
 20
407.2896642497556
 30
0.0
 40
2.100000000000008
100
AcDbArc
 50
0.0
 51
13.67428233627308
  0
ARC
  5
781E
330
18
100
AcDbEntity
  8
0
100
AcDbCircle
 10
182.7939328449117
 20
407.2896642497556
 30
0.0
 40
2.100000000000008
100
AcDbArc
 50
346.3257176637269
 51
0.0
  0
ARC
  5
781F
330
18
100
AcDbEntity
  8
0
100
AcDbCircle
 10
182.7939328449117
 20
403.4796642497557
 30
0.0
 40
1.400000000000012
100
AcDbArc
 50
235.2865606114744
 51
34.71343938852421
  0
ARC
  5
7820
330
18
100
AcDbEntity
  8
0
100
AcDbCircle
 10
182.7939328449117
 20
403.4796642497557
 30
0.0
 40
1.45000000000002
100
AcDbArc
 50
0.0
 51
180.0
  0
ARC
  5
7821
330
18
100
AcDbEntity
  8
0
100
AcDbCircle
 10
182.7939328449117
 20
403.4796642497557
 30
0.0
 40
2.1
100
AcDbArc
 50
0.0
 51
13.67428233627308
  0
ARC
  5
7822
330
18
100
AcDbEntity
  8
0
100
AcDbCircle
 10
182.7939328449117
 20
407.2896642497556
 30
0.0
 40
1.450000000000028
100
AcDbArc
 50
0.0
 51
180.0
  0
ARC
  5
7823
330
18
100
AcDbEntity
  8
0
100
AcDbCircle
 10
182.7939328449117
 20
407.2896642497556
 30
0.0
 40
1.450000000000014
100
AcDbArc
 50
180.0
 51
0.0
  0
ARC
  5
7824
330
18
100
AcDbEntity
  8
0
100
AcDbCircle
 10
182.7939328449117
 20
407.2896642497556
 30
0.0
 40
1.400000000000012
100
AcDbArc
 50
55.28656061147445
 51
180.0
  0
ARC
  5
7825
330
18
100
AcDbEntity
  8
0
100
AcDbCircle
 10
182.7939328449117
 20
407.2896642497556
 30
0.0
 40
1.400000000000012
100
AcDbArc
 50
180.0
 51
214.7134393885242
  0
ARC
  5
7826
330
18
100
AcDbEntity
  8
0
100
AcDbCircle
 10
182.7939328449117
 20
403.4796642497557
 30
0.0
 40
1.400000000000012
100
AcDbArc
 50
34.71343938852421
 51
55.28656061147445
  0
ARC
  5
7827
330
18
100
AcDbEntity
  8
0
100
AcDbCircle
 10
182.7939328449117
 20
407.2896642497556
 30
0.0
 40
2.100000000000624
100
AcDbArc
 50
320.0554948104905
 51
346.3257176637269
  0
ARC
  5
7828
330
18
100
AcDbEntity
  8
0
100
AcDbCircle
 10
182.7939328449117
 20
403.4796642497557
 30
0.0
 40
2.1
100
AcDbArc
 50
13.67428233627308
 51
39.94450518981471
  0
ARC
  5
7829
330
18
100
AcDbEntity
  8
0
100
AcDbCircle
 10
182.7939328449117
 20
403.4796642497557
 30
0.0
 40
1.400000000000023
100
AcDbArc
 50
55.28656061147445
 51
180.0
  0
ARC
  5
782A
330
18
100
AcDbEntity
  8
0
100
AcDbCircle
 10
182.7939328449117
 20
403.4796642497557
 30
0.0
 40
1.400000000000012
100
AcDbArc
 50
180.0
 51
214.7134393885242
  0
ARC
  5
782B
330
18
100
AcDbEntity
  8
0
100
AcDbCircle
 10
182.7939328449117
 20
403.4796642497557
 30
0.0
 40
1.400000000000024
100
AcDbArc
 50
214.7134393885242
 51
235.2865606114744
  0
ARC
  5
782C
330
18
100
AcDbEntity
  8
0
100
AcDbCircle
 10
184.8939328449117
 20
407.2896642497556
 30
0.0
 40
0.5
100
AcDbArc
 50
0.0
 51
96.83714116813618
  0
ARC
  5
782D
330
18
100
AcDbEntity
  8
0
100
AcDbCircle
 10
184.8939328449117
 20
407.2896642497556
 30
0.0
 40
0.4999999999999998
100
AcDbArc
 50
263.1628588318638
 51
0.0
  0
ARC
  5
782E
330
18
100
AcDbEntity
  8
0
100
AcDbCircle
 10
182.7939328449117
 20
407.2896642497556
 30
0.0
 40
1.400000000000011
100
AcDbArc
 50
235.2865606114744
 51
34.71343938852421
  0
ARC
  5
782F
330
18
100
AcDbEntity
  8
0
100
AcDbCircle
 10
182.7939328449117
 20
407.2896642497556
 30
0.0
 40
1.400000000000008
100
AcDbArc
 50
214.7134393885242
 51
235.2865606114744
  0
ARC
  5
7830
330
18
100
AcDbEntity
  8
0
100
AcDbCircle
 10
182.7939328449117
 20
407.2896642497556
 30
0.0
 40
1.400000000000012
100
AcDbArc
 50
34.71343938852421
 51
55.28656061147445
  0
LWPOLYLINE
  5
7831
330
18
100
AcDbEntity
  8
0
100
AcDbPolyline
 90
        7
 70
     0
 43
0.0
 10
184.4039328449131
 20
402.131369029859
 42
-0.0010357402252054
 10
184.3571536791527
 20
402.1484781554937
 10
184.3034237573022
 20
402.1684048954925
 10
184.2505728849352
 20
402.1883055702158
 42
-0.0054101641983534
 10
184.0442614704313
 20
402.2691180701287
 10
183.9733724764048
 20
402.2981606150328
 10
183.9039328449117
 20
402.3273188154349
  0
LWPOLYLINE
  5
7832
330
18
100
AcDbEntity
  8
0
100
AcDbPolyline
 90
        7
 70
     0
 43
0.0
 38
1.004996417558615E+99
 10
183.9039328449117
 20
406.1373188154349
 42
0.0044011835197963
 10
184.044289736097
 20
406.0791066289207
 10
184.1458185745046
 20
406.0386854269928
 10
184.2505771869888
 20
405.9983039378226
 42
0.0025073429045212
 10
184.3571646371033
 20
405.9584741219573
 10
184.3805398849104
 20
405.9498973618376
 10
184.4039328449193
 20
405.9413690298658
  0
LWPOLYLINE
  5
7833
330
18
100
AcDbEntity
  8
0
100
AcDbPolyline
 90
        7
 70
     0
 43
0.0
 38
1.004996417558615E+99
 10
183.9039328449117
 20
408.4420096840764
 42
-0.0043862742691308
 10
184.0437693175063
 20
408.5000112013124
 10
184.1454378356839
 20
408.5404939307902
 10
184.2504974528738
 20
408.5809943066362
 42
-0.0025025260483379
 10
184.3569590743545
 20
408.6207787094675
 10
184.380437024336
 20
408.6293935194805
 10
184.4039328449117
 20
408.6379594696537
  0
LWPOLYLINE
  5
7834
330
18
100
AcDbEntity
  8
0
100
AcDbPolyline
 90
        7
 70
     0
 43
0.0
 38
1.004996417558615E+99
 10
184.4039328449117
 20
404.8279594696537
 42
0.0010354907219746
 10
184.3571646862628
 20
404.8108543956492
 10
184.3035058774403
 20
404.7909542908518
 10
184.2505772064893
 20
404.771024569088
 42
0.0054090623159217
 10
184.0442898631525
 20
404.6902219220191
 10
183.9731768714133
 20
404.6610867592634
 10
183.9039328449117
 20
404.6320096840764
  0
LWPOLYLINE
  5
7835
330
18
100
AcDbEntity
  8
0
100
AcDbPolyline
 90
        8
 70
     0
 43
0.0
 38
1.004996417558615E+99
 10
186.3939328449117
 20
414.1038070926099
 42
-0.0426465887263262
 10
186.3885268526987
 20
414.0434318249114
 10
186.3780768100742
 20
413.9946457811472
 42
-0.0303643048025655
 10
186.3422825432691
 20
413.8857165085453
 42
-0.0178342398264282
 10
186.2890538960323
 20
413.7625514855839
 10
186.2454410679224
 20
413.6733039524028
 42
-0.007436110675559
 10
186.1464422117663
 20
413.4857935774453
 10
186.0939328449117
 20
413.3896642497557
  0
LWPOLYLINE
  5
7836
330
18
100
AcDbEntity
  8
0
100
AcDbPolyline
 90
        8
 70
     0
 43
0.0
 38
1.004996417558615E+99
 10
186.0939328449117
 20
397.3796642497557
 42
-0.0034483591116001
 10
186.1972428317558
 20
397.1889756336144
 42
-0.0115542971442169
 10
186.288755241463
 20
397.0074131363976
 10
186.3174045031895
 20
396.944085969881
 42
-0.0214451454493749
 10
186.3623678106411
 20
396.8278242746835
 42
-0.0361324550867008
 10
186.3884542022841
 20
396.7263323593828
 10
186.3925565482458
 20
396.6948347896128
 10
186.3939328449117
 20
396.6655214069014
  0
LINE
  5
7890
330
18
100
AcDbEntity
  8
0
100
AcDbLine
 10
182.493932710937
 20
112.3534742965758
 30
0.0
 11
183.093932710937
 21
112.3534742965758
 31
0.0
  0
LINE
  5
7893
330
18
100
AcDbEntity
  8
0
100
AcDbLine
 10
174.4939327109365
 20
117.2534742965758
 30
0.0
 11
174.493932710937
 21
112.4175759117135
 31
0.0
  0
LINE
  5
7896
330
18
100
AcDbEntity
  8
0
100
AcDbLine
 10
183.393932710937
 20
115.1534742965758
 30
0.0
 11
176.493932710937
 21
115.1534742965758
 31
0.0
  0
LINE
  5
7897
330
18
100
AcDbEntity
  8
0
100
AcDbLine
 10
176.493932710937
 20
116.0034742965758
 30
0.0
 11
176.493932710937
 21
115.1534742965758
 31
0.0
  0
LINE
  5
7898
330
18
100
AcDbEntity
  8
0
100
AcDbLine
 10
176.493932710937
 20
116.1534742965758
 30
0.0
 11
176.493932710937
 21
116.0034742965758
 31
0.0
  0
LINE
  5
789A
330
18
100
AcDbEntity
  8
0
100
AcDbLine
 10
183.393932710937
 20
115.7534742965758
 30
0.0
 11
183.393932710937
 21
115.1534742965758
 31
0.0
  0
LINE
  5
789B
330
18
100
AcDbEntity
  8
0
100
AcDbLine
 10
183.393932710937
 20
115.1534742965758
 30
0.0
 11
183.393932710937
 21
112.6534742965758
 31
0.0
  0
LINE
  5
789C
330
18
100
AcDbEntity
  8
0
100
AcDbLine
 10
176.493932710937
 20
116.1534742965758
 30
0.0
 11
176.493932710937
 21
119.7534742965758
 31
0.0
  0
LINE
  5
78AA
330
18
100
AcDbEntity
  8
0
100
AcDbLine
 10
176.493932710937
 20
119.9034742965758
 30
0.0
 11
176.493932710937
 21
120.7534742965758
 31
0.0
  0
LINE
  5
78AB
330
18
100
AcDbEntity
  8
0
100
AcDbLine
 10
176.493932710937
 20
119.7534742965758
 30
0.0
 11
176.493932710937
 21
119.9034742965758
 31
0.0
  0
LINE
  5
78C6
330
18
100
AcDbEntity
  8
0
100
AcDbLine
 10
174.4939327109365
 20
117.2534742965758
 30
0.0
 11
174.193932710937
 21
117.2534742965757
 31
0.0
  0
LINE
  5
78C7
330
18
100
AcDbEntity
  8
0
100
AcDbLine
 10
175.093932710937
 20
118.2534742965758
 30
0.0
 11
174.3939327109371
 21
118.2534742965758
 31
0.0
  0
LINE
  5
78C8
330
18
100
AcDbEntity
  8
0
100
AcDbLine
 10
176.1121396421754
 20
122.0534742965758
 30
0.0
 11
175.093932710937
 21
118.2534742965758
 31
0.0
  0
LINE
  5
78C9
330
18
100
AcDbEntity
  8
0
100
AcDbLine
 10
175.893932710937
 20
122.0534742965758
 30
0.0
 11
176.1121396421754
 21
122.0534742965758
 31
0.0
  0
LINE
  5
78CB
330
18
100
AcDbEntity
  8
0
100
AcDbLine
 10
175.893932710937
 20
122.3534742965757
 30
0.0
 11
175.893932710937
 21
122.0534742965758
 31
0.0
  0
LINE
  5
78CE
330
18
100
AcDbEntity
  8
0
100
AcDbLine
 10
176.193932710937
 20
122.6534742965758
 30
0.0
 11
176.4939327109371
 21
122.6534742965758
 31
0.0
  0
LINE
  5
78CF
330
18
100
AcDbEntity
  8
0
100
AcDbLine
 10
173.893932710937
 20
117.5534742965758
 30
0.0
 11
173.893932710937
 21
117.7534742965759
 31
0.0
  0
LINE
  5
78D0
330
18
100
AcDbEntity
  8
0
100
AcDbLine
 10
182.493932710937
 20
111.5534742965758
 30
0.0
 11
182.493932710937
 21
112.3534742965758
 31
0.0
  0
LINE
  5
78D1
330
18
100
AcDbEntity
  8
0
100
AcDbLine
 10
174.4939327109372
 20
111.5534742965758
 30
0.0
 11
182.493932710937
 21
111.5534742965758
 31
0.0
  0
LINE
  5
78D2
330
18
100
AcDbEntity
  8
0
100
AcDbLine
 10
174.493932710937
 20
112.4175759117135
 30
0.0
 11
174.4939327109372
 21
111.5534742965758
 31
0.0
  0
ARC
  5
78D3
330
18
100
AcDbEntity
  8
0
100
AcDbCircle
 10
183.093932710937
 20
112.6534742965758
 30
0.0
 40
0.2999999999999901
100
AcDbArc
 50
270.0
 51
0.0
  0
ARC
  5
78D6
330
18
100
AcDbEntity
  8
0
100
AcDbCircle
 10
176.193932710937
 20
122.3534742965757
 30
0.0
 40
0.3000000000000007
100
AcDbArc
 50
90.0
 51
180.0
  0
ARC
  5
78D7
330
18
100
AcDbEntity
  8
0
100
AcDbCircle
 10
174.393932710937
 20
117.7534742965758
 30
0.0
 40
0.5
100
AcDbArc
 50
90.0
 51
179.9999999999869
  0
ARC
  5
78D8
330
18
100
AcDbEntity
  8
0
100
AcDbCircle
 10
174.193932710937
 20
117.5534742965758
 30
0.0
 40
0.2999999999999901
100
AcDbArc
 50
180.0
 51
270.0
  0
LINE
  5
7918
330
18
100
AcDbEntity
  8
0
100
AcDbLine
 10
33.96408272010591
 20
415.8846644818066
 30
0.0
 11
33.96408272010566
 21
394.8846644818065
 31
0.0
  0
TEXT
  5
794A
330
18
100
AcDbEntity
  8
0
100
AcDbText
 10
360.731482519087
 20
33.41291034417007
 30
0.0
 40
6.0
  1
ＮＣＲ－＊Ａ＊＊Ａ３＊－２６２＊
 41
0.6
  7
MSｺﾞｼｯｸ
100
AcDbText
  0
TEXT
  5
794B
330
18
100
AcDbEntity
  8
0
100
AcDbText
 10
330.7399499023498
 20
13.89790874788479
 30
0.0
 40
6.0
  1
VC外形図(AC400V仕様)　CC-Link付
  7
MSｺﾞｼｯｸ
100
AcDbText
  0
TEXT
  5
794C
330
18
100
AcDbEntity
  8
0
100
AcDbText
 10
373.9585081164958
 20
2.540001980037679
 30
0.0
 40
7.0
  1
ＳＥ－３４２２０Ｄ
 41
0.9529999999999999
  7
MSｺﾞｼｯｸ
100
AcDbText
  0
TEXT
  5
794D
330
18
100
AcDbEntity
  8
0
100
AcDbText
 10
350.5410642569485
 20
24.32574124313315
 30
0.0
 40
6.0
  1
＋　ＮＣＲ－ＸＡＢ７Ｄ１＊－２６２
 41
0.6
  7
MSｺﾞｼｯｸ
100
AcDbText
  0
VIEWPORT
  5
79B8
330
79B4
100
AcDbEntity
 67
     1
  8
0
100
AcDbViewport
 10
202.4999999999999
 20
128.4999999999999
 30
0.0
 40
486.0
 41
308.3999999999999
 68
     1
 69
     1
 12
202.4999999999999
 22
128.4999999999999
 13
0.0
 23
0.0
 14
0.5
 24
0.5
 15
0.0
 25
0.0
 16
0.0
 26
0.0
 36
1.0
 17
0.0
 27
0.0
 37
0.0
 42
50.0
 43
0.0
 44
0.0
 45
308.3999999999999
 50
0.0
 51
0.0
 72
   100
 90
    32864
  1

281
     0
 71
     1
 74
     0
110
0.0
120
0.0
130
0.0
111
1.0
121
0.0
131
0.0
112
0.0
122
1.0
132
0.0
 79
     0
146
0.0
  0
VIEWPORT
  5
79B9
330
79B4
100
AcDbEntity
 67
     1
  8
0
100
AcDbViewport
 10
202.4999999999999
 20
128.4999999999999
 30
0.0
 40
324.0
 41
205.6
 68
     2
 69
     2
 12
210.0
 22
148.5
 13
0.0
 23
0.0
 14
0.5
 24
0.5
 15
0.0
 25
0.0
 16
0.0
 26
0.0
 36
1.0
 17
0.0
 27
0.0
 37
0.0
 42
50.0
 43
0.0
 44
0.0
 45
302.9399999999999
 50
0.0
 51
0.0
 72
   100
341
E
 90
    32864
  1

281
     0
 71
     1
 74
     0
110
0.0
120
0.0
130
0.0
111
1.0
121
0.0
131
0.0
112
0.0
122
1.0
132
0.0
 79
     0
146
0.0
  0
ENDSEC
  0
SECTION
  2
OBJECTS
  0
DICTIONARY
  5
C
330
0
100
AcDbDictionary
281
     1
  3
ACAD_GROUP
350
D
  3
ACAD_IMAGE_VARS
350
79A9
  3
ACAD_LAYOUT
350
73F
  3
ACAD_MLINESTYLE
350
1B
  3
ACAD_PLOTSETTINGS
350
740
  3
ACAD_PLOTSTYLENAME
350
73D
  3
ACAD_SCALELIST
350
797D
  3
AcadDim
350
6DBD
  3
APPDATA
350
79A7
  3
DWGPROPS
350
79BC
  0
DICTIONARY
  5
D
102
{ACAD_REACTORS
330
C
102
}
330
C
100
AcDbDictionary
281
     1
  0
RASTERVARIABLES
  5
79A9
102
{ACAD_REACTORS
330
C
102
}
330
C
100
AcDbRasterVariables
 90
        0
 70
     1
 71
     1
 72
     0
  0
DICTIONARY
  5
73F
102
{ACAD_REACTORS
330
C
102
}
330
C
100
AcDbDictionary
281
     1
  3
Model
350
741
  3
Sheet1
350
79B5
  0
DICTIONARY
  5
1B
102
{ACAD_REACTORS
330
C
102
}
330
C
100
AcDbDictionary
281
     1
  3
STANDARD
350
1C
  0
DICTIONARY
  5
740
102
{ACAD_REACTORS
330
C
102
}
330
C
100
AcDbDictionary
281
     1
  0
ACDBDICTIONARYWDFLT
  5
73D
102
{ACAD_REACTORS
330
C
102
}
330
C
100
AcDbDictionary
281
     1
  3
Normal
350
73E
100
AcDbDictionaryWithDefault
340
73E
  0
DICTIONARY
  5
797D
102
{ACAD_REACTORS
330
C
102
}
330
C
100
AcDbDictionary
281
     1
  3
A0
350
797E
  3
A1
350
797F
  3
A2
350
7980
  3
A3
350
7981
  3
A4
350
7982
  3
A5
350
7983
  3
A6
350
7984
  3
A7
350
7985
  3
A8
350
7986
  3
A9
350
7987
  3
B0
350
7988
  3
B1
350
7989
  3
B2
350
798A
  3
B3
350
798B
  3
B4
350
798C
  3
B5
350
798D
  3
B6
350
798E
  3
B7
350
798F
  3
B8
350
7990
  3
B9
350
7991
  3
C0
350
7992
  3
C1
350
7993
  3
C2
350
7994
  3
C3
350
7995
  3
C4
350
7996
  3
C5
350
7997
  3
C6
350
7998
  3
C7
350
7999
  3
C8
350
799A
  3
C9
350
799B
  3
D0
350
799C
  3
D1
350
799D
  3
D2
350
799E
  0
XRECORD
  5
6DBD
102
{ACAD_REACTORS
330
C
102
}
330
C
100
AcDbXrecord
280
     1
 90
   990106
  3

 60
     0
 61
     0
 62
     1
 63
     3
 64
     0
 65
     0
 66
     0
 67
     3
 68
     1
 69
     0
 70
     0
 71
     0
 72
     0
 40
0.0
170
     0
  0
DICTIONARY
  5
79A7
102
{ACAD_REACTORS
330
C
102
}
330
C
100
AcDbDictionary
281
     1
  0
XRECORD
  5
79BC
102
{ACAD_REACTORS
330
C
102
}
330
C
100
AcDbXrecord
280
     1
  1
DWGPROPS COOKIE
  2

  3

  4

  6

  7

  8
k-yoshida
  9

300
=
301
=
302
=
303
=
304
=
305
=
306
=
307
=
308
=
309
=
 40
0.0
 41
2451224.285162384
 42
2457315.12416471
  1

 90
        0
  0
LAYOUT
  5
741
102
{ACAD_REACTORS
330
73F
102
}
330
73F
100
AcDbPlotSettings
  1

  2
HP DesignJet 750C (D/A1) Color
  4
ISO_A3_(420.00_x_297.00_MM)
  6

 40
7.5
 41
20.0
 42
7.5
 43
20.0
 44
420.0
 45
297.0
 46
0.0
 47
0.0
 48
0.0
 49
0.0
140
0.0
141
0.0
142
1.0
143
1.956911996042332
 70
  1712
 72
     1
 73
     0
 74
     0
  7

 75
     0
147
0.5110091828464462
148
51.98259492683473
149
6.544957860236564
100
AcDbLayout
  1
Model
 70
     1
 71
     0
 10
0.0
 20
0.0
 11
12.0
 21
9.0
 12
0.0
 22
0.0
 32
0.0
 14
1.000000000000000E+20
 24
1.000000000000000E+20
 34
1.000000000000000E+20
 15
-1.000000000000000E+20
 25
-1.000000000000000E+20
 35
-1.000000000000000E+20
146
0.0
 13
0.0
 23
0.0
 33
0.0
 16
1.0
 26
0.0
 36
0.0
 17
0.0
 27
1.0
 37
0.0
 76
     0
330
18
  0
LAYOUT
  5
79B5
102
{ACAD_REACTORS
330
73F
102
}
330
73F
100
AcDbPlotSettings
  1

  2
none_device
  4
ISO_A3_(420.00_x_297.00_MM)
  6

 40
7.5
 41
20.0
 42
7.5
 43
20.0
 44
420.0
 45
297.0
 46
0.0
 47
0.0
 48
0.0
 49
0.0
140
0.0
141
0.0
142
1.0
143
1.0
 70
   688
 72
     1
 73
     0
 74
     5
  7

 75
    16
147
1.0
148
0.0
149
0.0
100
AcDbLayout
  1
Sheet1
 70
     1
 71
     1
 10
0.0
 20
0.0
 11
0.0
 21
0.0
 12
0.0
 22
0.0
 32
0.0
 14
40.49999999999999
 24
25.69999999999998
 34
0.0
 15
364.5
 25
231.3
 35
0.0
146
0.0
 13
0.0
 23
0.0
 33
0.0
 16
1.0
 26
0.0
 36
0.0
 17
0.0
 27
1.0
 37
0.0
 76
     0
330
79B4
331
79B8
  0
MLINESTYLE
  5
1C
102
{ACAD_REACTORS
330
1B
102
}
330
1B
100
AcDbMlineStyle
  2
STANDARD
 70
     0
  3

 62
   256
 51
90.0
 52
90.0
 71
     2
 49
0.5
 62
   256
  6
BYLAYER
 49
-0.5
 62
   256
  6
BYLAYER
  0
ACDBPLACEHOLDER
  5
73E
102
{ACAD_REACTORS
330
73D
102
}
330
73D
  0
ACAD_PROXY_OBJECT
  5
797E
102
{ACAD_REACTORS
330
797D
102
}
330
797D
100
AcDbProxyObject
 90
      499
 91
      506
 95
   655383
 70
     0
 93
       41
310
903313A31581
 94
        0
  0
ACAD_PROXY_OBJECT
  5
797F
102
{ACAD_REACTORS
330
797D
102
}
330
797D
100
AcDbProxyObject
 90
      499
 91
      506
 95
   655383
 70
     0
 93
      105
310
903313A324000000000000004000
 94
        0
  0
ACAD_PROXY_OBJECT
  5
7980
102
{ACAD_REACTORS
330
797D
102
}
330
797D
100
AcDbProxyObject
 90
      499
 91
      506
 95
   655383
 70
     0
 93
      105
310
903313A344000000000000104000
 94
        0
  0
ACAD_PROXY_OBJECT
  5
7981
102
{ACAD_REACTORS
330
797D
102
}
330
797D
100
AcDbProxyObject
 90
      499
 91
      506
 95
   655383
 70
     0
 93
      105
310
903313A354000000000000144000
 94
        0
  0
ACAD_PROXY_OBJECT
  5
7982
102
{ACAD_REACTORS
330
797D
102
}
330
797D
100
AcDbProxyObject
 90
      499
 91
      506
 95
   655383
 70
     0
 93
      105
310
903313A384000000000000204000
 94
        0
  0
ACAD_PROXY_OBJECT
  5
7983
102
{ACAD_REACTORS
330
797D
102
}
330
797D
100
AcDbProxyObject
 90
      499
 91
      506
 95
   655383
 70
     0
 93
      113
310
904313A31304000000000000244005
 94
        0
  0
ACAD_PROXY_OBJECT
  5
7984
102
{ACAD_REACTORS
330
797D
102
}
330
797D
100
AcDbProxyObject
 90
      499
 91
      506
 95
   655383
 70
     0
 93
      113
310
904313A31364000000000000304005
 94
        0
  0
ACAD_PROXY_OBJECT
  5
7985
102
{ACAD_REACTORS
330
797D
102
}
330
797D
100
AcDbProxyObject
 90
      499
 91
      506
 95
   655383
 70
     0
 93
      113
310
904313A32304000000000000344005
 94
        0
  0
ACAD_PROXY_OBJECT
  5
7986
102
{ACAD_REACTORS
330
797D
102
}
330
797D
100
AcDbProxyObject
 90
      499
 91
      506
 95
   655383
 70
     0
 93
      113
310
904313A333040000000000003E4005
 94
        0
  0
ACAD_PROXY_OBJECT
  5
7987
102
{ACAD_REACTORS
330
797D
102
}
330
797D
100
AcDbProxyObject
 90
      499
 91
      506
 95
   655383
 70
     0
 93
      113
310
904313A34304000000000000444005
 94
        0
  0
ACAD_PROXY_OBJECT
  5
7988
102
{ACAD_REACTORS
330
797D
102
}
330
797D
100
AcDbProxyObject
 90
      499
 91
      506
 95
   655383
 70
     0
 93
      113
310
904313A35304000000000000494005
 94
        0
  0
ACAD_PROXY_OBJECT
  5
7989
102
{ACAD_REACTORS
330
797D
102
}
330
797D
100
AcDbProxyObject
 90
      499
 91
      506
 95
   655383
 70
     0
 93
      121
310
905313A3130304000000000000594000
 94
        0
  0
ACAD_PROXY_OBJECT
  5
798A
102
{ACAD_REACTORS
330
797D
102
}
330
797D
100
AcDbProxyObject
 90
      499
 91
      506
 95
   655383
 70
     0
 93
      105
310
903323A310000000000000010159
 94
        0
  0
ACAD_PROXY_OBJECT
  5
798B
102
{ACAD_REACTORS
330
797D
102
}
330
797D
100
AcDbProxyObject
 90
      499
 91
      506
 95
   655383
 70
     0
 93
      105
310
903343A310000000000000410159
 94
        0
  0
ACAD_PROXY_OBJECT
  5
798C
102
{ACAD_REACTORS
330
797D
102
}
330
797D
100
AcDbProxyObject
 90
      499
 91
      506
 95
   655383
 70
     0
 93
      105
310
903383A310000000000000810159
 94
        0
  0
ACAD_PROXY_OBJECT
  5
798D
102
{ACAD_REACTORS
330
797D
102
}
330
797D
100
AcDbProxyObject
 90
      499
 91
      506
 95
   655383
 70
     0
 93
      113
310
90431303A310000000000000910140
 94
        0
  0
ACAD_PROXY_OBJECT
  5
798E
102
{ACAD_REACTORS
330
797D
102
}
330
797D
100
AcDbProxyObject
 90
      499
 91
      506
 95
   655383
 70
     0
 93
      121
310
9053130303A310000000000001650100
 94
        0
  0
ACAD_PROXY_OBJECT
  5
798F
102
{ACAD_REACTORS
330
797D
102
}
330
797D
100
AcDbProxyObject
 90
      499
 91
      506
 95
   655383
 70
     0
 93
      257
310
90E312F31323822203D2031272D3022000000000000200FC000000000000284000
 94
        0
  0
ACAD_PROXY_OBJECT
  5
7990
102
{ACAD_REACTORS
330
797D
102
}
330
797D
100
AcDbProxyObject
 90
      499
 91
      506
 95
   655383
 70
     0
 93
      249
310
90D312F363422203D2031272D3022000000000000240FC000000000000284040
 94
        0
  0
ACAD_PROXY_OBJECT
  5
7991
102
{ACAD_REACTORS
330
797D
102
}
330
797D
100
AcDbProxyObject
 90
      499
 91
      506
 95
   655383
 70
     0
 93
      249
310
90D312F333222203D2031272D3022000000000000280FC000000000000284040
 94
        0
  0
ACAD_PROXY_OBJECT
  5
7992
102
{ACAD_REACTORS
330
797D
102
}
330
797D
100
AcDbProxyObject
 90
      499
 91
      506
 95
   655383
 70
     0
 93
      249
310
90D312F313622203D2031272D30220000000000002C0FC000000000000284040
 94
        0
  0
ACAD_PROXY_OBJECT
  5
7993
102
{ACAD_REACTORS
330
797D
102
}
330
797D
100
AcDbProxyObject
 90
      499
 91
      506
 95
   655383
 70
     0
 93
      249
310
90D332F333222203D2031272D30220000000000002E0FC000000000000284040
 94
        0
  0
ACAD_PROXY_OBJECT
  5
7994
102
{ACAD_REACTORS
330
797D
102
}
330
797D
100
AcDbProxyObject
 90
      499
 91
      506
 95
   655383
 70
     0
 93
      241
310
90C312F3822203D2031272D3022000000000000300FC000000000000284040
 94
        0
  0
ACAD_PROXY_OBJECT
  5
7995
102
{ACAD_REACTORS
330
797D
102
}
330
797D
100
AcDbProxyObject
 90
      499
 91
      506
 95
   655383
 70
     0
 93
      249
310
90D332F313622203D2031272D3022000000000000320FC000000000000284040
 94
        0
  0
ACAD_PROXY_OBJECT
  5
7996
102
{ACAD_REACTORS
330
797D
102
}
330
797D
100
AcDbProxyObject
 90
      499
 91
      506
 95
   655383
 70
     0
 93
      241
310
90C312F3422203D2031272D3022000000000000340FC000000000000284040
 94
        0
  0
ACAD_PROXY_OBJECT
  5
7997
102
{ACAD_REACTORS
330
797D
102
}
330
797D
100
AcDbProxyObject
 90
      499
 91
      506
 95
   655383
 70
     0
 93
      241
310
90C332F3822203D2031272D3022000000000000360FC000000000000284040
 94
        0
  0
ACAD_PROXY_OBJECT
  5
7998
102
{ACAD_REACTORS
330
797D
102
}
330
797D
100
AcDbProxyObject
 90
      499
 91
      506
 95
   655383
 70
     0
 93
      241
310
90C312F3222203D2031272D3022000000000000380FC000000000000284040
 94
        0
  0
ACAD_PROXY_OBJECT
  5
7999
102
{ACAD_REACTORS
330
797D
102
}
330
797D
100
AcDbProxyObject
 90
      499
 91
      506
 95
   655383
 70
     0
 93
      241
310
90C332F3422203D2031272D30220000000000003A0FC000000000000284040
 94
        0
  0
ACAD_PROXY_OBJECT
  5
799A
102
{ACAD_REACTORS
330
797D
102
}
330
797D
100
AcDbProxyObject
 90
      499
 91
      506
 95
   655383
 70
     0
 93
      161
310
90A3122203D2031272D30224000000000000284020
 94
        0
  0
ACAD_PROXY_OBJECT
  5
799B
102
{ACAD_REACTORS
330
797D
102
}
330
797D
100
AcDbProxyObject
 90
      499
 91
      506
 95
   655383
 70
     0
 93
      257
310
90E312D312F3222203D2031272D30220000000000003E0FC000000000000284000
 94
        0
  0
ACAD_PROXY_OBJECT
  5
799C
102
{ACAD_REACTORS
330
797D
102
}
330
797D
100
AcDbProxyObject
 90
      499
 91
      506
 95
   655383
 70
     0
 93
      225
310
90A3322203D2031272D302200000000000002100000000000000284000
 94
        0
  0
ACAD_PROXY_OBJECT
  5
799D
102
{ACAD_REACTORS
330
797D
102
}
330
797D
100
AcDbProxyObject
 90
      499
 91
      506
 95
   655383
 70
     0
 93
      225
310
90A3622203D2031272D302200000000000006100000000000000284000
 94
        0
  0
ACAD_PROXY_OBJECT
  5
799E
102
{ACAD_REACTORS
330
797D
102
}
330
797D
100
AcDbProxyObject
 90
      499
 91
      506
 95
   655383
 70
     0
 93
      249
310
90D31272D3022203D2031272D30220000000000000A100000000000000284040
 94
        0
  0
ENDSEC
  0
EOF
